  0
SECTION
  2
HEADER
  9
$ACADVER
  1
AC1015
  9
$ACADMAINTVER
 70
    20
  9
$DWGCODEPAGE
  3
ANSI_932
  9
$INSBASE
 10
0.0
 20
0.0
 30
0.0
  9
$EXTMIN
 10
9.9999975266385
 20
10.0
 30
0.0
  9
$EXTMAX
 10
779.9161601607067
 20
677.4131409735006
 30
0.0
  9
$LIMMIN
 10
0.0000015376081137
 20
-0.0000001931532552
  9
$LIMMAX
 10
1042.000001537608
 20
718.3484846553312
  9
$ORTHOMODE
 70
     1
  9
$REGENMODE
 70
     1
  9
$FILLMODE
 70
     1
  9
$QTEXTMODE
 70
     0
  9
$MIRRTEXT
 70
     1
  9
$LTSCALE
 40
1.0
  9
$ATTMODE
 70
     1
  9
$TEXTSIZE
 40
2.5
  9
$TRACEWID
 40
1.0
  9
$TEXTSTYLE
  7
STANDARD
  9
$CLAYER
  8
0
  9
$CELTYPE
  6
BYLAYER
  9
$CECOLOR
 62
   256
  9
$CELTSCALE
 40
1.0
  9
$DISPSILH
 70
     0
  9
$DIMSCALE
 40
1.0
  9
$DIMASZ
 40
3.0
  9
$DIMEXO
 40
1.0
  9
$DIMDLI
 40
10.0
  9
$DIMRND
 40
0.0
  9
$DIMDLE
 40
0.0
  9
$DIMEXE
 40
1.0
  9
$DIMTP
 40
0.0
  9
$DIMTM
 40
0.0
  9
$DIMTXT
 40
3.2
  9
$DIMCEN
 40
0.0
  9
$DIMTSZ
 40
0.0
  9
$DIMTOL
 70
     0
  9
$DIMLIM
 70
     0
  9
$DIMTIH
 70
     0
  9
$DIMTOH
 70
     0
  9
$DIMSE1
 70
     0
  9
$DIMSE2
 70
     0
  9
$DIMTAD
 70
     3
  9
$DIMZIN
 70
     8
  9
$DIMBLK
  1

  9
$DIMASO
 70
     1
  9
$DIMSHO
 70
     1
  9
$DIMPOST
  1

  9
$DIMAPOST
  1

  9
$DIMALT
 70
     0
  9
$DIMALTD
 70
     2
  9
$DIMALTF
 40
25.4
  9
$DIMLFAC
 40
1.0
  9
$DIMTOFL
 70
     1
  9
$DIMTVP
 40
0.0
  9
$DIMTIX
 70
     0
  9
$DIMSOXD
 70
     0
  9
$DIMSAH
 70
     1
  9
$DIMBLK1
  1
OPEN
  9
$DIMBLK2
  1
OPEN
  9
$DIMSTYLE
  2
STANDARD
  9
$DIMCLRD
 70
     0
  9
$DIMCLRE
 70
     0
  9
$DIMCLRT
 70
     0
  9
$DIMTFAC
 40
1.0
  9
$DIMGAP
 40
1.0
  9
$DIMJUST
 70
     0
  9
$DIMSD1
 70
     0
  9
$DIMSD2
 70
     0
  9
$DIMTOLJ
 70
     1
  9
$DIMTZIN
 70
     0
  9
$DIMALTZ
 70
     0
  9
$DIMALTTZ
 70
     0
  9
$DIMUPT
 70
     0
  9
$DIMDEC
 70
     3
  9
$DIMTDEC
 70
     3
  9
$DIMALTU
 70
     2
  9
$DIMALTTD
 70
     2
  9
$DIMTXSTY
  7
STANDARD
  9
$DIMAUNIT
 70
     0
  9
$DIMADEC
 70
     0
  9
$DIMALTRND
 40
0.0
  9
$DIMAZIN
 70
     0
  9
$DIMDSEP
 70
    46
  9
$DIMATFIT
 70
     3
  9
$DIMFRAC
 70
     0
  9
$DIMLDRBLK
  1
OPEN
  9
$DIMLUNIT
 70
     2
  9
$DIMLWD
 70
    -2
  9
$DIMLWE
 70
    -2
  9
$DIMTMOVE
 70
     0
  9
$LUNITS
 70
     2
  9
$LUPREC
 70
     4
  9
$SKETCHINC
 40
1.0
  9
$FILLETRAD
 40
0.0
  9
$AUNITS
 70
     0
  9
$AUPREC
 70
     0
  9
$MENU
  1
.
  9
$ELEVATION
 40
0.0
  9
$PELEVATION
 40
0.0
  9
$THICKNESS
 40
0.0
  9
$LIMCHECK
 70
     0
  9
$CHAMFERA
 40
10.0
  9
$CHAMFERB
 40
10.0
  9
$CHAMFERC
 40
20.0
  9
$CHAMFERD
 40
0.0
  9
$SKPOLY
 70
     0
  9
$TDCREATE
 40
2454526.717009005
  9
$TDUCREATE
 40
2454526.342009005
  9
$TDUPDATE
 40
2457192.688793970
  9
$TDUUPDATE
 40
2457192.313793970
  9
$TDINDWG
 40
0.1594793634
  9
$TDUSRTIMER
 40
0.1594793519
  9
$USRTIMER
 70
     1
  9
$ANGBASE
 50
0.0
  9
$ANGDIR
 70
     0
  9
$PDMODE
 70
     0
  9
$PDSIZE
 40
0.0
  9
$PLINEWID
 40
0.0
  9
$SPLFRAME
 70
     0
  9
$SPLINETYPE
 70
     6
  9
$SPLINESEGS
 70
     8
  9
$HANDSEED
  5
5171
  9
$SURFTAB1
 70
     6
  9
$SURFTAB2
 70
     6
  9
$SURFTYPE
 70
     6
  9
$SURFU
 70
     6
  9
$SURFV
 70
     6
  9
$UCSBASE
  2

  9
$UCSNAME
  2

  9
$UCSORG
 10
0.0
 20
0.0
 30
0.0
  9
$UCSXDIR
 10
1.0
 20
0.0
 30
0.0
  9
$UCSYDIR
 10
0.0
 20
1.0
 30
0.0
  9
$UCSORTHOREF
  2

  9
$UCSORTHOVIEW
 70
     0
  9
$UCSORGTOP
 10
0.0
 20
0.0
 30
0.0
  9
$UCSORGBOTTOM
 10
0.0
 20
0.0
 30
0.0
  9
$UCSORGLEFT
 10
0.0
 20
0.0
 30
0.0
  9
$UCSORGRIGHT
 10
0.0
 20
0.0
 30
0.0
  9
$UCSORGFRONT
 10
0.0
 20
0.0
 30
0.0
  9
$UCSORGBACK
 10
0.0
 20
0.0
 30
0.0
  9
$PUCSBASE
  2

  9
$PUCSNAME
  2

  9
$PUCSORG
 10
0.0
 20
0.0
 30
0.0
  9
$PUCSXDIR
 10
1.0
 20
0.0
 30
0.0
  9
$PUCSYDIR
 10
0.0
 20
1.0
 30
0.0
  9
$PUCSORTHOREF
  2

  9
$PUCSORTHOVIEW
 70
     0
  9
$PUCSORGTOP
 10
0.0
 20
0.0
 30
0.0
  9
$PUCSORGBOTTOM
 10
0.0
 20
0.0
 30
0.0
  9
$PUCSORGLEFT
 10
0.0
 20
0.0
 30
0.0
  9
$PUCSORGRIGHT
 10
0.0
 20
0.0
 30
0.0
  9
$PUCSORGFRONT
 10
0.0
 20
0.0
 30
0.0
  9
$PUCSORGBACK
 10
0.0
 20
0.0
 30
0.0
  9
$USERI1
 70
     0
  9
$USERI2
 70
     0
  9
$USERI3
 70
     0
  9
$USERI4
 70
     0
  9
$USERI5
 70
     0
  9
$USERR1
 40
0.0
  9
$USERR2
 40
0.0
  9
$USERR3
 40
0.0
  9
$USERR4
 40
0.0
  9
$USERR5
 40
0.0
  9
$WORLDVIEW
 70
     1
  9
$SHADEDGE
 70
     3
  9
$SHADEDIF
 70
    70
  9
$TILEMODE
 70
     1
  9
$MAXACTVP
 70
    48
  9
$PINSBASE
 10
0.0
 20
0.0
 30
0.0
  9
$PLIMCHECK
 70
     0
  9
$PEXTMIN
 10
1.000000000000000E+20
 20
1.000000000000000E+20
 30
1.000000000000000E+20
  9
$PEXTMAX
 10
-1.000000000000000E+20
 20
-1.000000000000000E+20
 30
-1.000000000000000E+20
  9
$PLIMMIN
 10
0.0
 20
0.0
  9
$PLIMMAX
 10
420.0
 20
297.0
  9
$UNITMODE
 70
     0
  9
$VISRETAIN
 70
     1
  9
$PLINEGEN
 70
     0
  9
$PSLTSCALE
 70
     1
  9
$TREEDEPTH
 70
  3020
  9
$CMLSTYLE
  2
STANDARD
  9
$CMLJUST
 70
     0
  9
$CMLSCALE
 40
20.0
  9
$PROXYGRAPHICS
 70
     1
  9
$MEASUREMENT
 70
     0
  9
$CELWEIGHT
370
    -1
  9
$ENDCAPS
280
     0
  9
$JOINSTYLE
280
     0
  9
$LWDISPLAY
290
     0
  9
$INSUNITS
 70
     0
  9
$HYPERLINKBASE
  1

  9
$STYLESHEET
  1

  9
$XEDIT
290
     1
  9
$CEPSNTYPE
380
     0
  9
$PSTYLEMODE
290
     1
  9
$FINGERPRINTGUID
  2
{B93243BB-7152-435B-93DF-91FEE4ACFB54}
  9
$VERSIONGUID
  2
{F310C16A-2FD0-40F1-8B6D-8DC1DF778D08}
  9
$EXTNAMES
290
     1
  9
$PSVPSCALE
 40
0.0
  9
$OLESTARTUP
290
     0
  0
ENDSEC
  0
SECTION
  2
CLASSES
  0
CLASS
  1
ACDBDICTIONARYWDFLT
  2
AcDbDictionaryWithDefault
  3
ObjectDBX Classes
 90
        0
280
     0
281
     0
  0
CLASS
  1
ACDBPLACEHOLDER
  2
AcDbPlaceHolder
  3
ObjectDBX Classes
 90
        0
280
     0
281
     0
  0
CLASS
  1
LAYOUT
  2
AcDbLayout
  3
ObjectDBX Classes
 90
        0
280
     0
281
     0
  0
CLASS
  1
DICTIONARYVAR
  2
AcDbDictionaryVar
  3
ObjectDBX Classes
 90
        0
280
     0
281
     0
  0
CLASS
  1
MATERIAL
  2
AcDbMaterial
  3
ObjectDBX Classes
 90
     1153
280
     0
281
     0
  0
CLASS
  1
VISUALSTYLE
  2
AcDbVisualStyle
  3
ObjectDBX Classes
 90
     4095
280
     0
281
     0
  0
CLASS
  1
TABLESTYLE
  2
AcDbTableStyle
  3
ObjectDBX Classes
 90
     4095
280
     0
281
     0
  0
CLASS
  1
SCALE
  2
AcDbScale
  3
ObjectDBX Classes
 90
     1153
280
     0
281
     0
  0
CLASS
  1
MLEADERSTYLE
  2
AcDbMLeaderStyle
  3
ACDB_MLEADERSTYLE_CLASS
 90
     4095
280
     0
281
     0
  0
CLASS
  1
ACDBSECTIONVIEWSTYLE
  2
AcDbSectionViewStyle
  3
ObjectDBX Classes
 90
     1025
280
     0
281
     0
  0
CLASS
  1
ACDBDETAILVIEWSTYLE
  2
AcDbDetailViewStyle
  3
ObjectDBX Classes
 90
     1025
280
     0
281
     0
  0
CLASS
  1
CELLSTYLEMAP
  2
AcDbCellStyleMap
  3
ObjectDBX Classes
 90
     1152
280
     0
281
     0
  0
ENDSEC
  0
SECTION
  2
TABLES
  0
TABLE
  2
VPORT
  5
8
330
0
100
AcDbSymbolTable
 70
     1
  0
VPORT
  5
50BB
330
8
100
AcDbSymbolTableRecord
100
AcDbViewportTableRecord
  2
*ACTIVE
 70
     0
 10
0.0
 20
0.0
 11
1.0
 21
1.0
 12
651.8670489197904
 22
343.6916505804171
 13
0.0
 23
0.0
 14
10.0
 24
10.0
 15
10.0
 25
10.0
 16
0.0
 26
0.0
 36
1.0
 17
0.0
 27
0.0
 37
0.0
 40
672.7474520115297
 41
2.35006605019815
 42
50.0
 43
0.0
 44
0.0
 50
0.0
 51
0.0
 71
     0
 72
   100
 73
     1
 74
     0
 75
     0
 76
     0
 77
     0
 78
     0
281
     0
 65
     1
110
0.0
120
0.0
130
0.0
111
1.0
121
0.0
131
0.0
112
0.0
122
1.0
132
0.0
 79
     0
146
0.0
1001
ACAD_NAV_VCDISPLAY
1070
     3
  0
ENDTAB
  0
TABLE
  2
LTYPE
  5
5
330
0
100
AcDbSymbolTable
 70
     4
  0
LTYPE
  5
12
330
5
100
AcDbSymbolTableRecord
100
AcDbLinetypeTableRecord
  2
BYBLOCK
 70
     0
  3

 72
    65
 73
     0
 40
0.0
  0
LTYPE
  5
13
330
5
100
AcDbSymbolTableRecord
100
AcDbLinetypeTableRecord
  2
BYLAYER
 70
     0
  3

 72
    65
 73
     0
 40
0.0
  0
LTYPE
  5
14
330
5
100
AcDbSymbolTableRecord
100
AcDbLinetypeTableRecord
  2
CONTINUOUS
 70
     0
  3
Solid line
 72
    65
 73
     0
 40
0.0
  0
LTYPE
  5
4B
330
5
100
AcDbSymbolTableRecord
100
AcDbLinetypeTableRecord
  2
DASHED
 70
     0
  3
Dashed __ __ __ __ __ __ __ __ __ __ __ __ __ _
 72
    65
 73
     2
 40
19.04999999999999
 49
12.7
 74
     0
 49
-6.349999999999998
 74
     0
  0
LTYPE
  5
4C
330
5
100
AcDbSymbolTableRecord
100
AcDbLinetypeTableRecord
  2
CENTER
 70
     0
  3
Center ____ _ ____ _ ____ _ ____ _ ____ _ ____
 72
    65
 73
     4
 40
50.8
 49
31.75
 74
     0
 49
-6.349999999999998
 74
     0
 49
6.349999999999998
 74
     0
 49
-6.349999999999998
 74
     0
  0
LTYPE
  5
4D
330
5
100
AcDbSymbolTableRecord
100
AcDbLinetypeTableRecord
  2
PHANTOM
 70
     0
  3
Phantom ______  __  __  ______  __  __  ______
 72
    65
 73
     6
 40
63.5
 49
31.75
 74
     0
 49
-6.349999999999998
 74
     0
 49
6.349999999999998
 74
     0
 49
-6.349999999999998
 74
     0
 49
6.349999999999998
 74
     0
 49
-6.349999999999998
 74
     0
  0
ENDTAB
  0
TABLE
  2
LAYER
  5
2
330
0
100
AcDbSymbolTable
 70
     8
  0
LAYER
  5
E
102
{ACAD_XDICTIONARY
360
5115
102
}
330
2
100
AcDbSymbolTableRecord
100
AcDbLayerTableRecord
  2
0
 70
     0
 62
     7
  6
CONTINUOUS
370
    -3
390
50C4
  0
LAYER
  5
4E
102
{ACAD_XDICTIONARY
360
5117
102
}
330
2
100
AcDbSymbolTableRecord
100
AcDbLayerTableRecord
  2
4
 70
     0
 62
     1
  6
CENTER
370
    -3
390
50C4
  0
LAYER
  5
4F
102
{ACAD_XDICTIONARY
360
5119
102
}
330
2
100
AcDbSymbolTableRecord
100
AcDbLayerTableRecord
  2
5
 70
     0
 62
     6
  6
PHANTOM
370
    -3
390
50C4
  0
LAYER
  5
50
102
{ACAD_XDICTIONARY
360
511B
102
}
330
2
100
AcDbSymbolTableRecord
100
AcDbLayerTableRecord
  2
1
 70
     0
 62
     7
  6
CONTINUOUS
370
    -3
390
50C4
  0
LAYER
  5
51
102
{ACAD_XDICTIONARY
360
511D
102
}
330
2
100
AcDbSymbolTableRecord
100
AcDbLayerTableRecord
  2
2
 70
     0
 62
     4
  6
CONTINUOUS
370
    -3
390
50C4
  0
LAYER
  5
52
102
{ACAD_XDICTIONARY
360
511F
102
}
330
2
100
AcDbSymbolTableRecord
100
AcDbLayerTableRecord
  2
3
 70
     0
 62
     2
  6
DASHED
370
    -3
390
50C4
  0
LAYER
  5
53
102
{ACAD_XDICTIONARY
360
5121
102
}
330
2
100
AcDbSymbolTableRecord
100
AcDbLayerTableRecord
  2
6
 70
     0
 62
     5
  6
CONTINUOUS
370
    -3
390
50C4
  0
LAYER
  5
54
102
{ACAD_XDICTIONARY
360
5123
102
}
330
2
100
AcDbSymbolTableRecord
100
AcDbLayerTableRecord
  2
7
 70
     0
 62
     3
  6
CONTINUOUS
370
    -3
390
50C4
  0
ENDTAB
  0
TABLE
  2
STYLE
  5
3
330
0
100
AcDbSymbolTable
 70
     1
  0
STYLE
  5
F
330
3
100
AcDbSymbolTableRecord
100
AcDbTextStyleTableRecord
  2
STANDARD
 70
     0
 40
0.0
 41
1.0
 50
0.0
 71
     0
 42
2.5
  3
simplex.shx
  4

  0
ENDTAB
  0
TABLE
  2
VIEW
  5
6
330
0
100
AcDbSymbolTable
 70
     0
  0
ENDTAB
  0
TABLE
  2
UCS
  5
7
330
0
100
AcDbSymbolTable
 70
     0
  0
ENDTAB
  0
TABLE
  2
APPID
  5
9
330
0
100
AcDbSymbolTable
 70
     5
  0
APPID
  5
10
330
9
100
AcDbSymbolTableRecord
100
AcDbRegAppTableRecord
  2
ACAD
 70
     0
  0
APPID
  5
3E
330
9
100
AcDbSymbolTableRecord
100
AcDbRegAppTableRecord
  2
CONTENTTABDATA
 70
     0
  0
APPID
  5
3F
330
9
100
AcDbSymbolTableRecord
100
AcDbRegAppTableRecord
  2
CONTENTCURRENTTAB
 70
     0
  0
APPID
  5
512F
330
9
100
AcDbSymbolTableRecord
100
AcDbRegAppTableRecord
  2
ACAD_NAV_VCDISPLAY
 70
     0
  0
APPID
  5
5168
330
9
100
AcDbSymbolTableRecord
100
AcDbRegAppTableRecord
  2
ACAD_MLEADERVER
 70
     0
  0
ENDTAB
  0
TABLE
  2
DIMSTYLE
  5
A
330
0
100
AcDbSymbolTable
 70
     1
100
AcDbDimStyleTable
 71
     0
  0
DIMSTYLE
105
1D
330
A
100
AcDbSymbolTableRecord
100
AcDbDimStyleTableRecord
  2
STANDARD
 70
     0
 41
3.0
 42
1.0
 43
10.0
 44
1.0
 73
     0
 74
     0
 77
     3
 78
     8
140
3.2
141
0.0
147
1.0
172
     1
173
     1
271
     3
272
     3
340
F
341
2E
343
2E
344
2E
  0
ENDTAB
  0
TABLE
  2
BLOCK_RECORD
  5
1
330
0
100
AcDbSymbolTable
 70
     1
  0
BLOCK_RECORD
  5
18
102
{ACAD_XDICTIONARY
360
50BE
102
}
330
1
100
AcDbSymbolTableRecord
100
AcDbBlockTableRecord
  2
*MODEL_SPACE
340
5112
  0
BLOCK_RECORD
  5
15
102
{ACAD_XDICTIONARY
360
50BC
102
}
330
1
100
AcDbSymbolTableRecord
100
AcDbBlockTableRecord
  2
*PAPER_SPACE
340
5113
  0
BLOCK_RECORD
  5
2E
330
1
100
AcDbSymbolTableRecord
100
AcDbBlockTableRecord
  2
_OPEN
340
0
  0
ENDTAB
  0
ENDSEC
  0
SECTION
  2
BLOCKS
  0
BLOCK
  5
19
330
18
100
AcDbEntity
  8
0
100
AcDbBlockBegin
  2
*MODEL_SPACE
 70
     0
 10
0.0
 20
0.0
 30
0.0
  3
*MODEL_SPACE
  1

  0
ENDBLK
  5
1A
330
18
100
AcDbEntity
  8
0
100
AcDbBlockEnd
  0
BLOCK
  5
16
330
15
100
AcDbEntity
 67
     1
  8
0
100
AcDbBlockBegin
  2
*PAPER_SPACE
 70
     0
 10
0.0
 20
0.0
 30
0.0
  3
*PAPER_SPACE
  1

  0
ENDBLK
  5
17
330
15
100
AcDbEntity
 67
     1
  8
0
100
AcDbBlockEnd
  0
BLOCK
  5
2F
330
2E
100
AcDbEntity
  8
0
100
AcDbBlockBegin
  2
_OPEN
 70
     0
 10
0.0
 20
0.0
 30
0.0
  3
_OPEN
  1

  0
LINE
  5
30
330
2E
100
AcDbEntity
  8
0
  6
ByBlock
 62
     0
100
AcDbLine
 10
-1.0
 20
0.1666666666666666
 30
0.0
 11
0.0
 21
0.0
 31
0.0
  0
LINE
  5
31
330
2E
100
AcDbEntity
  8
0
  6
ByBlock
 62
     0
100
AcDbLine
 10
0.0
 20
0.0
 30
0.0
 11
-1.0
 21
-0.1666666666666666
 31
0.0
  0
LINE
  5
32
330
2E
100
AcDbEntity
  8
0
  6
ByBlock
 62
     0
100
AcDbLine
 10
0.0
 20
0.0
 30
0.0
 11
-1.0
 21
0.0
 31
0.0
  0
ENDBLK
  5
33
330
2E
100
AcDbEntity
  8
0
100
AcDbBlockEnd
  0
ENDSEC
  0
SECTION
  2
ENTITIES
  0
TEXT
  5
63
330
18
100
AcDbEntity
  8
4
  6
CENTER
 48
0.25
100
AcDbText
 10
23.97950852663849
 20
10.0
 30
0.0
 40
1.399999999999999
  1
4
100
AcDbText
  0
TEXT
  5
64
330
18
100
AcDbEntity
  8
7
  6
Continuous
 48
0.25
100
AcDbText
 10
9.999997526638502
 20
26.0000007607689
 30
0.0
 40
3.0
  1
CODE No.9836
100
AcDbText
  0
TEXT
  5
65
330
18
100
AcDbEntity
  8
7
  6
Continuous
 48
0.25
100
AcDbText
 10
9.999997526638502
 20
18.00000076076889
 30
0.0
 40
3.0
  1
TYPE No.609X-N
100
AcDbText
  0
TEXT
  5
66
330
18
100
AcDbEntity
  8
1
  6
Continuous
 48
0.25
100
AcDbText
 10
9.999997526638502
 20
10.00000076076889
 30
0.0
 40
1.399999999999999
  1
LAYER
100
AcDbText
  0
TEXT
  5
67
330
18
100
AcDbEntity
  8
2
  6
Continuous
 48
0.25
100
AcDbText
 10
19.9795085266385
 20
10.0
 30
0.0
 40
1.399999999999999
  1
2
100
AcDbText
  0
TEXT
  5
68
330
18
100
AcDbEntity
  8
3
  6
DASHED
 48
0.25
100
AcDbText
 10
21.9795085266385
 20
10.0
 30
0.0
 40
1.399999999999999
  1
3
100
AcDbText
  0
TEXT
  5
69
330
18
100
AcDbEntity
  8
1
  6
Continuous
 48
0.25
100
AcDbText
 10
17.9795085266385
 20
10.0
 30
0.0
 40
1.399999999999999
  1
1
100
AcDbText
  0
TEXT
  5
6A
330
18
100
AcDbEntity
  8
5
  6
PHANTOM
 48
0.25
100
AcDbText
 10
25.9795085266385
 20
10.0
 30
0.0
 40
1.399999999999999
  1
5
100
AcDbText
  0
TEXT
  5
6B
330
18
100
AcDbEntity
  8
6
  6
Continuous
 48
0.25
100
AcDbText
 10
27.9795085266385
 20
10.0
 30
0.0
 40
1.399999999999999
  1
6
100
AcDbText
  0
TEXT
  5
6C
330
18
100
AcDbEntity
  8
7
  6
Continuous
 48
0.25
100
AcDbText
 10
29.9795085266385
 20
10.0
 30
0.0
 40
1.399999999999999
  1
7
100
AcDbText
  0
LINE
  5
4190
330
18
100
AcDbEntity
  8
1
  6
Continuous
100
AcDbLine
 10
232.7665579919949
 20
448.9206317923136
 30
0.0
 11
232.7665579919949
 21
420.9698897923138
 31
0.0
  0
LINE
  5
4191
330
18
100
AcDbEntity
  8
1
  6
Continuous
100
AcDbLine
 10
328.3753809919951
 20
448.9206317923136
 30
0.0
 11
328.3753809919951
 21
420.9698897923138
 31
0.0
  0
LINE
  5
4192
330
18
100
AcDbEntity
  8
1
  6
Continuous
100
AcDbLine
 10
249.5709689919949
 20
448.9543657923138
 30
0.0
 11
249.5709689919949
 21
400.2873277923137
 31
0.0
  0
LINE
  5
4193
330
18
100
AcDbEntity
  8
1
  6
Continuous
100
AcDbLine
 10
330.0709689919949
 20
448.9543657923138
 30
0.0
 11
330.0709689919949
 21
420.9543657923139
 31
0.0
  0
LINE
  5
4194
330
18
100
AcDbEntity
  8
1
  6
Continuous
100
AcDbLine
 10
231.0709689919949
 20
448.9543657923138
 30
0.0
 11
231.0709689919949
 21
420.9543657923139
 31
0.0
  0
LINE
  5
4195
330
18
100
AcDbEntity
  8
1
  6
Continuous
100
AcDbLine
 10
311.5709689919949
 20
448.9543657923138
 30
0.0
 11
311.5709689919949
 21
400.2873277923137
 31
0.0
  0
LINE
  5
4196
330
18
100
AcDbEntity
  8
4
  6
CENTER
 48
0.7
100
AcDbLine
 10
280.5709689919949
 20
479.4543657923139
 30
0.0
 11
280.5709689919949
 21
245.9543657923138
 31
0.0
  0
ARC
  5
4197
330
18
100
AcDbEntity
  8
1
  6
Continuous
100
AcDbCircle
 10
280.5709689919949
 20
327.9543657923138
 30
0.0
 40
23.0
100
AcDbArc
 50
186.2185900000006
 51
353.7814099999993
  0
ARC
  5
4198
330
18
100
AcDbEntity
  8
1
  6
Continuous
100
AcDbCircle
 10
280.5709689919949
 20
327.9543657923138
 30
0.0
 40
75.0
100
AcDbArc
 50
114.0770530000022
 51
65.92294699999773
  0
ARC
  5
4199
330
18
100
AcDbEntity
  8
1
  6
Continuous
100
AcDbCircle
 10
280.5709689919949
 20
327.9543657923138
 30
0.0
 40
24.0
100
AcDbArc
 50
169.6207479999995
 51
10.37925200000048
  0
ARC
  5
419A
330
18
100
AcDbEntity
  8
1
  6
Continuous
100
AcDbCircle
 10
280.5709689919949
 20
327.9543657923138
 30
0.0
 40
33.0
100
AcDbArc
 50
214.7811820000017
 51
253.2188180000011
  0
LINE
  5
419B
330
18
100
AcDbEntity
  8
1
  6
Continuous
100
AcDbLine
 10
258.968737991995
 20
282.1552067923138
 30
0.0
 11
268.997434991995
 21
293.9082187923138
 31
0.0
  0
ARC
  5
419C
330
18
100
AcDbEntity
  8
1
  6
Continuous
100
AcDbCircle
 10
270.1771439919951
 20
293.4874477923137
 30
0.0
 40
3.0
100
AcDbArc
 50
73.21881800000124
 51
139.9999999999997
  0
ARC
  5
419D
330
18
100
AcDbEntity
  8
1
  6
Continuous
100
AcDbCircle
 10
280.5709689919949
 20
327.9543657923138
 30
0.0
 40
56.50122099999999
100
AcDbArc
 50
249.5378109999998
 51
290.4621890000001
  0
ARC
  5
419E
330
18
100
AcDbEntity
  8
1
  6
Continuous
100
AcDbCircle
 10
280.5709689919949
 20
327.9543657923138
 30
0.0
 40
58.0
100
AcDbArc
 50
249.3070369999979
 51
290.692963000002
  0
LINE
  5
41AF
330
18
100
AcDbEntity
  8
4
  6
CENTER
 48
0.7
100
AcDbLine
 10
198.5709689919949
 20
327.9543657923138
 30
0.0
 11
362.5709689919948
 21
327.9543657923138
 31
0.0
  0
CIRCLE
  5
41B0
330
18
100
AcDbEntity
  8
1
  6
Continuous
100
AcDbCircle
 10
280.5709689919949
 20
327.9543657923138
 30
0.0
 40
12.0
  0
LINE
  5
41B1
330
18
100
AcDbEntity
  8
1
  6
Continuous
100
AcDbLine
 10
257.706303991995
 20
325.4629617923137
 30
0.0
 11
249.588621991995
 21
399.9623617923139
 31
0.0
  0
ARC
  5
41B2
330
18
100
AcDbEntity
  8
1
  6
Continuous
100
AcDbCircle
 10
280.5709689919949
 20
327.9543657923138
 30
0.0
 40
33.0
100
AcDbArc
 50
142.7811820000021
 51
181.2188179999998
  0
LINE
  5
41B3
330
18
100
AcDbEntity
  8
1
  6
Continuous
100
AcDbLine
 10
245.7029339919949
 20
329.9701687923138
 30
0.0
 11
213.7020359919949
 21
342.8993707923138
 31
0.0
  0
ARC
  5
41B4
330
18
100
AcDbEntity
  8
1
  6
Continuous
100
AcDbCircle
 10
228.617756991995
 20
330.1883427923137
 30
0.0
 40
4.5
100
AcDbArc
 50
67.52629200000036
 51
177.5378109999993
  0
ARC
  5
41B5
330
18
100
AcDbEntity
  8
1
  6
Continuous
100
AcDbCircle
 10
228.628394991995
 20
330.3975217923138
 30
0.0
 40
6.0
100
AcDbArc
 50
67.99999999999889
 51
177.3070369999997
  0
LINE
  5
41B6
330
18
100
AcDbEntity
  8
1
  6
Continuous
100
AcDbLine
 10
230.337923991995
 20
334.3465897923138
 30
0.0
 11
244.6147409919949
 21
328.4406127923138
 31
0.0
  0
LINE
  5
41B7
330
18
100
AcDbEntity
  8
1
  6
Continuous
100
AcDbLine
 10
267.879010991995
 20
295.4158107923138
 30
0.0
 11
245.693787991995
 21
268.9764907923138
 31
0.0
  0
LINE
  5
41B8
330
18
100
AcDbEntity
  8
1
  6
Continuous
100
AcDbLine
 10
253.546995991995
 20
305.8286297923137
 30
0.0
 11
235.257318991995
 21
276.5590297923138
 31
0.0
  0
LINE
  5
41B9
330
18
100
AcDbEntity
  8
1
  6
Continuous
100
AcDbLine
 10
243.989439991995
 20
290.8889477923137
 30
0.0
 11
235.2362639919949
 21
276.6198927923137
 31
0.0
  0
ARC
  5
41BA
330
18
100
AcDbEntity
  8
1
  6
Continuous
100
AcDbCircle
 10
236.953414991995
 20
275.4991907923137
 30
0.0
 40
2.0
100
AcDbArc
 50
147.9999999999989
 51
230.2557819999988
  0
ARC
  5
41BB
330
18
100
AcDbEntity
  8
1
  6
Continuous
100
AcDbCircle
 10
236.9904939919949
 20
275.5437817923137
 30
0.0
 40
2.057993
100
AcDbArc
 50
148.4734800000006
 51
230.2557819999988
  0
LINE
  5
41BC
330
18
100
AcDbEntity
  8
1
  6
Continuous
100
AcDbLine
 10
245.758178991995
 20
268.9752747923138
 30
0.0
 11
256.623976991995
 21
281.7094197923138
 31
0.0
  0
ARC
  5
41BD
330
18
100
AcDbEntity
  8
1
  6
Continuous
100
AcDbCircle
 10
244.161698991995
 20
270.2620667923138
 30
0.0
 40
2.0
100
AcDbArc
 50
237.7442180000002
 51
319.9999999999997
  0
ARC
  5
41BE
330
18
100
AcDbEntity
  8
1
  6
Continuous
100
AcDbCircle
 10
244.192649991995
 20
270.3111097923137
 30
0.0
 40
2.057993
100
AcDbArc
 50
237.7442180000002
 51
319.5265199999983
  0
ARC
  5
41BF
330
18
100
AcDbEntity
  8
1
  6
Continuous
100
AcDbCircle
 10
262.196251991995
 20
279.3090187923137
 30
0.0
 40
6.0
100
AcDbArc
 50
139.9999999999997
 51
249.3070369999979
  0
ARC
  5
41C0
330
18
100
AcDbEntity
  8
1
  6
Continuous
100
AcDbCircle
 10
262.391905991995
 20
279.2342607923137
 30
0.0
 40
4.5
100
AcDbArc
 50
139.5262920000004
 51
249.5378109999998
  0
ARC
  5
41C1
330
18
100
AcDbEntity
  8
1
  6
Continuous
100
AcDbCircle
 10
255.102563991995
 20
283.0076117923137
 30
0.0
 40
2.0
100
AcDbArc
 50
319.5265199999983
 51
332.4628180000004
  0
ARC
  5
41C2
330
18
100
AcDbEntity
  8
1
  6
Continuous
100
AcDbCircle
 10
239.9845949919949
 20
295.4467317923138
 30
0.0
 40
6.0
100
AcDbArc
 50
218.6929629999992
 51
327.9999999999989
  0
ARC
  5
41C3
330
18
100
AcDbEntity
  8
1
  6
Continuous
100
AcDbCircle
 10
280.5709689919949
 20
327.9543657923138
 30
0.0
 40
56.50122099999999
100
AcDbArc
 50
177.5378109999993
 51
218.4621890000002
  0
ARC
  5
41C4
330
18
100
AcDbEntity
  8
1
  6
Continuous
100
AcDbCircle
 10
280.5709689919949
 20
327.9543657923138
 30
0.0
 40
58.0
100
AcDbArc
 50
177.3070369999997
 51
218.6929629999992
  0
ARC
  5
41C5
330
18
100
AcDbEntity
  8
1
  6
Continuous
100
AcDbCircle
 10
251.002850991995
 20
307.4183877923137
 30
0.0
 40
3.0
100
AcDbArc
 50
327.9999999999989
 51
34.7811820000017
  0
ARC
  5
41C6
330
18
100
AcDbEntity
  8
1
  6
Continuous
100
AcDbCircle
 10
280.5709689919949
 20
327.9543657923138
 30
0.0
 40
34.851433
100
AcDbArc
 50
181.8682429999995
 51
214.1317570000017
  0
LINE
  5
41C7
330
18
100
AcDbEntity
  8
1
  6
Continuous
100
AcDbLine
 10
243.6888369919949
 20
293.2567047923138
 30
0.0
 11
251.767578991995
 21
306.4264427923137
 31
0.0
  0
ARC
  5
41C8
330
18
100
AcDbEntity
  8
1
  6
Continuous
100
AcDbCircle
 10
245.6942369919949
 20
289.8431617923138
 30
0.0
 40
2.0
100
AcDbArc
 50
135.5371820000019
 51
148.4734800000006
  0
ARC
  5
41C9
330
18
100
AcDbEntity
  8
1
  6
Continuous
100
AcDbCircle
 10
239.853035991995
 20
295.6097087923137
 30
0.0
 40
4.5
100
AcDbArc
 50
218.4621890000002
 51
328.4737079999988
  0
ARC
  5
41CA
330
18
100
AcDbEntity
  8
1
  6
Continuous
100
AcDbCircle
 10
250.216209991995
 20
307.3781017923138
 30
0.0
 40
1.82
100
AcDbArc
 50
328.4737079999988
 51
34.13175700000175
  0
ARC
  5
41CB
330
18
100
AcDbEntity
  8
1
  6
Continuous
100
AcDbCircle
 10
280.5709689919949
 20
327.9543657923138
 30
0.0
 40
33.0
100
AcDbArc
 50
177.8266199999993
 51
214.7811820000017
  0
ARC
  5
41CC
330
18
100
AcDbEntity
  8
1
  6
Continuous
100
AcDbCircle
 10
243.9190289919949
 20
326.7588327923137
 30
0.0
 40
1.82
100
AcDbArc
 50
1.868242999999606
 51
67.52629200000036
  0
ARC
  5
41CD
330
18
100
AcDbEntity
  8
1
  6
Continuous
100
AcDbCircle
 10
244.5791139919949
 20
327.1886167923138
 30
0.0
 40
3.0
100
AcDbArc
 50
1.218817999999872
 51
67.99999999999889
  0
ARC
  5
41CE
330
18
100
AcDbEntity
  8
1
  6
Continuous
100
AcDbCircle
 10
280.5709689919949
 20
327.9543657923138
 30
0.0
 40
58.0
100
AcDbArc
 50
119.5813760000012
 51
146.6929629999999
  0
LINE
  5
41CF
330
18
100
AcDbEntity
  8
1
  6
Continuous
100
AcDbLine
 10
251.1772769919951
 20
346.8184637923138
 30
0.0
 11
217.688411991995
 21
355.1681757923138
 31
0.0
  0
ARC
  5
41D0
330
18
100
AcDbEntity
  8
1
  6
Continuous
100
AcDbCircle
 10
237.226838991995
 20
356.6843727923137
 30
0.0
 40
4.5
100
AcDbArc
 50
146.4621889999991
 51
256.4737079999975
  0
ARC
  5
41D1
330
18
100
AcDbEntity
  8
1
  6
Continuous
100
AcDbCircle
 10
280.5709689919949
 20
327.9543657923138
 30
0.0
 40
56.50122099999999
100
AcDbArc
 50
120.239552
 51
146.4621889999991
  0
ARC
  5
41D2
330
18
100
AcDbEntity
  8
1
  6
Continuous
100
AcDbCircle
 10
217.2045679919949
 20
353.2275837923137
 30
0.0
 40
2.0
100
AcDbArc
 50
75.99999999999731
 51
158.2557820000014
  0
ARC
  5
41D3
330
18
100
AcDbEntity
  8
1
  6
Continuous
100
AcDbCircle
 10
217.258434991995
 20
353.2060997923139
 30
0.0
 40
2.057993
100
AcDbArc
 50
76.47347999999695
 51
158.2557820000014
  0
LINE
  5
41D4
330
18
100
AcDbEntity
  8
1
  6
Continuous
100
AcDbLine
 10
234.0153479919949
 20
351.2916237923137
 30
0.0
 11
217.739789991995
 21
355.2070077923137
 31
0.0
  0
ARC
  5
41D5
330
18
100
AcDbEntity
  8
1
  6
Continuous
100
AcDbCircle
 10
237.112492991995
 20
356.5088897923137
 30
0.0
 40
6.0
100
AcDbArc
 50
146.6929629999999
 51
255.9999999999972
  0
LINE
  5
41D6
330
18
100
AcDbEntity
  8
1
  6
Continuous
100
AcDbLine
 10
213.7207759919949
 20
342.8377557923138
 30
0.0
 11
229.1893849919949
 21
336.4388347923138
 31
0.0
  0
ARC
  5
41D7
330
18
100
AcDbEntity
  8
1
  6
Continuous
100
AcDbCircle
 10
214.451248991995
 20
344.7537387923139
 30
0.0
 40
2.0
100
AcDbArc
 50
165.7442179999988
 51
247.9999999999988
  0
ARC
  5
41D8
330
18
100
AcDbEntity
  8
1
  6
Continuous
100
AcDbCircle
 10
214.507455991995
 20
344.7394577923138
 30
0.0
 40
2.057993
100
AcDbArc
 50
165.7442179999988
 51
247.5265200000006
  0
ARC
  5
41D9
330
18
100
AcDbEntity
  8
1
  6
Continuous
100
AcDbCircle
 10
229.953895991995
 20
338.2869477923138
 30
0.0
 40
2.0
100
AcDbArc
 50
247.5265200000006
 51
260.4628179999979
  0
ARC
  5
41DA
330
18
100
AcDbEntity
  8
1
  6
Continuous
100
AcDbCircle
 10
233.547556991995
 20
349.3470997923137
 30
0.0
 40
2.0
100
AcDbArc
 50
63.53718200000226
 51
76.47347999999695
  0
ARC
  5
41DB
330
18
100
AcDbEntity
  8
1
  6
Continuous
100
AcDbCircle
 10
251.621642991995
 20
350.4650417923137
 30
0.0
 40
1.82
100
AcDbArc
 50
256.4737079999975
 51
322.1317570000002
  0
ARC
  5
41DC
330
18
100
AcDbEntity
  8
1
  6
Continuous
100
AcDbCircle
 10
251.903042991995
 20
349.7293507923137
 30
0.0
 40
3.0
100
AcDbArc
 50
255.9999999999972
 51
322.7811820000022
  0
LINE
  5
41DD
330
18
100
AcDbEntity
  8
1
  6
Continuous
100
AcDbLine
 10
236.174326991995
 20
352.3091907923137
 30
0.0
 11
251.1959609919949
 21
348.6955237923138
 31
0.0
  0
ARC
  5
41DE
330
18
100
AcDbEntity
  8
1
  6
Continuous
100
AcDbCircle
 10
280.5709689919949
 20
327.9543657923138
 30
0.0
 40
33.0
100
AcDbArc
 50
140.4029750000006
 51
142.7811820000021
  0
ARC
  5
41DF
330
18
100
AcDbEntity
  8
1
  6
Continuous
100
AcDbCircle
 10
280.5709689919949
 20
327.9543657923138
 30
0.0
 40
34.851433
100
AcDbArc
 50
137.5142039999983
 51
142.1317570000002
  0
LINE
  5
41E1
330
18
100
AcDbEntity
  8
1
  6
Continuous
100
AcDbLine
 10
237.352868991995
 20
417.9543657923138
 30
0.0
 11
234.0709689919949
 21
417.9543657923138
 31
0.0
  0
ARC
  5
41E2
330
18
100
AcDbEntity
  8
1
  6
Continuous
100
AcDbCircle
 10
235.782081991995
 20
420.9698897923138
 30
0.0
 40
3.015524
100
AcDbArc
 50
180.0
 51
270.0
  0
ARC
  5
41E3
330
18
100
AcDbEntity
  8
1
  6
Continuous
100
AcDbCircle
 10
234.0709689919949
 20
420.9543657923139
 30
0.0
 40
3.0
100
AcDbArc
 50
180.0
 51
270.0
  0
ARC
  5
41E4
330
18
100
AcDbEntity
  8
1
  6
Continuous
100
AcDbCircle
 10
252.5709689919949
 20
400.2873277923137
 30
0.0
 40
3.0
100
AcDbArc
 50
180.0
 51
186.2185900000006
  0
ARC
  5
41E9
330
18
100
AcDbEntity
  8
1
  6
Continuous
100
AcDbCircle
 10
217.184997991995
 20
386.1826467923137
 30
0.0
 40
38.40284899999999
100
AcDbArc
 50
37.98616700000037
 51
47.54299600000112
  0
ARC
  5
41EA
330
18
100
AcDbEntity
  8
1
  6
Continuous
100
AcDbCircle
 10
239.5709689919949
 20
403.6637827923136
 30
0.0
 40
10.0
100
AcDbArc
 50
0.0
 51
37.98616700000037
  0
ARC
  5
41EB
330
18
100
AcDbEntity
  8
1
  6
Continuous
100
AcDbCircle
 10
226.632209991995
 20
396.5080157923139
 30
0.0
 40
24.407741
100
AcDbArc
 50
47.54299600000112
 51
57.18614300000104
  0
ARC
  5
41EC
330
18
100
AcDbEntity
  8
1
  6
Continuous
100
AcDbCircle
 10
236.024607991995
 20
411.0744267923138
 30
0.0
 40
7.075761999999999
100
AcDbArc
 50
57.18614300000104
 51
73.22678100000157
  0
ARC
  5
41ED
330
18
100
AcDbEntity
  8
1
  6
Continuous
100
AcDbCircle
 10
237.352868991995
 20
415.4812827923136
 30
0.0
 40
2.473083
100
AcDbArc
 50
73.22678100000157
 51
90.0
  0
LINE
  5
41F1
330
18
100
AcDbEntity
  8
1
  6
Continuous
100
AcDbLine
 10
303.435633991995
 20
325.4629617923137
 30
0.0
 11
311.553316991995
 21
399.9623617923139
 31
0.0
  0
ARC
  5
41F2
330
18
100
AcDbEntity
  8
1
  6
Continuous
100
AcDbCircle
 10
280.5709689919949
 20
327.9543657923138
 30
0.0
 40
33.0
100
AcDbArc
 50
358.7811820000002
 51
37.21881799999785
  0
LINE
  5
41F3
330
18
100
AcDbEntity
  8
1
  6
Continuous
100
AcDbLine
 10
315.439004991995
 20
329.9701687923138
 30
0.0
 11
347.439902991995
 21
342.8993707923138
 31
0.0
  0
ARC
  5
41F4
330
18
100
AcDbEntity
  8
1
  6
Continuous
100
AcDbCircle
 10
332.5241819919948
 20
330.1883427923137
 30
0.0
 40
4.5
100
AcDbArc
 50
2.46218900000069
 51
112.4737079999996
  0
ARC
  5
41F5
330
18
100
AcDbEntity
  8
1
  6
Continuous
100
AcDbCircle
 10
332.5135429919949
 20
330.3975217923138
 30
0.0
 40
6.0
100
AcDbArc
 50
2.692963000000283
 51
112.0000000000011
  0
LINE
  5
41F6
330
18
100
AcDbEntity
  8
1
  6
Continuous
100
AcDbLine
 10
330.804013991995
 20
334.3465897923138
 30
0.0
 11
316.5271969919948
 21
328.4406127923138
 31
0.0
  0
LINE
  5
41F9
330
18
100
AcDbEntity
  8
1
  6
Continuous
100
AcDbLine
 10
280.5709689919949
 20
333.7278687923137
 30
0.0
 11
275.5709689919949
 21
330.8411167923138
 31
0.0
  0
LINE
  5
41FA
330
18
100
AcDbEntity
  8
1
  6
Continuous
100
AcDbLine
 10
285.5709689919948
 20
330.8411167923138
 30
0.0
 11
280.5709689919949
 21
333.7278687923137
 31
0.0
  0
CIRCLE
  5
41FB
330
18
100
AcDbEntity
  8
1
  6
Continuous
100
AcDbCircle
 10
280.5709689919949
 20
327.9543657923138
 30
0.0
 40
11.5
  0
ARC
  5
41FC
330
18
100
AcDbEntity
  8
1
  6
Continuous
100
AcDbCircle
 10
280.5709689919949
 20
327.9543657923138
 30
0.0
 40
56.50122099999999
100
AcDbArc
 50
321.5378109999996
 51
2.46218900000069
  0
ARC
  5
41FD
330
18
100
AcDbEntity
  8
1
  6
Continuous
100
AcDbCircle
 10
280.5709689919949
 20
327.9543657923138
 30
0.0
 40
58.0
100
AcDbArc
 50
321.3070370000007
 51
2.692963000000283
  0
LINE
  5
41FE
330
18
100
AcDbEntity
  8
1
  6
Continuous
100
AcDbLine
 10
307.594942991995
 20
305.8286297923137
 30
0.0
 11
325.884618991995
 21
276.5590297923138
 31
0.0
  0
LINE
  5
41FF
330
18
100
AcDbEntity
  8
1
  6
Continuous
100
AcDbLine
 10
293.262926991995
 20
295.4158107923138
 30
0.0
 11
315.448150991995
 21
268.9764907923138
 31
0.0
  0
LINE
  5
4200
330
18
100
AcDbEntity
  8
1
  6
Continuous
100
AcDbLine
 10
325.905673991995
 20
276.6198927923137
 30
0.0
 11
317.152497991995
 21
290.8889477923137
 31
0.0
  0
LINE
  5
4201
330
18
100
AcDbEntity
  8
1
  6
Continuous
100
AcDbLine
 10
302.173200991995
 20
282.1552067923138
 30
0.0
 11
292.144502991995
 21
293.9082187923138
 31
0.0
  0
ARC
  5
4202
330
18
100
AcDbEntity
  8
1
  6
Continuous
100
AcDbCircle
 10
298.7500329919949
 20
279.2342607923137
 30
0.0
 40
4.5
100
AcDbArc
 50
290.4621890000001
 51
40.47370799999958
  0
ARC
  5
4203
330
18
100
AcDbEntity
  8
1
  6
Continuous
100
AcDbCircle
 10
298.9456869919949
 20
279.3090187923137
 30
0.0
 40
6.0
100
AcDbArc
 50
290.692963000002
 51
40.00000000000024
  0
LINE
  5
4204
330
18
100
AcDbEntity
  8
1
  6
Continuous
100
AcDbLine
 10
304.5179619919949
 20
281.7094197923138
 30
0.0
 11
315.383759991995
 21
268.9752747923138
 31
0.0
  0
ARC
  5
4205
330
18
100
AcDbEntity
  8
1
  6
Continuous
100
AcDbCircle
 10
316.980239991995
 20
270.2620667923138
 30
0.0
 40
2.0
100
AcDbArc
 50
220.0000000000002
 51
302.2557819999997
  0
ARC
  5
4206
330
18
100
AcDbEntity
  8
1
  6
Continuous
100
AcDbCircle
 10
316.949288991995
 20
270.3111097923137
 30
0.0
 40
2.057993
100
AcDbArc
 50
220.4734800000016
 51
302.2557819999997
  0
ARC
  5
4207
330
18
100
AcDbEntity
  8
1
  6
Continuous
100
AcDbCircle
 10
306.039374991995
 20
283.0076117923137
 30
0.0
 40
2.0
100
AcDbArc
 50
207.5371819999995
 51
220.4734800000016
  0
ARC
  5
4208
330
18
100
AcDbEntity
  8
1
  6
Continuous
100
AcDbCircle
 10
324.188522991995
 20
275.4991907923137
 30
0.0
 40
2.0
100
AcDbArc
 50
309.7442180000011
 51
32.00000000000104
  0
ARC
  5
4209
330
18
100
AcDbEntity
  8
1
  6
Continuous
100
AcDbCircle
 10
324.151443991995
 20
275.5437817923137
 30
0.0
 40
2.057993
100
AcDbArc
 50
309.7442180000011
 51
31.52651999999937
  0
ARC
  5
420A
330
18
100
AcDbEntity
  8
1
  6
Continuous
100
AcDbCircle
 10
280.5709689919949
 20
327.9543657923138
 30
0.0
 40
33.0
100
AcDbArc
 50
286.7811819999987
 51
325.2188179999983
  0
ARC
  5
420B
330
18
100
AcDbEntity
  8
1
  6
Continuous
100
AcDbCircle
 10
280.5709689919949
 20
327.9543657923138
 30
0.0
 40
33.0
100
AcDbArc
 50
253.2188180000011
 51
286.7811819999987
  0
ARC
  5
420C
330
18
100
AcDbEntity
  8
1
  6
Continuous
100
AcDbCircle
 10
280.5709689919949
 20
327.9543657923138
 30
0.0
 40
34.851433
100
AcDbArc
 50
253.8682429999977
 51
286.1317570000021
  0
ARC
  5
420D
330
18
100
AcDbEntity
  8
1
  6
Continuous
100
AcDbCircle
 10
270.381915991995
 20
292.7268587923137
 30
0.0
 40
1.82
100
AcDbArc
 50
73.86824299999775
 51
139.5262920000004
  0
ARC
  5
420E
330
18
100
AcDbEntity
  8
1
  6
Continuous
100
AcDbCircle
 10
290.760021991995
 20
292.7268587923137
 30
0.0
 40
1.82
100
AcDbArc
 50
40.47370799999958
 51
106.1317570000022
  0
ARC
  5
420F
330
18
100
AcDbEntity
  8
1
  6
Continuous
100
AcDbCircle
 10
290.964793991995
 20
293.4874477923137
 30
0.0
 40
3.0
100
AcDbArc
 50
40.00000000000024
 51
106.7811819999987
  0
LINE
  5
4210
330
18
100
AcDbEntity
  8
1
  6
Continuous
100
AcDbLine
 10
285.5709689919948
 20
325.0676137923137
 30
0.0
 11
280.5709689919949
 21
322.1808627923137
 31
0.0
  0
LINE
  5
4211
330
18
100
AcDbEntity
  8
1
  6
Continuous
100
AcDbLine
 10
280.5709689919949
 20
322.1808627923137
 30
0.0
 11
275.5709689919949
 21
325.0676137923137
 31
0.0
  0
LINE
  5
4212
330
18
100
AcDbEntity
  8
1
  6
Continuous
100
AcDbLine
 10
275.5709689919949
 20
325.0676137923137
 30
0.0
 11
275.5709689919949
 21
330.8411167923138
 31
0.0
  0
LINE
  5
4213
330
18
100
AcDbEntity
  8
1
  6
Continuous
100
AcDbLine
 10
285.5709689919948
 20
325.0676137923137
 30
0.0
 11
285.5709689919948
 21
330.8411167923138
 31
0.0
  0
ARC
  5
4214
330
18
100
AcDbEntity
  8
1
  6
Continuous
100
AcDbCircle
 10
310.1390869919949
 20
307.4183877923137
 30
0.0
 40
3.0
100
AcDbArc
 50
145.2188179999982
 51
212.000000000001
  0
ARC
  5
4215
330
18
100
AcDbEntity
  8
1
  6
Continuous
100
AcDbCircle
 10
280.5709689919949
 20
327.9543657923138
 30
0.0
 40
34.851433
100
AcDbArc
 50
325.8682429999982
 51
358.1317570000003
  0
ARC
  5
4216
330
18
100
AcDbEntity
  8
1
  6
Continuous
100
AcDbCircle
 10
321.2889029919949
 20
295.6097087923137
 30
0.0
 40
4.5
100
AcDbArc
 50
211.5262920000011
 51
321.5378109999996
  0
ARC
  5
4217
330
18
100
AcDbEntity
  8
1
  6
Continuous
100
AcDbCircle
 10
321.157342991995
 20
295.4467317923138
 30
0.0
 40
6.0
100
AcDbArc
 50
212.000000000001
 51
321.3070370000007
  0
LINE
  5
4218
330
18
100
AcDbEntity
  8
1
  6
Continuous
100
AcDbLine
 10
317.453100991995
 20
293.2567047923138
 30
0.0
 11
309.374359991995
 21
306.4264427923137
 31
0.0
  0
ARC
  5
4219
330
18
100
AcDbEntity
  8
1
  6
Continuous
100
AcDbCircle
 10
315.447701991995
 20
289.8431617923138
 30
0.0
 40
2.0
100
AcDbArc
 50
31.52651999999937
 51
44.46281799999802
  0
ARC
  5
421A
330
18
100
AcDbEntity
  8
1
  6
Continuous
100
AcDbCircle
 10
310.925727991995
 20
307.3781017923138
 30
0.0
 40
1.82
100
AcDbArc
 50
145.868242999998
 51
211.5262920000011
  0
ARC
  5
421B
330
18
100
AcDbEntity
  8
1
  6
Continuous
100
AcDbCircle
 10
280.5709689919949
 20
327.9543657923138
 30
0.0
 40
33.0
100
AcDbArc
 50
325.2188179999983
 51
358.7811820000002
  0
ARC
  5
421C
330
18
100
AcDbEntity
  8
1
  6
Continuous
100
AcDbCircle
 10
316.562823991995
 20
327.1886167923138
 30
0.0
 40
3.0
100
AcDbArc
 50
112.0000000000011
 51
178.7811820000001
  0
ARC
  5
421D
330
18
100
AcDbEntity
  8
1
  6
Continuous
100
AcDbCircle
 10
317.222908991995
 20
326.7588327923137
 30
0.0
 40
1.82
100
AcDbArc
 50
112.4737079999996
 51
178.1317570000003
  0
LINE
  5
421E
330
18
100
AcDbEntity
  8
1
  6
Continuous
100
AcDbLine
 10
309.964661991995
 20
346.8184637923138
 30
0.0
 11
343.4535269919948
 21
355.1681757923138
 31
0.0
  0
LINE
  5
421F
330
18
100
AcDbEntity
  8
1
  6
Continuous
100
AcDbLine
 10
331.952553991995
 20
336.4388347923138
 30
0.0
 11
347.421161991995
 21
342.8377557923138
 31
0.0
  0
LINE
  5
4220
330
18
100
AcDbEntity
  8
1
  6
Continuous
100
AcDbLine
 10
343.402148991995
 20
355.2070077923137
 30
0.0
 11
327.126589991995
 21
351.2916237923137
 31
0.0
  0
ARC
  5
4221
330
18
100
AcDbEntity
  8
1
  6
Continuous
100
AcDbCircle
 10
280.5709689919949
 20
327.9543657923138
 30
0.0
 40
58.0
100
AcDbArc
 50
33.30703699999999
 51
60.41862399999878
  0
ARC
  5
4225
330
18
100
AcDbEntity
  8
1
  6
Continuous
100
AcDbCircle
 10
323.915099991995
 20
356.6843727923137
 30
0.0
 40
4.5
100
AcDbArc
 50
283.5262920000023
 51
33.53781100000091
  0
ARC
  5
4226
330
18
100
AcDbEntity
  8
1
  6
Continuous
100
AcDbCircle
 10
324.0294449919949
 20
356.5088897923137
 30
0.0
 40
6.0
100
AcDbArc
 50
284.0000000000026
 51
33.30703699999999
  0
LINE
  5
4227
330
18
100
AcDbEntity
  8
1
  6
Continuous
100
AcDbLine
 10
324.9676119919949
 20
352.3091907923137
 30
0.0
 11
309.945977991995
 21
348.6955237923138
 31
0.0
  0
ARC
  5
4228
330
18
100
AcDbEntity
  8
1
  6
Continuous
100
AcDbCircle
 10
309.520294991995
 20
350.4650417923137
 30
0.0
 40
1.82
100
AcDbArc
 50
217.8682429999997
 51
283.5262920000023
  0
ARC
  5
4229
330
18
100
AcDbEntity
  8
1
  6
Continuous
100
AcDbCircle
 10
309.238895991995
 20
349.7293507923137
 30
0.0
 40
3.0
100
AcDbArc
 50
217.2188179999978
 51
284.0000000000026
  0
ARC
  5
422A
330
18
100
AcDbEntity
  8
1
  6
Continuous
100
AcDbCircle
 10
280.5709689919949
 20
327.9543657923138
 30
0.0
 40
33.0
100
AcDbArc
 50
37.21881799999785
 51
39.59702499999934
  0
ARC
  5
422B
330
18
100
AcDbEntity
  8
1
  6
Continuous
100
AcDbCircle
 10
280.5709689919949
 20
327.9543657923138
 30
0.0
 40
34.851433
100
AcDbArc
 50
37.86824299999978
 51
42.48579600000167
  0
ARC
  5
422C
330
18
100
AcDbEntity
  8
1
  6
Continuous
100
AcDbCircle
 10
331.188041991995
 20
338.2869477923138
 30
0.0
 40
2.0
100
AcDbArc
 50
279.537182000002
 51
292.4734799999992
  0
ARC
  5
422D
330
18
100
AcDbEntity
  8
1
  6
Continuous
100
AcDbCircle
 10
327.5943809919949
 20
349.3470997923137
 30
0.0
 40
2.0
100
AcDbArc
 50
103.526520000003
 51
116.4628179999977
  0
ARC
  5
422E
330
18
100
AcDbEntity
  8
1
  6
Continuous
100
AcDbCircle
 10
280.5709689919949
 20
327.9543657923138
 30
0.0
 40
56.50122099999999
100
AcDbArc
 50
33.53781100000091
 51
59.76044799999996
  0
ARC
  5
426A
330
18
100
AcDbEntity
  8
1
  6
Continuous
100
AcDbCircle
 10
308.5709689919948
 20
400.2873277923137
 30
0.0
 40
3.0
100
AcDbArc
 50
353.7814099999993
 51
0.0
  0
ARC
  5
426B
330
18
100
AcDbEntity
  8
1
  6
Continuous
100
AcDbCircle
 10
334.509727991995
 20
396.5080157923139
 30
0.0
 40
24.407741
100
AcDbArc
 50
122.8138569999989
 51
132.4570039999988
  0
ARC
  5
426C
330
18
100
AcDbEntity
  8
1
  6
Continuous
100
AcDbCircle
 10
343.956940991995
 20
386.1826467923137
 30
0.0
 40
38.40284899999999
100
AcDbArc
 50
132.4570039999988
 51
142.0138329999996
  0
ARC
  5
426D
330
18
100
AcDbEntity
  8
1
  6
Continuous
100
AcDbCircle
 10
321.5709689919949
 20
403.6637827923136
 30
0.0
 40
10.0
100
AcDbArc
 50
142.0138329999996
 51
180.0
  0
ARC
  5
426E
330
18
100
AcDbEntity
  8
1
  6
Continuous
100
AcDbCircle
 10
325.359856991995
 20
420.9698897923138
 30
0.0
 40
3.015524
100
AcDbArc
 50
270.0
 51
0.0
  0
LINE
  5
426F
330
18
100
AcDbEntity
  8
1
  6
Continuous
100
AcDbLine
 10
323.789068991995
 20
417.9543657923138
 30
0.0
 11
327.0709689919948
 21
417.9543657923138
 31
0.0
  0
ARC
  5
4270
330
18
100
AcDbEntity
  8
1
  6
Continuous
100
AcDbCircle
 10
325.117329991995
 20
411.0744267923138
 30
0.0
 40
7.075761999999999
100
AcDbArc
 50
106.7732189999983
 51
122.8138569999989
  0
ARC
  5
4271
330
18
100
AcDbEntity
  8
1
  6
Continuous
100
AcDbCircle
 10
323.789068991995
 20
415.4812827923136
 30
0.0
 40
2.473083
100
AcDbArc
 50
90.0
 51
106.7732189999983
  0
ARC
  5
4272
330
18
100
AcDbEntity
  8
1
  6
Continuous
100
AcDbCircle
 10
327.0709689919948
 20
420.9543657923139
 30
0.0
 40
3.0
100
AcDbArc
 50
270.0
 51
0.0
  0
ARC
  5
4273
330
18
100
AcDbEntity
  8
1
  6
Continuous
100
AcDbCircle
 10
343.9373699919948
 20
353.2275837923137
 30
0.0
 40
2.0
100
AcDbArc
 50
21.74421799999856
 51
104.0000000000026
  0
ARC
  5
4274
330
18
100
AcDbEntity
  8
1
  6
Continuous
100
AcDbCircle
 10
343.883503991995
 20
353.2060997923139
 30
0.0
 40
2.057993
100
AcDbArc
 50
21.74421799999856
 51
103.526520000003
  0
ARC
  5
4275
330
18
100
AcDbEntity
  8
1
  6
Continuous
100
AcDbCircle
 10
346.6906899919949
 20
344.7537387923139
 30
0.0
 40
2.0
100
AcDbArc
 50
292.0000000000011
 51
14.25578200000111
  0
ARC
  5
4276
330
18
100
AcDbEntity
  8
1
  6
Continuous
100
AcDbCircle
 10
346.634481991995
 20
344.7394577923138
 30
0.0
 40
2.057993
100
AcDbArc
 50
292.4734799999992
 51
14.25578200000111
  0
LINE
  5
4277
330
18
100
AcDbEntity
  8
1
  6
Continuous
100
AcDbLine
 10
237.0709689919949
 20
454.9543657923138
 30
0.0
 11
324.0709689919949
 21
454.9543657923138
 31
0.0
  0
LINE
  5
4278
330
18
100
AcDbEntity
  8
1
  6
Continuous
100
AcDbLine
 10
225.5709689919949
 20
472.9543657923138
 30
0.0
 11
272.620968991995
 21
472.9543657923138
 31
0.0
  0
CIRCLE
  5
4279
330
18
100
AcDbEntity
  8
1
  6
Continuous
100
AcDbCircle
 10
280.5709689919949
 20
615.4131409735007
 30
0.0
 40
34.0
  0
LINE
  5
427A
330
18
100
AcDbEntity
  8
1
  6
Continuous
100
AcDbLine
 10
225.5709689919949
 20
467.9543657923138
 30
0.0
 11
270.3209689919949
 21
467.9543657923138
 31
0.0
  0
CIRCLE
  5
427B
330
18
100
AcDbEntity
  8
1
  6
Continuous
100
AcDbCircle
 10
280.5709689919949
 20
615.4131409735007
 30
0.0
 40
20.5
  0
LINE
  5
427C
330
18
100
AcDbEntity
  8
1
  6
Continuous
100
AcDbLine
 10
280.5709689919949
 20
591.7417799735005
 30
0.0
 11
260.0709689919949
 21
603.5774599735007
 31
0.0
  0
LINE
  5
427D
330
18
100
AcDbEntity
  8
1
  6
Continuous
100
AcDbLine
 10
260.0709689919949
 20
627.2488209735006
 30
0.0
 11
280.5709689919949
 21
639.0845019735007
 31
0.0
  0
CIRCLE
  5
427E
330
18
100
AcDbEntity
  8
1
  6
Continuous
100
AcDbCircle
 10
280.5709689919949
 20
615.4131409735007
 30
0.0
 40
31.69999999999999
  0
LINE
  5
427F
330
18
100
AcDbEntity
  8
4
  6
CENTER
 48
0.7
100
AcDbLine
 10
198.5709689919948
 20
615.4131409735006
 30
0.0
 11
362.5709689919948
 21
615.4131409735007
 31
0.0
  0
LINE
  5
4280
330
18
100
AcDbEntity
  8
1
  6
Continuous
100
AcDbLine
 10
236.5709689919949
 20
560.4131409735006
 30
0.0
 11
324.5709689919948
 21
560.4131409735006
 31
0.0
  0
LINE
  5
4281
330
18
100
AcDbEntity
  8
1
  6
Continuous
100
AcDbLine
 10
236.5709689919949
 20
670.4131409735006
 30
0.0
 11
324.5709689919948
 21
670.4131409735006
 31
0.0
  0
LINE
  5
4283
330
18
100
AcDbEntity
  8
1
  6
Continuous
100
AcDbLine
 10
225.5709689919949
 20
571.4131409735007
 30
0.0
 11
225.5709689919949
 21
659.4131409735005
 31
0.0
  0
LINE
  5
4284
330
18
100
AcDbEntity
  8
4
  6
CENTER
 48
0.2
100
AcDbLine
 10
235.5709689919949
 20
478.9543657923139
 30
0.0
 11
235.5709689919949
 21
461.9543657923138
 31
0.0
  0
LINE
  5
4285
330
18
100
AcDbEntity
  8
1
  6
Continuous
100
AcDbLine
 10
225.5709689919949
 20
472.9543657923138
 30
0.0
 11
225.5709689919949
 21
467.2543657923138
 31
0.0
  0
ARC
  5
4286
330
18
100
AcDbEntity
  8
1
  6
Continuous
100
AcDbCircle
 10
238.8002919919949
 20
448.9206317923136
 30
0.0
 40
6.033733999999999
100
AcDbArc
 50
90.0
 51
180.0
  0
ARC
  5
4287
330
18
100
AcDbEntity
  8
1
  6
Continuous
100
AcDbCircle
 10
237.0709689919949
 20
448.9543657923138
 30
0.0
 40
6.0
100
AcDbArc
 50
90.0
 51
180.0
  0
LINE
  5
4288
330
18
100
AcDbEntity
  8
1
  6
Continuous
100
AcDbLine
 10
243.286405991995
 20
456.1845317923138
 30
0.0
 11
225.5709689919949
 21
467.2543657923138
 31
0.0
  0
ARC
  5
4289
330
18
100
AcDbEntity
  8
1
  6
Continuous
100
AcDbCircle
 10
255.5709689919949
 20
448.9543657923138
 30
0.0
 40
6.0
100
AcDbArc
 50
90.0
 51
180.0
  0
ARC
  5
428A
330
18
100
AcDbEntity
  8
1
  6
Continuous
100
AcDbCircle
 10
246.5709689919949
 20
459.9543657923138
 30
0.0
 40
5.0
100
AcDbArc
 50
180.0
 51
270.0
  0
ARC
  5
428B
330
18
100
AcDbEntity
  8
1
  6
Continuous
100
AcDbCircle
 10
237.5709689919949
 20
463.9543657923138
 30
0.0
 40
4.0
100
AcDbArc
 50
0.0
 51
90.0
  0
LINE
  5
428C
330
18
100
AcDbEntity
  8
1
  6
Continuous
100
AcDbLine
 10
241.5709689919949
 20
463.9543657923138
 30
0.0
 11
241.5709689919949
 21
459.9543657923138
 31
0.0
  0
LINE
  5
428D
330
18
100
AcDbEntity
  8
4
  6
CENTER
 48
0.2
100
AcDbLine
 10
226.3209689919949
 20
570.4131409735007
 30
0.0
 11
244.8209689919949
 21
570.4131409735007
 31
0.0
  0
CIRCLE
  5
428E
330
18
100
AcDbEntity
  8
1
  6
Continuous
100
AcDbCircle
 10
235.5709689919949
 20
570.4131409735007
 30
0.0
 40
5.25
  0
ARC
  5
428F
330
18
100
AcDbEntity
  8
1
  6
Continuous
100
AcDbCircle
 10
236.5709689919949
 20
571.4131409735007
 30
0.0
 40
11.0
100
AcDbArc
 50
180.0
 51
270.0
  0
LINE
  5
4290
330
18
100
AcDbEntity
  8
4
  6
CENTER
 48
0.2
100
AcDbLine
 10
235.5709689919949
 20
561.1631409735005
 30
0.0
 11
235.5709689919949
 21
579.6631409735007
 31
0.0
  0
LINE
  5
4299
330
18
100
AcDbEntity
  8
1
  6
Continuous
100
AcDbLine
 10
225.5709689919949
 20
609.1631409735007
 30
0.0
 11
242.4929239919949
 21
609.1631409735007
 31
0.0
  0
LINE
  5
429A
330
18
100
AcDbEntity
  8
1
  6
Continuous
100
AcDbLine
 10
225.5709689919949
 20
621.6631409735007
 30
0.0
 11
242.4929239919949
 21
621.6631409735007
 31
0.0
  0
LINE
  5
42A1
330
18
100
AcDbEntity
  8
1
  6
Continuous
100
AcDbLine
 10
260.0709689919949
 20
603.5774599735007
 30
0.0
 11
260.0709689919949
 21
627.2488209735006
 31
0.0
  0
ARC
  5
42A2
330
18
100
AcDbEntity
  8
1
  6
Continuous
100
AcDbCircle
 10
242.4929239919949
 20
603.1631409735007
 30
0.0
 40
6.0
100
AcDbArc
 50
17.83338299999921
 51
90.0
  0
ARC
  5
42A3
330
18
100
AcDbEntity
  8
1
  6
Continuous
100
AcDbCircle
 10
242.4929239919949
 20
627.6631409735005
 30
0.0
 40
6.0
100
AcDbArc
 50
270.0
 51
342.1666170000006
  0
LINE
  5
42A4
330
18
100
AcDbEntity
  8
4
  6
CENTER
 48
0.2
100
AcDbLine
 10
226.3209689919949
 20
660.4131409735006
 30
0.0
 11
244.8209689919949
 21
660.4131409735006
 31
0.0
  0
CIRCLE
  5
42A5
330
18
100
AcDbEntity
  8
1
  6
Continuous
100
AcDbCircle
 10
235.5709689919949
 20
660.4131409735006
 30
0.0
 40
5.25
  0
ARC
  5
42A6
330
18
100
AcDbEntity
  8
1
  6
Continuous
100
AcDbCircle
 10
236.5709689919949
 20
659.4131409735005
 30
0.0
 40
11.0
100
AcDbArc
 50
90.0
 51
180.0
  0
LINE
  5
42A7
330
18
100
AcDbEntity
  8
4
  6
CENTER
 48
0.2
100
AcDbLine
 10
235.5709689919949
 20
651.1631409735006
 30
0.0
 11
235.5709689919949
 21
669.6631409735005
 31
0.0
  0
LINE
  5
42B0
330
18
100
AcDbEntity
  8
4
  6
CENTER
 48
0.7
100
AcDbLine
 10
280.570968991995
 20
677.4131409735006
 30
0.0
 11
280.570968991995
 21
553.4131409735006
 31
0.0
  0
LINE
  5
42B1
330
18
100
AcDbEntity
  8
1
  6
Continuous
100
AcDbLine
 10
335.5709689919948
 20
571.4131409735007
 30
0.0
 11
335.5709689919948
 21
659.4131409735005
 31
0.0
  0
LINE
  5
42B2
330
18
100
AcDbEntity
  8
1
  6
Continuous
100
AcDbLine
 10
317.855531991995
 20
456.1845317923138
 30
0.0
 11
335.5709689919948
 21
467.2543657923138
 31
0.0
  0
LINE
  5
42B3
330
18
100
AcDbEntity
  8
1
  6
Continuous
100
AcDbLine
 10
335.5709689919948
 20
467.9543657923138
 30
0.0
 11
290.8209689919948
 21
467.9543657923138
 31
0.0
  0
LINE
  5
42B4
330
18
100
AcDbEntity
  8
1
  6
Continuous
100
AcDbLine
 10
288.520968991995
 20
472.9543657923138
 30
0.0
 11
335.5709689919948
 21
472.9543657923138
 31
0.0
  0
LINE
  5
42B5
330
18
100
AcDbEntity
  8
4
  6
CENTER
 48
0.2
100
AcDbLine
 10
316.3209689919948
 20
570.4131409735007
 30
0.0
 11
334.8209689919948
 21
570.4131409735007
 31
0.0
  0
ARC
  5
42B6
330
18
100
AcDbEntity
  8
1
  6
Continuous
100
AcDbCircle
 10
324.5709689919948
 20
571.4131409735007
 30
0.0
 40
11.0
100
AcDbArc
 50
270.0
 51
0.0
  0
LINE
  5
42B7
330
18
100
AcDbEntity
  8
4
  6
CENTER
 48
0.2
100
AcDbLine
 10
325.5709689919949
 20
478.9543657923139
 30
0.0
 11
325.5709689919949
 21
461.9543657923138
 31
0.0
  0
LINE
  5
42B8
330
18
100
AcDbEntity
  8
1
  6
Continuous
100
AcDbLine
 10
275.0709689919949
 20
456.1845317923138
 30
0.0
 11
286.0709689919949
 21
456.1845317923138
 31
0.0
  0
LINE
  5
42B9
330
18
100
AcDbEntity
  8
1
  6
Continuous
100
AcDbLine
 10
271.6957419919949
 20
467.2543657923138
 30
0.0
 11
289.446196991995
 21
467.2543657923138
 31
0.0
  0
LINE
  5
42BA
330
18
100
AcDbEntity
  8
1
  6
Continuous
100
AcDbLine
 10
270.3209689919949
 20
467.1543657923137
 30
0.0
 11
270.3209689919949
 21
457.6845317923138
 31
0.0
  0
ARC
  5
42BB
330
18
100
AcDbEntity
  8
1
  6
Continuous
100
AcDbCircle
 10
269.3209689919949
 20
457.1845317923139
 30
0.0
 40
1.0
100
AcDbArc
 50
270.0
 51
0.0
  0
ARC
  5
42BC
330
18
100
AcDbEntity
  8
1
  6
Continuous
100
AcDbCircle
 10
271.6957419919949
 20
468.9543657923138
 30
0.0
 40
1.7
100
AcDbArc
 50
216.0318790000005
 51
270.0
  0
LINE
  5
42BD
330
18
100
AcDbEntity
  8
1
  6
Continuous
100
AcDbLine
 10
290.8209689919948
 20
467.1543657923137
 30
0.0
 11
290.8209689919948
 21
457.6845317923138
 31
0.0
  0
ARC
  5
42BE
330
18
100
AcDbEntity
  8
1
  6
Continuous
100
AcDbCircle
 10
291.8209689919948
 20
457.1845317923139
 30
0.0
 40
1.0
100
AcDbArc
 50
180.0
 51
270.0
  0
ARC
  5
42BF
330
18
100
AcDbEntity
  8
1
  6
Continuous
100
AcDbCircle
 10
289.446196991995
 20
468.9543657923138
 30
0.0
 40
1.7
100
AcDbArc
 50
270.0
 51
323.9681209999994
  0
ARC
  5
42C0
330
18
100
AcDbEntity
  8
1
  6
Continuous
100
AcDbCircle
 10
314.5709689919948
 20
459.9543657923138
 30
0.0
 40
5.0
100
AcDbArc
 50
270.0
 51
0.0
  0
ARC
  5
42C1
330
18
100
AcDbEntity
  8
1
  6
Continuous
100
AcDbCircle
 10
305.5709689919948
 20
448.9543657923138
 30
0.0
 40
6.0
100
AcDbArc
 50
0.0
 51
90.0
  0
ARC
  5
42C2
330
18
100
AcDbEntity
  8
1
  6
Continuous
100
AcDbCircle
 10
322.341646991995
 20
448.9206317923136
 30
0.0
 40
6.033733999999999
100
AcDbArc
 50
0.0
 51
90.0
  0
ARC
  5
42C3
330
18
100
AcDbEntity
  8
1
  6
Continuous
100
AcDbCircle
 10
324.0709689919949
 20
448.9543657923138
 30
0.0
 40
6.0
100
AcDbArc
 50
0.0
 51
90.0
  0
ARC
  5
42C4
330
18
100
AcDbEntity
  8
1
  6
Continuous
100
AcDbCircle
 10
323.5709689919949
 20
463.9543657923138
 30
0.0
 40
4.0
100
AcDbArc
 50
90.0
 51
180.0
  0
LINE
  5
42C5
330
18
100
AcDbEntity
  8
1
  6
Continuous
100
AcDbLine
 10
319.5709689919949
 20
463.9543657923138
 30
0.0
 11
319.5709689919949
 21
459.9543657923138
 31
0.0
  0
LINE
  5
42C6
330
18
100
AcDbEntity
  8
1
  6
Continuous
100
AcDbLine
 10
286.8209689919948
 20
560.4131409735006
 30
0.0
 11
286.8209689919948
 21
577.3350959735006
 31
0.0
  0
LINE
  5
42C7
330
18
100
AcDbEntity
  8
1
  6
Continuous
100
AcDbLine
 10
274.3209689919949
 20
560.4131409735006
 30
0.0
 11
274.3209689919949
 21
577.3350959735006
 31
0.0
  0
ARC
  5
42C8
330
18
100
AcDbEntity
  8
1
  6
Continuous
100
AcDbCircle
 10
290.8209689919948
 20
443.5851317923138
 30
0.0
 40
28.869234
100
AcDbArc
 50
97.36721599999608
 51
106.5777879999985
  0
LINE
  5
42C9
330
18
100
AcDbEntity
  8
1
  6
Continuous
100
AcDbLine
 10
273.825128991995
 20
472.4543657923138
 30
0.0
 11
287.316809991995
 21
472.4543657923138
 31
0.0
  0
LINE
  5
42CA
330
18
100
AcDbEntity
  8
1
  6
Continuous
100
AcDbLine
 10
274.3209689919949
 20
471.2543657923138
 30
0.0
 11
286.8209689919948
 21
471.2543657923138
 31
0.0
  0
ARC
  5
42CB
330
18
100
AcDbEntity
  8
1
  6
Continuous
100
AcDbCircle
 10
270.3209689919949
 20
443.5851317923138
 30
0.0
 40
28.869234
100
AcDbArc
 50
73.42221200000143
 51
82.63278400000393
  0
ARC
  5
42CC
330
18
100
AcDbEntity
  8
1
  6
Continuous
100
AcDbCircle
 10
272.620968991995
 20
471.2543657923138
 30
0.0
 40
1.7
100
AcDbArc
 50
0.0
 51
90.0
  0
ARC
  5
42CD
330
18
100
AcDbEntity
  8
1
  6
Continuous
100
AcDbCircle
 10
288.520968991995
 20
471.2543657923138
 30
0.0
 40
1.7
100
AcDbArc
 50
90.0
 51
180.0
  0
ARC
  5
42CE
330
18
100
AcDbEntity
  8
1
  6
Continuous
100
AcDbCircle
 10
268.3209689919949
 20
577.3350959735006
 30
0.0
 40
6.0
100
AcDbArc
 50
0.0
 51
72.16661700000233
  0
ARC
  5
42CF
330
18
100
AcDbEntity
  8
1
  6
Continuous
100
AcDbCircle
 10
292.8209689919949
 20
577.3350959735006
 30
0.0
 40
6.0
100
AcDbArc
 50
107.8333829999976
 51
180.0
  0
LINE
  5
42D0
330
18
100
AcDbEntity
  8
4
  6
CENTER
 48
0.2
100
AcDbLine
 10
325.5709689919949
 20
561.1631409735005
 30
0.0
 11
325.5709689919949
 21
579.6631409735007
 31
0.0
  0
CIRCLE
  5
42D1
330
18
100
AcDbEntity
  8
1
  6
Continuous
100
AcDbCircle
 10
325.5709689919949
 20
570.4131409735007
 30
0.0
 40
5.25
  0
LINE
  5
42D2
330
18
100
AcDbEntity
  8
1
  6
Continuous
100
AcDbLine
 10
335.5709689919948
 20
472.9543657923138
 30
0.0
 11
335.5709689919948
 21
467.2543657923138
 31
0.0
  0
LINE
  5
42DA
330
18
100
AcDbEntity
  8
1
  6
Continuous
100
AcDbLine
 10
335.5709689919948
 20
621.6631409735007
 30
0.0
 11
318.649013991995
 21
621.6631409735007
 31
0.0
  0
LINE
  5
42DB
330
18
100
AcDbEntity
  8
1
  6
Continuous
100
AcDbLine
 10
335.5709689919948
 20
609.1631409735007
 30
0.0
 11
318.649013991995
 21
609.1631409735007
 31
0.0
  0
LINE
  5
42DC
330
18
100
AcDbEntity
  8
4
  6
CENTER
 48
0.2
100
AcDbLine
 10
316.3209689919948
 20
660.4131409735006
 30
0.0
 11
334.8209689919948
 21
660.4131409735006
 31
0.0
  0
ARC
  5
42DD
330
18
100
AcDbEntity
  8
1
  6
Continuous
100
AcDbCircle
 10
324.5709689919948
 20
659.4131409735005
 30
0.0
 40
11.0
100
AcDbArc
 50
0.0
 51
90.0
  0
LINE
  5
42DE
330
18
100
AcDbEntity
  8
1
  6
Continuous
100
AcDbLine
 10
301.0709689919949
 20
627.2488209735006
 30
0.0
 11
280.5709689919949
 21
639.0845019735007
 31
0.0
  0
LINE
  5
42DF
330
18
100
AcDbEntity
  8
1
  6
Continuous
100
AcDbLine
 10
301.0709689919949
 20
603.5774599735007
 30
0.0
 11
301.0709689919949
 21
627.2488209735006
 31
0.0
  0
LINE
  5
42E0
330
18
100
AcDbEntity
  8
1
  6
Continuous
100
AcDbLine
 10
280.5709689919949
 20
591.7417799735005
 30
0.0
 11
301.0709689919949
 21
603.5774599735007
 31
0.0
  0
ARC
  5
42E1
330
18
100
AcDbEntity
  8
1
  6
Continuous
100
AcDbCircle
 10
318.649013991995
 20
603.1631409735007
 30
0.0
 40
6.0
100
AcDbArc
 50
90.0
 51
162.1666170000008
  0
ARC
  5
42E2
330
18
100
AcDbEntity
  8
1
  6
Continuous
100
AcDbCircle
 10
318.649013991995
 20
627.6631409735005
 30
0.0
 40
6.0
100
AcDbArc
 50
197.8333829999991
 51
270.0
  0
LINE
  5
42E3
330
18
100
AcDbEntity
  8
1
  6
Continuous
100
AcDbLine
 10
286.8209689919948
 20
670.4131409735006
 30
0.0
 11
286.8209689919948
 21
653.4911859735005
 31
0.0
  0
LINE
  5
42E4
330
18
100
AcDbEntity
  8
1
  6
Continuous
100
AcDbLine
 10
274.3209689919949
 20
670.4131409735006
 30
0.0
 11
274.3209689919949
 21
653.4911859735005
 31
0.0
  0
ARC
  5
42E5
330
18
100
AcDbEntity
  8
1
  6
Continuous
100
AcDbCircle
 10
268.3209689919949
 20
653.4911859735005
 30
0.0
 40
6.0
100
AcDbArc
 50
287.8333829999977
 51
0.0
  0
ARC
  5
42E6
330
18
100
AcDbEntity
  8
1
  6
Continuous
100
AcDbCircle
 10
292.8209689919949
 20
653.4911859735005
 30
0.0
 40
6.0
100
AcDbArc
 50
180.0
 51
252.1666170000023
  0
LINE
  5
42E7
330
18
100
AcDbEntity
  8
4
  6
CENTER
 48
0.2
100
AcDbLine
 10
325.5709689919949
 20
651.1631409735006
 30
0.0
 11
325.5709689919949
 21
669.6631409735005
 31
0.0
  0
CIRCLE
  5
42E8
330
18
100
AcDbEntity
  8
1
  6
Continuous
100
AcDbCircle
 10
325.5709689919949
 20
660.4131409735006
 30
0.0
 40
5.25
  0
LINE
  5
42F7
330
18
100
AcDbEntity
  8
1
  6
Continuous
100
AcDbLine
 10
522.4851055763507
 20
401.9629617923136
 30
0.0
 11
522.4851055763507
 21
448.9543657923138
 31
0.0
  0
LINE
  5
42F8
330
18
100
AcDbEntity
  8
1
  6
Continuous
100
AcDbLine
 10
493.2435645763507
 20
454.9543657923138
 30
0.0
 11
493.2435645763507
 21
417.9543657923138
 31
0.0
  0
LINE
  5
42F9
330
18
100
AcDbEntity
  8
1
  6
Continuous
100
AcDbLine
 10
456.0020245763507
 20
401.9629617923136
 30
0.0
 11
456.0020245763507
 21
448.9543657923138
 31
0.0
  0
LINE
  5
42FA
330
18
100
AcDbEntity
  8
1
  6
Continuous
100
AcDbLine
 10
485.2435645763507
 20
454.9543657923138
 30
0.0
 11
485.2435645763507
 21
417.9543657923138
 31
0.0
  0
LINE
  5
42FB
330
18
100
AcDbEntity
  8
1
  6
Continuous
100
AcDbLine
 10
532.7435645763507
 20
448.9543657923138
 30
0.0
 11
532.7435645763507
 21
307.9543657923138
 31
0.0
  0
LINE
  5
42FC
330
18
100
AcDbEntity
  8
1
  6
Continuous
100
AcDbLine
 10
445.7435645763506
 20
448.9543657923138
 30
0.0
 11
445.7435645763506
 21
307.9543657923138
 31
0.0
  0
LINE
  5
42FD
330
18
100
AcDbEntity
  8
4
  6
CENTER
 48
0.7
100
AcDbLine
 10
489.2435645763507
 20
479.4543657923137
 30
0.0
 11
489.2435645763507
 21
245.9543657923138
 31
0.0
  0
LINE
  5
42FE
330
18
100
AcDbEntity
  8
1
  6
Continuous
100
AcDbLine
 10
477.7435645763508
 20
417.9543657923138
 30
0.0
 11
500.7435645763506
 21
417.9543657923138
 31
0.0
  0
ARC
  5
42FF
330
18
100
AcDbEntity
  8
1
  6
Continuous
100
AcDbCircle
 10
504.2435645763506
 20
312.9543657923138
 30
0.0
 40
90.0
100
AcDbArc
 50
86.33855899999629
 51
96.63863299999711
  0
ARC
  5
4300
330
18
100
AcDbEntity
  8
1
  6
Continuous
100
AcDbCircle
 10
504.2435645763506
 20
342.9543657923138
 30
0.0
 40
90.0
100
AcDbArc
 50
263.3613670000028
 51
273.6614410000037
  0
LINE
  5
4301
330
18
100
AcDbEntity
  8
4
  6
CENTER
 48
0.7
100
AcDbLine
 10
539.7435645763509
 20
327.9543657923138
 30
0.0
 11
438.7435645763507
 21
327.9543657923138
 31
0.0
  0
LINE
  5
4302
330
18
100
AcDbEntity
  8
1
  6
Continuous
100
AcDbLine
 10
457.7435645763507
 20
401.9629617923136
 30
0.0
 11
457.7435645763507
 21
307.9543657923138
 31
0.0
  0
LINE
  5
4305
330
18
100
AcDbEntity
  8
1
  6
Continuous
100
AcDbLine
 10
462.2435645763506
 20
268.3513167923117
 30
0.0
 11
462.2435645763506
 21
397.4920307923139
 31
0.0
  0
LINE
  5
4307
330
18
100
AcDbEntity
  8
1
  6
Continuous
100
AcDbLine
 10
458.2435645763506
 20
309.6375817923137
 30
0.0
 11
458.2435645763506
 21
346.2711497923137
 31
0.0
  0
LINE
  5
4309
330
18
100
AcDbEntity
  8
1
  6
Continuous
100
AcDbLine
 10
460.2435645763507
 20
294.9543657923152
 30
0.0
 11
460.2435645763507
 21
360.9543657923139
 31
0.0
  0
LINE
  5
430A
330
18
100
AcDbEntity
  8
1
  6
Continuous
100
AcDbLine
 10
489.2435645763507
 20
340.9543457923138
 30
0.0
 11
489.2435645763507
 21
314.9543857923138
 31
0.0
  0
LINE
  5
430B
330
18
100
AcDbEntity
  8
1
  6
Continuous
100
AcDbLine
 10
490.7435645763507
 20
398.8743867923137
 30
0.0
 11
490.7435645763507
 21
257.0343447923137
 31
0.0
  0
LINE
  5
430E
330
18
100
AcDbEntity
  8
1
  6
Continuous
100
AcDbLine
 10
487.7435645763506
 20
398.8743867923137
 30
0.0
 11
487.7435645763506
 21
257.0343447923137
 31
0.0
  0
LINE
  5
4310
330
18
100
AcDbEntity
  8
1
  6
Continuous
100
AcDbLine
 10
462.2435645763506
 20
258.4167007923138
 30
0.0
 11
462.2435645763506
 21
268.3513167923138
 31
0.0
  0
ARC
  5
4315
330
18
100
AcDbEntity
  8
1
  6
Continuous
100
AcDbCircle
 10
474.2435645763507
 20
342.9543657923138
 30
0.0
 40
90.0
100
AcDbArc
 50
266.3385589999962
 51
276.6386329999971
  0
ARC
  5
4316
330
18
100
AcDbEntity
  8
1
  6
Continuous
100
AcDbCircle
 10
494.2435645763508
 20
257.0343447923137
 30
0.0
 40
3.5
100
AcDbArc
 50
180.0
 51
263.3613670000028
  0
ARC
  5
4317
330
18
100
AcDbEntity
  8
1
  6
Continuous
100
AcDbCircle
 10
484.2435645763507
 20
257.0343447923137
 30
0.0
 40
3.5
100
AcDbArc
 50
276.6386329999971
 51
0.0
  0
LINE
  5
4318
330
18
100
AcDbEntity
  8
1
  6
Continuous
100
AcDbLine
 10
459.1868585763508
 20
308.7863207923137
 30
0.0
 11
460.2435645763507
 21
305.7835447923138
 31
0.0
  0
LINE
  5
431A
330
18
100
AcDbEntity
  8
1
  6
Continuous
100
AcDbLine
 10
454.7435645763506
 20
304.9543657923138
 30
0.0
 11
448.7435645763508
 21
304.9543657923138
 31
0.0
  0
ARC
  5
431B
330
18
100
AcDbEntity
  8
1
  6
Continuous
100
AcDbCircle
 10
448.7435645763508
 20
307.9543657923138
 30
0.0
 40
3.0
100
AcDbArc
 50
180.0
 51
270.0
  0
ARC
  5
431D
330
18
100
AcDbEntity
  8
1
  6
Continuous
100
AcDbCircle
 10
454.7435645763506
 20
307.9543657923138
 30
0.0
 40
3.0
100
AcDbArc
 50
270.0
 51
0.0
  0
ARC
  5
431F
330
18
100
AcDbEntity
  8
1
  6
Continuous
100
AcDbCircle
 10
458.2435635763507
 20
308.4543657923138
 30
0.0
 40
1.0
100
AcDbArc
 50
19.38747199999992
 51
80.40585800000023
  0
ARC
  5
4320
330
18
100
AcDbEntity
  8
1
  6
Continuous
100
AcDbCircle
 10
458.4435645763508
 20
309.6375817923137
 30
0.0
 40
0.2
100
AcDbArc
 50
180.0
 51
260.4058580000002
  0
LINE
  5
4321
330
18
100
AcDbEntity
  8
1
  6
Continuous
100
AcDbLine
 10
458.2435645763506
 20
311.0043657923138
 30
0.0
 11
457.7435645763507
 21
311.0043657923138
 31
0.0
  0
LINE
  5
4324
330
18
100
AcDbEntity
  8
1
  6
Continuous
100
AcDbLine
 10
487.7435645763506
 20
314.4543857923138
 30
0.0
 11
488.7435645763507
 21
314.4543857923138
 31
0.0
  0
LINE
  5
4325
330
18
100
AcDbEntity
  8
1
  6
Continuous
100
AcDbLine
 10
490.7435645763507
 20
314.4543857923138
 30
0.0
 11
489.7435645763507
 21
314.4543857923138
 31
0.0
  0
LINE
  5
4326
330
18
100
AcDbEntity
  8
1
  6
Continuous
100
AcDbLine
 10
489.2435645763507
 20
314.9543857923138
 30
0.0
 11
489.7435645763507
 21
314.4543857923138
 31
0.0
  0
LINE
  5
4327
330
18
100
AcDbEntity
  8
1
  6
Continuous
100
AcDbLine
 10
489.2435645763507
 20
314.9543857923138
 30
0.0
 11
488.7435645763507
 21
314.4543857923138
 31
0.0
  0
LINE
  5
4329
330
18
100
AcDbEntity
  8
1
  6
Continuous
100
AcDbLine
 10
460.2435645763507
 20
360.9543657923139
 30
0.0
 11
461.9513635763508
 21
396.1244557923138
 31
0.0
  0
ARC
  5
432B
330
18
100
AcDbEntity
  8
1
  6
Continuous
100
AcDbCircle
 10
458.2435635763507
 20
347.4543657923139
 30
0.0
 40
1.0
100
AcDbArc
 50
279.5941419999997
 51
340.612528
  0
ARC
  5
432C
330
18
100
AcDbEntity
  8
1
  6
Continuous
100
AcDbCircle
 10
458.4435645763508
 20
346.2711497923137
 30
0.0
 40
0.2
100
AcDbArc
 50
99.59414199999978
 51
180.0
  0
LINE
  5
432D
330
18
100
AcDbEntity
  8
1
  6
Continuous
100
AcDbLine
 10
458.2435645763506
 20
344.9043657923137
 30
0.0
 11
457.7435645763507
 21
344.9043657923137
 31
0.0
  0
LINE
  5
432E
330
18
100
AcDbEntity
  8
1
  6
Continuous
100
AcDbLine
 10
459.1868585763508
 20
347.1224107923137
 30
0.0
 11
460.2435645763507
 21
350.1251857923139
 31
0.0
  0
LINE
  5
432F
330
18
100
AcDbEntity
  8
1
  6
Continuous
100
AcDbLine
 10
487.7435645763506
 20
341.4543457923138
 30
0.0
 11
488.7435645763507
 21
341.4543457923138
 31
0.0
  0
LINE
  5
4330
330
18
100
AcDbEntity
  8
1
  6
Continuous
100
AcDbLine
 10
490.7435645763507
 20
341.4543457923138
 30
0.0
 11
489.7435645763507
 21
341.4543457923138
 31
0.0
  0
LINE
  5
4331
330
18
100
AcDbEntity
  8
1
  6
Continuous
100
AcDbLine
 10
489.2435645763507
 20
340.9543457923138
 30
0.0
 11
489.7435645763507
 21
341.4543457923138
 31
0.0
  0
LINE
  5
4332
330
18
100
AcDbEntity
  8
1
  6
Continuous
100
AcDbLine
 10
489.2435645763507
 20
340.9543457923138
 30
0.0
 11
488.7435645763507
 21
341.4543457923138
 31
0.0
  0
ARC
  5
4333
330
18
100
AcDbEntity
  8
1
  6
Continuous
100
AcDbCircle
 10
477.7435645763508
 20
397.9543657923139
 30
0.0
 40
20.0
100
AcDbArc
 50
90.0
 51
149.6710740000001
  0
ARC
  5
4334
330
18
100
AcDbEntity
  8
1
  6
Continuous
100
AcDbCircle
 10
468.9431255763508
 20
395.7849477923137
 30
0.0
 40
7.0
100
AcDbArc
 50
93.66144100000372
 51
177.2200000000003
  0
LINE
  5
4335
330
18
100
AcDbEntity
  8
1
  6
Continuous
100
AcDbLine
 10
448.7435645763508
 20
400.1243657923138
 30
0.0
 11
454.7435645763506
 21
400.1243657923138
 31
0.0
  0
ARC
  5
4336
330
18
100
AcDbEntity
  8
1
  6
Continuous
100
AcDbCircle
 10
464.2435645763507
 20
397.4920307923139
 30
0.0
 40
2.0
100
AcDbArc
 50
160.0367980000006
 51
180.0
  0
ARC
  5
4337
330
18
100
AcDbEntity
  8
1
  6
Continuous
100
AcDbCircle
 10
719.4229675763509
 20
256.5645977923137
 30
0.0
 40
300.0
100
AcDbArc
 50
149.6710740000001
 51
150.4702239999985
  0
ARC
  5
4338
330
18
100
AcDbEntity
  8
1
  6
Continuous
100
AcDbCircle
 10
462.7435645763506
 20
401.9629617923136
 30
0.0
 40
5.0
100
AcDbArc
 50
150.4702239999985
 51
180.0
  0
ARC
  5
4339
330
18
100
AcDbEntity
  8
1
  6
Continuous
100
AcDbCircle
 10
494.2435645763508
 20
398.8743867923137
 30
0.0
 40
3.5
100
AcDbArc
 50
96.63863299999711
 51
180.0
  0
ARC
  5
433A
330
18
100
AcDbEntity
  8
1
  6
Continuous
100
AcDbCircle
 10
484.2435645763507
 20
398.8743867923137
 30
0.0
 40
3.5
100
AcDbArc
 50
0.0
 51
83.36136700000286
  0
ARC
  5
433B
330
18
100
AcDbEntity
  8
1
  6
Continuous
100
AcDbCircle
 10
474.2435645763507
 20
312.9543657923138
 30
0.0
 40
90.0
100
AcDbArc
 50
83.36136700000286
 51
93.66144100000372
  0
LINE
  5
433C
330
18
100
AcDbEntity
  8
1
  6
Continuous
100
AcDbLine
 10
520.7435645763507
 20
401.9629617923136
 30
0.0
 11
520.7435645763507
 21
307.9543657923138
 31
0.0
  0
LINE
  5
433F
330
18
100
AcDbEntity
  8
1
  6
Continuous
100
AcDbLine
 10
520.2435645763507
 20
309.6375817923137
 30
0.0
 11
520.2435645763507
 21
346.2711497923137
 31
0.0
  0
ARC
  5
4349
330
18
100
AcDbEntity
  8
1
  6
Continuous
100
AcDbCircle
 10
529.7435645763507
 20
307.9543657923138
 30
0.0
 40
3.0
100
AcDbArc
 50
270.0
 51
0.0
  0
LINE
  5
434A
330
18
100
AcDbEntity
  8
1
  6
Continuous
100
AcDbLine
 10
519.3002715763508
 20
308.7863207923137
 30
0.0
 11
518.2435645763507
 21
305.7835447923138
 31
0.0
  0
LINE
  5
434D
330
18
100
AcDbEntity
  8
1
  6
Continuous
100
AcDbLine
 10
523.7435645763508
 20
304.9543657923138
 30
0.0
 11
529.7435645763507
 21
304.9543657923138
 31
0.0
  0
ARC
  5
434E
330
18
100
AcDbEntity
  8
1
  6
Continuous
100
AcDbCircle
 10
523.7435645763508
 20
307.9543657923138
 30
0.0
 40
3.0
100
AcDbArc
 50
180.0
 51
270.0
  0
LINE
  5
4350
330
18
100
AcDbEntity
  8
1
  6
Continuous
100
AcDbLine
 10
520.2435645763507
 20
311.0043657923138
 30
0.0
 11
520.7435645763507
 21
311.0043657923138
 31
0.0
  0
ARC
  5
4351
330
18
100
AcDbEntity
  8
1
  6
Continuous
100
AcDbCircle
 10
520.2435665763507
 20
308.4543657923138
 30
0.0
 40
1.0
100
AcDbArc
 50
99.59414199999978
 51
160.612528
  0
ARC
  5
4352
330
18
100
AcDbEntity
  8
1
  6
Continuous
100
AcDbCircle
 10
520.0435645763508
 20
309.6375817923137
 30
0.0
 40
0.2
100
AcDbArc
 50
279.5941419999997
 51
0.0
  0
LINE
  5
4356
330
18
100
AcDbEntity
  8
1
  6
Continuous
100
AcDbLine
 10
519.3002715763508
 20
347.1224107923137
 30
0.0
 11
518.2435645763507
 21
350.1251857923139
 31
0.0
  0
LINE
  5
4357
330
18
100
AcDbEntity
  8
1
  6
Continuous
100
AcDbLine
 10
520.2435645763507
 20
344.9043657923137
 30
0.0
 11
520.7435645763507
 21
344.9043657923137
 31
0.0
  0
ARC
  5
4358
330
18
100
AcDbEntity
  8
1
  6
Continuous
100
AcDbCircle
 10
520.2435665763507
 20
347.4543657923139
 30
0.0
 40
1.0
100
AcDbArc
 50
199.3874719999999
 51
260.4058580000002
  0
ARC
  5
4359
330
18
100
AcDbEntity
  8
1
  6
Continuous
100
AcDbCircle
 10
520.0435645763508
 20
346.2711497923137
 30
0.0
 40
0.2
100
AcDbArc
 50
0.0
 51
80.40585800000023
  0
LINE
  5
435C
330
18
100
AcDbEntity
  8
1
  6
Continuous
100
AcDbLine
 10
529.7435645763507
 20
400.1243657923138
 30
0.0
 11
523.7435645763508
 21
400.1243657923138
 31
0.0
  0
ARC
  5
435D
330
18
100
AcDbEntity
  8
1
  6
Continuous
100
AcDbCircle
 10
500.7435645763506
 20
397.9543657923139
 30
0.0
 40
20.0
100
AcDbArc
 50
30.32892599999989
 51
90.0
  0
ARC
  5
435E
330
18
100
AcDbEntity
  8
1
  6
Continuous
100
AcDbCircle
 10
259.0641625763506
 20
256.5645977923137
 30
0.0
 40
300.0
100
AcDbArc
 50
29.52977600000141
 51
30.32892599999989
  0
ARC
  5
435F
330
18
100
AcDbEntity
  8
1
  6
Continuous
100
AcDbCircle
 10
515.7435645763507
 20
401.9629617923136
 30
0.0
 40
5.0
100
AcDbArc
 50
0.0
 51
29.52977600000141
  0
LINE
  5
4361
330
18
100
AcDbEntity
  8
1
  6
Continuous
100
AcDbLine
 10
451.7435645763507
 20
454.9543657923138
 30
0.0
 11
526.7435645763507
 21
454.9543657923138
 31
0.0
  0
ARC
  5
4362
330
18
100
AcDbEntity
  8
1
  6
Continuous
100
AcDbCircle
 10
500.4935645763508
 20
457.1845317923139
 30
0.0
 40
1.0
100
AcDbArc
 50
180.0
 51
270.0
  0
LINE
  5
4363
330
18
100
AcDbEntity
  8
1
  6
Continuous
100
AcDbLine
 10
544.2435645763508
 20
467.9543657923138
 30
0.0
 11
499.4935645763507
 21
467.9543657923138
 31
0.0
  0
LINE
  5
4364
330
18
100
AcDbEntity
  8
1
  6
Continuous
100
AcDbLine
 10
497.1935645763506
 20
472.9543657923138
 30
0.0
 11
544.2435645763508
 21
472.9543657923138
 31
0.0
  0
LINE
  5
4365
330
18
100
AcDbEntity
  8
1
  6
Continuous
100
AcDbLine
 10
451.9590015763507
 20
456.1845317923138
 30
0.0
 11
434.2435645763507
 21
467.2543657923138
 31
0.0
  0
LINE
  5
4366
330
18
100
AcDbEntity
  8
1
  6
Continuous
100
AcDbLine
 10
434.2435645763507
 20
472.9543657923138
 30
0.0
 11
481.2935645763508
 21
472.9543657923138
 31
0.0
  0
LINE
  5
4367
330
18
100
AcDbEntity
  8
1
  6
Continuous
100
AcDbLine
 10
434.2435645763507
 20
467.9543657923138
 30
0.0
 11
478.9935645763507
 21
467.9543657923138
 31
0.0
  0
LINE
  5
4368
330
18
100
AcDbEntity
  8
1
  6
Continuous
100
AcDbLine
 10
434.2435645763507
 20
472.9543657923138
 30
0.0
 11
434.2435645763507
 21
467.2543657923138
 31
0.0
  0
LINE
  5
4369
330
18
100
AcDbEntity
  8
4
  6
CENTER
 48
0.2
100
AcDbLine
 10
444.2435645763508
 20
478.9543657923139
 30
0.0
 11
444.2435645763508
 21
461.9543657923138
 31
0.0
  0
ARC
  5
436A
330
18
100
AcDbEntity
  8
1
  6
Continuous
100
AcDbCircle
 10
451.7435645763507
 20
448.9543657923138
 30
0.0
 40
6.0
100
AcDbArc
 50
90.0
 51
180.0
  0
ARC
  5
436B
330
18
100
AcDbEntity
  8
1
  6
Continuous
100
AcDbCircle
 10
455.2435645763507
 20
459.9543657923138
 30
0.0
 40
5.0
100
AcDbArc
 50
180.0
 51
270.0
  0
ARC
  5
436C
330
18
100
AcDbEntity
  8
1
  6
Continuous
100
AcDbCircle
 10
446.2435645763506
 20
463.9543657923138
 30
0.0
 40
4.0
100
AcDbArc
 50
0.0
 51
90.0
  0
LINE
  5
436D
330
18
100
AcDbEntity
  8
1
  6
Continuous
100
AcDbLine
 10
450.2435645763506
 20
463.9543657923138
 30
0.0
 11
450.2435645763506
 21
459.9543657923138
 31
0.0
  0
LINE
  5
436E
330
18
100
AcDbEntity
  8
1
  6
Continuous
100
AcDbLine
 10
480.3683375763506
 20
467.2543657923138
 30
0.0
 11
498.1187925763507
 21
467.2543657923138
 31
0.0
  0
LINE
  5
436F
330
18
100
AcDbEntity
  8
1
  6
Continuous
100
AcDbLine
 10
478.9935645763507
 20
467.1543657923137
 30
0.0
 11
478.9935645763507
 21
457.6845317923138
 31
0.0
  0
ARC
  5
4370
330
18
100
AcDbEntity
  8
1
  6
Continuous
100
AcDbCircle
 10
477.9935645763507
 20
457.1845317923139
 30
0.0
 40
1.0
100
AcDbArc
 50
270.0
 51
0.0
  0
ARC
  5
4371
330
18
100
AcDbEntity
  8
1
  6
Continuous
100
AcDbCircle
 10
480.3683375763506
 20
468.9543657923138
 30
0.0
 40
1.7
100
AcDbArc
 50
216.0318790000005
 51
270.0
  0
LINE
  5
4372
330
18
100
AcDbEntity
  8
1
  6
Continuous
100
AcDbLine
 10
499.4935645763507
 20
467.1543657923137
 30
0.0
 11
499.4935645763507
 21
457.6845317923138
 31
0.0
  0
LINE
  5
4373
330
18
100
AcDbEntity
  8
1
  6
Continuous
100
AcDbLine
 10
483.7435645763506
 20
456.1845317923138
 30
0.0
 11
494.7435645763508
 21
456.1845317923138
 31
0.0
  0
ARC
  5
4374
330
18
100
AcDbEntity
  8
1
  6
Continuous
100
AcDbCircle
 10
498.1187925763507
 20
468.9543657923138
 30
0.0
 40
1.7
100
AcDbArc
 50
270.0
 51
323.9681209999994
  0
ARC
  5
4375
330
18
100
AcDbEntity
  8
1
  6
Continuous
100
AcDbCircle
 10
489.2435645763507
 20
434.2757307923137
 30
0.0
 40
38.17863499999999
100
AcDbArc
 50
80.37357500000231
 51
99.62642499999772
  0
LINE
  5
4376
330
18
100
AcDbEntity
  8
1
  6
Continuous
100
AcDbLine
 10
489.2435645763507
 20
472.4543657923138
 30
0.0
 11
482.4977245763506
 21
472.4543657923138
 31
0.0
  0
LINE
  5
4377
330
18
100
AcDbEntity
  8
1
  6
Continuous
100
AcDbLine
 10
482.9935645763507
 20
471.2543657923138
 30
0.0
 11
495.4935645763507
 21
471.2543657923138
 31
0.0
  0
ARC
  5
4378
330
18
100
AcDbEntity
  8
1
  6
Continuous
100
AcDbCircle
 10
481.2935645763508
 20
471.2543657923138
 30
0.0
 40
1.7
100
AcDbArc
 50
0.0
 51
90.0
  0
LINE
  5
4379
330
18
100
AcDbEntity
  8
1
  6
Continuous
100
AcDbLine
 10
489.2435645763507
 20
472.4543657923138
 30
0.0
 11
495.9894055763506
 21
472.4543657923138
 31
0.0
  0
ARC
  5
437A
330
18
100
AcDbEntity
  8
1
  6
Continuous
100
AcDbCircle
 10
497.1935645763506
 20
471.2543657923138
 30
0.0
 40
1.7
100
AcDbArc
 50
90.0
 51
180.0
  0
LINE
  5
437B
330
18
100
AcDbEntity
  8
4
  6
CENTER
 48
0.2
100
AcDbLine
 10
534.2435645763507
 20
478.9543657923139
 30
0.0
 11
534.2435645763507
 21
461.9543657923138
 31
0.0
  0
LINE
  5
437C
330
18
100
AcDbEntity
  8
1
  6
Continuous
100
AcDbLine
 10
544.2435645763508
 20
472.9543657923138
 30
0.0
 11
544.2435645763508
 21
467.2543657923138
 31
0.0
  0
ARC
  5
437D
330
18
100
AcDbEntity
  8
1
  6
Continuous
100
AcDbCircle
 10
526.7435645763507
 20
448.9543657923138
 30
0.0
 40
6.0
100
AcDbArc
 50
0.0
 51
90.0
  0
LINE
  5
437E
330
18
100
AcDbEntity
  8
1
  6
Continuous
100
AcDbLine
 10
526.5281275763507
 20
456.1845317923138
 30
0.0
 11
544.2435645763508
 21
467.2543657923138
 31
0.0
  0
ARC
  5
437F
330
18
100
AcDbEntity
  8
1
  6
Continuous
100
AcDbCircle
 10
523.2435645763508
 20
459.9543657923138
 30
0.0
 40
5.0
100
AcDbArc
 50
270.0
 51
0.0
  0
ARC
  5
4380
330
18
100
AcDbEntity
  8
1
  6
Continuous
100
AcDbCircle
 10
532.2435645763508
 20
463.9543657923138
 30
0.0
 40
4.0
100
AcDbArc
 50
90.0
 51
180.0
  0
LINE
  5
4381
330
18
100
AcDbEntity
  8
1
  6
Continuous
100
AcDbLine
 10
528.2435645763507
 20
463.9543657923138
 30
0.0
 11
528.2435645763507
 21
459.9543657923138
 31
0.0
  0
LINE
  5
46A3
330
18
100
AcDbEntity
  8
4
  6
CENTER
 48
0.7
100
AcDbLine
 10
697.9161601607065
 20
479.4543657923139
 30
0.0
 11
697.9161601607065
 21
245.9543657923138
 31
0.0
  0
ARC
  5
46A6
330
18
100
AcDbEntity
  8
1
  6
Continuous
100
AcDbCircle
 10
697.9161601607065
 20
327.9543657923138
 30
0.0
 40
34.851433
100
AcDbArc
 50
181.8682429999995
 51
214.1317570000017
  0
ARC
  5
46A7
330
18
100
AcDbEntity
  8
1
  6
Continuous
100
AcDbCircle
 10
697.9161601607065
 20
327.9543657923138
 30
0.0
 40
33.0
100
AcDbArc
 50
181.2188179999999
 51
214.7811820000017
  0
ARC
  5
46A8
330
18
100
AcDbEntity
  8
1
  6
Continuous
100
AcDbCircle
 10
697.9161601607065
 20
327.9543657923138
 30
0.0
 40
24.0
100
AcDbArc
 50
169.6207479999995
 51
10.3792520000005
  0
CIRCLE
  5
46A9
330
18
100
AcDbEntity
  8
1
  6
Continuous
100
AcDbCircle
 10
697.9161601607065
 20
327.9543657923138
 30
0.0
 40
12.0
  0
LINE
  5
46AA
330
18
100
AcDbEntity
  8
1
  6
Continuous
100
AcDbLine
 10
720.7808251607063
 20
325.4629617923137
 30
0.0
 11
728.8985071607063
 21
399.9623617923139
 31
0.0
  0
LINE
  5
46AB
330
18
100
AcDbEntity
  8
1
  6
Continuous
100
AcDbLine
 10
675.0514951607065
 20
325.4629617923137
 30
0.0
 11
666.9338121607064
 21
399.9623617923139
 31
0.0
  0
CIRCLE
  5
46AC
330
18
100
AcDbEntity
  8
1
  6
Continuous
100
AcDbCircle
 10
697.9161601607065
 20
327.9543657923138
 30
0.0
 40
11.5
  0
ARC
  5
46AD
330
18
100
AcDbEntity
  8
1
  6
Continuous
100
AcDbCircle
 10
697.9161601607065
 20
327.9543657923138
 30
0.0
 40
56.50122099999999
100
AcDbArc
 50
177.5378109999993
 51
218.4621890000004
  0
ARC
  5
46AE
330
18
100
AcDbEntity
  8
1
  6
Continuous
100
AcDbCircle
 10
697.9161601607065
 20
327.9543657923138
 30
0.0
 40
58.0
100
AcDbArc
 50
177.3070369999997
 51
218.6929629999992
  0
ARC
  5
46AF
330
18
100
AcDbEntity
  8
1
  6
Continuous
100
AcDbCircle
 10
697.9161601607065
 20
327.9543657923138
 30
0.0
 40
56.50122099999999
100
AcDbArc
 50
321.5378109999997
 51
2.462189000000698
  0
ARC
  5
46B0
330
18
100
AcDbEntity
  8
1
  6
Continuous
100
AcDbCircle
 10
697.9161601607065
 20
327.9543657923138
 30
0.0
 40
58.0
100
AcDbArc
 50
321.3070370000007
 51
2.692963000000283
  0
ARC
  5
46B1
330
18
100
AcDbEntity
  8
1
  6
Continuous
100
AcDbCircle
 10
697.9161601607065
 20
327.9543657923138
 30
0.0
 40
75.0
100
AcDbArc
 50
114.0770530000022
 51
65.92294699999775
  0
ARC
  5
46B2
330
18
100
AcDbEntity
  8
1
  6
Continuous
100
AcDbCircle
 10
697.9161601607065
 20
327.9543657923138
 30
0.0
 40
34.851433
100
AcDbArc
 50
325.8682429999982
 51
358.1317570000004
  0
ARC
  5
46B3
330
18
100
AcDbEntity
  8
1
  6
Continuous
100
AcDbCircle
 10
697.9161601607065
 20
327.9543657923138
 30
0.0
 40
33.0
100
AcDbArc
 50
325.2188179999983
 51
2.173380000000615
  0
ARC
  5
46B4
330
18
100
AcDbEntity
  8
1
  6
Continuous
100
AcDbCircle
 10
697.9161601607065
 20
327.9543657923138
 30
0.0
 40
23.0
100
AcDbArc
 50
186.2185900000006
 51
353.7814099999993
  0
ARC
  5
46B5
330
18
100
AcDbEntity
  8
1
  6
Continuous
100
AcDbCircle
 10
697.9161601607065
 20
327.9543657923138
 30
0.0
 40
33.0
100
AcDbArc
 50
253.2188180000011
 51
286.7811819999987
  0
ARC
  5
46B6
330
18
100
AcDbEntity
  8
1
  6
Continuous
100
AcDbCircle
 10
697.9161601607065
 20
327.9543657923138
 30
0.0
 40
34.851433
100
AcDbArc
 50
253.8682429999977
 51
286.1317570000021
  0
ARC
  5
46B7
330
18
100
AcDbEntity
  8
1
  6
Continuous
100
AcDbCircle
 10
697.9161601607065
 20
327.9543657923138
 30
0.0
 40
56.50122099999999
100
AcDbArc
 50
249.5378109999998
 51
290.4621890000001
  0
ARC
  5
46B8
330
18
100
AcDbEntity
  8
1
  6
Continuous
100
AcDbCircle
 10
697.9161601607065
 20
327.9543657923138
 30
0.0
 40
58.0
100
AcDbArc
 50
249.307036999998
 51
290.692963000002
  0
LINE
  5
46B9
330
18
100
AcDbEntity
  8
1
  6
Continuous
100
AcDbLine
 10
719.5183911607065
 20
282.1552067923138
 30
0.0
 11
709.4896941607063
 21
293.9082187923138
 31
0.0
  0
LINE
  5
46BA
330
18
100
AcDbEntity
  8
1
  6
Continuous
100
AcDbLine
 10
734.4976891607065
 20
290.8889477923137
 30
0.0
 11
743.2508651607064
 21
276.6198927923137
 31
0.0
  0
LINE
  5
46BB
330
18
100
AcDbEntity
  8
1
  6
Continuous
100
AcDbLine
 10
710.6081181607065
 20
295.4158107923138
 30
0.0
 11
732.7933411607065
 21
268.9764907923138
 31
0.0
  0
LINE
  5
46BC
330
18
100
AcDbEntity
  8
1
  6
Continuous
100
AcDbLine
 10
724.9401331607065
 20
305.8286297923137
 30
0.0
 11
743.2298101607065
 21
276.5590297923138
 31
0.0
  0
ARC
  5
46BD
330
18
100
AcDbEntity
  8
1
  6
Continuous
100
AcDbCircle
 10
716.2908771607065
 20
279.3090187923137
 30
0.0
 40
6.0
100
AcDbArc
 50
290.692963000002
 51
40.00000000000027
  0
LINE
  5
46BE
330
18
100
AcDbEntity
  8
1
  6
Continuous
100
AcDbLine
 10
732.7289501607065
 20
268.9752747923138
 30
0.0
 11
721.8631521607065
 21
281.7094197923138
 31
0.0
  0
ARC
  5
46BF
330
18
100
AcDbEntity
  8
1
  6
Continuous
100
AcDbCircle
 10
741.5337141607063
 20
275.4991907923137
 30
0.0
 40
2.0
100
AcDbArc
 50
309.7442180000011
 51
32.00000000000104
  0
ARC
  5
46C0
330
18
100
AcDbEntity
  8
1
  6
Continuous
100
AcDbCircle
 10
741.4966351607064
 20
275.5437817923137
 30
0.0
 40
2.057993
100
AcDbArc
 50
309.7442180000011
 51
31.52651999999937
  0
ARC
  5
46C1
330
18
100
AcDbEntity
  8
1
  6
Continuous
100
AcDbCircle
 10
734.3254301607063
 20
270.2620667923138
 30
0.0
 40
2.0
100
AcDbArc
 50
220.0000000000002
 51
302.2557819999998
  0
ARC
  5
46C2
330
18
100
AcDbEntity
  8
1
  6
Continuous
100
AcDbCircle
 10
734.2944791607065
 20
270.3111097923137
 30
0.0
 40
2.057993
100
AcDbArc
 50
220.4734800000016
 51
302.2557819999998
  0
ARC
  5
46C3
330
18
100
AcDbEntity
  8
1
  6
Continuous
100
AcDbCircle
 10
716.0952231607065
 20
279.2342607923137
 30
0.0
 40
4.5
100
AcDbArc
 50
290.4621890000001
 51
40.47370799999958
  0
ARC
  5
46C4
330
18
100
AcDbEntity
  8
1
  6
Continuous
100
AcDbCircle
 10
723.3845651607065
 20
283.0076117923137
 30
0.0
 40
2.0
100
AcDbArc
 50
207.5371819999995
 51
220.4734800000016
  0
ARC
  5
46C5
330
18
100
AcDbEntity
  8
1
  6
Continuous
100
AcDbCircle
 10
697.9161601607065
 20
327.9543657923138
 30
0.0
 40
33.0
100
AcDbArc
 50
286.7811819999987
 51
325.2188179999983
  0
LINE
  5
46C6
330
18
100
AcDbEntity
  8
1
  6
Continuous
100
AcDbLine
 10
734.7982921607065
 20
293.2567047923138
 30
0.0
 11
726.7195501607065
 21
306.4264427923137
 31
0.0
  0
ARC
  5
46C7
330
18
100
AcDbEntity
  8
1
  6
Continuous
100
AcDbCircle
 10
738.5025341607064
 20
295.4467317923138
 30
0.0
 40
6.0
100
AcDbArc
 50
212.000000000001
 51
321.3070370000007
  0
ARC
  5
46C8
330
18
100
AcDbEntity
  8
1
  6
Continuous
100
AcDbCircle
 10
738.6340931607064
 20
295.6097087923137
 30
0.0
 40
4.5
100
AcDbArc
 50
211.5262920000011
 51
321.5378109999997
  0
ARC
  5
46C9
330
18
100
AcDbEntity
  8
1
  6
Continuous
100
AcDbCircle
 10
732.7928921607065
 20
289.8431617923138
 30
0.0
 40
2.0
100
AcDbArc
 50
31.52651999999937
 51
44.46281799999804
  0
ARC
  5
46CA
330
18
100
AcDbEntity
  8
1
  6
Continuous
100
AcDbCircle
 10
728.2709191607063
 20
307.3781017923138
 30
0.0
 40
1.82
100
AcDbArc
 50
145.8682429999982
 51
211.5262920000011
  0
ARC
  5
46CB
330
18
100
AcDbEntity
  8
1
  6
Continuous
100
AcDbCircle
 10
727.4842781607063
 20
307.4183877923137
 30
0.0
 40
3.0
100
AcDbArc
 50
145.2188179999982
 51
212.000000000001
  0
ARC
  5
46CC
330
18
100
AcDbEntity
  8
1
  6
Continuous
100
AcDbCircle
 10
708.3099851607063
 20
293.4874477923137
 30
0.0
 40
3.0
100
AcDbArc
 50
40.00000000000027
 51
106.7811819999987
  0
ARC
  5
46CD
330
18
100
AcDbEntity
  8
1
  6
Continuous
100
AcDbCircle
 10
708.1052131607065
 20
292.7268587923137
 30
0.0
 40
1.82
100
AcDbArc
 50
40.47370799999958
 51
106.1317570000022
  0
LINE
  5
46D0
330
18
100
AcDbEntity
  8
1
  6
Continuous
100
AcDbLine
 10
652.5814551607063
 20
276.6198927923137
 30
0.0
 11
661.3346311607065
 21
290.8889477923137
 31
0.0
  0
LINE
  5
46D1
330
18
100
AcDbEntity
  8
1
  6
Continuous
100
AcDbLine
 10
676.3139281607065
 20
282.1552067923138
 30
0.0
 11
686.3426261607064
 21
293.9082187923138
 31
0.0
  0
LINE
  5
46D2
330
18
100
AcDbEntity
  8
1
  6
Continuous
100
AcDbLine
 10
670.8921861607064
 20
305.8286297923137
 30
0.0
 11
652.6025101607065
 21
276.5590297923138
 31
0.0
  0
LINE
  5
46D3
330
18
100
AcDbEntity
  8
1
  6
Continuous
100
AcDbLine
 10
685.2242021607064
 20
295.4158107923138
 30
0.0
 11
663.0389781607065
 21
268.9764907923138
 31
0.0
  0
ARC
  5
46D4
330
18
100
AcDbEntity
  8
1
  6
Continuous
100
AcDbCircle
 10
661.5068891607063
 20
270.2620667923138
 30
0.0
 40
2.0
100
AcDbArc
 50
237.7442180000002
 51
319.9999999999997
  0
ARC
  5
46D5
330
18
100
AcDbEntity
  8
1
  6
Continuous
100
AcDbCircle
 10
661.5378401607065
 20
270.3111097923137
 30
0.0
 40
2.057993
100
AcDbArc
 50
237.7442180000002
 51
319.5265199999983
  0
ARC
  5
46D6
330
18
100
AcDbEntity
  8
1
  6
Continuous
100
AcDbCircle
 10
679.7370961607064
 20
279.2342607923137
 30
0.0
 40
4.5
100
AcDbArc
 50
139.5262920000004
 51
249.5378109999998
  0
ARC
  5
46D7
330
18
100
AcDbEntity
  8
1
  6
Continuous
100
AcDbCircle
 10
679.5414421607065
 20
279.3090187923137
 30
0.0
 40
6.0
100
AcDbArc
 50
139.9999999999997
 51
249.307036999998
  0
LINE
  5
46D8
330
18
100
AcDbEntity
  8
1
  6
Continuous
100
AcDbLine
 10
673.9691671607064
 20
281.7094197923138
 30
0.0
 11
663.1033691607065
 21
268.9752747923138
 31
0.0
  0
ARC
  5
46D9
330
18
100
AcDbEntity
  8
1
  6
Continuous
100
AcDbCircle
 10
672.4477541607065
 20
283.0076117923137
 30
0.0
 40
2.0
100
AcDbArc
 50
319.5265199999983
 51
332.4628180000004
  0
ARC
  5
46DA
330
18
100
AcDbEntity
  8
1
  6
Continuous
100
AcDbCircle
 10
654.2986061607065
 20
275.4991907923137
 30
0.0
 40
2.0
100
AcDbArc
 50
147.9999999999989
 51
230.2557819999988
  0
ARC
  5
46DB
330
18
100
AcDbEntity
  8
1
  6
Continuous
100
AcDbCircle
 10
654.3356851607065
 20
275.5437817923137
 30
0.0
 40
2.057993
100
AcDbArc
 50
148.4734800000006
 51
230.2557819999988
  0
ARC
  5
46DC
330
18
100
AcDbEntity
  8
1
  6
Continuous
100
AcDbCircle
 10
657.3297861607064
 20
295.4467317923138
 30
0.0
 40
6.0
100
AcDbArc
 50
218.6929629999992
 51
327.999999999999
  0
LINE
  5
46DD
330
18
100
AcDbEntity
  8
1
  6
Continuous
100
AcDbLine
 10
661.0340281607065
 20
293.2567047923138
 30
0.0
 11
669.1127691607065
 21
306.4264427923137
 31
0.0
  0
ARC
  5
46DE
330
18
100
AcDbEntity
  8
1
  6
Continuous
100
AcDbCircle
 10
697.9161601607065
 20
327.9543657923138
 30
0.0
 40
33.0
100
AcDbArc
 50
214.7811820000017
 51
253.2188180000011
  0
ARC
  5
46DF
330
18
100
AcDbEntity
  8
1
  6
Continuous
100
AcDbCircle
 10
687.7271071607065
 20
292.7268587923137
 30
0.0
 40
1.82
100
AcDbArc
 50
73.86824299999776
 51
139.5262920000004
  0
ARC
  5
46E0
330
18
100
AcDbEntity
  8
1
  6
Continuous
100
AcDbCircle
 10
687.5223351607063
 20
293.4874477923137
 30
0.0
 40
3.0
100
AcDbArc
 50
73.21881800000125
 51
139.9999999999997
  0
ARC
  5
46E1
330
18
100
AcDbEntity
  8
1
  6
Continuous
100
AcDbCircle
 10
663.0394271607065
 20
289.8431617923138
 30
0.0
 40
2.0
100
AcDbArc
 50
135.5371820000019
 51
148.4734800000006
  0
ARC
  5
46E2
330
18
100
AcDbEntity
  8
1
  6
Continuous
100
AcDbCircle
 10
667.5614011607065
 20
307.3781017923138
 30
0.0
 40
1.82
100
AcDbArc
 50
328.4737079999988
 51
34.13175700000194
  0
ARC
  5
46E3
330
18
100
AcDbEntity
  8
1
  6
Continuous
100
AcDbCircle
 10
668.3480421607064
 20
307.4183877923137
 30
0.0
 40
3.0
100
AcDbArc
 50
327.999999999999
 51
34.7811820000017
  0
ARC
  5
46E4
330
18
100
AcDbEntity
  8
1
  6
Continuous
100
AcDbCircle
 10
657.1982261607066
 20
295.6097087923137
 30
0.0
 40
4.5
100
AcDbArc
 50
218.4621890000004
 51
328.4737079999988
  0
ARC
  5
46E6
330
18
100
AcDbEntity
  8
1
  6
Continuous
100
AcDbCircle
 10
687.6661601607064
 20
443.5851317923138
 30
0.0
 40
28.869234
100
AcDbArc
 50
73.42221200000143
 51
82.63278400000395
  0
LINE
  5
46E7
330
18
100
AcDbEntity
  8
1
  6
Continuous
100
AcDbLine
 10
706.7913871607064
 20
467.2543657923138
 30
0.0
 11
689.0409321607063
 21
467.2543657923138
 31
0.0
  0
LINE
  5
46E8
330
18
100
AcDbEntity
  8
1
  6
Continuous
100
AcDbLine
 10
704.6620001607065
 20
472.4543657923138
 30
0.0
 11
691.1703191607065
 21
472.4543657923138
 31
0.0
  0
LINE
  5
46E9
330
18
100
AcDbEntity
  8
1
  6
Continuous
100
AcDbLine
 10
704.1661601607065
 20
471.2543657923138
 30
0.0
 11
691.6661601607065
 21
471.2543657923138
 31
0.0
  0
LINE
  5
46EA
330
18
100
AcDbEntity
  8
4
  6
CENTER
 48
0.7
100
AcDbLine
 10
779.9161601607067
 20
327.9543657923138
 30
0.0
 11
615.9161601607064
 21
327.9543657923138
 31
0.0
  0
LINE
  5
46EB
330
18
100
AcDbEntity
  8
1
  6
Continuous
100
AcDbLine
 10
741.4161601607064
 20
454.9543657923138
 30
0.0
 11
654.4161601607064
 21
454.9543657923138
 31
0.0
  0
LINE
  5
46EC
330
18
100
AcDbEntity
  8
1
  6
Continuous
100
AcDbLine
 10
728.9161601607064
 20
448.9543657923138
 30
0.0
 11
728.9161601607064
 21
400.2873277923137
 31
0.0
  0
ARC
  5
46ED
330
18
100
AcDbEntity
  8
1
  6
Continuous
100
AcDbCircle
 10
761.3021311607065
 20
386.1826467923137
 30
0.0
 40
38.40284899999999
100
AcDbArc
 50
132.4570039999988
 51
142.0138329999996
  0
LINE
  5
46EE
330
18
100
AcDbEntity
  8
1
  6
Continuous
100
AcDbLine
 10
744.4717811607064
 20
351.2916237923137
 30
0.0
 11
760.7473391607061
 21
355.2070077923137
 31
0.0
  0
ARC
  5
46EF
330
18
100
AcDbEntity
  8
1
  6
Continuous
100
AcDbCircle
 10
749.8693721607065
 20
330.1883427923137
 30
0.0
 40
4.5
100
AcDbArc
 50
2.462189000000698
 51
112.4737079999996
  0
ARC
  5
46F0
330
18
100
AcDbEntity
  8
1
  6
Continuous
100
AcDbCircle
 10
749.8587341607064
 20
330.3975217923138
 30
0.0
 40
6.0
100
AcDbArc
 50
2.692963000000283
 51
112.0000000000011
  0
LINE
  5
46F1
330
18
100
AcDbEntity
  8
1
  6
Continuous
100
AcDbLine
 10
732.7841951607065
 20
329.9701687923138
 30
0.0
 11
764.7850931607065
 21
342.8993707923138
 31
0.0
  0
LINE
  5
46F2
330
18
100
AcDbEntity
  8
1
  6
Continuous
100
AcDbLine
 10
764.7663531607064
 20
342.8377557923138
 30
0.0
 11
749.2977441607064
 21
336.4388347923138
 31
0.0
  0
LINE
  5
46F3
330
18
100
AcDbEntity
  8
1
  6
Continuous
100
AcDbLine
 10
727.3098521607063
 20
346.8184637923138
 30
0.0
 11
760.7987171607065
 21
355.1681757923138
 31
0.0
  0
ARC
  5
46F4
330
18
100
AcDbEntity
  8
1
  6
Continuous
100
AcDbCircle
 10
764.0358801607065
 20
344.7537387923139
 30
0.0
 40
2.0
100
AcDbArc
 50
292.0000000000011
 51
14.25578200000111
  0
ARC
  5
46F5
330
18
100
AcDbEntity
  8
1
  6
Continuous
100
AcDbCircle
 10
763.9796731607066
 20
344.7394577923138
 30
0.0
 40
2.057993
100
AcDbArc
 50
292.4734799999993
 51
14.25578200000111
  0
ARC
  5
46F6
330
18
100
AcDbEntity
  8
1
  6
Continuous
100
AcDbCircle
 10
761.2825611607064
 20
353.2275837923137
 30
0.0
 40
2.0
100
AcDbArc
 50
21.74421799999856
 51
104.0000000000026
  0
ARC
  5
46F7
330
18
100
AcDbEntity
  8
1
  6
Continuous
100
AcDbCircle
 10
761.2286941607065
 20
353.2060997923139
 30
0.0
 40
2.057993
100
AcDbArc
 50
21.74421799999856
 51
103.526520000003
  0
ARC
  5
46F8
330
18
100
AcDbEntity
  8
1
  6
Continuous
100
AcDbCircle
 10
697.9161601607065
 20
327.9543657923138
 30
0.0
 40
58.0
100
AcDbArc
 50
33.30703700000001
 51
60.4186239999988
  0
ARC
  5
46F9
330
18
100
AcDbEntity
  8
1
  6
Continuous
100
AcDbCircle
 10
697.9161601607065
 20
327.9543657923138
 30
0.0
 40
56.50122099999999
100
AcDbArc
 50
33.53781100000091
 51
59.76044799999996
  0
ARC
  5
46FA
330
18
100
AcDbEntity
  8
1
  6
Continuous
100
AcDbCircle
 10
726.5840861607065
 20
349.7293507923137
 30
0.0
 40
3.0
100
AcDbArc
 50
217.2188179999978
 51
284.0000000000026
  0
ARC
  5
46FB
330
18
100
AcDbEntity
  8
1
  6
Continuous
100
AcDbCircle
 10
697.9161601607065
 20
327.9543657923138
 30
0.0
 40
33.0
100
AcDbArc
 50
358.7811820000002
 51
37.21881799999785
  0
LINE
  5
46FC
330
18
100
AcDbEntity
  8
1
  6
Continuous
100
AcDbLine
 10
748.1492051607065
 20
334.3465897923138
 30
0.0
 11
733.8723881607066
 21
328.4406127923138
 31
0.0
  0
ARC
  5
46FD
330
18
100
AcDbEntity
  8
1
  6
Continuous
100
AcDbCircle
 10
748.5332331607065
 20
338.2869477923138
 30
0.0
 40
2.0
100
AcDbArc
 50
279.537182000002
 51
292.4734799999993
  0
ARC
  5
46FE
330
18
100
AcDbEntity
  8
1
  6
Continuous
100
AcDbCircle
 10
733.9080151607064
 20
327.1886167923138
 30
0.0
 40
3.0
100
AcDbArc
 50
112.0000000000011
 51
178.7811820000001
  0
ARC
  5
46FF
330
18
100
AcDbEntity
  8
1
  6
Continuous
100
AcDbCircle
 10
734.5681001607065
 20
326.7588327923137
 30
0.0
 40
1.82
100
AcDbArc
 50
112.4737079999996
 51
178.1317570000003
  0
LINE
  5
4700
330
18
100
AcDbEntity
  8
1
  6
Continuous
100
AcDbLine
 10
742.3128021607063
 20
352.3091907923137
 30
0.0
 11
727.2911681607064
 21
348.6955237923138
 31
0.0
  0
ARC
  5
4701
330
18
100
AcDbEntity
  8
1
  6
Continuous
100
AcDbCircle
 10
741.2602901607065
 20
356.6843727923137
 30
0.0
 40
4.5
100
AcDbArc
 50
283.5262920000023
 51
33.53781100000091
  0
ARC
  5
4702
330
18
100
AcDbEntity
  8
1
  6
Continuous
100
AcDbCircle
 10
741.3746361607064
 20
356.5088897923137
 30
0.0
 40
6.0
100
AcDbArc
 50
284.0000000000026
 51
33.30703700000001
  0
ARC
  5
4703
330
18
100
AcDbEntity
  8
1
  6
Continuous
100
AcDbCircle
 10
744.9395721607063
 20
349.3470997923137
 30
0.0
 40
2.0
100
AcDbArc
 50
103.526520000003
 51
116.4628179999977
  0
ARC
  5
4704
330
18
100
AcDbEntity
  8
1
  6
Continuous
100
AcDbCircle
 10
697.9161601607065
 20
327.9543657923138
 30
0.0
 40
33.0
100
AcDbArc
 50
37.21881799999785
 51
39.59702499999934
  0
ARC
  5
4705
330
18
100
AcDbEntity
  8
1
  6
Continuous
100
AcDbCircle
 10
726.8654861607065
 20
350.4650417923137
 30
0.0
 40
1.82
100
AcDbArc
 50
217.8682429999998
 51
283.5262920000023
  0
ARC
  5
4706
330
18
100
AcDbEntity
  8
1
  6
Continuous
100
AcDbCircle
 10
697.9161601607065
 20
327.9543657923138
 30
0.0
 40
34.851433
100
AcDbArc
 50
37.86824299999978
 51
42.48579600000168
  0
ARC
  5
4709
330
18
100
AcDbEntity
  8
1
  6
Continuous
100
AcDbCircle
 10
725.9161601607067
 20
400.2873277923137
 30
0.0
 40
3.0
100
AcDbArc
 50
353.7814099999993
 51
0.000000000000007
  0
ARC
  5
470A
330
18
100
AcDbEntity
  8
1
  6
Continuous
100
AcDbCircle
 10
738.9161601607066
 20
403.6637827923136
 30
0.0
 40
10.0
100
AcDbArc
 50
142.0138329999996
 51
180.0
  0
ARC
  5
470B
330
18
100
AcDbEntity
  8
1
  6
Continuous
100
AcDbCircle
 10
722.9161601607065
 20
448.9543657923138
 30
0.0
 40
6.0
100
AcDbArc
 50
0.000000000000007
 51
90.0
  0
ARC
  5
470C
330
18
100
AcDbEntity
  8
1
  6
Continuous
100
AcDbCircle
 10
739.6868371607064
 20
448.9206317923136
 30
0.0
 40
6.033733999999999
100
AcDbArc
 50
0.000000000000007
 51
90.0
  0
ARC
  5
470D
330
18
100
AcDbEntity
  8
1
  6
Continuous
100
AcDbCircle
 10
741.4161601607064
 20
448.9543657923138
 30
0.0
 40
6.0
100
AcDbArc
 50
0.000000000000007
 51
90.0
  0
ARC
  5
470E
330
18
100
AcDbEntity
  8
1
  6
Continuous
100
AcDbCircle
 10
731.9161601607064
 20
459.9543657923138
 30
0.0
 40
5.0
100
AcDbArc
 50
270.0
 51
0.000000000000007
  0
LINE
  5
470F
330
18
100
AcDbEntity
  8
1
  6
Continuous
100
AcDbLine
 10
745.7205711607065
 20
448.9206317923136
 30
0.0
 11
745.7205711607065
 21
420.9698897923138
 31
0.0
  0
LINE
  5
4710
330
18
100
AcDbEntity
  8
1
  6
Continuous
100
AcDbLine
 10
747.4161601607065
 20
448.9543657923138
 30
0.0
 11
747.4161601607065
 21
420.9543657923139
 31
0.0
  0
ARC
  5
4711
330
18
100
AcDbEntity
  8
1
  6
Continuous
100
AcDbCircle
 10
751.8549191607063
 20
396.5080157923139
 30
0.0
 40
24.407741
100
AcDbArc
 50
122.8138569999989
 51
132.4570039999988
  0
ARC
  5
4712
330
18
100
AcDbEntity
  8
1
  6
Continuous
100
AcDbCircle
 10
742.7050471607063
 20
420.9698897923138
 30
0.0
 40
3.015524
100
AcDbArc
 50
270.0
 51
0.000000000000007
  0
ARC
  5
4713
330
18
100
AcDbEntity
  8
1
  6
Continuous
100
AcDbCircle
 10
744.4161601607064
 20
420.9543657923139
 30
0.0
 40
3.0
100
AcDbArc
 50
270.0
 51
0.000000000000007
  0
LINE
  5
4714
330
18
100
AcDbEntity
  8
1
  6
Continuous
100
AcDbLine
 10
741.1342601607063
 20
417.9543657923138
 30
0.0
 11
744.4161601607064
 21
417.9543657923138
 31
0.0
  0
ARC
  5
4715
330
18
100
AcDbEntity
  8
1
  6
Continuous
100
AcDbCircle
 10
741.1342601607063
 20
415.4812827923136
 30
0.0
 40
2.473083
100
AcDbArc
 50
90.0
 51
106.7732189999984
  0
ARC
  5
4716
330
18
100
AcDbEntity
  8
1
  6
Continuous
100
AcDbCircle
 10
742.4625211607065
 20
411.0744267923138
 30
0.0
 40
7.075761999999999
100
AcDbArc
 50
106.7732189999984
 51
122.8138569999989
  0
LINE
  5
4717
330
18
100
AcDbEntity
  8
1
  6
Continuous
100
AcDbLine
 10
752.9161601607064
 20
472.9543657923138
 30
0.0
 11
705.8661601607065
 21
472.9543657923138
 31
0.0
  0
LINE
  5
4718
330
18
100
AcDbEntity
  8
1
  6
Continuous
100
AcDbLine
 10
752.9161601607064
 20
467.9543657923138
 30
0.0
 11
708.1661601607065
 21
467.9543657923138
 31
0.0
  0
LINE
  5
4719
330
18
100
AcDbEntity
  8
4
  6
CENTER
 48
0.2
100
AcDbLine
 10
742.9161601607066
 20
478.9543657923139
 30
0.0
 11
742.9161601607066
 21
461.9543657923138
 31
0.0
  0
ARC
  5
471A
330
18
100
AcDbEntity
  8
1
  6
Continuous
100
AcDbCircle
 10
740.9161601607064
 20
463.9543657923138
 30
0.0
 40
4.0
100
AcDbArc
 50
90.0
 51
180.0
  0
LINE
  5
471B
330
18
100
AcDbEntity
  8
1
  6
Continuous
100
AcDbLine
 10
735.2007231607065
 20
456.1845317923138
 30
0.0
 11
752.9161601607064
 21
467.2543657923138
 31
0.0
  0
LINE
  5
471C
330
18
100
AcDbEntity
  8
1
  6
Continuous
100
AcDbLine
 10
752.9161601607064
 20
472.9543657923138
 30
0.0
 11
752.9161601607064
 21
467.2543657923138
 31
0.0
  0
LINE
  5
471D
330
18
100
AcDbEntity
  8
1
  6
Continuous
100
AcDbLine
 10
736.9161601607064
 20
463.9543657923138
 30
0.0
 11
736.9161601607064
 21
459.9543657923138
 31
0.0
  0
ARC
  5
471E
330
18
100
AcDbEntity
  8
1
  6
Continuous
100
AcDbCircle
 10
706.7913871607064
 20
468.9543657923138
 30
0.0
 40
1.7
100
AcDbArc
 50
270.0
 51
323.9681209999994
  0
LINE
  5
471F
330
18
100
AcDbEntity
  8
1
  6
Continuous
100
AcDbLine
 10
708.1661601607065
 20
467.1543657923137
 30
0.0
 11
708.1661601607065
 21
457.6845317923138
 31
0.0
  0
ARC
  5
4720
330
18
100
AcDbEntity
  8
1
  6
Continuous
100
AcDbCircle
 10
709.1661601607064
 20
457.1845317923139
 30
0.0
 40
1.0
100
AcDbArc
 50
180.0
 51
270.0
  0
LINE
  5
4721
330
18
100
AcDbEntity
  8
1
  6
Continuous
100
AcDbLine
 10
703.4161601607064
 20
456.1845317923138
 30
0.0
 11
692.4161601607067
 21
456.1845317923138
 31
0.0
  0
ARC
  5
4722
330
18
100
AcDbEntity
  8
1
  6
Continuous
100
AcDbCircle
 10
705.8661601607065
 20
471.2543657923138
 30
0.0
 40
1.7
100
AcDbArc
 50
90.0
 51
180.0
  0
ARC
  5
4723
330
18
100
AcDbEntity
  8
1
  6
Continuous
100
AcDbCircle
 10
708.1661601607065
 20
443.5851317923138
 30
0.0
 40
28.869234
100
AcDbArc
 50
97.36721599999608
 51
106.5777879999985
  0
ARC
  5
4724
330
18
100
AcDbEntity
  8
1
  6
Continuous
100
AcDbCircle
 10
634.5301881607065
 20
386.1826467923137
 30
0.0
 40
38.40284899999999
100
AcDbArc
 50
37.98616700000037
 51
47.54299600000114
  0
LINE
  5
4725
330
18
100
AcDbEntity
  8
1
  6
Continuous
100
AcDbLine
 10
666.9161601607064
 20
448.9543657923138
 30
0.0
 11
666.9161601607064
 21
400.2873277923137
 31
0.0
  0
ARC
  5
4726
330
18
100
AcDbEntity
  8
1
  6
Continuous
100
AcDbCircle
 10
631.7964391607064
 20
344.7537387923139
 30
0.0
 40
2.0
100
AcDbArc
 50
165.7442179999988
 51
247.9999999999988
  0
ARC
  5
4727
330
18
100
AcDbEntity
  8
1
  6
Continuous
100
AcDbCircle
 10
631.8526471607063
 20
344.7394577923138
 30
0.0
 40
2.057993
100
AcDbArc
 50
165.7442179999988
 51
247.5265200000007
  0
ARC
  5
4728
330
18
100
AcDbEntity
  8
1
  6
Continuous
100
AcDbCircle
 10
697.9161601607065
 20
327.9543657923138
 30
0.0
 40
58.0
100
AcDbArc
 50
119.5813760000012
 51
146.6929629999999
  0
ARC
  5
4729
330
18
100
AcDbEntity
  8
1
  6
Continuous
100
AcDbCircle
 10
697.9161601607065
 20
327.9543657923138
 30
0.0
 40
56.50122099999999
100
AcDbArc
 50
120.239552
 51
146.4621889999991
  0
LINE
  5
472A
330
18
100
AcDbEntity
  8
1
  6
Continuous
100
AcDbLine
 10
653.5195171607065
 20
352.3091907923137
 30
0.0
 11
668.5411511607063
 21
348.6955237923138
 31
0.0
  0
LINE
  5
472B
330
18
100
AcDbEntity
  8
1
  6
Continuous
100
AcDbLine
 10
647.6831151607065
 20
334.3465897923138
 30
0.0
 11
661.9599321607064
 21
328.4406127923138
 31
0.0
  0
LINE
  5
472C
330
18
100
AcDbEntity
  8
1
  6
Continuous
100
AcDbLine
 10
668.5224671607064
 20
346.8184637923138
 30
0.0
 11
635.0336021607064
 21
355.1681757923138
 31
0.0
  0
LINE
  5
472D
330
18
100
AcDbEntity
  8
1
  6
Continuous
100
AcDbLine
 10
663.0481241607063
 20
329.9701687923138
 30
0.0
 11
631.0472261607063
 21
342.8993707923138
 31
0.0
  0
ARC
  5
472E
330
18
100
AcDbEntity
  8
1
  6
Continuous
100
AcDbCircle
 10
669.2482331607065
 20
349.7293507923137
 30
0.0
 40
3.0
100
AcDbArc
 50
255.9999999999972
 51
322.7811820000022
  0
ARC
  5
472F
330
18
100
AcDbEntity
  8
1
  6
Continuous
100
AcDbCircle
 10
697.9161601607065
 20
327.9543657923138
 30
0.0
 40
33.0
100
AcDbArc
 50
142.7811820000021
 51
181.2188179999999
  0
ARC
  5
4730
330
18
100
AcDbEntity
  8
1
  6
Continuous
100
AcDbCircle
 10
661.9243051607063
 20
327.1886167923138
 30
0.0
 40
3.0
100
AcDbArc
 50
1.218817999999888
 51
67.99999999999889
  0
ARC
  5
4731
330
18
100
AcDbEntity
  8
1
  6
Continuous
100
AcDbCircle
 10
661.2642201607065
 20
326.7588327923137
 30
0.0
 40
1.82
100
AcDbArc
 50
1.86824299999961
 51
67.52629200000038
  0
ARC
  5
4732
330
18
100
AcDbEntity
  8
1
  6
Continuous
100
AcDbCircle
 10
668.9668341607065
 20
350.4650417923137
 30
0.0
 40
1.82
100
AcDbArc
 50
256.4737079999975
 51
322.1317570000002
  0
ARC
  5
4733
330
18
100
AcDbEntity
  8
1
  6
Continuous
100
AcDbCircle
 10
697.9161601607065
 20
327.9543657923138
 30
0.0
 40
33.0
100
AcDbArc
 50
140.4029750000006
 51
142.7811820000021
  0
ARC
  5
4734
330
18
100
AcDbEntity
  8
1
  6
Continuous
100
AcDbCircle
 10
697.9161601607065
 20
327.9543657923138
 30
0.0
 40
34.851433
100
AcDbArc
 50
137.5142039999983
 51
142.1317570000002
  0
ARC
  5
4735
330
18
100
AcDbEntity
  8
1
  6
Continuous
100
AcDbCircle
 10
645.9629471607065
 20
330.1883427923137
 30
0.0
 40
4.5
100
AcDbArc
 50
67.52629200000038
 51
177.5378109999993
  0
LINE
  5
4736
330
18
100
AcDbEntity
  8
1
  6
Continuous
100
AcDbLine
 10
646.5345751607063
 20
336.4388347923138
 30
0.0
 11
631.0659671607063
 21
342.8377557923138
 31
0.0
  0
ARC
  5
4737
330
18
100
AcDbEntity
  8
1
  6
Continuous
100
AcDbCircle
 10
645.9735861607065
 20
330.3975217923138
 30
0.0
 40
6.0
100
AcDbArc
 50
67.99999999999889
 51
177.3070369999997
  0
ARC
  5
4738
330
18
100
AcDbEntity
  8
1
  6
Continuous
100
AcDbCircle
 10
647.2990871607064
 20
338.2869477923138
 30
0.0
 40
2.0
100
AcDbArc
 50
247.5265200000007
 51
260.4628179999979
  0
LINE
  5
4739
330
18
100
AcDbEntity
  8
1
  6
Continuous
100
AcDbLine
 10
635.0849801607064
 20
355.2070077923137
 30
0.0
 11
651.3605391607065
 21
351.2916237923137
 31
0.0
  0
ARC
  5
473A
330
18
100
AcDbEntity
  8
1
  6
Continuous
100
AcDbCircle
 10
654.5720291607064
 20
356.6843727923137
 30
0.0
 40
4.5
100
AcDbArc
 50
146.4621889999991
 51
256.4737079999975
  0
ARC
  5
473B
330
18
100
AcDbEntity
  8
1
  6
Continuous
100
AcDbCircle
 10
654.4576841607064
 20
356.5088897923137
 30
0.0
 40
6.0
100
AcDbArc
 50
146.6929629999999
 51
255.9999999999972
  0
ARC
  5
473C
330
18
100
AcDbEntity
  8
1
  6
Continuous
100
AcDbCircle
 10
650.8927481607067
 20
349.3470997923137
 30
0.0
 40
2.0
100
AcDbArc
 50
63.53718200000226
 51
76.47347999999697
  0
ARC
  5
473D
330
18
100
AcDbEntity
  8
1
  6
Continuous
100
AcDbCircle
 10
634.5497591607064
 20
353.2275837923137
 30
0.0
 40
2.0
100
AcDbArc
 50
75.99999999999731
 51
158.2557820000014
  0
ARC
  5
473E
330
18
100
AcDbEntity
  8
1
  6
Continuous
100
AcDbCircle
 10
634.6036251607064
 20
353.2060997923139
 30
0.0
 40
2.057993
100
AcDbArc
 50
76.47347999999697
 51
158.2557820000014
  0
ARC
  5
473F
330
18
100
AcDbEntity
  8
1
  6
Continuous
100
AcDbCircle
 10
669.9161601607064
 20
400.2873277923137
 30
0.0
 40
3.0
100
AcDbArc
 50
180.0
 51
186.2185900000006
  0
ARC
  5
4740
330
18
100
AcDbEntity
  8
1
  6
Continuous
100
AcDbCircle
 10
656.9161601607064
 20
403.6637827923136
 30
0.0
 40
10.0
100
AcDbArc
 50
0.000000000000007
 51
37.98616700000037
  0
ARC
  5
4742
330
18
100
AcDbEntity
  8
1
  6
Continuous
100
AcDbCircle
 10
663.9161601607066
 20
459.9543657923138
 30
0.0
 40
5.0
100
AcDbArc
 50
180.0
 51
270.0
  0
ARC
  5
4743
330
18
100
AcDbEntity
  8
1
  6
Continuous
100
AcDbCircle
 10
656.1454821607063
 20
448.9206317923136
 30
0.0
 40
6.033733999999999
100
AcDbArc
 50
90.0
 51
180.0
  0
ARC
  5
4744
330
18
100
AcDbEntity
  8
1
  6
Continuous
100
AcDbCircle
 10
654.4161601607064
 20
448.9543657923138
 30
0.0
 40
6.0
100
AcDbArc
 50
90.0
 51
180.0
  0
ARC
  5
4745
330
18
100
AcDbEntity
  8
1
  6
Continuous
100
AcDbCircle
 10
672.9161601607065
 20
448.9543657923138
 30
0.0
 40
6.0
100
AcDbArc
 50
90.0
 51
180.0
  0
LINE
  5
4746
330
18
100
AcDbEntity
  8
1
  6
Continuous
100
AcDbLine
 10
650.1117481607065
 20
448.9206317923136
 30
0.0
 11
650.1117481607065
 21
420.9698897923138
 31
0.0
  0
LINE
  5
4747
330
18
100
AcDbEntity
  8
1
  6
Continuous
100
AcDbLine
 10
648.4161601607064
 20
448.9543657923138
 30
0.0
 11
648.4161601607064
 21
420.9543657923139
 31
0.0
  0
LINE
  5
4748
330
18
100
AcDbEntity
  8
1
  6
Continuous
100
AcDbLine
 10
654.6980601607065
 20
417.9543657923138
 30
0.0
 11
651.4161601607066
 21
417.9543657923138
 31
0.0
  0
ARC
  5
4749
330
18
100
AcDbEntity
  8
1
  6
Continuous
100
AcDbCircle
 10
643.9774011607064
 20
396.5080157923139
 30
0.0
 40
24.407741
100
AcDbArc
 50
47.54299600000114
 51
57.18614300000105
  0
ARC
  5
474A
330
18
100
AcDbEntity
  8
1
  6
Continuous
100
AcDbCircle
 10
653.3697991607064
 20
411.0744267923138
 30
0.0
 40
7.075761999999999
100
AcDbArc
 50
57.18614300000105
 51
73.22678100000159
  0
ARC
  5
474B
330
18
100
AcDbEntity
  8
1
  6
Continuous
100
AcDbCircle
 10
654.6980601607065
 20
415.4812827923136
 30
0.0
 40
2.473083
100
AcDbArc
 50
73.22678100000159
 51
90.0
  0
ARC
  5
474C
330
18
100
AcDbEntity
  8
1
  6
Continuous
100
AcDbCircle
 10
653.1272721607065
 20
420.9698897923138
 30
0.0
 40
3.015524
100
AcDbArc
 50
180.0
 51
270.0
  0
ARC
  5
474D
330
18
100
AcDbEntity
  8
1
  6
Continuous
100
AcDbCircle
 10
651.4161601607066
 20
420.9543657923139
 30
0.0
 40
3.0
100
AcDbArc
 50
180.0
 51
270.0
  0
LINE
  5
474E
330
18
100
AcDbEntity
  8
1
  6
Continuous
100
AcDbLine
 10
642.9161601607066
 20
467.9543657923138
 30
0.0
 11
687.6661601607064
 21
467.9543657923138
 31
0.0
  0
LINE
  5
474F
330
18
100
AcDbEntity
  8
1
  6
Continuous
100
AcDbLine
 10
689.9661601607065
 20
472.9543657923138
 30
0.0
 11
642.9161601607066
 21
472.9543657923138
 31
0.0
  0
LINE
  5
4750
330
18
100
AcDbEntity
  8
1
  6
Continuous
100
AcDbLine
 10
687.6661601607064
 20
467.1543657923137
 30
0.0
 11
687.6661601607064
 21
457.6845317923138
 31
0.0
  0
ARC
  5
4751
330
18
100
AcDbEntity
  8
1
  6
Continuous
100
AcDbCircle
 10
686.6661601607066
 20
457.1845317923139
 30
0.0
 40
1.0
100
AcDbArc
 50
270.0
 51
0.000000000000007
  0
ARC
  5
4752
330
18
100
AcDbEntity
  8
1
  6
Continuous
100
AcDbCircle
 10
689.0409321607063
 20
468.9543657923138
 30
0.0
 40
1.7
100
AcDbArc
 50
216.0318790000006
 51
270.0
  0
ARC
  5
4753
330
18
100
AcDbEntity
  8
1
  6
Continuous
100
AcDbCircle
 10
689.9661601607065
 20
471.2543657923138
 30
0.0
 40
1.7
100
AcDbArc
 50
0.000000000000007
 51
90.0
  0
LINE
  5
4754
330
18
100
AcDbEntity
  8
4
  6
CENTER
 48
0.2
100
AcDbLine
 10
652.9161601607064
 20
478.9543657923139
 30
0.0
 11
652.9161601607064
 21
461.9543657923138
 31
0.0
  0
LINE
  5
4755
330
18
100
AcDbEntity
  8
1
  6
Continuous
100
AcDbLine
 10
660.6315971607065
 20
456.1845317923138
 30
0.0
 11
642.9161601607066
 21
467.2543657923138
 31
0.0
  0
ARC
  5
4756
330
18
100
AcDbEntity
  8
1
  6
Continuous
100
AcDbCircle
 10
654.9161601607067
 20
463.9543657923138
 30
0.0
 40
4.0
100
AcDbArc
 50
0.000000000000007
 51
90.0
  0
LINE
  5
4757
330
18
100
AcDbEntity
  8
1
  6
Continuous
100
AcDbLine
 10
658.9161601607067
 20
463.9543657923138
 30
0.0
 11
658.9161601607067
 21
459.9543657923138
 31
0.0
  0
LINE
  5
4758
330
18
100
AcDbEntity
  8
1
  6
Continuous
100
AcDbLine
 10
642.9161601607066
 20
472.9543657923138
 30
0.0
 11
642.9161601607066
 21
467.2543657923138
 31
0.0
  0
LINE
  5
49F6
330
18
100
AcDbEntity
  8
4
  6
CENTER
 48
0.7
100
AcDbLine
 10
280.570968991995
 20
47.9955906111271
 30
0.0
 11
280.570968991995
 21
171.995590611127
 31
0.0
  0
LINE
  5
49F7
330
18
100
AcDbEntity
  8
4
  6
CENTER
 48
0.2
100
AcDbLine
 10
325.5709689919949
 20
74.24559061112711
 30
0.0
 11
325.5709689919949
 21
55.74559061112712
 31
0.0
  0
ARC
  5
49F8
330
18
100
AcDbEntity
  8
1
  6
Continuous
100
AcDbCircle
 10
324.5709689919948
 20
65.99559061112711
 30
0.0
 40
11.0
100
AcDbArc
 50
270.0
 51
0.0
  0
LINE
  5
49FD
330
18
100
AcDbEntity
  8
4
  6
CENTER
 48
0.2
100
AcDbLine
 10
235.5709689919949
 20
74.24559061112711
 30
0.0
 11
235.5709689919949
 21
55.74559061112712
 31
0.0
  0
ARC
  5
49FE
330
18
100
AcDbEntity
  8
1
  6
Continuous
100
AcDbCircle
 10
236.5709689919949
 20
65.99559061112711
 30
0.0
 40
11.0
100
AcDbArc
 50
180.0
 51
270.0
  0
LINE
  5
4A07
330
18
100
AcDbEntity
  8
4
  6
CENTER
 48
0.7
100
AcDbLine
 10
198.5709689919948
 20
109.9955906111271
 30
0.0
 11
362.5709689919948
 21
109.995590611127
 31
0.0
  0
LINE
  5
4A08
330
18
100
AcDbEntity
  8
1
  6
Continuous
100
AcDbLine
 10
236.5709689919949
 20
164.995590611127
 30
0.0
 11
324.5709689919948
 21
164.995590611127
 31
0.0
  0
LINE
  5
4A0B
330
18
100
AcDbEntity
  8
1
  6
Continuous
100
AcDbLine
 10
225.5709689919949
 20
153.995590611127
 30
0.0
 11
225.5709689919949
 21
137.9273084998215
 31
0.0
  0
ARC
  5
4A0C
330
18
100
AcDbEntity
  8
1
  6
Continuous
100
AcDbCircle
 10
236.5709689919949
 20
153.995590611127
 30
0.0
 40
11.0
100
AcDbArc
 50
90.00000000000005
 51
180.0
  0
LINE
  5
4A0D
330
18
100
AcDbEntity
  8
4
  6
CENTER
 48
0.2
100
AcDbLine
 10
226.3209689919949
 20
154.995590611127
 30
0.0
 11
244.8209689919949
 21
154.995590611127
 31
0.0
  0
CIRCLE
  5
4A0E
330
18
100
AcDbEntity
  8
1
  6
Continuous
100
AcDbCircle
 10
235.5709689919949
 20
154.995590611127
 30
0.0
 40
5.25
  0
LINE
  5
4A0F
330
18
100
AcDbEntity
  8
4
  6
CENTER
 48
0.2
100
AcDbLine
 10
235.5709689919949
 20
164.245590611127
 30
0.0
 11
235.5709689919949
 21
145.745590611127
 31
0.0
  0
LINE
  5
4A2D
330
18
100
AcDbEntity
  8
4
  6
CENTER
 48
0.2
100
AcDbLine
 10
226.3209689919949
 20
64.99559061112711
 30
0.0
 11
244.8209689919949
 21
64.99559061112711
 31
0.0
  0
CIRCLE
  5
4A2E
330
18
100
AcDbEntity
  8
1
  6
Continuous
100
AcDbCircle
 10
235.5709689919949
 20
64.99559061112711
 30
0.0
 40
5.25
  0
LINE
  5
4A31
330
18
100
AcDbEntity
  8
1
  6
Continuous
100
AcDbLine
 10
335.5709689919948
 20
153.995590611127
 30
0.0
 11
335.5709689919948
 21
137.9273084998215
 31
0.0
  0
LINE
  5
4A34
330
18
100
AcDbEntity
  8
4
  6
CENTER
 48
0.2
100
AcDbLine
 10
316.3209689919948
 20
154.995590611127
 30
0.0
 11
334.8209689919948
 21
154.995590611127
 31
0.0
  0
ARC
  5
4A36
330
18
100
AcDbEntity
  8
1
  6
Continuous
100
AcDbCircle
 10
324.5709689919948
 20
153.995590611127
 30
0.0
 40
11.0
100
AcDbArc
 50
0.0
 51
90.00000000000005
  0
LINE
  5
4A37
330
18
100
AcDbEntity
  8
4
  6
CENTER
 48
0.2
100
AcDbLine
 10
325.5709689919949
 20
164.245590611127
 30
0.0
 11
325.5709689919949
 21
145.745590611127
 31
0.0
  0
CIRCLE
  5
4A38
330
18
100
AcDbEntity
  8
1
  6
Continuous
100
AcDbCircle
 10
325.5709689919949
 20
154.995590611127
 30
0.0
 40
5.25
  0
LINE
  5
4A44
330
18
100
AcDbEntity
  8
4
  6
CENTER
 48
0.2
100
AcDbLine
 10
316.3209689919948
 20
64.99559061112711
 30
0.0
 11
334.8209689919948
 21
64.99559061112711
 31
0.0
  0
CIRCLE
  5
4A45
330
18
100
AcDbEntity
  8
1
  6
Continuous
100
AcDbCircle
 10
325.5709689919949
 20
64.99559061112711
 30
0.0
 40
5.25
  0
LINE
  5
4A56
330
18
100
AcDbEntity
  8
1
  6
Continuous
100
AcDbLine
 10
236.5709689919949
 20
54.9955906111271
 30
0.0
 11
324.5709689919948
 21
54.9955906111271
 31
0.0
  0
CIRCLE
  5
4B00
330
18
100
AcDbEntity
  8
1
  6
Continuous
100
AcDbCircle
 10
697.9161601607065
 20
327.9543657923138
 30
0.0
 40
5.5
  0
LINE
  5
4B12
330
18
100
AcDbEntity
  8
1
  6
Continuous
100
AcDbLine
 10
460.2435645763507
 20
294.9543657923138
 30
0.0
 11
461.9513635763508
 21
259.7842757923138
 31
0.0
  0
ARC
  5
4B13
330
18
100
AcDbEntity
  8
1
  6
Continuous
100
AcDbCircle
 10
468.9431255763508
 20
260.1237837923138
 30
0.0
 40
7.0
100
AcDbArc
 50
182.7799999999997
 51
266.3385589999962
  0
ARC
  5
4B1D
330
18
100
AcDbEntity
  8
1
  6
Continuous
100
AcDbCircle
 10
464.2435645763507
 20
258.4167007923138
 30
0.0
 40
2.0
100
AcDbArc
 50
180.0
 51
199.9632019999993
  0
LINE
  5
4B1E
330
18
100
AcDbEntity
  8
1
  6
Continuous
100
AcDbLine
 10
516.2435645763507
 20
258.4167007923138
 30
0.0
 11
516.2435645763507
 21
268.3513167923138
 31
0.0
  0
ARC
  5
4B1F
330
18
100
AcDbEntity
  8
1
  6
Continuous
100
AcDbCircle
 10
514.2435645763507
 20
258.4167007923138
 30
0.0
 40
2.0
100
AcDbArc
 50
340.0367980000006
 51
0.000000000000007
  0
ARC
  5
4B20
330
18
100
AcDbEntity
  8
1
  6
Continuous
100
AcDbCircle
 10
509.5440035763506
 20
260.1237837923138
 30
0.0
 40
7.0
100
AcDbArc
 50
273.6614410000037
 51
357.2200000000003
  0
LINE
  5
4B21
330
18
100
AcDbEntity
  8
1
  6
Continuous
100
AcDbLine
 10
516.2435645763507
 20
268.3513167923117
 30
0.0
 11
516.2435645763507
 21
397.4920307923139
 31
0.0
  0
LINE
  5
4B22
330
18
100
AcDbEntity
  8
1
  6
Continuous
100
AcDbLine
 10
518.2435645763507
 20
294.9543657923138
 30
0.0
 11
516.5357655763507
 21
259.7842757923138
 31
0.0
  0
LINE
  5
4B23
330
18
100
AcDbEntity
  8
1
  6
Continuous
100
AcDbLine
 10
518.2435645763507
 20
294.9543657923152
 30
0.0
 11
518.2435645763507
 21
360.9543657923139
 31
0.0
  0
LINE
  5
4B24
330
18
100
AcDbEntity
  8
1
  6
Continuous
100
AcDbLine
 10
518.2435645763507
 20
360.9543657923139
 30
0.0
 11
516.5357655763507
 21
396.1244557923138
 31
0.0
  0
ARC
  5
4B25
330
18
100
AcDbEntity
  8
1
  6
Continuous
100
AcDbCircle
 10
509.5440035763506
 20
395.7849477923137
 30
0.0
 40
7.0
100
AcDbArc
 50
2.779999999999706
 51
86.33855899999629
  0
ARC
  5
4B26
330
18
100
AcDbEntity
  8
1
  6
Continuous
100
AcDbCircle
 10
514.2435645763507
 20
397.4920307923139
 30
0.0
 40
2.0
100
AcDbArc
 50
0.000000000000007
 51
19.96320199999936
  0
LINE
  5
4B28
330
18
100
AcDbEntity
  8
1
  6
Continuous
100
AcDbLine
 10
247.570968991995
 20
80.99559061112705
 30
0.0
 11
212.400878991995
 21
82.70338961112708
 31
0.0
  0
LINE
  5
4B29
330
18
100
AcDbEntity
  8
1
  6
Continuous
100
AcDbLine
 10
211.033303991995
 20
82.99559061112706
 30
0.0
 11
220.967919991995
 21
82.99559061112706
 31
0.0
  0
LINE
  5
4B2A
330
18
100
AcDbEntity
  8
1
  6
Continuous
100
AcDbLine
 10
211.033303991995
 20
136.995590611127
 30
0.0
 11
220.967919991995
 21
136.995590611127
 31
0.0
  0
LINE
  5
4B2B
330
18
100
AcDbEntity
  8
1
  6
Continuous
100
AcDbLine
 10
247.570968991995
 20
138.995590611127
 30
0.0
 11
212.4008789919951
 21
137.287791611127
 31
0.0
  0
LINE
  5
4B2C
330
18
100
AcDbEntity
  8
1
  6
Continuous
100
AcDbLine
 10
351.4909899919949
 20
111.495590611127
 30
0.0
 11
209.6509479919949
 21
111.495590611127
 31
0.0
  0
LINE
  5
4B2D
330
18
100
AcDbEntity
  8
1
  6
Continuous
100
AcDbLine
 10
351.4909899919949
 20
108.495590611127
 30
0.0
 11
209.6509479919949
 21
108.495590611127
 31
0.0
  0
ARC
  5
4B2E
330
18
100
AcDbEntity
  8
1
  6
Continuous
100
AcDbCircle
 10
295.570968991995
 20
124.9955906111269
 30
0.0
 40
90.0
100
AcDbArc
 50
176.3385589999962
 51
186.638632999997
  0
ARC
  5
4B2F
330
18
100
AcDbEntity
  8
1
  6
Continuous
100
AcDbCircle
 10
211.033303991995
 20
134.995590611127
 30
0.0
 40
2.0
100
AcDbArc
 50
89.99999999999998
 51
109.9632019999993
  0
ARC
  5
4B30
330
18
100
AcDbEntity
  8
1
  6
Continuous
100
AcDbCircle
 10
212.740386991995
 20
130.2960296111269
 30
0.0
 40
7.0
100
AcDbArc
 50
92.77999999999968
 51
176.3385589999962
  0
ARC
  5
4B31
330
18
100
AcDbEntity
  8
1
  6
Continuous
100
AcDbCircle
 10
295.570968991995
 20
94.995590611127
 30
0.0
 40
90.0
100
AcDbArc
 50
173.3613670000029
 51
183.6614410000037
  0
ARC
  5
4B32
330
18
100
AcDbEntity
  8
1
  6
Continuous
100
AcDbCircle
 10
209.6509479919949
 20
104.995590611127
 30
0.0
 40
3.5
100
AcDbArc
 50
89.99999999999998
 51
173.3613670000029
  0
ARC
  5
4B33
330
18
100
AcDbEntity
  8
1
  6
Continuous
100
AcDbCircle
 10
209.6509479919949
 20
114.995590611127
 30
0.0
 40
3.5
100
AcDbArc
 50
186.638632999997
 51
270.0
  0
ARC
  5
4B34
330
18
100
AcDbEntity
  8
1
  6
Continuous
100
AcDbCircle
 10
212.740386991995
 20
89.69515161112719
 30
0.0
 40
7.0
100
AcDbArc
 50
183.6614410000037
 51
267.2200000000003
  0
ARC
  5
4B35
330
18
100
AcDbEntity
  8
1
  6
Continuous
100
AcDbCircle
 10
211.033303991995
 20
84.99559061112703
 30
0.0
 40
2.0
100
AcDbArc
 50
250.0367980000006
 51
270.0
  0
ARC
  5
4B36
330
18
100
AcDbEntity
  8
1
  6
Continuous
100
AcDbCircle
 10
265.570968991995
 20
124.995590611127
 30
0.0
 40
90.0
100
AcDbArc
 50
353.3613670000028
 51
3.661441000003701
  0
LINE
  5
4B39
330
18
100
AcDbEntity
  8
1
  6
Continuous
100
AcDbLine
 10
247.5709689919964
 20
138.995590611127
 30
0.0
 11
313.570968991995
 21
138.995590611127
 31
0.0
  0
LINE
  5
4B3A
330
18
100
AcDbEntity
  8
1
  6
Continuous
100
AcDbLine
 10
220.9679199919929
 20
136.995590611127
 30
0.0
 11
350.108633991995
 21
136.995590611127
 31
0.0
  0
LINE
  5
4B3B
330
18
100
AcDbEntity
  8
1
  6
Continuous
100
AcDbLine
 10
308.5709689919948
 20
141.495590611127
 30
0.0
 11
252.5709689919949
 21
141.495590611127
 31
0.0
  0
LINE
  5
4B3C
330
18
100
AcDbEntity
  8
1
  6
Continuous
100
AcDbLine
 10
261.4029239919949
 20
140.0522966111268
 30
0.0
 11
258.400147991995
 21
138.995590611127
 31
0.0
  0
LINE
  5
4B40
330
18
100
AcDbEntity
  8
1
  6
Continuous
100
AcDbLine
 10
262.2541849919949
 20
140.995590611127
 30
0.0
 11
298.8877529919948
 21
140.995590611127
 31
0.0
  0
LINE
  5
4B41
330
18
100
AcDbEntity
  8
1
  6
Continuous
100
AcDbLine
 10
263.620968991995
 20
140.995590611127
 30
0.0
 11
263.620968991995
 21
141.495590611127
 31
0.0
  0
ARC
  5
4B42
330
18
100
AcDbEntity
  8
1
  6
Continuous
100
AcDbCircle
 10
262.2541849919949
 20
140.795590611127
 30
0.0
 40
0.2
100
AcDbArc
 50
89.99999999999998
 51
170.4058580000002
  0
ARC
  5
4B43
330
18
100
AcDbEntity
  8
1
  6
Continuous
100
AcDbCircle
 10
261.070968991995
 20
140.9955916111269
 30
0.0
 40
1.0
100
AcDbArc
 50
289.3874719999999
 51
350.4058580000001
  0
LINE
  5
4B44
330
18
100
AcDbEntity
  8
1
  6
Continuous
100
AcDbLine
 10
297.520968991995
 20
140.995590611127
 30
0.0
 11
297.520968991995
 21
141.495590611127
 31
0.0
  0
ARC
  5
4B45
330
18
100
AcDbEntity
  8
1
  6
Continuous
100
AcDbCircle
 10
298.8877529919948
 20
140.7955906111269
 30
0.0
 40
0.2
100
AcDbArc
 50
9.594141999999752
 51
89.99999999999998
  0
ARC
  5
4B46
330
18
100
AcDbEntity
  8
1
  6
Continuous
100
AcDbCircle
 10
300.0709689919951
 20
140.9955916111268
 30
0.0
 40
1.0
100
AcDbArc
 50
189.5941419999997
 51
250.612528
  0
LINE
  5
4B47
330
18
100
AcDbEntity
  8
1
  6
Continuous
100
AcDbLine
 10
299.7390139919949
 20
140.0522966111268
 30
0.0
 11
302.7417889919949
 21
138.995590611127
 31
0.0
  0
ARC
  5
4B49
330
18
100
AcDbEntity
  8
1
  6
Continuous
100
AcDbCircle
 10
348.401550991995
 20
130.2960296111268
 30
0.0
 40
7.0
100
AcDbArc
 50
3.661441000003701
 51
87.22000000000027
  0
LINE
  5
4B4A
330
18
100
AcDbEntity
  8
1
  6
Continuous
100
AcDbLine
 10
313.570968991995
 20
138.995590611127
 30
0.0
 11
348.741058991995
 21
137.287791611127
 31
0.0
  0
ARC
  5
4B4C
330
18
100
AcDbEntity
  8
1
  6
Continuous
100
AcDbCircle
 10
350.108633991995
 20
134.995590611127
 30
0.0
 40
2.0
100
AcDbArc
 50
70.03679800000063
 51
89.99999999999998
  0
LINE
  5
4B4E
330
18
100
AcDbEntity
  8
1
  6
Continuous
100
AcDbLine
 10
247.5709689919964
 20
80.99559061112705
 30
0.0
 11
313.5709689919949
 21
80.99559061112705
 31
0.0
  0
LINE
  5
4B4F
330
18
100
AcDbEntity
  8
1
  6
Continuous
100
AcDbLine
 10
220.9679199919928
 20
82.99559061112706
 30
0.0
 11
350.108633991995
 21
82.99559061112706
 31
0.0
  0
ARC
  5
4B51
330
18
100
AcDbEntity
  8
1
  6
Continuous
100
AcDbCircle
 10
300.0709689919951
 20
78.99558861112701
 30
0.0
 40
1.0
100
AcDbArc
 50
109.3874719999999
 51
170.4058580000002
  0
ARC
  5
4B52
330
18
100
AcDbEntity
  8
1
  6
Continuous
100
AcDbCircle
 10
261.070968991995
 20
78.99558861112701
 30
0.0
 40
1.0
100
AcDbArc
 50
9.594141999999752
 51
70.61252800000007
  0
LINE
  5
4B53
330
18
100
AcDbEntity
  8
1
  6
Continuous
100
AcDbLine
 10
261.4029239919949
 20
79.93888361112687
 30
0.0
 11
258.4001479919949
 21
80.99559061112705
 31
0.0
  0
LINE
  5
4B54
330
18
100
AcDbEntity
  8
1
  6
Continuous
100
AcDbLine
 10
293.570948991995
 20
109.995590611127
 30
0.0
 11
267.570988991995
 21
109.995590611127
 31
0.0
  0
LINE
  5
4B55
330
18
100
AcDbEntity
  8
1
  6
Continuous
100
AcDbLine
 10
267.570988991995
 20
109.995590611127
 30
0.0
 11
267.070988991995
 21
110.495590611127
 31
0.0
  0
LINE
  5
4B56
330
18
100
AcDbEntity
  8
1
  6
Continuous
100
AcDbLine
 10
267.070988991995
 20
111.495590611127
 30
0.0
 11
267.070988991995
 21
110.495590611127
 31
0.0
  0
LINE
  5
4B57
330
18
100
AcDbEntity
  8
1
  6
Continuous
100
AcDbLine
 10
267.570988991995
 20
109.995590611127
 30
0.0
 11
267.070988991995
 21
109.495590611127
 31
0.0
  0
LINE
  5
4B58
330
18
100
AcDbEntity
  8
1
  6
Continuous
100
AcDbLine
 10
267.070988991995
 20
108.495590611127
 30
0.0
 11
267.070988991995
 21
109.495590611127
 31
0.0
  0
LINE
  5
4B59
330
18
100
AcDbEntity
  8
1
  6
Continuous
100
AcDbLine
 10
293.570948991995
 20
109.995590611127
 30
0.0
 11
294.0709489919949
 21
110.495590611127
 31
0.0
  0
LINE
  5
4B5A
330
18
100
AcDbEntity
  8
1
  6
Continuous
100
AcDbLine
 10
294.0709489919949
 20
111.495590611127
 30
0.0
 11
294.0709489919949
 21
110.495590611127
 31
0.0
  0
LINE
  5
4B5B
330
18
100
AcDbEntity
  8
1
  6
Continuous
100
AcDbLine
 10
293.570948991995
 20
109.995590611127
 30
0.0
 11
294.0709489919949
 21
109.495590611127
 31
0.0
  0
LINE
  5
4B5C
330
18
100
AcDbEntity
  8
1
  6
Continuous
100
AcDbLine
 10
294.0709489919949
 20
108.495590611127
 30
0.0
 11
294.0709489919949
 21
109.495590611127
 31
0.0
  0
LINE
  5
4B5D
330
18
100
AcDbEntity
  8
1
  6
Continuous
100
AcDbLine
 10
299.7390139919949
 20
79.93888361112687
 30
0.0
 11
302.7417889919949
 21
80.99559061112705
 31
0.0
  0
LINE
  5
4B61
330
18
100
AcDbEntity
  8
1
  6
Continuous
100
AcDbLine
 10
262.2541849919949
 20
78.99559061112706
 30
0.0
 11
298.8877529919948
 21
78.99559061112706
 31
0.0
  0
ARC
  5
4B62
330
18
100
AcDbEntity
  8
1
  6
Continuous
100
AcDbCircle
 10
262.2541849919949
 20
79.19559061112682
 30
0.0
 40
0.2
100
AcDbArc
 50
189.5941419999997
 51
270.0
  0
LINE
  5
4B63
330
18
100
AcDbEntity
  8
1
  6
Continuous
100
AcDbLine
 10
263.620968991995
 20
78.99559061112706
 30
0.0
 11
263.620968991995
 21
78.49559061112706
 31
0.0
  0
ARC
  5
4B64
330
18
100
AcDbEntity
  8
1
  6
Continuous
100
AcDbCircle
 10
298.8877529919948
 20
79.19559061112682
 30
0.0
 40
0.2
100
AcDbArc
 50
270.0
 51
350.4058580000001
  0
LINE
  5
4B65
330
18
100
AcDbEntity
  8
1
  6
Continuous
100
AcDbLine
 10
297.520968991995
 20
78.99559061112706
 30
0.0
 11
297.520968991995
 21
78.49559061112706
 31
0.0
  0
ARC
  5
4B67
330
18
100
AcDbEntity
  8
1
  6
Continuous
100
AcDbCircle
 10
348.401550991995
 20
89.69515161112713
 30
0.0
 40
7.0
100
AcDbArc
 50
272.7799999999997
 51
356.3385589999962
  0
ARC
  5
4B68
330
18
100
AcDbEntity
  8
1
  6
Continuous
100
AcDbCircle
 10
265.570968991995
 20
94.995590611127
 30
0.0
 40
90.0
100
AcDbArc
 50
356.3385589999962
 51
6.638632999997107
  0
ARC
  5
4B69
330
18
100
AcDbEntity
  8
1
  6
Continuous
100
AcDbCircle
 10
351.4909899919949
 20
104.9955906111269
 30
0.0
 40
3.5
100
AcDbArc
 50
6.638632999997107
 51
89.99999999999998
  0
ARC
  5
4B6A
330
18
100
AcDbEntity
  8
1
  6
Continuous
100
AcDbCircle
 10
351.4909899919949
 20
114.995590611127
 30
0.0
 40
3.5
100
AcDbArc
 50
270.0
 51
353.3613670000028
  0
LINE
  5
4B6B
330
18
100
AcDbEntity
  8
1
  6
Continuous
100
AcDbLine
 10
313.5709689919949
 20
80.99559061112705
 30
0.0
 11
348.7410589919949
 21
82.70338961112708
 31
0.0
  0
ARC
  5
4B6C
330
18
100
AcDbEntity
  8
1
  6
Continuous
100
AcDbCircle
 10
350.108633991995
 20
84.995590611127
 30
0.0
 40
2.0
100
AcDbArc
 50
270.0
 51
289.9632019999994
  0
LINE
  5
4B73
330
18
100
AcDbEntity
  8
1
  6
Continuous
100
AcDbLine
 10
225.5709689919949
 20
82.06387272243246
 30
0.0
 11
225.5709689919949
 21
65.99559061112711
 31
0.0
  0
LINE
  5
4B74
330
18
100
AcDbEntity
  8
1
  6
Continuous
100
AcDbLine
 10
225.5709689919949
 20
111.495590611127
 30
0.0
 11
225.5709689919949
 21
108.495590611127
 31
0.0
  0
LINE
  5
4B75
330
18
100
AcDbEntity
  8
1
  6
Continuous
100
AcDbLine
 10
335.5709689919948
 20
82.06387272243246
 30
0.0
 11
335.5709689919948
 21
65.99559061112711
 31
0.0
  0
LINE
  5
4B76
330
18
100
AcDbEntity
  8
1
  6
Continuous
100
AcDbLine
 10
335.5709689919948
 20
111.495590611127
 30
0.0
 11
335.5709689919948
 21
108.495590611127
 31
0.0
  0
LINE
  5
4B77
330
18
100
AcDbEntity
  8
1
  6
Continuous
100
AcDbLine
 10
311.5709689919949
 20
150.495590611127
 30
0.0
 11
311.5709689919949
 21
144.495590611127
 31
0.0
  0
LINE
  5
4B78
330
18
100
AcDbEntity
  8
1
  6
Continuous
100
AcDbLine
 10
249.5709689919949
 20
150.495590611127
 30
0.0
 11
249.5709689919949
 21
144.495590611127
 31
0.0
  0
LINE
  5
4B79
330
18
100
AcDbEntity
  8
1
  6
Continuous
100
AcDbLine
 10
308.5709689919948
 20
153.495590611127
 30
0.0
 11
252.5709689919949
 21
153.495590611127
 31
0.0
  0
ARC
  5
4B7A
330
18
100
AcDbEntity
  8
1
  6
Continuous
100
AcDbCircle
 10
252.5709689919949
 20
150.495590611127
 30
0.0
 40
3.0
100
AcDbArc
 50
90.0
 51
180.0
  0
ARC
  5
4B7B
330
18
100
AcDbEntity
  8
1
  6
Continuous
100
AcDbCircle
 10
252.5709689919949
 20
144.495590611127
 30
0.0
 40
3.0
100
AcDbArc
 50
180.0000000000001
 51
270.0
  0
ARC
  5
4B7C
330
18
100
AcDbEntity
  8
1
  6
Continuous
100
AcDbCircle
 10
308.5709689919948
 20
144.495590611127
 30
0.0
 40
3.0
100
AcDbArc
 50
270.0
 51
0.0
  0
ARC
  5
4B7D
330
18
100
AcDbEntity
  8
1
  6
Continuous
100
AcDbCircle
 10
308.5709689919948
 20
150.495590611127
 30
0.0
 40
3.0
100
AcDbArc
 50
0.0
 51
90.0
  0
LINE
  5
4B7E
330
18
100
AcDbEntity
  8
1
  6
Continuous
100
AcDbLine
 10
308.5709689919948
 20
66.49559061112717
 30
0.0
 11
252.5709689919949
 21
66.49559061112717
 31
0.0
  0
LINE
  5
4B7F
330
18
100
AcDbEntity
  8
1
  6
Continuous
100
AcDbLine
 10
308.5709689919948
 20
78.49559061112717
 30
0.0
 11
252.5709689919949
 21
78.49559061112717
 31
0.0
  0
ARC
  5
4B80
330
18
100
AcDbEntity
  8
1
  6
Continuous
100
AcDbCircle
 10
308.5709689919948
 20
75.49559061112717
 30
0.0
 40
3.0
100
AcDbArc
 50
0.0
 51
90.00000000000005
  0
LINE
  5
4B81
330
18
100
AcDbEntity
  8
1
  6
Continuous
100
AcDbLine
 10
311.5709689919949
 20
69.49559061112717
 30
0.0
 11
311.5709689919949
 21
75.49559061112717
 31
0.0
  0
ARC
  5
4B82
330
18
100
AcDbEntity
  8
1
  6
Continuous
100
AcDbCircle
 10
308.5709689919948
 20
69.49559061112717
 30
0.0
 40
3.0
100
AcDbArc
 50
270.0
 51
0.0
  0
LINE
  5
4B83
330
18
100
AcDbEntity
  8
1
  6
Continuous
100
AcDbLine
 10
249.5709689919949
 20
69.49559061112717
 30
0.0
 11
249.5709689919949
 21
75.49559061112717
 31
0.0
  0
ARC
  5
4B84
330
18
100
AcDbEntity
  8
1
  6
Continuous
100
AcDbCircle
 10
252.5709689919949
 20
69.49559061112717
 30
0.0
 40
3.0
100
AcDbArc
 50
180.0
 51
270.0
  0
ARC
  5
4B85
330
18
100
AcDbEntity
  8
1
  6
Continuous
100
AcDbCircle
 10
252.5709689919949
 20
75.49559061112717
 30
0.0
 40
3.0
100
AcDbArc
 50
90.00000000000005
 51
179.9999999999998
  0
ARC
  5
4B89
330
18
100
AcDbEntity
  8
1
  6
Continuous
100
AcDbCircle
 10
293.8258893265583
 20
109.9955906111271
 30
0.0
 40
34.78027277552702
100
AcDbArc
 50
295.0841890379292
 51
303.5082856718779
  0
LINE
  5
4B8A
330
18
100
AcDbEntity
  8
1
  6
Continuous
100
AcDbLine
 10
330.0709689919949
 20
111.495590611127
 30
0.0
 11
330.0709689919949
 21
108.495590611127
 31
0.0
  0
ARC
  5
4B8B
330
18
100
AcDbEntity
  8
1
  6
Continuous
100
AcDbCircle
 10
267.3160486574317
 20
109.9955906111271
 30
0.0
 40
34.78027277552702
100
AcDbArc
 50
115.0841890379292
 51
123.5082856718783
  0
LINE
  5
4B8C
330
18
100
AcDbEntity
  8
1
  6
Continuous
100
AcDbLine
 10
231.0709689919952
 20
111.495590611127
 30
0.0
 11
231.0709689919952
 21
108.495590611127
 31
0.0
  0
ARC
  5
4B8D
330
18
100
AcDbEntity
  8
1
  6
Continuous
100
AcDbCircle
 10
267.3160486574317
 20
109.9955906111271
 30
0.0
 40
34.78027277552702
100
AcDbArc
 50
236.491714328122
 51
244.9158109620707
  0
ARC
  5
4B8E
330
18
100
AcDbEntity
  8
1
  6
Continuous
100
AcDbCircle
 10
267.3160486574317
 20
109.9955906111271
 30
0.0
 40
34.78027277552702
100
AcDbArc
 50
177.5281868860521
 51
182.4718131139479
  0
ARC
  5
4B8F
330
18
100
AcDbEntity
  8
1
  6
Continuous
100
AcDbCircle
 10
293.8258893265583
 20
109.9955906111271
 30
0.0
 40
34.78027277552702
100
AcDbArc
 50
56.49171432812165
 51
64.91581096207079
  0
ARC
  5
4B90
330
18
100
AcDbEntity
  8
1
  6
Continuous
100
AcDbCircle
 10
293.8258893265583
 20
109.9955906111271
 30
0.0
 40
34.78027277552702
100
AcDbArc
 50
357.528186886052
 51
2.471813113947737
  0
LINE
  5
4B93
330
18
100
AcDbEntity
  8
1
  6
Continuous
100
AcDbLine
 10
290.8209689919948
 20
164.995590611127
 30
0.0
 11
290.8209689919948
 21
153.495590611127
 31
0.0
  0
LINE
  5
4B94
330
18
100
AcDbEntity
  8
1
  6
Continuous
100
AcDbLine
 10
270.3209689919949
 20
164.995590611127
 30
0.0
 11
270.3209689919948
 21
153.4955906111271
 31
0.0
  0
LINE
  5
4B95
330
18
100
AcDbEntity
  8
1
  6
Continuous
100
AcDbLine
 10
290.8209689919948
 20
54.99559061112718
 30
0.0
 11
290.8209689919948
 21
66.49559061112717
 31
0.0
  0
LINE
  5
4B96
330
18
100
AcDbEntity
  8
1
  6
Continuous
100
AcDbLine
 10
270.3209689919949
 20
54.99559061112718
 30
0.0
 11
270.3209689919948
 21
66.49559061112711
 31
0.0
  0
ARC
  5
4BCB
330
18
100
AcDbEntity
  8
1
  6
Continuous
100
AcDbCircle
 10
295.570968991995
 20
630.4131409735006
 30
0.0
 40
90.0
100
AcDbArc
 50
176.3385589999962
 51
186.638632999997
  0
ARC
  5
4BCC
330
18
100
AcDbEntity
  8
1
  6
Continuous
100
AcDbCircle
 10
209.6509479919949
 20
620.4131409735007
 30
0.0
 40
3.5
100
AcDbArc
 50
186.638632999997
 51
270.0
  0
ARC
  5
4BCD
330
18
100
AcDbEntity
  8
1
  6
Continuous
100
AcDbCircle
 10
212.740386991995
 20
635.7135799735004
 30
0.0
 40
7.0
100
AcDbArc
 50
92.77999999999968
 51
176.3385589999962
  0
ARC
  5
4BCE
330
18
100
AcDbEntity
  8
1
  6
Continuous
100
AcDbCircle
 10
211.033303991995
 20
640.4131409735007
 30
0.0
 40
2.0
100
AcDbArc
 50
89.99999999999998
 51
109.9632019999993
  0
LINE
  5
4BCF
330
18
100
AcDbEntity
  8
1
  6
Continuous
100
AcDbLine
 10
211.033303991995
 20
642.4131409735007
 30
0.0
 11
220.967919991995
 21
642.4131409735007
 31
0.0
  0
LINE
  5
4BD0
330
18
100
AcDbEntity
  8
1
  6
Continuous
100
AcDbLine
 10
225.5709689919949
 20
616.9131409735007
 30
0.0
 11
209.6509479919949
 21
616.9131409735007
 31
0.0
  0
LINE
  5
4BD1
330
18
100
AcDbEntity
  8
1
  6
Continuous
100
AcDbLine
 10
225.5709689919949
 20
643.3448588621953
 30
0.0
 11
212.4008789919951
 21
642.7053419735007
 31
0.0
  0
LINE
  5
4BD2
330
18
100
AcDbEntity
  8
1
  6
Continuous
100
AcDbLine
 10
220.9679199919929
 20
642.4131409735007
 30
0.0
 11
225.5709689919949
 21
642.4131409735007
 31
0.0
  0
ARC
  5
4BD3
330
18
100
AcDbEntity
  8
1
  6
Continuous
100
AcDbCircle
 10
212.740386991995
 20
595.1127019735007
 30
0.0
 40
7.0
100
AcDbArc
 50
183.6614410000037
 51
267.2200000000003
  0
ARC
  5
4BD4
330
18
100
AcDbEntity
  8
1
  6
Continuous
100
AcDbCircle
 10
295.570968991995
 20
600.4131409735006
 30
0.0
 40
90.0
100
AcDbArc
 50
173.3613670000029
 51
183.6614410000037
  0
ARC
  5
4BD5
330
18
100
AcDbEntity
  8
1
  6
Continuous
100
AcDbCircle
 10
209.6509479919949
 20
610.4131409735007
 30
0.0
 40
3.5
100
AcDbArc
 50
89.99999999999998
 51
173.3613670000029
  0
ARC
  5
4BD6
330
18
100
AcDbEntity
  8
1
  6
Continuous
100
AcDbCircle
 10
211.033303991995
 20
590.4131409735007
 30
0.0
 40
2.0
100
AcDbArc
 50
250.0367980000006
 51
270.0
  0
LINE
  5
4BD7
330
18
100
AcDbEntity
  8
1
  6
Continuous
100
AcDbLine
 10
211.033303991995
 20
588.4131409735007
 30
0.0
 11
220.967919991995
 21
588.4131409735007
 31
0.0
  0
LINE
  5
4BD8
330
18
100
AcDbEntity
  8
1
  6
Continuous
100
AcDbLine
 10
225.5709689919949
 20
616.9131409735007
 30
0.0
 11
225.5709689919949
 21
613.9131409735007
 31
0.0
  0
LINE
  5
4BD9
330
18
100
AcDbEntity
  8
1
  6
Continuous
100
AcDbLine
 10
220.9679199919928
 20
588.4131409735007
 30
0.0
 11
225.5709689919949
 21
588.4131409735007
 31
0.0
  0
LINE
  5
4BDA
330
18
100
AcDbEntity
  8
1
  6
Continuous
100
AcDbLine
 10
225.5709689919949
 20
587.481423084806
 30
0.0
 11
212.400878991995
 21
588.1209399735007
 31
0.0
  0
LINE
  5
4BDB
330
18
100
AcDbEntity
  8
1
  6
Continuous
100
AcDbLine
 10
225.5709689919949
 20
613.9131409735006
 30
0.0
 11
209.6509479919949
 21
613.9131409735007
 31
0.0
  0
ARC
  5
4BDC
330
18
100
AcDbEntity
  8
1
  6
Continuous
100
AcDbCircle
 10
348.4015509919952
 20
635.7135799735004
 30
0.0
 40
7.0
100
AcDbArc
 50
3.66144100000372
 51
87.22000000000033
  0
ARC
  5
4BDD
330
18
100
AcDbEntity
  8
1
  6
Continuous
100
AcDbCircle
 10
348.4015509919952
 20
595.1127019735007
 30
0.0
 40
7.0
100
AcDbArc
 50
272.7799999999997
 51
356.3385589999962
  0
LINE
  5
4BDE
330
18
100
AcDbEntity
  8
1
  6
Continuous
100
AcDbLine
 10
335.5709689919951
 20
587.481423084806
 30
0.0
 11
348.7410589919952
 21
588.1209399735007
 31
0.0
  0
LINE
  5
4BDF
330
18
100
AcDbEntity
  8
1
  6
Continuous
100
AcDbLine
 10
340.1740179919972
 20
588.4131409735007
 30
0.0
 11
335.5709689919951
 21
588.4131409735007
 31
0.0
  0
LINE
  5
4BE0
330
18
100
AcDbEntity
  8
1
  6
Continuous
100
AcDbLine
 10
350.1086339919952
 20
588.4131409735007
 30
0.0
 11
340.1740179919951
 21
588.4131409735007
 31
0.0
  0
ARC
  5
4BE1
330
18
100
AcDbEntity
  8
1
  6
Continuous
100
AcDbCircle
 10
350.1086339919952
 20
590.4131409735007
 30
0.0
 40
2.0
100
AcDbArc
 50
270.0
 51
289.9632019999994
  0
LINE
  5
4BE2
330
18
100
AcDbEntity
  8
1
  6
Continuous
100
AcDbLine
 10
335.5709689919951
 20
613.9131409735006
 30
0.0
 11
351.4909899919952
 21
613.9131409735007
 31
0.0
  0
LINE
  5
4BE3
330
18
100
AcDbEntity
  8
1
  6
Continuous
100
AcDbLine
 10
335.5709689919951
 20
616.9131409735007
 30
0.0
 11
351.4909899919952
 21
616.9131409735007
 31
0.0
  0
ARC
  5
4BE4
330
18
100
AcDbEntity
  8
1
  6
Continuous
100
AcDbCircle
 10
351.4909899919952
 20
620.4131409735007
 30
0.0
 40
3.5
100
AcDbArc
 50
270.0
 51
353.3613670000028
  0
ARC
  5
4BE5
330
18
100
AcDbEntity
  8
1
  6
Continuous
100
AcDbCircle
 10
351.4909899919952
 20
610.4131409735007
 30
0.0
 40
3.5
100
AcDbArc
 50
6.638632999997112
 51
90.00000000000005
  0
ARC
  5
4BE6
330
18
100
AcDbEntity
  8
1
  6
Continuous
100
AcDbCircle
 10
265.570968991995
 20
600.4131409735006
 30
0.0
 40
90.0
100
AcDbArc
 50
356.3385589999962
 51
6.638632999997112
  0
ARC
  5
4BE7
330
18
100
AcDbEntity
  8
1
  6
Continuous
100
AcDbCircle
 10
265.570968991995
 20
630.4131409735006
 30
0.0
 40
90.0
100
AcDbArc
 50
353.3613670000028
 51
3.66144100000372
  0
LINE
  5
4BE8
330
18
100
AcDbEntity
  8
1
  6
Continuous
100
AcDbLine
 10
335.5709689919951
 20
616.9131409735007
 30
0.0
 11
335.5709689919951
 21
613.9131409735007
 31
0.0
  0
LINE
  5
4BE9
330
18
100
AcDbEntity
  8
1
  6
Continuous
100
AcDbLine
 10
335.5709689919951
 20
643.3448588621953
 30
0.0
 11
348.741058991995
 21
642.7053419735007
 31
0.0
  0
LINE
  5
4BEA
330
18
100
AcDbEntity
  8
1
  6
Continuous
100
AcDbLine
 10
340.1740179919972
 20
642.4131409735007
 30
0.0
 11
335.5709689919951
 21
642.4131409735007
 31
0.0
  0
LINE
  5
4BEB
330
18
100
AcDbEntity
  8
1
  6
Continuous
100
AcDbLine
 10
350.1086339919952
 20
642.4131409735007
 30
0.0
 11
340.1740179919951
 21
642.4131409735007
 31
0.0
  0
ARC
  5
4BEC
330
18
100
AcDbEntity
  8
1
  6
Continuous
100
AcDbCircle
 10
350.1086339919952
 20
640.4131409735007
 30
0.0
 40
2.0
100
AcDbArc
 50
70.03679800000064
 51
90.00000000000005
  0
LINE
  5
4BED
330
18
100
AcDbEntity
  8
1
  6
Continuous
100
AcDbLine
 10
42.89837340763916
 20
294.9543657923138
 30
0.0
 11
44.60617240763918
 21
259.7842757923138
 31
0.0
  0
LINE
  5
4BEE
330
18
100
AcDbEntity
  8
1
  6
Continuous
100
AcDbLine
 10
44.89837340763915
 20
258.4167007923138
 30
0.0
 11
44.89837340763915
 21
268.3513167923138
 31
0.0
  0
LINE
  5
4BF0
330
18
100
AcDbEntity
  8
1
  6
Continuous
100
AcDbLine
 10
98.89837340763916
 20
258.4167007923138
 30
0.0
 11
98.89837340763916
 21
268.3513167923138
 31
0.0
  0
LINE
  5
4BF1
330
18
100
AcDbEntity
  8
1
  6
Continuous
100
AcDbLine
 10
100.8983734076391
 20
294.9543657923138
 30
0.0
 11
99.19057440763914
 21
259.7842757923138
 31
0.0
  0
LINE
  5
4BF4
330
18
100
AcDbEntity
  8
1
  6
Continuous
100
AcDbLine
 10
73.39837340763915
 20
398.8743867923137
 30
0.0
 11
73.39837340763915
 21
257.0343447923137
 31
0.0
  0
LINE
  5
4BF5
330
18
100
AcDbEntity
  8
1
  6
Continuous
100
AcDbLine
 10
70.39837340763916
 20
398.8743867923137
 30
0.0
 11
70.39837340763916
 21
257.0343447923137
 31
0.0
  0
LINE
  5
4BF6
330
18
100
AcDbEntity
  8
4
  6
CENTER
 48
0.7
100
AcDbLine
 10
71.89837340763915
 20
479.4543657923137
 30
0.0
 11
71.89837340763915
 21
245.9543657923138
 31
0.0
  0
ARC
  5
4BF9
330
18
100
AcDbEntity
  8
1
  6
Continuous
100
AcDbCircle
 10
86.89837340763915
 20
342.9543657923138
 30
0.0
 40
90.0
100
AcDbArc
 50
263.3613670000028
 51
273.6614410000037
  0
ARC
  5
4BFA
330
18
100
AcDbEntity
  8
1
  6
Continuous
100
AcDbCircle
 10
96.89837340763915
 20
258.4167007923138
 30
0.0
 40
2.0
100
AcDbArc
 50
340.0367980000006
 51
0.000000000000007
  0
ARC
  5
4BFB
330
18
100
AcDbEntity
  8
1
  6
Continuous
100
AcDbCircle
 10
92.19881240763902
 20
260.1237837923138
 30
0.0
 40
7.0
100
AcDbArc
 50
273.6614410000037
 51
357.2200000000003
  0
ARC
  5
4BFC
330
18
100
AcDbEntity
  8
1
  6
Continuous
100
AcDbCircle
 10
56.89837340763915
 20
342.9543657923138
 30
0.0
 40
90.0
100
AcDbArc
 50
266.3385589999962
 51
276.6386329999971
  0
ARC
  5
4BFD
330
18
100
AcDbEntity
  8
1
  6
Continuous
100
AcDbCircle
 10
66.89837340763915
 20
257.0343447923137
 30
0.0
 40
3.5
100
AcDbArc
 50
276.6386329999971
 51
0.000000000000007
  0
ARC
  5
4BFE
330
18
100
AcDbEntity
  8
1
  6
Continuous
100
AcDbCircle
 10
76.89837340763915
 20
257.0343447923137
 30
0.0
 40
3.5
100
AcDbArc
 50
180.0
 51
263.3613670000028
  0
ARC
  5
4BFF
330
18
100
AcDbEntity
  8
1
  6
Continuous
100
AcDbCircle
 10
51.59793440763928
 20
260.1237837923138
 30
0.0
 40
7.0
100
AcDbArc
 50
182.7799999999997
 51
266.3385589999962
  0
ARC
  5
4C00
330
18
100
AcDbEntity
  8
1
  6
Continuous
100
AcDbCircle
 10
46.89837340763914
 20
258.4167007923138
 30
0.0
 40
2.0
100
AcDbArc
 50
180.0
 51
199.9632019999993
  0
LINE
  5
4C01
330
18
100
AcDbEntity
  8
1
  6
Continuous
100
AcDbLine
 10
75.89837340763915
 20
454.9543657923138
 30
0.0
 11
75.89837340763915
 21
417.9543657923138
 31
0.0
  0
LINE
  5
4C02
330
18
100
AcDbEntity
  8
1
  6
Continuous
100
AcDbLine
 10
67.89837340763916
 20
454.9543657923138
 30
0.0
 11
67.89837340763916
 21
417.9543657923138
 31
0.0
  0
ARC
  5
4C03
330
18
100
AcDbEntity
  8
1
  6
Continuous
100
AcDbCircle
 10
109.3983734076391
 20
448.9543657923138
 30
0.0
 40
6.0
100
AcDbArc
 50
0.000000000000007
 51
90.0
  0
ARC
  5
4C04
330
18
100
AcDbEntity
  8
1
  6
Continuous
100
AcDbCircle
 10
34.39837340763915
 20
448.9543657923138
 30
0.0
 40
6.0
100
AcDbArc
 50
90.0
 51
180.0
  0
ARC
  5
4C05
330
18
100
AcDbEntity
  8
1
  6
Continuous
100
AcDbCircle
 10
86.89837340763915
 20
312.9543657923138
 30
0.0
 40
90.0
100
AcDbArc
 50
86.33855899999629
 51
96.63863299999711
  0
ARC
  5
4C06
330
18
100
AcDbEntity
  8
1
  6
Continuous
100
AcDbCircle
 10
83.39837340763915
 20
397.9543657923139
 30
0.0
 40
20.0
100
AcDbArc
 50
30.3289259999999
 51
90.0
  0
LINE
  5
4C07
330
18
100
AcDbEntity
  8
4
  6
CENTER
 48
0.7
100
AcDbLine
 10
21.39837340763893
 20
327.9543657923138
 30
0.0
 11
122.3983734076391
 21
327.9543657923138
 31
0.0
  0
LINE
  5
4C08
330
18
100
AcDbEntity
  8
1
  6
Continuous
100
AcDbLine
 10
100.8983734076391
 20
294.9543657923152
 30
0.0
 11
100.8983734076391
 21
360.9543657923139
 31
0.0
  0
LINE
  5
4C09
330
18
100
AcDbEntity
  8
1
  6
Continuous
100
AcDbLine
 10
98.89837340763916
 20
268.3513167923117
 30
0.0
 11
98.89837340763916
 21
397.4920307923139
 31
0.0
  0
LINE
  5
4C0A
330
18
100
AcDbEntity
  8
1
  6
Continuous
100
AcDbLine
 10
103.3983734076391
 20
401.9629617923136
 30
0.0
 11
103.3983734076391
 21
307.9543657923138
 31
0.0
  0
LINE
  5
4C0B
330
18
100
AcDbEntity
  8
1
  6
Continuous
100
AcDbLine
 10
115.3983734076391
 20
448.9543657923138
 30
0.0
 11
115.3983734076391
 21
307.9543657923138
 31
0.0
  0
LINE
  5
4C0C
330
18
100
AcDbEntity
  8
1
  6
Continuous
100
AcDbLine
 10
101.955079407639
 20
308.7863207923137
 30
0.0
 11
100.8983734076391
 21
305.7835447923138
 31
0.0
  0
ARC
  5
4C0D
330
18
100
AcDbEntity
  8
1
  6
Continuous
100
AcDbCircle
 10
112.3983734076391
 20
307.9543657923138
 30
0.0
 40
3.0
100
AcDbArc
 50
270.0
 51
0.000000000000007
  0
LINE
  5
4C0E
330
18
100
AcDbEntity
  8
1
  6
Continuous
100
AcDbLine
 10
106.3983734076391
 20
304.9543657923138
 30
0.0
 11
112.3983734076391
 21
304.9543657923138
 31
0.0
  0
ARC
  5
4C0F
330
18
100
AcDbEntity
  8
1
  6
Continuous
100
AcDbCircle
 10
106.3983734076391
 20
307.9543657923138
 30
0.0
 40
3.0
100
AcDbArc
 50
180.0
 51
270.0
  0
LINE
  5
4C10
330
18
100
AcDbEntity
  8
1
  6
Continuous
100
AcDbLine
 10
102.8983734076391
 20
309.6375817923137
 30
0.0
 11
102.8983734076391
 21
346.2711497923137
 31
0.0
  0
LINE
  5
4C11
330
18
100
AcDbEntity
  8
1
  6
Continuous
100
AcDbLine
 10
102.8983734076391
 20
311.0043657923138
 30
0.0
 11
103.3983734076391
 21
311.0043657923138
 31
0.0
  0
ARC
  5
4C12
330
18
100
AcDbEntity
  8
1
  6
Continuous
100
AcDbCircle
 10
102.6983734076391
 20
309.6375817923137
 30
0.0
 40
0.2
100
AcDbArc
 50
279.5941419999997
 51
0.000000000000007
  0
ARC
  5
4C13
330
18
100
AcDbEntity
  8
1
  6
Continuous
100
AcDbCircle
 10
102.898374407639
 20
308.4543657923138
 30
0.0
 40
1.0
100
AcDbArc
 50
99.59414199999978
 51
160.612528
  0
LINE
  5
4C14
330
18
100
AcDbEntity
  8
1
  6
Continuous
100
AcDbLine
 10
102.8983734076391
 20
344.9043657923137
 30
0.0
 11
103.3983734076391
 21
344.9043657923137
 31
0.0
  0
ARC
  5
4C15
330
18
100
AcDbEntity
  8
1
  6
Continuous
100
AcDbCircle
 10
102.6983734076391
 20
346.2711497923137
 30
0.0
 40
0.2
100
AcDbArc
 50
0.000000000000007
 51
80.40585800000025
  0
ARC
  5
4C16
330
18
100
AcDbEntity
  8
1
  6
Continuous
100
AcDbCircle
 10
102.898374407639
 20
347.4543657923139
 30
0.0
 40
1.0
100
AcDbArc
 50
199.3874719999999
 51
260.4058580000002
  0
LINE
  5
4C17
330
18
100
AcDbEntity
  8
1
  6
Continuous
100
AcDbLine
 10
101.955079407639
 20
347.1224107923137
 30
0.0
 11
100.8983734076391
 21
350.1251857923139
 31
0.0
  0
ARC
  5
4C18
330
18
100
AcDbEntity
  8
1
  6
Continuous
100
AcDbCircle
 10
98.39837340763915
 20
401.9629617923136
 30
0.0
 40
5.0
100
AcDbArc
 50
0.000000000000007
 51
29.52977600000142
  0
ARC
  5
4C19
330
18
100
AcDbEntity
  8
1
  6
Continuous
100
AcDbCircle
 10
92.19881240763902
 20
395.7849477923137
 30
0.0
 40
7.0
100
AcDbArc
 50
2.779999999999706
 51
86.33855899999629
  0
LINE
  5
4C1A
330
18
100
AcDbEntity
  8
1
  6
Continuous
100
AcDbLine
 10
105.1399134076391
 20
401.9629617923136
 30
0.0
 11
105.1399134076391
 21
448.9543657923138
 31
0.0
  0
LINE
  5
4C1B
330
18
100
AcDbEntity
  8
1
  6
Continuous
100
AcDbLine
 10
100.8983734076391
 20
360.9543657923139
 30
0.0
 11
99.19057440763914
 21
396.1244557923138
 31
0.0
  0
LINE
  5
4C1C
330
18
100
AcDbEntity
  8
1
  6
Continuous
100
AcDbLine
 10
112.3983734076391
 20
400.1243657923138
 30
0.0
 11
106.3983734076391
 21
400.1243657923138
 31
0.0
  0
ARC
  5
4C1D
330
18
100
AcDbEntity
  8
1
  6
Continuous
100
AcDbCircle
 10
96.89837340763915
 20
397.4920307923139
 30
0.0
 40
2.0
100
AcDbArc
 50
0.000000000000007
 51
19.96320199999936
  0
ARC
  5
4C1E
330
18
100
AcDbEntity
  8
1
  6
Continuous
100
AcDbCircle
 10
-158.2810295923609
 20
256.5645977923137
 30
0.0
 40
300.0
100
AcDbArc
 50
29.52977600000142
 51
30.3289259999999
  0
LINE
  5
4C1F
330
18
100
AcDbEntity
  8
1
  6
Continuous
100
AcDbLine
 10
42.89837340763916
 20
294.9543657923152
 30
0.0
 11
42.89837340763916
 21
360.9543657923139
 31
0.0
  0
LINE
  5
4C20
330
18
100
AcDbEntity
  8
1
  6
Continuous
100
AcDbLine
 10
44.89837340763915
 20
268.3513167923117
 30
0.0
 11
44.89837340763915
 21
397.4920307923139
 31
0.0
  0
LINE
  5
4C21
330
18
100
AcDbEntity
  8
1
  6
Continuous
100
AcDbLine
 10
40.39837340763916
 20
401.9629617923136
 30
0.0
 11
40.39837340763916
 21
307.9543657923138
 31
0.0
  0
LINE
  5
4C22
330
18
100
AcDbEntity
  8
1
  6
Continuous
100
AcDbLine
 10
28.39837340763915
 20
448.9543657923138
 30
0.0
 11
28.39837340763915
 21
307.9543657923138
 31
0.0
  0
ARC
  5
4C23
330
18
100
AcDbEntity
  8
1
  6
Continuous
100
AcDbCircle
 10
40.89837140763915
 20
347.4543657923139
 30
0.0
 40
1.0
100
AcDbArc
 50
279.5941419999997
 51
340.6125280000001
  0
ARC
  5
4C24
330
18
100
AcDbEntity
  8
1
  6
Continuous
100
AcDbCircle
 10
40.89837140763915
 20
308.4543657923138
 30
0.0
 40
1.0
100
AcDbArc
 50
19.38747199999992
 51
80.40585800000025
  0
LINE
  5
4C25
330
18
100
AcDbEntity
  8
1
  6
Continuous
100
AcDbLine
 10
41.84166640763897
 20
308.7863207923137
 30
0.0
 11
42.89837340763916
 21
305.7835447923138
 31
0.0
  0
LINE
  5
4C26
330
18
100
AcDbEntity
  8
1
  6
Continuous
100
AcDbLine
 10
71.89837340763915
 20
340.9543457923138
 30
0.0
 11
71.89837340763915
 21
314.9543857923138
 31
0.0
  0
LINE
  5
4C27
330
18
100
AcDbEntity
  8
1
  6
Continuous
100
AcDbLine
 10
71.89837340763915
 20
314.9543857923138
 30
0.0
 11
72.39837340763916
 21
314.4543857923138
 31
0.0
  0
LINE
  5
4C28
330
18
100
AcDbEntity
  8
1
  6
Continuous
100
AcDbLine
 10
73.39837340763915
 20
314.4543857923138
 30
0.0
 11
72.39837340763916
 21
314.4543857923138
 31
0.0
  0
LINE
  5
4C29
330
18
100
AcDbEntity
  8
1
  6
Continuous
100
AcDbLine
 10
71.89837340763915
 20
314.9543857923138
 30
0.0
 11
71.39837340763915
 21
314.4543857923138
 31
0.0
  0
LINE
  5
4C2A
330
18
100
AcDbEntity
  8
1
  6
Continuous
100
AcDbLine
 10
70.39837340763916
 20
314.4543857923138
 30
0.0
 11
71.39837340763915
 21
314.4543857923138
 31
0.0
  0
LINE
  5
4C2B
330
18
100
AcDbEntity
  8
1
  6
Continuous
100
AcDbLine
 10
71.89837340763915
 20
340.9543457923138
 30
0.0
 11
72.39837340763916
 21
341.4543457923138
 31
0.0
  0
LINE
  5
4C2C
330
18
100
AcDbEntity
  8
1
  6
Continuous
100
AcDbLine
 10
73.39837340763915
 20
341.4543457923138
 30
0.0
 11
72.39837340763916
 21
341.4543457923138
 31
0.0
  0
LINE
  5
4C2D
330
18
100
AcDbEntity
  8
1
  6
Continuous
100
AcDbLine
 10
71.89837340763915
 20
340.9543457923138
 30
0.0
 11
71.39837340763915
 21
341.4543457923138
 31
0.0
  0
LINE
  5
4C2E
330
18
100
AcDbEntity
  8
1
  6
Continuous
100
AcDbLine
 10
70.39837340763916
 20
341.4543457923138
 30
0.0
 11
71.39837340763915
 21
341.4543457923138
 31
0.0
  0
LINE
  5
4C2F
330
18
100
AcDbEntity
  8
1
  6
Continuous
100
AcDbLine
 10
41.84166640763897
 20
347.1224107923137
 30
0.0
 11
42.89837340763916
 21
350.1251857923139
 31
0.0
  0
ARC
  5
4C30
330
18
100
AcDbEntity
  8
1
  6
Continuous
100
AcDbCircle
 10
31.39837340763915
 20
307.9543657923138
 30
0.0
 40
3.0
100
AcDbArc
 50
180.0
 51
270.0
  0
LINE
  5
4C31
330
18
100
AcDbEntity
  8
1
  6
Continuous
100
AcDbLine
 10
37.39837340763915
 20
304.9543657923138
 30
0.0
 11
31.39837340763915
 21
304.9543657923138
 31
0.0
  0
ARC
  5
4C32
330
18
100
AcDbEntity
  8
1
  6
Continuous
100
AcDbCircle
 10
37.39837340763915
 20
307.9543657923138
 30
0.0
 40
3.0
100
AcDbArc
 50
270.0
 51
0.000000000000007
  0
LINE
  5
4C33
330
18
100
AcDbEntity
  8
1
  6
Continuous
100
AcDbLine
 10
40.89837340763915
 20
309.6375817923137
 30
0.0
 11
40.89837340763915
 21
346.2711497923137
 31
0.0
  0
ARC
  5
4C34
330
18
100
AcDbEntity
  8
1
  6
Continuous
100
AcDbCircle
 10
41.09837340763896
 20
309.6375817923137
 30
0.0
 40
0.2
100
AcDbArc
 50
180.0
 51
260.4058580000002
  0
LINE
  5
4C35
330
18
100
AcDbEntity
  8
1
  6
Continuous
100
AcDbLine
 10
40.89837340763915
 20
311.0043657923138
 30
0.0
 11
40.39837340763916
 21
311.0043657923138
 31
0.0
  0
ARC
  5
4C36
330
18
100
AcDbEntity
  8
1
  6
Continuous
100
AcDbCircle
 10
41.09837340763896
 20
346.2711497923137
 30
0.0
 40
0.2
100
AcDbArc
 50
99.59414199999978
 51
180.0
  0
LINE
  5
4C37
330
18
100
AcDbEntity
  8
1
  6
Continuous
100
AcDbLine
 10
40.89837340763915
 20
344.9043657923137
 30
0.0
 11
40.39837340763916
 21
344.9043657923137
 31
0.0
  0
ARC
  5
4C38
330
18
100
AcDbEntity
  8
1
  6
Continuous
100
AcDbCircle
 10
302.0777754076391
 20
256.5645977923137
 30
0.0
 40
300.0
100
AcDbArc
 50
149.6710740000001
 51
150.4702239999986
  0
ARC
  5
4C39
330
18
100
AcDbEntity
  8
1
  6
Continuous
100
AcDbCircle
 10
51.59793440763928
 20
395.7849477923137
 30
0.0
 40
7.0
100
AcDbArc
 50
93.6614410000037
 51
177.2200000000003
  0
ARC
  5
4C3A
330
18
100
AcDbEntity
  8
1
  6
Continuous
100
AcDbCircle
 10
56.89837340763915
 20
312.9543657923138
 30
0.0
 40
90.0
100
AcDbArc
 50
83.36136700000286
 51
93.66144100000372
  0
ARC
  5
4C3B
330
18
100
AcDbEntity
  8
1
  6
Continuous
100
AcDbCircle
 10
66.89837340763915
 20
398.8743867923137
 30
0.0
 40
3.5
100
AcDbArc
 50
0.000000000000007
 51
83.36136700000286
  0
ARC
  5
4C3C
330
18
100
AcDbEntity
  8
1
  6
Continuous
100
AcDbCircle
 10
76.89837340763915
 20
398.8743867923137
 30
0.0
 40
3.5
100
AcDbArc
 50
96.63863299999711
 51
180.0
  0
LINE
  5
4C3D
330
18
100
AcDbEntity
  8
1
  6
Continuous
100
AcDbLine
 10
42.89837340763916
 20
360.9543657923139
 30
0.0
 11
44.60617240763918
 21
396.1244557923138
 31
0.0
  0
ARC
  5
4C3E
330
18
100
AcDbEntity
  8
1
  6
Continuous
100
AcDbCircle
 10
46.89837340763914
 20
397.4920307923139
 30
0.0
 40
2.0
100
AcDbArc
 50
160.0367980000006
 51
180.0
  0
LINE
  5
4C3F
330
18
100
AcDbEntity
  8
1
  6
Continuous
100
AcDbLine
 10
83.39837340763915
 20
417.9543657923138
 30
0.0
 11
60.39837340763916
 21
417.9543657923138
 31
0.0
  0
ARC
  5
4C40
330
18
100
AcDbEntity
  8
1
  6
Continuous
100
AcDbCircle
 10
60.39837340763916
 20
397.9543657923139
 30
0.0
 40
20.0
100
AcDbArc
 50
90.0
 51
149.6710740000001
  0
ARC
  5
4C41
330
18
100
AcDbEntity
  8
1
  6
Continuous
100
AcDbCircle
 10
45.39837340763916
 20
401.9629617923136
 30
0.0
 40
5.0
100
AcDbArc
 50
150.4702239999986
 51
180.0
  0
LINE
  5
4C42
330
18
100
AcDbEntity
  8
1
  6
Continuous
100
AcDbLine
 10
38.65683240763905
 20
401.9629617923136
 30
0.0
 11
38.65683240763905
 21
448.9543657923138
 31
0.0
  0
LINE
  5
4C43
330
18
100
AcDbEntity
  8
1
  6
Continuous
100
AcDbLine
 10
31.39837340763915
 20
400.1243657923138
 30
0.0
 11
37.39837340763915
 21
400.1243657923138
 31
0.0
  0
LINE
  5
4C44
330
18
100
AcDbEntity
  8
1
  6
Continuous
100
AcDbLine
 10
126.8983734076391
 20
467.9543657923138
 30
0.0
 11
82.14837340763915
 21
467.9543657923138
 31
0.0
  0
LINE
  5
4C45
330
18
100
AcDbEntity
  8
1
  6
Continuous
100
AcDbLine
 10
126.8983734076391
 20
472.9543657923138
 30
0.0
 11
79.84837340763897
 21
472.9543657923138
 31
0.0
  0
LINE
  5
4C46
330
18
100
AcDbEntity
  8
1
  6
Continuous
100
AcDbLine
 10
109.3983734076391
 20
454.9543657923138
 30
0.0
 11
34.39837340763915
 21
454.9543657923138
 31
0.0
  0
ARC
  5
4C49
330
18
100
AcDbEntity
  8
1
  6
Continuous
100
AcDbCircle
 10
114.8983734076391
 20
463.9543657923138
 30
0.0
 40
4.0
100
AcDbArc
 50
90.0
 51
180.0
  0
LINE
  5
4C4A
330
18
100
AcDbEntity
  8
1
  6
Continuous
100
AcDbLine
 10
109.182936407639
 20
456.1845317923138
 30
0.0
 11
126.8983734076391
 21
467.2543657923138
 31
0.0
  0
LINE
  5
4C4B
330
18
100
AcDbEntity
  8
4
  6
CENTER
 48
0.2
100
AcDbLine
 10
116.8983734076391
 20
478.9543657923139
 30
0.0
 11
116.8983734076391
 21
461.9543657923138
 31
0.0
  0
LINE
  5
4C4C
330
18
100
AcDbEntity
  8
1
  6
Continuous
100
AcDbLine
 10
126.8983734076391
 20
472.9543657923138
 30
0.0
 11
126.8983734076391
 21
467.2543657923138
 31
0.0
  0
LINE
  5
4C4D
330
18
100
AcDbEntity
  8
1
  6
Continuous
100
AcDbLine
 10
110.8983734076391
 20
463.9543657923138
 30
0.0
 11
110.8983734076391
 21
459.9543657923138
 31
0.0
  0
ARC
  5
4C4E
330
18
100
AcDbEntity
  8
1
  6
Continuous
100
AcDbCircle
 10
105.8983734076391
 20
459.9543657923138
 30
0.0
 40
5.0
100
AcDbArc
 50
270.0
 51
0.000000000000007
  0
LINE
  5
4C4F
330
18
100
AcDbEntity
  8
1
  6
Continuous
100
AcDbLine
 10
63.94837340763911
 20
472.9543657923138
 30
0.0
 11
16.89837340763915
 21
472.9543657923138
 31
0.0
  0
LINE
  5
4C50
330
18
100
AcDbEntity
  8
1
  6
Continuous
100
AcDbLine
 10
16.89837340763915
 20
467.9543657923138
 30
0.0
 11
61.64837340763916
 21
467.9543657923138
 31
0.0
  0
ARC
  5
4C51
330
18
100
AcDbEntity
  8
1
  6
Continuous
100
AcDbCircle
 10
63.94837340763911
 20
471.2543657923138
 30
0.0
 40
1.7
100
AcDbArc
 50
0.000000000000007
 51
90.0
  0
LINE
  5
4C52
330
18
100
AcDbEntity
  8
1
  6
Continuous
100
AcDbLine
 10
80.77360040763917
 20
467.2543657923138
 30
0.0
 11
63.02314540763905
 21
467.2543657923138
 31
0.0
  0
LINE
  5
4C53
330
18
100
AcDbEntity
  8
1
  6
Continuous
100
AcDbLine
 10
78.14837340763915
 20
471.2543657923138
 30
0.0
 11
65.64837340763915
 21
471.2543657923138
 31
0.0
  0
LINE
  5
4C54
330
18
100
AcDbEntity
  8
1
  6
Continuous
100
AcDbLine
 10
77.39837340763916
 20
456.1845317923138
 30
0.0
 11
66.39837340763915
 21
456.1845317923138
 31
0.0
  0
LINE
  5
4C55
330
18
100
AcDbEntity
  8
1
  6
Continuous
100
AcDbLine
 10
71.89837340763915
 20
472.4543657923138
 30
0.0
 11
78.64421340763922
 21
472.4543657923138
 31
0.0
  0
ARC
  5
4C56
330
18
100
AcDbEntity
  8
1
  6
Continuous
100
AcDbCircle
 10
71.89837340763915
 20
434.2757307923137
 30
0.0
 40
38.17863499999999
100
AcDbArc
 50
80.37357500000231
 51
99.62642499999772
  0
ARC
  5
4C57
330
18
100
AcDbEntity
  8
1
  6
Continuous
100
AcDbCircle
 10
79.84837340763897
 20
471.2543657923138
 30
0.0
 40
1.7
100
AcDbArc
 50
90.0
 51
180.0
  0
ARC
  5
4C58
330
18
100
AcDbEntity
  8
1
  6
Continuous
100
AcDbCircle
 10
80.77360040763917
 20
468.9543657923138
 30
0.0
 40
1.7
100
AcDbArc
 50
270.0
 51
323.9681209999994
  0
ARC
  5
4C59
330
18
100
AcDbEntity
  8
1
  6
Continuous
100
AcDbCircle
 10
83.14837340763915
 20
457.1845317923139
 30
0.0
 40
1.0
100
AcDbArc
 50
180.0
 51
270.0
  0
LINE
  5
4C5A
330
18
100
AcDbEntity
  8
1
  6
Continuous
100
AcDbLine
 10
82.14837340763915
 20
467.1543657923137
 30
0.0
 11
82.14837340763915
 21
457.6845317923138
 31
0.0
  0
LINE
  5
4C5B
330
18
100
AcDbEntity
  8
1
  6
Continuous
100
AcDbLine
 10
71.89837340763915
 20
472.4543657923138
 30
0.0
 11
65.15253240763922
 21
472.4543657923138
 31
0.0
  0
ARC
  5
4C5C
330
18
100
AcDbEntity
  8
1
  6
Continuous
100
AcDbCircle
 10
63.02314540763905
 20
468.9543657923138
 30
0.0
 40
1.7
100
AcDbArc
 50
216.0318790000006
 51
270.0
  0
ARC
  5
4C5D
330
18
100
AcDbEntity
  8
1
  6
Continuous
100
AcDbCircle
 10
60.64837340763915
 20
457.1845317923139
 30
0.0
 40
1.0
100
AcDbArc
 50
270.0
 51
0.000000000000007
  0
LINE
  5
4C5E
330
18
100
AcDbEntity
  8
1
  6
Continuous
100
AcDbLine
 10
61.64837340763916
 20
467.1543657923137
 30
0.0
 11
61.64837340763916
 21
457.6845317923138
 31
0.0
  0
LINE
  5
4C5F
330
18
100
AcDbEntity
  8
1
  6
Continuous
100
AcDbLine
 10
34.61381040763899
 20
456.1845317923138
 30
0.0
 11
16.89837340763915
 21
467.2543657923138
 31
0.0
  0
LINE
  5
4C60
330
18
100
AcDbEntity
  8
4
  6
CENTER
 48
0.2
100
AcDbLine
 10
26.89837340763916
 20
478.9543657923139
 30
0.0
 11
26.89837340763916
 21
461.9543657923138
 31
0.0
  0
ARC
  5
4C61
330
18
100
AcDbEntity
  8
1
  6
Continuous
100
AcDbCircle
 10
28.89837340763915
 20
463.9543657923138
 30
0.0
 40
4.0
100
AcDbArc
 50
0.000000000000007
 51
90.0
  0
LINE
  5
4C62
330
18
100
AcDbEntity
  8
1
  6
Continuous
100
AcDbLine
 10
32.89837340763915
 20
463.9543657923138
 30
0.0
 11
32.89837340763915
 21
459.9543657923138
 31
0.0
  0
ARC
  5
4C63
330
18
100
AcDbEntity
  8
1
  6
Continuous
100
AcDbCircle
 10
37.89837340763915
 20
459.9543657923138
 30
0.0
 40
5.0
100
AcDbArc
 50
180.0
 51
270.0
  0
LINE
  5
4C65
330
18
100
AcDbEntity
  8
1
  6
Continuous
100
AcDbLine
 10
16.89837340763915
 20
472.9543657923138
 30
0.0
 11
16.89837340763915
 21
467.2543657923138
 31
0.0
  0
ENDSEC
  0
SECTION
  2
OBJECTS
  0
DICTIONARY
  5
C
330
0
100
AcDbDictionary
281
     1
  3
ACAD_CIP_PREVIOUS_PRODUCT_INFO
350
5114
  3
ACAD_COLOR
350
50F7
  3
ACAD_DETAILVIEWSTYLE
350
5110
  3
ACAD_GROUP
350
D
  3
ACAD_LAYOUT
350
94
  3
ACAD_MATERIAL
350
50C5
  3
ACAD_MLEADERSTYLE
350
510C
  3
ACAD_MLINESTYLE
350
1B
  3
ACAD_PLOTSETTINGS
350
95
  3
ACAD_PLOTSTYLENAME
350
50C3
  3
ACAD_SCALELIST
350
50FA
  3
ACAD_SECTIONVIEWSTYLE
350
510E
  3
ACAD_TABLESTYLE
350
50F8
  3
ACAD_VISUALSTYLE
350
50DE
  3
ACDB_RECOMPOSE_DATA
350
5132
  3
AcDbVariableDictionary
350
5125
  3
CONTENTDICTIONARY
350
3D
  3
DWGPROPS
350
5133
  0
DICTIONARY
  5
5115
330
E
100
AcDbDictionary
280
     1
281
     1
  3
ADSK_XREC_LAYER_RECONCILED
360
5116
  0
DICTIONARY
  5
5117
330
4E
100
AcDbDictionary
280
     1
281
     1
  3
ADSK_XREC_LAYER_RECONCILED
360
5118
  0
DICTIONARY
  5
5119
330
4F
100
AcDbDictionary
280
     1
281
     1
  3
ADSK_XREC_LAYER_RECONCILED
360
511A
  0
DICTIONARY
  5
511B
330
50
100
AcDbDictionary
280
     1
281
     1
  3
ADSK_XREC_LAYER_RECONCILED
360
511C
  0
DICTIONARY
  5
511D
330
51
100
AcDbDictionary
280
     1
281
     1
  3
ADSK_XREC_LAYER_RECONCILED
360
511E
  0
DICTIONARY
  5
511F
330
52
100
AcDbDictionary
280
     1
281
     1
  3
ADSK_XREC_LAYER_RECONCILED
360
5120
  0
DICTIONARY
  5
5121
330
53
100
AcDbDictionary
280
     1
281
     1
  3
ADSK_XREC_LAYER_RECONCILED
360
5122
  0
DICTIONARY
  5
5123
330
54
100
AcDbDictionary
280
     1
281
     1
  3
ADSK_XREC_LAYER_RECONCILED
360
5124
  0
DICTIONARY
  5
50BE
330
18
100
AcDbDictionary
281
     1
  3
ACAD_LAYOUTSELFREF
350
50BF
  0
DICTIONARY
  5
50BC
330
15
100
AcDbDictionary
281
     1
  3
ACAD_LAYOUTSELFREF
350
50BD
  0
XRECORD
  5
5114
102
{ACAD_REACTORS
330
C
102
}
330
C
100
AcDbXrecord
280
     1
300
ACDLT
300
2014
300
ACDLT_F_S
  0
DICTIONARY
  5
50F7
102
{ACAD_REACTORS
330
C
102
}
330
C
100
AcDbDictionary
281
     1
  0
DICTIONARY
  5
5110
102
{ACAD_REACTORS
330
C
102
}
330
C
100
AcDbDictionary
281
     1
  3
Imperial24
350
5111
  0
DICTIONARY
  5
D
102
{ACAD_REACTORS
330
C
102
}
330
C
100
AcDbDictionary
281
     1
  0
DICTIONARY
  5
94
102
{ACAD_REACTORS
330
C
102
}
330
C
100
AcDbDictionary
281
     1
  3
Model
350
5112
  3
レイアウト1
350
5113
  0
DICTIONARY
  5
50C5
102
{ACAD_REACTORS
330
C
102
}
330
C
100
AcDbDictionary
281
     1
  3
ByBlock
350
50CE
  3
ByLayer
350
50C6
  3
Global
350
50D6
  0
DICTIONARY
  5
510C
102
{ACAD_REACTORS
330
C
102
}
330
C
100
AcDbDictionary
281
     1
  3
Standard
350
510D
  0
DICTIONARY
  5
1B
102
{ACAD_REACTORS
330
C
102
}
330
C
100
AcDbDictionary
281
     1
  3
STANDARD
350
1C
  0
DICTIONARY
  5
95
102
{ACAD_REACTORS
330
C
102
}
330
C
100
AcDbDictionary
281
     1
  0
ACDBDICTIONARYWDFLT
  5
50C3
102
{ACAD_REACTORS
330
C
102
}
330
C
100
AcDbDictionary
281
     1
  3
Normal
350
50C4
100
AcDbDictionaryWithDefault
340
50C4
  0
DICTIONARY
  5
50FA
102
{ACAD_REACTORS
330
C
102
}
330
C
100
AcDbDictionary
281
     1
  3
A0
350
50FB
  3
A1
350
50FC
  3
A2
350
50FD
  3
A3
350
50FE
  3
A4
350
50FF
  3
A5
350
5100
  3
A6
350
5101
  3
A7
350
5102
  3
A8
350
5103
  3
A9
350
5104
  3
B0
350
5105
  3
B1
350
5106
  3
B2
350
5107
  3
B3
350
5108
  3
B4
350
5109
  3
B5
350
510A
  3
B6
350
510B
  0
DICTIONARY
  5
510E
102
{ACAD_REACTORS
330
C
102
}
330
C
100
AcDbDictionary
281
     1
  3
Imperial24
350
510F
  0
DICTIONARY
  5
50F8
102
{ACAD_REACTORS
330
C
102
}
330
C
100
AcDbDictionary
281
     1
  3
Standard
350
50F9
  0
DICTIONARY
  5
50DE
102
{ACAD_REACTORS
330
C
102
}
330
C
100
AcDbDictionary
281
     1
  3
2dWireframe
350
50E4
  3
Basic
350
50E3
  3
Brighten
350
50EA
  3
ColorChange
350
50EE
  3
Conceptual
350
50E7
  3
Dim
350
50E9
  3
EdgeColorOff
350
50F6
  3
Facepattern
350
50ED
  3
Flat
350
50DF
  3
FlatWithEdges
350
50E0
  3
Gouraud
350
50E1
  3
GouraudWithEdges
350
50E2
  3
Hidden
350
50E6
  3
JitterOff
350
50F4
  3
Linepattern
350
50EC
  3
OverhangOff
350
50F5
  3
Realistic
350
50E8
  3
Shaded
350
50F3
  3
Shaded with edges
350
50F2
  3
Shades of Gray
350
50EF
  3
Sketchy
350
50F0
  3
Thicken
350
50EB
  3
Wireframe
350
50E5
  3
X-Ray
350
50F1
  0
XRECORD
  5
5132
102
{ACAD_REACTORS
330
C
102
}
330
C
100
AcDbXrecord
280
     1
 90
        1
330
50F9
  0
DICTIONARY
  5
5125
102
{ACAD_REACTORS
330
C
102
}
330
C
100
AcDbDictionary
281
     1
  3
CANNOSCALE
350
512A
  3
CMLEADERSTYLE
350
5127
  3
CTABLESTYLE
350
5126
  3
CVIEWDETAILSTYLE
350
5128
  3
CVIEWSECTIONSTYLE
350
5129
  3
DIMASSOC
350
512D
  3
INDEXCTL
350
512C
  3
SORTENTS
350
512B
  3
XCLIPFRAME
350
512E
  0
DICTIONARY
  5
3D
102
{ACAD_REACTORS
330
C
102
}
330
C
100
AcDbDictionary
281
     1
  0
XRECORD
  5
5133
102
{ACAD_REACTORS
330
C
102
}
330
C
100
AcDbXrecord
280
     1
  1
DWGPROPS COOKIE
  2

  3

  4

  6

  7

  8
Yoshitsune
  9

300
=
301
=
302
=
303
=
304
=
305
=
306
=
307
=
308
=
309
=
 40
0.1594786805555556
 41
2454526.717009005
 42
2457192.68879397
  1

 90
        0
  0
XRECORD
  5
5116
102
{ACAD_REACTORS
330
5115
102
}
330
5115
100
AcDbXrecord
280
     1
290
     1
  0
XRECORD
  5
5118
102
{ACAD_REACTORS
330
5117
102
}
330
5117
100
AcDbXrecord
280
     1
290
     1
  0
XRECORD
  5
511A
102
{ACAD_REACTORS
330
5119
102
}
330
5119
100
AcDbXrecord
280
     1
290
     1
  0
XRECORD
  5
511C
102
{ACAD_REACTORS
330
511B
102
}
330
511B
100
AcDbXrecord
280
     1
290
     1
  0
XRECORD
  5
511E
102
{ACAD_REACTORS
330
511D
102
}
330
511D
100
AcDbXrecord
280
     1
290
     1
  0
XRECORD
  5
5120
102
{ACAD_REACTORS
330
511F
102
}
330
511F
100
AcDbXrecord
280
     1
290
     1
  0
XRECORD
  5
5122
102
{ACAD_REACTORS
330
5121
102
}
330
5121
100
AcDbXrecord
280
     1
290
     1
  0
XRECORD
  5
5124
102
{ACAD_REACTORS
330
5123
102
}
330
5123
100
AcDbXrecord
280
     1
290
     1
  0
XRECORD
  5
50BF
102
{ACAD_REACTORS
330
50BE
102
}
330
50BE
100
AcDbXrecord
280
     1
340
18
  0
XRECORD
  5
50BD
102
{ACAD_REACTORS
330
50BC
102
}
330
50BC
100
AcDbXrecord
280
     1
340
15
  0
ACDBDETAILVIEWSTYLE
  5
5111
102
{ACAD_XDICTIONARY
360
516B
102
}
102
{ACAD_REACTORS
330
5110
102
}
330
5110
100
AcDbModelDocViewStyle
 70
     0
  3
Imperial24
290
     0
100
AcDbDetailViewStyle
 70
     0
 71
     0
 90
        3
 71
     1
340
F
 40
0.24
340
0
 40
0.24
300

 40
0.36
280
     3
 71
     2
340
14
 90
       25
 71
     3
340
F
 40
0.24
 90
        1
 40
0.75
 90
        1
300
%<\AcVar ViewType \f "%tc1">% %<\AcVar ViewDetailId>%\PSCALE %<\AcVar ViewScale \f "%sn">%
 71
     4
340
14
 90
       25
340
14
 90
       25
280
     0
  0
LAYOUT
  5
5112
102
{ACAD_XDICTIONARY
360
516D
102
}
102
{ACAD_REACTORS
330
94
102
}
330
94
100
AcDbPlotSettings
  1

  2
Canon LBP9100C
  4

  6

 40
0.0
 41
0.0
 42
0.0
 43
0.0
 44
0.0
 45
0.0
 46
0.0
 47
0.0
 48
0.0
 49
0.0
140
0.0
141
0.0
142
1.0
143
1.0
 70
  1712
 72
     0
 73
     0
 74
     0
  7

 75
     0
147
1.0
148
0.0
149
0.0
100
AcDbLayout
  1
Model
 70
     1
 71
     0
 10
0.0
 20
0.0
 11
12.0
 21
9.0
 12
0.0
 22
0.0
 32
0.0
 14
0.0
 24
0.0
 34
0.0
 15
0.0
 25
0.0
 35
0.0
146
0.0
 13
0.0
 23
0.0
 33
0.0
 16
1.0
 26
0.0
 36
0.0
 17
0.0
 27
1.0
 37
0.0
 76
     0
330
18
331
50BB
  0
LAYOUT
  5
5113
102
{ACAD_XDICTIONARY
360
516F
102
}
102
{ACAD_REACTORS
330
94
102
}
330
94
100
AcDbPlotSettings
  1

  2
Canon LBP9100C
  4

  6

 40
0.0
 41
0.0
 42
0.0
 43
0.0
 44
0.0
 45
0.0
 46
0.0
 47
0.0
 48
0.0
 49
0.0
140
0.0
141
0.0
142
1.0
143
1.0
 70
   688
 72
     0
 73
     0
 74
     5
  7

 75
    16
147
1.0
148
0.0
149
0.0
100
AcDbLayout
  1
レイアウト1
 70
     1
 71
     1
 10
0.0
 20
0.0
 11
420.0
 21
297.0
 12
0.0
 22
0.0
 32
0.0
 14
1.000000000000000E+20
 24
1.000000000000000E+20
 34
1.000000000000000E+20
 15
-1.000000000000000E+20
 25
-1.000000000000000E+20
 35
-1.000000000000000E+20
146
0.0
 13
0.0
 23
0.0
 33
0.0
 16
1.0
 26
0.0
 36
0.0
 17
0.0
 27
1.0
 37
0.0
 76
     0
330
15
  0
MATERIAL
  5
50CE
102
{ACAD_XDICTIONARY
360
50CF
102
}
102
{ACAD_REACTORS
330
50C5
102
}
330
50C5
100
AcDbMaterial
  1
ByBlock
 72
     0
 43
0.0208333333333333
 43
0.0
 43
0.0
 43
0.0
 43
0.0
 43
0.0208333333333333
 43
0.0
 43
0.0
 43
0.0
 43
0.0
 43
1.0
 43
0.0
 43
0.0
 43
0.0
 43
0.0
 43
1.0
 77
     0
 47
0.0208333333333333
 47
0.0
 47
0.0
 47
0.0
 47
0.0
 47
0.0208333333333333
 47
0.0
 47
0.0
 47
0.0
 47
0.0
 47
1.0
 47
0.0
 47
0.0
 47
0.0
 47
0.0
 47
1.0
171
     0
 49
0.0208333333333333
 49
0.0
 49
0.0
 49
0.0
 49
0.0
 49
0.0208333333333333
 49
0.0
 49
0.0
 49
0.0
 49
0.0
 49
1.0
 49
0.0
 49
0.0
 49
0.0
 49
0.0
 49
1.0
175
     0
142
0.0208333333333333
142
0.0
142
0.0
142
0.0
142
0.0
142
0.0208333333333333
142
0.0
142
0.0
142
0.0
142
0.0
142
1.0
142
0.0
142
0.0
142
0.0
142
0.0
142
1.0
179
     0
144
0.0208333333333333
144
0.0
144
0.0
144
0.0
144
0.0
144
0.0208333333333333
144
0.0
144
0.0
144
0.0
144
0.0
144
1.0
144
0.0
144
0.0
144
0.0
144
0.0
144
1.0
147
0.0208333333333333
147
0.0
147
0.0
147
0.0
147
0.0
147
0.0208333333333333
147
0.0
147
0.0
147
0.0
147
0.0
147
1.0
147
0.0
147
0.0
147
0.0
147
0.0
147
1.0
  0
MATERIAL
  5
50C6
102
{ACAD_XDICTIONARY
360
50C7
102
}
102
{ACAD_REACTORS
330
50C5
102
}
330
50C5
100
AcDbMaterial
  1
ByLayer
 72
     0
 43
0.0208333333333333
 43
0.0
 43
0.0
 43
0.0
 43
0.0
 43
0.0208333333333333
 43
0.0
 43
0.0
 43
0.0
 43
0.0
 43
1.0
 43
0.0
 43
0.0
 43
0.0
 43
0.0
 43
1.0
 77
     0
 47
0.0208333333333333
 47
0.0
 47
0.0
 47
0.0
 47
0.0
 47
0.0208333333333333
 47
0.0
 47
0.0
 47
0.0
 47
0.0
 47
1.0
 47
0.0
 47
0.0
 47
0.0
 47
0.0
 47
1.0
171
     0
 49
0.0208333333333333
 49
0.0
 49
0.0
 49
0.0
 49
0.0
 49
0.0208333333333333
 49
0.0
 49
0.0
 49
0.0
 49
0.0
 49
1.0
 49
0.0
 49
0.0
 49
0.0
 49
0.0
 49
1.0
175
     0
142
0.0208333333333333
142
0.0
142
0.0
142
0.0
142
0.0
142
0.0208333333333333
142
0.0
142
0.0
142
0.0
142
0.0
142
1.0
142
0.0
142
0.0
142
0.0
142
0.0
142
1.0
179
     0
144
0.0208333333333333
144
0.0
144
0.0
144
0.0
144
0.0
144
0.0208333333333333
144
0.0
144
0.0
144
0.0
144
0.0
144
1.0
144
0.0
144
0.0
144
0.0
144
0.0
144
1.0
147
0.0208333333333333
147
0.0
147
0.0
147
0.0
147
0.0
147
0.0208333333333333
147
0.0
147
0.0
147
0.0
147
0.0
147
1.0
147
0.0
147
0.0
147
0.0
147
0.0
147
1.0
  0
MATERIAL
  5
50D6
102
{ACAD_XDICTIONARY
360
50D7
102
}
102
{ACAD_REACTORS
330
50C5
102
}
330
50C5
100
AcDbMaterial
  1
Global
 72
     0
 43
0.0208333333333333
 43
0.0
 43
0.0
 43
0.0
 43
0.0
 43
0.0208333333333333
 43
0.0
 43
0.0
 43
0.0
 43
0.0
 43
1.0
 43
0.0
 43
0.0
 43
0.0
 43
0.0
 43
1.0
 77
     0
 47
0.0208333333333333
 47
0.0
 47
0.0
 47
0.0
 47
0.0
 47
0.0208333333333333
 47
0.0
 47
0.0
 47
0.0
 47
0.0
 47
1.0
 47
0.0
 47
0.0
 47
0.0
 47
0.0
 47
1.0
171
     0
 49
0.0208333333333333
 49
0.0
 49
0.0
 49
0.0
 49
0.0
 49
0.0208333333333333
 49
0.0
 49
0.0
 49
0.0
 49
0.0
 49
1.0
 49
0.0
 49
0.0
 49
0.0
 49
0.0
 49
1.0
175
     0
142
0.0208333333333333
142
0.0
142
0.0
142
0.0
142
0.0
142
0.0208333333333333
142
0.0
142
0.0
142
0.0
142
0.0
142
1.0
142
0.0
142
0.0
142
0.0
142
0.0
142
1.0
179
     0
144
0.0208333333333333
144
0.0
144
0.0
144
0.0
144
0.0
144
0.0208333333333333
144
0.0
144
0.0
144
0.0
144
0.0
144
1.0
144
0.0
144
0.0
144
0.0
144
0.0
144
1.0
147
0.0208333333333333
147
0.0
147
0.0
147
0.0
147
0.0
147
0.0208333333333333
147
0.0
147
0.0
147
0.0
147
0.0
147
1.0
147
0.0
147
0.0
147
0.0
147
0.0
147
1.0
  0
MLEADERSTYLE
  5
510D
102
{ACAD_REACTORS
330
510C
102
}
330
510C
100
AcDbMLeaderStyle
170
     2
171
     1
172
     0
 90
        2
 40
0.0
 41
0.0
173
     1
 91
-1056964608
340
12
 92
       -2
290
     1
 42
0.09
291
     1
 43
0.36
  3
Standard
 44
0.18
300

342
F
174
     1
178
     6
175
     1
176
     0
 93
-1056964608
 45
0.18
292
     0
297
     0
 46
0.18
 94
-1056964608
 47
1.0
 49
1.0
140
1.0
293
     1
141
0.0
294
     1
177
     0
142
1.0
295
     0
296
     0
143
0.125
1001
ACAD_MLEADERVER
1070
     2
  0
MLINESTYLE
  5
1C
102
{ACAD_REACTORS
330
1B
102
}
330
1B
100
AcDbMlineStyle
  2
STANDARD
 70
     0
  3

 62
   256
 51
90.0
 52
90.0
 71
     2
 49
0.5
 62
   256
  6
BYLAYER
 49
-0.5
 62
   256
  6
BYLAYER
  0
ACDBPLACEHOLDER
  5
50C4
102
{ACAD_REACTORS
330
50C3
102
}
330
50C3
  0
SCALE
  5
50FB
102
{ACAD_REACTORS
330
50FA
102
}
330
50FA
100
AcDbScale
 70
     0
300
1:1
140
1.0
141
1.0
290
     1
  0
SCALE
  5
50FC
102
{ACAD_REACTORS
330
50FA
102
}
330
50FA
100
AcDbScale
 70
     0
300
1/128" = 1'-0"
140
0.0078125
141
12.0
290
     0
  0
SCALE
  5
50FD
102
{ACAD_REACTORS
330
50FA
102
}
330
50FA
100
AcDbScale
 70
     0
300
1/64" = 1'-0"
140
0.015625
141
12.0
290
     0
  0
SCALE
  5
50FE
102
{ACAD_REACTORS
330
50FA
102
}
330
50FA
100
AcDbScale
 70
     0
300
1/32" = 1'-0"
140
0.03125
141
12.0
290
     0
  0
SCALE
  5
50FF
102
{ACAD_REACTORS
330
50FA
102
}
330
50FA
100
AcDbScale
 70
     0
300
1/16" = 1'-0"
140
0.0625
141
12.0
290
     0
  0
SCALE
  5
5100
102
{ACAD_REACTORS
330
50FA
102
}
330
50FA
100
AcDbScale
 70
     0
300
3/32" = 1'-0"
140
0.09375
141
12.0
290
     0
  0
SCALE
  5
5101
102
{ACAD_REACTORS
330
50FA
102
}
330
50FA
100
AcDbScale
 70
     0
300
1/8" = 1'-0"
140
0.125
141
12.0
290
     0
  0
SCALE
  5
5102
102
{ACAD_REACTORS
330
50FA
102
}
330
50FA
100
AcDbScale
 70
     0
300
3/16" = 1'-0"
140
0.1875
141
12.0
290
     0
  0
SCALE
  5
5103
102
{ACAD_REACTORS
330
50FA
102
}
330
50FA
100
AcDbScale
 70
     0
300
1/4" = 1'-0"
140
0.25
141
12.0
290
     0
  0
SCALE
  5
5104
102
{ACAD_REACTORS
330
50FA
102
}
330
50FA
100
AcDbScale
 70
     0
300
3/8" = 1'-0"
140
0.375
141
12.0
290
     0
  0
SCALE
  5
5105
102
{ACAD_REACTORS
330
50FA
102
}
330
50FA
100
AcDbScale
 70
     0
300
1/2" = 1'-0"
140
0.5
141
12.0
290
     0
  0
SCALE
  5
5106
102
{ACAD_REACTORS
330
50FA
102
}
330
50FA
100
AcDbScale
 70
     0
300
3/4" = 1'-0"
140
0.75
141
12.0
290
     0
  0
SCALE
  5
5107
102
{ACAD_REACTORS
330
50FA
102
}
330
50FA
100
AcDbScale
 70
     0
300
1" = 1'-0"
140
1.0
141
12.0
290
     0
  0
SCALE
  5
5108
102
{ACAD_REACTORS
330
50FA
102
}
330
50FA
100
AcDbScale
 70
     0
300
1-1/2" = 1'-0"
140
1.5
141
12.0
290
     0
  0
SCALE
  5
5109
102
{ACAD_REACTORS
330
50FA
102
}
330
50FA
100
AcDbScale
 70
     0
300
3" = 1'-0"
140
3.0
141
12.0
290
     0
  0
SCALE
  5
510A
102
{ACAD_REACTORS
330
50FA
102
}
330
50FA
100
AcDbScale
 70
     0
300
6" = 1'-0"
140
6.0
141
12.0
290
     0
  0
SCALE
  5
510B
102
{ACAD_REACTORS
330
50FA
102
}
330
50FA
100
AcDbScale
 70
     0
300
1'-0" = 1'-0"
140
12.0
141
12.0
290
     0
  0
ACDBSECTIONVIEWSTYLE
  5
510F
102
{ACAD_XDICTIONARY
360
5169
102
}
102
{ACAD_REACTORS
330
510E
102
}
330
510E
100
AcDbModelDocViewStyle
 70
     0
  3
Imperial24
290
     0
100
AcDbSectionViewStyle
 70
     0
 71
     0
 90
       78
 71
     1
340
F
 40
0.24
340
0
340
0
 40
0.24
300
I, O, Q, S, X, Z
 40
0.48
 90
        3
 40
0.18
 90
        1
 71
     2
340
14
 90
       25
340
14
 90
       50
 40
0.24
 40
0.0
 40
0.24
 71
     3
340
F
 40
0.24
 90
        1
 40
0.75
 90
        1
300
%<\AcVar ViewType \f "%tc1">% %<\AcVar ViewSectionStartId>%-%<\AcVar ViewSectionEndId>%\PSCALE %<\AcVar ViewScale \f "%sn">%
 71
     4
300
ANSI31
 40
1.0
 90
        0
290
     0
290
     0
 90
        6
 40
0.0
 40
1.570796326794896
 40
0.2617993877991494
 40
1.308996938995747
 40
-0.2617993877991494
 40
1.832595714594046
  0
TABLESTYLE
  5
50F9
102
{ACAD_XDICTIONARY
360
5130
102
}
102
{ACAD_REACTORS
330
50F8
102
}
330
50F8
100
AcDbTableStyle
  3
Standard
 70
     0
 71
     0
 40
0.06
 41
0.06
280
     0
281
     0
  7
STANDARD
140
0.18
170
     2
 62
     0
 63
     7
283
     0
274
    -2
284
     1
 64
     0
275
    -2
285
     1
 65
     0
276
    -2
286
     1
 66
     0
277
    -2
287
     1
 67
     0
278
    -2
288
     1
 68
     0
279
    -2
289
     1
 69
     0
  7
STANDARD
140
0.25
170
     5
 62
     0
 63
     7
283
     0
274
    -2
284
     1
 64
     0
275
    -2
285
     1
 65
     0
276
    -2
286
     1
 66
     0
277
    -2
287
     1
 67
     0
278
    -2
288
     1
 68
     0
279
    -2
289
     1
 69
     0
  7
STANDARD
140
0.18
170
     5
 62
     0
 63
     7
283
     0
274
    -2
284
     1
 64
     0
275
    -2
285
     1
 65
     0
276
    -2
286
     1
 66
     0
277
    -2
287
     1
 67
     0
278
    -2
288
     1
 68
     0
279
    -2
289
     1
 69
     0
  0
VISUALSTYLE
  5
50E4
102
{ACAD_XDICTIONARY
360
5141
102
}
102
{ACAD_REACTORS
330
50DE
102
}
330
50DE
100
AcDbVisualStyle
  2
2dWireframe
 70
     4
 71
     0
 72
     2
 73
     0
 90
        0
 40
-0.6
 41
-30.0
 62
     5
 63
     7
 74
     1
 91
        4
 64
     7
 65
   257
 75
     1
175
     1
 42
1.0
 92
        0
 66
   257
 43
1.0
 76
     1
 77
     6
 78
     2
 67
     7
 79
     5
170
     0
171
     0
290
     0
174
     0
 93
        1
 44
0.0
173
     0
291
     0
 45
0.0
1001
ACAD
1000
AcDbSavedByObjectVersion
1070
     0
  0
VISUALSTYLE
  5
50E3
102
{ACAD_XDICTIONARY
360
513F
102
}
102
{ACAD_REACTORS
330
50DE
102
}
330
50DE
100
AcDbVisualStyle
  2
Basic
 70
     7
 71
     1
 72
     0
 73
     1
 90
        0
 40
-0.6
 41
-30.0
 62
     5
 63
     7
 74
     0
 91
        4
 64
     7
 65
   257
 75
     1
175
     1
 42
1.0
 92
        8
 66
     7
 43
1.0
 76
     1
 77
     6
 78
     2
 67
     7
 79
     5
170
     0
171
     0
290
     0
174
     0
 93
        1
 44
0.0
173
     0
291
     1
 45
0.0
1001
ACAD
1000
AcDbSavedByObjectVersion
1070
     0
  0
VISUALSTYLE
  5
50EA
102
{ACAD_XDICTIONARY
360
514D
102
}
102
{ACAD_REACTORS
330
50DE
102
}
330
50DE
100
AcDbVisualStyle
  2
Brighten
 70
    12
 71
     2
 72
     2
 73
     0
 90
        0
 40
-0.6
 41
-30.0
 62
     5
 63
     7
 74
     1
 91
        4
 64
     7
 65
   257
 75
     1
175
     1
 42
1.0
 92
        8
 66
     7
 43
1.0
 76
     1
 77
     6
 78
     2
 67
     7
 79
     5
170
     0
171
     0
290
     0
174
     0
 93
        1
 44
50.0
173
     0
291
     1
 45
0.0
1001
ACAD
1000
AcDbSavedByObjectVersion
1070
     0
  0
VISUALSTYLE
  5
50EE
102
{ACAD_XDICTIONARY
360
5155
102
}
102
{ACAD_REACTORS
330
50DE
102
}
330
50DE
100
AcDbVisualStyle
  2
ColorChange
 70
    16
 71
     2
 72
     2
 73
     3
 90
        0
 40
-0.6
 41
-30.0
 62
     5
 63
     8
 74
     1
 91
        4
 64
     7
 65
   257
 75
     1
175
     1
 42
1.0
 92
        8
 66
     8
 43
1.0
 76
     1
 77
     6
 78
     2
 67
     7
 79
     5
170
     0
171
     0
290
     0
174
     0
 93
        1
 44
0.0
173
     0
291
     1
 45
0.0
1001
ACAD
1000
AcDbSavedByObjectVersion
1070
     0
  0
VISUALSTYLE
  5
50E7
102
{ACAD_XDICTIONARY
360
5147
102
}
102
{ACAD_REACTORS
330
50DE
102
}
330
50DE
100
AcDbVisualStyle
  2
Conceptual
 70
     9
 71
     3
 72
     2
 73
     0
 90
        0
 40
-0.6
 41
-30.0
 62
     5
 63
     7
 74
     2
 91
        2
 64
     7
 65
   257
 75
     1
175
     1
 42
179.0
 92
        8
 66
     7
 43
1.0
 76
     1
 77
     6
 78
     2
 67
     7
 79
     3
170
     0
171
     0
290
     0
174
     0
 93
        1
 44
0.0
173
     0
291
     0
 45
0.0
1001
ACAD
1000
AcDbSavedByObjectVersion
1070
     0
  0
VISUALSTYLE
  5
50E9
102
{ACAD_XDICTIONARY
360
514B
102
}
102
{ACAD_REACTORS
330
50DE
102
}
330
50DE
100
AcDbVisualStyle
  2
Dim
 70
    11
 71
     2
 72
     2
 73
     0
 90
        0
 40
-0.6
 41
-30.0
 62
     5
 63
     7
 74
     1
 91
        4
 64
     7
 65
   257
 75
     1
175
     1
 42
1.0
 92
        8
 66
     7
 43
1.0
 76
     1
 77
     6
 78
     2
 67
     7
 79
     5
170
     0
171
     0
290
     0
174
     0
 93
        1
 44
-50.0
173
     0
291
     1
 45
0.0
1001
ACAD
1000
AcDbSavedByObjectVersion
1070
     0
  0
VISUALSTYLE
  5
50F6
102
{ACAD_XDICTIONARY
360
5165
102
}
102
{ACAD_REACTORS
330
50DE
102
}
330
50DE
100
AcDbVisualStyle
  2
EdgeColorOff
 70
    22
 71
     2
 72
     2
 73
     0
 90
        0
 40
-0.6
 41
-30.0
 62
     5
 63
     7
 74
     1
 91
        4
 64
     7
 65
   257
 75
     1
175
     1
 42
1.0
 92
        8
 66
     7
 43
1.0
 76
     1
 77
     6
 78
     2
 67
     7
 79
     5
170
     0
171
     0
290
     0
174
     0
 93
        1
 44
0.0
173
     0
291
     1
 45
0.0
1001
ACAD
1000
AcDbSavedByObjectVersion
1070
     0
  0
VISUALSTYLE
  5
50ED
102
{ACAD_XDICTIONARY
360
5153
102
}
102
{ACAD_REACTORS
330
50DE
102
}
330
50DE
100
AcDbVisualStyle
  2
Facepattern
 70
    15
 71
     2
 72
     2
 73
     0
 90
        0
 40
-0.6
 41
-30.0
 62
     5
 63
     7
 74
     1
 91
        4
 64
     7
 65
   257
 75
     1
175
     1
 42
1.0
 92
        8
 66
     7
 43
1.0
 76
     1
 77
     6
 78
     2
 67
     7
 79
     5
170
     0
171
     0
290
     0
174
     0
 93
        1
 44
0.0
173
     0
291
     1
 45
0.0
1001
ACAD
1000
AcDbSavedByObjectVersion
1070
     0
  0
VISUALSTYLE
  5
50DF
102
{ACAD_XDICTIONARY
360
5137
102
}
102
{ACAD_REACTORS
330
50DE
102
}
330
50DE
100
AcDbVisualStyle
  2
Flat
 70
     0
 71
     2
 72
     1
 73
     1
 90
        2
 40
-0.6
 41
30.0
 62
     5
 63
     7
 74
     0
 91
        0
 64
     7
 65
   257
 75
     1
175
     1
 42
1.0
 92
        8
 66
     7
 43
1.0
 76
     1
 77
     6
 78
     2
 67
     7
 79
     5
170
     0
171
     0
290
     0
174
     0
 93
       13
 44
0.0
173
     0
291
     1
 45
0.0
1001
ACAD
1000
AcDbSavedByObjectVersion
1070
     0
  0
VISUALSTYLE
  5
50E0
102
{ACAD_XDICTIONARY
360
5139
102
}
102
{ACAD_REACTORS
330
50DE
102
}
330
50DE
100
AcDbVisualStyle
  2
FlatWithEdges
 70
     1
 71
     2
 72
     1
 73
     1
 90
        2
 40
-0.6
 41
30.0
 62
     5
 63
     7
 74
     1
 91
        0
 64
     7
 65
   257
 75
     1
175
     1
 42
1.0
 92
        0
 66
   257
 43
1.0
 76
     1
 77
     6
 78
     2
 67
     7
 79
     5
170
     0
171
     0
290
     0
174
     0
 93
       13
 44
0.0
173
     0
291
     1
 45
0.0
1001
ACAD
1000
AcDbSavedByObjectVersion
1070
     0
  0
VISUALSTYLE
  5
50E1
102
{ACAD_XDICTIONARY
360
513B
102
}
102
{ACAD_REACTORS
330
50DE
102
}
330
50DE
100
AcDbVisualStyle
  2
Gouraud
 70
     2
 71
     2
 72
     2
 73
     1
 90
        2
 40
-0.6
 41
30.0
 62
     5
 63
     7
 74
     0
 91
        0
 64
     7
 65
   257
 75
     1
175
     1
 42
1.0
 92
        0
 66
     7
 43
1.0
 76
     1
 77
     6
 78
     2
 67
     7
 79
     5
170
     0
171
     0
290
     0
174
     0
 93
       13
 44
0.0
173
     0
291
     1
 45
0.0
1001
ACAD
1000
AcDbSavedByObjectVersion
1070
     0
  0
VISUALSTYLE
  5
50E2
102
{ACAD_XDICTIONARY
360
513D
102
}
102
{ACAD_REACTORS
330
50DE
102
}
330
50DE
100
AcDbVisualStyle
  2
GouraudWithEdges
 70
     3
 71
     2
 72
     2
 73
     1
 90
        2
 40
-0.6
 41
30.0
 62
     5
 63
     7
 74
     1
 91
        0
 64
     7
 65
   257
 75
     1
175
     1
 42
1.0
 92
        0
 66
   257
 43
1.0
 76
     1
 77
     6
 78
     2
 67
     7
 79
     5
170
     0
171
     0
290
     0
174
     0
 93
       13
 44
0.0
173
     0
291
     1
 45
0.0
1001
ACAD
1000
AcDbSavedByObjectVersion
1070
     0
  0
VISUALSTYLE
  5
50E6
102
{ACAD_XDICTIONARY
360
5145
102
}
102
{ACAD_REACTORS
330
50DE
102
}
330
50DE
100
AcDbVisualStyle
  2
Hidden
 70
     6
 71
     1
 72
     2
 73
     2
 90
        0
 40
-0.6
 41
-30.0
 62
     5
 63
     7
 74
     2
 91
        2
 64
     7
 65
   257
 75
     2
175
     1
 42
40.0
 92
        0
 66
   257
 43
1.0
 76
     1
 77
     6
 78
     2
 67
     7
 79
     3
170
     0
171
     0
290
     0
174
     0
 93
        1
 44
0.0
173
     0
291
     0
 45
0.0
1001
ACAD
1000
AcDbSavedByObjectVersion
1070
     0
  0
VISUALSTYLE
  5
50F4
102
{ACAD_XDICTIONARY
360
5161
102
}
102
{ACAD_REACTORS
330
50DE
102
}
330
50DE
100
AcDbVisualStyle
  2
JitterOff
 70
    20
 71
     2
 72
     2
 73
     0
 90
        0
 40
-0.6
 41
-30.0
 62
     5
 63
     7
 74
     1
 91
        4
 64
     7
 65
   257
 75
     1
175
     1
 42
1.0
 92
       10
 66
     7
 43
1.0
 76
     1
 77
     6
 78
     2
 67
     7
 79
     5
170
     0
171
     0
290
     0
174
     0
 93
        1
 44
0.0
173
     0
291
     1
 45
0.0
1001
ACAD
1000
AcDbSavedByObjectVersion
1070
     0
  0
VISUALSTYLE
  5
50EC
102
{ACAD_XDICTIONARY
360
5151
102
}
102
{ACAD_REACTORS
330
50DE
102
}
330
50DE
100
AcDbVisualStyle
  2
Linepattern
 70
    14
 71
     2
 72
     2
 73
     0
 90
        0
 40
-0.6
 41
-30.0
 62
     5
 63
     7
 74
     1
 91
        4
 64
     7
 65
   257
 75
     7
175
     7
 42
1.0
 92
        8
 66
     7
 43
1.0
 76
     1
 77
     6
 78
     2
 67
     7
 79
     5
170
     0
171
     0
290
     0
174
     0
 93
        1
 44
0.0
173
     0
291
     1
 45
0.0
1001
ACAD
1000
AcDbSavedByObjectVersion
1070
     0
  0
VISUALSTYLE
  5
50F5
102
{ACAD_XDICTIONARY
360
5163
102
}
102
{ACAD_REACTORS
330
50DE
102
}
330
50DE
100
AcDbVisualStyle
  2
OverhangOff
 70
    21
 71
     2
 72
     2
 73
     0
 90
        0
 40
-0.6
 41
-30.0
 62
     5
 63
     7
 74
     1
 91
        4
 64
     7
 65
   257
 75
     1
175
     1
 42
1.0
 92
        9
 66
     7
 43
1.0
 76
     1
 77
     6
 78
     2
 67
     7
 79
     5
170
     0
171
     0
290
     0
174
     0
 93
        1
 44
0.0
173
     0
291
     1
 45
0.0
1001
ACAD
1000
AcDbSavedByObjectVersion
1070
     0
  0
VISUALSTYLE
  5
50E8
102
{ACAD_XDICTIONARY
360
5149
102
}
102
{ACAD_REACTORS
330
50DE
102
}
330
50DE
100
AcDbVisualStyle
  2
Realistic
 70
     8
 71
     2
 72
     3
 73
     0
 90
        2
 40
-0.6
 41
30.0
 62
     5
 63
     7
 74
     0
 91
        0
 64
     7
 65
   257
 75
     1
175
     1
 42
1.0
 92
        8
 66
   257
 43
1.0
 76
     1
 77
     6
 78
     2
 67
     7
 79
     3
170
     0
171
     0
290
     0
174
     0
 93
       13
 44
0.0
173
     0
291
     0
 45
0.0
1001
ACAD
1000
AcDbSavedByObjectVersion
1070
     0
  0
VISUALSTYLE
  5
50F3
102
{ACAD_XDICTIONARY
360
515F
102
}
102
{ACAD_REACTORS
330
50DE
102
}
330
50DE
100
AcDbVisualStyle
  2
Shaded
 70
    27
 71
     2
 72
     2
 73
     1
 90
        2
 40
-0.6
 41
30.0
 62
     5
 63
     7
 74
     0
 91
        4
 64
     7
 65
   257
 75
     1
175
     1
 42
1.0
 92
        8
 66
   257
 43
1.0
 76
     1
 77
     6
 78
     2
 67
     8
 79
     3
170
     0
171
     0
290
     0
174
     0
 93
        5
 44
0.0
173
     0
291
     0
 45
0.0
1001
ACAD
1000
AcDbSavedByObjectVersion
1070
     0
  0
VISUALSTYLE
  5
50F2
102
{ACAD_XDICTIONARY
360
515D
102
}
102
{ACAD_REACTORS
330
50DE
102
}
330
50DE
100
AcDbVisualStyle
  2
Shaded with edges
 70
    26
 71
     2
 72
     2
 73
     1
 90
        2
 40
-0.6
 41
30.0
 62
     5
 63
     7
 74
     1
 91
       10
 64
     7
 65
   257
 75
     2
175
     1
 42
1.0
 92
        8
 66
   257
 43
1.0
 76
     1
 77
     6
 78
     2
 67
     7
 79
     3
170
     0
171
     0
290
     0
174
     0
 93
        5
 44
0.0
173
     0
291
     0
 45
0.0
1001
ACAD
1000
AcDbSavedByObjectVersion
1070
     0
  0
VISUALSTYLE
  5
50EF
102
{ACAD_XDICTIONARY
360
5157
102
}
102
{ACAD_REACTORS
330
50DE
102
}
330
50DE
100
AcDbVisualStyle
  2
Shades of Gray
 70
    23
 71
     2
 72
     2
 73
     3
 90
        0
 40
-0.6
 41
-30.0
 62
     5
 63
     7
 74
     2
 91
        2
 64
     7
 65
     7
 75
     1
175
     1
 42
40.0
 92
        8
 66
     7
 43
1.0
 76
     1
 77
     6
 78
     2
 67
     7
 79
     3
170
     0
171
     0
290
     0
174
     0
 93
        1
 44
0.0
173
     0
291
     0
 45
0.0
1001
ACAD
1000
AcDbSavedByObjectVersion
1070
     0
  0
VISUALSTYLE
  5
50F0
102
{ACAD_XDICTIONARY
360
5159
102
}
102
{ACAD_REACTORS
330
50DE
102
}
330
50DE
100
AcDbVisualStyle
  2
Sketchy
 70
    24
 71
     1
 72
     2
 73
     2
 90
        0
 40
-0.6
 41
-30.0
 62
     5
 63
     7
 74
     2
 91
        2
 64
     7
 65
     7
 75
     1
175
     1
 42
40.0
 92
       11
 66
     7
 43
1.0
 76
     1
 77
     6
 78
     2
 67
     7
 79
     6
170
     0
171
     0
290
     0
174
     0
 93
        1
 44
0.0
173
     0
291
     0
 45
0.0
1001
ACAD
1000
AcDbSavedByObjectVersion
1070
     0
  0
VISUALSTYLE
  5
50EB
102
{ACAD_XDICTIONARY
360
514F
102
}
102
{ACAD_REACTORS
330
50DE
102
}
330
50DE
100
AcDbVisualStyle
  2
Thicken
 70
    13
 71
     2
 72
     2
 73
     0
 90
        0
 40
-0.6
 41
-30.0
 62
     5
 63
     7
 74
     1
 91
        4
 64
     7
 65
   257
 75
     1
175
     1
 42
1.0
 92
       12
 66
     7
 43
1.0
 76
     1
 77
     6
 78
     2
 67
     7
 79
     5
170
     0
171
     0
290
     0
174
     0
 93
        1
 44
0.0
173
     0
291
     1
 45
0.0
1001
ACAD
1000
AcDbSavedByObjectVersion
1070
     0
  0
VISUALSTYLE
  5
50E5
102
{ACAD_XDICTIONARY
360
5143
102
}
102
{ACAD_REACTORS
330
50DE
102
}
330
50DE
100
AcDbVisualStyle
  2
Wireframe
 70
     5
 71
     0
 72
     2
 73
     0
 90
        0
 40
-0.6
 41
-30.0
 62
     5
 63
     7
 74
     1
 91
        4
 64
     7
 65
   257
 75
     1
175
     1
 42
1.0
 92
        0
 66
   257
 43
1.0
 76
     1
 77
     6
 78
     2
 67
     7
 79
     3
170
     0
171
     0
290
     0
174
     0
 93
        1
 44
0.0
173
     0
291
     0
 45
0.0
1001
ACAD
1000
AcDbSavedByObjectVersion
1070
     0
  0
VISUALSTYLE
  5
50F1
102
{ACAD_XDICTIONARY
360
515B
102
}
102
{ACAD_REACTORS
330
50DE
102
}
330
50DE
100
AcDbVisualStyle
  2
X-Ray
 70
    25
 71
     2
 72
     2
 73
     1
 90
        1
 40
0.5
 41
-30.0
 62
     5
 63
     7
 74
     1
 91
        0
 64
     7
 65
   257
 75
     1
175
     1
 42
1.0
 92
        8
 66
     7
 43
1.0
 76
     1
 77
     6
 78
     2
 67
     7
 79
     3
170
     0
171
     0
290
     0
174
     0
 93
       13
 44
0.0
173
     0
291
     0
 45
0.0
1001
ACAD
1000
AcDbSavedByObjectVersion
1070
     0
  0
DICTIONARYVAR
  5
512A
102
{ACAD_REACTORS
330
5125
102
}
330
5125
100
DictionaryVariables
280
     0
  1
1:1
  0
DICTIONARYVAR
  5
5127
102
{ACAD_REACTORS
330
5125
102
}
330
5125
100
DictionaryVariables
280
     0
  1
STANDARD
  0
DICTIONARYVAR
  5
5126
102
{ACAD_REACTORS
330
5125
102
}
330
5125
100
DictionaryVariables
280
     0
  1
STANDARD
  0
DICTIONARYVAR
  5
5128
102
{ACAD_REACTORS
330
5125
102
}
330
5125
100
DictionaryVariables
280
     0
  1
Imperial24
  0
DICTIONARYVAR
  5
5129
102
{ACAD_REACTORS
330
5125
102
}
330
5125
100
DictionaryVariables
280
     0
  1
Imperial24
  0
DICTIONARYVAR
  5
512D
102
{ACAD_REACTORS
330
5125
102
}
330
5125
100
DictionaryVariables
280
     0
  1
1
  0
DICTIONARYVAR
  5
512C
102
{ACAD_REACTORS
330
5125
102
}
330
5125
100
DictionaryVariables
280
     0
  1
0
  0
DICTIONARYVAR
  5
512B
102
{ACAD_REACTORS
330
5125
102
}
330
5125
100
DictionaryVariables
280
     0
  1
127
  0
DICTIONARYVAR
  5
512E
102
{ACAD_REACTORS
330
5125
102
}
330
5125
100
DictionaryVariables
280
     0
  1
2
  0
DICTIONARY
  5
516B
330
5111
100
AcDbDictionary
280
     1
281
     1
  3
ACAD_XREC_ROUNDTRIP
360
516C
  0
DICTIONARY
  5
516D
330
5112
100
AcDbDictionary
280
     1
281
     1
  3
ACAD_XREC_ROUNDTRIP
360
516E
  0
DICTIONARY
  5
516F
330
5113
100
AcDbDictionary
280
     1
281
     1
  3
ACAD_XREC_ROUNDTRIP
360
5170
  0
DICTIONARY
  5
50CF
330
50CE
100
AcDbDictionary
280
     1
281
     1
  3
ACAD_XREC_ROUNDTRIP
360
5135
  3
BUMPTILE
360
50D1
  3
DIFFUSETILE
360
50D0
  3
OPACITYTILE
360
50D4
  3
REFLECTIONTILE
360
50D3
  3
REFRACTIONTILE
360
50D5
  3
SPECULARTILE
360
50D2
  0
DICTIONARY
  5
50C7
330
50C6
100
AcDbDictionary
280
     1
281
     1
  3
ACAD_XREC_ROUNDTRIP
360
5134
  3
BUMPTILE
360
50C9
  3
DIFFUSETILE
360
50C8
  3
OPACITYTILE
360
50CC
  3
REFLECTIONTILE
360
50CB
  3
REFRACTIONTILE
360
50CD
  3
SPECULARTILE
360
50CA
  0
DICTIONARY
  5
50D7
330
50D6
100
AcDbDictionary
280
     1
281
     1
  3
ACAD_XREC_ROUNDTRIP
360
5136
  3
BUMPTILE
360
50D9
  3
DIFFUSETILE
360
50D8
  3
OPACITYTILE
360
50DC
  3
REFLECTIONTILE
360
50DB
  3
REFRACTIONTILE
360
50DD
  3
SPECULARTILE
360
50DA
  0
DICTIONARY
  5
5169
330
510F
100
AcDbDictionary
280
     1
281
     1
  3
ACAD_XREC_ROUNDTRIP
360
516A
  0
DICTIONARY
  5
5130
330
50F9
100
AcDbDictionary
280
     1
281
     1
  3
ACAD_ROUNDTRIP_2008_TABLESTYLE_CELLSTYLEMAP
360
5131
  3
ACAD_XREC_ROUNDTRIP
360
5167
  0
DICTIONARY
  5
5141
330
50E4
100
AcDbDictionary
280
     1
281
     1
  3
ACAD_XREC_ROUNDTRIP
360
5142
  0
DICTIONARY
  5
513F
330
50E3
100
AcDbDictionary
280
     1
281
     1
  3
ACAD_XREC_ROUNDTRIP
360
5140
  0
DICTIONARY
  5
514D
330
50EA
100
AcDbDictionary
280
     1
281
     1
  3
ACAD_XREC_ROUNDTRIP
360
514E
  0
DICTIONARY
  5
5155
330
50EE
100
AcDbDictionary
280
     1
281
     1
  3
ACAD_XREC_ROUNDTRIP
360
5156
  0
DICTIONARY
  5
5147
330
50E7
100
AcDbDictionary
280
     1
281
     1
  3
ACAD_XREC_ROUNDTRIP
360
5148
  0
DICTIONARY
  5
514B
330
50E9
100
AcDbDictionary
280
     1
281
     1
  3
ACAD_XREC_ROUNDTRIP
360
514C
  0
DICTIONARY
  5
5165
330
50F6
100
AcDbDictionary
280
     1
281
     1
  3
ACAD_XREC_ROUNDTRIP
360
5166
  0
DICTIONARY
  5
5153
330
50ED
100
AcDbDictionary
280
     1
281
     1
  3
ACAD_XREC_ROUNDTRIP
360
5154
  0
DICTIONARY
  5
5137
330
50DF
100
AcDbDictionary
280
     1
281
     1
  3
ACAD_XREC_ROUNDTRIP
360
5138
  0
DICTIONARY
  5
5139
330
50E0
100
AcDbDictionary
280
     1
281
     1
  3
ACAD_XREC_ROUNDTRIP
360
513A
  0
DICTIONARY
  5
513B
330
50E1
100
AcDbDictionary
280
     1
281
     1
  3
ACAD_XREC_ROUNDTRIP
360
513C
  0
DICTIONARY
  5
513D
330
50E2
100
AcDbDictionary
280
     1
281
     1
  3
ACAD_XREC_ROUNDTRIP
360
513E
  0
DICTIONARY
  5
5145
330
50E6
100
AcDbDictionary
280
     1
281
     1
  3
ACAD_XREC_ROUNDTRIP
360
5146
  0
DICTIONARY
  5
5161
330
50F4
100
AcDbDictionary
280
     1
281
     1
  3
ACAD_XREC_ROUNDTRIP
360
5162
  0
DICTIONARY
  5
5151
330
50EC
100
AcDbDictionary
280
     1
281
     1
  3
ACAD_XREC_ROUNDTRIP
360
5152
  0
DICTIONARY
  5
5163
330
50F5
100
AcDbDictionary
280
     1
281
     1
  3
ACAD_XREC_ROUNDTRIP
360
5164
  0
DICTIONARY
  5
5149
330
50E8
100
AcDbDictionary
280
     1
281
     1
  3
ACAD_XREC_ROUNDTRIP
360
514A
  0
DICTIONARY
  5
515F
330
50F3
100
AcDbDictionary
280
     1
281
     1
  3
ACAD_XREC_ROUNDTRIP
360
5160
  0
DICTIONARY
  5
515D
330
50F2
100
AcDbDictionary
280
     1
281
     1
  3
ACAD_XREC_ROUNDTRIP
360
515E
  0
DICTIONARY
  5
5157
330
50EF
100
AcDbDictionary
280
     1
281
     1
  3
ACAD_XREC_ROUNDTRIP
360
5158
  0
DICTIONARY
  5
5159
330
50F0
100
AcDbDictionary
280
     1
281
     1
  3
ACAD_XREC_ROUNDTRIP
360
515A
  0
DICTIONARY
  5
514F
330
50EB
100
AcDbDictionary
280
     1
281
     1
  3
ACAD_XREC_ROUNDTRIP
360
5150
  0
DICTIONARY
  5
5143
330
50E5
100
AcDbDictionary
280
     1
281
     1
  3
ACAD_XREC_ROUNDTRIP
360
5144
  0
DICTIONARY
  5
515B
330
50F1
100
AcDbDictionary
280
     1
281
     1
  3
ACAD_XREC_ROUNDTRIP
360
515C
  0
XRECORD
  5
516C
102
{ACAD_REACTORS
330
516B
102
}
330
516B
100
AcDbXrecord
280
     1
102
DISPLAYNAME
  1
Imperial24
102
FLAGS
 90
        0
  0
XRECORD
  5
516E
102
{ACAD_REACTORS
330
516D
102
}
330
516D
100
AcDbXrecord
280
     1
102
SHADEPLOT
 70
     0
102
SHADEPLOTRESLEVEL
 70
     2
102
SHADEPLOTCUSTOMDPI
 70
   300
  0
XRECORD
  5
5170
102
{ACAD_REACTORS
330
516F
102
}
330
516F
100
AcDbXrecord
280
     1
102
SHADEPLOT
 70
     0
102
SHADEPLOTRESLEVEL
 70
     2
102
SHADEPLOTCUSTOMDPI
 70
   300
  0
XRECORD
  5
5135
102
{ACAD_REACTORS
330
50CF
102
}
330
50CF
100
AcDbXrecord
280
     1
102
MATERIAL
148
0.0
149
0.0
149
0.0
 93
        0
 94
      127
282
     0
 72
     0
 77
     0
171
     0
175
     0
179
     0
273
     0
  0
XRECORD
  5
50D1
102
{ACAD_REACTORS
330
50CF
102
}
330
50CF
100
AcDbXrecord
280
     1
270
     1
271
     1
  0
XRECORD
  5
50D0
102
{ACAD_REACTORS
330
50CF
102
}
330
50CF
100
AcDbXrecord
280
     1
270
     1
271
     1
  0
XRECORD
  5
50D4
102
{ACAD_REACTORS
330
50CF
102
}
330
50CF
100
AcDbXrecord
280
     1
270
     1
271
     1
  0
XRECORD
  5
50D3
102
{ACAD_REACTORS
330
50CF
102
}
330
50CF
100
AcDbXrecord
280
     1
270
     1
271
     1
  0
XRECORD
  5
50D5
102
{ACAD_REACTORS
330
50CF
102
}
330
50CF
100
AcDbXrecord
280
     1
270
     1
271
     1
  0
XRECORD
  5
50D2
102
{ACAD_REACTORS
330
50CF
102
}
330
50CF
100
AcDbXrecord
280
     1
270
     1
271
     1
  0
XRECORD
  5
5134
102
{ACAD_REACTORS
330
50C7
102
}
330
50C7
100
AcDbXrecord
280
     1
102
MATERIAL
148
0.0
149
0.0
149
0.0
 93
        0
 94
      127
282
     0
 72
     0
 77
     0
171
     0
175
     0
179
     0
273
     0
  0
XRECORD
  5
50C9
102
{ACAD_REACTORS
330
50C7
102
}
330
50C7
100
AcDbXrecord
280
     1
270
     1
271
     1
  0
XRECORD
  5
50C8
102
{ACAD_REACTORS
330
50C7
102
}
330
50C7
100
AcDbXrecord
280
     1
270
     1
271
     1
  0
XRECORD
  5
50CC
102
{ACAD_REACTORS
330
50C7
102
}
330
50C7
100
AcDbXrecord
280
     1
270
     1
271
     1
  0
XRECORD
  5
50CB
102
{ACAD_REACTORS
330
50C7
102
}
330
50C7
100
AcDbXrecord
280
     1
270
     1
271
     1
  0
XRECORD
  5
50CD
102
{ACAD_REACTORS
330
50C7
102
}
330
50C7
100
AcDbXrecord
280
     1
270
     1
271
     1
  0
XRECORD
  5
50CA
102
{ACAD_REACTORS
330
50C7
102
}
330
50C7
100
AcDbXrecord
280
     1
270
     1
271
     1
  0
XRECORD
  5
5136
102
{ACAD_REACTORS
330
50D7
102
}
330
50D7
100
AcDbXrecord
280
     1
102
MATERIAL
148
0.0
149
0.0
149
0.0
 93
        0
 94
      127
282
     0
 72
     0
 77
     0
171
     0
175
     0
179
     0
273
     0
  0
XRECORD
  5
50D9
102
{ACAD_REACTORS
330
50D7
102
}
330
50D7
100
AcDbXrecord
280
     1
270
     1
271
     1
  0
XRECORD
  5
50D8
102
{ACAD_REACTORS
330
50D7
102
}
330
50D7
100
AcDbXrecord
280
     1
270
     1
271
     1
  0
XRECORD
  5
50DC
102
{ACAD_REACTORS
330
50D7
102
}
330
50D7
100
AcDbXrecord
280
     1
270
     1
271
     1
  0
XRECORD
  5
50DB
102
{ACAD_REACTORS
330
50D7
102
}
330
50D7
100
AcDbXrecord
280
     1
270
     1
271
     1
  0
XRECORD
  5
50DD
102
{ACAD_REACTORS
330
50D7
102
}
330
50D7
100
AcDbXrecord
280
     1
270
     1
271
     1
  0
XRECORD
  5
50DA
102
{ACAD_REACTORS
330
50D7
102
}
330
50D7
100
AcDbXrecord
280
     1
270
     1
271
     1
  0
XRECORD
  5
516A
102
{ACAD_REACTORS
330
5169
102
}
330
5169
100
AcDbXrecord
280
     1
102
DISPLAYNAME
  1
Imperial24
102
FLAGS
 90
        0
  0
CELLSTYLEMAP
  5
5131
102
{ACAD_REACTORS
330
5130
102
}
330
5130
100
AcDbCellStyleMap
 90
        3
300
CELLSTYLE
  1
TABLEFORMAT_BEGIN
 90
        5
170
     1
 91
        0
 92
    32768
 62
   257
 93
        1
300
CONTENTFORMAT
  1
CONTENTFORMAT_BEGIN
 90
        0
 91
        0
 92
      512
 93
        0
300

 40
0.0
140
1.0
 94
        5
 62
     0
340
F
144
0.25
309
CONTENTFORMAT_END
171
     0
 94
        0
309
TABLEFORMAT_END
  1
CELLSTYLE_BEGIN
 90
        1
 91
        1
300
_TITLE
309
CELLSTYLE_END
300
CELLSTYLE
  1
TABLEFORMAT_BEGIN
 90
        5
170
     1
 91
        0
 92
        0
 62
   257
 93
        1
300
CONTENTFORMAT
  1
CONTENTFORMAT_BEGIN
 90
        0
 91
        0
 92
      512
 93
        0
300

 40
0.0
140
1.0
 94
        5
 62
     0
340
F
144
0.18
309
CONTENTFORMAT_END
171
     0
 94
        0
309
TABLEFORMAT_END
  1
CELLSTYLE_BEGIN
 90
        2
 91
        1
300
_HEADER
309
CELLSTYLE_END
300
CELLSTYLE
  1
TABLEFORMAT_BEGIN
 90
        5
170
     1
 91
        0
 92
        0
 62
   257
 93
        1
300
CONTENTFORMAT
  1
CONTENTFORMAT_BEGIN
 90
        0
 91
        0
 92
      512
 93
        0
300

 40
0.0
140
1.0
 94
        2
 62
     0
340
F
144
0.18
309
CONTENTFORMAT_END
171
     0
 94
        0
309
TABLEFORMAT_END
  1
CELLSTYLE_BEGIN
 90
        3
 91
        2
300
_DATA
309
CELLSTYLE_END
  0
XRECORD
  5
5167
102
{ACAD_REACTORS
330
5130
102
}
330
5130
100
AcDbXrecord
280
     1
102
ACAD_ROUNDTRIP_PRE2007_TABLESTYLE
 90
      512
 91
        0
  1

 92
      512
 93
        0
  2

 94
      512
 95
        0
  3

  0
XRECORD
  5
5142
102
{ACAD_REACTORS
330
5141
102
}
330
5141
100
AcDbXrecord
280
     1
102
RTVSPost2010Prop28
280
     1
102
RTVSPost2010PropOp28
 70
     1
102
RTVSPost2010Prop29
280
     1
102
RTVSPost2010PropOp29
 70
     1
102
RTVSPost2010Prop30
280
     0
102
RTVSPost2010PropOp30
 70
     1
102
RTVSPost2010Prop31
280
     0
102
RTVSPost2010PropOp31
 70
     1
102
RTVSPost2010Prop32
280
     0
102
RTVSPost2010PropOp32
 70
     1
102
RTVSPost2010Prop33
280
     0
102
RTVSPost2010PropOp33
 70
     1
102
RTVSPost2010Prop34
280
     0
102
RTVSPost2010PropOp34
 70
     1
102
RTVSPost2010Prop35
280
     0
102
RTVSPost2010PropOp35
 70
     1
102
RTVSPost2010Prop36
280
     0
102
RTVSPost2010PropOp36
 70
     1
102
RTVSPost2010Prop37
 90
       50
102
RTVSPost2010PropOp37
 70
     1
102
RTVSPost2010Prop38
140
0.0
102
RTVSPost2010PropOp38
 70
     1
102
RTVSPost2010Prop39
140
1.0
102
RTVSPost2010PropOp39
 70
     1
102
RTVSPost2010Prop40
 90
        0
102
RTVSPost2010PropOp40
 70
     1
102
RTVSPost2010Prop41ColorIndex
 90
       18
102
RTVSPost2010Prop41ColorRGB
 90
        0
102
RTVSPost2010PropOp41
 70
     1
102
RTVSPost2010Prop42
 90
       50
102
RTVSPost2010PropOp42
 70
     1
102
RTVSPost2010Prop43
 90
        3
102
RTVSPost2010PropOp43
 70
     1
102
RTVSPost2010Prop44ColorIndex
 90
        5
102
RTVSPost2010Prop44ColorRGB
 90
      255
102
RTVSPost2010PropOp44
 70
     1
102
RTVSPost2010Prop45
280
     0
102
RTVSPost2010PropOp45
 70
     1
102
RTVSPost2010Prop46
 90
       50
102
RTVSPost2010PropOp46
 70
     1
102
RTVSPost2010Prop47
 90
       50
102
RTVSPost2010PropOp47
 70
     1
102
RTVSPost2010Prop48
 90
       50
102
RTVSPost2010PropOp48
 70
     1
102
RTVSPost2010Prop49
280
     0
102
RTVSPost2010PropOp49
 70
     1
102
RTVSPost2010Prop50
 90
       50
102
RTVSPost2010PropOp50
 70
     1
102
RTVSPost2010Prop51ColorIndex
 90
      256
102
RTVSPost2010Prop51ColorRGB
 90
-16777216
102
RTVSPost2010PropOp51
 70
     0
102
RTVSPost2010Prop52
140
1.0
102
RTVSPost2010PropOp52
 70
     0
102
RTVSPost2010Prop53
 90
        2
102
RTVSPost2010PropOp53
 70
     1
102
RTVSPost2010Prop54
  1
strokes_ogs.tif
102
RTVSPost2010PropOp54
 70
     1
102
RTVSPost2010Prop55
280
     0
102
RTVSPost2010PropOp55
 70
     1
102
RTVSPost2010Prop56
140
1.0
102
RTVSPost2010PropOp56
 70
     1
102
RTVSPost2010Prop57
140
1.0
102
RTVSPost2010PropOp57
 70
     1
102
RTVSPropertyOp0
 70
     1
102
RTVSPropertyOp1
 70
     1
102
RTVSPropertyOp2
 70
     1
102
RTVSPropertyOp3
 70
     1
102
RTVSPropertyOp4
 70
     1
102
RTVSPropertyOp5
 70
     1
102
RTVSPropertyOp6
 70
     1
102
RTVSPropertyOp7
 70
     1
102
RTVSPropertyOp8
 70
     1
102
RTVSPropertyOp9
 70
     1
102
RTVSPropertyOp10
 70
     1
102
RTVSPropertyOp11
 70
     1
102
RTVSPropertyOp12
 70
     1
102
RTVSPropertyOp13
 70
     1
102
RTVSPropertyOp14
 70
     1
102
RTVSPropertyOp15
 70
     1
102
RTVSPropertyOp16
 70
     1
102
RTVSPropertyOp17
 70
     1
102
RTVSPropertyOp18
 70
     1
102
RTVSPropertyOp19
 70
     1
102
RTVSPropertyOp20
 70
     1
102
RTVSPropertyOp21
 70
     1
102
RTVSPropertyOp22
 70
     1
102
RTVSPropertyOp23
 70
     1
102
RTVSPropertyOp24
 70
     1
102
RTVSPropertyOp25
 70
     1
102
RTVSPropertyOp26
 70
     1
102
RTVSPropertyOp27
 70
     1
102
RTVSPropertyOp28
 70
     1
102
RTVSPropertyOp29
 70
     1
102
RTVSPropertyOp30
 70
     1
102
RTVSPropertyOp31
 70
     1
102
RTVSPropertyOp32
 70
     1
102
RTVSPropertyOp33
 70
     1
102
RTVSPropertyOp34
 70
     1
102
RTVSPropertyOp35
 70
     1
102
RTVSPropertyOp36
 70
     1
102
RTVSPropertyOp37
 70
     1
102
RTVSPropertyOp38
 70
     1
102
RTVSPropertyOp39
 70
     1
102
RTVSPropertyOp40
 70
     1
102
RTVSPropertyOp41
 70
     1
102
RTVSPropertyOp42
 70
     1
102
RTVSPropertyOp43
 70
     1
102
RTVSPropertyOp44
 70
     1
102
RTVSPropertyOp45
 70
     1
102
RTVSPropertyOp46
 70
     1
102
RTVSPropertyOp47
 70
     1
102
RTVSPropertyOp48
 70
     1
102
RTVSPropertyOp49
 70
     1
102
RTVSPropertyOp50
 70
     1
102
RTVSPropertyOp51
 70
     0
102
RTVSPropertyOp52
 70
     0
102
RTVSPropertyOp53
 70
     1
102
RTVSPropertyOp54
 70
     1
102
RTVSPropertyOp55
 70
     1
102
RTVSPropertyOp56
 70
     1
102
RTVSPropertyOp57
 70
     1
102
RTVSPropertyOp58
 70
     1
102
RTVSPropertyOp59
 70
     1
102
RTVSPropertyOp60
 70
     1
102
RTVSPropertyOp61
 70
     1
102
RTVSPropertyOp62
 70
     1
  0
XRECORD
  5
5140
102
{ACAD_REACTORS
330
513F
102
}
330
513F
100
AcDbXrecord
280
     1
102
RTVSPost2010Prop28
280
     0
102
RTVSPost2010PropOp28
 70
     1
102
RTVSPost2010Prop29
280
     1
102
RTVSPost2010PropOp29
 70
     1
102
RTVSPost2010Prop30
280
     1
102
RTVSPost2010PropOp30
 70
     1
102
RTVSPost2010Prop31
280
     0
102
RTVSPost2010PropOp31
 70
     1
102
RTVSPost2010Prop32
280
     0
102
RTVSPost2010PropOp32
 70
     1
102
RTVSPost2010Prop33
280
     0
102
RTVSPost2010PropOp33
 70
     1
102
RTVSPost2010Prop34
280
     0
102
RTVSPost2010PropOp34
 70
     1
102
RTVSPost2010Prop35
280
     0
102
RTVSPost2010PropOp35
 70
     1
102
RTVSPost2010Prop36
280
     0
102
RTVSPost2010PropOp36
 70
     1
102
RTVSPost2010Prop37
 90
       50
102
RTVSPost2010PropOp37
 70
     1
102
RTVSPost2010Prop38
140
0.0
102
RTVSPost2010PropOp38
 70
     1
102
RTVSPost2010Prop39
140
1.0
102
RTVSPost2010PropOp39
 70
     1
102
RTVSPost2010Prop40
 90
        0
102
RTVSPost2010PropOp40
 70
     1
102
RTVSPost2010Prop41ColorIndex
 90
       18
102
RTVSPost2010Prop41ColorRGB
 90
        0
102
RTVSPost2010PropOp41
 70
     1
102
RTVSPost2010Prop42
 90
       50
102
RTVSPost2010PropOp42
 70
     1
102
RTVSPost2010Prop43
 90
        3
102
RTVSPost2010PropOp43
 70
     1
102
RTVSPost2010Prop44ColorIndex
 90
        5
102
RTVSPost2010Prop44ColorRGB
 90
      255
102
RTVSPost2010PropOp44
 70
     1
102
RTVSPost2010Prop45
280
     0
102
RTVSPost2010PropOp45
 70
     1
102
RTVSPost2010Prop46
 90
       50
102
RTVSPost2010PropOp46
 70
     1
102
RTVSPost2010Prop47
 90
       50
102
RTVSPost2010PropOp47
 70
     1
102
RTVSPost2010Prop48
 90
       50
102
RTVSPost2010PropOp48
 70
     1
102
RTVSPost2010Prop49
280
     0
102
RTVSPost2010PropOp49
 70
     1
102
RTVSPost2010Prop50
 90
       50
102
RTVSPost2010PropOp50
 70
     1
102
RTVSPost2010Prop51ColorIndex
 90
      256
102
RTVSPost2010Prop51ColorRGB
 90
-16777216
102
RTVSPost2010PropOp51
 70
     0
102
RTVSPost2010Prop52
140
1.0
102
RTVSPost2010PropOp52
 70
     0
102
RTVSPost2010Prop53
 90
        2
102
RTVSPost2010PropOp53
 70
     1
102
RTVSPost2010Prop54
  1
strokes_ogs.tif
102
RTVSPost2010PropOp54
 70
     1
102
RTVSPost2010Prop55
280
     0
102
RTVSPost2010PropOp55
 70
     1
102
RTVSPost2010Prop56
140
1.0
102
RTVSPost2010PropOp56
 70
     1
102
RTVSPost2010Prop57
140
1.0
102
RTVSPost2010PropOp57
 70
     1
102
RTVSPropertyOp0
 70
     1
102
RTVSPropertyOp1
 70
     1
102
RTVSPropertyOp2
 70
     1
102
RTVSPropertyOp3
 70
     1
102
RTVSPropertyOp4
 70
     1
102
RTVSPropertyOp5
 70
     1
102
RTVSPropertyOp6
 70
     1
102
RTVSPropertyOp7
 70
     1
102
RTVSPropertyOp8
 70
     1
102
RTVSPropertyOp9
 70
     1
102
RTVSPropertyOp10
 70
     1
102
RTVSPropertyOp11
 70
     1
102
RTVSPropertyOp12
 70
     1
102
RTVSPropertyOp13
 70
     1
102
RTVSPropertyOp14
 70
     1
102
RTVSPropertyOp15
 70
     1
102
RTVSPropertyOp16
 70
     1
102
RTVSPropertyOp17
 70
     1
102
RTVSPropertyOp18
 70
     1
102
RTVSPropertyOp19
 70
     1
102
RTVSPropertyOp20
 70
     1
102
RTVSPropertyOp21
 70
     1
102
RTVSPropertyOp22
 70
     1
102
RTVSPropertyOp23
 70
     1
102
RTVSPropertyOp24
 70
     1
102
RTVSPropertyOp25
 70
     1
102
RTVSPropertyOp26
 70
     1
102
RTVSPropertyOp27
 70
     1
102
RTVSPropertyOp28
 70
     1
102
RTVSPropertyOp29
 70
     1
102
RTVSPropertyOp30
 70
     1
102
RTVSPropertyOp31
 70
     1
102
RTVSPropertyOp32
 70
     1
102
RTVSPropertyOp33
 70
     1
102
RTVSPropertyOp34
 70
     1
102
RTVSPropertyOp35
 70
     1
102
RTVSPropertyOp36
 70
     1
102
RTVSPropertyOp37
 70
     1
102
RTVSPropertyOp38
 70
     1
102
RTVSPropertyOp39
 70
     1
102
RTVSPropertyOp40
 70
     1
102
RTVSPropertyOp41
 70
     1
102
RTVSPropertyOp42
 70
     1
102
RTVSPropertyOp43
 70
     1
102
RTVSPropertyOp44
 70
     1
102
RTVSPropertyOp45
 70
     1
102
RTVSPropertyOp46
 70
     1
102
RTVSPropertyOp47
 70
     1
102
RTVSPropertyOp48
 70
     1
102
RTVSPropertyOp49
 70
     1
102
RTVSPropertyOp50
 70
     1
102
RTVSPropertyOp51
 70
     0
102
RTVSPropertyOp52
 70
     0
102
RTVSPropertyOp53
 70
     1
102
RTVSPropertyOp54
 70
     1
102
RTVSPropertyOp55
 70
     1
102
RTVSPropertyOp56
 70
     1
102
RTVSPropertyOp57
 70
     1
102
RTVSPropertyOp58
 70
     1
102
RTVSPropertyOp59
 70
     1
102
RTVSPropertyOp60
 70
     1
102
RTVSPropertyOp61
 70
     1
102
RTVSPropertyOp62
 70
     1
  0
XRECORD
  5
514E
102
{ACAD_REACTORS
330
514D
102
}
330
514D
100
AcDbXrecord
280
     1
102
RTVSPost2010Prop28
280
     0
102
RTVSPost2010PropOp28
 70
     1
102
RTVSPost2010Prop29
280
     1
102
RTVSPost2010PropOp29
 70
     1
102
RTVSPost2010Prop30
280
     1
102
RTVSPost2010PropOp30
 70
     1
102
RTVSPost2010Prop31
280
     0
102
RTVSPost2010PropOp31
 70
     1
102
RTVSPost2010Prop32
280
     0
102
RTVSPost2010PropOp32
 70
     1
102
RTVSPost2010Prop33
280
     0
102
RTVSPost2010PropOp33
 70
     1
102
RTVSPost2010Prop34
280
     0
102
RTVSPost2010PropOp34
 70
     1
102
RTVSPost2010Prop35
280
     0
102
RTVSPost2010PropOp35
 70
     1
102
RTVSPost2010Prop36
280
     0
102
RTVSPost2010PropOp36
 70
     1
102
RTVSPost2010Prop37
 90
       50
102
RTVSPost2010PropOp37
 70
     1
102
RTVSPost2010Prop38
140
0.0
102
RTVSPost2010PropOp38
 70
     1
102
RTVSPost2010Prop39
140
1.0
102
RTVSPost2010PropOp39
 70
     1
102
RTVSPost2010Prop40
 90
        0
102
RTVSPost2010PropOp40
 70
     1
102
RTVSPost2010Prop41ColorIndex
 90
       18
102
RTVSPost2010Prop41ColorRGB
 90
        0
102
RTVSPost2010PropOp41
 70
     1
102
RTVSPost2010Prop42
 90
       50
102
RTVSPost2010PropOp42
 70
     1
102
RTVSPost2010Prop43
 90
        3
102
RTVSPost2010PropOp43
 70
     1
102
RTVSPost2010Prop44ColorIndex
 90
        5
102
RTVSPost2010Prop44ColorRGB
 90
      255
102
RTVSPost2010PropOp44
 70
     1
102
RTVSPost2010Prop45
280
     0
102
RTVSPost2010PropOp45
 70
     1
102
RTVSPost2010Prop46
 90
       50
102
RTVSPost2010PropOp46
 70
     1
102
RTVSPost2010Prop47
 90
       50
102
RTVSPost2010PropOp47
 70
     1
102
RTVSPost2010Prop48
 90
       50
102
RTVSPost2010PropOp48
 70
     1
102
RTVSPost2010Prop49
280
     0
102
RTVSPost2010PropOp49
 70
     1
102
RTVSPost2010Prop50
 90
       50
102
RTVSPost2010PropOp50
 70
     1
102
RTVSPost2010Prop51ColorIndex
 90
      256
102
RTVSPost2010Prop51ColorRGB
 90
-16777216
102
RTVSPost2010PropOp51
 70
     0
102
RTVSPost2010Prop52
140
1.0
102
RTVSPost2010PropOp52
 70
     0
102
RTVSPost2010Prop53
 90
        2
102
RTVSPost2010PropOp53
 70
     1
102
RTVSPost2010Prop54
  1
strokes_ogs.tif
102
RTVSPost2010PropOp54
 70
     1
102
RTVSPost2010Prop55
280
     0
102
RTVSPost2010PropOp55
 70
     1
102
RTVSPost2010Prop56
140
1.0
102
RTVSPost2010PropOp56
 70
     1
102
RTVSPost2010Prop57
140
1.0
102
RTVSPost2010PropOp57
 70
     1
102
RTVSPropertyOp0
 70
     1
102
RTVSPropertyOp1
 70
     1
102
RTVSPropertyOp2
 70
     1
102
RTVSPropertyOp3
 70
     1
102
RTVSPropertyOp4
 70
     1
102
RTVSPropertyOp5
 70
     1
102
RTVSPropertyOp6
 70
     1
102
RTVSPropertyOp7
 70
     1
102
RTVSPropertyOp8
 70
     1
102
RTVSPropertyOp9
 70
     1
102
RTVSPropertyOp10
 70
     1
102
RTVSPropertyOp11
 70
     1
102
RTVSPropertyOp12
 70
     1
102
RTVSPropertyOp13
 70
     1
102
RTVSPropertyOp14
 70
     1
102
RTVSPropertyOp15
 70
     1
102
RTVSPropertyOp16
 70
     1
102
RTVSPropertyOp17
 70
     1
102
RTVSPropertyOp18
 70
     1
102
RTVSPropertyOp19
 70
     1
102
RTVSPropertyOp20
 70
     1
102
RTVSPropertyOp21
 70
     1
102
RTVSPropertyOp22
 70
     1
102
RTVSPropertyOp23
 70
     1
102
RTVSPropertyOp24
 70
     1
102
RTVSPropertyOp25
 70
     1
102
RTVSPropertyOp26
 70
     1
102
RTVSPropertyOp27
 70
     1
102
RTVSPropertyOp28
 70
     1
102
RTVSPropertyOp29
 70
     1
102
RTVSPropertyOp30
 70
     1
102
RTVSPropertyOp31
 70
     1
102
RTVSPropertyOp32
 70
     1
102
RTVSPropertyOp33
 70
     1
102
RTVSPropertyOp34
 70
     1
102
RTVSPropertyOp35
 70
     1
102
RTVSPropertyOp36
 70
     1
102
RTVSPropertyOp37
 70
     1
102
RTVSPropertyOp38
 70
     1
102
RTVSPropertyOp39
 70
     1
102
RTVSPropertyOp40
 70
     1
102
RTVSPropertyOp41
 70
     1
102
RTVSPropertyOp42
 70
     1
102
RTVSPropertyOp43
 70
     1
102
RTVSPropertyOp44
 70
     1
102
RTVSPropertyOp45
 70
     1
102
RTVSPropertyOp46
 70
     1
102
RTVSPropertyOp47
 70
     1
102
RTVSPropertyOp48
 70
     1
102
RTVSPropertyOp49
 70
     1
102
RTVSPropertyOp50
 70
     1
102
RTVSPropertyOp51
 70
     0
102
RTVSPropertyOp52
 70
     0
102
RTVSPropertyOp53
 70
     1
102
RTVSPropertyOp54
 70
     1
102
RTVSPropertyOp55
 70
     1
102
RTVSPropertyOp56
 70
     1
102
RTVSPropertyOp57
 70
     1
102
RTVSPropertyOp58
 70
     1
102
RTVSPropertyOp59
 70
     1
102
RTVSPropertyOp60
 70
     1
102
RTVSPropertyOp61
 70
     1
102
RTVSPropertyOp62
 70
     1
  0
XRECORD
  5
5156
102
{ACAD_REACTORS
330
5155
102
}
330
5155
100
AcDbXrecord
280
     1
102
RTVSPost2010Prop28
280
     0
102
RTVSPost2010PropOp28
 70
     1
102
RTVSPost2010Prop29
280
     1
102
RTVSPost2010PropOp29
 70
     1
102
RTVSPost2010Prop30
280
     1
102
RTVSPost2010PropOp30
 70
     1
102
RTVSPost2010Prop31
280
     0
102
RTVSPost2010PropOp31
 70
     1
102
RTVSPost2010Prop32
280
     0
102
RTVSPost2010PropOp32
 70
     1
102
RTVSPost2010Prop33
280
     0
102
RTVSPost2010PropOp33
 70
     1
102
RTVSPost2010Prop34
280
     0
102
RTVSPost2010PropOp34
 70
     1
102
RTVSPost2010Prop35
280
     0
102
RTVSPost2010PropOp35
 70
     1
102
RTVSPost2010Prop36
280
     0
102
RTVSPost2010PropOp36
 70
     1
102
RTVSPost2010Prop37
 90
       50
102
RTVSPost2010PropOp37
 70
     1
102
RTVSPost2010Prop38
140
0.0
102
RTVSPost2010PropOp38
 70
     1
102
RTVSPost2010Prop39
140
1.0
102
RTVSPost2010PropOp39
 70
     1
102
RTVSPost2010Prop40
 90
        0
102
RTVSPost2010PropOp40
 70
     1
102
RTVSPost2010Prop41ColorIndex
 90
       18
102
RTVSPost2010Prop41ColorRGB
 90
        0
102
RTVSPost2010PropOp41
 70
     1
102
RTVSPost2010Prop42
 90
       50
102
RTVSPost2010PropOp42
 70
     1
102
RTVSPost2010Prop43
 90
        3
102
RTVSPost2010PropOp43
 70
     1
102
RTVSPost2010Prop44ColorIndex
 90
        5
102
RTVSPost2010Prop44ColorRGB
 90
      255
102
RTVSPost2010PropOp44
 70
     1
102
RTVSPost2010Prop45
280
     0
102
RTVSPost2010PropOp45
 70
     1
102
RTVSPost2010Prop46
 90
       50
102
RTVSPost2010PropOp46
 70
     1
102
RTVSPost2010Prop47
 90
       50
102
RTVSPost2010PropOp47
 70
     1
102
RTVSPost2010Prop48
 90
       50
102
RTVSPost2010PropOp48
 70
     1
102
RTVSPost2010Prop49
280
     0
102
RTVSPost2010PropOp49
 70
     1
102
RTVSPost2010Prop50
 90
       50
102
RTVSPost2010PropOp50
 70
     1
102
RTVSPost2010Prop51ColorIndex
 90
      256
102
RTVSPost2010Prop51ColorRGB
 90
-16777216
102
RTVSPost2010PropOp51
 70
     0
102
RTVSPost2010Prop52
140
1.0
102
RTVSPost2010PropOp52
 70
     0
102
RTVSPost2010Prop53
 90
        2
102
RTVSPost2010PropOp53
 70
     1
102
RTVSPost2010Prop54
  1
strokes_ogs.tif
102
RTVSPost2010PropOp54
 70
     1
102
RTVSPost2010Prop55
280
     0
102
RTVSPost2010PropOp55
 70
     1
102
RTVSPost2010Prop56
140
1.0
102
RTVSPost2010PropOp56
 70
     1
102
RTVSPost2010Prop57
140
1.0
102
RTVSPost2010PropOp57
 70
     1
102
RTVSPropertyOp0
 70
     1
102
RTVSPropertyOp1
 70
     1
102
RTVSPropertyOp2
 70
     1
102
RTVSPropertyOp3
 70
     1
102
RTVSPropertyOp4
 70
     1
102
RTVSPropertyOp5
 70
     1
102
RTVSPropertyOp6
 70
     1
102
RTVSPropertyOp7
 70
     1
102
RTVSPropertyOp8
 70
     1
102
RTVSPropertyOp9
 70
     1
102
RTVSPropertyOp10
 70
     1
102
RTVSPropertyOp11
 70
     1
102
RTVSPropertyOp12
 70
     1
102
RTVSPropertyOp13
 70
     1
102
RTVSPropertyOp14
 70
     1
102
RTVSPropertyOp15
 70
     1
102
RTVSPropertyOp16
 70
     1
102
RTVSPropertyOp17
 70
     1
102
RTVSPropertyOp18
 70
     1
102
RTVSPropertyOp19
 70
     1
102
RTVSPropertyOp20
 70
     1
102
RTVSPropertyOp21
 70
     1
102
RTVSPropertyOp22
 70
     1
102
RTVSPropertyOp23
 70
     1
102
RTVSPropertyOp24
 70
     1
102
RTVSPropertyOp25
 70
     1
102
RTVSPropertyOp26
 70
     1
102
RTVSPropertyOp27
 70
     1
102
RTVSPropertyOp28
 70
     1
102
RTVSPropertyOp29
 70
     1
102
RTVSPropertyOp30
 70
     1
102
RTVSPropertyOp31
 70
     1
102
RTVSPropertyOp32
 70
     1
102
RTVSPropertyOp33
 70
     1
102
RTVSPropertyOp34
 70
     1
102
RTVSPropertyOp35
 70
     1
102
RTVSPropertyOp36
 70
     1
102
RTVSPropertyOp37
 70
     1
102
RTVSPropertyOp38
 70
     1
102
RTVSPropertyOp39
 70
     1
102
RTVSPropertyOp40
 70
     1
102
RTVSPropertyOp41
 70
     1
102
RTVSPropertyOp42
 70
     1
102
RTVSPropertyOp43
 70
     1
102
RTVSPropertyOp44
 70
     1
102
RTVSPropertyOp45
 70
     1
102
RTVSPropertyOp46
 70
     1
102
RTVSPropertyOp47
 70
     1
102
RTVSPropertyOp48
 70
     1
102
RTVSPropertyOp49
 70
     1
102
RTVSPropertyOp50
 70
     1
102
RTVSPropertyOp51
 70
     0
102
RTVSPropertyOp52
 70
     0
102
RTVSPropertyOp53
 70
     1
102
RTVSPropertyOp54
 70
     1
102
RTVSPropertyOp55
 70
     1
102
RTVSPropertyOp56
 70
     1
102
RTVSPropertyOp57
 70
     1
102
RTVSPropertyOp58
 70
     1
102
RTVSPropertyOp59
 70
     1
102
RTVSPropertyOp60
 70
     1
102
RTVSPropertyOp61
 70
     1
102
RTVSPropertyOp62
 70
     1
  0
XRECORD
  5
5148
102
{ACAD_REACTORS
330
5147
102
}
330
5147
100
AcDbXrecord
280
     1
102
RTVSPost2010Prop28
280
     0
102
RTVSPost2010PropOp28
 70
     1
102
RTVSPost2010Prop29
280
     1
102
RTVSPost2010PropOp29
 70
     1
102
RTVSPost2010Prop30
280
     1
102
RTVSPost2010PropOp30
 70
     1
102
RTVSPost2010Prop31
280
     0
102
RTVSPost2010PropOp31
 70
     1
102
RTVSPost2010Prop32
280
     0
102
RTVSPost2010PropOp32
 70
     1
102
RTVSPost2010Prop33
280
     0
102
RTVSPost2010PropOp33
 70
     1
102
RTVSPost2010Prop34
280
     0
102
RTVSPost2010PropOp34
 70
     1
102
RTVSPost2010Prop35
280
     0
102
RTVSPost2010PropOp35
 70
     1
102
RTVSPost2010Prop36
280
     0
102
RTVSPost2010PropOp36
 70
     1
102
RTVSPost2010Prop37
 90
       50
102
RTVSPost2010PropOp37
 70
     1
102
RTVSPost2010Prop38
140
0.0
102
RTVSPost2010PropOp38
 70
     1
102
RTVSPost2010Prop39
140
1.0
102
RTVSPost2010PropOp39
 70
     1
102
RTVSPost2010Prop40
 90
        0
102
RTVSPost2010PropOp40
 70
     1
102
RTVSPost2010Prop41ColorIndex
 90
       18
102
RTVSPost2010Prop41ColorRGB
 90
        0
102
RTVSPost2010PropOp41
 70
     1
102
RTVSPost2010Prop42
 90
       50
102
RTVSPost2010PropOp42
 70
     1
102
RTVSPost2010Prop43
 90
        3
102
RTVSPost2010PropOp43
 70
     1
102
RTVSPost2010Prop44ColorIndex
 90
        5
102
RTVSPost2010Prop44ColorRGB
 90
      255
102
RTVSPost2010PropOp44
 70
     1
102
RTVSPost2010Prop45
280
     0
102
RTVSPost2010PropOp45
 70
     1
102
RTVSPost2010Prop46
 90
       50
102
RTVSPost2010PropOp46
 70
     1
102
RTVSPost2010Prop47
 90
       50
102
RTVSPost2010PropOp47
 70
     1
102
RTVSPost2010Prop48
 90
       50
102
RTVSPost2010PropOp48
 70
     1
102
RTVSPost2010Prop49
280
     0
102
RTVSPost2010PropOp49
 70
     1
102
RTVSPost2010Prop50
 90
       50
102
RTVSPost2010PropOp50
 70
     1
102
RTVSPost2010Prop51ColorIndex
 90
      256
102
RTVSPost2010Prop51ColorRGB
 90
-16777216
102
RTVSPost2010PropOp51
 70
     0
102
RTVSPost2010Prop52
140
1.0
102
RTVSPost2010PropOp52
 70
     0
102
RTVSPost2010Prop53
 90
        2
102
RTVSPost2010PropOp53
 70
     1
102
RTVSPost2010Prop54
  1
strokes_ogs.tif
102
RTVSPost2010PropOp54
 70
     1
102
RTVSPost2010Prop55
280
     0
102
RTVSPost2010PropOp55
 70
     1
102
RTVSPost2010Prop56
140
1.0
102
RTVSPost2010PropOp56
 70
     1
102
RTVSPost2010Prop57
140
1.0
102
RTVSPost2010PropOp57
 70
     1
102
RTVSPropertyOp0
 70
     1
102
RTVSPropertyOp1
 70
     1
102
RTVSPropertyOp2
 70
     1
102
RTVSPropertyOp3
 70
     1
102
RTVSPropertyOp4
 70
     1
102
RTVSPropertyOp5
 70
     1
102
RTVSPropertyOp6
 70
     1
102
RTVSPropertyOp7
 70
     1
102
RTVSPropertyOp8
 70
     1
102
RTVSPropertyOp9
 70
     1
102
RTVSPropertyOp10
 70
     1
102
RTVSPropertyOp11
 70
     1
102
RTVSPropertyOp12
 70
     1
102
RTVSPropertyOp13
 70
     1
102
RTVSPropertyOp14
 70
     1
102
RTVSPropertyOp15
 70
     1
102
RTVSPropertyOp16
 70
     1
102
RTVSPropertyOp17
 70
     1
102
RTVSPropertyOp18
 70
     1
102
RTVSPropertyOp19
 70
     1
102
RTVSPropertyOp20
 70
     1
102
RTVSPropertyOp21
 70
     1
102
RTVSPropertyOp22
 70
     1
102
RTVSPropertyOp23
 70
     1
102
RTVSPropertyOp24
 70
     1
102
RTVSPropertyOp25
 70
     1
102
RTVSPropertyOp26
 70
     1
102
RTVSPropertyOp27
 70
     1
102
RTVSPropertyOp28
 70
     1
102
RTVSPropertyOp29
 70
     1
102
RTVSPropertyOp30
 70
     1
102
RTVSPropertyOp31
 70
     1
102
RTVSPropertyOp32
 70
     1
102
RTVSPropertyOp33
 70
     1
102
RTVSPropertyOp34
 70
     1
102
RTVSPropertyOp35
 70
     1
102
RTVSPropertyOp36
 70
     1
102
RTVSPropertyOp37
 70
     1
102
RTVSPropertyOp38
 70
     1
102
RTVSPropertyOp39
 70
     1
102
RTVSPropertyOp40
 70
     1
102
RTVSPropertyOp41
 70
     1
102
RTVSPropertyOp42
 70
     1
102
RTVSPropertyOp43
 70
     1
102
RTVSPropertyOp44
 70
     1
102
RTVSPropertyOp45
 70
     1
102
RTVSPropertyOp46
 70
     1
102
RTVSPropertyOp47
 70
     1
102
RTVSPropertyOp48
 70
     1
102
RTVSPropertyOp49
 70
     1
102
RTVSPropertyOp50
 70
     1
102
RTVSPropertyOp51
 70
     0
102
RTVSPropertyOp52
 70
     0
102
RTVSPropertyOp53
 70
     1
102
RTVSPropertyOp54
 70
     1
102
RTVSPropertyOp55
 70
     1
102
RTVSPropertyOp56
 70
     1
102
RTVSPropertyOp57
 70
     1
102
RTVSPropertyOp58
 70
     1
102
RTVSPropertyOp59
 70
     1
102
RTVSPropertyOp60
 70
     1
102
RTVSPropertyOp61
 70
     1
102
RTVSPropertyOp62
 70
     1
  0
XRECORD
  5
514C
102
{ACAD_REACTORS
330
514B
102
}
330
514B
100
AcDbXrecord
280
     1
102
RTVSPost2010Prop28
280
     0
102
RTVSPost2010PropOp28
 70
     1
102
RTVSPost2010Prop29
280
     1
102
RTVSPost2010PropOp29
 70
     1
102
RTVSPost2010Prop30
280
     1
102
RTVSPost2010PropOp30
 70
     1
102
RTVSPost2010Prop31
280
     0
102
RTVSPost2010PropOp31
 70
     1
102
RTVSPost2010Prop32
280
     0
102
RTVSPost2010PropOp32
 70
     1
102
RTVSPost2010Prop33
280
     0
102
RTVSPost2010PropOp33
 70
     1
102
RTVSPost2010Prop34
280
     0
102
RTVSPost2010PropOp34
 70
     1
102
RTVSPost2010Prop35
280
     0
102
RTVSPost2010PropOp35
 70
     1
102
RTVSPost2010Prop36
280
     0
102
RTVSPost2010PropOp36
 70
     1
102
RTVSPost2010Prop37
 90
       50
102
RTVSPost2010PropOp37
 70
     1
102
RTVSPost2010Prop38
140
0.0
102
RTVSPost2010PropOp38
 70
     1
102
RTVSPost2010Prop39
140
1.0
102
RTVSPost2010PropOp39
 70
     1
102
RTVSPost2010Prop40
 90
        0
102
RTVSPost2010PropOp40
 70
     1
102
RTVSPost2010Prop41ColorIndex
 90
       18
102
RTVSPost2010Prop41ColorRGB
 90
        0
102
RTVSPost2010PropOp41
 70
     1
102
RTVSPost2010Prop42
 90
       50
102
RTVSPost2010PropOp42
 70
     1
102
RTVSPost2010Prop43
 90
        3
102
RTVSPost2010PropOp43
 70
     1
102
RTVSPost2010Prop44ColorIndex
 90
        5
102
RTVSPost2010Prop44ColorRGB
 90
      255
102
RTVSPost2010PropOp44
 70
     1
102
RTVSPost2010Prop45
280
     0
102
RTVSPost2010PropOp45
 70
     1
102
RTVSPost2010Prop46
 90
       50
102
RTVSPost2010PropOp46
 70
     1
102
RTVSPost2010Prop47
 90
       50
102
RTVSPost2010PropOp47
 70
     1
102
RTVSPost2010Prop48
 90
       50
102
RTVSPost2010PropOp48
 70
     1
102
RTVSPost2010Prop49
280
     0
102
RTVSPost2010PropOp49
 70
     1
102
RTVSPost2010Prop50
 90
       50
102
RTVSPost2010PropOp50
 70
     1
102
RTVSPost2010Prop51ColorIndex
 90
      256
102
RTVSPost2010Prop51ColorRGB
 90
-16777216
102
RTVSPost2010PropOp51
 70
     0
102
RTVSPost2010Prop52
140
1.0
102
RTVSPost2010PropOp52
 70
     0
102
RTVSPost2010Prop53
 90
        2
102
RTVSPost2010PropOp53
 70
     1
102
RTVSPost2010Prop54
  1
strokes_ogs.tif
102
RTVSPost2010PropOp54
 70
     1
102
RTVSPost2010Prop55
280
     0
102
RTVSPost2010PropOp55
 70
     1
102
RTVSPost2010Prop56
140
1.0
102
RTVSPost2010PropOp56
 70
     1
102
RTVSPost2010Prop57
140
1.0
102
RTVSPost2010PropOp57
 70
     1
102
RTVSPropertyOp0
 70
     1
102
RTVSPropertyOp1
 70
     1
102
RTVSPropertyOp2
 70
     1
102
RTVSPropertyOp3
 70
     1
102
RTVSPropertyOp4
 70
     1
102
RTVSPropertyOp5
 70
     1
102
RTVSPropertyOp6
 70
     1
102
RTVSPropertyOp7
 70
     1
102
RTVSPropertyOp8
 70
     1
102
RTVSPropertyOp9
 70
     1
102
RTVSPropertyOp10
 70
     1
102
RTVSPropertyOp11
 70
     1
102
RTVSPropertyOp12
 70
     1
102
RTVSPropertyOp13
 70
     1
102
RTVSPropertyOp14
 70
     1
102
RTVSPropertyOp15
 70
     1
102
RTVSPropertyOp16
 70
     1
102
RTVSPropertyOp17
 70
     1
102
RTVSPropertyOp18
 70
     1
102
RTVSPropertyOp19
 70
     1
102
RTVSPropertyOp20
 70
     1
102
RTVSPropertyOp21
 70
     1
102
RTVSPropertyOp22
 70
     1
102
RTVSPropertyOp23
 70
     1
102
RTVSPropertyOp24
 70
     1
102
RTVSPropertyOp25
 70
     1
102
RTVSPropertyOp26
 70
     1
102
RTVSPropertyOp27
 70
     1
102
RTVSPropertyOp28
 70
     1
102
RTVSPropertyOp29
 70
     1
102
RTVSPropertyOp30
 70
     1
102
RTVSPropertyOp31
 70
     1
102
RTVSPropertyOp32
 70
     1
102
RTVSPropertyOp33
 70
     1
102
RTVSPropertyOp34
 70
     1
102
RTVSPropertyOp35
 70
     1
102
RTVSPropertyOp36
 70
     1
102
RTVSPropertyOp37
 70
     1
102
RTVSPropertyOp38
 70
     1
102
RTVSPropertyOp39
 70
     1
102
RTVSPropertyOp40
 70
     1
102
RTVSPropertyOp41
 70
     1
102
RTVSPropertyOp42
 70
     1
102
RTVSPropertyOp43
 70
     1
102
RTVSPropertyOp44
 70
     1
102
RTVSPropertyOp45
 70
     1
102
RTVSPropertyOp46
 70
     1
102
RTVSPropertyOp47
 70
     1
102
RTVSPropertyOp48
 70
     1
102
RTVSPropertyOp49
 70
     1
102
RTVSPropertyOp50
 70
     1
102
RTVSPropertyOp51
 70
     0
102
RTVSPropertyOp52
 70
     0
102
RTVSPropertyOp53
 70
     1
102
RTVSPropertyOp54
 70
     1
102
RTVSPropertyOp55
 70
     1
102
RTVSPropertyOp56
 70
     1
102
RTVSPropertyOp57
 70
     1
102
RTVSPropertyOp58
 70
     1
102
RTVSPropertyOp59
 70
     1
102
RTVSPropertyOp60
 70
     1
102
RTVSPropertyOp61
 70
     1
102
RTVSPropertyOp62
 70
     1
  0
XRECORD
  5
5166
102
{ACAD_REACTORS
330
5165
102
}
330
5165
100
AcDbXrecord
280
     1
102
RTVSPost2010Prop28
280
     0
102
RTVSPost2010PropOp28
 70
     1
102
RTVSPost2010Prop29
280
     1
102
RTVSPost2010PropOp29
 70
     1
102
RTVSPost2010Prop30
280
     1
102
RTVSPost2010PropOp30
 70
     1
102
RTVSPost2010Prop31
280
     0
102
RTVSPost2010PropOp31
 70
     1
102
RTVSPost2010Prop32
280
     0
102
RTVSPost2010PropOp32
 70
     1
102
RTVSPost2010Prop33
280
     0
102
RTVSPost2010PropOp33
 70
     1
102
RTVSPost2010Prop34
280
     0
102
RTVSPost2010PropOp34
 70
     1
102
RTVSPost2010Prop35
280
     0
102
RTVSPost2010PropOp35
 70
     1
102
RTVSPost2010Prop36
280
     0
102
RTVSPost2010PropOp36
 70
     1
102
RTVSPost2010Prop37
 90
       50
102
RTVSPost2010PropOp37
 70
     0
102
RTVSPost2010Prop38
140
0.0
102
RTVSPost2010PropOp38
 70
     0
102
RTVSPost2010Prop39
140
1.0
102
RTVSPost2010PropOp39
 70
     0
102
RTVSPost2010Prop40
 90
        0
102
RTVSPost2010PropOp40
 70
     0
102
RTVSPost2010Prop41ColorIndex
 90
       18
102
RTVSPost2010Prop41ColorRGB
 90
        0
102
RTVSPost2010PropOp41
 70
     0
102
RTVSPost2010Prop42
 90
       50
102
RTVSPost2010PropOp42
 70
     0
102
RTVSPost2010Prop43
 90
        3
102
RTVSPost2010PropOp43
 70
     0
102
RTVSPost2010Prop44ColorIndex
 90
        5
102
RTVSPost2010Prop44ColorRGB
 90
      255
102
RTVSPost2010PropOp44
 70
     0
102
RTVSPost2010Prop45
280
     0
102
RTVSPost2010PropOp45
 70
     1
102
RTVSPost2010Prop46
 90
       50
102
RTVSPost2010PropOp46
 70
     0
102
RTVSPost2010Prop47
 90
       50
102
RTVSPost2010PropOp47
 70
     0
102
RTVSPost2010Prop48
 90
       50
102
RTVSPost2010PropOp48
 70
     0
102
RTVSPost2010Prop49
280
     0
102
RTVSPost2010PropOp49
 70
     1
102
RTVSPost2010Prop50
 90
       50
102
RTVSPost2010PropOp50
 70
     0
102
RTVSPost2010Prop51ColorIndex
 90
      256
102
RTVSPost2010Prop51ColorRGB
 90
-16777216
102
RTVSPost2010PropOp51
 70
     0
102
RTVSPost2010Prop52
140
1.0
102
RTVSPost2010PropOp52
 70
     0
102
RTVSPost2010Prop53
 90
        2
102
RTVSPost2010PropOp53
 70
     0
102
RTVSPost2010Prop54
  1
strokes_ogs.tif
102
RTVSPost2010PropOp54
 70
     0
102
RTVSPost2010Prop55
280
     0
102
RTVSPost2010PropOp55
 70
     1
102
RTVSPost2010Prop56
140
1.0
102
RTVSPost2010PropOp56
 70
     0
102
RTVSPost2010Prop57
140
1.0
102
RTVSPost2010PropOp57
 70
     0
102
RTVSPropertyOp0
 70
     0
102
RTVSPropertyOp1
 70
     0
102
RTVSPropertyOp2
 70
     0
102
RTVSPropertyOp3
 70
     0
102
RTVSPropertyOp4
 70
     0
102
RTVSPropertyOp5
 70
     0
102
RTVSPropertyOp6
 70
     0
102
RTVSPropertyOp7
 70
     0
102
RTVSPropertyOp8
 70
     0
102
RTVSPropertyOp9
 70
     0
102
RTVSPropertyOp10
 70
     0
102
RTVSPropertyOp11
 70
     0
102
RTVSPropertyOp12
 70
     0
102
RTVSPropertyOp13
 70
     0
102
RTVSPropertyOp14
 70
     2
102
RTVSPropertyOp15
 70
     0
102
RTVSPropertyOp16
 70
     0
102
RTVSPropertyOp17
 70
     0
102
RTVSPropertyOp18
 70
     0
102
RTVSPropertyOp19
 70
     0
102
RTVSPropertyOp20
 70
     0
102
RTVSPropertyOp21
 70
     0
102
RTVSPropertyOp22
 70
     0
102
RTVSPropertyOp23
 70
     0
102
RTVSPropertyOp24
 70
     0
102
RTVSPropertyOp25
 70
     0
102
RTVSPropertyOp26
 70
     0
102
RTVSPropertyOp27
 70
     0
102
RTVSPropertyOp28
 70
     1
102
RTVSPropertyOp29
 70
     1
102
RTVSPropertyOp30
 70
     1
102
RTVSPropertyOp31
 70
     1
102
RTVSPropertyOp32
 70
     1
102
RTVSPropertyOp33
 70
     1
102
RTVSPropertyOp34
 70
     1
102
RTVSPropertyOp35
 70
     1
102
RTVSPropertyOp36
 70
     1
102
RTVSPropertyOp37
 70
     0
102
RTVSPropertyOp38
 70
     0
102
RTVSPropertyOp39
 70
     0
102
RTVSPropertyOp40
 70
     0
102
RTVSPropertyOp41
 70
     0
102
RTVSPropertyOp42
 70
     0
102
RTVSPropertyOp43
 70
     0
102
RTVSPropertyOp44
 70
     0
102
RTVSPropertyOp45
 70
     1
102
RTVSPropertyOp46
 70
     0
102
RTVSPropertyOp47
 70
     0
102
RTVSPropertyOp48
 70
     0
102
RTVSPropertyOp49
 70
     1
102
RTVSPropertyOp50
 70
     0
102
RTVSPropertyOp51
 70
     0
102
RTVSPropertyOp52
 70
     0
102
RTVSPropertyOp53
 70
     0
102
RTVSPropertyOp54
 70
     0
102
RTVSPropertyOp55
 70
     1
102
RTVSPropertyOp56
 70
     0
102
RTVSPropertyOp57
 70
     0
102
RTVSPropertyOp58
 70
     0
102
RTVSPropertyOp59
 70
     0
102
RTVSPropertyOp60
 70
     0
102
RTVSPropertyOp61
 70
     0
102
RTVSPropertyOp62
 70
     0
  0
XRECORD
  5
5154
102
{ACAD_REACTORS
330
5153
102
}
330
5153
100
AcDbXrecord
280
     1
102
RTVSPost2010Prop28
280
     0
102
RTVSPost2010PropOp28
 70
     1
102
RTVSPost2010Prop29
280
     1
102
RTVSPost2010PropOp29
 70
     1
102
RTVSPost2010Prop30
280
     1
102
RTVSPost2010PropOp30
 70
     1
102
RTVSPost2010Prop31
280
     0
102
RTVSPost2010PropOp31
 70
     1
102
RTVSPost2010Prop32
280
     0
102
RTVSPost2010PropOp32
 70
     1
102
RTVSPost2010Prop33
280
     0
102
RTVSPost2010PropOp33
 70
     1
102
RTVSPost2010Prop34
280
     0
102
RTVSPost2010PropOp34
 70
     1
102
RTVSPost2010Prop35
280
     0
102
RTVSPost2010PropOp35
 70
     1
102
RTVSPost2010Prop36
280
     0
102
RTVSPost2010PropOp36
 70
     1
102
RTVSPost2010Prop37
 90
       50
102
RTVSPost2010PropOp37
 70
     1
102
RTVSPost2010Prop38
140
0.0
102
RTVSPost2010PropOp38
 70
     1
102
RTVSPost2010Prop39
140
1.0
102
RTVSPost2010PropOp39
 70
     1
102
RTVSPost2010Prop40
 90
        0
102
RTVSPost2010PropOp40
 70
     1
102
RTVSPost2010Prop41ColorIndex
 90
       18
102
RTVSPost2010Prop41ColorRGB
 90
        0
102
RTVSPost2010PropOp41
 70
     1
102
RTVSPost2010Prop42
 90
       50
102
RTVSPost2010PropOp42
 70
     1
102
RTVSPost2010Prop43
 90
        3
102
RTVSPost2010PropOp43
 70
     1
102
RTVSPost2010Prop44ColorIndex
 90
        5
102
RTVSPost2010Prop44ColorRGB
 90
      255
102
RTVSPost2010PropOp44
 70
     1
102
RTVSPost2010Prop45
280
     0
102
RTVSPost2010PropOp45
 70
     1
102
RTVSPost2010Prop46
 90
       50
102
RTVSPost2010PropOp46
 70
     1
102
RTVSPost2010Prop47
 90
       50
102
RTVSPost2010PropOp47
 70
     1
102
RTVSPost2010Prop48
 90
       50
102
RTVSPost2010PropOp48
 70
     1
102
RTVSPost2010Prop49
280
     0
102
RTVSPost2010PropOp49
 70
     1
102
RTVSPost2010Prop50
 90
       50
102
RTVSPost2010PropOp50
 70
     1
102
RTVSPost2010Prop51ColorIndex
 90
      256
102
RTVSPost2010Prop51ColorRGB
 90
-16777216
102
RTVSPost2010PropOp51
 70
     0
102
RTVSPost2010Prop52
140
1.0
102
RTVSPost2010PropOp52
 70
     0
102
RTVSPost2010Prop53
 90
        2
102
RTVSPost2010PropOp53
 70
     1
102
RTVSPost2010Prop54
  1
strokes_ogs.tif
102
RTVSPost2010PropOp54
 70
     1
102
RTVSPost2010Prop55
280
     0
102
RTVSPost2010PropOp55
 70
     1
102
RTVSPost2010Prop56
140
1.0
102
RTVSPost2010PropOp56
 70
     1
102
RTVSPost2010Prop57
140
1.0
102
RTVSPost2010PropOp57
 70
     1
102
RTVSPropertyOp0
 70
     1
102
RTVSPropertyOp1
 70
     1
102
RTVSPropertyOp2
 70
     1
102
RTVSPropertyOp3
 70
     1
102
RTVSPropertyOp4
 70
     1
102
RTVSPropertyOp5
 70
     1
102
RTVSPropertyOp6
 70
     1
102
RTVSPropertyOp7
 70
     1
102
RTVSPropertyOp8
 70
     1
102
RTVSPropertyOp9
 70
     1
102
RTVSPropertyOp10
 70
     1
102
RTVSPropertyOp11
 70
     1
102
RTVSPropertyOp12
 70
     1
102
RTVSPropertyOp13
 70
     1
102
RTVSPropertyOp14
 70
     1
102
RTVSPropertyOp15
 70
     1
102
RTVSPropertyOp16
 70
     1
102
RTVSPropertyOp17
 70
     1
102
RTVSPropertyOp18
 70
     1
102
RTVSPropertyOp19
 70
     1
102
RTVSPropertyOp20
 70
     1
102
RTVSPropertyOp21
 70
     1
102
RTVSPropertyOp22
 70
     1
102
RTVSPropertyOp23
 70
     1
102
RTVSPropertyOp24
 70
     1
102
RTVSPropertyOp25
 70
     1
102
RTVSPropertyOp26
 70
     1
102
RTVSPropertyOp27
 70
     1
102
RTVSPropertyOp28
 70
     1
102
RTVSPropertyOp29
 70
     1
102
RTVSPropertyOp30
 70
     1
102
RTVSPropertyOp31
 70
     1
102
RTVSPropertyOp32
 70
     1
102
RTVSPropertyOp33
 70
     1
102
RTVSPropertyOp34
 70
     1
102
RTVSPropertyOp35
 70
     1
102
RTVSPropertyOp36
 70
     1
102
RTVSPropertyOp37
 70
     1
102
RTVSPropertyOp38
 70
     1
102
RTVSPropertyOp39
 70
     1
102
RTVSPropertyOp40
 70
     1
102
RTVSPropertyOp41
 70
     1
102
RTVSPropertyOp42
 70
     1
102
RTVSPropertyOp43
 70
     1
102
RTVSPropertyOp44
 70
     1
102
RTVSPropertyOp45
 70
     1
102
RTVSPropertyOp46
 70
     1
102
RTVSPropertyOp47
 70
     1
102
RTVSPropertyOp48
 70
     1
102
RTVSPropertyOp49
 70
     1
102
RTVSPropertyOp50
 70
     1
102
RTVSPropertyOp51
 70
     0
102
RTVSPropertyOp52
 70
     0
102
RTVSPropertyOp53
 70
     1
102
RTVSPropertyOp54
 70
     1
102
RTVSPropertyOp55
 70
     1
102
RTVSPropertyOp56
 70
     1
102
RTVSPropertyOp57
 70
     1
102
RTVSPropertyOp58
 70
     1
102
RTVSPropertyOp59
 70
     1
102
RTVSPropertyOp60
 70
     1
102
RTVSPropertyOp61
 70
     1
102
RTVSPropertyOp62
 70
     1
  0
XRECORD
  5
5138
102
{ACAD_REACTORS
330
5137
102
}
330
5137
100
AcDbXrecord
280
     1
102
RTVSPost2010Prop28
280
     0
102
RTVSPost2010PropOp28
 70
     1
102
RTVSPost2010Prop29
280
     1
102
RTVSPost2010PropOp29
 70
     1
102
RTVSPost2010Prop30
280
     1
102
RTVSPost2010PropOp30
 70
     1
102
RTVSPost2010Prop31
280
     0
102
RTVSPost2010PropOp31
 70
     1
102
RTVSPost2010Prop32
280
     0
102
RTVSPost2010PropOp32
 70
     1
102
RTVSPost2010Prop33
280
     0
102
RTVSPost2010PropOp33
 70
     1
102
RTVSPost2010Prop34
280
     0
102
RTVSPost2010PropOp34
 70
     1
102
RTVSPost2010Prop35
280
     0
102
RTVSPost2010PropOp35
 70
     1
102
RTVSPost2010Prop36
280
     0
102
RTVSPost2010PropOp36
 70
     1
102
RTVSPost2010Prop37
 90
       50
102
RTVSPost2010PropOp37
 70
     1
102
RTVSPost2010Prop38
140
0.0
102
RTVSPost2010PropOp38
 70
     1
102
RTVSPost2010Prop39
140
1.0
102
RTVSPost2010PropOp39
 70
     1
102
RTVSPost2010Prop40
 90
        0
102
RTVSPost2010PropOp40
 70
     1
102
RTVSPost2010Prop41ColorIndex
 90
       18
102
RTVSPost2010Prop41ColorRGB
 90
        0
102
RTVSPost2010PropOp41
 70
     1
102
RTVSPost2010Prop42
 90
       50
102
RTVSPost2010PropOp42
 70
     1
102
RTVSPost2010Prop43
 90
        3
102
RTVSPost2010PropOp43
 70
     1
102
RTVSPost2010Prop44ColorIndex
 90
        5
102
RTVSPost2010Prop44ColorRGB
 90
      255
102
RTVSPost2010PropOp44
 70
     1
102
RTVSPost2010Prop45
280
     0
102
RTVSPost2010PropOp45
 70
     1
102
RTVSPost2010Prop46
 90
       50
102
RTVSPost2010PropOp46
 70
     1
102
RTVSPost2010Prop47
 90
       50
102
RTVSPost2010PropOp47
 70
     1
102
RTVSPost2010Prop48
 90
       50
102
RTVSPost2010PropOp48
 70
     1
102
RTVSPost2010Prop49
280
     0
102
RTVSPost2010PropOp49
 70
     1
102
RTVSPost2010Prop50
 90
       50
102
RTVSPost2010PropOp50
 70
     1
102
RTVSPost2010Prop51ColorIndex
 90
      256
102
RTVSPost2010Prop51ColorRGB
 90
-16777216
102
RTVSPost2010PropOp51
 70
     0
102
RTVSPost2010Prop52
140
1.0
102
RTVSPost2010PropOp52
 70
     0
102
RTVSPost2010Prop53
 90
        2
102
RTVSPost2010PropOp53
 70
     1
102
RTVSPost2010Prop54
  1
strokes_ogs.tif
102
RTVSPost2010PropOp54
 70
     1
102
RTVSPost2010Prop55
280
     0
102
RTVSPost2010PropOp55
 70
     1
102
RTVSPost2010Prop56
140
1.0
102
RTVSPost2010PropOp56
 70
     1
102
RTVSPost2010Prop57
140
1.0
102
RTVSPost2010PropOp57
 70
     1
102
RTVSPropertyOp0
 70
     1
102
RTVSPropertyOp1
 70
     1
102
RTVSPropertyOp2
 70
     1
102
RTVSPropertyOp3
 70
     1
102
RTVSPropertyOp4
 70
     1
102
RTVSPropertyOp5
 70
     1
102
RTVSPropertyOp6
 70
     1
102
RTVSPropertyOp7
 70
     1
102
RTVSPropertyOp8
 70
     1
102
RTVSPropertyOp9
 70
     1
102
RTVSPropertyOp10
 70
     1
102
RTVSPropertyOp11
 70
     1
102
RTVSPropertyOp12
 70
     1
102
RTVSPropertyOp13
 70
     1
102
RTVSPropertyOp14
 70
     1
102
RTVSPropertyOp15
 70
     1
102
RTVSPropertyOp16
 70
     1
102
RTVSPropertyOp17
 70
     1
102
RTVSPropertyOp18
 70
     1
102
RTVSPropertyOp19
 70
     1
102
RTVSPropertyOp20
 70
     1
102
RTVSPropertyOp21
 70
     1
102
RTVSPropertyOp22
 70
     1
102
RTVSPropertyOp23
 70
     1
102
RTVSPropertyOp24
 70
     1
102
RTVSPropertyOp25
 70
     1
102
RTVSPropertyOp26
 70
     1
102
RTVSPropertyOp27
 70
     1
102
RTVSPropertyOp28
 70
     1
102
RTVSPropertyOp29
 70
     1
102
RTVSPropertyOp30
 70
     1
102
RTVSPropertyOp31
 70
     1
102
RTVSPropertyOp32
 70
     1
102
RTVSPropertyOp33
 70
     1
102
RTVSPropertyOp34
 70
     1
102
RTVSPropertyOp35
 70
     1
102
RTVSPropertyOp36
 70
     1
102
RTVSPropertyOp37
 70
     1
102
RTVSPropertyOp38
 70
     1
102
RTVSPropertyOp39
 70
     1
102
RTVSPropertyOp40
 70
     1
102
RTVSPropertyOp41
 70
     1
102
RTVSPropertyOp42
 70
     1
102
RTVSPropertyOp43
 70
     1
102
RTVSPropertyOp44
 70
     1
102
RTVSPropertyOp45
 70
     1
102
RTVSPropertyOp46
 70
     1
102
RTVSPropertyOp47
 70
     1
102
RTVSPropertyOp48
 70
     1
102
RTVSPropertyOp49
 70
     1
102
RTVSPropertyOp50
 70
     1
102
RTVSPropertyOp51
 70
     0
102
RTVSPropertyOp52
 70
     0
102
RTVSPropertyOp53
 70
     1
102
RTVSPropertyOp54
 70
     1
102
RTVSPropertyOp55
 70
     1
102
RTVSPropertyOp56
 70
     1
102
RTVSPropertyOp57
 70
     1
102
RTVSPropertyOp58
 70
     1
102
RTVSPropertyOp59
 70
     1
102
RTVSPropertyOp60
 70
     1
102
RTVSPropertyOp61
 70
     1
102
RTVSPropertyOp62
 70
     1
  0
XRECORD
  5
513A
102
{ACAD_REACTORS
330
5139
102
}
330
5139
100
AcDbXrecord
280
     1
102
RTVSPost2010Prop28
280
     0
102
RTVSPost2010PropOp28
 70
     1
102
RTVSPost2010Prop29
280
     1
102
RTVSPost2010PropOp29
 70
     1
102
RTVSPost2010Prop30
280
     1
102
RTVSPost2010PropOp30
 70
     1
102
RTVSPost2010Prop31
280
     0
102
RTVSPost2010PropOp31
 70
     1
102
RTVSPost2010Prop32
280
     0
102
RTVSPost2010PropOp32
 70
     1
102
RTVSPost2010Prop33
280
     0
102
RTVSPost2010PropOp33
 70
     1
102
RTVSPost2010Prop34
280
     0
102
RTVSPost2010PropOp34
 70
     1
102
RTVSPost2010Prop35
280
     0
102
RTVSPost2010PropOp35
 70
     1
102
RTVSPost2010Prop36
280
     0
102
RTVSPost2010PropOp36
 70
     1
102
RTVSPost2010Prop37
 90
       50
102
RTVSPost2010PropOp37
 70
     1
102
RTVSPost2010Prop38
140
0.0
102
RTVSPost2010PropOp38
 70
     1
102
RTVSPost2010Prop39
140
1.0
102
RTVSPost2010PropOp39
 70
     1
102
RTVSPost2010Prop40
 90
        0
102
RTVSPost2010PropOp40
 70
     1
102
RTVSPost2010Prop41ColorIndex
 90
       18
102
RTVSPost2010Prop41ColorRGB
 90
        0
102
RTVSPost2010PropOp41
 70
     1
102
RTVSPost2010Prop42
 90
       50
102
RTVSPost2010PropOp42
 70
     1
102
RTVSPost2010Prop43
 90
        3
102
RTVSPost2010PropOp43
 70
     1
102
RTVSPost2010Prop44ColorIndex
 90
        5
102
RTVSPost2010Prop44ColorRGB
 90
      255
102
RTVSPost2010PropOp44
 70
     1
102
RTVSPost2010Prop45
280
     0
102
RTVSPost2010PropOp45
 70
     1
102
RTVSPost2010Prop46
 90
       50
102
RTVSPost2010PropOp46
 70
     1
102
RTVSPost2010Prop47
 90
       50
102
RTVSPost2010PropOp47
 70
     1
102
RTVSPost2010Prop48
 90
       50
102
RTVSPost2010PropOp48
 70
     1
102
RTVSPost2010Prop49
280
     0
102
RTVSPost2010PropOp49
 70
     1
102
RTVSPost2010Prop50
 90
       50
102
RTVSPost2010PropOp50
 70
     1
102
RTVSPost2010Prop51ColorIndex
 90
      256
102
RTVSPost2010Prop51ColorRGB
 90
-16777216
102
RTVSPost2010PropOp51
 70
     0
102
RTVSPost2010Prop52
140
1.0
102
RTVSPost2010PropOp52
 70
     0
102
RTVSPost2010Prop53
 90
        2
102
RTVSPost2010PropOp53
 70
     1
102
RTVSPost2010Prop54
  1
strokes_ogs.tif
102
RTVSPost2010PropOp54
 70
     1
102
RTVSPost2010Prop55
280
     0
102
RTVSPost2010PropOp55
 70
     1
102
RTVSPost2010Prop56
140
1.0
102
RTVSPost2010PropOp56
 70
     1
102
RTVSPost2010Prop57
140
1.0
102
RTVSPost2010PropOp57
 70
     1
102
RTVSPropertyOp0
 70
     1
102
RTVSPropertyOp1
 70
     1
102
RTVSPropertyOp2
 70
     1
102
RTVSPropertyOp3
 70
     1
102
RTVSPropertyOp4
 70
     1
102
RTVSPropertyOp5
 70
     1
102
RTVSPropertyOp6
 70
     1
102
RTVSPropertyOp7
 70
     1
102
RTVSPropertyOp8
 70
     1
102
RTVSPropertyOp9
 70
     1
102
RTVSPropertyOp10
 70
     1
102
RTVSPropertyOp11
 70
     1
102
RTVSPropertyOp12
 70
     1
102
RTVSPropertyOp13
 70
     1
102
RTVSPropertyOp14
 70
     1
102
RTVSPropertyOp15
 70
     1
102
RTVSPropertyOp16
 70
     1
102
RTVSPropertyOp17
 70
     1
102
RTVSPropertyOp18
 70
     1
102
RTVSPropertyOp19
 70
     1
102
RTVSPropertyOp20
 70
     1
102
RTVSPropertyOp21
 70
     1
102
RTVSPropertyOp22
 70
     1
102
RTVSPropertyOp23
 70
     1
102
RTVSPropertyOp24
 70
     1
102
RTVSPropertyOp25
 70
     1
102
RTVSPropertyOp26
 70
     1
102
RTVSPropertyOp27
 70
     1
102
RTVSPropertyOp28
 70
     1
102
RTVSPropertyOp29
 70
     1
102
RTVSPropertyOp30
 70
     1
102
RTVSPropertyOp31
 70
     1
102
RTVSPropertyOp32
 70
     1
102
RTVSPropertyOp33
 70
     1
102
RTVSPropertyOp34
 70
     1
102
RTVSPropertyOp35
 70
     1
102
RTVSPropertyOp36
 70
     1
102
RTVSPropertyOp37
 70
     1
102
RTVSPropertyOp38
 70
     1
102
RTVSPropertyOp39
 70
     1
102
RTVSPropertyOp40
 70
     1
102
RTVSPropertyOp41
 70
     1
102
RTVSPropertyOp42
 70
     1
102
RTVSPropertyOp43
 70
     1
102
RTVSPropertyOp44
 70
     1
102
RTVSPropertyOp45
 70
     1
102
RTVSPropertyOp46
 70
     1
102
RTVSPropertyOp47
 70
     1
102
RTVSPropertyOp48
 70
     1
102
RTVSPropertyOp49
 70
     1
102
RTVSPropertyOp50
 70
     1
102
RTVSPropertyOp51
 70
     0
102
RTVSPropertyOp52
 70
     0
102
RTVSPropertyOp53
 70
     1
102
RTVSPropertyOp54
 70
     1
102
RTVSPropertyOp55
 70
     1
102
RTVSPropertyOp56
 70
     1
102
RTVSPropertyOp57
 70
     1
102
RTVSPropertyOp58
 70
     1
102
RTVSPropertyOp59
 70
     1
102
RTVSPropertyOp60
 70
     1
102
RTVSPropertyOp61
 70
     1
102
RTVSPropertyOp62
 70
     1
  0
XRECORD
  5
513C
102
{ACAD_REACTORS
330
513B
102
}
330
513B
100
AcDbXrecord
280
     1
102
RTVSPost2010Prop28
280
     0
102
RTVSPost2010PropOp28
 70
     1
102
RTVSPost2010Prop29
280
     1
102
RTVSPost2010PropOp29
 70
     1
102
RTVSPost2010Prop30
280
     1
102
RTVSPost2010PropOp30
 70
     1
102
RTVSPost2010Prop31
280
     0
102
RTVSPost2010PropOp31
 70
     1
102
RTVSPost2010Prop32
280
     0
102
RTVSPost2010PropOp32
 70
     1
102
RTVSPost2010Prop33
280
     0
102
RTVSPost2010PropOp33
 70
     1
102
RTVSPost2010Prop34
280
     0
102
RTVSPost2010PropOp34
 70
     1
102
RTVSPost2010Prop35
280
     0
102
RTVSPost2010PropOp35
 70
     1
102
RTVSPost2010Prop36
280
     0
102
RTVSPost2010PropOp36
 70
     1
102
RTVSPost2010Prop37
 90
       50
102
RTVSPost2010PropOp37
 70
     1
102
RTVSPost2010Prop38
140
0.0
102
RTVSPost2010PropOp38
 70
     1
102
RTVSPost2010Prop39
140
1.0
102
RTVSPost2010PropOp39
 70
     1
102
RTVSPost2010Prop40
 90
        0
102
RTVSPost2010PropOp40
 70
     1
102
RTVSPost2010Prop41ColorIndex
 90
       18
102
RTVSPost2010Prop41ColorRGB
 90
        0
102
RTVSPost2010PropOp41
 70
     1
102
RTVSPost2010Prop42
 90
       50
102
RTVSPost2010PropOp42
 70
     1
102
RTVSPost2010Prop43
 90
        3
102
RTVSPost2010PropOp43
 70
     1
102
RTVSPost2010Prop44ColorIndex
 90
        5
102
RTVSPost2010Prop44ColorRGB
 90
      255
102
RTVSPost2010PropOp44
 70
     1
102
RTVSPost2010Prop45
280
     0
102
RTVSPost2010PropOp45
 70
     1
102
RTVSPost2010Prop46
 90
       50
102
RTVSPost2010PropOp46
 70
     1
102
RTVSPost2010Prop47
 90
       50
102
RTVSPost2010PropOp47
 70
     1
102
RTVSPost2010Prop48
 90
       50
102
RTVSPost2010PropOp48
 70
     1
102
RTVSPost2010Prop49
280
     0
102
RTVSPost2010PropOp49
 70
     1
102
RTVSPost2010Prop50
 90
       50
102
RTVSPost2010PropOp50
 70
     1
102
RTVSPost2010Prop51ColorIndex
 90
      256
102
RTVSPost2010Prop51ColorRGB
 90
-16777216
102
RTVSPost2010PropOp51
 70
     0
102
RTVSPost2010Prop52
140
1.0
102
RTVSPost2010PropOp52
 70
     0
102
RTVSPost2010Prop53
 90
        2
102
RTVSPost2010PropOp53
 70
     1
102
RTVSPost2010Prop54
  1
strokes_ogs.tif
102
RTVSPost2010PropOp54
 70
     1
102
RTVSPost2010Prop55
280
     0
102
RTVSPost2010PropOp55
 70
     1
102
RTVSPost2010Prop56
140
1.0
102
RTVSPost2010PropOp56
 70
     1
102
RTVSPost2010Prop57
140
1.0
102
RTVSPost2010PropOp57
 70
     1
102
RTVSPropertyOp0
 70
     1
102
RTVSPropertyOp1
 70
     1
102
RTVSPropertyOp2
 70
     1
102
RTVSPropertyOp3
 70
     1
102
RTVSPropertyOp4
 70
     1
102
RTVSPropertyOp5
 70
     1
102
RTVSPropertyOp6
 70
     1
102
RTVSPropertyOp7
 70
     1
102
RTVSPropertyOp8
 70
     1
102
RTVSPropertyOp9
 70
     1
102
RTVSPropertyOp10
 70
     1
102
RTVSPropertyOp11
 70
     1
102
RTVSPropertyOp12
 70
     1
102
RTVSPropertyOp13
 70
     1
102
RTVSPropertyOp14
 70
     1
102
RTVSPropertyOp15
 70
     1
102
RTVSPropertyOp16
 70
     1
102
RTVSPropertyOp17
 70
     1
102
RTVSPropertyOp18
 70
     1
102
RTVSPropertyOp19
 70
     1
102
RTVSPropertyOp20
 70
     1
102
RTVSPropertyOp21
 70
     1
102
RTVSPropertyOp22
 70
     1
102
RTVSPropertyOp23
 70
     1
102
RTVSPropertyOp24
 70
     1
102
RTVSPropertyOp25
 70
     1
102
RTVSPropertyOp26
 70
     1
102
RTVSPropertyOp27
 70
     1
102
RTVSPropertyOp28
 70
     1
102
RTVSPropertyOp29
 70
     1
102
RTVSPropertyOp30
 70
     1
102
RTVSPropertyOp31
 70
     1
102
RTVSPropertyOp32
 70
     1
102
RTVSPropertyOp33
 70
     1
102
RTVSPropertyOp34
 70
     1
102
RTVSPropertyOp35
 70
     1
102
RTVSPropertyOp36
 70
     1
102
RTVSPropertyOp37
 70
     1
102
RTVSPropertyOp38
 70
     1
102
RTVSPropertyOp39
 70
     1
102
RTVSPropertyOp40
 70
     1
102
RTVSPropertyOp41
 70
     1
102
RTVSPropertyOp42
 70
     1
102
RTVSPropertyOp43
 70
     1
102
RTVSPropertyOp44
 70
     1
102
RTVSPropertyOp45
 70
     1
102
RTVSPropertyOp46
 70
     1
102
RTVSPropertyOp47
 70
     1
102
RTVSPropertyOp48
 70
     1
102
RTVSPropertyOp49
 70
     1
102
RTVSPropertyOp50
 70
     1
102
RTVSPropertyOp51
 70
     0
102
RTVSPropertyOp52
 70
     0
102
RTVSPropertyOp53
 70
     1
102
RTVSPropertyOp54
 70
     1
102
RTVSPropertyOp55
 70
     1
102
RTVSPropertyOp56
 70
     1
102
RTVSPropertyOp57
 70
     1
102
RTVSPropertyOp58
 70
     1
102
RTVSPropertyOp59
 70
     1
102
RTVSPropertyOp60
 70
     1
102
RTVSPropertyOp61
 70
     1
102
RTVSPropertyOp62
 70
     1
  0
XRECORD
  5
513E
102
{ACAD_REACTORS
330
513D
102
}
330
513D
100
AcDbXrecord
280
     1
102
RTVSPost2010Prop28
280
     0
102
RTVSPost2010PropOp28
 70
     1
102
RTVSPost2010Prop29
280
     1
102
RTVSPost2010PropOp29
 70
     1
102
RTVSPost2010Prop30
280
     1
102
RTVSPost2010PropOp30
 70
     1
102
RTVSPost2010Prop31
280
     0
102
RTVSPost2010PropOp31
 70
     1
102
RTVSPost2010Prop32
280
     0
102
RTVSPost2010PropOp32
 70
     1
102
RTVSPost2010Prop33
280
     0
102
RTVSPost2010PropOp33
 70
     1
102
RTVSPost2010Prop34
280
     0
102
RTVSPost2010PropOp34
 70
     1
102
RTVSPost2010Prop35
280
     0
102
RTVSPost2010PropOp35
 70
     1
102
RTVSPost2010Prop36
280
     0
102
RTVSPost2010PropOp36
 70
     1
102
RTVSPost2010Prop37
 90
       50
102
RTVSPost2010PropOp37
 70
     1
102
RTVSPost2010Prop38
140
0.0
102
RTVSPost2010PropOp38
 70
     1
102
RTVSPost2010Prop39
140
1.0
102
RTVSPost2010PropOp39
 70
     1
102
RTVSPost2010Prop40
 90
        0
102
RTVSPost2010PropOp40
 70
     1
102
RTVSPost2010Prop41ColorIndex
 90
       18
102
RTVSPost2010Prop41ColorRGB
 90
        0
102
RTVSPost2010PropOp41
 70
     1
102
RTVSPost2010Prop42
 90
       50
102
RTVSPost2010PropOp42
 70
     1
102
RTVSPost2010Prop43
 90
        3
102
RTVSPost2010PropOp43
 70
     1
102
RTVSPost2010Prop44ColorIndex
 90
        5
102
RTVSPost2010Prop44ColorRGB
 90
      255
102
RTVSPost2010PropOp44
 70
     1
102
RTVSPost2010Prop45
280
     0
102
RTVSPost2010PropOp45
 70
     1
102
RTVSPost2010Prop46
 90
       50
102
RTVSPost2010PropOp46
 70
     1
102
RTVSPost2010Prop47
 90
       50
102
RTVSPost2010PropOp47
 70
     1
102
RTVSPost2010Prop48
 90
       50
102
RTVSPost2010PropOp48
 70
     1
102
RTVSPost2010Prop49
280
     0
102
RTVSPost2010PropOp49
 70
     1
102
RTVSPost2010Prop50
 90
       50
102
RTVSPost2010PropOp50
 70
     1
102
RTVSPost2010Prop51ColorIndex
 90
      256
102
RTVSPost2010Prop51ColorRGB
 90
-16777216
102
RTVSPost2010PropOp51
 70
     0
102
RTVSPost2010Prop52
140
1.0
102
RTVSPost2010PropOp52
 70
     0
102
RTVSPost2010Prop53
 90
        2
102
RTVSPost2010PropOp53
 70
     1
102
RTVSPost2010Prop54
  1
strokes_ogs.tif
102
RTVSPost2010PropOp54
 70
     1
102
RTVSPost2010Prop55
280
     0
102
RTVSPost2010PropOp55
 70
     1
102
RTVSPost2010Prop56
140
1.0
102
RTVSPost2010PropOp56
 70
     1
102
RTVSPost2010Prop57
140
1.0
102
RTVSPost2010PropOp57
 70
     1
102
RTVSPropertyOp0
 70
     1
102
RTVSPropertyOp1
 70
     1
102
RTVSPropertyOp2
 70
     1
102
RTVSPropertyOp3
 70
     1
102
RTVSPropertyOp4
 70
     1
102
RTVSPropertyOp5
 70
     1
102
RTVSPropertyOp6
 70
     1
102
RTVSPropertyOp7
 70
     1
102
RTVSPropertyOp8
 70
     1
102
RTVSPropertyOp9
 70
     1
102
RTVSPropertyOp10
 70
     1
102
RTVSPropertyOp11
 70
     1
102
RTVSPropertyOp12
 70
     1
102
RTVSPropertyOp13
 70
     1
102
RTVSPropertyOp14
 70
     1
102
RTVSPropertyOp15
 70
     1
102
RTVSPropertyOp16
 70
     1
102
RTVSPropertyOp17
 70
     1
102
RTVSPropertyOp18
 70
     1
102
RTVSPropertyOp19
 70
     1
102
RTVSPropertyOp20
 70
     1
102
RTVSPropertyOp21
 70
     1
102
RTVSPropertyOp22
 70
     1
102
RTVSPropertyOp23
 70
     1
102
RTVSPropertyOp24
 70
     1
102
RTVSPropertyOp25
 70
     1
102
RTVSPropertyOp26
 70
     1
102
RTVSPropertyOp27
 70
     1
102
RTVSPropertyOp28
 70
     1
102
RTVSPropertyOp29
 70
     1
102
RTVSPropertyOp30
 70
     1
102
RTVSPropertyOp31
 70
     1
102
RTVSPropertyOp32
 70
     1
102
RTVSPropertyOp33
 70
     1
102
RTVSPropertyOp34
 70
     1
102
RTVSPropertyOp35
 70
     1
102
RTVSPropertyOp36
 70
     1
102
RTVSPropertyOp37
 70
     1
102
RTVSPropertyOp38
 70
     1
102
RTVSPropertyOp39
 70
     1
102
RTVSPropertyOp40
 70
     1
102
RTVSPropertyOp41
 70
     1
102
RTVSPropertyOp42
 70
     1
102
RTVSPropertyOp43
 70
     1
102
RTVSPropertyOp44
 70
     1
102
RTVSPropertyOp45
 70
     1
102
RTVSPropertyOp46
 70
     1
102
RTVSPropertyOp47
 70
     1
102
RTVSPropertyOp48
 70
     1
102
RTVSPropertyOp49
 70
     1
102
RTVSPropertyOp50
 70
     1
102
RTVSPropertyOp51
 70
     0
102
RTVSPropertyOp52
 70
     0
102
RTVSPropertyOp53
 70
     1
102
RTVSPropertyOp54
 70
     1
102
RTVSPropertyOp55
 70
     1
102
RTVSPropertyOp56
 70
     1
102
RTVSPropertyOp57
 70
     1
102
RTVSPropertyOp58
 70
     1
102
RTVSPropertyOp59
 70
     1
102
RTVSPropertyOp60
 70
     1
102
RTVSPropertyOp61
 70
     1
102
RTVSPropertyOp62
 70
     1
  0
XRECORD
  5
5146
102
{ACAD_REACTORS
330
5145
102
}
330
5145
100
AcDbXrecord
280
     1
102
RTVSPost2010Prop28
280
     0
102
RTVSPost2010PropOp28
 70
     1
102
RTVSPost2010Prop29
280
     1
102
RTVSPost2010PropOp29
 70
     1
102
RTVSPost2010Prop30
280
     1
102
RTVSPost2010PropOp30
 70
     1
102
RTVSPost2010Prop31
280
     0
102
RTVSPost2010PropOp31
 70
     1
102
RTVSPost2010Prop32
280
     0
102
RTVSPost2010PropOp32
 70
     1
102
RTVSPost2010Prop33
280
     0
102
RTVSPost2010PropOp33
 70
     1
102
RTVSPost2010Prop34
280
     0
102
RTVSPost2010PropOp34
 70
     1
102
RTVSPost2010Prop35
280
     0
102
RTVSPost2010PropOp35
 70
     1
102
RTVSPost2010Prop36
280
     0
102
RTVSPost2010PropOp36
 70
     1
102
RTVSPost2010Prop37
 90
       50
102
RTVSPost2010PropOp37
 70
     1
102
RTVSPost2010Prop38
140
0.0
102
RTVSPost2010PropOp38
 70
     1
102
RTVSPost2010Prop39
140
1.0
102
RTVSPost2010PropOp39
 70
     1
102
RTVSPost2010Prop40
 90
        0
102
RTVSPost2010PropOp40
 70
     1
102
RTVSPost2010Prop41ColorIndex
 90
       18
102
RTVSPost2010Prop41ColorRGB
 90
        0
102
RTVSPost2010PropOp41
 70
     1
102
RTVSPost2010Prop42
 90
       50
102
RTVSPost2010PropOp42
 70
     1
102
RTVSPost2010Prop43
 90
        3
102
RTVSPost2010PropOp43
 70
     1
102
RTVSPost2010Prop44ColorIndex
 90
        5
102
RTVSPost2010Prop44ColorRGB
 90
      255
102
RTVSPost2010PropOp44
 70
     1
102
RTVSPost2010Prop45
280
     0
102
RTVSPost2010PropOp45
 70
     1
102
RTVSPost2010Prop46
 90
       50
102
RTVSPost2010PropOp46
 70
     1
102
RTVSPost2010Prop47
 90
       50
102
RTVSPost2010PropOp47
 70
     1
102
RTVSPost2010Prop48
 90
       50
102
RTVSPost2010PropOp48
 70
     1
102
RTVSPost2010Prop49
280
     0
102
RTVSPost2010PropOp49
 70
     1
102
RTVSPost2010Prop50
 90
       50
102
RTVSPost2010PropOp50
 70
     1
102
RTVSPost2010Prop51ColorIndex
 90
      256
102
RTVSPost2010Prop51ColorRGB
 90
-16777216
102
RTVSPost2010PropOp51
 70
     0
102
RTVSPost2010Prop52
140
1.0
102
RTVSPost2010PropOp52
 70
     0
102
RTVSPost2010Prop53
 90
        2
102
RTVSPost2010PropOp53
 70
     1
102
RTVSPost2010Prop54
  1
strokes_ogs.tif
102
RTVSPost2010PropOp54
 70
     1
102
RTVSPost2010Prop55
280
     0
102
RTVSPost2010PropOp55
 70
     1
102
RTVSPost2010Prop56
140
1.0
102
RTVSPost2010PropOp56
 70
     1
102
RTVSPost2010Prop57
140
1.0
102
RTVSPost2010PropOp57
 70
     1
102
RTVSPropertyOp0
 70
     1
102
RTVSPropertyOp1
 70
     1
102
RTVSPropertyOp2
 70
     1
102
RTVSPropertyOp3
 70
     1
102
RTVSPropertyOp4
 70
     1
102
RTVSPropertyOp5
 70
     1
102
RTVSPropertyOp6
 70
     1
102
RTVSPropertyOp7
 70
     1
102
RTVSPropertyOp8
 70
     1
102
RTVSPropertyOp9
 70
     1
102
RTVSPropertyOp10
 70
     1
102
RTVSPropertyOp11
 70
     1
102
RTVSPropertyOp12
 70
     1
102
RTVSPropertyOp13
 70
     1
102
RTVSPropertyOp14
 70
     1
102
RTVSPropertyOp15
 70
     1
102
RTVSPropertyOp16
 70
     1
102
RTVSPropertyOp17
 70
     1
102
RTVSPropertyOp18
 70
     1
102
RTVSPropertyOp19
 70
     1
102
RTVSPropertyOp20
 70
     1
102
RTVSPropertyOp21
 70
     1
102
RTVSPropertyOp22
 70
     1
102
RTVSPropertyOp23
 70
     1
102
RTVSPropertyOp24
 70
     1
102
RTVSPropertyOp25
 70
     1
102
RTVSPropertyOp26
 70
     1
102
RTVSPropertyOp27
 70
     1
102
RTVSPropertyOp28
 70
     1
102
RTVSPropertyOp29
 70
     1
102
RTVSPropertyOp30
 70
     1
102
RTVSPropertyOp31
 70
     1
102
RTVSPropertyOp32
 70
     1
102
RTVSPropertyOp33
 70
     1
102
RTVSPropertyOp34
 70
     1
102
RTVSPropertyOp35
 70
     1
102
RTVSPropertyOp36
 70
     1
102
RTVSPropertyOp37
 70
     1
102
RTVSPropertyOp38
 70
     1
102
RTVSPropertyOp39
 70
     1
102
RTVSPropertyOp40
 70
     1
102
RTVSPropertyOp41
 70
     1
102
RTVSPropertyOp42
 70
     1
102
RTVSPropertyOp43
 70
     1
102
RTVSPropertyOp44
 70
     1
102
RTVSPropertyOp45
 70
     1
102
RTVSPropertyOp46
 70
     1
102
RTVSPropertyOp47
 70
     1
102
RTVSPropertyOp48
 70
     1
102
RTVSPropertyOp49
 70
     1
102
RTVSPropertyOp50
 70
     1
102
RTVSPropertyOp51
 70
     0
102
RTVSPropertyOp52
 70
     0
102
RTVSPropertyOp53
 70
     1
102
RTVSPropertyOp54
 70
     1
102
RTVSPropertyOp55
 70
     1
102
RTVSPropertyOp56
 70
     1
102
RTVSPropertyOp57
 70
     1
102
RTVSPropertyOp58
 70
     1
102
RTVSPropertyOp59
 70
     1
102
RTVSPropertyOp60
 70
     1
102
RTVSPropertyOp61
 70
     1
102
RTVSPropertyOp62
 70
     1
  0
XRECORD
  5
5162
102
{ACAD_REACTORS
330
5161
102
}
330
5161
100
AcDbXrecord
280
     1
102
RTVSPost2010Prop28
280
     0
102
RTVSPost2010PropOp28
 70
     1
102
RTVSPost2010Prop29
280
     1
102
RTVSPost2010PropOp29
 70
     1
102
RTVSPost2010Prop30
280
     1
102
RTVSPost2010PropOp30
 70
     1
102
RTVSPost2010Prop31
280
     0
102
RTVSPost2010PropOp31
 70
     1
102
RTVSPost2010Prop32
280
     0
102
RTVSPost2010PropOp32
 70
     1
102
RTVSPost2010Prop33
280
     0
102
RTVSPost2010PropOp33
 70
     1
102
RTVSPost2010Prop34
280
     0
102
RTVSPost2010PropOp34
 70
     1
102
RTVSPost2010Prop35
280
     0
102
RTVSPost2010PropOp35
 70
     1
102
RTVSPost2010Prop36
280
     0
102
RTVSPost2010PropOp36
 70
     1
102
RTVSPost2010Prop37
 90
       50
102
RTVSPost2010PropOp37
 70
     0
102
RTVSPost2010Prop38
140
0.0
102
RTVSPost2010PropOp38
 70
     0
102
RTVSPost2010Prop39
140
1.0
102
RTVSPost2010PropOp39
 70
     0
102
RTVSPost2010Prop40
 90
        0
102
RTVSPost2010PropOp40
 70
     0
102
RTVSPost2010Prop41ColorIndex
 90
       18
102
RTVSPost2010Prop41ColorRGB
 90
        0
102
RTVSPost2010PropOp41
 70
     0
102
RTVSPost2010Prop42
 90
       50
102
RTVSPost2010PropOp42
 70
     0
102
RTVSPost2010Prop43
 90
        3
102
RTVSPost2010PropOp43
 70
     0
102
RTVSPost2010Prop44ColorIndex
 90
        5
102
RTVSPost2010Prop44ColorRGB
 90
      255
102
RTVSPost2010PropOp44
 70
     0
102
RTVSPost2010Prop45
280
     0
102
RTVSPost2010PropOp45
 70
     1
102
RTVSPost2010Prop46
 90
       50
102
RTVSPost2010PropOp46
 70
     0
102
RTVSPost2010Prop47
 90
       50
102
RTVSPost2010PropOp47
 70
     0
102
RTVSPost2010Prop48
 90
       50
102
RTVSPost2010PropOp48
 70
     0
102
RTVSPost2010Prop49
280
     0
102
RTVSPost2010PropOp49
 70
     1
102
RTVSPost2010Prop50
 90
       50
102
RTVSPost2010PropOp50
 70
     0
102
RTVSPost2010Prop51ColorIndex
 90
      256
102
RTVSPost2010Prop51ColorRGB
 90
-16777216
102
RTVSPost2010PropOp51
 70
     0
102
RTVSPost2010Prop52
140
1.0
102
RTVSPost2010PropOp52
 70
     0
102
RTVSPost2010Prop53
 90
        2
102
RTVSPost2010PropOp53
 70
     0
102
RTVSPost2010Prop54
  1
strokes_ogs.tif
102
RTVSPost2010PropOp54
 70
     0
102
RTVSPost2010Prop55
280
     0
102
RTVSPost2010PropOp55
 70
     1
102
RTVSPost2010Prop56
140
1.0
102
RTVSPost2010PropOp56
 70
     0
102
RTVSPost2010Prop57
140
1.0
102
RTVSPost2010PropOp57
 70
     0
102
RTVSPropertyOp0
 70
     0
102
RTVSPropertyOp1
 70
     0
102
RTVSPropertyOp2
 70
     0
102
RTVSPropertyOp3
 70
     0
102
RTVSPropertyOp4
 70
     0
102
RTVSPropertyOp5
 70
     0
102
RTVSPropertyOp6
 70
     0
102
RTVSPropertyOp7
 70
     0
102
RTVSPropertyOp8
 70
     0
102
RTVSPropertyOp9
 70
     0
102
RTVSPropertyOp10
 70
     0
102
RTVSPropertyOp11
 70
     0
102
RTVSPropertyOp12
 70
     0
102
RTVSPropertyOp13
 70
     0
102
RTVSPropertyOp14
 70
     2
102
RTVSPropertyOp15
 70
     0
102
RTVSPropertyOp16
 70
     0
102
RTVSPropertyOp17
 70
     0
102
RTVSPropertyOp18
 70
     0
102
RTVSPropertyOp19
 70
     0
102
RTVSPropertyOp20
 70
     0
102
RTVSPropertyOp21
 70
     0
102
RTVSPropertyOp22
 70
     0
102
RTVSPropertyOp23
 70
     0
102
RTVSPropertyOp24
 70
     0
102
RTVSPropertyOp25
 70
     0
102
RTVSPropertyOp26
 70
     0
102
RTVSPropertyOp27
 70
     0
102
RTVSPropertyOp28
 70
     1
102
RTVSPropertyOp29
 70
     1
102
RTVSPropertyOp30
 70
     1
102
RTVSPropertyOp31
 70
     1
102
RTVSPropertyOp32
 70
     1
102
RTVSPropertyOp33
 70
     1
102
RTVSPropertyOp34
 70
     1
102
RTVSPropertyOp35
 70
     1
102
RTVSPropertyOp36
 70
     1
102
RTVSPropertyOp37
 70
     0
102
RTVSPropertyOp38
 70
     0
102
RTVSPropertyOp39
 70
     0
102
RTVSPropertyOp40
 70
     0
102
RTVSPropertyOp41
 70
     0
102
RTVSPropertyOp42
 70
     0
102
RTVSPropertyOp43
 70
     0
102
RTVSPropertyOp44
 70
     0
102
RTVSPropertyOp45
 70
     1
102
RTVSPropertyOp46
 70
     0
102
RTVSPropertyOp47
 70
     0
102
RTVSPropertyOp48
 70
     0
102
RTVSPropertyOp49
 70
     1
102
RTVSPropertyOp50
 70
     0
102
RTVSPropertyOp51
 70
     0
102
RTVSPropertyOp52
 70
     0
102
RTVSPropertyOp53
 70
     0
102
RTVSPropertyOp54
 70
     0
102
RTVSPropertyOp55
 70
     1
102
RTVSPropertyOp56
 70
     0
102
RTVSPropertyOp57
 70
     0
102
RTVSPropertyOp58
 70
     0
102
RTVSPropertyOp59
 70
     0
102
RTVSPropertyOp60
 70
     0
102
RTVSPropertyOp61
 70
     0
102
RTVSPropertyOp62
 70
     0
  0
XRECORD
  5
5152
102
{ACAD_REACTORS
330
5151
102
}
330
5151
100
AcDbXrecord
280
     1
102
RTVSPost2010Prop28
280
     0
102
RTVSPost2010PropOp28
 70
     1
102
RTVSPost2010Prop29
280
     1
102
RTVSPost2010PropOp29
 70
     1
102
RTVSPost2010Prop30
280
     1
102
RTVSPost2010PropOp30
 70
     1
102
RTVSPost2010Prop31
280
     0
102
RTVSPost2010PropOp31
 70
     1
102
RTVSPost2010Prop32
280
     0
102
RTVSPost2010PropOp32
 70
     1
102
RTVSPost2010Prop33
280
     0
102
RTVSPost2010PropOp33
 70
     1
102
RTVSPost2010Prop34
280
     0
102
RTVSPost2010PropOp34
 70
     1
102
RTVSPost2010Prop35
280
     0
102
RTVSPost2010PropOp35
 70
     1
102
RTVSPost2010Prop36
280
     0
102
RTVSPost2010PropOp36
 70
     1
102
RTVSPost2010Prop37
 90
       50
102
RTVSPost2010PropOp37
 70
     1
102
RTVSPost2010Prop38
140
0.0
102
RTVSPost2010PropOp38
 70
     1
102
RTVSPost2010Prop39
140
1.0
102
RTVSPost2010PropOp39
 70
     1
102
RTVSPost2010Prop40
 90
        0
102
RTVSPost2010PropOp40
 70
     1
102
RTVSPost2010Prop41ColorIndex
 90
       18
102
RTVSPost2010Prop41ColorRGB
 90
        0
102
RTVSPost2010PropOp41
 70
     1
102
RTVSPost2010Prop42
 90
       50
102
RTVSPost2010PropOp42
 70
     1
102
RTVSPost2010Prop43
 90
        3
102
RTVSPost2010PropOp43
 70
     1
102
RTVSPost2010Prop44ColorIndex
 90
        5
102
RTVSPost2010Prop44ColorRGB
 90
      255
102
RTVSPost2010PropOp44
 70
     1
102
RTVSPost2010Prop45
280
     0
102
RTVSPost2010PropOp45
 70
     1
102
RTVSPost2010Prop46
 90
       50
102
RTVSPost2010PropOp46
 70
     1
102
RTVSPost2010Prop47
 90
       50
102
RTVSPost2010PropOp47
 70
     1
102
RTVSPost2010Prop48
 90
       50
102
RTVSPost2010PropOp48
 70
     1
102
RTVSPost2010Prop49
280
     0
102
RTVSPost2010PropOp49
 70
     1
102
RTVSPost2010Prop50
 90
       50
102
RTVSPost2010PropOp50
 70
     1
102
RTVSPost2010Prop51ColorIndex
 90
      256
102
RTVSPost2010Prop51ColorRGB
 90
-16777216
102
RTVSPost2010PropOp51
 70
     0
102
RTVSPost2010Prop52
140
1.0
102
RTVSPost2010PropOp52
 70
     0
102
RTVSPost2010Prop53
 90
        2
102
RTVSPost2010PropOp53
 70
     1
102
RTVSPost2010Prop54
  1
strokes_ogs.tif
102
RTVSPost2010PropOp54
 70
     1
102
RTVSPost2010Prop55
280
     0
102
RTVSPost2010PropOp55
 70
     1
102
RTVSPost2010Prop56
140
1.0
102
RTVSPost2010PropOp56
 70
     1
102
RTVSPost2010Prop57
140
1.0
102
RTVSPost2010PropOp57
 70
     1
102
RTVSPropertyOp0
 70
     1
102
RTVSPropertyOp1
 70
     1
102
RTVSPropertyOp2
 70
     1
102
RTVSPropertyOp3
 70
     1
102
RTVSPropertyOp4
 70
     1
102
RTVSPropertyOp5
 70
     1
102
RTVSPropertyOp6
 70
     1
102
RTVSPropertyOp7
 70
     1
102
RTVSPropertyOp8
 70
     1
102
RTVSPropertyOp9
 70
     1
102
RTVSPropertyOp10
 70
     1
102
RTVSPropertyOp11
 70
     1
102
RTVSPropertyOp12
 70
     1
102
RTVSPropertyOp13
 70
     1
102
RTVSPropertyOp14
 70
     1
102
RTVSPropertyOp15
 70
     1
102
RTVSPropertyOp16
 70
     1
102
RTVSPropertyOp17
 70
     1
102
RTVSPropertyOp18
 70
     1
102
RTVSPropertyOp19
 70
     1
102
RTVSPropertyOp20
 70
     1
102
RTVSPropertyOp21
 70
     1
102
RTVSPropertyOp22
 70
     1
102
RTVSPropertyOp23
 70
     1
102
RTVSPropertyOp24
 70
     1
102
RTVSPropertyOp25
 70
     1
102
RTVSPropertyOp26
 70
     1
102
RTVSPropertyOp27
 70
     1
102
RTVSPropertyOp28
 70
     1
102
RTVSPropertyOp29
 70
     1
102
RTVSPropertyOp30
 70
     1
102
RTVSPropertyOp31
 70
     1
102
RTVSPropertyOp32
 70
     1
102
RTVSPropertyOp33
 70
     1
102
RTVSPropertyOp34
 70
     1
102
RTVSPropertyOp35
 70
     1
102
RTVSPropertyOp36
 70
     1
102
RTVSPropertyOp37
 70
     1
102
RTVSPropertyOp38
 70
     1
102
RTVSPropertyOp39
 70
     1
102
RTVSPropertyOp40
 70
     1
102
RTVSPropertyOp41
 70
     1
102
RTVSPropertyOp42
 70
     1
102
RTVSPropertyOp43
 70
     1
102
RTVSPropertyOp44
 70
     1
102
RTVSPropertyOp45
 70
     1
102
RTVSPropertyOp46
 70
     1
102
RTVSPropertyOp47
 70
     1
102
RTVSPropertyOp48
 70
     1
102
RTVSPropertyOp49
 70
     1
102
RTVSPropertyOp50
 70
     1
102
RTVSPropertyOp51
 70
     0
102
RTVSPropertyOp52
 70
     0
102
RTVSPropertyOp53
 70
     1
102
RTVSPropertyOp54
 70
     1
102
RTVSPropertyOp55
 70
     1
102
RTVSPropertyOp56
 70
     1
102
RTVSPropertyOp57
 70
     1
102
RTVSPropertyOp58
 70
     1
102
RTVSPropertyOp59
 70
     1
102
RTVSPropertyOp60
 70
     1
102
RTVSPropertyOp61
 70
     1
102
RTVSPropertyOp62
 70
     1
  0
XRECORD
  5
5164
102
{ACAD_REACTORS
330
5163
102
}
330
5163
100
AcDbXrecord
280
     1
102
RTVSPost2010Prop28
280
     0
102
RTVSPost2010PropOp28
 70
     1
102
RTVSPost2010Prop29
280
     1
102
RTVSPost2010PropOp29
 70
     1
102
RTVSPost2010Prop30
280
     1
102
RTVSPost2010PropOp30
 70
     1
102
RTVSPost2010Prop31
280
     0
102
RTVSPost2010PropOp31
 70
     1
102
RTVSPost2010Prop32
280
     0
102
RTVSPost2010PropOp32
 70
     1
102
RTVSPost2010Prop33
280
     0
102
RTVSPost2010PropOp33
 70
     1
102
RTVSPost2010Prop34
280
     0
102
RTVSPost2010PropOp34
 70
     1
102
RTVSPost2010Prop35
280
     0
102
RTVSPost2010PropOp35
 70
     1
102
RTVSPost2010Prop36
280
     0
102
RTVSPost2010PropOp36
 70
     1
102
RTVSPost2010Prop37
 90
       50
102
RTVSPost2010PropOp37
 70
     0
102
RTVSPost2010Prop38
140
0.0
102
RTVSPost2010PropOp38
 70
     0
102
RTVSPost2010Prop39
140
1.0
102
RTVSPost2010PropOp39
 70
     0
102
RTVSPost2010Prop40
 90
        0
102
RTVSPost2010PropOp40
 70
     0
102
RTVSPost2010Prop41ColorIndex
 90
       18
102
RTVSPost2010Prop41ColorRGB
 90
        0
102
RTVSPost2010PropOp41
 70
     0
102
RTVSPost2010Prop42
 90
       50
102
RTVSPost2010PropOp42
 70
     0
102
RTVSPost2010Prop43
 90
        3
102
RTVSPost2010PropOp43
 70
     0
102
RTVSPost2010Prop44ColorIndex
 90
        5
102
RTVSPost2010Prop44ColorRGB
 90
      255
102
RTVSPost2010PropOp44
 70
     0
102
RTVSPost2010Prop45
280
     0
102
RTVSPost2010PropOp45
 70
     1
102
RTVSPost2010Prop46
 90
       50
102
RTVSPost2010PropOp46
 70
     0
102
RTVSPost2010Prop47
 90
       50
102
RTVSPost2010PropOp47
 70
     0
102
RTVSPost2010Prop48
 90
       50
102
RTVSPost2010PropOp48
 70
     0
102
RTVSPost2010Prop49
280
     0
102
RTVSPost2010PropOp49
 70
     1
102
RTVSPost2010Prop50
 90
       50
102
RTVSPost2010PropOp50
 70
     0
102
RTVSPost2010Prop51ColorIndex
 90
      256
102
RTVSPost2010Prop51ColorRGB
 90
-16777216
102
RTVSPost2010PropOp51
 70
     0
102
RTVSPost2010Prop52
140
1.0
102
RTVSPost2010PropOp52
 70
     0
102
RTVSPost2010Prop53
 90
        2
102
RTVSPost2010PropOp53
 70
     0
102
RTVSPost2010Prop54
  1
strokes_ogs.tif
102
RTVSPost2010PropOp54
 70
     0
102
RTVSPost2010Prop55
280
     0
102
RTVSPost2010PropOp55
 70
     1
102
RTVSPost2010Prop56
140
1.0
102
RTVSPost2010PropOp56
 70
     0
102
RTVSPost2010Prop57
140
1.0
102
RTVSPost2010PropOp57
 70
     0
102
RTVSPropertyOp0
 70
     0
102
RTVSPropertyOp1
 70
     0
102
RTVSPropertyOp2
 70
     0
102
RTVSPropertyOp3
 70
     0
102
RTVSPropertyOp4
 70
     0
102
RTVSPropertyOp5
 70
     0
102
RTVSPropertyOp6
 70
     0
102
RTVSPropertyOp7
 70
     0
102
RTVSPropertyOp8
 70
     0
102
RTVSPropertyOp9
 70
     0
102
RTVSPropertyOp10
 70
     0
102
RTVSPropertyOp11
 70
     0
102
RTVSPropertyOp12
 70
     0
102
RTVSPropertyOp13
 70
     0
102
RTVSPropertyOp14
 70
     2
102
RTVSPropertyOp15
 70
     0
102
RTVSPropertyOp16
 70
     0
102
RTVSPropertyOp17
 70
     0
102
RTVSPropertyOp18
 70
     0
102
RTVSPropertyOp19
 70
     0
102
RTVSPropertyOp20
 70
     0
102
RTVSPropertyOp21
 70
     0
102
RTVSPropertyOp22
 70
     0
102
RTVSPropertyOp23
 70
     0
102
RTVSPropertyOp24
 70
     0
102
RTVSPropertyOp25
 70
     0
102
RTVSPropertyOp26
 70
     0
102
RTVSPropertyOp27
 70
     0
102
RTVSPropertyOp28
 70
     1
102
RTVSPropertyOp29
 70
     1
102
RTVSPropertyOp30
 70
     1
102
RTVSPropertyOp31
 70
     1
102
RTVSPropertyOp32
 70
     1
102
RTVSPropertyOp33
 70
     1
102
RTVSPropertyOp34
 70
     1
102
RTVSPropertyOp35
 70
     1
102
RTVSPropertyOp36
 70
     1
102
RTVSPropertyOp37
 70
     0
102
RTVSPropertyOp38
 70
     0
102
RTVSPropertyOp39
 70
     0
102
RTVSPropertyOp40
 70
     0
102
RTVSPropertyOp41
 70
     0
102
RTVSPropertyOp42
 70
     0
102
RTVSPropertyOp43
 70
     0
102
RTVSPropertyOp44
 70
     0
102
RTVSPropertyOp45
 70
     1
102
RTVSPropertyOp46
 70
     0
102
RTVSPropertyOp47
 70
     0
102
RTVSPropertyOp48
 70
     0
102
RTVSPropertyOp49
 70
     1
102
RTVSPropertyOp50
 70
     0
102
RTVSPropertyOp51
 70
     0
102
RTVSPropertyOp52
 70
     0
102
RTVSPropertyOp53
 70
     0
102
RTVSPropertyOp54
 70
     0
102
RTVSPropertyOp55
 70
     1
102
RTVSPropertyOp56
 70
     0
102
RTVSPropertyOp57
 70
     0
102
RTVSPropertyOp58
 70
     0
102
RTVSPropertyOp59
 70
     0
102
RTVSPropertyOp60
 70
     0
102
RTVSPropertyOp61
 70
     0
102
RTVSPropertyOp62
 70
     0
  0
XRECORD
  5
514A
102
{ACAD_REACTORS
330
5149
102
}
330
5149
100
AcDbXrecord
280
     1
102
RTVSPost2010Prop28
280
     0
102
RTVSPost2010PropOp28
 70
     1
102
RTVSPost2010Prop29
280
     1
102
RTVSPost2010PropOp29
 70
     1
102
RTVSPost2010Prop30
280
     1
102
RTVSPost2010PropOp30
 70
     1
102
RTVSPost2010Prop31
280
     0
102
RTVSPost2010PropOp31
 70
     1
102
RTVSPost2010Prop32
280
     0
102
RTVSPost2010PropOp32
 70
     1
102
RTVSPost2010Prop33
280
     0
102
RTVSPost2010PropOp33
 70
     1
102
RTVSPost2010Prop34
280
     0
102
RTVSPost2010PropOp34
 70
     1
102
RTVSPost2010Prop35
280
     0
102
RTVSPost2010PropOp35
 70
     1
102
RTVSPost2010Prop36
280
     0
102
RTVSPost2010PropOp36
 70
     1
102
RTVSPost2010Prop37
 90
       50
102
RTVSPost2010PropOp37
 70
     1
102
RTVSPost2010Prop38
140
0.0
102
RTVSPost2010PropOp38
 70
     1
102
RTVSPost2010Prop39
140
1.0
102
RTVSPost2010PropOp39
 70
     1
102
RTVSPost2010Prop40
 90
        0
102
RTVSPost2010PropOp40
 70
     1
102
RTVSPost2010Prop41ColorIndex
 90
       18
102
RTVSPost2010Prop41ColorRGB
 90
        0
102
RTVSPost2010PropOp41
 70
     1
102
RTVSPost2010Prop42
 90
       50
102
RTVSPost2010PropOp42
 70
     1
102
RTVSPost2010Prop43
 90
        3
102
RTVSPost2010PropOp43
 70
     1
102
RTVSPost2010Prop44ColorIndex
 90
        5
102
RTVSPost2010Prop44ColorRGB
 90
      255
102
RTVSPost2010PropOp44
 70
     1
102
RTVSPost2010Prop45
280
     0
102
RTVSPost2010PropOp45
 70
     1
102
RTVSPost2010Prop46
 90
       50
102
RTVSPost2010PropOp46
 70
     1
102
RTVSPost2010Prop47
 90
       50
102
RTVSPost2010PropOp47
 70
     1
102
RTVSPost2010Prop48
 90
       50
102
RTVSPost2010PropOp48
 70
     1
102
RTVSPost2010Prop49
280
     0
102
RTVSPost2010PropOp49
 70
     1
102
RTVSPost2010Prop50
 90
       50
102
RTVSPost2010PropOp50
 70
     1
102
RTVSPost2010Prop51ColorIndex
 90
      256
102
RTVSPost2010Prop51ColorRGB
 90
-16777216
102
RTVSPost2010PropOp51
 70
     0
102
RTVSPost2010Prop52
140
1.0
102
RTVSPost2010PropOp52
 70
     0
102
RTVSPost2010Prop53
 90
        2
102
RTVSPost2010PropOp53
 70
     1
102
RTVSPost2010Prop54
  1
strokes_ogs.tif
102
RTVSPost2010PropOp54
 70
     1
102
RTVSPost2010Prop55
280
     0
102
RTVSPost2010PropOp55
 70
     1
102
RTVSPost2010Prop56
140
1.0
102
RTVSPost2010PropOp56
 70
     1
102
RTVSPost2010Prop57
140
1.0
102
RTVSPost2010PropOp57
 70
     1
102
RTVSPropertyOp0
 70
     1
102
RTVSPropertyOp1
 70
     1
102
RTVSPropertyOp2
 70
     1
102
RTVSPropertyOp3
 70
     1
102
RTVSPropertyOp4
 70
     1
102
RTVSPropertyOp5
 70
     1
102
RTVSPropertyOp6
 70
     1
102
RTVSPropertyOp7
 70
     1
102
RTVSPropertyOp8
 70
     1
102
RTVSPropertyOp9
 70
     1
102
RTVSPropertyOp10
 70
     1
102
RTVSPropertyOp11
 70
     1
102
RTVSPropertyOp12
 70
     1
102
RTVSPropertyOp13
 70
     1
102
RTVSPropertyOp14
 70
     1
102
RTVSPropertyOp15
 70
     1
102
RTVSPropertyOp16
 70
     1
102
RTVSPropertyOp17
 70
     1
102
RTVSPropertyOp18
 70
     1
102
RTVSPropertyOp19
 70
     1
102
RTVSPropertyOp20
 70
     1
102
RTVSPropertyOp21
 70
     1
102
RTVSPropertyOp22
 70
     1
102
RTVSPropertyOp23
 70
     1
102
RTVSPropertyOp24
 70
     1
102
RTVSPropertyOp25
 70
     1
102
RTVSPropertyOp26
 70
     1
102
RTVSPropertyOp27
 70
     1
102
RTVSPropertyOp28
 70
     1
102
RTVSPropertyOp29
 70
     1
102
RTVSPropertyOp30
 70
     1
102
RTVSPropertyOp31
 70
     1
102
RTVSPropertyOp32
 70
     1
102
RTVSPropertyOp33
 70
     1
102
RTVSPropertyOp34
 70
     1
102
RTVSPropertyOp35
 70
     1
102
RTVSPropertyOp36
 70
     1
102
RTVSPropertyOp37
 70
     1
102
RTVSPropertyOp38
 70
     1
102
RTVSPropertyOp39
 70
     1
102
RTVSPropertyOp40
 70
     1
102
RTVSPropertyOp41
 70
     1
102
RTVSPropertyOp42
 70
     1
102
RTVSPropertyOp43
 70
     1
102
RTVSPropertyOp44
 70
     1
102
RTVSPropertyOp45
 70
     1
102
RTVSPropertyOp46
 70
     1
102
RTVSPropertyOp47
 70
     1
102
RTVSPropertyOp48
 70
     1
102
RTVSPropertyOp49
 70
     1
102
RTVSPropertyOp50
 70
     1
102
RTVSPropertyOp51
 70
     0
102
RTVSPropertyOp52
 70
     0
102
RTVSPropertyOp53
 70
     1
102
RTVSPropertyOp54
 70
     1
102
RTVSPropertyOp55
 70
     1
102
RTVSPropertyOp56
 70
     1
102
RTVSPropertyOp57
 70
     1
102
RTVSPropertyOp58
 70
     1
102
RTVSPropertyOp59
 70
     1
102
RTVSPropertyOp60
 70
     1
102
RTVSPropertyOp61
 70
     1
102
RTVSPropertyOp62
 70
     1
  0
XRECORD
  5
5160
102
{ACAD_REACTORS
330
515F
102
}
330
515F
100
AcDbXrecord
280
     1
102
RTVSPost2010Prop28
280
     0
102
RTVSPost2010PropOp28
 70
     1
102
RTVSPost2010Prop29
280
     1
102
RTVSPost2010PropOp29
 70
     1
102
RTVSPost2010Prop30
280
     1
102
RTVSPost2010PropOp30
 70
     1
102
RTVSPost2010Prop31
280
     0
102
RTVSPost2010PropOp31
 70
     1
102
RTVSPost2010Prop32
280
     0
102
RTVSPost2010PropOp32
 70
     1
102
RTVSPost2010Prop33
280
     0
102
RTVSPost2010PropOp33
 70
     1
102
RTVSPost2010Prop34
280
     0
102
RTVSPost2010PropOp34
 70
     1
102
RTVSPost2010Prop35
280
     0
102
RTVSPost2010PropOp35
 70
     1
102
RTVSPost2010Prop36
280
     0
102
RTVSPost2010PropOp36
 70
     1
102
RTVSPost2010Prop37
 90
       50
102
RTVSPost2010PropOp37
 70
     1
102
RTVSPost2010Prop38
140
0.0
102
RTVSPost2010PropOp38
 70
     1
102
RTVSPost2010Prop39
140
1.0
102
RTVSPost2010PropOp39
 70
     1
102
RTVSPost2010Prop40
 90
        0
102
RTVSPost2010PropOp40
 70
     1
102
RTVSPost2010Prop41ColorIndex
 90
       18
102
RTVSPost2010Prop41ColorRGB
 90
        0
102
RTVSPost2010PropOp41
 70
     1
102
RTVSPost2010Prop42
 90
       50
102
RTVSPost2010PropOp42
 70
     1
102
RTVSPost2010Prop43
 90
        3
102
RTVSPost2010PropOp43
 70
     1
102
RTVSPost2010Prop44ColorIndex
 90
        5
102
RTVSPost2010Prop44ColorRGB
 90
      255
102
RTVSPost2010PropOp44
 70
     1
102
RTVSPost2010Prop45
280
     0
102
RTVSPost2010PropOp45
 70
     1
102
RTVSPost2010Prop46
 90
       50
102
RTVSPost2010PropOp46
 70
     1
102
RTVSPost2010Prop47
 90
       50
102
RTVSPost2010PropOp47
 70
     1
102
RTVSPost2010Prop48
 90
       50
102
RTVSPost2010PropOp48
 70
     1
102
RTVSPost2010Prop49
280
     0
102
RTVSPost2010PropOp49
 70
     1
102
RTVSPost2010Prop50
 90
       50
102
RTVSPost2010PropOp50
 70
     1
102
RTVSPost2010Prop51ColorIndex
 90
      256
102
RTVSPost2010Prop51ColorRGB
 90
-16777216
102
RTVSPost2010PropOp51
 70
     0
102
RTVSPost2010Prop52
140
1.0
102
RTVSPost2010PropOp52
 70
     0
102
RTVSPost2010Prop53
 90
        2
102
RTVSPost2010PropOp53
 70
     1
102
RTVSPost2010Prop54
  1
strokes_ogs.tif
102
RTVSPost2010PropOp54
 70
     1
102
RTVSPost2010Prop55
280
     0
102
RTVSPost2010PropOp55
 70
     1
102
RTVSPost2010Prop56
140
1.0
102
RTVSPost2010PropOp56
 70
     1
102
RTVSPost2010Prop57
140
1.0
102
RTVSPost2010PropOp57
 70
     1
102
RTVSPropertyOp0
 70
     1
102
RTVSPropertyOp1
 70
     1
102
RTVSPropertyOp2
 70
     1
102
RTVSPropertyOp3
 70
     1
102
RTVSPropertyOp4
 70
     1
102
RTVSPropertyOp5
 70
     1
102
RTVSPropertyOp6
 70
     1
102
RTVSPropertyOp7
 70
     1
102
RTVSPropertyOp8
 70
     1
102
RTVSPropertyOp9
 70
     1
102
RTVSPropertyOp10
 70
     1
102
RTVSPropertyOp11
 70
     1
102
RTVSPropertyOp12
 70
     1
102
RTVSPropertyOp13
 70
     1
102
RTVSPropertyOp14
 70
     1
102
RTVSPropertyOp15
 70
     1
102
RTVSPropertyOp16
 70
     1
102
RTVSPropertyOp17
 70
     1
102
RTVSPropertyOp18
 70
     1
102
RTVSPropertyOp19
 70
     1
102
RTVSPropertyOp20
 70
     1
102
RTVSPropertyOp21
 70
     1
102
RTVSPropertyOp22
 70
     1
102
RTVSPropertyOp23
 70
     1
102
RTVSPropertyOp24
 70
     1
102
RTVSPropertyOp25
 70
     1
102
RTVSPropertyOp26
 70
     1
102
RTVSPropertyOp27
 70
     1
102
RTVSPropertyOp28
 70
     1
102
RTVSPropertyOp29
 70
     1
102
RTVSPropertyOp30
 70
     1
102
RTVSPropertyOp31
 70
     1
102
RTVSPropertyOp32
 70
     1
102
RTVSPropertyOp33
 70
     1
102
RTVSPropertyOp34
 70
     1
102
RTVSPropertyOp35
 70
     1
102
RTVSPropertyOp36
 70
     1
102
RTVSPropertyOp37
 70
     1
102
RTVSPropertyOp38
 70
     1
102
RTVSPropertyOp39
 70
     1
102
RTVSPropertyOp40
 70
     1
102
RTVSPropertyOp41
 70
     1
102
RTVSPropertyOp42
 70
     1
102
RTVSPropertyOp43
 70
     1
102
RTVSPropertyOp44
 70
     1
102
RTVSPropertyOp45
 70
     1
102
RTVSPropertyOp46
 70
     1
102
RTVSPropertyOp47
 70
     1
102
RTVSPropertyOp48
 70
     1
102
RTVSPropertyOp49
 70
     1
102
RTVSPropertyOp50
 70
     1
102
RTVSPropertyOp51
 70
     0
102
RTVSPropertyOp52
 70
     0
102
RTVSPropertyOp53
 70
     1
102
RTVSPropertyOp54
 70
     1
102
RTVSPropertyOp55
 70
     1
102
RTVSPropertyOp56
 70
     1
102
RTVSPropertyOp57
 70
     1
102
RTVSPropertyOp58
 70
     1
102
RTVSPropertyOp59
 70
     1
102
RTVSPropertyOp60
 70
     1
102
RTVSPropertyOp61
 70
     1
102
RTVSPropertyOp62
 70
     1
  0
XRECORD
  5
515E
102
{ACAD_REACTORS
330
515D
102
}
330
515D
100
AcDbXrecord
280
     1
102
RTVSPost2010Prop28
280
     0
102
RTVSPost2010PropOp28
 70
     1
102
RTVSPost2010Prop29
280
     1
102
RTVSPost2010PropOp29
 70
     1
102
RTVSPost2010Prop30
280
     1
102
RTVSPost2010PropOp30
 70
     1
102
RTVSPost2010Prop31
280
     0
102
RTVSPost2010PropOp31
 70
     1
102
RTVSPost2010Prop32
280
     0
102
RTVSPost2010PropOp32
 70
     1
102
RTVSPost2010Prop33
280
     0
102
RTVSPost2010PropOp33
 70
     1
102
RTVSPost2010Prop34
280
     0
102
RTVSPost2010PropOp34
 70
     1
102
RTVSPost2010Prop35
280
     0
102
RTVSPost2010PropOp35
 70
     1
102
RTVSPost2010Prop36
280
     0
102
RTVSPost2010PropOp36
 70
     1
102
RTVSPost2010Prop37
 90
       50
102
RTVSPost2010PropOp37
 70
     1
102
RTVSPost2010Prop38
140
0.0
102
RTVSPost2010PropOp38
 70
     1
102
RTVSPost2010Prop39
140
1.0
102
RTVSPost2010PropOp39
 70
     1
102
RTVSPost2010Prop40
 90
        0
102
RTVSPost2010PropOp40
 70
     1
102
RTVSPost2010Prop41ColorIndex
 90
       18
102
RTVSPost2010Prop41ColorRGB
 90
        0
102
RTVSPost2010PropOp41
 70
     1
102
RTVSPost2010Prop42
 90
       50
102
RTVSPost2010PropOp42
 70
     1
102
RTVSPost2010Prop43
 90
        3
102
RTVSPost2010PropOp43
 70
     1
102
RTVSPost2010Prop44ColorIndex
 90
        5
102
RTVSPost2010Prop44ColorRGB
 90
      255
102
RTVSPost2010PropOp44
 70
     1
102
RTVSPost2010Prop45
280
     0
102
RTVSPost2010PropOp45
 70
     1
102
RTVSPost2010Prop46
 90
       50
102
RTVSPost2010PropOp46
 70
     1
102
RTVSPost2010Prop47
 90
       50
102
RTVSPost2010PropOp47
 70
     1
102
RTVSPost2010Prop48
 90
       50
102
RTVSPost2010PropOp48
 70
     1
102
RTVSPost2010Prop49
280
     0
102
RTVSPost2010PropOp49
 70
     1
102
RTVSPost2010Prop50
 90
       50
102
RTVSPost2010PropOp50
 70
     1
102
RTVSPost2010Prop51ColorIndex
 90
      256
102
RTVSPost2010Prop51ColorRGB
 90
-16777216
102
RTVSPost2010PropOp51
 70
     0
102
RTVSPost2010Prop52
140
1.0
102
RTVSPost2010PropOp52
 70
     0
102
RTVSPost2010Prop53
 90
        2
102
RTVSPost2010PropOp53
 70
     1
102
RTVSPost2010Prop54
  1
strokes_ogs.tif
102
RTVSPost2010PropOp54
 70
     1
102
RTVSPost2010Prop55
280
     0
102
RTVSPost2010PropOp55
 70
     1
102
RTVSPost2010Prop56
140
1.0
102
RTVSPost2010PropOp56
 70
     1
102
RTVSPost2010Prop57
140
1.0
102
RTVSPost2010PropOp57
 70
     1
102
RTVSPropertyOp0
 70
     1
102
RTVSPropertyOp1
 70
     1
102
RTVSPropertyOp2
 70
     1
102
RTVSPropertyOp3
 70
     1
102
RTVSPropertyOp4
 70
     1
102
RTVSPropertyOp5
 70
     1
102
RTVSPropertyOp6
 70
     1
102
RTVSPropertyOp7
 70
     1
102
RTVSPropertyOp8
 70
     1
102
RTVSPropertyOp9
 70
     1
102
RTVSPropertyOp10
 70
     1
102
RTVSPropertyOp11
 70
     1
102
RTVSPropertyOp12
 70
     1
102
RTVSPropertyOp13
 70
     1
102
RTVSPropertyOp14
 70
     1
102
RTVSPropertyOp15
 70
     1
102
RTVSPropertyOp16
 70
     1
102
RTVSPropertyOp17
 70
     1
102
RTVSPropertyOp18
 70
     1
102
RTVSPropertyOp19
 70
     1
102
RTVSPropertyOp20
 70
     1
102
RTVSPropertyOp21
 70
     1
102
RTVSPropertyOp22
 70
     1
102
RTVSPropertyOp23
 70
     1
102
RTVSPropertyOp24
 70
     1
102
RTVSPropertyOp25
 70
     1
102
RTVSPropertyOp26
 70
     1
102
RTVSPropertyOp27
 70
     1
102
RTVSPropertyOp28
 70
     1
102
RTVSPropertyOp29
 70
     1
102
RTVSPropertyOp30
 70
     1
102
RTVSPropertyOp31
 70
     1
102
RTVSPropertyOp32
 70
     1
102
RTVSPropertyOp33
 70
     1
102
RTVSPropertyOp34
 70
     1
102
RTVSPropertyOp35
 70
     1
102
RTVSPropertyOp36
 70
     1
102
RTVSPropertyOp37
 70
     1
102
RTVSPropertyOp38
 70
     1
102
RTVSPropertyOp39
 70
     1
102
RTVSPropertyOp40
 70
     1
102
RTVSPropertyOp41
 70
     1
102
RTVSPropertyOp42
 70
     1
102
RTVSPropertyOp43
 70
     1
102
RTVSPropertyOp44
 70
     1
102
RTVSPropertyOp45
 70
     1
102
RTVSPropertyOp46
 70
     1
102
RTVSPropertyOp47
 70
     1
102
RTVSPropertyOp48
 70
     1
102
RTVSPropertyOp49
 70
     1
102
RTVSPropertyOp50
 70
     1
102
RTVSPropertyOp51
 70
     0
102
RTVSPropertyOp52
 70
     0
102
RTVSPropertyOp53
 70
     1
102
RTVSPropertyOp54
 70
     1
102
RTVSPropertyOp55
 70
     1
102
RTVSPropertyOp56
 70
     1
102
RTVSPropertyOp57
 70
     1
102
RTVSPropertyOp58
 70
     1
102
RTVSPropertyOp59
 70
     1
102
RTVSPropertyOp60
 70
     1
102
RTVSPropertyOp61
 70
     1
102
RTVSPropertyOp62
 70
     1
  0
XRECORD
  5
5158
102
{ACAD_REACTORS
330
5157
102
}
330
5157
100
AcDbXrecord
280
     1
102
RTVSPost2010Prop28
280
     0
102
RTVSPost2010PropOp28
 70
     1
102
RTVSPost2010Prop29
280
     1
102
RTVSPost2010PropOp29
 70
     1
102
RTVSPost2010Prop30
280
     1
102
RTVSPost2010PropOp30
 70
     1
102
RTVSPost2010Prop31
280
     0
102
RTVSPost2010PropOp31
 70
     1
102
RTVSPost2010Prop32
280
     0
102
RTVSPost2010PropOp32
 70
     1
102
RTVSPost2010Prop33
280
     0
102
RTVSPost2010PropOp33
 70
     1
102
RTVSPost2010Prop34
280
     0
102
RTVSPost2010PropOp34
 70
     1
102
RTVSPost2010Prop35
280
     0
102
RTVSPost2010PropOp35
 70
     1
102
RTVSPost2010Prop36
280
     0
102
RTVSPost2010PropOp36
 70
     1
102
RTVSPost2010Prop37
 90
       50
102
RTVSPost2010PropOp37
 70
     1
102
RTVSPost2010Prop38
140
0.0
102
RTVSPost2010PropOp38
 70
     1
102
RTVSPost2010Prop39
140
1.0
102
RTVSPost2010PropOp39
 70
     1
102
RTVSPost2010Prop40
 90
        0
102
RTVSPost2010PropOp40
 70
     1
102
RTVSPost2010Prop41ColorIndex
 90
       18
102
RTVSPost2010Prop41ColorRGB
 90
        0
102
RTVSPost2010PropOp41
 70
     1
102
RTVSPost2010Prop42
 90
       50
102
RTVSPost2010PropOp42
 70
     1
102
RTVSPost2010Prop43
 90
        3
102
RTVSPost2010PropOp43
 70
     1
102
RTVSPost2010Prop44ColorIndex
 90
        5
102
RTVSPost2010Prop44ColorRGB
 90
      255
102
RTVSPost2010PropOp44
 70
     1
102
RTVSPost2010Prop45
280
     0
102
RTVSPost2010PropOp45
 70
     1
102
RTVSPost2010Prop46
 90
       50
102
RTVSPost2010PropOp46
 70
     1
102
RTVSPost2010Prop47
 90
       50
102
RTVSPost2010PropOp47
 70
     1
102
RTVSPost2010Prop48
 90
       50
102
RTVSPost2010PropOp48
 70
     1
102
RTVSPost2010Prop49
280
     0
102
RTVSPost2010PropOp49
 70
     1
102
RTVSPost2010Prop50
 90
       50
102
RTVSPost2010PropOp50
 70
     1
102
RTVSPost2010Prop51ColorIndex
 90
      256
102
RTVSPost2010Prop51ColorRGB
 90
-16777216
102
RTVSPost2010PropOp51
 70
     0
102
RTVSPost2010Prop52
140
1.0
102
RTVSPost2010PropOp52
 70
     0
102
RTVSPost2010Prop53
 90
        2
102
RTVSPost2010PropOp53
 70
     1
102
RTVSPost2010Prop54
  1
strokes_ogs.tif
102
RTVSPost2010PropOp54
 70
     1
102
RTVSPost2010Prop55
280
     0
102
RTVSPost2010PropOp55
 70
     1
102
RTVSPost2010Prop56
140
1.0
102
RTVSPost2010PropOp56
 70
     1
102
RTVSPost2010Prop57
140
1.0
102
RTVSPost2010PropOp57
 70
     1
102
RTVSPropertyOp0
 70
     1
102
RTVSPropertyOp1
 70
     1
102
RTVSPropertyOp2
 70
     1
102
RTVSPropertyOp3
 70
     1
102
RTVSPropertyOp4
 70
     1
102
RTVSPropertyOp5
 70
     1
102
RTVSPropertyOp6
 70
     1
102
RTVSPropertyOp7
 70
     1
102
RTVSPropertyOp8
 70
     1
102
RTVSPropertyOp9
 70
     1
102
RTVSPropertyOp10
 70
     1
102
RTVSPropertyOp11
 70
     1
102
RTVSPropertyOp12
 70
     1
102
RTVSPropertyOp13
 70
     1
102
RTVSPropertyOp14
 70
     1
102
RTVSPropertyOp15
 70
     1
102
RTVSPropertyOp16
 70
     1
102
RTVSPropertyOp17
 70
     1
102
RTVSPropertyOp18
 70
     1
102
RTVSPropertyOp19
 70
     1
102
RTVSPropertyOp20
 70
     1
102
RTVSPropertyOp21
 70
     1
102
RTVSPropertyOp22
 70
     1
102
RTVSPropertyOp23
 70
     1
102
RTVSPropertyOp24
 70
     1
102
RTVSPropertyOp25
 70
     1
102
RTVSPropertyOp26
 70
     1
102
RTVSPropertyOp27
 70
     1
102
RTVSPropertyOp28
 70
     1
102
RTVSPropertyOp29
 70
     1
102
RTVSPropertyOp30
 70
     1
102
RTVSPropertyOp31
 70
     1
102
RTVSPropertyOp32
 70
     1
102
RTVSPropertyOp33
 70
     1
102
RTVSPropertyOp34
 70
     1
102
RTVSPropertyOp35
 70
     1
102
RTVSPropertyOp36
 70
     1
102
RTVSPropertyOp37
 70
     1
102
RTVSPropertyOp38
 70
     1
102
RTVSPropertyOp39
 70
     1
102
RTVSPropertyOp40
 70
     1
102
RTVSPropertyOp41
 70
     1
102
RTVSPropertyOp42
 70
     1
102
RTVSPropertyOp43
 70
     1
102
RTVSPropertyOp44
 70
     1
102
RTVSPropertyOp45
 70
     1
102
RTVSPropertyOp46
 70
     1
102
RTVSPropertyOp47
 70
     1
102
RTVSPropertyOp48
 70
     1
102
RTVSPropertyOp49
 70
     1
102
RTVSPropertyOp50
 70
     1
102
RTVSPropertyOp51
 70
     0
102
RTVSPropertyOp52
 70
     0
102
RTVSPropertyOp53
 70
     1
102
RTVSPropertyOp54
 70
     1
102
RTVSPropertyOp55
 70
     1
102
RTVSPropertyOp56
 70
     1
102
RTVSPropertyOp57
 70
     1
102
RTVSPropertyOp58
 70
     1
102
RTVSPropertyOp59
 70
     1
102
RTVSPropertyOp60
 70
     1
102
RTVSPropertyOp61
 70
     1
102
RTVSPropertyOp62
 70
     1
  0
XRECORD
  5
515A
102
{ACAD_REACTORS
330
5159
102
}
330
5159
100
AcDbXrecord
280
     1
102
RTVSPost2010Prop28
280
     0
102
RTVSPost2010PropOp28
 70
     1
102
RTVSPost2010Prop29
280
     1
102
RTVSPost2010PropOp29
 70
     1
102
RTVSPost2010Prop30
280
     1
102
RTVSPost2010PropOp30
 70
     1
102
RTVSPost2010Prop31
280
     0
102
RTVSPost2010PropOp31
 70
     1
102
RTVSPost2010Prop32
280
     0
102
RTVSPost2010PropOp32
 70
     1
102
RTVSPost2010Prop33
280
     0
102
RTVSPost2010PropOp33
 70
     1
102
RTVSPost2010Prop34
280
     0
102
RTVSPost2010PropOp34
 70
     1
102
RTVSPost2010Prop35
280
     0
102
RTVSPost2010PropOp35
 70
     1
102
RTVSPost2010Prop36
280
     0
102
RTVSPost2010PropOp36
 70
     1
102
RTVSPost2010Prop37
 90
       50
102
RTVSPost2010PropOp37
 70
     1
102
RTVSPost2010Prop38
140
0.0
102
RTVSPost2010PropOp38
 70
     1
102
RTVSPost2010Prop39
140
1.0
102
RTVSPost2010PropOp39
 70
     1
102
RTVSPost2010Prop40
 90
        0
102
RTVSPost2010PropOp40
 70
     1
102
RTVSPost2010Prop41ColorIndex
 90
       18
102
RTVSPost2010Prop41ColorRGB
 90
        0
102
RTVSPost2010PropOp41
 70
     1
102
RTVSPost2010Prop42
 90
       50
102
RTVSPost2010PropOp42
 70
     1
102
RTVSPost2010Prop43
 90
        3
102
RTVSPost2010PropOp43
 70
     1
102
RTVSPost2010Prop44ColorIndex
 90
        5
102
RTVSPost2010Prop44ColorRGB
 90
      255
102
RTVSPost2010PropOp44
 70
     1
102
RTVSPost2010Prop45
280
     0
102
RTVSPost2010PropOp45
 70
     1
102
RTVSPost2010Prop46
 90
       50
102
RTVSPost2010PropOp46
 70
     1
102
RTVSPost2010Prop47
 90
       50
102
RTVSPost2010PropOp47
 70
     1
102
RTVSPost2010Prop48
 90
       50
102
RTVSPost2010PropOp48
 70
     1
102
RTVSPost2010Prop49
280
     0
102
RTVSPost2010PropOp49
 70
     1
102
RTVSPost2010Prop50
 90
       50
102
RTVSPost2010PropOp50
 70
     1
102
RTVSPost2010Prop51ColorIndex
 90
      256
102
RTVSPost2010Prop51ColorRGB
 90
-16777216
102
RTVSPost2010PropOp51
 70
     0
102
RTVSPost2010Prop52
140
1.0
102
RTVSPost2010PropOp52
 70
     0
102
RTVSPost2010Prop53
 90
        2
102
RTVSPost2010PropOp53
 70
     1
102
RTVSPost2010Prop54
  1
strokes_ogs.tif
102
RTVSPost2010PropOp54
 70
     1
102
RTVSPost2010Prop55
280
     0
102
RTVSPost2010PropOp55
 70
     1
102
RTVSPost2010Prop56
140
1.0
102
RTVSPost2010PropOp56
 70
     1
102
RTVSPost2010Prop57
140
1.0
102
RTVSPost2010PropOp57
 70
     1
102
RTVSPropertyOp0
 70
     1
102
RTVSPropertyOp1
 70
     1
102
RTVSPropertyOp2
 70
     1
102
RTVSPropertyOp3
 70
     1
102
RTVSPropertyOp4
 70
     1
102
RTVSPropertyOp5
 70
     1
102
RTVSPropertyOp6
 70
     1
102
RTVSPropertyOp7
 70
     1
102
RTVSPropertyOp8
 70
     1
102
RTVSPropertyOp9
 70
     1
102
RTVSPropertyOp10
 70
     1
102
RTVSPropertyOp11
 70
     1
102
RTVSPropertyOp12
 70
     1
102
RTVSPropertyOp13
 70
     1
102
RTVSPropertyOp14
 70
     1
102
RTVSPropertyOp15
 70
     1
102
RTVSPropertyOp16
 70
     1
102
RTVSPropertyOp17
 70
     1
102
RTVSPropertyOp18
 70
     1
102
RTVSPropertyOp19
 70
     1
102
RTVSPropertyOp20
 70
     1
102
RTVSPropertyOp21
 70
     1
102
RTVSPropertyOp22
 70
     1
102
RTVSPropertyOp23
 70
     1
102
RTVSPropertyOp24
 70
     1
102
RTVSPropertyOp25
 70
     1
102
RTVSPropertyOp26
 70
     1
102
RTVSPropertyOp27
 70
     1
102
RTVSPropertyOp28
 70
     1
102
RTVSPropertyOp29
 70
     1
102
RTVSPropertyOp30
 70
     1
102
RTVSPropertyOp31
 70
     1
102
RTVSPropertyOp32
 70
     1
102
RTVSPropertyOp33
 70
     1
102
RTVSPropertyOp34
 70
     1
102
RTVSPropertyOp35
 70
     1
102
RTVSPropertyOp36
 70
     1
102
RTVSPropertyOp37
 70
     1
102
RTVSPropertyOp38
 70
     1
102
RTVSPropertyOp39
 70
     1
102
RTVSPropertyOp40
 70
     1
102
RTVSPropertyOp41
 70
     1
102
RTVSPropertyOp42
 70
     1
102
RTVSPropertyOp43
 70
     1
102
RTVSPropertyOp44
 70
     1
102
RTVSPropertyOp45
 70
     1
102
RTVSPropertyOp46
 70
     1
102
RTVSPropertyOp47
 70
     1
102
RTVSPropertyOp48
 70
     1
102
RTVSPropertyOp49
 70
     1
102
RTVSPropertyOp50
 70
     1
102
RTVSPropertyOp51
 70
     0
102
RTVSPropertyOp52
 70
     0
102
RTVSPropertyOp53
 70
     1
102
RTVSPropertyOp54
 70
     1
102
RTVSPropertyOp55
 70
     1
102
RTVSPropertyOp56
 70
     1
102
RTVSPropertyOp57
 70
     1
102
RTVSPropertyOp58
 70
     1
102
RTVSPropertyOp59
 70
     1
102
RTVSPropertyOp60
 70
     1
102
RTVSPropertyOp61
 70
     1
102
RTVSPropertyOp62
 70
     1
  0
XRECORD
  5
5150
102
{ACAD_REACTORS
330
514F
102
}
330
514F
100
AcDbXrecord
280
     1
102
RTVSPost2010Prop28
280
     0
102
RTVSPost2010PropOp28
 70
     1
102
RTVSPost2010Prop29
280
     1
102
RTVSPost2010PropOp29
 70
     1
102
RTVSPost2010Prop30
280
     1
102
RTVSPost2010PropOp30
 70
     1
102
RTVSPost2010Prop31
280
     0
102
RTVSPost2010PropOp31
 70
     1
102
RTVSPost2010Prop32
280
     0
102
RTVSPost2010PropOp32
 70
     1
102
RTVSPost2010Prop33
280
     0
102
RTVSPost2010PropOp33
 70
     1
102
RTVSPost2010Prop34
280
     0
102
RTVSPost2010PropOp34
 70
     1
102
RTVSPost2010Prop35
280
     0
102
RTVSPost2010PropOp35
 70
     1
102
RTVSPost2010Prop36
280
     0
102
RTVSPost2010PropOp36
 70
     1
102
RTVSPost2010Prop37
 90
       50
102
RTVSPost2010PropOp37
 70
     1
102
RTVSPost2010Prop38
140
0.0
102
RTVSPost2010PropOp38
 70
     1
102
RTVSPost2010Prop39
140
1.0
102
RTVSPost2010PropOp39
 70
     1
102
RTVSPost2010Prop40
 90
        0
102
RTVSPost2010PropOp40
 70
     1
102
RTVSPost2010Prop41ColorIndex
 90
       18
102
RTVSPost2010Prop41ColorRGB
 90
        0
102
RTVSPost2010PropOp41
 70
     1
102
RTVSPost2010Prop42
 90
       50
102
RTVSPost2010PropOp42
 70
     1
102
RTVSPost2010Prop43
 90
        3
102
RTVSPost2010PropOp43
 70
     1
102
RTVSPost2010Prop44ColorIndex
 90
        5
102
RTVSPost2010Prop44ColorRGB
 90
      255
102
RTVSPost2010PropOp44
 70
     1
102
RTVSPost2010Prop45
280
     0
102
RTVSPost2010PropOp45
 70
     1
102
RTVSPost2010Prop46
 90
       50
102
RTVSPost2010PropOp46
 70
     1
102
RTVSPost2010Prop47
 90
       50
102
RTVSPost2010PropOp47
 70
     1
102
RTVSPost2010Prop48
 90
       50
102
RTVSPost2010PropOp48
 70
     1
102
RTVSPost2010Prop49
280
     0
102
RTVSPost2010PropOp49
 70
     1
102
RTVSPost2010Prop50
 90
       50
102
RTVSPost2010PropOp50
 70
     1
102
RTVSPost2010Prop51ColorIndex
 90
      256
102
RTVSPost2010Prop51ColorRGB
 90
-16777216
102
RTVSPost2010PropOp51
 70
     0
102
RTVSPost2010Prop52
140
1.0
102
RTVSPost2010PropOp52
 70
     0
102
RTVSPost2010Prop53
 90
        2
102
RTVSPost2010PropOp53
 70
     1
102
RTVSPost2010Prop54
  1
strokes_ogs.tif
102
RTVSPost2010PropOp54
 70
     1
102
RTVSPost2010Prop55
280
     0
102
RTVSPost2010PropOp55
 70
     1
102
RTVSPost2010Prop56
140
1.0
102
RTVSPost2010PropOp56
 70
     1
102
RTVSPost2010Prop57
140
1.0
102
RTVSPost2010PropOp57
 70
     1
102
RTVSPropertyOp0
 70
     1
102
RTVSPropertyOp1
 70
     1
102
RTVSPropertyOp2
 70
     1
102
RTVSPropertyOp3
 70
     1
102
RTVSPropertyOp4
 70
     1
102
RTVSPropertyOp5
 70
     1
102
RTVSPropertyOp6
 70
     1
102
RTVSPropertyOp7
 70
     1
102
RTVSPropertyOp8
 70
     1
102
RTVSPropertyOp9
 70
     1
102
RTVSPropertyOp10
 70
     1
102
RTVSPropertyOp11
 70
     1
102
RTVSPropertyOp12
 70
     1
102
RTVSPropertyOp13
 70
     1
102
RTVSPropertyOp14
 70
     1
102
RTVSPropertyOp15
 70
     1
102
RTVSPropertyOp16
 70
     1
102
RTVSPropertyOp17
 70
     1
102
RTVSPropertyOp18
 70
     1
102
RTVSPropertyOp19
 70
     1
102
RTVSPropertyOp20
 70
     1
102
RTVSPropertyOp21
 70
     1
102
RTVSPropertyOp22
 70
     1
102
RTVSPropertyOp23
 70
     1
102
RTVSPropertyOp24
 70
     1
102
RTVSPropertyOp25
 70
     1
102
RTVSPropertyOp26
 70
     1
102
RTVSPropertyOp27
 70
     1
102
RTVSPropertyOp28
 70
     1
102
RTVSPropertyOp29
 70
     1
102
RTVSPropertyOp30
 70
     1
102
RTVSPropertyOp31
 70
     1
102
RTVSPropertyOp32
 70
     1
102
RTVSPropertyOp33
 70
     1
102
RTVSPropertyOp34
 70
     1
102
RTVSPropertyOp35
 70
     1
102
RTVSPropertyOp36
 70
     1
102
RTVSPropertyOp37
 70
     1
102
RTVSPropertyOp38
 70
     1
102
RTVSPropertyOp39
 70
     1
102
RTVSPropertyOp40
 70
     1
102
RTVSPropertyOp41
 70
     1
102
RTVSPropertyOp42
 70
     1
102
RTVSPropertyOp43
 70
     1
102
RTVSPropertyOp44
 70
     1
102
RTVSPropertyOp45
 70
     1
102
RTVSPropertyOp46
 70
     1
102
RTVSPropertyOp47
 70
     1
102
RTVSPropertyOp48
 70
     1
102
RTVSPropertyOp49
 70
     1
102
RTVSPropertyOp50
 70
     1
102
RTVSPropertyOp51
 70
     0
102
RTVSPropertyOp52
 70
     0
102
RTVSPropertyOp53
 70
     1
102
RTVSPropertyOp54
 70
     1
102
RTVSPropertyOp55
 70
     1
102
RTVSPropertyOp56
 70
     1
102
RTVSPropertyOp57
 70
     1
102
RTVSPropertyOp58
 70
     1
102
RTVSPropertyOp59
 70
     1
102
RTVSPropertyOp60
 70
     1
102
RTVSPropertyOp61
 70
     1
102
RTVSPropertyOp62
 70
     1
  0
XRECORD
  5
5144
102
{ACAD_REACTORS
330
5143
102
}
330
5143
100
AcDbXrecord
280
     1
102
RTVSPost2010Prop28
280
     0
102
RTVSPost2010PropOp28
 70
     1
102
RTVSPost2010Prop29
280
     1
102
RTVSPost2010PropOp29
 70
     1
102
RTVSPost2010Prop30
280
     1
102
RTVSPost2010PropOp30
 70
     1
102
RTVSPost2010Prop31
280
     0
102
RTVSPost2010PropOp31
 70
     1
102
RTVSPost2010Prop32
280
     0
102
RTVSPost2010PropOp32
 70
     1
102
RTVSPost2010Prop33
280
     0
102
RTVSPost2010PropOp33
 70
     1
102
RTVSPost2010Prop34
280
     0
102
RTVSPost2010PropOp34
 70
     1
102
RTVSPost2010Prop35
280
     0
102
RTVSPost2010PropOp35
 70
     1
102
RTVSPost2010Prop36
280
     0
102
RTVSPost2010PropOp36
 70
     1
102
RTVSPost2010Prop37
 90
       50
102
RTVSPost2010PropOp37
 70
     1
102
RTVSPost2010Prop38
140
0.0
102
RTVSPost2010PropOp38
 70
     1
102
RTVSPost2010Prop39
140
1.0
102
RTVSPost2010PropOp39
 70
     1
102
RTVSPost2010Prop40
 90
        0
102
RTVSPost2010PropOp40
 70
     1
102
RTVSPost2010Prop41ColorIndex
 90
       18
102
RTVSPost2010Prop41ColorRGB
 90
        0
102
RTVSPost2010PropOp41
 70
     1
102
RTVSPost2010Prop42
 90
       50
102
RTVSPost2010PropOp42
 70
     1
102
RTVSPost2010Prop43
 90
        3
102
RTVSPost2010PropOp43
 70
     1
102
RTVSPost2010Prop44ColorIndex
 90
        5
102
RTVSPost2010Prop44ColorRGB
 90
      255
102
RTVSPost2010PropOp44
 70
     1
102
RTVSPost2010Prop45
280
     0
102
RTVSPost2010PropOp45
 70
     1
102
RTVSPost2010Prop46
 90
       50
102
RTVSPost2010PropOp46
 70
     1
102
RTVSPost2010Prop47
 90
       50
102
RTVSPost2010PropOp47
 70
     1
102
RTVSPost2010Prop48
 90
       50
102
RTVSPost2010PropOp48
 70
     1
102
RTVSPost2010Prop49
280
     0
102
RTVSPost2010PropOp49
 70
     1
102
RTVSPost2010Prop50
 90
       50
102
RTVSPost2010PropOp50
 70
     1
102
RTVSPost2010Prop51ColorIndex
 90
      256
102
RTVSPost2010Prop51ColorRGB
 90
-16777216
102
RTVSPost2010PropOp51
 70
     0
102
RTVSPost2010Prop52
140
1.0
102
RTVSPost2010PropOp52
 70
     0
102
RTVSPost2010Prop53
 90
        2
102
RTVSPost2010PropOp53
 70
     1
102
RTVSPost2010Prop54
  1
strokes_ogs.tif
102
RTVSPost2010PropOp54
 70
     1
102
RTVSPost2010Prop55
280
     0
102
RTVSPost2010PropOp55
 70
     1
102
RTVSPost2010Prop56
140
1.0
102
RTVSPost2010PropOp56
 70
     1
102
RTVSPost2010Prop57
140
1.0
102
RTVSPost2010PropOp57
 70
     1
102
RTVSPropertyOp0
 70
     1
102
RTVSPropertyOp1
 70
     1
102
RTVSPropertyOp2
 70
     1
102
RTVSPropertyOp3
 70
     1
102
RTVSPropertyOp4
 70
     1
102
RTVSPropertyOp5
 70
     1
102
RTVSPropertyOp6
 70
     1
102
RTVSPropertyOp7
 70
     1
102
RTVSPropertyOp8
 70
     1
102
RTVSPropertyOp9
 70
     1
102
RTVSPropertyOp10
 70
     1
102
RTVSPropertyOp11
 70
     1
102
RTVSPropertyOp12
 70
     1
102
RTVSPropertyOp13
 70
     1
102
RTVSPropertyOp14
 70
     1
102
RTVSPropertyOp15
 70
     1
102
RTVSPropertyOp16
 70
     1
102
RTVSPropertyOp17
 70
     1
102
RTVSPropertyOp18
 70
     1
102
RTVSPropertyOp19
 70
     1
102
RTVSPropertyOp20
 70
     1
102
RTVSPropertyOp21
 70
     1
102
RTVSPropertyOp22
 70
     1
102
RTVSPropertyOp23
 70
     1
102
RTVSPropertyOp24
 70
     1
102
RTVSPropertyOp25
 70
     1
102
RTVSPropertyOp26
 70
     1
102
RTVSPropertyOp27
 70
     1
102
RTVSPropertyOp28
 70
     1
102
RTVSPropertyOp29
 70
     1
102
RTVSPropertyOp30
 70
     1
102
RTVSPropertyOp31
 70
     1
102
RTVSPropertyOp32
 70
     1
102
RTVSPropertyOp33
 70
     1
102
RTVSPropertyOp34
 70
     1
102
RTVSPropertyOp35
 70
     1
102
RTVSPropertyOp36
 70
     1
102
RTVSPropertyOp37
 70
     1
102
RTVSPropertyOp38
 70
     1
102
RTVSPropertyOp39
 70
     1
102
RTVSPropertyOp40
 70
     1
102
RTVSPropertyOp41
 70
     1
102
RTVSPropertyOp42
 70
     1
102
RTVSPropertyOp43
 70
     1
102
RTVSPropertyOp44
 70
     1
102
RTVSPropertyOp45
 70
     1
102
RTVSPropertyOp46
 70
     1
102
RTVSPropertyOp47
 70
     1
102
RTVSPropertyOp48
 70
     1
102
RTVSPropertyOp49
 70
     1
102
RTVSPropertyOp50
 70
     1
102
RTVSPropertyOp51
 70
     0
102
RTVSPropertyOp52
 70
     0
102
RTVSPropertyOp53
 70
     1
102
RTVSPropertyOp54
 70
     1
102
RTVSPropertyOp55
 70
     1
102
RTVSPropertyOp56
 70
     1
102
RTVSPropertyOp57
 70
     1
102
RTVSPropertyOp58
 70
     1
102
RTVSPropertyOp59
 70
     1
102
RTVSPropertyOp60
 70
     1
102
RTVSPropertyOp61
 70
     1
102
RTVSPropertyOp62
 70
     1
  0
XRECORD
  5
515C
102
{ACAD_REACTORS
330
515B
102
}
330
515B
100
AcDbXrecord
280
     1
102
RTVSPost2010Prop28
280
     0
102
RTVSPost2010PropOp28
 70
     1
102
RTVSPost2010Prop29
280
     1
102
RTVSPost2010PropOp29
 70
     1
102
RTVSPost2010Prop30
280
     1
102
RTVSPost2010PropOp30
 70
     1
102
RTVSPost2010Prop31
280
     0
102
RTVSPost2010PropOp31
 70
     1
102
RTVSPost2010Prop32
280
     0
102
RTVSPost2010PropOp32
 70
     1
102
RTVSPost2010Prop33
280
     0
102
RTVSPost2010PropOp33
 70
     1
102
RTVSPost2010Prop34
280
     0
102
RTVSPost2010PropOp34
 70
     1
102
RTVSPost2010Prop35
280
     0
102
RTVSPost2010PropOp35
 70
     1
102
RTVSPost2010Prop36
280
     0
102
RTVSPost2010PropOp36
 70
     1
102
RTVSPost2010Prop37
 90
       50
102
RTVSPost2010PropOp37
 70
     1
102
RTVSPost2010Prop38
140
0.0
102
RTVSPost2010PropOp38
 70
     1
102
RTVSPost2010Prop39
140
1.0
102
RTVSPost2010PropOp39
 70
     1
102
RTVSPost2010Prop40
 90
        0
102
RTVSPost2010PropOp40
 70
     1
102
RTVSPost2010Prop41ColorIndex
 90
       18
102
RTVSPost2010Prop41ColorRGB
 90
        0
102
RTVSPost2010PropOp41
 70
     1
102
RTVSPost2010Prop42
 90
       50
102
RTVSPost2010PropOp42
 70
     1
102
RTVSPost2010Prop43
 90
        3
102
RTVSPost2010PropOp43
 70
     1
102
RTVSPost2010Prop44ColorIndex
 90
        5
102
RTVSPost2010Prop44ColorRGB
 90
      255
102
RTVSPost2010PropOp44
 70
     1
102
RTVSPost2010Prop45
280
     0
102
RTVSPost2010PropOp45
 70
     1
102
RTVSPost2010Prop46
 90
       50
102
RTVSPost2010PropOp46
 70
     1
102
RTVSPost2010Prop47
 90
       50
102
RTVSPost2010PropOp47
 70
     1
102
RTVSPost2010Prop48
 90
       50
102
RTVSPost2010PropOp48
 70
     1
102
RTVSPost2010Prop49
280
     0
102
RTVSPost2010PropOp49
 70
     1
102
RTVSPost2010Prop50
 90
       50
102
RTVSPost2010PropOp50
 70
     1
102
RTVSPost2010Prop51ColorIndex
 90
      256
102
RTVSPost2010Prop51ColorRGB
 90
-16777216
102
RTVSPost2010PropOp51
 70
     0
102
RTVSPost2010Prop52
140
1.0
102
RTVSPost2010PropOp52
 70
     0
102
RTVSPost2010Prop53
 90
        2
102
RTVSPost2010PropOp53
 70
     1
102
RTVSPost2010Prop54
  1
strokes_ogs.tif
102
RTVSPost2010PropOp54
 70
     1
102
RTVSPost2010Prop55
280
     0
102
RTVSPost2010PropOp55
 70
     1
102
RTVSPost2010Prop56
140
1.0
102
RTVSPost2010PropOp56
 70
     1
102
RTVSPost2010Prop57
140
1.0
102
RTVSPost2010PropOp57
 70
     1
102
RTVSPropertyOp0
 70
     1
102
RTVSPropertyOp1
 70
     1
102
RTVSPropertyOp2
 70
     1
102
RTVSPropertyOp3
 70
     1
102
RTVSPropertyOp4
 70
     1
102
RTVSPropertyOp5
 70
     1
102
RTVSPropertyOp6
 70
     1
102
RTVSPropertyOp7
 70
     1
102
RTVSPropertyOp8
 70
     1
102
RTVSPropertyOp9
 70
     1
102
RTVSPropertyOp10
 70
     1
102
RTVSPropertyOp11
 70
     1
102
RTVSPropertyOp12
 70
     1
102
RTVSPropertyOp13
 70
     1
102
RTVSPropertyOp14
 70
     1
102
RTVSPropertyOp15
 70
     1
102
RTVSPropertyOp16
 70
     1
102
RTVSPropertyOp17
 70
     1
102
RTVSPropertyOp18
 70
     1
102
RTVSPropertyOp19
 70
     1
102
RTVSPropertyOp20
 70
     1
102
RTVSPropertyOp21
 70
     1
102
RTVSPropertyOp22
 70
     1
102
RTVSPropertyOp23
 70
     1
102
RTVSPropertyOp24
 70
     1
102
RTVSPropertyOp25
 70
     1
102
RTVSPropertyOp26
 70
     1
102
RTVSPropertyOp27
 70
     1
102
RTVSPropertyOp28
 70
     1
102
RTVSPropertyOp29
 70
     1
102
RTVSPropertyOp30
 70
     1
102
RTVSPropertyOp31
 70
     1
102
RTVSPropertyOp32
 70
     1
102
RTVSPropertyOp33
 70
     1
102
RTVSPropertyOp34
 70
     1
102
RTVSPropertyOp35
 70
     1
102
RTVSPropertyOp36
 70
     1
102
RTVSPropertyOp37
 70
     1
102
RTVSPropertyOp38
 70
     1
102
RTVSPropertyOp39
 70
     1
102
RTVSPropertyOp40
 70
     1
102
RTVSPropertyOp41
 70
     1
102
RTVSPropertyOp42
 70
     1
102
RTVSPropertyOp43
 70
     1
102
RTVSPropertyOp44
 70
     1
102
RTVSPropertyOp45
 70
     1
102
RTVSPropertyOp46
 70
     1
102
RTVSPropertyOp47
 70
     1
102
RTVSPropertyOp48
 70
     1
102
RTVSPropertyOp49
 70
     1
102
RTVSPropertyOp50
 70
     1
102
RTVSPropertyOp51
 70
     0
102
RTVSPropertyOp52
 70
     0
102
RTVSPropertyOp53
 70
     1
102
RTVSPropertyOp54
 70
     1
102
RTVSPropertyOp55
 70
     1
102
RTVSPropertyOp56
 70
     1
102
RTVSPropertyOp57
 70
     1
102
RTVSPropertyOp58
 70
     1
102
RTVSPropertyOp59
 70
     1
102
RTVSPropertyOp60
 70
     1
102
RTVSPropertyOp61
 70
     1
102
RTVSPropertyOp62
 70
     1
  0
ENDSEC
  0
EOF
