  0
SECTION
  2
HEADER
  9
$ACADVER
  1
AC1015
  9
$ACADMAINTVER
 70
    20
  9
$DWGCODEPAGE
  3
ANSI_932
  9
$INSBASE
 10
0.0
 20
0.0
 30
0.0
  9
$EXTMIN
 10
9.999999064246818
 20
9.999999806846743
 30
0.0
  9
$EXTMAX
 10
485.5690590428571
 20
314.9775618634685
 30
0.0
  9
$LIMMIN
 10
0.0000015376081137
 20
-0.0000001931532552
  9
$LIMMAX
 10
495.0000015376081
 20
341.2499998068465
  9
$ORTHOMODE
 70
     0
  9
$REGENMODE
 70
     1
  9
$FILLMODE
 70
     1
  9
$QTEXTMODE
 70
     0
  9
$MIRRTEXT
 70
     1
  9
$LTSCALE
 40
1.0
  9
$ATTMODE
 70
     1
  9
$TEXTSIZE
 40
2.5
  9
$TRACEWID
 40
1.0
  9
$TEXTSTYLE
  7
STANDARD
  9
$CLAYER
  8
0
  9
$CELTYPE
  6
BYLAYER
  9
$CECOLOR
 62
   256
  9
$CELTSCALE
 40
1.0
  9
$DISPSILH
 70
     0
  9
$DIMSCALE
 40
1.0
  9
$DIMASZ
 40
3.0
  9
$DIMEXO
 40
1.0
  9
$DIMDLI
 40
10.0
  9
$DIMRND
 40
0.0
  9
$DIMDLE
 40
0.0
  9
$DIMEXE
 40
1.0
  9
$DIMTP
 40
0.0
  9
$DIMTM
 40
0.0
  9
$DIMTXT
 40
3.2
  9
$DIMCEN
 40
0.0
  9
$DIMTSZ
 40
0.0
  9
$DIMTOL
 70
     0
  9
$DIMLIM
 70
     0
  9
$DIMTIH
 70
     0
  9
$DIMTOH
 70
     0
  9
$DIMSE1
 70
     0
  9
$DIMSE2
 70
     0
  9
$DIMTAD
 70
     3
  9
$DIMZIN
 70
     8
  9
$DIMBLK
  1

  9
$DIMASO
 70
     1
  9
$DIMSHO
 70
     1
  9
$DIMPOST
  1

  9
$DIMAPOST
  1

  9
$DIMALT
 70
     0
  9
$DIMALTD
 70
     2
  9
$DIMALTF
 40
25.4
  9
$DIMLFAC
 40
1.0
  9
$DIMTOFL
 70
     1
  9
$DIMTVP
 40
0.0
  9
$DIMTIX
 70
     0
  9
$DIMSOXD
 70
     0
  9
$DIMSAH
 70
     1
  9
$DIMBLK1
  1
OPEN
  9
$DIMBLK2
  1
OPEN
  9
$DIMSTYLE
  2
STANDARD
  9
$DIMCLRD
 70
     0
  9
$DIMCLRE
 70
     0
  9
$DIMCLRT
 70
     0
  9
$DIMTFAC
 40
1.0
  9
$DIMGAP
 40
1.0
  9
$DIMJUST
 70
     0
  9
$DIMSD1
 70
     0
  9
$DIMSD2
 70
     0
  9
$DIMTOLJ
 70
     1
  9
$DIMTZIN
 70
     0
  9
$DIMALTZ
 70
     0
  9
$DIMALTTZ
 70
     0
  9
$DIMUPT
 70
     0
  9
$DIMDEC
 70
     4
  9
$DIMTDEC
 70
     4
  9
$DIMALTU
 70
     2
  9
$DIMALTTD
 70
     2
  9
$DIMTXSTY
  7
STANDARD
  9
$DIMAUNIT
 70
     0
  9
$DIMADEC
 70
     0
  9
$DIMALTRND
 40
0.0
  9
$DIMAZIN
 70
     0
  9
$DIMDSEP
 70
    46
  9
$DIMATFIT
 70
     3
  9
$DIMFRAC
 70
     0
  9
$DIMLDRBLK
  1
OPEN
  9
$DIMLUNIT
 70
     2
  9
$DIMLWD
 70
    -2
  9
$DIMLWE
 70
    -2
  9
$DIMTMOVE
 70
     0
  9
$LUNITS
 70
     2
  9
$LUPREC
 70
     4
  9
$SKETCHINC
 40
1.0
  9
$FILLETRAD
 40
0.0
  9
$AUNITS
 70
     0
  9
$AUPREC
 70
     0
  9
$MENU
  1
.
  9
$ELEVATION
 40
0.0
  9
$PELEVATION
 40
0.0
  9
$THICKNESS
 40
0.0
  9
$LIMCHECK
 70
     0
  9
$CHAMFERA
 40
10.0
  9
$CHAMFERB
 40
10.0
  9
$CHAMFERC
 40
20.0
  9
$CHAMFERD
 40
0.0
  9
$SKPOLY
 70
     0
  9
$TDCREATE
 40
2453265.604084919
  9
$TDUCREATE
 40
2453265.229084919
  9
$TDUPDATE
 40
2457192.688938658
  9
$TDUUPDATE
 40
2457192.313938657
  9
$TDINDWG
 40
0.2081918750
  9
$TDUSRTIMER
 40
0.2081918519
  9
$USRTIMER
 70
     1
  9
$ANGBASE
 50
0.0
  9
$ANGDIR
 70
     0
  9
$PDMODE
 70
     0
  9
$PDSIZE
 40
0.0
  9
$PLINEWID
 40
0.0
  9
$SPLFRAME
 70
     0
  9
$SPLINETYPE
 70
     6
  9
$SPLINESEGS
 70
     8
  9
$HANDSEED
  5
1DC6
  9
$SURFTAB1
 70
     6
  9
$SURFTAB2
 70
     6
  9
$SURFTYPE
 70
     6
  9
$SURFU
 70
     6
  9
$SURFV
 70
     6
  9
$UCSBASE
  2

  9
$UCSNAME
  2

  9
$UCSORG
 10
0.0
 20
0.0
 30
0.0
  9
$UCSXDIR
 10
1.0
 20
0.0
 30
0.0
  9
$UCSYDIR
 10
0.0
 20
1.0
 30
0.0
  9
$UCSORTHOREF
  2

  9
$UCSORTHOVIEW
 70
     0
  9
$UCSORGTOP
 10
0.0
 20
0.0
 30
0.0
  9
$UCSORGBOTTOM
 10
0.0
 20
0.0
 30
0.0
  9
$UCSORGLEFT
 10
0.0
 20
0.0
 30
0.0
  9
$UCSORGRIGHT
 10
0.0
 20
0.0
 30
0.0
  9
$UCSORGFRONT
 10
0.0
 20
0.0
 30
0.0
  9
$UCSORGBACK
 10
0.0
 20
0.0
 30
0.0
  9
$PUCSBASE
  2

  9
$PUCSNAME
  2

  9
$PUCSORG
 10
0.0
 20
0.0
 30
0.0
  9
$PUCSXDIR
 10
1.0
 20
0.0
 30
0.0
  9
$PUCSYDIR
 10
0.0
 20
1.0
 30
0.0
  9
$PUCSORTHOREF
  2

  9
$PUCSORTHOVIEW
 70
     0
  9
$PUCSORGTOP
 10
0.0
 20
0.0
 30
0.0
  9
$PUCSORGBOTTOM
 10
0.0
 20
0.0
 30
0.0
  9
$PUCSORGLEFT
 10
0.0
 20
0.0
 30
0.0
  9
$PUCSORGRIGHT
 10
0.0
 20
0.0
 30
0.0
  9
$PUCSORGFRONT
 10
0.0
 20
0.0
 30
0.0
  9
$PUCSORGBACK
 10
0.0
 20
0.0
 30
0.0
  9
$USERI1
 70
     0
  9
$USERI2
 70
     0
  9
$USERI3
 70
     0
  9
$USERI4
 70
     0
  9
$USERI5
 70
     0
  9
$USERR1
 40
0.0
  9
$USERR2
 40
0.0
  9
$USERR3
 40
0.0
  9
$USERR4
 40
0.0
  9
$USERR5
 40
0.0
  9
$WORLDVIEW
 70
     1
  9
$SHADEDGE
 70
     3
  9
$SHADEDIF
 70
    70
  9
$TILEMODE
 70
     1
  9
$MAXACTVP
 70
    48
  9
$PINSBASE
 10
0.0
 20
0.0
 30
0.0
  9
$PLIMCHECK
 70
     0
  9
$PEXTMIN
 10
1.000000000000000E+20
 20
1.000000000000000E+20
 30
1.000000000000000E+20
  9
$PEXTMAX
 10
-1.000000000000000E+20
 20
-1.000000000000000E+20
 30
-1.000000000000000E+20
  9
$PLIMMIN
 10
0.0
 20
0.0
  9
$PLIMMAX
 10
420.0
 20
297.0
  9
$UNITMODE
 70
     0
  9
$VISRETAIN
 70
     1
  9
$PLINEGEN
 70
     0
  9
$PSLTSCALE
 70
     1
  9
$TREEDEPTH
 70
  3020
  9
$CMLSTYLE
  2
STANDARD
  9
$CMLJUST
 70
     0
  9
$CMLSCALE
 40
20.0
  9
$PROXYGRAPHICS
 70
     1
  9
$MEASUREMENT
 70
     0
  9
$CELWEIGHT
370
    -1
  9
$ENDCAPS
280
     0
  9
$JOINSTYLE
280
     0
  9
$LWDISPLAY
290
     0
  9
$INSUNITS
 70
     0
  9
$HYPERLINKBASE
  1

  9
$STYLESHEET
  1

  9
$XEDIT
290
     1
  9
$CEPSNTYPE
380
     0
  9
$PSTYLEMODE
290
     1
  9
$FINGERPRINTGUID
  2
{9256B918-5604-4F4C-901E-1C58B3827EE0}
  9
$VERSIONGUID
  2
{20733810-00F6-4D81-9B2F-824CB15DBEE0}
  9
$EXTNAMES
290
     1
  9
$PSVPSCALE
 40
0.0
  9
$OLESTARTUP
290
     0
  0
ENDSEC
  0
SECTION
  2
CLASSES
  0
CLASS
  1
ACDBDICTIONARYWDFLT
  2
AcDbDictionaryWithDefault
  3
ObjectDBX Classes
 90
        0
280
     0
281
     0
  0
CLASS
  1
ACDBPLACEHOLDER
  2
AcDbPlaceHolder
  3
ObjectDBX Classes
 90
        0
280
     0
281
     0
  0
CLASS
  1
LAYOUT
  2
AcDbLayout
  3
ObjectDBX Classes
 90
        0
280
     0
281
     0
  0
CLASS
  1
DICTIONARYVAR
  2
AcDbDictionaryVar
  3
ObjectDBX Classes
 90
        0
280
     0
281
     0
  0
CLASS
  1
MATERIAL
  2
AcDbMaterial
  3
ObjectDBX Classes
 90
     1153
280
     0
281
     0
  0
CLASS
  1
VISUALSTYLE
  2
AcDbVisualStyle
  3
ObjectDBX Classes
 90
     4095
280
     0
281
     0
  0
CLASS
  1
TABLESTYLE
  2
AcDbTableStyle
  3
ObjectDBX Classes
 90
     4095
280
     0
281
     0
  0
CLASS
  1
SCALE
  2
AcDbScale
  3
ObjectDBX Classes
 90
     1153
280
     0
281
     0
  0
CLASS
  1
MLEADERSTYLE
  2
AcDbMLeaderStyle
  3
ACDB_MLEADERSTYLE_CLASS
 90
     4095
280
     0
281
     0
  0
CLASS
  1
ACDBSECTIONVIEWSTYLE
  2
AcDbSectionViewStyle
  3
ObjectDBX Classes
 90
     1025
280
     0
281
     0
  0
CLASS
  1
ACDBDETAILVIEWSTYLE
  2
AcDbDetailViewStyle
  3
ObjectDBX Classes
 90
     1025
280
     0
281
     0
  0
CLASS
  1
CELLSTYLEMAP
  2
AcDbCellStyleMap
  3
ObjectDBX Classes
 90
     1152
280
     0
281
     0
  0
ENDSEC
  0
SECTION
  2
TABLES
  0
TABLE
  2
VPORT
  5
8
330
0
100
AcDbSymbolTable
 70
     1
  0
VPORT
  5
1D12
330
8
100
AcDbSymbolTableRecord
100
AcDbViewportTableRecord
  2
*ACTIVE
 70
     0
 10
0.0
 20
0.0
 11
1.0
 21
1.0
 12
365.1788471930077
 22
162.4889665800688
 13
0.0
 23
0.0
 14
10.0
 24
10.0
 15
10.0
 25
10.0
 16
0.0
 26
0.0
 36
1.0
 17
0.0
 27
0.0
 37
0.0
 40
307.4115664910107
 41
2.35006605019815
 42
50.0
 43
0.0
 44
0.0
 50
0.0
 51
0.0
 71
     0
 72
   100
 73
     1
 74
     0
 75
     0
 76
     0
 77
     0
 78
     0
281
     0
 65
     1
110
0.0
120
0.0
130
0.0
111
1.0
121
0.0
131
0.0
112
0.0
122
1.0
132
0.0
 79
     0
146
0.0
1001
ACAD_NAV_VCDISPLAY
1070
     3
  0
ENDTAB
  0
TABLE
  2
LTYPE
  5
5
330
0
100
AcDbSymbolTable
 70
     4
  0
LTYPE
  5
12
330
5
100
AcDbSymbolTableRecord
100
AcDbLinetypeTableRecord
  2
BYBLOCK
 70
     0
  3

 72
    65
 73
     0
 40
0.0
  0
LTYPE
  5
13
330
5
100
AcDbSymbolTableRecord
100
AcDbLinetypeTableRecord
  2
BYLAYER
 70
     0
  3

 72
    65
 73
     0
 40
0.0
  0
LTYPE
  5
14
330
5
100
AcDbSymbolTableRecord
100
AcDbLinetypeTableRecord
  2
CONTINUOUS
 70
     0
  3
Solid line
 72
    65
 73
     0
 40
0.0
  0
LTYPE
  5
62
330
5
100
AcDbSymbolTableRecord
100
AcDbLinetypeTableRecord
  2
DASHED
 70
     0
  3
Dashed __ __ __ __ __ __ __ __ __ __ __ __ __ _
 72
    65
 73
     2
 40
19.04999999999998
 49
12.7
 74
     0
 49
-6.349999999999997
 74
     0
  0
LTYPE
  5
63
330
5
100
AcDbSymbolTableRecord
100
AcDbLinetypeTableRecord
  2
CENTER
 70
     0
  3
Center ____ _ ____ _ ____ _ ____ _ ____ _ ____
 72
    65
 73
     4
 40
50.8
 49
31.75
 74
     0
 49
-6.349999999999997
 74
     0
 49
6.349999999999997
 74
     0
 49
-6.349999999999997
 74
     0
  0
LTYPE
  5
64
330
5
100
AcDbSymbolTableRecord
100
AcDbLinetypeTableRecord
  2
PHANTOM
 70
     0
  3
Phantom ______  __  __  ______  __  __  ______
 72
    65
 73
     6
 40
63.5
 49
31.75
 74
     0
 49
-6.349999999999997
 74
     0
 49
6.349999999999997
 74
     0
 49
-6.349999999999997
 74
     0
 49
6.349999999999997
 74
     0
 49
-6.349999999999997
 74
     0
  0
ENDTAB
  0
TABLE
  2
LAYER
  5
2
330
0
100
AcDbSymbolTable
 70
     8
  0
LAYER
  5
E
102
{ACAD_XDICTIONARY
360
1D6A
102
}
330
2
100
AcDbSymbolTableRecord
100
AcDbLayerTableRecord
  2
0
 70
     0
 62
     7
  6
CONTINUOUS
370
    -3
390
1D19
  0
LAYER
  5
65
102
{ACAD_XDICTIONARY
360
1D6C
102
}
330
2
100
AcDbSymbolTableRecord
100
AcDbLayerTableRecord
  2
4
 70
     0
 62
     1
  6
CENTER
370
    -3
390
1D19
  0
LAYER
  5
66
102
{ACAD_XDICTIONARY
360
1D6E
102
}
330
2
100
AcDbSymbolTableRecord
100
AcDbLayerTableRecord
  2
5
 70
     0
 62
     6
  6
PHANTOM
370
    -3
390
1D19
  0
LAYER
  5
67
102
{ACAD_XDICTIONARY
360
1D70
102
}
330
2
100
AcDbSymbolTableRecord
100
AcDbLayerTableRecord
  2
1
 70
     0
 62
     7
  6
CONTINUOUS
370
    -3
390
1D19
  0
LAYER
  5
68
102
{ACAD_XDICTIONARY
360
1D72
102
}
330
2
100
AcDbSymbolTableRecord
100
AcDbLayerTableRecord
  2
2
 70
     0
 62
     4
  6
CONTINUOUS
370
    -3
390
1D19
  0
LAYER
  5
69
102
{ACAD_XDICTIONARY
360
1D74
102
}
330
2
100
AcDbSymbolTableRecord
100
AcDbLayerTableRecord
  2
3
 70
     0
 62
     2
  6
DASHED
370
    -3
390
1D19
  0
LAYER
  5
6A
102
{ACAD_XDICTIONARY
360
1D76
102
}
330
2
100
AcDbSymbolTableRecord
100
AcDbLayerTableRecord
  2
6
 70
     0
 62
     5
  6
CONTINUOUS
370
    -3
390
1D19
  0
LAYER
  5
6B
102
{ACAD_XDICTIONARY
360
1D78
102
}
330
2
100
AcDbSymbolTableRecord
100
AcDbLayerTableRecord
  2
7
 70
     0
 62
     3
  6
CONTINUOUS
370
    -3
390
1D19
  0
ENDTAB
  0
TABLE
  2
STYLE
  5
3
330
0
100
AcDbSymbolTable
 70
     1
  0
STYLE
  5
F
330
3
100
AcDbSymbolTableRecord
100
AcDbTextStyleTableRecord
  2
STANDARD
 70
     0
 40
0.0
 41
1.0
 50
0.0
 71
     0
 42
2.5
  3
simplex.shx
  4

  0
ENDTAB
  0
TABLE
  2
VIEW
  5
6
330
0
100
AcDbSymbolTable
 70
     0
  0
ENDTAB
  0
TABLE
  2
UCS
  5
7
330
0
100
AcDbSymbolTable
 70
     0
  0
ENDTAB
  0
TABLE
  2
APPID
  5
9
330
0
100
AcDbSymbolTable
 70
     5
  0
APPID
  5
10
330
9
100
AcDbSymbolTableRecord
100
AcDbRegAppTableRecord
  2
ACAD
 70
     0
  0
APPID
  5
3E
330
9
100
AcDbSymbolTableRecord
100
AcDbRegAppTableRecord
  2
CONTENTTABDATA
 70
     0
  0
APPID
  5
3F
330
9
100
AcDbSymbolTableRecord
100
AcDbRegAppTableRecord
  2
CONTENTCURRENTTAB
 70
     0
  0
APPID
  5
1D84
330
9
100
AcDbSymbolTableRecord
100
AcDbRegAppTableRecord
  2
ACAD_NAV_VCDISPLAY
 70
     0
  0
APPID
  5
1DBD
330
9
100
AcDbSymbolTableRecord
100
AcDbRegAppTableRecord
  2
ACAD_MLEADERVER
 70
     0
  0
ENDTAB
  0
TABLE
  2
DIMSTYLE
  5
A
330
0
100
AcDbSymbolTable
 70
     1
100
AcDbDimStyleTable
 71
     0
  0
DIMSTYLE
105
1D
330
A
100
AcDbSymbolTableRecord
100
AcDbDimStyleTableRecord
  2
STANDARD
 70
     0
 41
3.0
 42
1.0
 43
10.0
 44
1.0
 73
     0
 74
     0
 77
     3
 78
     8
140
3.2
141
0.0
147
1.0
172
     1
173
     1
340
F
341
2E
343
2E
344
2E
  0
ENDTAB
  0
TABLE
  2
BLOCK_RECORD
  5
1
330
0
100
AcDbSymbolTable
 70
     1
  0
BLOCK_RECORD
  5
18
102
{ACAD_XDICTIONARY
360
1CFB
102
}
330
1
100
AcDbSymbolTableRecord
100
AcDbBlockTableRecord
  2
*MODEL_SPACE
340
1D67
  0
BLOCK_RECORD
  5
15
102
{ACAD_XDICTIONARY
360
1CF9
102
}
330
1
100
AcDbSymbolTableRecord
100
AcDbBlockTableRecord
  2
*PAPER_SPACE
340
1D68
  0
BLOCK_RECORD
  5
2E
330
1
100
AcDbSymbolTableRecord
100
AcDbBlockTableRecord
  2
_OPEN
340
0
  0
ENDTAB
  0
ENDSEC
  0
SECTION
  2
BLOCKS
  0
BLOCK
  5
19
330
18
100
AcDbEntity
  8
0
100
AcDbBlockBegin
  2
*MODEL_SPACE
 70
     0
 10
0.0
 20
0.0
 30
0.0
  3
*MODEL_SPACE
  1

  0
ENDBLK
  5
1A
330
18
100
AcDbEntity
  8
0
100
AcDbBlockEnd
  0
BLOCK
  5
16
330
15
100
AcDbEntity
 67
     1
  8
0
100
AcDbBlockBegin
  2
*PAPER_SPACE
 70
     0
 10
0.0
 20
0.0
 30
0.0
  3
*PAPER_SPACE
  1

  0
ENDBLK
  5
17
330
15
100
AcDbEntity
 67
     1
  8
0
100
AcDbBlockEnd
  0
BLOCK
  5
2F
330
2E
100
AcDbEntity
  8
0
100
AcDbBlockBegin
  2
_OPEN
 70
     0
 10
0.0
 20
0.0
 30
0.0
  3
_OPEN
  1

  0
LINE
  5
30
330
2E
100
AcDbEntity
  8
0
  6
ByBlock
 62
     0
100
AcDbLine
 10
-1.0
 20
0.1666666666666666
 30
0.0
 11
0.0
 21
0.0
 31
0.0
  0
LINE
  5
31
330
2E
100
AcDbEntity
  8
0
  6
ByBlock
 62
     0
100
AcDbLine
 10
0.0
 20
0.0
 30
0.0
 11
-1.0
 21
-0.1666666666666666
 31
0.0
  0
LINE
  5
32
330
2E
100
AcDbEntity
  8
0
  6
ByBlock
 62
     0
100
AcDbLine
 10
0.0
 20
0.0
 30
0.0
 11
-1.0
 21
0.0
 31
0.0
  0
ENDBLK
  5
33
330
2E
100
AcDbEntity
  8
0
100
AcDbBlockEnd
  0
ENDSEC
  0
SECTION
  2
ENTITIES
  0
LINE
  5
220
330
18
100
AcDbEntity
  8
4
  6
CENTER
 48
0.4
100
AcDbLine
 10
210.9035106560809
 20
288.9775618634685
 30
0.0
 11
122.2755966560798
 21
288.9775618634685
 31
0.0
  0
ARC
  5
223
330
18
100
AcDbEntity
  8
1
  6
Continuous
100
AcDbCircle
 10
154.1208650128975
 20
235.9109898883176
 30
0.0
 40
30.38134221651255
100
AcDbArc
 50
67.8963117455358
 51
103.6632102195595
  0
CIRCLE
  5
225
330
18
100
AcDbEntity
  8
1
  6
Continuous
100
AcDbCircle
 10
173.2755966560798
 20
288.9775618634685
 30
0.0
 40
17.5
  0
CIRCLE
  5
226
330
18
100
AcDbEntity
  8
1
  6
Continuous
100
AcDbCircle
 10
173.2755966560798
 20
288.9775618634685
 30
0.0
 40
16.5
  0
LINE
  5
227
330
18
100
AcDbEntity
  8
1
  6
Continuous
100
AcDbLine
 10
146.9748306560799
 20
193.8103785345047
 30
0.0
 11
160.3925066560799
 21
196.1762779345047
 31
0.0
  0
LINE
  5
228
330
18
100
AcDbEntity
  8
5
  6
PHANTOM
 48
0.2
100
AcDbLine
 10
155.6133966560798
 20
176.8579396345047
 30
0.0
 11
158.9274966560799
 21
176.2047166345046
 31
0.0
  0
LINE
  5
229
330
18
100
AcDbEntity
  8
1
  6
Continuous
100
AcDbLine
 10
158.6416166560798
 20
173.2294466345047
 30
0.0
 11
156.9095666560799
 21
174.2294466345047
 31
0.0
  0
LINE
  5
22A
330
18
100
AcDbEntity
  8
1
  6
Continuous
100
AcDbLine
 10
159.3916166560799
 20
174.5284846345047
 30
0.0
 11
157.6595666560798
 21
175.5284846345047
 31
0.0
  0
LINE
  5
22B
330
18
100
AcDbEntity
  8
5
  6
PHANTOM
 48
0.2
100
AcDbLine
 10
155.3233166560799
 20
175.3862536345047
 30
0.0
 11
158.6374266560798
 21
174.7330306345046
 31
0.0
  0
ARC
  5
22C
330
18
100
AcDbEntity
  8
5
  6
PHANTOM
 48
0.2
100
AcDbCircle
 10
148.1338466560798
 20
173.9605186345047
 30
0.0
 40
20.0
100
AcDbArc
 50
257.5353300000002
 51
328.4646600000002
  0
CIRCLE
  5
22D
330
18
100
AcDbEntity
  8
1
  6
Continuous
100
AcDbCircle
 10
152.2755966560799
 20
164.2031676345045
 30
0.0
 40
6.5
  0
LINE
  5
22E
330
18
100
AcDbEntity
  8
1
  6
Continuous
100
AcDbLine
 10
158.0491066560799
 20
164.2031676345045
 30
0.0
 11
155.1623566560799
 21
169.2031636345046
 31
0.0
  0
ARC
  5
22F
330
18
100
AcDbEntity
  8
5
  6
PHANTOM
 48
0.2
100
AcDbCircle
 10
157.2670666560799
 20
160.4418226345045
 30
0.0
 40
3.25
100
AcDbArc
 50
233.0000099999998
 51
53.00000000000044
  0
LINE
  5
230
330
18
100
AcDbEntity
  8
1
  6
Continuous
100
AcDbLine
 10
158.0490966560797
 20
164.2031676345045
 30
0.0
 11
155.1623466560798
 21
159.2031636345046
 31
0.0
  0
ARC
  5
232
330
18
100
AcDbEntity
  8
1
  6
Continuous
100
AcDbCircle
 10
157.5755966560799
 20
173.3830366345046
 30
0.0
 40
20.0
100
AcDbArc
 50
204.5353300000001
 51
275.46466
  0
LINE
  5
234
330
18
100
AcDbEntity
  8
1
  6
Continuous
100
AcDbLine
 10
157.5331666560799
 20
197.8031648345045
 30
0.0
 11
189.0180266560799
 21
197.8031648345045
 31
0.0
  0
LINE
  5
235
330
18
100
AcDbEntity
  8
1
  6
Continuous
100
AcDbLine
 10
156.2755966560799
 20
198.4031643945045
 30
0.0
 11
190.2755966560798
 21
198.4031644345046
 31
0.0
  0
LINE
  5
236
330
18
100
AcDbEntity
  8
4
  6
CENTER
 48
0.4
100
AcDbLine
 10
182.2755966560799
 20
164.2031636345046
 30
0.0
 11
122.2755966560798
 21
164.2031636345046
 31
0.0
  0
LINE
  5
237
330
18
100
AcDbEntity
  8
1
  6
Continuous
100
AcDbLine
 10
138.2755966560798
 20
204.2031636345046
 30
0.0
 11
208.2755966560798
 21
204.2031636345046
 31
0.0
  0
LINE
  5
238
330
18
100
AcDbEntity
  8
1
  6
Continuous
100
AcDbLine
 10
138.2755966560798
 20
202.7031636345046
 30
0.0
 11
208.2755966560798
 21
202.7031636345046
 31
0.0
  0
LINE
  5
239
330
18
100
AcDbEntity
  8
1
  6
Continuous
100
AcDbLine
 10
49.62886546269101
 20
198.4031643945045
 30
0.0
 11
15.62886546269111
 21
198.4031644345046
 31
0.0
  0
LINE
  5
23A
330
18
100
AcDbEntity
  8
1
  6
Continuous
100
AcDbLine
 10
53.62886546269101
 20
202.7031636345046
 30
0.0
 11
11.62886546269111
 21
202.7031636345046
 31
0.0
  0
LINE
  5
23B
330
18
100
AcDbEntity
  8
1
  6
Continuous
100
AcDbLine
 10
53.62886546269101
 20
204.2031636345046
 30
0.0
 11
11.62886546269111
 21
204.2031636345046
 31
0.0
  0
ARC
  5
23D
330
18
100
AcDbEntity
  8
1
  6
Continuous
100
AcDbCircle
 10
32.62886546269101
 20
164.3253216345045
 30
0.0
 40
26.87784399999999
100
AcDbArc
 50
61.07464299999995
 51
118.9253599999996
  0
ARC
  5
23E
330
18
100
AcDbEntity
  8
1
  6
Continuous
100
AcDbCircle
 10
32.62886546269101
 20
453.2735636345046
 30
0.0
 40
260.9404
100
AcDbArc
 50
267.1443399999997
 51
272.8556399999995
  0
ARC
  5
23F
330
18
100
AcDbEntity
  8
1
  6
Continuous
100
AcDbCircle
 10
32.62886546269101
 20
454.7481036345046
 30
0.0
 40
260.9404
100
AcDbArc
 50
267.2730700000002
 51
272.7269
  0
LINE
  5
240
330
18
100
AcDbEntity
  8
1
  6
Continuous
100
AcDbLine
 10
16.82886246269112
 20
197.8031649345047
 30
0.0
 11
48.37129746269102
 21
197.8031649345047
 31
0.0
  0
ARC
  5
241
330
18
100
AcDbEntity
  8
1
  6
Continuous
100
AcDbCircle
 10
32.62886546269101
 20
267.6204156345046
 30
0.0
 40
72.617249
100
AcDbArc
 50
259.6872699999999
 51
280.3127300000001
  0
LINE
  5
243
330
18
100
AcDbEntity
  8
4
  6
CENTER
 48
0.4
100
AcDbLine
 10
65.12886546269101
 20
164.2031636345046
 30
0.0
 11
10.12886546269111
 21
164.2031636345046
 31
0.0
  0
LINE
  5
245
330
18
100
AcDbEntity
  8
4
  6
CENTER
 48
0.4
100
AcDbLine
 10
32.62886546269101
 20
209.1781640345045
 30
0.0
 11
32.62886546269101
 21
134.2031636345047
 31
0.0
  0
TEXT
  5
246
330
18
100
AcDbEntity
  8
1
  6
Continuous
 48
0.25
100
AcDbText
 10
9.99999906424682
 20
10.00000056761564
 30
0.0
 40
1.399999999999999
  1
LAYER
100
AcDbText
  0
TEXT
  5
247
330
18
100
AcDbEntity
  8
7
  6
Continuous
 48
0.25
100
AcDbText
 10
9.99999906424682
 20
18.00000056761564
 30
0.0
 40
3.0
  1
TYPE No.TCA-315E-UR50
100
AcDbText
  0
TEXT
  5
248
330
18
100
AcDbEntity
  8
7
  6
Continuous
 48
0.25
100
AcDbText
 10
9.99999906424682
 20
26.00000056761564
 30
0.0
 40
3.0
  1
CODE No.19226
100
AcDbText
  0
TEXT
  5
249
330
18
100
AcDbEntity
  8
2
  6
Continuous
 48
0.25
100
AcDbText
 10
19.97951006424682
 20
9.999999806846743
 30
0.0
 40
1.399999999999999
  1
2
100
AcDbText
  0
TEXT
  5
24A
330
18
100
AcDbEntity
  8
1
  6
Continuous
 48
0.25
100
AcDbText
 10
17.97951006424682
 20
9.999999806846743
 30
0.0
 40
1.399999999999999
  1
1
100
AcDbText
  0
TEXT
  5
24B
330
18
100
AcDbEntity
  8
3
  6
DASHED
 48
0.25
100
AcDbText
 10
21.97951006424682
 20
9.999999806846743
 30
0.0
 40
1.399999999999999
  1
3
100
AcDbText
  0
TEXT
  5
24C
330
18
100
AcDbEntity
  8
5
  6
PHANTOM
 48
0.2
100
AcDbText
 10
25.97951006424682
 20
9.999999806846743
 30
0.0
 40
1.399999999999999
  1
5
100
AcDbText
  0
TEXT
  5
24D
330
18
100
AcDbEntity
  8
4
  6
CENTER
 48
0.25
100
AcDbText
 10
23.97951006424682
 20
9.999999806846743
 30
0.0
 40
1.399999999999999
  1
4
100
AcDbText
  0
TEXT
  5
24E
330
18
100
AcDbEntity
  8
7
  6
Continuous
 48
0.25
100
AcDbText
 10
29.97951006424682
 20
9.999999806846743
 30
0.0
 40
1.399999999999999
  1
7
100
AcDbText
  0
TEXT
  5
24F
330
18
100
AcDbEntity
  8
6
  6
Continuous
 48
0.25
100
AcDbText
 10
27.97951006424682
 20
9.999999806846743
 30
0.0
 40
1.399999999999999
  1
6
100
AcDbText
  0
LINE
  5
250
330
18
100
AcDbEntity
  8
1
  6
Continuous
100
AcDbLine
 10
13.72107846269114
 20
179.4915776345046
 30
0.0
 11
14.33070146269108
 21
195.3989036345047
 31
0.0
  0
LINE
  5
251
330
18
100
AcDbEntity
  8
1
  6
Continuous
100
AcDbLine
 10
18.12886546269112
 20
192.3006902345047
 30
0.0
 11
18.12886546269112
 21
157.1031686345046
 31
0.0
  0
LINE
  5
252
330
18
100
AcDbEntity
  8
1
  6
Continuous
100
AcDbLine
 10
19.62886546269112
 20
192.6571984345047
 30
0.0
 11
19.62886546269112
 21
153.8031616345046
 31
0.0
  0
LINE
  5
263
330
18
100
AcDbEntity
  8
1
  6
Continuous
100
AcDbLine
 10
18.12886546269112
 20
157.1031686345046
 30
0.0
 11
19.62886546269112
 21
157.1031686345046
 31
0.0
  0
ARC
  5
266
330
18
100
AcDbEntity
  8
1
  6
Continuous
100
AcDbCircle
 10
38.70644446269114
 20
178.6363456345046
 30
0.0
 40
25.0
100
AcDbArc
 50
177.57103
 51
201.803755955432
  0
LINE
  5
274
330
18
100
AcDbEntity
  8
4
  6
CENTER
 48
0.1
100
AcDbLine
 10
18.62886546269112
 20
207.2031636345045
 30
0.0
 11
18.62886546269112
 21
199.7031636345045
 31
0.0
  0
ARC
  5
279
330
18
100
AcDbEntity
  8
1
  6
Continuous
100
AcDbCircle
 10
20.11931346269113
 20
192.1054549345047
 30
0.0
 40
2.0
100
AcDbArc
 50
87.27300800000014
 51
185.6019999999998
  0
ARC
  5
27A
330
18
100
AcDbEntity
  8
1
  6
Continuous
100
AcDbCircle
 10
16.82886246269112
 20
195.3031649345047
 30
0.0
 40
2.5
100
AcDbArc
 50
89.99998199999998
 51
177.80531
  0
ARC
  5
27B
330
18
100
AcDbEntity
  8
1
  6
Continuous
100
AcDbCircle
 10
15.62886546269111
 20
200.4031644345046
 30
0.0
 40
2.0
100
AcDbArc
 50
208.1641000000002
 51
270.0
  0
ARC
  5
27C
330
18
100
AcDbEntity
  8
1
  6
Continuous
100
AcDbCircle
 10
11.82941146269115
 20
202.2031636345047
 30
0.0
 40
0.5
100
AcDbArc
 50
28.16415700000023
 51
90.00001599999967
  0
LINE
  5
27D
330
18
100
AcDbEntity
  8
1
  6
Continuous
100
AcDbLine
 10
11.62886546269111
 20
204.2031636345046
 30
0.0
 11
11.62886546269111
 21
202.7031636345046
 31
0.0
  0
LINE
  5
27E
330
18
100
AcDbEntity
  8
1
  6
Continuous
100
AcDbLine
 10
12.27020746269113
 20
202.4391632345047
 30
0.0
 11
13.86566646269113
 21
199.4591686845047
 31
0.0
  0
ARC
  5
27F
330
18
100
AcDbEntity
  8
1
  6
Continuous
100
AcDbCircle
 10
20.67000346269106
 20
198.8876652845045
 30
0.0
 40
1.984500099999999
100
AcDbArc
 50
194.1311599999995
 51
213.1262299999997
  0
ARC
  5
280
330
18
100
AcDbEntity
  8
1
  6
Continuous
100
AcDbCircle
 10
20.12886546269112
 20
198.8876652845045
 30
0.0
 40
1.984500099999999
100
AcDbArc
 50
194.1311599999995
 51
213.1262299999997
  0
ARC
  5
281
330
18
100
AcDbEntity
  8
1
  6
Continuous
100
AcDbCircle
 10
25.18662046269111
 20
198.8876652845045
 30
0.0
 40
1.984500099999999
100
AcDbArc
 50
194.1311599999995
 51
213.1262299999997
  0
ARC
  5
282
330
18
100
AcDbEntity
  8
1
  6
Continuous
100
AcDbCircle
 10
22.41335046269114
 20
198.8876652845045
 30
0.0
 40
1.984500099999999
100
AcDbArc
 50
194.1311599999995
 51
213.1262299999997
  0
ARC
  5
283
330
18
100
AcDbEntity
  8
1
  6
Continuous
100
AcDbCircle
 10
28.71020246269107
 20
198.8876652845045
 30
0.0
 40
1.984500099999999
100
AcDbArc
 50
194.1311599999995
 51
213.1262299999997
  0
ARC
  5
284
330
18
100
AcDbEntity
  8
1
  6
Continuous
100
AcDbCircle
 10
25.18662046269111
 20
198.8876652845045
 30
0.0
 40
1.984500099999999
100
AcDbArc
 50
326.8737700000003
 51
332.5952099999998
  0
ARC
  5
285
330
18
100
AcDbEntity
  8
1
  6
Continuous
100
AcDbCircle
 10
28.71020246269107
 20
198.8876652845045
 30
0.0
 40
1.984500099999999
100
AcDbArc
 50
326.8737700000003
 51
345.8688299999995
  0
ARC
  5
286
330
18
100
AcDbEntity
  8
1
  6
Continuous
100
AcDbCircle
 10
32.62886546269101
 20
198.8876652845045
 30
0.0
 40
1.984500099999999
100
AcDbArc
 50
194.1311599999995
 51
213.1262299999997
  0
ARC
  5
287
330
18
100
AcDbEntity
  8
1
  6
Continuous
100
AcDbCircle
 10
32.62886546269101
 20
198.8876652845045
 30
0.0
 40
1.984500099999999
100
AcDbArc
 50
326.8737700000003
 51
345.8688399999997
  0
ARC
  5
288
330
18
100
AcDbEntity
  8
1
  6
Continuous
100
AcDbCircle
 10
36.54752846269115
 20
198.8876652845045
 30
0.0
 40
1.984500099999999
100
AcDbArc
 50
194.1311599999995
 51
213.1262299999997
  0
ARC
  5
289
330
18
100
AcDbEntity
  8
1
  6
Continuous
100
AcDbCircle
 10
40.07111046269102
 20
198.8876652845045
 30
0.0
 40
1.984500099999999
100
AcDbArc
 50
207.40479
 51
213.1262299999997
  0
ARC
  5
28A
330
18
100
AcDbEntity
  8
1
  6
Continuous
100
AcDbCircle
 10
36.54752846269115
 20
198.8876652845045
 30
0.0
 40
1.984500099999999
100
AcDbArc
 50
326.8737700000003
 51
345.8688399999997
  0
LINE
  5
28B
330
18
100
AcDbEntity
  8
4
  6
CENTER
 48
0.4
100
AcDbLine
 10
152.2755966560799
 20
191.7031636345047
 30
0.0
 11
152.2755966560799
 21
134.2031636345047
 31
0.0
  0
ARC
  5
28D
330
18
100
AcDbEntity
  8
1
  6
Continuous
100
AcDbCircle
 10
63.82886626269101
 20
183.7493156345047
 30
0.0
 40
1.5
100
AcDbArc
 50
317.1014099999997
 51
47.13928500000028
  0
LINE
  5
28E
330
18
100
AcDbEntity
  8
1
  6
Continuous
100
AcDbLine
 10
45.628865462691
 20
192.6571984345047
 30
0.0
 11
45.628865462691
 21
179.9106466345047
 31
0.0
  0
LINE
  5
28F
330
18
100
AcDbEntity
  8
1
  6
Continuous
100
AcDbLine
 10
48.62888046269103
 20
185.0332916345045
 30
0.0
 11
48.62888046269103
 21
153.1865466345046
 31
0.0
  0
LINE
  5
290
330
18
100
AcDbEntity
  8
1
  6
Continuous
100
AcDbLine
 10
47.12886546269101
 20
192.3006124345047
 30
0.0
 11
47.12886546269101
 21
153.1865466345046
 31
0.0
  0
LINE
  5
294
330
18
100
AcDbEntity
  8
1
  6
Continuous
100
AcDbLine
 10
60.62886546269112
 20
163.2207553238377
 30
0.0
 11
67.50747276269101
 21
158.8155946345047
 31
0.0
  0
LINE
  5
29C
330
18
100
AcDbEntity
  8
1
  6
Continuous
100
AcDbLine
 10
45.628865462691
 20
176.0833246345046
 30
0.0
 11
45.628865462691
 21
157.1031686345046
 31
0.0
  0
ARC
  5
29E
330
18
100
AcDbEntity
  8
1
  6
Continuous
100
AcDbCircle
 10
59.26731546269114
 20
165.5322576345046
 30
0.0
 40
14.405884
100
AcDbArc
 50
241.1788499999994
 51
305.6665899999996
  0
ARC
  5
29F
330
18
100
AcDbEntity
  8
1
  6
Continuous
100
AcDbCircle
 10
48.32886646269106
 20
151.1249856345046
 30
0.0
 40
1.0
100
AcDbArc
 50
0.0
 51
62.30345599999989
  0
ARC
  5
2A0
330
18
100
AcDbEntity
  8
1
  6
Continuous
100
AcDbCircle
 10
49.62886546269101
 20
151.1249886345046
 30
0.0
 40
1.0
100
AcDbArc
 50
0.0
 51
62.3032920000001
  0
LINE
  5
2A1
330
18
100
AcDbEntity
  8
1
  6
Continuous
100
AcDbLine
 10
50.62886546269101
 20
150.2245026345045
 30
0.0
 11
50.62886546269101
 21
157.7031596345046
 31
0.0
  0
LINE
  5
2A2
330
18
100
AcDbEntity
  8
1
  6
Continuous
100
AcDbLine
 10
49.32886646269103
 20
150.2245026345045
 30
0.0
 11
50.62886546269101
 21
150.2245026345045
 31
0.0
  0
LINE
  5
2A3
330
18
100
AcDbEntity
  8
1
  6
Continuous
100
AcDbLine
 10
49.32886646269103
 20
150.2245026345045
 30
0.0
 11
49.32886646269103
 21
151.1249856345046
 31
0.0
  0
LINE
  5
2A4
330
18
100
AcDbEntity
  8
1
  6
Continuous
100
AcDbLine
 10
45.92886446269115
 20
156.1173556345045
 30
0.0
 11
47.12886546269101
 21
156.1173556345045
 31
0.0
  0
LINE
  5
2A5
330
18
100
AcDbEntity
  8
1
  6
Continuous
100
AcDbLine
 10
45.628865462691
 20
157.1031686345046
 30
0.0
 11
47.12886546269101
 21
157.1031686345046
 31
0.0
  0
LINE
  5
2A6
330
18
100
AcDbEntity
  8
1
  6
Continuous
100
AcDbLine
 10
45.92886446269115
 20
153.6182256345046
 30
0.0
 11
47.12886546269101
 21
153.6182256345046
 31
0.0
  0
LINE
  5
2A8
330
18
100
AcDbEntity
  8
1
  6
Continuous
100
AcDbLine
 10
45.92886446269115
 20
153.6182256345046
 30
0.0
 11
45.92886446269115
 21
156.1173556345045
 31
0.0
  0
ARC
  5
2AC
330
18
100
AcDbEntity
  8
1
  6
Continuous
100
AcDbCircle
 10
51.62886546269101
 20
152.1511616345045
 30
0.0
 40
1.0
100
AcDbArc
 50
61.1788509999997
 51
180.0000100000002
  0
ARC
  5
2AD
330
18
100
AcDbEntity
  8
1
  6
Continuous
100
AcDbCircle
 10
49.12888046269102
 20
153.1865466345046
 30
0.0
 40
0.5
100
AcDbArc
 50
179.9999899999995
 51
242.30328
  0
LINE
  5
2AE
330
18
100
AcDbEntity
  8
1
  6
Continuous
100
AcDbLine
 10
48.86861746269113
 20
152.7596246345046
 30
0.0
 11
50.14939046269114
 21
151.9788366345045
 31
0.0
  0
ARC
  5
2AF
330
18
100
AcDbEntity
  8
1
  6
Continuous
100
AcDbCircle
 10
47.62886546269101
 20
153.1865466345046
 30
0.0
 40
0.5
100
AcDbArc
 50
179.9999899999995
 51
242.3034499999998
  0
LINE
  5
2B0
330
18
100
AcDbEntity
  8
1
  6
Continuous
100
AcDbLine
 10
48.79365646269114
 20
152.0104066345046
 30
0.0
 11
47.39647246269099
 21
152.7438396345045
 31
0.0
  0
LINE
  5
2B1
330
18
100
AcDbEntity
  8
1
  6
Continuous
100
AcDbLine
 10
47.12886546269101
 20
153.3830346345046
 30
0.0
 11
48.62888046269103
 21
153.3830346345046
 31
0.0
  0
ARC
  5
2B2
330
18
100
AcDbEntity
  8
1
  6
Continuous
100
AcDbCircle
 10
48.62888046269103
 20
156.5031666345046
 30
0.0
 40
1.8
100
AcDbArc
 50
270.0
 51
0.0
  0
LINE
  5
2B3
330
18
100
AcDbEntity
  8
1
  6
Continuous
100
AcDbLine
 10
52.110944462691
 20
153.0272906345046
 30
0.0
 11
52.32256846269114
 21
152.9108476345046
 31
0.0
  0
LINE
  5
2B5
330
18
100
AcDbEntity
  8
2
  6
Continuous
100
AcDbLine
 10
50.42887946269114
 20
161.7031636345046
 30
0.0
 11
48.62888646269102
 21
161.7031636345046
 31
0.0
  0
LINE
  5
2B6
330
18
100
AcDbEntity
  8
1
  6
Continuous
100
AcDbLine
 10
50.42887946269114
 20
161.2031636345046
 30
0.0
 11
49.42055446269114
 21
161.2031636345046
 31
0.0
  0
LINE
  5
2BA
330
18
100
AcDbEntity
  8
1
  6
Continuous
100
AcDbLine
 10
50.42887946269114
 20
160.5663226345046
 30
0.0
 11
48.62888246269102
 21
161.7031636345046
 31
0.0
  0
LINE
  5
2BC
330
18
100
AcDbEntity
  8
1
  6
Continuous
100
AcDbLine
 10
60.49813046350301
 20
161.572427896788
 30
0.0
 11
67.50747176269101
 21
157.0835426345046
 31
0.0
  0
LINE
  5
2BD
330
18
100
AcDbEntity
  8
2
  6
Continuous
100
AcDbLine
 10
60.6288664626911
 20
161.7031636345045
 30
0.0
 11
56.32887946269114
 21
161.7031636345046
 31
0.0
  0
LINE
  5
2BE
330
18
100
AcDbEntity
  8
1
  6
Continuous
100
AcDbLine
 10
60.12886546269111
 20
161.2031636345046
 30
0.0
 11
56.32887946269114
 21
161.2031636345046
 31
0.0
  0
ARC
  5
2C0
330
18
100
AcDbEntity
  8
1
  6
Continuous
100
AcDbCircle
 10
66.42886466269101
 20
155.3993156345045
 30
0.0
 40
2.0
100
AcDbArc
 50
307.0702199999999
 51
57.36389700000028
  0
LINE
  5
2C1
330
18
100
AcDbEntity
  8
1
  6
Continuous
100
AcDbLine
 10
68.42886466269101
 20
155.3993156345045
 30
0.0
 11
68.42886466269101
 21
157.1313676345046
 31
0.0
  0
ARC
  5
2C2
330
18
100
AcDbEntity
  8
1
  6
Continuous
100
AcDbCircle
 10
66.42886466269101
 20
157.1313676345046
 30
0.0
 40
2.0
100
AcDbArc
 50
0.0
 51
57.36389700000028
  0
LINE
  5
2C3
330
18
100
AcDbEntity
  8
1
  6
Continuous
100
AcDbLine
 10
48.62888046269103
 20
175.4114936345047
 30
0.0
 11
58.12888046269103
 21
175.4114936345047
 31
0.0
  0
ARC
  5
2C6
330
18
100
AcDbEntity
  8
1
  6
Continuous
100
AcDbCircle
 10
48.62888046269103
 20
171.9031686345047
 30
0.0
 40
1.8
100
AcDbArc
 50
0.0
 51
90.00000300000015
  0
LINE
  5
2CB
330
18
100
AcDbEntity
  8
1
  6
Continuous
100
AcDbLine
 10
48.62888046269103
 20
166.4531636345046
 30
0.0
 11
50.42888146269114
 21
167.6031636345046
 31
0.0
  0
LINE
  5
2CD
330
18
100
AcDbEntity
  8
1
  6
Continuous
100
AcDbLine
 10
50.42887946269114
 20
167.2031636345046
 30
0.0
 11
49.80279246269105
 21
167.2031636345046
 31
0.0
  0
LINE
  5
2CE
330
18
100
AcDbEntity
  8
2
  6
Continuous
100
AcDbLine
 10
50.42887946269114
 20
166.7031636345046
 30
0.0
 11
49.02018446269102
 21
166.7031636345046
 31
0.0
  0
LINE
  5
2D6
330
18
100
AcDbEntity
  8
1
  6
Continuous
100
AcDbLine
 10
46.45499946269114
 20
178.2993146345047
 30
0.0
 11
47.12886546269101
 21
178.2993146345047
 31
0.0
  0
LINE
  5
2D7
330
18
100
AcDbEntity
  8
1
  6
Continuous
100
AcDbLine
 10
46.45499946269114
 20
176.1993166345046
 30
0.0
 11
47.12886546269101
 21
176.1993166345046
 31
0.0
  0
LINE
  5
2D8
330
18
100
AcDbEntity
  8
1
  6
Continuous
100
AcDbLine
 10
46.44639346269104
 20
180.0241876345046
 30
0.0
 11
47.12886546269101
 21
180.0241876345046
 31
0.0
  0
ARC
  5
2D9
330
18
100
AcDbEntity
  8
1
  6
Continuous
100
AcDbCircle
 10
46.45499946269114
 20
175.2993146345047
 30
0.0
 40
3.0
100
AcDbArc
 50
90.00000300000015
 51
120.5780699999996
  0
LINE
  5
2DA
330
18
100
AcDbEntity
  8
1
  6
Continuous
100
AcDbLine
 10
44.52886746269103
 20
177.2313676345046
 30
0.0
 11
44.52886746269103
 21
179.3313656345046
 31
0.0
  0
LINE
  5
2DB
330
18
100
AcDbEntity
  8
1
  6
Continuous
100
AcDbLine
 10
44.52886746269103
 20
179.3313656345046
 30
0.0
 11
44.92886646269101
 21
177.8821266345046
 31
0.0
  0
ARC
  5
2DD
330
18
100
AcDbEntity
  8
1
  6
Continuous
100
AcDbCircle
 10
46.45499946269114
 20
173.1993166345047
 30
0.0
 40
3.0
100
AcDbArc
 50
90.00000300000015
 51
120.5780699999996
  0
LINE
  5
2DE
330
18
100
AcDbEntity
  8
1
  6
Continuous
100
AcDbLine
 10
44.92886846269101
 20
175.7821256345047
 30
0.0
 11
44.92886846269101
 21
177.8821266345046
 31
0.0
  0
LINE
  5
2E0
330
18
100
AcDbEntity
  8
1
  6
Continuous
100
AcDbLine
 10
44.52886546269104
 20
177.2313676345046
 30
0.0
 11
44.92886446269102
 21
175.7821256345047
 31
0.0
  0
ARC
  5
2E1
330
18
100
AcDbEntity
  8
1
  6
Continuous
100
AcDbCircle
 10
46.44639346269104
 20
177.0241876345045
 30
0.0
 40
3.0
100
AcDbArc
 50
90.00000300000015
 51
129.7304699999995
  0
LINE
  5
2E2
330
18
100
AcDbEntity
  8
1
  6
Continuous
100
AcDbLine
 10
55.92887946269114
 20
175.4114936345047
 30
0.0
 11
55.92887946269114
 21
169.2031636345046
 31
0.0
  0
LINE
  5
2E5
330
18
100
AcDbEntity
  8
2
  6
Continuous
100
AcDbLine
 10
60.62886546269115
 20
166.7031636345046
 30
0.0
 11
56.32887946269114
 21
166.7031636345046
 31
0.0
  0
LINE
  5
2E6
330
18
100
AcDbEntity
  8
1
  6
Continuous
100
AcDbLine
 10
60.12886446269112
 20
167.2031636345046
 30
0.0
 11
56.32887946269114
 21
167.2031636345046
 31
0.0
  0
LINE
  5
2EA
330
18
100
AcDbEntity
  8
1
  6
Continuous
100
AcDbLine
 10
58.12888046269103
 20
175.4114916345047
 30
0.0
 11
64.92770596269105
 21
182.7282606345047
 31
0.0
  0
LINE
  5
2EB
330
18
100
AcDbEntity
  8
4
  6
CENTER
 48
0.1
100
AcDbLine
 10
46.62886546269101
 20
207.1781640345045
 30
0.0
 11
46.62886546269101
 21
199.7031636345045
 31
0.0
  0
ARC
  5
2EC
330
18
100
AcDbEntity
  8
1
  6
Continuous
100
AcDbCircle
 10
56.88608646269114
 20
174.7984696345046
 30
0.0
 40
14.5
100
AcDbArc
 50
90.22610900000026
 51
128.3583399999997
  0
ARC
  5
2ED
330
18
100
AcDbEntity
  8
1
  6
Continuous
100
AcDbCircle
 10
56.48102546269115
 20
175.3187416345047
 30
0.0
 40
12.680579
100
AcDbArc
 50
48.49406599999965
 51
127.3475800000001
  0
ARC
  5
2EE
330
18
100
AcDbEntity
  8
1
  6
Continuous
100
AcDbCircle
 10
45.13840946269101
 20
192.1054549345047
 30
0.0
 40
2.0
100
AcDbArc
 50
354.4002399999998
 51
92.72690099999961
  0
LINE
  5
2EF
330
18
100
AcDbEntity
  8
1
  6
Continuous
100
AcDbLine
 10
51.20524146269104
 20
188.1393096345047
 30
0.0
 11
50.92702746269106
 21
195.3989043345045
 31
0.0
  0
ARC
  5
2F0
330
18
100
AcDbEntity
  8
1
  6
Continuous
100
AcDbCircle
 10
49.12886546269101
 20
184.6002816345047
 30
0.0
 40
2.0
100
AcDbArc
 50
128.3583399999997
 51
180.0000100000002
  0
ARC
  5
2F2
330
18
100
AcDbEntity
  8
1
  6
Continuous
100
AcDbCircle
 10
49.12888046269102
 20
185.0332916345045
 30
0.0
 40
0.5
100
AcDbArc
 50
124.6727300000002
 51
180.0000100000002
  0
ARC
  5
2F3
330
18
100
AcDbEntity
  8
1
  6
Continuous
100
AcDbCircle
 10
45.12886546269101
 20
198.8876652845045
 30
0.0
 40
1.984500099999999
100
AcDbArc
 50
326.8737700000003
 51
345.8688399999997
  0
ARC
  5
2F4
330
18
100
AcDbEntity
  8
1
  6
Continuous
100
AcDbCircle
 10
40.07111046269102
 20
198.8876652845045
 30
0.0
 40
1.984500099999999
100
AcDbArc
 50
326.8737700000003
 51
345.8688399999997
  0
ARC
  5
2F5
330
18
100
AcDbEntity
  8
1
  6
Continuous
100
AcDbCircle
 10
44.58772746269102
 20
198.8876652845045
 30
0.0
 40
1.984500099999999
100
AcDbArc
 50
326.8737700000003
 51
345.8688399999997
  0
ARC
  5
2F6
330
18
100
AcDbEntity
  8
1
  6
Continuous
100
AcDbCircle
 10
42.84438046269104
 20
198.8876652845045
 30
0.0
 40
1.984500099999999
100
AcDbArc
 50
326.8737700000003
 51
345.8688399999997
  0
ARC
  5
2F7
330
18
100
AcDbEntity
  8
1
  6
Continuous
100
AcDbCircle
 10
49.62886546269101
 20
200.4031644345046
 30
0.0
 40
2.0
100
AcDbArc
 50
270.0
 51
331.8358700000001
  0
ARC
  5
2F8
330
18
100
AcDbEntity
  8
1
  6
Continuous
100
AcDbCircle
 10
48.42886846269101
 20
195.3031649345047
 30
0.0
 40
2.5
100
AcDbArc
 50
2.194649100000075
 51
89.99998199999998
  0
ARC
  5
2F9
330
18
100
AcDbEntity
  8
1
  6
Continuous
100
AcDbCircle
 10
53.42831946269104
 20
202.2031636345047
 30
0.0
 40
0.5
100
AcDbArc
 50
89.9999619999996
 51
151.83583
  0
LINE
  5
2FA
330
18
100
AcDbEntity
  8
1
  6
Continuous
100
AcDbLine
 10
53.62886546269101
 20
204.2031636345046
 30
0.0
 11
53.62886546269101
 21
202.7031636345046
 31
0.0
  0
LINE
  5
2FB
330
18
100
AcDbEntity
  8
1
  6
Continuous
100
AcDbLine
 10
52.98751946269101
 20
202.4391584345047
 30
0.0
 11
51.39206046269102
 21
199.4591602145046
 31
0.0
  0
ARC
  5
2FC
330
18
100
AcDbEntity
  8
1
  6
Continuous
100
AcDbCircle
 10
56.82261346269104
 20
177.4983586345047
 30
0.0
 40
11.8
100
AcDbArc
 50
47.13928500000028
 51
90.03034899999979
  0
LINE
  5
2FD
330
18
100
AcDbEntity
  8
1
  6
Continuous
100
AcDbLine
 10
65.328866262691
 20
183.7493156345047
 30
0.0
 11
65.328866262691
 21
185.0483566345046
 31
0.0
  0
ARC
  5
2FE
330
18
100
AcDbEntity
  8
1
  6
Continuous
100
AcDbCircle
 10
63.82886626269101
 20
185.0483566345046
 30
0.0
 40
1.5
100
AcDbArc
 50
0.0
 51
47.13928500000028
  0
LINE
  5
2FF
330
18
100
AcDbEntity
  8
1
  6
Continuous
100
AcDbLine
 10
149.0729566560798
 20
192.6571960345047
 30
0.0
 11
146.9443586560798
 21
176.9153756345047
 31
0.0
  0
LINE
  5
300
330
18
100
AcDbEntity
  8
1
  6
Continuous
100
AcDbLine
 10
128.7948306560799
 20
183.5332956345046
 30
0.0
 11
128.0683286560799
 21
182.2749596345047
 31
0.0
  0
LINE
  5
302
330
18
100
AcDbEntity
  8
1
  6
Continuous
100
AcDbLine
 10
123.8094556560797
 20
189.2983584345047
 30
0.0
 11
143.9878466560799
 21
177.6483556345046
 31
0.0
  0
LINE
  5
303
330
18
100
AcDbEntity
  8
1
  6
Continuous
100
AcDbLine
 10
123.0594556560797
 20
187.9993206345046
 30
0.0
 11
143.2378466560797
 21
176.3493176345046
 31
0.0
  0
LINE
  5
304
330
18
100
AcDbEntity
  8
5
  6
PHANTOM
 48
0.2
100
AcDbLine
 10
115.1023326560799
 20
156.5717506345046
 30
0.0
 11
136.5500946560799
 21
165.6757896345045
 31
0.0
  0
LINE
  5
305
330
18
100
AcDbEntity
  8
5
  6
PHANTOM
 48
0.2
100
AcDbLine
 10
115.6884306560797
 20
155.1909946345046
 30
0.0
 11
137.1361926560799
 21
164.2950296345046
 31
0.0
  0
ARC
  5
306
330
18
100
AcDbEntity
  8
5
  6
PHANTOM
 48
0.2
100
AcDbCircle
 10
133.9655456560799
 20
179.5704886345047
 30
0.0
 40
27.0
100
AcDbArc
 50
250.7070399999999
 51
291.3997200000001
  0
ARC
  5
307
330
18
100
AcDbEntity
  8
1
  6
Continuous
100
AcDbCircle
 10
153.5292166560799
 20
188.0745096345045
 30
0.0
 40
27.0
100
AcDbArc
 50
197.7070399999998
 51
238.3997199999997
  0
LINE
  5
308
330
18
100
AcDbEntity
  8
5
  6
PHANTOM
 48
0.2
100
AcDbLine
 10
115.1023326560799
 20
156.5717506345046
 30
0.0
 11
115.6884306560797
 21
155.1909946345046
 31
0.0
  0
LINE
  5
309
330
18
100
AcDbEntity
  8
5
  6
PHANTOM
 48
0.2
100
AcDbLine
 10
122.7067946560799
 20
157.0837526345045
 30
0.0
 11
123.2745286560799
 21
155.7462586345046
 31
0.0
  0
ARC
  5
30A
330
18
100
AcDbEntity
  8
5
  6
PHANTOM
 48
0.2
100
AcDbCircle
 10
126.0360416560798
 20
156.9184576345046
 30
0.0
 40
3.0
100
AcDbArc
 50
202.9999999999998
 51
250.7070399999999
  0
ARC
  5
30B
330
18
100
AcDbEntity
  8
5
  6
PHANTOM
 48
0.2
100
AcDbCircle
 10
121.7862926560799
 20
156.6930276345047
 30
0.0
 40
1.0
100
AcDbArc
 50
22.99999999999982
 51
113.0000000000002
  0
CIRCLE
  5
30C
330
18
100
AcDbEntity
  8
2
  6
Continuous
100
AcDbCircle
 10
152.2755966560799
 20
164.2031676345045
 30
0.0
 40
2.5
  0
CIRCLE
  5
30D
330
18
100
AcDbEntity
  8
1
  6
Continuous
100
AcDbCircle
 10
152.2755966560799
 20
164.2031676345045
 30
0.0
 40
3.0
  0
LINE
  5
30E
330
18
100
AcDbEntity
  8
1
  6
Continuous
100
AcDbLine
 10
146.5020976560799
 20
164.2031716345046
 30
0.0
 11
149.3888466560798
 21
159.2031676345047
 31
0.0
  0
CIRCLE
  5
30F
330
18
100
AcDbEntity
  8
1
  6
Continuous
100
AcDbCircle
 10
152.2755966560799
 20
164.2031676345045
 30
0.0
 40
5.0
  0
LINE
  5
310
330
18
100
AcDbEntity
  8
5
  6
PHANTOM
 48
0.2
100
AcDbLine
 10
136.0852736560798
 20
160.3725896345046
 30
0.0
 11
139.9513856560797
 21
162.0136606345046
 31
0.0
  0
LINE
  5
311
330
18
100
AcDbEntity
  8
5
  6
PHANTOM
 48
0.2
100
AcDbLine
 10
134.8349306560797
 20
163.3182036345045
 30
0.0
 11
136.0852736560798
 21
160.3725896345046
 31
0.0
  0
LINE
  5
313
330
18
100
AcDbEntity
  8
1
  6
Continuous
100
AcDbLine
 10
155.1623466560798
 20
159.2031636345046
 30
0.0
 11
149.3888466560798
 21
159.2031636345046
 31
0.0
  0
ARC
  5
314
330
18
100
AcDbEntity
  8
1
  6
Continuous
100
AcDbCircle
 10
152.2755966560799
 20
157.9531676345045
 30
0.0
 40
3.25
100
AcDbArc
 50
180.0000100000002
 51
0.0
  0
LINE
  5
315
330
18
100
AcDbEntity
  8
1
  6
Continuous
100
AcDbLine
 10
149.0255966560799
 20
157.9531676345045
 30
0.0
 11
149.0255966560799
 21
158.5740016345046
 31
0.0
  0
LINE
  5
316
330
18
100
AcDbEntity
  8
1
  6
Continuous
100
AcDbLine
 10
155.5255966560799
 20
157.9531676345045
 30
0.0
 11
155.5255966560799
 21
158.5740016345046
 31
0.0
  0
LINE
  5
317
330
18
100
AcDbEntity
  8
5
  6
PHANTOM
 48
0.2
100
AcDbLine
 10
155.3111766560799
 20
157.8462526345046
 30
0.0
 11
154.8153466560798
 21
158.2198876345047
 31
0.0
  0
LINE
  5
319
330
18
100
AcDbEntity
  8
1
  6
Continuous
100
AcDbLine
 10
139.4727856560797
 20
174.8280356345046
 30
0.0
 11
143.1100846560798
 21
172.7280376345045
 31
0.0
  0
ARC
  5
31A
330
18
100
AcDbEntity
  8
5
  6
PHANTOM
 48
0.2
100
AcDbCircle
 10
151.3550966560798
 20
163.8124356345046
 30
0.0
 40
12.5
100
AcDbArc
 50
113.0000000000002
 51
147.1503099999999
  0
ARC
  5
31B
330
18
100
AcDbEntity
  8
5
  6
PHANTOM
 48
0.2
100
AcDbCircle
 10
151.3550966560798
 20
163.8124356345046
 30
0.0
 40
11.0
100
AcDbArc
 50
113.0000000000002
 51
147.1503099999999
  0
ARC
  5
31C
330
18
100
AcDbEntity
  8
5
  6
PHANTOM
 48
0.2
100
AcDbCircle
 10
134.4010776560799
 20
170.7385676345046
 30
0.0
 40
5.5
100
AcDbArc
 50
293.0000000000001
 51
327.1503
  0
LINE
  5
31D
330
18
100
AcDbEntity
  8
5
  6
PHANTOM
 48
0.2
100
AcDbLine
 10
140.2817536560799
 20
166.9415096345046
 30
0.0
 11
142.1140286560798
 21
169.7792436345046
 31
0.0
  0
LINE
  5
31E
330
18
100
AcDbEntity
  8
5
  6
PHANTOM
 48
0.2
100
AcDbLine
 10
138.6191636560798
 20
165.1521766345046
 30
0.0
 11
139.9513856560797
 21
162.0136606345046
 31
0.0
  0
ARC
  5
31F
330
18
100
AcDbEntity
  8
5
  6
PHANTOM
 48
0.2
100
AcDbCircle
 10
134.4010776560799
 20
170.7385676345046
 30
0.0
 40
7.0
100
AcDbArc
 50
293.0000000000001
 51
327.1503
  0
LINE
  5
320
330
18
100
AcDbEntity
  8
5
  6
PHANTOM
 48
0.2
100
AcDbLine
 10
139.0216066560799
 20
167.7551636345046
 30
0.0
 11
140.8538896560799
 21
170.5928996345046
 31
0.0
  0
ARC
  5
321
330
18
100
AcDbEntity
  8
1
  6
Continuous
100
AcDbCircle
 10
130.6664126560798
 20
180.7749596345047
 30
0.0
 40
3.0
100
AcDbArc
 50
150.00001
 51
197.7070399999998
  0
LINE
  5
322
330
18
100
AcDbEntity
  8
1
  6
Continuous
100
AcDbLine
 10
141.0727846560798
 20
177.5993176345046
 30
0.0
 11
139.4727856560797
 21
174.8280356345046
 31
0.0
  0
ARC
  5
323
330
18
100
AcDbEntity
  8
1
  6
Continuous
100
AcDbCircle
 10
152.2755966560799
 20
170.4531676345045
 30
0.0
 40
3.25
100
AcDbArc
 50
0.0
 51
180.0000100000002
  0
LINE
  5
324
330
18
100
AcDbEntity
  8
1
  6
Continuous
100
AcDbLine
 10
155.1623566560799
 20
169.2031636345046
 30
0.0
 11
149.3888366560797
 21
169.2031636345046
 31
0.0
  0
LINE
  5
325
330
18
100
AcDbEntity
  8
1
  6
Continuous
100
AcDbLine
 10
146.5020906560799
 20
164.2031676345045
 30
0.0
 11
149.3888366560797
 21
169.2031636345046
 31
0.0
  0
ARC
  5
326
330
18
100
AcDbEntity
  8
5
  6
PHANTOM
 48
0.2
100
AcDbCircle
 10
147.2841266560799
 20
167.9645126345046
 30
0.0
 40
3.25
100
AcDbArc
 50
53.00000000000044
 51
232.9999899999996
  0
LINE
  5
327
330
18
100
AcDbEntity
  8
5
  6
PHANTOM
 48
0.2
100
AcDbLine
 10
145.8240436560797
 20
164.9953196345046
 30
0.0
 11
145.3282316560797
 21
165.3689426345047
 31
0.0
  0
LINE
  5
328
330
18
100
AcDbEntity
  8
5
  6
PHANTOM
 48
0.2
100
AcDbLine
 10
149.7358366560798
 20
170.1864476345046
 30
0.0
 11
149.2400266560798
 21
170.5600706345046
 31
0.0
  0
LINE
  5
329
330
18
100
AcDbEntity
  8
1
  6
Continuous
100
AcDbLine
 10
149.0255966560799
 20
169.8323326345046
 30
0.0
 11
149.0255966560799
 21
170.4531676345045
 31
0.0
  0
LINE
  5
32A
330
18
100
AcDbEntity
  8
1
  6
Continuous
100
AcDbLine
 10
155.5255966560799
 20
169.8323326345046
 30
0.0
 11
155.5255966560799
 21
170.4531676345045
 31
0.0
  0
ARC
  5
32B
330
18
100
AcDbEntity
  8
5
  6
PHANTOM
 48
0.2
100
AcDbCircle
 10
153.1960966560799
 20
164.5938996345046
 30
0.0
 40
11.0
100
AcDbArc
 50
78.84969799999985
 51
113.0000000000002
  0
LINE
  5
32C
330
18
100
AcDbEntity
  8
1
  6
Continuous
100
AcDbLine
 10
147.1358946560799
 20
176.9259206345047
 30
0.0
 11
150.5049066560798
 21
177.1703876345046
 31
0.0
  0
LINE
  5
32D
330
18
100
AcDbEntity
  8
1
  6
Continuous
100
AcDbLine
 10
147.2444536560799
 20
175.4298556345045
 30
0.0
 11
150.6134666560799
 21
175.6743226345047
 31
0.0
  0
ARC
  5
32E
330
18
100
AcDbEntity
  8
5
  6
PHANTOM
 48
0.2
100
AcDbCircle
 10
153.1960966560799
 20
164.5938996345046
 30
0.0
 40
12.5
100
AcDbArc
 50
78.84969799999985
 51
113.0000000000002
  0
ARC
  5
32F
330
18
100
AcDbEntity
  8
1
  6
Continuous
100
AcDbCircle
 10
146.7378466560799
 20
182.4114976345047
 30
0.0
 40
5.5
100
AcDbArc
 50
239.9999999999999
 51
274.1503
  0
ARC
  5
330
330
18
100
AcDbEntity
  8
1
  6
Continuous
100
AcDbCircle
 10
146.7378466560799
 20
182.4114976345047
 30
0.0
 40
7.0
100
AcDbArc
 50
239.9999999999999
 51
274.1503
  0
LINE
  5
331
330
18
100
AcDbEntity
  8
1
  6
Continuous
100
AcDbLine
 10
144.8148726560799
 20
175.6808076345047
 30
0.0
 11
143.1100846560798
 21
172.7280376345045
 31
0.0
  0
LINE
  5
332
330
18
100
AcDbEntity
  8
5
  6
PHANTOM
 48
0.2
100
AcDbLine
 10
148.8980566560799
 20
174.7194506345047
 30
0.0
 11
147.0570446560799
 21
173.9379866345046
 31
0.0
  0
LINE
  5
333
330
18
100
AcDbEntity
  8
5
  6
PHANTOM
 48
0.2
100
AcDbLine
 10
148.3119566560799
 20
176.1002066345047
 30
0.0
 11
146.4709476560799
 21
175.3187456345045
 31
0.0
  0
ARC
  5
334
330
18
100
AcDbEntity
  8
1
  6
Continuous
100
AcDbCircle
 10
151.4095666560798
 20
164.7031676345046
 30
0.0
 40
12.5
100
AcDbArc
 50
59.99999499999994
 51
94.15029899999963
  0
ARC
  5
335
330
18
100
AcDbEntity
  8
1
  6
Continuous
100
AcDbCircle
 10
151.4095666560798
 20
164.7031676345046
 30
0.0
 40
11.0
100
AcDbArc
 50
59.99999499999994
 51
94.15029899999963
  0
LINE
  5
336
330
18
100
AcDbEntity
  8
1
  6
Continuous
100
AcDbLine
 10
123.8094556560797
 20
189.2983584345047
 30
0.0
 11
123.0594486560798
 21
187.9993186345046
 31
0.0
  0
LINE
  5
337
330
18
100
AcDbEntity
  8
4
  6
CENTER
 48
0.1
100
AcDbLine
 10
145.2755966560799
 20
199.7031636345045
 30
0.0
 11
145.2755966560799
 21
207.2031636345045
 31
0.0
  0
ARC
  5
338
330
18
100
AcDbEntity
  8
1
  6
Continuous
100
AcDbCircle
 10
127.9288106560799
 20
184.0332956345046
 30
0.0
 40
1.0
100
AcDbArc
 50
329.9999999999998
 51
59.99999499999994
  0
LINE
  5
339
330
18
100
AcDbEntity
  8
1
  6
Continuous
100
AcDbLine
 10
138.2755966560798
 20
202.7031636345046
 30
0.0
 11
138.2755966560798
 21
204.2031598345046
 31
0.0
  0
LINE
  5
33A
330
18
100
AcDbEntity
  8
1
  6
Continuous
100
AcDbLine
 10
149.0729566560798
 20
192.6571960345047
 30
0.0
 11
148.8124966560798
 21
194.1344080345047
 31
0.0
  0
LINE
  5
33C
330
18
100
AcDbEntity
  8
1
  6
Continuous
100
AcDbLine
 10
147.2352986560798
 20
192.3331647345047
 30
0.0
 11
146.9748306560799
 21
193.8103766345047
 31
0.0
  0
LINE
  5
33D
330
18
100
AcDbEntity
  8
1
  6
Continuous
100
AcDbLine
 10
147.2353056560798
 20
192.3331666345046
 30
0.0
 11
149.0729666560798
 21
192.6571965345047
 31
0.0
  0
ARC
  5
33E
330
18
100
AcDbEntity
  8
1
  6
Continuous
100
AcDbCircle
 10
156.2755966560799
 20
200.4031644345046
 30
0.0
 40
2.0
100
AcDbArc
 50
208.1641000000002
 51
270.0
  0
LINE
  5
33F
330
18
100
AcDbEntity
  8
1
  6
Continuous
100
AcDbLine
 10
153.7394666560799
 20
195.0031667345047
 30
0.0
 11
155.2642866560798
 21
196.7658672345047
 31
0.0
  0
ARC
  5
340
330
18
100
AcDbEntity
  8
1
  6
Continuous
100
AcDbCircle
 10
157.5331666560799
 20
194.8031649345047
 30
0.0
 40
3.0
100
AcDbArc
 50
90.00000300000015
 51
139.1384800000002
  0
LINE
  5
341
330
18
100
AcDbEntity
  8
1
  6
Continuous
100
AcDbLine
 10
152.9169366560797
 20
202.4391620345046
 30
0.0
 11
154.5123966560798
 21
199.4591675545047
 31
0.0
  0
ARC
  5
342
330
18
100
AcDbEntity
  8
1
  6
Continuous
100
AcDbCircle
 10
152.4761466560797
 20
202.2031636345047
 30
0.0
 40
0.5
100
AcDbArc
 50
28.16415700000023
 51
90.00001599999967
  0
LINE
  5
343
330
18
100
AcDbEntity
  8
4
  6
CENTER
 48
0.4
100
AcDbLine
 10
152.2755966560799
 20
314.9775618634685
 30
0.0
 11
152.2755966560799
 21
257.9133294535665
 31
0.0
  0
CIRCLE
  5
344
330
18
100
AcDbEntity
  8
1
  6
Continuous
100
AcDbCircle
 10
145.2755966560799
 20
302.9775618634685
 30
0.0
 40
3.249999799999998
  0
LINE
  5
345
330
18
100
AcDbEntity
  8
4
  6
CENTER
 48
0.2
100
AcDbLine
 10
145.2755966560799
 20
311.2275616634684
 30
0.0
 11
145.2755966560799
 21
294.7275620634684
 31
0.0
  0
ARC
  5
346
330
18
100
AcDbEntity
  8
1
  6
Continuous
100
AcDbCircle
 10
145.2755966560799
 20
302.9775518634685
 30
0.0
 40
7.0
100
AcDbArc
 50
89.99998199999998
 51
199.2330099999999
  0
ARC
  5
347
330
18
100
AcDbEntity
  8
1
  6
Continuous
100
AcDbCircle
 10
132.2365465973678
 20
265.4069531622885
 30
0.0
 40
9.181085115759399
100
AcDbArc
 50
115.0044330465658
 51
276.082945253545
  0
ARC
  5
348
330
18
100
AcDbEntity
  8
1
  6
Continuous
100
AcDbCircle
 10
133.1376490330305
 20
265.6663054187964
 30
0.0
 40
9.372808071568078
100
AcDbArc
 50
120.6759711044312
 51
270.2499476049814
  0
ARC
  5
349
330
18
100
AcDbEntity
  8
5
  6
PHANTOM
 48
0.2
100
AcDbCircle
 10
124.171676511926
 20
265.6663054187964
 30
0.0
 40
9.372808071568078
100
AcDbArc
 50
120.6759711044312
 51
270.2499476049814
  0
LINE
  5
34A
330
18
100
AcDbEntity
  8
1
  6
Continuous
100
AcDbLine
 10
146.0786003659948
 20
264.8649174340694
 30
0.0
 11
136.2152983970277
 21
257.1934978763781
 31
0.0
  0
ARC
  5
34B
330
18
100
AcDbEntity
  8
1
  6
Continuous
100
AcDbCircle
 10
132.7502440751002
 20
263.1746983491958
 30
0.0
 40
6.912406277841513
100
AcDbArc
 50
273.8090751831364
 51
300.0847519521664
  0
LINE
  5
34C
330
18
100
AcDbEntity
  8
4
  6
CENTER
 48
0.2
100
AcDbLine
 10
145.2755966560799
 20
266.7275540634685
 30
0.0
 11
145.2755966560799
 21
283.2275536634683
 31
0.0
  0
ARC
  5
34E
330
18
100
AcDbEntity
  8
1
  6
Continuous
100
AcDbCircle
 10
105.1476826560798
 20
288.9775538634686
 30
0.0
 40
35.499996
100
AcDbArc
 50
340.7668800000001
 51
19.24223388266955
  0
CIRCLE
  5
34F
330
18
100
AcDbEntity
  8
1
  6
Continuous
100
AcDbCircle
 10
145.2755966560799
 20
274.9775538634685
 30
0.0
 40
3.249999799999998
  0
ARC
  5
350
330
18
100
AcDbEntity
  8
1
  6
Continuous
100
AcDbCircle
 10
145.2755966560799
 20
274.9775618634685
 30
0.0
 40
7.0
100
AcDbArc
 50
160.7668899999998
 51
269.9999499999996
  0
LINE
  5
351
330
18
100
AcDbEntity
  8
4
  6
CENTER
 48
0.2
100
AcDbLine
 10
137.0255968560836
 20
274.9775618634685
 30
0.0
 11
153.5255964560759
 21
274.9775618634685
 31
0.0
  0
LINE
  5
353
330
18
100
AcDbEntity
  8
1
  6
Continuous
100
AcDbLine
 10
138.2934780664539
 20
274.4775418634683
 30
0.0
 11
127.8083654927165
 21
274.4775418634683
 31
0.0
  0
LINE
  5
354
330
18
100
AcDbEntity
  8
1
  6
Continuous
100
AcDbLine
 10
127.8083654927165
 20
274.4775418634683
 30
0.0
 11
127.8083654927164
 21
273.449560700098
 31
0.0
  0
ARC
  5
355
330
18
100
AcDbEntity
  8
1
  6
Continuous
100
AcDbCircle
 10
127.6970135678453
 20
274.5024039415179
 30
0.0
 40
1.017065438642899
100
AcDbArc
 50
310.3715006643739
 51
358.5992700226963
  0
LINE
  5
35A
330
18
100
AcDbEntity
  8
2
  6
Continuous
100
AcDbLine
 10
149.7755966560799
 20
260.9775618634685
 30
0.0
 11
149.7755966560799
 21
265.2775478634683
 31
0.0
  0
LINE
  5
35B
330
18
100
AcDbEntity
  8
1
  6
Continuous
100
AcDbLine
 10
149.2755966560799
 20
261.4775618634685
 30
0.0
 11
149.2755966560799
 21
265.2775478634683
 31
0.0
  0
LINE
  5
35C
330
18
100
AcDbEntity
  8
1
  6
Continuous
100
AcDbLine
 10
149.2755976560798
 20
261.4775618634685
 30
0.0
 11
149.7755976560799
 21
260.9775618634685
 31
0.0
  0
ARC
  5
35D
330
18
100
AcDbEntity
  8
1
  6
Continuous
100
AcDbCircle
 10
148.1317627092499
 20
262.6775618634685
 30
0.0
 40
3.0
100
AcDbArc
 50
113.315961648714
 51
133.1874524102884
  0
LINE
  5
35F
330
18
100
AcDbEntity
  8
1
  6
Continuous
100
AcDbLine
 10
146.4095899836167
 20
267.9775618634685
 30
0.0
 11
146.4095899836167
 21
266.1910270935488
 31
0.0
  0
LINE
  5
362
330
18
100
AcDbEntity
  8
1
  6
Continuous
100
AcDbLine
 10
155.2755966560799
 20
261.4775618634685
 30
0.0
 11
155.2755966560799
 21
265.2775478634683
 31
0.0
  0
LINE
  5
363
330
18
100
AcDbEntity
  8
2
  6
Continuous
100
AcDbLine
 10
154.7755966560798
 20
260.9775618634685
 30
0.0
 11
154.7755966560798
 21
265.2775478634683
 31
0.0
  0
LINE
  5
364
330
18
100
AcDbEntity
  8
1
  6
Continuous
100
AcDbLine
 10
155.2755966560799
 20
261.4775618634685
 30
0.0
 11
149.2755976560798
 21
261.4775618634685
 31
0.0
  0
LINE
  5
365
330
18
100
AcDbEntity
  8
1
  6
Continuous
100
AcDbLine
 10
154.7755966560798
 20
260.9775618634685
 30
0.0
 11
149.77559765608
 21
260.9775618634685
 31
0.0
  0
LINE
  5
366
330
18
100
AcDbEntity
  8
1
  6
Continuous
100
AcDbLine
 10
155.2755957560798
 20
261.4775618634685
 30
0.0
 11
154.7755962560799
 21
260.9775618634685
 31
0.0
  0
LINE
  5
36F
330
18
100
AcDbEntity
  8
4
  6
CENTER
 48
0.2
100
AcDbLine
 10
137.0255968560799
 20
302.9775618634685
 30
0.0
 11
153.5255964560799
 21
302.9775618634685
 31
0.0
  0
LINE
  5
370
330
18
100
AcDbEntity
  8
4
  6
CENTER
 48
0.4
100
AcDbLine
 10
173.2755966560798
 20
209.2031636345045
 30
0.0
 11
173.2755966560798
 21
174.4697956345046
 31
0.0
  0
LINE
  5
371
330
18
100
AcDbEntity
  8
1
  6
Continuous
100
AcDbLine
 10
161.6829266560799
 20
196.1762776345046
 30
0.0
 11
161.6829266560799
 21
172.8298366345045
 31
0.0
  0
ARC
  5
372
330
18
100
AcDbEntity
  8
1
  6
Continuous
100
AcDbCircle
 10
210.8718766560798
 20
139.5511596345047
 30
0.0
 40
55.0
100
AcDbArc
 50
110.0944799999995
 51
144.6577899999994
  0
LINE
  5
373
330
18
100
AcDbEntity
  8
5
  6
PHANTOM
 48
0.2
100
AcDbLine
 10
162.1401266560799
 20
176.5381116345047
 30
0.0
 11
182.9435466560799
 21
185.3686366345045
 31
0.0
  0
LINE
  5
374
330
18
100
AcDbEntity
  8
5
  6
PHANTOM
 48
0.2
100
AcDbLine
 10
162.7262266560799
 20
175.1573546345047
 30
0.0
 11
183.5296366560799
 21
183.9878806345047
 31
0.0
  0
LINE
  5
376
330
18
100
AcDbEntity
  8
1
  6
Continuous
100
AcDbLine
 10
166.4832266560798
 20
163.0114976345046
 30
0.0
 11
160.6362866560798
 21
152.8843156345046
 31
0.0
  0
LINE
  5
377
330
18
100
AcDbEntity
  8
1
  6
Continuous
100
AcDbLine
 10
168.0633466560799
 20
163.7483606345046
 30
0.0
 11
187.6355166560799
 21
152.4483606345046
 31
0.0
  0
LINE
  5
378
330
18
100
AcDbEntity
  8
1
  6
Continuous
100
AcDbLine
 10
167.3133466560799
 20
162.4493226345046
 30
0.0
 11
186.8855166560799
 21
151.1493226345046
 31
0.0
  0
ARC
  5
379
330
18
100
AcDbEntity
  8
1
  6
Continuous
100
AcDbCircle
 10
172.3219666560799
 20
177.2245086345046
 30
0.0
 40
27.0
100
AcDbArc
 50
241.6002799999999
 51
282.2932482774977
  0
LINE
  5
37A
330
18
100
AcDbEntity
  8
1
  6
Continuous
100
AcDbLine
 10
167.2657266560799
 20
156.1173596345046
 30
0.0
 11
175.6377166560798
 21
156.0180626345046
 31
0.0
  0
LINE
  5
37B
330
18
100
AcDbEntity
  8
1
  6
Continuous
100
AcDbLine
 10
167.2372566560798
 20
153.7175256345046
 30
0.0
 11
175.6092466560799
 21
153.6182296345046
 31
0.0
  0
LINE
  5
37C
330
18
100
AcDbEntity
  8
1
  6
Continuous
100
AcDbLine
 10
168.5791466560798
 20
160.6417396345046
 30
0.0
 11
164.2224966560799
 21
153.0958026345046
 31
0.0
  0
LINE
  5
37D
330
18
100
AcDbEntity
  8
1
  6
Continuous
100
AcDbLine
 10
167.2657266560799
 20
156.1173596345046
 30
0.0
 11
167.2372566560798
 21
153.7175256345046
 31
0.0
  0
LINE
  5
37E
330
18
100
AcDbEntity
  8
1
  6
Continuous
100
AcDbLine
 10
170.7380566560798
 20
156.0761766345047
 30
0.0
 11
170.7095966560799
 21
153.6763426345046
 31
0.0
  0
LINE
  5
37F
330
18
100
AcDbEntity
  8
1
  6
Continuous
100
AcDbLine
 10
172.1379566560798
 20
156.0595706345045
 30
0.0
 11
172.1094866560799
 21
153.6597406345046
 31
0.0
  0
LINE
  5
380
330
18
100
AcDbEntity
  8
1
  6
Continuous
100
AcDbLine
 10
187.6355166560799
 20
152.4483606345046
 30
0.0
 11
186.8855166560799
 21
151.1493226345046
 31
0.0
  0
ARC
  5
382
330
18
100
AcDbEntity
  8
1
  6
Continuous
100
AcDbCircle
 10
182.17142665608
 20
150.9842576345046
 30
0.0
 40
2.5
100
AcDbArc
 50
59.99999499999994
 51
149.5109545010089
  0
LINE
  5
383
330
18
100
AcDbEntity
  8
1
  6
Continuous
100
AcDbLine
 10
175.6377166560798
 20
156.0180626345046
 30
0.0
 11
175.6092466560799
 21
153.6182296345046
 31
0.0
  0
LINE
  5
385
330
18
100
AcDbEntity
  8
5
  6
PHANTOM
 48
0.2
100
AcDbLine
 10
172.8721866560798
 20
177.9350556345046
 30
0.0
 11
174.7716466560798
 21
176.4680716345047
 31
0.0
  0
ARC
  5
386
330
18
100
AcDbEntity
  8
5
  6
PHANTOM
 48
0.2
100
AcDbCircle
 10
153.9404966560799
 20
188.0493526345046
 30
0.0
 40
27.0
100
AcDbArc
 50
294.60028
 51
335.2929599999999
  0
LINE
  5
387
330
18
100
AcDbEntity
  8
5
  6
PHANTOM
 48
0.2
100
AcDbLine
 10
169.65395665608
 20
169.8416656345045
 30
0.0
 11
174.7716466560798
 21
176.4680716345047
 31
0.0
  0
LINE
  5
388
330
18
100
AcDbEntity
  8
5
  6
PHANTOM
 48
0.2
100
AcDbLine
 10
164.9315966560799
 20
175.0804356345047
 30
0.0
 11
168.3361466560798
 21
167.0597996345045
 31
0.0
  0
LINE
  5
389
330
18
100
AcDbEntity
  8
5
  6
PHANTOM
 48
0.2
100
AcDbLine
 10
161.7776666560798
 20
174.8327146345046
 30
0.0
 11
166.3468266560798
 21
164.0684586345046
 31
0.0
  0
ARC
  5
38A
330
18
100
AcDbEntity
  8
1
  6
Continuous
100
AcDbCircle
 10
153.1416266560798
 20
163.7031676345046
 30
0.0
 40
11.0
100
AcDbArc
 50
25.84969599999994
 51
59.99999499999994
  0
ARC
  5
38B
330
18
100
AcDbEntity
  8
1
  6
Continuous
100
AcDbCircle
 10
153.1416266560798
 20
163.7031676345046
 30
0.0
 40
12.5
100
AcDbArc
 50
25.84969599999994
 51
59.99999499999994
  0
LINE
  5
38D
330
18
100
AcDbEntity
  8
5
  6
PHANTOM
 48
0.2
100
AcDbLine
 10
167.7544966560799
 20
171.3086476345047
 30
0.0
 11
172.8721866560798
 21
177.9350556345046
 31
0.0
  0
LINE
  5
38E
330
18
100
AcDbEntity
  8
1
  6
Continuous
100
AcDbLine
 10
164.3908866560799
 20
169.1533166345046
 30
0.0
 11
165.8636666560799
 21
166.1134346345046
 31
0.0
  0
ARC
  5
38F
330
18
100
AcDbEntity
  8
1
  6
Continuous
100
AcDbCircle
 10
170.8133466560799
 20
168.5114976345046
 30
0.0
 40
7.0
100
AcDbArc
 50
205.8497099999999
 51
239.9999999999999
  0
ARC
  5
390
330
18
100
AcDbEntity
  8
1
  6
Continuous
100
AcDbCircle
 10
170.8133466560799
 20
168.5114976345046
 30
0.0
 40
5.5
100
AcDbArc
 50
205.8497099999999
 51
239.9999999999999
  0
LINE
  5
391
330
18
100
AcDbEntity
  8
1
  6
Continuous
100
AcDbLine
 10
166.0077466560799
 20
171.3663906345046
 30
0.0
 11
164.4101466560799
 21
169.1135466345046
 31
0.0
  0
LINE
  5
392
330
18
100
AcDbEntity
  8
1
  6
Continuous
100
AcDbLine
 10
163.0409666560799
 20
168.4992986345046
 30
0.0
 11
164.5137666560799
 21
165.4594156345047
 31
0.0
  0
LINE
  5
393
330
18
100
AcDbEntity
  8
5
  6
PHANTOM
 48
0.2
100
AcDbLine
 10
159.2229666560799
 20
163.0373806345046
 30
0.0
 11
158.7271466560799
 21
163.4110146345046
 31
0.0
  0
LINE
  5
394
330
18
100
AcDbEntity
  8
5
  6
PHANTOM
 48
0.2
100
AcDbLine
 10
167.7544966560799
 20
171.3086476345047
 30
0.0
 11
169.65395665608
 21
169.8416656345045
 31
0.0
  0
ARC
  5
395
330
18
100
AcDbEntity
  8
5
  6
PHANTOM
 48
0.2
100
AcDbCircle
 10
159.9911166560798
 20
181.6008936345047
 30
0.0
 40
5.5
100
AcDbArc
 50
258.8496999999998
 51
293.0000000000001
  0
ARC
  5
396
330
18
100
AcDbEntity
  8
5
  6
PHANTOM
 48
0.2
100
AcDbCircle
 10
159.9911166560798
 20
181.6008936345047
 30
0.0
 40
7.0
100
AcDbArc
 50
258.8496999999998
 51
293.0000000000001
  0
LINE
  5
397
330
18
100
AcDbEntity
  8
5
  6
PHANTOM
 48
0.2
100
AcDbLine
 10
170.7328366560798
 20
175.1650066345046
 30
0.0
 11
172.6322866560799
 21
173.6980256345046
 31
0.0
  0
LINE
  5
398
330
18
100
AcDbEntity
  8
5
  6
PHANTOM
 48
0.2
100
AcDbLine
 10
169.8770866560797
 20
174.0569906345047
 30
0.0
 11
171.7765466560799
 21
172.5900086345047
 31
0.0
  0
ARC
  5
399
330
18
100
AcDbEntity
  8
5
  6
PHANTOM
 48
0.2
100
AcDbCircle
 10
175.7433066560798
 20
178.0179386345047
 30
0.0
 40
3.0
100
AcDbArc
 50
335.2929599999999
 51
22.99999999999982
  0
LINE
  5
39A
330
18
100
AcDbEntity
  8
5
  6
PHANTOM
 48
0.2
100
AcDbLine
 10
178.5048166560798
 20
179.1901326345046
 30
0.0
 11
178.5231866560799
 21
179.1468646345047
 31
0.0
  0
ARC
  5
39B
330
18
100
AcDbEntity
  8
5
  6
PHANTOM
 48
0.2
100
AcDbCircle
 10
180.8244566560798
 20
180.1236956345047
 30
0.0
 40
2.5
100
AcDbArc
 50
113.0000000000002
 51
202.5103999999998
  0
ARC
  5
39F
330
18
100
AcDbEntity
  8
1
  6
Continuous
100
AcDbCircle
 10
161.3167366560799
 20
198.8876652845045
 30
0.0
 40
1.984500099999999
100
AcDbArc
 50
194.1311599999995
 51
213.1262299999997
  0
ARC
  5
3A0
330
18
100
AcDbEntity
  8
1
  6
Continuous
100
AcDbCircle
 10
163.0600766560799
 20
198.8876652845045
 30
0.0
 40
1.984500099999999
100
AcDbArc
 50
194.1311599999995
 51
213.1262299999997
  0
ARC
  5
3A1
330
18
100
AcDbEntity
  8
1
  6
Continuous
100
AcDbCircle
 10
160.7755966560798
 20
198.8876652845045
 30
0.0
 40
1.984500099999999
100
AcDbArc
 50
194.1311599999995
 51
213.1262299999997
  0
ARC
  5
3A2
330
18
100
AcDbEntity
  8
1
  6
Continuous
100
AcDbCircle
 10
165.8333466560798
 20
198.8876652845045
 30
0.0
 40
1.984500099999999
100
AcDbArc
 50
194.1311599999995
 51
213.1262299999997
  0
ARC
  5
3A3
330
18
100
AcDbEntity
  8
1
  6
Continuous
100
AcDbCircle
 10
165.8333466560798
 20
198.8876652845045
 30
0.0
 40
1.984500099999999
100
AcDbArc
 50
326.8737700000003
 51
332.5952099999998
  0
ARC
  5
3A4
330
18
100
AcDbEntity
  8
1
  6
Continuous
100
AcDbCircle
 10
169.3569366560799
 20
198.8876652845045
 30
0.0
 40
1.984500099999999
100
AcDbArc
 50
194.1311599999995
 51
213.1262299999997
  0
ARC
  5
3A5
330
18
100
AcDbEntity
  8
1
  6
Continuous
100
AcDbCircle
 10
169.3569366560799
 20
198.8876652845045
 30
0.0
 40
1.984500099999999
100
AcDbArc
 50
326.8737700000003
 51
345.8688299999995
  0
ARC
  5
3A6
330
18
100
AcDbEntity
  8
1
  6
Continuous
100
AcDbCircle
 10
173.2755966560798
 20
198.8876652845045
 30
0.0
 40
1.984500099999999
100
AcDbArc
 50
194.1311599999995
 51
213.1262299999997
  0
LINE
  5
3A7
330
18
100
AcDbEntity
  8
5
  6
PHANTOM
 48
0.2
100
AcDbLine
 10
182.9435466560799
 20
185.3686366345045
 30
0.0
 11
183.5296366560799
 21
183.9878806345047
 31
0.0
  0
ARC
  5
3A8
330
18
100
AcDbEntity
  8
1
  6
Continuous
100
AcDbCircle
 10
173.2755966560798
 20
198.8876652845045
 30
0.0
 40
1.984500099999999
100
AcDbArc
 50
326.8737700000003
 51
345.8688399999997
  0
ARC
  5
3A9
330
18
100
AcDbEntity
  8
1
  6
Continuous
100
AcDbCircle
 10
177.1942666560798
 20
198.8876652845045
 30
0.0
 40
1.984500099999999
100
AcDbArc
 50
194.1311599999995
 51
213.1262299999997
  0
ARC
  5
3AA
330
18
100
AcDbEntity
  8
1
  6
Continuous
100
AcDbCircle
 10
177.1942666560798
 20
198.8876652845045
 30
0.0
 40
1.984500099999999
100
AcDbArc
 50
326.8737700000003
 51
345.8688399999997
  0
ARC
  5
3AB
330
18
100
AcDbEntity
  8
1
  6
Continuous
100
AcDbCircle
 10
180.7178466560799
 20
198.8876652845045
 30
0.0
 40
1.984500099999999
100
AcDbArc
 50
207.40479
 51
213.1262299999997
  0
ARC
  5
3AC
330
18
100
AcDbEntity
  8
1
  6
Continuous
100
AcDbCircle
 10
180.7178466560799
 20
198.8876652845045
 30
0.0
 40
1.984500099999999
100
AcDbArc
 50
326.8737700000003
 51
345.8688399999997
  0
ARC
  5
3AD
330
18
100
AcDbEntity
  8
1
  6
Continuous
100
AcDbCircle
 10
185.2344566560799
 20
198.8876652845045
 30
0.0
 40
1.984500099999999
100
AcDbArc
 50
326.8737700000003
 51
345.8688399999997
  0
ARC
  5
3AE
330
18
100
AcDbEntity
  8
1
  6
Continuous
100
AcDbCircle
 10
183.4911166560798
 20
198.8876652845045
 30
0.0
 40
1.984500099999999
100
AcDbArc
 50
326.8737700000003
 51
345.8688399999997
  0
ARC
  5
3AF
330
18
100
AcDbEntity
  8
1
  6
Continuous
100
AcDbCircle
 10
185.7755966560798
 20
198.8876652845045
 30
0.0
 40
1.984500099999999
100
AcDbArc
 50
326.8737700000003
 51
345.8688399999997
  0
LINE
  5
3B0
330
18
100
AcDbEntity
  8
4
  6
CENTER
 48
0.1
100
AcDbLine
 10
201.2755966560798
 20
199.7031636345045
 30
0.0
 11
201.2755966560798
 21
207.2031636345045
 31
0.0
  0
LINE
  5
3B1
330
18
100
AcDbEntity
  8
1
  6
Continuous
100
AcDbLine
 10
191.9755966560799
 20
191.2031641345047
 30
0.0
 11
191.5035666560799
 21
195.5717349345047
 31
0.0
  0
ARC
  5
3B2
330
18
100
AcDbEntity
  8
1
  6
Continuous
100
AcDbCircle
 10
190.2755966560798
 20
200.4031644345046
 30
0.0
 40
2.0
100
AcDbArc
 50
270.0
 51
331.8358700000001
  0
ARC
  5
3B3
330
18
100
AcDbEntity
  8
1
  6
Continuous
100
AcDbCircle
 10
189.0180266560799
 20
195.3031649345047
 30
0.0
 40
2.5
100
AcDbArc
 50
6.167043099999803
 51
89.99998199999998
  0
LINE
  5
3B4
330
18
100
AcDbEntity
  8
1
  6
Continuous
100
AcDbLine
 10
193.6342566560799
 20
202.4391582345046
 30
0.0
 11
192.0387966560799
 21
199.4591604545047
 31
0.0
  0
ARC
  5
3B5
330
18
100
AcDbEntity
  8
1
  6
Continuous
100
AcDbCircle
 10
194.0750466560799
 20
202.2031636345047
 30
0.0
 40
0.5
100
AcDbArc
 50
89.9999619999996
 51
151.83583
  0
LINE
  5
3B6
330
18
100
AcDbEntity
  8
1
  6
Continuous
100
AcDbLine
 10
208.2755966560798
 20
202.7031636345046
 30
0.0
 11
208.2755966560798
 21
204.2031636345046
 31
0.0
  0
ARC
  5
3B7
330
18
100
AcDbEntity
  8
1
  6
Continuous
100
AcDbCircle
 10
201.2755966560798
 20
302.9775618634685
 30
0.0
 40
7.0
100
AcDbArc
 50
340.7669199999999
 51
89.99996799999987
  0
LINE
  5
3B8
330
18
100
AcDbEntity
  8
4
  6
CENTER
 48
0.2
100
AcDbLine
 10
201.2755966560798
 20
311.2275616634684
 30
0.0
 11
201.2755966560798
 21
294.7275620634684
 31
0.0
  0
CIRCLE
  5
3B9
330
18
100
AcDbEntity
  8
1
  6
Continuous
100
AcDbCircle
 10
201.2755966560798
 20
302.9775618634685
 30
0.0
 40
3.249999799999998
  0
LINE
  5
3BA
330
18
100
AcDbEntity
  8
4
  6
CENTER
 48
0.4
100
AcDbLine
 10
173.2755966560798
 20
314.9775618634685
 30
0.0
 11
173.2755966560798
 21
262.9775618634685
 31
0.0
  0
ARC
  5
3BB
330
18
100
AcDbEntity
  8
1
  6
Continuous
100
AcDbCircle
 10
176.7220621230905
 20
263.0498241492783
 30
0.0
 40
10.97552954703079
100
AcDbArc
 50
306.2017227745727
 51
26.67793613267032
  0
LINE
  5
3BC
330
18
100
AcDbEntity
  8
1
  6
Continuous
100
AcDbLine
 10
165.0860534186309
 20
263.5378269491598
 30
0.0
 11
175.974834156902
 21
254.7321780225173
 31
0.0
  0
LINE
  5
3BD
330
18
100
AcDbEntity
  8
1
  6
Continuous
100
AcDbLine
 10
165.5528751022218
 20
264.0594374510953
 30
0.0
 11
175.9748341569023
 21
254.7321780225173
 31
0.0
  0
ARC
  5
3BE
330
18
100
AcDbEntity
  8
1
  6
Continuous
100
AcDbCircle
 10
180.2513887277816
 20
258.2279150787069
 30
0.0
 40
5.0
100
AcDbArc
 50
259.6334783886794
 51
306.2017227745727
  0
ARC
  5
3BF
330
18
100
AcDbEntity
  8
1
  6
Continuous
100
AcDbCircle
 10
180.8774009480231
 20
261.6500480635591
 30
0.0
 40
8.478920158023887
100
AcDbArc
 50
234.6755036206001
 51
259.6334783886794
  0
LINE
  5
3C0
330
18
100
AcDbEntity
  8
1
  6
Continuous
100
AcDbLine
 10
201.2755966560798
 20
267.9775618634685
 30
0.0
 11
145.2755966560799
 21
267.9775618634685
 31
0.0
  0
ARC
  5
3C1
330
18
100
AcDbEntity
  8
1
  6
Continuous
100
AcDbCircle
 10
152.1255038407361
 20
245.4370835938908
 30
0.0
 40
22.26236185525655
100
AcDbArc
 50
54.39646316819661
 51
61.97837001854356
  0
LINE
  5
3C2
330
18
100
AcDbEntity
  8
1
  6
Continuous
100
AcDbLine
 10
160.1711904751575
 20
267.9775618634685
 30
0.0
 11
160.1711904751575
 21
266.3750856663671
 31
0.0
  0
CIRCLE
  5
3C4
330
18
100
AcDbEntity
  8
1
  6
Continuous
100
AcDbCircle
 10
173.2755966560798
 20
288.9775618634685
 30
0.0
 40
7.75
  0
CIRCLE
  5
3C5
330
18
100
AcDbEntity
  8
1
  6
Continuous
100
AcDbCircle
 10
173.2755966560798
 20
288.9775618634685
 30
0.0
 40
6.75
  0
LINE
  5
3C6
330
18
100
AcDbEntity
  8
4
  6
CENTER
 48
0.2
100
AcDbLine
 10
201.2755966560798
 20
266.7275620634685
 30
0.0
 11
201.2755966560798
 21
283.2275616634683
 31
0.0
  0
ARC
  5
3C7
330
18
100
AcDbEntity
  8
1
  6
Continuous
100
AcDbCircle
 10
241.4035066560801
 20
288.9775698634683
 30
0.0
 40
35.499996
100
AcDbArc
 50
160.7508325526459
 51
199.23307
  0
ARC
  5
3C8
330
18
100
AcDbEntity
  8
1
  6
Continuous
100
AcDbCircle
 10
201.2755966560798
 20
274.9775618634685
 30
0.0
 40
7.0
100
AcDbArc
 50
270.0
 51
19.23305499999989
  0
CIRCLE
  5
3C9
330
18
100
AcDbEntity
  8
1
  6
Continuous
100
AcDbCircle
 10
201.2755966560798
 20
274.9775618634685
 30
0.0
 40
3.249999799999998
  0
LINE
  5
3CA
330
18
100
AcDbEntity
  8
4
  6
CENTER
 48
0.2
100
AcDbLine
 10
209.5255964560799
 20
274.9775618634685
 30
0.0
 11
193.0255968560799
 21
274.9775618634685
 31
0.0
  0
LINE
  5
3CC
330
18
100
AcDbEntity
  8
1
  6
Continuous
100
AcDbLine
 10
201.2755966560798
 20
309.9775618634684
 30
0.0
 11
145.2755988551948
 21
309.9775518634682
 31
0.0
  0
LINE
  5
3CD
330
18
100
AcDbEntity
  8
4
  6
CENTER
 48
0.2
100
AcDbLine
 10
209.5255964560799
 20
302.9775618634685
 30
0.0
 11
193.0255968560799
 21
302.9775618634685
 31
0.0
  0
LINE
  5
4F4
330
18
100
AcDbEntity
  8
1
  6
Continuous
100
AcDbLine
 10
282.9223278494686
 20
204.2031636345046
 30
0.0
 11
324.9223278494686
 21
204.2031636345046
 31
0.0
  0
LINE
  5
4F5
330
18
100
AcDbEntity
  8
1
  6
Continuous
100
AcDbLine
 10
282.9223278494686
 20
202.7031636345046
 30
0.0
 11
324.9223278494686
 21
202.7031636345046
 31
0.0
  0
LINE
  5
4F6
330
18
100
AcDbEntity
  8
4
  6
CENTER
 48
0.4
100
AcDbLine
 10
271.4223278494686
 20
164.2031636345046
 30
0.0
 11
326.4223278494684
 21
164.2031636345046
 31
0.0
  0
LINE
  5
4F7
330
18
100
AcDbEntity
  8
1
  6
Continuous
100
AcDbLine
 10
283.5636738494686
 20
202.4391584345047
 30
0.0
 11
285.1591328494686
 21
199.4591602145046
 31
0.0
  0
ARC
  5
4F8
330
18
100
AcDbEntity
  8
1
  6
Continuous
100
AcDbCircle
 10
284.9223278494686
 20
152.1511616345045
 30
0.0
 40
1.0
100
AcDbArc
 50
359.9999899999998
 51
118.8211490000002
  0
LINE
  5
4FA
330
18
100
AcDbEntity
  8
1
  6
Continuous
100
AcDbLine
 10
280.6223138494685
 20
175.4114936345047
 30
0.0
 11
278.4223128494685
 21
175.4114936345047
 31
0.0
  0
ARC
  5
4FC
330
18
100
AcDbEntity
  8
1
  6
Continuous
100
AcDbCircle
 10
279.6651068494684
 20
174.7984696345046
 30
0.0
 40
14.5
100
AcDbArc
 50
66.9345481285296
 51
89.77389099999975
  0
LINE
  5
502
330
18
100
AcDbEntity
  8
4
  6
CENTER
 48
0.4
100
AcDbLine
 10
303.9223278494686
 20
209.1781640345045
 30
0.0
 11
303.9223278494686
 21
134.2031636345047
 31
0.0
  0
LINE
  5
505
330
18
100
AcDbEntity
  8
1
  6
Continuous
100
AcDbLine
 10
290.9223278494686
 20
187.8386560293336
 30
0.0
 11
290.9223278494686
 21
157.1031686345046
 31
0.0
  0
ARC
  5
506
330
18
100
AcDbEntity
  8
1
  6
Continuous
100
AcDbCircle
 10
297.8447488494684
 20
178.6363456345046
 30
0.0
 40
25.0
100
AcDbArc
 50
325.3966493806767
 51
2.428969999999853
  0
LINE
  5
507
330
18
100
AcDbEntity
  8
1
  6
Continuous
100
AcDbLine
 10
289.4223278494686
 20
164.43904862068
 30
0.0
 11
289.4223278494686
 21
156.1173556345045
 31
0.0
  0
LINE
  5
508
330
18
100
AcDbEntity
  8
1
  6
Continuous
100
AcDbLine
 10
318.4223278494686
 20
164.43904862068
 30
0.0
 11
318.4223278494686
 21
157.1031686345046
 31
0.0
  0
LINE
  5
509
330
18
100
AcDbEntity
  8
1
  6
Continuous
100
AcDbLine
 10
316.9223278494686
 20
187.8386557861178
 30
0.0
 11
316.9223278494681
 21
153.8031603255078
 31
0.0
  0
LINE
  5
515
330
18
100
AcDbEntity
  8
1
  6
Continuous
100
AcDbLine
 10
318.4223278494686
 20
157.1031686345046
 30
0.0
 11
316.9223278494686
 21
157.1031686345046
 31
0.0
  0
LINE
  5
520
330
18
100
AcDbEntity
  8
1
  6
Continuous
100
AcDbLine
 10
285.9223278494686
 20
150.2245026345045
 30
0.0
 11
285.9223278494686
 21
152.1511616345045
 31
0.0
  0
LINE
  5
521
330
18
100
AcDbEntity
  8
1
  6
Continuous
100
AcDbLine
 10
287.2223268494686
 20
150.2245026345045
 30
0.0
 11
287.2223280987658
 21
162.5930744284521
 31
0.0
  0
LINE
  5
526
330
18
100
AcDbEntity
  8
1
  6
Continuous
100
AcDbLine
 10
287.2223268494686
 20
150.2245026345045
 30
0.0
 11
285.9223278494686
 21
150.2245026345045
 31
0.0
  0
ARC
  5
530
330
18
100
AcDbEntity
  8
1
  6
Continuous
100
AcDbCircle
 10
288.2223268494687
 20
151.1249856345046
 30
0.0
 40
1.0
100
AcDbArc
 50
117.6965440000001
 51
180.0
  0
LINE
  5
532
330
18
100
AcDbEntity
  8
1
  6
Continuous
100
AcDbLine
 10
290.6223288494684
 20
156.1173556345045
 30
0.0
 11
287.2223273618316
 21
156.1173556345045
 31
0.0
  0
LINE
  5
533
330
18
100
AcDbEntity
  8
1
  6
Continuous
100
AcDbLine
 10
290.9223278494686
 20
157.1031686345046
 30
0.0
 11
289.4223278494686
 21
157.1031686345046
 31
0.0
  0
LINE
  5
534
330
18
100
AcDbEntity
  8
1
  6
Continuous
100
AcDbLine
 10
290.6223288494684
 20
153.6182256345046
 30
0.0
 11
287.222327144541
 21
153.6182256345046
 31
0.0
  0
LINE
  5
535
330
18
100
AcDbEntity
  8
1
  6
Continuous
100
AcDbLine
 10
290.6223288494684
 20
153.6182256345046
 30
0.0
 11
290.6223288494684
 21
156.1173556345045
 31
0.0
  0
ARC
  5
539
330
18
100
AcDbEntity
  8
1
  6
Continuous
100
AcDbCircle
 10
288.9223278494686
 20
153.1865466345046
 30
0.0
 40
0.5
100
AcDbArc
 50
297.6965500000001
 51
0.0000100000001992
  0
LINE
  5
53A
330
18
100
AcDbEntity
  8
1
  6
Continuous
100
AcDbLine
 10
287.7575368494685
 20
152.0104066345046
 30
0.0
 11
289.1547208494687
 21
152.7438396345045
 31
0.0
  0
LINE
  5
54D
330
18
100
AcDbEntity
  8
1
  6
Continuous
100
AcDbLine
 10
286.9223278494686
 20
198.4031643945045
 30
0.0
 11
320.9223278494686
 21
198.4031644345046
 31
0.0
  0
ARC
  5
54E
330
18
100
AcDbEntity
  8
1
  6
Continuous
100
AcDbCircle
 10
314.1378428494685
 20
198.8876652845045
 30
0.0
 40
1.984500099999999
100
AcDbArc
 50
326.8737700000002
 51
345.8688400000001
  0
LINE
  5
551
330
18
100
AcDbEntity
  8
1
  6
Continuous
100
AcDbLine
 10
319.7223308494685
 20
197.8031649345047
 30
0.0
 11
288.1798958494686
 21
197.8031649345047
 31
0.0
  0
LINE
  5
556
330
18
100
AcDbEntity
  8
1
  6
Continuous
100
AcDbLine
 10
322.8301148494685
 20
179.4915776345046
 30
0.0
 11
322.2204918494684
 21
195.3989036345047
 31
0.0
  0
LINE
  5
558
330
18
100
AcDbEntity
  8
4
  6
CENTER
 48
0.1
100
AcDbLine
 10
317.9223278494685
 20
207.2031636345045
 30
0.0
 11
317.9223278494685
 21
199.7031636345045
 31
0.0
  0
LINE
  5
559
330
18
100
AcDbEntity
  8
1
  6
Continuous
100
AcDbLine
 10
324.2809858494686
 20
202.4391632345047
 30
0.0
 11
322.6855268494686
 21
199.4591686845047
 31
0.0
  0
LINE
  5
55A
330
18
100
AcDbEntity
  8
1
  6
Continuous
100
AcDbLine
 10
324.9223278494686
 20
204.2031636345046
 30
0.0
 11
324.9223278494686
 21
202.7031636345046
 31
0.0
  0
ARC
  5
55B
330
18
100
AcDbEntity
  8
1
  6
Continuous
100
AcDbCircle
 10
324.7217818494684
 20
202.2031636345047
 30
0.0
 40
0.5
100
AcDbArc
 50
89.99998400000034
 51
151.8358429999997
  0
ARC
  5
55C
330
18
100
AcDbEntity
  8
1
  6
Continuous
100
AcDbCircle
 10
319.7223308494685
 20
195.3031649345047
 30
0.0
 40
2.5
100
AcDbArc
 50
2.194689999999916
 51
90.00001800000005
  0
ARC
  5
55D
330
18
100
AcDbEntity
  8
1
  6
Continuous
100
AcDbCircle
 10
320.9223278494686
 20
200.4031644345046
 30
0.0
 40
2.0
100
AcDbArc
 50
270.0
 51
331.8358999999996
  0
ARC
  5
55E
330
18
100
AcDbEntity
  8
1
  6
Continuous
100
AcDbCircle
 10
315.8811898494685
 20
198.8876652845045
 30
0.0
 40
1.984500099999999
100
AcDbArc
 50
326.8737700000002
 51
345.8688400000001
  0
ARC
  5
55F
330
18
100
AcDbEntity
  8
1
  6
Continuous
100
AcDbCircle
 10
316.4223278494684
 20
198.8876652845045
 30
0.0
 40
1.984500099999999
100
AcDbArc
 50
326.8737700000002
 51
345.8688400000001
  0
LINE
  5
561
330
18
100
AcDbEntity
  8
1
  6
Continuous
100
AcDbLine
 10
285.0186803607487
 20
179.5996302331358
 30
0.0
 11
285.6241658494687
 21
195.3989043345045
 31
0.0
  0
LINE
  5
56D
330
18
100
AcDbEntity
  8
1
  6
Continuous
100
AcDbLine
 10
292.0223258494686
 20
177.2313676345046
 30
0.0
 11
292.0223258494686
 21
179.3313656345046
 31
0.0
  0
ARC
  5
56F
330
18
100
AcDbEntity
  8
1
  6
Continuous
100
AcDbCircle
 10
290.0961938494684
 20
173.1993166345047
 30
0.0
 40
3.0
100
AcDbArc
 50
59.42193000000028
 51
74.01545824530521
  0
LINE
  5
571
330
18
100
AcDbEntity
  8
1
  6
Continuous
100
AcDbLine
 10
292.0223278494686
 20
177.2313676345046
 30
0.0
 11
291.6223288494686
 21
175.7821256345047
 31
0.0
  0
ARC
  5
572
330
18
100
AcDbEntity
  8
1
  6
Continuous
100
AcDbCircle
 10
290.1047998494686
 20
177.0241876345045
 30
0.0
 40
3.0
100
AcDbArc
 50
50.26953000000031
 51
74.1863584758303
  0
ARC
  5
576
330
18
100
AcDbEntity
  8
1
  6
Continuous
100
AcDbCircle
 10
311.3645728494685
 20
198.8876652845045
 30
0.0
 40
1.984500099999999
100
AcDbArc
 50
326.8737700000002
 51
345.8688400000001
  0
ARC
  5
577
330
18
100
AcDbEntity
  8
1
  6
Continuous
100
AcDbCircle
 10
307.8409908494685
 20
198.8876652845045
 30
0.0
 40
1.984500099999999
100
AcDbArc
 50
326.8737700000002
 51
345.8688400000001
  0
ARC
  5
578
330
18
100
AcDbEntity
  8
1
  6
Continuous
100
AcDbCircle
 10
311.3645728494685
 20
198.8876652845045
 30
0.0
 40
1.984500099999999
100
AcDbArc
 50
207.40479
 51
213.1262299999997
  0
ARC
  5
579
330
18
100
AcDbEntity
  8
1
  6
Continuous
100
AcDbCircle
 10
307.8409908494685
 20
198.8876652845045
 30
0.0
 40
1.984500099999999
100
AcDbArc
 50
194.1311700000004
 51
213.1262299999997
  0
ARC
  5
57A
330
18
100
AcDbEntity
  8
1
  6
Continuous
100
AcDbCircle
 10
303.9223278494686
 20
198.8876652845045
 30
0.0
 40
1.984500099999999
100
AcDbArc
 50
326.8737700000002
 51
345.8688400000001
  0
ARC
  5
57B
330
18
100
AcDbEntity
  8
1
  6
Continuous
100
AcDbCircle
 10
303.9223278494686
 20
198.8876652845045
 30
0.0
 40
1.984500099999999
100
AcDbArc
 50
194.1311600000002
 51
213.1262299999997
  0
ARC
  5
57C
330
18
100
AcDbEntity
  8
1
  6
Continuous
100
AcDbCircle
 10
300.0036648494685
 20
198.8876652845045
 30
0.0
 40
1.984500099999999
100
AcDbArc
 50
326.8737700000002
 51
345.8688400000001
  0
LINE
  5
57D
330
18
100
AcDbEntity
  8
4
  6
CENTER
 48
0.1
100
AcDbLine
 10
289.9223278494686
 20
207.1781640345045
 30
0.0
 11
289.9223278494686
 21
199.7031636345045
 31
0.0
  0
ARC
  5
57E
330
18
100
AcDbEntity
  8
1
  6
Continuous
100
AcDbCircle
 10
296.4800828494686
 20
198.8876652845045
 30
0.0
 40
1.984500099999999
100
AcDbArc
 50
326.8737700000002
 51
332.5952099999998
  0
ARC
  5
57F
330
18
100
AcDbEntity
  8
1
  6
Continuous
100
AcDbCircle
 10
300.0036648494685
 20
198.8876652845045
 30
0.0
 40
1.984500099999999
100
AcDbArc
 50
194.1311600000002
 51
213.1262299999997
  0
ARC
  5
580
330
18
100
AcDbEntity
  8
1
  6
Continuous
100
AcDbCircle
 10
296.4800828494686
 20
198.8876652845045
 30
0.0
 40
1.984500099999999
100
AcDbArc
 50
194.1311600000002
 51
213.1262299999997
  0
ARC
  5
581
330
18
100
AcDbEntity
  8
1
  6
Continuous
100
AcDbCircle
 10
291.4223278494686
 20
198.8876652845045
 30
0.0
 40
1.984500099999999
100
AcDbArc
 50
194.1311600000002
 51
213.1262299999997
  0
ARC
  5
582
330
18
100
AcDbEntity
  8
1
  6
Continuous
100
AcDbCircle
 10
291.9634658494686
 20
198.8876652845045
 30
0.0
 40
1.984500099999999
100
AcDbArc
 50
194.1311600000002
 51
213.1262299999997
  0
ARC
  5
583
330
18
100
AcDbEntity
  8
1
  6
Continuous
100
AcDbCircle
 10
293.7068128494686
 20
198.8876652845045
 30
0.0
 40
1.984500099999999
100
AcDbArc
 50
194.1311600000002
 51
213.1262299999997
  0
ARC
  5
584
330
18
100
AcDbEntity
  8
1
  6
Continuous
100
AcDbCircle
 10
286.9223278494686
 20
200.4031644345046
 30
0.0
 40
2.0
100
AcDbArc
 50
208.1641299999996
 51
270.0
  0
ARC
  5
585
330
18
100
AcDbEntity
  8
1
  6
Continuous
100
AcDbCircle
 10
288.1223248494686
 20
195.3031649345047
 30
0.0
 40
2.5
100
AcDbArc
 50
90.00001800000005
 51
177.8053508999999
  0
LINE
  5
586
330
18
100
AcDbEntity
  8
1
  6
Continuous
100
AcDbLine
 10
280.6223138494685
 20
177.2031676345046
 30
0.0
 11
280.6223138494685
 21
166.2306950783017
 31
0.0
  0
ARC
  5
587
330
18
100
AcDbEntity
  8
1
  6
Continuous
100
AcDbCircle
 10
277.2838778494685
 20
165.5322576345046
 30
0.0
 40
14.405884
100
AcDbArc
 50
235.1643669332634
 51
298.8211500000003
  0
LINE
  5
588
330
18
100
AcDbEntity
  8
1
  6
Continuous
100
AcDbLine
 10
280.6223138494685
 20
166.2306950783017
 30
0.0
 11
269.0437205494686
 21
158.8155946345047
 31
0.0
  0
LINE
  5
592
330
18
100
AcDbEntity
  8
1
  6
Continuous
100
AcDbLine
 10
284.4402488494686
 20
153.0272906345046
 30
0.0
 11
284.2286248494684
 21
152.9108476345046
 31
0.0
  0
ARC
  5
59E
330
18
100
AcDbEntity
  8
1
  6
Continuous
100
AcDbCircle
 10
270.1223286494686
 20
155.3993156345045
 30
0.0
 40
2.0
100
AcDbArc
 50
180.0
 51
237.7428695808606
  0
LINE
  5
59F
330
18
100
AcDbEntity
  8
1
  6
Continuous
100
AcDbLine
 10
268.1223286494686
 20
155.3993156345045
 30
0.0
 11
268.1223286494686
 21
157.1313676345046
 31
0.0
  0
ARC
  5
5A0
330
18
100
AcDbEntity
  8
1
  6
Continuous
100
AcDbCircle
 10
270.1223286494686
 20
157.1313676345046
 30
0.0
 40
2.0
100
AcDbArc
 50
122.6361029999996
 51
180.0
  0
ARC
  5
5A1
330
18
100
AcDbEntity
  8
1
  6
Continuous
100
AcDbCircle
 10
272.7223270494686
 20
183.7493156345047
 30
0.0
 40
1.5
100
AcDbArc
 50
180.0
 51
222.8985900000003
  0
LINE
  5
5A2
330
18
100
AcDbEntity
  8
1
  6
Continuous
100
AcDbLine
 10
278.4223128494685
 20
175.4114916345047
 30
0.0
 11
271.6234873494686
 21
182.7282606345047
 31
0.0
  0
ARC
  5
5A3
330
18
100
AcDbEntity
  8
1
  6
Continuous
100
AcDbCircle
 10
279.7285798494685
 20
177.4983586345047
 30
0.0
 40
11.8
100
AcDbArc
 50
89.96965100000025
 51
132.8607149999996
  0
LINE
  5
5A4
330
18
100
AcDbEntity
  8
1
  6
Continuous
100
AcDbLine
 10
271.2223270494686
 20
183.7493156345047
 30
0.0
 11
271.2223270494686
 21
185.0483566345046
 31
0.0
  0
ARC
  5
5A5
330
18
100
AcDbEntity
  8
1
  6
Continuous
100
AcDbCircle
 10
272.7223270494686
 20
185.0483566345046
 30
0.0
 40
1.5
100
AcDbArc
 50
132.8607149999996
 51
180.0
  0
LINE
  5
5A6
330
18
100
AcDbEntity
  8
1
  6
Continuous
100
AcDbLine
 10
282.9223278494686
 20
204.2031636345046
 30
0.0
 11
282.9223278494686
 21
202.7031636345046
 31
0.0
  0
ARC
  5
5A7
330
18
100
AcDbEntity
  8
1
  6
Continuous
100
AcDbCircle
 10
283.1228738494686
 20
202.2031636345047
 30
0.0
 40
0.5
100
AcDbArc
 50
28.16416999999999
 51
90.0000380000004
  0
LINE
  5
721
330
18
100
AcDbEntity
  8
4
  6
CENTER
 48
0.2
100
AcDbLine
 10
201.2755966560798
 20
32.15376600554094
 30
0.0
 11
201.2755966560798
 21
48.65376560554089
 31
0.0
  0
CIRCLE
  5
722
330
18
100
AcDbEntity
  8
1
  6
Continuous
100
AcDbCircle
 10
201.2755966560798
 20
40.4037658055409
 30
0.0
 40
3.249999799999998
  0
ARC
  5
724
330
18
100
AcDbEntity
  8
1
  6
Continuous
100
AcDbCircle
 10
145.2755966560799
 20
40.4037658055409
 30
0.0
 40
3.249999799999998
100
AcDbArc
 50
162.0797857203996
 51
307.9798751975885
  0
LINE
  5
725
330
18
100
AcDbEntity
  8
4
  6
CENTER
 48
0.2
100
AcDbLine
 10
145.2755966560799
 20
32.15376600554094
 30
0.0
 11
145.2755966560799
 21
48.65376560554089
 31
0.0
  0
LINE
  5
729
330
18
100
AcDbEntity
  8
4
  6
CENTER
 48
0.4
100
AcDbLine
 10
173.2755966560798
 20
28.4037658055409
 30
0.0
 11
173.2755966560798
 21
80.4037658055409
 31
0.0
  0
ARC
  5
72A
330
18
100
AcDbEntity
  8
1
  6
Continuous
100
AcDbCircle
 10
241.4035066560801
 20
54.40375780554091
 30
0.0
 40
35.499996
100
AcDbArc
 50
160.7669299999997
 51
199.249167447354
  0
ARC
  5
72B
330
18
100
AcDbEntity
  8
1
  6
Continuous
100
AcDbCircle
 10
105.1476826560798
 20
54.40377380554076
 30
0.0
 40
35.499996
100
AcDbArc
 50
340.7577661173303
 51
342.7959900295022
  0
LINE
  5
72E
330
18
100
AcDbEntity
  8
1
  6
Continuous
100
AcDbLine
 10
165.0860534186309
 20
79.84350071984948
 30
0.0
 11
175.974834156902
 21
88.64914964649193
 31
0.0
  0
LINE
  5
72F
330
18
100
AcDbEntity
  8
4
  6
CENTER
 48
0.4
100
AcDbLine
 10
210.9035106560809
 20
54.40376580554088
 30
0.0
 11
122.2755966560798
 21
54.40376580554088
 31
0.0
  0
LINE
  5
730
330
18
100
AcDbEntity
  8
1
  6
Continuous
100
AcDbLine
 10
201.2755966560798
 20
75.4037658055409
 30
0.0
 11
186.5291845276439
 21
75.4037658055409
 31
0.0
  0
ARC
  5
735
330
18
100
AcDbEntity
  8
1
  6
Continuous
100
AcDbCircle
 10
132.2365465973678
 20
77.97437450672076
 30
0.0
 40
9.181085115759399
100
AcDbArc
 50
83.91705474645505
 51
241.1632492129149
  0
ARC
  5
736
330
18
100
AcDbEntity
  8
5
  6
PHANTOM
 48
0.2
100
AcDbCircle
 10
124.171676511926
 20
77.715022250213
 30
0.0
 40
9.372808071568078
100
AcDbArc
 50
89.75005239501856
 51
239.3240288955686
  0
LINE
  5
737
330
18
100
AcDbEntity
  8
1
  6
Continuous
100
AcDbLine
 10
146.0786003659948
 20
78.51641023494001
 30
0.0
 11
136.2152983970277
 21
86.18782979263125
 31
0.0
  0
ARC
  5
73A
330
18
100
AcDbEntity
  8
1
  6
Continuous
100
AcDbCircle
 10
132.7502440751002
 20
80.20662931981361
 30
0.0
 40
6.912406277841513
100
AcDbArc
 50
59.91524804783349
 51
86.19092481686346
  0
ARC
  5
73B
330
18
100
AcDbEntity
  8
1
  6
Continuous
100
AcDbCircle
 10
145.2755966560799
 20
68.4037658055409
 30
0.0
 40
7.0
100
AcDbArc
 50
175.90379212039
 51
199.2331100000001
  0
LINE
  5
73C
330
18
100
AcDbEntity
  8
4
  6
CENTER
 48
0.2
100
AcDbLine
 10
137.0255968560836
 20
68.4037658055409
 30
0.0
 11
153.5255964560759
 21
68.4037658055409
 31
0.0
  0
LINE
  5
73F
330
18
100
AcDbEntity
  8
1
  6
Continuous
100
AcDbLine
 10
165.4448716247036
 20
68.90378580554105
 30
0.0
 11
127.8083654927165
 21
68.90378580554102
 31
0.0
  0
LINE
  5
742
330
18
100
AcDbEntity
  8
1
  6
Continuous
100
AcDbLine
 10
127.8083654927165
 20
68.90378580554102
 30
0.0
 11
127.8083654927164
 21
70.4037808055409
 31
0.0
  0
LINE
  5
748
330
18
100
AcDbEntity
  8
4
  6
CENTER
 48
0.2
100
AcDbLine
 10
145.2755966560799
 20
76.65377360554089
 30
0.0
 11
145.2755966560799
 21
60.15377400554092
 31
0.0
  0
ARC
  5
749
330
18
100
AcDbEntity
  8
1
  6
Continuous
100
AcDbCircle
 10
154.1208650128975
 20
107.4703377806917
 30
0.0
 40
30.38134221651255
100
AcDbArc
 50
277.4290185354676
 51
286.1754144102618
  0
LINE
  5
74A
330
18
100
AcDbEntity
  8
1
  6
Continuous
100
AcDbLine
 10
155.2755957560798
 20
81.9037658055409
 30
0.0
 11
154.7755962560799
 21
82.40376580554089
 31
0.0
  0
LINE
  5
74C
330
18
100
AcDbEntity
  8
1
  6
Continuous
100
AcDbLine
 10
155.2755966560799
 20
81.9037658055409
 30
0.0
 11
149.2755976560798
 21
81.9037658055409
 31
0.0
  0
ARC
  5
751
330
18
100
AcDbEntity
  8
1
  6
Continuous
100
AcDbCircle
 10
148.1317627092499
 20
80.70376580554091
 30
0.0
 40
3.0
100
AcDbArc
 50
226.8125475897114
 51
247.8324754914388
  0
LINE
  5
752
330
18
100
AcDbEntity
  8
2
  6
Continuous
100
AcDbLine
 10
154.7755966560798
 20
82.40376580554089
 30
0.0
 11
154.7755966560798
 21
78.10377980554093
 31
0.0
  0
LINE
  5
754
330
18
100
AcDbEntity
  8
1
  6
Continuous
100
AcDbLine
 10
149.2755976560798
 20
81.9037658055409
 30
0.0
 11
149.7755976560799
 21
82.40376580554089
 31
0.0
  0
LINE
  5
755
330
18
100
AcDbEntity
  8
1
  6
Continuous
100
AcDbLine
 10
149.2755966560799
 20
81.9037658055409
 30
0.0
 11
149.2755966560799
 21
78.103779805541
 31
0.0
  0
LINE
  5
756
330
18
100
AcDbEntity
  8
2
  6
Continuous
100
AcDbLine
 10
149.7755966560799
 20
82.40376580554089
 30
0.0
 11
149.7755966560799
 21
78.10377980554098
 31
0.0
  0
LINE
  5
757
330
18
100
AcDbEntity
  8
1
  6
Continuous
100
AcDbLine
 10
154.7755966560798
 20
82.40376580554089
 30
0.0
 11
149.77559765608
 21
82.40376580554089
 31
0.0
  0
ARC
  5
759
330
18
100
AcDbEntity
  8
1
  6
Continuous
100
AcDbCircle
 10
152.1255038407361
 20
97.94424407511861
 30
0.0
 40
22.26236185525655
100
AcDbArc
 50
298.0216299814563
 51
305.6035368318033
  0
LINE
  5
75F
330
18
100
AcDbEntity
  8
1
  6
Continuous
100
AcDbLine
 10
155.2755966560799
 20
81.9037658055409
 30
0.0
 11
155.2755966560799
 21
78.10377980554093
 31
0.0
  0
ARC
  5
760
330
18
100
AcDbEntity
  8
1
  6
Continuous
100
AcDbCircle
 10
176.7220621230905
 20
80.33150351973109
 30
0.0
 40
10.97552954703079
100
AcDbArc
 50
307.6177819367257
 51
53.79827722542729
  0
ARC
  5
761
330
18
100
AcDbEntity
  8
1
  6
Continuous
100
AcDbCircle
 10
180.8774009480231
 20
81.73127960545031
 30
0.0
 40
8.478920158023887
100
AcDbArc
 50
100.3665216113204
 51
125.3244963793997
  0
ARC
  5
762
330
18
100
AcDbEntity
  8
1
  6
Continuous
100
AcDbCircle
 10
180.2513887277816
 20
85.15341259030236
 30
0.0
 40
5.0
100
AcDbArc
 50
53.79827722542729
 51
100.3665216113204
  0
ARC
  5
763
330
18
100
AcDbEntity
  8
1
  6
Continuous
100
AcDbCircle
 10
201.2755966560798
 20
68.4037658055409
 30
0.0
 40
7.0
100
AcDbArc
 50
340.766945
 51
90.00000000000005
  0
CIRCLE
  5
764
330
18
100
AcDbEntity
  8
1
  6
Continuous
100
AcDbCircle
 10
201.2755966560798
 20
68.4037658055409
 30
0.0
 40
3.249999799999998
  0
LINE
  5
765
330
18
100
AcDbEntity
  8
4
  6
CENTER
 48
0.2
100
AcDbLine
 10
209.5255964560799
 20
68.4037658055409
 30
0.0
 11
193.0255968560799
 21
68.4037658055409
 31
0.0
  0
LINE
  5
766
330
18
100
AcDbEntity
  8
4
  6
CENTER
 48
0.2
100
AcDbLine
 10
201.2755966560798
 20
76.65376560554091
 30
0.0
 11
201.2755966560798
 21
60.15376600554095
 31
0.0
  0
LINE
  5
767
330
18
100
AcDbEntity
  8
1
  6
Continuous
100
AcDbLine
 10
201.2755966560798
 20
33.4037658055409
 30
0.0
 11
145.2755988551948
 21
33.4037758055412
 31
0.0
  0
ARC
  5
76A
330
18
100
AcDbEntity
  8
1
  6
Continuous
100
AcDbCircle
 10
145.2755966560799
 20
40.40377580554086
 30
0.0
 40
7.0
100
AcDbArc
 50
160.7669899999999
 51
270.0000179999999
  0
LINE
  5
76B
330
18
100
AcDbEntity
  8
4
  6
CENTER
 48
0.2
100
AcDbLine
 10
137.0255968560799
 20
40.4037658055409
 30
0.0
 11
153.5255964560799
 21
40.4037658055409
 31
0.0
  0
ARC
  5
76C
330
18
100
AcDbEntity
  8
1
  6
Continuous
100
AcDbCircle
 10
201.2755966560798
 20
40.4037658055409
 30
0.0
 40
7.0
100
AcDbArc
 50
270.000032
 51
19.23308000000005
  0
LINE
  5
76D
330
18
100
AcDbEntity
  8
4
  6
CENTER
 48
0.2
100
AcDbLine
 10
209.5255964560799
 20
40.4037658055409
 30
0.0
 11
193.0255968560799
 21
40.4037658055409
 31
0.0
  0
LINE
  5
828
330
18
100
AcDbEntity
  8
1
  6
Continuous
100
AcDbLine
 10
469.5690590428573
 20
204.2031636345046
 30
0.0
 11
399.5690590428573
 21
204.2031636345046
 31
0.0
  0
LINE
  5
829
330
18
100
AcDbEntity
  8
1
  6
Continuous
100
AcDbLine
 10
469.5690590428573
 20
202.7031636345046
 30
0.0
 11
399.5690590428573
 21
202.7031636345046
 31
0.0
  0
LINE
  5
82A
330
18
100
AcDbEntity
  8
1
  6
Continuous
100
AcDbLine
 10
451.5690590428572
 20
198.4031643945045
 30
0.0
 11
417.5690590428573
 21
198.4031644345046
 31
0.0
  0
LINE
  5
82B
330
18
100
AcDbEntity
  8
4
  6
CENTER
 48
0.4
100
AcDbLine
 10
425.5690590428574
 20
164.2031636345046
 30
0.0
 11
485.5690590428571
 21
164.2031636345046
 31
0.0
  0
LINE
  5
832
330
18
100
AcDbEntity
  8
1
  6
Continuous
100
AcDbLine
 10
450.3114890428571
 20
197.8031648345045
 30
0.0
 11
418.8266290428575
 21
197.8031648345045
 31
0.0
  0
ARC
  5
83A
330
18
100
AcDbEntity
  8
1
  6
Continuous
100
AcDbCircle
 10
396.9727790428572
 20
139.5511596345047
 30
0.0
 40
55.0
100
AcDbArc
 50
35.3422100000004
 51
69.90552000000042
  0
LINE
  5
83B
330
18
100
AcDbEntity
  8
4
  6
CENTER
 48
0.4
100
AcDbLine
 10
455.5690590428572
 20
191.7031636345047
 30
0.0
 11
455.5690590428572
 21
134.2031636345047
 31
0.0
  0
LINE
  5
873
330
18
100
AcDbEntity
  8
1
  6
Continuous
100
AcDbLine
 10
441.8369090428574
 20
171.3663906345046
 30
0.0
 11
449.3649511013593
 21
160.7507769744875
 31
0.0
  0
LINE
  5
87B
330
18
100
AcDbEntity
  8
1
  6
Continuous
100
AcDbLine
 10
469.5690590428573
 20
202.7031636345046
 30
0.0
 11
469.5690590428573
 21
204.2031598345046
 31
0.0
  0
LINE
  5
87C
330
18
100
AcDbEntity
  8
1
  6
Continuous
100
AcDbLine
 10
458.7716990428573
 20
192.6571960345047
 30
0.0
 11
459.0321590428573
 21
194.1344080345047
 31
0.0
  0
LINE
  5
87D
330
18
100
AcDbEntity
  8
1
  6
Continuous
100
AcDbLine
 10
460.6093570428575
 20
192.3331647345047
 30
0.0
 11
460.8698250428572
 21
193.8103766345047
 31
0.0
  0
LINE
  5
87E
330
18
100
AcDbEntity
  8
1
  6
Continuous
100
AcDbLine
 10
446.1617290428574
 20
196.1762776345046
 30
0.0
 11
446.1617290428574
 21
169.2506801198476
 31
0.0
  0
LINE
  5
883
330
18
100
AcDbEntity
  8
1
  6
Continuous
100
AcDbLine
 10
458.7716990428573
 20
192.6571960345047
 30
0.0
 11
462.3232772145711
 21
166.3918769297804
 31
0.0
  0
LINE
  5
88E
330
18
100
AcDbEntity
  8
1
  6
Continuous
100
AcDbLine
 10
460.6093500428571
 20
192.3331666345046
 30
0.0
 11
458.7716890428573
 21
192.6571965345047
 31
0.0
  0
ARC
  5
895
330
18
100
AcDbEntity
  8
1
  6
Continuous
100
AcDbCircle
 10
451.5690590428572
 20
200.4031644345046
 30
0.0
 40
2.0
100
AcDbArc
 50
270.0
 51
331.8358999999996
  0
LINE
  5
896
330
18
100
AcDbEntity
  8
1
  6
Continuous
100
AcDbLine
 10
454.1051890428573
 20
195.0031667345047
 30
0.0
 11
452.5803690428572
 21
196.7658672345047
 31
0.0
  0
LINE
  5
897
330
18
100
AcDbEntity
  8
1
  6
Continuous
100
AcDbLine
 10
460.8698250428572
 20
193.8103785345047
 30
0.0
 11
447.4521490428572
 21
196.1762779345047
 31
0.0
  0
LINE
  5
898
330
18
100
AcDbEntity
  8
4
  6
CENTER
 48
0.1
100
AcDbLine
 10
462.5690590428574
 20
199.7031636345045
 30
0.0
 11
462.5690590428574
 21
207.2031636345045
 31
0.0
  0
LINE
  5
899
330
18
100
AcDbEntity
  8
1
  6
Continuous
100
AcDbLine
 10
454.9277190428575
 20
202.4391620345046
 30
0.0
 11
453.3322590428572
 21
199.4591675545047
 31
0.0
  0
ARC
  5
89A
330
18
100
AcDbEntity
  8
1
  6
Continuous
100
AcDbCircle
 10
455.3685090428572
 20
202.2031636345047
 30
0.0
 40
0.5
100
AcDbArc
 50
89.99998400000034
 51
151.8358429999997
  0
ARC
  5
89B
330
18
100
AcDbEntity
  8
1
  6
Continuous
100
AcDbCircle
 10
450.3114890428571
 20
194.8031649345047
 30
0.0
 40
3.0
100
AcDbArc
 50
40.86151999999979
 51
89.99999699999987
  0
ARC
  5
89C
330
18
100
AcDbEntity
  8
1
  6
Continuous
100
AcDbCircle
 10
446.5279190428574
 20
198.8876652845045
 30
0.0
 40
1.984500099999999
100
AcDbArc
 50
326.8737700000002
 51
345.8688400000001
  0
ARC
  5
89D
330
18
100
AcDbEntity
  8
1
  6
Continuous
100
AcDbCircle
 10
444.7845790428574
 20
198.8876652845045
 30
0.0
 40
1.984500099999999
100
AcDbArc
 50
326.8737700000002
 51
345.8688400000001
  0
ARC
  5
89E
330
18
100
AcDbEntity
  8
1
  6
Continuous
100
AcDbCircle
 10
447.0690590428572
 20
198.8876652845045
 30
0.0
 40
1.984500099999999
100
AcDbArc
 50
326.8737700000002
 51
345.8688400000001
  0
ARC
  5
89F
330
18
100
AcDbEntity
  8
1
  6
Continuous
100
AcDbCircle
 10
442.0113090428572
 20
198.8876652845045
 30
0.0
 40
1.984500099999999
100
AcDbArc
 50
326.8737700000002
 51
345.8688400000001
  0
ARC
  5
8A0
330
18
100
AcDbEntity
  8
1
  6
Continuous
100
AcDbCircle
 10
442.0113090428572
 20
198.8876652845045
 30
0.0
 40
1.984500099999999
100
AcDbArc
 50
207.40479
 51
213.1262299999997
  0
ARC
  5
8A1
330
18
100
AcDbEntity
  8
1
  6
Continuous
100
AcDbCircle
 10
438.4877190428572
 20
198.8876652845045
 30
0.0
 40
1.984500099999999
100
AcDbArc
 50
326.8737700000002
 51
345.8688400000001
  0
LINE
  5
8AA
330
18
100
AcDbEntity
  8
4
  6
CENTER
 48
0.4
100
AcDbLine
 10
434.5690590428572
 20
209.2031636345045
 30
0.0
 11
434.5690590428572
 21
174.4697956345046
 31
0.0
  0
LINE
  5
8AB
330
18
100
AcDbEntity
  8
1
  6
Continuous
100
AcDbLine
 10
415.8690590428572
 20
191.2031641345047
 30
0.0
 11
416.3410890428572
 21
195.5717349345047
 31
0.0
  0
ARC
  5
8B2
330
18
100
AcDbEntity
  8
1
  6
Continuous
100
AcDbCircle
 10
438.4877190428572
 20
198.8876652845045
 30
0.0
 40
1.984500099999999
100
AcDbArc
 50
194.1311700000004
 51
213.1262299999997
  0
ARC
  5
8B3
330
18
100
AcDbEntity
  8
1
  6
Continuous
100
AcDbCircle
 10
434.5690590428572
 20
198.8876652845045
 30
0.0
 40
1.984500099999999
100
AcDbArc
 50
326.8737700000002
 51
345.8688400000001
  0
ARC
  5
8B4
330
18
100
AcDbEntity
  8
1
  6
Continuous
100
AcDbCircle
 10
434.5690590428572
 20
198.8876652845045
 30
0.0
 40
1.984500099999999
100
AcDbArc
 50
194.1311600000002
 51
213.1262299999997
  0
ARC
  5
8B5
330
18
100
AcDbEntity
  8
1
  6
Continuous
100
AcDbCircle
 10
430.6503890428572
 20
198.8876652845045
 30
0.0
 40
1.984500099999999
100
AcDbArc
 50
326.8737700000002
 51
345.8688400000001
  0
ARC
  5
8B6
330
18
100
AcDbEntity
  8
1
  6
Continuous
100
AcDbCircle
 10
430.6503890428572
 20
198.8876652845045
 30
0.0
 40
1.984500099999999
100
AcDbArc
 50
194.1311600000002
 51
213.1262299999997
  0
ARC
  5
8B7
330
18
100
AcDbEntity
  8
1
  6
Continuous
100
AcDbCircle
 10
427.1268090428574
 20
198.8876652845045
 30
0.0
 40
1.984500099999999
100
AcDbArc
 50
326.8737700000002
 51
332.5952099999998
  0
ARC
  5
8B8
330
18
100
AcDbEntity
  8
1
  6
Continuous
100
AcDbCircle
 10
427.1268090428574
 20
198.8876652845045
 30
0.0
 40
1.984500099999999
100
AcDbArc
 50
194.1311600000002
 51
213.1262299999997
  0
ARC
  5
8B9
330
18
100
AcDbEntity
  8
1
  6
Continuous
100
AcDbCircle
 10
424.3535390428572
 20
198.8876652845045
 30
0.0
 40
1.984500099999999
100
AcDbArc
 50
194.1311600000002
 51
213.1262299999997
  0
LINE
  5
8BA
330
18
100
AcDbEntity
  8
4
  6
CENTER
 48
0.1
100
AcDbLine
 10
406.5690590428571
 20
199.7031636345045
 30
0.0
 11
406.5690590428572
 21
207.2031636345045
 31
0.0
  0
LINE
  5
8BB
330
18
100
AcDbEntity
  8
1
  6
Continuous
100
AcDbLine
 10
414.2103990428571
 20
202.4391582345046
 30
0.0
 11
415.8058590428574
 21
199.4591604545047
 31
0.0
  0
ARC
  5
8BC
330
18
100
AcDbEntity
  8
1
  6
Continuous
100
AcDbCircle
 10
422.6101990428572
 20
198.8876652845045
 30
0.0
 40
1.984500099999999
100
AcDbArc
 50
194.1311600000002
 51
213.1262299999997
  0
ARC
  5
8BD
330
18
100
AcDbEntity
  8
1
  6
Continuous
100
AcDbCircle
 10
422.0690590428572
 20
198.8876652845045
 30
0.0
 40
1.984500099999999
100
AcDbArc
 50
194.1311600000002
 51
213.1262299999997
  0
ARC
  5
8BE
330
18
100
AcDbEntity
  8
1
  6
Continuous
100
AcDbCircle
 10
417.5690590428573
 20
200.4031644345046
 30
0.0
 40
2.0
100
AcDbArc
 50
208.1641299999996
 51
270.0
  0
ARC
  5
8BF
330
18
100
AcDbEntity
  8
1
  6
Continuous
100
AcDbCircle
 10
418.8266290428575
 20
195.3031649345047
 30
0.0
 40
2.5
100
AcDbArc
 50
90.00001800000005
 51
173.8329569000002
  0
ARC
  5
8C0
330
18
100
AcDbEntity
  8
1
  6
Continuous
100
AcDbCircle
 10
413.7696090428574
 20
202.2031636345047
 30
0.0
 40
0.5
100
AcDbArc
 50
28.16416999999999
 51
90.0000380000004
  0
LINE
  5
8C1
330
18
100
AcDbEntity
  8
1
  6
Continuous
100
AcDbLine
 10
399.5690590428573
 20
202.7031636345046
 30
0.0
 11
399.5690590428573
 21
204.2031636345046
 31
0.0
  0
ARC
  5
D15
330
18
100
AcDbEntity
  8
1
  6
Continuous
100
AcDbCircle
 10
455.5690590428572
 20
164.2031636345046
 30
0.0
 40
7.099995000000006
100
AcDbArc
 50
209.0945316448459
 51
17.95498519554759
  0
LINE
  5
DD6
330
18
100
AcDbEntity
  8
1
  6
Continuous
100
AcDbLine
 10
145.1756016560799
 20
39.90376580554094
 30
0.0
 11
160.444430412023
 21
39.90376580554094
 31
0.0
  0
LINE
  5
DD7
330
18
100
AcDbEntity
  8
1
  6
Continuous
100
AcDbLine
 10
141.8755946560799
 20
41.40376580554096
 30
0.0
 11
162.6755966560799
 21
41.40376580554095
 31
0.0
  0
LINE
  5
DD9
330
18
100
AcDbEntity
  8
1
  6
Continuous
100
AcDbLine
 10
145.1756016560799
 20
41.40376580554096
 30
0.0
 11
145.1756016560799
 21
39.90376580554094
 31
0.0
  0
LINE
  5
DDA
330
18
100
AcDbEntity
  8
4
  6
CENTER
 48
0.4
100
AcDbLine
 10
152.2755966560799
 20
85.90376580554087
 30
0.0
 11
152.2755966560799
 21
28.4037658055409
 31
0.0
  0
ARC
  5
DDB
330
18
100
AcDbEntity
  8
1
  6
Continuous
100
AcDbCircle
 10
105.1476826560798
 20
54.40377380554076
 30
0.0
 40
35.499996
100
AcDbArc
 50
17.20398293752898
 51
19.23311999999989
  0
LINE
  5
DDC
330
18
100
AcDbEntity
  8
1
  6
Continuous
100
AcDbLine
 10
145.1756016560799
 20
67.4037658055409
 30
0.0
 11
160.444430412023
 21
67.4037658055409
 31
0.0
  0
LINE
  5
DDD
330
18
100
AcDbEntity
  8
1
  6
Continuous
100
AcDbLine
 10
145.1756016560799
 20
67.40376580554081
 30
0.0
 11
145.1756016560799
 21
68.90376580554081
 31
0.0
  0
LINE
  5
DE8
330
18
100
AcDbEntity
  8
1
  6
Continuous
100
AcDbLine
 10
127.8083654927164
 20
70.4037808055409
 30
0.0
 11
160.1552225060144
 21
70.4037808055409
 31
0.0
  0
LINE
  5
DE9
330
18
100
AcDbEntity
  8
1
  6
Continuous
100
AcDbLine
 10
183.4214268450175
 20
72.40376580554093
 30
0.0
 11
183.4214268450174
 21
71.1037668055409
 31
0.0
  0
ARC
  5
DF3
330
18
100
AcDbEntity
  8
1
  6
Continuous
100
AcDbCircle
 10
173.2755966560794
 20
54.40376580554101
 30
0.0
 40
18.69997297654114
100
AcDbArc
 50
233.7507764310838
 51
63.25897945772182
  0
ARC
  5
DF4
330
18
100
AcDbEntity
  8
1
  6
Continuous
100
AcDbCircle
 10
173.2755966560794
 20
54.40376580554101
 30
0.0
 40
17.19997297654114
100
AcDbArc
 50
233.7507764310837
 51
76.15145190264364
  0
ARC
  5
DF7
330
18
100
AcDbEntity
  8
1
  6
Continuous
100
AcDbCircle
 10
160.444430412023
 20
36.90376580554096
 30
0.0
 40
3.0
100
AcDbArc
 50
53.75077643108377
 51
90.0
  0
ARC
  5
DF8
330
18
100
AcDbEntity
  8
1
  6
Continuous
100
AcDbCircle
 10
160.444430412023
 20
36.90376580554096
 30
0.0
 40
4.5
100
AcDbArc
 50
53.75077643108382
 51
90.0
  0
ARC
  5
DF9
330
18
100
AcDbEntity
  8
1
  6
Continuous
100
AcDbCircle
 10
160.444430412023
 20
71.90376580554081
 30
0.0
 40
4.5
100
AcDbArc
 50
270.0
 51
306.2492235689162
  0
LINE
  5
E17
330
18
100
AcDbEntity
  8
1
  6
Continuous
100
AcDbLine
 10
155.2755966560799
 20
71.71038809774417
 30
0.0
 11
155.2755966560799
 21
70.506350929391
 31
0.0
  0
LINE
  5
E18
330
18
100
AcDbEntity
  8
2
  6
Continuous
100
AcDbLine
 10
154.77559665608
 20
71.71038809774415
 30
0.0
 11
154.7755966560798
 21
71.20142306890143
 31
0.0
  0
LINE
  5
E19
330
18
100
AcDbEntity
  8
2
  6
Continuous
100
AcDbLine
 10
149.7755966560799
 20
71.71038809774417
 30
0.0
 11
149.7755966560799
 21
71.20142306890143
 31
0.0
  0
LINE
  5
E1A
330
18
100
AcDbEntity
  8
1
  6
Continuous
100
AcDbLine
 10
149.2755966560799
 20
71.71038809774417
 30
0.0
 11
149.2755966560799
 21
70.50635092939105
 31
0.0
  0
LINE
  5
E2D
330
18
100
AcDbEntity
  8
1
  6
Continuous
100
AcDbLine
 10
165.4512701769943
 20
78.96984768687275
 30
0.0
 11
165.4512701769943
 21
73.31760216237285
 31
0.0
  0
LINE
  5
E2E
330
18
100
AcDbEntity
  8
1
  6
Continuous
100
AcDbLine
 10
145.0999319366103
 20
77.9298796029841
 30
0.0
 11
145.0999319366103
 21
71.34089045301812
 31
0.0
  0
LINE
  5
E37
330
18
100
AcDbEntity
  8
1
  6
Continuous
100
AcDbLine
 10
144.7497006998989
 20
66.40376580554089
 30
0.0
 11
144.292896670478
 21
66.703788805541
 31
0.0
  0
LINE
  5
E3E
330
18
100
AcDbEntity
  8
1
  6
Continuous
100
AcDbLine
 10
141.4899740427231
 20
68.22990459210285
 30
0.0
 11
141.4899740427231
 21
68.90377059210272
 31
0.0
  0
ARC
  5
E3F
330
18
100
AcDbEntity
  8
1
  6
Continuous
100
AcDbCircle
 10
138.4899740427231
 20
68.22990459210285
 30
0.0
 40
3.0
100
AcDbArc
 50
329.4219300000002
 51
359.9999969999998
  0
LINE
  5
E40
330
18
100
AcDbEntity
  8
1
  6
Continuous
100
AcDbLine
 10
144.7100862707439
 20
68.22992459210293
 30
0.0
 11
144.7100862707439
 21
68.90379059210281
 31
0.0
  0
ARC
  5
E42
330
18
100
AcDbEntity
  8
1
  6
Continuous
100
AcDbCircle
 10
141.7100862707439
 20
68.22992459210293
 30
0.0
 40
3.0
100
AcDbArc
 50
329.4219300000002
 51
359.9999969999998
  0
ARC
  5
E43
330
18
100
AcDbEntity
  8
1
  6
Continuous
100
AcDbCircle
 10
142.5947533795319
 20
68.22131859210287
 30
0.0
 40
3.0
100
AcDbArc
 50
322.7099010382044
 51
344.1858664657563
  0
LINE
  5
E44
330
18
100
AcDbEntity
  8
1
  6
Continuous
100
AcDbLine
 10
141.6818160347222
 20
66.30376857115263
 30
0.0
 11
144.7585924503242
 21
66.30378329554175
 31
0.0
  0
LINE
  5
E45
330
18
100
AcDbEntity
  8
1
  6
Continuous
100
AcDbLine
 10
141.0727830427231
 20
66.70377359210272
 30
0.0
 11
144.2929517903861
 21
66.70377359210272
 31
0.0
  0
LINE
  5
E4D
330
18
100
AcDbEntity
  8
1
  6
Continuous
100
AcDbLine
 10
183.4214268450174
 20
71.1037668055409
 30
0.0
 11
163.9528146093109
 21
71.10376680554093
 31
0.0
  0
LINE
  5
E4F
330
18
100
AcDbEntity
  8
1
  6
Continuous
100
AcDbLine
 10
183.4214268450175
 20
72.40376580554093
 30
0.0
 11
164.3957674801425
 21
72.40376580554084
 31
0.0
  0
LINE
  5
E51
330
18
100
AcDbEntity
  8
1
  6
Continuous
100
AcDbLine
 10
161.452472713101
 20
69.54567613448285
 30
0.0
 11
163.0255445867094
 21
70.78282164107003
 31
0.0
  0
LINE
  5
E52
330
18
100
AcDbEntity
  8
1
  6
Continuous
100
AcDbLine
 10
161.0276222304453
 20
70.68356823356309
 30
0.0
 11
162.6509680312804
 21
71.84419094949643
 31
0.0
  0
ARC
  5
E53
330
18
100
AcDbEntity
  8
1
  6
Continuous
100
AcDbCircle
 10
160.1552225060144
 20
71.90378080554092
 30
0.0
 40
1.5
100
AcDbArc
 50
270.0
 51
305.5631440384348
  0
ARC
  5
E54
330
18
100
AcDbEntity
  8
1
  6
Continuous
100
AcDbCircle
 10
159.5979326678978
 20
71.90378580554105
 30
0.0
 40
3.0
100
AcDbArc
 50
270.0
 51
308.1833510004902
  0
ARC
  5
E55
330
18
100
AcDbEntity
  8
1
  6
Continuous
100
AcDbCircle
 10
164.3957674801425
 20
69.40376580554084
 30
0.0
 40
3.0
100
AcDbArc
 50
90.00000000000019
 51
125.5631440384354
  0
ARC
  5
E56
330
18
100
AcDbEntity
  8
1
  6
Continuous
100
AcDbCircle
 10
163.9528146093109
 20
69.60376680554093
 30
0.0
 40
1.5
100
AcDbArc
 50
89.99999999999992
 51
128.1833510004904
  0
ARC
  5
E58
330
18
100
AcDbEntity
  8
1
  6
Continuous
100
AcDbCircle
 10
165.4448716247036
 20
71.90378580554105
 30
0.0
 40
3.0
100
AcDbArc
 50
270.0
 51
308.1833510004902
  0
LINE
  5
E59
330
18
100
AcDbEntity
  8
1
  6
Continuous
100
AcDbLine
 10
167.2994116699067
 20
69.54567613448285
 30
0.0
 11
168.0868052004858
 21
70.16492334410805
 31
0.0
  0
ARC
  5
E5B
330
18
100
AcDbEntity
  8
1
  6
Continuous
100
AcDbCircle
 10
173.2755966560794
 20
54.40376580554101
 30
0.0
 40
17.19997297654114
100
AcDbArc
 50
122.5389764700485
 51
126.2492235689165
  0
ARC
  5
E5D
330
18
100
AcDbEntity
  8
1
  6
Continuous
100
AcDbCircle
 10
171.4232516560799
 20
70.20376480554102
 30
0.0
 40
1.0
100
AcDbArc
 50
222.1415793782616
 51
317.8584206217376
  0
ARC
  5
E5E
330
18
100
AcDbEntity
  8
1
  6
Continuous
100
AcDbCircle
 10
171.4232516560799
 20
70.20376480554102
 30
0.0
 40
2.5
100
AcDbArc
 50
222.1415793782615
 51
317.8584206217376
  0
LINE
  5
E5F
330
18
100
AcDbEntity
  8
1
  6
Continuous
100
AcDbLine
 10
175.6092466560799
 20
71.1037668055409
 30
0.0
 11
173.2769744536348
 21
68.52635257540042
 31
0.0
  0
LINE
  5
E60
330
18
100
AcDbEntity
  8
1
  6
Continuous
100
AcDbLine
 10
167.2372566560798
 20
71.10376680554093
 30
0.0
 11
169.569528858525
 21
68.52635257540042
 31
0.0
  0
LINE
  5
E61
330
18
100
AcDbEntity
  8
1
  6
Continuous
100
AcDbLine
 10
169.2602128418409
 20
71.10376680554093
 30
0.0
 11
170.6817625370579
 21
69.53279991348478
 31
0.0
  0
LINE
  5
E62
330
18
100
AcDbEntity
  8
1
  6
Continuous
100
AcDbLine
 10
173.5862904703187
 20
71.1037668055409
 30
0.0
 11
172.1647407751019
 21
69.53279991348478
 31
0.0
  0
ARC
  5
E75
330
18
100
AcDbEntity
  8
1
  6
Continuous
100
AcDbCircle
 10
173.2755966560783
 20
54.40376580554101
 30
0.0
 40
6.0
100
AcDbArc
 50
309.0822072973713
 51
50.91779270262858
  0
ARC
  5
E76
330
18
100
AcDbEntity
  8
1
  6
Continuous
100
AcDbCircle
 10
173.2755966560794
 20
54.40376580554101
 30
0.0
 40
12.5
100
AcDbArc
 50
237.140119621112
 51
122.8598803788901
  0
ARC
  5
E77
330
18
100
AcDbEntity
  8
1
  6
Continuous
100
AcDbCircle
 10
173.2755966560794
 20
54.40376580554101
 30
0.0
 40
20.79945033161243
100
AcDbArc
 50
224.1974989021893
 51
58.72721426918398
  0
ARC
  5
11E1
330
18
100
AcDbEntity
  8
1
  6
Continuous
100
AcDbCircle
 10
303.9223278494686
 20
164.3253216345045
 30
0.0
 40
26.87784399999999
100
AcDbArc
 50
56.32718781829491
 51
123.6728240142834
  0
ARC
  5
11E4
330
18
100
AcDbEntity
  8
1
  6
Continuous
100
AcDbCircle
 10
294.0099615247851
 20
179.203570857233
 30
0.0
 40
9.0
100
AcDbArc
 50
123.6728240142834
 51
177.9683485742931
  0
ARC
  5
11E5
330
18
100
AcDbEntity
  8
1
  6
Continuous
100
AcDbCircle
 10
295.5776847977011
 20
180.136211502786
 30
0.0
 40
9.0
100
AcDbArc
 50
117.8241154660133
 51
174.0627604195882
  0
ARC
  5
11F0
330
18
100
AcDbEntity
  8
1
  6
Continuous
100
AcDbCircle
 10
309.9999038494686
 20
178.6363456345046
 30
0.0
 40
23.5
100
AcDbArc
 50
174.0627604195882
 51
214.2518468111363
  0
ARC
  5
11F2
330
18
100
AcDbEntity
  8
1
  6
Continuous
100
AcDbCircle
 10
288.9223278494686
 20
164.2841405786874
 30
0.0
 40
2.0
100
AcDbArc
 50
0.0
 51
34.25184681113631
  0
ARC
  5
1200
330
18
100
AcDbEntity
  8
1
  6
Continuous
100
AcDbCircle
 10
313.8346941741521
 20
179.203570857233
 30
0.0
 40
9.0
100
AcDbArc
 50
2.031651425706717
 51
56.32717598571659
  0
ARC
  5
1202
330
18
100
AcDbEntity
  8
1
  6
Continuous
100
AcDbCircle
 10
312.2669677270113
 20
180.1362131780723
 30
0.0
 40
9.0
100
AcDbArc
 50
5.937246235894432
 51
62.17589603679719
  0
ARC
  5
1215
330
18
100
AcDbEntity
  8
1
  6
Continuous
100
AcDbCircle
 10
297.8447488494686
 20
178.6363456345046
 30
0.0
 40
23.5
100
AcDbArc
 50
325.7481651652349
 51
5.937246235894432
  0
ARC
  5
1217
330
18
100
AcDbEntity
  8
1
  6
Continuous
100
AcDbCircle
 10
318.9223278494687
 20
164.2841449844734
 30
0.0
 40
2.0
100
AcDbArc
 50
145.7481651652378
 51
180.0
  0
ARC
  5
1246
330
18
100
AcDbEntity
  8
1
  6
Continuous
100
AcDbCircle
 10
309.9999068494688
 20
178.6363456345046
 30
0.0
 40
25.0
100
AcDbArc
 50
177.57103
 51
214.6033506193233
  0
ARC
  5
1249
330
18
100
AcDbEntity
  8
1
  6
Continuous
100
AcDbCircle
 10
290.1047998494686
 20
174.9241896345047
 30
0.0
 40
3.0
100
AcDbArc
 50
50.26953000000031
 51
74.1863584758303
  0
ARC
  5
124C
330
18
100
AcDbEntity
  8
1
  6
Continuous
100
AcDbCircle
 10
277.2838778494685
 20
166.8542446345046
 30
0.0
 40
14.405884
100
AcDbArc
 50
234.333417193278
 51
298.8211500000003
  0
ARC
  5
124D
330
18
100
AcDbEntity
  8
1
  6
Continuous
100
AcDbCircle
 10
270.1223286494686
 20
156.7213026345046
 30
0.0
 40
2.0
100
AcDbArc
 50
180.0
 51
231.7549145456805
  0
LINE
  5
124F
330
18
100
AcDbEntity
  8
1
  6
Continuous
100
AcDbLine
 10
284.4402488494686
 20
154.3492776345047
 30
0.0
 11
284.2286248494684
 21
154.2328346345046
 31
0.0
  0
ARC
  5
1251
330
18
100
AcDbEntity
  8
1
  6
Continuous
100
AcDbCircle
 10
284.9962420792741
 20
152.1933305944065
 30
0.0
 40
2.226485147333635
100
AcDbArc
 50
358.9147599269574
 51
104.460820509998
  0
LINE
  5
1252
330
18
100
AcDbEntity
  8
1
  6
Continuous
100
AcDbLine
 10
289.4223278494686
 20
153.6182256345046
 30
0.0
 11
289.4223278494686
 21
153.1865466345046
 31
0.0
  0
LINE
  5
1253
330
18
100
AcDbEntity
  8
1
  6
Continuous
100
AcDbLine
 10
279.0651882072729
 20
164.5930744284521
 30
0.0
 11
287.2223280987658
 21
164.5930744284521
 31
0.0
  0
LINE
  5
1256
330
18
100
AcDbEntity
  8
1
  6
Continuous
100
AcDbLine
 10
280.6223138494685
 20
177.2031676345046
 30
0.0
 11
285.0410206399378
 21
177.2031676345046
 31
0.0
  0
LINE
  5
140A
330
18
100
AcDbEntity
  8
1
  6
Continuous
100
AcDbLine
 10
484.7852000428573
 20
187.9993206345046
 30
0.0
 11
479.4158449672823
 21
184.8993209946559
 31
0.0
  0
LINE
  5
140B
330
18
100
AcDbEntity
  8
1
  6
Continuous
100
AcDbLine
 10
484.0352000428572
 20
189.2983584345047
 30
0.0
 11
472.4724454594301
 21
182.6225970582562
 31
0.0
  0
ARC
  5
1411
330
18
100
AcDbEntity
  8
1
  6
Continuous
100
AcDbCircle
 10
454.3154390428573
 20
188.0745096345045
 30
0.0
 40
27.0
100
AcDbArc
 50
331.4563624675953
 51
342.2929600000001
  0
ARC
  5
141A
330
18
100
AcDbEntity
  8
1
  6
Continuous
100
AcDbCircle
 10
479.9158450428572
 20
184.0332956345046
 30
0.0
 40
1.0
100
AcDbArc
 50
120.000005
 51
210.0
  0
ARC
  5
141B
330
18
100
AcDbEntity
  8
1
  6
Continuous
100
AcDbCircle
 10
477.178243042857
 20
180.7749596345047
 30
0.0
 40
3.0
100
AcDbArc
 50
342.2929600000001
 51
29.9999899999999
  0
LINE
  5
141C
330
18
100
AcDbEntity
  8
1
  6
Continuous
100
AcDbLine
 10
478.2977386702212
 20
184.8359449841242
 30
0.0
 11
479.7763270428571
 21
182.2749596345047
 31
0.0
  0
LINE
  5
1428
330
18
100
AcDbEntity
  8
1
  6
Continuous
100
AcDbLine
 10
484.0352000428572
 20
189.2983584345047
 30
0.0
 11
484.7852070428571
 21
187.9993186345046
 31
0.0
  0
LINE
  5
1433
330
18
100
AcDbEntity
  8
1
  6
Continuous
100
AcDbLine
 10
424.4271766293763
 20
153.151595490691
 30
0.0
 11
420.9591390428571
 21
151.1493226345046
 31
0.0
  0
LINE
  5
1434
330
18
100
AcDbEntity
  8
1
  6
Continuous
100
AcDbLine
 10
431.1656687756626
 20
158.774117358501
 30
0.0
 11
420.2091390428572
 21
152.4483606345046
 31
0.0
  0
ARC
  5
143F
330
18
100
AcDbEntity
  8
1
  6
Continuous
100
AcDbCircle
 10
435.5226890428572
 20
177.2245086345046
 30
0.0
 40
27.0
100
AcDbArc
 50
257.7067517225021
 51
268.5436038731058
  0
LINE
  5
146C
330
18
100
AcDbEntity
  8
1
  6
Continuous
100
AcDbLine
 10
420.2091390428572
 20
152.4483606345046
 30
0.0
 11
420.9591390428571
 21
151.1493226345046
 31
0.0
  0
ARC
  5
146E
330
18
100
AcDbEntity
  8
1
  6
Continuous
100
AcDbCircle
 10
425.6732290428572
 20
150.9842576345046
 30
0.0
 40
2.5
100
AcDbArc
 50
30.48904549899094
 51
120.000005
  0
ARC
  5
14A4
330
18
100
AcDbEntity
  8
1
  6
Continuous
100
AcDbCircle
 10
479.1658380428573
 20
185.3323354345047
 30
0.0
 40
1.0
100
AcDbArc
 50
120.000005
 51
210.0
  0
ARC
  5
14A5
330
18
100
AcDbEntity
  8
1
  6
Continuous
100
AcDbCircle
 10
424.9232290428571
 20
152.2832956345046
 30
0.0
 40
2.5
100
AcDbArc
 50
30.48959999999981
 51
120.000005
  0
ARC
  5
14A7
330
18
100
AcDbEntity
  8
1
  6
Continuous
100
AcDbCircle
 10
177.4319326549504
 20
153.7748125279368
 30
0.0
 40
3.0
100
AcDbArc
 50
282.2932482774977
 51
329.5109545010085
  0
ARC
  5
14A8
330
18
100
AcDbEntity
  8
1
  6
Continuous
100
AcDbCircle
 10
430.4127230439866
 20
153.7748125279368
 30
0.0
 40
3.0
100
AcDbArc
 50
210.4890454989915
 51
257.7067517225017
  0
LINE
  5
14A9
330
18
100
AcDbEntity
  8
1
  6
Continuous
100
AcDbLine
 10
427.827544497916
 20
152.2526916769738
 30
0.0
 11
427.0775322220774
 21
153.5517505260957
 31
0.0
  0
LINE
  5
14B3
330
18
100
AcDbEntity
  8
1
  6
Continuous
100
AcDbLine
 10
141.6818160347222
 20
66.30376857115263
 30
0.0
 11
141.0727830427231
 21
66.70377359210272
 31
0.0
  0
LINE
  5
15C3
330
18
100
AcDbEntity
  8
1
  6
Continuous
100
AcDbLine
 10
15.12886546269111
 20
159.3802876345046
 30
0.0
 11
15.12886546269111
 21
169.0260392900369
 31
0.0
  0
ARC
  5
15C4
330
18
100
AcDbEntity
  8
1
  6
Continuous
100
AcDbCircle
 10
16.62886546269112
 20
160.7031636345046
 30
0.0
 40
2.0
100
AcDbArc
 50
221.4096300000012
 51
318.590379999999
  0
ARC
  5
15C5
330
18
100
AcDbEntity
  8
1
  6
Continuous
100
AcDbCircle
 10
16.62886546269112
 20
163.7338036345046
 30
0.0
 40
1.8
100
AcDbArc
 50
213.5573200000009
 51
326.4426900000013
  0
ARC
  5
15C6
330
18
100
AcDbEntity
  8
1
  6
Continuous
100
AcDbCircle
 10
16.62886546269112
 20
159.2943196345045
 30
0.0
 40
1.8
100
AcDbArc
 50
33.55730999999865
 51
146.442679999999
  0
ARC
  5
15C7
330
18
100
AcDbEntity
  8
1
  6
Continuous
100
AcDbCircle
 10
16.62886546269112
 20
164.6725236345046
 30
0.0
 40
1.8
100
AcDbArc
 50
33.55730999999865
 51
146.442679999999
  0
ARC
  5
15C8
330
18
100
AcDbEntity
  8
1
  6
Continuous
100
AcDbCircle
 10
16.62886546269112
 20
169.1120076345046
 30
0.0
 40
1.8
100
AcDbArc
 50
213.5573200000009
 51
326.4426900000013
  0
ARC
  5
15C9
330
18
100
AcDbEntity
  8
1
  6
Continuous
100
AcDbCircle
 10
16.62886546269112
 20
167.7031636345046
 30
0.0
 40
2.0
100
AcDbArc
 50
41.40962400000026
 51
138.5903699999985
  0
LINE
  5
15CE
330
18
100
AcDbEntity
  8
1
  6
Continuous
100
AcDbLine
 10
60.62886546269112
 20
166.7031636345046
 30
0.0
 11
60.12886446269114
 21
167.2031636345046
 31
0.0
  0
LINE
  5
15CF
330
18
100
AcDbEntity
  8
1
  6
Continuous
100
AcDbLine
 10
60.6288664626911
 20
161.7031636345046
 30
0.0
 11
60.12886546269111
 21
161.2031636345046
 31
0.0
  0
LINE
  5
15D0
330
18
100
AcDbEntity
  8
1
  6
Continuous
100
AcDbLine
 10
60.12886546269111
 20
161.2031636345046
 30
0.0
 11
60.12886546269111
 21
167.2031636345046
 31
0.0
  0
LINE
  5
15D1
330
18
100
AcDbEntity
  8
1
  6
Continuous
100
AcDbLine
 10
60.62886546269112
 20
161.7031636345046
 30
0.0
 11
60.62886546269112
 21
166.7031636345046
 31
0.0
  0
LINE
  5
15D2
330
18
100
AcDbEntity
  8
1
  6
Continuous
100
AcDbLine
 10
147.5755966560799
 20
36.90376580554096
 30
0.0
 11
156.9755966560799
 21
36.90376580554096
 31
0.0
  0
ARC
  5
15D3
330
18
100
AcDbEntity
  8
1
  6
Continuous
100
AcDbCircle
 10
156.9755966560799
 20
39.603765805541
 30
0.0
 40
0.3
100
AcDbArc
 50
0.0
 51
90.0
  0
ARC
  5
15D4
330
18
100
AcDbEntity
  8
1
  6
Continuous
100
AcDbCircle
 10
154.9599106560797
 20
38.40376580554096
 30
0.0
 40
1.8
100
AcDbArc
 50
303.5573200000008
 51
56.44269000000136
  0
LINE
  5
15D5
330
18
100
AcDbEntity
  8
1
  6
Continuous
100
AcDbLine
 10
157.2755966560799
 20
39.603765805541
 30
0.0
 11
157.2755966560799
 21
37.2037658055409
 31
0.0
  0
ARC
  5
15D6
330
18
100
AcDbEntity
  8
1
  6
Continuous
100
AcDbCircle
 10
156.9755966560799
 20
37.2037658055409
 30
0.0
 40
0.3
100
AcDbArc
 50
270.0
 51
0.0
  0
ARC
  5
15D7
330
18
100
AcDbEntity
  8
1
  6
Continuous
100
AcDbCircle
 10
147.5755966560799
 20
39.603765805541
 30
0.0
 40
0.3
100
AcDbArc
 50
90.0
 51
180.0
  0
ARC
  5
15D8
330
18
100
AcDbEntity
  8
1
  6
Continuous
100
AcDbCircle
 10
154.59128265608
 20
38.40376580554096
 30
0.0
 40
1.8
100
AcDbArc
 50
123.5573099999985
 51
236.442679999999
  0
ARC
  5
15D9
330
18
100
AcDbEntity
  8
1
  6
Continuous
100
AcDbCircle
 10
149.9599106560798
 20
38.40376580554096
 30
0.0
 40
1.8
100
AcDbArc
 50
303.5573200000008
 51
56.44269000000136
  0
ARC
  5
15DA
330
18
100
AcDbEntity
  8
1
  6
Continuous
100
AcDbCircle
 10
149.59128265608
 20
38.40376580554096
 30
0.0
 40
1.8
100
AcDbArc
 50
123.5573099999985
 51
236.442679999999
  0
LINE
  5
15DB
330
18
100
AcDbEntity
  8
1
  6
Continuous
100
AcDbLine
 10
147.2755966560798
 20
39.603765805541
 30
0.0
 11
147.2755966560798
 21
37.2037658055409
 31
0.0
  0
ARC
  5
15DC
330
18
100
AcDbEntity
  8
1
  6
Continuous
100
AcDbCircle
 10
147.5755966560799
 20
37.2037658055409
 30
0.0
 40
0.3
100
AcDbArc
 50
180.0
 51
270.0
  0
LINE
  5
15DD
330
18
100
AcDbEntity
  8
1
  6
Continuous
100
AcDbLine
 10
456.0847450428574
 20
169.6789326345045
 30
0.0
 11
460.0533730428573
 21
167.3876466345046
 31
0.0
  0
LINE
  5
15DE
330
18
100
AcDbEntity
  8
1
  6
Continuous
100
AcDbLine
 10
456.0847450428574
 20
158.7273926345046
 30
0.0
 11
460.0533730428573
 21
161.0186806345046
 31
0.0
  0
CIRCLE
  5
15DF
330
18
100
AcDbEntity
  8
1
  6
Continuous
100
AcDbCircle
 10
455.5690590428572
 20
164.2031636345046
 30
0.0
 40
1.5
  0
CIRCLE
  5
15E0
330
18
100
AcDbEntity
  8
1
  6
Continuous
100
AcDbCircle
 10
455.5690590428572
 20
164.2031636345046
 30
0.0
 40
4.5
  0
LINE
  5
15E1
330
18
100
AcDbEntity
  8
1
  6
Continuous
100
AcDbLine
 10
455.0533730428573
 20
169.6789366345046
 30
0.0
 11
451.0847450428572
 21
167.3876466345046
 31
0.0
  0
ARC
  5
15E2
330
18
100
AcDbEntity
  8
1
  6
Continuous
100
AcDbCircle
 10
455.5690590428572
 20
164.2031636345046
 30
0.0
 40
5.5
100
AcDbArc
 50
264.61998
 51
275.38002
  0
ARC
  5
15E3
330
18
100
AcDbEntity
  8
1
  6
Continuous
100
AcDbCircle
 10
455.5690590428572
 20
164.2031636345046
 30
0.0
 40
5.5
100
AcDbArc
 50
144.6199800000006
 51
155.3800299999996
  0
ARC
  5
15E4
330
18
100
AcDbEntity
  8
1
  6
Continuous
100
AcDbCircle
 10
455.5690590428572
 20
164.2031636345046
 30
0.0
 40
5.5
100
AcDbArc
 50
204.6199700000002
 51
215.3800199999992
  0
LINE
  5
15E5
330
18
100
AcDbEntity
  8
1
  6
Continuous
100
AcDbLine
 10
450.5690590428574
 20
166.4944496345047
 30
0.0
 11
450.5690590428574
 21
161.9118776345047
 31
0.0
  0
LINE
  5
15E6
330
18
100
AcDbEntity
  8
1
  6
Continuous
100
AcDbLine
 10
455.0533730428573
 20
158.7273926345046
 30
0.0
 11
451.0847450428572
 21
161.0186796345046
 31
0.0
  0
ARC
  5
15E7
330
18
100
AcDbEntity
  8
1
  6
Continuous
100
AcDbCircle
 10
455.5690590428572
 20
164.2031636345046
 30
0.0
 40
5.5
100
AcDbArc
 50
84.61997899999976
 51
95.38001999999998
  0
ARC
  5
15E8
330
18
100
AcDbEntity
  8
1
  6
Continuous
100
AcDbCircle
 10
455.5690590428572
 20
164.2031636345046
 30
0.0
 40
5.5
100
AcDbArc
 50
24.61997700000076
 51
35.38002100000063
  0
ARC
  5
15E9
330
18
100
AcDbEntity
  8
1
  6
Continuous
100
AcDbCircle
 10
455.5690590428572
 20
164.2031636345046
 30
0.0
 40
5.5
100
AcDbArc
 50
324.6199800000006
 51
335.3800199999988
  0
LINE
  5
15EA
330
18
100
AcDbEntity
  8
1
  6
Continuous
100
AcDbLine
 10
460.5690590428571
 20
166.4944496345047
 30
0.0
 11
460.5690590428571
 21
161.9118776345047
 31
0.0
  0
ARC
  5
15EC
330
18
100
AcDbEntity
  8
1
  6
Continuous
100
AcDbCircle
 10
319.9223278519915
 20
164.6725236345046
 30
0.0
 40
1.8
100
AcDbArc
 50
33.55732000000092
 51
97.84509499067702
  0
LINE
  5
15ED
330
18
100
AcDbEntity
  8
1
  6
Continuous
100
AcDbLine
 10
321.4223278519915
 20
159.3802876345046
 30
0.0
 11
321.4223278519915
 21
169.0260392900369
 31
0.0
  0
ARC
  5
15F3
330
18
100
AcDbEntity
  8
1
  6
Continuous
100
AcDbCircle
 10
319.9223278519915
 20
160.7031636345046
 30
0.0
 40
2.0
100
AcDbArc
 50
221.4096200000009
 51
318.5903699999987
  0
ARC
  5
15F4
330
18
100
AcDbEntity
  8
1
  6
Continuous
100
AcDbCircle
 10
319.9223278519915
 20
163.7338036345046
 30
0.0
 40
1.8
100
AcDbArc
 50
213.5573099999986
 51
326.442679999999
  0
ARC
  5
15F5
330
18
100
AcDbEntity
  8
1
  6
Continuous
100
AcDbCircle
 10
319.9223278519915
 20
159.2943196345045
 30
0.0
 40
1.8
100
AcDbArc
 50
33.55732000000092
 51
146.4426900000013
  0
ARC
  5
15F9
330
18
100
AcDbEntity
  8
1
  6
Continuous
100
AcDbCircle
 10
319.9223278519915
 20
169.1120076345046
 30
0.0
 40
1.8
100
AcDbArc
 50
276.9305109381406
 51
326.442679999999
  0
ARC
  5
15FA
330
18
100
AcDbEntity
  8
1
  6
Continuous
100
AcDbCircle
 10
319.9223278519915
 20
167.7031636345046
 30
0.0
 40
2.0
100
AcDbArc
 50
41.40963000000131
 51
55.46017002984893
  0
LINE
  5
15FF
330
18
100
AcDbEntity
  8
1
  6
Continuous
100
AcDbLine
 10
280.6223138494685
 20
169.2031636345046
 30
0.0
 11
280.2223138494685
 21
169.2031636345046
 31
0.0
  0
LINE
  5
163F
330
18
100
AcDbEntity
  8
1
  6
Continuous
100
AcDbLine
 10
276.4223278494684
 20
163.5409626345047
 30
0.0
 11
276.4223278494684
 21
167.2031636345046
 31
0.0
  0
LINE
  5
1640
330
18
100
AcDbEntity
  8
1
  6
Continuous
100
AcDbLine
 10
275.9223278494685
 20
163.2207553238377
 30
0.0
 11
275.9223278494685
 21
166.7031636345046
 31
0.0
  0
LINE
  5
1641
330
18
100
AcDbEntity
  8
1
  6
Continuous
100
AcDbLine
 10
280.2223138494685
 20
169.2031636345046
 30
0.0
 11
280.2223138494685
 21
165.9745292297682
 31
0.0
  0
ARC
  5
1642
330
18
100
AcDbEntity
  8
1
  6
Continuous
100
AcDbCircle
 10
286.7223138494685
 20
166.7031636345046
 30
0.0
 40
6.5
100
AcDbArc
 50
159.7947764166256
 51
186.2189891738655
  0
LINE
  5
164D
330
18
100
AcDbEntity
  8
2
  6
Continuous
100
AcDbLine
 10
275.9223278494685
 20
166.7031636345046
 30
0.0
 11
280.2223138494685
 21
166.7031636345046
 31
0.0
  0
LINE
  5
164E
330
18
100
AcDbEntity
  8
1
  6
Continuous
100
AcDbLine
 10
276.4223288494684
 20
167.2031636345046
 30
0.0
 11
280.2223138494685
 21
167.2031636345046
 31
0.0
  0
LINE
  5
164F
330
18
100
AcDbEntity
  8
1
  6
Continuous
100
AcDbLine
 10
275.9223278494685
 20
166.7031636345046
 30
0.0
 11
276.4223288494684
 21
167.2031636345046
 31
0.0
  0
LINE
  5
1653
330
18
100
AcDbEntity
  8
1
  6
Continuous
100
AcDbLine
 10
50.42887926269123
 20
160.2031731345015
 30
0.0
 11
49.95747426269125
 21
158.8698371345016
 31
0.0
  0
LINE
  5
1654
330
18
100
AcDbEntity
  8
1
  6
Continuous
100
AcDbLine
 10
51.72888006269126
 20
157.7031636345046
 30
0.0
 11
51.72888006269126
 21
170.7031636345046
 31
0.0
  0
LINE
  5
1655
330
18
100
AcDbEntity
  8
1
  6
Continuous
100
AcDbLine
 10
50.42887926269123
 20
156.5010881740729
 30
0.0
 11
50.42887926269123
 21
171.9052470949383
 31
0.0
  0
ARC
  5
1656
330
18
100
AcDbEntity
  8
1
  6
Continuous
100
AcDbCircle
 10
46.12887966269126
 20
161.7031636345046
 30
0.0
 40
6.5
100
AcDbArc
 50
337.3801300000002
 51
22.6198650000003
  0
LINE
  5
1657
330
18
100
AcDbEntity
  8
1
  6
Continuous
100
AcDbLine
 10
56.32887946269114
 20
169.2031636345046
 30
0.0
 11
56.32887946269114
 21
159.2031636345046
 31
0.0
  0
ARC
  5
1658
330
18
100
AcDbEntity
  8
1
  6
Continuous
100
AcDbCircle
 10
49.82887946269116
 20
161.7031636345046
 30
0.0
 40
6.5
100
AcDbArc
 50
337.3801300000002
 51
22.6198650000003
  0
LINE
  5
1659
330
18
100
AcDbEntity
  8
1
  6
Continuous
100
AcDbLine
 10
50.42887926269123
 20
157.7031636345046
 30
0.0
 11
51.72888006269126
 21
157.7031636345046
 31
0.0
  0
LINE
  5
165A
330
18
100
AcDbEntity
  8
1
  6
Continuous
100
AcDbLine
 10
50.17887926269125
 20
158.2701591345015
 30
0.0
 11
50.42888126269125
 21
158.1258191345016
 31
0.0
  0
ARC
  5
165B
330
18
100
AcDbEntity
  8
1
  6
Continuous
100
AcDbCircle
 10
50.42887926269123
 20
158.7031691345016
 30
0.0
 40
0.5
100
AcDbArc
 50
160.5287699999982
 51
240.0000099999997
  0
LINE
  5
165C
330
18
100
AcDbEntity
  8
1
  6
Continuous
100
AcDbLine
 10
52.55475688525999
 20
159.203163159109
 30
0.0
 11
51.72888006269126
 21
157.7031636345046
 31
0.0
  0
LINE
  5
165D
330
18
100
AcDbEntity
  8
1
  6
Continuous
100
AcDbLine
 10
52.12887944225795
 20
159.2031631054648
 30
0.0
 11
56.32887946269114
 21
159.2031636345046
 31
0.0
  0
LINE
  5
165E
330
18
100
AcDbEntity
  8
1
  6
Continuous
100
AcDbLine
 10
50.42887926269123
 20
170.7031636345046
 30
0.0
 11
51.72888006269126
 21
170.7031636345046
 31
0.0
  0
LINE
  5
1660
330
18
100
AcDbEntity
  8
1
  6
Continuous
100
AcDbLine
 10
50.42887926269123
 20
168.2031663060743
 30
0.0
 11
49.95747426269125
 21
169.5365011345016
 31
0.0
  0
LINE
  5
1661
330
18
100
AcDbEntity
  8
1
  6
Continuous
100
AcDbLine
 10
50.17887926269125
 20
170.1361791345016
 30
0.0
 11
50.42888126269125
 21
170.2805191345016
 31
0.0
  0
ARC
  5
1662
330
18
100
AcDbEntity
  8
1
  6
Continuous
100
AcDbCircle
 10
50.42887926269123
 20
169.7031691345016
 30
0.0
 40
0.5
100
AcDbArc
 50
120.0000000000005
 51
199.4712199999995
  0
ARC
  5
1663
330
18
100
AcDbEntity
  8
1
  6
Continuous
100
AcDbCircle
 10
53.22236566269115
 20
164.2031636345046
 30
0.0
 40
3.296371499999998
100
AcDbArc
 50
147.9346199999983
 51
212.0653899999999
  0
LINE
  5
1664
330
18
100
AcDbEntity
  8
1
  6
Continuous
100
AcDbLine
 10
52.55476234353515
 20
169.2031636345046
 30
0.0
 11
51.72887906269128
 21
170.7031636345046
 31
0.0
  0
ARC
  5
1665
330
18
100
AcDbEntity
  8
1
  6
Continuous
100
AcDbCircle
 10
49.82887946269116
 20
166.7031636345046
 30
0.0
 40
6.5
100
AcDbArc
 50
337.3801300000002
 51
22.6198650000003
  0
LINE
  5
1666
330
18
100
AcDbEntity
  8
1
  6
Continuous
100
AcDbLine
 10
52.12887966269139
 20
169.2031636345046
 30
0.0
 11
56.32887946269114
 21
169.2031636345046
 31
0.0
  0
LINE
  5
1667
330
18
100
AcDbEntity
  8
1
  6
Continuous
100
AcDbLine
 10
52.12887943999092
 20
164.2031631109059
 30
0.0
 11
55.82887946269114
 21
164.2031636345046
 31
0.0
  0
ARC
  5
1668
330
18
100
AcDbEntity
  8
1
  6
Continuous
100
AcDbCircle
 10
46.12887966042424
 20
166.7031636399459
 30
0.0
 40
6.5
100
AcDbArc
 50
337.3801300000002
 51
22.6198650000003
  0
LINE
  5
166B
330
18
100
AcDbEntity
  8
1
  6
Continuous
100
AcDbLine
 10
149.3888436560798
 20
265.9215535077413
 30
0.0
 11
149.3888436560798
 21
265.7775478634683
 31
0.0
  0
LINE
  5
166C
330
18
100
AcDbEntity
  8
1
  6
Continuous
100
AcDbLine
 10
158.0490986560799
 20
266.0373062134414
 30
0.0
 11
158.0490986560799
 21
265.7775478634683
 31
0.0
  0
LINE
  5
166D
330
18
100
AcDbEntity
  8
1
  6
Continuous
100
AcDbLine
 10
155.1623496560798
 20
266.2744756008451
 30
0.0
 11
155.1623496560798
 21
265.7775478634683
 31
0.0
  0
LINE
  5
166E
330
18
100
AcDbEntity
  8
1
  6
Continuous
100
AcDbLine
 10
158.0490986560799
 20
265.7775468634683
 30
0.0
 11
157.2755986560799
 21
265.2775478634683
 31
0.0
  0
ARC
  5
166F
330
18
100
AcDbEntity
  8
1
  6
Continuous
100
AcDbCircle
 10
152.2755966560799
 20
273.8608810634683
 30
0.0
 40
8.583332999999999
100
AcDbArc
 50
250.3471399999996
 51
270.0
  0
LINE
  5
1670
330
18
100
AcDbEntity
  8
1
  6
Continuous
100
AcDbLine
 10
147.2755966560798
 20
265.2775478634683
 30
0.0
 11
157.27559865608
 21
265.2775478634683
 31
0.0
  0
LINE
  5
1671
330
18
100
AcDbEntity
  8
1
  6
Continuous
100
AcDbLine
 10
147.0108812972906
 20
265.44866221436
 30
0.0
 11
147.2755966560798
 21
265.2775473634683
 31
0.0
  0
ARC
  5
1672
330
18
100
AcDbEntity
  8
1
  6
Continuous
100
AcDbCircle
 10
147.9454686560798
 20
267.6108813634683
 30
0.0
 40
2.3333333
100
AcDbArc
 50
247.3580442041221
 51
308.2132109999978
  0
ARC
  5
1673
330
18
100
AcDbEntity
  8
1
  6
Continuous
100
AcDbCircle
 10
152.2755966560799
 20
273.8608810634683
 30
0.0
 40
8.583332999999999
100
AcDbArc
 50
270.0
 51
289.6528600000003
  0
ARC
  5
1674
330
18
100
AcDbEntity
  8
1
  6
Continuous
100
AcDbCircle
 10
156.6057246560798
 20
267.6108813634683
 30
0.0
 40
2.3333333
100
AcDbArc
 50
231.7867899999983
 51
297.544865000002
  0
LINE
  5
1686
330
18
100
AcDbEntity
  8
1
  6
Continuous
100
AcDbLine
 10
146.5020946560798
 20
73.90378000554102
 30
0.0
 11
146.5020946560798
 21
77.60377980554102
 31
0.0
  0
LINE
  5
1687
330
18
100
AcDbEntity
  8
1
  6
Continuous
100
AcDbLine
 10
149.3888436560798
 20
73.90378000554102
 30
0.0
 11
149.3888436560798
 21
77.60377980554102
 31
0.0
  0
LINE
  5
1688
330
18
100
AcDbEntity
  8
1
  6
Continuous
100
AcDbLine
 10
158.0490986560799
 20
73.90378000554102
 30
0.0
 11
158.0490986560799
 21
77.60377980554102
 31
0.0
  0
LINE
  5
1689
330
18
100
AcDbEntity
  8
1
  6
Continuous
100
AcDbLine
 10
155.1623496560798
 20
73.90378000554102
 30
0.0
 11
155.1623496560798
 21
77.60377980554102
 31
0.0
  0
LINE
  5
168A
330
18
100
AcDbEntity
  8
1
  6
Continuous
100
AcDbLine
 10
158.0490986560799
 20
77.60378080554102
 30
0.0
 11
157.2755986560799
 21
78.10377980554102
 31
0.0
  0
ARC
  5
168B
330
18
100
AcDbEntity
  8
1
  6
Continuous
100
AcDbCircle
 10
152.2755966560799
 20
69.52044660554105
 30
0.0
 40
8.583332999999999
100
AcDbArc
 50
90.00000000000005
 51
109.6528600000004
  0
LINE
  5
168C
330
18
100
AcDbEntity
  8
1
  6
Continuous
100
AcDbLine
 10
147.2755966560798
 20
78.10377980554102
 30
0.0
 11
157.27559865608
 21
78.10377980554091
 31
0.0
  0
LINE
  5
168D
330
18
100
AcDbEntity
  8
1
  6
Continuous
100
AcDbLine
 10
146.5020946560798
 20
77.60378030554107
 30
0.0
 11
147.2755966560798
 21
78.10378030554108
 31
0.0
  0
ARC
  5
168E
330
18
100
AcDbEntity
  8
1
  6
Continuous
100
AcDbCircle
 10
147.9454686560798
 20
75.77044630554104
 30
0.0
 40
2.3333333
100
AcDbArc
 50
51.78678900000214
 51
117.5448700000002
  0
ARC
  5
168F
330
18
100
AcDbEntity
  8
1
  6
Continuous
100
AcDbCircle
 10
152.2755966560799
 20
69.52044660554105
 30
0.0
 40
8.583332999999999
100
AcDbArc
 50
70.34713999999954
 51
90.00000000000005
  0
ARC
  5
1690
330
18
100
AcDbEntity
  8
1
  6
Continuous
100
AcDbCircle
 10
156.6057246560798
 20
75.77044630554104
 30
0.0
 40
2.3333333
100
AcDbArc
 50
62.45513499999793
 51
128.2132100000017
  0
LINE
  5
1691
330
18
100
AcDbEntity
  8
1
  6
Continuous
100
AcDbLine
 10
156.5357416560798
 20
72.06715860554102
 30
0.0
 11
158.0255946560798
 21
71.703779605541
 31
0.0
  0
LINE
  5
1692
330
18
100
AcDbEntity
  8
1
  6
Continuous
100
AcDbLine
 10
145.7755966560799
 20
72.203779605541
 30
0.0
 11
158.7755966560798
 21
72.203779605541
 31
0.0
  0
LINE
  5
1693
330
18
100
AcDbEntity
  8
1
  6
Continuous
100
AcDbLine
 10
145.7755966560799
 20
73.50378040554102
 30
0.0
 11
158.7755966560798
 21
73.50378040554102
 31
0.0
  0
ARC
  5
1694
330
18
100
AcDbEntity
  8
1
  6
Continuous
100
AcDbCircle
 10
156.6057246560798
 20
72.07044560554102
 30
0.0
 40
2.3333333
100
AcDbArc
 50
51.78678900000214
 51
128.2132100000017
  0
ARC
  5
1695
330
18
100
AcDbEntity
  8
1
  6
Continuous
100
AcDbCircle
 10
152.2755966560799
 20
65.82044560554101
 30
0.0
 40
8.583332999999999
100
AcDbArc
 50
90.00000000000005
 51
109.6528600000004
  0
ARC
  5
1696
330
18
100
AcDbEntity
  8
1
  6
Continuous
100
AcDbCircle
 10
149.5255966560798
 20
74.99726580554106
 30
0.0
 40
3.296371499999998
100
AcDbArc
 50
237.9346099999998
 51
302.0653800000017
  0
LINE
  5
1697
330
18
100
AcDbEntity
  8
1
  6
Continuous
100
AcDbLine
 10
148.0154496560799
 20
72.06715860554102
 30
0.0
 11
146.5255966560798
 21
71.70378060554098
 31
0.0
  0
LINE
  5
1698
330
18
100
AcDbEntity
  8
1
  6
Continuous
100
AcDbLine
 10
146.5255966560798
 20
71.703779605541
 30
0.0
 11
145.7755966560799
 21
72.203780605541
 31
0.0
  0
LINE
  5
1699
330
18
100
AcDbEntity
  8
1
  6
Continuous
100
AcDbLine
 10
145.7755966560799
 20
72.203779605541
 30
0.0
 11
145.7755966560799
 21
73.50378040554102
 31
0.0
  0
LINE
  5
169A
330
18
100
AcDbEntity
  8
1
  6
Continuous
100
AcDbLine
 10
146.5020946560798
 20
73.90377910554111
 30
0.0
 11
145.7755966560799
 21
73.50378040554102
 31
0.0
  0
ARC
  5
169B
330
18
100
AcDbEntity
  8
1
  6
Continuous
100
AcDbCircle
 10
147.9454686560798
 20
72.07044560554102
 30
0.0
 40
2.3333333
100
AcDbArc
 50
51.78678900000214
 51
128.2132100000017
  0
ARC
  5
169C
330
18
100
AcDbEntity
  8
1
  6
Continuous
100
AcDbCircle
 10
152.2755966560799
 20
65.82044560554101
 30
0.0
 40
8.583332999999999
100
AcDbArc
 50
70.34713999999954
 51
90.00000000000005
  0
ARC
  5
169D
330
18
100
AcDbEntity
  8
1
  6
Continuous
100
AcDbCircle
 10
155.0255966560799
 20
74.99726580554106
 30
0.0
 40
3.296371499999998
100
AcDbArc
 50
237.9346099999998
 51
302.0653800000017
  0
LINE
  5
169E
330
18
100
AcDbEntity
  8
1
  6
Continuous
100
AcDbLine
 10
158.0255966560798
 20
71.70378060554098
 30
0.0
 11
158.7755966560798
 21
72.203780605541
 31
0.0
  0
LINE
  5
169F
330
18
100
AcDbEntity
  8
1
  6
Continuous
100
AcDbLine
 10
158.0491006560799
 20
73.90378000554102
 30
0.0
 11
158.7755966560798
 21
73.50377940554102
 31
0.0
  0
LINE
  5
16A0
330
18
100
AcDbEntity
  8
1
  6
Continuous
100
AcDbLine
 10
158.7755966560798
 20
72.203779605541
 30
0.0
 11
158.7755966560798
 21
73.50378040554102
 31
0.0
  0
ARC
  5
16A3
330
18
100
AcDbEntity
  8
0
  6
Continuous
100
AcDbCircle
 10
152.2755966560799
 20
68.87567506711798
 30
0.0
 40
3.414542980810158
100
AcDbArc
 50
102.9194867022696
 51
153.4147664393914
  0
ARC
  5
16A4
330
18
100
AcDbEntity
  8
0
  6
Continuous
100
AcDbCircle
 10
152.2755966560799
 20
68.87567506711798
 30
0.0
 40
3.414542980810158
100
AcDbArc
 50
26.58523356060841
 51
77.08051329773033
  0
ARC
  5
1AB4
330
18
100
AcDbEntity
  8
1
  6
Continuous
100
AcDbCircle
 10
152.2755966560799
 20
164.2031676345045
 30
0.0
 40
18.010628
100
AcDbArc
 50
165.8245132689535
 51
314.1754893692163
  0
ARC
  5
1AB5
330
18
100
AcDbEntity
  8
1
  6
Continuous
100
AcDbCircle
 10
152.2755966560799
 20
164.2031676345045
 30
0.0
 40
22.11714399999999
100
AcDbArc
 50
158.7184258896929
 51
321.2815812837932
  0
ARC
  5
1AB6
330
18
100
AcDbEntity
  8
1
  6
Continuous
100
AcDbCircle
 10
152.2755966560799
 20
164.2031676345045
 30
0.0
 40
25.0
100
AcDbArc
 50
153.972685654357
 51
326.0273240511998
  0
ARC
  5
1AC7
330
18
100
AcDbEntity
  8
1
  6
Continuous
100
AcDbCircle
 10
127.2755966560799
 20
54.40376580554088
 30
0.0
 40
50.0
100
AcDbArc
 50
0.0
 51
10.69419999999826
  0
ARC
  5
1AC8
330
18
100
AcDbEntity
  8
1
  6
Continuous
100
AcDbCircle
 10
177.2755966560799
 20
54.40376580554088
 30
0.0
 40
50.0
100
AcDbArc
 50
169.3058000000016
 51
180.0
  0
ARC
  5
1AD2
330
18
100
AcDbEntity
  8
1
  6
Continuous
100
AcDbCircle
 10
129.6179638560799
 20
45.40376580554085
 30
0.0
 40
1.5
100
AcDbArc
 50
190.6941899999997
 51
270.0000099999992
  0
ARC
  5
1AD4
330
18
100
AcDbEntity
  8
1
  6
Continuous
100
AcDbCircle
 10
177.2755966560799
 20
54.40376580554088
 30
0.0
 40
50.0
100
AcDbArc
 50
180.0
 51
190.6941899999997
  0
LINE
  5
1AD5
330
18
100
AcDbEntity
  8
1
  6
Continuous
100
AcDbLine
 10
129.6179638560799
 20
43.90376580554085
 30
0.0
 11
174.9332291942804
 21
43.90376580554085
 31
0.0
  0
ARC
  5
1ADE
330
18
100
AcDbEntity
  8
1
  6
Continuous
100
AcDbCircle
 10
141.8755946560799
 20
42.90376580554085
 30
0.0
 40
1.5
100
AcDbArc
 50
205.5718800000009
 51
269.9999500000007
  0
LINE
  5
1ADF
330
18
100
AcDbEntity
  8
1
  6
Continuous
100
AcDbLine
 10
140.5225336560798
 20
42.25630080554085
 30
0.0
 11
139.7341912535555
 21
43.90376580554085
 31
0.0
  0
ARC
  5
1AF0
330
18
100
AcDbEntity
  8
1
  6
Continuous
100
AcDbCircle
 10
162.6755966560799
 20
42.90376580554084
 30
0.0
 40
1.5
100
AcDbArc
 50
269.9999899999998
 51
334.4280599999988
  0
LINE
  5
1AF1
330
18
100
AcDbEntity
  8
1
  6
Continuous
100
AcDbLine
 10
164.0286616560798
 20
42.25630080554085
 30
0.0
 11
164.8170040586043
 21
43.90376580554085
 31
0.0
  0
ARC
  5
1AF3
330
18
100
AcDbEntity
  8
1
  6
Continuous
100
AcDbCircle
 10
127.2755966560799
 20
54.40376580554088
 30
0.0
 40
50.0
100
AcDbArc
 50
349.3058100000002
 51
0.0
  0
ARC
  5
1AF8
330
18
100
AcDbEntity
  8
1
  6
Continuous
100
AcDbCircle
 10
174.9332294560799
 20
45.40376580554084
 30
0.0
 40
1.5
100
AcDbArc
 50
269.9999900000006
 51
349.3058100000002
  0
ARC
  5
1B0A
330
18
100
AcDbEntity
  8
1
  6
Continuous
100
AcDbCircle
 10
129.6179638560799
 20
63.40376580554089
 30
0.0
 40
1.5
100
AcDbArc
 50
89.99999999999998
 51
169.3058000000016
  0
LINE
  5
1B0C
330
18
100
AcDbEntity
  8
1
  6
Continuous
100
AcDbLine
 10
129.6179638560799
 20
64.9037658055409
 30
0.0
 11
174.9332294560799
 21
64.90376580554088
 31
0.0
  0
LINE
  5
1B11
330
18
100
AcDbEntity
  8
1
  6
Continuous
100
AcDbLine
 10
144.7755966560799
 20
66.40376580554089
 30
0.0
 11
152.2755966560799
 21
66.40376580554089
 31
0.0
  0
LINE
  5
1B25
330
18
100
AcDbEntity
  8
1
  6
Continuous
100
AcDbLine
 10
144.7755971560799
 20
66.40376980554091
 30
0.0
 11
144.5204921560799
 21
64.90376980554088
 31
0.0
  0
LINE
  5
1B27
330
18
100
AcDbEntity
  8
1
  6
Continuous
100
AcDbLine
 10
149.0255966560799
 20
66.40376580554089
 30
0.0
 11
149.0255966560799
 21
67.4037658055409
 31
0.0
  0
LINE
  5
1B44
330
18
100
AcDbEntity
  8
1
  6
Continuous
100
AcDbLine
 10
159.7755966560798
 20
66.40376580554089
 30
0.0
 11
152.2755966560799
 21
66.40376580554089
 31
0.0
  0
LINE
  5
1B45
330
18
100
AcDbEntity
  8
1
  6
Continuous
100
AcDbLine
 10
159.7755961560799
 20
66.40376980554086
 30
0.0
 11
160.0307011560799
 21
64.90376980554088
 31
0.0
  0
LINE
  5
1B46
330
18
100
AcDbEntity
  8
1
  6
Continuous
100
AcDbLine
 10
155.5255966560799
 20
66.40376580554089
 30
0.0
 11
155.5255966560799
 21
67.4037658055409
 31
0.0
  0
ARC
  5
1B6D
330
18
100
AcDbEntity
  8
1
  6
Continuous
100
AcDbCircle
 10
174.9332294560799
 20
63.40376580554089
 30
0.0
 40
1.5
100
AcDbArc
 50
10.69419999999826
 51
89.99999999999998
  0
ARC
  5
1B7B
330
18
100
AcDbEntity
  8
1
  6
Continuous
100
AcDbCircle
 10
152.2755966560799
 20
164.2031676345045
 30
0.0
 40
25.0
100
AcDbArc
 50
98.52740778918906
 51
132.542395444639
  0
ARC
  5
1B7C
330
18
100
AcDbEntity
  8
1
  6
Continuous
100
AcDbCircle
 10
152.2755966560799
 20
164.2031676345045
 30
0.0
 40
22.11714399999999
100
AcDbArc
 50
100.7137801379385
 51
130.177738118247
  0
ARC
  5
1B8F
330
18
100
AcDbEntity
  8
1
  6
Continuous
100
AcDbCircle
 10
152.2755966560799
 20
164.2031676345045
 30
0.0
 40
11.9
100
AcDbArc
 50
196.63861
 51
223.3614000000001
  0
LINE
  5
1B90
330
18
100
AcDbEntity
  8
1
  6
Continuous
100
AcDbLine
 10
141.6714484478871
 20
161.2562864609486
 30
0.0
 11
140.8738516560798
 21
160.7957936345045
 31
0.0
  0
LINE
  5
1B93
330
18
100
AcDbEntity
  8
1
  6
Continuous
100
AcDbLine
 10
145.7450564103091
 20
157.2573330066564
 30
0.0
 11
143.6238516560798
 21
156.0326544345046
 31
0.0
  0
ARC
  5
1B97
330
18
100
AcDbEntity
  8
1
  6
Continuous
100
AcDbCircle
 10
152.2755966560799
 20
164.2031676345045
 30
0.0
 40
18.010628
100
AcDbArc
 50
105.1240326179165
 51
125.3911786272041
  0
ARC
  5
1BC7
330
18
100
AcDbEntity
  8
1
  6
Continuous
100
AcDbCircle
 10
152.2755966560799
 20
164.2031676345045
 30
0.0
 40
22.11714399999999
100
AcDbArc
 50
349.8222611485397
 51
34.81528556454391
  0
ARC
  5
1BC8
330
18
100
AcDbEntity
  8
1
  6
Continuous
100
AcDbCircle
 10
152.2755966560799
 20
164.2031676345045
 30
0.0
 40
25.0
100
AcDbArc
 50
347.4576023456877
 51
36.09517738147864
  0
ARC
  5
1BDB
330
18
100
AcDbEntity
  8
1
  6
Continuous
100
AcDbCircle
 10
152.2755966560799
 20
164.2031676345045
 30
0.0
 40
18.010628
100
AcDbArc
 50
354.6088237726475
 51
31.34806481778334
  0
ARC
  5
1C0B
330
18
100
AcDbEntity
  8
1
  6
Continuous
100
AcDbCircle
 10
455.5690590428572
 20
164.2031636345046
 30
0.0
 40
18.010628
100
AcDbArc
 50
148.6519267820185
 51
74.87596553208914
  0
ARC
  5
1C0C
330
18
100
AcDbEntity
  8
1
  6
Continuous
100
AcDbCircle
 10
455.5690590428572
 20
164.2031636345046
 30
0.0
 40
22.11714399999999
100
AcDbArc
 50
145.184707240985
 51
79.28621839858617
  0
ARC
  5
1C0D
330
18
100
AcDbEntity
  8
1
  6
Continuous
100
AcDbCircle
 10
455.5690590428572
 20
164.2031636345046
 30
0.0
 40
25.0
100
AcDbArc
 50
143.904815987226
 51
81.47259093141384
  0
LINE
  5
1C14
330
18
100
AcDbEntity
  8
1
  6
Continuous
100
AcDbLine
 10
43.12886546269104
 20
141.5455308345046
 30
0.0
 11
43.12886546269104
 21
186.8607964345047
 31
0.0
  0
LINE
  5
1C15
330
18
100
AcDbEntity
  8
1
  6
Continuous
100
AcDbLine
 10
22.12886546269101
 20
141.5455308345046
 30
0.0
 11
22.12886546269101
 21
186.8607961727052
 31
0.0
  0
ARC
  5
1C16
330
18
100
AcDbEntity
  8
1
  6
Continuous
100
AcDbCircle
 10
32.62886546269104
 20
189.2031636345047
 30
0.0
 40
50.0
100
AcDbArc
 50
270.0
 51
280.6941999999981
  0
ARC
  5
1C17
330
18
100
AcDbEntity
  8
1
  6
Continuous
100
AcDbCircle
 10
32.62886546269104
 20
189.2031636345047
 30
0.0
 40
50.0
100
AcDbArc
 50
259.30581
 51
270.0
  0
ARC
  5
1C18
330
18
100
AcDbEntity
  8
1
  6
Continuous
100
AcDbCircle
 10
23.62886546269101
 20
141.5455308345046
 30
0.0
 40
1.5
100
AcDbArc
 50
179.9999900000006
 51
259.30581
  0
ARC
  5
1C19
330
18
100
AcDbEntity
  8
1
  6
Continuous
100
AcDbCircle
 10
41.62886546269104
 20
141.5455308345046
 30
0.0
 40
1.5
100
AcDbArc
 50
280.6941999999981
 51
0.0
  0
ARC
  5
1C1A
330
18
100
AcDbEntity
  8
1
  6
Continuous
100
AcDbCircle
 10
32.62886546269104
 20
139.2031636345047
 30
0.0
 40
50.0
100
AcDbArc
 50
79.30580000000174
 51
90.0
  0
LINE
  5
1C1B
330
18
100
AcDbEntity
  8
1
  6
Continuous
100
AcDbLine
 10
20.481400462691
 20
152.4501006345046
 30
0.0
 11
22.12886546269101
 21
151.6617582319803
 31
0.0
  0
ARC
  5
1C1C
330
18
100
AcDbEntity
  8
1
  6
Continuous
100
AcDbCircle
 10
21.12886546269101
 20
153.8031616345046
 30
0.0
 40
1.5
100
AcDbArc
 50
180.0000499999993
 51
244.4281199999989
  0
LINE
  5
1C1D
330
18
100
AcDbEntity
  8
1
  6
Continuous
100
AcDbLine
 10
20.481400462691
 20
175.9562286345047
 30
0.0
 11
22.12886546269101
 21
176.744571037029
 31
0.0
  0
ARC
  5
1C1E
330
18
100
AcDbEntity
  8
1
  6
Continuous
100
AcDbCircle
 10
21.12886546269101
 20
174.6031636345047
 30
0.0
 40
1.5
100
AcDbArc
 50
115.5719400000011
 51
180.0000100000002
  0
ARC
  5
1C1F
330
18
100
AcDbEntity
  8
1
  6
Continuous
100
AcDbCircle
 10
32.62886546269104
 20
139.2031636345047
 30
0.0
 40
50.0
100
AcDbArc
 50
90.0
 51
100.6941899999997
  0
ARC
  5
1C20
330
18
100
AcDbEntity
  8
1
  6
Continuous
100
AcDbCircle
 10
23.62886546269101
 20
186.8607964345047
 30
0.0
 40
1.5
100
AcDbArc
 50
100.6941899999997
 51
180.0000099999993
  0
LINE
  5
1C21
330
18
100
AcDbEntity
  8
1
  6
Continuous
100
AcDbLine
 10
44.62886546269102
 20
171.7031636345046
 30
0.0
 11
44.62886546269102
 21
164.2031636345046
 31
0.0
  0
LINE
  5
1C22
330
18
100
AcDbEntity
  8
1
  6
Continuous
100
AcDbLine
 10
44.62886546269102
 20
156.7031636345046
 30
0.0
 11
44.62886546269102
 21
164.2031636345046
 31
0.0
  0
LINE
  5
1C23
330
18
100
AcDbEntity
  8
1
  6
Continuous
100
AcDbLine
 10
44.62886946269103
 20
156.7031641345046
 30
0.0
 11
43.12886946269101
 21
156.4480591345047
 31
0.0
  0
LINE
  5
1C24
330
18
100
AcDbEntity
  8
1
  6
Continuous
100
AcDbLine
 10
44.62886546269102
 20
167.4531636345046
 30
0.0
 11
45.62886546269104
 21
167.4531636345046
 31
0.0
  0
LINE
  5
1C25
330
18
100
AcDbEntity
  8
1
  6
Continuous
100
AcDbLine
 10
44.62886546269102
 20
160.9531636345046
 30
0.0
 11
45.62886546269104
 21
160.9531636345046
 31
0.0
  0
LINE
  5
1C26
330
18
100
AcDbEntity
  8
1
  6
Continuous
100
AcDbLine
 10
44.62886946269103
 20
171.7031631345046
 30
0.0
 11
43.12886946269101
 21
171.9582681345046
 31
0.0
  0
ARC
  5
1C27
330
18
100
AcDbEntity
  8
1
  6
Continuous
100
AcDbCircle
 10
41.62886546269104
 20
186.8607964345047
 30
0.0
 40
1.5
100
AcDbArc
 50
0.0
 51
79.30580000000174
  0
LINE
  5
1C28
330
18
100
AcDbEntity
  8
1
  6
Continuous
100
AcDbLine
 10
314.4223278494686
 20
141.5455308345046
 30
0.0
 11
314.4223278494686
 21
186.8607961727052
 31
0.0
  0
LINE
  5
1C29
330
18
100
AcDbEntity
  8
1
  6
Continuous
100
AcDbLine
 10
293.4223278494686
 20
141.5455308345046
 30
0.0
 11
293.4223278494686
 21
186.8607964345047
 31
0.0
  0
ARC
  5
1C2A
330
18
100
AcDbEntity
  8
1
  6
Continuous
100
AcDbCircle
 10
303.9223278494686
 20
189.2031636345047
 30
0.0
 40
50.0
100
AcDbArc
 50
270.0
 51
280.6941899999998
  0
ARC
  5
1C2B
330
18
100
AcDbEntity
  8
1
  6
Continuous
100
AcDbCircle
 10
303.9223278494686
 20
189.2031636345047
 30
0.0
 40
50.0
100
AcDbArc
 50
259.3058000000016
 51
270.0
  0
ARC
  5
1C2C
330
18
100
AcDbEntity
  8
1
  6
Continuous
100
AcDbCircle
 10
294.9223278494686
 20
141.5455308345046
 30
0.0
 40
1.5
100
AcDbArc
 50
180.0
 51
259.3058000000016
  0
ARC
  5
1C2D
330
18
100
AcDbEntity
  8
1
  6
Continuous
100
AcDbCircle
 10
312.9223278494686
 20
141.5455308345046
 30
0.0
 40
1.5
100
AcDbArc
 50
280.6941899999998
 51
0.000009999999385
  0
ARC
  5
1C2E
330
18
100
AcDbEntity
  8
1
  6
Continuous
100
AcDbCircle
 10
303.9223278494686
 20
139.2031636345047
 30
0.0
 40
50.0
100
AcDbArc
 50
79.30581000000015
 51
90.0
  0
LINE
  5
1C2F
330
18
100
AcDbEntity
  8
1
  6
Continuous
100
AcDbLine
 10
291.9223278494687
 20
171.7031636345046
 30
0.0
 11
291.9223278494687
 21
164.2031636345046
 31
0.0
  0
LINE
  5
1C30
330
18
100
AcDbEntity
  8
1
  6
Continuous
100
AcDbLine
 10
291.9223278494687
 20
156.7031636345046
 30
0.0
 11
291.9223278494687
 21
164.2031636345046
 31
0.0
  0
LINE
  5
1C31
330
18
100
AcDbEntity
  8
1
  6
Continuous
100
AcDbLine
 10
291.9223238494686
 20
156.7031641345046
 30
0.0
 11
293.4223238494686
 21
156.4480591345047
 31
0.0
  0
LINE
  5
1C32
330
18
100
AcDbEntity
  8
1
  6
Continuous
100
AcDbLine
 10
291.9223278494687
 20
160.9531636345046
 30
0.0
 11
290.9223278494686
 21
160.9531636345046
 31
0.0
  0
LINE
  5
1C33
330
18
100
AcDbEntity
  8
1
  6
Continuous
100
AcDbLine
 10
291.9223278494687
 20
167.4531636345046
 30
0.0
 11
290.9223278494686
 21
167.4531636345046
 31
0.0
  0
ARC
  5
1C34
330
18
100
AcDbEntity
  8
1
  6
Continuous
100
AcDbCircle
 10
303.9223278494686
 20
139.2031636345047
 30
0.0
 40
50.0
100
AcDbArc
 50
90.0
 51
100.6941999999982
  0
LINE
  5
1C35
330
18
100
AcDbEntity
  8
1
  6
Continuous
100
AcDbLine
 10
291.9223238494686
 20
171.7031631345046
 30
0.0
 11
293.4223238494686
 21
171.9582681345046
 31
0.0
  0
ARC
  5
1C36
330
18
100
AcDbEntity
  8
1
  6
Continuous
100
AcDbCircle
 10
294.9223278494686
 20
186.8607964345047
 30
0.0
 40
1.5
100
AcDbArc
 50
100.6941999999982
 51
180.0
  0
ARC
  5
1C37
330
18
100
AcDbEntity
  8
1
  6
Continuous
100
AcDbCircle
 10
315.4223278494686
 20
153.8031616345046
 30
0.0
 40
1.5
100
AcDbArc
 50
295.5718800000009
 51
359.9999500000006
  0
LINE
  5
1C38
330
18
100
AcDbEntity
  8
1
  6
Continuous
100
AcDbLine
 10
316.0697928494686
 20
152.4501006345046
 30
0.0
 11
314.4223278494686
 21
151.6617582319803
 31
0.0
  0
ARC
  5
1C39
330
18
100
AcDbEntity
  8
1
  6
Continuous
100
AcDbCircle
 10
315.4223278494686
 20
174.6031636345047
 30
0.0
 40
1.5
100
AcDbArc
 50
359.9999899999998
 51
64.42805999999889
  0
LINE
  5
1C3A
330
18
100
AcDbEntity
  8
1
  6
Continuous
100
AcDbLine
 10
316.0697928494686
 20
175.9562286345047
 30
0.0
 11
314.4223278494686
 21
176.744571037029
 31
0.0
  0
ARC
  5
1C3B
330
18
100
AcDbEntity
  8
1
  6
Continuous
100
AcDbCircle
 10
312.9223278494686
 20
186.8607964345047
 30
0.0
 40
1.5
100
AcDbArc
 50
359.9999900000006
 51
79.30581000000015
  0
ARC
  5
1C62
330
18
100
AcDbEntity
  8
1
  6
Continuous
100
AcDbCircle
 10
177.2755966560799
 20
288.9775618634685
 30
0.0
 40
50.0
100
AcDbArc
 50
169.3058000000016
 51
180.0
  0
ARC
  5
1C63
330
18
100
AcDbEntity
  8
1
  6
Continuous
100
AcDbCircle
 10
177.2755966560799
 20
288.9775618634685
 30
0.0
 40
50.0
100
AcDbArc
 50
180.0
 51
190.6941899999997
  0
ARC
  5
1C64
330
18
100
AcDbEntity
  8
1
  6
Continuous
100
AcDbCircle
 10
129.6179638560799
 20
279.9775618634685
 30
0.0
 40
1.5
100
AcDbArc
 50
190.6941899999997
 51
270.0000099999992
  0
ARC
  5
1C65
330
18
100
AcDbEntity
  8
1
  6
Continuous
100
AcDbCircle
 10
129.6179638560799
 20
297.9775618634685
 30
0.0
 40
1.5
100
AcDbArc
 50
89.99999999999998
 51
169.3058000000016
  0
LINE
  5
1C67
330
18
100
AcDbEntity
  8
1
  6
Continuous
100
AcDbLine
 10
129.6179638560799
 20
278.4775618634685
 30
0.0
 11
139.0593308613788
 21
278.4775618634685
 31
0.0
  0
LINE
  5
1C68
330
18
100
AcDbEntity
  8
1
  6
Continuous
100
AcDbLine
 10
129.6179638560799
 20
299.4775618634685
 30
0.0
 11
139.0593259073284
 21
299.4775618634685
 31
0.0
  0
ARC
  5
1CAF
330
18
100
AcDbEntity
  8
1
  6
Continuous
100
AcDbCircle
 10
455.5690590428572
 20
164.2031636345046
 30
0.0
 40
12.54140540252441
100
AcDbArc
 50
159.5893051403824
 51
63.84654847780886
  0
ENDSEC
  0
SECTION
  2
OBJECTS
  0
DICTIONARY
  5
C
330
0
100
AcDbDictionary
281
     1
  3
ACAD_CIP_PREVIOUS_PRODUCT_INFO
350
1D69
  3
ACAD_COLOR
350
1D4C
  3
ACAD_DETAILVIEWSTYLE
350
1D65
  3
ACAD_GROUP
350
D
  3
ACAD_LAYOUT
350
5D
  3
ACAD_MATERIAL
350
1D1A
  3
ACAD_MLEADERSTYLE
350
1D61
  3
ACAD_MLINESTYLE
350
1B
  3
ACAD_PLOTSETTINGS
350
5E
  3
ACAD_PLOTSTYLENAME
350
1D18
  3
ACAD_SCALELIST
350
1D4F
  3
ACAD_SECTIONVIEWSTYLE
350
1D63
  3
ACAD_TABLESTYLE
350
1D4D
  3
ACAD_VISUALSTYLE
350
1D33
  3
ACDB_RECOMPOSE_DATA
350
1D87
  3
AcDbVariableDictionary
350
1D7A
  3
CONTENTDICTIONARY
350
3D
  3
DWGPROPS
350
1D88
  0
DICTIONARY
  5
1D6A
330
E
100
AcDbDictionary
280
     1
281
     1
  3
ADSK_XREC_LAYER_RECONCILED
360
1D6B
  0
DICTIONARY
  5
1D6C
330
65
100
AcDbDictionary
280
     1
281
     1
  3
ADSK_XREC_LAYER_RECONCILED
360
1D6D
  0
DICTIONARY
  5
1D6E
330
66
100
AcDbDictionary
280
     1
281
     1
  3
ADSK_XREC_LAYER_RECONCILED
360
1D6F
  0
DICTIONARY
  5
1D70
330
67
100
AcDbDictionary
280
     1
281
     1
  3
ADSK_XREC_LAYER_RECONCILED
360
1D71
  0
DICTIONARY
  5
1D72
330
68
100
AcDbDictionary
280
     1
281
     1
  3
ADSK_XREC_LAYER_RECONCILED
360
1D73
  0
DICTIONARY
  5
1D74
330
69
100
AcDbDictionary
280
     1
281
     1
  3
ADSK_XREC_LAYER_RECONCILED
360
1D75
  0
DICTIONARY
  5
1D76
330
6A
100
AcDbDictionary
280
     1
281
     1
  3
ADSK_XREC_LAYER_RECONCILED
360
1D77
  0
DICTIONARY
  5
1D78
330
6B
100
AcDbDictionary
280
     1
281
     1
  3
ADSK_XREC_LAYER_RECONCILED
360
1D79
  0
DICTIONARY
  5
1CFB
330
18
100
AcDbDictionary
281
     1
  3
ACAD_LAYOUTSELFREF
350
1D14
  0
DICTIONARY
  5
1CF9
330
15
100
AcDbDictionary
281
     1
  3
ACAD_LAYOUTSELFREF
350
1D13
  0
XRECORD
  5
1D69
102
{ACAD_REACTORS
330
C
102
}
330
C
100
AcDbXrecord
280
     1
300
ACDLT
300
2014
300
ACDLT_F_S
  0
DICTIONARY
  5
1D4C
102
{ACAD_REACTORS
330
C
102
}
330
C
100
AcDbDictionary
281
     1
  0
DICTIONARY
  5
1D65
102
{ACAD_REACTORS
330
C
102
}
330
C
100
AcDbDictionary
281
     1
  3
Imperial24
350
1D66
  0
DICTIONARY
  5
D
102
{ACAD_REACTORS
330
C
102
}
330
C
100
AcDbDictionary
281
     1
  0
DICTIONARY
  5
5D
102
{ACAD_REACTORS
330
C
102
}
330
C
100
AcDbDictionary
281
     1
  3
Model
350
1D67
  3
レイアウト1
350
1D68
  0
DICTIONARY
  5
1D1A
102
{ACAD_REACTORS
330
C
102
}
330
C
100
AcDbDictionary
281
     1
  3
ByBlock
350
1D23
  3
ByLayer
350
1D1B
  3
Global
350
1D2B
  0
DICTIONARY
  5
1D61
102
{ACAD_REACTORS
330
C
102
}
330
C
100
AcDbDictionary
281
     1
  3
Standard
350
1D62
  0
DICTIONARY
  5
1B
102
{ACAD_REACTORS
330
C
102
}
330
C
100
AcDbDictionary
281
     1
  3
STANDARD
350
1C
  0
DICTIONARY
  5
5E
102
{ACAD_REACTORS
330
C
102
}
330
C
100
AcDbDictionary
281
     1
  0
ACDBDICTIONARYWDFLT
  5
1D18
102
{ACAD_REACTORS
330
C
102
}
330
C
100
AcDbDictionary
281
     1
  3
Normal
350
1D19
100
AcDbDictionaryWithDefault
340
1D19
  0
DICTIONARY
  5
1D4F
102
{ACAD_REACTORS
330
C
102
}
330
C
100
AcDbDictionary
281
     1
  3
A0
350
1D50
  3
A1
350
1D51
  3
A2
350
1D52
  3
A3
350
1D53
  3
A4
350
1D54
  3
A5
350
1D55
  3
A6
350
1D56
  3
A7
350
1D57
  3
A8
350
1D58
  3
A9
350
1D59
  3
B0
350
1D5A
  3
B1
350
1D5B
  3
B2
350
1D5C
  3
B3
350
1D5D
  3
B4
350
1D5E
  3
B5
350
1D5F
  3
B6
350
1D60
  0
DICTIONARY
  5
1D63
102
{ACAD_REACTORS
330
C
102
}
330
C
100
AcDbDictionary
281
     1
  3
Imperial24
350
1D64
  0
DICTIONARY
  5
1D4D
102
{ACAD_REACTORS
330
C
102
}
330
C
100
AcDbDictionary
281
     1
  3
Standard
350
1D4E
  0
DICTIONARY
  5
1D33
102
{ACAD_REACTORS
330
C
102
}
330
C
100
AcDbDictionary
281
     1
  3
2dWireframe
350
1D39
  3
Basic
350
1D38
  3
Brighten
350
1D3F
  3
ColorChange
350
1D43
  3
Conceptual
350
1D3C
  3
Dim
350
1D3E
  3
EdgeColorOff
350
1D4B
  3
Facepattern
350
1D42
  3
Flat
350
1D34
  3
FlatWithEdges
350
1D35
  3
Gouraud
350
1D36
  3
GouraudWithEdges
350
1D37
  3
Hidden
350
1D3B
  3
JitterOff
350
1D49
  3
Linepattern
350
1D41
  3
OverhangOff
350
1D4A
  3
Realistic
350
1D3D
  3
Shaded
350
1D48
  3
Shaded with edges
350
1D47
  3
Shades of Gray
350
1D44
  3
Sketchy
350
1D45
  3
Thicken
350
1D40
  3
Wireframe
350
1D3A
  3
X-Ray
350
1D46
  0
XRECORD
  5
1D87
102
{ACAD_REACTORS
330
C
102
}
330
C
100
AcDbXrecord
280
     1
 90
        1
330
1D4E
  0
DICTIONARY
  5
1D7A
102
{ACAD_REACTORS
330
C
102
}
330
C
100
AcDbDictionary
281
     1
  3
CANNOSCALE
350
1D7F
  3
CMLEADERSTYLE
350
1D7C
  3
CTABLESTYLE
350
1D7B
  3
CVIEWDETAILSTYLE
350
1D7D
  3
CVIEWSECTIONSTYLE
350
1D7E
  3
DIMASSOC
350
1D82
  3
INDEXCTL
350
1D81
  3
SORTENTS
350
1D80
  3
XCLIPFRAME
350
1D83
  0
DICTIONARY
  5
3D
102
{ACAD_REACTORS
330
C
102
}
330
C
100
AcDbDictionary
281
     1
  0
XRECORD
  5
1D88
102
{ACAD_REACTORS
330
C
102
}
330
C
100
AcDbXrecord
280
     1
  1
DWGPROPS COOKIE
  2

  3

  4

  6

  7

  8
Yoshitsune
  9

300
=
301
=
302
=
303
=
304
=
305
=
306
=
307
=
308
=
309
=
 40
0.2081911921296296
 41
2453265.604084919
 42
2457192.688938658
  1

 90
        0
  0
XRECORD
  5
1D6B
102
{ACAD_REACTORS
330
1D6A
102
}
330
1D6A
100
AcDbXrecord
280
     1
290
     1
  0
XRECORD
  5
1D6D
102
{ACAD_REACTORS
330
1D6C
102
}
330
1D6C
100
AcDbXrecord
280
     1
290
     1
  0
XRECORD
  5
1D6F
102
{ACAD_REACTORS
330
1D6E
102
}
330
1D6E
100
AcDbXrecord
280
     1
290
     1
  0
XRECORD
  5
1D71
102
{ACAD_REACTORS
330
1D70
102
}
330
1D70
100
AcDbXrecord
280
     1
290
     1
  0
XRECORD
  5
1D73
102
{ACAD_REACTORS
330
1D72
102
}
330
1D72
100
AcDbXrecord
280
     1
290
     1
  0
XRECORD
  5
1D75
102
{ACAD_REACTORS
330
1D74
102
}
330
1D74
100
AcDbXrecord
280
     1
290
     1
  0
XRECORD
  5
1D77
102
{ACAD_REACTORS
330
1D76
102
}
330
1D76
100
AcDbXrecord
280
     1
290
     1
  0
XRECORD
  5
1D79
102
{ACAD_REACTORS
330
1D78
102
}
330
1D78
100
AcDbXrecord
280
     1
290
     1
  0
XRECORD
  5
1D14
102
{ACAD_REACTORS
330
1CFB
102
}
330
1CFB
100
AcDbXrecord
280
     1
340
18
  0
XRECORD
  5
1D13
102
{ACAD_REACTORS
330
1CF9
102
}
330
1CF9
100
AcDbXrecord
280
     1
340
15
  0
ACDBDETAILVIEWSTYLE
  5
1D66
102
{ACAD_XDICTIONARY
360
1DC0
102
}
102
{ACAD_REACTORS
330
1D65
102
}
330
1D65
100
AcDbModelDocViewStyle
 70
     0
  3
Imperial24
290
     0
100
AcDbDetailViewStyle
 70
     0
 71
     0
 90
        3
 71
     1
340
F
 40
0.24
340
0
 40
0.24
300

 40
0.36
280
     3
 71
     2
340
14
 90
       25
 71
     3
340
F
 40
0.24
 90
        1
 40
0.75
 90
        1
300
%<\AcVar ViewType \f "%tc1">% %<\AcVar ViewDetailId>%\PSCALE %<\AcVar ViewScale \f "%sn">%
 71
     4
340
14
 90
       25
340
14
 90
       25
280
     0
  0
LAYOUT
  5
1D67
102
{ACAD_XDICTIONARY
360
1DC2
102
}
102
{ACAD_REACTORS
330
5D
102
}
330
5D
100
AcDbPlotSettings
  1

  2
Canon LBP9100C
  4

  6

 40
0.0
 41
0.0
 42
0.0
 43
0.0
 44
0.0
 45
0.0
 46
0.0
 47
0.0
 48
0.0
 49
0.0
140
0.0
141
0.0
142
1.0
143
1.0
 70
  1712
 72
     0
 73
     0
 74
     0
  7

 75
     0
147
1.0
148
0.0
149
0.0
100
AcDbLayout
  1
Model
 70
     1
 71
     0
 10
0.0
 20
0.0
 11
12.0
 21
9.0
 12
0.0
 22
0.0
 32
0.0
 14
0.0
 24
0.0
 34
0.0
 15
0.0
 25
0.0
 35
0.0
146
0.0
 13
0.0
 23
0.0
 33
0.0
 16
1.0
 26
0.0
 36
0.0
 17
0.0
 27
1.0
 37
0.0
 76
     0
330
18
331
1D12
  0
LAYOUT
  5
1D68
102
{ACAD_XDICTIONARY
360
1DC4
102
}
102
{ACAD_REACTORS
330
5D
102
}
330
5D
100
AcDbPlotSettings
  1

  2
Canon LBP9100C
  4

  6

 40
0.0
 41
0.0
 42
0.0
 43
0.0
 44
0.0
 45
0.0
 46
0.0
 47
0.0
 48
0.0
 49
0.0
140
0.0
141
0.0
142
1.0
143
1.0
 70
   688
 72
     0
 73
     0
 74
     5
  7

 75
    16
147
1.0
148
0.0
149
0.0
100
AcDbLayout
  1
レイアウト1
 70
     1
 71
     1
 10
0.0
 20
0.0
 11
420.0
 21
297.0
 12
0.0
 22
0.0
 32
0.0
 14
1.000000000000000E+20
 24
1.000000000000000E+20
 34
1.000000000000000E+20
 15
-1.000000000000000E+20
 25
-1.000000000000000E+20
 35
-1.000000000000000E+20
146
0.0
 13
0.0
 23
0.0
 33
0.0
 16
1.0
 26
0.0
 36
0.0
 17
0.0
 27
1.0
 37
0.0
 76
     0
330
15
  0
MATERIAL
  5
1D23
102
{ACAD_XDICTIONARY
360
1D24
102
}
102
{ACAD_REACTORS
330
1D1A
102
}
330
1D1A
100
AcDbMaterial
  1
ByBlock
 72
     0
 43
0.0208333333333333
 43
0.0
 43
0.0
 43
0.0
 43
0.0
 43
0.0208333333333333
 43
0.0
 43
0.0
 43
0.0
 43
0.0
 43
1.0
 43
0.0
 43
0.0
 43
0.0
 43
0.0
 43
1.0
 77
     0
 47
0.0208333333333333
 47
0.0
 47
0.0
 47
0.0
 47
0.0
 47
0.0208333333333333
 47
0.0
 47
0.0
 47
0.0
 47
0.0
 47
1.0
 47
0.0
 47
0.0
 47
0.0
 47
0.0
 47
1.0
171
     0
 49
0.0208333333333333
 49
0.0
 49
0.0
 49
0.0
 49
0.0
 49
0.0208333333333333
 49
0.0
 49
0.0
 49
0.0
 49
0.0
 49
1.0
 49
0.0
 49
0.0
 49
0.0
 49
0.0
 49
1.0
175
     0
142
0.0208333333333333
142
0.0
142
0.0
142
0.0
142
0.0
142
0.0208333333333333
142
0.0
142
0.0
142
0.0
142
0.0
142
1.0
142
0.0
142
0.0
142
0.0
142
0.0
142
1.0
179
     0
144
0.0208333333333333
144
0.0
144
0.0
144
0.0
144
0.0
144
0.0208333333333333
144
0.0
144
0.0
144
0.0
144
0.0
144
1.0
144
0.0
144
0.0
144
0.0
144
0.0
144
1.0
147
0.0208333333333333
147
0.0
147
0.0
147
0.0
147
0.0
147
0.0208333333333333
147
0.0
147
0.0
147
0.0
147
0.0
147
1.0
147
0.0
147
0.0
147
0.0
147
0.0
147
1.0
  0
MATERIAL
  5
1D1B
102
{ACAD_XDICTIONARY
360
1D1C
102
}
102
{ACAD_REACTORS
330
1D1A
102
}
330
1D1A
100
AcDbMaterial
  1
ByLayer
 72
     0
 43
0.0208333333333333
 43
0.0
 43
0.0
 43
0.0
 43
0.0
 43
0.0208333333333333
 43
0.0
 43
0.0
 43
0.0
 43
0.0
 43
1.0
 43
0.0
 43
0.0
 43
0.0
 43
0.0
 43
1.0
 77
     0
 47
0.0208333333333333
 47
0.0
 47
0.0
 47
0.0
 47
0.0
 47
0.0208333333333333
 47
0.0
 47
0.0
 47
0.0
 47
0.0
 47
1.0
 47
0.0
 47
0.0
 47
0.0
 47
0.0
 47
1.0
171
     0
 49
0.0208333333333333
 49
0.0
 49
0.0
 49
0.0
 49
0.0
 49
0.0208333333333333
 49
0.0
 49
0.0
 49
0.0
 49
0.0
 49
1.0
 49
0.0
 49
0.0
 49
0.0
 49
0.0
 49
1.0
175
     0
142
0.0208333333333333
142
0.0
142
0.0
142
0.0
142
0.0
142
0.0208333333333333
142
0.0
142
0.0
142
0.0
142
0.0
142
1.0
142
0.0
142
0.0
142
0.0
142
0.0
142
1.0
179
     0
144
0.0208333333333333
144
0.0
144
0.0
144
0.0
144
0.0
144
0.0208333333333333
144
0.0
144
0.0
144
0.0
144
0.0
144
1.0
144
0.0
144
0.0
144
0.0
144
0.0
144
1.0
147
0.0208333333333333
147
0.0
147
0.0
147
0.0
147
0.0
147
0.0208333333333333
147
0.0
147
0.0
147
0.0
147
0.0
147
1.0
147
0.0
147
0.0
147
0.0
147
0.0
147
1.0
  0
MATERIAL
  5
1D2B
102
{ACAD_XDICTIONARY
360
1D2C
102
}
102
{ACAD_REACTORS
330
1D1A
102
}
330
1D1A
100
AcDbMaterial
  1
Global
 72
     0
 43
0.0208333333333333
 43
0.0
 43
0.0
 43
0.0
 43
0.0
 43
0.0208333333333333
 43
0.0
 43
0.0
 43
0.0
 43
0.0
 43
1.0
 43
0.0
 43
0.0
 43
0.0
 43
0.0
 43
1.0
 77
     0
 47
0.0208333333333333
 47
0.0
 47
0.0
 47
0.0
 47
0.0
 47
0.0208333333333333
 47
0.0
 47
0.0
 47
0.0
 47
0.0
 47
1.0
 47
0.0
 47
0.0
 47
0.0
 47
0.0
 47
1.0
171
     0
 49
0.0208333333333333
 49
0.0
 49
0.0
 49
0.0
 49
0.0
 49
0.0208333333333333
 49
0.0
 49
0.0
 49
0.0
 49
0.0
 49
1.0
 49
0.0
 49
0.0
 49
0.0
 49
0.0
 49
1.0
175
     0
142
0.0208333333333333
142
0.0
142
0.0
142
0.0
142
0.0
142
0.0208333333333333
142
0.0
142
0.0
142
0.0
142
0.0
142
1.0
142
0.0
142
0.0
142
0.0
142
0.0
142
1.0
179
     0
144
0.0208333333333333
144
0.0
144
0.0
144
0.0
144
0.0
144
0.0208333333333333
144
0.0
144
0.0
144
0.0
144
0.0
144
1.0
144
0.0
144
0.0
144
0.0
144
0.0
144
1.0
147
0.0208333333333333
147
0.0
147
0.0
147
0.0
147
0.0
147
0.0208333333333333
147
0.0
147
0.0
147
0.0
147
0.0
147
1.0
147
0.0
147
0.0
147
0.0
147
0.0
147
1.0
  0
MLEADERSTYLE
  5
1D62
102
{ACAD_REACTORS
330
1D61
102
}
330
1D61
100
AcDbMLeaderStyle
170
     2
171
     1
172
     0
 90
        2
 40
0.0
 41
0.0
173
     1
 91
-1056964608
340
12
 92
       -2
290
     1
 42
0.09
291
     1
 43
0.36
  3
Standard
 44
0.18
300

342
F
174
     1
178
     6
175
     1
176
     0
 93
-1056964608
 45
0.18
292
     0
297
     0
 46
0.18
 94
-1056964608
 47
1.0
 49
1.0
140
1.0
293
     1
141
0.0
294
     1
177
     0
142
1.0
295
     0
296
     0
143
0.125
1001
ACAD_MLEADERVER
1070
     2
  0
MLINESTYLE
  5
1C
102
{ACAD_REACTORS
330
1B
102
}
330
1B
100
AcDbMlineStyle
  2
STANDARD
 70
     0
  3

 62
   256
 51
90.0
 52
90.0
 71
     2
 49
0.5
 62
   256
  6
BYLAYER
 49
-0.5
 62
   256
  6
BYLAYER
  0
ACDBPLACEHOLDER
  5
1D19
102
{ACAD_REACTORS
330
1D18
102
}
330
1D18
  0
SCALE
  5
1D50
102
{ACAD_REACTORS
330
1D4F
102
}
330
1D4F
100
AcDbScale
 70
     0
300
1:1
140
1.0
141
1.0
290
     1
  0
SCALE
  5
1D51
102
{ACAD_REACTORS
330
1D4F
102
}
330
1D4F
100
AcDbScale
 70
     0
300
1/128" = 1'-0"
140
0.0078125
141
12.0
290
     0
  0
SCALE
  5
1D52
102
{ACAD_REACTORS
330
1D4F
102
}
330
1D4F
100
AcDbScale
 70
     0
300
1/64" = 1'-0"
140
0.015625
141
12.0
290
     0
  0
SCALE
  5
1D53
102
{ACAD_REACTORS
330
1D4F
102
}
330
1D4F
100
AcDbScale
 70
     0
300
1/32" = 1'-0"
140
0.03125
141
12.0
290
     0
  0
SCALE
  5
1D54
102
{ACAD_REACTORS
330
1D4F
102
}
330
1D4F
100
AcDbScale
 70
     0
300
1/16" = 1'-0"
140
0.0625
141
12.0
290
     0
  0
SCALE
  5
1D55
102
{ACAD_REACTORS
330
1D4F
102
}
330
1D4F
100
AcDbScale
 70
     0
300
3/32" = 1'-0"
140
0.09375
141
12.0
290
     0
  0
SCALE
  5
1D56
102
{ACAD_REACTORS
330
1D4F
102
}
330
1D4F
100
AcDbScale
 70
     0
300
1/8" = 1'-0"
140
0.125
141
12.0
290
     0
  0
SCALE
  5
1D57
102
{ACAD_REACTORS
330
1D4F
102
}
330
1D4F
100
AcDbScale
 70
     0
300
3/16" = 1'-0"
140
0.1875
141
12.0
290
     0
  0
SCALE
  5
1D58
102
{ACAD_REACTORS
330
1D4F
102
}
330
1D4F
100
AcDbScale
 70
     0
300
1/4" = 1'-0"
140
0.25
141
12.0
290
     0
  0
SCALE
  5
1D59
102
{ACAD_REACTORS
330
1D4F
102
}
330
1D4F
100
AcDbScale
 70
     0
300
3/8" = 1'-0"
140
0.375
141
12.0
290
     0
  0
SCALE
  5
1D5A
102
{ACAD_REACTORS
330
1D4F
102
}
330
1D4F
100
AcDbScale
 70
     0
300
1/2" = 1'-0"
140
0.5
141
12.0
290
     0
  0
SCALE
  5
1D5B
102
{ACAD_REACTORS
330
1D4F
102
}
330
1D4F
100
AcDbScale
 70
     0
300
3/4" = 1'-0"
140
0.75
141
12.0
290
     0
  0
SCALE
  5
1D5C
102
{ACAD_REACTORS
330
1D4F
102
}
330
1D4F
100
AcDbScale
 70
     0
300
1" = 1'-0"
140
1.0
141
12.0
290
     0
  0
SCALE
  5
1D5D
102
{ACAD_REACTORS
330
1D4F
102
}
330
1D4F
100
AcDbScale
 70
     0
300
1-1/2" = 1'-0"
140
1.5
141
12.0
290
     0
  0
SCALE
  5
1D5E
102
{ACAD_REACTORS
330
1D4F
102
}
330
1D4F
100
AcDbScale
 70
     0
300
3" = 1'-0"
140
3.0
141
12.0
290
     0
  0
SCALE
  5
1D5F
102
{ACAD_REACTORS
330
1D4F
102
}
330
1D4F
100
AcDbScale
 70
     0
300
6" = 1'-0"
140
6.0
141
12.0
290
     0
  0
SCALE
  5
1D60
102
{ACAD_REACTORS
330
1D4F
102
}
330
1D4F
100
AcDbScale
 70
     0
300
1'-0" = 1'-0"
140
12.0
141
12.0
290
     0
  0
ACDBSECTIONVIEWSTYLE
  5
1D64
102
{ACAD_XDICTIONARY
360
1DBE
102
}
102
{ACAD_REACTORS
330
1D63
102
}
330
1D63
100
AcDbModelDocViewStyle
 70
     0
  3
Imperial24
290
     0
100
AcDbSectionViewStyle
 70
     0
 71
     0
 90
       78
 71
     1
340
F
 40
0.24
340
0
340
0
 40
0.24
300
I, O, Q, S, X, Z
 40
0.48
 90
        3
 40
0.18
 90
        1
 71
     2
340
14
 90
       25
340
14
 90
       50
 40
0.24
 40
0.0
 40
0.24
 71
     3
340
F
 40
0.24
 90
        1
 40
0.75
 90
        1
300
%<\AcVar ViewType \f "%tc1">% %<\AcVar ViewSectionStartId>%-%<\AcVar ViewSectionEndId>%\PSCALE %<\AcVar ViewScale \f "%sn">%
 71
     4
300
ANSI31
 40
1.0
 90
        0
290
     0
290
     0
 90
        6
 40
0.0
 40
1.570796326794896
 40
0.2617993877991494
 40
1.308996938995747
 40
-0.2617993877991494
 40
1.832595714594046
  0
TABLESTYLE
  5
1D4E
102
{ACAD_XDICTIONARY
360
1D85
102
}
102
{ACAD_REACTORS
330
1D4D
102
}
330
1D4D
100
AcDbTableStyle
  3
Standard
 70
     0
 71
     0
 40
0.06
 41
0.06
280
     0
281
     0
  7
STANDARD
140
0.18
170
     2
 62
     0
 63
     7
283
     0
274
    -2
284
     1
 64
     0
275
    -2
285
     1
 65
     0
276
    -2
286
     1
 66
     0
277
    -2
287
     1
 67
     0
278
    -2
288
     1
 68
     0
279
    -2
289
     1
 69
     0
  7
STANDARD
140
0.25
170
     5
 62
     0
 63
     7
283
     0
274
    -2
284
     1
 64
     0
275
    -2
285
     1
 65
     0
276
    -2
286
     1
 66
     0
277
    -2
287
     1
 67
     0
278
    -2
288
     1
 68
     0
279
    -2
289
     1
 69
     0
  7
STANDARD
140
0.18
170
     5
 62
     0
 63
     7
283
     0
274
    -2
284
     1
 64
     0
275
    -2
285
     1
 65
     0
276
    -2
286
     1
 66
     0
277
    -2
287
     1
 67
     0
278
    -2
288
     1
 68
     0
279
    -2
289
     1
 69
     0
  0
VISUALSTYLE
  5
1D39
102
{ACAD_XDICTIONARY
360
1D96
102
}
102
{ACAD_REACTORS
330
1D33
102
}
330
1D33
100
AcDbVisualStyle
  2
2dWireframe
 70
     4
 71
     0
 72
     2
 73
     0
 90
        0
 40
-0.6
 41
-30.0
 62
     5
 63
     7
 74
     1
 91
        4
 64
     7
 65
   257
 75
     1
175
     1
 42
1.0
 92
        0
 66
   257
 43
1.0
 76
     1
 77
     6
 78
     2
 67
     7
 79
     5
170
     0
171
     0
290
     0
174
     0
 93
        1
 44
0.0
173
     0
291
     0
 45
0.0
1001
ACAD
1000
AcDbSavedByObjectVersion
1070
     0
  0
VISUALSTYLE
  5
1D38
102
{ACAD_XDICTIONARY
360
1D94
102
}
102
{ACAD_REACTORS
330
1D33
102
}
330
1D33
100
AcDbVisualStyle
  2
Basic
 70
     7
 71
     1
 72
     0
 73
     1
 90
        0
 40
-0.6
 41
-30.0
 62
     5
 63
     7
 74
     0
 91
        4
 64
     7
 65
   257
 75
     1
175
     1
 42
1.0
 92
        8
 66
     7
 43
1.0
 76
     1
 77
     6
 78
     2
 67
     7
 79
     5
170
     0
171
     0
290
     0
174
     0
 93
        1
 44
0.0
173
     0
291
     1
 45
0.0
1001
ACAD
1000
AcDbSavedByObjectVersion
1070
     0
  0
VISUALSTYLE
  5
1D3F
102
{ACAD_XDICTIONARY
360
1DA2
102
}
102
{ACAD_REACTORS
330
1D33
102
}
330
1D33
100
AcDbVisualStyle
  2
Brighten
 70
    12
 71
     2
 72
     2
 73
     0
 90
        0
 40
-0.6
 41
-30.0
 62
     5
 63
     7
 74
     1
 91
        4
 64
     7
 65
   257
 75
     1
175
     1
 42
1.0
 92
        8
 66
     7
 43
1.0
 76
     1
 77
     6
 78
     2
 67
     7
 79
     5
170
     0
171
     0
290
     0
174
     0
 93
        1
 44
50.0
173
     0
291
     1
 45
0.0
1001
ACAD
1000
AcDbSavedByObjectVersion
1070
     0
  0
VISUALSTYLE
  5
1D43
102
{ACAD_XDICTIONARY
360
1DAA
102
}
102
{ACAD_REACTORS
330
1D33
102
}
330
1D33
100
AcDbVisualStyle
  2
ColorChange
 70
    16
 71
     2
 72
     2
 73
     3
 90
        0
 40
-0.6
 41
-30.0
 62
     5
 63
     8
 74
     1
 91
        4
 64
     7
 65
   257
 75
     1
175
     1
 42
1.0
 92
        8
 66
     8
 43
1.0
 76
     1
 77
     6
 78
     2
 67
     7
 79
     5
170
     0
171
     0
290
     0
174
     0
 93
        1
 44
0.0
173
     0
291
     1
 45
0.0
1001
ACAD
1000
AcDbSavedByObjectVersion
1070
     0
  0
VISUALSTYLE
  5
1D3C
102
{ACAD_XDICTIONARY
360
1D9C
102
}
102
{ACAD_REACTORS
330
1D33
102
}
330
1D33
100
AcDbVisualStyle
  2
Conceptual
 70
     9
 71
     3
 72
     2
 73
     0
 90
        0
 40
-0.6
 41
-30.0
 62
     5
 63
     7
 74
     2
 91
        2
 64
     7
 65
   257
 75
     1
175
     1
 42
179.0
 92
        8
 66
     7
 43
1.0
 76
     1
 77
     6
 78
     2
 67
     7
 79
     3
170
     0
171
     0
290
     0
174
     0
 93
        1
 44
0.0
173
     0
291
     0
 45
0.0
1001
ACAD
1000
AcDbSavedByObjectVersion
1070
     0
  0
VISUALSTYLE
  5
1D3E
102
{ACAD_XDICTIONARY
360
1DA0
102
}
102
{ACAD_REACTORS
330
1D33
102
}
330
1D33
100
AcDbVisualStyle
  2
Dim
 70
    11
 71
     2
 72
     2
 73
     0
 90
        0
 40
-0.6
 41
-30.0
 62
     5
 63
     7
 74
     1
 91
        4
 64
     7
 65
   257
 75
     1
175
     1
 42
1.0
 92
        8
 66
     7
 43
1.0
 76
     1
 77
     6
 78
     2
 67
     7
 79
     5
170
     0
171
     0
290
     0
174
     0
 93
        1
 44
-50.0
173
     0
291
     1
 45
0.0
1001
ACAD
1000
AcDbSavedByObjectVersion
1070
     0
  0
VISUALSTYLE
  5
1D4B
102
{ACAD_XDICTIONARY
360
1DBA
102
}
102
{ACAD_REACTORS
330
1D33
102
}
330
1D33
100
AcDbVisualStyle
  2
EdgeColorOff
 70
    22
 71
     2
 72
     2
 73
     0
 90
        0
 40
-0.6
 41
-30.0
 62
     5
 63
     7
 74
     1
 91
        4
 64
     7
 65
   257
 75
     1
175
     1
 42
1.0
 92
        8
 66
     7
 43
1.0
 76
     1
 77
     6
 78
     2
 67
     7
 79
     5
170
     0
171
     0
290
     0
174
     0
 93
        1
 44
0.0
173
     0
291
     1
 45
0.0
1001
ACAD
1000
AcDbSavedByObjectVersion
1070
     0
  0
VISUALSTYLE
  5
1D42
102
{ACAD_XDICTIONARY
360
1DA8
102
}
102
{ACAD_REACTORS
330
1D33
102
}
330
1D33
100
AcDbVisualStyle
  2
Facepattern
 70
    15
 71
     2
 72
     2
 73
     0
 90
        0
 40
-0.6
 41
-30.0
 62
     5
 63
     7
 74
     1
 91
        4
 64
     7
 65
   257
 75
     1
175
     1
 42
1.0
 92
        8
 66
     7
 43
1.0
 76
     1
 77
     6
 78
     2
 67
     7
 79
     5
170
     0
171
     0
290
     0
174
     0
 93
        1
 44
0.0
173
     0
291
     1
 45
0.0
1001
ACAD
1000
AcDbSavedByObjectVersion
1070
     0
  0
VISUALSTYLE
  5
1D34
102
{ACAD_XDICTIONARY
360
1D8C
102
}
102
{ACAD_REACTORS
330
1D33
102
}
330
1D33
100
AcDbVisualStyle
  2
Flat
 70
     0
 71
     2
 72
     1
 73
     1
 90
        2
 40
-0.6
 41
30.0
 62
     5
 63
     7
 74
     0
 91
        0
 64
     7
 65
   257
 75
     1
175
     1
 42
1.0
 92
        8
 66
     7
 43
1.0
 76
     1
 77
     6
 78
     2
 67
     7
 79
     5
170
     0
171
     0
290
     0
174
     0
 93
       13
 44
0.0
173
     0
291
     1
 45
0.0
1001
ACAD
1000
AcDbSavedByObjectVersion
1070
     0
  0
VISUALSTYLE
  5
1D35
102
{ACAD_XDICTIONARY
360
1D8E
102
}
102
{ACAD_REACTORS
330
1D33
102
}
330
1D33
100
AcDbVisualStyle
  2
FlatWithEdges
 70
     1
 71
     2
 72
     1
 73
     1
 90
        2
 40
-0.6
 41
30.0
 62
     5
 63
     7
 74
     1
 91
        0
 64
     7
 65
   257
 75
     1
175
     1
 42
1.0
 92
        0
 66
   257
 43
1.0
 76
     1
 77
     6
 78
     2
 67
     7
 79
     5
170
     0
171
     0
290
     0
174
     0
 93
       13
 44
0.0
173
     0
291
     1
 45
0.0
1001
ACAD
1000
AcDbSavedByObjectVersion
1070
     0
  0
VISUALSTYLE
  5
1D36
102
{ACAD_XDICTIONARY
360
1D90
102
}
102
{ACAD_REACTORS
330
1D33
102
}
330
1D33
100
AcDbVisualStyle
  2
Gouraud
 70
     2
 71
     2
 72
     2
 73
     1
 90
        2
 40
-0.6
 41
30.0
 62
     5
 63
     7
 74
     0
 91
        0
 64
     7
 65
   257
 75
     1
175
     1
 42
1.0
 92
        0
 66
     7
 43
1.0
 76
     1
 77
     6
 78
     2
 67
     7
 79
     5
170
     0
171
     0
290
     0
174
     0
 93
       13
 44
0.0
173
     0
291
     1
 45
0.0
1001
ACAD
1000
AcDbSavedByObjectVersion
1070
     0
  0
VISUALSTYLE
  5
1D37
102
{ACAD_XDICTIONARY
360
1D92
102
}
102
{ACAD_REACTORS
330
1D33
102
}
330
1D33
100
AcDbVisualStyle
  2
GouraudWithEdges
 70
     3
 71
     2
 72
     2
 73
     1
 90
        2
 40
-0.6
 41
30.0
 62
     5
 63
     7
 74
     1
 91
        0
 64
     7
 65
   257
 75
     1
175
     1
 42
1.0
 92
        0
 66
   257
 43
1.0
 76
     1
 77
     6
 78
     2
 67
     7
 79
     5
170
     0
171
     0
290
     0
174
     0
 93
       13
 44
0.0
173
     0
291
     1
 45
0.0
1001
ACAD
1000
AcDbSavedByObjectVersion
1070
     0
  0
VISUALSTYLE
  5
1D3B
102
{ACAD_XDICTIONARY
360
1D9A
102
}
102
{ACAD_REACTORS
330
1D33
102
}
330
1D33
100
AcDbVisualStyle
  2
Hidden
 70
     6
 71
     1
 72
     2
 73
     2
 90
        0
 40
-0.6
 41
-30.0
 62
     5
 63
     7
 74
     2
 91
        2
 64
     7
 65
   257
 75
     2
175
     1
 42
40.0
 92
        0
 66
   257
 43
1.0
 76
     1
 77
     6
 78
     2
 67
     7
 79
     3
170
     0
171
     0
290
     0
174
     0
 93
        1
 44
0.0
173
     0
291
     0
 45
0.0
1001
ACAD
1000
AcDbSavedByObjectVersion
1070
     0
  0
VISUALSTYLE
  5
1D49
102
{ACAD_XDICTIONARY
360
1DB6
102
}
102
{ACAD_REACTORS
330
1D33
102
}
330
1D33
100
AcDbVisualStyle
  2
JitterOff
 70
    20
 71
     2
 72
     2
 73
     0
 90
        0
 40
-0.6
 41
-30.0
 62
     5
 63
     7
 74
     1
 91
        4
 64
     7
 65
   257
 75
     1
175
     1
 42
1.0
 92
       10
 66
     7
 43
1.0
 76
     1
 77
     6
 78
     2
 67
     7
 79
     5
170
     0
171
     0
290
     0
174
     0
 93
        1
 44
0.0
173
     0
291
     1
 45
0.0
1001
ACAD
1000
AcDbSavedByObjectVersion
1070
     0
  0
VISUALSTYLE
  5
1D41
102
{ACAD_XDICTIONARY
360
1DA6
102
}
102
{ACAD_REACTORS
330
1D33
102
}
330
1D33
100
AcDbVisualStyle
  2
Linepattern
 70
    14
 71
     2
 72
     2
 73
     0
 90
        0
 40
-0.6
 41
-30.0
 62
     5
 63
     7
 74
     1
 91
        4
 64
     7
 65
   257
 75
     7
175
     7
 42
1.0
 92
        8
 66
     7
 43
1.0
 76
     1
 77
     6
 78
     2
 67
     7
 79
     5
170
     0
171
     0
290
     0
174
     0
 93
        1
 44
0.0
173
     0
291
     1
 45
0.0
1001
ACAD
1000
AcDbSavedByObjectVersion
1070
     0
  0
VISUALSTYLE
  5
1D4A
102
{ACAD_XDICTIONARY
360
1DB8
102
}
102
{ACAD_REACTORS
330
1D33
102
}
330
1D33
100
AcDbVisualStyle
  2
OverhangOff
 70
    21
 71
     2
 72
     2
 73
     0
 90
        0
 40
-0.6
 41
-30.0
 62
     5
 63
     7
 74
     1
 91
        4
 64
     7
 65
   257
 75
     1
175
     1
 42
1.0
 92
        9
 66
     7
 43
1.0
 76
     1
 77
     6
 78
     2
 67
     7
 79
     5
170
     0
171
     0
290
     0
174
     0
 93
        1
 44
0.0
173
     0
291
     1
 45
0.0
1001
ACAD
1000
AcDbSavedByObjectVersion
1070
     0
  0
VISUALSTYLE
  5
1D3D
102
{ACAD_XDICTIONARY
360
1D9E
102
}
102
{ACAD_REACTORS
330
1D33
102
}
330
1D33
100
AcDbVisualStyle
  2
Realistic
 70
     8
 71
     2
 72
     3
 73
     0
 90
        2
 40
-0.6
 41
30.0
 62
     5
 63
     7
 74
     0
 91
        0
 64
     7
 65
   257
 75
     1
175
     1
 42
1.0
 92
        8
 66
   257
 43
1.0
 76
     1
 77
     6
 78
     2
 67
     7
 79
     3
170
     0
171
     0
290
     0
174
     0
 93
       13
 44
0.0
173
     0
291
     0
 45
0.0
1001
ACAD
1000
AcDbSavedByObjectVersion
1070
     0
  0
VISUALSTYLE
  5
1D48
102
{ACAD_XDICTIONARY
360
1DB4
102
}
102
{ACAD_REACTORS
330
1D33
102
}
330
1D33
100
AcDbVisualStyle
  2
Shaded
 70
    27
 71
     2
 72
     2
 73
     1
 90
        2
 40
-0.6
 41
30.0
 62
     5
 63
     7
 74
     0
 91
        4
 64
     7
 65
   257
 75
     1
175
     1
 42
1.0
 92
        8
 66
   257
 43
1.0
 76
     1
 77
     6
 78
     2
 67
     8
 79
     3
170
     0
171
     0
290
     0
174
     0
 93
        5
 44
0.0
173
     0
291
     0
 45
0.0
1001
ACAD
1000
AcDbSavedByObjectVersion
1070
     0
  0
VISUALSTYLE
  5
1D47
102
{ACAD_XDICTIONARY
360
1DB2
102
}
102
{ACAD_REACTORS
330
1D33
102
}
330
1D33
100
AcDbVisualStyle
  2
Shaded with edges
 70
    26
 71
     2
 72
     2
 73
     1
 90
        2
 40
-0.6
 41
30.0
 62
     5
 63
     7
 74
     1
 91
       10
 64
     7
 65
   257
 75
     2
175
     1
 42
1.0
 92
        8
 66
   257
 43
1.0
 76
     1
 77
     6
 78
     2
 67
     7
 79
     3
170
     0
171
     0
290
     0
174
     0
 93
        5
 44
0.0
173
     0
291
     0
 45
0.0
1001
ACAD
1000
AcDbSavedByObjectVersion
1070
     0
  0
VISUALSTYLE
  5
1D44
102
{ACAD_XDICTIONARY
360
1DAC
102
}
102
{ACAD_REACTORS
330
1D33
102
}
330
1D33
100
AcDbVisualStyle
  2
Shades of Gray
 70
    23
 71
     2
 72
     2
 73
     3
 90
        0
 40
-0.6
 41
-30.0
 62
     5
 63
     7
 74
     2
 91
        2
 64
     7
 65
     7
 75
     1
175
     1
 42
40.0
 92
        8
 66
     7
 43
1.0
 76
     1
 77
     6
 78
     2
 67
     7
 79
     3
170
     0
171
     0
290
     0
174
     0
 93
        1
 44
0.0
173
     0
291
     0
 45
0.0
1001
ACAD
1000
AcDbSavedByObjectVersion
1070
     0
  0
VISUALSTYLE
  5
1D45
102
{ACAD_XDICTIONARY
360
1DAE
102
}
102
{ACAD_REACTORS
330
1D33
102
}
330
1D33
100
AcDbVisualStyle
  2
Sketchy
 70
    24
 71
     1
 72
     2
 73
     2
 90
        0
 40
-0.6
 41
-30.0
 62
     5
 63
     7
 74
     2
 91
        2
 64
     7
 65
     7
 75
     1
175
     1
 42
40.0
 92
       11
 66
     7
 43
1.0
 76
     1
 77
     6
 78
     2
 67
     7
 79
     6
170
     0
171
     0
290
     0
174
     0
 93
        1
 44
0.0
173
     0
291
     0
 45
0.0
1001
ACAD
1000
AcDbSavedByObjectVersion
1070
     0
  0
VISUALSTYLE
  5
1D40
102
{ACAD_XDICTIONARY
360
1DA4
102
}
102
{ACAD_REACTORS
330
1D33
102
}
330
1D33
100
AcDbVisualStyle
  2
Thicken
 70
    13
 71
     2
 72
     2
 73
     0
 90
        0
 40
-0.6
 41
-30.0
 62
     5
 63
     7
 74
     1
 91
        4
 64
     7
 65
   257
 75
     1
175
     1
 42
1.0
 92
       12
 66
     7
 43
1.0
 76
     1
 77
     6
 78
     2
 67
     7
 79
     5
170
     0
171
     0
290
     0
174
     0
 93
        1
 44
0.0
173
     0
291
     1
 45
0.0
1001
ACAD
1000
AcDbSavedByObjectVersion
1070
     0
  0
VISUALSTYLE
  5
1D3A
102
{ACAD_XDICTIONARY
360
1D98
102
}
102
{ACAD_REACTORS
330
1D33
102
}
330
1D33
100
AcDbVisualStyle
  2
Wireframe
 70
     5
 71
     0
 72
     2
 73
     0
 90
        0
 40
-0.6
 41
-30.0
 62
     5
 63
     7
 74
     1
 91
        4
 64
     7
 65
   257
 75
     1
175
     1
 42
1.0
 92
        0
 66
   257
 43
1.0
 76
     1
 77
     6
 78
     2
 67
     7
 79
     3
170
     0
171
     0
290
     0
174
     0
 93
        1
 44
0.0
173
     0
291
     0
 45
0.0
1001
ACAD
1000
AcDbSavedByObjectVersion
1070
     0
  0
VISUALSTYLE
  5
1D46
102
{ACAD_XDICTIONARY
360
1DB0
102
}
102
{ACAD_REACTORS
330
1D33
102
}
330
1D33
100
AcDbVisualStyle
  2
X-Ray
 70
    25
 71
     2
 72
     2
 73
     1
 90
        1
 40
0.5
 41
-30.0
 62
     5
 63
     7
 74
     1
 91
        0
 64
     7
 65
   257
 75
     1
175
     1
 42
1.0
 92
        8
 66
     7
 43
1.0
 76
     1
 77
     6
 78
     2
 67
     7
 79
     3
170
     0
171
     0
290
     0
174
     0
 93
       13
 44
0.0
173
     0
291
     0
 45
0.0
1001
ACAD
1000
AcDbSavedByObjectVersion
1070
     0
  0
DICTIONARYVAR
  5
1D7F
102
{ACAD_REACTORS
330
1D7A
102
}
330
1D7A
100
DictionaryVariables
280
     0
  1
1:1
  0
DICTIONARYVAR
  5
1D7C
102
{ACAD_REACTORS
330
1D7A
102
}
330
1D7A
100
DictionaryVariables
280
     0
  1
STANDARD
  0
DICTIONARYVAR
  5
1D7B
102
{ACAD_REACTORS
330
1D7A
102
}
330
1D7A
100
DictionaryVariables
280
     0
  1
STANDARD
  0
DICTIONARYVAR
  5
1D7D
102
{ACAD_REACTORS
330
1D7A
102
}
330
1D7A
100
DictionaryVariables
280
     0
  1
Imperial24
  0
DICTIONARYVAR
  5
1D7E
102
{ACAD_REACTORS
330
1D7A
102
}
330
1D7A
100
DictionaryVariables
280
     0
  1
Imperial24
  0
DICTIONARYVAR
  5
1D82
102
{ACAD_REACTORS
330
1D7A
102
}
330
1D7A
100
DictionaryVariables
280
     0
  1
1
  0
DICTIONARYVAR
  5
1D81
102
{ACAD_REACTORS
330
1D7A
102
}
330
1D7A
100
DictionaryVariables
280
     0
  1
0
  0
DICTIONARYVAR
  5
1D80
102
{ACAD_REACTORS
330
1D7A
102
}
330
1D7A
100
DictionaryVariables
280
     0
  1
127
  0
DICTIONARYVAR
  5
1D83
102
{ACAD_REACTORS
330
1D7A
102
}
330
1D7A
100
DictionaryVariables
280
     0
  1
2
  0
DICTIONARY
  5
1DC0
330
1D66
100
AcDbDictionary
280
     1
281
     1
  3
ACAD_XREC_ROUNDTRIP
360
1DC1
  0
DICTIONARY
  5
1DC2
330
1D67
100
AcDbDictionary
280
     1
281
     1
  3
ACAD_XREC_ROUNDTRIP
360
1DC3
  0
DICTIONARY
  5
1DC4
330
1D68
100
AcDbDictionary
280
     1
281
     1
  3
ACAD_XREC_ROUNDTRIP
360
1DC5
  0
DICTIONARY
  5
1D24
330
1D23
100
AcDbDictionary
280
     1
281
     1
  3
ACAD_XREC_ROUNDTRIP
360
1D8A
  3
BUMPTILE
360
1D26
  3
DIFFUSETILE
360
1D25
  3
OPACITYTILE
360
1D29
  3
REFLECTIONTILE
360
1D28
  3
REFRACTIONTILE
360
1D2A
  3
SPECULARTILE
360
1D27
  0
DICTIONARY
  5
1D1C
330
1D1B
100
AcDbDictionary
280
     1
281
     1
  3
ACAD_XREC_ROUNDTRIP
360
1D89
  3
BUMPTILE
360
1D1E
  3
DIFFUSETILE
360
1D1D
  3
OPACITYTILE
360
1D21
  3
REFLECTIONTILE
360
1D20
  3
REFRACTIONTILE
360
1D22
  3
SPECULARTILE
360
1D1F
  0
DICTIONARY
  5
1D2C
330
1D2B
100
AcDbDictionary
280
     1
281
     1
  3
ACAD_XREC_ROUNDTRIP
360
1D8B
  3
BUMPTILE
360
1D2E
  3
DIFFUSETILE
360
1D2D
  3
OPACITYTILE
360
1D31
  3
REFLECTIONTILE
360
1D30
  3
REFRACTIONTILE
360
1D32
  3
SPECULARTILE
360
1D2F
  0
DICTIONARY
  5
1DBE
330
1D64
100
AcDbDictionary
280
     1
281
     1
  3
ACAD_XREC_ROUNDTRIP
360
1DBF
  0
DICTIONARY
  5
1D85
330
1D4E
100
AcDbDictionary
280
     1
281
     1
  3
ACAD_ROUNDTRIP_2008_TABLESTYLE_CELLSTYLEMAP
360
1D86
  3
ACAD_XREC_ROUNDTRIP
360
1DBC
  0
DICTIONARY
  5
1D96
330
1D39
100
AcDbDictionary
280
     1
281
     1
  3
ACAD_XREC_ROUNDTRIP
360
1D97
  0
DICTIONARY
  5
1D94
330
1D38
100
AcDbDictionary
280
     1
281
     1
  3
ACAD_XREC_ROUNDTRIP
360
1D95
  0
DICTIONARY
  5
1DA2
330
1D3F
100
AcDbDictionary
280
     1
281
     1
  3
ACAD_XREC_ROUNDTRIP
360
1DA3
  0
DICTIONARY
  5
1DAA
330
1D43
100
AcDbDictionary
280
     1
281
     1
  3
ACAD_XREC_ROUNDTRIP
360
1DAB
  0
DICTIONARY
  5
1D9C
330
1D3C
100
AcDbDictionary
280
     1
281
     1
  3
ACAD_XREC_ROUNDTRIP
360
1D9D
  0
DICTIONARY
  5
1DA0
330
1D3E
100
AcDbDictionary
280
     1
281
     1
  3
ACAD_XREC_ROUNDTRIP
360
1DA1
  0
DICTIONARY
  5
1DBA
330
1D4B
100
AcDbDictionary
280
     1
281
     1
  3
ACAD_XREC_ROUNDTRIP
360
1DBB
  0
DICTIONARY
  5
1DA8
330
1D42
100
AcDbDictionary
280
     1
281
     1
  3
ACAD_XREC_ROUNDTRIP
360
1DA9
  0
DICTIONARY
  5
1D8C
330
1D34
100
AcDbDictionary
280
     1
281
     1
  3
ACAD_XREC_ROUNDTRIP
360
1D8D
  0
DICTIONARY
  5
1D8E
330
1D35
100
AcDbDictionary
280
     1
281
     1
  3
ACAD_XREC_ROUNDTRIP
360
1D8F
  0
DICTIONARY
  5
1D90
330
1D36
100
AcDbDictionary
280
     1
281
     1
  3
ACAD_XREC_ROUNDTRIP
360
1D91
  0
DICTIONARY
  5
1D92
330
1D37
100
AcDbDictionary
280
     1
281
     1
  3
ACAD_XREC_ROUNDTRIP
360
1D93
  0
DICTIONARY
  5
1D9A
330
1D3B
100
AcDbDictionary
280
     1
281
     1
  3
ACAD_XREC_ROUNDTRIP
360
1D9B
  0
DICTIONARY
  5
1DB6
330
1D49
100
AcDbDictionary
280
     1
281
     1
  3
ACAD_XREC_ROUNDTRIP
360
1DB7
  0
DICTIONARY
  5
1DA6
330
1D41
100
AcDbDictionary
280
     1
281
     1
  3
ACAD_XREC_ROUNDTRIP
360
1DA7
  0
DICTIONARY
  5
1DB8
330
1D4A
100
AcDbDictionary
280
     1
281
     1
  3
ACAD_XREC_ROUNDTRIP
360
1DB9
  0
DICTIONARY
  5
1D9E
330
1D3D
100
AcDbDictionary
280
     1
281
     1
  3
ACAD_XREC_ROUNDTRIP
360
1D9F
  0
DICTIONARY
  5
1DB4
330
1D48
100
AcDbDictionary
280
     1
281
     1
  3
ACAD_XREC_ROUNDTRIP
360
1DB5
  0
DICTIONARY
  5
1DB2
330
1D47
100
AcDbDictionary
280
     1
281
     1
  3
ACAD_XREC_ROUNDTRIP
360
1DB3
  0
DICTIONARY
  5
1DAC
330
1D44
100
AcDbDictionary
280
     1
281
     1
  3
ACAD_XREC_ROUNDTRIP
360
1DAD
  0
DICTIONARY
  5
1DAE
330
1D45
100
AcDbDictionary
280
     1
281
     1
  3
ACAD_XREC_ROUNDTRIP
360
1DAF
  0
DICTIONARY
  5
1DA4
330
1D40
100
AcDbDictionary
280
     1
281
     1
  3
ACAD_XREC_ROUNDTRIP
360
1DA5
  0
DICTIONARY
  5
1D98
330
1D3A
100
AcDbDictionary
280
     1
281
     1
  3
ACAD_XREC_ROUNDTRIP
360
1D99
  0
DICTIONARY
  5
1DB0
330
1D46
100
AcDbDictionary
280
     1
281
     1
  3
ACAD_XREC_ROUNDTRIP
360
1DB1
  0
XRECORD
  5
1DC1
102
{ACAD_REACTORS
330
1DC0
102
}
330
1DC0
100
AcDbXrecord
280
     1
102
DISPLAYNAME
  1
Imperial24
102
FLAGS
 90
        0
  0
XRECORD
  5
1DC3
102
{ACAD_REACTORS
330
1DC2
102
}
330
1DC2
100
AcDbXrecord
280
     1
102
SHADEPLOT
 70
     0
102
SHADEPLOTRESLEVEL
 70
     2
102
SHADEPLOTCUSTOMDPI
 70
   300
  0
XRECORD
  5
1DC5
102
{ACAD_REACTORS
330
1DC4
102
}
330
1DC4
100
AcDbXrecord
280
     1
102
SHADEPLOT
 70
     0
102
SHADEPLOTRESLEVEL
 70
     2
102
SHADEPLOTCUSTOMDPI
 70
   300
  0
XRECORD
  5
1D8A
102
{ACAD_REACTORS
330
1D24
102
}
330
1D24
100
AcDbXrecord
280
     1
102
MATERIAL
148
0.0
149
0.0
149
0.0
 93
        0
 94
      127
282
     0
 72
     0
 77
     0
171
     0
175
     0
179
     0
273
     0
  0
XRECORD
  5
1D26
102
{ACAD_REACTORS
330
1D24
102
}
330
1D24
100
AcDbXrecord
280
     1
270
     1
271
     1
  0
XRECORD
  5
1D25
102
{ACAD_REACTORS
330
1D24
102
}
330
1D24
100
AcDbXrecord
280
     1
270
     1
271
     1
  0
XRECORD
  5
1D29
102
{ACAD_REACTORS
330
1D24
102
}
330
1D24
100
AcDbXrecord
280
     1
270
     1
271
     1
  0
XRECORD
  5
1D28
102
{ACAD_REACTORS
330
1D24
102
}
330
1D24
100
AcDbXrecord
280
     1
270
     1
271
     1
  0
XRECORD
  5
1D2A
102
{ACAD_REACTORS
330
1D24
102
}
330
1D24
100
AcDbXrecord
280
     1
270
     1
271
     1
  0
XRECORD
  5
1D27
102
{ACAD_REACTORS
330
1D24
102
}
330
1D24
100
AcDbXrecord
280
     1
270
     1
271
     1
  0
XRECORD
  5
1D89
102
{ACAD_REACTORS
330
1D1C
102
}
330
1D1C
100
AcDbXrecord
280
     1
102
MATERIAL
148
0.0
149
0.0
149
0.0
 93
        0
 94
      127
282
     0
 72
     0
 77
     0
171
     0
175
     0
179
     0
273
     0
  0
XRECORD
  5
1D1E
102
{ACAD_REACTORS
330
1D1C
102
}
330
1D1C
100
AcDbXrecord
280
     1
270
     1
271
     1
  0
XRECORD
  5
1D1D
102
{ACAD_REACTORS
330
1D1C
102
}
330
1D1C
100
AcDbXrecord
280
     1
270
     1
271
     1
  0
XRECORD
  5
1D21
102
{ACAD_REACTORS
330
1D1C
102
}
330
1D1C
100
AcDbXrecord
280
     1
270
     1
271
     1
  0
XRECORD
  5
1D20
102
{ACAD_REACTORS
330
1D1C
102
}
330
1D1C
100
AcDbXrecord
280
     1
270
     1
271
     1
  0
XRECORD
  5
1D22
102
{ACAD_REACTORS
330
1D1C
102
}
330
1D1C
100
AcDbXrecord
280
     1
270
     1
271
     1
  0
XRECORD
  5
1D1F
102
{ACAD_REACTORS
330
1D1C
102
}
330
1D1C
100
AcDbXrecord
280
     1
270
     1
271
     1
  0
XRECORD
  5
1D8B
102
{ACAD_REACTORS
330
1D2C
102
}
330
1D2C
100
AcDbXrecord
280
     1
102
MATERIAL
148
0.0
149
0.0
149
0.0
 93
        0
 94
      127
282
     0
 72
     0
 77
     0
171
     0
175
     0
179
     0
273
     0
  0
XRECORD
  5
1D2E
102
{ACAD_REACTORS
330
1D2C
102
}
330
1D2C
100
AcDbXrecord
280
     1
270
     1
271
     1
  0
XRECORD
  5
1D2D
102
{ACAD_REACTORS
330
1D2C
102
}
330
1D2C
100
AcDbXrecord
280
     1
270
     1
271
     1
  0
XRECORD
  5
1D31
102
{ACAD_REACTORS
330
1D2C
102
}
330
1D2C
100
AcDbXrecord
280
     1
270
     1
271
     1
  0
XRECORD
  5
1D30
102
{ACAD_REACTORS
330
1D2C
102
}
330
1D2C
100
AcDbXrecord
280
     1
270
     1
271
     1
  0
XRECORD
  5
1D32
102
{ACAD_REACTORS
330
1D2C
102
}
330
1D2C
100
AcDbXrecord
280
     1
270
     1
271
     1
  0
XRECORD
  5
1D2F
102
{ACAD_REACTORS
330
1D2C
102
}
330
1D2C
100
AcDbXrecord
280
     1
270
     1
271
     1
  0
XRECORD
  5
1DBF
102
{ACAD_REACTORS
330
1DBE
102
}
330
1DBE
100
AcDbXrecord
280
     1
102
DISPLAYNAME
  1
Imperial24
102
FLAGS
 90
        0
  0
CELLSTYLEMAP
  5
1D86
102
{ACAD_REACTORS
330
1D85
102
}
330
1D85
100
AcDbCellStyleMap
 90
        3
300
CELLSTYLE
  1
TABLEFORMAT_BEGIN
 90
        5
170
     1
 91
        0
 92
    32768
 62
   257
 93
        1
300
CONTENTFORMAT
  1
CONTENTFORMAT_BEGIN
 90
        0
 91
        0
 92
      512
 93
        0
300

 40
0.0
140
1.0
 94
        5
 62
     0
340
F
144
0.25
309
CONTENTFORMAT_END
171
     0
 94
        0
309
TABLEFORMAT_END
  1
CELLSTYLE_BEGIN
 90
        1
 91
        1
300
_TITLE
309
CELLSTYLE_END
300
CELLSTYLE
  1
TABLEFORMAT_BEGIN
 90
        5
170
     1
 91
        0
 92
        0
 62
   257
 93
        1
300
CONTENTFORMAT
  1
CONTENTFORMAT_BEGIN
 90
        0
 91
        0
 92
      512
 93
        0
300

 40
0.0
140
1.0
 94
        5
 62
     0
340
F
144
0.18
309
CONTENTFORMAT_END
171
     0
 94
        0
309
TABLEFORMAT_END
  1
CELLSTYLE_BEGIN
 90
        2
 91
        1
300
_HEADER
309
CELLSTYLE_END
300
CELLSTYLE
  1
TABLEFORMAT_BEGIN
 90
        5
170
     1
 91
        0
 92
        0
 62
   257
 93
        1
300
CONTENTFORMAT
  1
CONTENTFORMAT_BEGIN
 90
        0
 91
        0
 92
      512
 93
        0
300

 40
0.0
140
1.0
 94
        2
 62
     0
340
F
144
0.18
309
CONTENTFORMAT_END
171
     0
 94
        0
309
TABLEFORMAT_END
  1
CELLSTYLE_BEGIN
 90
        3
 91
        2
300
_DATA
309
CELLSTYLE_END
  0
XRECORD
  5
1DBC
102
{ACAD_REACTORS
330
1D85
102
}
330
1D85
100
AcDbXrecord
280
     1
102
ACAD_ROUNDTRIP_PRE2007_TABLESTYLE
 90
      512
 91
        0
  1

 92
      512
 93
        0
  2

 94
      512
 95
        0
  3

  0
XRECORD
  5
1D97
102
{ACAD_REACTORS
330
1D96
102
}
330
1D96
100
AcDbXrecord
280
     1
102
RTVSPost2010Prop28
280
     1
102
RTVSPost2010PropOp28
 70
     1
102
RTVSPost2010Prop29
280
     1
102
RTVSPost2010PropOp29
 70
     1
102
RTVSPost2010Prop30
280
     0
102
RTVSPost2010PropOp30
 70
     1
102
RTVSPost2010Prop31
280
     0
102
RTVSPost2010PropOp31
 70
     1
102
RTVSPost2010Prop32
280
     0
102
RTVSPost2010PropOp32
 70
     1
102
RTVSPost2010Prop33
280
     0
102
RTVSPost2010PropOp33
 70
     1
102
RTVSPost2010Prop34
280
     0
102
RTVSPost2010PropOp34
 70
     1
102
RTVSPost2010Prop35
280
     0
102
RTVSPost2010PropOp35
 70
     1
102
RTVSPost2010Prop36
280
     0
102
RTVSPost2010PropOp36
 70
     1
102
RTVSPost2010Prop37
 90
       50
102
RTVSPost2010PropOp37
 70
     1
102
RTVSPost2010Prop38
140
0.0
102
RTVSPost2010PropOp38
 70
     1
102
RTVSPost2010Prop39
140
1.0
102
RTVSPost2010PropOp39
 70
     1
102
RTVSPost2010Prop40
 90
        0
102
RTVSPost2010PropOp40
 70
     1
102
RTVSPost2010Prop41ColorIndex
 90
       18
102
RTVSPost2010Prop41ColorRGB
 90
        0
102
RTVSPost2010PropOp41
 70
     1
102
RTVSPost2010Prop42
 90
       50
102
RTVSPost2010PropOp42
 70
     1
102
RTVSPost2010Prop43
 90
        3
102
RTVSPost2010PropOp43
 70
     1
102
RTVSPost2010Prop44ColorIndex
 90
        5
102
RTVSPost2010Prop44ColorRGB
 90
      255
102
RTVSPost2010PropOp44
 70
     1
102
RTVSPost2010Prop45
280
     0
102
RTVSPost2010PropOp45
 70
     1
102
RTVSPost2010Prop46
 90
       50
102
RTVSPost2010PropOp46
 70
     1
102
RTVSPost2010Prop47
 90
       50
102
RTVSPost2010PropOp47
 70
     1
102
RTVSPost2010Prop48
 90
       50
102
RTVSPost2010PropOp48
 70
     1
102
RTVSPost2010Prop49
280
     0
102
RTVSPost2010PropOp49
 70
     1
102
RTVSPost2010Prop50
 90
       50
102
RTVSPost2010PropOp50
 70
     1
102
RTVSPost2010Prop51ColorIndex
 90
      256
102
RTVSPost2010Prop51ColorRGB
 90
-16777216
102
RTVSPost2010PropOp51
 70
     0
102
RTVSPost2010Prop52
140
1.0
102
RTVSPost2010PropOp52
 70
     0
102
RTVSPost2010Prop53
 90
        2
102
RTVSPost2010PropOp53
 70
     1
102
RTVSPost2010Prop54
  1
strokes_ogs.tif
102
RTVSPost2010PropOp54
 70
     1
102
RTVSPost2010Prop55
280
     0
102
RTVSPost2010PropOp55
 70
     1
102
RTVSPost2010Prop56
140
1.0
102
RTVSPost2010PropOp56
 70
     1
102
RTVSPost2010Prop57
140
1.0
102
RTVSPost2010PropOp57
 70
     1
102
RTVSPropertyOp0
 70
     1
102
RTVSPropertyOp1
 70
     1
102
RTVSPropertyOp2
 70
     1
102
RTVSPropertyOp3
 70
     1
102
RTVSPropertyOp4
 70
     1
102
RTVSPropertyOp5
 70
     1
102
RTVSPropertyOp6
 70
     1
102
RTVSPropertyOp7
 70
     1
102
RTVSPropertyOp8
 70
     1
102
RTVSPropertyOp9
 70
     1
102
RTVSPropertyOp10
 70
     1
102
RTVSPropertyOp11
 70
     1
102
RTVSPropertyOp12
 70
     1
102
RTVSPropertyOp13
 70
     1
102
RTVSPropertyOp14
 70
     1
102
RTVSPropertyOp15
 70
     1
102
RTVSPropertyOp16
 70
     1
102
RTVSPropertyOp17
 70
     1
102
RTVSPropertyOp18
 70
     1
102
RTVSPropertyOp19
 70
     1
102
RTVSPropertyOp20
 70
     1
102
RTVSPropertyOp21
 70
     1
102
RTVSPropertyOp22
 70
     1
102
RTVSPropertyOp23
 70
     1
102
RTVSPropertyOp24
 70
     1
102
RTVSPropertyOp25
 70
     1
102
RTVSPropertyOp26
 70
     1
102
RTVSPropertyOp27
 70
     1
102
RTVSPropertyOp28
 70
     1
102
RTVSPropertyOp29
 70
     1
102
RTVSPropertyOp30
 70
     1
102
RTVSPropertyOp31
 70
     1
102
RTVSPropertyOp32
 70
     1
102
RTVSPropertyOp33
 70
     1
102
RTVSPropertyOp34
 70
     1
102
RTVSPropertyOp35
 70
     1
102
RTVSPropertyOp36
 70
     1
102
RTVSPropertyOp37
 70
     1
102
RTVSPropertyOp38
 70
     1
102
RTVSPropertyOp39
 70
     1
102
RTVSPropertyOp40
 70
     1
102
RTVSPropertyOp41
 70
     1
102
RTVSPropertyOp42
 70
     1
102
RTVSPropertyOp43
 70
     1
102
RTVSPropertyOp44
 70
     1
102
RTVSPropertyOp45
 70
     1
102
RTVSPropertyOp46
 70
     1
102
RTVSPropertyOp47
 70
     1
102
RTVSPropertyOp48
 70
     1
102
RTVSPropertyOp49
 70
     1
102
RTVSPropertyOp50
 70
     1
102
RTVSPropertyOp51
 70
     0
102
RTVSPropertyOp52
 70
     0
102
RTVSPropertyOp53
 70
     1
102
RTVSPropertyOp54
 70
     1
102
RTVSPropertyOp55
 70
     1
102
RTVSPropertyOp56
 70
     1
102
RTVSPropertyOp57
 70
     1
102
RTVSPropertyOp58
 70
     1
102
RTVSPropertyOp59
 70
     1
102
RTVSPropertyOp60
 70
     1
102
RTVSPropertyOp61
 70
     1
102
RTVSPropertyOp62
 70
     1
  0
XRECORD
  5
1D95
102
{ACAD_REACTORS
330
1D94
102
}
330
1D94
100
AcDbXrecord
280
     1
102
RTVSPost2010Prop28
280
     0
102
RTVSPost2010PropOp28
 70
     1
102
RTVSPost2010Prop29
280
     1
102
RTVSPost2010PropOp29
 70
     1
102
RTVSPost2010Prop30
280
     1
102
RTVSPost2010PropOp30
 70
     1
102
RTVSPost2010Prop31
280
     0
102
RTVSPost2010PropOp31
 70
     1
102
RTVSPost2010Prop32
280
     0
102
RTVSPost2010PropOp32
 70
     1
102
RTVSPost2010Prop33
280
     0
102
RTVSPost2010PropOp33
 70
     1
102
RTVSPost2010Prop34
280
     0
102
RTVSPost2010PropOp34
 70
     1
102
RTVSPost2010Prop35
280
     0
102
RTVSPost2010PropOp35
 70
     1
102
RTVSPost2010Prop36
280
     0
102
RTVSPost2010PropOp36
 70
     1
102
RTVSPost2010Prop37
 90
       50
102
RTVSPost2010PropOp37
 70
     1
102
RTVSPost2010Prop38
140
0.0
102
RTVSPost2010PropOp38
 70
     1
102
RTVSPost2010Prop39
140
1.0
102
RTVSPost2010PropOp39
 70
     1
102
RTVSPost2010Prop40
 90
        0
102
RTVSPost2010PropOp40
 70
     1
102
RTVSPost2010Prop41ColorIndex
 90
       18
102
RTVSPost2010Prop41ColorRGB
 90
        0
102
RTVSPost2010PropOp41
 70
     1
102
RTVSPost2010Prop42
 90
       50
102
RTVSPost2010PropOp42
 70
     1
102
RTVSPost2010Prop43
 90
        3
102
RTVSPost2010PropOp43
 70
     1
102
RTVSPost2010Prop44ColorIndex
 90
        5
102
RTVSPost2010Prop44ColorRGB
 90
      255
102
RTVSPost2010PropOp44
 70
     1
102
RTVSPost2010Prop45
280
     0
102
RTVSPost2010PropOp45
 70
     1
102
RTVSPost2010Prop46
 90
       50
102
RTVSPost2010PropOp46
 70
     1
102
RTVSPost2010Prop47
 90
       50
102
RTVSPost2010PropOp47
 70
     1
102
RTVSPost2010Prop48
 90
       50
102
RTVSPost2010PropOp48
 70
     1
102
RTVSPost2010Prop49
280
     0
102
RTVSPost2010PropOp49
 70
     1
102
RTVSPost2010Prop50
 90
       50
102
RTVSPost2010PropOp50
 70
     1
102
RTVSPost2010Prop51ColorIndex
 90
      256
102
RTVSPost2010Prop51ColorRGB
 90
-16777216
102
RTVSPost2010PropOp51
 70
     0
102
RTVSPost2010Prop52
140
1.0
102
RTVSPost2010PropOp52
 70
     0
102
RTVSPost2010Prop53
 90
        2
102
RTVSPost2010PropOp53
 70
     1
102
RTVSPost2010Prop54
  1
strokes_ogs.tif
102
RTVSPost2010PropOp54
 70
     1
102
RTVSPost2010Prop55
280
     0
102
RTVSPost2010PropOp55
 70
     1
102
RTVSPost2010Prop56
140
1.0
102
RTVSPost2010PropOp56
 70
     1
102
RTVSPost2010Prop57
140
1.0
102
RTVSPost2010PropOp57
 70
     1
102
RTVSPropertyOp0
 70
     1
102
RTVSPropertyOp1
 70
     1
102
RTVSPropertyOp2
 70
     1
102
RTVSPropertyOp3
 70
     1
102
RTVSPropertyOp4
 70
     1
102
RTVSPropertyOp5
 70
     1
102
RTVSPropertyOp6
 70
     1
102
RTVSPropertyOp7
 70
     1
102
RTVSPropertyOp8
 70
     1
102
RTVSPropertyOp9
 70
     1
102
RTVSPropertyOp10
 70
     1
102
RTVSPropertyOp11
 70
     1
102
RTVSPropertyOp12
 70
     1
102
RTVSPropertyOp13
 70
     1
102
RTVSPropertyOp14
 70
     1
102
RTVSPropertyOp15
 70
     1
102
RTVSPropertyOp16
 70
     1
102
RTVSPropertyOp17
 70
     1
102
RTVSPropertyOp18
 70
     1
102
RTVSPropertyOp19
 70
     1
102
RTVSPropertyOp20
 70
     1
102
RTVSPropertyOp21
 70
     1
102
RTVSPropertyOp22
 70
     1
102
RTVSPropertyOp23
 70
     1
102
RTVSPropertyOp24
 70
     1
102
RTVSPropertyOp25
 70
     1
102
RTVSPropertyOp26
 70
     1
102
RTVSPropertyOp27
 70
     1
102
RTVSPropertyOp28
 70
     1
102
RTVSPropertyOp29
 70
     1
102
RTVSPropertyOp30
 70
     1
102
RTVSPropertyOp31
 70
     1
102
RTVSPropertyOp32
 70
     1
102
RTVSPropertyOp33
 70
     1
102
RTVSPropertyOp34
 70
     1
102
RTVSPropertyOp35
 70
     1
102
RTVSPropertyOp36
 70
     1
102
RTVSPropertyOp37
 70
     1
102
RTVSPropertyOp38
 70
     1
102
RTVSPropertyOp39
 70
     1
102
RTVSPropertyOp40
 70
     1
102
RTVSPropertyOp41
 70
     1
102
RTVSPropertyOp42
 70
     1
102
RTVSPropertyOp43
 70
     1
102
RTVSPropertyOp44
 70
     1
102
RTVSPropertyOp45
 70
     1
102
RTVSPropertyOp46
 70
     1
102
RTVSPropertyOp47
 70
     1
102
RTVSPropertyOp48
 70
     1
102
RTVSPropertyOp49
 70
     1
102
RTVSPropertyOp50
 70
     1
102
RTVSPropertyOp51
 70
     0
102
RTVSPropertyOp52
 70
     0
102
RTVSPropertyOp53
 70
     1
102
RTVSPropertyOp54
 70
     1
102
RTVSPropertyOp55
 70
     1
102
RTVSPropertyOp56
 70
     1
102
RTVSPropertyOp57
 70
     1
102
RTVSPropertyOp58
 70
     1
102
RTVSPropertyOp59
 70
     1
102
RTVSPropertyOp60
 70
     1
102
RTVSPropertyOp61
 70
     1
102
RTVSPropertyOp62
 70
     1
  0
XRECORD
  5
1DA3
102
{ACAD_REACTORS
330
1DA2
102
}
330
1DA2
100
AcDbXrecord
280
     1
102
RTVSPost2010Prop28
280
     0
102
RTVSPost2010PropOp28
 70
     1
102
RTVSPost2010Prop29
280
     1
102
RTVSPost2010PropOp29
 70
     1
102
RTVSPost2010Prop30
280
     1
102
RTVSPost2010PropOp30
 70
     1
102
RTVSPost2010Prop31
280
     0
102
RTVSPost2010PropOp31
 70
     1
102
RTVSPost2010Prop32
280
     0
102
RTVSPost2010PropOp32
 70
     1
102
RTVSPost2010Prop33
280
     0
102
RTVSPost2010PropOp33
 70
     1
102
RTVSPost2010Prop34
280
     0
102
RTVSPost2010PropOp34
 70
     1
102
RTVSPost2010Prop35
280
     0
102
RTVSPost2010PropOp35
 70
     1
102
RTVSPost2010Prop36
280
     0
102
RTVSPost2010PropOp36
 70
     1
102
RTVSPost2010Prop37
 90
       50
102
RTVSPost2010PropOp37
 70
     1
102
RTVSPost2010Prop38
140
0.0
102
RTVSPost2010PropOp38
 70
     1
102
RTVSPost2010Prop39
140
1.0
102
RTVSPost2010PropOp39
 70
     1
102
RTVSPost2010Prop40
 90
        0
102
RTVSPost2010PropOp40
 70
     1
102
RTVSPost2010Prop41ColorIndex
 90
       18
102
RTVSPost2010Prop41ColorRGB
 90
        0
102
RTVSPost2010PropOp41
 70
     1
102
RTVSPost2010Prop42
 90
       50
102
RTVSPost2010PropOp42
 70
     1
102
RTVSPost2010Prop43
 90
        3
102
RTVSPost2010PropOp43
 70
     1
102
RTVSPost2010Prop44ColorIndex
 90
        5
102
RTVSPost2010Prop44ColorRGB
 90
      255
102
RTVSPost2010PropOp44
 70
     1
102
RTVSPost2010Prop45
280
     0
102
RTVSPost2010PropOp45
 70
     1
102
RTVSPost2010Prop46
 90
       50
102
RTVSPost2010PropOp46
 70
     1
102
RTVSPost2010Prop47
 90
       50
102
RTVSPost2010PropOp47
 70
     1
102
RTVSPost2010Prop48
 90
       50
102
RTVSPost2010PropOp48
 70
     1
102
RTVSPost2010Prop49
280
     0
102
RTVSPost2010PropOp49
 70
     1
102
RTVSPost2010Prop50
 90
       50
102
RTVSPost2010PropOp50
 70
     1
102
RTVSPost2010Prop51ColorIndex
 90
      256
102
RTVSPost2010Prop51ColorRGB
 90
-16777216
102
RTVSPost2010PropOp51
 70
     0
102
RTVSPost2010Prop52
140
1.0
102
RTVSPost2010PropOp52
 70
     0
102
RTVSPost2010Prop53
 90
        2
102
RTVSPost2010PropOp53
 70
     1
102
RTVSPost2010Prop54
  1
strokes_ogs.tif
102
RTVSPost2010PropOp54
 70
     1
102
RTVSPost2010Prop55
280
     0
102
RTVSPost2010PropOp55
 70
     1
102
RTVSPost2010Prop56
140
1.0
102
RTVSPost2010PropOp56
 70
     1
102
RTVSPost2010Prop57
140
1.0
102
RTVSPost2010PropOp57
 70
     1
102
RTVSPropertyOp0
 70
     1
102
RTVSPropertyOp1
 70
     1
102
RTVSPropertyOp2
 70
     1
102
RTVSPropertyOp3
 70
     1
102
RTVSPropertyOp4
 70
     1
102
RTVSPropertyOp5
 70
     1
102
RTVSPropertyOp6
 70
     1
102
RTVSPropertyOp7
 70
     1
102
RTVSPropertyOp8
 70
     1
102
RTVSPropertyOp9
 70
     1
102
RTVSPropertyOp10
 70
     1
102
RTVSPropertyOp11
 70
     1
102
RTVSPropertyOp12
 70
     1
102
RTVSPropertyOp13
 70
     1
102
RTVSPropertyOp14
 70
     1
102
RTVSPropertyOp15
 70
     1
102
RTVSPropertyOp16
 70
     1
102
RTVSPropertyOp17
 70
     1
102
RTVSPropertyOp18
 70
     1
102
RTVSPropertyOp19
 70
     1
102
RTVSPropertyOp20
 70
     1
102
RTVSPropertyOp21
 70
     1
102
RTVSPropertyOp22
 70
     1
102
RTVSPropertyOp23
 70
     1
102
RTVSPropertyOp24
 70
     1
102
RTVSPropertyOp25
 70
     1
102
RTVSPropertyOp26
 70
     1
102
RTVSPropertyOp27
 70
     1
102
RTVSPropertyOp28
 70
     1
102
RTVSPropertyOp29
 70
     1
102
RTVSPropertyOp30
 70
     1
102
RTVSPropertyOp31
 70
     1
102
RTVSPropertyOp32
 70
     1
102
RTVSPropertyOp33
 70
     1
102
RTVSPropertyOp34
 70
     1
102
RTVSPropertyOp35
 70
     1
102
RTVSPropertyOp36
 70
     1
102
RTVSPropertyOp37
 70
     1
102
RTVSPropertyOp38
 70
     1
102
RTVSPropertyOp39
 70
     1
102
RTVSPropertyOp40
 70
     1
102
RTVSPropertyOp41
 70
     1
102
RTVSPropertyOp42
 70
     1
102
RTVSPropertyOp43
 70
     1
102
RTVSPropertyOp44
 70
     1
102
RTVSPropertyOp45
 70
     1
102
RTVSPropertyOp46
 70
     1
102
RTVSPropertyOp47
 70
     1
102
RTVSPropertyOp48
 70
     1
102
RTVSPropertyOp49
 70
     1
102
RTVSPropertyOp50
 70
     1
102
RTVSPropertyOp51
 70
     0
102
RTVSPropertyOp52
 70
     0
102
RTVSPropertyOp53
 70
     1
102
RTVSPropertyOp54
 70
     1
102
RTVSPropertyOp55
 70
     1
102
RTVSPropertyOp56
 70
     1
102
RTVSPropertyOp57
 70
     1
102
RTVSPropertyOp58
 70
     1
102
RTVSPropertyOp59
 70
     1
102
RTVSPropertyOp60
 70
     1
102
RTVSPropertyOp61
 70
     1
102
RTVSPropertyOp62
 70
     1
  0
XRECORD
  5
1DAB
102
{ACAD_REACTORS
330
1DAA
102
}
330
1DAA
100
AcDbXrecord
280
     1
102
RTVSPost2010Prop28
280
     0
102
RTVSPost2010PropOp28
 70
     1
102
RTVSPost2010Prop29
280
     1
102
RTVSPost2010PropOp29
 70
     1
102
RTVSPost2010Prop30
280
     1
102
RTVSPost2010PropOp30
 70
     1
102
RTVSPost2010Prop31
280
     0
102
RTVSPost2010PropOp31
 70
     1
102
RTVSPost2010Prop32
280
     0
102
RTVSPost2010PropOp32
 70
     1
102
RTVSPost2010Prop33
280
     0
102
RTVSPost2010PropOp33
 70
     1
102
RTVSPost2010Prop34
280
     0
102
RTVSPost2010PropOp34
 70
     1
102
RTVSPost2010Prop35
280
     0
102
RTVSPost2010PropOp35
 70
     1
102
RTVSPost2010Prop36
280
     0
102
RTVSPost2010PropOp36
 70
     1
102
RTVSPost2010Prop37
 90
       50
102
RTVSPost2010PropOp37
 70
     1
102
RTVSPost2010Prop38
140
0.0
102
RTVSPost2010PropOp38
 70
     1
102
RTVSPost2010Prop39
140
1.0
102
RTVSPost2010PropOp39
 70
     1
102
RTVSPost2010Prop40
 90
        0
102
RTVSPost2010PropOp40
 70
     1
102
RTVSPost2010Prop41ColorIndex
 90
       18
102
RTVSPost2010Prop41ColorRGB
 90
        0
102
RTVSPost2010PropOp41
 70
     1
102
RTVSPost2010Prop42
 90
       50
102
RTVSPost2010PropOp42
 70
     1
102
RTVSPost2010Prop43
 90
        3
102
RTVSPost2010PropOp43
 70
     1
102
RTVSPost2010Prop44ColorIndex
 90
        5
102
RTVSPost2010Prop44ColorRGB
 90
      255
102
RTVSPost2010PropOp44
 70
     1
102
RTVSPost2010Prop45
280
     0
102
RTVSPost2010PropOp45
 70
     1
102
RTVSPost2010Prop46
 90
       50
102
RTVSPost2010PropOp46
 70
     1
102
RTVSPost2010Prop47
 90
       50
102
RTVSPost2010PropOp47
 70
     1
102
RTVSPost2010Prop48
 90
       50
102
RTVSPost2010PropOp48
 70
     1
102
RTVSPost2010Prop49
280
     0
102
RTVSPost2010PropOp49
 70
     1
102
RTVSPost2010Prop50
 90
       50
102
RTVSPost2010PropOp50
 70
     1
102
RTVSPost2010Prop51ColorIndex
 90
      256
102
RTVSPost2010Prop51ColorRGB
 90
-16777216
102
RTVSPost2010PropOp51
 70
     0
102
RTVSPost2010Prop52
140
1.0
102
RTVSPost2010PropOp52
 70
     0
102
RTVSPost2010Prop53
 90
        2
102
RTVSPost2010PropOp53
 70
     1
102
RTVSPost2010Prop54
  1
strokes_ogs.tif
102
RTVSPost2010PropOp54
 70
     1
102
RTVSPost2010Prop55
280
     0
102
RTVSPost2010PropOp55
 70
     1
102
RTVSPost2010Prop56
140
1.0
102
RTVSPost2010PropOp56
 70
     1
102
RTVSPost2010Prop57
140
1.0
102
RTVSPost2010PropOp57
 70
     1
102
RTVSPropertyOp0
 70
     1
102
RTVSPropertyOp1
 70
     1
102
RTVSPropertyOp2
 70
     1
102
RTVSPropertyOp3
 70
     1
102
RTVSPropertyOp4
 70
     1
102
RTVSPropertyOp5
 70
     1
102
RTVSPropertyOp6
 70
     1
102
RTVSPropertyOp7
 70
     1
102
RTVSPropertyOp8
 70
     1
102
RTVSPropertyOp9
 70
     1
102
RTVSPropertyOp10
 70
     1
102
RTVSPropertyOp11
 70
     1
102
RTVSPropertyOp12
 70
     1
102
RTVSPropertyOp13
 70
     1
102
RTVSPropertyOp14
 70
     1
102
RTVSPropertyOp15
 70
     1
102
RTVSPropertyOp16
 70
     1
102
RTVSPropertyOp17
 70
     1
102
RTVSPropertyOp18
 70
     1
102
RTVSPropertyOp19
 70
     1
102
RTVSPropertyOp20
 70
     1
102
RTVSPropertyOp21
 70
     1
102
RTVSPropertyOp22
 70
     1
102
RTVSPropertyOp23
 70
     1
102
RTVSPropertyOp24
 70
     1
102
RTVSPropertyOp25
 70
     1
102
RTVSPropertyOp26
 70
     1
102
RTVSPropertyOp27
 70
     1
102
RTVSPropertyOp28
 70
     1
102
RTVSPropertyOp29
 70
     1
102
RTVSPropertyOp30
 70
     1
102
RTVSPropertyOp31
 70
     1
102
RTVSPropertyOp32
 70
     1
102
RTVSPropertyOp33
 70
     1
102
RTVSPropertyOp34
 70
     1
102
RTVSPropertyOp35
 70
     1
102
RTVSPropertyOp36
 70
     1
102
RTVSPropertyOp37
 70
     1
102
RTVSPropertyOp38
 70
     1
102
RTVSPropertyOp39
 70
     1
102
RTVSPropertyOp40
 70
     1
102
RTVSPropertyOp41
 70
     1
102
RTVSPropertyOp42
 70
     1
102
RTVSPropertyOp43
 70
     1
102
RTVSPropertyOp44
 70
     1
102
RTVSPropertyOp45
 70
     1
102
RTVSPropertyOp46
 70
     1
102
RTVSPropertyOp47
 70
     1
102
RTVSPropertyOp48
 70
     1
102
RTVSPropertyOp49
 70
     1
102
RTVSPropertyOp50
 70
     1
102
RTVSPropertyOp51
 70
     0
102
RTVSPropertyOp52
 70
     0
102
RTVSPropertyOp53
 70
     1
102
RTVSPropertyOp54
 70
     1
102
RTVSPropertyOp55
 70
     1
102
RTVSPropertyOp56
 70
     1
102
RTVSPropertyOp57
 70
     1
102
RTVSPropertyOp58
 70
     1
102
RTVSPropertyOp59
 70
     1
102
RTVSPropertyOp60
 70
     1
102
RTVSPropertyOp61
 70
     1
102
RTVSPropertyOp62
 70
     1
  0
XRECORD
  5
1D9D
102
{ACAD_REACTORS
330
1D9C
102
}
330
1D9C
100
AcDbXrecord
280
     1
102
RTVSPost2010Prop28
280
     0
102
RTVSPost2010PropOp28
 70
     1
102
RTVSPost2010Prop29
280
     1
102
RTVSPost2010PropOp29
 70
     1
102
RTVSPost2010Prop30
280
     1
102
RTVSPost2010PropOp30
 70
     1
102
RTVSPost2010Prop31
280
     0
102
RTVSPost2010PropOp31
 70
     1
102
RTVSPost2010Prop32
280
     0
102
RTVSPost2010PropOp32
 70
     1
102
RTVSPost2010Prop33
280
     0
102
RTVSPost2010PropOp33
 70
     1
102
RTVSPost2010Prop34
280
     0
102
RTVSPost2010PropOp34
 70
     1
102
RTVSPost2010Prop35
280
     0
102
RTVSPost2010PropOp35
 70
     1
102
RTVSPost2010Prop36
280
     0
102
RTVSPost2010PropOp36
 70
     1
102
RTVSPost2010Prop37
 90
       50
102
RTVSPost2010PropOp37
 70
     1
102
RTVSPost2010Prop38
140
0.0
102
RTVSPost2010PropOp38
 70
     1
102
RTVSPost2010Prop39
140
1.0
102
RTVSPost2010PropOp39
 70
     1
102
RTVSPost2010Prop40
 90
        0
102
RTVSPost2010PropOp40
 70
     1
102
RTVSPost2010Prop41ColorIndex
 90
       18
102
RTVSPost2010Prop41ColorRGB
 90
        0
102
RTVSPost2010PropOp41
 70
     1
102
RTVSPost2010Prop42
 90
       50
102
RTVSPost2010PropOp42
 70
     1
102
RTVSPost2010Prop43
 90
        3
102
RTVSPost2010PropOp43
 70
     1
102
RTVSPost2010Prop44ColorIndex
 90
        5
102
RTVSPost2010Prop44ColorRGB
 90
      255
102
RTVSPost2010PropOp44
 70
     1
102
RTVSPost2010Prop45
280
     0
102
RTVSPost2010PropOp45
 70
     1
102
RTVSPost2010Prop46
 90
       50
102
RTVSPost2010PropOp46
 70
     1
102
RTVSPost2010Prop47
 90
       50
102
RTVSPost2010PropOp47
 70
     1
102
RTVSPost2010Prop48
 90
       50
102
RTVSPost2010PropOp48
 70
     1
102
RTVSPost2010Prop49
280
     0
102
RTVSPost2010PropOp49
 70
     1
102
RTVSPost2010Prop50
 90
       50
102
RTVSPost2010PropOp50
 70
     1
102
RTVSPost2010Prop51ColorIndex
 90
      256
102
RTVSPost2010Prop51ColorRGB
 90
-16777216
102
RTVSPost2010PropOp51
 70
     0
102
RTVSPost2010Prop52
140
1.0
102
RTVSPost2010PropOp52
 70
     0
102
RTVSPost2010Prop53
 90
        2
102
RTVSPost2010PropOp53
 70
     1
102
RTVSPost2010Prop54
  1
strokes_ogs.tif
102
RTVSPost2010PropOp54
 70
     1
102
RTVSPost2010Prop55
280
     0
102
RTVSPost2010PropOp55
 70
     1
102
RTVSPost2010Prop56
140
1.0
102
RTVSPost2010PropOp56
 70
     1
102
RTVSPost2010Prop57
140
1.0
102
RTVSPost2010PropOp57
 70
     1
102
RTVSPropertyOp0
 70
     1
102
RTVSPropertyOp1
 70
     1
102
RTVSPropertyOp2
 70
     1
102
RTVSPropertyOp3
 70
     1
102
RTVSPropertyOp4
 70
     1
102
RTVSPropertyOp5
 70
     1
102
RTVSPropertyOp6
 70
     1
102
RTVSPropertyOp7
 70
     1
102
RTVSPropertyOp8
 70
     1
102
RTVSPropertyOp9
 70
     1
102
RTVSPropertyOp10
 70
     1
102
RTVSPropertyOp11
 70
     1
102
RTVSPropertyOp12
 70
     1
102
RTVSPropertyOp13
 70
     1
102
RTVSPropertyOp14
 70
     1
102
RTVSPropertyOp15
 70
     1
102
RTVSPropertyOp16
 70
     1
102
RTVSPropertyOp17
 70
     1
102
RTVSPropertyOp18
 70
     1
102
RTVSPropertyOp19
 70
     1
102
RTVSPropertyOp20
 70
     1
102
RTVSPropertyOp21
 70
     1
102
RTVSPropertyOp22
 70
     1
102
RTVSPropertyOp23
 70
     1
102
RTVSPropertyOp24
 70
     1
102
RTVSPropertyOp25
 70
     1
102
RTVSPropertyOp26
 70
     1
102
RTVSPropertyOp27
 70
     1
102
RTVSPropertyOp28
 70
     1
102
RTVSPropertyOp29
 70
     1
102
RTVSPropertyOp30
 70
     1
102
RTVSPropertyOp31
 70
     1
102
RTVSPropertyOp32
 70
     1
102
RTVSPropertyOp33
 70
     1
102
RTVSPropertyOp34
 70
     1
102
RTVSPropertyOp35
 70
     1
102
RTVSPropertyOp36
 70
     1
102
RTVSPropertyOp37
 70
     1
102
RTVSPropertyOp38
 70
     1
102
RTVSPropertyOp39
 70
     1
102
RTVSPropertyOp40
 70
     1
102
RTVSPropertyOp41
 70
     1
102
RTVSPropertyOp42
 70
     1
102
RTVSPropertyOp43
 70
     1
102
RTVSPropertyOp44
 70
     1
102
RTVSPropertyOp45
 70
     1
102
RTVSPropertyOp46
 70
     1
102
RTVSPropertyOp47
 70
     1
102
RTVSPropertyOp48
 70
     1
102
RTVSPropertyOp49
 70
     1
102
RTVSPropertyOp50
 70
     1
102
RTVSPropertyOp51
 70
     0
102
RTVSPropertyOp52
 70
     0
102
RTVSPropertyOp53
 70
     1
102
RTVSPropertyOp54
 70
     1
102
RTVSPropertyOp55
 70
     1
102
RTVSPropertyOp56
 70
     1
102
RTVSPropertyOp57
 70
     1
102
RTVSPropertyOp58
 70
     1
102
RTVSPropertyOp59
 70
     1
102
RTVSPropertyOp60
 70
     1
102
RTVSPropertyOp61
 70
     1
102
RTVSPropertyOp62
 70
     1
  0
XRECORD
  5
1DA1
102
{ACAD_REACTORS
330
1DA0
102
}
330
1DA0
100
AcDbXrecord
280
     1
102
RTVSPost2010Prop28
280
     0
102
RTVSPost2010PropOp28
 70
     1
102
RTVSPost2010Prop29
280
     1
102
RTVSPost2010PropOp29
 70
     1
102
RTVSPost2010Prop30
280
     1
102
RTVSPost2010PropOp30
 70
     1
102
RTVSPost2010Prop31
280
     0
102
RTVSPost2010PropOp31
 70
     1
102
RTVSPost2010Prop32
280
     0
102
RTVSPost2010PropOp32
 70
     1
102
RTVSPost2010Prop33
280
     0
102
RTVSPost2010PropOp33
 70
     1
102
RTVSPost2010Prop34
280
     0
102
RTVSPost2010PropOp34
 70
     1
102
RTVSPost2010Prop35
280
     0
102
RTVSPost2010PropOp35
 70
     1
102
RTVSPost2010Prop36
280
     0
102
RTVSPost2010PropOp36
 70
     1
102
RTVSPost2010Prop37
 90
       50
102
RTVSPost2010PropOp37
 70
     1
102
RTVSPost2010Prop38
140
0.0
102
RTVSPost2010PropOp38
 70
     1
102
RTVSPost2010Prop39
140
1.0
102
RTVSPost2010PropOp39
 70
     1
102
RTVSPost2010Prop40
 90
        0
102
RTVSPost2010PropOp40
 70
     1
102
RTVSPost2010Prop41ColorIndex
 90
       18
102
RTVSPost2010Prop41ColorRGB
 90
        0
102
RTVSPost2010PropOp41
 70
     1
102
RTVSPost2010Prop42
 90
       50
102
RTVSPost2010PropOp42
 70
     1
102
RTVSPost2010Prop43
 90
        3
102
RTVSPost2010PropOp43
 70
     1
102
RTVSPost2010Prop44ColorIndex
 90
        5
102
RTVSPost2010Prop44ColorRGB
 90
      255
102
RTVSPost2010PropOp44
 70
     1
102
RTVSPost2010Prop45
280
     0
102
RTVSPost2010PropOp45
 70
     1
102
RTVSPost2010Prop46
 90
       50
102
RTVSPost2010PropOp46
 70
     1
102
RTVSPost2010Prop47
 90
       50
102
RTVSPost2010PropOp47
 70
     1
102
RTVSPost2010Prop48
 90
       50
102
RTVSPost2010PropOp48
 70
     1
102
RTVSPost2010Prop49
280
     0
102
RTVSPost2010PropOp49
 70
     1
102
RTVSPost2010Prop50
 90
       50
102
RTVSPost2010PropOp50
 70
     1
102
RTVSPost2010Prop51ColorIndex
 90
      256
102
RTVSPost2010Prop51ColorRGB
 90
-16777216
102
RTVSPost2010PropOp51
 70
     0
102
RTVSPost2010Prop52
140
1.0
102
RTVSPost2010PropOp52
 70
     0
102
RTVSPost2010Prop53
 90
        2
102
RTVSPost2010PropOp53
 70
     1
102
RTVSPost2010Prop54
  1
strokes_ogs.tif
102
RTVSPost2010PropOp54
 70
     1
102
RTVSPost2010Prop55
280
     0
102
RTVSPost2010PropOp55
 70
     1
102
RTVSPost2010Prop56
140
1.0
102
RTVSPost2010PropOp56
 70
     1
102
RTVSPost2010Prop57
140
1.0
102
RTVSPost2010PropOp57
 70
     1
102
RTVSPropertyOp0
 70
     1
102
RTVSPropertyOp1
 70
     1
102
RTVSPropertyOp2
 70
     1
102
RTVSPropertyOp3
 70
     1
102
RTVSPropertyOp4
 70
     1
102
RTVSPropertyOp5
 70
     1
102
RTVSPropertyOp6
 70
     1
102
RTVSPropertyOp7
 70
     1
102
RTVSPropertyOp8
 70
     1
102
RTVSPropertyOp9
 70
     1
102
RTVSPropertyOp10
 70
     1
102
RTVSPropertyOp11
 70
     1
102
RTVSPropertyOp12
 70
     1
102
RTVSPropertyOp13
 70
     1
102
RTVSPropertyOp14
 70
     1
102
RTVSPropertyOp15
 70
     1
102
RTVSPropertyOp16
 70
     1
102
RTVSPropertyOp17
 70
     1
102
RTVSPropertyOp18
 70
     1
102
RTVSPropertyOp19
 70
     1
102
RTVSPropertyOp20
 70
     1
102
RTVSPropertyOp21
 70
     1
102
RTVSPropertyOp22
 70
     1
102
RTVSPropertyOp23
 70
     1
102
RTVSPropertyOp24
 70
     1
102
RTVSPropertyOp25
 70
     1
102
RTVSPropertyOp26
 70
     1
102
RTVSPropertyOp27
 70
     1
102
RTVSPropertyOp28
 70
     1
102
RTVSPropertyOp29
 70
     1
102
RTVSPropertyOp30
 70
     1
102
RTVSPropertyOp31
 70
     1
102
RTVSPropertyOp32
 70
     1
102
RTVSPropertyOp33
 70
     1
102
RTVSPropertyOp34
 70
     1
102
RTVSPropertyOp35
 70
     1
102
RTVSPropertyOp36
 70
     1
102
RTVSPropertyOp37
 70
     1
102
RTVSPropertyOp38
 70
     1
102
RTVSPropertyOp39
 70
     1
102
RTVSPropertyOp40
 70
     1
102
RTVSPropertyOp41
 70
     1
102
RTVSPropertyOp42
 70
     1
102
RTVSPropertyOp43
 70
     1
102
RTVSPropertyOp44
 70
     1
102
RTVSPropertyOp45
 70
     1
102
RTVSPropertyOp46
 70
     1
102
RTVSPropertyOp47
 70
     1
102
RTVSPropertyOp48
 70
     1
102
RTVSPropertyOp49
 70
     1
102
RTVSPropertyOp50
 70
     1
102
RTVSPropertyOp51
 70
     0
102
RTVSPropertyOp52
 70
     0
102
RTVSPropertyOp53
 70
     1
102
RTVSPropertyOp54
 70
     1
102
RTVSPropertyOp55
 70
     1
102
RTVSPropertyOp56
 70
     1
102
RTVSPropertyOp57
 70
     1
102
RTVSPropertyOp58
 70
     1
102
RTVSPropertyOp59
 70
     1
102
RTVSPropertyOp60
 70
     1
102
RTVSPropertyOp61
 70
     1
102
RTVSPropertyOp62
 70
     1
  0
XRECORD
  5
1DBB
102
{ACAD_REACTORS
330
1DBA
102
}
330
1DBA
100
AcDbXrecord
280
     1
102
RTVSPost2010Prop28
280
     0
102
RTVSPost2010PropOp28
 70
     1
102
RTVSPost2010Prop29
280
     1
102
RTVSPost2010PropOp29
 70
     1
102
RTVSPost2010Prop30
280
     1
102
RTVSPost2010PropOp30
 70
     1
102
RTVSPost2010Prop31
280
     0
102
RTVSPost2010PropOp31
 70
     1
102
RTVSPost2010Prop32
280
     0
102
RTVSPost2010PropOp32
 70
     1
102
RTVSPost2010Prop33
280
     0
102
RTVSPost2010PropOp33
 70
     1
102
RTVSPost2010Prop34
280
     0
102
RTVSPost2010PropOp34
 70
     1
102
RTVSPost2010Prop35
280
     0
102
RTVSPost2010PropOp35
 70
     1
102
RTVSPost2010Prop36
280
     0
102
RTVSPost2010PropOp36
 70
     1
102
RTVSPost2010Prop37
 90
       50
102
RTVSPost2010PropOp37
 70
     0
102
RTVSPost2010Prop38
140
0.0
102
RTVSPost2010PropOp38
 70
     0
102
RTVSPost2010Prop39
140
1.0
102
RTVSPost2010PropOp39
 70
     0
102
RTVSPost2010Prop40
 90
        0
102
RTVSPost2010PropOp40
 70
     0
102
RTVSPost2010Prop41ColorIndex
 90
       18
102
RTVSPost2010Prop41ColorRGB
 90
        0
102
RTVSPost2010PropOp41
 70
     0
102
RTVSPost2010Prop42
 90
       50
102
RTVSPost2010PropOp42
 70
     0
102
RTVSPost2010Prop43
 90
        3
102
RTVSPost2010PropOp43
 70
     0
102
RTVSPost2010Prop44ColorIndex
 90
        5
102
RTVSPost2010Prop44ColorRGB
 90
      255
102
RTVSPost2010PropOp44
 70
     0
102
RTVSPost2010Prop45
280
     0
102
RTVSPost2010PropOp45
 70
     1
102
RTVSPost2010Prop46
 90
       50
102
RTVSPost2010PropOp46
 70
     0
102
RTVSPost2010Prop47
 90
       50
102
RTVSPost2010PropOp47
 70
     0
102
RTVSPost2010Prop48
 90
       50
102
RTVSPost2010PropOp48
 70
     0
102
RTVSPost2010Prop49
280
     0
102
RTVSPost2010PropOp49
 70
     1
102
RTVSPost2010Prop50
 90
       50
102
RTVSPost2010PropOp50
 70
     0
102
RTVSPost2010Prop51ColorIndex
 90
      256
102
RTVSPost2010Prop51ColorRGB
 90
-16777216
102
RTVSPost2010PropOp51
 70
     0
102
RTVSPost2010Prop52
140
1.0
102
RTVSPost2010PropOp52
 70
     0
102
RTVSPost2010Prop53
 90
        2
102
RTVSPost2010PropOp53
 70
     0
102
RTVSPost2010Prop54
  1
strokes_ogs.tif
102
RTVSPost2010PropOp54
 70
     0
102
RTVSPost2010Prop55
280
     0
102
RTVSPost2010PropOp55
 70
     1
102
RTVSPost2010Prop56
140
1.0
102
RTVSPost2010PropOp56
 70
     0
102
RTVSPost2010Prop57
140
1.0
102
RTVSPost2010PropOp57
 70
     0
102
RTVSPropertyOp0
 70
     0
102
RTVSPropertyOp1
 70
     0
102
RTVSPropertyOp2
 70
     0
102
RTVSPropertyOp3
 70
     0
102
RTVSPropertyOp4
 70
     0
102
RTVSPropertyOp5
 70
     0
102
RTVSPropertyOp6
 70
     0
102
RTVSPropertyOp7
 70
     0
102
RTVSPropertyOp8
 70
     0
102
RTVSPropertyOp9
 70
     0
102
RTVSPropertyOp10
 70
     0
102
RTVSPropertyOp11
 70
     0
102
RTVSPropertyOp12
 70
     0
102
RTVSPropertyOp13
 70
     0
102
RTVSPropertyOp14
 70
     2
102
RTVSPropertyOp15
 70
     0
102
RTVSPropertyOp16
 70
     0
102
RTVSPropertyOp17
 70
     0
102
RTVSPropertyOp18
 70
     0
102
RTVSPropertyOp19
 70
     0
102
RTVSPropertyOp20
 70
     0
102
RTVSPropertyOp21
 70
     0
102
RTVSPropertyOp22
 70
     0
102
RTVSPropertyOp23
 70
     0
102
RTVSPropertyOp24
 70
     0
102
RTVSPropertyOp25
 70
     0
102
RTVSPropertyOp26
 70
     0
102
RTVSPropertyOp27
 70
     0
102
RTVSPropertyOp28
 70
     1
102
RTVSPropertyOp29
 70
     1
102
RTVSPropertyOp30
 70
     1
102
RTVSPropertyOp31
 70
     1
102
RTVSPropertyOp32
 70
     1
102
RTVSPropertyOp33
 70
     1
102
RTVSPropertyOp34
 70
     1
102
RTVSPropertyOp35
 70
     1
102
RTVSPropertyOp36
 70
     1
102
RTVSPropertyOp37
 70
     0
102
RTVSPropertyOp38
 70
     0
102
RTVSPropertyOp39
 70
     0
102
RTVSPropertyOp40
 70
     0
102
RTVSPropertyOp41
 70
     0
102
RTVSPropertyOp42
 70
     0
102
RTVSPropertyOp43
 70
     0
102
RTVSPropertyOp44
 70
     0
102
RTVSPropertyOp45
 70
     1
102
RTVSPropertyOp46
 70
     0
102
RTVSPropertyOp47
 70
     0
102
RTVSPropertyOp48
 70
     0
102
RTVSPropertyOp49
 70
     1
102
RTVSPropertyOp50
 70
     0
102
RTVSPropertyOp51
 70
     0
102
RTVSPropertyOp52
 70
     0
102
RTVSPropertyOp53
 70
     0
102
RTVSPropertyOp54
 70
     0
102
RTVSPropertyOp55
 70
     1
102
RTVSPropertyOp56
 70
     0
102
RTVSPropertyOp57
 70
     0
102
RTVSPropertyOp58
 70
     0
102
RTVSPropertyOp59
 70
     0
102
RTVSPropertyOp60
 70
     0
102
RTVSPropertyOp61
 70
     0
102
RTVSPropertyOp62
 70
     0
  0
XRECORD
  5
1DA9
102
{ACAD_REACTORS
330
1DA8
102
}
330
1DA8
100
AcDbXrecord
280
     1
102
RTVSPost2010Prop28
280
     0
102
RTVSPost2010PropOp28
 70
     1
102
RTVSPost2010Prop29
280
     1
102
RTVSPost2010PropOp29
 70
     1
102
RTVSPost2010Prop30
280
     1
102
RTVSPost2010PropOp30
 70
     1
102
RTVSPost2010Prop31
280
     0
102
RTVSPost2010PropOp31
 70
     1
102
RTVSPost2010Prop32
280
     0
102
RTVSPost2010PropOp32
 70
     1
102
RTVSPost2010Prop33
280
     0
102
RTVSPost2010PropOp33
 70
     1
102
RTVSPost2010Prop34
280
     0
102
RTVSPost2010PropOp34
 70
     1
102
RTVSPost2010Prop35
280
     0
102
RTVSPost2010PropOp35
 70
     1
102
RTVSPost2010Prop36
280
     0
102
RTVSPost2010PropOp36
 70
     1
102
RTVSPost2010Prop37
 90
       50
102
RTVSPost2010PropOp37
 70
     1
102
RTVSPost2010Prop38
140
0.0
102
RTVSPost2010PropOp38
 70
     1
102
RTVSPost2010Prop39
140
1.0
102
RTVSPost2010PropOp39
 70
     1
102
RTVSPost2010Prop40
 90
        0
102
RTVSPost2010PropOp40
 70
     1
102
RTVSPost2010Prop41ColorIndex
 90
       18
102
RTVSPost2010Prop41ColorRGB
 90
        0
102
RTVSPost2010PropOp41
 70
     1
102
RTVSPost2010Prop42
 90
       50
102
RTVSPost2010PropOp42
 70
     1
102
RTVSPost2010Prop43
 90
        3
102
RTVSPost2010PropOp43
 70
     1
102
RTVSPost2010Prop44ColorIndex
 90
        5
102
RTVSPost2010Prop44ColorRGB
 90
      255
102
RTVSPost2010PropOp44
 70
     1
102
RTVSPost2010Prop45
280
     0
102
RTVSPost2010PropOp45
 70
     1
102
RTVSPost2010Prop46
 90
       50
102
RTVSPost2010PropOp46
 70
     1
102
RTVSPost2010Prop47
 90
       50
102
RTVSPost2010PropOp47
 70
     1
102
RTVSPost2010Prop48
 90
       50
102
RTVSPost2010PropOp48
 70
     1
102
RTVSPost2010Prop49
280
     0
102
RTVSPost2010PropOp49
 70
     1
102
RTVSPost2010Prop50
 90
       50
102
RTVSPost2010PropOp50
 70
     1
102
RTVSPost2010Prop51ColorIndex
 90
      256
102
RTVSPost2010Prop51ColorRGB
 90
-16777216
102
RTVSPost2010PropOp51
 70
     0
102
RTVSPost2010Prop52
140
1.0
102
RTVSPost2010PropOp52
 70
     0
102
RTVSPost2010Prop53
 90
        2
102
RTVSPost2010PropOp53
 70
     1
102
RTVSPost2010Prop54
  1
strokes_ogs.tif
102
RTVSPost2010PropOp54
 70
     1
102
RTVSPost2010Prop55
280
     0
102
RTVSPost2010PropOp55
 70
     1
102
RTVSPost2010Prop56
140
1.0
102
RTVSPost2010PropOp56
 70
     1
102
RTVSPost2010Prop57
140
1.0
102
RTVSPost2010PropOp57
 70
     1
102
RTVSPropertyOp0
 70
     1
102
RTVSPropertyOp1
 70
     1
102
RTVSPropertyOp2
 70
     1
102
RTVSPropertyOp3
 70
     1
102
RTVSPropertyOp4
 70
     1
102
RTVSPropertyOp5
 70
     1
102
RTVSPropertyOp6
 70
     1
102
RTVSPropertyOp7
 70
     1
102
RTVSPropertyOp8
 70
     1
102
RTVSPropertyOp9
 70
     1
102
RTVSPropertyOp10
 70
     1
102
RTVSPropertyOp11
 70
     1
102
RTVSPropertyOp12
 70
     1
102
RTVSPropertyOp13
 70
     1
102
RTVSPropertyOp14
 70
     1
102
RTVSPropertyOp15
 70
     1
102
RTVSPropertyOp16
 70
     1
102
RTVSPropertyOp17
 70
     1
102
RTVSPropertyOp18
 70
     1
102
RTVSPropertyOp19
 70
     1
102
RTVSPropertyOp20
 70
     1
102
RTVSPropertyOp21
 70
     1
102
RTVSPropertyOp22
 70
     1
102
RTVSPropertyOp23
 70
     1
102
RTVSPropertyOp24
 70
     1
102
RTVSPropertyOp25
 70
     1
102
RTVSPropertyOp26
 70
     1
102
RTVSPropertyOp27
 70
     1
102
RTVSPropertyOp28
 70
     1
102
RTVSPropertyOp29
 70
     1
102
RTVSPropertyOp30
 70
     1
102
RTVSPropertyOp31
 70
     1
102
RTVSPropertyOp32
 70
     1
102
RTVSPropertyOp33
 70
     1
102
RTVSPropertyOp34
 70
     1
102
RTVSPropertyOp35
 70
     1
102
RTVSPropertyOp36
 70
     1
102
RTVSPropertyOp37
 70
     1
102
RTVSPropertyOp38
 70
     1
102
RTVSPropertyOp39
 70
     1
102
RTVSPropertyOp40
 70
     1
102
RTVSPropertyOp41
 70
     1
102
RTVSPropertyOp42
 70
     1
102
RTVSPropertyOp43
 70
     1
102
RTVSPropertyOp44
 70
     1
102
RTVSPropertyOp45
 70
     1
102
RTVSPropertyOp46
 70
     1
102
RTVSPropertyOp47
 70
     1
102
RTVSPropertyOp48
 70
     1
102
RTVSPropertyOp49
 70
     1
102
RTVSPropertyOp50
 70
     1
102
RTVSPropertyOp51
 70
     0
102
RTVSPropertyOp52
 70
     0
102
RTVSPropertyOp53
 70
     1
102
RTVSPropertyOp54
 70
     1
102
RTVSPropertyOp55
 70
     1
102
RTVSPropertyOp56
 70
     1
102
RTVSPropertyOp57
 70
     1
102
RTVSPropertyOp58
 70
     1
102
RTVSPropertyOp59
 70
     1
102
RTVSPropertyOp60
 70
     1
102
RTVSPropertyOp61
 70
     1
102
RTVSPropertyOp62
 70
     1
  0
XRECORD
  5
1D8D
102
{ACAD_REACTORS
330
1D8C
102
}
330
1D8C
100
AcDbXrecord
280
     1
102
RTVSPost2010Prop28
280
     0
102
RTVSPost2010PropOp28
 70
     1
102
RTVSPost2010Prop29
280
     1
102
RTVSPost2010PropOp29
 70
     1
102
RTVSPost2010Prop30
280
     1
102
RTVSPost2010PropOp30
 70
     1
102
RTVSPost2010Prop31
280
     0
102
RTVSPost2010PropOp31
 70
     1
102
RTVSPost2010Prop32
280
     0
102
RTVSPost2010PropOp32
 70
     1
102
RTVSPost2010Prop33
280
     0
102
RTVSPost2010PropOp33
 70
     1
102
RTVSPost2010Prop34
280
     0
102
RTVSPost2010PropOp34
 70
     1
102
RTVSPost2010Prop35
280
     0
102
RTVSPost2010PropOp35
 70
     1
102
RTVSPost2010Prop36
280
     0
102
RTVSPost2010PropOp36
 70
     1
102
RTVSPost2010Prop37
 90
       50
102
RTVSPost2010PropOp37
 70
     1
102
RTVSPost2010Prop38
140
0.0
102
RTVSPost2010PropOp38
 70
     1
102
RTVSPost2010Prop39
140
1.0
102
RTVSPost2010PropOp39
 70
     1
102
RTVSPost2010Prop40
 90
        0
102
RTVSPost2010PropOp40
 70
     1
102
RTVSPost2010Prop41ColorIndex
 90
       18
102
RTVSPost2010Prop41ColorRGB
 90
        0
102
RTVSPost2010PropOp41
 70
     1
102
RTVSPost2010Prop42
 90
       50
102
RTVSPost2010PropOp42
 70
     1
102
RTVSPost2010Prop43
 90
        3
102
RTVSPost2010PropOp43
 70
     1
102
RTVSPost2010Prop44ColorIndex
 90
        5
102
RTVSPost2010Prop44ColorRGB
 90
      255
102
RTVSPost2010PropOp44
 70
     1
102
RTVSPost2010Prop45
280
     0
102
RTVSPost2010PropOp45
 70
     1
102
RTVSPost2010Prop46
 90
       50
102
RTVSPost2010PropOp46
 70
     1
102
RTVSPost2010Prop47
 90
       50
102
RTVSPost2010PropOp47
 70
     1
102
RTVSPost2010Prop48
 90
       50
102
RTVSPost2010PropOp48
 70
     1
102
RTVSPost2010Prop49
280
     0
102
RTVSPost2010PropOp49
 70
     1
102
RTVSPost2010Prop50
 90
       50
102
RTVSPost2010PropOp50
 70
     1
102
RTVSPost2010Prop51ColorIndex
 90
      256
102
RTVSPost2010Prop51ColorRGB
 90
-16777216
102
RTVSPost2010PropOp51
 70
     0
102
RTVSPost2010Prop52
140
1.0
102
RTVSPost2010PropOp52
 70
     0
102
RTVSPost2010Prop53
 90
        2
102
RTVSPost2010PropOp53
 70
     1
102
RTVSPost2010Prop54
  1
strokes_ogs.tif
102
RTVSPost2010PropOp54
 70
     1
102
RTVSPost2010Prop55
280
     0
102
RTVSPost2010PropOp55
 70
     1
102
RTVSPost2010Prop56
140
1.0
102
RTVSPost2010PropOp56
 70
     1
102
RTVSPost2010Prop57
140
1.0
102
RTVSPost2010PropOp57
 70
     1
102
RTVSPropertyOp0
 70
     1
102
RTVSPropertyOp1
 70
     1
102
RTVSPropertyOp2
 70
     1
102
RTVSPropertyOp3
 70
     1
102
RTVSPropertyOp4
 70
     1
102
RTVSPropertyOp5
 70
     1
102
RTVSPropertyOp6
 70
     1
102
RTVSPropertyOp7
 70
     1
102
RTVSPropertyOp8
 70
     1
102
RTVSPropertyOp9
 70
     1
102
RTVSPropertyOp10
 70
     1
102
RTVSPropertyOp11
 70
     1
102
RTVSPropertyOp12
 70
     1
102
RTVSPropertyOp13
 70
     1
102
RTVSPropertyOp14
 70
     1
102
RTVSPropertyOp15
 70
     1
102
RTVSPropertyOp16
 70
     1
102
RTVSPropertyOp17
 70
     1
102
RTVSPropertyOp18
 70
     1
102
RTVSPropertyOp19
 70
     1
102
RTVSPropertyOp20
 70
     1
102
RTVSPropertyOp21
 70
     1
102
RTVSPropertyOp22
 70
     1
102
RTVSPropertyOp23
 70
     1
102
RTVSPropertyOp24
 70
     1
102
RTVSPropertyOp25
 70
     1
102
RTVSPropertyOp26
 70
     1
102
RTVSPropertyOp27
 70
     1
102
RTVSPropertyOp28
 70
     1
102
RTVSPropertyOp29
 70
     1
102
RTVSPropertyOp30
 70
     1
102
RTVSPropertyOp31
 70
     1
102
RTVSPropertyOp32
 70
     1
102
RTVSPropertyOp33
 70
     1
102
RTVSPropertyOp34
 70
     1
102
RTVSPropertyOp35
 70
     1
102
RTVSPropertyOp36
 70
     1
102
RTVSPropertyOp37
 70
     1
102
RTVSPropertyOp38
 70
     1
102
RTVSPropertyOp39
 70
     1
102
RTVSPropertyOp40
 70
     1
102
RTVSPropertyOp41
 70
     1
102
RTVSPropertyOp42
 70
     1
102
RTVSPropertyOp43
 70
     1
102
RTVSPropertyOp44
 70
     1
102
RTVSPropertyOp45
 70
     1
102
RTVSPropertyOp46
 70
     1
102
RTVSPropertyOp47
 70
     1
102
RTVSPropertyOp48
 70
     1
102
RTVSPropertyOp49
 70
     1
102
RTVSPropertyOp50
 70
     1
102
RTVSPropertyOp51
 70
     0
102
RTVSPropertyOp52
 70
     0
102
RTVSPropertyOp53
 70
     1
102
RTVSPropertyOp54
 70
     1
102
RTVSPropertyOp55
 70
     1
102
RTVSPropertyOp56
 70
     1
102
RTVSPropertyOp57
 70
     1
102
RTVSPropertyOp58
 70
     1
102
RTVSPropertyOp59
 70
     1
102
RTVSPropertyOp60
 70
     1
102
RTVSPropertyOp61
 70
     1
102
RTVSPropertyOp62
 70
     1
  0
XRECORD
  5
1D8F
102
{ACAD_REACTORS
330
1D8E
102
}
330
1D8E
100
AcDbXrecord
280
     1
102
RTVSPost2010Prop28
280
     0
102
RTVSPost2010PropOp28
 70
     1
102
RTVSPost2010Prop29
280
     1
102
RTVSPost2010PropOp29
 70
     1
102
RTVSPost2010Prop30
280
     1
102
RTVSPost2010PropOp30
 70
     1
102
RTVSPost2010Prop31
280
     0
102
RTVSPost2010PropOp31
 70
     1
102
RTVSPost2010Prop32
280
     0
102
RTVSPost2010PropOp32
 70
     1
102
RTVSPost2010Prop33
280
     0
102
RTVSPost2010PropOp33
 70
     1
102
RTVSPost2010Prop34
280
     0
102
RTVSPost2010PropOp34
 70
     1
102
RTVSPost2010Prop35
280
     0
102
RTVSPost2010PropOp35
 70
     1
102
RTVSPost2010Prop36
280
     0
102
RTVSPost2010PropOp36
 70
     1
102
RTVSPost2010Prop37
 90
       50
102
RTVSPost2010PropOp37
 70
     1
102
RTVSPost2010Prop38
140
0.0
102
RTVSPost2010PropOp38
 70
     1
102
RTVSPost2010Prop39
140
1.0
102
RTVSPost2010PropOp39
 70
     1
102
RTVSPost2010Prop40
 90
        0
102
RTVSPost2010PropOp40
 70
     1
102
RTVSPost2010Prop41ColorIndex
 90
       18
102
RTVSPost2010Prop41ColorRGB
 90
        0
102
RTVSPost2010PropOp41
 70
     1
102
RTVSPost2010Prop42
 90
       50
102
RTVSPost2010PropOp42
 70
     1
102
RTVSPost2010Prop43
 90
        3
102
RTVSPost2010PropOp43
 70
     1
102
RTVSPost2010Prop44ColorIndex
 90
        5
102
RTVSPost2010Prop44ColorRGB
 90
      255
102
RTVSPost2010PropOp44
 70
     1
102
RTVSPost2010Prop45
280
     0
102
RTVSPost2010PropOp45
 70
     1
102
RTVSPost2010Prop46
 90
       50
102
RTVSPost2010PropOp46
 70
     1
102
RTVSPost2010Prop47
 90
       50
102
RTVSPost2010PropOp47
 70
     1
102
RTVSPost2010Prop48
 90
       50
102
RTVSPost2010PropOp48
 70
     1
102
RTVSPost2010Prop49
280
     0
102
RTVSPost2010PropOp49
 70
     1
102
RTVSPost2010Prop50
 90
       50
102
RTVSPost2010PropOp50
 70
     1
102
RTVSPost2010Prop51ColorIndex
 90
      256
102
RTVSPost2010Prop51ColorRGB
 90
-16777216
102
RTVSPost2010PropOp51
 70
     0
102
RTVSPost2010Prop52
140
1.0
102
RTVSPost2010PropOp52
 70
     0
102
RTVSPost2010Prop53
 90
        2
102
RTVSPost2010PropOp53
 70
     1
102
RTVSPost2010Prop54
  1
strokes_ogs.tif
102
RTVSPost2010PropOp54
 70
     1
102
RTVSPost2010Prop55
280
     0
102
RTVSPost2010PropOp55
 70
     1
102
RTVSPost2010Prop56
140
1.0
102
RTVSPost2010PropOp56
 70
     1
102
RTVSPost2010Prop57
140
1.0
102
RTVSPost2010PropOp57
 70
     1
102
RTVSPropertyOp0
 70
     1
102
RTVSPropertyOp1
 70
     1
102
RTVSPropertyOp2
 70
     1
102
RTVSPropertyOp3
 70
     1
102
RTVSPropertyOp4
 70
     1
102
RTVSPropertyOp5
 70
     1
102
RTVSPropertyOp6
 70
     1
102
RTVSPropertyOp7
 70
     1
102
RTVSPropertyOp8
 70
     1
102
RTVSPropertyOp9
 70
     1
102
RTVSPropertyOp10
 70
     1
102
RTVSPropertyOp11
 70
     1
102
RTVSPropertyOp12
 70
     1
102
RTVSPropertyOp13
 70
     1
102
RTVSPropertyOp14
 70
     1
102
RTVSPropertyOp15
 70
     1
102
RTVSPropertyOp16
 70
     1
102
RTVSPropertyOp17
 70
     1
102
RTVSPropertyOp18
 70
     1
102
RTVSPropertyOp19
 70
     1
102
RTVSPropertyOp20
 70
     1
102
RTVSPropertyOp21
 70
     1
102
RTVSPropertyOp22
 70
     1
102
RTVSPropertyOp23
 70
     1
102
RTVSPropertyOp24
 70
     1
102
RTVSPropertyOp25
 70
     1
102
RTVSPropertyOp26
 70
     1
102
RTVSPropertyOp27
 70
     1
102
RTVSPropertyOp28
 70
     1
102
RTVSPropertyOp29
 70
     1
102
RTVSPropertyOp30
 70
     1
102
RTVSPropertyOp31
 70
     1
102
RTVSPropertyOp32
 70
     1
102
RTVSPropertyOp33
 70
     1
102
RTVSPropertyOp34
 70
     1
102
RTVSPropertyOp35
 70
     1
102
RTVSPropertyOp36
 70
     1
102
RTVSPropertyOp37
 70
     1
102
RTVSPropertyOp38
 70
     1
102
RTVSPropertyOp39
 70
     1
102
RTVSPropertyOp40
 70
     1
102
RTVSPropertyOp41
 70
     1
102
RTVSPropertyOp42
 70
     1
102
RTVSPropertyOp43
 70
     1
102
RTVSPropertyOp44
 70
     1
102
RTVSPropertyOp45
 70
     1
102
RTVSPropertyOp46
 70
     1
102
RTVSPropertyOp47
 70
     1
102
RTVSPropertyOp48
 70
     1
102
RTVSPropertyOp49
 70
     1
102
RTVSPropertyOp50
 70
     1
102
RTVSPropertyOp51
 70
     0
102
RTVSPropertyOp52
 70
     0
102
RTVSPropertyOp53
 70
     1
102
RTVSPropertyOp54
 70
     1
102
RTVSPropertyOp55
 70
     1
102
RTVSPropertyOp56
 70
     1
102
RTVSPropertyOp57
 70
     1
102
RTVSPropertyOp58
 70
     1
102
RTVSPropertyOp59
 70
     1
102
RTVSPropertyOp60
 70
     1
102
RTVSPropertyOp61
 70
     1
102
RTVSPropertyOp62
 70
     1
  0
XRECORD
  5
1D91
102
{ACAD_REACTORS
330
1D90
102
}
330
1D90
100
AcDbXrecord
280
     1
102
RTVSPost2010Prop28
280
     0
102
RTVSPost2010PropOp28
 70
     1
102
RTVSPost2010Prop29
280
     1
102
RTVSPost2010PropOp29
 70
     1
102
RTVSPost2010Prop30
280
     1
102
RTVSPost2010PropOp30
 70
     1
102
RTVSPost2010Prop31
280
     0
102
RTVSPost2010PropOp31
 70
     1
102
RTVSPost2010Prop32
280
     0
102
RTVSPost2010PropOp32
 70
     1
102
RTVSPost2010Prop33
280
     0
102
RTVSPost2010PropOp33
 70
     1
102
RTVSPost2010Prop34
280
     0
102
RTVSPost2010PropOp34
 70
     1
102
RTVSPost2010Prop35
280
     0
102
RTVSPost2010PropOp35
 70
     1
102
RTVSPost2010Prop36
280
     0
102
RTVSPost2010PropOp36
 70
     1
102
RTVSPost2010Prop37
 90
       50
102
RTVSPost2010PropOp37
 70
     1
102
RTVSPost2010Prop38
140
0.0
102
RTVSPost2010PropOp38
 70
     1
102
RTVSPost2010Prop39
140
1.0
102
RTVSPost2010PropOp39
 70
     1
102
RTVSPost2010Prop40
 90
        0
102
RTVSPost2010PropOp40
 70
     1
102
RTVSPost2010Prop41ColorIndex
 90
       18
102
RTVSPost2010Prop41ColorRGB
 90
        0
102
RTVSPost2010PropOp41
 70
     1
102
RTVSPost2010Prop42
 90
       50
102
RTVSPost2010PropOp42
 70
     1
102
RTVSPost2010Prop43
 90
        3
102
RTVSPost2010PropOp43
 70
     1
102
RTVSPost2010Prop44ColorIndex
 90
        5
102
RTVSPost2010Prop44ColorRGB
 90
      255
102
RTVSPost2010PropOp44
 70
     1
102
RTVSPost2010Prop45
280
     0
102
RTVSPost2010PropOp45
 70
     1
102
RTVSPost2010Prop46
 90
       50
102
RTVSPost2010PropOp46
 70
     1
102
RTVSPost2010Prop47
 90
       50
102
RTVSPost2010PropOp47
 70
     1
102
RTVSPost2010Prop48
 90
       50
102
RTVSPost2010PropOp48
 70
     1
102
RTVSPost2010Prop49
280
     0
102
RTVSPost2010PropOp49
 70
     1
102
RTVSPost2010Prop50
 90
       50
102
RTVSPost2010PropOp50
 70
     1
102
RTVSPost2010Prop51ColorIndex
 90
      256
102
RTVSPost2010Prop51ColorRGB
 90
-16777216
102
RTVSPost2010PropOp51
 70
     0
102
RTVSPost2010Prop52
140
1.0
102
RTVSPost2010PropOp52
 70
     0
102
RTVSPost2010Prop53
 90
        2
102
RTVSPost2010PropOp53
 70
     1
102
RTVSPost2010Prop54
  1
strokes_ogs.tif
102
RTVSPost2010PropOp54
 70
     1
102
RTVSPost2010Prop55
280
     0
102
RTVSPost2010PropOp55
 70
     1
102
RTVSPost2010Prop56
140
1.0
102
RTVSPost2010PropOp56
 70
     1
102
RTVSPost2010Prop57
140
1.0
102
RTVSPost2010PropOp57
 70
     1
102
RTVSPropertyOp0
 70
     1
102
RTVSPropertyOp1
 70
     1
102
RTVSPropertyOp2
 70
     1
102
RTVSPropertyOp3
 70
     1
102
RTVSPropertyOp4
 70
     1
102
RTVSPropertyOp5
 70
     1
102
RTVSPropertyOp6
 70
     1
102
RTVSPropertyOp7
 70
     1
102
RTVSPropertyOp8
 70
     1
102
RTVSPropertyOp9
 70
     1
102
RTVSPropertyOp10
 70
     1
102
RTVSPropertyOp11
 70
     1
102
RTVSPropertyOp12
 70
     1
102
RTVSPropertyOp13
 70
     1
102
RTVSPropertyOp14
 70
     1
102
RTVSPropertyOp15
 70
     1
102
RTVSPropertyOp16
 70
     1
102
RTVSPropertyOp17
 70
     1
102
RTVSPropertyOp18
 70
     1
102
RTVSPropertyOp19
 70
     1
102
RTVSPropertyOp20
 70
     1
102
RTVSPropertyOp21
 70
     1
102
RTVSPropertyOp22
 70
     1
102
RTVSPropertyOp23
 70
     1
102
RTVSPropertyOp24
 70
     1
102
RTVSPropertyOp25
 70
     1
102
RTVSPropertyOp26
 70
     1
102
RTVSPropertyOp27
 70
     1
102
RTVSPropertyOp28
 70
     1
102
RTVSPropertyOp29
 70
     1
102
RTVSPropertyOp30
 70
     1
102
RTVSPropertyOp31
 70
     1
102
RTVSPropertyOp32
 70
     1
102
RTVSPropertyOp33
 70
     1
102
RTVSPropertyOp34
 70
     1
102
RTVSPropertyOp35
 70
     1
102
RTVSPropertyOp36
 70
     1
102
RTVSPropertyOp37
 70
     1
102
RTVSPropertyOp38
 70
     1
102
RTVSPropertyOp39
 70
     1
102
RTVSPropertyOp40
 70
     1
102
RTVSPropertyOp41
 70
     1
102
RTVSPropertyOp42
 70
     1
102
RTVSPropertyOp43
 70
     1
102
RTVSPropertyOp44
 70
     1
102
RTVSPropertyOp45
 70
     1
102
RTVSPropertyOp46
 70
     1
102
RTVSPropertyOp47
 70
     1
102
RTVSPropertyOp48
 70
     1
102
RTVSPropertyOp49
 70
     1
102
RTVSPropertyOp50
 70
     1
102
RTVSPropertyOp51
 70
     0
102
RTVSPropertyOp52
 70
     0
102
RTVSPropertyOp53
 70
     1
102
RTVSPropertyOp54
 70
     1
102
RTVSPropertyOp55
 70
     1
102
RTVSPropertyOp56
 70
     1
102
RTVSPropertyOp57
 70
     1
102
RTVSPropertyOp58
 70
     1
102
RTVSPropertyOp59
 70
     1
102
RTVSPropertyOp60
 70
     1
102
RTVSPropertyOp61
 70
     1
102
RTVSPropertyOp62
 70
     1
  0
XRECORD
  5
1D93
102
{ACAD_REACTORS
330
1D92
102
}
330
1D92
100
AcDbXrecord
280
     1
102
RTVSPost2010Prop28
280
     0
102
RTVSPost2010PropOp28
 70
     1
102
RTVSPost2010Prop29
280
     1
102
RTVSPost2010PropOp29
 70
     1
102
RTVSPost2010Prop30
280
     1
102
RTVSPost2010PropOp30
 70
     1
102
RTVSPost2010Prop31
280
     0
102
RTVSPost2010PropOp31
 70
     1
102
RTVSPost2010Prop32
280
     0
102
RTVSPost2010PropOp32
 70
     1
102
RTVSPost2010Prop33
280
     0
102
RTVSPost2010PropOp33
 70
     1
102
RTVSPost2010Prop34
280
     0
102
RTVSPost2010PropOp34
 70
     1
102
RTVSPost2010Prop35
280
     0
102
RTVSPost2010PropOp35
 70
     1
102
RTVSPost2010Prop36
280
     0
102
RTVSPost2010PropOp36
 70
     1
102
RTVSPost2010Prop37
 90
       50
102
RTVSPost2010PropOp37
 70
     1
102
RTVSPost2010Prop38
140
0.0
102
RTVSPost2010PropOp38
 70
     1
102
RTVSPost2010Prop39
140
1.0
102
RTVSPost2010PropOp39
 70
     1
102
RTVSPost2010Prop40
 90
        0
102
RTVSPost2010PropOp40
 70
     1
102
RTVSPost2010Prop41ColorIndex
 90
       18
102
RTVSPost2010Prop41ColorRGB
 90
        0
102
RTVSPost2010PropOp41
 70
     1
102
RTVSPost2010Prop42
 90
       50
102
RTVSPost2010PropOp42
 70
     1
102
RTVSPost2010Prop43
 90
        3
102
RTVSPost2010PropOp43
 70
     1
102
RTVSPost2010Prop44ColorIndex
 90
        5
102
RTVSPost2010Prop44ColorRGB
 90
      255
102
RTVSPost2010PropOp44
 70
     1
102
RTVSPost2010Prop45
280
     0
102
RTVSPost2010PropOp45
 70
     1
102
RTVSPost2010Prop46
 90
       50
102
RTVSPost2010PropOp46
 70
     1
102
RTVSPost2010Prop47
 90
       50
102
RTVSPost2010PropOp47
 70
     1
102
RTVSPost2010Prop48
 90
       50
102
RTVSPost2010PropOp48
 70
     1
102
RTVSPost2010Prop49
280
     0
102
RTVSPost2010PropOp49
 70
     1
102
RTVSPost2010Prop50
 90
       50
102
RTVSPost2010PropOp50
 70
     1
102
RTVSPost2010Prop51ColorIndex
 90
      256
102
RTVSPost2010Prop51ColorRGB
 90
-16777216
102
RTVSPost2010PropOp51
 70
     0
102
RTVSPost2010Prop52
140
1.0
102
RTVSPost2010PropOp52
 70
     0
102
RTVSPost2010Prop53
 90
        2
102
RTVSPost2010PropOp53
 70
     1
102
RTVSPost2010Prop54
  1
strokes_ogs.tif
102
RTVSPost2010PropOp54
 70
     1
102
RTVSPost2010Prop55
280
     0
102
RTVSPost2010PropOp55
 70
     1
102
RTVSPost2010Prop56
140
1.0
102
RTVSPost2010PropOp56
 70
     1
102
RTVSPost2010Prop57
140
1.0
102
RTVSPost2010PropOp57
 70
     1
102
RTVSPropertyOp0
 70
     1
102
RTVSPropertyOp1
 70
     1
102
RTVSPropertyOp2
 70
     1
102
RTVSPropertyOp3
 70
     1
102
RTVSPropertyOp4
 70
     1
102
RTVSPropertyOp5
 70
     1
102
RTVSPropertyOp6
 70
     1
102
RTVSPropertyOp7
 70
     1
102
RTVSPropertyOp8
 70
     1
102
RTVSPropertyOp9
 70
     1
102
RTVSPropertyOp10
 70
     1
102
RTVSPropertyOp11
 70
     1
102
RTVSPropertyOp12
 70
     1
102
RTVSPropertyOp13
 70
     1
102
RTVSPropertyOp14
 70
     1
102
RTVSPropertyOp15
 70
     1
102
RTVSPropertyOp16
 70
     1
102
RTVSPropertyOp17
 70
     1
102
RTVSPropertyOp18
 70
     1
102
RTVSPropertyOp19
 70
     1
102
RTVSPropertyOp20
 70
     1
102
RTVSPropertyOp21
 70
     1
102
RTVSPropertyOp22
 70
     1
102
RTVSPropertyOp23
 70
     1
102
RTVSPropertyOp24
 70
     1
102
RTVSPropertyOp25
 70
     1
102
RTVSPropertyOp26
 70
     1
102
RTVSPropertyOp27
 70
     1
102
RTVSPropertyOp28
 70
     1
102
RTVSPropertyOp29
 70
     1
102
RTVSPropertyOp30
 70
     1
102
RTVSPropertyOp31
 70
     1
102
RTVSPropertyOp32
 70
     1
102
RTVSPropertyOp33
 70
     1
102
RTVSPropertyOp34
 70
     1
102
RTVSPropertyOp35
 70
     1
102
RTVSPropertyOp36
 70
     1
102
RTVSPropertyOp37
 70
     1
102
RTVSPropertyOp38
 70
     1
102
RTVSPropertyOp39
 70
     1
102
RTVSPropertyOp40
 70
     1
102
RTVSPropertyOp41
 70
     1
102
RTVSPropertyOp42
 70
     1
102
RTVSPropertyOp43
 70
     1
102
RTVSPropertyOp44
 70
     1
102
RTVSPropertyOp45
 70
     1
102
RTVSPropertyOp46
 70
     1
102
RTVSPropertyOp47
 70
     1
102
RTVSPropertyOp48
 70
     1
102
RTVSPropertyOp49
 70
     1
102
RTVSPropertyOp50
 70
     1
102
RTVSPropertyOp51
 70
     0
102
RTVSPropertyOp52
 70
     0
102
RTVSPropertyOp53
 70
     1
102
RTVSPropertyOp54
 70
     1
102
RTVSPropertyOp55
 70
     1
102
RTVSPropertyOp56
 70
     1
102
RTVSPropertyOp57
 70
     1
102
RTVSPropertyOp58
 70
     1
102
RTVSPropertyOp59
 70
     1
102
RTVSPropertyOp60
 70
     1
102
RTVSPropertyOp61
 70
     1
102
RTVSPropertyOp62
 70
     1
  0
XRECORD
  5
1D9B
102
{ACAD_REACTORS
330
1D9A
102
}
330
1D9A
100
AcDbXrecord
280
     1
102
RTVSPost2010Prop28
280
     0
102
RTVSPost2010PropOp28
 70
     1
102
RTVSPost2010Prop29
280
     1
102
RTVSPost2010PropOp29
 70
     1
102
RTVSPost2010Prop30
280
     1
102
RTVSPost2010PropOp30
 70
     1
102
RTVSPost2010Prop31
280
     0
102
RTVSPost2010PropOp31
 70
     1
102
RTVSPost2010Prop32
280
     0
102
RTVSPost2010PropOp32
 70
     1
102
RTVSPost2010Prop33
280
     0
102
RTVSPost2010PropOp33
 70
     1
102
RTVSPost2010Prop34
280
     0
102
RTVSPost2010PropOp34
 70
     1
102
RTVSPost2010Prop35
280
     0
102
RTVSPost2010PropOp35
 70
     1
102
RTVSPost2010Prop36
280
     0
102
RTVSPost2010PropOp36
 70
     1
102
RTVSPost2010Prop37
 90
       50
102
RTVSPost2010PropOp37
 70
     1
102
RTVSPost2010Prop38
140
0.0
102
RTVSPost2010PropOp38
 70
     1
102
RTVSPost2010Prop39
140
1.0
102
RTVSPost2010PropOp39
 70
     1
102
RTVSPost2010Prop40
 90
        0
102
RTVSPost2010PropOp40
 70
     1
102
RTVSPost2010Prop41ColorIndex
 90
       18
102
RTVSPost2010Prop41ColorRGB
 90
        0
102
RTVSPost2010PropOp41
 70
     1
102
RTVSPost2010Prop42
 90
       50
102
RTVSPost2010PropOp42
 70
     1
102
RTVSPost2010Prop43
 90
        3
102
RTVSPost2010PropOp43
 70
     1
102
RTVSPost2010Prop44ColorIndex
 90
        5
102
RTVSPost2010Prop44ColorRGB
 90
      255
102
RTVSPost2010PropOp44
 70
     1
102
RTVSPost2010Prop45
280
     0
102
RTVSPost2010PropOp45
 70
     1
102
RTVSPost2010Prop46
 90
       50
102
RTVSPost2010PropOp46
 70
     1
102
RTVSPost2010Prop47
 90
       50
102
RTVSPost2010PropOp47
 70
     1
102
RTVSPost2010Prop48
 90
       50
102
RTVSPost2010PropOp48
 70
     1
102
RTVSPost2010Prop49
280
     0
102
RTVSPost2010PropOp49
 70
     1
102
RTVSPost2010Prop50
 90
       50
102
RTVSPost2010PropOp50
 70
     1
102
RTVSPost2010Prop51ColorIndex
 90
      256
102
RTVSPost2010Prop51ColorRGB
 90
-16777216
102
RTVSPost2010PropOp51
 70
     0
102
RTVSPost2010Prop52
140
1.0
102
RTVSPost2010PropOp52
 70
     0
102
RTVSPost2010Prop53
 90
        2
102
RTVSPost2010PropOp53
 70
     1
102
RTVSPost2010Prop54
  1
strokes_ogs.tif
102
RTVSPost2010PropOp54
 70
     1
102
RTVSPost2010Prop55
280
     0
102
RTVSPost2010PropOp55
 70
     1
102
RTVSPost2010Prop56
140
1.0
102
RTVSPost2010PropOp56
 70
     1
102
RTVSPost2010Prop57
140
1.0
102
RTVSPost2010PropOp57
 70
     1
102
RTVSPropertyOp0
 70
     1
102
RTVSPropertyOp1
 70
     1
102
RTVSPropertyOp2
 70
     1
102
RTVSPropertyOp3
 70
     1
102
RTVSPropertyOp4
 70
     1
102
RTVSPropertyOp5
 70
     1
102
RTVSPropertyOp6
 70
     1
102
RTVSPropertyOp7
 70
     1
102
RTVSPropertyOp8
 70
     1
102
RTVSPropertyOp9
 70
     1
102
RTVSPropertyOp10
 70
     1
102
RTVSPropertyOp11
 70
     1
102
RTVSPropertyOp12
 70
     1
102
RTVSPropertyOp13
 70
     1
102
RTVSPropertyOp14
 70
     1
102
RTVSPropertyOp15
 70
     1
102
RTVSPropertyOp16
 70
     1
102
RTVSPropertyOp17
 70
     1
102
RTVSPropertyOp18
 70
     1
102
RTVSPropertyOp19
 70
     1
102
RTVSPropertyOp20
 70
     1
102
RTVSPropertyOp21
 70
     1
102
RTVSPropertyOp22
 70
     1
102
RTVSPropertyOp23
 70
     1
102
RTVSPropertyOp24
 70
     1
102
RTVSPropertyOp25
 70
     1
102
RTVSPropertyOp26
 70
     1
102
RTVSPropertyOp27
 70
     1
102
RTVSPropertyOp28
 70
     1
102
RTVSPropertyOp29
 70
     1
102
RTVSPropertyOp30
 70
     1
102
RTVSPropertyOp31
 70
     1
102
RTVSPropertyOp32
 70
     1
102
RTVSPropertyOp33
 70
     1
102
RTVSPropertyOp34
 70
     1
102
RTVSPropertyOp35
 70
     1
102
RTVSPropertyOp36
 70
     1
102
RTVSPropertyOp37
 70
     1
102
RTVSPropertyOp38
 70
     1
102
RTVSPropertyOp39
 70
     1
102
RTVSPropertyOp40
 70
     1
102
RTVSPropertyOp41
 70
     1
102
RTVSPropertyOp42
 70
     1
102
RTVSPropertyOp43
 70
     1
102
RTVSPropertyOp44
 70
     1
102
RTVSPropertyOp45
 70
     1
102
RTVSPropertyOp46
 70
     1
102
RTVSPropertyOp47
 70
     1
102
RTVSPropertyOp48
 70
     1
102
RTVSPropertyOp49
 70
     1
102
RTVSPropertyOp50
 70
     1
102
RTVSPropertyOp51
 70
     0
102
RTVSPropertyOp52
 70
     0
102
RTVSPropertyOp53
 70
     1
102
RTVSPropertyOp54
 70
     1
102
RTVSPropertyOp55
 70
     1
102
RTVSPropertyOp56
 70
     1
102
RTVSPropertyOp57
 70
     1
102
RTVSPropertyOp58
 70
     1
102
RTVSPropertyOp59
 70
     1
102
RTVSPropertyOp60
 70
     1
102
RTVSPropertyOp61
 70
     1
102
RTVSPropertyOp62
 70
     1
  0
XRECORD
  5
1DB7
102
{ACAD_REACTORS
330
1DB6
102
}
330
1DB6
100
AcDbXrecord
280
     1
102
RTVSPost2010Prop28
280
     0
102
RTVSPost2010PropOp28
 70
     1
102
RTVSPost2010Prop29
280
     1
102
RTVSPost2010PropOp29
 70
     1
102
RTVSPost2010Prop30
280
     1
102
RTVSPost2010PropOp30
 70
     1
102
RTVSPost2010Prop31
280
     0
102
RTVSPost2010PropOp31
 70
     1
102
RTVSPost2010Prop32
280
     0
102
RTVSPost2010PropOp32
 70
     1
102
RTVSPost2010Prop33
280
     0
102
RTVSPost2010PropOp33
 70
     1
102
RTVSPost2010Prop34
280
     0
102
RTVSPost2010PropOp34
 70
     1
102
RTVSPost2010Prop35
280
     0
102
RTVSPost2010PropOp35
 70
     1
102
RTVSPost2010Prop36
280
     0
102
RTVSPost2010PropOp36
 70
     1
102
RTVSPost2010Prop37
 90
       50
102
RTVSPost2010PropOp37
 70
     0
102
RTVSPost2010Prop38
140
0.0
102
RTVSPost2010PropOp38
 70
     0
102
RTVSPost2010Prop39
140
1.0
102
RTVSPost2010PropOp39
 70
     0
102
RTVSPost2010Prop40
 90
        0
102
RTVSPost2010PropOp40
 70
     0
102
RTVSPost2010Prop41ColorIndex
 90
       18
102
RTVSPost2010Prop41ColorRGB
 90
        0
102
RTVSPost2010PropOp41
 70
     0
102
RTVSPost2010Prop42
 90
       50
102
RTVSPost2010PropOp42
 70
     0
102
RTVSPost2010Prop43
 90
        3
102
RTVSPost2010PropOp43
 70
     0
102
RTVSPost2010Prop44ColorIndex
 90
        5
102
RTVSPost2010Prop44ColorRGB
 90
      255
102
RTVSPost2010PropOp44
 70
     0
102
RTVSPost2010Prop45
280
     0
102
RTVSPost2010PropOp45
 70
     1
102
RTVSPost2010Prop46
 90
       50
102
RTVSPost2010PropOp46
 70
     0
102
RTVSPost2010Prop47
 90
       50
102
RTVSPost2010PropOp47
 70
     0
102
RTVSPost2010Prop48
 90
       50
102
RTVSPost2010PropOp48
 70
     0
102
RTVSPost2010Prop49
280
     0
102
RTVSPost2010PropOp49
 70
     1
102
RTVSPost2010Prop50
 90
       50
102
RTVSPost2010PropOp50
 70
     0
102
RTVSPost2010Prop51ColorIndex
 90
      256
102
RTVSPost2010Prop51ColorRGB
 90
-16777216
102
RTVSPost2010PropOp51
 70
     0
102
RTVSPost2010Prop52
140
1.0
102
RTVSPost2010PropOp52
 70
     0
102
RTVSPost2010Prop53
 90
        2
102
RTVSPost2010PropOp53
 70
     0
102
RTVSPost2010Prop54
  1
strokes_ogs.tif
102
RTVSPost2010PropOp54
 70
     0
102
RTVSPost2010Prop55
280
     0
102
RTVSPost2010PropOp55
 70
     1
102
RTVSPost2010Prop56
140
1.0
102
RTVSPost2010PropOp56
 70
     0
102
RTVSPost2010Prop57
140
1.0
102
RTVSPost2010PropOp57
 70
     0
102
RTVSPropertyOp0
 70
     0
102
RTVSPropertyOp1
 70
     0
102
RTVSPropertyOp2
 70
     0
102
RTVSPropertyOp3
 70
     0
102
RTVSPropertyOp4
 70
     0
102
RTVSPropertyOp5
 70
     0
102
RTVSPropertyOp6
 70
     0
102
RTVSPropertyOp7
 70
     0
102
RTVSPropertyOp8
 70
     0
102
RTVSPropertyOp9
 70
     0
102
RTVSPropertyOp10
 70
     0
102
RTVSPropertyOp11
 70
     0
102
RTVSPropertyOp12
 70
     0
102
RTVSPropertyOp13
 70
     0
102
RTVSPropertyOp14
 70
     2
102
RTVSPropertyOp15
 70
     0
102
RTVSPropertyOp16
 70
     0
102
RTVSPropertyOp17
 70
     0
102
RTVSPropertyOp18
 70
     0
102
RTVSPropertyOp19
 70
     0
102
RTVSPropertyOp20
 70
     0
102
RTVSPropertyOp21
 70
     0
102
RTVSPropertyOp22
 70
     0
102
RTVSPropertyOp23
 70
     0
102
RTVSPropertyOp24
 70
     0
102
RTVSPropertyOp25
 70
     0
102
RTVSPropertyOp26
 70
     0
102
RTVSPropertyOp27
 70
     0
102
RTVSPropertyOp28
 70
     1
102
RTVSPropertyOp29
 70
     1
102
RTVSPropertyOp30
 70
     1
102
RTVSPropertyOp31
 70
     1
102
RTVSPropertyOp32
 70
     1
102
RTVSPropertyOp33
 70
     1
102
RTVSPropertyOp34
 70
     1
102
RTVSPropertyOp35
 70
     1
102
RTVSPropertyOp36
 70
     1
102
RTVSPropertyOp37
 70
     0
102
RTVSPropertyOp38
 70
     0
102
RTVSPropertyOp39
 70
     0
102
RTVSPropertyOp40
 70
     0
102
RTVSPropertyOp41
 70
     0
102
RTVSPropertyOp42
 70
     0
102
RTVSPropertyOp43
 70
     0
102
RTVSPropertyOp44
 70
     0
102
RTVSPropertyOp45
 70
     1
102
RTVSPropertyOp46
 70
     0
102
RTVSPropertyOp47
 70
     0
102
RTVSPropertyOp48
 70
     0
102
RTVSPropertyOp49
 70
     1
102
RTVSPropertyOp50
 70
     0
102
RTVSPropertyOp51
 70
     0
102
RTVSPropertyOp52
 70
     0
102
RTVSPropertyOp53
 70
     0
102
RTVSPropertyOp54
 70
     0
102
RTVSPropertyOp55
 70
     1
102
RTVSPropertyOp56
 70
     0
102
RTVSPropertyOp57
 70
     0
102
RTVSPropertyOp58
 70
     0
102
RTVSPropertyOp59
 70
     0
102
RTVSPropertyOp60
 70
     0
102
RTVSPropertyOp61
 70
     0
102
RTVSPropertyOp62
 70
     0
  0
XRECORD
  5
1DA7
102
{ACAD_REACTORS
330
1DA6
102
}
330
1DA6
100
AcDbXrecord
280
     1
102
RTVSPost2010Prop28
280
     0
102
RTVSPost2010PropOp28
 70
     1
102
RTVSPost2010Prop29
280
     1
102
RTVSPost2010PropOp29
 70
     1
102
RTVSPost2010Prop30
280
     1
102
RTVSPost2010PropOp30
 70
     1
102
RTVSPost2010Prop31
280
     0
102
RTVSPost2010PropOp31
 70
     1
102
RTVSPost2010Prop32
280
     0
102
RTVSPost2010PropOp32
 70
     1
102
RTVSPost2010Prop33
280
     0
102
RTVSPost2010PropOp33
 70
     1
102
RTVSPost2010Prop34
280
     0
102
RTVSPost2010PropOp34
 70
     1
102
RTVSPost2010Prop35
280
     0
102
RTVSPost2010PropOp35
 70
     1
102
RTVSPost2010Prop36
280
     0
102
RTVSPost2010PropOp36
 70
     1
102
RTVSPost2010Prop37
 90
       50
102
RTVSPost2010PropOp37
 70
     1
102
RTVSPost2010Prop38
140
0.0
102
RTVSPost2010PropOp38
 70
     1
102
RTVSPost2010Prop39
140
1.0
102
RTVSPost2010PropOp39
 70
     1
102
RTVSPost2010Prop40
 90
        0
102
RTVSPost2010PropOp40
 70
     1
102
RTVSPost2010Prop41ColorIndex
 90
       18
102
RTVSPost2010Prop41ColorRGB
 90
        0
102
RTVSPost2010PropOp41
 70
     1
102
RTVSPost2010Prop42
 90
       50
102
RTVSPost2010PropOp42
 70
     1
102
RTVSPost2010Prop43
 90
        3
102
RTVSPost2010PropOp43
 70
     1
102
RTVSPost2010Prop44ColorIndex
 90
        5
102
RTVSPost2010Prop44ColorRGB
 90
      255
102
RTVSPost2010PropOp44
 70
     1
102
RTVSPost2010Prop45
280
     0
102
RTVSPost2010PropOp45
 70
     1
102
RTVSPost2010Prop46
 90
       50
102
RTVSPost2010PropOp46
 70
     1
102
RTVSPost2010Prop47
 90
       50
102
RTVSPost2010PropOp47
 70
     1
102
RTVSPost2010Prop48
 90
       50
102
RTVSPost2010PropOp48
 70
     1
102
RTVSPost2010Prop49
280
     0
102
RTVSPost2010PropOp49
 70
     1
102
RTVSPost2010Prop50
 90
       50
102
RTVSPost2010PropOp50
 70
     1
102
RTVSPost2010Prop51ColorIndex
 90
      256
102
RTVSPost2010Prop51ColorRGB
 90
-16777216
102
RTVSPost2010PropOp51
 70
     0
102
RTVSPost2010Prop52
140
1.0
102
RTVSPost2010PropOp52
 70
     0
102
RTVSPost2010Prop53
 90
        2
102
RTVSPost2010PropOp53
 70
     1
102
RTVSPost2010Prop54
  1
strokes_ogs.tif
102
RTVSPost2010PropOp54
 70
     1
102
RTVSPost2010Prop55
280
     0
102
RTVSPost2010PropOp55
 70
     1
102
RTVSPost2010Prop56
140
1.0
102
RTVSPost2010PropOp56
 70
     1
102
RTVSPost2010Prop57
140
1.0
102
RTVSPost2010PropOp57
 70
     1
102
RTVSPropertyOp0
 70
     1
102
RTVSPropertyOp1
 70
     1
102
RTVSPropertyOp2
 70
     1
102
RTVSPropertyOp3
 70
     1
102
RTVSPropertyOp4
 70
     1
102
RTVSPropertyOp5
 70
     1
102
RTVSPropertyOp6
 70
     1
102
RTVSPropertyOp7
 70
     1
102
RTVSPropertyOp8
 70
     1
102
RTVSPropertyOp9
 70
     1
102
RTVSPropertyOp10
 70
     1
102
RTVSPropertyOp11
 70
     1
102
RTVSPropertyOp12
 70
     1
102
RTVSPropertyOp13
 70
     1
102
RTVSPropertyOp14
 70
     1
102
RTVSPropertyOp15
 70
     1
102
RTVSPropertyOp16
 70
     1
102
RTVSPropertyOp17
 70
     1
102
RTVSPropertyOp18
 70
     1
102
RTVSPropertyOp19
 70
     1
102
RTVSPropertyOp20
 70
     1
102
RTVSPropertyOp21
 70
     1
102
RTVSPropertyOp22
 70
     1
102
RTVSPropertyOp23
 70
     1
102
RTVSPropertyOp24
 70
     1
102
RTVSPropertyOp25
 70
     1
102
RTVSPropertyOp26
 70
     1
102
RTVSPropertyOp27
 70
     1
102
RTVSPropertyOp28
 70
     1
102
RTVSPropertyOp29
 70
     1
102
RTVSPropertyOp30
 70
     1
102
RTVSPropertyOp31
 70
     1
102
RTVSPropertyOp32
 70
     1
102
RTVSPropertyOp33
 70
     1
102
RTVSPropertyOp34
 70
     1
102
RTVSPropertyOp35
 70
     1
102
RTVSPropertyOp36
 70
     1
102
RTVSPropertyOp37
 70
     1
102
RTVSPropertyOp38
 70
     1
102
RTVSPropertyOp39
 70
     1
102
RTVSPropertyOp40
 70
     1
102
RTVSPropertyOp41
 70
     1
102
RTVSPropertyOp42
 70
     1
102
RTVSPropertyOp43
 70
     1
102
RTVSPropertyOp44
 70
     1
102
RTVSPropertyOp45
 70
     1
102
RTVSPropertyOp46
 70
     1
102
RTVSPropertyOp47
 70
     1
102
RTVSPropertyOp48
 70
     1
102
RTVSPropertyOp49
 70
     1
102
RTVSPropertyOp50
 70
     1
102
RTVSPropertyOp51
 70
     0
102
RTVSPropertyOp52
 70
     0
102
RTVSPropertyOp53
 70
     1
102
RTVSPropertyOp54
 70
     1
102
RTVSPropertyOp55
 70
     1
102
RTVSPropertyOp56
 70
     1
102
RTVSPropertyOp57
 70
     1
102
RTVSPropertyOp58
 70
     1
102
RTVSPropertyOp59
 70
     1
102
RTVSPropertyOp60
 70
     1
102
RTVSPropertyOp61
 70
     1
102
RTVSPropertyOp62
 70
     1
  0
XRECORD
  5
1DB9
102
{ACAD_REACTORS
330
1DB8
102
}
330
1DB8
100
AcDbXrecord
280
     1
102
RTVSPost2010Prop28
280
     0
102
RTVSPost2010PropOp28
 70
     1
102
RTVSPost2010Prop29
280
     1
102
RTVSPost2010PropOp29
 70
     1
102
RTVSPost2010Prop30
280
     1
102
RTVSPost2010PropOp30
 70
     1
102
RTVSPost2010Prop31
280
     0
102
RTVSPost2010PropOp31
 70
     1
102
RTVSPost2010Prop32
280
     0
102
RTVSPost2010PropOp32
 70
     1
102
RTVSPost2010Prop33
280
     0
102
RTVSPost2010PropOp33
 70
     1
102
RTVSPost2010Prop34
280
     0
102
RTVSPost2010PropOp34
 70
     1
102
RTVSPost2010Prop35
280
     0
102
RTVSPost2010PropOp35
 70
     1
102
RTVSPost2010Prop36
280
     0
102
RTVSPost2010PropOp36
 70
     1
102
RTVSPost2010Prop37
 90
       50
102
RTVSPost2010PropOp37
 70
     0
102
RTVSPost2010Prop38
140
0.0
102
RTVSPost2010PropOp38
 70
     0
102
RTVSPost2010Prop39
140
1.0
102
RTVSPost2010PropOp39
 70
     0
102
RTVSPost2010Prop40
 90
        0
102
RTVSPost2010PropOp40
 70
     0
102
RTVSPost2010Prop41ColorIndex
 90
       18
102
RTVSPost2010Prop41ColorRGB
 90
        0
102
RTVSPost2010PropOp41
 70
     0
102
RTVSPost2010Prop42
 90
       50
102
RTVSPost2010PropOp42
 70
     0
102
RTVSPost2010Prop43
 90
        3
102
RTVSPost2010PropOp43
 70
     0
102
RTVSPost2010Prop44ColorIndex
 90
        5
102
RTVSPost2010Prop44ColorRGB
 90
      255
102
RTVSPost2010PropOp44
 70
     0
102
RTVSPost2010Prop45
280
     0
102
RTVSPost2010PropOp45
 70
     1
102
RTVSPost2010Prop46
 90
       50
102
RTVSPost2010PropOp46
 70
     0
102
RTVSPost2010Prop47
 90
       50
102
RTVSPost2010PropOp47
 70
     0
102
RTVSPost2010Prop48
 90
       50
102
RTVSPost2010PropOp48
 70
     0
102
RTVSPost2010Prop49
280
     0
102
RTVSPost2010PropOp49
 70
     1
102
RTVSPost2010Prop50
 90
       50
102
RTVSPost2010PropOp50
 70
     0
102
RTVSPost2010Prop51ColorIndex
 90
      256
102
RTVSPost2010Prop51ColorRGB
 90
-16777216
102
RTVSPost2010PropOp51
 70
     0
102
RTVSPost2010Prop52
140
1.0
102
RTVSPost2010PropOp52
 70
     0
102
RTVSPost2010Prop53
 90
        2
102
RTVSPost2010PropOp53
 70
     0
102
RTVSPost2010Prop54
  1
strokes_ogs.tif
102
RTVSPost2010PropOp54
 70
     0
102
RTVSPost2010Prop55
280
     0
102
RTVSPost2010PropOp55
 70
     1
102
RTVSPost2010Prop56
140
1.0
102
RTVSPost2010PropOp56
 70
     0
102
RTVSPost2010Prop57
140
1.0
102
RTVSPost2010PropOp57
 70
     0
102
RTVSPropertyOp0
 70
     0
102
RTVSPropertyOp1
 70
     0
102
RTVSPropertyOp2
 70
     0
102
RTVSPropertyOp3
 70
     0
102
RTVSPropertyOp4
 70
     0
102
RTVSPropertyOp5
 70
     0
102
RTVSPropertyOp6
 70
     0
102
RTVSPropertyOp7
 70
     0
102
RTVSPropertyOp8
 70
     0
102
RTVSPropertyOp9
 70
     0
102
RTVSPropertyOp10
 70
     0
102
RTVSPropertyOp11
 70
     0
102
RTVSPropertyOp12
 70
     0
102
RTVSPropertyOp13
 70
     0
102
RTVSPropertyOp14
 70
     2
102
RTVSPropertyOp15
 70
     0
102
RTVSPropertyOp16
 70
     0
102
RTVSPropertyOp17
 70
     0
102
RTVSPropertyOp18
 70
     0
102
RTVSPropertyOp19
 70
     0
102
RTVSPropertyOp20
 70
     0
102
RTVSPropertyOp21
 70
     0
102
RTVSPropertyOp22
 70
     0
102
RTVSPropertyOp23
 70
     0
102
RTVSPropertyOp24
 70
     0
102
RTVSPropertyOp25
 70
     0
102
RTVSPropertyOp26
 70
     0
102
RTVSPropertyOp27
 70
     0
102
RTVSPropertyOp28
 70
     1
102
RTVSPropertyOp29
 70
     1
102
RTVSPropertyOp30
 70
     1
102
RTVSPropertyOp31
 70
     1
102
RTVSPropertyOp32
 70
     1
102
RTVSPropertyOp33
 70
     1
102
RTVSPropertyOp34
 70
     1
102
RTVSPropertyOp35
 70
     1
102
RTVSPropertyOp36
 70
     1
102
RTVSPropertyOp37
 70
     0
102
RTVSPropertyOp38
 70
     0
102
RTVSPropertyOp39
 70
     0
102
RTVSPropertyOp40
 70
     0
102
RTVSPropertyOp41
 70
     0
102
RTVSPropertyOp42
 70
     0
102
RTVSPropertyOp43
 70
     0
102
RTVSPropertyOp44
 70
     0
102
RTVSPropertyOp45
 70
     1
102
RTVSPropertyOp46
 70
     0
102
RTVSPropertyOp47
 70
     0
102
RTVSPropertyOp48
 70
     0
102
RTVSPropertyOp49
 70
     1
102
RTVSPropertyOp50
 70
     0
102
RTVSPropertyOp51
 70
     0
102
RTVSPropertyOp52
 70
     0
102
RTVSPropertyOp53
 70
     0
102
RTVSPropertyOp54
 70
     0
102
RTVSPropertyOp55
 70
     1
102
RTVSPropertyOp56
 70
     0
102
RTVSPropertyOp57
 70
     0
102
RTVSPropertyOp58
 70
     0
102
RTVSPropertyOp59
 70
     0
102
RTVSPropertyOp60
 70
     0
102
RTVSPropertyOp61
 70
     0
102
RTVSPropertyOp62
 70
     0
  0
XRECORD
  5
1D9F
102
{ACAD_REACTORS
330
1D9E
102
}
330
1D9E
100
AcDbXrecord
280
     1
102
RTVSPost2010Prop28
280
     0
102
RTVSPost2010PropOp28
 70
     1
102
RTVSPost2010Prop29
280
     1
102
RTVSPost2010PropOp29
 70
     1
102
RTVSPost2010Prop30
280
     1
102
RTVSPost2010PropOp30
 70
     1
102
RTVSPost2010Prop31
280
     0
102
RTVSPost2010PropOp31
 70
     1
102
RTVSPost2010Prop32
280
     0
102
RTVSPost2010PropOp32
 70
     1
102
RTVSPost2010Prop33
280
     0
102
RTVSPost2010PropOp33
 70
     1
102
RTVSPost2010Prop34
280
     0
102
RTVSPost2010PropOp34
 70
     1
102
RTVSPost2010Prop35
280
     0
102
RTVSPost2010PropOp35
 70
     1
102
RTVSPost2010Prop36
280
     0
102
RTVSPost2010PropOp36
 70
     1
102
RTVSPost2010Prop37
 90
       50
102
RTVSPost2010PropOp37
 70
     1
102
RTVSPost2010Prop38
140
0.0
102
RTVSPost2010PropOp38
 70
     1
102
RTVSPost2010Prop39
140
1.0
102
RTVSPost2010PropOp39
 70
     1
102
RTVSPost2010Prop40
 90
        0
102
RTVSPost2010PropOp40
 70
     1
102
RTVSPost2010Prop41ColorIndex
 90
       18
102
RTVSPost2010Prop41ColorRGB
 90
        0
102
RTVSPost2010PropOp41
 70
     1
102
RTVSPost2010Prop42
 90
       50
102
RTVSPost2010PropOp42
 70
     1
102
RTVSPost2010Prop43
 90
        3
102
RTVSPost2010PropOp43
 70
     1
102
RTVSPost2010Prop44ColorIndex
 90
        5
102
RTVSPost2010Prop44ColorRGB
 90
      255
102
RTVSPost2010PropOp44
 70
     1
102
RTVSPost2010Prop45
280
     0
102
RTVSPost2010PropOp45
 70
     1
102
RTVSPost2010Prop46
 90
       50
102
RTVSPost2010PropOp46
 70
     1
102
RTVSPost2010Prop47
 90
       50
102
RTVSPost2010PropOp47
 70
     1
102
RTVSPost2010Prop48
 90
       50
102
RTVSPost2010PropOp48
 70
     1
102
RTVSPost2010Prop49
280
     0
102
RTVSPost2010PropOp49
 70
     1
102
RTVSPost2010Prop50
 90
       50
102
RTVSPost2010PropOp50
 70
     1
102
RTVSPost2010Prop51ColorIndex
 90
      256
102
RTVSPost2010Prop51ColorRGB
 90
-16777216
102
RTVSPost2010PropOp51
 70
     0
102
RTVSPost2010Prop52
140
1.0
102
RTVSPost2010PropOp52
 70
     0
102
RTVSPost2010Prop53
 90
        2
102
RTVSPost2010PropOp53
 70
     1
102
RTVSPost2010Prop54
  1
strokes_ogs.tif
102
RTVSPost2010PropOp54
 70
     1
102
RTVSPost2010Prop55
280
     0
102
RTVSPost2010PropOp55
 70
     1
102
RTVSPost2010Prop56
140
1.0
102
RTVSPost2010PropOp56
 70
     1
102
RTVSPost2010Prop57
140
1.0
102
RTVSPost2010PropOp57
 70
     1
102
RTVSPropertyOp0
 70
     1
102
RTVSPropertyOp1
 70
     1
102
RTVSPropertyOp2
 70
     1
102
RTVSPropertyOp3
 70
     1
102
RTVSPropertyOp4
 70
     1
102
RTVSPropertyOp5
 70
     1
102
RTVSPropertyOp6
 70
     1
102
RTVSPropertyOp7
 70
     1
102
RTVSPropertyOp8
 70
     1
102
RTVSPropertyOp9
 70
     1
102
RTVSPropertyOp10
 70
     1
102
RTVSPropertyOp11
 70
     1
102
RTVSPropertyOp12
 70
     1
102
RTVSPropertyOp13
 70
     1
102
RTVSPropertyOp14
 70
     1
102
RTVSPropertyOp15
 70
     1
102
RTVSPropertyOp16
 70
     1
102
RTVSPropertyOp17
 70
     1
102
RTVSPropertyOp18
 70
     1
102
RTVSPropertyOp19
 70
     1
102
RTVSPropertyOp20
 70
     1
102
RTVSPropertyOp21
 70
     1
102
RTVSPropertyOp22
 70
     1
102
RTVSPropertyOp23
 70
     1
102
RTVSPropertyOp24
 70
     1
102
RTVSPropertyOp25
 70
     1
102
RTVSPropertyOp26
 70
     1
102
RTVSPropertyOp27
 70
     1
102
RTVSPropertyOp28
 70
     1
102
RTVSPropertyOp29
 70
     1
102
RTVSPropertyOp30
 70
     1
102
RTVSPropertyOp31
 70
     1
102
RTVSPropertyOp32
 70
     1
102
RTVSPropertyOp33
 70
     1
102
RTVSPropertyOp34
 70
     1
102
RTVSPropertyOp35
 70
     1
102
RTVSPropertyOp36
 70
     1
102
RTVSPropertyOp37
 70
     1
102
RTVSPropertyOp38
 70
     1
102
RTVSPropertyOp39
 70
     1
102
RTVSPropertyOp40
 70
     1
102
RTVSPropertyOp41
 70
     1
102
RTVSPropertyOp42
 70
     1
102
RTVSPropertyOp43
 70
     1
102
RTVSPropertyOp44
 70
     1
102
RTVSPropertyOp45
 70
     1
102
RTVSPropertyOp46
 70
     1
102
RTVSPropertyOp47
 70
     1
102
RTVSPropertyOp48
 70
     1
102
RTVSPropertyOp49
 70
     1
102
RTVSPropertyOp50
 70
     1
102
RTVSPropertyOp51
 70
     0
102
RTVSPropertyOp52
 70
     0
102
RTVSPropertyOp53
 70
     1
102
RTVSPropertyOp54
 70
     1
102
RTVSPropertyOp55
 70
     1
102
RTVSPropertyOp56
 70
     1
102
RTVSPropertyOp57
 70
     1
102
RTVSPropertyOp58
 70
     1
102
RTVSPropertyOp59
 70
     1
102
RTVSPropertyOp60
 70
     1
102
RTVSPropertyOp61
 70
     1
102
RTVSPropertyOp62
 70
     1
  0
XRECORD
  5
1DB5
102
{ACAD_REACTORS
330
1DB4
102
}
330
1DB4
100
AcDbXrecord
280
     1
102
RTVSPost2010Prop28
280
     0
102
RTVSPost2010PropOp28
 70
     1
102
RTVSPost2010Prop29
280
     1
102
RTVSPost2010PropOp29
 70
     1
102
RTVSPost2010Prop30
280
     1
102
RTVSPost2010PropOp30
 70
     1
102
RTVSPost2010Prop31
280
     0
102
RTVSPost2010PropOp31
 70
     1
102
RTVSPost2010Prop32
280
     0
102
RTVSPost2010PropOp32
 70
     1
102
RTVSPost2010Prop33
280
     0
102
RTVSPost2010PropOp33
 70
     1
102
RTVSPost2010Prop34
280
     0
102
RTVSPost2010PropOp34
 70
     1
102
RTVSPost2010Prop35
280
     0
102
RTVSPost2010PropOp35
 70
     1
102
RTVSPost2010Prop36
280
     0
102
RTVSPost2010PropOp36
 70
     1
102
RTVSPost2010Prop37
 90
       50
102
RTVSPost2010PropOp37
 70
     1
102
RTVSPost2010Prop38
140
0.0
102
RTVSPost2010PropOp38
 70
     1
102
RTVSPost2010Prop39
140
1.0
102
RTVSPost2010PropOp39
 70
     1
102
RTVSPost2010Prop40
 90
        0
102
RTVSPost2010PropOp40
 70
     1
102
RTVSPost2010Prop41ColorIndex
 90
       18
102
RTVSPost2010Prop41ColorRGB
 90
        0
102
RTVSPost2010PropOp41
 70
     1
102
RTVSPost2010Prop42
 90
       50
102
RTVSPost2010PropOp42
 70
     1
102
RTVSPost2010Prop43
 90
        3
102
RTVSPost2010PropOp43
 70
     1
102
RTVSPost2010Prop44ColorIndex
 90
        5
102
RTVSPost2010Prop44ColorRGB
 90
      255
102
RTVSPost2010PropOp44
 70
     1
102
RTVSPost2010Prop45
280
     0
102
RTVSPost2010PropOp45
 70
     1
102
RTVSPost2010Prop46
 90
       50
102
RTVSPost2010PropOp46
 70
     1
102
RTVSPost2010Prop47
 90
       50
102
RTVSPost2010PropOp47
 70
     1
102
RTVSPost2010Prop48
 90
       50
102
RTVSPost2010PropOp48
 70
     1
102
RTVSPost2010Prop49
280
     0
102
RTVSPost2010PropOp49
 70
     1
102
RTVSPost2010Prop50
 90
       50
102
RTVSPost2010PropOp50
 70
     1
102
RTVSPost2010Prop51ColorIndex
 90
      256
102
RTVSPost2010Prop51ColorRGB
 90
-16777216
102
RTVSPost2010PropOp51
 70
     0
102
RTVSPost2010Prop52
140
1.0
102
RTVSPost2010PropOp52
 70
     0
102
RTVSPost2010Prop53
 90
        2
102
RTVSPost2010PropOp53
 70
     1
102
RTVSPost2010Prop54
  1
strokes_ogs.tif
102
RTVSPost2010PropOp54
 70
     1
102
RTVSPost2010Prop55
280
     0
102
RTVSPost2010PropOp55
 70
     1
102
RTVSPost2010Prop56
140
1.0
102
RTVSPost2010PropOp56
 70
     1
102
RTVSPost2010Prop57
140
1.0
102
RTVSPost2010PropOp57
 70
     1
102
RTVSPropertyOp0
 70
     1
102
RTVSPropertyOp1
 70
     1
102
RTVSPropertyOp2
 70
     1
102
RTVSPropertyOp3
 70
     1
102
RTVSPropertyOp4
 70
     1
102
RTVSPropertyOp5
 70
     1
102
RTVSPropertyOp6
 70
     1
102
RTVSPropertyOp7
 70
     1
102
RTVSPropertyOp8
 70
     1
102
RTVSPropertyOp9
 70
     1
102
RTVSPropertyOp10
 70
     1
102
RTVSPropertyOp11
 70
     1
102
RTVSPropertyOp12
 70
     1
102
RTVSPropertyOp13
 70
     1
102
RTVSPropertyOp14
 70
     1
102
RTVSPropertyOp15
 70
     1
102
RTVSPropertyOp16
 70
     1
102
RTVSPropertyOp17
 70
     1
102
RTVSPropertyOp18
 70
     1
102
RTVSPropertyOp19
 70
     1
102
RTVSPropertyOp20
 70
     1
102
RTVSPropertyOp21
 70
     1
102
RTVSPropertyOp22
 70
     1
102
RTVSPropertyOp23
 70
     1
102
RTVSPropertyOp24
 70
     1
102
RTVSPropertyOp25
 70
     1
102
RTVSPropertyOp26
 70
     1
102
RTVSPropertyOp27
 70
     1
102
RTVSPropertyOp28
 70
     1
102
RTVSPropertyOp29
 70
     1
102
RTVSPropertyOp30
 70
     1
102
RTVSPropertyOp31
 70
     1
102
RTVSPropertyOp32
 70
     1
102
RTVSPropertyOp33
 70
     1
102
RTVSPropertyOp34
 70
     1
102
RTVSPropertyOp35
 70
     1
102
RTVSPropertyOp36
 70
     1
102
RTVSPropertyOp37
 70
     1
102
RTVSPropertyOp38
 70
     1
102
RTVSPropertyOp39
 70
     1
102
RTVSPropertyOp40
 70
     1
102
RTVSPropertyOp41
 70
     1
102
RTVSPropertyOp42
 70
     1
102
RTVSPropertyOp43
 70
     1
102
RTVSPropertyOp44
 70
     1
102
RTVSPropertyOp45
 70
     1
102
RTVSPropertyOp46
 70
     1
102
RTVSPropertyOp47
 70
     1
102
RTVSPropertyOp48
 70
     1
102
RTVSPropertyOp49
 70
     1
102
RTVSPropertyOp50
 70
     1
102
RTVSPropertyOp51
 70
     0
102
RTVSPropertyOp52
 70
     0
102
RTVSPropertyOp53
 70
     1
102
RTVSPropertyOp54
 70
     1
102
RTVSPropertyOp55
 70
     1
102
RTVSPropertyOp56
 70
     1
102
RTVSPropertyOp57
 70
     1
102
RTVSPropertyOp58
 70
     1
102
RTVSPropertyOp59
 70
     1
102
RTVSPropertyOp60
 70
     1
102
RTVSPropertyOp61
 70
     1
102
RTVSPropertyOp62
 70
     1
  0
XRECORD
  5
1DB3
102
{ACAD_REACTORS
330
1DB2
102
}
330
1DB2
100
AcDbXrecord
280
     1
102
RTVSPost2010Prop28
280
     0
102
RTVSPost2010PropOp28
 70
     1
102
RTVSPost2010Prop29
280
     1
102
RTVSPost2010PropOp29
 70
     1
102
RTVSPost2010Prop30
280
     1
102
RTVSPost2010PropOp30
 70
     1
102
RTVSPost2010Prop31
280
     0
102
RTVSPost2010PropOp31
 70
     1
102
RTVSPost2010Prop32
280
     0
102
RTVSPost2010PropOp32
 70
     1
102
RTVSPost2010Prop33
280
     0
102
RTVSPost2010PropOp33
 70
     1
102
RTVSPost2010Prop34
280
     0
102
RTVSPost2010PropOp34
 70
     1
102
RTVSPost2010Prop35
280
     0
102
RTVSPost2010PropOp35
 70
     1
102
RTVSPost2010Prop36
280
     0
102
RTVSPost2010PropOp36
 70
     1
102
RTVSPost2010Prop37
 90
       50
102
RTVSPost2010PropOp37
 70
     1
102
RTVSPost2010Prop38
140
0.0
102
RTVSPost2010PropOp38
 70
     1
102
RTVSPost2010Prop39
140
1.0
102
RTVSPost2010PropOp39
 70
     1
102
RTVSPost2010Prop40
 90
        0
102
RTVSPost2010PropOp40
 70
     1
102
RTVSPost2010Prop41ColorIndex
 90
       18
102
RTVSPost2010Prop41ColorRGB
 90
        0
102
RTVSPost2010PropOp41
 70
     1
102
RTVSPost2010Prop42
 90
       50
102
RTVSPost2010PropOp42
 70
     1
102
RTVSPost2010Prop43
 90
        3
102
RTVSPost2010PropOp43
 70
     1
102
RTVSPost2010Prop44ColorIndex
 90
        5
102
RTVSPost2010Prop44ColorRGB
 90
      255
102
RTVSPost2010PropOp44
 70
     1
102
RTVSPost2010Prop45
280
     0
102
RTVSPost2010PropOp45
 70
     1
102
RTVSPost2010Prop46
 90
       50
102
RTVSPost2010PropOp46
 70
     1
102
RTVSPost2010Prop47
 90
       50
102
RTVSPost2010PropOp47
 70
     1
102
RTVSPost2010Prop48
 90
       50
102
RTVSPost2010PropOp48
 70
     1
102
RTVSPost2010Prop49
280
     0
102
RTVSPost2010PropOp49
 70
     1
102
RTVSPost2010Prop50
 90
       50
102
RTVSPost2010PropOp50
 70
     1
102
RTVSPost2010Prop51ColorIndex
 90
      256
102
RTVSPost2010Prop51ColorRGB
 90
-16777216
102
RTVSPost2010PropOp51
 70
     0
102
RTVSPost2010Prop52
140
1.0
102
RTVSPost2010PropOp52
 70
     0
102
RTVSPost2010Prop53
 90
        2
102
RTVSPost2010PropOp53
 70
     1
102
RTVSPost2010Prop54
  1
strokes_ogs.tif
102
RTVSPost2010PropOp54
 70
     1
102
RTVSPost2010Prop55
280
     0
102
RTVSPost2010PropOp55
 70
     1
102
RTVSPost2010Prop56
140
1.0
102
RTVSPost2010PropOp56
 70
     1
102
RTVSPost2010Prop57
140
1.0
102
RTVSPost2010PropOp57
 70
     1
102
RTVSPropertyOp0
 70
     1
102
RTVSPropertyOp1
 70
     1
102
RTVSPropertyOp2
 70
     1
102
RTVSPropertyOp3
 70
     1
102
RTVSPropertyOp4
 70
     1
102
RTVSPropertyOp5
 70
     1
102
RTVSPropertyOp6
 70
     1
102
RTVSPropertyOp7
 70
     1
102
RTVSPropertyOp8
 70
     1
102
RTVSPropertyOp9
 70
     1
102
RTVSPropertyOp10
 70
     1
102
RTVSPropertyOp11
 70
     1
102
RTVSPropertyOp12
 70
     1
102
RTVSPropertyOp13
 70
     1
102
RTVSPropertyOp14
 70
     1
102
RTVSPropertyOp15
 70
     1
102
RTVSPropertyOp16
 70
     1
102
RTVSPropertyOp17
 70
     1
102
RTVSPropertyOp18
 70
     1
102
RTVSPropertyOp19
 70
     1
102
RTVSPropertyOp20
 70
     1
102
RTVSPropertyOp21
 70
     1
102
RTVSPropertyOp22
 70
     1
102
RTVSPropertyOp23
 70
     1
102
RTVSPropertyOp24
 70
     1
102
RTVSPropertyOp25
 70
     1
102
RTVSPropertyOp26
 70
     1
102
RTVSPropertyOp27
 70
     1
102
RTVSPropertyOp28
 70
     1
102
RTVSPropertyOp29
 70
     1
102
RTVSPropertyOp30
 70
     1
102
RTVSPropertyOp31
 70
     1
102
RTVSPropertyOp32
 70
     1
102
RTVSPropertyOp33
 70
     1
102
RTVSPropertyOp34
 70
     1
102
RTVSPropertyOp35
 70
     1
102
RTVSPropertyOp36
 70
     1
102
RTVSPropertyOp37
 70
     1
102
RTVSPropertyOp38
 70
     1
102
RTVSPropertyOp39
 70
     1
102
RTVSPropertyOp40
 70
     1
102
RTVSPropertyOp41
 70
     1
102
RTVSPropertyOp42
 70
     1
102
RTVSPropertyOp43
 70
     1
102
RTVSPropertyOp44
 70
     1
102
RTVSPropertyOp45
 70
     1
102
RTVSPropertyOp46
 70
     1
102
RTVSPropertyOp47
 70
     1
102
RTVSPropertyOp48
 70
     1
102
RTVSPropertyOp49
 70
     1
102
RTVSPropertyOp50
 70
     1
102
RTVSPropertyOp51
 70
     0
102
RTVSPropertyOp52
 70
     0
102
RTVSPropertyOp53
 70
     1
102
RTVSPropertyOp54
 70
     1
102
RTVSPropertyOp55
 70
     1
102
RTVSPropertyOp56
 70
     1
102
RTVSPropertyOp57
 70
     1
102
RTVSPropertyOp58
 70
     1
102
RTVSPropertyOp59
 70
     1
102
RTVSPropertyOp60
 70
     1
102
RTVSPropertyOp61
 70
     1
102
RTVSPropertyOp62
 70
     1
  0
XRECORD
  5
1DAD
102
{ACAD_REACTORS
330
1DAC
102
}
330
1DAC
100
AcDbXrecord
280
     1
102
RTVSPost2010Prop28
280
     0
102
RTVSPost2010PropOp28
 70
     1
102
RTVSPost2010Prop29
280
     1
102
RTVSPost2010PropOp29
 70
     1
102
RTVSPost2010Prop30
280
     1
102
RTVSPost2010PropOp30
 70
     1
102
RTVSPost2010Prop31
280
     0
102
RTVSPost2010PropOp31
 70
     1
102
RTVSPost2010Prop32
280
     0
102
RTVSPost2010PropOp32
 70
     1
102
RTVSPost2010Prop33
280
     0
102
RTVSPost2010PropOp33
 70
     1
102
RTVSPost2010Prop34
280
     0
102
RTVSPost2010PropOp34
 70
     1
102
RTVSPost2010Prop35
280
     0
102
RTVSPost2010PropOp35
 70
     1
102
RTVSPost2010Prop36
280
     0
102
RTVSPost2010PropOp36
 70
     1
102
RTVSPost2010Prop37
 90
       50
102
RTVSPost2010PropOp37
 70
     1
102
RTVSPost2010Prop38
140
0.0
102
RTVSPost2010PropOp38
 70
     1
102
RTVSPost2010Prop39
140
1.0
102
RTVSPost2010PropOp39
 70
     1
102
RTVSPost2010Prop40
 90
        0
102
RTVSPost2010PropOp40
 70
     1
102
RTVSPost2010Prop41ColorIndex
 90
       18
102
RTVSPost2010Prop41ColorRGB
 90
        0
102
RTVSPost2010PropOp41
 70
     1
102
RTVSPost2010Prop42
 90
       50
102
RTVSPost2010PropOp42
 70
     1
102
RTVSPost2010Prop43
 90
        3
102
RTVSPost2010PropOp43
 70
     1
102
RTVSPost2010Prop44ColorIndex
 90
        5
102
RTVSPost2010Prop44ColorRGB
 90
      255
102
RTVSPost2010PropOp44
 70
     1
102
RTVSPost2010Prop45
280
     0
102
RTVSPost2010PropOp45
 70
     1
102
RTVSPost2010Prop46
 90
       50
102
RTVSPost2010PropOp46
 70
     1
102
RTVSPost2010Prop47
 90
       50
102
RTVSPost2010PropOp47
 70
     1
102
RTVSPost2010Prop48
 90
       50
102
RTVSPost2010PropOp48
 70
     1
102
RTVSPost2010Prop49
280
     0
102
RTVSPost2010PropOp49
 70
     1
102
RTVSPost2010Prop50
 90
       50
102
RTVSPost2010PropOp50
 70
     1
102
RTVSPost2010Prop51ColorIndex
 90
      256
102
RTVSPost2010Prop51ColorRGB
 90
-16777216
102
RTVSPost2010PropOp51
 70
     0
102
RTVSPost2010Prop52
140
1.0
102
RTVSPost2010PropOp52
 70
     0
102
RTVSPost2010Prop53
 90
        2
102
RTVSPost2010PropOp53
 70
     1
102
RTVSPost2010Prop54
  1
strokes_ogs.tif
102
RTVSPost2010PropOp54
 70
     1
102
RTVSPost2010Prop55
280
     0
102
RTVSPost2010PropOp55
 70
     1
102
RTVSPost2010Prop56
140
1.0
102
RTVSPost2010PropOp56
 70
     1
102
RTVSPost2010Prop57
140
1.0
102
RTVSPost2010PropOp57
 70
     1
102
RTVSPropertyOp0
 70
     1
102
RTVSPropertyOp1
 70
     1
102
RTVSPropertyOp2
 70
     1
102
RTVSPropertyOp3
 70
     1
102
RTVSPropertyOp4
 70
     1
102
RTVSPropertyOp5
 70
     1
102
RTVSPropertyOp6
 70
     1
102
RTVSPropertyOp7
 70
     1
102
RTVSPropertyOp8
 70
     1
102
RTVSPropertyOp9
 70
     1
102
RTVSPropertyOp10
 70
     1
102
RTVSPropertyOp11
 70
     1
102
RTVSPropertyOp12
 70
     1
102
RTVSPropertyOp13
 70
     1
102
RTVSPropertyOp14
 70
     1
102
RTVSPropertyOp15
 70
     1
102
RTVSPropertyOp16
 70
     1
102
RTVSPropertyOp17
 70
     1
102
RTVSPropertyOp18
 70
     1
102
RTVSPropertyOp19
 70
     1
102
RTVSPropertyOp20
 70
     1
102
RTVSPropertyOp21
 70
     1
102
RTVSPropertyOp22
 70
     1
102
RTVSPropertyOp23
 70
     1
102
RTVSPropertyOp24
 70
     1
102
RTVSPropertyOp25
 70
     1
102
RTVSPropertyOp26
 70
     1
102
RTVSPropertyOp27
 70
     1
102
RTVSPropertyOp28
 70
     1
102
RTVSPropertyOp29
 70
     1
102
RTVSPropertyOp30
 70
     1
102
RTVSPropertyOp31
 70
     1
102
RTVSPropertyOp32
 70
     1
102
RTVSPropertyOp33
 70
     1
102
RTVSPropertyOp34
 70
     1
102
RTVSPropertyOp35
 70
     1
102
RTVSPropertyOp36
 70
     1
102
RTVSPropertyOp37
 70
     1
102
RTVSPropertyOp38
 70
     1
102
RTVSPropertyOp39
 70
     1
102
RTVSPropertyOp40
 70
     1
102
RTVSPropertyOp41
 70
     1
102
RTVSPropertyOp42
 70
     1
102
RTVSPropertyOp43
 70
     1
102
RTVSPropertyOp44
 70
     1
102
RTVSPropertyOp45
 70
     1
102
RTVSPropertyOp46
 70
     1
102
RTVSPropertyOp47
 70
     1
102
RTVSPropertyOp48
 70
     1
102
RTVSPropertyOp49
 70
     1
102
RTVSPropertyOp50
 70
     1
102
RTVSPropertyOp51
 70
     0
102
RTVSPropertyOp52
 70
     0
102
RTVSPropertyOp53
 70
     1
102
RTVSPropertyOp54
 70
     1
102
RTVSPropertyOp55
 70
     1
102
RTVSPropertyOp56
 70
     1
102
RTVSPropertyOp57
 70
     1
102
RTVSPropertyOp58
 70
     1
102
RTVSPropertyOp59
 70
     1
102
RTVSPropertyOp60
 70
     1
102
RTVSPropertyOp61
 70
     1
102
RTVSPropertyOp62
 70
     1
  0
XRECORD
  5
1DAF
102
{ACAD_REACTORS
330
1DAE
102
}
330
1DAE
100
AcDbXrecord
280
     1
102
RTVSPost2010Prop28
280
     0
102
RTVSPost2010PropOp28
 70
     1
102
RTVSPost2010Prop29
280
     1
102
RTVSPost2010PropOp29
 70
     1
102
RTVSPost2010Prop30
280
     1
102
RTVSPost2010PropOp30
 70
     1
102
RTVSPost2010Prop31
280
     0
102
RTVSPost2010PropOp31
 70
     1
102
RTVSPost2010Prop32
280
     0
102
RTVSPost2010PropOp32
 70
     1
102
RTVSPost2010Prop33
280
     0
102
RTVSPost2010PropOp33
 70
     1
102
RTVSPost2010Prop34
280
     0
102
RTVSPost2010PropOp34
 70
     1
102
RTVSPost2010Prop35
280
     0
102
RTVSPost2010PropOp35
 70
     1
102
RTVSPost2010Prop36
280
     0
102
RTVSPost2010PropOp36
 70
     1
102
RTVSPost2010Prop37
 90
       50
102
RTVSPost2010PropOp37
 70
     1
102
RTVSPost2010Prop38
140
0.0
102
RTVSPost2010PropOp38
 70
     1
102
RTVSPost2010Prop39
140
1.0
102
RTVSPost2010PropOp39
 70
     1
102
RTVSPost2010Prop40
 90
        0
102
RTVSPost2010PropOp40
 70
     1
102
RTVSPost2010Prop41ColorIndex
 90
       18
102
RTVSPost2010Prop41ColorRGB
 90
        0
102
RTVSPost2010PropOp41
 70
     1
102
RTVSPost2010Prop42
 90
       50
102
RTVSPost2010PropOp42
 70
     1
102
RTVSPost2010Prop43
 90
        3
102
RTVSPost2010PropOp43
 70
     1
102
RTVSPost2010Prop44ColorIndex
 90
        5
102
RTVSPost2010Prop44ColorRGB
 90
      255
102
RTVSPost2010PropOp44
 70
     1
102
RTVSPost2010Prop45
280
     0
102
RTVSPost2010PropOp45
 70
     1
102
RTVSPost2010Prop46
 90
       50
102
RTVSPost2010PropOp46
 70
     1
102
RTVSPost2010Prop47
 90
       50
102
RTVSPost2010PropOp47
 70
     1
102
RTVSPost2010Prop48
 90
       50
102
RTVSPost2010PropOp48
 70
     1
102
RTVSPost2010Prop49
280
     0
102
RTVSPost2010PropOp49
 70
     1
102
RTVSPost2010Prop50
 90
       50
102
RTVSPost2010PropOp50
 70
     1
102
RTVSPost2010Prop51ColorIndex
 90
      256
102
RTVSPost2010Prop51ColorRGB
 90
-16777216
102
RTVSPost2010PropOp51
 70
     0
102
RTVSPost2010Prop52
140
1.0
102
RTVSPost2010PropOp52
 70
     0
102
RTVSPost2010Prop53
 90
        2
102
RTVSPost2010PropOp53
 70
     1
102
RTVSPost2010Prop54
  1
strokes_ogs.tif
102
RTVSPost2010PropOp54
 70
     1
102
RTVSPost2010Prop55
280
     0
102
RTVSPost2010PropOp55
 70
     1
102
RTVSPost2010Prop56
140
1.0
102
RTVSPost2010PropOp56
 70
     1
102
RTVSPost2010Prop57
140
1.0
102
RTVSPost2010PropOp57
 70
     1
102
RTVSPropertyOp0
 70
     1
102
RTVSPropertyOp1
 70
     1
102
RTVSPropertyOp2
 70
     1
102
RTVSPropertyOp3
 70
     1
102
RTVSPropertyOp4
 70
     1
102
RTVSPropertyOp5
 70
     1
102
RTVSPropertyOp6
 70
     1
102
RTVSPropertyOp7
 70
     1
102
RTVSPropertyOp8
 70
     1
102
RTVSPropertyOp9
 70
     1
102
RTVSPropertyOp10
 70
     1
102
RTVSPropertyOp11
 70
     1
102
RTVSPropertyOp12
 70
     1
102
RTVSPropertyOp13
 70
     1
102
RTVSPropertyOp14
 70
     1
102
RTVSPropertyOp15
 70
     1
102
RTVSPropertyOp16
 70
     1
102
RTVSPropertyOp17
 70
     1
102
RTVSPropertyOp18
 70
     1
102
RTVSPropertyOp19
 70
     1
102
RTVSPropertyOp20
 70
     1
102
RTVSPropertyOp21
 70
     1
102
RTVSPropertyOp22
 70
     1
102
RTVSPropertyOp23
 70
     1
102
RTVSPropertyOp24
 70
     1
102
RTVSPropertyOp25
 70
     1
102
RTVSPropertyOp26
 70
     1
102
RTVSPropertyOp27
 70
     1
102
RTVSPropertyOp28
 70
     1
102
RTVSPropertyOp29
 70
     1
102
RTVSPropertyOp30
 70
     1
102
RTVSPropertyOp31
 70
     1
102
RTVSPropertyOp32
 70
     1
102
RTVSPropertyOp33
 70
     1
102
RTVSPropertyOp34
 70
     1
102
RTVSPropertyOp35
 70
     1
102
RTVSPropertyOp36
 70
     1
102
RTVSPropertyOp37
 70
     1
102
RTVSPropertyOp38
 70
     1
102
RTVSPropertyOp39
 70
     1
102
RTVSPropertyOp40
 70
     1
102
RTVSPropertyOp41
 70
     1
102
RTVSPropertyOp42
 70
     1
102
RTVSPropertyOp43
 70
     1
102
RTVSPropertyOp44
 70
     1
102
RTVSPropertyOp45
 70
     1
102
RTVSPropertyOp46
 70
     1
102
RTVSPropertyOp47
 70
     1
102
RTVSPropertyOp48
 70
     1
102
RTVSPropertyOp49
 70
     1
102
RTVSPropertyOp50
 70
     1
102
RTVSPropertyOp51
 70
     0
102
RTVSPropertyOp52
 70
     0
102
RTVSPropertyOp53
 70
     1
102
RTVSPropertyOp54
 70
     1
102
RTVSPropertyOp55
 70
     1
102
RTVSPropertyOp56
 70
     1
102
RTVSPropertyOp57
 70
     1
102
RTVSPropertyOp58
 70
     1
102
RTVSPropertyOp59
 70
     1
102
RTVSPropertyOp60
 70
     1
102
RTVSPropertyOp61
 70
     1
102
RTVSPropertyOp62
 70
     1
  0
XRECORD
  5
1DA5
102
{ACAD_REACTORS
330
1DA4
102
}
330
1DA4
100
AcDbXrecord
280
     1
102
RTVSPost2010Prop28
280
     0
102
RTVSPost2010PropOp28
 70
     1
102
RTVSPost2010Prop29
280
     1
102
RTVSPost2010PropOp29
 70
     1
102
RTVSPost2010Prop30
280
     1
102
RTVSPost2010PropOp30
 70
     1
102
RTVSPost2010Prop31
280
     0
102
RTVSPost2010PropOp31
 70
     1
102
RTVSPost2010Prop32
280
     0
102
RTVSPost2010PropOp32
 70
     1
102
RTVSPost2010Prop33
280
     0
102
RTVSPost2010PropOp33
 70
     1
102
RTVSPost2010Prop34
280
     0
102
RTVSPost2010PropOp34
 70
     1
102
RTVSPost2010Prop35
280
     0
102
RTVSPost2010PropOp35
 70
     1
102
RTVSPost2010Prop36
280
     0
102
RTVSPost2010PropOp36
 70
     1
102
RTVSPost2010Prop37
 90
       50
102
RTVSPost2010PropOp37
 70
     1
102
RTVSPost2010Prop38
140
0.0
102
RTVSPost2010PropOp38
 70
     1
102
RTVSPost2010Prop39
140
1.0
102
RTVSPost2010PropOp39
 70
     1
102
RTVSPost2010Prop40
 90
        0
102
RTVSPost2010PropOp40
 70
     1
102
RTVSPost2010Prop41ColorIndex
 90
       18
102
RTVSPost2010Prop41ColorRGB
 90
        0
102
RTVSPost2010PropOp41
 70
     1
102
RTVSPost2010Prop42
 90
       50
102
RTVSPost2010PropOp42
 70
     1
102
RTVSPost2010Prop43
 90
        3
102
RTVSPost2010PropOp43
 70
     1
102
RTVSPost2010Prop44ColorIndex
 90
        5
102
RTVSPost2010Prop44ColorRGB
 90
      255
102
RTVSPost2010PropOp44
 70
     1
102
RTVSPost2010Prop45
280
     0
102
RTVSPost2010PropOp45
 70
     1
102
RTVSPost2010Prop46
 90
       50
102
RTVSPost2010PropOp46
 70
     1
102
RTVSPost2010Prop47
 90
       50
102
RTVSPost2010PropOp47
 70
     1
102
RTVSPost2010Prop48
 90
       50
102
RTVSPost2010PropOp48
 70
     1
102
RTVSPost2010Prop49
280
     0
102
RTVSPost2010PropOp49
 70
     1
102
RTVSPost2010Prop50
 90
       50
102
RTVSPost2010PropOp50
 70
     1
102
RTVSPost2010Prop51ColorIndex
 90
      256
102
RTVSPost2010Prop51ColorRGB
 90
-16777216
102
RTVSPost2010PropOp51
 70
     0
102
RTVSPost2010Prop52
140
1.0
102
RTVSPost2010PropOp52
 70
     0
102
RTVSPost2010Prop53
 90
        2
102
RTVSPost2010PropOp53
 70
     1
102
RTVSPost2010Prop54
  1
strokes_ogs.tif
102
RTVSPost2010PropOp54
 70
     1
102
RTVSPost2010Prop55
280
     0
102
RTVSPost2010PropOp55
 70
     1
102
RTVSPost2010Prop56
140
1.0
102
RTVSPost2010PropOp56
 70
     1
102
RTVSPost2010Prop57
140
1.0
102
RTVSPost2010PropOp57
 70
     1
102
RTVSPropertyOp0
 70
     1
102
RTVSPropertyOp1
 70
     1
102
RTVSPropertyOp2
 70
     1
102
RTVSPropertyOp3
 70
     1
102
RTVSPropertyOp4
 70
     1
102
RTVSPropertyOp5
 70
     1
102
RTVSPropertyOp6
 70
     1
102
RTVSPropertyOp7
 70
     1
102
RTVSPropertyOp8
 70
     1
102
RTVSPropertyOp9
 70
     1
102
RTVSPropertyOp10
 70
     1
102
RTVSPropertyOp11
 70
     1
102
RTVSPropertyOp12
 70
     1
102
RTVSPropertyOp13
 70
     1
102
RTVSPropertyOp14
 70
     1
102
RTVSPropertyOp15
 70
     1
102
RTVSPropertyOp16
 70
     1
102
RTVSPropertyOp17
 70
     1
102
RTVSPropertyOp18
 70
     1
102
RTVSPropertyOp19
 70
     1
102
RTVSPropertyOp20
 70
     1
102
RTVSPropertyOp21
 70
     1
102
RTVSPropertyOp22
 70
     1
102
RTVSPropertyOp23
 70
     1
102
RTVSPropertyOp24
 70
     1
102
RTVSPropertyOp25
 70
     1
102
RTVSPropertyOp26
 70
     1
102
RTVSPropertyOp27
 70
     1
102
RTVSPropertyOp28
 70
     1
102
RTVSPropertyOp29
 70
     1
102
RTVSPropertyOp30
 70
     1
102
RTVSPropertyOp31
 70
     1
102
RTVSPropertyOp32
 70
     1
102
RTVSPropertyOp33
 70
     1
102
RTVSPropertyOp34
 70
     1
102
RTVSPropertyOp35
 70
     1
102
RTVSPropertyOp36
 70
     1
102
RTVSPropertyOp37
 70
     1
102
RTVSPropertyOp38
 70
     1
102
RTVSPropertyOp39
 70
     1
102
RTVSPropertyOp40
 70
     1
102
RTVSPropertyOp41
 70
     1
102
RTVSPropertyOp42
 70
     1
102
RTVSPropertyOp43
 70
     1
102
RTVSPropertyOp44
 70
     1
102
RTVSPropertyOp45
 70
     1
102
RTVSPropertyOp46
 70
     1
102
RTVSPropertyOp47
 70
     1
102
RTVSPropertyOp48
 70
     1
102
RTVSPropertyOp49
 70
     1
102
RTVSPropertyOp50
 70
     1
102
RTVSPropertyOp51
 70
     0
102
RTVSPropertyOp52
 70
     0
102
RTVSPropertyOp53
 70
     1
102
RTVSPropertyOp54
 70
     1
102
RTVSPropertyOp55
 70
     1
102
RTVSPropertyOp56
 70
     1
102
RTVSPropertyOp57
 70
     1
102
RTVSPropertyOp58
 70
     1
102
RTVSPropertyOp59
 70
     1
102
RTVSPropertyOp60
 70
     1
102
RTVSPropertyOp61
 70
     1
102
RTVSPropertyOp62
 70
     1
  0
XRECORD
  5
1D99
102
{ACAD_REACTORS
330
1D98
102
}
330
1D98
100
AcDbXrecord
280
     1
102
RTVSPost2010Prop28
280
     0
102
RTVSPost2010PropOp28
 70
     1
102
RTVSPost2010Prop29
280
     1
102
RTVSPost2010PropOp29
 70
     1
102
RTVSPost2010Prop30
280
     1
102
RTVSPost2010PropOp30
 70
     1
102
RTVSPost2010Prop31
280
     0
102
RTVSPost2010PropOp31
 70
     1
102
RTVSPost2010Prop32
280
     0
102
RTVSPost2010PropOp32
 70
     1
102
RTVSPost2010Prop33
280
     0
102
RTVSPost2010PropOp33
 70
     1
102
RTVSPost2010Prop34
280
     0
102
RTVSPost2010PropOp34
 70
     1
102
RTVSPost2010Prop35
280
     0
102
RTVSPost2010PropOp35
 70
     1
102
RTVSPost2010Prop36
280
     0
102
RTVSPost2010PropOp36
 70
     1
102
RTVSPost2010Prop37
 90
       50
102
RTVSPost2010PropOp37
 70
     1
102
RTVSPost2010Prop38
140
0.0
102
RTVSPost2010PropOp38
 70
     1
102
RTVSPost2010Prop39
140
1.0
102
RTVSPost2010PropOp39
 70
     1
102
RTVSPost2010Prop40
 90
        0
102
RTVSPost2010PropOp40
 70
     1
102
RTVSPost2010Prop41ColorIndex
 90
       18
102
RTVSPost2010Prop41ColorRGB
 90
        0
102
RTVSPost2010PropOp41
 70
     1
102
RTVSPost2010Prop42
 90
       50
102
RTVSPost2010PropOp42
 70
     1
102
RTVSPost2010Prop43
 90
        3
102
RTVSPost2010PropOp43
 70
     1
102
RTVSPost2010Prop44ColorIndex
 90
        5
102
RTVSPost2010Prop44ColorRGB
 90
      255
102
RTVSPost2010PropOp44
 70
     1
102
RTVSPost2010Prop45
280
     0
102
RTVSPost2010PropOp45
 70
     1
102
RTVSPost2010Prop46
 90
       50
102
RTVSPost2010PropOp46
 70
     1
102
RTVSPost2010Prop47
 90
       50
102
RTVSPost2010PropOp47
 70
     1
102
RTVSPost2010Prop48
 90
       50
102
RTVSPost2010PropOp48
 70
     1
102
RTVSPost2010Prop49
280
     0
102
RTVSPost2010PropOp49
 70
     1
102
RTVSPost2010Prop50
 90
       50
102
RTVSPost2010PropOp50
 70
     1
102
RTVSPost2010Prop51ColorIndex
 90
      256
102
RTVSPost2010Prop51ColorRGB
 90
-16777216
102
RTVSPost2010PropOp51
 70
     0
102
RTVSPost2010Prop52
140
1.0
102
RTVSPost2010PropOp52
 70
     0
102
RTVSPost2010Prop53
 90
        2
102
RTVSPost2010PropOp53
 70
     1
102
RTVSPost2010Prop54
  1
strokes_ogs.tif
102
RTVSPost2010PropOp54
 70
     1
102
RTVSPost2010Prop55
280
     0
102
RTVSPost2010PropOp55
 70
     1
102
RTVSPost2010Prop56
140
1.0
102
RTVSPost2010PropOp56
 70
     1
102
RTVSPost2010Prop57
140
1.0
102
RTVSPost2010PropOp57
 70
     1
102
RTVSPropertyOp0
 70
     1
102
RTVSPropertyOp1
 70
     1
102
RTVSPropertyOp2
 70
     1
102
RTVSPropertyOp3
 70
     1
102
RTVSPropertyOp4
 70
     1
102
RTVSPropertyOp5
 70
     1
102
RTVSPropertyOp6
 70
     1
102
RTVSPropertyOp7
 70
     1
102
RTVSPropertyOp8
 70
     1
102
RTVSPropertyOp9
 70
     1
102
RTVSPropertyOp10
 70
     1
102
RTVSPropertyOp11
 70
     1
102
RTVSPropertyOp12
 70
     1
102
RTVSPropertyOp13
 70
     1
102
RTVSPropertyOp14
 70
     1
102
RTVSPropertyOp15
 70
     1
102
RTVSPropertyOp16
 70
     1
102
RTVSPropertyOp17
 70
     1
102
RTVSPropertyOp18
 70
     1
102
RTVSPropertyOp19
 70
     1
102
RTVSPropertyOp20
 70
     1
102
RTVSPropertyOp21
 70
     1
102
RTVSPropertyOp22
 70
     1
102
RTVSPropertyOp23
 70
     1
102
RTVSPropertyOp24
 70
     1
102
RTVSPropertyOp25
 70
     1
102
RTVSPropertyOp26
 70
     1
102
RTVSPropertyOp27
 70
     1
102
RTVSPropertyOp28
 70
     1
102
RTVSPropertyOp29
 70
     1
102
RTVSPropertyOp30
 70
     1
102
RTVSPropertyOp31
 70
     1
102
RTVSPropertyOp32
 70
     1
102
RTVSPropertyOp33
 70
     1
102
RTVSPropertyOp34
 70
     1
102
RTVSPropertyOp35
 70
     1
102
RTVSPropertyOp36
 70
     1
102
RTVSPropertyOp37
 70
     1
102
RTVSPropertyOp38
 70
     1
102
RTVSPropertyOp39
 70
     1
102
RTVSPropertyOp40
 70
     1
102
RTVSPropertyOp41
 70
     1
102
RTVSPropertyOp42
 70
     1
102
RTVSPropertyOp43
 70
     1
102
RTVSPropertyOp44
 70
     1
102
RTVSPropertyOp45
 70
     1
102
RTVSPropertyOp46
 70
     1
102
RTVSPropertyOp47
 70
     1
102
RTVSPropertyOp48
 70
     1
102
RTVSPropertyOp49
 70
     1
102
RTVSPropertyOp50
 70
     1
102
RTVSPropertyOp51
 70
     0
102
RTVSPropertyOp52
 70
     0
102
RTVSPropertyOp53
 70
     1
102
RTVSPropertyOp54
 70
     1
102
RTVSPropertyOp55
 70
     1
102
RTVSPropertyOp56
 70
     1
102
RTVSPropertyOp57
 70
     1
102
RTVSPropertyOp58
 70
     1
102
RTVSPropertyOp59
 70
     1
102
RTVSPropertyOp60
 70
     1
102
RTVSPropertyOp61
 70
     1
102
RTVSPropertyOp62
 70
     1
  0
XRECORD
  5
1DB1
102
{ACAD_REACTORS
330
1DB0
102
}
330
1DB0
100
AcDbXrecord
280
     1
102
RTVSPost2010Prop28
280
     0
102
RTVSPost2010PropOp28
 70
     1
102
RTVSPost2010Prop29
280
     1
102
RTVSPost2010PropOp29
 70
     1
102
RTVSPost2010Prop30
280
     1
102
RTVSPost2010PropOp30
 70
     1
102
RTVSPost2010Prop31
280
     0
102
RTVSPost2010PropOp31
 70
     1
102
RTVSPost2010Prop32
280
     0
102
RTVSPost2010PropOp32
 70
     1
102
RTVSPost2010Prop33
280
     0
102
RTVSPost2010PropOp33
 70
     1
102
RTVSPost2010Prop34
280
     0
102
RTVSPost2010PropOp34
 70
     1
102
RTVSPost2010Prop35
280
     0
102
RTVSPost2010PropOp35
 70
     1
102
RTVSPost2010Prop36
280
     0
102
RTVSPost2010PropOp36
 70
     1
102
RTVSPost2010Prop37
 90
       50
102
RTVSPost2010PropOp37
 70
     1
102
RTVSPost2010Prop38
140
0.0
102
RTVSPost2010PropOp38
 70
     1
102
RTVSPost2010Prop39
140
1.0
102
RTVSPost2010PropOp39
 70
     1
102
RTVSPost2010Prop40
 90
        0
102
RTVSPost2010PropOp40
 70
     1
102
RTVSPost2010Prop41ColorIndex
 90
       18
102
RTVSPost2010Prop41ColorRGB
 90
        0
102
RTVSPost2010PropOp41
 70
     1
102
RTVSPost2010Prop42
 90
       50
102
RTVSPost2010PropOp42
 70
     1
102
RTVSPost2010Prop43
 90
        3
102
RTVSPost2010PropOp43
 70
     1
102
RTVSPost2010Prop44ColorIndex
 90
        5
102
RTVSPost2010Prop44ColorRGB
 90
      255
102
RTVSPost2010PropOp44
 70
     1
102
RTVSPost2010Prop45
280
     0
102
RTVSPost2010PropOp45
 70
     1
102
RTVSPost2010Prop46
 90
       50
102
RTVSPost2010PropOp46
 70
     1
102
RTVSPost2010Prop47
 90
       50
102
RTVSPost2010PropOp47
 70
     1
102
RTVSPost2010Prop48
 90
       50
102
RTVSPost2010PropOp48
 70
     1
102
RTVSPost2010Prop49
280
     0
102
RTVSPost2010PropOp49
 70
     1
102
RTVSPost2010Prop50
 90
       50
102
RTVSPost2010PropOp50
 70
     1
102
RTVSPost2010Prop51ColorIndex
 90
      256
102
RTVSPost2010Prop51ColorRGB
 90
-16777216
102
RTVSPost2010PropOp51
 70
     0
102
RTVSPost2010Prop52
140
1.0
102
RTVSPost2010PropOp52
 70
     0
102
RTVSPost2010Prop53
 90
        2
102
RTVSPost2010PropOp53
 70
     1
102
RTVSPost2010Prop54
  1
strokes_ogs.tif
102
RTVSPost2010PropOp54
 70
     1
102
RTVSPost2010Prop55
280
     0
102
RTVSPost2010PropOp55
 70
     1
102
RTVSPost2010Prop56
140
1.0
102
RTVSPost2010PropOp56
 70
     1
102
RTVSPost2010Prop57
140
1.0
102
RTVSPost2010PropOp57
 70
     1
102
RTVSPropertyOp0
 70
     1
102
RTVSPropertyOp1
 70
     1
102
RTVSPropertyOp2
 70
     1
102
RTVSPropertyOp3
 70
     1
102
RTVSPropertyOp4
 70
     1
102
RTVSPropertyOp5
 70
     1
102
RTVSPropertyOp6
 70
     1
102
RTVSPropertyOp7
 70
     1
102
RTVSPropertyOp8
 70
     1
102
RTVSPropertyOp9
 70
     1
102
RTVSPropertyOp10
 70
     1
102
RTVSPropertyOp11
 70
     1
102
RTVSPropertyOp12
 70
     1
102
RTVSPropertyOp13
 70
     1
102
RTVSPropertyOp14
 70
     1
102
RTVSPropertyOp15
 70
     1
102
RTVSPropertyOp16
 70
     1
102
RTVSPropertyOp17
 70
     1
102
RTVSPropertyOp18
 70
     1
102
RTVSPropertyOp19
 70
     1
102
RTVSPropertyOp20
 70
     1
102
RTVSPropertyOp21
 70
     1
102
RTVSPropertyOp22
 70
     1
102
RTVSPropertyOp23
 70
     1
102
RTVSPropertyOp24
 70
     1
102
RTVSPropertyOp25
 70
     1
102
RTVSPropertyOp26
 70
     1
102
RTVSPropertyOp27
 70
     1
102
RTVSPropertyOp28
 70
     1
102
RTVSPropertyOp29
 70
     1
102
RTVSPropertyOp30
 70
     1
102
RTVSPropertyOp31
 70
     1
102
RTVSPropertyOp32
 70
     1
102
RTVSPropertyOp33
 70
     1
102
RTVSPropertyOp34
 70
     1
102
RTVSPropertyOp35
 70
     1
102
RTVSPropertyOp36
 70
     1
102
RTVSPropertyOp37
 70
     1
102
RTVSPropertyOp38
 70
     1
102
RTVSPropertyOp39
 70
     1
102
RTVSPropertyOp40
 70
     1
102
RTVSPropertyOp41
 70
     1
102
RTVSPropertyOp42
 70
     1
102
RTVSPropertyOp43
 70
     1
102
RTVSPropertyOp44
 70
     1
102
RTVSPropertyOp45
 70
     1
102
RTVSPropertyOp46
 70
     1
102
RTVSPropertyOp47
 70
     1
102
RTVSPropertyOp48
 70
     1
102
RTVSPropertyOp49
 70
     1
102
RTVSPropertyOp50
 70
     1
102
RTVSPropertyOp51
 70
     0
102
RTVSPropertyOp52
 70
     0
102
RTVSPropertyOp53
 70
     1
102
RTVSPropertyOp54
 70
     1
102
RTVSPropertyOp55
 70
     1
102
RTVSPropertyOp56
 70
     1
102
RTVSPropertyOp57
 70
     1
102
RTVSPropertyOp58
 70
     1
102
RTVSPropertyOp59
 70
     1
102
RTVSPropertyOp60
 70
     1
102
RTVSPropertyOp61
 70
     1
102
RTVSPropertyOp62
 70
     1
  0
ENDSEC
  0
EOF
