  0
SECTION
  2
HEADER
  9
$ACADVER
  1
AC1015
  9
$ACADMAINTVER
 70
    20
  9
$DWGCODEPAGE
  3
ANSI_932
  9
$INSBASE
 10
0.0
 20
0.0
 30
0.0
  9
$EXTMIN
 10
9.999999064246818
 20
9.999999806846743
 30
0.0
  9
$EXTMAX
 10
501.4540510361903
 20
367.5651125229898
 30
0.0
  9
$LIMMIN
 10
0.0000015376081137
 20
-0.0000001931532552
  9
$LIMMAX
 10
575.0000015376082
 20
396.4015149583618
  9
$ORTHOMODE
 70
     1
  9
$REGENMODE
 70
     1
  9
$FILLMODE
 70
     1
  9
$QTEXTMODE
 70
     0
  9
$MIRRTEXT
 70
     1
  9
$LTSCALE
 40
1.0
  9
$ATTMODE
 70
     1
  9
$TEXTSIZE
 40
2.5
  9
$TRACEWID
 40
1.0
  9
$TEXTSTYLE
  7
STANDARD
  9
$CLAYER
  8
0
  9
$CELTYPE
  6
BYLAYER
  9
$CECOLOR
 62
   256
  9
$CELTSCALE
 40
1.0
  9
$DISPSILH
 70
     0
  9
$DIMSCALE
 40
1.0
  9
$DIMASZ
 40
3.0
  9
$DIMEXO
 40
1.0
  9
$DIMDLI
 40
10.0
  9
$DIMRND
 40
0.0
  9
$DIMDLE
 40
0.0
  9
$DIMEXE
 40
1.0
  9
$DIMTP
 40
0.0
  9
$DIMTM
 40
0.0
  9
$DIMTXT
 40
3.2
  9
$DIMCEN
 40
0.0
  9
$DIMTSZ
 40
0.0
  9
$DIMTOL
 70
     0
  9
$DIMLIM
 70
     0
  9
$DIMTIH
 70
     0
  9
$DIMTOH
 70
     0
  9
$DIMSE1
 70
     0
  9
$DIMSE2
 70
     0
  9
$DIMTAD
 70
     3
  9
$DIMZIN
 70
     8
  9
$DIMBLK
  1

  9
$DIMASO
 70
     1
  9
$DIMSHO
 70
     1
  9
$DIMPOST
  1

  9
$DIMAPOST
  1

  9
$DIMALT
 70
     0
  9
$DIMALTD
 70
     2
  9
$DIMALTF
 40
25.4
  9
$DIMLFAC
 40
1.0
  9
$DIMTOFL
 70
     1
  9
$DIMTVP
 40
0.0
  9
$DIMTIX
 70
     0
  9
$DIMSOXD
 70
     0
  9
$DIMSAH
 70
     1
  9
$DIMBLK1
  1
OPEN
  9
$DIMBLK2
  1
OPEN
  9
$DIMSTYLE
  2
STANDARD
  9
$DIMCLRD
 70
     0
  9
$DIMCLRE
 70
     0
  9
$DIMCLRT
 70
     0
  9
$DIMTFAC
 40
1.0
  9
$DIMGAP
 40
1.0
  9
$DIMJUST
 70
     0
  9
$DIMSD1
 70
     0
  9
$DIMSD2
 70
     0
  9
$DIMTOLJ
 70
     1
  9
$DIMTZIN
 70
     0
  9
$DIMALTZ
 70
     0
  9
$DIMALTTZ
 70
     0
  9
$DIMUPT
 70
     0
  9
$DIMDEC
 70
     4
  9
$DIMTDEC
 70
     4
  9
$DIMALTU
 70
     2
  9
$DIMALTTD
 70
     2
  9
$DIMTXSTY
  7
STANDARD
  9
$DIMAUNIT
 70
     0
  9
$DIMADEC
 70
     0
  9
$DIMALTRND
 40
0.0
  9
$DIMAZIN
 70
     0
  9
$DIMDSEP
 70
    46
  9
$DIMATFIT
 70
     3
  9
$DIMFRAC
 70
     0
  9
$DIMLDRBLK
  1
OPEN
  9
$DIMLUNIT
 70
     2
  9
$DIMLWD
 70
    -2
  9
$DIMLWE
 70
    -2
  9
$DIMTMOVE
 70
     0
  9
$LUNITS
 70
     2
  9
$LUPREC
 70
     4
  9
$SKETCHINC
 40
1.0
  9
$FILLETRAD
 40
0.0
  9
$AUNITS
 70
     0
  9
$AUPREC
 70
     0
  9
$MENU
  1
.
  9
$ELEVATION
 40
0.0
  9
$PELEVATION
 40
0.0
  9
$THICKNESS
 40
0.0
  9
$LIMCHECK
 70
     0
  9
$CHAMFERA
 40
10.0
  9
$CHAMFERB
 40
10.0
  9
$CHAMFERC
 40
20.0
  9
$CHAMFERD
 40
0.0
  9
$SKPOLY
 70
     0
  9
$TDCREATE
 40
2453278.473863021
  9
$TDUCREATE
 40
2453278.098863021
  9
$TDUPDATE
 40
2457192.688947732
  9
$TDUUPDATE
 40
2457192.313947732
  9
$TDINDWG
 40
0.1389657060
  9
$TDUSRTIMER
 40
0.1389656829
  9
$USRTIMER
 70
     1
  9
$ANGBASE
 50
0.0
  9
$ANGDIR
 70
     0
  9
$PDMODE
 70
     0
  9
$PDSIZE
 40
0.0
  9
$PLINEWID
 40
0.0
  9
$SPLFRAME
 70
     0
  9
$SPLINETYPE
 70
     6
  9
$SPLINESEGS
 70
     8
  9
$HANDSEED
  5
1E14
  9
$SURFTAB1
 70
     6
  9
$SURFTAB2
 70
     6
  9
$SURFTYPE
 70
     6
  9
$SURFU
 70
     6
  9
$SURFV
 70
     6
  9
$UCSBASE
  2

  9
$UCSNAME
  2

  9
$UCSORG
 10
0.0
 20
0.0
 30
0.0
  9
$UCSXDIR
 10
1.0
 20
0.0
 30
0.0
  9
$UCSYDIR
 10
0.0
 20
1.0
 30
0.0
  9
$UCSORTHOREF
  2

  9
$UCSORTHOVIEW
 70
     0
  9
$UCSORGTOP
 10
0.0
 20
0.0
 30
0.0
  9
$UCSORGBOTTOM
 10
0.0
 20
0.0
 30
0.0
  9
$UCSORGLEFT
 10
0.0
 20
0.0
 30
0.0
  9
$UCSORGRIGHT
 10
0.0
 20
0.0
 30
0.0
  9
$UCSORGFRONT
 10
0.0
 20
0.0
 30
0.0
  9
$UCSORGBACK
 10
0.0
 20
0.0
 30
0.0
  9
$PUCSBASE
  2

  9
$PUCSNAME
  2

  9
$PUCSORG
 10
0.0
 20
0.0
 30
0.0
  9
$PUCSXDIR
 10
1.0
 20
0.0
 30
0.0
  9
$PUCSYDIR
 10
0.0
 20
1.0
 30
0.0
  9
$PUCSORTHOREF
  2

  9
$PUCSORTHOVIEW
 70
     0
  9
$PUCSORGTOP
 10
0.0
 20
0.0
 30
0.0
  9
$PUCSORGBOTTOM
 10
0.0
 20
0.0
 30
0.0
  9
$PUCSORGLEFT
 10
0.0
 20
0.0
 30
0.0
  9
$PUCSORGRIGHT
 10
0.0
 20
0.0
 30
0.0
  9
$PUCSORGFRONT
 10
0.0
 20
0.0
 30
0.0
  9
$PUCSORGBACK
 10
0.0
 20
0.0
 30
0.0
  9
$USERI1
 70
     0
  9
$USERI2
 70
     0
  9
$USERI3
 70
     0
  9
$USERI4
 70
     0
  9
$USERI5
 70
     0
  9
$USERR1
 40
0.0
  9
$USERR2
 40
0.0
  9
$USERR3
 40
0.0
  9
$USERR4
 40
0.0
  9
$USERR5
 40
0.0
  9
$WORLDVIEW
 70
     1
  9
$SHADEDGE
 70
     3
  9
$SHADEDIF
 70
    70
  9
$TILEMODE
 70
     1
  9
$MAXACTVP
 70
    48
  9
$PINSBASE
 10
0.0
 20
0.0
 30
0.0
  9
$PLIMCHECK
 70
     0
  9
$PEXTMIN
 10
1.000000000000000E+20
 20
1.000000000000000E+20
 30
1.000000000000000E+20
  9
$PEXTMAX
 10
-1.000000000000000E+20
 20
-1.000000000000000E+20
 30
-1.000000000000000E+20
  9
$PLIMMIN
 10
0.0
 20
0.0
  9
$PLIMMAX
 10
420.0
 20
297.0
  9
$UNITMODE
 70
     0
  9
$VISRETAIN
 70
     1
  9
$PLINEGEN
 70
     0
  9
$PSLTSCALE
 70
     1
  9
$TREEDEPTH
 70
  3020
  9
$CMLSTYLE
  2
STANDARD
  9
$CMLJUST
 70
     0
  9
$CMLSCALE
 40
20.0
  9
$PROXYGRAPHICS
 70
     1
  9
$MEASUREMENT
 70
     0
  9
$CELWEIGHT
370
    -1
  9
$ENDCAPS
280
     0
  9
$JOINSTYLE
280
     0
  9
$LWDISPLAY
290
     0
  9
$INSUNITS
 70
     0
  9
$HYPERLINKBASE
  1

  9
$STYLESHEET
  1

  9
$XEDIT
290
     1
  9
$CEPSNTYPE
380
     0
  9
$PSTYLEMODE
290
     1
  9
$FINGERPRINTGUID
  2
{2C9561CC-0771-44E5-A100-DA7EAF1719FF}
  9
$VERSIONGUID
  2
{50B6D292-79A2-4352-A8E6-4E4F16ABAF5F}
  9
$EXTNAMES
290
     1
  9
$PSVPSCALE
 40
0.0
  9
$OLESTARTUP
290
     0
  0
ENDSEC
  0
SECTION
  2
CLASSES
  0
CLASS
  1
ACDBDICTIONARYWDFLT
  2
AcDbDictionaryWithDefault
  3
ObjectDBX Classes
 90
        0
280
     0
281
     0
  0
CLASS
  1
ACDBPLACEHOLDER
  2
AcDbPlaceHolder
  3
ObjectDBX Classes
 90
        0
280
     0
281
     0
  0
CLASS
  1
LAYOUT
  2
AcDbLayout
  3
ObjectDBX Classes
 90
        0
280
     0
281
     0
  0
CLASS
  1
DICTIONARYVAR
  2
AcDbDictionaryVar
  3
ObjectDBX Classes
 90
        0
280
     0
281
     0
  0
CLASS
  1
MATERIAL
  2
AcDbMaterial
  3
ObjectDBX Classes
 90
     1153
280
     0
281
     0
  0
CLASS
  1
VISUALSTYLE
  2
AcDbVisualStyle
  3
ObjectDBX Classes
 90
     4095
280
     0
281
     0
  0
CLASS
  1
TABLESTYLE
  2
AcDbTableStyle
  3
ObjectDBX Classes
 90
     4095
280
     0
281
     0
  0
CLASS
  1
SCALE
  2
AcDbScale
  3
ObjectDBX Classes
 90
     1153
280
     0
281
     0
  0
CLASS
  1
MLEADERSTYLE
  2
AcDbMLeaderStyle
  3
ACDB_MLEADERSTYLE_CLASS
 90
     4095
280
     0
281
     0
  0
CLASS
  1
ACDBSECTIONVIEWSTYLE
  2
AcDbSectionViewStyle
  3
ObjectDBX Classes
 90
     1025
280
     0
281
     0
  0
CLASS
  1
ACDBDETAILVIEWSTYLE
  2
AcDbDetailViewStyle
  3
ObjectDBX Classes
 90
     1025
280
     0
281
     0
  0
CLASS
  1
CELLSTYLEMAP
  2
AcDbCellStyleMap
  3
ObjectDBX Classes
 90
     1152
280
     0
281
     0
  0
ENDSEC
  0
SECTION
  2
TABLES
  0
TABLE
  2
VPORT
  5
8
330
0
100
AcDbSymbolTable
 70
     1
  0
VPORT
  5
1D60
330
8
100
AcDbSymbolTableRecord
100
AcDbViewportTableRecord
  2
*ACTIVE
 70
     0
 10
0.0
 20
0.0
 11
1.0
 21
1.0
 12
393.376279527931
 22
188.7951742482639
 13
0.0
 23
0.0
 14
10.0
 24
10.0
 15
10.0
 25
10.0
 16
0.0
 26
0.0
 36
1.0
 17
0.0
 27
0.0
 37
0.0
 40
360.4167597070457
 41
2.35006605019815
 42
50.0
 43
0.0
 44
0.0
 50
0.0
 51
0.0
 71
     0
 72
   100
 73
     1
 74
     0
 75
     0
 76
     0
 77
     0
 78
     0
281
     0
 65
     1
110
0.0
120
0.0
130
0.0
111
1.0
121
0.0
131
0.0
112
0.0
122
1.0
132
0.0
 79
     0
146
0.0
1001
ACAD_NAV_VCDISPLAY
1070
     3
  0
ENDTAB
  0
TABLE
  2
LTYPE
  5
5
330
0
100
AcDbSymbolTable
 70
     4
  0
LTYPE
  5
12
330
5
100
AcDbSymbolTableRecord
100
AcDbLinetypeTableRecord
  2
BYBLOCK
 70
     0
  3

 72
    65
 73
     0
 40
0.0
  0
LTYPE
  5
13
330
5
100
AcDbSymbolTableRecord
100
AcDbLinetypeTableRecord
  2
BYLAYER
 70
     0
  3

 72
    65
 73
     0
 40
0.0
  0
LTYPE
  5
14
330
5
100
AcDbSymbolTableRecord
100
AcDbLinetypeTableRecord
  2
CONTINUOUS
 70
     0
  3
Solid line
 72
    65
 73
     0
 40
0.0
  0
LTYPE
  5
62
330
5
100
AcDbSymbolTableRecord
100
AcDbLinetypeTableRecord
  2
DASHED
 70
     0
  3
Dashed __ __ __ __ __ __ __ __ __ __ __ __ __ _
 72
    65
 73
     2
 40
19.04999999999998
 49
12.7
 74
     0
 49
-6.349999999999997
 74
     0
  0
LTYPE
  5
63
330
5
100
AcDbSymbolTableRecord
100
AcDbLinetypeTableRecord
  2
CENTER
 70
     0
  3
Center ____ _ ____ _ ____ _ ____ _ ____ _ ____
 72
    65
 73
     4
 40
50.8
 49
31.75
 74
     0
 49
-6.349999999999997
 74
     0
 49
6.349999999999997
 74
     0
 49
-6.349999999999997
 74
     0
  0
LTYPE
  5
64
330
5
100
AcDbSymbolTableRecord
100
AcDbLinetypeTableRecord
  2
PHANTOM
 70
     0
  3
Phantom ______  __  __  ______  __  __  ______
 72
    65
 73
     6
 40
63.5
 49
31.75
 74
     0
 49
-6.349999999999997
 74
     0
 49
6.349999999999997
 74
     0
 49
-6.349999999999997
 74
     0
 49
6.349999999999997
 74
     0
 49
-6.349999999999997
 74
     0
  0
ENDTAB
  0
TABLE
  2
LAYER
  5
2
330
0
100
AcDbSymbolTable
 70
     8
  0
LAYER
  5
E
102
{ACAD_XDICTIONARY
360
1DB8
102
}
330
2
100
AcDbSymbolTableRecord
100
AcDbLayerTableRecord
  2
0
 70
     0
 62
     7
  6
CONTINUOUS
370
    -3
390
1D67
  0
LAYER
  5
65
102
{ACAD_XDICTIONARY
360
1DBA
102
}
330
2
100
AcDbSymbolTableRecord
100
AcDbLayerTableRecord
  2
4
 70
     0
 62
     1
  6
CENTER
370
    -3
390
1D67
  0
LAYER
  5
66
102
{ACAD_XDICTIONARY
360
1DBC
102
}
330
2
100
AcDbSymbolTableRecord
100
AcDbLayerTableRecord
  2
5
 70
     0
 62
     6
  6
PHANTOM
370
    -3
390
1D67
  0
LAYER
  5
67
102
{ACAD_XDICTIONARY
360
1DBE
102
}
330
2
100
AcDbSymbolTableRecord
100
AcDbLayerTableRecord
  2
1
 70
     0
 62
     7
  6
CONTINUOUS
370
    -3
390
1D67
  0
LAYER
  5
68
102
{ACAD_XDICTIONARY
360
1DC0
102
}
330
2
100
AcDbSymbolTableRecord
100
AcDbLayerTableRecord
  2
2
 70
     0
 62
     4
  6
CONTINUOUS
370
    -3
390
1D67
  0
LAYER
  5
69
102
{ACAD_XDICTIONARY
360
1DC2
102
}
330
2
100
AcDbSymbolTableRecord
100
AcDbLayerTableRecord
  2
3
 70
     0
 62
     2
  6
DASHED
370
    -3
390
1D67
  0
LAYER
  5
6A
102
{ACAD_XDICTIONARY
360
1DC4
102
}
330
2
100
AcDbSymbolTableRecord
100
AcDbLayerTableRecord
  2
6
 70
     0
 62
     5
  6
CONTINUOUS
370
    -3
390
1D67
  0
LAYER
  5
6B
102
{ACAD_XDICTIONARY
360
1DC6
102
}
330
2
100
AcDbSymbolTableRecord
100
AcDbLayerTableRecord
  2
7
 70
     0
 62
     3
  6
CONTINUOUS
370
    -3
390
1D67
  0
ENDTAB
  0
TABLE
  2
STYLE
  5
3
330
0
100
AcDbSymbolTable
 70
     1
  0
STYLE
  5
F
330
3
100
AcDbSymbolTableRecord
100
AcDbTextStyleTableRecord
  2
STANDARD
 70
     0
 40
0.0
 41
1.0
 50
0.0
 71
     0
 42
2.5
  3
simplex.shx
  4

  0
ENDTAB
  0
TABLE
  2
VIEW
  5
6
330
0
100
AcDbSymbolTable
 70
     0
  0
ENDTAB
  0
TABLE
  2
UCS
  5
7
330
0
100
AcDbSymbolTable
 70
     0
  0
ENDTAB
  0
TABLE
  2
APPID
  5
9
330
0
100
AcDbSymbolTable
 70
     5
  0
APPID
  5
10
330
9
100
AcDbSymbolTableRecord
100
AcDbRegAppTableRecord
  2
ACAD
 70
     0
  0
APPID
  5
3E
330
9
100
AcDbSymbolTableRecord
100
AcDbRegAppTableRecord
  2
CONTENTTABDATA
 70
     0
  0
APPID
  5
3F
330
9
100
AcDbSymbolTableRecord
100
AcDbRegAppTableRecord
  2
CONTENTCURRENTTAB
 70
     0
  0
APPID
  5
1DD2
330
9
100
AcDbSymbolTableRecord
100
AcDbRegAppTableRecord
  2
ACAD_NAV_VCDISPLAY
 70
     0
  0
APPID
  5
1E0B
330
9
100
AcDbSymbolTableRecord
100
AcDbRegAppTableRecord
  2
ACAD_MLEADERVER
 70
     0
  0
ENDTAB
  0
TABLE
  2
DIMSTYLE
  5
A
330
0
100
AcDbSymbolTable
 70
     1
100
AcDbDimStyleTable
 71
     0
  0
DIMSTYLE
105
1D
330
A
100
AcDbSymbolTableRecord
100
AcDbDimStyleTableRecord
  2
STANDARD
 70
     0
 41
3.0
 42
1.0
 43
10.0
 44
1.0
 73
     0
 74
     0
 77
     3
 78
     8
140
3.2
141
0.0
147
1.0
172
     1
173
     1
340
F
341
2E
343
2E
344
2E
  0
ENDTAB
  0
TABLE
  2
BLOCK_RECORD
  5
1
330
0
100
AcDbSymbolTable
 70
     1
  0
BLOCK_RECORD
  5
18
102
{ACAD_XDICTIONARY
360
1D47
102
}
330
1
100
AcDbSymbolTableRecord
100
AcDbBlockTableRecord
  2
*MODEL_SPACE
340
1DB5
  0
BLOCK_RECORD
  5
15
102
{ACAD_XDICTIONARY
360
1D45
102
}
330
1
100
AcDbSymbolTableRecord
100
AcDbBlockTableRecord
  2
*PAPER_SPACE
340
1DB6
  0
BLOCK_RECORD
  5
2E
330
1
100
AcDbSymbolTableRecord
100
AcDbBlockTableRecord
  2
_OPEN
340
0
  0
ENDTAB
  0
ENDSEC
  0
SECTION
  2
BLOCKS
  0
BLOCK
  5
19
330
18
100
AcDbEntity
  8
0
100
AcDbBlockBegin
  2
*MODEL_SPACE
 70
     0
 10
0.0
 20
0.0
 30
0.0
  3
*MODEL_SPACE
  1

  0
ENDBLK
  5
1A
330
18
100
AcDbEntity
  8
0
100
AcDbBlockEnd
  0
BLOCK
  5
16
330
15
100
AcDbEntity
 67
     1
  8
0
100
AcDbBlockBegin
  2
*PAPER_SPACE
 70
     0
 10
0.0
 20
0.0
 30
0.0
  3
*PAPER_SPACE
  1

  0
ENDBLK
  5
17
330
15
100
AcDbEntity
 67
     1
  8
0
100
AcDbBlockEnd
  0
BLOCK
  5
2F
330
2E
100
AcDbEntity
  8
0
100
AcDbBlockBegin
  2
_OPEN
 70
     0
 10
0.0
 20
0.0
 30
0.0
  3
_OPEN
  1

  0
LINE
  5
30
330
2E
100
AcDbEntity
  8
0
  6
ByBlock
 62
     0
100
AcDbLine
 10
-1.0
 20
0.1666666666666666
 30
0.0
 11
0.0
 21
0.0
 31
0.0
  0
LINE
  5
31
330
2E
100
AcDbEntity
  8
0
  6
ByBlock
 62
     0
100
AcDbLine
 10
0.0
 20
0.0
 30
0.0
 11
-1.0
 21
-0.1666666666666666
 31
0.0
  0
LINE
  5
32
330
2E
100
AcDbEntity
  8
0
  6
ByBlock
 62
     0
100
AcDbLine
 10
0.0
 20
0.0
 30
0.0
 11
-1.0
 21
0.0
 31
0.0
  0
ENDBLK
  5
33
330
2E
100
AcDbEntity
  8
0
100
AcDbBlockEnd
  0
ENDSEC
  0
SECTION
  2
ENTITIES
  0
LINE
  5
228
330
18
100
AcDbEntity
  8
1
  6
Continuous
100
AcDbLine
 10
150.7424883570628
 20
327.0650925229897
 30
0.0
 11
138.0913883492856
 21
327.0650925229897
 31
0.0
  0
ARC
  5
22A
330
18
100
AcDbEntity
  8
1
  6
Continuous
100
AcDbCircle
 10
143.4206718895998
 20
318.2538560783176
 30
0.0
 40
9.372808071568078
100
AcDbArc
 50
120.6759711044312
 51
270.2499476049814
  0
ARC
  5
22B
330
18
100
AcDbEntity
  8
1
  6
Continuous
100
AcDbCircle
 10
142.519569453937
 20
317.9945038218098
 30
0.0
 40
9.181085115759399
100
AcDbArc
 50
115.0044330465658
 51
276.082945253545
  0
ARC
  5
22D
330
18
100
AcDbEntity
  8
1
  6
Continuous
100
AcDbCircle
 10
163.812239512649
 20
220.5700431747215
 30
0.0
 40
27.0
100
AcDbArc
 50
197.7070399999998
 51
238.3997199999997
  0
ARC
  5
22E
330
18
100
AcDbEntity
  8
5
  6
PHANTOM
 48
0.3
100
AcDbCircle
 10
144.248568512649
 20
212.0660231747215
 30
0.0
 40
27.0
100
AcDbArc
 50
250.7070399999999
 51
291.3997200000001
  0
LINE
  5
22F
330
18
100
AcDbEntity
  8
1
  6
Continuous
100
AcDbLine
 10
134.092478512649
 20
221.7938921747215
 30
0.0
 11
154.270869512649
 21
210.1438901747215
 31
0.0
  0
LINE
  5
230
330
18
100
AcDbEntity
  8
1
  6
Continuous
100
AcDbLine
 10
133.3424785126489
 20
220.4948541747214
 30
0.0
 11
153.520869512649
 21
208.8448501747214
 31
0.0
  0
LINE
  5
233
330
18
100
AcDbEntity
  8
4
  6
CENTER
 48
0.4
100
AcDbLine
 10
125.0586195126489
 20
196.6986981747215
 30
0.0
 11
200.058619512649
 21
196.6986981747215
 31
0.0
  0
LINE
  5
234
330
18
100
AcDbEntity
  8
5
  6
PHANTOM
 48
0.3
100
AcDbLine
 10
125.3853555126489
 20
189.0672851747214
 30
0.0
 11
146.8331255126489
 21
198.1713201747215
 31
0.0
  0
LINE
  5
235
330
18
100
AcDbEntity
  8
5
  6
PHANTOM
 48
0.3
100
AcDbLine
 10
125.971453512649
 20
187.6865291747215
 30
0.0
 11
147.4192225126488
 21
196.7905631747216
 31
0.0
  0
LINE
  5
236
330
18
100
AcDbEntity
  8
4
  6
CENTER
 48
0.4
100
AcDbLine
 10
224.1865335126501
 20
341.5651125229898
 30
0.0
 11
125.0586195126489
 21
341.5651125229898
 31
0.0
  0
LINE
  5
237
330
18
100
AcDbEntity
  8
1
  6
Continuous
100
AcDbLine
 10
18.98881775087943
 20
240.3986949347214
 30
0.0
 11
35.98881775087944
 21
240.3986949347214
 31
0.0
  0
LINE
  5
238
330
18
100
AcDbEntity
  8
1
  6
Continuous
100
AcDbLine
 10
14.98881775087943
 20
244.6986941747216
 30
0.0
 11
35.98881775087944
 21
244.6986941747216
 31
0.0
  0
LINE
  5
239
330
18
100
AcDbEntity
  8
1
  6
Continuous
100
AcDbLine
 10
14.98881775087943
 20
246.1986941747216
 30
0.0
 11
35.98881775087944
 21
246.1986941747216
 31
0.0
  0
ARC
  5
23B
330
18
100
AcDbEntity
  8
1
  6
Continuous
100
AcDbCircle
 10
35.98881775087944
 20
403.8832341747213
 30
0.0
 40
169.25
100
AcDbArc
 50
265.81255
 51
274.1874399999999
  0
ARC
  5
23C
330
18
100
AcDbEntity
  8
1
  6
Continuous
100
AcDbCircle
 10
35.98881775087944
 20
307.3838211747215
 30
0.0
 40
70.550117
100
AcDbArc
 50
259.38165
 51
280.6183499999999
  0
ARC
  5
23D
330
18
100
AcDbEntity
  8
1
  6
Continuous
100
AcDbCircle
 10
35.98881775087944
 20
402.4087041747215
 30
0.0
 40
169.25
100
AcDbArc
 50
265.5947900000001
 51
274.40519
  0
LINE
  5
23E
330
18
100
AcDbEntity
  8
1
  6
Continuous
100
AcDbLine
 10
20.28882075087943
 20
239.7986954747215
 30
0.0
 11
51.68881875087929
 21
239.7986954747215
 31
0.0
  0
LINE
  5
23F
330
18
100
AcDbEntity
  8
4
  6
CENTER
 48
0.4
100
AcDbLine
 10
13.48881775087943
 20
196.6986981747215
 30
0.0
 11
68.48881775087938
 21
196.6986981747215
 31
0.0
  0
TEXT
  5
242
330
18
100
AcDbEntity
  8
1
  6
Continuous
 48
0.25
100
AcDbText
 10
9.99999906424682
 20
10.00000056761564
 30
0.0
 40
1.399999999999999
  1
LAYER
100
AcDbText
  0
TEXT
  5
243
330
18
100
AcDbEntity
  8
7
  6
Continuous
 48
0.25
100
AcDbText
 10
9.99999906424682
 20
18.00000056761564
 30
0.0
 40
3.0
  1
TYPE No.TCA-315E-UR65
100
AcDbText
  0
TEXT
  5
244
330
18
100
AcDbEntity
  8
7
  6
Continuous
 48
0.25
100
AcDbText
 10
9.99999906424682
 20
26.00000056761564
 30
0.0
 40
3.0
  1
CODE No.19227
100
AcDbText
  0
TEXT
  5
245
330
18
100
AcDbEntity
  8
2
  6
Continuous
 48
0.25
100
AcDbText
 10
19.97951006424682
 20
9.999999806846743
 30
0.0
 40
1.399999999999999
  1
2
100
AcDbText
  0
TEXT
  5
246
330
18
100
AcDbEntity
  8
1
  6
Continuous
 48
0.25
100
AcDbText
 10
17.97951006424682
 20
9.999999806846743
 30
0.0
 40
1.399999999999999
  1
1
100
AcDbText
  0
TEXT
  5
247
330
18
100
AcDbEntity
  8
3
  6
DASHED
 48
0.25
100
AcDbText
 10
21.97951006424682
 20
9.999999806846743
 30
0.0
 40
1.399999999999999
  1
3
100
AcDbText
  0
TEXT
  5
248
330
18
100
AcDbEntity
  8
5
  6
PHANTOM
 48
0.3
100
AcDbText
 10
25.97951006424682
 20
9.999999806846743
 30
0.0
 40
1.399999999999999
  1
5
100
AcDbText
  0
TEXT
  5
249
330
18
100
AcDbEntity
  8
4
  6
CENTER
 48
0.4
100
AcDbText
 10
23.97951006424682
 20
9.999999806846743
 30
0.0
 40
1.399999999999999
  1
4
100
AcDbText
  0
TEXT
  5
24A
330
18
100
AcDbEntity
  8
7
  6
Continuous
 48
0.25
100
AcDbText
 10
29.97951006424682
 20
9.999999806846743
 30
0.0
 40
1.399999999999999
  1
7
100
AcDbText
  0
TEXT
  5
24B
330
18
100
AcDbEntity
  8
6
  6
Continuous
 48
0.25
100
AcDbText
 10
27.97951006424682
 20
9.999999806846743
 30
0.0
 40
1.399999999999999
  1
6
100
AcDbText
  0
ARC
  5
24D
330
18
100
AcDbEntity
  8
1
  6
Continuous
100
AcDbCircle
 10
55.04957475087931
 20
219.0925651747214
 30
0.0
 40
38.0
100
AcDbArc
 50
177.5748599999998
 51
207.1232621875106
  0
LINE
  5
24F
330
18
100
AcDbEntity
  8
1
  6
Continuous
100
AcDbLine
 10
21.48880275087941
 20
233.2256139747214
 30
0.0
 11
21.48880275087941
 21
187.7986961747216
 31
0.0
  0
LINE
  5
250
330
18
100
AcDbEntity
  8
1
  6
Continuous
100
AcDbLine
 10
22.98881775087943
 20
233.6587008747215
 30
0.0
 11
22.98881775087943
 21
186.2987001747216
 31
0.0
  0
LINE
  5
255
330
18
100
AcDbEntity
  8
1
  6
Continuous
100
AcDbLine
 10
21.48880275087941
 20
187.7986961747216
 30
0.0
 11
22.98881775087943
 21
187.7986961747216
 31
0.0
  0
ARC
  5
269
330
18
100
AcDbEntity
  8
1
  6
Continuous
100
AcDbCircle
 10
20.28882075087943
 20
237.2986954747215
 30
0.0
 40
2.5
100
AcDbArc
 50
89.99998199999998
 51
177.5748599999998
  0
LINE
  5
26A
330
18
100
AcDbEntity
  8
1
  6
Continuous
100
AcDbLine
 10
17.08361275087941
 20
220.7005101747215
 30
0.0
 11
17.79106375087939
 21
237.4044810747215
 31
0.0
  0
ARC
  5
26C
330
18
100
AcDbEntity
  8
1
  6
Continuous
100
AcDbCircle
 10
35.98881775087944
 20
195.7095541747214
 30
0.0
 40
37.88914099999999
100
AcDbArc
 50
97.90250399999987
 51
110.0971899999997
  0
ARC
  5
26D
330
18
100
AcDbEntity
  8
1
  6
Continuous
100
AcDbCircle
 10
23.48422475087942
 20
233.0903748747214
 30
0.0
 40
2.0
100
AcDbArc
 50
85.81247499999966
 51
179.53496
  0
LINE
  5
26E
330
18
100
AcDbEntity
  8
1
  6
Continuous
100
AcDbLine
 10
15.63015975087943
 20
244.4346937747216
 30
0.0
 11
17.22561875087945
 21
241.4546992247216
 31
0.0
  0
ARC
  5
26F
330
18
100
AcDbEntity
  8
1
  6
Continuous
100
AcDbCircle
 10
15.18936375087941
 20
244.1986941747216
 30
0.0
 40
0.5
100
AcDbArc
 50
28.16415700000023
 51
90.00001599999967
  0
LINE
  5
270
330
18
100
AcDbEntity
  8
1
  6
Continuous
100
AcDbLine
 10
14.98881775087943
 20
246.1986941747216
 30
0.0
 11
14.98881775087943
 21
244.6986941747216
 31
0.0
  0
LINE
  5
271
330
18
100
AcDbEntity
  8
4
  6
CENTER
 48
0.4
100
AcDbLine
 10
21.98881775087943
 20
249.1986941747216
 30
0.0
 11
21.98881775087943
 21
241.6986941747214
 31
0.0
  0
ARC
  5
272
330
18
100
AcDbEntity
  8
1
  6
Continuous
100
AcDbCircle
 10
18.98881775087943
 20
242.3986949747216
 30
0.0
 40
2.0
100
AcDbArc
 50
208.1641000000002
 51
270.0
  0
ARC
  5
273
330
18
100
AcDbEntity
  8
1
  6
Continuous
100
AcDbCircle
 10
24.02995575087942
 20
240.8831958247215
 30
0.0
 40
1.984500099999999
100
AcDbArc
 50
194.1311599999995
 51
213.1262299999997
  0
ARC
  5
274
330
18
100
AcDbEntity
  8
1
  6
Continuous
100
AcDbCircle
 10
23.48881775087943
 20
240.8831958247215
 30
0.0
 40
1.984500099999999
100
AcDbArc
 50
194.1311599999995
 51
213.1262299999997
  0
ARC
  5
275
330
18
100
AcDbEntity
  8
1
  6
Continuous
100
AcDbCircle
 10
25.77330275087945
 20
240.8831958247215
 30
0.0
 40
1.984500099999999
100
AcDbArc
 50
194.1311599999995
 51
213.1262299999997
  0
ARC
  5
276
330
18
100
AcDbEntity
  8
1
  6
Continuous
100
AcDbCircle
 10
28.54657275087942
 20
240.8831958247215
 30
0.0
 40
1.984500099999999
100
AcDbArc
 50
194.1311599999995
 51
213.1262299999997
  0
ARC
  5
277
330
18
100
AcDbEntity
  8
1
  6
Continuous
100
AcDbCircle
 10
32.07015475087938
 20
240.8831958247215
 30
0.0
 40
1.984500099999999
100
AcDbArc
 50
194.1311599999995
 51
213.1262299999997
  0
ARC
  5
278
330
18
100
AcDbEntity
  8
1
  6
Continuous
100
AcDbCircle
 10
28.54657275087942
 20
240.8831958247215
 30
0.0
 40
1.984500099999999
100
AcDbArc
 50
326.8737700000003
 51
332.5952099999998
  0
LINE
  5
279
330
18
100
AcDbEntity
  8
4
  6
CENTER
 48
0.4
100
AcDbLine
 10
35.98881775087944
 20
251.1986941747216
 30
0.0
 11
35.98881775087944
 21
159.1986981747214
 31
0.0
  0
LINE
  5
27D
330
18
100
AcDbEntity
  8
1
  6
Continuous
100
AcDbLine
 10
68.68881855087943
 20
216.2448501747216
 30
0.0
 11
68.68881855087943
 21
217.5438901747214
 31
0.0
  0
LINE
  5
27E
330
18
100
AcDbEntity
  8
1
  6
Continuous
100
AcDbLine
 10
51.98883275087932
 20
217.5288261747214
 30
0.0
 11
51.98883275087932
 21
185.6820811747216
 31
0.0
  0
LINE
  5
280
330
18
100
AcDbEntity
  8
1
  6
Continuous
100
AcDbLine
 10
50.48883275087931
 20
233.2256139747214
 30
0.0
 11
50.48883275087931
 21
185.6859871747214
 31
0.0
  0
LINE
  5
281
330
18
100
AcDbEntity
  8
1
  6
Continuous
100
AcDbLine
 10
48.98881775087939
 20
233.6587008747215
 30
0.0
 11
48.98881775087939
 21
212.4061811747216
 31
0.0
  0
ARC
  5
282
330
18
100
AcDbEntity
  8
1
  6
Continuous
100
AcDbCircle
 10
67.18881855087943
 20
216.2448501747216
 30
0.0
 40
1.5
100
AcDbArc
 50
317.1014099999997
 51
47.13928500000028
  0
LINE
  5
283
330
18
100
AcDbEntity
  8
1
  6
Continuous
100
AcDbLine
 10
61.48883475087939
 20
207.9070261747214
 30
0.0
 11
68.2876582508794
 21
215.2237951747214
 31
0.0
  0
LINE
  5
286
330
18
100
AcDbEntity
  8
2
  6
Continuous
100
AcDbLine
 10
63.98880375087942
 20
194.1986981747215
 30
0.0
 11
59.68883175087942
 21
194.1986981747215
 31
0.0
  0
LINE
  5
287
330
18
100
AcDbEntity
  8
2
  6
Continuous
100
AcDbLine
 10
63.98880275087945
 20
199.1986981747215
 30
0.0
 11
59.68883175087942
 21
199.1986981747215
 31
0.0
  0
ARC
  5
288
330
18
100
AcDbEntity
  8
1
  6
Continuous
100
AcDbCircle
 10
62.62726775087941
 20
198.0277921747216
 30
0.0
 40
14.405884
100
AcDbArc
 50
241.1788499999994
 51
305.6665899999996
  0
LINE
  5
28B
330
18
100
AcDbEntity
  8
1
  6
Continuous
100
AcDbLine
 10
48.98881775087939
 20
208.5788591747216
 30
0.0
 11
48.98881775087939
 21
187.7986961747216
 31
0.0
  0
ARC
  5
293
330
18
100
AcDbEntity
  8
1
  6
Continuous
100
AcDbCircle
 10
52.9888177508794
 20
183.6205231747214
 30
0.0
 40
1.0
100
AcDbArc
 50
0.0
 51
62.3032920000001
  0
LINE
  5
294
330
18
100
AcDbEntity
  8
1
  6
Continuous
100
AcDbLine
 10
53.98881775087939
 20
182.7200371747214
 30
0.0
 11
53.98881775087939
 21
190.1986941747214
 31
0.0
  0
LINE
  5
295
330
18
100
AcDbEntity
  8
1
  6
Continuous
100
AcDbLine
 10
52.15360875087942
 20
184.5059411747214
 30
0.0
 11
50.7564247508794
 21
185.2393701747215
 31
0.0
  0
ARC
  5
296
330
18
100
AcDbEntity
  8
1
  6
Continuous
100
AcDbCircle
 10
51.68881875087929
 20
183.6205191747216
 30
0.0
 40
1.0
100
AcDbArc
 50
0.0
 51
62.30345599999989
  0
LINE
  5
297
330
18
100
AcDbEntity
  8
1
  6
Continuous
100
AcDbLine
 10
52.22856975087939
 20
185.2551591747214
 30
0.0
 11
53.5093427508794
 21
184.4743711747216
 31
0.0
  0
LINE
  5
298
330
18
100
AcDbEntity
  8
1
  6
Continuous
100
AcDbLine
 10
52.68881875087931
 20
182.7200371747214
 30
0.0
 11
52.68881875087931
 21
183.6205191747216
 31
0.0
  0
LINE
  5
299
330
18
100
AcDbEntity
  8
1
  6
Continuous
100
AcDbLine
 10
52.68881875087931
 20
182.7200371747214
 30
0.0
 11
53.98881775087939
 21
182.7200371747214
 31
0.0
  0
ARC
  5
29B
330
18
100
AcDbEntity
  8
1
  6
Continuous
100
AcDbCircle
 10
54.9888177508794
 20
184.6466961747216
 30
0.0
 40
1.0
100
AcDbArc
 50
61.1788509999997
 51
180.0000100000002
  0
LINE
  5
29D
330
18
100
AcDbEntity
  8
1
  6
Continuous
100
AcDbLine
 10
50.4888177508794
 20
185.8785681747215
 30
0.0
 11
51.98883275087932
 21
185.8785681747215
 31
0.0
  0
LINE
  5
29E
330
18
100
AcDbEntity
  8
1
  6
Continuous
100
AcDbLine
 10
48.98881775087939
 20
187.7986961747216
 30
0.0
 11
50.48883275087931
 21
187.7986961747216
 31
0.0
  0
ARC
  5
29F
330
18
100
AcDbEntity
  8
1
  6
Continuous
100
AcDbCircle
 10
50.9888177508794
 20
185.6820811747216
 30
0.0
 40
0.5
100
AcDbArc
 50
179.9999899999995
 51
242.3034499999998
  0
LINE
  5
2A0
330
18
100
AcDbEntity
  8
1
  6
Continuous
100
AcDbLine
 10
49.28881675087939
 20
186.1137601747214
 30
0.0
 11
50.4888177508794
 21
186.1137601747214
 31
0.0
  0
LINE
  5
2A1
330
18
100
AcDbEntity
  8
1
  6
Continuous
100
AcDbLine
 10
49.28881675087939
 20
186.1137601747214
 30
0.0
 11
49.28881675087939
 21
187.7986961747216
 31
0.0
  0
ARC
  5
2A2
330
18
100
AcDbEntity
  8
1
  6
Continuous
100
AcDbCircle
 10
52.48883275087932
 20
185.6820811747216
 30
0.0
 40
0.5
100
AcDbArc
 50
179.9999899999995
 51
242.30328
  0
ARC
  5
2A3
330
18
100
AcDbEntity
  8
1
  6
Continuous
100
AcDbCircle
 10
51.98883275087932
 20
188.9987011747214
 30
0.0
 40
1.8
100
AcDbArc
 50
270.0
 51
0.0
  0
LINE
  5
2A5
330
18
100
AcDbEntity
  8
1
  6
Continuous
100
AcDbLine
 10
53.7888317508794
 20
193.6986981747214
 30
0.0
 11
52.78050675087939
 21
193.6986981747214
 31
0.0
  0
LINE
  5
2A6
330
18
100
AcDbEntity
  8
1
  6
Continuous
100
AcDbLine
 10
53.7888317508794
 20
193.0618611747214
 30
0.0
 11
51.98883475087939
 21
194.1987021747216
 31
0.0
  0
LINE
  5
2A7
330
18
100
AcDbEntity
  8
2
  6
Continuous
100
AcDbLine
 10
53.7888317508794
 20
194.1986981747215
 30
0.0
 11
51.9888387508794
 21
194.1986981747215
 31
0.0
  0
LINE
  5
2AD
330
18
100
AcDbEntity
  8
1
  6
Continuous
100
AcDbLine
 10
55.4708967508794
 20
185.5228251747214
 30
0.0
 11
55.6825207508794
 21
185.4063811747216
 31
0.0
  0
LINE
  5
2AF
330
18
100
AcDbEntity
  8
1
  6
Continuous
100
AcDbLine
 10
63.4888027508794
 20
193.6986981747214
 30
0.0
 11
59.68883175087942
 21
193.6986981747214
 31
0.0
  0
ARC
  5
2B3
330
18
100
AcDbEntity
  8
1
  6
Continuous
100
AcDbCircle
 10
51.98883275087932
 20
204.3987021747214
 30
0.0
 40
1.8
100
AcDbArc
 50
0.0
 51
90.00000300000015
  0
LINE
  5
2B4
330
18
100
AcDbEntity
  8
1
  6
Continuous
100
AcDbLine
 10
59.2888317508794
 20
207.9070301747214
 30
0.0
 11
59.2888317508794
 21
201.6986981747215
 31
0.0
  0
LINE
  5
2B9
330
18
100
AcDbEntity
  8
1
  6
Continuous
100
AcDbLine
 10
53.7888317508794
 20
199.6986981747214
 30
0.0
 11
53.16274475087944
 21
199.6986981747214
 31
0.0
  0
LINE
  5
2BA
330
18
100
AcDbEntity
  8
1
  6
Continuous
100
AcDbLine
 10
51.98883475087939
 20
198.9486981747214
 30
0.0
 11
53.7888317508794
 21
200.0986961747214
 31
0.0
  0
LINE
  5
2BB
330
18
100
AcDbEntity
  8
2
  6
Continuous
100
AcDbLine
 10
53.7888317508794
 20
199.1986981747215
 30
0.0
 11
52.38013675087938
 21
199.1986981747215
 31
0.0
  0
LINE
  5
2C6
330
18
100
AcDbEntity
  8
1
  6
Continuous
100
AcDbLine
 10
63.48880175087947
 20
199.6986981747214
 30
0.0
 11
59.68883175087942
 21
199.6986981747214
 31
0.0
  0
LINE
  5
2C8
330
18
100
AcDbEntity
  8
1
  6
Continuous
100
AcDbLine
 10
51.98883275087932
 20
207.9070301747214
 30
0.0
 11
61.48883275087928
 21
207.9070301747214
 31
0.0
  0
LINE
  5
2C9
330
18
100
AcDbEntity
  8
1
  6
Continuous
100
AcDbLine
 10
47.88881975087927
 20
211.8269001747214
 30
0.0
 11
48.28881875087938
 21
210.3776611747214
 31
0.0
  0
LINE
  5
2CA
330
18
100
AcDbEntity
  8
1
  6
Continuous
100
AcDbLine
 10
47.88881975087927
 20
209.7269021747214
 30
0.0
 11
47.88881975087927
 21
211.8269001747214
 31
0.0
  0
LINE
  5
2CB
330
18
100
AcDbEntity
  8
1
  6
Continuous
100
AcDbLine
 10
49.8149517508794
 20
210.7948491747216
 30
0.0
 11
50.4888177508794
 21
210.7948491747216
 31
0.0
  0
LINE
  5
2CC
330
18
100
AcDbEntity
  8
1
  6
Continuous
100
AcDbLine
 10
49.8149517508794
 20
208.6948491747214
 30
0.0
 11
50.4888177508794
 21
208.6948491747214
 31
0.0
  0
LINE
  5
2CD
330
18
100
AcDbEntity
  8
1
  6
Continuous
100
AcDbLine
 10
47.88881975087927
 20
209.7269021747214
 30
0.0
 11
48.28881875087938
 21
208.2776581747214
 31
0.0
  0
LINE
  5
2CE
330
18
100
AcDbEntity
  8
1
  6
Continuous
100
AcDbLine
 10
48.2888207508794
 20
208.2776581747214
 30
0.0
 11
48.2888207508794
 21
210.3776611747214
 31
0.0
  0
ARC
  5
2CF
330
18
100
AcDbEntity
  8
1
  6
Continuous
100
AcDbCircle
 10
49.8149517508794
 20
205.6948491747216
 30
0.0
 40
3.0
100
AcDbArc
 50
90.00000300000015
 51
120.5780699999996
  0
ARC
  5
2D0
330
18
100
AcDbEntity
  8
1
  6
Continuous
100
AcDbCircle
 10
49.8149517508794
 20
207.7948471747216
 30
0.0
 40
3.0
100
AcDbArc
 50
90.00000300000015
 51
120.5780699999996
  0
LINE
  5
2D1
330
18
100
AcDbEntity
  8
1
  6
Continuous
100
AcDbLine
 10
49.8063457508794
 20
212.5197221747216
 30
0.0
 11
50.4888177508794
 21
212.5197221747216
 31
0.0
  0
ARC
  5
2D2
330
18
100
AcDbEntity
  8
1
  6
Continuous
100
AcDbCircle
 10
49.8063457508794
 20
209.5197221747215
 30
0.0
 40
3.0
100
AcDbArc
 50
90.00000300000015
 51
129.7304699999995
  0
LINE
  5
2D4
330
18
100
AcDbEntity
  8
1
  6
Continuous
100
AcDbLine
 10
63.9888027508794
 20
195.7162991992281
 30
0.0
 11
70.86742505087944
 21
191.3111251747216
 31
0.0
  0
ARC
  5
2D5
330
18
100
AcDbEntity
  8
1
  6
Continuous
100
AcDbCircle
 10
69.78881695087938
 20
189.6269011747214
 30
0.0
 40
2.0
100
AcDbArc
 50
0.0
 51
57.36389700000028
  0
ARC
  5
2D6
330
18
100
AcDbEntity
  8
1
  6
Continuous
100
AcDbCircle
 10
69.78881695087938
 20
187.8948501747214
 30
0.0
 40
2.0
100
AcDbArc
 50
307.0702199999999
 51
57.36389700000028
  0
LINE
  5
2D7
330
18
100
AcDbEntity
  8
1
  6
Continuous
100
AcDbLine
 10
63.85807310501107
 20
194.0679677903139
 30
0.0
 11
70.86742355087938
 21
189.5790731747214
 31
0.0
  0
LINE
  5
2D8
330
18
100
AcDbEntity
  8
1
  6
Continuous
100
AcDbLine
 10
71.78881695087937
 20
187.8948501747214
 30
0.0
 11
71.78881695087937
 21
189.6269011747214
 31
0.0
  0
ARC
  5
2DA
330
18
100
AcDbEntity
  8
1
  6
Continuous
100
AcDbCircle
 10
59.8409777508794
 20
207.8142761747216
 30
0.0
 40
12.680579
100
AcDbArc
 50
48.49406599999965
 51
127.3475800000001
  0
ARC
  5
2DB
330
18
100
AcDbEntity
  8
1
  6
Continuous
100
AcDbCircle
 10
60.1825657508794
 20
209.9938921747214
 30
0.0
 40
11.8
100
AcDbArc
 50
47.13928500000028
 51
90.03034899999979
  0
ARC
  5
2DC
330
18
100
AcDbEntity
  8
1
  6
Continuous
100
AcDbCircle
 10
51.68881875087929
 20
237.2986954747215
 30
0.0
 40
2.5
100
AcDbArc
 50
2.425135300000146
 51
89.99998199999998
  0
ARC
  5
2DD
330
18
100
AcDbEntity
  8
1
  6
Continuous
100
AcDbCircle
 10
35.98881775087944
 20
195.7095541747214
 30
0.0
 40
37.88914099999999
100
AcDbArc
 50
69.90281300000029
 51
82.09751499999972
  0
LINE
  5
2E0
330
18
100
AcDbEntity
  8
1
  6
Continuous
100
AcDbLine
 10
54.18657975087938
 20
237.4044801747214
 30
0.0
 11
54.89112375087938
 21
220.7689781747216
 31
0.0
  0
ARC
  5
2E1
330
18
100
AcDbEntity
  8
1
  6
Continuous
100
AcDbCircle
 10
60.24603875087939
 20
207.2940041747215
 30
0.0
 40
14.5
100
AcDbArc
 50
90.22610900000026
 51
128.3583399999997
  0
ARC
  5
2E2
330
18
100
AcDbEntity
  8
1
  6
Continuous
100
AcDbCircle
 10
52.4888177508794
 20
217.0958151747214
 30
0.0
 40
2.0
100
AcDbArc
 50
128.3583399999997
 51
180.0000100000002
  0
ARC
  5
2E3
330
18
100
AcDbEntity
  8
1
  6
Continuous
100
AcDbCircle
 10
52.48883275087932
 20
217.5288261747214
 30
0.0
 40
0.5
100
AcDbArc
 50
124.6727300000002
 51
180.0000100000002
  0
ARC
  5
2E4
330
18
100
AcDbEntity
  8
1
  6
Continuous
100
AcDbCircle
 10
48.49341075087941
 20
233.0903748747214
 30
0.0
 40
2.0
100
AcDbArc
 50
0.4649992799999604
 51
94.18748899999972
  0
LINE
  5
2E5
330
18
100
AcDbEntity
  8
1
  6
Continuous
100
AcDbLine
 10
52.9888177508794
 20
240.3986949347214
 30
0.0
 11
35.98881775087944
 21
240.3986949347214
 31
0.0
  0
LINE
  5
2E6
330
18
100
AcDbEntity
  8
1
  6
Continuous
100
AcDbLine
 10
56.9888177508794
 20
244.6986941747216
 30
0.0
 11
35.98881775087944
 21
244.6986941747216
 31
0.0
  0
LINE
  5
2E7
330
18
100
AcDbEntity
  8
1
  6
Continuous
100
AcDbLine
 10
56.9888177508794
 20
246.1986941747216
 30
0.0
 11
35.98881775087944
 21
246.1986941747216
 31
0.0
  0
ARC
  5
2E8
330
18
100
AcDbEntity
  8
1
  6
Continuous
100
AcDbCircle
 10
32.07015475087938
 20
240.8831958247215
 30
0.0
 40
1.984500099999999
100
AcDbArc
 50
326.8737700000003
 51
345.8688299999995
  0
ARC
  5
2E9
330
18
100
AcDbEntity
  8
1
  6
Continuous
100
AcDbCircle
 10
35.98881775087944
 20
240.8831958247215
 30
0.0
 40
1.984500099999999
100
AcDbArc
 50
194.1311599999995
 51
213.1262299999997
  0
ARC
  5
2EA
330
18
100
AcDbEntity
  8
1
  6
Continuous
100
AcDbCircle
 10
35.98881775087944
 20
240.8831958247215
 30
0.0
 40
1.984500099999999
100
AcDbArc
 50
326.8737700000003
 51
345.8688399999997
  0
ARC
  5
2EB
330
18
100
AcDbEntity
  8
1
  6
Continuous
100
AcDbCircle
 10
39.90748075087941
 20
240.8831958247215
 30
0.0
 40
1.984500099999999
100
AcDbArc
 50
194.1311599999995
 51
213.1262299999997
  0
ARC
  5
2EC
330
18
100
AcDbEntity
  8
1
  6
Continuous
100
AcDbCircle
 10
43.43106275087939
 20
240.8831958247215
 30
0.0
 40
1.984500099999999
100
AcDbArc
 50
207.40479
 51
213.1262299999997
  0
ARC
  5
2ED
330
18
100
AcDbEntity
  8
1
  6
Continuous
100
AcDbCircle
 10
39.90748075087941
 20
240.8831958247215
 30
0.0
 40
1.984500099999999
100
AcDbArc
 50
326.8737700000003
 51
345.8688399999997
  0
ARC
  5
2EE
330
18
100
AcDbEntity
  8
1
  6
Continuous
100
AcDbCircle
 10
43.43106275087939
 20
240.8831958247215
 30
0.0
 40
1.984500099999999
100
AcDbArc
 50
326.8737700000003
 51
345.8688399999997
  0
LINE
  5
2EF
330
18
100
AcDbEntity
  8
4
  6
CENTER
 48
0.4
100
AcDbLine
 10
49.9888177508794
 20
249.1986941747214
 30
0.0
 11
49.9888177508794
 21
241.6986941747214
 31
0.0
  0
LINE
  5
2F0
330
18
100
AcDbEntity
  8
1
  6
Continuous
100
AcDbLine
 10
56.3474717508794
 20
244.4346889747214
 30
0.0
 11
54.7520127508794
 21
241.4546907547215
 31
0.0
  0
ARC
  5
2F1
330
18
100
AcDbEntity
  8
1
  6
Continuous
100
AcDbCircle
 10
48.4888177508794
 20
240.8831958247215
 30
0.0
 40
1.984500099999999
100
AcDbArc
 50
326.8737700000003
 51
345.8688399999997
  0
ARC
  5
2F2
330
18
100
AcDbEntity
  8
1
  6
Continuous
100
AcDbCircle
 10
47.94767975087938
 20
240.8831958247215
 30
0.0
 40
1.984500099999999
100
AcDbArc
 50
326.8737700000003
 51
345.8688399999997
  0
ARC
  5
2F3
330
18
100
AcDbEntity
  8
1
  6
Continuous
100
AcDbCircle
 10
46.2043327508794
 20
240.8831958247215
 30
0.0
 40
1.984500099999999
100
AcDbArc
 50
326.8737700000003
 51
345.8688399999997
  0
ARC
  5
2F4
330
18
100
AcDbEntity
  8
1
  6
Continuous
100
AcDbCircle
 10
52.9888177508794
 20
242.3986949747216
 30
0.0
 40
2.0
100
AcDbArc
 50
270.0
 51
331.8358700000001
  0
ARC
  5
2F5
330
18
100
AcDbEntity
  8
1
  6
Continuous
100
AcDbCircle
 10
56.78827175087929
 20
244.1986941747216
 30
0.0
 40
0.5
100
AcDbArc
 50
89.9999619999996
 51
151.83583
  0
LINE
  5
2F6
330
18
100
AcDbEntity
  8
1
  6
Continuous
100
AcDbLine
 10
56.9888177508794
 20
246.1986941747216
 30
0.0
 11
56.9888177508794
 21
244.6986941747216
 31
0.0
  0
ARC
  5
2F7
330
18
100
AcDbEntity
  8
1
  6
Continuous
100
AcDbCircle
 10
67.18881855087943
 20
217.5438901747214
 30
0.0
 40
1.5
100
AcDbArc
 50
0.0
 51
47.13928500000028
  0
ARC
  5
2F8
330
18
100
AcDbEntity
  8
1
  6
Continuous
100
AcDbCircle
 10
138.2118335126488
 20
216.5288291747216
 30
0.0
 40
1.0
100
AcDbArc
 50
329.9999999999998
 51
59.99999499999994
  0
ARC
  5
2F9
330
18
100
AcDbEntity
  8
5
  6
PHANTOM
 48
0.3
100
AcDbCircle
 10
132.069315512649
 20
189.1885621747214
 30
0.0
 40
1.0
100
AcDbArc
 50
22.99999999999982
 51
113.0000000000002
  0
LINE
  5
2FA
330
18
100
AcDbEntity
  8
5
  6
PHANTOM
 48
0.3
100
AcDbLine
 10
125.3853555126489
 20
189.0672851747214
 30
0.0
 11
125.971453512649
 21
187.6865291747215
 31
0.0
  0
LINE
  5
2FB
330
18
100
AcDbEntity
  8
5
  6
PHANTOM
 48
0.3
100
AcDbLine
 10
132.989817512649
 20
189.5792861747214
 30
0.0
 11
133.5575515126488
 21
188.2417891747214
 31
0.0
  0
ARC
  5
2FC
330
18
100
AcDbEntity
  8
5
  6
PHANTOM
 48
0.3
100
AcDbCircle
 10
136.3190645126489
 20
189.4139921747214
 30
0.0
 40
3.0
100
AcDbArc
 50
202.9999999999998
 51
250.7070399999999
  0
ARC
  5
2FD
330
18
100
AcDbEntity
  8
1
  6
Continuous
100
AcDbCircle
 10
140.949435512649
 20
213.2704941747216
 30
0.0
 40
3.0
100
AcDbArc
 50
150.00001
 51
197.7070399999998
  0
LINE
  5
2FE
330
18
100
AcDbEntity
  8
1
  6
Continuous
100
AcDbLine
 10
139.077860512649
 20
216.0288291747214
 30
0.0
 11
138.351359512649
 21
214.7704941747214
 31
0.0
  0
LINE
  5
2FF
330
18
100
AcDbEntity
  8
1
  6
Continuous
100
AcDbLine
 10
134.092478512649
 20
221.7938921747215
 30
0.0
 11
133.3424785126489
 21
220.4948521747214
 31
0.0
  0
ARC
  5
301
330
18
100
AcDbEntity
  8
5
  6
PHANTOM
 48
0.3
100
AcDbCircle
 10
134.454699368495
 20
318.2538560783176
 30
0.0
 40
9.372808071568078
100
AcDbArc
 50
120.6759711044312
 51
270.2499476049814
  0
LINE
  5
303
330
18
100
AcDbEntity
  8
1
  6
Continuous
100
AcDbLine
 10
138.0913883492856
 20
327.0650925229897
 30
0.0
 11
138.0913883492856
 21
326.0371113596193
 31
0.0
  0
ARC
  5
304
330
18
100
AcDbEntity
  8
1
  6
Continuous
100
AcDbCircle
 10
137.9800364244146
 20
327.0899546010393
 30
0.0
 40
1.017065438642899
100
AcDbArc
 50
310.3715006643739
 51
358.5992700226963
  0
LINE
  5
307
330
18
100
AcDbEntity
  8
4
  6
CENTER
 48
0.4
100
AcDbLine
 10
162.5586195126489
 20
232.6986979747216
 30
0.0
 11
162.5586195126489
 21
159.1986981747214
 31
0.0
  0
ARC
  5
308
330
18
100
AcDbEntity
  8
1
  6
Continuous
100
AcDbCircle
 10
202.3010495126491
 20
237.2986954747215
 30
0.0
 40
2.5
100
AcDbArc
 50
3.893010200000041
 51
89.99998199999998
  0
ARC
  5
309
330
18
100
AcDbEntity
  8
1
  6
Continuous
100
AcDbCircle
 10
217.626829512649
 20
195.6244911747214
 30
0.0
 40
40.0
100
AcDbArc
 50
108.3128499999999
 51
149.9432900000001
  0
LINE
  5
30A
330
18
100
AcDbEntity
  8
1
  6
Continuous
100
AcDbLine
 10
203.5586195126489
 20
240.3986949347214
 30
0.0
 11
186.5586195126488
 21
240.3986949347214
 31
0.0
  0
LINE
  5
30B
330
18
100
AcDbEntity
  8
1
  6
Continuous
100
AcDbLine
 10
221.558619512649
 20
246.1986941747216
 30
0.0
 11
186.5586195126488
 21
246.1986941747216
 31
0.0
  0
LINE
  5
30C
330
18
100
AcDbEntity
  8
1
  6
Continuous
100
AcDbLine
 10
221.558619512649
 20
244.6986941747216
 30
0.0
 11
186.5586195126488
 21
244.6986941747216
 31
0.0
  0
LINE
  5
30D
330
18
100
AcDbEntity
  8
5
  6
PHANTOM
 48
0.3
100
AcDbLine
 10
193.226569512649
 20
217.8641701747214
 30
0.0
 11
193.8126595126488
 21
216.4834131747216
 31
0.0
  0
LINE
  5
30E
330
18
100
AcDbEntity
  8
4
  6
CENTER
 48
0.4
100
AcDbLine
 10
186.5586195126488
 20
251.1986941747216
 30
0.0
 11
186.5586195126488
 21
212.8581641747214
 31
0.0
  0
LINE
  5
30F
330
18
100
AcDbEntity
  8
1
  6
Continuous
100
AcDbLine
 10
174.9659495126488
 20
238.0417770747214
 30
0.0
 11
174.9659495126488
 21
205.1003091747214
 31
0.0
  0
LINE
  5
311
330
18
100
AcDbEntity
  8
1
  6
Continuous
100
AcDbLine
 10
156.408617512649
 20
233.4390553747216
 30
0.0
 11
155.5620145126489
 21
209.6040381747215
 31
0.0
  0
LINE
  5
312
330
18
100
AcDbEntity
  8
5
  6
PHANTOM
 48
0.3
100
AcDbLine
 10
172.4231495126488
 20
209.0336431747214
 30
0.0
 11
193.226569512649
 21
217.8641701747214
 31
0.0
  0
ARC
  5
314
330
18
100
AcDbEntity
  8
5
  6
PHANTOM
 48
0.3
100
AcDbCircle
 10
170.2741395126489
 20
214.0964281747216
 30
0.0
 40
5.5
100
AcDbArc
 50
258.8496999999998
 51
293.0000000000001
  0
ARC
  5
315
330
18
100
AcDbEntity
  8
5
  6
PHANTOM
 48
0.3
100
AcDbCircle
 10
170.2741395126489
 20
214.0964281747216
 30
0.0
 40
7.0
100
AcDbArc
 50
258.8496999999998
 51
293.0000000000001
  0
ARC
  5
316
330
18
100
AcDbEntity
  8
1
  6
Continuous
100
AcDbCircle
 10
163.424649512649
 20
196.1987021747214
 30
0.0
 40
12.5
100
AcDbArc
 50
25.84969599999994
 51
59.99999499999994
  0
ARC
  5
317
330
18
100
AcDbEntity
  8
1
  6
Continuous
100
AcDbCircle
 10
163.424649512649
 20
196.1987021747214
 30
0.0
 40
11.0
100
AcDbArc
 50
25.84969599999994
 51
59.99999499999994
  0
ARC
  5
318
330
18
100
AcDbEntity
  8
1
  6
Continuous
100
AcDbCircle
 10
182.6049895126489
 20
209.7200431747214
 30
0.0
 40
27.0
100
AcDbArc
 50
241.6002799999999
 51
282.2929599999998
  0
ARC
  5
319
330
18
100
AcDbEntity
  8
5
  6
PHANTOM
 48
0.3
100
AcDbCircle
 10
167.5500895126488
 20
192.9373571747214
 30
0.0
 40
3.25
100
AcDbArc
 50
233.0000099999998
 51
53.00000000000044
  0
LINE
  5
31A
330
18
100
AcDbEntity
  8
1
  6
Continuous
100
AcDbLine
 10
176.766249512649
 20
195.5070321747214
 30
0.0
 11
170.9193095126489
 21
185.3798501747214
 31
0.0
  0
ARC
  5
31C
330
18
100
AcDbEntity
  8
5
  6
PHANTOM
 48
0.3
100
AcDbCircle
 10
158.4168655126489
 20
206.4560531747216
 30
0.0
 40
20.0
100
AcDbArc
 50
257.5353300000002
 51
328.4646600000002
  0
LINE
  5
31D
330
18
100
AcDbEntity
  8
1
  6
Continuous
100
AcDbLine
 10
168.332119512649
 20
196.6987021747216
 30
0.0
 11
165.4453695126489
 21
191.6986981747214
 31
0.0
  0
LINE
  5
31E
330
18
100
AcDbEntity
  8
5
  6
PHANTOM
 48
0.3
100
AcDbLine
 10
148.902194512649
 20
197.6477111747214
 30
0.0
 11
150.234416512649
 21
194.5091911747216
 31
0.0
  0
LINE
  5
31F
330
18
100
AcDbEntity
  8
5
  6
PHANTOM
 48
0.3
100
AcDbLine
 10
145.117960512649
 20
195.8137341747214
 30
0.0
 11
146.368296512649
 21
192.8681241747216
 31
0.0
  0
LINE
  5
320
330
18
100
AcDbEntity
  8
1
  6
Continuous
100
AcDbLine
 10
156.785120512649
 20
196.6987021747216
 30
0.0
 11
159.671870512649
 21
191.6986981747214
 31
0.0
  0
ARC
  5
321
330
18
100
AcDbEntity
  8
1
  6
Continuous
100
AcDbCircle
 10
167.858619512649
 20
205.8785721747216
 30
0.0
 40
20.0
100
AcDbArc
 50
204.5353300000001
 51
275.46466
  0
CIRCLE
  5
322
330
18
100
AcDbEntity
  8
1
  6
Continuous
100
AcDbCircle
 10
162.5586195126489
 20
196.6987021747216
 30
0.0
 40
6.5
  0
CIRCLE
  5
323
330
18
100
AcDbEntity
  8
1
  6
Continuous
100
AcDbCircle
 10
162.5586195126489
 20
196.6987021747216
 30
0.0
 40
5.0
  0
CIRCLE
  5
324
330
18
100
AcDbEntity
  8
2
  6
Continuous
100
AcDbCircle
 10
162.5586195126489
 20
196.6987021747216
 30
0.0
 40
2.5
  0
CIRCLE
  5
325
330
18
100
AcDbEntity
  8
1
  6
Continuous
100
AcDbCircle
 10
162.5586195126489
 20
196.6987021747216
 30
0.0
 40
3.0
  0
LINE
  5
327
330
18
100
AcDbEntity
  8
5
  6
PHANTOM
 48
0.3
100
AcDbLine
 10
146.368296512649
 20
192.8681241747216
 30
0.0
 11
150.234416512649
 21
194.5091911747216
 31
0.0
  0
ARC
  5
328
330
18
100
AcDbEntity
  8
1
  6
Continuous
100
AcDbCircle
 10
162.5586195126489
 20
190.4487021747215
 30
0.0
 40
3.25
100
AcDbArc
 50
180.0000100000002
 51
0.0
  0
LINE
  5
329
330
18
100
AcDbEntity
  8
1
  6
Continuous
100
AcDbLine
 10
165.4453695126489
 20
191.6986981747214
 30
0.0
 11
159.671870512649
 21
191.6986981747214
 31
0.0
  0
LINE
  5
32A
330
18
100
AcDbEntity
  8
1
  6
Continuous
100
AcDbLine
 10
159.3086195126489
 20
190.4487021747215
 30
0.0
 11
159.3086195126489
 21
191.0695361747214
 31
0.0
  0
LINE
  5
32B
330
18
100
AcDbEntity
  8
1
  6
Continuous
100
AcDbLine
 10
165.808619512649
 20
190.4487021747215
 30
0.0
 11
165.808619512649
 21
191.0695361747214
 31
0.0
  0
LINE
  5
32C
330
18
100
AcDbEntity
  8
5
  6
PHANTOM
 48
0.3
100
AcDbLine
 10
165.5941995126489
 20
190.3417871747214
 30
0.0
 11
165.098369512649
 21
190.7154181747216
 31
0.0
  0
ARC
  5
32D
330
18
100
AcDbEntity
  8
1
  6
Continuous
100
AcDbCircle
 10
157.0208695126489
 20
214.9070321747214
 30
0.0
 40
7.0
100
AcDbArc
 50
239.9999999999999
 51
274.1503
  0
ARC
  5
32E
330
18
100
AcDbEntity
  8
1
  6
Continuous
100
AcDbCircle
 10
157.0208695126489
 20
214.9070321747214
 30
0.0
 40
5.5
100
AcDbArc
 50
239.9999999999999
 51
274.1503
  0
LINE
  5
32F
330
18
100
AcDbEntity
  8
5
  6
PHANTOM
 48
0.3
100
AcDbLine
 10
156.107066512649
 20
197.4908541747214
 30
0.0
 11
155.611254512649
 21
197.8644771747216
 31
0.0
  0
ARC
  5
330
330
18
100
AcDbEntity
  8
5
  6
PHANTOM
 48
0.3
100
AcDbCircle
 10
161.638119512649
 20
196.3079701747214
 30
0.0
 40
12.5
100
AcDbArc
 50
113.0000000000002
 51
147.1503099999999
  0
ARC
  5
331
330
18
100
AcDbEntity
  8
5
  6
PHANTOM
 48
0.3
100
AcDbCircle
 10
161.638119512649
 20
196.3079701747214
 30
0.0
 40
11.0
100
AcDbArc
 50
113.0000000000002
 51
147.1503099999999
  0
ARC
  5
332
330
18
100
AcDbEntity
  8
5
  6
PHANTOM
 48
0.3
100
AcDbCircle
 10
157.567149512649
 20
200.4600471747215
 30
0.0
 40
3.25
100
AcDbArc
 50
53.00000000000044
 51
232.9999899999996
  0
LINE
  5
333
330
18
100
AcDbEntity
  8
1
  6
Continuous
100
AcDbLine
 10
155.0978955126488
 20
208.1763401747215
 30
0.0
 11
153.393115512649
 21
205.2235701747215
 31
0.0
  0
LINE
  5
334
330
18
100
AcDbEntity
  8
1
  6
Continuous
100
AcDbLine
 10
149.755808512649
 20
207.3235681747215
 30
0.0
 11
153.393115512649
 21
205.2235701747215
 31
0.0
  0
ARC
  5
335
330
18
100
AcDbEntity
  8
5
  6
PHANTOM
 48
0.3
100
AcDbCircle
 10
144.6841005126489
 20
203.2341021747216
 30
0.0
 40
5.5
100
AcDbArc
 50
293.0000000000001
 51
327.1503
  0
ARC
  5
336
330
18
100
AcDbEntity
  8
5
  6
PHANTOM
 48
0.3
100
AcDbCircle
 10
144.6841005126489
 20
203.2341021747216
 30
0.0
 40
7.0
100
AcDbArc
 50
293.0000000000001
 51
327.1503
  0
LINE
  5
337
330
18
100
AcDbEntity
  8
5
  6
PHANTOM
 48
0.3
100
AcDbLine
 10
149.304629512649
 20
200.2507001747216
 30
0.0
 11
151.1369045126488
 21
203.0884341747216
 31
0.0
  0
LINE
  5
338
330
18
100
AcDbEntity
  8
5
  6
PHANTOM
 48
0.3
100
AcDbLine
 10
150.564768512649
 20
199.4370441747214
 30
0.0
 11
152.3970515126489
 21
202.2747781747214
 31
0.0
  0
LINE
  5
339
330
18
100
AcDbEntity
  8
1
  6
Continuous
100
AcDbLine
 10
151.3558075126489
 20
210.0948521747215
 30
0.0
 11
149.755808512649
 21
207.3235681747215
 31
0.0
  0
LINE
  5
33B
330
18
100
AcDbEntity
  8
1
  6
Continuous
100
AcDbLine
 10
168.924649512649
 20
205.7249811747214
 30
0.0
 11
167.1925895126489
 21
206.7249811747216
 31
0.0
  0
ARC
  5
33C
330
18
100
AcDbEntity
  8
1
  6
Continuous
100
AcDbCircle
 10
162.5586195126489
 20
202.9487021747216
 30
0.0
 40
3.25
100
AcDbArc
 50
0.0
 51
180.0000100000002
  0
LINE
  5
33D
330
18
100
AcDbEntity
  8
1
  6
Continuous
100
AcDbLine
 10
165.4453795126489
 20
201.6986981747215
 30
0.0
 11
159.671862512649
 21
201.6986981747215
 31
0.0
  0
LINE
  5
33E
330
18
100
AcDbEntity
  8
1
  6
Continuous
100
AcDbLine
 10
156.7851135126489
 20
196.6987021747216
 30
0.0
 11
159.671862512649
 21
201.6986981747215
 31
0.0
  0
LINE
  5
33F
330
18
100
AcDbEntity
  8
5
  6
PHANTOM
 48
0.3
100
AcDbLine
 10
160.0188625126488
 20
202.6819821747216
 30
0.0
 11
159.5230515126489
 21
203.0556051747216
 31
0.0
  0
LINE
  5
340
330
18
100
AcDbEntity
  8
1
  6
Continuous
100
AcDbLine
 10
159.3086195126489
 20
202.3278671747215
 30
0.0
 11
159.3086195126489
 21
202.9487021747216
 31
0.0
  0
LINE
  5
341
330
18
100
AcDbEntity
  8
1
  6
Continuous
100
AcDbLine
 10
168.3321295126489
 20
196.6986981747215
 30
0.0
 11
165.4453795126489
 21
201.6986941747215
 31
0.0
  0
LINE
  5
342
330
18
100
AcDbEntity
  8
5
  6
PHANTOM
 48
0.3
100
AcDbLine
 10
169.5059895126489
 20
195.5329151747216
 30
0.0
 11
169.010169512649
 21
195.9065491747214
 31
0.0
  0
LINE
  5
343
330
18
100
AcDbEntity
  8
1
  6
Continuous
100
AcDbLine
 10
165.808619512649
 20
202.3278671747215
 30
0.0
 11
165.808619512649
 21
202.9487021747216
 31
0.0
  0
ARC
  5
344
330
18
100
AcDbEntity
  8
1
  6
Continuous
100
AcDbCircle
 10
161.6925895126489
 20
197.1987021747214
 30
0.0
 40
12.5
100
AcDbArc
 50
59.99999499999994
 51
94.15029899999963
  0
ARC
  5
345
330
18
100
AcDbEntity
  8
1
  6
Continuous
100
AcDbCircle
 10
161.6925895126489
 20
197.1987021747214
 30
0.0
 40
11.0
100
AcDbArc
 50
59.99999499999994
 51
94.15029899999963
  0
ARC
  5
346
330
18
100
AcDbEntity
  8
5
  6
PHANTOM
 48
0.3
100
AcDbCircle
 10
163.4791195126489
 20
197.0894331747216
 30
0.0
 40
11.0
100
AcDbArc
 50
78.84969799999985
 51
113.0000000000002
  0
ARC
  5
347
330
18
100
AcDbEntity
  8
5
  6
PHANTOM
 48
0.3
100
AcDbCircle
 10
163.4791195126489
 20
197.0894331747216
 30
0.0
 40
12.5
100
AcDbArc
 50
78.84969799999985
 51
113.0000000000002
  0
LINE
  5
348
330
18
100
AcDbEntity
  8
1
  6
Continuous
100
AcDbLine
 10
157.527476512649
 20
207.9253901747216
 30
0.0
 11
160.896489512649
 21
208.1698551747214
 31
0.0
  0
LINE
  5
349
330
18
100
AcDbEntity
  8
1
  6
Continuous
100
AcDbLine
 10
157.4189175126489
 20
209.4214551747215
 30
0.0
 11
160.787929512649
 21
209.6659221747215
 31
0.0
  0
LINE
  5
34A
330
18
100
AcDbEntity
  8
5
  6
PHANTOM
 48
0.3
100
AcDbLine
 10
158.594981512649
 20
208.5957431747214
 30
0.0
 11
156.753970512649
 21
207.8142791747215
 31
0.0
  0
LINE
  5
34B
330
18
100
AcDbEntity
  8
5
  6
PHANTOM
 48
0.3
100
AcDbLine
 10
159.1810785126488
 20
207.2149871747214
 30
0.0
 11
157.340067512649
 21
206.4335231747215
 31
0.0
  0
LINE
  5
34C
330
18
100
AcDbEntity
  8
5
  6
PHANTOM
 48
0.3
100
AcDbLine
 10
165.606339512649
 20
207.8817881747215
 30
0.0
 11
168.920439512649
 21
207.2285671747216
 31
0.0
  0
LINE
  5
34D
330
18
100
AcDbEntity
  8
5
  6
PHANTOM
 48
0.3
100
AcDbLine
 10
165.896409512649
 20
209.3534731747216
 30
0.0
 11
169.210519512649
 21
208.7002501747214
 31
0.0
  0
LINE
  5
34E
330
18
100
AcDbEntity
  8
1
  6
Continuous
100
AcDbLine
 10
169.674649512649
 20
207.0240191747216
 30
0.0
 11
167.9425895126489
 21
208.0240191747214
 31
0.0
  0
ARC
  5
34F
330
18
100
AcDbEntity
  8
5
  6
PHANTOM
 48
0.3
100
AcDbCircle
 10
164.223519512649
 20
220.5448871747214
 30
0.0
 40
27.0
100
AcDbArc
 50
294.60028
 51
335.2929599999999
  0
ARC
  5
350
330
18
100
AcDbEntity
  8
1
  6
Continuous
100
AcDbCircle
 10
181.0963695126489
 20
201.0070321747214
 30
0.0
 40
7.0
100
AcDbArc
 50
205.8497099999999
 51
239.9999999999999
  0
LINE
  5
352
330
18
100
AcDbEntity
  8
1
  6
Continuous
100
AcDbLine
 10
178.3463795126488
 20
196.2438911747216
 30
0.0
 11
197.918539512649
 21
184.9438951747216
 31
0.0
  0
LINE
  5
353
330
18
100
AcDbEntity
  8
1
  6
Continuous
100
AcDbLine
 10
177.596379512649
 20
194.9448531747216
 30
0.0
 11
197.168539512649
 21
183.6448571747216
 31
0.0
  0
LINE
  5
354
330
18
100
AcDbEntity
  8
1
  6
Continuous
100
AcDbLine
 10
177.5487395126488
 20
188.6128941747216
 30
0.0
 11
185.9207295126489
 21
188.5135971747216
 31
0.0
  0
LINE
  5
355
330
18
100
AcDbEntity
  8
1
  6
Continuous
100
AcDbLine
 10
177.520279512649
 20
186.2130601747214
 30
0.0
 11
185.8922795126489
 21
186.1137641747214
 31
0.0
  0
LINE
  5
356
330
18
100
AcDbEntity
  8
1
  6
Continuous
100
AcDbLine
 10
178.8621695126488
 20
193.1372741747216
 30
0.0
 11
174.505519512649
 21
185.5913331747214
 31
0.0
  0
LINE
  5
357
330
18
100
AcDbEntity
  8
1
  6
Continuous
100
AcDbLine
 10
177.5487395126488
 20
188.6128941747216
 30
0.0
 11
177.520279512649
 21
186.2130601747214
 31
0.0
  0
LINE
  5
358
330
18
100
AcDbEntity
  8
1
  6
Continuous
100
AcDbLine
 10
181.021079512649
 20
188.5717101747216
 30
0.0
 11
180.9926195126489
 21
186.1718771747216
 31
0.0
  0
LINE
  5
359
330
18
100
AcDbEntity
  8
1
  6
Continuous
100
AcDbLine
 10
182.420979512649
 20
188.5551051747214
 30
0.0
 11
182.3925095126488
 21
186.1552711747215
 31
0.0
  0
LINE
  5
35A
330
18
100
AcDbEntity
  8
1
  6
Continuous
100
AcDbLine
 10
185.9207295126489
 20
188.5135971747216
 30
0.0
 11
185.8922795126489
 21
186.1137641747214
 31
0.0
  0
LINE
  5
35B
330
18
100
AcDbEntity
  8
1
  6
Continuous
100
AcDbLine
 10
197.918539512649
 20
184.9438951747216
 30
0.0
 11
197.168539512649
 21
183.6448571747216
 31
0.0
  0
ARC
  5
35C
330
18
100
AcDbEntity
  8
1
  6
Continuous
100
AcDbCircle
 10
187.7148095126488
 20
186.2704941747214
 30
0.0
 40
3.0
100
AcDbArc
 50
282.2929599999998
 51
329.9999999999998
  0
ARC
  5
35D
330
18
100
AcDbEntity
  8
1
  6
Continuous
100
AcDbCircle
 10
192.454449512649
 20
183.4797911747216
 30
0.0
 40
2.5
100
AcDbArc
 50
59.99999499999994
 51
149.5104000000002
  0
LINE
  5
35E
330
18
100
AcDbEntity
  8
1
  6
Continuous
100
AcDbLine
 10
190.312879512649
 20
184.7704981747215
 30
0.0
 11
190.2893795126488
 21
184.7297951747216
 31
0.0
  0
LINE
  5
35F
330
18
100
AcDbEntity
  8
5
  6
PHANTOM
 48
0.3
100
AcDbLine
 10
173.0092495126489
 20
207.6528871747215
 30
0.0
 11
193.8126595126488
 21
216.4834131747216
 31
0.0
  0
LINE
  5
360
330
18
100
AcDbEntity
  8
5
  6
PHANTOM
 48
0.3
100
AcDbLine
 10
180.1601095126491
 20
206.5525221747214
 30
0.0
 11
182.059569512649
 21
205.0855391747214
 31
0.0
  0
LINE
  5
361
330
18
100
AcDbEntity
  8
5
  6
PHANTOM
 48
0.3
100
AcDbLine
 10
178.037519512649
 20
203.8041821747214
 30
0.0
 11
183.155219512649
 21
210.4305881747216
 31
0.0
  0
LINE
  5
362
330
18
100
AcDbEntity
  8
5
  6
PHANTOM
 48
0.3
100
AcDbLine
 10
179.9369795126489
 20
202.3371981747215
 30
0.0
 11
185.0546695126489
 21
208.9636061747214
 31
0.0
  0
LINE
  5
363
330
18
100
AcDbEntity
  8
5
  6
PHANTOM
 48
0.3
100
AcDbLine
 10
172.0606995126488
 20
207.3282491747214
 30
0.0
 11
176.6298495126489
 21
196.5639891747214
 31
0.0
  0
LINE
  5
364
330
18
100
AcDbEntity
  8
1
  6
Continuous
100
AcDbLine
 10
183.0056195126489
 20
215.6587851747215
 30
0.0
 11
174.776239512649
 21
201.4376201747214
 31
0.0
  0
LINE
  5
365
330
18
100
AcDbEntity
  8
5
  6
PHANTOM
 48
0.3
100
AcDbLine
 10
175.214619512649
 20
207.5759681747216
 30
0.0
 11
178.619179512649
 21
199.5553301747214
 31
0.0
  0
LINE
  5
366
330
18
100
AcDbEntity
  8
5
  6
PHANTOM
 48
0.3
100
AcDbLine
 10
178.037519512649
 20
203.8041821747214
 30
0.0
 11
179.9369795126489
 21
202.3371981747215
 31
0.0
  0
LINE
  5
367
330
18
100
AcDbEntity
  8
1
  6
Continuous
100
AcDbLine
 10
174.6739095126488
 20
201.6488471747214
 30
0.0
 11
176.1466895126489
 21
198.6089651747214
 31
0.0
  0
LINE
  5
368
330
18
100
AcDbEntity
  8
1
  6
Continuous
100
AcDbLine
 10
173.3239895126488
 20
200.9948291747214
 30
0.0
 11
174.7967895126488
 21
197.9549501747214
 31
0.0
  0
ARC
  5
36A
330
18
100
AcDbEntity
  8
1
  6
Continuous
100
AcDbCircle
 10
181.0963695126489
 20
201.0070321747214
 30
0.0
 40
5.5
100
AcDbArc
 50
205.8497099999999
 51
239.9999999999999
  0
LINE
  5
36B
330
18
100
AcDbEntity
  8
5
  6
PHANTOM
 48
0.3
100
AcDbLine
 10
181.0158595126488
 20
207.6605391747214
 30
0.0
 11
182.9153095126488
 21
206.1935561747215
 31
0.0
  0
LINE
  5
36C
330
18
100
AcDbEntity
  8
5
  6
PHANTOM
 48
0.3
100
AcDbLine
 10
183.155219512649
 20
210.4305881747216
 30
0.0
 11
185.0546695126489
 21
208.9636061747214
 31
0.0
  0
ARC
  5
36D
330
18
100
AcDbEntity
  8
5
  6
PHANTOM
 48
0.3
100
AcDbCircle
 10
186.026329512649
 20
210.5134731747214
 30
0.0
 40
3.0
100
AcDbArc
 50
335.2929599999999
 51
22.99999999999982
  0
LINE
  5
36E
330
18
100
AcDbEntity
  8
5
  6
PHANTOM
 48
0.3
100
AcDbLine
 10
188.7878495126489
 20
211.6856671747215
 30
0.0
 11
188.8062095126489
 21
211.6423991747216
 31
0.0
  0
ARC
  5
36F
330
18
100
AcDbEntity
  8
5
  6
PHANTOM
 48
0.3
100
AcDbCircle
 10
191.107479512649
 20
212.6192301747216
 30
0.0
 40
2.5
100
AcDbArc
 50
113.0000000000002
 51
202.5103999999998
  0
LINE
  5
370
330
18
100
AcDbEntity
  8
1
  6
Continuous
100
AcDbLine
 10
169.5586195126489
 20
240.3986949347214
 30
0.0
 11
186.5586195126488
 21
240.3986949347214
 31
0.0
  0
LINE
  5
371
330
18
100
AcDbEntity
  8
1
  6
Continuous
100
AcDbLine
 10
154.5581465126489
 20
234.6359090747216
 30
0.0
 11
173.8737895126488
 21
238.0417777747215
 31
0.0
  0
LINE
  5
372
330
18
100
AcDbEntity
  8
1
  6
Continuous
100
AcDbLine
 10
151.5586195126489
 20
246.1986941747216
 30
0.0
 11
186.5586195126488
 21
246.1986941747216
 31
0.0
  0
LINE
  5
373
330
18
100
AcDbEntity
  8
1
  6
Continuous
100
AcDbLine
 10
151.5586195126489
 20
244.6986941747216
 30
0.0
 11
186.5586195126488
 21
244.6986941747216
 31
0.0
  0
LINE
  5
374
330
18
100
AcDbEntity
  8
1
  6
Continuous
100
AcDbLine
 10
170.8161895126489
 20
239.7986953747214
 30
0.0
 11
202.3010495126491
 21
239.7986953747214
 31
0.0
  0
LINE
  5
375
330
18
100
AcDbEntity
  8
1
  6
Continuous
100
AcDbLine
 10
167.0224895126489
 20
236.8337048747215
 30
0.0
 11
168.460989512649
 21
238.6569251747214
 31
0.0
  0
LINE
  5
376
330
18
100
AcDbEntity
  8
1
  6
Continuous
100
AcDbLine
 10
154.8186215126489
 20
233.1586970747214
 30
0.0
 11
156.408625512649
 21
233.4390577747214
 31
0.0
  0
LINE
  5
377
330
18
100
AcDbEntity
  8
1
  6
Continuous
100
AcDbLine
 10
154.8186145126489
 20
233.1586960747214
 30
0.0
 11
154.558619512649
 21
234.6332291747216
 31
0.0
  0
LINE
  5
378
330
18
100
AcDbEntity
  8
1
  6
Continuous
100
AcDbLine
 10
156.408617512649
 20
233.4390563747215
 30
0.0
 11
156.148150512649
 21
234.9162682747214
 31
0.0
  0
LINE
  5
379
330
18
100
AcDbEntity
  8
1
  6
Continuous
100
AcDbLine
 10
151.5586195126489
 20
244.6986941747216
 30
0.0
 11
151.5586195126489
 21
246.1986903747214
 31
0.0
  0
LINE
  5
37A
330
18
100
AcDbEntity
  8
4
  6
CENTER
 48
0.3
100
AcDbLine
 10
158.558619512649
 20
241.6986941747214
 30
0.0
 11
158.558619512649
 21
249.1986941747216
 31
0.0
  0
LINE
  5
37B
330
18
100
AcDbEntity
  8
1
  6
Continuous
100
AcDbLine
 10
166.199959512649
 20
244.4346925747214
 30
0.0
 11
167.7954195126489
 21
241.4546980947215
 31
0.0
  0
ARC
  5
37C
330
18
100
AcDbEntity
  8
1
  6
Continuous
100
AcDbCircle
 10
169.5586195126489
 20
242.3986949747216
 30
0.0
 40
2.0
100
AcDbArc
 50
208.1641000000002
 51
270.0
  0
ARC
  5
37D
330
18
100
AcDbEntity
  8
1
  6
Continuous
100
AcDbCircle
 10
170.8161895126489
 20
236.7986954747214
 30
0.0
 40
3.0
100
AcDbArc
 50
90.00000300000015
 51
141.7268599999995
  0
ARC
  5
37E
330
18
100
AcDbEntity
  8
1
  6
Continuous
100
AcDbCircle
 10
165.759169512649
 20
244.1986941747216
 30
0.0
 40
0.5
100
AcDbArc
 50
28.16415700000023
 51
90.00001599999967
  0
ARC
  5
37F
330
18
100
AcDbEntity
  8
1
  6
Continuous
100
AcDbCircle
 10
174.599759512649
 20
240.8831958247215
 30
0.0
 40
1.984500099999999
100
AcDbArc
 50
194.1311599999995
 51
213.1262299999997
  0
ARC
  5
380
330
18
100
AcDbEntity
  8
1
  6
Continuous
100
AcDbCircle
 10
176.3430995126489
 20
240.8831958247215
 30
0.0
 40
1.984500099999999
100
AcDbArc
 50
194.1311599999995
 51
213.1262299999997
  0
ARC
  5
381
330
18
100
AcDbEntity
  8
1
  6
Continuous
100
AcDbCircle
 10
174.0586195126488
 20
240.8831958247215
 30
0.0
 40
1.984500099999999
100
AcDbArc
 50
194.1311599999995
 51
213.1262299999997
  0
ARC
  5
382
330
18
100
AcDbEntity
  8
1
  6
Continuous
100
AcDbCircle
 10
179.116369512649
 20
240.8831958247215
 30
0.0
 40
1.984500099999999
100
AcDbArc
 50
194.1311599999995
 51
213.1262299999997
  0
ARC
  5
383
330
18
100
AcDbEntity
  8
1
  6
Continuous
100
AcDbCircle
 10
179.116369512649
 20
240.8831958247215
 30
0.0
 40
1.984500099999999
100
AcDbArc
 50
326.8737700000003
 51
332.5952099999998
  0
ARC
  5
384
330
18
100
AcDbEntity
  8
1
  6
Continuous
100
AcDbCircle
 10
182.6399595126489
 20
240.8831958247215
 30
0.0
 40
1.984500099999999
100
AcDbArc
 50
194.1311599999995
 51
213.1262299999997
  0
ARC
  5
385
330
18
100
AcDbEntity
  8
1
  6
Continuous
100
AcDbCircle
 10
182.6399595126489
 20
240.8831958247215
 30
0.0
 40
1.984500099999999
100
AcDbArc
 50
326.8737700000003
 51
345.8688299999995
  0
ARC
  5
386
330
18
100
AcDbEntity
  8
1
  6
Continuous
100
AcDbCircle
 10
186.5586195126488
 20
240.8831958247215
 30
0.0
 40
1.984500099999999
100
AcDbArc
 50
194.1311599999995
 51
213.1262299999997
  0
ARC
  5
387
330
18
100
AcDbEntity
  8
1
  6
Continuous
100
AcDbCircle
 10
186.5586195126488
 20
240.8831958247215
 30
0.0
 40
1.984500099999999
100
AcDbArc
 50
326.8737700000003
 51
345.8688399999997
  0
ARC
  5
388
330
18
100
AcDbEntity
  8
1
  6
Continuous
100
AcDbCircle
 10
190.477289512649
 20
240.8831958247215
 30
0.0
 40
1.984500099999999
100
AcDbArc
 50
194.1311599999995
 51
213.1262299999997
  0
ARC
  5
389
330
18
100
AcDbEntity
  8
1
  6
Continuous
100
AcDbCircle
 10
190.477289512649
 20
240.8831958247215
 30
0.0
 40
1.984500099999999
100
AcDbArc
 50
326.8737700000003
 51
345.8688399999997
  0
ARC
  5
38A
330
18
100
AcDbEntity
  8
1
  6
Continuous
100
AcDbCircle
 10
194.0008695126488
 20
240.8831958247215
 30
0.0
 40
1.984500099999999
100
AcDbArc
 50
207.40479
 51
213.1262299999997
  0
ARC
  5
38B
330
18
100
AcDbEntity
  8
1
  6
Continuous
100
AcDbCircle
 10
196.774139512649
 20
240.8831958247215
 30
0.0
 40
1.984500099999999
100
AcDbArc
 50
326.8737700000003
 51
345.8688399999997
  0
ARC
  5
38C
330
18
100
AcDbEntity
  8
1
  6
Continuous
100
AcDbCircle
 10
194.0008695126488
 20
240.8831958247215
 30
0.0
 40
1.984500099999999
100
AcDbArc
 50
326.8737700000003
 51
345.8688399999997
  0
ARC
  5
38D
330
18
100
AcDbEntity
  8
1
  6
Continuous
100
AcDbCircle
 10
198.5174795126489
 20
240.8831958247215
 30
0.0
 40
1.984500099999999
100
AcDbArc
 50
326.8737700000003
 51
345.8688399999997
  0
ARC
  5
38E
330
18
100
AcDbEntity
  8
1
  6
Continuous
100
AcDbCircle
 10
199.0586195126489
 20
240.8831958247215
 30
0.0
 40
1.984500099999999
100
AcDbArc
 50
326.8737700000003
 51
345.8688399999997
  0
LINE
  5
38F
330
18
100
AcDbEntity
  8
1
  6
Continuous
100
AcDbLine
 10
205.058619512649
 20
233.5986942747215
 30
0.0
 11
204.795279512649
 21
237.4684282747216
 31
0.0
  0
LINE
  5
390
330
18
100
AcDbEntity
  8
4
  6
CENTER
 48
0.3
100
AcDbLine
 10
214.558619512649
 20
241.6986941747214
 30
0.0
 11
214.5586195126488
 21
249.1986941747216
 31
0.0
  0
LINE
  5
391
330
18
100
AcDbEntity
  8
1
  6
Continuous
100
AcDbLine
 10
206.917279512649
 20
244.4346887747214
 30
0.0
 11
205.3218195126488
 21
241.4546909947214
 31
0.0
  0
ARC
  5
392
330
18
100
AcDbEntity
  8
1
  6
Continuous
100
AcDbCircle
 10
203.5586195126489
 20
242.3986949747216
 30
0.0
 40
2.0
100
AcDbArc
 50
270.0
 51
331.8358700000001
  0
ARC
  5
393
330
18
100
AcDbEntity
  8
1
  6
Continuous
100
AcDbCircle
 10
207.358069512649
 20
244.1986941747216
 30
0.0
 40
0.5
100
AcDbArc
 50
89.9999619999996
 51
151.83583
  0
LINE
  5
394
330
18
100
AcDbEntity
  8
1
  6
Continuous
100
AcDbLine
 10
221.558619512649
 20
244.6986941747216
 30
0.0
 11
221.558619512649
 21
246.1986903747214
 31
0.0
  0
LINE
  5
395
330
18
100
AcDbEntity
  8
4
  6
CENTER
 48
0.4
100
AcDbLine
 10
162.5586195126489
 20
367.5651125229898
 30
0.0
 11
162.5586195126489
 21
309.9185572464897
 31
0.0
  0
ARC
  5
396
330
18
100
AcDbEntity
  8
1
  6
Continuous
100
AcDbCircle
 10
254.686529512649
 20
341.5651205229896
 30
0.0
 40
35.499996
100
AcDbArc
 50
160.7508325525551
 51
199.2430186893999
  0
LINE
  5
397
330
18
100
AcDbEntity
  8
4
  6
CENTER
 48
0.3
100
AcDbLine
 10
214.558619512649
 20
319.3151127229899
 30
0.0
 11
214.558619512649
 21
335.8151123229898
 31
0.0
  0
ARC
  5
398
330
18
100
AcDbEntity
  8
1
  6
Continuous
100
AcDbCircle
 10
118.430705512649
 20
341.5651045229898
 30
0.0
 40
35.499996
100
AcDbArc
 50
340.7549285137187
 51
19.24223388268432
  0
LINE
  5
399
330
18
100
AcDbEntity
  8
4
  6
CENTER
 48
0.3
100
AcDbLine
 10
158.558619512649
 20
319.3151047229898
 30
0.0
 11
158.558619512649
 21
335.8151043229899
 31
0.0
  0
CIRCLE
  5
39A
330
18
100
AcDbEntity
  8
1
  6
Continuous
100
AcDbCircle
 10
186.5586195126488
 20
341.5651125229898
 30
0.0
 40
17.5
  0
CIRCLE
  5
39B
330
18
100
AcDbEntity
  8
1
  6
Continuous
100
AcDbCircle
 10
186.5586195126488
 20
341.5651125229898
 30
0.0
 40
16.5
  0
LINE
  5
39C
330
18
100
AcDbEntity
  8
4
  6
CENTER
 48
0.4
100
AcDbLine
 10
186.5586195126488
 20
367.5651125229898
 30
0.0
 11
186.5586195126488
 21
315.5651125229898
 31
0.0
  0
CIRCLE
  5
39D
330
18
100
AcDbEntity
  8
1
  6
Continuous
100
AcDbCircle
 10
186.5586195126488
 20
341.5651125229898
 30
0.0
 40
7.75
  0
CIRCLE
  5
39E
330
18
100
AcDbEntity
  8
1
  6
Continuous
100
AcDbCircle
 10
186.5586195126488
 20
341.5651125229898
 30
0.0
 40
6.75
  0
ARC
  5
3A0
330
18
100
AcDbEntity
  8
1
  6
Continuous
100
AcDbCircle
 10
164.4038878694666
 20
288.498540547839
 30
0.0
 40
30.38134221651255
100
AcDbArc
 50
67.8963117455358
 51
103.6632102195595
  0
LINE
  5
3A1
330
18
100
AcDbEntity
  8
1
  6
Continuous
100
AcDbLine
 10
158.558619512649
 20
320.5651125229898
 30
0.0
 11
214.558619512649
 21
320.5651125229898
 31
0.0
  0
LINE
  5
3A2
330
18
100
AcDbEntity
  8
1
  6
Continuous
100
AcDbLine
 10
156.3616232225638
 20
317.4524680935907
 30
0.0
 11
146.4983212535968
 21
309.7810485358994
 31
0.0
  0
ARC
  5
3A3
330
18
100
AcDbEntity
  8
1
  6
Continuous
100
AcDbCircle
 10
143.0332669316694
 20
315.7622490087171
 30
0.0
 40
6.912406277841513
100
AcDbArc
 50
273.8090751831364
 51
300.0847519521664
  0
ARC
  5
3A4
330
18
100
AcDbEntity
  8
1
  6
Continuous
100
AcDbCircle
 10
158.558619512649
 20
327.5651125229898
 30
0.0
 40
7.0
100
AcDbArc
 50
160.8278032739059
 51
269.9999499999996
  0
CIRCLE
  5
3A5
330
18
100
AcDbEntity
  8
1
  6
Continuous
100
AcDbCircle
 10
158.558619512649
 20
327.5651045229898
 30
0.0
 40
3.249999799999998
  0
LINE
  5
3A6
330
18
100
AcDbEntity
  8
4
  6
CENTER
 48
0.3
100
AcDbLine
 10
150.3086197126529
 20
327.5651125229898
 30
0.0
 11
166.808619312645
 21
327.5651125229898
 31
0.0
  0
LINE
  5
3A7
330
18
100
AcDbEntity
  8
1
  6
Continuous
100
AcDbLine
 10
150.247697012649
 20
329.1751065519686
 30
0.0
 11
151.052708212649
 21
329.6651205519684
 31
0.0
  0
ARC
  5
3A8
330
18
100
AcDbEntity
  8
1
  6
Continuous
100
AcDbCircle
 10
148.555807512649
 20
328.3980155519685
 30
0.0
 40
2.799999999999998
100
AcDbArc
 50
0.0000030000001391
 51
26.9064199999998
  0
LINE
  5
3A9
330
18
100
AcDbEntity
  8
1
  6
Continuous
100
AcDbLine
 10
150.5508117126489
 20
327.9946896802503
 30
0.0
 11
150.550817312649
 21
327.5651065519685
 31
0.0
  0
LINE
  5
3AA
330
18
100
AcDbEntity
  8
1
  6
Continuous
100
AcDbLine
 10
150.550817312649
 20
327.5651065519685
 30
0.0
 11
151.355813112649
 21
325.4651065519685
 31
0.0
  0
LINE
  5
3AB
330
18
100
AcDbEntity
  8
1
  6
Continuous
100
AcDbLine
 10
151.3558075126489
 20
328.3980155519685
 30
0.0
 11
151.3558075126489
 21
325.4651205519686
 31
0.0
  0
ARC
  5
3AC
330
18
100
AcDbEntity
  8
1
  6
Continuous
100
AcDbCircle
 10
148.100811712649
 20
327.9946895519685
 30
0.0
 40
2.449999999999999
100
AcDbArc
 50
0.000002999999732
 51
28.80293199999996
  0
LINE
  5
3AF
330
18
100
AcDbEntity
  8
1
  6
Continuous
100
AcDbLine
 10
151.8810476277326
 20
329.6651205519684
 30
0.0
 11
151.052703312649
 21
329.6651205519684
 31
0.0
  0
LINE
  5
3B4
330
18
100
AcDbEntity
  8
1
  6
Continuous
100
AcDbLine
 10
156.6926128401859
 20
320.8184082091546
 30
0.0
 11
156.6926128401859
 21
318.778115273745
 31
0.0
  0
ARC
  5
3BB
330
18
100
AcDbEntity
  8
1
  6
Continuous
100
AcDbCircle
 10
158.4147855658191
 20
315.2651125229898
 30
0.0
 40
3.0
100
AcDbArc
 50
113.315961648714
 51
133.1874524102884
  0
LINE
  5
3BC
330
18
100
AcDbEntity
  8
1
  6
Continuous
100
AcDbLine
 10
159.558619512649
 20
314.0651275229898
 30
0.0
 11
159.558619512649
 21
317.8650985229896
 31
0.0
  0
LINE
  5
3BD
330
18
100
AcDbEntity
  8
2
  6
Continuous
100
AcDbLine
 10
160.0586195126489
 20
313.5651265229899
 30
0.0
 11
160.0586195126489
 21
317.8650985229896
 31
0.0
  0
LINE
  5
3C2
330
18
100
AcDbEntity
  8
1
  6
Continuous
100
AcDbLine
 10
165.5586195126489
 20
314.0651285229898
 30
0.0
 11
165.5586195126489
 21
317.8650985229896
 31
0.0
  0
LINE
  5
3C3
330
18
100
AcDbEntity
  8
2
  6
Continuous
100
AcDbLine
 10
165.0586195126489
 20
313.5651275229899
 30
0.0
 11
165.0586195126489
 21
317.8650985229897
 31
0.0
  0
LINE
  5
3C6
330
18
100
AcDbEntity
  8
1
  6
Continuous
100
AcDbLine
 10
170.4542133317267
 20
320.5651125229898
 30
0.0
 11
170.4542133317267
 21
319.1142852795108
 31
0.0
  0
ARC
  5
3C7
330
18
100
AcDbEntity
  8
1
  6
Continuous
100
AcDbCircle
 10
187.0050849796598
 20
315.6373748087996
 30
0.0
 40
10.97552954703079
100
AcDbArc
 50
306.2017227745727
 51
26.67793613267032
  0
LINE
  5
3C8
330
18
100
AcDbEntity
  8
1
  6
Continuous
100
AcDbLine
 10
175.3690762751999
 20
316.1253776086812
 30
0.0
 11
186.2578570134713
 21
307.3197286820388
 31
0.0
  0
LINE
  5
3C9
330
18
100
AcDbEntity
  8
1
  6
Continuous
100
AcDbLine
 10
175.8358979587908
 20
316.6469881106166
 30
0.0
 11
186.2578570134714
 21
307.3197286820387
 31
0.0
  0
ARC
  5
3CA
330
18
100
AcDbEntity
  8
1
  6
Continuous
100
AcDbCircle
 10
191.1604238045921
 20
314.2375987230805
 30
0.0
 40
8.478920158023887
100
AcDbArc
 50
234.6755036206001
 51
259.6334783886794
  0
ARC
  5
3CB
330
18
100
AcDbEntity
  8
1
  6
Continuous
100
AcDbCircle
 10
190.5344115843506
 20
310.8154657382282
 30
0.0
 40
5.0
100
AcDbArc
 50
259.6334783886794
 51
306.2017227745727
  0
ARC
  5
3CC
330
18
100
AcDbEntity
  8
1
  6
Continuous
100
AcDbCircle
 10
162.4085266973053
 20
298.0246342534122
 30
0.0
 40
22.26236185525655
100
AcDbArc
 50
54.39646316819661
 51
61.97837001854356
  0
LINE
  5
3CD
330
18
100
AcDbEntity
  8
4
  6
CENTER
 48
0.3
100
AcDbLine
 10
222.8086193126491
 20
327.5651125229898
 30
0.0
 11
206.308619712649
 21
327.5651125229898
 31
0.0
  0
ARC
  5
3CE
330
18
100
AcDbEntity
  8
1
  6
Continuous
100
AcDbCircle
 10
214.558619512649
 20
327.5651125229898
 30
0.0
 40
7.0
100
AcDbArc
 50
270.0
 51
19.18274177988073
  0
CIRCLE
  5
3CF
330
18
100
AcDbEntity
  8
1
  6
Continuous
100
AcDbCircle
 10
214.558619512649
 20
327.5651125229898
 30
0.0
 40
3.249999799999998
  0
LINE
  5
3D1
330
18
100
AcDbEntity
  8
1
  6
Continuous
100
AcDbLine
 10
158.558619512649
 20
362.5651125229897
 30
0.0
 11
214.558619512649
 21
362.5651125229897
 31
0.0
  0
ARC
  5
3D2
330
18
100
AcDbEntity
  8
1
  6
Continuous
100
AcDbCircle
 10
158.558619512649
 20
355.5651025229899
 30
0.0
 40
7.0
100
AcDbArc
 50
89.99998199999998
 51
199.186633804175
  0
LINE
  5
3D3
330
18
100
AcDbEntity
  8
4
  6
CENTER
 48
0.3
100
AcDbLine
 10
158.558619512649
 20
363.8151123229898
 30
0.0
 11
158.558619512649
 21
347.3151127229897
 31
0.0
  0
CIRCLE
  5
3D4
330
18
100
AcDbEntity
  8
1
  6
Continuous
100
AcDbCircle
 10
158.558619512649
 20
355.5651125229898
 30
0.0
 40
3.249999799999998
  0
LINE
  5
3D5
330
18
100
AcDbEntity
  8
4
  6
CENTER
 48
0.3
100
AcDbLine
 10
150.308619712649
 20
355.5651125229898
 30
0.0
 11
166.808619312649
 21
355.5651125229898
 31
0.0
  0
CIRCLE
  5
3D9
330
18
100
AcDbEntity
  8
1
  6
Continuous
100
AcDbCircle
 10
214.558619512649
 20
355.5651125229898
 30
0.0
 40
3.249999799999998
  0
ARC
  5
3DA
330
18
100
AcDbEntity
  8
1
  6
Continuous
100
AcDbCircle
 10
214.558619512649
 20
355.5651125229898
 30
0.0
 40
7.0
100
AcDbArc
 50
340.8485648764903
 51
89.99996799999987
  0
LINE
  5
3DB
330
18
100
AcDbEntity
  8
4
  6
CENTER
 48
0.3
100
AcDbLine
 10
214.558619512649
 20
363.8151123229898
 30
0.0
 11
214.558619512649
 21
347.3151127229897
 31
0.0
  0
LINE
  5
3DC
330
18
100
AcDbEntity
  8
4
  6
CENTER
 48
0.3
100
AcDbLine
 10
222.8086193126491
 20
355.5651125229898
 30
0.0
 11
206.308619712649
 21
355.5651125229898
 31
0.0
  0
LINE
  5
8CF
330
18
100
AcDbEntity
  8
1
  6
Continuous
100
AcDbLine
 10
138.0913883492856
 20
84.83229482645326
 30
0.0
 11
170.4382453625834
 21
84.83229482645326
 31
0.0
  0
LINE
  5
8EA
330
18
100
AcDbEntity
  8
1
  6
Continuous
100
AcDbLine
 10
156.3616232225639
 20
92.94492425585236
 30
0.0
 11
146.4983212535968
 21
100.6163438135435
 31
0.0
  0
ARC
  5
8EB
330
18
100
AcDbEntity
  8
1
  6
Continuous
100
AcDbCircle
 10
142.519569453937
 20
92.40288852763313
 30
0.0
 40
9.181085115759399
100
AcDbArc
 50
83.91705474645586
 51
241.1632492129132
  0
LINE
  5
8EC
330
18
100
AcDbEntity
  8
1
  6
Continuous
100
AcDbLine
 10
138.0913883492856
 20
83.33229982645336
 30
0.0
 11
138.0913883492856
 21
84.83229482645326
 31
0.0
  0
LINE
  5
8FE
330
18
100
AcDbEntity
  8
1
  6
Continuous
100
AcDbLine
 10
155.3829547931794
 20
92.35839362389645
 30
0.0
 11
155.3829547931794
 21
85.76940447393047
 31
0.0
  0
ARC
  5
906
330
18
100
AcDbEntity
  8
1
  6
Continuous
100
AcDbCircle
 10
158.4147855658191
 20
95.13227982645329
 30
0.0
 40
3.0
100
AcDbArc
 50
226.812547589711
 51
247.8324620195442
  0
ARC
  5
908
330
18
100
AcDbEntity
  8
1
  6
Continuous
100
AcDbCircle
 10
143.0332669316695
 20
94.63514334072597
 30
0.0
 40
6.912406277841513
100
AcDbArc
 50
59.91524804783268
 51
86.19092481686346
  0
LINE
  5
91D
330
18
100
AcDbEntity
  8
1
  6
Continuous
100
AcDbLine
 10
193.7044497015867
 20
86.8322798264533
 30
0.0
 11
174.6787903367118
 21
86.8322798264532
 31
0.0
  0
LINE
  5
91E
330
18
100
AcDbEntity
  8
1
  6
Continuous
100
AcDbLine
 10
193.7044497015866
 20
85.53228082645324
 30
0.0
 11
174.23583746588
 21
85.53228082645331
 31
0.0
  0
ARC
  5
91F
330
18
100
AcDbEntity
  8
1
  6
Continuous
100
AcDbCircle
 10
190.5344115843508
 20
99.58192661121472
 30
0.0
 40
5.0
100
AcDbArc
 50
53.79827722542792
 51
100.366521611318
  0
LINE
  5
924
330
18
100
AcDbEntity
  8
1
  6
Continuous
100
AcDbLine
 10
175.3690762751999
 20
94.27201474076184
 30
0.0
 11
186.2578570134711
 21
103.0776636674042
 31
0.0
  0
ARC
  5
926
330
18
100
AcDbEntity
  8
1
  6
Continuous
100
AcDbCircle
 10
174.23583746588
 20
84.03228082645329
 30
0.0
 40
1.5
100
AcDbArc
 50
90.0
 51
128.1833510004882
  0
ARC
  5
927
330
18
100
AcDbEntity
  8
1
  6
Continuous
100
AcDbCircle
 10
174.6787903367118
 20
83.83227982645321
 30
0.0
 40
3.0
100
AcDbArc
 50
90.0
 51
125.5631440384373
  0
ARC
  5
928
330
18
100
AcDbEntity
  8
1
  6
Continuous
100
AcDbCircle
 10
162.4085266973053
 20
112.3727580960309
 30
0.0
 40
22.26236185525655
100
AcDbArc
 50
298.0216299814586
 51
305.6035368318051
  0
ARC
  5
929
330
18
100
AcDbEntity
  8
1
  6
Continuous
100
AcDbCircle
 10
170.4382453625834
 20
86.33229482645328
 30
0.0
 40
1.5
100
AcDbArc
 50
270.0
 51
305.5631440384372
  0
LINE
  5
92A
330
18
100
AcDbEntity
  8
1
  6
Continuous
100
AcDbLine
 10
171.7354955696701
 20
83.9741901553952
 30
0.0
 11
173.3085674432785
 21
85.21133566198239
 31
0.0
  0
ARC
  5
92D
330
18
100
AcDbEntity
  8
1
  6
Continuous
100
AcDbCircle
 10
169.8809555244671
 20
86.33229982645339
 30
0.0
 40
3.0
100
AcDbArc
 50
270.0
 51
308.1833510004883
  0
LINE
  5
935
330
18
100
AcDbEntity
  8
1
  6
Continuous
100
AcDbLine
 10
159.558619512649
 20
86.13229382645315
 30
0.0
 11
159.558619512649
 21
84.93486495030339
 31
0.0
  0
LINE
  5
936
330
18
100
AcDbEntity
  8
2
  6
Continuous
100
AcDbLine
 10
160.0586195126489
 20
86.13229382645315
 30
0.0
 11
160.0586195126489
 21
85.62993708981384
 31
0.0
  0
LINE
  5
937
330
18
100
AcDbEntity
  8
2
  6
Continuous
100
AcDbLine
 10
165.0586195126491
 20
86.13229382645315
 30
0.0
 11
165.0586195126489
 21
85.62993708981386
 31
0.0
  0
LINE
  5
938
330
18
100
AcDbEntity
  8
1
  6
Continuous
100
AcDbLine
 10
165.5586195126489
 20
86.1322938264532
 30
0.0
 11
165.5586195126489
 21
84.93486495030339
 31
0.0
  0
LINE
  5
93E
330
18
100
AcDbEntity
  8
1
  6
Continuous
100
AcDbLine
 10
171.3106450870145
 20
85.11208225447544
 30
0.0
 11
172.9339908878498
 21
86.2727049704088
 31
0.0
  0
ARC
  5
947
330
18
100
AcDbEntity
  8
1
  6
Continuous
100
AcDbCircle
 10
164.4038878694668
 20
121.898851801604
 30
0.0
 40
30.38134221651255
100
AcDbArc
 50
277.4290185354672
 51
286.1754144102624
  0
LINE
  5
948
330
18
100
AcDbEntity
  8
1
  6
Continuous
100
AcDbLine
 10
183.8693133268878
 20
85.53228082645324
 30
0.0
 11
182.4477636316709
 21
83.96131393439715
 31
0.0
  0
LINE
  5
949
330
18
100
AcDbEntity
  8
1
  6
Continuous
100
AcDbLine
 10
179.5432356984101
 20
85.53228082645331
 30
0.0
 11
180.9647853936271
 21
83.96131393439715
 31
0.0
  0
LINE
  5
94A
330
18
100
AcDbEntity
  8
1
  6
Continuous
100
AcDbLine
 10
177.520279512649
 20
85.53228082645331
 30
0.0
 11
179.8525517150942
 21
82.95486659631279
 31
0.0
  0
LINE
  5
94B
330
18
100
AcDbEntity
  8
1
  6
Continuous
100
AcDbLine
 10
185.8922695126489
 20
85.53228082645324
 30
0.0
 11
183.5599973102038
 21
82.95486659631279
 31
0.0
  0
ARC
  5
94C
330
18
100
AcDbEntity
  8
1
  6
Continuous
100
AcDbCircle
 10
181.706274512649
 20
84.63227882645339
 30
0.0
 40
2.5
100
AcDbArc
 50
222.1415793782628
 51
317.8584206217367
  0
ARC
  5
94D
330
18
100
AcDbEntity
  8
1
  6
Continuous
100
AcDbCircle
 10
181.706274512649
 20
84.63227882645339
 30
0.0
 40
1.0
100
AcDbArc
 50
222.1415793782628
 51
317.8584206217367
  0
LINE
  5
951
330
18
100
AcDbEntity
  8
1
  6
Continuous
100
AcDbLine
 10
175.7342930335634
 20
93.39836170778513
 30
0.0
 11
175.7342930335634
 21
87.74611618328519
 31
0.0
  0
ARC
  5
956
330
18
100
AcDbEntity
  8
1
  6
Continuous
100
AcDbCircle
 10
191.1604238045923
 20
96.15979362636268
 30
0.0
 40
8.478920158023887
100
AcDbArc
 50
100.366521611318
 51
125.3244963794017
  0
ARC
  5
957
330
18
100
AcDbEntity
  8
1
  6
Continuous
100
AcDbCircle
 10
187.0050849796598
 20
94.76001754064345
 30
0.0
 40
10.97552954703079
100
AcDbArc
 50
307.6177819367269
 51
53.79827722542792
  0
LINE
  5
95A
330
18
100
AcDbEntity
  8
1
  6
Continuous
100
AcDbLine
 10
193.7044497015867
 20
86.8322798264533
 30
0.0
 11
193.7044497015866
 21
85.53228082645324
 31
0.0
  0
LINE
  5
B84
330
18
100
AcDbEntity
  8
4
  6
CENTER
 48
0.4
100
AcDbLine
 10
224.1865335126501
 20
68.83227982645326
 30
0.0
 11
125.0586195126489
 21
68.83227982645326
 31
0.0
  0
LINE
  5
B88
330
18
100
AcDbEntity
  8
4
  6
CENTER
 48
0.3
100
AcDbLine
 10
150.3086197126529
 20
82.83227982645327
 30
0.0
 11
166.808619312645
 21
82.83227982645327
 31
0.0
  0
ARC
  5
B8B
330
18
100
AcDbEntity
  8
1
  6
Continuous
100
AcDbCircle
 10
158.558619512649
 20
54.83228982645329
 30
0.0
 40
7.0
100
AcDbArc
 50
171.0337081690816
 51
270.0000179999999
  0
LINE
  5
B8C
330
18
100
AcDbEntity
  8
4
  6
CENTER
 48
0.3
100
AcDbLine
 10
150.308619712649
 20
54.83227982645326
 30
0.0
 11
166.808619312649
 21
54.83227982645326
 31
0.0
  0
ARC
  5
B8E
330
18
100
AcDbEntity
  8
1
  6
Continuous
100
AcDbCircle
 10
158.558619512649
 20
54.83227982645326
 30
0.0
 40
3.249999799999998
100
AcDbArc
 50
188.8501512757476
 51
252.079785720401
  0
ARC
  5
B96
330
18
100
AcDbEntity
  8
5
  6
PHANTOM
 48
0.3
100
AcDbCircle
 10
134.454699368495
 20
92.14353627112535
 30
0.0
 40
9.372808071568078
100
AcDbArc
 50
89.75005239501856
 51
239.3240288955686
  0
LINE
  5
B9C
330
18
100
AcDbEntity
  8
1
  6
Continuous
100
AcDbLine
 10
173.4508451713129
 20
83.33229982645333
 30
0.0
 11
138.0913883492856
 21
83.33229982645333
 31
0.0
  0
ARC
  5
BAD
330
18
100
AcDbEntity
  8
1
  6
Continuous
100
AcDbCircle
 10
254.686529512649
 20
68.83227182645339
 30
0.0
 40
35.499996
100
AcDbArc
 50
160.7569813105998
 51
199.2491674474446
  0
LINE
  5
BB3
330
18
100
AcDbEntity
  8
4
  6
CENTER
 48
0.4
100
AcDbLine
 10
162.5586195126489
 20
42.83227982645326
 30
0.0
 11
162.5586195126489
 21
100.4788351029534
 31
0.0
  0
LINE
  5
BB4
330
18
100
AcDbEntity
  8
4
  6
CENTER
 48
0.4
100
AcDbLine
 10
186.5586195126488
 20
42.83227982645326
 30
0.0
 11
186.5586195126488
 21
94.83227982645326
 31
0.0
  0
ARC
  5
BB7
330
18
100
AcDbEntity
  8
1
  6
Continuous
100
AcDbCircle
 10
158.5586195126489
 20
82.83227982645327
 30
0.0
 40
7.0
100
AcDbArc
 50
195.0920876487886
 51
199.1827417798806
  0
LINE
  5
BB8
330
18
100
AcDbEntity
  8
4
  6
CENTER
 48
0.3
100
AcDbLine
 10
222.8086193126491
 20
82.83227982645327
 30
0.0
 11
206.308619712649
 21
82.83227982645327
 31
0.0
  0
LINE
  5
BB9
330
18
100
AcDbEntity
  8
4
  6
CENTER
 48
0.3
100
AcDbLine
 10
214.558619512649
 20
91.08227962645328
 30
0.0
 11
214.558619512649
 21
74.58228002645332
 31
0.0
  0
LINE
  5
BBA
330
18
100
AcDbEntity
  8
4
  6
CENTER
 48
0.3
100
AcDbLine
 10
158.558619512649
 20
91.0822876264533
 30
0.0
 11
158.558619512649
 21
74.58228802645328
 31
0.0
  0
LINE
  5
BBB
330
18
100
AcDbEntity
  8
1
  6
Continuous
100
AcDbLine
 10
214.558619512649
 20
89.83227982645326
 30
0.0
 11
196.8122073842131
 21
89.83227982645329
 31
0.0
  0
LINE
  5
BC3
330
18
100
AcDbEntity
  8
1
  6
Continuous
100
AcDbLine
 10
160.0586195126489
 20
96.33227982645326
 30
0.0
 11
162.5586195126489
 21
96.33227982645326
 31
0.0
  0
LINE
  5
BC7
330
18
100
AcDbEntity
  8
2
  6
Continuous
100
AcDbLine
 10
160.0586195126489
 20
96.83226582645326
 30
0.0
 11
160.0586195126489
 21
92.53229382645328
 31
0.0
  0
LINE
  5
BC8
330
18
100
AcDbEntity
  8
1
  6
Continuous
100
AcDbLine
 10
159.558619512649
 20
96.33226482645326
 30
0.0
 11
159.558619512649
 21
92.53229382645328
 31
0.0
  0
LINE
  5
BCF
330
18
100
AcDbEntity
  8
2
  6
Continuous
100
AcDbLine
 10
165.0586195126489
 20
96.83226482645324
 30
0.0
 11
165.0586195126489
 21
92.53229382645335
 31
0.0
  0
LINE
  5
BD0
330
18
100
AcDbEntity
  8
1
  6
Continuous
100
AcDbLine
 10
165.5586195126489
 20
96.33226382645318
 30
0.0
 11
165.5586195126489
 21
92.53229382645335
 31
0.0
  0
CIRCLE
  5
BDA
330
18
100
AcDbEntity
  8
1
  6
Continuous
100
AcDbCircle
 10
214.558619512649
 20
82.83227982645327
 30
0.0
 40
3.249999799999998
  0
ARC
  5
BDB
330
18
100
AcDbEntity
  8
1
  6
Continuous
100
AcDbCircle
 10
214.558619512649
 20
54.83227982645326
 30
0.0
 40
7.0
100
AcDbArc
 50
270.000032
 51
19.15143512350963
  0
LINE
  5
BDC
330
18
100
AcDbEntity
  8
4
  6
CENTER
 48
0.3
100
AcDbLine
 10
222.8086193126491
 20
54.83227982645326
 30
0.0
 11
206.308619712649
 21
54.83227982645326
 31
0.0
  0
LINE
  5
BDE
330
18
100
AcDbEntity
  8
4
  6
CENTER
 48
0.3
100
AcDbLine
 10
158.558619512649
 20
46.58228002645328
 30
0.0
 11
158.558619512649
 21
63.08227962645332
 31
0.0
  0
LINE
  5
BDF
330
18
100
AcDbEntity
  8
4
  6
CENTER
 48
0.3
100
AcDbLine
 10
214.558619512649
 20
46.58228002645328
 30
0.0
 11
214.558619512649
 21
63.08227962645332
 31
0.0
  0
LINE
  5
BE0
330
18
100
AcDbEntity
  8
1
  6
Continuous
100
AcDbLine
 10
214.558619512649
 20
47.83227982645337
 30
0.0
 11
186.5586195126488
 21
47.83227982645337
 31
0.0
  0
LINE
  5
BE1
330
18
100
AcDbEntity
  8
1
  6
Continuous
100
AcDbLine
 10
158.558619512649
 20
47.83227982645337
 30
0.0
 11
186.5586195126488
 21
47.83227982645337
 31
0.0
  0
CIRCLE
  5
BE2
330
18
100
AcDbEntity
  8
1
  6
Continuous
100
AcDbCircle
 10
214.558619512649
 20
54.83227982645326
 30
0.0
 40
3.249999799999998
  0
LINE
  5
C9E
330
18
100
AcDbEntity
  8
4
  6
CENTER
 48
0.4
100
AcDbLine
 10
313.2563352744197
 20
251.1986941747216
 30
0.0
 11
313.2563352744197
 21
159.1986981747214
 31
0.0
  0
LINE
  5
CA6
330
18
100
AcDbEntity
  8
1
  6
Continuous
100
AcDbLine
 10
334.2563352744197
 20
246.1986941747216
 30
0.0
 11
313.2563352744197
 21
246.1986941747216
 31
0.0
  0
LINE
  5
CA7
330
18
100
AcDbEntity
  8
1
  6
Continuous
100
AcDbLine
 10
334.2563352744197
 20
244.6986941747216
 30
0.0
 11
313.2563352744197
 21
244.6986941747216
 31
0.0
  0
LINE
  5
CA8
330
18
100
AcDbEntity
  8
1
  6
Continuous
100
AcDbLine
 10
330.2563352744197
 20
240.3986949347214
 30
0.0
 11
313.2563352744197
 21
240.3986949347214
 31
0.0
  0
LINE
  5
CAB
330
18
100
AcDbEntity
  8
1
  6
Continuous
100
AcDbLine
 10
328.9563322744196
 20
239.7986954747215
 30
0.0
 11
297.5563342744198
 21
239.7986954747215
 31
0.0
  0
LINE
  5
CAF
330
18
100
AcDbEntity
  8
4
  6
CENTER
 48
0.4
100
AcDbLine
 10
335.7563352744197
 20
196.6986981747215
 30
0.0
 11
280.7563352744196
 21
196.6986981747215
 31
0.0
  0
LINE
  5
CB0
330
18
100
AcDbEntity
  8
1
  6
Continuous
100
AcDbLine
 10
326.2563352744197
 20
231.236320824379
 30
0.0
 11
326.2563352744197
 21
186.2987001747216
 31
0.0
  0
LINE
  5
CB1
330
18
100
AcDbEntity
  8
1
  6
Continuous
100
AcDbLine
 10
327.7563502744196
 20
201.2691372562759
 30
0.0
 11
327.7563502744196
 21
187.7986961747216
 31
0.0
  0
ARC
  5
CB3
330
18
100
AcDbEntity
  8
1
  6
Continuous
100
AcDbCircle
 10
294.1955782744198
 20
219.0925651747214
 30
0.0
 40
38.0
100
AcDbArc
 50
332.0281583166301
 51
9.828936110630179
  0
LINE
  5
CB9
330
18
100
AcDbEntity
  8
1
  6
Continuous
100
AcDbLine
 10
327.7563502744196
 20
187.7986961747216
 30
0.0
 11
326.2563352744197
 21
187.7986961747216
 31
0.0
  0
LINE
  5
CCC
330
18
100
AcDbEntity
  8
1
  6
Continuous
100
AcDbLine
 10
332.1615402744196
 20
220.7005101747215
 30
0.0
 11
331.4540892744196
 21
237.4044810747215
 31
0.0
  0
LINE
  5
CCE
330
18
100
AcDbEntity
  8
1
  6
Continuous
100
AcDbLine
 10
334.2563352744197
 20
246.1986941747216
 30
0.0
 11
334.2563352744197
 21
244.6986941747216
 31
0.0
  0
LINE
  5
CCF
330
18
100
AcDbEntity
  8
4
  6
CENTER
 48
0.4
100
AcDbLine
 10
327.2563352744196
 20
249.1986941747216
 30
0.0
 11
327.2563352744196
 21
241.6986941747214
 31
0.0
  0
ARC
  5
CD0
330
18
100
AcDbEntity
  8
1
  6
Continuous
100
AcDbCircle
 10
330.2563352744197
 20
242.3986949747216
 30
0.0
 40
2.0
100
AcDbArc
 50
270.0
 51
331.8358999999996
  0
ARC
  5
CD1
330
18
100
AcDbEntity
  8
1
  6
Continuous
100
AcDbCircle
 10
334.0557892744196
 20
244.1986941747216
 30
0.0
 40
0.5
100
AcDbArc
 50
89.99998400000034
 51
151.8358429999997
  0
LINE
  5
CD2
330
18
100
AcDbEntity
  8
1
  6
Continuous
100
AcDbLine
 10
333.6149932744196
 20
244.4346937747216
 30
0.0
 11
332.0195342744197
 21
241.4546992247216
 31
0.0
  0
ARC
  5
CD3
330
18
100
AcDbEntity
  8
1
  6
Continuous
100
AcDbCircle
 10
328.9563322744196
 20
237.2986954747215
 30
0.0
 40
2.5
100
AcDbArc
 50
2.425140000000129
 51
90.00001800000005
  0
ARC
  5
CD4
330
18
100
AcDbEntity
  8
1
  6
Continuous
100
AcDbCircle
 10
323.4718502744196
 20
240.8831958247215
 30
0.0
 40
1.984500099999999
100
AcDbArc
 50
326.8737700000002
 51
345.8688400000001
  0
ARC
  5
CD5
330
18
100
AcDbEntity
  8
1
  6
Continuous
100
AcDbCircle
 10
325.7563352744197
 20
240.8831958247215
 30
0.0
 40
1.984500099999999
100
AcDbArc
 50
326.8737700000002
 51
345.8688400000001
  0
ARC
  5
CD6
330
18
100
AcDbEntity
  8
1
  6
Continuous
100
AcDbCircle
 10
325.2151972744196
 20
240.8831958247215
 30
0.0
 40
1.984500099999999
100
AcDbArc
 50
326.8737700000002
 51
345.8688400000001
  0
LINE
  5
CD8
330
18
100
AcDbEntity
  8
1
  6
Continuous
100
AcDbLine
 10
298.7563202744198
 20
201.269142905152
 30
0.0
 11
298.7563202744198
 21
188.5135971747214
 31
0.0
  0
LINE
  5
CDB
330
18
100
AcDbEntity
  8
1
  6
Continuous
100
AcDbLine
 10
287.7563182744196
 20
207.9070261747214
 30
0.0
 11
280.9574947744197
 21
215.2237951747214
 31
0.0
  0
LINE
  5
CDC
330
18
100
AcDbEntity
  8
1
  6
Continuous
100
AcDbLine
 10
300.2563352744197
 20
231.2363202805122
 30
0.0
 11
300.2563352744197
 21
187.7986961747216
 31
0.0
  0
LINE
  5
CE4
330
18
100
AcDbEntity
  8
1
  6
Continuous
100
AcDbLine
 10
289.9563212744197
 20
198.7262318953634
 30
0.0
 11
278.3777279744196
 21
191.3111251747216
 31
0.0
  0
ARC
  5
CE5
330
18
100
AcDbEntity
  8
1
  6
Continuous
100
AcDbCircle
 10
286.6178852744196
 20
198.0277921747216
 30
0.0
 40
14.405884
100
AcDbArc
 50
234.3334100000002
 51
298.8211500000003
  0
ARC
  5
CE9
330
18
100
AcDbEntity
  8
1
  6
Continuous
100
AcDbCircle
 10
297.5563342744198
 20
183.6205191747216
 30
0.0
 40
1.0
100
AcDbArc
 50
117.6965440000001
 51
180.0
  0
LINE
  5
CEB
330
18
100
AcDbEntity
  8
1
  6
Continuous
100
AcDbLine
 10
299.9563362744197
 20
186.1137601747214
 30
0.0
 11
299.9563362744197
 21
188.5135971747216
 31
0.0
  0
LINE
  5
CEC
330
18
100
AcDbEntity
  8
1
  6
Continuous
100
AcDbLine
 10
299.9563362744197
 20
186.1137601747214
 30
0.0
 11
296.5563342744198
 21
186.1137601747214
 31
0.0
  0
ARC
  5
CED
330
18
100
AcDbEntity
  8
1
  6
Continuous
100
AcDbCircle
 10
298.2563352744197
 20
185.6820811747216
 30
0.0
 40
0.5
100
AcDbArc
 50
297.6965500000001
 51
0.0000100000001992
  0
LINE
  5
CEE
330
18
100
AcDbEntity
  8
1
  6
Continuous
100
AcDbLine
 10
300.2563352744197
 20
187.7986961747216
 30
0.0
 11
299.9563362744197
 21
187.7986961747215
 31
0.0
  0
LINE
  5
CF0
330
18
100
AcDbEntity
  8
1
  6
Continuous
100
AcDbLine
 10
297.0915442744196
 20
184.5059411747214
 30
0.0
 11
298.4887282744196
 21
185.2393701747215
 31
0.0
  0
LINE
  5
CF3
330
18
100
AcDbEntity
  8
1
  6
Continuous
100
AcDbLine
 10
293.7742562744197
 20
185.5228251747214
 30
0.0
 11
293.5626322744196
 21
185.4063811747216
 31
0.0
  0
ARC
  5
CF8
330
18
100
AcDbEntity
  8
1
  6
Continuous
100
AcDbCircle
 10
294.2563352744197
 20
184.6466961747216
 30
0.0
 40
1.0
100
AcDbArc
 50
359.9999899999998
 51
118.8211490000002
  0
LINE
  5
CFA
330
18
100
AcDbEntity
  8
1
  6
Continuous
100
AcDbLine
 10
296.5563342744198
 20
182.7200371747214
 30
0.0
 11
295.2563352744197
 21
182.7200371747214
 31
0.0
  0
LINE
  5
CFB
330
18
100
AcDbEntity
  8
1
  6
Continuous
100
AcDbLine
 10
296.5563342744198
 20
182.7200371747214
 30
0.0
 11
296.5563342744198
 21
195.7035136080092
 31
0.0
  0
LINE
  5
CFC
330
18
100
AcDbEntity
  8
1
  6
Continuous
100
AcDbLine
 10
295.2563352744197
 20
182.7200371747214
 30
0.0
 11
295.2563352744197
 21
184.6466961747216
 31
0.0
  0
LINE
  5
CFE
330
18
100
AcDbEntity
  8
1
  6
Continuous
100
AcDbLine
 10
277.4563360744196
 20
187.8948501747214
 30
0.0
 11
277.4563360744196
 21
189.6269011747214
 31
0.0
  0
ARC
  5
CFF
330
18
100
AcDbEntity
  8
1
  6
Continuous
100
AcDbCircle
 10
279.4563360744196
 20
187.8948501747214
 30
0.0
 40
2.0
100
AcDbArc
 50
180.0
 51
232.92978
  0
ARC
  5
D00
330
18
100
AcDbEntity
  8
1
  6
Continuous
100
AcDbCircle
 10
279.4563360744196
 20
189.6269011747214
 30
0.0
 40
2.0
100
AcDbArc
 50
122.6361029999996
 51
180.0
  0
LINE
  5
D01
330
18
100
AcDbEntity
  8
1
  6
Continuous
100
AcDbLine
 10
289.9563212744197
 20
207.9070301747214
 30
0.0
 11
287.7563202744198
 21
207.9070301747214
 31
0.0
  0
ARC
  5
D19
330
18
100
AcDbEntity
  8
1
  6
Continuous
100
AcDbCircle
 10
299.4388072744196
 20
209.5197221747215
 30
0.0
 40
3.0
100
AcDbArc
 50
50.26953000000031
 51
74.18635847583253
  0
ARC
  5
D1C
330
18
100
AcDbEntity
  8
1
  6
Continuous
100
AcDbCircle
 10
299.4302012744197
 20
205.6948491747216
 30
0.0
 40
3.0
100
AcDbArc
 50
59.42193000000028
 51
74.01545824530865
  0
LINE
  5
D1E
330
18
100
AcDbEntity
  8
1
  6
Continuous
100
AcDbLine
 10
301.3563332744197
 20
209.7269021747214
 30
0.0
 11
300.9563342744197
 21
208.2776581747214
 31
0.0
  0
LINE
  5
D21
330
18
100
AcDbEntity
  8
1
  6
Continuous
100
AcDbLine
 10
301.3563332744197
 20
209.7269021747214
 30
0.0
 11
301.3563332744197
 21
211.8269001747214
 31
0.0
  0
LINE
  5
D25
330
18
100
AcDbEntity
  8
1
  6
Continuous
100
AcDbLine
 10
289.9563212744197
 20
209.6987021747215
 30
0.0
 11
289.9563212744197
 21
198.7262318953634
 31
0.0
  0
LINE
  5
D32
330
18
100
AcDbEntity
  8
1
  6
Continuous
100
AcDbLine
 10
295.0585732744197
 20
237.4044801747214
 30
0.0
 11
294.3540292744197
 21
220.7689781747216
 31
0.0
  0
ARC
  5
D34
330
18
100
AcDbEntity
  8
1
  6
Continuous
100
AcDbCircle
 10
288.9991142744197
 20
207.2940041747215
 30
0.0
 40
14.5
100
AcDbArc
 50
68.32701002454775
 51
89.77389099999975
  0
ARC
  5
D3C
330
18
100
AcDbEntity
  8
1
  6
Continuous
100
AcDbCircle
 10
289.0625872744196
 20
209.9938921747214
 30
0.0
 40
11.8
100
AcDbArc
 50
89.96965100000025
 51
132.8607149999996
  0
ARC
  5
D3D
330
18
100
AcDbEntity
  8
1
  6
Continuous
100
AcDbCircle
 10
282.0563344744197
 20
217.5438901747214
 30
0.0
 40
1.5
100
AcDbArc
 50
132.8607149999996
 51
180.0
  0
ARC
  5
D3E
330
18
100
AcDbEntity
  8
1
  6
Continuous
100
AcDbCircle
 10
282.0563344744197
 20
216.2448501747216
 30
0.0
 40
1.5
100
AcDbArc
 50
180.0
 51
222.8985900000003
  0
LINE
  5
D3F
330
18
100
AcDbEntity
  8
1
  6
Continuous
100
AcDbLine
 10
280.5563344744196
 20
216.2448501747216
 30
0.0
 11
280.5563344744196
 21
217.5438901747214
 31
0.0
  0
LINE
  5
D40
330
18
100
AcDbEntity
  8
1
  6
Continuous
100
AcDbLine
 10
292.2563352744197
 20
246.1986941747216
 30
0.0
 11
292.2563352744197
 21
244.6986941747216
 31
0.0
  0
LINE
  5
D41
330
18
100
AcDbEntity
  8
4
  6
CENTER
 48
0.4
100
AcDbLine
 10
299.2563352744197
 20
249.1986941747214
 30
0.0
 11
299.2563352744197
 21
241.6986941747214
 31
0.0
  0
LINE
  5
D42
330
18
100
AcDbEntity
  8
1
  6
Continuous
100
AcDbLine
 10
292.2563352744197
 20
244.6986941747216
 30
0.0
 11
313.2563352744197
 21
244.6986941747216
 31
0.0
  0
LINE
  5
D43
330
18
100
AcDbEntity
  8
1
  6
Continuous
100
AcDbLine
 10
296.2563352744197
 20
240.3986949347214
 30
0.0
 11
313.2563352744197
 21
240.3986949347214
 31
0.0
  0
ARC
  5
D44
330
18
100
AcDbEntity
  8
1
  6
Continuous
100
AcDbCircle
 10
309.3376722744196
 20
240.8831958247215
 30
0.0
 40
1.984500099999999
100
AcDbArc
 50
194.1311600000002
 51
213.1262299999997
  0
ARC
  5
D45
330
18
100
AcDbEntity
  8
1
  6
Continuous
100
AcDbCircle
 10
305.8140902744197
 20
240.8831958247215
 30
0.0
 40
1.984500099999999
100
AcDbArc
 50
326.8737700000002
 51
332.5952099999998
  0
ARC
  5
D46
330
18
100
AcDbEntity
  8
1
  6
Continuous
100
AcDbCircle
 10
320.6985802744196
 20
240.8831958247215
 30
0.0
 40
1.984500099999999
100
AcDbArc
 50
326.8737700000002
 51
345.8688400000001
  0
ARC
  5
D47
330
18
100
AcDbEntity
  8
1
  6
Continuous
100
AcDbCircle
 10
313.2563352744197
 20
240.8831958247215
 30
0.0
 40
1.984500099999999
100
AcDbArc
 50
326.8737700000002
 51
345.8688400000001
  0
ARC
  5
D48
330
18
100
AcDbEntity
  8
1
  6
Continuous
100
AcDbCircle
 10
317.1749982744196
 20
240.8831958247215
 30
0.0
 40
1.984500099999999
100
AcDbArc
 50
194.1311700000004
 51
213.1262299999997
  0
ARC
  5
D49
330
18
100
AcDbEntity
  8
1
  6
Continuous
100
AcDbCircle
 10
320.6985802744196
 20
240.8831958247215
 30
0.0
 40
1.984500099999999
100
AcDbArc
 50
207.40479
 51
213.1262299999997
  0
ARC
  5
D4A
330
18
100
AcDbEntity
  8
1
  6
Continuous
100
AcDbCircle
 10
317.1749982744196
 20
240.8831958247215
 30
0.0
 40
1.984500099999999
100
AcDbArc
 50
326.8737700000002
 51
345.8688400000001
  0
ARC
  5
D4B
330
18
100
AcDbEntity
  8
1
  6
Continuous
100
AcDbCircle
 10
309.3376722744196
 20
240.8831958247215
 30
0.0
 40
1.984500099999999
100
AcDbArc
 50
326.8737700000002
 51
345.8688400000001
  0
ARC
  5
D4C
330
18
100
AcDbEntity
  8
1
  6
Continuous
100
AcDbCircle
 10
313.2563352744197
 20
240.8831958247215
 30
0.0
 40
1.984500099999999
100
AcDbArc
 50
194.1311600000002
 51
213.1262299999997
  0
ARC
  5
D4D
330
18
100
AcDbEntity
  8
1
  6
Continuous
100
AcDbCircle
 10
297.5563342744198
 20
237.2986954747215
 30
0.0
 40
2.5
100
AcDbArc
 50
90.00001800000005
 51
177.5748646999998
  0
ARC
  5
D4E
330
18
100
AcDbEntity
  8
1
  6
Continuous
100
AcDbCircle
 10
303.0408202744196
 20
240.8831958247215
 30
0.0
 40
1.984500099999999
100
AcDbArc
 50
194.1311600000002
 51
213.1262299999997
  0
ARC
  5
D4F
330
18
100
AcDbEntity
  8
1
  6
Continuous
100
AcDbCircle
 10
301.2974732744197
 20
240.8831958247215
 30
0.0
 40
1.984500099999999
100
AcDbArc
 50
194.1311600000002
 51
213.1262299999997
  0
ARC
  5
D50
330
18
100
AcDbEntity
  8
1
  6
Continuous
100
AcDbCircle
 10
300.7563352744197
 20
240.8831958247215
 30
0.0
 40
1.984500099999999
100
AcDbArc
 50
194.1311600000002
 51
213.1262299999997
  0
ARC
  5
D51
330
18
100
AcDbEntity
  8
1
  6
Continuous
100
AcDbCircle
 10
305.8140902744197
 20
240.8831958247215
 30
0.0
 40
1.984500099999999
100
AcDbArc
 50
194.1311600000002
 51
213.1262299999997
  0
ARC
  5
D52
330
18
100
AcDbEntity
  8
1
  6
Continuous
100
AcDbCircle
 10
292.4568812744197
 20
244.1986941747216
 30
0.0
 40
0.5
100
AcDbArc
 50
28.16416999999999
 51
90.0000380000004
  0
ARC
  5
D53
330
18
100
AcDbEntity
  8
1
  6
Continuous
100
AcDbCircle
 10
296.2563352744197
 20
242.3986949747216
 30
0.0
 40
2.0
100
AcDbArc
 50
208.1641299999996
 51
270.0
  0
LINE
  5
D54
330
18
100
AcDbEntity
  8
1
  6
Continuous
100
AcDbLine
 10
292.8976812744196
 20
244.4346889747214
 30
0.0
 11
294.4931402744197
 21
241.4546907547215
 31
0.0
  0
LINE
  5
D55
330
18
100
AcDbEntity
  8
1
  6
Continuous
100
AcDbLine
 10
292.2563352744197
 20
246.1986941747216
 30
0.0
 11
313.2563352744197
 21
246.1986941747216
 31
0.0
  0
LINE
  5
DD8
330
18
100
AcDbEntity
  8
1
  6
Continuous
100
AcDbLine
 10
471.9545240361902
 20
234.6359090747216
 30
0.0
 11
452.6388810361903
 21
238.0417777747215
 31
0.0
  0
LINE
  5
DE1
330
18
100
AcDbEntity
  8
4
  6
CENTER
 48
0.4
100
AcDbLine
 10
501.4540510361903
 20
196.6986981747215
 30
0.0
 11
426.4540510361903
 21
196.6986981747215
 31
0.0
  0
LINE
  5
DE3
330
18
100
AcDbEntity
  8
1
  6
Continuous
100
AcDbLine
 10
474.9540510361903
 20
246.1986941747216
 30
0.0
 11
439.9540510361902
 21
246.1986941747216
 31
0.0
  0
LINE
  5
DE4
330
18
100
AcDbEntity
  8
1
  6
Continuous
100
AcDbLine
 10
474.9540510361903
 20
244.6986941747216
 30
0.0
 11
439.9540510361902
 21
244.6986941747216
 31
0.0
  0
LINE
  5
DEC
330
18
100
AcDbEntity
  8
1
  6
Continuous
100
AcDbLine
 10
470.1040530361903
 20
233.4390553747216
 30
0.0
 11
471.4497261391836
 21
195.5533621331174
 31
0.0
  0
LINE
  5
DEE
330
18
100
AcDbEntity
  8
1
  6
Continuous
100
AcDbLine
 10
492.4201920361903
 20
221.7938921747215
 30
0.0
 11
487.5901757416725
 21
219.0052803626516
 31
0.0
  0
LINE
  5
DEF
330
18
100
AcDbEntity
  8
1
  6
Continuous
100
AcDbLine
 10
493.1701920361903
 20
220.4948541747214
 30
0.0
 11
488.6160709395812
 21
217.8655301125612
 31
0.0
  0
LINE
  5
E08
330
18
100
AcDbEntity
  8
1
  6
Continuous
100
AcDbLine
 10
492.4201920361903
 20
221.7938921747215
 30
0.0
 11
493.1701920361903
 21
220.4948521747214
 31
0.0
  0
LINE
  5
E0A
330
18
100
AcDbEntity
  8
1
  6
Continuous
100
AcDbLine
 10
471.6940490361903
 20
233.1586970747214
 30
0.0
 11
470.1040450361903
 21
233.4390577747214
 31
0.0
  0
LINE
  5
E0B
330
18
100
AcDbEntity
  8
1
  6
Continuous
100
AcDbLine
 10
471.6940560361903
 20
233.1586960747214
 30
0.0
 11
471.9540510361903
 21
234.6332291747216
 31
0.0
  0
LINE
  5
E0C
330
18
100
AcDbEntity
  8
1
  6
Continuous
100
AcDbLine
 10
470.1040530361903
 20
233.4390563747215
 30
0.0
 11
470.3645200361903
 21
234.9162682747214
 31
0.0
  0
LINE
  5
E0D
330
18
100
AcDbEntity
  8
1
  6
Continuous
100
AcDbLine
 10
474.9540510361903
 20
244.6986941747216
 30
0.0
 11
474.9540510361903
 21
246.1986903747214
 31
0.0
  0
LINE
  5
E11
330
18
100
AcDbEntity
  8
4
  6
CENTER
 48
0.4
100
AcDbLine
 10
463.9540510361903
 20
232.6986979747216
 30
0.0
 11
463.9540510361903
 21
159.1986981747214
 31
0.0
  0
LINE
  5
E13
330
18
100
AcDbEntity
  8
4
  6
CENTER
 48
0.4
100
AcDbLine
 10
439.9540510361902
 20
251.1986941747216
 30
0.0
 11
439.9540510361902
 21
212.8581641747214
 31
0.0
  0
LINE
  5
E18
330
18
100
AcDbEntity
  8
1
  6
Continuous
100
AcDbLine
 10
443.5070510361903
 20
215.6587851747215
 30
0.0
 11
457.4686402877357
 21
191.5318078801433
 31
0.0
  0
LINE
  5
E19
330
18
100
AcDbEntity
  8
1
  6
Continuous
100
AcDbLine
 10
451.5467210361903
 20
238.0417770747214
 30
0.0
 11
451.5467210361903
 21
205.1003091747214
 31
0.0
  0
LINE
  5
E20
330
18
100
AcDbEntity
  8
1
  6
Continuous
100
AcDbLine
 10
432.8179223471969
 20
187.3825031218878
 30
0.0
 11
428.5941310361903
 21
184.9438951747216
 31
0.0
  0
LINE
  5
E21
330
18
100
AcDbEntity
  8
1
  6
Continuous
100
AcDbLine
 10
433.2920273880874
 20
185.9241770344025
 30
0.0
 11
429.3441310361903
 21
183.6448571747216
 31
0.0
  0
LINE
  5
E2F
330
18
100
AcDbEntity
  8
1
  6
Continuous
100
AcDbLine
 10
428.5941310361903
 20
184.9438951747216
 30
0.0
 11
429.3441310361903
 21
183.6448571747216
 31
0.0
  0
LINE
  5
E5A
330
18
100
AcDbEntity
  8
1
  6
Continuous
100
AcDbLine
 10
421.4540510361903
 20
233.5986942747215
 30
0.0
 11
421.7173910361903
 21
237.4684282747216
 31
0.0
  0
ARC
  5
E5B
330
18
100
AcDbEntity
  8
1
  6
Continuous
100
AcDbCircle
 10
408.8858410361901
 20
195.6244911747214
 30
0.0
 40
40.0
100
AcDbArc
 50
30.05670999999987
 51
71.68715
  0
LINE
  5
E5D
330
18
100
AcDbEntity
  8
1
  6
Continuous
100
AcDbLine
 10
422.9540510361903
 20
240.3986949347214
 30
0.0
 11
439.9540510361902
 21
240.3986949347214
 31
0.0
  0
LINE
  5
E5E
330
18
100
AcDbEntity
  8
1
  6
Continuous
100
AcDbLine
 10
455.6964810361903
 20
239.7986953747214
 30
0.0
 11
424.2116210361904
 21
239.7986953747214
 31
0.0
  0
LINE
  5
E5F
330
18
100
AcDbEntity
  8
1
  6
Continuous
100
AcDbLine
 10
404.9540510361903
 20
246.1986941747216
 30
0.0
 11
439.9540510361902
 21
246.1986941747216
 31
0.0
  0
LINE
  5
E60
330
18
100
AcDbEntity
  8
1
  6
Continuous
100
AcDbLine
 10
404.9540510361903
 20
244.6986941747216
 30
0.0
 11
439.9540510361902
 21
244.6986941747216
 31
0.0
  0
LINE
  5
E61
330
18
100
AcDbEntity
  8
4
  6
CENTER
 48
0.4
100
AcDbLine
 10
467.9540510361903
 20
241.6986941747214
 30
0.0
 11
467.9540510361903
 21
249.1986941747216
 31
0.0
  0
LINE
  5
E62
330
18
100
AcDbEntity
  8
1
  6
Continuous
100
AcDbLine
 10
456.9540510361902
 20
240.3986949347214
 30
0.0
 11
439.9540510361902
 21
240.3986949347214
 31
0.0
  0
ARC
  5
E63
330
18
100
AcDbEntity
  8
1
  6
Continuous
100
AcDbCircle
 10
451.9129110361903
 20
240.8831958247215
 30
0.0
 40
1.984500099999999
100
AcDbArc
 50
326.8737700000002
 51
345.8688400000001
  0
ARC
  5
E64
330
18
100
AcDbEntity
  8
1
  6
Continuous
100
AcDbCircle
 10
452.4540510361902
 20
240.8831958247215
 30
0.0
 40
1.984500099999999
100
AcDbArc
 50
326.8737700000002
 51
345.8688400000001
  0
LINE
  5
E65
330
18
100
AcDbEntity
  8
1
  6
Continuous
100
AcDbLine
 10
460.3127110361903
 20
244.4346925747214
 30
0.0
 11
458.7172510361903
 21
241.4546980947215
 31
0.0
  0
ARC
  5
E66
330
18
100
AcDbEntity
  8
1
  6
Continuous
100
AcDbCircle
 10
460.7535010361901
 20
244.1986941747216
 30
0.0
 40
0.5
100
AcDbArc
 50
89.99998400000034
 51
151.8358429999997
  0
LINE
  5
E67
330
18
100
AcDbEntity
  8
1
  6
Continuous
100
AcDbLine
 10
459.4901810361903
 20
236.8337048747215
 30
0.0
 11
458.0516810361904
 21
238.6569251747214
 31
0.0
  0
ARC
  5
E68
330
18
100
AcDbEntity
  8
1
  6
Continuous
100
AcDbCircle
 10
456.9540510361902
 20
242.3986949747216
 30
0.0
 40
2.0
100
AcDbArc
 50
270.0
 51
331.8358999999996
  0
ARC
  5
E69
330
18
100
AcDbEntity
  8
1
  6
Continuous
100
AcDbCircle
 10
455.6964810361903
 20
236.7986954747214
 30
0.0
 40
3.0
100
AcDbArc
 50
38.27314000000035
 51
89.99999699999987
  0
ARC
  5
E6A
330
18
100
AcDbEntity
  8
1
  6
Continuous
100
AcDbCircle
 10
443.8727110361901
 20
240.8831958247215
 30
0.0
 40
1.984500099999999
100
AcDbArc
 50
194.1311700000004
 51
213.1262299999997
  0
ARC
  5
E6B
330
18
100
AcDbEntity
  8
1
  6
Continuous
100
AcDbCircle
 10
439.9540510361902
 20
240.8831958247215
 30
0.0
 40
1.984500099999999
100
AcDbArc
 50
326.8737700000002
 51
345.8688400000001
  0
ARC
  5
E6C
330
18
100
AcDbEntity
  8
1
  6
Continuous
100
AcDbCircle
 10
439.9540510361902
 20
240.8831958247215
 30
0.0
 40
1.984500099999999
100
AcDbArc
 50
194.1311600000002
 51
213.1262299999997
  0
ARC
  5
E6D
330
18
100
AcDbEntity
  8
1
  6
Continuous
100
AcDbCircle
 10
436.0353810361903
 20
240.8831958247215
 30
0.0
 40
1.984500099999999
100
AcDbArc
 50
326.8737700000002
 51
345.8688400000001
  0
ARC
  5
E6E
330
18
100
AcDbEntity
  8
1
  6
Continuous
100
AcDbCircle
 10
447.3963010361903
 20
240.8831958247215
 30
0.0
 40
1.984500099999999
100
AcDbArc
 50
326.8737700000002
 51
345.8688400000001
  0
ARC
  5
E6F
330
18
100
AcDbEntity
  8
1
  6
Continuous
100
AcDbCircle
 10
447.3963010361903
 20
240.8831958247215
 30
0.0
 40
1.984500099999999
100
AcDbArc
 50
207.40479
 51
213.1262299999997
  0
ARC
  5
E70
330
18
100
AcDbEntity
  8
1
  6
Continuous
100
AcDbCircle
 10
443.8727110361901
 20
240.8831958247215
 30
0.0
 40
1.984500099999999
100
AcDbArc
 50
326.8737700000002
 51
345.8688400000001
  0
ARC
  5
E71
330
18
100
AcDbEntity
  8
1
  6
Continuous
100
AcDbCircle
 10
450.1695710361903
 20
240.8831958247215
 30
0.0
 40
1.984500099999999
100
AcDbArc
 50
326.8737700000002
 51
345.8688400000001
  0
LINE
  5
E72
330
18
100
AcDbEntity
  8
1
  6
Continuous
100
AcDbLine
 10
404.9540510361903
 20
244.6986941747216
 30
0.0
 11
404.9540510361903
 21
246.1986903747214
 31
0.0
  0
LINE
  5
E73
330
18
100
AcDbEntity
  8
4
  6
CENTER
 48
0.4
100
AcDbLine
 10
411.9540510361903
 20
241.6986941747214
 30
0.0
 11
411.9540510361903
 21
249.1986941747216
 31
0.0
  0
LINE
  5
E74
330
18
100
AcDbEntity
  8
1
  6
Continuous
100
AcDbLine
 10
419.59539103619
 20
244.4346887747214
 30
0.0
 11
421.1908510361903
 21
241.4546909947214
 31
0.0
  0
ARC
  5
E75
330
18
100
AcDbEntity
  8
1
  6
Continuous
100
AcDbCircle
 10
424.2116210361904
 20
237.2986954747215
 30
0.0
 40
2.5
100
AcDbArc
 50
90.00001800000005
 51
176.1069897999999
  0
ARC
  5
E76
330
18
100
AcDbEntity
  8
1
  6
Continuous
100
AcDbCircle
 10
427.9951910361903
 20
240.8831958247215
 30
0.0
 40
1.984500099999999
100
AcDbArc
 50
194.1311600000002
 51
213.1262299999997
  0
ARC
  5
E77
330
18
100
AcDbEntity
  8
1
  6
Continuous
100
AcDbCircle
 10
427.4540510361902
 20
240.8831958247215
 30
0.0
 40
1.984500099999999
100
AcDbArc
 50
194.1311600000002
 51
213.1262299999997
  0
ARC
  5
E78
330
18
100
AcDbEntity
  8
1
  6
Continuous
100
AcDbCircle
 10
422.9540510361903
 20
242.3986949747216
 30
0.0
 40
2.0
100
AcDbArc
 50
208.1641299999996
 51
270.0
  0
ARC
  5
E79
330
18
100
AcDbEntity
  8
1
  6
Continuous
100
AcDbCircle
 10
436.0353810361903
 20
240.8831958247215
 30
0.0
 40
1.984500099999999
100
AcDbArc
 50
194.1311600000002
 51
213.1262299999997
  0
ARC
  5
E7A
330
18
100
AcDbEntity
  8
1
  6
Continuous
100
AcDbCircle
 10
432.5118010361903
 20
240.8831958247215
 30
0.0
 40
1.984500099999999
100
AcDbArc
 50
326.8737700000002
 51
332.5952099999998
  0
ARC
  5
E7B
330
18
100
AcDbEntity
  8
1
  6
Continuous
100
AcDbCircle
 10
429.7385310361903
 20
240.8831958247215
 30
0.0
 40
1.984500099999999
100
AcDbArc
 50
194.1311600000002
 51
213.1262299999997
  0
ARC
  5
E7C
330
18
100
AcDbEntity
  8
1
  6
Continuous
100
AcDbCircle
 10
432.5118010361903
 20
240.8831958247215
 30
0.0
 40
1.984500099999999
100
AcDbArc
 50
194.1311600000002
 51
213.1262299999997
  0
ARC
  5
E7D
330
18
100
AcDbEntity
  8
1
  6
Continuous
100
AcDbCircle
 10
419.1546010361903
 20
244.1986941747216
 30
0.0
 40
0.5
100
AcDbArc
 50
28.16416999999999
 51
90.0000380000004
  0
ARC
  5
FC2
330
18
100
AcDbEntity
  8
1
  6
Continuous
100
AcDbCircle
 10
463.9540510361903
 20
195.2986961747216
 30
0.0
 40
7.5
100
AcDbArc
 50
210.1490882335143
 51
1.945878660550952
  0
ARC
  5
1078
330
18
100
AcDbEntity
  8
1
  6
Continuous
100
AcDbCircle
 10
294.1955782744198
 20
219.0925651747216
 30
0.0
 40
36.5
100
AcDbArc
 50
332.2140096422728
 51
11.52806544073958
  0
ARC
  5
1079
330
18
100
AcDbEntity
  8
1
  6
Continuous
100
AcDbCircle
 10
332.3170952744196
 20
219.0925651747216
 30
0.0
 40
36.5
100
AcDbArc
 50
168.4719324126459
 51
207.7859807805274
  0
ARC
  5
107B
330
18
100
AcDbEntity
  8
1
  6
Continuous
100
AcDbCircle
 10
332.3170952744196
 20
219.0925651747216
 30
0.0
 40
38.0
100
AcDbArc
 50
170.1710614675958
 51
207.9718320394694
  0
ARC
  5
1091
330
18
100
AcDbEntity
  8
1
  6
Continuous
100
AcDbCircle
 10
298.2563352744197
 20
201.1450130234556
 30
0.0
 40
2.0
100
AcDbArc
 50
359.9999999999992
 51
27.78598078052832
  0
ARC
  5
109F
330
18
100
AcDbEntity
  8
1
  6
Continuous
100
AcDbCircle
 10
328.2563352744197
 20
201.1450073300742
 30
0.0
 40
2.0
100
AcDbArc
 50
152.2140096422729
 51
180.0
  0
ARC
  5
10A6
330
18
100
AcDbEntity
  8
1
  6
Continuous
100
AcDbCircle
 10
313.2563352744197
 20
195.7095541747215
 30
0.0
 40
37.88914099999999
100
AcDbArc
 50
68.17405538040806
 51
111.8259381783172
  0
ARC
  5
10B7
330
18
100
AcDbEntity
  8
1
  6
Continuous
100
AcDbCircle
 10
301.7721193308041
 20
224.3844877557831
 30
0.0
 40
7.0
100
AcDbArc
 50
111.8259381783172
 51
170.1710614675958
  0
ARC
  5
10B8
330
18
100
AcDbEntity
  8
1
  6
Continuous
100
AcDbCircle
 10
303.4122010661286
 20
224.9880796397622
 30
0.0
 40
7.0
100
AcDbArc
 50
108.5838646717647
 51
168.4719324126459
  0
ARC
  5
10BB
330
18
100
AcDbEntity
  8
1
  6
Continuous
100
AcDbCircle
 10
313.2563352744197
 20
402.4087041747216
 30
0.0
 40
169.25
100
AcDbArc
 50
268.2362546788866
 51
271.7637453211132
  0
ARC
  5
10C6
330
18
100
AcDbEntity
  8
1
  6
Continuous
100
AcDbCircle
 10
324.7405544417138
 20
224.3844864647102
 30
0.0
 40
7.0
100
AcDbArc
 50
9.828936110629555
 51
68.17405538040806
  0
ARC
  5
10C7
330
18
100
AcDbEntity
  8
1
  6
Continuous
100
AcDbCircle
 10
323.1004727035891
 20
224.9880785568263
 30
0.0
 40
7.0
100
AcDbArc
 50
11.52806544073958
 51
71.41612902522779
  0
ARC
  5
10E6
330
18
100
AcDbEntity
  8
1
  6
Continuous
100
AcDbCircle
 10
299.4388072744196
 20
207.4197241747216
 30
0.0
 40
3.0
100
AcDbArc
 50
50.26953000000031
 51
74.18635847583253
  0
ARC
  5
10E8
330
18
100
AcDbEntity
  8
1
  6
Continuous
100
AcDbCircle
 10
286.6178852744196
 20
199.3497791747214
 30
0.0
 40
14.405884
100
AcDbArc
 50
234.3334100000002
 51
298.8211500000003
  0
ARC
  5
10E9
330
18
100
AcDbEntity
  8
1
  6
Continuous
100
AcDbCircle
 10
279.4563360744196
 20
189.2168371747215
 30
0.0
 40
2.0
100
AcDbArc
 50
180.0
 51
232.92978
  0
ARC
  5
10EA
330
18
100
AcDbEntity
  8
1
  6
Continuous
100
AcDbCircle
 10
294.3355081092306
 20
184.6955207669393
 30
0.0
 40
2.22136381028541
100
AcDbArc
 50
358.7405523789803
 51
104.6350280579731
  0
LINE
  5
10EB
330
18
100
AcDbEntity
  8
1
  6
Continuous
100
AcDbLine
 10
293.7742562744197
 20
186.8448121747215
 30
0.0
 11
293.5626322744196
 21
186.7283681747215
 31
0.0
  0
LINE
  5
10ED
330
18
100
AcDbEntity
  8
1
  6
Continuous
100
AcDbLine
 10
296.5563342744198
 20
188.5135971747214
 30
0.0
 11
299.9563362744197
 21
188.5135971747216
 31
0.0
  0
LINE
  5
10EE
330
18
100
AcDbEntity
  8
1
  6
Continuous
100
AcDbLine
 10
298.7563202744198
 20
186.1137601747214
 30
0.0
 11
298.7563202744198
 21
185.6859871747214
 31
0.0
  0
LINE
  5
10EF
330
18
100
AcDbEntity
  8
1
  6
Continuous
100
AcDbLine
 10
288.3992007992977
 20
197.0886131683487
 30
0.0
 11
296.5633056030283
 21
197.0886131683487
 31
0.0
  0
LINE
  5
10F0
330
18
100
AcDbEntity
  8
1
  6
Continuous
100
AcDbLine
 10
289.9563212744197
 20
209.6987021747215
 30
0.0
 11
295.4965122000407
 21
209.6987021747215
 31
0.0
  0
LINE
  5
11B2
330
18
100
AcDbEntity
  8
1
  6
Continuous
100
AcDbLine
 10
155.0586195126479
 20
81.83227982645323
 30
0.0
 11
173.2921297791089
 21
81.83227982645323
 31
0.0
  0
LINE
  5
11B4
330
18
100
AcDbEntity
  8
1
  6
Continuous
100
AcDbLine
 10
152.1586217744484
 20
55.83227982645329
 30
0.0
 11
173.2921297791089
 21
55.83227982645325
 31
0.0
  0
LINE
  5
11B5
330
18
100
AcDbEntity
  8
1
  6
Continuous
100
AcDbLine
 10
155.058619512648
 20
54.33226482645324
 30
0.0
 11
173.4437741051974
 21
54.33226482645324
 31
0.0
  0
LINE
  5
11CF
330
18
100
AcDbEntity
  8
1
  6
Continuous
100
AcDbLine
 10
155.058619512648
 20
54.33226482645324
 30
0.0
 11
155.0586195126479
 21
55.83227982645325
 31
0.0
  0
LINE
  5
11D5
330
18
100
AcDbEntity
  8
1
  6
Continuous
100
AcDbLine
 10
155.058619512648
 20
83.33229482645322
 30
0.0
 11
155.0586195126479
 21
81.83227982645323
 31
0.0
  0
ARC
  5
11E3
330
18
100
AcDbEntity
  8
1
  6
Continuous
100
AcDbCircle
 10
186.5586195126488
 20
68.83227982645326
 30
0.0
 40
12.5
100
AcDbArc
 50
237.1401196211105
 51
122.8598803788956
  0
ARC
  5
11E4
330
18
100
AcDbEntity
  8
1
  6
Continuous
100
AcDbCircle
 10
186.5586195126488
 20
68.83227982645326
 30
0.0
 40
20.79945033161243
100
AcDbArc
 50
224.1974989021906
 51
64.90106694939289
  0
ARC
  5
11E5
330
18
100
AcDbEntity
  8
1
  6
Continuous
100
AcDbCircle
 10
186.5586195126488
 20
68.83227982645326
 30
0.0
 40
16.99999478854368
100
AcDbArc
 50
236.4427089942576
 51
79.22021499961528
  0
ARC
  5
11E6
330
18
100
AcDbEntity
  8
1
  6
Continuous
100
AcDbCircle
 10
186.5586195126488
 20
68.83227982645326
 30
0.0
 40
18.49999478854368
100
AcDbArc
 50
236.0769724205607
 51
67.27794055190381
  0
ARC
  5
11EF
330
18
100
AcDbEntity
  8
1
  6
Continuous
100
AcDbCircle
 10
173.2921297791089
 20
48.83227982645326
 30
0.0
 40
7.0
100
AcDbArc
 50
56.44270899425762
 51
90.0
  0
ARC
  5
11F0
330
18
100
AcDbEntity
  8
1
  6
Continuous
100
AcDbCircle
 10
173.4437741051974
 20
49.33226482645324
 30
0.0
 40
5.0
100
AcDbArc
 50
56.07697242056083
 51
90.0
  0
ARC
  5
11F9
330
18
100
AcDbEntity
  8
1
  6
Continuous
100
AcDbCircle
 10
173.2921297791089
 20
88.83227982645323
 30
0.0
 40
7.0
100
AcDbArc
 50
270.0
 51
303.5572910057422
  0
ARC
  5
11FF
330
18
100
AcDbEntity
  8
1
  6
Continuous
100
AcDbCircle
 10
173.4437741051972
 20
88.33229482645322
 30
0.0
 40
5.0
100
AcDbArc
 50
270.0
 51
303.9230275794392
  0
ARC
  5
12BC
330
18
100
AcDbEntity
  8
1
  6
Continuous
100
AcDbCircle
 10
158.558619512649
 20
82.83228782645323
 30
0.0
 40
3.249999799999998
100
AcDbArc
 50
197.9203625065265
 51
217.9800541256689
  0
ARC
  5
12C8
330
18
100
AcDbEntity
  8
1
  6
Continuous
100
AcDbCircle
 10
186.5586195126488
 20
68.83227982645326
 30
0.0
 40
18.49999478854368
100
AcDbArc
 50
118.0530520366094
 51
123.9230275794394
  0
ARC
  5
12C9
330
18
100
AcDbEntity
  8
1
  6
Continuous
100
AcDbCircle
 10
186.5586195126488
 20
68.83227982645326
 30
0.0
 40
16.99999478854368
100
AcDbArc
 50
116.7806209914102
 51
123.5572910057423
  0
ARC
  5
12CA
330
18
100
AcDbEntity
  8
1
  6
Continuous
100
AcDbCircle
 10
186.5586195126488
 20
68.83227982645326
 30
0.0
 40
16.99999478854368
100
AcDbArc
 50
100.7797850003845
 51
111.4624277434544
  0
ARC
  5
12DC
330
18
100
AcDbEntity
  8
1
  6
Continuous
100
AcDbCircle
 10
152.0978935126489
 20
82.65843382645332
 30
0.0
 40
3.0
100
AcDbArc
 50
329.4220729646761
 51
350.7187920536948
  0
ARC
  5
12DD
330
18
100
AcDbEntity
  8
1
  6
Continuous
100
AcDbCircle
 10
148.7729971129148
 20
82.65843521970458
 30
0.0
 40
3.0
100
AcDbArc
 50
329.4219300000002
 51
359.9999969999998
  0
LINE
  5
12DE
330
18
100
AcDbEntity
  8
1
  6
Continuous
100
AcDbLine
 10
151.3558075126489
 20
81.13229743314262
 30
0.0
 11
154.6807077203956
 21
81.13230448453574
 31
0.0
  0
LINE
  5
12DF
330
18
100
AcDbEntity
  8
1
  6
Continuous
100
AcDbLine
 10
152.4428070211197
 20
80.83227982645324
 30
0.0
 11
151.3558075126489
 21
81.13229743314262
 31
0.0
  0
LINE
  5
12E0
330
18
100
AcDbEntity
  8
1
  6
Continuous
100
AcDbLine
 10
151.7729971129148
 20
82.65843521970458
 30
0.0
 11
151.7729971129148
 21
83.33230121970457
 31
0.0
  0
LINE
  5
12E3
330
18
100
AcDbEntity
  8
1
  6
Continuous
100
AcDbLine
 10
155.7677157729612
 20
80.83228348453623
 30
0.0
 11
154.6807077203956
 21
81.13230448453574
 31
0.0
  0
LINE
  5
15CD
330
18
100
AcDbEntity
  8
1
  6
Continuous
100
AcDbLine
 10
463.4383650361901
 20
202.1744711747214
 30
0.0
 11
459.4697370361903
 21
199.8831811747215
 31
0.0
  0
LINE
  5
15CE
330
18
100
AcDbEntity
  8
1
  6
Continuous
100
AcDbLine
 10
463.4383650361901
 20
191.2229271747214
 30
0.0
 11
459.4697370361903
 21
193.5142141747214
 31
0.0
  0
CIRCLE
  5
15D0
330
18
100
AcDbEntity
  8
1
  6
Continuous
100
AcDbCircle
 10
463.9540510361903
 20
196.6986981747215
 30
0.0
 40
4.5
  0
LINE
  5
15D1
330
18
100
AcDbEntity
  8
1
  6
Continuous
100
AcDbLine
 10
458.9540510361903
 20
198.9899841747216
 30
0.0
 11
458.9540510361903
 21
194.4074121747214
 31
0.0
  0
ARC
  5
15D2
330
18
100
AcDbEntity
  8
1
  6
Continuous
100
AcDbCircle
 10
463.9540510361903
 20
196.6986981747215
 30
0.0
 40
5.5
100
AcDbArc
 50
204.6199699999987
 51
215.3800199999998
  0
ARC
  5
15D3
330
18
100
AcDbEntity
  8
1
  6
Continuous
100
AcDbCircle
 10
463.9540510361903
 20
196.6986981747215
 30
0.0
 40
5.5
100
AcDbArc
 50
144.61998
 51
155.3800300000011
  0
LINE
  5
15D4
330
18
100
AcDbEntity
  8
1
  6
Continuous
100
AcDbLine
 10
468.9540510361903
 20
198.9899841747216
 30
0.0
 11
468.9540510361903
 21
194.4074121747214
 31
0.0
  0
CIRCLE
  5
15D5
330
18
100
AcDbEntity
  8
1
  6
Continuous
100
AcDbCircle
 10
463.9540510361903
 20
196.6986981747215
 30
0.0
 40
1.5
  0
LINE
  5
15D7
330
18
100
AcDbEntity
  8
1
  6
Continuous
100
AcDbLine
 10
464.4697370361903
 20
191.2229271747214
 30
0.0
 11
468.4383650361903
 21
193.5142151747214
 31
0.0
  0
ARC
  5
15D8
330
18
100
AcDbEntity
  8
1
  6
Continuous
100
AcDbCircle
 10
463.9540510361903
 20
196.6986981747215
 30
0.0
 40
5.5
100
AcDbArc
 50
264.619980000003
 51
275.3800199999968
  0
ARC
  5
15D9
330
18
100
AcDbEntity
  8
1
  6
Continuous
100
AcDbCircle
 10
463.9540510361903
 20
196.6986981747215
 30
0.0
 40
5.5
100
AcDbArc
 50
324.6199800000001
 51
335.3800200000002
  0
LINE
  5
15DA
330
18
100
AcDbEntity
  8
1
  6
Continuous
100
AcDbLine
 10
464.4697370361903
 20
202.1744671747216
 30
0.0
 11
468.4383650361903
 21
199.8831811747215
 31
0.0
  0
ARC
  5
15DB
330
18
100
AcDbEntity
  8
1
  6
Continuous
100
AcDbCircle
 10
463.9540510361903
 20
196.6986981747215
 30
0.0
 40
5.5
100
AcDbArc
 50
84.61997899999976
 51
95.38002000000338
  0
ARC
  5
15DC
330
18
100
AcDbEntity
  8
1
  6
Continuous
100
AcDbCircle
 10
463.9540510361903
 20
196.6986981747215
 30
0.0
 40
5.5
100
AcDbArc
 50
24.61997700000076
 51
35.38002100000198
  0
LINE
  5
161C
330
18
100
AcDbEntity
  8
1
  6
Continuous
100
AcDbLine
 10
159.6718665126489
 20
88.33229402645338
 30
0.0
 11
159.6718665126489
 21
92.03229382645336
 31
0.0
  0
LINE
  5
161D
330
18
100
AcDbEntity
  8
1
  6
Continuous
100
AcDbLine
 10
156.785117512649
 20
88.33229402645338
 30
0.0
 11
156.785117512649
 21
92.03229382645336
 31
0.0
  0
LINE
  5
161E
330
18
100
AcDbEntity
  8
1
  6
Continuous
100
AcDbLine
 10
165.445372512649
 20
88.33229402645338
 30
0.0
 11
165.445372512649
 21
92.03229382645336
 31
0.0
  0
LINE
  5
161F
330
18
100
AcDbEntity
  8
1
  6
Continuous
100
AcDbLine
 10
168.332121512649
 20
88.33229402645338
 30
0.0
 11
168.332121512649
 21
92.03229382645336
 31
0.0
  0
ARC
  5
1621
330
18
100
AcDbEntity
  8
1
  6
Continuous
100
AcDbCircle
 10
158.2284915126491
 20
90.19896032645339
 30
0.0
 40
2.3333333
100
AcDbArc
 50
51.78678999999831
 51
117.544865000002
  0
LINE
  5
1622
330
18
100
AcDbEntity
  8
1
  6
Continuous
100
AcDbLine
 10
167.5586195126489
 20
92.53229382645338
 30
0.0
 11
157.5586175126488
 21
92.53229382645328
 31
0.0
  0
ARC
  5
1623
330
18
100
AcDbEntity
  8
1
  6
Continuous
100
AcDbCircle
 10
166.8887475126489
 20
90.19896032645339
 30
0.0
 40
2.3333333
100
AcDbArc
 50
62.45512999999959
 51
128.2132109999988
  0
LINE
  5
1624
330
18
100
AcDbEntity
  8
1
  6
Continuous
100
AcDbLine
 10
168.332121512649
 20
92.03229432645343
 30
0.0
 11
167.5586195126489
 21
92.53229432645344
 31
0.0
  0
ARC
  5
1625
330
18
100
AcDbEntity
  8
1
  6
Continuous
100
AcDbCircle
 10
162.5586195126489
 20
83.94896062645342
 30
0.0
 40
8.583332999999999
100
AcDbArc
 50
70.3471399999965
 51
90.0
  0
ARC
  5
1626
330
18
100
AcDbEntity
  8
1
  6
Continuous
100
AcDbCircle
 10
162.5586195126489
 20
83.94896062645342
 30
0.0
 40
8.583332999999999
100
AcDbArc
 50
90.0
 51
109.6528599999972
  0
LINE
  5
1627
330
18
100
AcDbEntity
  8
1
  6
Continuous
100
AcDbLine
 10
156.785117512649
 20
92.03229482645339
 30
0.0
 11
157.5586175126489
 21
92.53229382645338
 31
0.0
  0
ARC
  5
1628
330
18
100
AcDbEntity
  8
1
  6
Continuous
100
AcDbCircle
 10
158.2284915126491
 20
86.49895962645336
 30
0.0
 40
2.3333333
100
AcDbArc
 50
51.78678999999831
 51
128.2132109999988
  0
ARC
  5
1629
330
18
100
AcDbEntity
  8
1
  6
Continuous
100
AcDbCircle
 10
159.8086195126489
 20
89.42577982645344
 30
0.0
 40
3.296371499999998
100
AcDbArc
 50
237.9346200000009
 51
302.0653899999991
  0
LINE
  5
162A
330
18
100
AcDbEntity
  8
1
  6
Continuous
100
AcDbLine
 10
169.0586195126489
 20
87.93229442645339
 30
0.0
 11
156.0586195126489
 21
87.93229442645339
 31
0.0
  0
LINE
  5
162B
330
18
100
AcDbEntity
  8
1
  6
Continuous
100
AcDbLine
 10
169.0586195126489
 20
86.63229362645337
 30
0.0
 11
156.0586195126489
 21
86.63229362645337
 31
0.0
  0
ARC
  5
162C
330
18
100
AcDbEntity
  8
1
  6
Continuous
100
AcDbCircle
 10
165.3086195126489
 20
89.42577982645344
 30
0.0
 40
3.296371499999998
100
AcDbArc
 50
237.9346200000009
 51
302.0653899999991
  0
ARC
  5
162D
330
18
100
AcDbEntity
  8
1
  6
Continuous
100
AcDbCircle
 10
166.8887475126489
 20
86.49895962645336
 30
0.0
 40
2.3333333
100
AcDbArc
 50
51.78678999999831
 51
128.2132109999988
  0
LINE
  5
162E
330
18
100
AcDbEntity
  8
1
  6
Continuous
100
AcDbLine
 10
168.332121512649
 20
88.33229312645348
 30
0.0
 11
169.0586195126489
 21
87.93229442645339
 31
0.0
  0
LINE
  5
162F
330
18
100
AcDbEntity
  8
1
  6
Continuous
100
AcDbLine
 10
169.0586195126489
 20
86.63229362645337
 30
0.0
 11
169.0586195126489
 21
87.93229442645339
 31
0.0
  0
LINE
  5
1630
330
18
100
AcDbEntity
  8
1
  6
Continuous
100
AcDbLine
 10
168.3086195126489
 20
86.13229362645336
 30
0.0
 11
169.0586195126489
 21
86.63229462645336
 31
0.0
  0
LINE
  5
1631
330
18
100
AcDbEntity
  8
1
  6
Continuous
100
AcDbLine
 10
166.818766512649
 20
86.49567262645339
 30
0.0
 11
168.3086195126489
 21
86.13229462645334
 31
0.0
  0
ARC
  5
1632
330
18
100
AcDbEntity
  8
1
  6
Continuous
100
AcDbCircle
 10
162.5586195126489
 20
80.24895962645336
 30
0.0
 40
8.583332999999999
100
AcDbArc
 50
70.3471399999965
 51
90.0
  0
ARC
  5
1633
330
18
100
AcDbEntity
  8
1
  6
Continuous
100
AcDbCircle
 10
162.5586195126489
 20
80.24895962645336
 30
0.0
 40
8.583332999999999
100
AcDbArc
 50
90.0
 51
109.6528599999972
  0
LINE
  5
1634
330
18
100
AcDbEntity
  8
1
  6
Continuous
100
AcDbLine
 10
158.298474512649
 20
86.49567262645339
 30
0.0
 11
156.808621512649
 21
86.13229362645336
 31
0.0
  0
LINE
  5
1635
330
18
100
AcDbEntity
  8
1
  6
Continuous
100
AcDbLine
 10
156.0586195126489
 20
86.63229362645337
 30
0.0
 11
156.0586195126489
 21
87.93229442645339
 31
0.0
  0
LINE
  5
1636
330
18
100
AcDbEntity
  8
1
  6
Continuous
100
AcDbLine
 10
156.785115512649
 20
88.33229402645338
 30
0.0
 11
156.0586195126489
 21
87.93229342645338
 31
0.0
  0
LINE
  5
1637
330
18
100
AcDbEntity
  8
1
  6
Continuous
100
AcDbLine
 10
156.8086195126489
 20
86.13229462645334
 30
0.0
 11
156.0586195126489
 21
86.63229462645336
 31
0.0
  0
ARC
  5
1640
330
18
100
AcDbEntity
  8
1
  6
Continuous
100
AcDbCircle
 10
167.2586195126489
 20
51.6322648264532
 30
0.0
 40
0.3
100
AcDbArc
 50
270.0
 51
0.0
  0
ARC
  5
1641
330
18
100
AcDbEntity
  8
1
  6
Continuous
100
AcDbCircle
 10
157.858619512649
 20
51.6322648264532
 30
0.0
 40
0.3
100
AcDbArc
 50
180.0
 51
270.0
  0
ARC
  5
1642
330
18
100
AcDbEntity
  8
1
  6
Continuous
100
AcDbCircle
 10
165.2429335126489
 20
52.83226482645324
 30
0.0
 40
1.8
100
AcDbArc
 50
303.5573199999991
 51
56.44269000000136
  0
ARC
  5
1643
330
18
100
AcDbEntity
  8
1
  6
Continuous
100
AcDbCircle
 10
159.874305512649
 20
52.83226482645324
 30
0.0
 40
1.8
100
AcDbArc
 50
123.5573099999985
 51
236.4426800000007
  0
ARC
  5
1645
330
18
100
AcDbEntity
  8
1
  6
Continuous
100
AcDbCircle
 10
160.2429335126489
 20
52.83226482645324
 30
0.0
 40
1.8
100
AcDbArc
 50
303.5573199999991
 51
56.44269000000136
  0
ARC
  5
1646
330
18
100
AcDbEntity
  8
1
  6
Continuous
100
AcDbCircle
 10
164.874305512649
 20
52.83226482645324
 30
0.0
 40
1.8
100
AcDbArc
 50
123.5573099999985
 51
236.4426800000007
  0
LINE
  5
1647
330
18
100
AcDbEntity
  8
1
  6
Continuous
100
AcDbLine
 10
157.858619512649
 20
51.33226482645324
 30
0.0
 11
167.2586195126489
 21
51.33226482645324
 31
0.0
  0
ARC
  5
1649
330
18
100
AcDbEntity
  8
1
  6
Continuous
100
AcDbCircle
 10
167.2586195126489
 20
54.03226482645329
 30
0.0
 40
0.3
100
AcDbArc
 50
0.0
 51
90.0
  0
LINE
  5
164A
330
18
100
AcDbEntity
  8
1
  6
Continuous
100
AcDbLine
 10
167.5586195126489
 20
54.03226482645329
 30
0.0
 11
167.5586195126489
 21
51.6322648264532
 31
0.0
  0
ARC
  5
164B
330
18
100
AcDbEntity
  8
1
  6
Continuous
100
AcDbCircle
 10
157.858619512649
 20
54.0322648264533
 30
0.0
 40
0.3
100
AcDbArc
 50
90.0
 51
180.0
  0
LINE
  5
164C
330
18
100
AcDbEntity
  8
1
  6
Continuous
100
AcDbLine
 10
157.558619512649
 20
54.03226482645329
 30
0.0
 11
157.558619512649
 21
51.6322648264532
 31
0.0
  0
LINE
  5
1651
330
18
100
AcDbEntity
  8
1
  6
Continuous
100
AcDbLine
 10
18.4888027508794
 20
191.8758221747214
 30
0.0
 11
18.4888027508794
 21
201.5215738302538
 31
0.0
  0
ARC
  5
1652
330
18
100
AcDbEntity
  8
1
  6
Continuous
100
AcDbCircle
 10
19.98880275087939
 20
197.1680581747214
 30
0.0
 40
1.8
100
AcDbArc
 50
33.55730999999865
 51
146.4426800000008
  0
ARC
  5
1653
330
18
100
AcDbEntity
  8
1
  6
Continuous
100
AcDbCircle
 10
19.98880275087939
 20
193.1986981747215
 30
0.0
 40
2.0
100
AcDbArc
 50
221.4096300000012
 51
318.5903799999998
  0
ARC
  5
1654
330
18
100
AcDbEntity
  8
1
  6
Continuous
100
AcDbCircle
 10
19.98880275087939
 20
196.2293381747214
 30
0.0
 40
1.8
100
AcDbArc
 50
213.5573199999991
 51
326.4426900000013
  0
ARC
  5
1655
330
18
100
AcDbEntity
  8
1
  6
Continuous
100
AcDbCircle
 10
19.98880275087939
 20
191.7898541747216
 30
0.0
 40
1.8
100
AcDbArc
 50
33.55730999999865
 51
146.4426800000008
  0
ARC
  5
1656
330
18
100
AcDbEntity
  8
1
  6
Continuous
100
AcDbCircle
 10
19.98880275087939
 20
201.6075421747214
 30
0.0
 40
1.8
100
AcDbArc
 50
213.5573199999991
 51
326.4426900000013
  0
ARC
  5
1657
330
18
100
AcDbEntity
  8
1
  6
Continuous
100
AcDbCircle
 10
19.98880275087939
 20
200.1986981747216
 30
0.0
 40
2.0
100
AcDbArc
 50
41.40962399999903
 51
138.5903699999985
  0
LINE
  5
165C
330
18
100
AcDbEntity
  8
1
  6
Continuous
100
AcDbLine
 10
63.48880275087942
 20
193.6986981747214
 30
0.0
 11
63.48880275087942
 21
199.6986981747214
 31
0.0
  0
LINE
  5
165D
330
18
100
AcDbEntity
  8
1
  6
Continuous
100
AcDbLine
 10
63.9888027508794
 20
194.1986981747215
 30
0.0
 11
63.9888027508794
 21
199.1986981747215
 31
0.0
  0
LINE
  5
165E
330
18
100
AcDbEntity
  8
1
  6
Continuous
100
AcDbLine
 10
63.98880375087941
 20
194.1986981747215
 30
0.0
 11
63.48880275087942
 21
193.6986981747214
 31
0.0
  0
LINE
  5
165F
330
18
100
AcDbEntity
  8
1
  6
Continuous
100
AcDbLine
 10
63.9888027508794
 20
199.1986981747215
 30
0.0
 11
63.4888017508794
 21
199.6986981747214
 31
0.0
  0
ARC
  5
1661
330
18
100
AcDbEntity
  8
1
  6
Continuous
100
AcDbCircle
 10
53.1888317508794
 20
199.1986981747215
 30
0.0
 40
6.5
100
AcDbArc
 50
337.3801300000017
 51
22.6198650000003
  0
ARC
  5
1662
330
18
100
AcDbEntity
  8
1
  6
Continuous
100
AcDbCircle
 10
49.4888319486125
 20
199.1986981801628
 30
0.0
 40
6.5
100
AcDbArc
 50
337.3801300000017
 51
22.6198650000003
  0
LINE
  5
1663
330
18
100
AcDbEntity
  8
1
  6
Continuous
100
AcDbLine
 10
55.08883235087953
 20
190.1986981747215
 30
0.0
 11
55.08883235087953
 21
203.1986981747214
 31
0.0
  0
LINE
  5
1664
330
18
100
AcDbEntity
  8
1
  6
Continuous
100
AcDbLine
 10
53.78883155087951
 20
188.9966227142701
 30
0.0
 11
53.78883155087951
 21
204.4007806351705
 31
0.0
  0
LINE
  5
1665
330
18
100
AcDbEntity
  8
1
  6
Continuous
100
AcDbLine
 10
59.68883175087942
 20
201.6986981747215
 30
0.0
 11
59.68883175087942
 21
191.6986981747214
 31
0.0
  0
LINE
  5
1666
330
18
100
AcDbEntity
  8
1
  6
Continuous
100
AcDbLine
 10
55.48883172817918
 20
196.6986976511229
 30
0.0
 11
59.1888317508794
 21
196.6986981747215
 31
0.0
  0
LINE
  5
1667
330
18
100
AcDbEntity
  8
1
  6
Continuous
100
AcDbLine
 10
53.78883155087951
 20
190.1986981747215
 30
0.0
 11
55.08883235087953
 21
190.1986981747215
 31
0.0
  0
LINE
  5
1668
330
18
100
AcDbEntity
  8
1
  6
Continuous
100
AcDbLine
 10
53.53883155087951
 20
190.7656936747185
 30
0.0
 11
53.7888335508795
 21
190.6213536747184
 31
0.0
  0
LINE
  5
1669
330
18
100
AcDbEntity
  8
1
  6
Continuous
100
AcDbLine
 10
53.78883155087951
 20
192.6987076747185
 30
0.0
 11
53.3174265508795
 21
191.3653716747185
 31
0.0
  0
ARC
  5
166A
330
18
100
AcDbEntity
  8
1
  6
Continuous
100
AcDbCircle
 10
53.78883155087951
 20
191.1987036747184
 30
0.0
 40
0.5
100
AcDbArc
 50
160.5287700000008
 51
240.0000099999997
  0
LINE
  5
166B
330
18
100
AcDbEntity
  8
1
  6
Continuous
100
AcDbLine
 10
55.91470917344825
 20
191.6986976993259
 30
0.0
 11
55.08883235087953
 21
190.1986981747215
 31
0.0
  0
LINE
  5
166C
330
18
100
AcDbEntity
  8
1
  6
Continuous
100
AcDbLine
 10
55.48883173044622
 20
191.6986976456816
 30
0.0
 11
59.68883175087942
 21
191.6986981747214
 31
0.0
  0
ARC
  5
166D
330
18
100
AcDbEntity
  8
1
  6
Continuous
100
AcDbCircle
 10
49.48883195087954
 20
194.1986981747215
 30
0.0
 40
6.5
100
AcDbArc
 50
337.3801300000017
 51
22.6198650000003
  0
ARC
  5
166E
330
18
100
AcDbEntity
  8
1
  6
Continuous
100
AcDbCircle
 10
53.1888317508794
 20
194.1986981747215
 30
0.0
 40
6.5
100
AcDbArc
 50
337.3801300000017
 51
22.6198650000003
  0
ARC
  5
166F
330
18
100
AcDbEntity
  8
1
  6
Continuous
100
AcDbCircle
 10
56.5823179508794
 20
196.6986981747215
 30
0.0
 40
3.296371499999998
100
AcDbArc
 50
147.9346199999996
 51
212.0653899999981
  0
LINE
  5
1670
330
18
100
AcDbEntity
  8
1
  6
Continuous
100
AcDbLine
 10
53.78883155087951
 20
203.1986981747214
 30
0.0
 11
55.08883235087953
 21
203.1986981747214
 31
0.0
  0
LINE
  5
1671
330
18
100
AcDbEntity
  8
1
  6
Continuous
100
AcDbLine
 10
53.78883155087951
 20
200.6987008462911
 30
0.0
 11
53.3174265508795
 21
202.0320356747185
 31
0.0
  0
LINE
  5
1672
330
18
100
AcDbEntity
  8
1
  6
Continuous
100
AcDbLine
 10
53.53883155087951
 20
202.6317136747185
 30
0.0
 11
53.7888335508795
 21
202.7760536747186
 31
0.0
  0
ARC
  5
1673
330
18
100
AcDbEntity
  8
1
  6
Continuous
100
AcDbCircle
 10
53.78883155087951
 20
202.1987036747185
 30
0.0
 40
0.5
100
AcDbArc
 50
119.9999999999997
 51
199.471219999998
  0
LINE
  5
1674
330
18
100
AcDbEntity
  8
1
  6
Continuous
100
AcDbLine
 10
55.91471463172339
 20
201.6986981747215
 30
0.0
 11
55.08883135087954
 21
203.1986981747214
 31
0.0
  0
LINE
  5
1675
330
18
100
AcDbEntity
  8
1
  6
Continuous
100
AcDbLine
 10
55.48883195087964
 20
201.6986981747215
 30
0.0
 11
59.68883175087942
 21
201.6986981747215
 31
0.0
  0
ARC
  5
167A
330
18
100
AcDbEntity
  8
1
  6
Continuous
100
AcDbCircle
 10
329.2563502744196
 20
197.1680581747214
 30
0.0
 40
1.8
100
AcDbArc
 50
33.55731999999913
 51
146.4426900000013
  0
LINE
  5
167B
330
18
100
AcDbEntity
  8
1
  6
Continuous
100
AcDbLine
 10
330.7563502744196
 20
191.8758221747214
 30
0.0
 11
330.7563502744196
 21
201.5215738302538
 31
0.0
  0
ARC
  5
167C
330
18
100
AcDbEntity
  8
1
  6
Continuous
100
AcDbCircle
 10
329.2563502744196
 20
196.2293381747214
 30
0.0
 40
1.8
100
AcDbArc
 50
213.5573099999986
 51
326.4426800000007
  0
ARC
  5
167D
330
18
100
AcDbEntity
  8
1
  6
Continuous
100
AcDbCircle
 10
329.2563502744196
 20
193.1986981747215
 30
0.0
 40
2.0
100
AcDbArc
 50
221.40962
 51
318.5903699999987
  0
ARC
  5
167E
330
18
100
AcDbEntity
  8
1
  6
Continuous
100
AcDbCircle
 10
329.2563502744196
 20
191.7898541747216
 30
0.0
 40
1.8
100
AcDbArc
 50
33.55731999999913
 51
146.4426900000013
  0
ARC
  5
1680
330
18
100
AcDbEntity
  8
1
  6
Continuous
100
AcDbCircle
 10
329.2563502744196
 20
201.6075421747214
 30
0.0
 40
1.8
100
AcDbArc
 50
213.5573099999986
 51
326.4426800000007
  0
ARC
  5
1681
330
18
100
AcDbEntity
  8
1
  6
Continuous
100
AcDbCircle
 10
329.2563502744196
 20
200.1986981747216
 30
0.0
 40
2.0
100
AcDbArc
 50
41.40963000000131
 51
138.5903760000009
  0
LINE
  5
1697
330
18
100
AcDbEntity
  8
1
  6
Continuous
100
AcDbLine
 10
289.9563212744197
 20
201.6986981747215
 30
0.0
 11
289.5563212744196
 21
201.6986981747215
 31
0.0
  0
ARC
  5
16BB
330
18
100
AcDbEntity
  8
1
  6
Continuous
100
AcDbCircle
 10
296.0563212744196
 20
199.1986981747215
 30
0.0
 40
6.5
100
AcDbArc
 50
159.794776416624
 51
186.218971927676
  0
LINE
  5
16BC
330
18
100
AcDbEntity
  8
1
  6
Continuous
100
AcDbLine
 10
289.5563212744196
 20
201.6986981747215
 30
0.0
 11
289.5563212744196
 21
198.4700658299868
 31
0.0
  0
LINE
  5
16BD
330
18
100
AcDbEntity
  8
1
  6
Continuous
100
AcDbLine
 10
285.7563502744196
 20
196.0365067809489
 30
0.0
 11
285.7563502744196
 21
199.6986981747214
 31
0.0
  0
LINE
  5
16BE
330
18
100
AcDbEntity
  8
1
  6
Continuous
100
AcDbLine
 10
285.2563502744196
 20
195.7162991992281
 30
0.0
 11
285.2563502744196
 21
199.1986981747215
 31
0.0
  0
LINE
  5
16C5
330
18
100
AcDbEntity
  8
1
  6
Continuous
100
AcDbLine
 10
285.7563512744196
 20
199.6986981747214
 30
0.0
 11
289.5563212744196
 21
199.6986981747214
 31
0.0
  0
LINE
  5
16C6
330
18
100
AcDbEntity
  8
2
  6
Continuous
100
AcDbLine
 10
285.2563502744196
 20
199.1986981747215
 30
0.0
 11
289.5563212744196
 21
199.1986981747215
 31
0.0
  0
LINE
  5
16C8
330
18
100
AcDbEntity
  8
1
  6
Continuous
100
AcDbLine
 10
285.2563502744196
 20
199.1986981747215
 30
0.0
 11
285.7563512744196
 21
199.6986981747214
 31
0.0
  0
LINE
  5
16EA
330
18
100
AcDbEntity
  8
1
  6
Continuous
100
AcDbLine
 10
157.558619512649
 20
317.8650985229896
 30
0.0
 11
167.5586215126491
 21
317.8650985229897
 31
0.0
  0
ARC
  5
16EB
330
18
100
AcDbEntity
  8
1
  6
Continuous
100
AcDbCircle
 10
166.8887475126489
 20
320.1984320229897
 30
0.0
 40
2.3333333
100
AcDbArc
 50
231.7867899999983
 51
297.544865000002
  0
ARC
  5
16EC
330
18
100
AcDbEntity
  8
1
  6
Continuous
100
AcDbCircle
 10
162.5586195126489
 20
326.4484317229896
 30
0.0
 40
8.583332999999999
100
AcDbArc
 50
270.0
 51
289.6528599999973
  0
ARC
  5
16ED
330
18
100
AcDbEntity
  8
1
  6
Continuous
100
AcDbCircle
 10
162.5586195126489
 20
326.4484317229896
 30
0.0
 40
8.583332999999999
100
AcDbArc
 50
250.3471399999964
 51
270.0
  0
LINE
  5
16EE
330
18
100
AcDbEntity
  8
1
  6
Continuous
100
AcDbLine
 10
157.2939041538598
 20
318.0362128738813
 30
0.0
 11
157.558619512649
 21
317.8650980229897
 31
0.0
  0
ARC
  5
16EF
330
18
100
AcDbEntity
  8
1
  6
Continuous
100
AcDbCircle
 10
158.2284915126491
 20
320.1984320229897
 30
0.0
 40
2.3333333
100
AcDbArc
 50
247.3580442041221
 51
308.2132109999988
  0
LINE
  5
16FA
330
18
100
AcDbEntity
  8
1
  6
Continuous
100
AcDbLine
 10
159.6718665126489
 20
318.5091041672626
 30
0.0
 11
159.6718665126489
 21
318.3650985229896
 31
0.0
  0
LINE
  5
16FB
330
18
100
AcDbEntity
  8
1
  6
Continuous
100
AcDbLine
 10
165.445372512649
 20
318.8620262603665
 30
0.0
 11
165.445372512649
 21
318.3650985229896
 31
0.0
  0
LINE
  5
16FC
330
18
100
AcDbEntity
  8
1
  6
Continuous
100
AcDbLine
 10
168.332121512649
 20
318.3650975229896
 30
0.0
 11
167.558621512649
 21
317.8650985229896
 31
0.0
  0
LINE
  5
1701
330
18
100
AcDbEntity
  8
1
  6
Continuous
100
AcDbLine
 10
168.332121512649
 20
318.6248568729628
 30
0.0
 11
168.332121512649
 21
318.3650985229896
 31
0.0
  0
LINE
  5
1702
330
18
100
AcDbEntity
  8
1
  6
Continuous
100
AcDbLine
 10
159.558619512649
 20
314.0651275229898
 30
0.0
 11
165.5586195126489
 21
314.0651275229898
 31
0.0
  0
LINE
  5
1703
330
18
100
AcDbEntity
  8
1
  6
Continuous
100
AcDbLine
 10
160.0586195126489
 20
313.5651275229899
 30
0.0
 11
165.0586195126489
 21
313.5651275229899
 31
0.0
  0
LINE
  5
1704
330
18
100
AcDbEntity
  8
1
  6
Continuous
100
AcDbLine
 10
160.0586195126489
 20
313.5651265229899
 30
0.0
 11
159.558619512649
 21
314.0651275229898
 31
0.0
  0
LINE
  5
1705
330
18
100
AcDbEntity
  8
1
  6
Continuous
100
AcDbLine
 10
165.0586195126489
 20
313.5651275229899
 30
0.0
 11
165.5586195126489
 21
314.0651285229898
 31
0.0
  0
LINE
  5
1708
330
18
100
AcDbEntity
  8
1
  6
Continuous
100
AcDbLine
 10
160.0586195126489
 20
96.83226482645324
 30
0.0
 11
165.0586195126489
 21
96.83226482645324
 31
0.0
  0
LINE
  5
1709
330
18
100
AcDbEntity
  8
1
  6
Continuous
100
AcDbLine
 10
159.558619512649
 20
96.33226482645323
 30
0.0
 11
165.5586195126489
 21
96.33226482645323
 31
0.0
  0
LINE
  5
170A
330
18
100
AcDbEntity
  8
1
  6
Continuous
100
AcDbLine
 10
160.0586195126489
 20
96.83226582645323
 30
0.0
 11
159.558619512649
 21
96.33226482645323
 31
0.0
  0
LINE
  5
170B
330
18
100
AcDbEntity
  8
1
  6
Continuous
100
AcDbLine
 10
165.0586195126489
 20
96.83226482645324
 30
0.0
 11
165.5586195126489
 21
96.33226382645323
 31
0.0
  0
ARC
  5
170F
330
18
100
AcDbEntity
  8
1
  6
Continuous
100
AcDbCircle
 10
162.5586195126489
 20
83.3041890880303
 30
0.0
 40
3.414542980810169
100
AcDbArc
 50
102.9194867022706
 51
153.4147664393914
  0
ARC
  5
1710
330
18
100
AcDbEntity
  8
1
  6
Continuous
100
AcDbCircle
 10
162.5586195126489
 20
83.3041890880303
 30
0.0
 40
3.414542980810169
100
AcDbArc
 50
26.58523356060841
 51
77.08051329772938
  0
ARC
  5
1B31
330
18
100
AcDbEntity
  8
1
  6
Continuous
100
AcDbCircle
 10
162.5586195126489
 20
196.6987061747216
 30
0.0
 40
23.5
100
AcDbArc
 50
156.428223181087
 51
323.5717868317028
  0
ARC
  5
1B32
330
18
100
AcDbEntity
  8
1
  6
Continuous
100
AcDbCircle
 10
162.5586195126489
 20
196.6987061747216
 30
0.0
 40
27.50000200000001
100
AcDbArc
 50
149.906431948911
 51
330.0935806901225
  0
ARC
  5
1B33
330
18
100
AcDbEntity
  8
1
  6
Continuous
100
AcDbCircle
 10
162.5586195126489
 20
196.6987061747216
 30
0.0
 40
32.5
100
AcDbArc
 50
139.361289321699
 51
340.5299448621665
  0
ARC
  5
1B34
330
18
100
AcDbEntity
  8
1
  6
Continuous
100
AcDbCircle
 10
162.5586195126489
 20
196.6987061747216
 30
0.0
 40
32.5
100
AcDbArc
 50
101.218072321356
 51
136.6576343375919
  0
ARC
  5
1B3C
330
18
100
AcDbEntity
  8
1
  6
Continuous
100
AcDbCircle
 10
180.0586195126489
 20
68.83227982645327
 30
0.0
 40
50.0
100
AcDbArc
 50
180.0
 51
190.6941899999998
  0
ARC
  5
1B3D
330
18
100
AcDbEntity
  8
1
  6
Continuous
100
AcDbCircle
 10
145.058619512649
 20
68.83227982645329
 30
0.0
 40
50.0
100
AcDbArc
 50
349.3058100000002
 51
0.0
  0
LINE
  5
1B46
330
18
100
AcDbEntity
  8
1
  6
Continuous
100
AcDbLine
 10
132.4009847744484
 20
58.33227982645325
 30
0.0
 11
192.716254512649
 21
58.33227982645325
 31
0.0
  0
ARC
  5
1B47
330
18
100
AcDbEntity
  8
1
  6
Continuous
100
AcDbCircle
 10
192.716254512649
 20
59.83227982645328
 30
0.0
 40
1.5
100
AcDbArc
 50
269.999989999999
 51
349.3058100000002
  0
LINE
  5
1B4E
330
18
100
AcDbEntity
  8
1
  6
Continuous
100
AcDbLine
 10
174.311686512649
 20
56.68481482645325
 30
0.0
 11
175.100028512649
 21
58.33227982645325
 31
0.0
  0
ARC
  5
1B4F
330
18
100
AcDbEntity
  8
1
  6
Continuous
100
AcDbCircle
 10
172.958617512649
 20
57.33227982645328
 30
0.0
 40
1.5
100
AcDbArc
 50
270.0000499999993
 51
334.4281199999989
  0
LINE
  5
1B61
330
18
100
AcDbEntity
  8
1
  6
Continuous
100
AcDbLine
 10
150.8055525126489
 20
56.68481482645325
 30
0.0
 11
150.017213512649
 21
58.33227982645325
 31
0.0
  0
ARC
  5
1B62
330
18
100
AcDbEntity
  8
1
  6
Continuous
100
AcDbCircle
 10
152.158621512649
 20
57.33227982645328
 30
0.0
 40
1.5
100
AcDbArc
 50
205.571940000001
 51
270.0000100000002
  0
ARC
  5
1B64
330
18
100
AcDbEntity
  8
1
  6
Continuous
100
AcDbCircle
 10
132.4009845126489
 20
59.83227982645328
 30
0.0
 40
1.5
100
AcDbArc
 50
190.6941899999998
 51
270.0000099999992
  0
LINE
  5
1B73
330
18
100
AcDbEntity
  8
1
  6
Continuous
100
AcDbLine
 10
132.4009845126489
 20
79.33227982645326
 30
0.0
 11
192.716254512649
 21
79.33227982645326
 31
0.0
  0
ARC
  5
1B75
330
18
100
AcDbEntity
  8
1
  6
Continuous
100
AcDbCircle
 10
145.058619512649
 20
68.83227982645329
 30
0.0
 40
50.0
100
AcDbArc
 50
0.0
 51
10.69419999999826
  0
ARC
  5
1B76
330
18
100
AcDbEntity
  8
1
  6
Continuous
100
AcDbCircle
 10
192.716254512649
 20
77.83227982645326
 30
0.0
 40
1.5
100
AcDbArc
 50
10.69419999999826
 51
90.0
  0
LINE
  5
1B82
330
18
100
AcDbEntity
  8
1
  6
Continuous
100
AcDbLine
 10
152.4428070211197
 20
80.83227982645324
 30
0.0
 11
169.8086195126489
 21
80.83227982645324
 31
0.0
  0
ARC
  5
1B8A
330
18
100
AcDbEntity
  8
1
  6
Continuous
100
AcDbCircle
 10
169.8086195126489
 20
80.33227982645327
 30
0.0
 40
0.5
100
AcDbArc
 50
13.90589000000022
 51
90.0
  0
LINE
  5
1B8B
330
18
100
AcDbEntity
  8
1
  6
Continuous
100
AcDbLine
 10
170.2939656126489
 20
80.45244282645326
 30
0.0
 11
170.571300512649
 21
79.33227982645326
 31
0.0
  0
LINE
  5
1B9D
330
18
100
AcDbEntity
  8
1
  6
Continuous
100
AcDbLine
 10
165.808619512649
 20
80.83227982645324
 30
0.0
 11
165.808619512649
 21
81.83227982645325
 31
0.0
  0
ARC
  5
1BA9
330
18
100
AcDbEntity
  8
1
  6
Continuous
100
AcDbCircle
 10
155.3086195126489
 20
80.33227982645328
 30
0.0
 40
0.5
100
AcDbArc
 50
90.0
 51
166.0941099999996
  0
LINE
  5
1BAA
330
18
100
AcDbEntity
  8
1
  6
Continuous
100
AcDbLine
 10
154.823273412649
 20
80.45244282645326
 30
0.0
 11
154.5459385126489
 21
79.33227982645326
 31
0.0
  0
LINE
  5
1BB0
330
18
100
AcDbEntity
  8
1
  6
Continuous
100
AcDbLine
 10
159.3086195126489
 20
80.83227982645324
 30
0.0
 11
159.3086195126489
 21
81.83227982645325
 31
0.0
  0
ARC
  5
1BD6
330
18
100
AcDbEntity
  8
1
  6
Continuous
100
AcDbCircle
 10
132.4009845126489
 20
77.83227982645328
 30
0.0
 40
1.5
100
AcDbArc
 50
90.0
 51
169.3058000000016
  0
ARC
  5
1BD7
330
18
100
AcDbEntity
  8
1
  6
Continuous
100
AcDbCircle
 10
180.0586195126489
 20
68.83227982645327
 30
0.0
 40
50.0
100
AcDbArc
 50
169.3058000000016
 51
180.0
  0
ARC
  5
1BFE
330
18
100
AcDbEntity
  8
1
  6
Continuous
100
AcDbCircle
 10
162.5586195126489
 20
196.6987061747216
 30
0.0
 40
32.5
100
AcDbArc
 50
343.3423625252232
 51
44.81669602574679
  0
ARC
  5
1BFF
330
18
100
AcDbEntity
  8
1
  6
Continuous
100
AcDbCircle
 10
162.5586195126489
 20
196.6987061747216
 30
0.0
 40
23.5
100
AcDbArc
 50
106.449388002819
 51
131.3885356422183
  0
ARC
  5
1C00
330
18
100
AcDbEntity
  8
1
  6
Continuous
100
AcDbCircle
 10
162.5586195126489
 20
196.6987061747216
 30
0.0
 40
27.50000200000001
100
AcDbArc
 50
103.6847574770044
 51
134.1733798693792
  0
LINE
  5
1C17
330
18
100
AcDbEntity
  8
1
  6
Continuous
100
AcDbLine
 10
156.250051341228
 20
189.592350552759
 30
0.0
 11
153.894343512649
 21
188.2322816747216
 31
0.0
  0
ARC
  5
1C19
330
18
100
AcDbEntity
  8
1
  6
Continuous
100
AcDbCircle
 10
162.5586195126489
 20
196.6987061747216
 30
0.0
 40
12.5
100
AcDbArc
 50
197.97529
 51
222.0246700000005
  0
ARC
  5
1C1A
330
18
100
AcDbEntity
  8
1
  6
Continuous
100
AcDbCircle
 10
153.644343512649
 20
188.6652941747215
 30
0.0
 40
0.5
100
AcDbArc
 50
222.0245799999986
 51
299.9999799999985
  0
ARC
  5
1C1B
330
18
100
AcDbEntity
  8
1
  6
Continuous
100
AcDbCircle
 10
151.144343512649
 20
192.9954216747216
 30
0.0
 40
0.5
100
AcDbArc
 50
120.0000400000003
 51
197.97529
  0
LINE
  5
1C1C
330
18
100
AcDbEntity
  8
1
  6
Continuous
100
AcDbLine
 10
151.8030253587445
 20
193.953061663175
 30
0.0
 11
150.894343512649
 21
193.4284337747216
 31
0.0
  0
ARC
  5
1C43
330
18
100
AcDbEntity
  8
1
  6
Continuous
100
AcDbCircle
 10
162.5586195126489
 20
196.6987061747216
 30
0.0
 40
23.5
100
AcDbArc
 50
348.6114659915561
 51
39.51790010140793
  0
ARC
  5
1C44
330
18
100
AcDbEntity
  8
1
  6
Continuous
100
AcDbCircle
 10
162.5586195126489
 20
196.6987061747216
 30
0.0
 40
27.50000200000001
100
AcDbArc
 50
345.8266192116222
 51
42.59223006369009
  0
ARC
  5
1C8B
330
18
100
AcDbEntity
  8
1
  6
Continuous
100
AcDbCircle
 10
463.9540510361903
 20
196.6986981747215
 30
0.0
 40
23.5
100
AcDbArc
 50
140.4820946862848
 51
73.55061163216888
  0
ARC
  5
1C8C
330
18
100
AcDbEntity
  8
1
  6
Continuous
100
AcDbCircle
 10
463.9540510361903
 20
196.6986981747215
 30
0.0
 40
27.50000200000001
100
AcDbArc
 50
137.4077655632037
 51
76.31524221567378
  0
ARC
  5
1C8D
330
18
100
AcDbEntity
  8
1
  6
Continuous
100
AcDbCircle
 10
463.9540510361903
 20
196.6986981747215
 30
0.0
 40
32.5
100
AcDbArc
 50
135.1832997011764
 51
78.78192742147835
  0
LINE
  5
1C8E
330
18
100
AcDbEntity
  8
1
  6
Continuous
100
AcDbLine
 10
46.48881775087943
 20
226.8563331747216
 30
0.0
 11
46.48881775087943
 21
166.5410631747215
 31
0.0
  0
LINE
  5
1C8F
330
18
100
AcDbEntity
  8
1
  6
Continuous
100
AcDbLine
 10
25.48881775087943
 20
226.8563329129221
 30
0.0
 11
25.48881775087943
 21
166.5410631747215
 31
0.0
  0
ARC
  5
1C90
330
18
100
AcDbEntity
  8
1
  6
Continuous
100
AcDbCircle
 10
35.98881775087944
 20
214.1986981747215
 30
0.0
 40
50.0
100
AcDbArc
 50
270.0
 51
280.6941999999981
  0
ARC
  5
1C91
330
18
100
AcDbEntity
  8
1
  6
Continuous
100
AcDbCircle
 10
35.98881775087944
 20
214.1986981747215
 30
0.0
 40
50.0
100
AcDbArc
 50
259.30581
 51
270.0
  0
ARC
  5
1C92
330
18
100
AcDbEntity
  8
1
  6
Continuous
100
AcDbCircle
 10
26.98881775087943
 20
166.5410631747215
 30
0.0
 40
1.5
100
AcDbArc
 50
179.9999899999988
 51
259.30581
  0
ARC
  5
1C93
330
18
100
AcDbEntity
  8
1
  6
Continuous
100
AcDbCircle
 10
44.98881775087943
 20
166.5410631747215
 30
0.0
 40
1.5
100
AcDbArc
 50
280.6941999999981
 51
0.0
  0
ARC
  5
1C94
330
18
100
AcDbEntity
  8
1
  6
Continuous
100
AcDbCircle
 10
24.48881775087943
 20
186.2987001747216
 30
0.0
 40
1.5
100
AcDbArc
 50
180.0000499999993
 51
244.4281199999989
  0
LINE
  5
1C95
330
18
100
AcDbEntity
  8
1
  6
Continuous
100
AcDbLine
 10
23.84135275087941
 20
184.9456311747216
 30
0.0
 11
25.48881775087943
 21
184.1572891747216
 31
0.0
  0
ARC
  5
1C96
330
18
100
AcDbEntity
  8
1
  6
Continuous
100
AcDbCircle
 10
24.48881775087943
 20
207.0986961747216
 30
0.0
 40
1.5
100
AcDbArc
 50
115.5719400000011
 51
180.0000100000002
  0
LINE
  5
1C97
330
18
100
AcDbEntity
  8
1
  6
Continuous
100
AcDbLine
 10
23.84135275087941
 20
208.4517651747216
 30
0.0
 11
25.48881775087943
 21
209.2401041747215
 31
0.0
  0
LINE
  5
1C98
330
18
100
AcDbEntity
  8
1
  6
Continuous
100
AcDbLine
 10
47.98881775087943
 20
203.9486981747216
 30
0.0
 11
47.98881775087943
 21
189.4486981747214
 31
0.0
  0
LINE
  5
1C99
330
18
100
AcDbEntity
  8
1
  6
Continuous
100
AcDbLine
 10
47.60898075087943
 20
188.9633520747214
 30
0.0
 11
46.48881775087943
 21
188.6860171747214
 31
0.0
  0
ARC
  5
1C9A
330
18
100
AcDbEntity
  8
1
  6
Continuous
100
AcDbCircle
 10
47.48881775087943
 20
189.4486981747214
 30
0.0
 40
0.5
100
AcDbArc
 50
283.9058900000001
 51
0.0
  0
LINE
  5
1C9B
330
18
100
AcDbEntity
  8
1
  6
Continuous
100
AcDbLine
 10
47.98881775087943
 20
199.9486981747214
 30
0.0
 11
48.98881775087943
 21
199.9486981747214
 31
0.0
  0
LINE
  5
1C9C
330
18
100
AcDbEntity
  8
1
  6
Continuous
100
AcDbLine
 10
47.98881775087943
 20
193.4486981747214
 30
0.0
 11
48.98881775087943
 21
193.4486981747214
 31
0.0
  0
LINE
  5
1C9D
330
18
100
AcDbEntity
  8
1
  6
Continuous
100
AcDbLine
 10
47.60898075087943
 20
204.4340442747214
 30
0.0
 11
46.48881775087943
 21
204.7113791747214
 31
0.0
  0
ARC
  5
1C9E
330
18
100
AcDbEntity
  8
1
  6
Continuous
100
AcDbCircle
 10
47.48881775087943
 20
203.9486981747216
 30
0.0
 40
0.5
100
AcDbArc
 50
0.0
 51
76.09410999999976
  0
ARC
  5
1C9F
330
18
100
AcDbEntity
  8
1
  6
Continuous
100
AcDbCircle
 10
35.98881775087944
 20
179.1986981747214
 30
0.0
 40
50.0
100
AcDbArc
 50
79.30580000000174
 51
90.0
  0
ARC
  5
1CA0
330
18
100
AcDbEntity
  8
1
  6
Continuous
100
AcDbCircle
 10
35.98881775087944
 20
179.1986981747214
 30
0.0
 40
50.0
100
AcDbArc
 50
90.0
 51
100.6941899999997
  0
ARC
  5
1CA1
330
18
100
AcDbEntity
  8
1
  6
Continuous
100
AcDbCircle
 10
26.98881775087943
 20
226.8563331747216
 30
0.0
 40
1.5
100
AcDbArc
 50
100.6941899999997
 51
180.0000099999993
  0
ARC
  5
1CA2
330
18
100
AcDbEntity
  8
1
  6
Continuous
100
AcDbCircle
 10
44.98881775087943
 20
226.8563331747216
 30
0.0
 40
1.5
100
AcDbArc
 50
0.0
 51
79.30580000000174
  0
LINE
  5
1CA4
330
18
100
AcDbEntity
  8
1
  6
Continuous
100
AcDbLine
 10
302.7563352744197
 20
226.8563331747216
 30
0.0
 11
302.7563352744197
 21
166.5410631747215
 31
0.0
  0
LINE
  5
1CA5
330
18
100
AcDbEntity
  8
1
  6
Continuous
100
AcDbLine
 10
323.7563352744197
 20
226.8563329129221
 30
0.0
 11
323.7563352744197
 21
166.5410631747215
 31
0.0
  0
ARC
  5
1CA6
330
18
100
AcDbEntity
  8
1
  6
Continuous
100
AcDbCircle
 10
313.2563352744197
 20
214.1986981747215
 30
0.0
 40
50.0
100
AcDbArc
 50
259.3058000000016
 51
270.0
  0
ARC
  5
1CA7
330
18
100
AcDbEntity
  8
1
  6
Continuous
100
AcDbCircle
 10
313.2563352744197
 20
214.1986981747215
 30
0.0
 40
50.0
100
AcDbArc
 50
270.0
 51
280.6941899999998
  0
ARC
  5
1CA8
330
18
100
AcDbEntity
  8
1
  6
Continuous
100
AcDbCircle
 10
322.2563352744197
 20
166.5410631747215
 30
0.0
 40
1.5
100
AcDbArc
 50
280.6941899999998
 51
0.0000100000010134
  0
ARC
  5
1CA9
330
18
100
AcDbEntity
  8
1
  6
Continuous
100
AcDbCircle
 10
304.2563352744196
 20
166.5410631747215
 30
0.0
 40
1.5
100
AcDbArc
 50
180.0
 51
259.3058000000016
  0
ARC
  5
1CAB
330
18
100
AcDbEntity
  8
1
  6
Continuous
100
AcDbCircle
 10
324.7563352744196
 20
186.2987001747216
 30
0.0
 40
1.5
100
AcDbArc
 50
295.5718800000009
 51
359.9999500000006
  0
LINE
  5
1CAC
330
18
100
AcDbEntity
  8
1
  6
Continuous
100
AcDbLine
 10
325.4038002744196
 20
184.9456311747216
 30
0.0
 11
323.7563352744197
 21
184.1572891747216
 31
0.0
  0
ARC
  5
1CAD
330
18
100
AcDbEntity
  8
1
  6
Continuous
100
AcDbCircle
 10
324.7563352744196
 20
207.0986961747216
 30
0.0
 40
1.5
100
AcDbArc
 50
359.9999899999998
 51
64.42805999999889
  0
LINE
  5
1CAE
330
18
100
AcDbEntity
  8
1
  6
Continuous
100
AcDbLine
 10
325.4038002744196
 20
208.4517651747216
 30
0.0
 11
323.7563352744197
 21
209.2401041747215
 31
0.0
  0
LINE
  5
1CAF
330
18
100
AcDbEntity
  8
1
  6
Continuous
100
AcDbLine
 10
301.2563352744197
 20
203.9486981747216
 30
0.0
 11
301.2563352744197
 21
189.4486981747214
 31
0.0
  0
LINE
  5
1CB0
330
18
100
AcDbEntity
  8
1
  6
Continuous
100
AcDbLine
 10
301.6361722744196
 20
188.9633520747214
 30
0.0
 11
302.7563352744197
 21
188.6860171747214
 31
0.0
  0
ARC
  5
1CB1
330
18
100
AcDbEntity
  8
1
  6
Continuous
100
AcDbCircle
 10
301.7563352744196
 20
189.4486981747214
 30
0.0
 40
0.5
100
AcDbArc
 50
180.0
 51
256.0941099999997
  0
LINE
  5
1CB2
330
18
100
AcDbEntity
  8
1
  6
Continuous
100
AcDbLine
 10
301.2563352744197
 20
199.9486981747214
 30
0.0
 11
300.2563352744197
 21
199.9486981747214
 31
0.0
  0
LINE
  5
1CB3
330
18
100
AcDbEntity
  8
1
  6
Continuous
100
AcDbLine
 10
301.2563352744197
 20
193.4486981747214
 30
0.0
 11
300.2563352744197
 21
193.4486981747214
 31
0.0
  0
LINE
  5
1CB4
330
18
100
AcDbEntity
  8
1
  6
Continuous
100
AcDbLine
 10
301.6361722744196
 20
204.4340442747214
 30
0.0
 11
302.7563352744197
 21
204.7113791747214
 31
0.0
  0
ARC
  5
1CB5
330
18
100
AcDbEntity
  8
1
  6
Continuous
100
AcDbCircle
 10
301.7563352744196
 20
203.9486981747216
 30
0.0
 40
0.5
100
AcDbArc
 50
103.9058900000002
 51
180.0
  0
ARC
  5
1CB6
330
18
100
AcDbEntity
  8
1
  6
Continuous
100
AcDbCircle
 10
313.2563352744197
 20
179.1986981747214
 30
0.0
 40
50.0
100
AcDbArc
 50
90.0
 51
100.6941999999982
  0
ARC
  5
1CB7
330
18
100
AcDbEntity
  8
1
  6
Continuous
100
AcDbCircle
 10
313.2563352744197
 20
179.1986981747214
 30
0.0
 40
50.0
100
AcDbArc
 50
79.30581000000015
 51
90.0
  0
ARC
  5
1CB8
330
18
100
AcDbEntity
  8
1
  6
Continuous
100
AcDbCircle
 10
322.2563352744197
 20
226.8563331747216
 30
0.0
 40
1.5
100
AcDbArc
 50
359.9999900000006
 51
79.30581000000015
  0
ARC
  5
1CB9
330
18
100
AcDbEntity
  8
1
  6
Continuous
100
AcDbCircle
 10
304.2563352744196
 20
226.8563331747216
 30
0.0
 40
1.5
100
AcDbArc
 50
100.6941999999982
 51
180.0
  0
LINE
  5
1CBA
330
18
100
AcDbEntity
  8
1
  6
Continuous
100
AcDbLine
 10
132.4009845126489
 20
352.0651125229898
 30
0.0
 11
152.3423487638976
 21
352.0651125229898
 31
0.0
  0
ARC
  5
1CBB
330
18
100
AcDbEntity
  8
1
  6
Continuous
100
AcDbCircle
 10
132.4009845126489
 20
350.5651125229898
 30
0.0
 40
1.5
100
AcDbArc
 50
90.0
 51
169.3058000000016
  0
ARC
  5
1CBC
330
18
100
AcDbEntity
  8
1
  6
Continuous
100
AcDbCircle
 10
180.0586195126489
 20
341.5651125229898
 30
0.0
 40
50.0
100
AcDbArc
 50
169.3058000000016
 51
180.0
  0
LINE
  5
1CBD
330
18
100
AcDbEntity
  8
1
  6
Continuous
100
AcDbLine
 10
132.4009847744484
 20
331.0651125229898
 30
0.0
 11
152.3423537179479
 21
331.0651125229898
 31
0.0
  0
ARC
  5
1CBE
330
18
100
AcDbEntity
  8
1
  6
Continuous
100
AcDbCircle
 10
132.4009845126489
 20
332.5651125229898
 30
0.0
 40
1.5
100
AcDbArc
 50
190.6941899999998
 51
270.0000099999992
  0
ARC
  5
1CBF
330
18
100
AcDbEntity
  8
1
  6
Continuous
100
AcDbCircle
 10
180.0586195126489
 20
341.5651125229898
 30
0.0
 40
50.0
100
AcDbArc
 50
180.0
 51
190.6941899999998
  0
LINE
  5
1CC0
330
18
100
AcDbEntity
  8
1
  6
Continuous
100
AcDbLine
 10
150.7695961199329
 20
329.4927889260232
 30
0.0
 11
150.017213512649
 21
331.0651125229898
 31
0.0
  0
ARC
  5
1D38
330
18
100
AcDbEntity
  8
1
  6
Continuous
100
AcDbCircle
 10
463.9540510361903
 20
196.6986981747215
 30
0.0
 40
12.54140899999998
100
AcDbArc
 50
160.8952279838839
 51
55.58890710559244
  0
ARC
  5
1D55
330
18
100
AcDbEntity
  8
1
  6
Continuous
100
AcDbCircle
 10
118.4307095126488
 20
68.83227182645339
 30
0.0
 40
35.499996
100
AcDbArc
 50
17.20400997049766
 51
19.24301868940019
  0
ARC
  5
1D56
330
18
100
AcDbEntity
  8
1
  6
Continuous
100
AcDbCircle
 10
214.558619512649
 20
82.83227982645327
 30
0.0
 40
7.0
100
AcDbArc
 50
340.8485648764903
 51
89.99996799999994
  0
ENDSEC
  0
SECTION
  2
OBJECTS
  0
DICTIONARY
  5
C
330
0
100
AcDbDictionary
281
     1
  3
ACAD_CIP_PREVIOUS_PRODUCT_INFO
350
1DB7
  3
ACAD_COLOR
350
1D9A
  3
ACAD_DETAILVIEWSTYLE
350
1DB3
  3
ACAD_GROUP
350
D
  3
ACAD_LAYOUT
350
5D
  3
ACAD_MATERIAL
350
1D68
  3
ACAD_MLEADERSTYLE
350
1DAF
  3
ACAD_MLINESTYLE
350
1B
  3
ACAD_PLOTSETTINGS
350
5E
  3
ACAD_PLOTSTYLENAME
350
1D66
  3
ACAD_SCALELIST
350
1D9D
  3
ACAD_SECTIONVIEWSTYLE
350
1DB1
  3
ACAD_TABLESTYLE
350
1D9B
  3
ACAD_VISUALSTYLE
350
1D81
  3
ACDB_RECOMPOSE_DATA
350
1DD5
  3
AcDbVariableDictionary
350
1DC8
  3
CONTENTDICTIONARY
350
3D
  3
DWGPROPS
350
1DD6
  0
DICTIONARY
  5
1DB8
330
E
100
AcDbDictionary
280
     1
281
     1
  3
ADSK_XREC_LAYER_RECONCILED
360
1DB9
  0
DICTIONARY
  5
1DBA
330
65
100
AcDbDictionary
280
     1
281
     1
  3
ADSK_XREC_LAYER_RECONCILED
360
1DBB
  0
DICTIONARY
  5
1DBC
330
66
100
AcDbDictionary
280
     1
281
     1
  3
ADSK_XREC_LAYER_RECONCILED
360
1DBD
  0
DICTIONARY
  5
1DBE
330
67
100
AcDbDictionary
280
     1
281
     1
  3
ADSK_XREC_LAYER_RECONCILED
360
1DBF
  0
DICTIONARY
  5
1DC0
330
68
100
AcDbDictionary
280
     1
281
     1
  3
ADSK_XREC_LAYER_RECONCILED
360
1DC1
  0
DICTIONARY
  5
1DC2
330
69
100
AcDbDictionary
280
     1
281
     1
  3
ADSK_XREC_LAYER_RECONCILED
360
1DC3
  0
DICTIONARY
  5
1DC4
330
6A
100
AcDbDictionary
280
     1
281
     1
  3
ADSK_XREC_LAYER_RECONCILED
360
1DC5
  0
DICTIONARY
  5
1DC6
330
6B
100
AcDbDictionary
280
     1
281
     1
  3
ADSK_XREC_LAYER_RECONCILED
360
1DC7
  0
DICTIONARY
  5
1D47
330
18
100
AcDbDictionary
281
     1
  3
ACAD_LAYOUTSELFREF
350
1D62
  0
DICTIONARY
  5
1D45
330
15
100
AcDbDictionary
281
     1
  3
ACAD_LAYOUTSELFREF
350
1D61
  0
XRECORD
  5
1DB7
102
{ACAD_REACTORS
330
C
102
}
330
C
100
AcDbXrecord
280
     1
300
ACDLT
300
2014
300
ACDLT_F_S
  0
DICTIONARY
  5
1D9A
102
{ACAD_REACTORS
330
C
102
}
330
C
100
AcDbDictionary
281
     1
  0
DICTIONARY
  5
1DB3
102
{ACAD_REACTORS
330
C
102
}
330
C
100
AcDbDictionary
281
     1
  3
Imperial24
350
1DB4
  0
DICTIONARY
  5
D
102
{ACAD_REACTORS
330
C
102
}
330
C
100
AcDbDictionary
281
     1
  0
DICTIONARY
  5
5D
102
{ACAD_REACTORS
330
C
102
}
330
C
100
AcDbDictionary
281
     1
  3
Model
350
1DB5
  3
レイアウト1
350
1DB6
  0
DICTIONARY
  5
1D68
102
{ACAD_REACTORS
330
C
102
}
330
C
100
AcDbDictionary
281
     1
  3
ByBlock
350
1D71
  3
ByLayer
350
1D69
  3
Global
350
1D79
  0
DICTIONARY
  5
1DAF
102
{ACAD_REACTORS
330
C
102
}
330
C
100
AcDbDictionary
281
     1
  3
Standard
350
1DB0
  0
DICTIONARY
  5
1B
102
{ACAD_REACTORS
330
C
102
}
330
C
100
AcDbDictionary
281
     1
  3
STANDARD
350
1C
  0
DICTIONARY
  5
5E
102
{ACAD_REACTORS
330
C
102
}
330
C
100
AcDbDictionary
281
     1
  0
ACDBDICTIONARYWDFLT
  5
1D66
102
{ACAD_REACTORS
330
C
102
}
330
C
100
AcDbDictionary
281
     1
  3
Normal
350
1D67
100
AcDbDictionaryWithDefault
340
1D67
  0
DICTIONARY
  5
1D9D
102
{ACAD_REACTORS
330
C
102
}
330
C
100
AcDbDictionary
281
     1
  3
A0
350
1D9E
  3
A1
350
1D9F
  3
A2
350
1DA0
  3
A3
350
1DA1
  3
A4
350
1DA2
  3
A5
350
1DA3
  3
A6
350
1DA4
  3
A7
350
1DA5
  3
A8
350
1DA6
  3
A9
350
1DA7
  3
B0
350
1DA8
  3
B1
350
1DA9
  3
B2
350
1DAA
  3
B3
350
1DAB
  3
B4
350
1DAC
  3
B5
350
1DAD
  3
B6
350
1DAE
  0
DICTIONARY
  5
1DB1
102
{ACAD_REACTORS
330
C
102
}
330
C
100
AcDbDictionary
281
     1
  3
Imperial24
350
1DB2
  0
DICTIONARY
  5
1D9B
102
{ACAD_REACTORS
330
C
102
}
330
C
100
AcDbDictionary
281
     1
  3
Standard
350
1D9C
  0
DICTIONARY
  5
1D81
102
{ACAD_REACTORS
330
C
102
}
330
C
100
AcDbDictionary
281
     1
  3
2dWireframe
350
1D87
  3
Basic
350
1D86
  3
Brighten
350
1D8D
  3
ColorChange
350
1D91
  3
Conceptual
350
1D8A
  3
Dim
350
1D8C
  3
EdgeColorOff
350
1D99
  3
Facepattern
350
1D90
  3
Flat
350
1D82
  3
FlatWithEdges
350
1D83
  3
Gouraud
350
1D84
  3
GouraudWithEdges
350
1D85
  3
Hidden
350
1D89
  3
JitterOff
350
1D97
  3
Linepattern
350
1D8F
  3
OverhangOff
350
1D98
  3
Realistic
350
1D8B
  3
Shaded
350
1D96
  3
Shaded with edges
350
1D95
  3
Shades of Gray
350
1D92
  3
Sketchy
350
1D93
  3
Thicken
350
1D8E
  3
Wireframe
350
1D88
  3
X-Ray
350
1D94
  0
XRECORD
  5
1DD5
102
{ACAD_REACTORS
330
C
102
}
330
C
100
AcDbXrecord
280
     1
 90
        1
330
1D9C
  0
DICTIONARY
  5
1DC8
102
{ACAD_REACTORS
330
C
102
}
330
C
100
AcDbDictionary
281
     1
  3
CANNOSCALE
350
1DCD
  3
CMLEADERSTYLE
350
1DCA
  3
CTABLESTYLE
350
1DC9
  3
CVIEWDETAILSTYLE
350
1DCB
  3
CVIEWSECTIONSTYLE
350
1DCC
  3
DIMASSOC
350
1DD0
  3
INDEXCTL
350
1DCF
  3
SORTENTS
350
1DCE
  3
XCLIPFRAME
350
1DD1
  0
DICTIONARY
  5
3D
102
{ACAD_REACTORS
330
C
102
}
330
C
100
AcDbDictionary
281
     1
  0
XRECORD
  5
1DD6
102
{ACAD_REACTORS
330
C
102
}
330
C
100
AcDbXrecord
280
     1
  1
DWGPROPS COOKIE
  2

  3

  4

  6

  7

  8
Yoshitsune
  9

300
=
301
=
302
=
303
=
304
=
305
=
306
=
307
=
308
=
309
=
 40
0.1389650462962963
 41
2453278.473863021
 42
2457192.688947732
  1

 90
        0
  0
XRECORD
  5
1DB9
102
{ACAD_REACTORS
330
1DB8
102
}
330
1DB8
100
AcDbXrecord
280
     1
290
     1
  0
XRECORD
  5
1DBB
102
{ACAD_REACTORS
330
1DBA
102
}
330
1DBA
100
AcDbXrecord
280
     1
290
     1
  0
XRECORD
  5
1DBD
102
{ACAD_REACTORS
330
1DBC
102
}
330
1DBC
100
AcDbXrecord
280
     1
290
     1
  0
XRECORD
  5
1DBF
102
{ACAD_REACTORS
330
1DBE
102
}
330
1DBE
100
AcDbXrecord
280
     1
290
     1
  0
XRECORD
  5
1DC1
102
{ACAD_REACTORS
330
1DC0
102
}
330
1DC0
100
AcDbXrecord
280
     1
290
     1
  0
XRECORD
  5
1DC3
102
{ACAD_REACTORS
330
1DC2
102
}
330
1DC2
100
AcDbXrecord
280
     1
290
     1
  0
XRECORD
  5
1DC5
102
{ACAD_REACTORS
330
1DC4
102
}
330
1DC4
100
AcDbXrecord
280
     1
290
     1
  0
XRECORD
  5
1DC7
102
{ACAD_REACTORS
330
1DC6
102
}
330
1DC6
100
AcDbXrecord
280
     1
290
     1
  0
XRECORD
  5
1D62
102
{ACAD_REACTORS
330
1D47
102
}
330
1D47
100
AcDbXrecord
280
     1
340
18
  0
XRECORD
  5
1D61
102
{ACAD_REACTORS
330
1D45
102
}
330
1D45
100
AcDbXrecord
280
     1
340
15
  0
ACDBDETAILVIEWSTYLE
  5
1DB4
102
{ACAD_XDICTIONARY
360
1E0E
102
}
102
{ACAD_REACTORS
330
1DB3
102
}
330
1DB3
100
AcDbModelDocViewStyle
 70
     0
  3
Imperial24
290
     0
100
AcDbDetailViewStyle
 70
     0
 71
     0
 90
        3
 71
     1
340
F
 40
0.24
340
0
 40
0.24
300

 40
0.36
280
     3
 71
     2
340
14
 90
       25
 71
     3
340
F
 40
0.24
 90
        1
 40
0.75
 90
        1
300
%<\AcVar ViewType \f "%tc1">% %<\AcVar ViewDetailId>%\PSCALE %<\AcVar ViewScale \f "%sn">%
 71
     4
340
14
 90
       25
340
14
 90
       25
280
     0
  0
LAYOUT
  5
1DB5
102
{ACAD_XDICTIONARY
360
1E10
102
}
102
{ACAD_REACTORS
330
5D
102
}
330
5D
100
AcDbPlotSettings
  1

  2
Canon LBP9100C
  4

  6

 40
0.0
 41
0.0
 42
0.0
 43
0.0
 44
0.0
 45
0.0
 46
0.0
 47
0.0
 48
0.0
 49
0.0
140
0.0
141
0.0
142
1.0
143
1.0
 70
  1712
 72
     0
 73
     0
 74
     0
  7

 75
     0
147
1.0
148
0.0
149
0.0
100
AcDbLayout
  1
Model
 70
     1
 71
     0
 10
0.0
 20
0.0
 11
12.0
 21
9.0
 12
0.0
 22
0.0
 32
0.0
 14
0.0
 24
0.0
 34
0.0
 15
0.0
 25
0.0
 35
0.0
146
0.0
 13
0.0
 23
0.0
 33
0.0
 16
1.0
 26
0.0
 36
0.0
 17
0.0
 27
1.0
 37
0.0
 76
     0
330
18
331
1D60
  0
LAYOUT
  5
1DB6
102
{ACAD_XDICTIONARY
360
1E12
102
}
102
{ACAD_REACTORS
330
5D
102
}
330
5D
100
AcDbPlotSettings
  1

  2
Canon LBP9100C
  4

  6

 40
0.0
 41
0.0
 42
0.0
 43
0.0
 44
0.0
 45
0.0
 46
0.0
 47
0.0
 48
0.0
 49
0.0
140
0.0
141
0.0
142
1.0
143
1.0
 70
   688
 72
     0
 73
     0
 74
     5
  7

 75
    16
147
1.0
148
0.0
149
0.0
100
AcDbLayout
  1
レイアウト1
 70
     1
 71
     1
 10
0.0
 20
0.0
 11
420.0
 21
297.0
 12
0.0
 22
0.0
 32
0.0
 14
1.000000000000000E+20
 24
1.000000000000000E+20
 34
1.000000000000000E+20
 15
-1.000000000000000E+20
 25
-1.000000000000000E+20
 35
-1.000000000000000E+20
146
0.0
 13
0.0
 23
0.0
 33
0.0
 16
1.0
 26
0.0
 36
0.0
 17
0.0
 27
1.0
 37
0.0
 76
     0
330
15
  0
MATERIAL
  5
1D71
102
{ACAD_XDICTIONARY
360
1D72
102
}
102
{ACAD_REACTORS
330
1D68
102
}
330
1D68
100
AcDbMaterial
  1
ByBlock
 72
     0
 43
0.0208333333333333
 43
0.0
 43
0.0
 43
0.0
 43
0.0
 43
0.0208333333333333
 43
0.0
 43
0.0
 43
0.0
 43
0.0
 43
1.0
 43
0.0
 43
0.0
 43
0.0
 43
0.0
 43
1.0
 77
     0
 47
0.0208333333333333
 47
0.0
 47
0.0
 47
0.0
 47
0.0
 47
0.0208333333333333
 47
0.0
 47
0.0
 47
0.0
 47
0.0
 47
1.0
 47
0.0
 47
0.0
 47
0.0
 47
0.0
 47
1.0
171
     0
 49
0.0208333333333333
 49
0.0
 49
0.0
 49
0.0
 49
0.0
 49
0.0208333333333333
 49
0.0
 49
0.0
 49
0.0
 49
0.0
 49
1.0
 49
0.0
 49
0.0
 49
0.0
 49
0.0
 49
1.0
175
     0
142
0.0208333333333333
142
0.0
142
0.0
142
0.0
142
0.0
142
0.0208333333333333
142
0.0
142
0.0
142
0.0
142
0.0
142
1.0
142
0.0
142
0.0
142
0.0
142
0.0
142
1.0
179
     0
144
0.0208333333333333
144
0.0
144
0.0
144
0.0
144
0.0
144
0.0208333333333333
144
0.0
144
0.0
144
0.0
144
0.0
144
1.0
144
0.0
144
0.0
144
0.0
144
0.0
144
1.0
147
0.0208333333333333
147
0.0
147
0.0
147
0.0
147
0.0
147
0.0208333333333333
147
0.0
147
0.0
147
0.0
147
0.0
147
1.0
147
0.0
147
0.0
147
0.0
147
0.0
147
1.0
  0
MATERIAL
  5
1D69
102
{ACAD_XDICTIONARY
360
1D6A
102
}
102
{ACAD_REACTORS
330
1D68
102
}
330
1D68
100
AcDbMaterial
  1
ByLayer
 72
     0
 43
0.0208333333333333
 43
0.0
 43
0.0
 43
0.0
 43
0.0
 43
0.0208333333333333
 43
0.0
 43
0.0
 43
0.0
 43
0.0
 43
1.0
 43
0.0
 43
0.0
 43
0.0
 43
0.0
 43
1.0
 77
     0
 47
0.0208333333333333
 47
0.0
 47
0.0
 47
0.0
 47
0.0
 47
0.0208333333333333
 47
0.0
 47
0.0
 47
0.0
 47
0.0
 47
1.0
 47
0.0
 47
0.0
 47
0.0
 47
0.0
 47
1.0
171
     0
 49
0.0208333333333333
 49
0.0
 49
0.0
 49
0.0
 49
0.0
 49
0.0208333333333333
 49
0.0
 49
0.0
 49
0.0
 49
0.0
 49
1.0
 49
0.0
 49
0.0
 49
0.0
 49
0.0
 49
1.0
175
     0
142
0.0208333333333333
142
0.0
142
0.0
142
0.0
142
0.0
142
0.0208333333333333
142
0.0
142
0.0
142
0.0
142
0.0
142
1.0
142
0.0
142
0.0
142
0.0
142
0.0
142
1.0
179
     0
144
0.0208333333333333
144
0.0
144
0.0
144
0.0
144
0.0
144
0.0208333333333333
144
0.0
144
0.0
144
0.0
144
0.0
144
1.0
144
0.0
144
0.0
144
0.0
144
0.0
144
1.0
147
0.0208333333333333
147
0.0
147
0.0
147
0.0
147
0.0
147
0.0208333333333333
147
0.0
147
0.0
147
0.0
147
0.0
147
1.0
147
0.0
147
0.0
147
0.0
147
0.0
147
1.0
  0
MATERIAL
  5
1D79
102
{ACAD_XDICTIONARY
360
1D7A
102
}
102
{ACAD_REACTORS
330
1D68
102
}
330
1D68
100
AcDbMaterial
  1
Global
 72
     0
 43
0.0208333333333333
 43
0.0
 43
0.0
 43
0.0
 43
0.0
 43
0.0208333333333333
 43
0.0
 43
0.0
 43
0.0
 43
0.0
 43
1.0
 43
0.0
 43
0.0
 43
0.0
 43
0.0
 43
1.0
 77
     0
 47
0.0208333333333333
 47
0.0
 47
0.0
 47
0.0
 47
0.0
 47
0.0208333333333333
 47
0.0
 47
0.0
 47
0.0
 47
0.0
 47
1.0
 47
0.0
 47
0.0
 47
0.0
 47
0.0
 47
1.0
171
     0
 49
0.0208333333333333
 49
0.0
 49
0.0
 49
0.0
 49
0.0
 49
0.0208333333333333
 49
0.0
 49
0.0
 49
0.0
 49
0.0
 49
1.0
 49
0.0
 49
0.0
 49
0.0
 49
0.0
 49
1.0
175
     0
142
0.0208333333333333
142
0.0
142
0.0
142
0.0
142
0.0
142
0.0208333333333333
142
0.0
142
0.0
142
0.0
142
0.0
142
1.0
142
0.0
142
0.0
142
0.0
142
0.0
142
1.0
179
     0
144
0.0208333333333333
144
0.0
144
0.0
144
0.0
144
0.0
144
0.0208333333333333
144
0.0
144
0.0
144
0.0
144
0.0
144
1.0
144
0.0
144
0.0
144
0.0
144
0.0
144
1.0
147
0.0208333333333333
147
0.0
147
0.0
147
0.0
147
0.0
147
0.0208333333333333
147
0.0
147
0.0
147
0.0
147
0.0
147
1.0
147
0.0
147
0.0
147
0.0
147
0.0
147
1.0
  0
MLEADERSTYLE
  5
1DB0
102
{ACAD_REACTORS
330
1DAF
102
}
330
1DAF
100
AcDbMLeaderStyle
170
     2
171
     1
172
     0
 90
        2
 40
0.0
 41
0.0
173
     1
 91
-1056964608
340
12
 92
       -2
290
     1
 42
0.09
291
     1
 43
0.36
  3
Standard
 44
0.18
300

342
F
174
     1
178
     6
175
     1
176
     0
 93
-1056964608
 45
0.18
292
     0
297
     0
 46
0.18
 94
-1056964608
 47
1.0
 49
1.0
140
1.0
293
     1
141
0.0
294
     1
177
     0
142
1.0
295
     0
296
     0
143
0.125
1001
ACAD_MLEADERVER
1070
     2
  0
MLINESTYLE
  5
1C
102
{ACAD_REACTORS
330
1B
102
}
330
1B
100
AcDbMlineStyle
  2
STANDARD
 70
     0
  3

 62
   256
 51
90.0
 52
90.0
 71
     2
 49
0.5
 62
   256
  6
BYLAYER
 49
-0.5
 62
   256
  6
BYLAYER
  0
ACDBPLACEHOLDER
  5
1D67
102
{ACAD_REACTORS
330
1D66
102
}
330
1D66
  0
SCALE
  5
1D9E
102
{ACAD_REACTORS
330
1D9D
102
}
330
1D9D
100
AcDbScale
 70
     0
300
1:1
140
1.0
141
1.0
290
     1
  0
SCALE
  5
1D9F
102
{ACAD_REACTORS
330
1D9D
102
}
330
1D9D
100
AcDbScale
 70
     0
300
1/128" = 1'-0"
140
0.0078125
141
12.0
290
     0
  0
SCALE
  5
1DA0
102
{ACAD_REACTORS
330
1D9D
102
}
330
1D9D
100
AcDbScale
 70
     0
300
1/64" = 1'-0"
140
0.015625
141
12.0
290
     0
  0
SCALE
  5
1DA1
102
{ACAD_REACTORS
330
1D9D
102
}
330
1D9D
100
AcDbScale
 70
     0
300
1/32" = 1'-0"
140
0.03125
141
12.0
290
     0
  0
SCALE
  5
1DA2
102
{ACAD_REACTORS
330
1D9D
102
}
330
1D9D
100
AcDbScale
 70
     0
300
1/16" = 1'-0"
140
0.0625
141
12.0
290
     0
  0
SCALE
  5
1DA3
102
{ACAD_REACTORS
330
1D9D
102
}
330
1D9D
100
AcDbScale
 70
     0
300
3/32" = 1'-0"
140
0.09375
141
12.0
290
     0
  0
SCALE
  5
1DA4
102
{ACAD_REACTORS
330
1D9D
102
}
330
1D9D
100
AcDbScale
 70
     0
300
1/8" = 1'-0"
140
0.125
141
12.0
290
     0
  0
SCALE
  5
1DA5
102
{ACAD_REACTORS
330
1D9D
102
}
330
1D9D
100
AcDbScale
 70
     0
300
3/16" = 1'-0"
140
0.1875
141
12.0
290
     0
  0
SCALE
  5
1DA6
102
{ACAD_REACTORS
330
1D9D
102
}
330
1D9D
100
AcDbScale
 70
     0
300
1/4" = 1'-0"
140
0.25
141
12.0
290
     0
  0
SCALE
  5
1DA7
102
{ACAD_REACTORS
330
1D9D
102
}
330
1D9D
100
AcDbScale
 70
     0
300
3/8" = 1'-0"
140
0.375
141
12.0
290
     0
  0
SCALE
  5
1DA8
102
{ACAD_REACTORS
330
1D9D
102
}
330
1D9D
100
AcDbScale
 70
     0
300
1/2" = 1'-0"
140
0.5
141
12.0
290
     0
  0
SCALE
  5
1DA9
102
{ACAD_REACTORS
330
1D9D
102
}
330
1D9D
100
AcDbScale
 70
     0
300
3/4" = 1'-0"
140
0.75
141
12.0
290
     0
  0
SCALE
  5
1DAA
102
{ACAD_REACTORS
330
1D9D
102
}
330
1D9D
100
AcDbScale
 70
     0
300
1" = 1'-0"
140
1.0
141
12.0
290
     0
  0
SCALE
  5
1DAB
102
{ACAD_REACTORS
330
1D9D
102
}
330
1D9D
100
AcDbScale
 70
     0
300
1-1/2" = 1'-0"
140
1.5
141
12.0
290
     0
  0
SCALE
  5
1DAC
102
{ACAD_REACTORS
330
1D9D
102
}
330
1D9D
100
AcDbScale
 70
     0
300
3" = 1'-0"
140
3.0
141
12.0
290
     0
  0
SCALE
  5
1DAD
102
{ACAD_REACTORS
330
1D9D
102
}
330
1D9D
100
AcDbScale
 70
     0
300
6" = 1'-0"
140
6.0
141
12.0
290
     0
  0
SCALE
  5
1DAE
102
{ACAD_REACTORS
330
1D9D
102
}
330
1D9D
100
AcDbScale
 70
     0
300
1'-0" = 1'-0"
140
12.0
141
12.0
290
     0
  0
ACDBSECTIONVIEWSTYLE
  5
1DB2
102
{ACAD_XDICTIONARY
360
1E0C
102
}
102
{ACAD_REACTORS
330
1DB1
102
}
330
1DB1
100
AcDbModelDocViewStyle
 70
     0
  3
Imperial24
290
     0
100
AcDbSectionViewStyle
 70
     0
 71
     0
 90
       78
 71
     1
340
F
 40
0.24
340
0
340
0
 40
0.24
300
I, O, Q, S, X, Z
 40
0.48
 90
        3
 40
0.18
 90
        1
 71
     2
340
14
 90
       25
340
14
 90
       50
 40
0.24
 40
0.0
 40
0.24
 71
     3
340
F
 40
0.24
 90
        1
 40
0.75
 90
        1
300
%<\AcVar ViewType \f "%tc1">% %<\AcVar ViewSectionStartId>%-%<\AcVar ViewSectionEndId>%\PSCALE %<\AcVar ViewScale \f "%sn">%
 71
     4
300
ANSI31
 40
1.0
 90
        0
290
     0
290
     0
 90
        6
 40
0.0
 40
1.570796326794896
 40
0.2617993877991494
 40
1.308996938995747
 40
-0.2617993877991494
 40
1.832595714594046
  0
TABLESTYLE
  5
1D9C
102
{ACAD_XDICTIONARY
360
1DD3
102
}
102
{ACAD_REACTORS
330
1D9B
102
}
330
1D9B
100
AcDbTableStyle
  3
Standard
 70
     0
 71
     0
 40
0.06
 41
0.06
280
     0
281
     0
  7
STANDARD
140
0.18
170
     2
 62
     0
 63
     7
283
     0
274
    -2
284
     1
 64
     0
275
    -2
285
     1
 65
     0
276
    -2
286
     1
 66
     0
277
    -2
287
     1
 67
     0
278
    -2
288
     1
 68
     0
279
    -2
289
     1
 69
     0
  7
STANDARD
140
0.25
170
     5
 62
     0
 63
     7
283
     0
274
    -2
284
     1
 64
     0
275
    -2
285
     1
 65
     0
276
    -2
286
     1
 66
     0
277
    -2
287
     1
 67
     0
278
    -2
288
     1
 68
     0
279
    -2
289
     1
 69
     0
  7
STANDARD
140
0.18
170
     5
 62
     0
 63
     7
283
     0
274
    -2
284
     1
 64
     0
275
    -2
285
     1
 65
     0
276
    -2
286
     1
 66
     0
277
    -2
287
     1
 67
     0
278
    -2
288
     1
 68
     0
279
    -2
289
     1
 69
     0
  0
VISUALSTYLE
  5
1D87
102
{ACAD_XDICTIONARY
360
1DE4
102
}
102
{ACAD_REACTORS
330
1D81
102
}
330
1D81
100
AcDbVisualStyle
  2
2dWireframe
 70
     4
 71
     0
 72
     2
 73
     0
 90
        0
 40
-0.6
 41
-30.0
 62
     5
 63
     7
 74
     1
 91
        4
 64
     7
 65
   257
 75
     1
175
     1
 42
1.0
 92
        0
 66
   257
 43
1.0
 76
     1
 77
     6
 78
     2
 67
     7
 79
     5
170
     0
171
     0
290
     0
174
     0
 93
        1
 44
0.0
173
     0
291
     0
 45
0.0
1001
ACAD
1000
AcDbSavedByObjectVersion
1070
     0
  0
VISUALSTYLE
  5
1D86
102
{ACAD_XDICTIONARY
360
1DE2
102
}
102
{ACAD_REACTORS
330
1D81
102
}
330
1D81
100
AcDbVisualStyle
  2
Basic
 70
     7
 71
     1
 72
     0
 73
     1
 90
        0
 40
-0.6
 41
-30.0
 62
     5
 63
     7
 74
     0
 91
        4
 64
     7
 65
   257
 75
     1
175
     1
 42
1.0
 92
        8
 66
     7
 43
1.0
 76
     1
 77
     6
 78
     2
 67
     7
 79
     5
170
     0
171
     0
290
     0
174
     0
 93
        1
 44
0.0
173
     0
291
     1
 45
0.0
1001
ACAD
1000
AcDbSavedByObjectVersion
1070
     0
  0
VISUALSTYLE
  5
1D8D
102
{ACAD_XDICTIONARY
360
1DF0
102
}
102
{ACAD_REACTORS
330
1D81
102
}
330
1D81
100
AcDbVisualStyle
  2
Brighten
 70
    12
 71
     2
 72
     2
 73
     0
 90
        0
 40
-0.6
 41
-30.0
 62
     5
 63
     7
 74
     1
 91
        4
 64
     7
 65
   257
 75
     1
175
     1
 42
1.0
 92
        8
 66
     7
 43
1.0
 76
     1
 77
     6
 78
     2
 67
     7
 79
     5
170
     0
171
     0
290
     0
174
     0
 93
        1
 44
50.0
173
     0
291
     1
 45
0.0
1001
ACAD
1000
AcDbSavedByObjectVersion
1070
     0
  0
VISUALSTYLE
  5
1D91
102
{ACAD_XDICTIONARY
360
1DF8
102
}
102
{ACAD_REACTORS
330
1D81
102
}
330
1D81
100
AcDbVisualStyle
  2
ColorChange
 70
    16
 71
     2
 72
     2
 73
     3
 90
        0
 40
-0.6
 41
-30.0
 62
     5
 63
     8
 74
     1
 91
        4
 64
     7
 65
   257
 75
     1
175
     1
 42
1.0
 92
        8
 66
     8
 43
1.0
 76
     1
 77
     6
 78
     2
 67
     7
 79
     5
170
     0
171
     0
290
     0
174
     0
 93
        1
 44
0.0
173
     0
291
     1
 45
0.0
1001
ACAD
1000
AcDbSavedByObjectVersion
1070
     0
  0
VISUALSTYLE
  5
1D8A
102
{ACAD_XDICTIONARY
360
1DEA
102
}
102
{ACAD_REACTORS
330
1D81
102
}
330
1D81
100
AcDbVisualStyle
  2
Conceptual
 70
     9
 71
     3
 72
     2
 73
     0
 90
        0
 40
-0.6
 41
-30.0
 62
     5
 63
     7
 74
     2
 91
        2
 64
     7
 65
   257
 75
     1
175
     1
 42
179.0
 92
        8
 66
     7
 43
1.0
 76
     1
 77
     6
 78
     2
 67
     7
 79
     3
170
     0
171
     0
290
     0
174
     0
 93
        1
 44
0.0
173
     0
291
     0
 45
0.0
1001
ACAD
1000
AcDbSavedByObjectVersion
1070
     0
  0
VISUALSTYLE
  5
1D8C
102
{ACAD_XDICTIONARY
360
1DEE
102
}
102
{ACAD_REACTORS
330
1D81
102
}
330
1D81
100
AcDbVisualStyle
  2
Dim
 70
    11
 71
     2
 72
     2
 73
     0
 90
        0
 40
-0.6
 41
-30.0
 62
     5
 63
     7
 74
     1
 91
        4
 64
     7
 65
   257
 75
     1
175
     1
 42
1.0
 92
        8
 66
     7
 43
1.0
 76
     1
 77
     6
 78
     2
 67
     7
 79
     5
170
     0
171
     0
290
     0
174
     0
 93
        1
 44
-50.0
173
     0
291
     1
 45
0.0
1001
ACAD
1000
AcDbSavedByObjectVersion
1070
     0
  0
VISUALSTYLE
  5
1D99
102
{ACAD_XDICTIONARY
360
1E08
102
}
102
{ACAD_REACTORS
330
1D81
102
}
330
1D81
100
AcDbVisualStyle
  2
EdgeColorOff
 70
    22
 71
     2
 72
     2
 73
     0
 90
        0
 40
-0.6
 41
-30.0
 62
     5
 63
     7
 74
     1
 91
        4
 64
     7
 65
   257
 75
     1
175
     1
 42
1.0
 92
        8
 66
     7
 43
1.0
 76
     1
 77
     6
 78
     2
 67
     7
 79
     5
170
     0
171
     0
290
     0
174
     0
 93
        1
 44
0.0
173
     0
291
     1
 45
0.0
1001
ACAD
1000
AcDbSavedByObjectVersion
1070
     0
  0
VISUALSTYLE
  5
1D90
102
{ACAD_XDICTIONARY
360
1DF6
102
}
102
{ACAD_REACTORS
330
1D81
102
}
330
1D81
100
AcDbVisualStyle
  2
Facepattern
 70
    15
 71
     2
 72
     2
 73
     0
 90
        0
 40
-0.6
 41
-30.0
 62
     5
 63
     7
 74
     1
 91
        4
 64
     7
 65
   257
 75
     1
175
     1
 42
1.0
 92
        8
 66
     7
 43
1.0
 76
     1
 77
     6
 78
     2
 67
     7
 79
     5
170
     0
171
     0
290
     0
174
     0
 93
        1
 44
0.0
173
     0
291
     1
 45
0.0
1001
ACAD
1000
AcDbSavedByObjectVersion
1070
     0
  0
VISUALSTYLE
  5
1D82
102
{ACAD_XDICTIONARY
360
1DDA
102
}
102
{ACAD_REACTORS
330
1D81
102
}
330
1D81
100
AcDbVisualStyle
  2
Flat
 70
     0
 71
     2
 72
     1
 73
     1
 90
        2
 40
-0.6
 41
30.0
 62
     5
 63
     7
 74
     0
 91
        0
 64
     7
 65
   257
 75
     1
175
     1
 42
1.0
 92
        8
 66
     7
 43
1.0
 76
     1
 77
     6
 78
     2
 67
     7
 79
     5
170
     0
171
     0
290
     0
174
     0
 93
       13
 44
0.0
173
     0
291
     1
 45
0.0
1001
ACAD
1000
AcDbSavedByObjectVersion
1070
     0
  0
VISUALSTYLE
  5
1D83
102
{ACAD_XDICTIONARY
360
1DDC
102
}
102
{ACAD_REACTORS
330
1D81
102
}
330
1D81
100
AcDbVisualStyle
  2
FlatWithEdges
 70
     1
 71
     2
 72
     1
 73
     1
 90
        2
 40
-0.6
 41
30.0
 62
     5
 63
     7
 74
     1
 91
        0
 64
     7
 65
   257
 75
     1
175
     1
 42
1.0
 92
        0
 66
   257
 43
1.0
 76
     1
 77
     6
 78
     2
 67
     7
 79
     5
170
     0
171
     0
290
     0
174
     0
 93
       13
 44
0.0
173
     0
291
     1
 45
0.0
1001
ACAD
1000
AcDbSavedByObjectVersion
1070
     0
  0
VISUALSTYLE
  5
1D84
102
{ACAD_XDICTIONARY
360
1DDE
102
}
102
{ACAD_REACTORS
330
1D81
102
}
330
1D81
100
AcDbVisualStyle
  2
Gouraud
 70
     2
 71
     2
 72
     2
 73
     1
 90
        2
 40
-0.6
 41
30.0
 62
     5
 63
     7
 74
     0
 91
        0
 64
     7
 65
   257
 75
     1
175
     1
 42
1.0
 92
        0
 66
     7
 43
1.0
 76
     1
 77
     6
 78
     2
 67
     7
 79
     5
170
     0
171
     0
290
     0
174
     0
 93
       13
 44
0.0
173
     0
291
     1
 45
0.0
1001
ACAD
1000
AcDbSavedByObjectVersion
1070
     0
  0
VISUALSTYLE
  5
1D85
102
{ACAD_XDICTIONARY
360
1DE0
102
}
102
{ACAD_REACTORS
330
1D81
102
}
330
1D81
100
AcDbVisualStyle
  2
GouraudWithEdges
 70
     3
 71
     2
 72
     2
 73
     1
 90
        2
 40
-0.6
 41
30.0
 62
     5
 63
     7
 74
     1
 91
        0
 64
     7
 65
   257
 75
     1
175
     1
 42
1.0
 92
        0
 66
   257
 43
1.0
 76
     1
 77
     6
 78
     2
 67
     7
 79
     5
170
     0
171
     0
290
     0
174
     0
 93
       13
 44
0.0
173
     0
291
     1
 45
0.0
1001
ACAD
1000
AcDbSavedByObjectVersion
1070
     0
  0
VISUALSTYLE
  5
1D89
102
{ACAD_XDICTIONARY
360
1DE8
102
}
102
{ACAD_REACTORS
330
1D81
102
}
330
1D81
100
AcDbVisualStyle
  2
Hidden
 70
     6
 71
     1
 72
     2
 73
     2
 90
        0
 40
-0.6
 41
-30.0
 62
     5
 63
     7
 74
     2
 91
        2
 64
     7
 65
   257
 75
     2
175
     1
 42
40.0
 92
        0
 66
   257
 43
1.0
 76
     1
 77
     6
 78
     2
 67
     7
 79
     3
170
     0
171
     0
290
     0
174
     0
 93
        1
 44
0.0
173
     0
291
     0
 45
0.0
1001
ACAD
1000
AcDbSavedByObjectVersion
1070
     0
  0
VISUALSTYLE
  5
1D97
102
{ACAD_XDICTIONARY
360
1E04
102
}
102
{ACAD_REACTORS
330
1D81
102
}
330
1D81
100
AcDbVisualStyle
  2
JitterOff
 70
    20
 71
     2
 72
     2
 73
     0
 90
        0
 40
-0.6
 41
-30.0
 62
     5
 63
     7
 74
     1
 91
        4
 64
     7
 65
   257
 75
     1
175
     1
 42
1.0
 92
       10
 66
     7
 43
1.0
 76
     1
 77
     6
 78
     2
 67
     7
 79
     5
170
     0
171
     0
290
     0
174
     0
 93
        1
 44
0.0
173
     0
291
     1
 45
0.0
1001
ACAD
1000
AcDbSavedByObjectVersion
1070
     0
  0
VISUALSTYLE
  5
1D8F
102
{ACAD_XDICTIONARY
360
1DF4
102
}
102
{ACAD_REACTORS
330
1D81
102
}
330
1D81
100
AcDbVisualStyle
  2
Linepattern
 70
    14
 71
     2
 72
     2
 73
     0
 90
        0
 40
-0.6
 41
-30.0
 62
     5
 63
     7
 74
     1
 91
        4
 64
     7
 65
   257
 75
     7
175
     7
 42
1.0
 92
        8
 66
     7
 43
1.0
 76
     1
 77
     6
 78
     2
 67
     7
 79
     5
170
     0
171
     0
290
     0
174
     0
 93
        1
 44
0.0
173
     0
291
     1
 45
0.0
1001
ACAD
1000
AcDbSavedByObjectVersion
1070
     0
  0
VISUALSTYLE
  5
1D98
102
{ACAD_XDICTIONARY
360
1E06
102
}
102
{ACAD_REACTORS
330
1D81
102
}
330
1D81
100
AcDbVisualStyle
  2
OverhangOff
 70
    21
 71
     2
 72
     2
 73
     0
 90
        0
 40
-0.6
 41
-30.0
 62
     5
 63
     7
 74
     1
 91
        4
 64
     7
 65
   257
 75
     1
175
     1
 42
1.0
 92
        9
 66
     7
 43
1.0
 76
     1
 77
     6
 78
     2
 67
     7
 79
     5
170
     0
171
     0
290
     0
174
     0
 93
        1
 44
0.0
173
     0
291
     1
 45
0.0
1001
ACAD
1000
AcDbSavedByObjectVersion
1070
     0
  0
VISUALSTYLE
  5
1D8B
102
{ACAD_XDICTIONARY
360
1DEC
102
}
102
{ACAD_REACTORS
330
1D81
102
}
330
1D81
100
AcDbVisualStyle
  2
Realistic
 70
     8
 71
     2
 72
     3
 73
     0
 90
        2
 40
-0.6
 41
30.0
 62
     5
 63
     7
 74
     0
 91
        0
 64
     7
 65
   257
 75
     1
175
     1
 42
1.0
 92
        8
 66
   257
 43
1.0
 76
     1
 77
     6
 78
     2
 67
     7
 79
     3
170
     0
171
     0
290
     0
174
     0
 93
       13
 44
0.0
173
     0
291
     0
 45
0.0
1001
ACAD
1000
AcDbSavedByObjectVersion
1070
     0
  0
VISUALSTYLE
  5
1D96
102
{ACAD_XDICTIONARY
360
1E02
102
}
102
{ACAD_REACTORS
330
1D81
102
}
330
1D81
100
AcDbVisualStyle
  2
Shaded
 70
    27
 71
     2
 72
     2
 73
     1
 90
        2
 40
-0.6
 41
30.0
 62
     5
 63
     7
 74
     0
 91
        4
 64
     7
 65
   257
 75
     1
175
     1
 42
1.0
 92
        8
 66
   257
 43
1.0
 76
     1
 77
     6
 78
     2
 67
     8
 79
     3
170
     0
171
     0
290
     0
174
     0
 93
        5
 44
0.0
173
     0
291
     0
 45
0.0
1001
ACAD
1000
AcDbSavedByObjectVersion
1070
     0
  0
VISUALSTYLE
  5
1D95
102
{ACAD_XDICTIONARY
360
1E00
102
}
102
{ACAD_REACTORS
330
1D81
102
}
330
1D81
100
AcDbVisualStyle
  2
Shaded with edges
 70
    26
 71
     2
 72
     2
 73
     1
 90
        2
 40
-0.6
 41
30.0
 62
     5
 63
     7
 74
     1
 91
       10
 64
     7
 65
   257
 75
     2
175
     1
 42
1.0
 92
        8
 66
   257
 43
1.0
 76
     1
 77
     6
 78
     2
 67
     7
 79
     3
170
     0
171
     0
290
     0
174
     0
 93
        5
 44
0.0
173
     0
291
     0
 45
0.0
1001
ACAD
1000
AcDbSavedByObjectVersion
1070
     0
  0
VISUALSTYLE
  5
1D92
102
{ACAD_XDICTIONARY
360
1DFA
102
}
102
{ACAD_REACTORS
330
1D81
102
}
330
1D81
100
AcDbVisualStyle
  2
Shades of Gray
 70
    23
 71
     2
 72
     2
 73
     3
 90
        0
 40
-0.6
 41
-30.0
 62
     5
 63
     7
 74
     2
 91
        2
 64
     7
 65
     7
 75
     1
175
     1
 42
40.0
 92
        8
 66
     7
 43
1.0
 76
     1
 77
     6
 78
     2
 67
     7
 79
     3
170
     0
171
     0
290
     0
174
     0
 93
        1
 44
0.0
173
     0
291
     0
 45
0.0
1001
ACAD
1000
AcDbSavedByObjectVersion
1070
     0
  0
VISUALSTYLE
  5
1D93
102
{ACAD_XDICTIONARY
360
1DFC
102
}
102
{ACAD_REACTORS
330
1D81
102
}
330
1D81
100
AcDbVisualStyle
  2
Sketchy
 70
    24
 71
     1
 72
     2
 73
     2
 90
        0
 40
-0.6
 41
-30.0
 62
     5
 63
     7
 74
     2
 91
        2
 64
     7
 65
     7
 75
     1
175
     1
 42
40.0
 92
       11
 66
     7
 43
1.0
 76
     1
 77
     6
 78
     2
 67
     7
 79
     6
170
     0
171
     0
290
     0
174
     0
 93
        1
 44
0.0
173
     0
291
     0
 45
0.0
1001
ACAD
1000
AcDbSavedByObjectVersion
1070
     0
  0
VISUALSTYLE
  5
1D8E
102
{ACAD_XDICTIONARY
360
1DF2
102
}
102
{ACAD_REACTORS
330
1D81
102
}
330
1D81
100
AcDbVisualStyle
  2
Thicken
 70
    13
 71
     2
 72
     2
 73
     0
 90
        0
 40
-0.6
 41
-30.0
 62
     5
 63
     7
 74
     1
 91
        4
 64
     7
 65
   257
 75
     1
175
     1
 42
1.0
 92
       12
 66
     7
 43
1.0
 76
     1
 77
     6
 78
     2
 67
     7
 79
     5
170
     0
171
     0
290
     0
174
     0
 93
        1
 44
0.0
173
     0
291
     1
 45
0.0
1001
ACAD
1000
AcDbSavedByObjectVersion
1070
     0
  0
VISUALSTYLE
  5
1D88
102
{ACAD_XDICTIONARY
360
1DE6
102
}
102
{ACAD_REACTORS
330
1D81
102
}
330
1D81
100
AcDbVisualStyle
  2
Wireframe
 70
     5
 71
     0
 72
     2
 73
     0
 90
        0
 40
-0.6
 41
-30.0
 62
     5
 63
     7
 74
     1
 91
        4
 64
     7
 65
   257
 75
     1
175
     1
 42
1.0
 92
        0
 66
   257
 43
1.0
 76
     1
 77
     6
 78
     2
 67
     7
 79
     3
170
     0
171
     0
290
     0
174
     0
 93
        1
 44
0.0
173
     0
291
     0
 45
0.0
1001
ACAD
1000
AcDbSavedByObjectVersion
1070
     0
  0
VISUALSTYLE
  5
1D94
102
{ACAD_XDICTIONARY
360
1DFE
102
}
102
{ACAD_REACTORS
330
1D81
102
}
330
1D81
100
AcDbVisualStyle
  2
X-Ray
 70
    25
 71
     2
 72
     2
 73
     1
 90
        1
 40
0.5
 41
-30.0
 62
     5
 63
     7
 74
     1
 91
        0
 64
     7
 65
   257
 75
     1
175
     1
 42
1.0
 92
        8
 66
     7
 43
1.0
 76
     1
 77
     6
 78
     2
 67
     7
 79
     3
170
     0
171
     0
290
     0
174
     0
 93
       13
 44
0.0
173
     0
291
     0
 45
0.0
1001
ACAD
1000
AcDbSavedByObjectVersion
1070
     0
  0
DICTIONARYVAR
  5
1DCD
102
{ACAD_REACTORS
330
1DC8
102
}
330
1DC8
100
DictionaryVariables
280
     0
  1
1:1
  0
DICTIONARYVAR
  5
1DCA
102
{ACAD_REACTORS
330
1DC8
102
}
330
1DC8
100
DictionaryVariables
280
     0
  1
STANDARD
  0
DICTIONARYVAR
  5
1DC9
102
{ACAD_REACTORS
330
1DC8
102
}
330
1DC8
100
DictionaryVariables
280
     0
  1
STANDARD
  0
DICTIONARYVAR
  5
1DCB
102
{ACAD_REACTORS
330
1DC8
102
}
330
1DC8
100
DictionaryVariables
280
     0
  1
Imperial24
  0
DICTIONARYVAR
  5
1DCC
102
{ACAD_REACTORS
330
1DC8
102
}
330
1DC8
100
DictionaryVariables
280
     0
  1
Imperial24
  0
DICTIONARYVAR
  5
1DD0
102
{ACAD_REACTORS
330
1DC8
102
}
330
1DC8
100
DictionaryVariables
280
     0
  1
1
  0
DICTIONARYVAR
  5
1DCF
102
{ACAD_REACTORS
330
1DC8
102
}
330
1DC8
100
DictionaryVariables
280
     0
  1
0
  0
DICTIONARYVAR
  5
1DCE
102
{ACAD_REACTORS
330
1DC8
102
}
330
1DC8
100
DictionaryVariables
280
     0
  1
127
  0
DICTIONARYVAR
  5
1DD1
102
{ACAD_REACTORS
330
1DC8
102
}
330
1DC8
100
DictionaryVariables
280
     0
  1
2
  0
DICTIONARY
  5
1E0E
330
1DB4
100
AcDbDictionary
280
     1
281
     1
  3
ACAD_XREC_ROUNDTRIP
360
1E0F
  0
DICTIONARY
  5
1E10
330
1DB5
100
AcDbDictionary
280
     1
281
     1
  3
ACAD_XREC_ROUNDTRIP
360
1E11
  0
DICTIONARY
  5
1E12
330
1DB6
100
AcDbDictionary
280
     1
281
     1
  3
ACAD_XREC_ROUNDTRIP
360
1E13
  0
DICTIONARY
  5
1D72
330
1D71
100
AcDbDictionary
280
     1
281
     1
  3
ACAD_XREC_ROUNDTRIP
360
1DD8
  3
BUMPTILE
360
1D74
  3
DIFFUSETILE
360
1D73
  3
OPACITYTILE
360
1D77
  3
REFLECTIONTILE
360
1D76
  3
REFRACTIONTILE
360
1D78
  3
SPECULARTILE
360
1D75
  0
DICTIONARY
  5
1D6A
330
1D69
100
AcDbDictionary
280
     1
281
     1
  3
ACAD_XREC_ROUNDTRIP
360
1DD7
  3
BUMPTILE
360
1D6C
  3
DIFFUSETILE
360
1D6B
  3
OPACITYTILE
360
1D6F
  3
REFLECTIONTILE
360
1D6E
  3
REFRACTIONTILE
360
1D70
  3
SPECULARTILE
360
1D6D
  0
DICTIONARY
  5
1D7A
330
1D79
100
AcDbDictionary
280
     1
281
     1
  3
ACAD_XREC_ROUNDTRIP
360
1DD9
  3
BUMPTILE
360
1D7C
  3
DIFFUSETILE
360
1D7B
  3
OPACITYTILE
360
1D7F
  3
REFLECTIONTILE
360
1D7E
  3
REFRACTIONTILE
360
1D80
  3
SPECULARTILE
360
1D7D
  0
DICTIONARY
  5
1E0C
330
1DB2
100
AcDbDictionary
280
     1
281
     1
  3
ACAD_XREC_ROUNDTRIP
360
1E0D
  0
DICTIONARY
  5
1DD3
330
1D9C
100
AcDbDictionary
280
     1
281
     1
  3
ACAD_ROUNDTRIP_2008_TABLESTYLE_CELLSTYLEMAP
360
1DD4
  3
ACAD_XREC_ROUNDTRIP
360
1E0A
  0
DICTIONARY
  5
1DE4
330
1D87
100
AcDbDictionary
280
     1
281
     1
  3
ACAD_XREC_ROUNDTRIP
360
1DE5
  0
DICTIONARY
  5
1DE2
330
1D86
100
AcDbDictionary
280
     1
281
     1
  3
ACAD_XREC_ROUNDTRIP
360
1DE3
  0
DICTIONARY
  5
1DF0
330
1D8D
100
AcDbDictionary
280
     1
281
     1
  3
ACAD_XREC_ROUNDTRIP
360
1DF1
  0
DICTIONARY
  5
1DF8
330
1D91
100
AcDbDictionary
280
     1
281
     1
  3
ACAD_XREC_ROUNDTRIP
360
1DF9
  0
DICTIONARY
  5
1DEA
330
1D8A
100
AcDbDictionary
280
     1
281
     1
  3
ACAD_XREC_ROUNDTRIP
360
1DEB
  0
DICTIONARY
  5
1DEE
330
1D8C
100
AcDbDictionary
280
     1
281
     1
  3
ACAD_XREC_ROUNDTRIP
360
1DEF
  0
DICTIONARY
  5
1E08
330
1D99
100
AcDbDictionary
280
     1
281
     1
  3
ACAD_XREC_ROUNDTRIP
360
1E09
  0
DICTIONARY
  5
1DF6
330
1D90
100
AcDbDictionary
280
     1
281
     1
  3
ACAD_XREC_ROUNDTRIP
360
1DF7
  0
DICTIONARY
  5
1DDA
330
1D82
100
AcDbDictionary
280
     1
281
     1
  3
ACAD_XREC_ROUNDTRIP
360
1DDB
  0
DICTIONARY
  5
1DDC
330
1D83
100
AcDbDictionary
280
     1
281
     1
  3
ACAD_XREC_ROUNDTRIP
360
1DDD
  0
DICTIONARY
  5
1DDE
330
1D84
100
AcDbDictionary
280
     1
281
     1
  3
ACAD_XREC_ROUNDTRIP
360
1DDF
  0
DICTIONARY
  5
1DE0
330
1D85
100
AcDbDictionary
280
     1
281
     1
  3
ACAD_XREC_ROUNDTRIP
360
1DE1
  0
DICTIONARY
  5
1DE8
330
1D89
100
AcDbDictionary
280
     1
281
     1
  3
ACAD_XREC_ROUNDTRIP
360
1DE9
  0
DICTIONARY
  5
1E04
330
1D97
100
AcDbDictionary
280
     1
281
     1
  3
ACAD_XREC_ROUNDTRIP
360
1E05
  0
DICTIONARY
  5
1DF4
330
1D8F
100
AcDbDictionary
280
     1
281
     1
  3
ACAD_XREC_ROUNDTRIP
360
1DF5
  0
DICTIONARY
  5
1E06
330
1D98
100
AcDbDictionary
280
     1
281
     1
  3
ACAD_XREC_ROUNDTRIP
360
1E07
  0
DICTIONARY
  5
1DEC
330
1D8B
100
AcDbDictionary
280
     1
281
     1
  3
ACAD_XREC_ROUNDTRIP
360
1DED
  0
DICTIONARY
  5
1E02
330
1D96
100
AcDbDictionary
280
     1
281
     1
  3
ACAD_XREC_ROUNDTRIP
360
1E03
  0
DICTIONARY
  5
1E00
330
1D95
100
AcDbDictionary
280
     1
281
     1
  3
ACAD_XREC_ROUNDTRIP
360
1E01
  0
DICTIONARY
  5
1DFA
330
1D92
100
AcDbDictionary
280
     1
281
     1
  3
ACAD_XREC_ROUNDTRIP
360
1DFB
  0
DICTIONARY
  5
1DFC
330
1D93
100
AcDbDictionary
280
     1
281
     1
  3
ACAD_XREC_ROUNDTRIP
360
1DFD
  0
DICTIONARY
  5
1DF2
330
1D8E
100
AcDbDictionary
280
     1
281
     1
  3
ACAD_XREC_ROUNDTRIP
360
1DF3
  0
DICTIONARY
  5
1DE6
330
1D88
100
AcDbDictionary
280
     1
281
     1
  3
ACAD_XREC_ROUNDTRIP
360
1DE7
  0
DICTIONARY
  5
1DFE
330
1D94
100
AcDbDictionary
280
     1
281
     1
  3
ACAD_XREC_ROUNDTRIP
360
1DFF
  0
XRECORD
  5
1E0F
102
{ACAD_REACTORS
330
1E0E
102
}
330
1E0E
100
AcDbXrecord
280
     1
102
DISPLAYNAME
  1
Imperial24
102
FLAGS
 90
        0
  0
XRECORD
  5
1E11
102
{ACAD_REACTORS
330
1E10
102
}
330
1E10
100
AcDbXrecord
280
     1
102
SHADEPLOT
 70
     0
102
SHADEPLOTRESLEVEL
 70
     2
102
SHADEPLOTCUSTOMDPI
 70
   300
  0
XRECORD
  5
1E13
102
{ACAD_REACTORS
330
1E12
102
}
330
1E12
100
AcDbXrecord
280
     1
102
SHADEPLOT
 70
     0
102
SHADEPLOTRESLEVEL
 70
     2
102
SHADEPLOTCUSTOMDPI
 70
   300
  0
XRECORD
  5
1DD8
102
{ACAD_REACTORS
330
1D72
102
}
330
1D72
100
AcDbXrecord
280
     1
102
MATERIAL
148
0.0
149
0.0
149
0.0
 93
        0
 94
      127
282
     0
 72
     0
 77
     0
171
     0
175
     0
179
     0
273
     0
  0
XRECORD
  5
1D74
102
{ACAD_REACTORS
330
1D72
102
}
330
1D72
100
AcDbXrecord
280
     1
270
     1
271
     1
  0
XRECORD
  5
1D73
102
{ACAD_REACTORS
330
1D72
102
}
330
1D72
100
AcDbXrecord
280
     1
270
     1
271
     1
  0
XRECORD
  5
1D77
102
{ACAD_REACTORS
330
1D72
102
}
330
1D72
100
AcDbXrecord
280
     1
270
     1
271
     1
  0
XRECORD
  5
1D76
102
{ACAD_REACTORS
330
1D72
102
}
330
1D72
100
AcDbXrecord
280
     1
270
     1
271
     1
  0
XRECORD
  5
1D78
102
{ACAD_REACTORS
330
1D72
102
}
330
1D72
100
AcDbXrecord
280
     1
270
     1
271
     1
  0
XRECORD
  5
1D75
102
{ACAD_REACTORS
330
1D72
102
}
330
1D72
100
AcDbXrecord
280
     1
270
     1
271
     1
  0
XRECORD
  5
1DD7
102
{ACAD_REACTORS
330
1D6A
102
}
330
1D6A
100
AcDbXrecord
280
     1
102
MATERIAL
148
0.0
149
0.0
149
0.0
 93
        0
 94
      127
282
     0
 72
     0
 77
     0
171
     0
175
     0
179
     0
273
     0
  0
XRECORD
  5
1D6C
102
{ACAD_REACTORS
330
1D6A
102
}
330
1D6A
100
AcDbXrecord
280
     1
270
     1
271
     1
  0
XRECORD
  5
1D6B
102
{ACAD_REACTORS
330
1D6A
102
}
330
1D6A
100
AcDbXrecord
280
     1
270
     1
271
     1
  0
XRECORD
  5
1D6F
102
{ACAD_REACTORS
330
1D6A
102
}
330
1D6A
100
AcDbXrecord
280
     1
270
     1
271
     1
  0
XRECORD
  5
1D6E
102
{ACAD_REACTORS
330
1D6A
102
}
330
1D6A
100
AcDbXrecord
280
     1
270
     1
271
     1
  0
XRECORD
  5
1D70
102
{ACAD_REACTORS
330
1D6A
102
}
330
1D6A
100
AcDbXrecord
280
     1
270
     1
271
     1
  0
XRECORD
  5
1D6D
102
{ACAD_REACTORS
330
1D6A
102
}
330
1D6A
100
AcDbXrecord
280
     1
270
     1
271
     1
  0
XRECORD
  5
1DD9
102
{ACAD_REACTORS
330
1D7A
102
}
330
1D7A
100
AcDbXrecord
280
     1
102
MATERIAL
148
0.0
149
0.0
149
0.0
 93
        0
 94
      127
282
     0
 72
     0
 77
     0
171
     0
175
     0
179
     0
273
     0
  0
XRECORD
  5
1D7C
102
{ACAD_REACTORS
330
1D7A
102
}
330
1D7A
100
AcDbXrecord
280
     1
270
     1
271
     1
  0
XRECORD
  5
1D7B
102
{ACAD_REACTORS
330
1D7A
102
}
330
1D7A
100
AcDbXrecord
280
     1
270
     1
271
     1
  0
XRECORD
  5
1D7F
102
{ACAD_REACTORS
330
1D7A
102
}
330
1D7A
100
AcDbXrecord
280
     1
270
     1
271
     1
  0
XRECORD
  5
1D7E
102
{ACAD_REACTORS
330
1D7A
102
}
330
1D7A
100
AcDbXrecord
280
     1
270
     1
271
     1
  0
XRECORD
  5
1D80
102
{ACAD_REACTORS
330
1D7A
102
}
330
1D7A
100
AcDbXrecord
280
     1
270
     1
271
     1
  0
XRECORD
  5
1D7D
102
{ACAD_REACTORS
330
1D7A
102
}
330
1D7A
100
AcDbXrecord
280
     1
270
     1
271
     1
  0
XRECORD
  5
1E0D
102
{ACAD_REACTORS
330
1E0C
102
}
330
1E0C
100
AcDbXrecord
280
     1
102
DISPLAYNAME
  1
Imperial24
102
FLAGS
 90
        0
  0
CELLSTYLEMAP
  5
1DD4
102
{ACAD_REACTORS
330
1DD3
102
}
330
1DD3
100
AcDbCellStyleMap
 90
        3
300
CELLSTYLE
  1
TABLEFORMAT_BEGIN
 90
        5
170
     1
 91
        0
 92
    32768
 62
   257
 93
        1
300
CONTENTFORMAT
  1
CONTENTFORMAT_BEGIN
 90
        0
 91
        0
 92
      512
 93
        0
300

 40
0.0
140
1.0
 94
        5
 62
     0
340
F
144
0.25
309
CONTENTFORMAT_END
171
     0
 94
        0
309
TABLEFORMAT_END
  1
CELLSTYLE_BEGIN
 90
        1
 91
        1
300
_TITLE
309
CELLSTYLE_END
300
CELLSTYLE
  1
TABLEFORMAT_BEGIN
 90
        5
170
     1
 91
        0
 92
        0
 62
   257
 93
        1
300
CONTENTFORMAT
  1
CONTENTFORMAT_BEGIN
 90
        0
 91
        0
 92
      512
 93
        0
300

 40
0.0
140
1.0
 94
        5
 62
     0
340
F
144
0.18
309
CONTENTFORMAT_END
171
     0
 94
        0
309
TABLEFORMAT_END
  1
CELLSTYLE_BEGIN
 90
        2
 91
        1
300
_HEADER
309
CELLSTYLE_END
300
CELLSTYLE
  1
TABLEFORMAT_BEGIN
 90
        5
170
     1
 91
        0
 92
        0
 62
   257
 93
        1
300
CONTENTFORMAT
  1
CONTENTFORMAT_BEGIN
 90
        0
 91
        0
 92
      512
 93
        0
300

 40
0.0
140
1.0
 94
        2
 62
     0
340
F
144
0.18
309
CONTENTFORMAT_END
171
     0
 94
        0
309
TABLEFORMAT_END
  1
CELLSTYLE_BEGIN
 90
        3
 91
        2
300
_DATA
309
CELLSTYLE_END
  0
XRECORD
  5
1E0A
102
{ACAD_REACTORS
330
1DD3
102
}
330
1DD3
100
AcDbXrecord
280
     1
102
ACAD_ROUNDTRIP_PRE2007_TABLESTYLE
 90
      512
 91
        0
  1

 92
      512
 93
        0
  2

 94
      512
 95
        0
  3

  0
XRECORD
  5
1DE5
102
{ACAD_REACTORS
330
1DE4
102
}
330
1DE4
100
AcDbXrecord
280
     1
102
RTVSPost2010Prop28
280
     1
102
RTVSPost2010PropOp28
 70
     1
102
RTVSPost2010Prop29
280
     1
102
RTVSPost2010PropOp29
 70
     1
102
RTVSPost2010Prop30
280
     0
102
RTVSPost2010PropOp30
 70
     1
102
RTVSPost2010Prop31
280
     0
102
RTVSPost2010PropOp31
 70
     1
102
RTVSPost2010Prop32
280
     0
102
RTVSPost2010PropOp32
 70
     1
102
RTVSPost2010Prop33
280
     0
102
RTVSPost2010PropOp33
 70
     1
102
RTVSPost2010Prop34
280
     0
102
RTVSPost2010PropOp34
 70
     1
102
RTVSPost2010Prop35
280
     0
102
RTVSPost2010PropOp35
 70
     1
102
RTVSPost2010Prop36
280
     0
102
RTVSPost2010PropOp36
 70
     1
102
RTVSPost2010Prop37
 90
       50
102
RTVSPost2010PropOp37
 70
     1
102
RTVSPost2010Prop38
140
0.0
102
RTVSPost2010PropOp38
 70
     1
102
RTVSPost2010Prop39
140
1.0
102
RTVSPost2010PropOp39
 70
     1
102
RTVSPost2010Prop40
 90
        0
102
RTVSPost2010PropOp40
 70
     1
102
RTVSPost2010Prop41ColorIndex
 90
       18
102
RTVSPost2010Prop41ColorRGB
 90
        0
102
RTVSPost2010PropOp41
 70
     1
102
RTVSPost2010Prop42
 90
       50
102
RTVSPost2010PropOp42
 70
     1
102
RTVSPost2010Prop43
 90
        3
102
RTVSPost2010PropOp43
 70
     1
102
RTVSPost2010Prop44ColorIndex
 90
        5
102
RTVSPost2010Prop44ColorRGB
 90
      255
102
RTVSPost2010PropOp44
 70
     1
102
RTVSPost2010Prop45
280
     0
102
RTVSPost2010PropOp45
 70
     1
102
RTVSPost2010Prop46
 90
       50
102
RTVSPost2010PropOp46
 70
     1
102
RTVSPost2010Prop47
 90
       50
102
RTVSPost2010PropOp47
 70
     1
102
RTVSPost2010Prop48
 90
       50
102
RTVSPost2010PropOp48
 70
     1
102
RTVSPost2010Prop49
280
     0
102
RTVSPost2010PropOp49
 70
     1
102
RTVSPost2010Prop50
 90
       50
102
RTVSPost2010PropOp50
 70
     1
102
RTVSPost2010Prop51ColorIndex
 90
      256
102
RTVSPost2010Prop51ColorRGB
 90
-16777216
102
RTVSPost2010PropOp51
 70
     0
102
RTVSPost2010Prop52
140
1.0
102
RTVSPost2010PropOp52
 70
     0
102
RTVSPost2010Prop53
 90
        2
102
RTVSPost2010PropOp53
 70
     1
102
RTVSPost2010Prop54
  1
strokes_ogs.tif
102
RTVSPost2010PropOp54
 70
     1
102
RTVSPost2010Prop55
280
     0
102
RTVSPost2010PropOp55
 70
     1
102
RTVSPost2010Prop56
140
1.0
102
RTVSPost2010PropOp56
 70
     1
102
RTVSPost2010Prop57
140
1.0
102
RTVSPost2010PropOp57
 70
     1
102
RTVSPropertyOp0
 70
     1
102
RTVSPropertyOp1
 70
     1
102
RTVSPropertyOp2
 70
     1
102
RTVSPropertyOp3
 70
     1
102
RTVSPropertyOp4
 70
     1
102
RTVSPropertyOp5
 70
     1
102
RTVSPropertyOp6
 70
     1
102
RTVSPropertyOp7
 70
     1
102
RTVSPropertyOp8
 70
     1
102
RTVSPropertyOp9
 70
     1
102
RTVSPropertyOp10
 70
     1
102
RTVSPropertyOp11
 70
     1
102
RTVSPropertyOp12
 70
     1
102
RTVSPropertyOp13
 70
     1
102
RTVSPropertyOp14
 70
     1
102
RTVSPropertyOp15
 70
     1
102
RTVSPropertyOp16
 70
     1
102
RTVSPropertyOp17
 70
     1
102
RTVSPropertyOp18
 70
     1
102
RTVSPropertyOp19
 70
     1
102
RTVSPropertyOp20
 70
     1
102
RTVSPropertyOp21
 70
     1
102
RTVSPropertyOp22
 70
     1
102
RTVSPropertyOp23
 70
     1
102
RTVSPropertyOp24
 70
     1
102
RTVSPropertyOp25
 70
     1
102
RTVSPropertyOp26
 70
     1
102
RTVSPropertyOp27
 70
     1
102
RTVSPropertyOp28
 70
     1
102
RTVSPropertyOp29
 70
     1
102
RTVSPropertyOp30
 70
     1
102
RTVSPropertyOp31
 70
     1
102
RTVSPropertyOp32
 70
     1
102
RTVSPropertyOp33
 70
     1
102
RTVSPropertyOp34
 70
     1
102
RTVSPropertyOp35
 70
     1
102
RTVSPropertyOp36
 70
     1
102
RTVSPropertyOp37
 70
     1
102
RTVSPropertyOp38
 70
     1
102
RTVSPropertyOp39
 70
     1
102
RTVSPropertyOp40
 70
     1
102
RTVSPropertyOp41
 70
     1
102
RTVSPropertyOp42
 70
     1
102
RTVSPropertyOp43
 70
     1
102
RTVSPropertyOp44
 70
     1
102
RTVSPropertyOp45
 70
     1
102
RTVSPropertyOp46
 70
     1
102
RTVSPropertyOp47
 70
     1
102
RTVSPropertyOp48
 70
     1
102
RTVSPropertyOp49
 70
     1
102
RTVSPropertyOp50
 70
     1
102
RTVSPropertyOp51
 70
     0
102
RTVSPropertyOp52
 70
     0
102
RTVSPropertyOp53
 70
     1
102
RTVSPropertyOp54
 70
     1
102
RTVSPropertyOp55
 70
     1
102
RTVSPropertyOp56
 70
     1
102
RTVSPropertyOp57
 70
     1
102
RTVSPropertyOp58
 70
     1
102
RTVSPropertyOp59
 70
     1
102
RTVSPropertyOp60
 70
     1
102
RTVSPropertyOp61
 70
     1
102
RTVSPropertyOp62
 70
     1
  0
XRECORD
  5
1DE3
102
{ACAD_REACTORS
330
1DE2
102
}
330
1DE2
100
AcDbXrecord
280
     1
102
RTVSPost2010Prop28
280
     0
102
RTVSPost2010PropOp28
 70
     1
102
RTVSPost2010Prop29
280
     1
102
RTVSPost2010PropOp29
 70
     1
102
RTVSPost2010Prop30
280
     1
102
RTVSPost2010PropOp30
 70
     1
102
RTVSPost2010Prop31
280
     0
102
RTVSPost2010PropOp31
 70
     1
102
RTVSPost2010Prop32
280
     0
102
RTVSPost2010PropOp32
 70
     1
102
RTVSPost2010Prop33
280
     0
102
RTVSPost2010PropOp33
 70
     1
102
RTVSPost2010Prop34
280
     0
102
RTVSPost2010PropOp34
 70
     1
102
RTVSPost2010Prop35
280
     0
102
RTVSPost2010PropOp35
 70
     1
102
RTVSPost2010Prop36
280
     0
102
RTVSPost2010PropOp36
 70
     1
102
RTVSPost2010Prop37
 90
       50
102
RTVSPost2010PropOp37
 70
     1
102
RTVSPost2010Prop38
140
0.0
102
RTVSPost2010PropOp38
 70
     1
102
RTVSPost2010Prop39
140
1.0
102
RTVSPost2010PropOp39
 70
     1
102
RTVSPost2010Prop40
 90
        0
102
RTVSPost2010PropOp40
 70
     1
102
RTVSPost2010Prop41ColorIndex
 90
       18
102
RTVSPost2010Prop41ColorRGB
 90
        0
102
RTVSPost2010PropOp41
 70
     1
102
RTVSPost2010Prop42
 90
       50
102
RTVSPost2010PropOp42
 70
     1
102
RTVSPost2010Prop43
 90
        3
102
RTVSPost2010PropOp43
 70
     1
102
RTVSPost2010Prop44ColorIndex
 90
        5
102
RTVSPost2010Prop44ColorRGB
 90
      255
102
RTVSPost2010PropOp44
 70
     1
102
RTVSPost2010Prop45
280
     0
102
RTVSPost2010PropOp45
 70
     1
102
RTVSPost2010Prop46
 90
       50
102
RTVSPost2010PropOp46
 70
     1
102
RTVSPost2010Prop47
 90
       50
102
RTVSPost2010PropOp47
 70
     1
102
RTVSPost2010Prop48
 90
       50
102
RTVSPost2010PropOp48
 70
     1
102
RTVSPost2010Prop49
280
     0
102
RTVSPost2010PropOp49
 70
     1
102
RTVSPost2010Prop50
 90
       50
102
RTVSPost2010PropOp50
 70
     1
102
RTVSPost2010Prop51ColorIndex
 90
      256
102
RTVSPost2010Prop51ColorRGB
 90
-16777216
102
RTVSPost2010PropOp51
 70
     0
102
RTVSPost2010Prop52
140
1.0
102
RTVSPost2010PropOp52
 70
     0
102
RTVSPost2010Prop53
 90
        2
102
RTVSPost2010PropOp53
 70
     1
102
RTVSPost2010Prop54
  1
strokes_ogs.tif
102
RTVSPost2010PropOp54
 70
     1
102
RTVSPost2010Prop55
280
     0
102
RTVSPost2010PropOp55
 70
     1
102
RTVSPost2010Prop56
140
1.0
102
RTVSPost2010PropOp56
 70
     1
102
RTVSPost2010Prop57
140
1.0
102
RTVSPost2010PropOp57
 70
     1
102
RTVSPropertyOp0
 70
     1
102
RTVSPropertyOp1
 70
     1
102
RTVSPropertyOp2
 70
     1
102
RTVSPropertyOp3
 70
     1
102
RTVSPropertyOp4
 70
     1
102
RTVSPropertyOp5
 70
     1
102
RTVSPropertyOp6
 70
     1
102
RTVSPropertyOp7
 70
     1
102
RTVSPropertyOp8
 70
     1
102
RTVSPropertyOp9
 70
     1
102
RTVSPropertyOp10
 70
     1
102
RTVSPropertyOp11
 70
     1
102
RTVSPropertyOp12
 70
     1
102
RTVSPropertyOp13
 70
     1
102
RTVSPropertyOp14
 70
     1
102
RTVSPropertyOp15
 70
     1
102
RTVSPropertyOp16
 70
     1
102
RTVSPropertyOp17
 70
     1
102
RTVSPropertyOp18
 70
     1
102
RTVSPropertyOp19
 70
     1
102
RTVSPropertyOp20
 70
     1
102
RTVSPropertyOp21
 70
     1
102
RTVSPropertyOp22
 70
     1
102
RTVSPropertyOp23
 70
     1
102
RTVSPropertyOp24
 70
     1
102
RTVSPropertyOp25
 70
     1
102
RTVSPropertyOp26
 70
     1
102
RTVSPropertyOp27
 70
     1
102
RTVSPropertyOp28
 70
     1
102
RTVSPropertyOp29
 70
     1
102
RTVSPropertyOp30
 70
     1
102
RTVSPropertyOp31
 70
     1
102
RTVSPropertyOp32
 70
     1
102
RTVSPropertyOp33
 70
     1
102
RTVSPropertyOp34
 70
     1
102
RTVSPropertyOp35
 70
     1
102
RTVSPropertyOp36
 70
     1
102
RTVSPropertyOp37
 70
     1
102
RTVSPropertyOp38
 70
     1
102
RTVSPropertyOp39
 70
     1
102
RTVSPropertyOp40
 70
     1
102
RTVSPropertyOp41
 70
     1
102
RTVSPropertyOp42
 70
     1
102
RTVSPropertyOp43
 70
     1
102
RTVSPropertyOp44
 70
     1
102
RTVSPropertyOp45
 70
     1
102
RTVSPropertyOp46
 70
     1
102
RTVSPropertyOp47
 70
     1
102
RTVSPropertyOp48
 70
     1
102
RTVSPropertyOp49
 70
     1
102
RTVSPropertyOp50
 70
     1
102
RTVSPropertyOp51
 70
     0
102
RTVSPropertyOp52
 70
     0
102
RTVSPropertyOp53
 70
     1
102
RTVSPropertyOp54
 70
     1
102
RTVSPropertyOp55
 70
     1
102
RTVSPropertyOp56
 70
     1
102
RTVSPropertyOp57
 70
     1
102
RTVSPropertyOp58
 70
     1
102
RTVSPropertyOp59
 70
     1
102
RTVSPropertyOp60
 70
     1
102
RTVSPropertyOp61
 70
     1
102
RTVSPropertyOp62
 70
     1
  0
XRECORD
  5
1DF1
102
{ACAD_REACTORS
330
1DF0
102
}
330
1DF0
100
AcDbXrecord
280
     1
102
RTVSPost2010Prop28
280
     0
102
RTVSPost2010PropOp28
 70
     1
102
RTVSPost2010Prop29
280
     1
102
RTVSPost2010PropOp29
 70
     1
102
RTVSPost2010Prop30
280
     1
102
RTVSPost2010PropOp30
 70
     1
102
RTVSPost2010Prop31
280
     0
102
RTVSPost2010PropOp31
 70
     1
102
RTVSPost2010Prop32
280
     0
102
RTVSPost2010PropOp32
 70
     1
102
RTVSPost2010Prop33
280
     0
102
RTVSPost2010PropOp33
 70
     1
102
RTVSPost2010Prop34
280
     0
102
RTVSPost2010PropOp34
 70
     1
102
RTVSPost2010Prop35
280
     0
102
RTVSPost2010PropOp35
 70
     1
102
RTVSPost2010Prop36
280
     0
102
RTVSPost2010PropOp36
 70
     1
102
RTVSPost2010Prop37
 90
       50
102
RTVSPost2010PropOp37
 70
     1
102
RTVSPost2010Prop38
140
0.0
102
RTVSPost2010PropOp38
 70
     1
102
RTVSPost2010Prop39
140
1.0
102
RTVSPost2010PropOp39
 70
     1
102
RTVSPost2010Prop40
 90
        0
102
RTVSPost2010PropOp40
 70
     1
102
RTVSPost2010Prop41ColorIndex
 90
       18
102
RTVSPost2010Prop41ColorRGB
 90
        0
102
RTVSPost2010PropOp41
 70
     1
102
RTVSPost2010Prop42
 90
       50
102
RTVSPost2010PropOp42
 70
     1
102
RTVSPost2010Prop43
 90
        3
102
RTVSPost2010PropOp43
 70
     1
102
RTVSPost2010Prop44ColorIndex
 90
        5
102
RTVSPost2010Prop44ColorRGB
 90
      255
102
RTVSPost2010PropOp44
 70
     1
102
RTVSPost2010Prop45
280
     0
102
RTVSPost2010PropOp45
 70
     1
102
RTVSPost2010Prop46
 90
       50
102
RTVSPost2010PropOp46
 70
     1
102
RTVSPost2010Prop47
 90
       50
102
RTVSPost2010PropOp47
 70
     1
102
RTVSPost2010Prop48
 90
       50
102
RTVSPost2010PropOp48
 70
     1
102
RTVSPost2010Prop49
280
     0
102
RTVSPost2010PropOp49
 70
     1
102
RTVSPost2010Prop50
 90
       50
102
RTVSPost2010PropOp50
 70
     1
102
RTVSPost2010Prop51ColorIndex
 90
      256
102
RTVSPost2010Prop51ColorRGB
 90
-16777216
102
RTVSPost2010PropOp51
 70
     0
102
RTVSPost2010Prop52
140
1.0
102
RTVSPost2010PropOp52
 70
     0
102
RTVSPost2010Prop53
 90
        2
102
RTVSPost2010PropOp53
 70
     1
102
RTVSPost2010Prop54
  1
strokes_ogs.tif
102
RTVSPost2010PropOp54
 70
     1
102
RTVSPost2010Prop55
280
     0
102
RTVSPost2010PropOp55
 70
     1
102
RTVSPost2010Prop56
140
1.0
102
RTVSPost2010PropOp56
 70
     1
102
RTVSPost2010Prop57
140
1.0
102
RTVSPost2010PropOp57
 70
     1
102
RTVSPropertyOp0
 70
     1
102
RTVSPropertyOp1
 70
     1
102
RTVSPropertyOp2
 70
     1
102
RTVSPropertyOp3
 70
     1
102
RTVSPropertyOp4
 70
     1
102
RTVSPropertyOp5
 70
     1
102
RTVSPropertyOp6
 70
     1
102
RTVSPropertyOp7
 70
     1
102
RTVSPropertyOp8
 70
     1
102
RTVSPropertyOp9
 70
     1
102
RTVSPropertyOp10
 70
     1
102
RTVSPropertyOp11
 70
     1
102
RTVSPropertyOp12
 70
     1
102
RTVSPropertyOp13
 70
     1
102
RTVSPropertyOp14
 70
     1
102
RTVSPropertyOp15
 70
     1
102
RTVSPropertyOp16
 70
     1
102
RTVSPropertyOp17
 70
     1
102
RTVSPropertyOp18
 70
     1
102
RTVSPropertyOp19
 70
     1
102
RTVSPropertyOp20
 70
     1
102
RTVSPropertyOp21
 70
     1
102
RTVSPropertyOp22
 70
     1
102
RTVSPropertyOp23
 70
     1
102
RTVSPropertyOp24
 70
     1
102
RTVSPropertyOp25
 70
     1
102
RTVSPropertyOp26
 70
     1
102
RTVSPropertyOp27
 70
     1
102
RTVSPropertyOp28
 70
     1
102
RTVSPropertyOp29
 70
     1
102
RTVSPropertyOp30
 70
     1
102
RTVSPropertyOp31
 70
     1
102
RTVSPropertyOp32
 70
     1
102
RTVSPropertyOp33
 70
     1
102
RTVSPropertyOp34
 70
     1
102
RTVSPropertyOp35
 70
     1
102
RTVSPropertyOp36
 70
     1
102
RTVSPropertyOp37
 70
     1
102
RTVSPropertyOp38
 70
     1
102
RTVSPropertyOp39
 70
     1
102
RTVSPropertyOp40
 70
     1
102
RTVSPropertyOp41
 70
     1
102
RTVSPropertyOp42
 70
     1
102
RTVSPropertyOp43
 70
     1
102
RTVSPropertyOp44
 70
     1
102
RTVSPropertyOp45
 70
     1
102
RTVSPropertyOp46
 70
     1
102
RTVSPropertyOp47
 70
     1
102
RTVSPropertyOp48
 70
     1
102
RTVSPropertyOp49
 70
     1
102
RTVSPropertyOp50
 70
     1
102
RTVSPropertyOp51
 70
     0
102
RTVSPropertyOp52
 70
     0
102
RTVSPropertyOp53
 70
     1
102
RTVSPropertyOp54
 70
     1
102
RTVSPropertyOp55
 70
     1
102
RTVSPropertyOp56
 70
     1
102
RTVSPropertyOp57
 70
     1
102
RTVSPropertyOp58
 70
     1
102
RTVSPropertyOp59
 70
     1
102
RTVSPropertyOp60
 70
     1
102
RTVSPropertyOp61
 70
     1
102
RTVSPropertyOp62
 70
     1
  0
XRECORD
  5
1DF9
102
{ACAD_REACTORS
330
1DF8
102
}
330
1DF8
100
AcDbXrecord
280
     1
102
RTVSPost2010Prop28
280
     0
102
RTVSPost2010PropOp28
 70
     1
102
RTVSPost2010Prop29
280
     1
102
RTVSPost2010PropOp29
 70
     1
102
RTVSPost2010Prop30
280
     1
102
RTVSPost2010PropOp30
 70
     1
102
RTVSPost2010Prop31
280
     0
102
RTVSPost2010PropOp31
 70
     1
102
RTVSPost2010Prop32
280
     0
102
RTVSPost2010PropOp32
 70
     1
102
RTVSPost2010Prop33
280
     0
102
RTVSPost2010PropOp33
 70
     1
102
RTVSPost2010Prop34
280
     0
102
RTVSPost2010PropOp34
 70
     1
102
RTVSPost2010Prop35
280
     0
102
RTVSPost2010PropOp35
 70
     1
102
RTVSPost2010Prop36
280
     0
102
RTVSPost2010PropOp36
 70
     1
102
RTVSPost2010Prop37
 90
       50
102
RTVSPost2010PropOp37
 70
     1
102
RTVSPost2010Prop38
140
0.0
102
RTVSPost2010PropOp38
 70
     1
102
RTVSPost2010Prop39
140
1.0
102
RTVSPost2010PropOp39
 70
     1
102
RTVSPost2010Prop40
 90
        0
102
RTVSPost2010PropOp40
 70
     1
102
RTVSPost2010Prop41ColorIndex
 90
       18
102
RTVSPost2010Prop41ColorRGB
 90
        0
102
RTVSPost2010PropOp41
 70
     1
102
RTVSPost2010Prop42
 90
       50
102
RTVSPost2010PropOp42
 70
     1
102
RTVSPost2010Prop43
 90
        3
102
RTVSPost2010PropOp43
 70
     1
102
RTVSPost2010Prop44ColorIndex
 90
        5
102
RTVSPost2010Prop44ColorRGB
 90
      255
102
RTVSPost2010PropOp44
 70
     1
102
RTVSPost2010Prop45
280
     0
102
RTVSPost2010PropOp45
 70
     1
102
RTVSPost2010Prop46
 90
       50
102
RTVSPost2010PropOp46
 70
     1
102
RTVSPost2010Prop47
 90
       50
102
RTVSPost2010PropOp47
 70
     1
102
RTVSPost2010Prop48
 90
       50
102
RTVSPost2010PropOp48
 70
     1
102
RTVSPost2010Prop49
280
     0
102
RTVSPost2010PropOp49
 70
     1
102
RTVSPost2010Prop50
 90
       50
102
RTVSPost2010PropOp50
 70
     1
102
RTVSPost2010Prop51ColorIndex
 90
      256
102
RTVSPost2010Prop51ColorRGB
 90
-16777216
102
RTVSPost2010PropOp51
 70
     0
102
RTVSPost2010Prop52
140
1.0
102
RTVSPost2010PropOp52
 70
     0
102
RTVSPost2010Prop53
 90
        2
102
RTVSPost2010PropOp53
 70
     1
102
RTVSPost2010Prop54
  1
strokes_ogs.tif
102
RTVSPost2010PropOp54
 70
     1
102
RTVSPost2010Prop55
280
     0
102
RTVSPost2010PropOp55
 70
     1
102
RTVSPost2010Prop56
140
1.0
102
RTVSPost2010PropOp56
 70
     1
102
RTVSPost2010Prop57
140
1.0
102
RTVSPost2010PropOp57
 70
     1
102
RTVSPropertyOp0
 70
     1
102
RTVSPropertyOp1
 70
     1
102
RTVSPropertyOp2
 70
     1
102
RTVSPropertyOp3
 70
     1
102
RTVSPropertyOp4
 70
     1
102
RTVSPropertyOp5
 70
     1
102
RTVSPropertyOp6
 70
     1
102
RTVSPropertyOp7
 70
     1
102
RTVSPropertyOp8
 70
     1
102
RTVSPropertyOp9
 70
     1
102
RTVSPropertyOp10
 70
     1
102
RTVSPropertyOp11
 70
     1
102
RTVSPropertyOp12
 70
     1
102
RTVSPropertyOp13
 70
     1
102
RTVSPropertyOp14
 70
     1
102
RTVSPropertyOp15
 70
     1
102
RTVSPropertyOp16
 70
     1
102
RTVSPropertyOp17
 70
     1
102
RTVSPropertyOp18
 70
     1
102
RTVSPropertyOp19
 70
     1
102
RTVSPropertyOp20
 70
     1
102
RTVSPropertyOp21
 70
     1
102
RTVSPropertyOp22
 70
     1
102
RTVSPropertyOp23
 70
     1
102
RTVSPropertyOp24
 70
     1
102
RTVSPropertyOp25
 70
     1
102
RTVSPropertyOp26
 70
     1
102
RTVSPropertyOp27
 70
     1
102
RTVSPropertyOp28
 70
     1
102
RTVSPropertyOp29
 70
     1
102
RTVSPropertyOp30
 70
     1
102
RTVSPropertyOp31
 70
     1
102
RTVSPropertyOp32
 70
     1
102
RTVSPropertyOp33
 70
     1
102
RTVSPropertyOp34
 70
     1
102
RTVSPropertyOp35
 70
     1
102
RTVSPropertyOp36
 70
     1
102
RTVSPropertyOp37
 70
     1
102
RTVSPropertyOp38
 70
     1
102
RTVSPropertyOp39
 70
     1
102
RTVSPropertyOp40
 70
     1
102
RTVSPropertyOp41
 70
     1
102
RTVSPropertyOp42
 70
     1
102
RTVSPropertyOp43
 70
     1
102
RTVSPropertyOp44
 70
     1
102
RTVSPropertyOp45
 70
     1
102
RTVSPropertyOp46
 70
     1
102
RTVSPropertyOp47
 70
     1
102
RTVSPropertyOp48
 70
     1
102
RTVSPropertyOp49
 70
     1
102
RTVSPropertyOp50
 70
     1
102
RTVSPropertyOp51
 70
     0
102
RTVSPropertyOp52
 70
     0
102
RTVSPropertyOp53
 70
     1
102
RTVSPropertyOp54
 70
     1
102
RTVSPropertyOp55
 70
     1
102
RTVSPropertyOp56
 70
     1
102
RTVSPropertyOp57
 70
     1
102
RTVSPropertyOp58
 70
     1
102
RTVSPropertyOp59
 70
     1
102
RTVSPropertyOp60
 70
     1
102
RTVSPropertyOp61
 70
     1
102
RTVSPropertyOp62
 70
     1
  0
XRECORD
  5
1DEB
102
{ACAD_REACTORS
330
1DEA
102
}
330
1DEA
100
AcDbXrecord
280
     1
102
RTVSPost2010Prop28
280
     0
102
RTVSPost2010PropOp28
 70
     1
102
RTVSPost2010Prop29
280
     1
102
RTVSPost2010PropOp29
 70
     1
102
RTVSPost2010Prop30
280
     1
102
RTVSPost2010PropOp30
 70
     1
102
RTVSPost2010Prop31
280
     0
102
RTVSPost2010PropOp31
 70
     1
102
RTVSPost2010Prop32
280
     0
102
RTVSPost2010PropOp32
 70
     1
102
RTVSPost2010Prop33
280
     0
102
RTVSPost2010PropOp33
 70
     1
102
RTVSPost2010Prop34
280
     0
102
RTVSPost2010PropOp34
 70
     1
102
RTVSPost2010Prop35
280
     0
102
RTVSPost2010PropOp35
 70
     1
102
RTVSPost2010Prop36
280
     0
102
RTVSPost2010PropOp36
 70
     1
102
RTVSPost2010Prop37
 90
       50
102
RTVSPost2010PropOp37
 70
     1
102
RTVSPost2010Prop38
140
0.0
102
RTVSPost2010PropOp38
 70
     1
102
RTVSPost2010Prop39
140
1.0
102
RTVSPost2010PropOp39
 70
     1
102
RTVSPost2010Prop40
 90
        0
102
RTVSPost2010PropOp40
 70
     1
102
RTVSPost2010Prop41ColorIndex
 90
       18
102
RTVSPost2010Prop41ColorRGB
 90
        0
102
RTVSPost2010PropOp41
 70
     1
102
RTVSPost2010Prop42
 90
       50
102
RTVSPost2010PropOp42
 70
     1
102
RTVSPost2010Prop43
 90
        3
102
RTVSPost2010PropOp43
 70
     1
102
RTVSPost2010Prop44ColorIndex
 90
        5
102
RTVSPost2010Prop44ColorRGB
 90
      255
102
RTVSPost2010PropOp44
 70
     1
102
RTVSPost2010Prop45
280
     0
102
RTVSPost2010PropOp45
 70
     1
102
RTVSPost2010Prop46
 90
       50
102
RTVSPost2010PropOp46
 70
     1
102
RTVSPost2010Prop47
 90
       50
102
RTVSPost2010PropOp47
 70
     1
102
RTVSPost2010Prop48
 90
       50
102
RTVSPost2010PropOp48
 70
     1
102
RTVSPost2010Prop49
280
     0
102
RTVSPost2010PropOp49
 70
     1
102
RTVSPost2010Prop50
 90
       50
102
RTVSPost2010PropOp50
 70
     1
102
RTVSPost2010Prop51ColorIndex
 90
      256
102
RTVSPost2010Prop51ColorRGB
 90
-16777216
102
RTVSPost2010PropOp51
 70
     0
102
RTVSPost2010Prop52
140
1.0
102
RTVSPost2010PropOp52
 70
     0
102
RTVSPost2010Prop53
 90
        2
102
RTVSPost2010PropOp53
 70
     1
102
RTVSPost2010Prop54
  1
strokes_ogs.tif
102
RTVSPost2010PropOp54
 70
     1
102
RTVSPost2010Prop55
280
     0
102
RTVSPost2010PropOp55
 70
     1
102
RTVSPost2010Prop56
140
1.0
102
RTVSPost2010PropOp56
 70
     1
102
RTVSPost2010Prop57
140
1.0
102
RTVSPost2010PropOp57
 70
     1
102
RTVSPropertyOp0
 70
     1
102
RTVSPropertyOp1
 70
     1
102
RTVSPropertyOp2
 70
     1
102
RTVSPropertyOp3
 70
     1
102
RTVSPropertyOp4
 70
     1
102
RTVSPropertyOp5
 70
     1
102
RTVSPropertyOp6
 70
     1
102
RTVSPropertyOp7
 70
     1
102
RTVSPropertyOp8
 70
     1
102
RTVSPropertyOp9
 70
     1
102
RTVSPropertyOp10
 70
     1
102
RTVSPropertyOp11
 70
     1
102
RTVSPropertyOp12
 70
     1
102
RTVSPropertyOp13
 70
     1
102
RTVSPropertyOp14
 70
     1
102
RTVSPropertyOp15
 70
     1
102
RTVSPropertyOp16
 70
     1
102
RTVSPropertyOp17
 70
     1
102
RTVSPropertyOp18
 70
     1
102
RTVSPropertyOp19
 70
     1
102
RTVSPropertyOp20
 70
     1
102
RTVSPropertyOp21
 70
     1
102
RTVSPropertyOp22
 70
     1
102
RTVSPropertyOp23
 70
     1
102
RTVSPropertyOp24
 70
     1
102
RTVSPropertyOp25
 70
     1
102
RTVSPropertyOp26
 70
     1
102
RTVSPropertyOp27
 70
     1
102
RTVSPropertyOp28
 70
     1
102
RTVSPropertyOp29
 70
     1
102
RTVSPropertyOp30
 70
     1
102
RTVSPropertyOp31
 70
     1
102
RTVSPropertyOp32
 70
     1
102
RTVSPropertyOp33
 70
     1
102
RTVSPropertyOp34
 70
     1
102
RTVSPropertyOp35
 70
     1
102
RTVSPropertyOp36
 70
     1
102
RTVSPropertyOp37
 70
     1
102
RTVSPropertyOp38
 70
     1
102
RTVSPropertyOp39
 70
     1
102
RTVSPropertyOp40
 70
     1
102
RTVSPropertyOp41
 70
     1
102
RTVSPropertyOp42
 70
     1
102
RTVSPropertyOp43
 70
     1
102
RTVSPropertyOp44
 70
     1
102
RTVSPropertyOp45
 70
     1
102
RTVSPropertyOp46
 70
     1
102
RTVSPropertyOp47
 70
     1
102
RTVSPropertyOp48
 70
     1
102
RTVSPropertyOp49
 70
     1
102
RTVSPropertyOp50
 70
     1
102
RTVSPropertyOp51
 70
     0
102
RTVSPropertyOp52
 70
     0
102
RTVSPropertyOp53
 70
     1
102
RTVSPropertyOp54
 70
     1
102
RTVSPropertyOp55
 70
     1
102
RTVSPropertyOp56
 70
     1
102
RTVSPropertyOp57
 70
     1
102
RTVSPropertyOp58
 70
     1
102
RTVSPropertyOp59
 70
     1
102
RTVSPropertyOp60
 70
     1
102
RTVSPropertyOp61
 70
     1
102
RTVSPropertyOp62
 70
     1
  0
XRECORD
  5
1DEF
102
{ACAD_REACTORS
330
1DEE
102
}
330
1DEE
100
AcDbXrecord
280
     1
102
RTVSPost2010Prop28
280
     0
102
RTVSPost2010PropOp28
 70
     1
102
RTVSPost2010Prop29
280
     1
102
RTVSPost2010PropOp29
 70
     1
102
RTVSPost2010Prop30
280
     1
102
RTVSPost2010PropOp30
 70
     1
102
RTVSPost2010Prop31
280
     0
102
RTVSPost2010PropOp31
 70
     1
102
RTVSPost2010Prop32
280
     0
102
RTVSPost2010PropOp32
 70
     1
102
RTVSPost2010Prop33
280
     0
102
RTVSPost2010PropOp33
 70
     1
102
RTVSPost2010Prop34
280
     0
102
RTVSPost2010PropOp34
 70
     1
102
RTVSPost2010Prop35
280
     0
102
RTVSPost2010PropOp35
 70
     1
102
RTVSPost2010Prop36
280
     0
102
RTVSPost2010PropOp36
 70
     1
102
RTVSPost2010Prop37
 90
       50
102
RTVSPost2010PropOp37
 70
     1
102
RTVSPost2010Prop38
140
0.0
102
RTVSPost2010PropOp38
 70
     1
102
RTVSPost2010Prop39
140
1.0
102
RTVSPost2010PropOp39
 70
     1
102
RTVSPost2010Prop40
 90
        0
102
RTVSPost2010PropOp40
 70
     1
102
RTVSPost2010Prop41ColorIndex
 90
       18
102
RTVSPost2010Prop41ColorRGB
 90
        0
102
RTVSPost2010PropOp41
 70
     1
102
RTVSPost2010Prop42
 90
       50
102
RTVSPost2010PropOp42
 70
     1
102
RTVSPost2010Prop43
 90
        3
102
RTVSPost2010PropOp43
 70
     1
102
RTVSPost2010Prop44ColorIndex
 90
        5
102
RTVSPost2010Prop44ColorRGB
 90
      255
102
RTVSPost2010PropOp44
 70
     1
102
RTVSPost2010Prop45
280
     0
102
RTVSPost2010PropOp45
 70
     1
102
RTVSPost2010Prop46
 90
       50
102
RTVSPost2010PropOp46
 70
     1
102
RTVSPost2010Prop47
 90
       50
102
RTVSPost2010PropOp47
 70
     1
102
RTVSPost2010Prop48
 90
       50
102
RTVSPost2010PropOp48
 70
     1
102
RTVSPost2010Prop49
280
     0
102
RTVSPost2010PropOp49
 70
     1
102
RTVSPost2010Prop50
 90
       50
102
RTVSPost2010PropOp50
 70
     1
102
RTVSPost2010Prop51ColorIndex
 90
      256
102
RTVSPost2010Prop51ColorRGB
 90
-16777216
102
RTVSPost2010PropOp51
 70
     0
102
RTVSPost2010Prop52
140
1.0
102
RTVSPost2010PropOp52
 70
     0
102
RTVSPost2010Prop53
 90
        2
102
RTVSPost2010PropOp53
 70
     1
102
RTVSPost2010Prop54
  1
strokes_ogs.tif
102
RTVSPost2010PropOp54
 70
     1
102
RTVSPost2010Prop55
280
     0
102
RTVSPost2010PropOp55
 70
     1
102
RTVSPost2010Prop56
140
1.0
102
RTVSPost2010PropOp56
 70
     1
102
RTVSPost2010Prop57
140
1.0
102
RTVSPost2010PropOp57
 70
     1
102
RTVSPropertyOp0
 70
     1
102
RTVSPropertyOp1
 70
     1
102
RTVSPropertyOp2
 70
     1
102
RTVSPropertyOp3
 70
     1
102
RTVSPropertyOp4
 70
     1
102
RTVSPropertyOp5
 70
     1
102
RTVSPropertyOp6
 70
     1
102
RTVSPropertyOp7
 70
     1
102
RTVSPropertyOp8
 70
     1
102
RTVSPropertyOp9
 70
     1
102
RTVSPropertyOp10
 70
     1
102
RTVSPropertyOp11
 70
     1
102
RTVSPropertyOp12
 70
     1
102
RTVSPropertyOp13
 70
     1
102
RTVSPropertyOp14
 70
     1
102
RTVSPropertyOp15
 70
     1
102
RTVSPropertyOp16
 70
     1
102
RTVSPropertyOp17
 70
     1
102
RTVSPropertyOp18
 70
     1
102
RTVSPropertyOp19
 70
     1
102
RTVSPropertyOp20
 70
     1
102
RTVSPropertyOp21
 70
     1
102
RTVSPropertyOp22
 70
     1
102
RTVSPropertyOp23
 70
     1
102
RTVSPropertyOp24
 70
     1
102
RTVSPropertyOp25
 70
     1
102
RTVSPropertyOp26
 70
     1
102
RTVSPropertyOp27
 70
     1
102
RTVSPropertyOp28
 70
     1
102
RTVSPropertyOp29
 70
     1
102
RTVSPropertyOp30
 70
     1
102
RTVSPropertyOp31
 70
     1
102
RTVSPropertyOp32
 70
     1
102
RTVSPropertyOp33
 70
     1
102
RTVSPropertyOp34
 70
     1
102
RTVSPropertyOp35
 70
     1
102
RTVSPropertyOp36
 70
     1
102
RTVSPropertyOp37
 70
     1
102
RTVSPropertyOp38
 70
     1
102
RTVSPropertyOp39
 70
     1
102
RTVSPropertyOp40
 70
     1
102
RTVSPropertyOp41
 70
     1
102
RTVSPropertyOp42
 70
     1
102
RTVSPropertyOp43
 70
     1
102
RTVSPropertyOp44
 70
     1
102
RTVSPropertyOp45
 70
     1
102
RTVSPropertyOp46
 70
     1
102
RTVSPropertyOp47
 70
     1
102
RTVSPropertyOp48
 70
     1
102
RTVSPropertyOp49
 70
     1
102
RTVSPropertyOp50
 70
     1
102
RTVSPropertyOp51
 70
     0
102
RTVSPropertyOp52
 70
     0
102
RTVSPropertyOp53
 70
     1
102
RTVSPropertyOp54
 70
     1
102
RTVSPropertyOp55
 70
     1
102
RTVSPropertyOp56
 70
     1
102
RTVSPropertyOp57
 70
     1
102
RTVSPropertyOp58
 70
     1
102
RTVSPropertyOp59
 70
     1
102
RTVSPropertyOp60
 70
     1
102
RTVSPropertyOp61
 70
     1
102
RTVSPropertyOp62
 70
     1
  0
XRECORD
  5
1E09
102
{ACAD_REACTORS
330
1E08
102
}
330
1E08
100
AcDbXrecord
280
     1
102
RTVSPost2010Prop28
280
     0
102
RTVSPost2010PropOp28
 70
     1
102
RTVSPost2010Prop29
280
     1
102
RTVSPost2010PropOp29
 70
     1
102
RTVSPost2010Prop30
280
     1
102
RTVSPost2010PropOp30
 70
     1
102
RTVSPost2010Prop31
280
     0
102
RTVSPost2010PropOp31
 70
     1
102
RTVSPost2010Prop32
280
     0
102
RTVSPost2010PropOp32
 70
     1
102
RTVSPost2010Prop33
280
     0
102
RTVSPost2010PropOp33
 70
     1
102
RTVSPost2010Prop34
280
     0
102
RTVSPost2010PropOp34
 70
     1
102
RTVSPost2010Prop35
280
     0
102
RTVSPost2010PropOp35
 70
     1
102
RTVSPost2010Prop36
280
     0
102
RTVSPost2010PropOp36
 70
     1
102
RTVSPost2010Prop37
 90
       50
102
RTVSPost2010PropOp37
 70
     0
102
RTVSPost2010Prop38
140
0.0
102
RTVSPost2010PropOp38
 70
     0
102
RTVSPost2010Prop39
140
1.0
102
RTVSPost2010PropOp39
 70
     0
102
RTVSPost2010Prop40
 90
        0
102
RTVSPost2010PropOp40
 70
     0
102
RTVSPost2010Prop41ColorIndex
 90
       18
102
RTVSPost2010Prop41ColorRGB
 90
        0
102
RTVSPost2010PropOp41
 70
     0
102
RTVSPost2010Prop42
 90
       50
102
RTVSPost2010PropOp42
 70
     0
102
RTVSPost2010Prop43
 90
        3
102
RTVSPost2010PropOp43
 70
     0
102
RTVSPost2010Prop44ColorIndex
 90
        5
102
RTVSPost2010Prop44ColorRGB
 90
      255
102
RTVSPost2010PropOp44
 70
     0
102
RTVSPost2010Prop45
280
     0
102
RTVSPost2010PropOp45
 70
     1
102
RTVSPost2010Prop46
 90
       50
102
RTVSPost2010PropOp46
 70
     0
102
RTVSPost2010Prop47
 90
       50
102
RTVSPost2010PropOp47
 70
     0
102
RTVSPost2010Prop48
 90
       50
102
RTVSPost2010PropOp48
 70
     0
102
RTVSPost2010Prop49
280
     0
102
RTVSPost2010PropOp49
 70
     1
102
RTVSPost2010Prop50
 90
       50
102
RTVSPost2010PropOp50
 70
     0
102
RTVSPost2010Prop51ColorIndex
 90
      256
102
RTVSPost2010Prop51ColorRGB
 90
-16777216
102
RTVSPost2010PropOp51
 70
     0
102
RTVSPost2010Prop52
140
1.0
102
RTVSPost2010PropOp52
 70
     0
102
RTVSPost2010Prop53
 90
        2
102
RTVSPost2010PropOp53
 70
     0
102
RTVSPost2010Prop54
  1
strokes_ogs.tif
102
RTVSPost2010PropOp54
 70
     0
102
RTVSPost2010Prop55
280
     0
102
RTVSPost2010PropOp55
 70
     1
102
RTVSPost2010Prop56
140
1.0
102
RTVSPost2010PropOp56
 70
     0
102
RTVSPost2010Prop57
140
1.0
102
RTVSPost2010PropOp57
 70
     0
102
RTVSPropertyOp0
 70
     0
102
RTVSPropertyOp1
 70
     0
102
RTVSPropertyOp2
 70
     0
102
RTVSPropertyOp3
 70
     0
102
RTVSPropertyOp4
 70
     0
102
RTVSPropertyOp5
 70
     0
102
RTVSPropertyOp6
 70
     0
102
RTVSPropertyOp7
 70
     0
102
RTVSPropertyOp8
 70
     0
102
RTVSPropertyOp9
 70
     0
102
RTVSPropertyOp10
 70
     0
102
RTVSPropertyOp11
 70
     0
102
RTVSPropertyOp12
 70
     0
102
RTVSPropertyOp13
 70
     0
102
RTVSPropertyOp14
 70
     2
102
RTVSPropertyOp15
 70
     0
102
RTVSPropertyOp16
 70
     0
102
RTVSPropertyOp17
 70
     0
102
RTVSPropertyOp18
 70
     0
102
RTVSPropertyOp19
 70
     0
102
RTVSPropertyOp20
 70
     0
102
RTVSPropertyOp21
 70
     0
102
RTVSPropertyOp22
 70
     0
102
RTVSPropertyOp23
 70
     0
102
RTVSPropertyOp24
 70
     0
102
RTVSPropertyOp25
 70
     0
102
RTVSPropertyOp26
 70
     0
102
RTVSPropertyOp27
 70
     0
102
RTVSPropertyOp28
 70
     1
102
RTVSPropertyOp29
 70
     1
102
RTVSPropertyOp30
 70
     1
102
RTVSPropertyOp31
 70
     1
102
RTVSPropertyOp32
 70
     1
102
RTVSPropertyOp33
 70
     1
102
RTVSPropertyOp34
 70
     1
102
RTVSPropertyOp35
 70
     1
102
RTVSPropertyOp36
 70
     1
102
RTVSPropertyOp37
 70
     0
102
RTVSPropertyOp38
 70
     0
102
RTVSPropertyOp39
 70
     0
102
RTVSPropertyOp40
 70
     0
102
RTVSPropertyOp41
 70
     0
102
RTVSPropertyOp42
 70
     0
102
RTVSPropertyOp43
 70
     0
102
RTVSPropertyOp44
 70
     0
102
RTVSPropertyOp45
 70
     1
102
RTVSPropertyOp46
 70
     0
102
RTVSPropertyOp47
 70
     0
102
RTVSPropertyOp48
 70
     0
102
RTVSPropertyOp49
 70
     1
102
RTVSPropertyOp50
 70
     0
102
RTVSPropertyOp51
 70
     0
102
RTVSPropertyOp52
 70
     0
102
RTVSPropertyOp53
 70
     0
102
RTVSPropertyOp54
 70
     0
102
RTVSPropertyOp55
 70
     1
102
RTVSPropertyOp56
 70
     0
102
RTVSPropertyOp57
 70
     0
102
RTVSPropertyOp58
 70
     0
102
RTVSPropertyOp59
 70
     0
102
RTVSPropertyOp60
 70
     0
102
RTVSPropertyOp61
 70
     0
102
RTVSPropertyOp62
 70
     0
  0
XRECORD
  5
1DF7
102
{ACAD_REACTORS
330
1DF6
102
}
330
1DF6
100
AcDbXrecord
280
     1
102
RTVSPost2010Prop28
280
     0
102
RTVSPost2010PropOp28
 70
     1
102
RTVSPost2010Prop29
280
     1
102
RTVSPost2010PropOp29
 70
     1
102
RTVSPost2010Prop30
280
     1
102
RTVSPost2010PropOp30
 70
     1
102
RTVSPost2010Prop31
280
     0
102
RTVSPost2010PropOp31
 70
     1
102
RTVSPost2010Prop32
280
     0
102
RTVSPost2010PropOp32
 70
     1
102
RTVSPost2010Prop33
280
     0
102
RTVSPost2010PropOp33
 70
     1
102
RTVSPost2010Prop34
280
     0
102
RTVSPost2010PropOp34
 70
     1
102
RTVSPost2010Prop35
280
     0
102
RTVSPost2010PropOp35
 70
     1
102
RTVSPost2010Prop36
280
     0
102
RTVSPost2010PropOp36
 70
     1
102
RTVSPost2010Prop37
 90
       50
102
RTVSPost2010PropOp37
 70
     1
102
RTVSPost2010Prop38
140
0.0
102
RTVSPost2010PropOp38
 70
     1
102
RTVSPost2010Prop39
140
1.0
102
RTVSPost2010PropOp39
 70
     1
102
RTVSPost2010Prop40
 90
        0
102
RTVSPost2010PropOp40
 70
     1
102
RTVSPost2010Prop41ColorIndex
 90
       18
102
RTVSPost2010Prop41ColorRGB
 90
        0
102
RTVSPost2010PropOp41
 70
     1
102
RTVSPost2010Prop42
 90
       50
102
RTVSPost2010PropOp42
 70
     1
102
RTVSPost2010Prop43
 90
        3
102
RTVSPost2010PropOp43
 70
     1
102
RTVSPost2010Prop44ColorIndex
 90
        5
102
RTVSPost2010Prop44ColorRGB
 90
      255
102
RTVSPost2010PropOp44
 70
     1
102
RTVSPost2010Prop45
280
     0
102
RTVSPost2010PropOp45
 70
     1
102
RTVSPost2010Prop46
 90
       50
102
RTVSPost2010PropOp46
 70
     1
102
RTVSPost2010Prop47
 90
       50
102
RTVSPost2010PropOp47
 70
     1
102
RTVSPost2010Prop48
 90
       50
102
RTVSPost2010PropOp48
 70
     1
102
RTVSPost2010Prop49
280
     0
102
RTVSPost2010PropOp49
 70
     1
102
RTVSPost2010Prop50
 90
       50
102
RTVSPost2010PropOp50
 70
     1
102
RTVSPost2010Prop51ColorIndex
 90
      256
102
RTVSPost2010Prop51ColorRGB
 90
-16777216
102
RTVSPost2010PropOp51
 70
     0
102
RTVSPost2010Prop52
140
1.0
102
RTVSPost2010PropOp52
 70
     0
102
RTVSPost2010Prop53
 90
        2
102
RTVSPost2010PropOp53
 70
     1
102
RTVSPost2010Prop54
  1
strokes_ogs.tif
102
RTVSPost2010PropOp54
 70
     1
102
RTVSPost2010Prop55
280
     0
102
RTVSPost2010PropOp55
 70
     1
102
RTVSPost2010Prop56
140
1.0
102
RTVSPost2010PropOp56
 70
     1
102
RTVSPost2010Prop57
140
1.0
102
RTVSPost2010PropOp57
 70
     1
102
RTVSPropertyOp0
 70
     1
102
RTVSPropertyOp1
 70
     1
102
RTVSPropertyOp2
 70
     1
102
RTVSPropertyOp3
 70
     1
102
RTVSPropertyOp4
 70
     1
102
RTVSPropertyOp5
 70
     1
102
RTVSPropertyOp6
 70
     1
102
RTVSPropertyOp7
 70
     1
102
RTVSPropertyOp8
 70
     1
102
RTVSPropertyOp9
 70
     1
102
RTVSPropertyOp10
 70
     1
102
RTVSPropertyOp11
 70
     1
102
RTVSPropertyOp12
 70
     1
102
RTVSPropertyOp13
 70
     1
102
RTVSPropertyOp14
 70
     1
102
RTVSPropertyOp15
 70
     1
102
RTVSPropertyOp16
 70
     1
102
RTVSPropertyOp17
 70
     1
102
RTVSPropertyOp18
 70
     1
102
RTVSPropertyOp19
 70
     1
102
RTVSPropertyOp20
 70
     1
102
RTVSPropertyOp21
 70
     1
102
RTVSPropertyOp22
 70
     1
102
RTVSPropertyOp23
 70
     1
102
RTVSPropertyOp24
 70
     1
102
RTVSPropertyOp25
 70
     1
102
RTVSPropertyOp26
 70
     1
102
RTVSPropertyOp27
 70
     1
102
RTVSPropertyOp28
 70
     1
102
RTVSPropertyOp29
 70
     1
102
RTVSPropertyOp30
 70
     1
102
RTVSPropertyOp31
 70
     1
102
RTVSPropertyOp32
 70
     1
102
RTVSPropertyOp33
 70
     1
102
RTVSPropertyOp34
 70
     1
102
RTVSPropertyOp35
 70
     1
102
RTVSPropertyOp36
 70
     1
102
RTVSPropertyOp37
 70
     1
102
RTVSPropertyOp38
 70
     1
102
RTVSPropertyOp39
 70
     1
102
RTVSPropertyOp40
 70
     1
102
RTVSPropertyOp41
 70
     1
102
RTVSPropertyOp42
 70
     1
102
RTVSPropertyOp43
 70
     1
102
RTVSPropertyOp44
 70
     1
102
RTVSPropertyOp45
 70
     1
102
RTVSPropertyOp46
 70
     1
102
RTVSPropertyOp47
 70
     1
102
RTVSPropertyOp48
 70
     1
102
RTVSPropertyOp49
 70
     1
102
RTVSPropertyOp50
 70
     1
102
RTVSPropertyOp51
 70
     0
102
RTVSPropertyOp52
 70
     0
102
RTVSPropertyOp53
 70
     1
102
RTVSPropertyOp54
 70
     1
102
RTVSPropertyOp55
 70
     1
102
RTVSPropertyOp56
 70
     1
102
RTVSPropertyOp57
 70
     1
102
RTVSPropertyOp58
 70
     1
102
RTVSPropertyOp59
 70
     1
102
RTVSPropertyOp60
 70
     1
102
RTVSPropertyOp61
 70
     1
102
RTVSPropertyOp62
 70
     1
  0
XRECORD
  5
1DDB
102
{ACAD_REACTORS
330
1DDA
102
}
330
1DDA
100
AcDbXrecord
280
     1
102
RTVSPost2010Prop28
280
     0
102
RTVSPost2010PropOp28
 70
     1
102
RTVSPost2010Prop29
280
     1
102
RTVSPost2010PropOp29
 70
     1
102
RTVSPost2010Prop30
280
     1
102
RTVSPost2010PropOp30
 70
     1
102
RTVSPost2010Prop31
280
     0
102
RTVSPost2010PropOp31
 70
     1
102
RTVSPost2010Prop32
280
     0
102
RTVSPost2010PropOp32
 70
     1
102
RTVSPost2010Prop33
280
     0
102
RTVSPost2010PropOp33
 70
     1
102
RTVSPost2010Prop34
280
     0
102
RTVSPost2010PropOp34
 70
     1
102
RTVSPost2010Prop35
280
     0
102
RTVSPost2010PropOp35
 70
     1
102
RTVSPost2010Prop36
280
     0
102
RTVSPost2010PropOp36
 70
     1
102
RTVSPost2010Prop37
 90
       50
102
RTVSPost2010PropOp37
 70
     1
102
RTVSPost2010Prop38
140
0.0
102
RTVSPost2010PropOp38
 70
     1
102
RTVSPost2010Prop39
140
1.0
102
RTVSPost2010PropOp39
 70
     1
102
RTVSPost2010Prop40
 90
        0
102
RTVSPost2010PropOp40
 70
     1
102
RTVSPost2010Prop41ColorIndex
 90
       18
102
RTVSPost2010Prop41ColorRGB
 90
        0
102
RTVSPost2010PropOp41
 70
     1
102
RTVSPost2010Prop42
 90
       50
102
RTVSPost2010PropOp42
 70
     1
102
RTVSPost2010Prop43
 90
        3
102
RTVSPost2010PropOp43
 70
     1
102
RTVSPost2010Prop44ColorIndex
 90
        5
102
RTVSPost2010Prop44ColorRGB
 90
      255
102
RTVSPost2010PropOp44
 70
     1
102
RTVSPost2010Prop45
280
     0
102
RTVSPost2010PropOp45
 70
     1
102
RTVSPost2010Prop46
 90
       50
102
RTVSPost2010PropOp46
 70
     1
102
RTVSPost2010Prop47
 90
       50
102
RTVSPost2010PropOp47
 70
     1
102
RTVSPost2010Prop48
 90
       50
102
RTVSPost2010PropOp48
 70
     1
102
RTVSPost2010Prop49
280
     0
102
RTVSPost2010PropOp49
 70
     1
102
RTVSPost2010Prop50
 90
       50
102
RTVSPost2010PropOp50
 70
     1
102
RTVSPost2010Prop51ColorIndex
 90
      256
102
RTVSPost2010Prop51ColorRGB
 90
-16777216
102
RTVSPost2010PropOp51
 70
     0
102
RTVSPost2010Prop52
140
1.0
102
RTVSPost2010PropOp52
 70
     0
102
RTVSPost2010Prop53
 90
        2
102
RTVSPost2010PropOp53
 70
     1
102
RTVSPost2010Prop54
  1
strokes_ogs.tif
102
RTVSPost2010PropOp54
 70
     1
102
RTVSPost2010Prop55
280
     0
102
RTVSPost2010PropOp55
 70
     1
102
RTVSPost2010Prop56
140
1.0
102
RTVSPost2010PropOp56
 70
     1
102
RTVSPost2010Prop57
140
1.0
102
RTVSPost2010PropOp57
 70
     1
102
RTVSPropertyOp0
 70
     1
102
RTVSPropertyOp1
 70
     1
102
RTVSPropertyOp2
 70
     1
102
RTVSPropertyOp3
 70
     1
102
RTVSPropertyOp4
 70
     1
102
RTVSPropertyOp5
 70
     1
102
RTVSPropertyOp6
 70
     1
102
RTVSPropertyOp7
 70
     1
102
RTVSPropertyOp8
 70
     1
102
RTVSPropertyOp9
 70
     1
102
RTVSPropertyOp10
 70
     1
102
RTVSPropertyOp11
 70
     1
102
RTVSPropertyOp12
 70
     1
102
RTVSPropertyOp13
 70
     1
102
RTVSPropertyOp14
 70
     1
102
RTVSPropertyOp15
 70
     1
102
RTVSPropertyOp16
 70
     1
102
RTVSPropertyOp17
 70
     1
102
RTVSPropertyOp18
 70
     1
102
RTVSPropertyOp19
 70
     1
102
RTVSPropertyOp20
 70
     1
102
RTVSPropertyOp21
 70
     1
102
RTVSPropertyOp22
 70
     1
102
RTVSPropertyOp23
 70
     1
102
RTVSPropertyOp24
 70
     1
102
RTVSPropertyOp25
 70
     1
102
RTVSPropertyOp26
 70
     1
102
RTVSPropertyOp27
 70
     1
102
RTVSPropertyOp28
 70
     1
102
RTVSPropertyOp29
 70
     1
102
RTVSPropertyOp30
 70
     1
102
RTVSPropertyOp31
 70
     1
102
RTVSPropertyOp32
 70
     1
102
RTVSPropertyOp33
 70
     1
102
RTVSPropertyOp34
 70
     1
102
RTVSPropertyOp35
 70
     1
102
RTVSPropertyOp36
 70
     1
102
RTVSPropertyOp37
 70
     1
102
RTVSPropertyOp38
 70
     1
102
RTVSPropertyOp39
 70
     1
102
RTVSPropertyOp40
 70
     1
102
RTVSPropertyOp41
 70
     1
102
RTVSPropertyOp42
 70
     1
102
RTVSPropertyOp43
 70
     1
102
RTVSPropertyOp44
 70
     1
102
RTVSPropertyOp45
 70
     1
102
RTVSPropertyOp46
 70
     1
102
RTVSPropertyOp47
 70
     1
102
RTVSPropertyOp48
 70
     1
102
RTVSPropertyOp49
 70
     1
102
RTVSPropertyOp50
 70
     1
102
RTVSPropertyOp51
 70
     0
102
RTVSPropertyOp52
 70
     0
102
RTVSPropertyOp53
 70
     1
102
RTVSPropertyOp54
 70
     1
102
RTVSPropertyOp55
 70
     1
102
RTVSPropertyOp56
 70
     1
102
RTVSPropertyOp57
 70
     1
102
RTVSPropertyOp58
 70
     1
102
RTVSPropertyOp59
 70
     1
102
RTVSPropertyOp60
 70
     1
102
RTVSPropertyOp61
 70
     1
102
RTVSPropertyOp62
 70
     1
  0
XRECORD
  5
1DDD
102
{ACAD_REACTORS
330
1DDC
102
}
330
1DDC
100
AcDbXrecord
280
     1
102
RTVSPost2010Prop28
280
     0
102
RTVSPost2010PropOp28
 70
     1
102
RTVSPost2010Prop29
280
     1
102
RTVSPost2010PropOp29
 70
     1
102
RTVSPost2010Prop30
280
     1
102
RTVSPost2010PropOp30
 70
     1
102
RTVSPost2010Prop31
280
     0
102
RTVSPost2010PropOp31
 70
     1
102
RTVSPost2010Prop32
280
     0
102
RTVSPost2010PropOp32
 70
     1
102
RTVSPost2010Prop33
280
     0
102
RTVSPost2010PropOp33
 70
     1
102
RTVSPost2010Prop34
280
     0
102
RTVSPost2010PropOp34
 70
     1
102
RTVSPost2010Prop35
280
     0
102
RTVSPost2010PropOp35
 70
     1
102
RTVSPost2010Prop36
280
     0
102
RTVSPost2010PropOp36
 70
     1
102
RTVSPost2010Prop37
 90
       50
102
RTVSPost2010PropOp37
 70
     1
102
RTVSPost2010Prop38
140
0.0
102
RTVSPost2010PropOp38
 70
     1
102
RTVSPost2010Prop39
140
1.0
102
RTVSPost2010PropOp39
 70
     1
102
RTVSPost2010Prop40
 90
        0
102
RTVSPost2010PropOp40
 70
     1
102
RTVSPost2010Prop41ColorIndex
 90
       18
102
RTVSPost2010Prop41ColorRGB
 90
        0
102
RTVSPost2010PropOp41
 70
     1
102
RTVSPost2010Prop42
 90
       50
102
RTVSPost2010PropOp42
 70
     1
102
RTVSPost2010Prop43
 90
        3
102
RTVSPost2010PropOp43
 70
     1
102
RTVSPost2010Prop44ColorIndex
 90
        5
102
RTVSPost2010Prop44ColorRGB
 90
      255
102
RTVSPost2010PropOp44
 70
     1
102
RTVSPost2010Prop45
280
     0
102
RTVSPost2010PropOp45
 70
     1
102
RTVSPost2010Prop46
 90
       50
102
RTVSPost2010PropOp46
 70
     1
102
RTVSPost2010Prop47
 90
       50
102
RTVSPost2010PropOp47
 70
     1
102
RTVSPost2010Prop48
 90
       50
102
RTVSPost2010PropOp48
 70
     1
102
RTVSPost2010Prop49
280
     0
102
RTVSPost2010PropOp49
 70
     1
102
RTVSPost2010Prop50
 90
       50
102
RTVSPost2010PropOp50
 70
     1
102
RTVSPost2010Prop51ColorIndex
 90
      256
102
RTVSPost2010Prop51ColorRGB
 90
-16777216
102
RTVSPost2010PropOp51
 70
     0
102
RTVSPost2010Prop52
140
1.0
102
RTVSPost2010PropOp52
 70
     0
102
RTVSPost2010Prop53
 90
        2
102
RTVSPost2010PropOp53
 70
     1
102
RTVSPost2010Prop54
  1
strokes_ogs.tif
102
RTVSPost2010PropOp54
 70
     1
102
RTVSPost2010Prop55
280
     0
102
RTVSPost2010PropOp55
 70
     1
102
RTVSPost2010Prop56
140
1.0
102
RTVSPost2010PropOp56
 70
     1
102
RTVSPost2010Prop57
140
1.0
102
RTVSPost2010PropOp57
 70
     1
102
RTVSPropertyOp0
 70
     1
102
RTVSPropertyOp1
 70
     1
102
RTVSPropertyOp2
 70
     1
102
RTVSPropertyOp3
 70
     1
102
RTVSPropertyOp4
 70
     1
102
RTVSPropertyOp5
 70
     1
102
RTVSPropertyOp6
 70
     1
102
RTVSPropertyOp7
 70
     1
102
RTVSPropertyOp8
 70
     1
102
RTVSPropertyOp9
 70
     1
102
RTVSPropertyOp10
 70
     1
102
RTVSPropertyOp11
 70
     1
102
RTVSPropertyOp12
 70
     1
102
RTVSPropertyOp13
 70
     1
102
RTVSPropertyOp14
 70
     1
102
RTVSPropertyOp15
 70
     1
102
RTVSPropertyOp16
 70
     1
102
RTVSPropertyOp17
 70
     1
102
RTVSPropertyOp18
 70
     1
102
RTVSPropertyOp19
 70
     1
102
RTVSPropertyOp20
 70
     1
102
RTVSPropertyOp21
 70
     1
102
RTVSPropertyOp22
 70
     1
102
RTVSPropertyOp23
 70
     1
102
RTVSPropertyOp24
 70
     1
102
RTVSPropertyOp25
 70
     1
102
RTVSPropertyOp26
 70
     1
102
RTVSPropertyOp27
 70
     1
102
RTVSPropertyOp28
 70
     1
102
RTVSPropertyOp29
 70
     1
102
RTVSPropertyOp30
 70
     1
102
RTVSPropertyOp31
 70
     1
102
RTVSPropertyOp32
 70
     1
102
RTVSPropertyOp33
 70
     1
102
RTVSPropertyOp34
 70
     1
102
RTVSPropertyOp35
 70
     1
102
RTVSPropertyOp36
 70
     1
102
RTVSPropertyOp37
 70
     1
102
RTVSPropertyOp38
 70
     1
102
RTVSPropertyOp39
 70
     1
102
RTVSPropertyOp40
 70
     1
102
RTVSPropertyOp41
 70
     1
102
RTVSPropertyOp42
 70
     1
102
RTVSPropertyOp43
 70
     1
102
RTVSPropertyOp44
 70
     1
102
RTVSPropertyOp45
 70
     1
102
RTVSPropertyOp46
 70
     1
102
RTVSPropertyOp47
 70
     1
102
RTVSPropertyOp48
 70
     1
102
RTVSPropertyOp49
 70
     1
102
RTVSPropertyOp50
 70
     1
102
RTVSPropertyOp51
 70
     0
102
RTVSPropertyOp52
 70
     0
102
RTVSPropertyOp53
 70
     1
102
RTVSPropertyOp54
 70
     1
102
RTVSPropertyOp55
 70
     1
102
RTVSPropertyOp56
 70
     1
102
RTVSPropertyOp57
 70
     1
102
RTVSPropertyOp58
 70
     1
102
RTVSPropertyOp59
 70
     1
102
RTVSPropertyOp60
 70
     1
102
RTVSPropertyOp61
 70
     1
102
RTVSPropertyOp62
 70
     1
  0
XRECORD
  5
1DDF
102
{ACAD_REACTORS
330
1DDE
102
}
330
1DDE
100
AcDbXrecord
280
     1
102
RTVSPost2010Prop28
280
     0
102
RTVSPost2010PropOp28
 70
     1
102
RTVSPost2010Prop29
280
     1
102
RTVSPost2010PropOp29
 70
     1
102
RTVSPost2010Prop30
280
     1
102
RTVSPost2010PropOp30
 70
     1
102
RTVSPost2010Prop31
280
     0
102
RTVSPost2010PropOp31
 70
     1
102
RTVSPost2010Prop32
280
     0
102
RTVSPost2010PropOp32
 70
     1
102
RTVSPost2010Prop33
280
     0
102
RTVSPost2010PropOp33
 70
     1
102
RTVSPost2010Prop34
280
     0
102
RTVSPost2010PropOp34
 70
     1
102
RTVSPost2010Prop35
280
     0
102
RTVSPost2010PropOp35
 70
     1
102
RTVSPost2010Prop36
280
     0
102
RTVSPost2010PropOp36
 70
     1
102
RTVSPost2010Prop37
 90
       50
102
RTVSPost2010PropOp37
 70
     1
102
RTVSPost2010Prop38
140
0.0
102
RTVSPost2010PropOp38
 70
     1
102
RTVSPost2010Prop39
140
1.0
102
RTVSPost2010PropOp39
 70
     1
102
RTVSPost2010Prop40
 90
        0
102
RTVSPost2010PropOp40
 70
     1
102
RTVSPost2010Prop41ColorIndex
 90
       18
102
RTVSPost2010Prop41ColorRGB
 90
        0
102
RTVSPost2010PropOp41
 70
     1
102
RTVSPost2010Prop42
 90
       50
102
RTVSPost2010PropOp42
 70
     1
102
RTVSPost2010Prop43
 90
        3
102
RTVSPost2010PropOp43
 70
     1
102
RTVSPost2010Prop44ColorIndex
 90
        5
102
RTVSPost2010Prop44ColorRGB
 90
      255
102
RTVSPost2010PropOp44
 70
     1
102
RTVSPost2010Prop45
280
     0
102
RTVSPost2010PropOp45
 70
     1
102
RTVSPost2010Prop46
 90
       50
102
RTVSPost2010PropOp46
 70
     1
102
RTVSPost2010Prop47
 90
       50
102
RTVSPost2010PropOp47
 70
     1
102
RTVSPost2010Prop48
 90
       50
102
RTVSPost2010PropOp48
 70
     1
102
RTVSPost2010Prop49
280
     0
102
RTVSPost2010PropOp49
 70
     1
102
RTVSPost2010Prop50
 90
       50
102
RTVSPost2010PropOp50
 70
     1
102
RTVSPost2010Prop51ColorIndex
 90
      256
102
RTVSPost2010Prop51ColorRGB
 90
-16777216
102
RTVSPost2010PropOp51
 70
     0
102
RTVSPost2010Prop52
140
1.0
102
RTVSPost2010PropOp52
 70
     0
102
RTVSPost2010Prop53
 90
        2
102
RTVSPost2010PropOp53
 70
     1
102
RTVSPost2010Prop54
  1
strokes_ogs.tif
102
RTVSPost2010PropOp54
 70
     1
102
RTVSPost2010Prop55
280
     0
102
RTVSPost2010PropOp55
 70
     1
102
RTVSPost2010Prop56
140
1.0
102
RTVSPost2010PropOp56
 70
     1
102
RTVSPost2010Prop57
140
1.0
102
RTVSPost2010PropOp57
 70
     1
102
RTVSPropertyOp0
 70
     1
102
RTVSPropertyOp1
 70
     1
102
RTVSPropertyOp2
 70
     1
102
RTVSPropertyOp3
 70
     1
102
RTVSPropertyOp4
 70
     1
102
RTVSPropertyOp5
 70
     1
102
RTVSPropertyOp6
 70
     1
102
RTVSPropertyOp7
 70
     1
102
RTVSPropertyOp8
 70
     1
102
RTVSPropertyOp9
 70
     1
102
RTVSPropertyOp10
 70
     1
102
RTVSPropertyOp11
 70
     1
102
RTVSPropertyOp12
 70
     1
102
RTVSPropertyOp13
 70
     1
102
RTVSPropertyOp14
 70
     1
102
RTVSPropertyOp15
 70
     1
102
RTVSPropertyOp16
 70
     1
102
RTVSPropertyOp17
 70
     1
102
RTVSPropertyOp18
 70
     1
102
RTVSPropertyOp19
 70
     1
102
RTVSPropertyOp20
 70
     1
102
RTVSPropertyOp21
 70
     1
102
RTVSPropertyOp22
 70
     1
102
RTVSPropertyOp23
 70
     1
102
RTVSPropertyOp24
 70
     1
102
RTVSPropertyOp25
 70
     1
102
RTVSPropertyOp26
 70
     1
102
RTVSPropertyOp27
 70
     1
102
RTVSPropertyOp28
 70
     1
102
RTVSPropertyOp29
 70
     1
102
RTVSPropertyOp30
 70
     1
102
RTVSPropertyOp31
 70
     1
102
RTVSPropertyOp32
 70
     1
102
RTVSPropertyOp33
 70
     1
102
RTVSPropertyOp34
 70
     1
102
RTVSPropertyOp35
 70
     1
102
RTVSPropertyOp36
 70
     1
102
RTVSPropertyOp37
 70
     1
102
RTVSPropertyOp38
 70
     1
102
RTVSPropertyOp39
 70
     1
102
RTVSPropertyOp40
 70
     1
102
RTVSPropertyOp41
 70
     1
102
RTVSPropertyOp42
 70
     1
102
RTVSPropertyOp43
 70
     1
102
RTVSPropertyOp44
 70
     1
102
RTVSPropertyOp45
 70
     1
102
RTVSPropertyOp46
 70
     1
102
RTVSPropertyOp47
 70
     1
102
RTVSPropertyOp48
 70
     1
102
RTVSPropertyOp49
 70
     1
102
RTVSPropertyOp50
 70
     1
102
RTVSPropertyOp51
 70
     0
102
RTVSPropertyOp52
 70
     0
102
RTVSPropertyOp53
 70
     1
102
RTVSPropertyOp54
 70
     1
102
RTVSPropertyOp55
 70
     1
102
RTVSPropertyOp56
 70
     1
102
RTVSPropertyOp57
 70
     1
102
RTVSPropertyOp58
 70
     1
102
RTVSPropertyOp59
 70
     1
102
RTVSPropertyOp60
 70
     1
102
RTVSPropertyOp61
 70
     1
102
RTVSPropertyOp62
 70
     1
  0
XRECORD
  5
1DE1
102
{ACAD_REACTORS
330
1DE0
102
}
330
1DE0
100
AcDbXrecord
280
     1
102
RTVSPost2010Prop28
280
     0
102
RTVSPost2010PropOp28
 70
     1
102
RTVSPost2010Prop29
280
     1
102
RTVSPost2010PropOp29
 70
     1
102
RTVSPost2010Prop30
280
     1
102
RTVSPost2010PropOp30
 70
     1
102
RTVSPost2010Prop31
280
     0
102
RTVSPost2010PropOp31
 70
     1
102
RTVSPost2010Prop32
280
     0
102
RTVSPost2010PropOp32
 70
     1
102
RTVSPost2010Prop33
280
     0
102
RTVSPost2010PropOp33
 70
     1
102
RTVSPost2010Prop34
280
     0
102
RTVSPost2010PropOp34
 70
     1
102
RTVSPost2010Prop35
280
     0
102
RTVSPost2010PropOp35
 70
     1
102
RTVSPost2010Prop36
280
     0
102
RTVSPost2010PropOp36
 70
     1
102
RTVSPost2010Prop37
 90
       50
102
RTVSPost2010PropOp37
 70
     1
102
RTVSPost2010Prop38
140
0.0
102
RTVSPost2010PropOp38
 70
     1
102
RTVSPost2010Prop39
140
1.0
102
RTVSPost2010PropOp39
 70
     1
102
RTVSPost2010Prop40
 90
        0
102
RTVSPost2010PropOp40
 70
     1
102
RTVSPost2010Prop41ColorIndex
 90
       18
102
RTVSPost2010Prop41ColorRGB
 90
        0
102
RTVSPost2010PropOp41
 70
     1
102
RTVSPost2010Prop42
 90
       50
102
RTVSPost2010PropOp42
 70
     1
102
RTVSPost2010Prop43
 90
        3
102
RTVSPost2010PropOp43
 70
     1
102
RTVSPost2010Prop44ColorIndex
 90
        5
102
RTVSPost2010Prop44ColorRGB
 90
      255
102
RTVSPost2010PropOp44
 70
     1
102
RTVSPost2010Prop45
280
     0
102
RTVSPost2010PropOp45
 70
     1
102
RTVSPost2010Prop46
 90
       50
102
RTVSPost2010PropOp46
 70
     1
102
RTVSPost2010Prop47
 90
       50
102
RTVSPost2010PropOp47
 70
     1
102
RTVSPost2010Prop48
 90
       50
102
RTVSPost2010PropOp48
 70
     1
102
RTVSPost2010Prop49
280
     0
102
RTVSPost2010PropOp49
 70
     1
102
RTVSPost2010Prop50
 90
       50
102
RTVSPost2010PropOp50
 70
     1
102
RTVSPost2010Prop51ColorIndex
 90
      256
102
RTVSPost2010Prop51ColorRGB
 90
-16777216
102
RTVSPost2010PropOp51
 70
     0
102
RTVSPost2010Prop52
140
1.0
102
RTVSPost2010PropOp52
 70
     0
102
RTVSPost2010Prop53
 90
        2
102
RTVSPost2010PropOp53
 70
     1
102
RTVSPost2010Prop54
  1
strokes_ogs.tif
102
RTVSPost2010PropOp54
 70
     1
102
RTVSPost2010Prop55
280
     0
102
RTVSPost2010PropOp55
 70
     1
102
RTVSPost2010Prop56
140
1.0
102
RTVSPost2010PropOp56
 70
     1
102
RTVSPost2010Prop57
140
1.0
102
RTVSPost2010PropOp57
 70
     1
102
RTVSPropertyOp0
 70
     1
102
RTVSPropertyOp1
 70
     1
102
RTVSPropertyOp2
 70
     1
102
RTVSPropertyOp3
 70
     1
102
RTVSPropertyOp4
 70
     1
102
RTVSPropertyOp5
 70
     1
102
RTVSPropertyOp6
 70
     1
102
RTVSPropertyOp7
 70
     1
102
RTVSPropertyOp8
 70
     1
102
RTVSPropertyOp9
 70
     1
102
RTVSPropertyOp10
 70
     1
102
RTVSPropertyOp11
 70
     1
102
RTVSPropertyOp12
 70
     1
102
RTVSPropertyOp13
 70
     1
102
RTVSPropertyOp14
 70
     1
102
RTVSPropertyOp15
 70
     1
102
RTVSPropertyOp16
 70
     1
102
RTVSPropertyOp17
 70
     1
102
RTVSPropertyOp18
 70
     1
102
RTVSPropertyOp19
 70
     1
102
RTVSPropertyOp20
 70
     1
102
RTVSPropertyOp21
 70
     1
102
RTVSPropertyOp22
 70
     1
102
RTVSPropertyOp23
 70
     1
102
RTVSPropertyOp24
 70
     1
102
RTVSPropertyOp25
 70
     1
102
RTVSPropertyOp26
 70
     1
102
RTVSPropertyOp27
 70
     1
102
RTVSPropertyOp28
 70
     1
102
RTVSPropertyOp29
 70
     1
102
RTVSPropertyOp30
 70
     1
102
RTVSPropertyOp31
 70
     1
102
RTVSPropertyOp32
 70
     1
102
RTVSPropertyOp33
 70
     1
102
RTVSPropertyOp34
 70
     1
102
RTVSPropertyOp35
 70
     1
102
RTVSPropertyOp36
 70
     1
102
RTVSPropertyOp37
 70
     1
102
RTVSPropertyOp38
 70
     1
102
RTVSPropertyOp39
 70
     1
102
RTVSPropertyOp40
 70
     1
102
RTVSPropertyOp41
 70
     1
102
RTVSPropertyOp42
 70
     1
102
RTVSPropertyOp43
 70
     1
102
RTVSPropertyOp44
 70
     1
102
RTVSPropertyOp45
 70
     1
102
RTVSPropertyOp46
 70
     1
102
RTVSPropertyOp47
 70
     1
102
RTVSPropertyOp48
 70
     1
102
RTVSPropertyOp49
 70
     1
102
RTVSPropertyOp50
 70
     1
102
RTVSPropertyOp51
 70
     0
102
RTVSPropertyOp52
 70
     0
102
RTVSPropertyOp53
 70
     1
102
RTVSPropertyOp54
 70
     1
102
RTVSPropertyOp55
 70
     1
102
RTVSPropertyOp56
 70
     1
102
RTVSPropertyOp57
 70
     1
102
RTVSPropertyOp58
 70
     1
102
RTVSPropertyOp59
 70
     1
102
RTVSPropertyOp60
 70
     1
102
RTVSPropertyOp61
 70
     1
102
RTVSPropertyOp62
 70
     1
  0
XRECORD
  5
1DE9
102
{ACAD_REACTORS
330
1DE8
102
}
330
1DE8
100
AcDbXrecord
280
     1
102
RTVSPost2010Prop28
280
     0
102
RTVSPost2010PropOp28
 70
     1
102
RTVSPost2010Prop29
280
     1
102
RTVSPost2010PropOp29
 70
     1
102
RTVSPost2010Prop30
280
     1
102
RTVSPost2010PropOp30
 70
     1
102
RTVSPost2010Prop31
280
     0
102
RTVSPost2010PropOp31
 70
     1
102
RTVSPost2010Prop32
280
     0
102
RTVSPost2010PropOp32
 70
     1
102
RTVSPost2010Prop33
280
     0
102
RTVSPost2010PropOp33
 70
     1
102
RTVSPost2010Prop34
280
     0
102
RTVSPost2010PropOp34
 70
     1
102
RTVSPost2010Prop35
280
     0
102
RTVSPost2010PropOp35
 70
     1
102
RTVSPost2010Prop36
280
     0
102
RTVSPost2010PropOp36
 70
     1
102
RTVSPost2010Prop37
 90
       50
102
RTVSPost2010PropOp37
 70
     1
102
RTVSPost2010Prop38
140
0.0
102
RTVSPost2010PropOp38
 70
     1
102
RTVSPost2010Prop39
140
1.0
102
RTVSPost2010PropOp39
 70
     1
102
RTVSPost2010Prop40
 90
        0
102
RTVSPost2010PropOp40
 70
     1
102
RTVSPost2010Prop41ColorIndex
 90
       18
102
RTVSPost2010Prop41ColorRGB
 90
        0
102
RTVSPost2010PropOp41
 70
     1
102
RTVSPost2010Prop42
 90
       50
102
RTVSPost2010PropOp42
 70
     1
102
RTVSPost2010Prop43
 90
        3
102
RTVSPost2010PropOp43
 70
     1
102
RTVSPost2010Prop44ColorIndex
 90
        5
102
RTVSPost2010Prop44ColorRGB
 90
      255
102
RTVSPost2010PropOp44
 70
     1
102
RTVSPost2010Prop45
280
     0
102
RTVSPost2010PropOp45
 70
     1
102
RTVSPost2010Prop46
 90
       50
102
RTVSPost2010PropOp46
 70
     1
102
RTVSPost2010Prop47
 90
       50
102
RTVSPost2010PropOp47
 70
     1
102
RTVSPost2010Prop48
 90
       50
102
RTVSPost2010PropOp48
 70
     1
102
RTVSPost2010Prop49
280
     0
102
RTVSPost2010PropOp49
 70
     1
102
RTVSPost2010Prop50
 90
       50
102
RTVSPost2010PropOp50
 70
     1
102
RTVSPost2010Prop51ColorIndex
 90
      256
102
RTVSPost2010Prop51ColorRGB
 90
-16777216
102
RTVSPost2010PropOp51
 70
     0
102
RTVSPost2010Prop52
140
1.0
102
RTVSPost2010PropOp52
 70
     0
102
RTVSPost2010Prop53
 90
        2
102
RTVSPost2010PropOp53
 70
     1
102
RTVSPost2010Prop54
  1
strokes_ogs.tif
102
RTVSPost2010PropOp54
 70
     1
102
RTVSPost2010Prop55
280
     0
102
RTVSPost2010PropOp55
 70
     1
102
RTVSPost2010Prop56
140
1.0
102
RTVSPost2010PropOp56
 70
     1
102
RTVSPost2010Prop57
140
1.0
102
RTVSPost2010PropOp57
 70
     1
102
RTVSPropertyOp0
 70
     1
102
RTVSPropertyOp1
 70
     1
102
RTVSPropertyOp2
 70
     1
102
RTVSPropertyOp3
 70
     1
102
RTVSPropertyOp4
 70
     1
102
RTVSPropertyOp5
 70
     1
102
RTVSPropertyOp6
 70
     1
102
RTVSPropertyOp7
 70
     1
102
RTVSPropertyOp8
 70
     1
102
RTVSPropertyOp9
 70
     1
102
RTVSPropertyOp10
 70
     1
102
RTVSPropertyOp11
 70
     1
102
RTVSPropertyOp12
 70
     1
102
RTVSPropertyOp13
 70
     1
102
RTVSPropertyOp14
 70
     1
102
RTVSPropertyOp15
 70
     1
102
RTVSPropertyOp16
 70
     1
102
RTVSPropertyOp17
 70
     1
102
RTVSPropertyOp18
 70
     1
102
RTVSPropertyOp19
 70
     1
102
RTVSPropertyOp20
 70
     1
102
RTVSPropertyOp21
 70
     1
102
RTVSPropertyOp22
 70
     1
102
RTVSPropertyOp23
 70
     1
102
RTVSPropertyOp24
 70
     1
102
RTVSPropertyOp25
 70
     1
102
RTVSPropertyOp26
 70
     1
102
RTVSPropertyOp27
 70
     1
102
RTVSPropertyOp28
 70
     1
102
RTVSPropertyOp29
 70
     1
102
RTVSPropertyOp30
 70
     1
102
RTVSPropertyOp31
 70
     1
102
RTVSPropertyOp32
 70
     1
102
RTVSPropertyOp33
 70
     1
102
RTVSPropertyOp34
 70
     1
102
RTVSPropertyOp35
 70
     1
102
RTVSPropertyOp36
 70
     1
102
RTVSPropertyOp37
 70
     1
102
RTVSPropertyOp38
 70
     1
102
RTVSPropertyOp39
 70
     1
102
RTVSPropertyOp40
 70
     1
102
RTVSPropertyOp41
 70
     1
102
RTVSPropertyOp42
 70
     1
102
RTVSPropertyOp43
 70
     1
102
RTVSPropertyOp44
 70
     1
102
RTVSPropertyOp45
 70
     1
102
RTVSPropertyOp46
 70
     1
102
RTVSPropertyOp47
 70
     1
102
RTVSPropertyOp48
 70
     1
102
RTVSPropertyOp49
 70
     1
102
RTVSPropertyOp50
 70
     1
102
RTVSPropertyOp51
 70
     0
102
RTVSPropertyOp52
 70
     0
102
RTVSPropertyOp53
 70
     1
102
RTVSPropertyOp54
 70
     1
102
RTVSPropertyOp55
 70
     1
102
RTVSPropertyOp56
 70
     1
102
RTVSPropertyOp57
 70
     1
102
RTVSPropertyOp58
 70
     1
102
RTVSPropertyOp59
 70
     1
102
RTVSPropertyOp60
 70
     1
102
RTVSPropertyOp61
 70
     1
102
RTVSPropertyOp62
 70
     1
  0
XRECORD
  5
1E05
102
{ACAD_REACTORS
330
1E04
102
}
330
1E04
100
AcDbXrecord
280
     1
102
RTVSPost2010Prop28
280
     0
102
RTVSPost2010PropOp28
 70
     1
102
RTVSPost2010Prop29
280
     1
102
RTVSPost2010PropOp29
 70
     1
102
RTVSPost2010Prop30
280
     1
102
RTVSPost2010PropOp30
 70
     1
102
RTVSPost2010Prop31
280
     0
102
RTVSPost2010PropOp31
 70
     1
102
RTVSPost2010Prop32
280
     0
102
RTVSPost2010PropOp32
 70
     1
102
RTVSPost2010Prop33
280
     0
102
RTVSPost2010PropOp33
 70
     1
102
RTVSPost2010Prop34
280
     0
102
RTVSPost2010PropOp34
 70
     1
102
RTVSPost2010Prop35
280
     0
102
RTVSPost2010PropOp35
 70
     1
102
RTVSPost2010Prop36
280
     0
102
RTVSPost2010PropOp36
 70
     1
102
RTVSPost2010Prop37
 90
       50
102
RTVSPost2010PropOp37
 70
     0
102
RTVSPost2010Prop38
140
0.0
102
RTVSPost2010PropOp38
 70
     0
102
RTVSPost2010Prop39
140
1.0
102
RTVSPost2010PropOp39
 70
     0
102
RTVSPost2010Prop40
 90
        0
102
RTVSPost2010PropOp40
 70
     0
102
RTVSPost2010Prop41ColorIndex
 90
       18
102
RTVSPost2010Prop41ColorRGB
 90
        0
102
RTVSPost2010PropOp41
 70
     0
102
RTVSPost2010Prop42
 90
       50
102
RTVSPost2010PropOp42
 70
     0
102
RTVSPost2010Prop43
 90
        3
102
RTVSPost2010PropOp43
 70
     0
102
RTVSPost2010Prop44ColorIndex
 90
        5
102
RTVSPost2010Prop44ColorRGB
 90
      255
102
RTVSPost2010PropOp44
 70
     0
102
RTVSPost2010Prop45
280
     0
102
RTVSPost2010PropOp45
 70
     1
102
RTVSPost2010Prop46
 90
       50
102
RTVSPost2010PropOp46
 70
     0
102
RTVSPost2010Prop47
 90
       50
102
RTVSPost2010PropOp47
 70
     0
102
RTVSPost2010Prop48
 90
       50
102
RTVSPost2010PropOp48
 70
     0
102
RTVSPost2010Prop49
280
     0
102
RTVSPost2010PropOp49
 70
     1
102
RTVSPost2010Prop50
 90
       50
102
RTVSPost2010PropOp50
 70
     0
102
RTVSPost2010Prop51ColorIndex
 90
      256
102
RTVSPost2010Prop51ColorRGB
 90
-16777216
102
RTVSPost2010PropOp51
 70
     0
102
RTVSPost2010Prop52
140
1.0
102
RTVSPost2010PropOp52
 70
     0
102
RTVSPost2010Prop53
 90
        2
102
RTVSPost2010PropOp53
 70
     0
102
RTVSPost2010Prop54
  1
strokes_ogs.tif
102
RTVSPost2010PropOp54
 70
     0
102
RTVSPost2010Prop55
280
     0
102
RTVSPost2010PropOp55
 70
     1
102
RTVSPost2010Prop56
140
1.0
102
RTVSPost2010PropOp56
 70
     0
102
RTVSPost2010Prop57
140
1.0
102
RTVSPost2010PropOp57
 70
     0
102
RTVSPropertyOp0
 70
     0
102
RTVSPropertyOp1
 70
     0
102
RTVSPropertyOp2
 70
     0
102
RTVSPropertyOp3
 70
     0
102
RTVSPropertyOp4
 70
     0
102
RTVSPropertyOp5
 70
     0
102
RTVSPropertyOp6
 70
     0
102
RTVSPropertyOp7
 70
     0
102
RTVSPropertyOp8
 70
     0
102
RTVSPropertyOp9
 70
     0
102
RTVSPropertyOp10
 70
     0
102
RTVSPropertyOp11
 70
     0
102
RTVSPropertyOp12
 70
     0
102
RTVSPropertyOp13
 70
     0
102
RTVSPropertyOp14
 70
     2
102
RTVSPropertyOp15
 70
     0
102
RTVSPropertyOp16
 70
     0
102
RTVSPropertyOp17
 70
     0
102
RTVSPropertyOp18
 70
     0
102
RTVSPropertyOp19
 70
     0
102
RTVSPropertyOp20
 70
     0
102
RTVSPropertyOp21
 70
     0
102
RTVSPropertyOp22
 70
     0
102
RTVSPropertyOp23
 70
     0
102
RTVSPropertyOp24
 70
     0
102
RTVSPropertyOp25
 70
     0
102
RTVSPropertyOp26
 70
     0
102
RTVSPropertyOp27
 70
     0
102
RTVSPropertyOp28
 70
     1
102
RTVSPropertyOp29
 70
     1
102
RTVSPropertyOp30
 70
     1
102
RTVSPropertyOp31
 70
     1
102
RTVSPropertyOp32
 70
     1
102
RTVSPropertyOp33
 70
     1
102
RTVSPropertyOp34
 70
     1
102
RTVSPropertyOp35
 70
     1
102
RTVSPropertyOp36
 70
     1
102
RTVSPropertyOp37
 70
     0
102
RTVSPropertyOp38
 70
     0
102
RTVSPropertyOp39
 70
     0
102
RTVSPropertyOp40
 70
     0
102
RTVSPropertyOp41
 70
     0
102
RTVSPropertyOp42
 70
     0
102
RTVSPropertyOp43
 70
     0
102
RTVSPropertyOp44
 70
     0
102
RTVSPropertyOp45
 70
     1
102
RTVSPropertyOp46
 70
     0
102
RTVSPropertyOp47
 70
     0
102
RTVSPropertyOp48
 70
     0
102
RTVSPropertyOp49
 70
     1
102
RTVSPropertyOp50
 70
     0
102
RTVSPropertyOp51
 70
     0
102
RTVSPropertyOp52
 70
     0
102
RTVSPropertyOp53
 70
     0
102
RTVSPropertyOp54
 70
     0
102
RTVSPropertyOp55
 70
     1
102
RTVSPropertyOp56
 70
     0
102
RTVSPropertyOp57
 70
     0
102
RTVSPropertyOp58
 70
     0
102
RTVSPropertyOp59
 70
     0
102
RTVSPropertyOp60
 70
     0
102
RTVSPropertyOp61
 70
     0
102
RTVSPropertyOp62
 70
     0
  0
XRECORD
  5
1DF5
102
{ACAD_REACTORS
330
1DF4
102
}
330
1DF4
100
AcDbXrecord
280
     1
102
RTVSPost2010Prop28
280
     0
102
RTVSPost2010PropOp28
 70
     1
102
RTVSPost2010Prop29
280
     1
102
RTVSPost2010PropOp29
 70
     1
102
RTVSPost2010Prop30
280
     1
102
RTVSPost2010PropOp30
 70
     1
102
RTVSPost2010Prop31
280
     0
102
RTVSPost2010PropOp31
 70
     1
102
RTVSPost2010Prop32
280
     0
102
RTVSPost2010PropOp32
 70
     1
102
RTVSPost2010Prop33
280
     0
102
RTVSPost2010PropOp33
 70
     1
102
RTVSPost2010Prop34
280
     0
102
RTVSPost2010PropOp34
 70
     1
102
RTVSPost2010Prop35
280
     0
102
RTVSPost2010PropOp35
 70
     1
102
RTVSPost2010Prop36
280
     0
102
RTVSPost2010PropOp36
 70
     1
102
RTVSPost2010Prop37
 90
       50
102
RTVSPost2010PropOp37
 70
     1
102
RTVSPost2010Prop38
140
0.0
102
RTVSPost2010PropOp38
 70
     1
102
RTVSPost2010Prop39
140
1.0
102
RTVSPost2010PropOp39
 70
     1
102
RTVSPost2010Prop40
 90
        0
102
RTVSPost2010PropOp40
 70
     1
102
RTVSPost2010Prop41ColorIndex
 90
       18
102
RTVSPost2010Prop41ColorRGB
 90
        0
102
RTVSPost2010PropOp41
 70
     1
102
RTVSPost2010Prop42
 90
       50
102
RTVSPost2010PropOp42
 70
     1
102
RTVSPost2010Prop43
 90
        3
102
RTVSPost2010PropOp43
 70
     1
102
RTVSPost2010Prop44ColorIndex
 90
        5
102
RTVSPost2010Prop44ColorRGB
 90
      255
102
RTVSPost2010PropOp44
 70
     1
102
RTVSPost2010Prop45
280
     0
102
RTVSPost2010PropOp45
 70
     1
102
RTVSPost2010Prop46
 90
       50
102
RTVSPost2010PropOp46
 70
     1
102
RTVSPost2010Prop47
 90
       50
102
RTVSPost2010PropOp47
 70
     1
102
RTVSPost2010Prop48
 90
       50
102
RTVSPost2010PropOp48
 70
     1
102
RTVSPost2010Prop49
280
     0
102
RTVSPost2010PropOp49
 70
     1
102
RTVSPost2010Prop50
 90
       50
102
RTVSPost2010PropOp50
 70
     1
102
RTVSPost2010Prop51ColorIndex
 90
      256
102
RTVSPost2010Prop51ColorRGB
 90
-16777216
102
RTVSPost2010PropOp51
 70
     0
102
RTVSPost2010Prop52
140
1.0
102
RTVSPost2010PropOp52
 70
     0
102
RTVSPost2010Prop53
 90
        2
102
RTVSPost2010PropOp53
 70
     1
102
RTVSPost2010Prop54
  1
strokes_ogs.tif
102
RTVSPost2010PropOp54
 70
     1
102
RTVSPost2010Prop55
280
     0
102
RTVSPost2010PropOp55
 70
     1
102
RTVSPost2010Prop56
140
1.0
102
RTVSPost2010PropOp56
 70
     1
102
RTVSPost2010Prop57
140
1.0
102
RTVSPost2010PropOp57
 70
     1
102
RTVSPropertyOp0
 70
     1
102
RTVSPropertyOp1
 70
     1
102
RTVSPropertyOp2
 70
     1
102
RTVSPropertyOp3
 70
     1
102
RTVSPropertyOp4
 70
     1
102
RTVSPropertyOp5
 70
     1
102
RTVSPropertyOp6
 70
     1
102
RTVSPropertyOp7
 70
     1
102
RTVSPropertyOp8
 70
     1
102
RTVSPropertyOp9
 70
     1
102
RTVSPropertyOp10
 70
     1
102
RTVSPropertyOp11
 70
     1
102
RTVSPropertyOp12
 70
     1
102
RTVSPropertyOp13
 70
     1
102
RTVSPropertyOp14
 70
     1
102
RTVSPropertyOp15
 70
     1
102
RTVSPropertyOp16
 70
     1
102
RTVSPropertyOp17
 70
     1
102
RTVSPropertyOp18
 70
     1
102
RTVSPropertyOp19
 70
     1
102
RTVSPropertyOp20
 70
     1
102
RTVSPropertyOp21
 70
     1
102
RTVSPropertyOp22
 70
     1
102
RTVSPropertyOp23
 70
     1
102
RTVSPropertyOp24
 70
     1
102
RTVSPropertyOp25
 70
     1
102
RTVSPropertyOp26
 70
     1
102
RTVSPropertyOp27
 70
     1
102
RTVSPropertyOp28
 70
     1
102
RTVSPropertyOp29
 70
     1
102
RTVSPropertyOp30
 70
     1
102
RTVSPropertyOp31
 70
     1
102
RTVSPropertyOp32
 70
     1
102
RTVSPropertyOp33
 70
     1
102
RTVSPropertyOp34
 70
     1
102
RTVSPropertyOp35
 70
     1
102
RTVSPropertyOp36
 70
     1
102
RTVSPropertyOp37
 70
     1
102
RTVSPropertyOp38
 70
     1
102
RTVSPropertyOp39
 70
     1
102
RTVSPropertyOp40
 70
     1
102
RTVSPropertyOp41
 70
     1
102
RTVSPropertyOp42
 70
     1
102
RTVSPropertyOp43
 70
     1
102
RTVSPropertyOp44
 70
     1
102
RTVSPropertyOp45
 70
     1
102
RTVSPropertyOp46
 70
     1
102
RTVSPropertyOp47
 70
     1
102
RTVSPropertyOp48
 70
     1
102
RTVSPropertyOp49
 70
     1
102
RTVSPropertyOp50
 70
     1
102
RTVSPropertyOp51
 70
     0
102
RTVSPropertyOp52
 70
     0
102
RTVSPropertyOp53
 70
     1
102
RTVSPropertyOp54
 70
     1
102
RTVSPropertyOp55
 70
     1
102
RTVSPropertyOp56
 70
     1
102
RTVSPropertyOp57
 70
     1
102
RTVSPropertyOp58
 70
     1
102
RTVSPropertyOp59
 70
     1
102
RTVSPropertyOp60
 70
     1
102
RTVSPropertyOp61
 70
     1
102
RTVSPropertyOp62
 70
     1
  0
XRECORD
  5
1E07
102
{ACAD_REACTORS
330
1E06
102
}
330
1E06
100
AcDbXrecord
280
     1
102
RTVSPost2010Prop28
280
     0
102
RTVSPost2010PropOp28
 70
     1
102
RTVSPost2010Prop29
280
     1
102
RTVSPost2010PropOp29
 70
     1
102
RTVSPost2010Prop30
280
     1
102
RTVSPost2010PropOp30
 70
     1
102
RTVSPost2010Prop31
280
     0
102
RTVSPost2010PropOp31
 70
     1
102
RTVSPost2010Prop32
280
     0
102
RTVSPost2010PropOp32
 70
     1
102
RTVSPost2010Prop33
280
     0
102
RTVSPost2010PropOp33
 70
     1
102
RTVSPost2010Prop34
280
     0
102
RTVSPost2010PropOp34
 70
     1
102
RTVSPost2010Prop35
280
     0
102
RTVSPost2010PropOp35
 70
     1
102
RTVSPost2010Prop36
280
     0
102
RTVSPost2010PropOp36
 70
     1
102
RTVSPost2010Prop37
 90
       50
102
RTVSPost2010PropOp37
 70
     0
102
RTVSPost2010Prop38
140
0.0
102
RTVSPost2010PropOp38
 70
     0
102
RTVSPost2010Prop39
140
1.0
102
RTVSPost2010PropOp39
 70
     0
102
RTVSPost2010Prop40
 90
        0
102
RTVSPost2010PropOp40
 70
     0
102
RTVSPost2010Prop41ColorIndex
 90
       18
102
RTVSPost2010Prop41ColorRGB
 90
        0
102
RTVSPost2010PropOp41
 70
     0
102
RTVSPost2010Prop42
 90
       50
102
RTVSPost2010PropOp42
 70
     0
102
RTVSPost2010Prop43
 90
        3
102
RTVSPost2010PropOp43
 70
     0
102
RTVSPost2010Prop44ColorIndex
 90
        5
102
RTVSPost2010Prop44ColorRGB
 90
      255
102
RTVSPost2010PropOp44
 70
     0
102
RTVSPost2010Prop45
280
     0
102
RTVSPost2010PropOp45
 70
     1
102
RTVSPost2010Prop46
 90
       50
102
RTVSPost2010PropOp46
 70
     0
102
RTVSPost2010Prop47
 90
       50
102
RTVSPost2010PropOp47
 70
     0
102
RTVSPost2010Prop48
 90
       50
102
RTVSPost2010PropOp48
 70
     0
102
RTVSPost2010Prop49
280
     0
102
RTVSPost2010PropOp49
 70
     1
102
RTVSPost2010Prop50
 90
       50
102
RTVSPost2010PropOp50
 70
     0
102
RTVSPost2010Prop51ColorIndex
 90
      256
102
RTVSPost2010Prop51ColorRGB
 90
-16777216
102
RTVSPost2010PropOp51
 70
     0
102
RTVSPost2010Prop52
140
1.0
102
RTVSPost2010PropOp52
 70
     0
102
RTVSPost2010Prop53
 90
        2
102
RTVSPost2010PropOp53
 70
     0
102
RTVSPost2010Prop54
  1
strokes_ogs.tif
102
RTVSPost2010PropOp54
 70
     0
102
RTVSPost2010Prop55
280
     0
102
RTVSPost2010PropOp55
 70
     1
102
RTVSPost2010Prop56
140
1.0
102
RTVSPost2010PropOp56
 70
     0
102
RTVSPost2010Prop57
140
1.0
102
RTVSPost2010PropOp57
 70
     0
102
RTVSPropertyOp0
 70
     0
102
RTVSPropertyOp1
 70
     0
102
RTVSPropertyOp2
 70
     0
102
RTVSPropertyOp3
 70
     0
102
RTVSPropertyOp4
 70
     0
102
RTVSPropertyOp5
 70
     0
102
RTVSPropertyOp6
 70
     0
102
RTVSPropertyOp7
 70
     0
102
RTVSPropertyOp8
 70
     0
102
RTVSPropertyOp9
 70
     0
102
RTVSPropertyOp10
 70
     0
102
RTVSPropertyOp11
 70
     0
102
RTVSPropertyOp12
 70
     0
102
RTVSPropertyOp13
 70
     0
102
RTVSPropertyOp14
 70
     2
102
RTVSPropertyOp15
 70
     0
102
RTVSPropertyOp16
 70
     0
102
RTVSPropertyOp17
 70
     0
102
RTVSPropertyOp18
 70
     0
102
RTVSPropertyOp19
 70
     0
102
RTVSPropertyOp20
 70
     0
102
RTVSPropertyOp21
 70
     0
102
RTVSPropertyOp22
 70
     0
102
RTVSPropertyOp23
 70
     0
102
RTVSPropertyOp24
 70
     0
102
RTVSPropertyOp25
 70
     0
102
RTVSPropertyOp26
 70
     0
102
RTVSPropertyOp27
 70
     0
102
RTVSPropertyOp28
 70
     1
102
RTVSPropertyOp29
 70
     1
102
RTVSPropertyOp30
 70
     1
102
RTVSPropertyOp31
 70
     1
102
RTVSPropertyOp32
 70
     1
102
RTVSPropertyOp33
 70
     1
102
RTVSPropertyOp34
 70
     1
102
RTVSPropertyOp35
 70
     1
102
RTVSPropertyOp36
 70
     1
102
RTVSPropertyOp37
 70
     0
102
RTVSPropertyOp38
 70
     0
102
RTVSPropertyOp39
 70
     0
102
RTVSPropertyOp40
 70
     0
102
RTVSPropertyOp41
 70
     0
102
RTVSPropertyOp42
 70
     0
102
RTVSPropertyOp43
 70
     0
102
RTVSPropertyOp44
 70
     0
102
RTVSPropertyOp45
 70
     1
102
RTVSPropertyOp46
 70
     0
102
RTVSPropertyOp47
 70
     0
102
RTVSPropertyOp48
 70
     0
102
RTVSPropertyOp49
 70
     1
102
RTVSPropertyOp50
 70
     0
102
RTVSPropertyOp51
 70
     0
102
RTVSPropertyOp52
 70
     0
102
RTVSPropertyOp53
 70
     0
102
RTVSPropertyOp54
 70
     0
102
RTVSPropertyOp55
 70
     1
102
RTVSPropertyOp56
 70
     0
102
RTVSPropertyOp57
 70
     0
102
RTVSPropertyOp58
 70
     0
102
RTVSPropertyOp59
 70
     0
102
RTVSPropertyOp60
 70
     0
102
RTVSPropertyOp61
 70
     0
102
RTVSPropertyOp62
 70
     0
  0
XRECORD
  5
1DED
102
{ACAD_REACTORS
330
1DEC
102
}
330
1DEC
100
AcDbXrecord
280
     1
102
RTVSPost2010Prop28
280
     0
102
RTVSPost2010PropOp28
 70
     1
102
RTVSPost2010Prop29
280
     1
102
RTVSPost2010PropOp29
 70
     1
102
RTVSPost2010Prop30
280
     1
102
RTVSPost2010PropOp30
 70
     1
102
RTVSPost2010Prop31
280
     0
102
RTVSPost2010PropOp31
 70
     1
102
RTVSPost2010Prop32
280
     0
102
RTVSPost2010PropOp32
 70
     1
102
RTVSPost2010Prop33
280
     0
102
RTVSPost2010PropOp33
 70
     1
102
RTVSPost2010Prop34
280
     0
102
RTVSPost2010PropOp34
 70
     1
102
RTVSPost2010Prop35
280
     0
102
RTVSPost2010PropOp35
 70
     1
102
RTVSPost2010Prop36
280
     0
102
RTVSPost2010PropOp36
 70
     1
102
RTVSPost2010Prop37
 90
       50
102
RTVSPost2010PropOp37
 70
     1
102
RTVSPost2010Prop38
140
0.0
102
RTVSPost2010PropOp38
 70
     1
102
RTVSPost2010Prop39
140
1.0
102
RTVSPost2010PropOp39
 70
     1
102
RTVSPost2010Prop40
 90
        0
102
RTVSPost2010PropOp40
 70
     1
102
RTVSPost2010Prop41ColorIndex
 90
       18
102
RTVSPost2010Prop41ColorRGB
 90
        0
102
RTVSPost2010PropOp41
 70
     1
102
RTVSPost2010Prop42
 90
       50
102
RTVSPost2010PropOp42
 70
     1
102
RTVSPost2010Prop43
 90
        3
102
RTVSPost2010PropOp43
 70
     1
102
RTVSPost2010Prop44ColorIndex
 90
        5
102
RTVSPost2010Prop44ColorRGB
 90
      255
102
RTVSPost2010PropOp44
 70
     1
102
RTVSPost2010Prop45
280
     0
102
RTVSPost2010PropOp45
 70
     1
102
RTVSPost2010Prop46
 90
       50
102
RTVSPost2010PropOp46
 70
     1
102
RTVSPost2010Prop47
 90
       50
102
RTVSPost2010PropOp47
 70
     1
102
RTVSPost2010Prop48
 90
       50
102
RTVSPost2010PropOp48
 70
     1
102
RTVSPost2010Prop49
280
     0
102
RTVSPost2010PropOp49
 70
     1
102
RTVSPost2010Prop50
 90
       50
102
RTVSPost2010PropOp50
 70
     1
102
RTVSPost2010Prop51ColorIndex
 90
      256
102
RTVSPost2010Prop51ColorRGB
 90
-16777216
102
RTVSPost2010PropOp51
 70
     0
102
RTVSPost2010Prop52
140
1.0
102
RTVSPost2010PropOp52
 70
     0
102
RTVSPost2010Prop53
 90
        2
102
RTVSPost2010PropOp53
 70
     1
102
RTVSPost2010Prop54
  1
strokes_ogs.tif
102
RTVSPost2010PropOp54
 70
     1
102
RTVSPost2010Prop55
280
     0
102
RTVSPost2010PropOp55
 70
     1
102
RTVSPost2010Prop56
140
1.0
102
RTVSPost2010PropOp56
 70
     1
102
RTVSPost2010Prop57
140
1.0
102
RTVSPost2010PropOp57
 70
     1
102
RTVSPropertyOp0
 70
     1
102
RTVSPropertyOp1
 70
     1
102
RTVSPropertyOp2
 70
     1
102
RTVSPropertyOp3
 70
     1
102
RTVSPropertyOp4
 70
     1
102
RTVSPropertyOp5
 70
     1
102
RTVSPropertyOp6
 70
     1
102
RTVSPropertyOp7
 70
     1
102
RTVSPropertyOp8
 70
     1
102
RTVSPropertyOp9
 70
     1
102
RTVSPropertyOp10
 70
     1
102
RTVSPropertyOp11
 70
     1
102
RTVSPropertyOp12
 70
     1
102
RTVSPropertyOp13
 70
     1
102
RTVSPropertyOp14
 70
     1
102
RTVSPropertyOp15
 70
     1
102
RTVSPropertyOp16
 70
     1
102
RTVSPropertyOp17
 70
     1
102
RTVSPropertyOp18
 70
     1
102
RTVSPropertyOp19
 70
     1
102
RTVSPropertyOp20
 70
     1
102
RTVSPropertyOp21
 70
     1
102
RTVSPropertyOp22
 70
     1
102
RTVSPropertyOp23
 70
     1
102
RTVSPropertyOp24
 70
     1
102
RTVSPropertyOp25
 70
     1
102
RTVSPropertyOp26
 70
     1
102
RTVSPropertyOp27
 70
     1
102
RTVSPropertyOp28
 70
     1
102
RTVSPropertyOp29
 70
     1
102
RTVSPropertyOp30
 70
     1
102
RTVSPropertyOp31
 70
     1
102
RTVSPropertyOp32
 70
     1
102
RTVSPropertyOp33
 70
     1
102
RTVSPropertyOp34
 70
     1
102
RTVSPropertyOp35
 70
     1
102
RTVSPropertyOp36
 70
     1
102
RTVSPropertyOp37
 70
     1
102
RTVSPropertyOp38
 70
     1
102
RTVSPropertyOp39
 70
     1
102
RTVSPropertyOp40
 70
     1
102
RTVSPropertyOp41
 70
     1
102
RTVSPropertyOp42
 70
     1
102
RTVSPropertyOp43
 70
     1
102
RTVSPropertyOp44
 70
     1
102
RTVSPropertyOp45
 70
     1
102
RTVSPropertyOp46
 70
     1
102
RTVSPropertyOp47
 70
     1
102
RTVSPropertyOp48
 70
     1
102
RTVSPropertyOp49
 70
     1
102
RTVSPropertyOp50
 70
     1
102
RTVSPropertyOp51
 70
     0
102
RTVSPropertyOp52
 70
     0
102
RTVSPropertyOp53
 70
     1
102
RTVSPropertyOp54
 70
     1
102
RTVSPropertyOp55
 70
     1
102
RTVSPropertyOp56
 70
     1
102
RTVSPropertyOp57
 70
     1
102
RTVSPropertyOp58
 70
     1
102
RTVSPropertyOp59
 70
     1
102
RTVSPropertyOp60
 70
     1
102
RTVSPropertyOp61
 70
     1
102
RTVSPropertyOp62
 70
     1
  0
XRECORD
  5
1E03
102
{ACAD_REACTORS
330
1E02
102
}
330
1E02
100
AcDbXrecord
280
     1
102
RTVSPost2010Prop28
280
     0
102
RTVSPost2010PropOp28
 70
     1
102
RTVSPost2010Prop29
280
     1
102
RTVSPost2010PropOp29
 70
     1
102
RTVSPost2010Prop30
280
     1
102
RTVSPost2010PropOp30
 70
     1
102
RTVSPost2010Prop31
280
     0
102
RTVSPost2010PropOp31
 70
     1
102
RTVSPost2010Prop32
280
     0
102
RTVSPost2010PropOp32
 70
     1
102
RTVSPost2010Prop33
280
     0
102
RTVSPost2010PropOp33
 70
     1
102
RTVSPost2010Prop34
280
     0
102
RTVSPost2010PropOp34
 70
     1
102
RTVSPost2010Prop35
280
     0
102
RTVSPost2010PropOp35
 70
     1
102
RTVSPost2010Prop36
280
     0
102
RTVSPost2010PropOp36
 70
     1
102
RTVSPost2010Prop37
 90
       50
102
RTVSPost2010PropOp37
 70
     1
102
RTVSPost2010Prop38
140
0.0
102
RTVSPost2010PropOp38
 70
     1
102
RTVSPost2010Prop39
140
1.0
102
RTVSPost2010PropOp39
 70
     1
102
RTVSPost2010Prop40
 90
        0
102
RTVSPost2010PropOp40
 70
     1
102
RTVSPost2010Prop41ColorIndex
 90
       18
102
RTVSPost2010Prop41ColorRGB
 90
        0
102
RTVSPost2010PropOp41
 70
     1
102
RTVSPost2010Prop42
 90
       50
102
RTVSPost2010PropOp42
 70
     1
102
RTVSPost2010Prop43
 90
        3
102
RTVSPost2010PropOp43
 70
     1
102
RTVSPost2010Prop44ColorIndex
 90
        5
102
RTVSPost2010Prop44ColorRGB
 90
      255
102
RTVSPost2010PropOp44
 70
     1
102
RTVSPost2010Prop45
280
     0
102
RTVSPost2010PropOp45
 70
     1
102
RTVSPost2010Prop46
 90
       50
102
RTVSPost2010PropOp46
 70
     1
102
RTVSPost2010Prop47
 90
       50
102
RTVSPost2010PropOp47
 70
     1
102
RTVSPost2010Prop48
 90
       50
102
RTVSPost2010PropOp48
 70
     1
102
RTVSPost2010Prop49
280
     0
102
RTVSPost2010PropOp49
 70
     1
102
RTVSPost2010Prop50
 90
       50
102
RTVSPost2010PropOp50
 70
     1
102
RTVSPost2010Prop51ColorIndex
 90
      256
102
RTVSPost2010Prop51ColorRGB
 90
-16777216
102
RTVSPost2010PropOp51
 70
     0
102
RTVSPost2010Prop52
140
1.0
102
RTVSPost2010PropOp52
 70
     0
102
RTVSPost2010Prop53
 90
        2
102
RTVSPost2010PropOp53
 70
     1
102
RTVSPost2010Prop54
  1
strokes_ogs.tif
102
RTVSPost2010PropOp54
 70
     1
102
RTVSPost2010Prop55
280
     0
102
RTVSPost2010PropOp55
 70
     1
102
RTVSPost2010Prop56
140
1.0
102
RTVSPost2010PropOp56
 70
     1
102
RTVSPost2010Prop57
140
1.0
102
RTVSPost2010PropOp57
 70
     1
102
RTVSPropertyOp0
 70
     1
102
RTVSPropertyOp1
 70
     1
102
RTVSPropertyOp2
 70
     1
102
RTVSPropertyOp3
 70
     1
102
RTVSPropertyOp4
 70
     1
102
RTVSPropertyOp5
 70
     1
102
RTVSPropertyOp6
 70
     1
102
RTVSPropertyOp7
 70
     1
102
RTVSPropertyOp8
 70
     1
102
RTVSPropertyOp9
 70
     1
102
RTVSPropertyOp10
 70
     1
102
RTVSPropertyOp11
 70
     1
102
RTVSPropertyOp12
 70
     1
102
RTVSPropertyOp13
 70
     1
102
RTVSPropertyOp14
 70
     1
102
RTVSPropertyOp15
 70
     1
102
RTVSPropertyOp16
 70
     1
102
RTVSPropertyOp17
 70
     1
102
RTVSPropertyOp18
 70
     1
102
RTVSPropertyOp19
 70
     1
102
RTVSPropertyOp20
 70
     1
102
RTVSPropertyOp21
 70
     1
102
RTVSPropertyOp22
 70
     1
102
RTVSPropertyOp23
 70
     1
102
RTVSPropertyOp24
 70
     1
102
RTVSPropertyOp25
 70
     1
102
RTVSPropertyOp26
 70
     1
102
RTVSPropertyOp27
 70
     1
102
RTVSPropertyOp28
 70
     1
102
RTVSPropertyOp29
 70
     1
102
RTVSPropertyOp30
 70
     1
102
RTVSPropertyOp31
 70
     1
102
RTVSPropertyOp32
 70
     1
102
RTVSPropertyOp33
 70
     1
102
RTVSPropertyOp34
 70
     1
102
RTVSPropertyOp35
 70
     1
102
RTVSPropertyOp36
 70
     1
102
RTVSPropertyOp37
 70
     1
102
RTVSPropertyOp38
 70
     1
102
RTVSPropertyOp39
 70
     1
102
RTVSPropertyOp40
 70
     1
102
RTVSPropertyOp41
 70
     1
102
RTVSPropertyOp42
 70
     1
102
RTVSPropertyOp43
 70
     1
102
RTVSPropertyOp44
 70
     1
102
RTVSPropertyOp45
 70
     1
102
RTVSPropertyOp46
 70
     1
102
RTVSPropertyOp47
 70
     1
102
RTVSPropertyOp48
 70
     1
102
RTVSPropertyOp49
 70
     1
102
RTVSPropertyOp50
 70
     1
102
RTVSPropertyOp51
 70
     0
102
RTVSPropertyOp52
 70
     0
102
RTVSPropertyOp53
 70
     1
102
RTVSPropertyOp54
 70
     1
102
RTVSPropertyOp55
 70
     1
102
RTVSPropertyOp56
 70
     1
102
RTVSPropertyOp57
 70
     1
102
RTVSPropertyOp58
 70
     1
102
RTVSPropertyOp59
 70
     1
102
RTVSPropertyOp60
 70
     1
102
RTVSPropertyOp61
 70
     1
102
RTVSPropertyOp62
 70
     1
  0
XRECORD
  5
1E01
102
{ACAD_REACTORS
330
1E00
102
}
330
1E00
100
AcDbXrecord
280
     1
102
RTVSPost2010Prop28
280
     0
102
RTVSPost2010PropOp28
 70
     1
102
RTVSPost2010Prop29
280
     1
102
RTVSPost2010PropOp29
 70
     1
102
RTVSPost2010Prop30
280
     1
102
RTVSPost2010PropOp30
 70
     1
102
RTVSPost2010Prop31
280
     0
102
RTVSPost2010PropOp31
 70
     1
102
RTVSPost2010Prop32
280
     0
102
RTVSPost2010PropOp32
 70
     1
102
RTVSPost2010Prop33
280
     0
102
RTVSPost2010PropOp33
 70
     1
102
RTVSPost2010Prop34
280
     0
102
RTVSPost2010PropOp34
 70
     1
102
RTVSPost2010Prop35
280
     0
102
RTVSPost2010PropOp35
 70
     1
102
RTVSPost2010Prop36
280
     0
102
RTVSPost2010PropOp36
 70
     1
102
RTVSPost2010Prop37
 90
       50
102
RTVSPost2010PropOp37
 70
     1
102
RTVSPost2010Prop38
140
0.0
102
RTVSPost2010PropOp38
 70
     1
102
RTVSPost2010Prop39
140
1.0
102
RTVSPost2010PropOp39
 70
     1
102
RTVSPost2010Prop40
 90
        0
102
RTVSPost2010PropOp40
 70
     1
102
RTVSPost2010Prop41ColorIndex
 90
       18
102
RTVSPost2010Prop41ColorRGB
 90
        0
102
RTVSPost2010PropOp41
 70
     1
102
RTVSPost2010Prop42
 90
       50
102
RTVSPost2010PropOp42
 70
     1
102
RTVSPost2010Prop43
 90
        3
102
RTVSPost2010PropOp43
 70
     1
102
RTVSPost2010Prop44ColorIndex
 90
        5
102
RTVSPost2010Prop44ColorRGB
 90
      255
102
RTVSPost2010PropOp44
 70
     1
102
RTVSPost2010Prop45
280
     0
102
RTVSPost2010PropOp45
 70
     1
102
RTVSPost2010Prop46
 90
       50
102
RTVSPost2010PropOp46
 70
     1
102
RTVSPost2010Prop47
 90
       50
102
RTVSPost2010PropOp47
 70
     1
102
RTVSPost2010Prop48
 90
       50
102
RTVSPost2010PropOp48
 70
     1
102
RTVSPost2010Prop49
280
     0
102
RTVSPost2010PropOp49
 70
     1
102
RTVSPost2010Prop50
 90
       50
102
RTVSPost2010PropOp50
 70
     1
102
RTVSPost2010Prop51ColorIndex
 90
      256
102
RTVSPost2010Prop51ColorRGB
 90
-16777216
102
RTVSPost2010PropOp51
 70
     0
102
RTVSPost2010Prop52
140
1.0
102
RTVSPost2010PropOp52
 70
     0
102
RTVSPost2010Prop53
 90
        2
102
RTVSPost2010PropOp53
 70
     1
102
RTVSPost2010Prop54
  1
strokes_ogs.tif
102
RTVSPost2010PropOp54
 70
     1
102
RTVSPost2010Prop55
280
     0
102
RTVSPost2010PropOp55
 70
     1
102
RTVSPost2010Prop56
140
1.0
102
RTVSPost2010PropOp56
 70
     1
102
RTVSPost2010Prop57
140
1.0
102
RTVSPost2010PropOp57
 70
     1
102
RTVSPropertyOp0
 70
     1
102
RTVSPropertyOp1
 70
     1
102
RTVSPropertyOp2
 70
     1
102
RTVSPropertyOp3
 70
     1
102
RTVSPropertyOp4
 70
     1
102
RTVSPropertyOp5
 70
     1
102
RTVSPropertyOp6
 70
     1
102
RTVSPropertyOp7
 70
     1
102
RTVSPropertyOp8
 70
     1
102
RTVSPropertyOp9
 70
     1
102
RTVSPropertyOp10
 70
     1
102
RTVSPropertyOp11
 70
     1
102
RTVSPropertyOp12
 70
     1
102
RTVSPropertyOp13
 70
     1
102
RTVSPropertyOp14
 70
     1
102
RTVSPropertyOp15
 70
     1
102
RTVSPropertyOp16
 70
     1
102
RTVSPropertyOp17
 70
     1
102
RTVSPropertyOp18
 70
     1
102
RTVSPropertyOp19
 70
     1
102
RTVSPropertyOp20
 70
     1
102
RTVSPropertyOp21
 70
     1
102
RTVSPropertyOp22
 70
     1
102
RTVSPropertyOp23
 70
     1
102
RTVSPropertyOp24
 70
     1
102
RTVSPropertyOp25
 70
     1
102
RTVSPropertyOp26
 70
     1
102
RTVSPropertyOp27
 70
     1
102
RTVSPropertyOp28
 70
     1
102
RTVSPropertyOp29
 70
     1
102
RTVSPropertyOp30
 70
     1
102
RTVSPropertyOp31
 70
     1
102
RTVSPropertyOp32
 70
     1
102
RTVSPropertyOp33
 70
     1
102
RTVSPropertyOp34
 70
     1
102
RTVSPropertyOp35
 70
     1
102
RTVSPropertyOp36
 70
     1
102
RTVSPropertyOp37
 70
     1
102
RTVSPropertyOp38
 70
     1
102
RTVSPropertyOp39
 70
     1
102
RTVSPropertyOp40
 70
     1
102
RTVSPropertyOp41
 70
     1
102
RTVSPropertyOp42
 70
     1
102
RTVSPropertyOp43
 70
     1
102
RTVSPropertyOp44
 70
     1
102
RTVSPropertyOp45
 70
     1
102
RTVSPropertyOp46
 70
     1
102
RTVSPropertyOp47
 70
     1
102
RTVSPropertyOp48
 70
     1
102
RTVSPropertyOp49
 70
     1
102
RTVSPropertyOp50
 70
     1
102
RTVSPropertyOp51
 70
     0
102
RTVSPropertyOp52
 70
     0
102
RTVSPropertyOp53
 70
     1
102
RTVSPropertyOp54
 70
     1
102
RTVSPropertyOp55
 70
     1
102
RTVSPropertyOp56
 70
     1
102
RTVSPropertyOp57
 70
     1
102
RTVSPropertyOp58
 70
     1
102
RTVSPropertyOp59
 70
     1
102
RTVSPropertyOp60
 70
     1
102
RTVSPropertyOp61
 70
     1
102
RTVSPropertyOp62
 70
     1
  0
XRECORD
  5
1DFB
102
{ACAD_REACTORS
330
1DFA
102
}
330
1DFA
100
AcDbXrecord
280
     1
102
RTVSPost2010Prop28
280
     0
102
RTVSPost2010PropOp28
 70
     1
102
RTVSPost2010Prop29
280
     1
102
RTVSPost2010PropOp29
 70
     1
102
RTVSPost2010Prop30
280
     1
102
RTVSPost2010PropOp30
 70
     1
102
RTVSPost2010Prop31
280
     0
102
RTVSPost2010PropOp31
 70
     1
102
RTVSPost2010Prop32
280
     0
102
RTVSPost2010PropOp32
 70
     1
102
RTVSPost2010Prop33
280
     0
102
RTVSPost2010PropOp33
 70
     1
102
RTVSPost2010Prop34
280
     0
102
RTVSPost2010PropOp34
 70
     1
102
RTVSPost2010Prop35
280
     0
102
RTVSPost2010PropOp35
 70
     1
102
RTVSPost2010Prop36
280
     0
102
RTVSPost2010PropOp36
 70
     1
102
RTVSPost2010Prop37
 90
       50
102
RTVSPost2010PropOp37
 70
     1
102
RTVSPost2010Prop38
140
0.0
102
RTVSPost2010PropOp38
 70
     1
102
RTVSPost2010Prop39
140
1.0
102
RTVSPost2010PropOp39
 70
     1
102
RTVSPost2010Prop40
 90
        0
102
RTVSPost2010PropOp40
 70
     1
102
RTVSPost2010Prop41ColorIndex
 90
       18
102
RTVSPost2010Prop41ColorRGB
 90
        0
102
RTVSPost2010PropOp41
 70
     1
102
RTVSPost2010Prop42
 90
       50
102
RTVSPost2010PropOp42
 70
     1
102
RTVSPost2010Prop43
 90
        3
102
RTVSPost2010PropOp43
 70
     1
102
RTVSPost2010Prop44ColorIndex
 90
        5
102
RTVSPost2010Prop44ColorRGB
 90
      255
102
RTVSPost2010PropOp44
 70
     1
102
RTVSPost2010Prop45
280
     0
102
RTVSPost2010PropOp45
 70
     1
102
RTVSPost2010Prop46
 90
       50
102
RTVSPost2010PropOp46
 70
     1
102
RTVSPost2010Prop47
 90
       50
102
RTVSPost2010PropOp47
 70
     1
102
RTVSPost2010Prop48
 90
       50
102
RTVSPost2010PropOp48
 70
     1
102
RTVSPost2010Prop49
280
     0
102
RTVSPost2010PropOp49
 70
     1
102
RTVSPost2010Prop50
 90
       50
102
RTVSPost2010PropOp50
 70
     1
102
RTVSPost2010Prop51ColorIndex
 90
      256
102
RTVSPost2010Prop51ColorRGB
 90
-16777216
102
RTVSPost2010PropOp51
 70
     0
102
RTVSPost2010Prop52
140
1.0
102
RTVSPost2010PropOp52
 70
     0
102
RTVSPost2010Prop53
 90
        2
102
RTVSPost2010PropOp53
 70
     1
102
RTVSPost2010Prop54
  1
strokes_ogs.tif
102
RTVSPost2010PropOp54
 70
     1
102
RTVSPost2010Prop55
280
     0
102
RTVSPost2010PropOp55
 70
     1
102
RTVSPost2010Prop56
140
1.0
102
RTVSPost2010PropOp56
 70
     1
102
RTVSPost2010Prop57
140
1.0
102
RTVSPost2010PropOp57
 70
     1
102
RTVSPropertyOp0
 70
     1
102
RTVSPropertyOp1
 70
     1
102
RTVSPropertyOp2
 70
     1
102
RTVSPropertyOp3
 70
     1
102
RTVSPropertyOp4
 70
     1
102
RTVSPropertyOp5
 70
     1
102
RTVSPropertyOp6
 70
     1
102
RTVSPropertyOp7
 70
     1
102
RTVSPropertyOp8
 70
     1
102
RTVSPropertyOp9
 70
     1
102
RTVSPropertyOp10
 70
     1
102
RTVSPropertyOp11
 70
     1
102
RTVSPropertyOp12
 70
     1
102
RTVSPropertyOp13
 70
     1
102
RTVSPropertyOp14
 70
     1
102
RTVSPropertyOp15
 70
     1
102
RTVSPropertyOp16
 70
     1
102
RTVSPropertyOp17
 70
     1
102
RTVSPropertyOp18
 70
     1
102
RTVSPropertyOp19
 70
     1
102
RTVSPropertyOp20
 70
     1
102
RTVSPropertyOp21
 70
     1
102
RTVSPropertyOp22
 70
     1
102
RTVSPropertyOp23
 70
     1
102
RTVSPropertyOp24
 70
     1
102
RTVSPropertyOp25
 70
     1
102
RTVSPropertyOp26
 70
     1
102
RTVSPropertyOp27
 70
     1
102
RTVSPropertyOp28
 70
     1
102
RTVSPropertyOp29
 70
     1
102
RTVSPropertyOp30
 70
     1
102
RTVSPropertyOp31
 70
     1
102
RTVSPropertyOp32
 70
     1
102
RTVSPropertyOp33
 70
     1
102
RTVSPropertyOp34
 70
     1
102
RTVSPropertyOp35
 70
     1
102
RTVSPropertyOp36
 70
     1
102
RTVSPropertyOp37
 70
     1
102
RTVSPropertyOp38
 70
     1
102
RTVSPropertyOp39
 70
     1
102
RTVSPropertyOp40
 70
     1
102
RTVSPropertyOp41
 70
     1
102
RTVSPropertyOp42
 70
     1
102
RTVSPropertyOp43
 70
     1
102
RTVSPropertyOp44
 70
     1
102
RTVSPropertyOp45
 70
     1
102
RTVSPropertyOp46
 70
     1
102
RTVSPropertyOp47
 70
     1
102
RTVSPropertyOp48
 70
     1
102
RTVSPropertyOp49
 70
     1
102
RTVSPropertyOp50
 70
     1
102
RTVSPropertyOp51
 70
     0
102
RTVSPropertyOp52
 70
     0
102
RTVSPropertyOp53
 70
     1
102
RTVSPropertyOp54
 70
     1
102
RTVSPropertyOp55
 70
     1
102
RTVSPropertyOp56
 70
     1
102
RTVSPropertyOp57
 70
     1
102
RTVSPropertyOp58
 70
     1
102
RTVSPropertyOp59
 70
     1
102
RTVSPropertyOp60
 70
     1
102
RTVSPropertyOp61
 70
     1
102
RTVSPropertyOp62
 70
     1
  0
XRECORD
  5
1DFD
102
{ACAD_REACTORS
330
1DFC
102
}
330
1DFC
100
AcDbXrecord
280
     1
102
RTVSPost2010Prop28
280
     0
102
RTVSPost2010PropOp28
 70
     1
102
RTVSPost2010Prop29
280
     1
102
RTVSPost2010PropOp29
 70
     1
102
RTVSPost2010Prop30
280
     1
102
RTVSPost2010PropOp30
 70
     1
102
RTVSPost2010Prop31
280
     0
102
RTVSPost2010PropOp31
 70
     1
102
RTVSPost2010Prop32
280
     0
102
RTVSPost2010PropOp32
 70
     1
102
RTVSPost2010Prop33
280
     0
102
RTVSPost2010PropOp33
 70
     1
102
RTVSPost2010Prop34
280
     0
102
RTVSPost2010PropOp34
 70
     1
102
RTVSPost2010Prop35
280
     0
102
RTVSPost2010PropOp35
 70
     1
102
RTVSPost2010Prop36
280
     0
102
RTVSPost2010PropOp36
 70
     1
102
RTVSPost2010Prop37
 90
       50
102
RTVSPost2010PropOp37
 70
     1
102
RTVSPost2010Prop38
140
0.0
102
RTVSPost2010PropOp38
 70
     1
102
RTVSPost2010Prop39
140
1.0
102
RTVSPost2010PropOp39
 70
     1
102
RTVSPost2010Prop40
 90
        0
102
RTVSPost2010PropOp40
 70
     1
102
RTVSPost2010Prop41ColorIndex
 90
       18
102
RTVSPost2010Prop41ColorRGB
 90
        0
102
RTVSPost2010PropOp41
 70
     1
102
RTVSPost2010Prop42
 90
       50
102
RTVSPost2010PropOp42
 70
     1
102
RTVSPost2010Prop43
 90
        3
102
RTVSPost2010PropOp43
 70
     1
102
RTVSPost2010Prop44ColorIndex
 90
        5
102
RTVSPost2010Prop44ColorRGB
 90
      255
102
RTVSPost2010PropOp44
 70
     1
102
RTVSPost2010Prop45
280
     0
102
RTVSPost2010PropOp45
 70
     1
102
RTVSPost2010Prop46
 90
       50
102
RTVSPost2010PropOp46
 70
     1
102
RTVSPost2010Prop47
 90
       50
102
RTVSPost2010PropOp47
 70
     1
102
RTVSPost2010Prop48
 90
       50
102
RTVSPost2010PropOp48
 70
     1
102
RTVSPost2010Prop49
280
     0
102
RTVSPost2010PropOp49
 70
     1
102
RTVSPost2010Prop50
 90
       50
102
RTVSPost2010PropOp50
 70
     1
102
RTVSPost2010Prop51ColorIndex
 90
      256
102
RTVSPost2010Prop51ColorRGB
 90
-16777216
102
RTVSPost2010PropOp51
 70
     0
102
RTVSPost2010Prop52
140
1.0
102
RTVSPost2010PropOp52
 70
     0
102
RTVSPost2010Prop53
 90
        2
102
RTVSPost2010PropOp53
 70
     1
102
RTVSPost2010Prop54
  1
strokes_ogs.tif
102
RTVSPost2010PropOp54
 70
     1
102
RTVSPost2010Prop55
280
     0
102
RTVSPost2010PropOp55
 70
     1
102
RTVSPost2010Prop56
140
1.0
102
RTVSPost2010PropOp56
 70
     1
102
RTVSPost2010Prop57
140
1.0
102
RTVSPost2010PropOp57
 70
     1
102
RTVSPropertyOp0
 70
     1
102
RTVSPropertyOp1
 70
     1
102
RTVSPropertyOp2
 70
     1
102
RTVSPropertyOp3
 70
     1
102
RTVSPropertyOp4
 70
     1
102
RTVSPropertyOp5
 70
     1
102
RTVSPropertyOp6
 70
     1
102
RTVSPropertyOp7
 70
     1
102
RTVSPropertyOp8
 70
     1
102
RTVSPropertyOp9
 70
     1
102
RTVSPropertyOp10
 70
     1
102
RTVSPropertyOp11
 70
     1
102
RTVSPropertyOp12
 70
     1
102
RTVSPropertyOp13
 70
     1
102
RTVSPropertyOp14
 70
     1
102
RTVSPropertyOp15
 70
     1
102
RTVSPropertyOp16
 70
     1
102
RTVSPropertyOp17
 70
     1
102
RTVSPropertyOp18
 70
     1
102
RTVSPropertyOp19
 70
     1
102
RTVSPropertyOp20
 70
     1
102
RTVSPropertyOp21
 70
     1
102
RTVSPropertyOp22
 70
     1
102
RTVSPropertyOp23
 70
     1
102
RTVSPropertyOp24
 70
     1
102
RTVSPropertyOp25
 70
     1
102
RTVSPropertyOp26
 70
     1
102
RTVSPropertyOp27
 70
     1
102
RTVSPropertyOp28
 70
     1
102
RTVSPropertyOp29
 70
     1
102
RTVSPropertyOp30
 70
     1
102
RTVSPropertyOp31
 70
     1
102
RTVSPropertyOp32
 70
     1
102
RTVSPropertyOp33
 70
     1
102
RTVSPropertyOp34
 70
     1
102
RTVSPropertyOp35
 70
     1
102
RTVSPropertyOp36
 70
     1
102
RTVSPropertyOp37
 70
     1
102
RTVSPropertyOp38
 70
     1
102
RTVSPropertyOp39
 70
     1
102
RTVSPropertyOp40
 70
     1
102
RTVSPropertyOp41
 70
     1
102
RTVSPropertyOp42
 70
     1
102
RTVSPropertyOp43
 70
     1
102
RTVSPropertyOp44
 70
     1
102
RTVSPropertyOp45
 70
     1
102
RTVSPropertyOp46
 70
     1
102
RTVSPropertyOp47
 70
     1
102
RTVSPropertyOp48
 70
     1
102
RTVSPropertyOp49
 70
     1
102
RTVSPropertyOp50
 70
     1
102
RTVSPropertyOp51
 70
     0
102
RTVSPropertyOp52
 70
     0
102
RTVSPropertyOp53
 70
     1
102
RTVSPropertyOp54
 70
     1
102
RTVSPropertyOp55
 70
     1
102
RTVSPropertyOp56
 70
     1
102
RTVSPropertyOp57
 70
     1
102
RTVSPropertyOp58
 70
     1
102
RTVSPropertyOp59
 70
     1
102
RTVSPropertyOp60
 70
     1
102
RTVSPropertyOp61
 70
     1
102
RTVSPropertyOp62
 70
     1
  0
XRECORD
  5
1DF3
102
{ACAD_REACTORS
330
1DF2
102
}
330
1DF2
100
AcDbXrecord
280
     1
102
RTVSPost2010Prop28
280
     0
102
RTVSPost2010PropOp28
 70
     1
102
RTVSPost2010Prop29
280
     1
102
RTVSPost2010PropOp29
 70
     1
102
RTVSPost2010Prop30
280
     1
102
RTVSPost2010PropOp30
 70
     1
102
RTVSPost2010Prop31
280
     0
102
RTVSPost2010PropOp31
 70
     1
102
RTVSPost2010Prop32
280
     0
102
RTVSPost2010PropOp32
 70
     1
102
RTVSPost2010Prop33
280
     0
102
RTVSPost2010PropOp33
 70
     1
102
RTVSPost2010Prop34
280
     0
102
RTVSPost2010PropOp34
 70
     1
102
RTVSPost2010Prop35
280
     0
102
RTVSPost2010PropOp35
 70
     1
102
RTVSPost2010Prop36
280
     0
102
RTVSPost2010PropOp36
 70
     1
102
RTVSPost2010Prop37
 90
       50
102
RTVSPost2010PropOp37
 70
     1
102
RTVSPost2010Prop38
140
0.0
102
RTVSPost2010PropOp38
 70
     1
102
RTVSPost2010Prop39
140
1.0
102
RTVSPost2010PropOp39
 70
     1
102
RTVSPost2010Prop40
 90
        0
102
RTVSPost2010PropOp40
 70
     1
102
RTVSPost2010Prop41ColorIndex
 90
       18
102
RTVSPost2010Prop41ColorRGB
 90
        0
102
RTVSPost2010PropOp41
 70
     1
102
RTVSPost2010Prop42
 90
       50
102
RTVSPost2010PropOp42
 70
     1
102
RTVSPost2010Prop43
 90
        3
102
RTVSPost2010PropOp43
 70
     1
102
RTVSPost2010Prop44ColorIndex
 90
        5
102
RTVSPost2010Prop44ColorRGB
 90
      255
102
RTVSPost2010PropOp44
 70
     1
102
RTVSPost2010Prop45
280
     0
102
RTVSPost2010PropOp45
 70
     1
102
RTVSPost2010Prop46
 90
       50
102
RTVSPost2010PropOp46
 70
     1
102
RTVSPost2010Prop47
 90
       50
102
RTVSPost2010PropOp47
 70
     1
102
RTVSPost2010Prop48
 90
       50
102
RTVSPost2010PropOp48
 70
     1
102
RTVSPost2010Prop49
280
     0
102
RTVSPost2010PropOp49
 70
     1
102
RTVSPost2010Prop50
 90
       50
102
RTVSPost2010PropOp50
 70
     1
102
RTVSPost2010Prop51ColorIndex
 90
      256
102
RTVSPost2010Prop51ColorRGB
 90
-16777216
102
RTVSPost2010PropOp51
 70
     0
102
RTVSPost2010Prop52
140
1.0
102
RTVSPost2010PropOp52
 70
     0
102
RTVSPost2010Prop53
 90
        2
102
RTVSPost2010PropOp53
 70
     1
102
RTVSPost2010Prop54
  1
strokes_ogs.tif
102
RTVSPost2010PropOp54
 70
     1
102
RTVSPost2010Prop55
280
     0
102
RTVSPost2010PropOp55
 70
     1
102
RTVSPost2010Prop56
140
1.0
102
RTVSPost2010PropOp56
 70
     1
102
RTVSPost2010Prop57
140
1.0
102
RTVSPost2010PropOp57
 70
     1
102
RTVSPropertyOp0
 70
     1
102
RTVSPropertyOp1
 70
     1
102
RTVSPropertyOp2
 70
     1
102
RTVSPropertyOp3
 70
     1
102
RTVSPropertyOp4
 70
     1
102
RTVSPropertyOp5
 70
     1
102
RTVSPropertyOp6
 70
     1
102
RTVSPropertyOp7
 70
     1
102
RTVSPropertyOp8
 70
     1
102
RTVSPropertyOp9
 70
     1
102
RTVSPropertyOp10
 70
     1
102
RTVSPropertyOp11
 70
     1
102
RTVSPropertyOp12
 70
     1
102
RTVSPropertyOp13
 70
     1
102
RTVSPropertyOp14
 70
     1
102
RTVSPropertyOp15
 70
     1
102
RTVSPropertyOp16
 70
     1
102
RTVSPropertyOp17
 70
     1
102
RTVSPropertyOp18
 70
     1
102
RTVSPropertyOp19
 70
     1
102
RTVSPropertyOp20
 70
     1
102
RTVSPropertyOp21
 70
     1
102
RTVSPropertyOp22
 70
     1
102
RTVSPropertyOp23
 70
     1
102
RTVSPropertyOp24
 70
     1
102
RTVSPropertyOp25
 70
     1
102
RTVSPropertyOp26
 70
     1
102
RTVSPropertyOp27
 70
     1
102
RTVSPropertyOp28
 70
     1
102
RTVSPropertyOp29
 70
     1
102
RTVSPropertyOp30
 70
     1
102
RTVSPropertyOp31
 70
     1
102
RTVSPropertyOp32
 70
     1
102
RTVSPropertyOp33
 70
     1
102
RTVSPropertyOp34
 70
     1
102
RTVSPropertyOp35
 70
     1
102
RTVSPropertyOp36
 70
     1
102
RTVSPropertyOp37
 70
     1
102
RTVSPropertyOp38
 70
     1
102
RTVSPropertyOp39
 70
     1
102
RTVSPropertyOp40
 70
     1
102
RTVSPropertyOp41
 70
     1
102
RTVSPropertyOp42
 70
     1
102
RTVSPropertyOp43
 70
     1
102
RTVSPropertyOp44
 70
     1
102
RTVSPropertyOp45
 70
     1
102
RTVSPropertyOp46
 70
     1
102
RTVSPropertyOp47
 70
     1
102
RTVSPropertyOp48
 70
     1
102
RTVSPropertyOp49
 70
     1
102
RTVSPropertyOp50
 70
     1
102
RTVSPropertyOp51
 70
     0
102
RTVSPropertyOp52
 70
     0
102
RTVSPropertyOp53
 70
     1
102
RTVSPropertyOp54
 70
     1
102
RTVSPropertyOp55
 70
     1
102
RTVSPropertyOp56
 70
     1
102
RTVSPropertyOp57
 70
     1
102
RTVSPropertyOp58
 70
     1
102
RTVSPropertyOp59
 70
     1
102
RTVSPropertyOp60
 70
     1
102
RTVSPropertyOp61
 70
     1
102
RTVSPropertyOp62
 70
     1
  0
XRECORD
  5
1DE7
102
{ACAD_REACTORS
330
1DE6
102
}
330
1DE6
100
AcDbXrecord
280
     1
102
RTVSPost2010Prop28
280
     0
102
RTVSPost2010PropOp28
 70
     1
102
RTVSPost2010Prop29
280
     1
102
RTVSPost2010PropOp29
 70
     1
102
RTVSPost2010Prop30
280
     1
102
RTVSPost2010PropOp30
 70
     1
102
RTVSPost2010Prop31
280
     0
102
RTVSPost2010PropOp31
 70
     1
102
RTVSPost2010Prop32
280
     0
102
RTVSPost2010PropOp32
 70
     1
102
RTVSPost2010Prop33
280
     0
102
RTVSPost2010PropOp33
 70
     1
102
RTVSPost2010Prop34
280
     0
102
RTVSPost2010PropOp34
 70
     1
102
RTVSPost2010Prop35
280
     0
102
RTVSPost2010PropOp35
 70
     1
102
RTVSPost2010Prop36
280
     0
102
RTVSPost2010PropOp36
 70
     1
102
RTVSPost2010Prop37
 90
       50
102
RTVSPost2010PropOp37
 70
     1
102
RTVSPost2010Prop38
140
0.0
102
RTVSPost2010PropOp38
 70
     1
102
RTVSPost2010Prop39
140
1.0
102
RTVSPost2010PropOp39
 70
     1
102
RTVSPost2010Prop40
 90
        0
102
RTVSPost2010PropOp40
 70
     1
102
RTVSPost2010Prop41ColorIndex
 90
       18
102
RTVSPost2010Prop41ColorRGB
 90
        0
102
RTVSPost2010PropOp41
 70
     1
102
RTVSPost2010Prop42
 90
       50
102
RTVSPost2010PropOp42
 70
     1
102
RTVSPost2010Prop43
 90
        3
102
RTVSPost2010PropOp43
 70
     1
102
RTVSPost2010Prop44ColorIndex
 90
        5
102
RTVSPost2010Prop44ColorRGB
 90
      255
102
RTVSPost2010PropOp44
 70
     1
102
RTVSPost2010Prop45
280
     0
102
RTVSPost2010PropOp45
 70
     1
102
RTVSPost2010Prop46
 90
       50
102
RTVSPost2010PropOp46
 70
     1
102
RTVSPost2010Prop47
 90
       50
102
RTVSPost2010PropOp47
 70
     1
102
RTVSPost2010Prop48
 90
       50
102
RTVSPost2010PropOp48
 70
     1
102
RTVSPost2010Prop49
280
     0
102
RTVSPost2010PropOp49
 70
     1
102
RTVSPost2010Prop50
 90
       50
102
RTVSPost2010PropOp50
 70
     1
102
RTVSPost2010Prop51ColorIndex
 90
      256
102
RTVSPost2010Prop51ColorRGB
 90
-16777216
102
RTVSPost2010PropOp51
 70
     0
102
RTVSPost2010Prop52
140
1.0
102
RTVSPost2010PropOp52
 70
     0
102
RTVSPost2010Prop53
 90
        2
102
RTVSPost2010PropOp53
 70
     1
102
RTVSPost2010Prop54
  1
strokes_ogs.tif
102
RTVSPost2010PropOp54
 70
     1
102
RTVSPost2010Prop55
280
     0
102
RTVSPost2010PropOp55
 70
     1
102
RTVSPost2010Prop56
140
1.0
102
RTVSPost2010PropOp56
 70
     1
102
RTVSPost2010Prop57
140
1.0
102
RTVSPost2010PropOp57
 70
     1
102
RTVSPropertyOp0
 70
     1
102
RTVSPropertyOp1
 70
     1
102
RTVSPropertyOp2
 70
     1
102
RTVSPropertyOp3
 70
     1
102
RTVSPropertyOp4
 70
     1
102
RTVSPropertyOp5
 70
     1
102
RTVSPropertyOp6
 70
     1
102
RTVSPropertyOp7
 70
     1
102
RTVSPropertyOp8
 70
     1
102
RTVSPropertyOp9
 70
     1
102
RTVSPropertyOp10
 70
     1
102
RTVSPropertyOp11
 70
     1
102
RTVSPropertyOp12
 70
     1
102
RTVSPropertyOp13
 70
     1
102
RTVSPropertyOp14
 70
     1
102
RTVSPropertyOp15
 70
     1
102
RTVSPropertyOp16
 70
     1
102
RTVSPropertyOp17
 70
     1
102
RTVSPropertyOp18
 70
     1
102
RTVSPropertyOp19
 70
     1
102
RTVSPropertyOp20
 70
     1
102
RTVSPropertyOp21
 70
     1
102
RTVSPropertyOp22
 70
     1
102
RTVSPropertyOp23
 70
     1
102
RTVSPropertyOp24
 70
     1
102
RTVSPropertyOp25
 70
     1
102
RTVSPropertyOp26
 70
     1
102
RTVSPropertyOp27
 70
     1
102
RTVSPropertyOp28
 70
     1
102
RTVSPropertyOp29
 70
     1
102
RTVSPropertyOp30
 70
     1
102
RTVSPropertyOp31
 70
     1
102
RTVSPropertyOp32
 70
     1
102
RTVSPropertyOp33
 70
     1
102
RTVSPropertyOp34
 70
     1
102
RTVSPropertyOp35
 70
     1
102
RTVSPropertyOp36
 70
     1
102
RTVSPropertyOp37
 70
     1
102
RTVSPropertyOp38
 70
     1
102
RTVSPropertyOp39
 70
     1
102
RTVSPropertyOp40
 70
     1
102
RTVSPropertyOp41
 70
     1
102
RTVSPropertyOp42
 70
     1
102
RTVSPropertyOp43
 70
     1
102
RTVSPropertyOp44
 70
     1
102
RTVSPropertyOp45
 70
     1
102
RTVSPropertyOp46
 70
     1
102
RTVSPropertyOp47
 70
     1
102
RTVSPropertyOp48
 70
     1
102
RTVSPropertyOp49
 70
     1
102
RTVSPropertyOp50
 70
     1
102
RTVSPropertyOp51
 70
     0
102
RTVSPropertyOp52
 70
     0
102
RTVSPropertyOp53
 70
     1
102
RTVSPropertyOp54
 70
     1
102
RTVSPropertyOp55
 70
     1
102
RTVSPropertyOp56
 70
     1
102
RTVSPropertyOp57
 70
     1
102
RTVSPropertyOp58
 70
     1
102
RTVSPropertyOp59
 70
     1
102
RTVSPropertyOp60
 70
     1
102
RTVSPropertyOp61
 70
     1
102
RTVSPropertyOp62
 70
     1
  0
XRECORD
  5
1DFF
102
{ACAD_REACTORS
330
1DFE
102
}
330
1DFE
100
AcDbXrecord
280
     1
102
RTVSPost2010Prop28
280
     0
102
RTVSPost2010PropOp28
 70
     1
102
RTVSPost2010Prop29
280
     1
102
RTVSPost2010PropOp29
 70
     1
102
RTVSPost2010Prop30
280
     1
102
RTVSPost2010PropOp30
 70
     1
102
RTVSPost2010Prop31
280
     0
102
RTVSPost2010PropOp31
 70
     1
102
RTVSPost2010Prop32
280
     0
102
RTVSPost2010PropOp32
 70
     1
102
RTVSPost2010Prop33
280
     0
102
RTVSPost2010PropOp33
 70
     1
102
RTVSPost2010Prop34
280
     0
102
RTVSPost2010PropOp34
 70
     1
102
RTVSPost2010Prop35
280
     0
102
RTVSPost2010PropOp35
 70
     1
102
RTVSPost2010Prop36
280
     0
102
RTVSPost2010PropOp36
 70
     1
102
RTVSPost2010Prop37
 90
       50
102
RTVSPost2010PropOp37
 70
     1
102
RTVSPost2010Prop38
140
0.0
102
RTVSPost2010PropOp38
 70
     1
102
RTVSPost2010Prop39
140
1.0
102
RTVSPost2010PropOp39
 70
     1
102
RTVSPost2010Prop40
 90
        0
102
RTVSPost2010PropOp40
 70
     1
102
RTVSPost2010Prop41ColorIndex
 90
       18
102
RTVSPost2010Prop41ColorRGB
 90
        0
102
RTVSPost2010PropOp41
 70
     1
102
RTVSPost2010Prop42
 90
       50
102
RTVSPost2010PropOp42
 70
     1
102
RTVSPost2010Prop43
 90
        3
102
RTVSPost2010PropOp43
 70
     1
102
RTVSPost2010Prop44ColorIndex
 90
        5
102
RTVSPost2010Prop44ColorRGB
 90
      255
102
RTVSPost2010PropOp44
 70
     1
102
RTVSPost2010Prop45
280
     0
102
RTVSPost2010PropOp45
 70
     1
102
RTVSPost2010Prop46
 90
       50
102
RTVSPost2010PropOp46
 70
     1
102
RTVSPost2010Prop47
 90
       50
102
RTVSPost2010PropOp47
 70
     1
102
RTVSPost2010Prop48
 90
       50
102
RTVSPost2010PropOp48
 70
     1
102
RTVSPost2010Prop49
280
     0
102
RTVSPost2010PropOp49
 70
     1
102
RTVSPost2010Prop50
 90
       50
102
RTVSPost2010PropOp50
 70
     1
102
RTVSPost2010Prop51ColorIndex
 90
      256
102
RTVSPost2010Prop51ColorRGB
 90
-16777216
102
RTVSPost2010PropOp51
 70
     0
102
RTVSPost2010Prop52
140
1.0
102
RTVSPost2010PropOp52
 70
     0
102
RTVSPost2010Prop53
 90
        2
102
RTVSPost2010PropOp53
 70
     1
102
RTVSPost2010Prop54
  1
strokes_ogs.tif
102
RTVSPost2010PropOp54
 70
     1
102
RTVSPost2010Prop55
280
     0
102
RTVSPost2010PropOp55
 70
     1
102
RTVSPost2010Prop56
140
1.0
102
RTVSPost2010PropOp56
 70
     1
102
RTVSPost2010Prop57
140
1.0
102
RTVSPost2010PropOp57
 70
     1
102
RTVSPropertyOp0
 70
     1
102
RTVSPropertyOp1
 70
     1
102
RTVSPropertyOp2
 70
     1
102
RTVSPropertyOp3
 70
     1
102
RTVSPropertyOp4
 70
     1
102
RTVSPropertyOp5
 70
     1
102
RTVSPropertyOp6
 70
     1
102
RTVSPropertyOp7
 70
     1
102
RTVSPropertyOp8
 70
     1
102
RTVSPropertyOp9
 70
     1
102
RTVSPropertyOp10
 70
     1
102
RTVSPropertyOp11
 70
     1
102
RTVSPropertyOp12
 70
     1
102
RTVSPropertyOp13
 70
     1
102
RTVSPropertyOp14
 70
     1
102
RTVSPropertyOp15
 70
     1
102
RTVSPropertyOp16
 70
     1
102
RTVSPropertyOp17
 70
     1
102
RTVSPropertyOp18
 70
     1
102
RTVSPropertyOp19
 70
     1
102
RTVSPropertyOp20
 70
     1
102
RTVSPropertyOp21
 70
     1
102
RTVSPropertyOp22
 70
     1
102
RTVSPropertyOp23
 70
     1
102
RTVSPropertyOp24
 70
     1
102
RTVSPropertyOp25
 70
     1
102
RTVSPropertyOp26
 70
     1
102
RTVSPropertyOp27
 70
     1
102
RTVSPropertyOp28
 70
     1
102
RTVSPropertyOp29
 70
     1
102
RTVSPropertyOp30
 70
     1
102
RTVSPropertyOp31
 70
     1
102
RTVSPropertyOp32
 70
     1
102
RTVSPropertyOp33
 70
     1
102
RTVSPropertyOp34
 70
     1
102
RTVSPropertyOp35
 70
     1
102
RTVSPropertyOp36
 70
     1
102
RTVSPropertyOp37
 70
     1
102
RTVSPropertyOp38
 70
     1
102
RTVSPropertyOp39
 70
     1
102
RTVSPropertyOp40
 70
     1
102
RTVSPropertyOp41
 70
     1
102
RTVSPropertyOp42
 70
     1
102
RTVSPropertyOp43
 70
     1
102
RTVSPropertyOp44
 70
     1
102
RTVSPropertyOp45
 70
     1
102
RTVSPropertyOp46
 70
     1
102
RTVSPropertyOp47
 70
     1
102
RTVSPropertyOp48
 70
     1
102
RTVSPropertyOp49
 70
     1
102
RTVSPropertyOp50
 70
     1
102
RTVSPropertyOp51
 70
     0
102
RTVSPropertyOp52
 70
     0
102
RTVSPropertyOp53
 70
     1
102
RTVSPropertyOp54
 70
     1
102
RTVSPropertyOp55
 70
     1
102
RTVSPropertyOp56
 70
     1
102
RTVSPropertyOp57
 70
     1
102
RTVSPropertyOp58
 70
     1
102
RTVSPropertyOp59
 70
     1
102
RTVSPropertyOp60
 70
     1
102
RTVSPropertyOp61
 70
     1
102
RTVSPropertyOp62
 70
     1
  0
ENDSEC
  0
EOF
