  0
SECTION
  2
HEADER
  9
$ACADVER
  1
AC1015
  9
$ACADMAINTVER
 70
    20
  9
$DWGCODEPAGE
  3
ANSI_932
  9
$INSBASE
 10
0.0
 20
0.0
 30
0.0
  9
$EXTMIN
 10
9.999999064246818
 20
9.999999806846743
 30
0.0
  9
$EXTMAX
 10
719.1488031872832
 20
506.8827356131555
 30
0.0
  9
$LIMMIN
 10
0.0000015376081137
 20
-0.0000001931532552
  9
$LIMMAX
 10
792.0000015376082
 20
545.9999998068466
  9
$ORTHOMODE
 70
     0
  9
$REGENMODE
 70
     1
  9
$FILLMODE
 70
     1
  9
$QTEXTMODE
 70
     0
  9
$MIRRTEXT
 70
     1
  9
$LTSCALE
 40
1.0
  9
$ATTMODE
 70
     1
  9
$TEXTSIZE
 40
2.5
  9
$TRACEWID
 40
1.0
  9
$TEXTSTYLE
  7
STANDARD
  9
$CLAYER
  8
0
  9
$CELTYPE
  6
BYLAYER
  9
$CECOLOR
 62
   256
  9
$CELTSCALE
 40
1.0
  9
$DISPSILH
 70
     0
  9
$DIMSCALE
 40
1.0
  9
$DIMASZ
 40
3.0
  9
$DIMEXO
 40
1.0
  9
$DIMDLI
 40
10.0
  9
$DIMRND
 40
0.0
  9
$DIMDLE
 40
0.0
  9
$DIMEXE
 40
1.0
  9
$DIMTP
 40
0.0
  9
$DIMTM
 40
0.0
  9
$DIMTXT
 40
3.2
  9
$DIMCEN
 40
0.0
  9
$DIMTSZ
 40
0.0
  9
$DIMTOL
 70
     0
  9
$DIMLIM
 70
     0
  9
$DIMTIH
 70
     0
  9
$DIMTOH
 70
     0
  9
$DIMSE1
 70
     0
  9
$DIMSE2
 70
     0
  9
$DIMTAD
 70
     3
  9
$DIMZIN
 70
     8
  9
$DIMBLK
  1

  9
$DIMASO
 70
     1
  9
$DIMSHO
 70
     1
  9
$DIMPOST
  1

  9
$DIMAPOST
  1

  9
$DIMALT
 70
     0
  9
$DIMALTD
 70
     2
  9
$DIMALTF
 40
25.4
  9
$DIMLFAC
 40
1.0
  9
$DIMTOFL
 70
     1
  9
$DIMTVP
 40
0.0
  9
$DIMTIX
 70
     0
  9
$DIMSOXD
 70
     0
  9
$DIMSAH
 70
     1
  9
$DIMBLK1
  1
OPEN
  9
$DIMBLK2
  1
OPEN
  9
$DIMSTYLE
  2
STANDARD
  9
$DIMCLRD
 70
     0
  9
$DIMCLRE
 70
     0
  9
$DIMCLRT
 70
     0
  9
$DIMTFAC
 40
1.0
  9
$DIMGAP
 40
1.0
  9
$DIMJUST
 70
     0
  9
$DIMSD1
 70
     0
  9
$DIMSD2
 70
     0
  9
$DIMTOLJ
 70
     1
  9
$DIMTZIN
 70
     0
  9
$DIMALTZ
 70
     0
  9
$DIMALTTZ
 70
     0
  9
$DIMUPT
 70
     0
  9
$DIMDEC
 70
     4
  9
$DIMTDEC
 70
     4
  9
$DIMALTU
 70
     2
  9
$DIMALTTD
 70
     2
  9
$DIMTXSTY
  7
STANDARD
  9
$DIMAUNIT
 70
     0
  9
$DIMADEC
 70
     0
  9
$DIMALTRND
 40
0.0
  9
$DIMAZIN
 70
     0
  9
$DIMDSEP
 70
    46
  9
$DIMATFIT
 70
     3
  9
$DIMFRAC
 70
     0
  9
$DIMLDRBLK
  1
OPEN
  9
$DIMLUNIT
 70
     2
  9
$DIMLWD
 70
    -2
  9
$DIMLWE
 70
    -2
  9
$DIMTMOVE
 70
     0
  9
$LUNITS
 70
     2
  9
$LUPREC
 70
     4
  9
$SKETCHINC
 40
1.0
  9
$FILLETRAD
 40
2.0
  9
$AUNITS
 70
     0
  9
$AUPREC
 70
     0
  9
$MENU
  1
.
  9
$ELEVATION
 40
0.0
  9
$PELEVATION
 40
0.0
  9
$THICKNESS
 40
0.0
  9
$LIMCHECK
 70
     0
  9
$CHAMFERA
 40
10.0
  9
$CHAMFERB
 40
10.0
  9
$CHAMFERC
 40
20.0
  9
$CHAMFERD
 40
0.0
  9
$SKPOLY
 70
     0
  9
$TDCREATE
 40
2453281.596403889
  9
$TDUCREATE
 40
2453281.221403889
  9
$TDUPDATE
 40
2457192.688995394
  9
$TDUUPDATE
 40
2457192.313995394
  9
$TDINDWG
 40
0.4196786690
  9
$TDUSRTIMER
 40
0.4196786574
  9
$USRTIMER
 70
     1
  9
$ANGBASE
 50
0.0
  9
$ANGDIR
 70
     0
  9
$PDMODE
 70
     0
  9
$PDSIZE
 40
0.0
  9
$PLINEWID
 40
0.0
  9
$SPLFRAME
 70
     0
  9
$SPLINETYPE
 70
     6
  9
$SPLINESEGS
 70
     8
  9
$HANDSEED
  5
1D43
  9
$SURFTAB1
 70
     6
  9
$SURFTAB2
 70
     6
  9
$SURFTYPE
 70
     6
  9
$SURFU
 70
     6
  9
$SURFV
 70
     6
  9
$UCSBASE
  2

  9
$UCSNAME
  2

  9
$UCSORG
 10
0.0
 20
0.0
 30
0.0
  9
$UCSXDIR
 10
1.0
 20
0.0
 30
0.0
  9
$UCSYDIR
 10
0.0
 20
1.0
 30
0.0
  9
$UCSORTHOREF
  2

  9
$UCSORTHOVIEW
 70
     0
  9
$UCSORGTOP
 10
0.0
 20
0.0
 30
0.0
  9
$UCSORGBOTTOM
 10
0.0
 20
0.0
 30
0.0
  9
$UCSORGLEFT
 10
0.0
 20
0.0
 30
0.0
  9
$UCSORGRIGHT
 10
0.0
 20
0.0
 30
0.0
  9
$UCSORGFRONT
 10
0.0
 20
0.0
 30
0.0
  9
$UCSORGBACK
 10
0.0
 20
0.0
 30
0.0
  9
$PUCSBASE
  2

  9
$PUCSNAME
  2

  9
$PUCSORG
 10
0.0
 20
0.0
 30
0.0
  9
$PUCSXDIR
 10
1.0
 20
0.0
 30
0.0
  9
$PUCSYDIR
 10
0.0
 20
1.0
 30
0.0
  9
$PUCSORTHOREF
  2

  9
$PUCSORTHOVIEW
 70
     0
  9
$PUCSORGTOP
 10
0.0
 20
0.0
 30
0.0
  9
$PUCSORGBOTTOM
 10
0.0
 20
0.0
 30
0.0
  9
$PUCSORGLEFT
 10
0.0
 20
0.0
 30
0.0
  9
$PUCSORGRIGHT
 10
0.0
 20
0.0
 30
0.0
  9
$PUCSORGFRONT
 10
0.0
 20
0.0
 30
0.0
  9
$PUCSORGBACK
 10
0.0
 20
0.0
 30
0.0
  9
$USERI1
 70
     0
  9
$USERI2
 70
     0
  9
$USERI3
 70
     0
  9
$USERI4
 70
     0
  9
$USERI5
 70
     0
  9
$USERR1
 40
0.0
  9
$USERR2
 40
0.0
  9
$USERR3
 40
0.0
  9
$USERR4
 40
0.0
  9
$USERR5
 40
0.0
  9
$WORLDVIEW
 70
     1
  9
$SHADEDGE
 70
     3
  9
$SHADEDIF
 70
    70
  9
$TILEMODE
 70
     1
  9
$MAXACTVP
 70
    48
  9
$PINSBASE
 10
0.0
 20
0.0
 30
0.0
  9
$PLIMCHECK
 70
     0
  9
$PEXTMIN
 10
1.000000000000000E+20
 20
1.000000000000000E+20
 30
1.000000000000000E+20
  9
$PEXTMAX
 10
-1.000000000000000E+20
 20
-1.000000000000000E+20
 30
-1.000000000000000E+20
  9
$PLIMMIN
 10
0.0
 20
0.0
  9
$PLIMMAX
 10
420.0
 20
297.0
  9
$UNITMODE
 70
     0
  9
$VISRETAIN
 70
     1
  9
$PLINEGEN
 70
     0
  9
$PSLTSCALE
 70
     1
  9
$TREEDEPTH
 70
  3020
  9
$CMLSTYLE
  2
STANDARD
  9
$CMLJUST
 70
     0
  9
$CMLSCALE
 40
20.0
  9
$PROXYGRAPHICS
 70
     1
  9
$MEASUREMENT
 70
     0
  9
$CELWEIGHT
370
    -1
  9
$ENDCAPS
280
     0
  9
$JOINSTYLE
280
     0
  9
$LWDISPLAY
290
     0
  9
$INSUNITS
 70
     0
  9
$HYPERLINKBASE
  1

  9
$STYLESHEET
  1

  9
$XEDIT
290
     1
  9
$CEPSNTYPE
380
     0
  9
$PSTYLEMODE
290
     1
  9
$FINGERPRINTGUID
  2
{C5DF2964-0C57-4B7A-9F12-A0791F0FD95B}
  9
$VERSIONGUID
  2
{56D4B616-D8CA-44B0-AFED-32F85F1B240A}
  9
$EXTNAMES
290
     1
  9
$PSVPSCALE
 40
0.0
  9
$OLESTARTUP
290
     0
  0
ENDSEC
  0
SECTION
  2
CLASSES
  0
CLASS
  1
ACDBDICTIONARYWDFLT
  2
AcDbDictionaryWithDefault
  3
ObjectDBX Classes
 90
        0
280
     0
281
     0
  0
CLASS
  1
ACDBPLACEHOLDER
  2
AcDbPlaceHolder
  3
ObjectDBX Classes
 90
        0
280
     0
281
     0
  0
CLASS
  1
LAYOUT
  2
AcDbLayout
  3
ObjectDBX Classes
 90
        0
280
     0
281
     0
  0
CLASS
  1
DICTIONARYVAR
  2
AcDbDictionaryVar
  3
ObjectDBX Classes
 90
        0
280
     0
281
     0
  0
CLASS
  1
MATERIAL
  2
AcDbMaterial
  3
ObjectDBX Classes
 90
     1153
280
     0
281
     0
  0
CLASS
  1
VISUALSTYLE
  2
AcDbVisualStyle
  3
ObjectDBX Classes
 90
     4095
280
     0
281
     0
  0
CLASS
  1
TABLESTYLE
  2
AcDbTableStyle
  3
ObjectDBX Classes
 90
     4095
280
     0
281
     0
  0
CLASS
  1
SCALE
  2
AcDbScale
  3
ObjectDBX Classes
 90
     1153
280
     0
281
     0
  0
CLASS
  1
MLEADERSTYLE
  2
AcDbMLeaderStyle
  3
ACDB_MLEADERSTYLE_CLASS
 90
     4095
280
     0
281
     0
  0
CLASS
  1
ACDBSECTIONVIEWSTYLE
  2
AcDbSectionViewStyle
  3
ObjectDBX Classes
 90
     1025
280
     0
281
     0
  0
CLASS
  1
ACDBDETAILVIEWSTYLE
  2
AcDbDetailViewStyle
  3
ObjectDBX Classes
 90
     1025
280
     0
281
     0
  0
CLASS
  1
CELLSTYLEMAP
  2
AcDbCellStyleMap
  3
ObjectDBX Classes
 90
     1152
280
     0
281
     0
  0
ENDSEC
  0
SECTION
  2
TABLES
  0
TABLE
  2
VPORT
  5
8
330
0
100
AcDbSymbolTable
 70
     1
  0
VPORT
  5
1C8F
330
8
100
AcDbSymbolTableRecord
100
AcDbViewportTableRecord
  2
*ACTIVE
 70
     0
 10
0.0
 20
0.0
 11
1.0
 21
1.0
 12
555.8130360435903
 22
258.4410563590047
 13
0.0
 23
0.0
 14
10.0
 24
10.0
 15
10.0
 25
10.0
 16
0.0
 26
0.0
 36
1.0
 17
0.0
 27
0.0
 37
0.0
 40
500.843373692798
 41
2.35006605019815
 42
50.0
 43
0.0
 44
0.0
 50
0.0
 51
0.0
 71
     0
 72
   100
 73
     1
 74
     0
 75
     0
 76
     0
 77
     0
 78
     0
281
     0
 65
     1
110
0.0
120
0.0
130
0.0
111
1.0
121
0.0
131
0.0
112
0.0
122
1.0
132
0.0
 79
     0
146
0.0
1001
ACAD_NAV_VCDISPLAY
1070
     3
  0
ENDTAB
  0
TABLE
  2
LTYPE
  5
5
330
0
100
AcDbSymbolTable
 70
     4
  0
LTYPE
  5
12
330
5
100
AcDbSymbolTableRecord
100
AcDbLinetypeTableRecord
  2
BYBLOCK
 70
     0
  3

 72
    65
 73
     0
 40
0.0
  0
LTYPE
  5
13
330
5
100
AcDbSymbolTableRecord
100
AcDbLinetypeTableRecord
  2
BYLAYER
 70
     0
  3

 72
    65
 73
     0
 40
0.0
  0
LTYPE
  5
14
330
5
100
AcDbSymbolTableRecord
100
AcDbLinetypeTableRecord
  2
CONTINUOUS
 70
     0
  3
Solid line
 72
    65
 73
     0
 40
0.0
  0
LTYPE
  5
62
330
5
100
AcDbSymbolTableRecord
100
AcDbLinetypeTableRecord
  2
DASHED
 70
     0
  3
Dashed __ __ __ __ __ __ __ __ __ __ __ __ __ _
 72
    65
 73
     2
 40
19.04999999999998
 49
12.7
 74
     0
 49
-6.349999999999997
 74
     0
  0
LTYPE
  5
63
330
5
100
AcDbSymbolTableRecord
100
AcDbLinetypeTableRecord
  2
CENTER
 70
     0
  3
Center ____ _ ____ _ ____ _ ____ _ ____ _ ____
 72
    65
 73
     4
 40
50.8
 49
31.75
 74
     0
 49
-6.349999999999997
 74
     0
 49
6.349999999999997
 74
     0
 49
-6.349999999999997
 74
     0
  0
LTYPE
  5
64
330
5
100
AcDbSymbolTableRecord
100
AcDbLinetypeTableRecord
  2
PHANTOM
 70
     0
  3
Phantom ______  __  __  ______  __  __  ______
 72
    65
 73
     6
 40
63.5
 49
31.75
 74
     0
 49
-6.349999999999997
 74
     0
 49
6.349999999999997
 74
     0
 49
-6.349999999999997
 74
     0
 49
6.349999999999997
 74
     0
 49
-6.349999999999997
 74
     0
  0
ENDTAB
  0
TABLE
  2
LAYER
  5
2
330
0
100
AcDbSymbolTable
 70
     8
  0
LAYER
  5
E
102
{ACAD_XDICTIONARY
360
1CE7
102
}
330
2
100
AcDbSymbolTableRecord
100
AcDbLayerTableRecord
  2
0
 70
     0
 62
     7
  6
CONTINUOUS
370
    -3
390
1C96
  0
LAYER
  5
65
102
{ACAD_XDICTIONARY
360
1CE9
102
}
330
2
100
AcDbSymbolTableRecord
100
AcDbLayerTableRecord
  2
4
 70
     0
 62
     1
  6
CENTER
370
    -3
390
1C96
  0
LAYER
  5
66
102
{ACAD_XDICTIONARY
360
1CEB
102
}
330
2
100
AcDbSymbolTableRecord
100
AcDbLayerTableRecord
  2
5
 70
     0
 62
     6
  6
PHANTOM
370
    -3
390
1C96
  0
LAYER
  5
67
102
{ACAD_XDICTIONARY
360
1CED
102
}
330
2
100
AcDbSymbolTableRecord
100
AcDbLayerTableRecord
  2
1
 70
     0
 62
     7
  6
CONTINUOUS
370
    -3
390
1C96
  0
LAYER
  5
68
102
{ACAD_XDICTIONARY
360
1CEF
102
}
330
2
100
AcDbSymbolTableRecord
100
AcDbLayerTableRecord
  2
2
 70
     0
 62
     4
  6
CONTINUOUS
370
    -3
390
1C96
  0
LAYER
  5
69
102
{ACAD_XDICTIONARY
360
1CF1
102
}
330
2
100
AcDbSymbolTableRecord
100
AcDbLayerTableRecord
  2
3
 70
     0
 62
     2
  6
DASHED
370
    -3
390
1C96
  0
LAYER
  5
6A
102
{ACAD_XDICTIONARY
360
1CF3
102
}
330
2
100
AcDbSymbolTableRecord
100
AcDbLayerTableRecord
  2
6
 70
     0
 62
     5
  6
CONTINUOUS
370
    -3
390
1C96
  0
LAYER
  5
6B
102
{ACAD_XDICTIONARY
360
1CF5
102
}
330
2
100
AcDbSymbolTableRecord
100
AcDbLayerTableRecord
  2
7
 70
     0
 62
     3
  6
CONTINUOUS
370
    -3
390
1C96
  0
ENDTAB
  0
TABLE
  2
STYLE
  5
3
330
0
100
AcDbSymbolTable
 70
     1
  0
STYLE
  5
F
330
3
100
AcDbSymbolTableRecord
100
AcDbTextStyleTableRecord
  2
STANDARD
 70
     0
 40
0.0
 41
1.0
 50
0.0
 71
     0
 42
2.5
  3
simplex.shx
  4

  0
ENDTAB
  0
TABLE
  2
VIEW
  5
6
330
0
100
AcDbSymbolTable
 70
     0
  0
ENDTAB
  0
TABLE
  2
UCS
  5
7
330
0
100
AcDbSymbolTable
 70
     0
  0
ENDTAB
  0
TABLE
  2
APPID
  5
9
330
0
100
AcDbSymbolTable
 70
     5
  0
APPID
  5
10
330
9
100
AcDbSymbolTableRecord
100
AcDbRegAppTableRecord
  2
ACAD
 70
     0
  0
APPID
  5
3E
330
9
100
AcDbSymbolTableRecord
100
AcDbRegAppTableRecord
  2
CONTENTTABDATA
 70
     0
  0
APPID
  5
3F
330
9
100
AcDbSymbolTableRecord
100
AcDbRegAppTableRecord
  2
CONTENTCURRENTTAB
 70
     0
  0
APPID
  5
1D01
330
9
100
AcDbSymbolTableRecord
100
AcDbRegAppTableRecord
  2
ACAD_NAV_VCDISPLAY
 70
     0
  0
APPID
  5
1D3A
330
9
100
AcDbSymbolTableRecord
100
AcDbRegAppTableRecord
  2
ACAD_MLEADERVER
 70
     0
  0
ENDTAB
  0
TABLE
  2
DIMSTYLE
  5
A
330
0
100
AcDbSymbolTable
 70
     1
100
AcDbDimStyleTable
 71
     0
  0
DIMSTYLE
105
1D
330
A
100
AcDbSymbolTableRecord
100
AcDbDimStyleTableRecord
  2
STANDARD
 70
     0
 41
3.0
 42
1.0
 43
10.0
 44
1.0
 73
     0
 74
     0
 77
     3
 78
     8
140
3.2
141
0.0
147
1.0
172
     1
173
     1
340
F
341
2E
343
2E
344
2E
  0
ENDTAB
  0
TABLE
  2
BLOCK_RECORD
  5
1
330
0
100
AcDbSymbolTable
 70
     1
  0
BLOCK_RECORD
  5
18
102
{ACAD_XDICTIONARY
360
1C79
102
}
330
1
100
AcDbSymbolTableRecord
100
AcDbBlockTableRecord
  2
*MODEL_SPACE
340
1CE4
  0
BLOCK_RECORD
  5
15
102
{ACAD_XDICTIONARY
360
1C77
102
}
330
1
100
AcDbSymbolTableRecord
100
AcDbBlockTableRecord
  2
*PAPER_SPACE
340
1CE5
  0
BLOCK_RECORD
  5
2E
330
1
100
AcDbSymbolTableRecord
100
AcDbBlockTableRecord
  2
_OPEN
340
0
  0
ENDTAB
  0
ENDSEC
  0
SECTION
  2
BLOCKS
  0
BLOCK
  5
19
330
18
100
AcDbEntity
  8
0
100
AcDbBlockBegin
  2
*MODEL_SPACE
 70
     0
 10
0.0
 20
0.0
 30
0.0
  3
*MODEL_SPACE
  1

  0
ENDBLK
  5
1A
330
18
100
AcDbEntity
  8
0
100
AcDbBlockEnd
  0
BLOCK
  5
16
330
15
100
AcDbEntity
 67
     1
  8
0
100
AcDbBlockBegin
  2
*PAPER_SPACE
 70
     0
 10
0.0
 20
0.0
 30
0.0
  3
*PAPER_SPACE
  1

  0
ENDBLK
  5
17
330
15
100
AcDbEntity
 67
     1
  8
0
100
AcDbBlockEnd
  0
BLOCK
  5
2F
330
2E
100
AcDbEntity
  8
0
100
AcDbBlockBegin
  2
_OPEN
 70
     0
 10
0.0
 20
0.0
 30
0.0
  3
_OPEN
  1

  0
LINE
  5
30
330
2E
100
AcDbEntity
  8
0
  6
ByBlock
 62
     0
100
AcDbLine
 10
-1.0
 20
0.1666666666666666
 30
0.0
 11
0.0
 21
0.0
 31
0.0
  0
LINE
  5
31
330
2E
100
AcDbEntity
  8
0
  6
ByBlock
 62
     0
100
AcDbLine
 10
0.0
 20
0.0
 30
0.0
 11
-1.0
 21
-0.1666666666666666
 31
0.0
  0
LINE
  5
32
330
2E
100
AcDbEntity
  8
0
  6
ByBlock
 62
     0
100
AcDbLine
 10
0.0
 20
0.0
 30
0.0
 11
-1.0
 21
0.0
 31
0.0
  0
ENDBLK
  5
33
330
2E
100
AcDbEntity
  8
0
100
AcDbBlockEnd
  0
ENDSEC
  0
SECTION
  2
ENTITIES
  0
LINE
  5
2A2
330
18
100
AcDbEntity
  8
1
  6
Continuous
100
AcDbLine
 10
214.8091568537106
 20
480.8827356131557
 30
0.0
 11
209.8091568537105
 21
480.8827356131557
 31
0.0
  0
LINE
  5
2A3
330
18
100
AcDbEntity
  8
1
  6
Continuous
100
AcDbLine
 10
216.3091568537105
 20
479.3827356131556
 30
0.0
 11
208.3091568537106
 21
479.3827356131556
 31
0.0
  0
LINE
  5
2A4
330
18
100
AcDbEntity
  8
1
  6
Continuous
100
AcDbLine
 10
199.1250716668894
 20
478.8827356131555
 30
0.0
 11
229.687931740834
 21
478.8827356131555
 31
0.0
  0
ARC
  5
2A5
330
18
100
AcDbEntity
  8
1
  6
Continuous
100
AcDbCircle
 10
212.3091568537105
 20
437.6134946131558
 30
0.0
 40
5.115518999999999
100
AcDbArc
 50
226.8278870000001
 51
313.1721129999998
  0
LINE
  5
2A6
330
18
100
AcDbEntity
  8
1
  6
Continuous
100
AcDbLine
 10
209.1722398537106
 20
433.8827356131556
 30
0.0
 11
215.4152528537105
 21
433.8827356131556
 31
0.0
  0
LINE
  5
2A7
330
18
100
AcDbEntity
  8
1
  6
Continuous
100
AcDbLine
 10
199.1250716668894
 20
434.8827356131557
 30
0.0
 11
229.687931740834
 21
434.8827356131557
 31
0.0
  0
LINE
  5
2A8
330
18
100
AcDbEntity
  8
4
  6
CENTER
 48
0.5
100
AcDbLine
 10
335.8091568537107
 20
456.8827356131555
 30
0.0
 11
159.6320578537105
 21
456.8827356131555
 31
0.0
  0
LINE
  5
2A9
330
18
100
AcDbEntity
  8
1
  6
Continuous
100
AcDbLine
 10
210.5563368537106
 20
300.6432837952103
 30
0.0
 11
214.6919878537106
 21
307.2617087952103
 31
0.0
  0
LINE
  5
2AA
330
18
100
AcDbEntity
  8
4
  6
CENTER
 48
0.5
100
AcDbLine
 10
208.3091568537106
 20
312.8838677952102
 30
0.0
 11
216.3091568537105
 21
312.8838677952102
 31
0.0
  0
ARC
  5
2AB
330
18
100
AcDbEntity
  8
1
  6
Continuous
100
AcDbCircle
 10
212.3091568537105
 20
312.8838677952102
 30
0.0
 40
6.0
100
AcDbArc
 50
218.9707999999999
 51
282.2648249999998
  0
LINE
  5
2AC
330
18
100
AcDbEntity
  8
1
  6
Continuous
100
AcDbLine
 10
210.7724128537106
 20
288.3945207952103
 30
0.0
 11
211.6834798537106
 21
287.2028937952105
 31
0.0
  0
LINE
  5
2AD
330
18
100
AcDbEntity
  8
5
  6
PHANTOM
 48
0.3
100
AcDbLine
 10
200.3836508537106
 20
301.2530427952103
 30
0.0
 11
216.8149588537106
 21
299.5175607952104
 31
0.0
  0
LINE
  5
2AE
330
18
100
AcDbEntity
  8
1
  6
Continuous
100
AcDbLine
 10
210.2383178537105
 20
300.5616277952103
 30
0.0
 11
221.3118278537106
 21
303.4048187952103
 31
0.0
  0
LINE
  5
2AF
330
18
100
AcDbEntity
  8
5
  6
PHANTOM
 48
0.3
100
AcDbLine
 10
211.1987368537105
 20
298.0624477952104
 30
0.0
 11
221.7740728537106
 21
301.9115507952104
 31
0.0
  0
LINE
  5
2B0
330
18
100
AcDbEntity
  8
1
  6
Continuous
100
AcDbLine
 10
206.0059068537106
 20
284.7502457952103
 30
0.0
 11
222.6886228537106
 21
297.5051297952105
 31
0.0
  0
CIRCLE
  5
2B1
330
18
100
AcDbEntity
  8
1
  6
Continuous
100
AcDbCircle
 10
212.3091568537105
 20
312.8838677952102
 30
0.0
 40
3.5
  0
LINE
  5
2B2
330
18
100
AcDbEntity
  8
5
  6
PHANTOM
 48
0.3
100
AcDbLine
 10
208.3615608537106
 20
281.8524087952104
 30
0.0
 11
223.7200018537106
 21
296.1743607952103
 31
0.0
  0
LINE
  5
2B3
330
18
100
AcDbEntity
  8
1
  6
Continuous
100
AcDbLine
 10
194.8091878537105
 20
322.8838677952102
 30
0.0
 11
223.8091568537106
 21
322.8838677952102
 31
0.0
  0
LINE
  5
2B5
330
18
100
AcDbEntity
  8
4
  6
CENTER
 48
0.5
100
AcDbLine
 10
195.8091568537105
 20
253.6838547952104
 30
0.0
 11
305.8091568537106
 21
253.6838547952104
 31
0.0
  0
ARC
  5
2B6
330
18
100
AcDbEntity
  8
1
  6
Continuous
100
AcDbCircle
 10
79.22789018692424
 20
320.3838687952103
 30
0.0
 40
2.5
100
AcDbArc
 50
0.0
 51
89.99998199999998
  0
LINE
  5
2B7
330
18
100
AcDbEntity
  8
1
  6
Continuous
100
AcDbLine
 10
79.22789018692424
 20
304.8838657952102
 30
0.0
 11
82.72789018692424
 21
304.8838657952102
 31
0.0
  0
LINE
  5
2B8
330
18
100
AcDbEntity
  8
1
  6
Continuous
100
AcDbLine
 10
79.22789018692424
 20
306.8838677952101
 30
0.0
 11
81.72789018692425
 21
306.8838677952101
 31
0.0
  0
LINE
  5
2B9
330
18
100
AcDbEntity
  8
1
  6
Continuous
100
AcDbLine
 10
79.22789018692424
 20
304.0894107952104
 30
0.0
 11
81.72789018692425
 21
304.0894107952104
 31
0.0
  0
LINE
  5
2BA
330
18
100
AcDbEntity
  8
1
  6
Continuous
100
AcDbLine
 10
79.22789018692424
 20
289.5282687952104
 30
0.0
 11
81.22789018692401
 21
289.5282687952104
 31
0.0
  0
ARC
  5
2BB
330
18
100
AcDbEntity
  8
1
  6
Continuous
100
AcDbCircle
 10
79.22789018692424
 20
291.0282687952104
 30
0.0
 40
1.5
100
AcDbArc
 50
89.99998199999998
 51
270.0000009999997
  0
LINE
  5
2BC
330
18
100
AcDbEntity
  8
1
  6
Continuous
100
AcDbLine
 10
79.22789018692424
 20
275.0078447952104
 30
0.0
 11
80.72789018692423
 21
275.0078447952104
 31
0.0
  0
LINE
  5
2BE
330
18
100
AcDbEntity
  8
1
  6
Continuous
100
AcDbLine
 10
60.22789018692424
 20
273.7291357952104
 30
0.0
 11
80.22789018692424
 21
273.7291357952104
 31
0.0
  0
LINE
  5
2C0
330
18
100
AcDbEntity
  8
4
  6
CENTER
 48
0.5
100
AcDbLine
 10
16.72789018692424
 20
253.6838477952104
 30
0.0
 11
94.22789418692413
 21
253.6838477952104
 31
0.0
  0
LINE
  5
2C1
330
18
100
AcDbEntity
  8
4
  6
CENTER
 48
0.5
100
AcDbLine
 10
29.72789018692413
 20
298.0907957952102
 30
0.0
 11
89.72789018692401
 21
298.0907957952102
 31
0.0
  0
LINE
  5
2C2
330
18
100
AcDbEntity
  8
1
  6
Continuous
100
AcDbLine
 10
14.72789018692424
 20
332.6838627952103
 30
0.0
 11
104.727890186924
 21
332.6838627952103
 31
0.0
  0
LINE
  5
2C3
330
18
100
AcDbEntity
  8
1
  6
Continuous
100
AcDbLine
 10
14.72789018692424
 20
335.6838627952103
 30
0.0
 11
104.727890186924
 21
335.6838627952103
 31
0.0
  0
LINE
  5
2C4
330
18
100
AcDbEntity
  8
4
  6
CENTER
 48
0.5
100
AcDbLine
 10
29.72789018692413
 20
307.3838657952102
 30
0.0
 11
89.72789018692401
 21
307.3838657952102
 31
0.0
  0
LINE
  5
2C5
330
18
100
AcDbEntity
  8
4
  6
CENTER
 48
0.5
100
AcDbLine
 10
29.72789018692413
 20
312.8838677952102
 30
0.0
 11
89.72789018692401
 21
312.8838677952102
 31
0.0
  0
LINE
  5
2C6
330
18
100
AcDbEntity
  8
4
  6
CENTER
 48
0.5
100
AcDbLine
 10
29.72789018692413
 20
315.3838657952102
 30
0.0
 11
89.72789018692401
 21
315.3838657952102
 31
0.0
  0
LINE
  5
2C7
330
18
100
AcDbEntity
  8
1
  6
Continuous
100
AcDbLine
 10
29.72789018692413
 20
323.6838627952103
 30
0.0
 11
89.38879418692421
 21
323.6838627952103
 31
0.0
  0
LINE
  5
2C8
330
18
100
AcDbEntity
  8
1
  6
Continuous
100
AcDbLine
 10
27.72789018692412
 20
324.8385647952102
 30
0.0
 11
91.72789018692412
 21
324.8385647952102
 31
0.0
  0
LINE
  5
2C9
330
18
100
AcDbEntity
  8
1
  6
Continuous
100
AcDbLine
 10
27.74104318692399
 20
330.1838627952103
 30
0.0
 11
91.71473718692423
 21
330.1838627952103
 31
0.0
  0
LINE
  5
2CA
330
18
100
AcDbEntity
  8
4
  6
CENTER
 48
0.5
100
AcDbLine
 10
59.72789018692424
 20
195.8045517952104
 30
0.0
 11
59.72789018692424
 21
345.3872127952104
 31
0.0
  0
TEXT
  5
2D1
330
18
100
AcDbEntity
  8
7
  6
Continuous
 48
0.25
100
AcDbText
 10
9.99999906424682
 20
18.00000056761564
 30
0.0
 40
3.0
  1
TYPE No.TCA-315S-N100
100
AcDbText
  0
TEXT
  5
2D2
330
18
100
AcDbEntity
  8
7
  6
Continuous
 48
0.25
100
AcDbText
 10
9.99999906424682
 20
26.00000056761564
 30
0.0
 40
3.0
  1
CODE No.19163
100
AcDbText
  0
TEXT
  5
2D3
330
18
100
AcDbEntity
  8
1
  6
Continuous
 48
0.25
100
AcDbText
 10
9.99999906424682
 20
10.00000056761564
 30
0.0
 40
1.399999999999999
  1
LAYER
100
AcDbText
  0
TEXT
  5
2D4
330
18
100
AcDbEntity
  8
6
  6
Continuous
 48
0.25
100
AcDbText
 10
27.97951006424682
 20
9.999999806846743
 30
0.0
 40
1.399999999999999
  1
6
100
AcDbText
  0
TEXT
  5
2D5
330
18
100
AcDbEntity
  8
3
  6
DASHED
 48
0.25
100
AcDbText
 10
21.97951006424682
 20
9.999999806846743
 30
0.0
 40
1.399999999999999
  1
3
100
AcDbText
  0
TEXT
  5
2D6
330
18
100
AcDbEntity
  8
1
  6
Continuous
 48
0.25
100
AcDbText
 10
17.97951006424682
 20
9.999999806846743
 30
0.0
 40
1.399999999999999
  1
1
100
AcDbText
  0
TEXT
  5
2D7
330
18
100
AcDbEntity
  8
2
  6
Continuous
 48
0.25
100
AcDbText
 10
19.97951006424682
 20
9.999999806846743
 30
0.0
 40
1.399999999999999
  1
2
100
AcDbText
  0
TEXT
  5
2D8
330
18
100
AcDbEntity
  8
5
  6
PHANTOM
 48
0.3
100
AcDbText
 10
25.97951006424682
 20
9.999999806846743
 30
0.0
 40
1.399999999999999
  1
5
100
AcDbText
  0
TEXT
  5
2D9
330
18
100
AcDbEntity
  8
4
  6
CENTER
 48
0.5
100
AcDbText
 10
23.97951006424682
 20
9.999999806846743
 30
0.0
 40
1.399999999999999
  1
4
100
AcDbText
  0
TEXT
  5
2DA
330
18
100
AcDbEntity
  8
7
  6
Continuous
 48
0.25
100
AcDbText
 10
29.97951006424682
 20
9.999999806846743
 30
0.0
 40
1.399999999999999
  1
7
100
AcDbText
  0
LINE
  5
2E2
330
18
100
AcDbEntity
  8
1
  6
Continuous
100
AcDbLine
 10
79.22789018692424
 20
289.5282687952104
 30
0.0
 11
79.22789018692424
 21
322.8838687952103
 31
0.0
  0
LINE
  5
2E3
330
18
100
AcDbEntity
  8
1
  6
Continuous
100
AcDbLine
 10
40.22789018692413
 20
286.7074907952103
 30
0.0
 11
40.22789018692413
 21
313.3105967952103
 31
0.0
  0
LINE
  5
2E4
330
18
100
AcDbEntity
  8
1
  6
Continuous
100
AcDbLine
 10
35.72789018692414
 20
300.5907957952105
 30
0.0
 11
35.72789018692414
 21
295.5907957952105
 31
0.0
  0
LINE
  5
2E5
330
18
100
AcDbEntity
  8
1
  6
Continuous
100
AcDbLine
 10
37.22789018692413
 20
302.0907957952102
 30
0.0
 11
37.22789018692413
 21
294.0907957952105
 31
0.0
  0
LINE
  5
2E6
330
18
100
AcDbEntity
  8
1
  6
Continuous
100
AcDbLine
 10
42.72789018692424
 20
291.2149487952103
 30
0.0
 11
42.72789018692424
 21
301.0807017952103
 31
0.0
  0
LINE
  5
2E7
330
18
100
AcDbEntity
  8
1
  6
Continuous
100
AcDbLine
 10
37.72789018692412
 20
286.7502537952105
 30
0.0
 11
37.72789018692412
 21
319.6742877952103
 31
0.0
  0
LINE
  5
2E8
330
18
100
AcDbEntity
  8
1
  6
Continuous
100
AcDbLine
 10
26.72789018692411
 20
278.6838477952105
 30
0.0
 11
26.72789018692411
 21
314.5537267952103
 31
0.0
  0
LINE
  5
2E9
330
18
100
AcDbEntity
  8
1
  6
Continuous
100
AcDbLine
 10
34.22789018692412
 20
241.6838477952104
 30
0.0
 11
34.22789018692412
 21
320.8838497952104
 31
0.0
  0
LINE
  5
2EA
330
18
100
AcDbEntity
  8
1
  6
Continuous
100
AcDbLine
 10
57.72789018692424
 20
276.2291357952104
 30
0.0
 11
57.72789018692424
 21
300.0807017952103
 31
0.0
  0
ARC
  5
2EB
330
18
100
AcDbEntity
  8
1
  6
Continuous
100
AcDbCircle
 10
37.22789018692413
 20
295.5907957952105
 30
0.0
 40
1.5
100
AcDbArc
 50
179.999981
 51
270.0000179999999
  0
LINE
  5
2EC
330
18
100
AcDbEntity
  8
1
  6
Continuous
100
AcDbLine
 10
34.22789018692412
 20
241.6838477952104
 30
0.0
 11
36.72789018692412
 21
241.6838477952104
 31
0.0
  0
ARC
  5
2ED
330
18
100
AcDbEntity
  8
1
  6
Continuous
100
AcDbCircle
 10
72.14456218692411
 20
278.6838477952105
 30
0.0
 40
45.416668
100
AcDbArc
 50
179.999981
 51
199.5329899999999
  0
LINE
  5
2EE
330
18
100
AcDbEntity
  8
1
  6
Continuous
100
AcDbLine
 10
31.72789018692411
 20
244.6838477952105
 30
0.0
 11
31.72789018692411
 21
262.6838477952103
 31
0.0
  0
LINE
  5
2EF
330
18
100
AcDbEntity
  8
1
  6
Continuous
100
AcDbLine
 10
25.72789018692413
 20
246.3226337952102
 30
0.0
 11
25.72789018692413
 21
261.0450607952104
 31
0.0
  0
LINE
  5
2F0
330
18
100
AcDbEntity
  8
1
  6
Continuous
100
AcDbLine
 10
21.72789018692411
 20
257.9338477952105
 30
0.0
 11
21.72789018692411
 21
249.4338477952104
 31
0.0
  0
ARC
  5
2F1
330
18
100
AcDbEntity
  8
1
  6
Continuous
100
AcDbCircle
 10
38.26956218692407
 20
253.6838477952104
 30
0.0
 40
12.541667
100
AcDbArc
 50
156.9649729999999
 51
203.035037
  0
LINE
  5
2F2
330
18
100
AcDbEntity
  8
1
  6
Continuous
100
AcDbLine
 10
22.47789318692412
 20
258.6838477952103
 30
0.0
 11
22.47789318692412
 21
248.6838477952104
 31
0.0
  0
ARC
  5
2F3
330
18
100
AcDbEntity
  8
1
  6
Continuous
100
AcDbCircle
 10
19.18621818692417
 20
253.6838477952104
 30
0.0
 40
12.541667
100
AcDbArc
 50
336.9649680000001
 51
23.03503199999988
  0
LINE
  5
2F4
330
18
100
AcDbEntity
  8
2
  6
Continuous
100
AcDbLine
 10
21.72789018692411
 20
249.4338477952104
 30
0.0
 11
25.72789018692413
 21
249.4338477952104
 31
0.0
  0
LINE
  5
2F5
330
18
100
AcDbEntity
  8
1
  6
Continuous
100
AcDbLine
 10
22.47789318692412
 20
248.6838477952104
 30
0.0
 11
25.72789018692413
 21
248.6838477952104
 31
0.0
  0
LINE
  5
2F6
330
18
100
AcDbEntity
  8
1
  6
Continuous
100
AcDbLine
 10
21.72789018692411
 20
249.4338477952104
 30
0.0
 11
22.47789318692412
 21
248.6838477952104
 31
0.0
  0
ARC
  5
2F7
330
18
100
AcDbEntity
  8
1
  6
Continuous
100
AcDbCircle
 10
28.21746818692417
 20
246.3226337952102
 30
0.0
 40
3.510416999999999
100
AcDbArc
 50
315.6541429999998
 51
44.34585700000002
  0
ARC
  5
2F8
330
18
100
AcDbEntity
  8
1
  6
Continuous
100
AcDbCircle
 10
29.23831218692408
 20
246.3226337952102
 30
0.0
 40
3.510416999999999
100
AcDbArc
 50
135.6541409999996
 51
224.3458549999999
  0
LINE
  5
2F9
330
18
100
AcDbEntity
  8
1
  6
Continuous
100
AcDbLine
 10
26.72789018692411
 20
243.8688907952105
 30
0.0
 11
30.72789018692413
 21
243.8688907952105
 31
0.0
  0
LINE
  5
2FA
330
18
100
AcDbEntity
  8
1
  6
Continuous
100
AcDbLine
 10
26.72789018692411
 20
248.7763687952103
 30
0.0
 11
30.72789018692413
 21
248.7763687952103
 31
0.0
  0
LINE
  5
2FB
330
18
100
AcDbEntity
  8
1
  6
Continuous
100
AcDbLine
 10
31.72789018692411
 20
244.6838477952105
 30
0.0
 11
34.22789018692412
 21
244.6838477952105
 31
0.0
  0
LINE
  5
2FC
330
18
100
AcDbEntity
  8
2
  6
Continuous
100
AcDbLine
 10
21.72789018692411
 20
257.9338477952105
 30
0.0
 11
25.72789018692413
 21
257.9338477952105
 31
0.0
  0
LINE
  5
2FD
330
18
100
AcDbEntity
  8
1
  6
Continuous
100
AcDbLine
 10
22.47789318692412
 20
258.6838477952103
 30
0.0
 11
25.72789018692413
 21
258.6838477952103
 31
0.0
  0
LINE
  5
2FE
330
18
100
AcDbEntity
  8
1
  6
Continuous
100
AcDbLine
 10
21.72789018692411
 20
257.9338477952105
 30
0.0
 11
22.47789318692412
 21
258.6838477952103
 31
0.0
  0
ARC
  5
2FF
330
18
100
AcDbEntity
  8
1
  6
Continuous
100
AcDbCircle
 10
28.21746818692417
 20
261.0450607952104
 30
0.0
 40
3.510416999999999
100
AcDbArc
 50
315.6541429999998
 51
44.34585700000002
  0
ARC
  5
300
330
18
100
AcDbEntity
  8
1
  6
Continuous
100
AcDbCircle
 10
29.23831218692408
 20
261.0450607952104
 30
0.0
 40
3.510416999999999
100
AcDbArc
 50
135.6541409999996
 51
224.3458549999999
  0
LINE
  5
301
330
18
100
AcDbEntity
  8
1
  6
Continuous
100
AcDbLine
 10
26.72789018692411
 20
258.5913257952103
 30
0.0
 11
30.72789018692413
 21
258.5913257952103
 31
0.0
  0
LINE
  5
302
330
18
100
AcDbEntity
  8
1
  6
Continuous
100
AcDbLine
 10
26.72789018692411
 20
263.4988037952102
 30
0.0
 11
30.72789018692413
 21
263.4988037952102
 31
0.0
  0
LINE
  5
303
330
18
100
AcDbEntity
  8
1
  6
Continuous
100
AcDbLine
 10
31.72789018692411
 20
262.6838477952103
 30
0.0
 11
34.22789018692412
 21
262.6838477952103
 31
0.0
  0
LINE
  5
306
330
18
100
AcDbEntity
  8
1
  6
Continuous
100
AcDbLine
 10
36.72789018692412
 20
241.6838477952104
 30
0.0
 11
36.72789018692412
 21
294.1765807952103
 31
0.0
  0
ARC
  5
312
330
18
100
AcDbEntity
  8
1
  6
Continuous
100
AcDbCircle
 10
59.72789018692424
 20
277.0078447952104
 30
0.0
 40
2.0
100
AcDbArc
 50
179.999981
 51
270.0000179999999
  0
ARC
  5
313
330
18
100
AcDbEntity
  8
1
  6
Continuous
100
AcDbCircle
 10
60.22789018692424
 20
276.2291357952104
 30
0.0
 40
2.5
100
AcDbArc
 50
179.999981
 51
270.0000179999999
  0
LINE
  5
323
330
18
100
AcDbEntity
  8
1
  6
Continuous
100
AcDbLine
 10
39.72789018692424
 20
284.7502537952104
 30
0.0
 11
57.72789018692424
 21
284.7502537952104
 31
0.0
  0
LINE
  5
324
330
18
100
AcDbEntity
  8
1
  6
Continuous
100
AcDbLine
 10
40.22789018692413
 20
286.7074907952103
 30
0.0
 11
57.72789018692424
 21
286.7074907952103
 31
0.0
  0
LINE
  5
325
330
18
100
AcDbEntity
  8
1
  6
Continuous
100
AcDbLine
 10
42.72789018692424
 20
295.5907957952105
 30
0.0
 11
57.72789018692424
 21
295.5907957952105
 31
0.0
  0
ARC
  5
326
330
18
100
AcDbEntity
  8
1
  6
Continuous
100
AcDbCircle
 10
39.72789018692424
 20
286.7502537952105
 30
0.0
 40
2.0
100
AcDbArc
 50
179.999981
 51
270.0000179999999
  0
LINE
  5
327
330
18
100
AcDbEntity
  8
1
  6
Continuous
100
AcDbLine
 10
40.22789018692413
 20
291.2149487952103
 30
0.0
 11
42.72789018692424
 21
291.2149487952103
 31
0.0
  0
LINE
  5
328
330
18
100
AcDbEntity
  8
1
  6
Continuous
100
AcDbLine
 10
37.22789018692413
 20
295.5907957952105
 30
0.0
 11
37.72789018692412
 21
295.5907957952105
 31
0.0
  0
LINE
  5
329
330
18
100
AcDbEntity
  8
1
  6
Continuous
100
AcDbLine
 10
61.22789018692422
 20
277.3986107952103
 30
0.0
 11
79.22789018692424
 21
277.3986107952103
 31
0.0
  0
LINE
  5
32A
330
18
100
AcDbEntity
  8
1
  6
Continuous
100
AcDbLine
 10
61.22789018692422
 20
276.2291207952105
 30
0.0
 11
79.22789018692424
 21
276.2291207952105
 31
0.0
  0
LINE
  5
32B
330
18
100
AcDbEntity
  8
1
  6
Continuous
100
AcDbLine
 10
59.72789018692424
 20
275.0078447952104
 30
0.0
 11
61.22789018692422
 21
275.0078447952104
 31
0.0
  0
LINE
  5
32C
330
18
100
AcDbEntity
  8
1
  6
Continuous
100
AcDbLine
 10
61.22789018692422
 20
273.7291357952104
 30
0.0
 11
61.22789018692422
 21
277.3986107952103
 31
0.0
  0
LINE
  5
32D
330
18
100
AcDbEntity
  8
1
  6
Continuous
100
AcDbLine
 10
79.22789018692424
 20
273.7291357952104
 30
0.0
 11
79.22789018692424
 21
277.3986107952103
 31
0.0
  0
ARC
  5
32E
330
18
100
AcDbEntity
  8
1
  6
Continuous
100
AcDbCircle
 10
36.72789018692412
 20
320.8838687952102
 30
0.0
 40
2.0
100
AcDbArc
 50
89.99998199999998
 51
179.9999639999999
  0
ARC
  5
32F
330
18
100
AcDbEntity
  8
1
  6
Continuous
100
AcDbCircle
 10
37.22789018692413
 20
310.3838677952102
 30
0.0
 40
1.5
100
AcDbArc
 50
179.999981
 51
270.0000179999999
  0
ARC
  5
330
330
18
100
AcDbEntity
  8
1
  6
Continuous
100
AcDbCircle
 10
37.22789018692413
 20
300.5907957952105
 30
0.0
 40
1.5
100
AcDbArc
 50
89.99998199999998
 51
179.9999639999999
  0
ARC
  5
331
330
18
100
AcDbEntity
  8
1
  6
Continuous
100
AcDbCircle
 10
36.72789018692412
 20
317.8105427952103
 30
0.0
 40
2.0
100
AcDbArc
 50
179.999981
 51
270.0000179999999
  0
ARC
  5
332
330
18
100
AcDbEntity
  8
1
  6
Continuous
100
AcDbCircle
 10
37.22789018692413
 20
315.8105967952103
 30
0.0
 40
2.5
100
AcDbArc
 50
179.999981
 51
270.0000179999999
  0
LINE
  5
333
330
18
100
AcDbEntity
  8
1
  6
Continuous
100
AcDbLine
 10
27.72797518692414
 20
324.8385347952102
 30
0.0
 11
29.67716518692407
 21
329.3608277952103
 31
0.0
  0
LINE
  5
334
330
18
100
AcDbEntity
  8
1
  6
Continuous
100
AcDbLine
 10
35.72789018692414
 20
313.8105967952104
 30
0.0
 11
35.72789018692414
 21
310.3838677952102
 31
0.0
  0
ARC
  5
335
330
18
100
AcDbEntity
  8
1
  6
Continuous
100
AcDbCircle
 10
33.72789018692412
 20
309.8838657952102
 30
0.0
 40
1.5
100
AcDbArc
 50
89.99998199999998
 51
179.9999639999999
  0
LINE
  5
336
330
18
100
AcDbEntity
  8
1
  6
Continuous
100
AcDbLine
 10
33.72789018692412
 20
311.3838657952104
 30
0.0
 11
33.72789018692412
 21
303.3838677952102
 31
0.0
  0
ARC
  5
337
330
18
100
AcDbEntity
  8
1
  6
Continuous
100
AcDbCircle
 10
33.72789018692412
 20
304.8838657952102
 30
0.0
 40
1.5
100
AcDbArc
 50
179.999981
 51
270.0000179999999
  0
LINE
  5
338
330
18
100
AcDbEntity
  8
1
  6
Continuous
100
AcDbLine
 10
33.72789018692412
 20
309.8838657952102
 30
0.0
 11
34.22789018692412
 21
309.8838657952102
 31
0.0
  0
LINE
  5
339
330
18
100
AcDbEntity
  8
1
  6
Continuous
100
AcDbLine
 10
33.72789018692412
 20
304.8838657952102
 30
0.0
 11
34.22789018692412
 21
304.8838657952102
 31
0.0
  0
LINE
  5
33A
330
18
100
AcDbEntity
  8
1
  6
Continuous
100
AcDbLine
 10
32.22789018692423
 20
309.8838657952102
 30
0.0
 11
32.22789018692423
 21
304.8838657952102
 31
0.0
  0
LINE
  5
33B
330
18
100
AcDbEntity
  8
1
  6
Continuous
100
AcDbLine
 10
34.72789018692413
 20
315.8105967952103
 30
0.0
 11
34.72789018692413
 21
320.8838687952102
 31
0.0
  0
ARC
  5
33C
330
18
100
AcDbEntity
  8
1
  6
Continuous
100
AcDbCircle
 10
33.72789018692412
 20
317.8838657952102
 30
0.0
 40
1.5
100
AcDbArc
 50
89.99998199999998
 51
179.9999639999999
  0
ARC
  5
33D
330
18
100
AcDbEntity
  8
1
  6
Continuous
100
AcDbCircle
 10
27.22789018692413
 20
318.8838537952103
 30
0.0
 40
2.0
100
AcDbArc
 50
299.999985
 51
0.0000140000001062
  0
LINE
  5
33E
330
18
100
AcDbEntity
  8
1
  6
Continuous
100
AcDbLine
 10
33.72789018692412
 20
319.3838657952102
 30
0.0
 11
33.72789018692412
 21
311.3838657952104
 31
0.0
  0
ARC
  5
33F
330
18
100
AcDbEntity
  8
1
  6
Continuous
100
AcDbCircle
 10
29.72789018692413
 20
314.5537267952103
 30
0.0
 40
3.0
100
AcDbArc
 50
120.0000170000002
 51
179.9999639999999
  0
LINE
  5
340
330
18
100
AcDbEntity
  8
1
  6
Continuous
100
AcDbLine
 10
33.72789018692412
 20
317.8838657952102
 30
0.0
 11
34.22789018692412
 21
317.8838657952102
 31
0.0
  0
ARC
  5
341
330
18
100
AcDbEntity
  8
1
  6
Continuous
100
AcDbCircle
 10
33.72789018692412
 20
312.8838657952103
 30
0.0
 40
1.5
100
AcDbArc
 50
179.999981
 51
270.0000179999999
  0
LINE
  5
342
330
18
100
AcDbEntity
  8
1
  6
Continuous
100
AcDbLine
 10
33.72789018692412
 20
312.8838657952103
 30
0.0
 11
34.22789018692412
 21
312.8838657952103
 31
0.0
  0
LINE
  5
343
330
18
100
AcDbEntity
  8
1
  6
Continuous
100
AcDbLine
 10
32.22789018692423
 20
317.8838657952102
 30
0.0
 11
32.22789018692423
 21
312.8838657952103
 31
0.0
  0
LINE
  5
344
330
18
100
AcDbEntity
  8
1
  6
Continuous
100
AcDbLine
 10
28.42790218692414
 20
322.6838627952103
 30
0.0
 11
35.85609418692411
 21
322.6838627952103
 31
0.0
  0
LINE
  5
345
330
18
100
AcDbEntity
  8
1
  6
Continuous
100
AcDbLine
 10
29.22789018692423
 20
321.8838627952103
 30
0.0
 11
34.99583418692417
 21
321.8838627952103
 31
0.0
  0
LINE
  5
346
330
18
100
AcDbEntity
  8
1
  6
Continuous
100
AcDbLine
 10
29.72791118692407
 20
323.6838607952102
 30
0.0
 11
27.72791118692407
 21
324.8385637952103
 31
0.0
  0
ARC
  5
347
330
18
100
AcDbEntity
  8
1
  6
Continuous
100
AcDbCircle
 10
34.72789018692413
 20
319.3838537952103
 30
0.0
 40
5.5
100
AcDbArc
 50
152.9642169999999
 51
179.999978
  0
ARC
  5
348
330
18
100
AcDbEntity
  8
1
  6
Continuous
100
AcDbCircle
 10
29.22789018692423
 20
322.6838647952102
 30
0.0
 40
0.8
100
AcDbArc
 50
179.9999949999999
 51
270.000032
  0
LINE
  5
349
330
18
100
AcDbEntity
  8
1
  6
Continuous
100
AcDbLine
 10
29.22789018692423
 20
318.8838537952103
 30
0.0
 11
29.22789018692423
 21
319.3838537952103
 31
0.0
  0
LINE
  5
34A
330
18
100
AcDbEntity
  8
1
  6
Continuous
100
AcDbLine
 10
29.22790218692409
 20
322.6838587952103
 30
0.0
 11
30.06700118692423
 21
323.6838557952103
 31
0.0
  0
LINE
  5
34B
330
18
100
AcDbEntity
  8
1
  6
Continuous
100
AcDbLine
 10
34.22789018692412
 20
320.8838497952104
 30
0.0
 11
34.72789018692413
 21
320.8838497952104
 31
0.0
  0
LINE
  5
34C
330
18
100
AcDbEntity
  8
1
  6
Continuous
100
AcDbLine
 10
14.72789018692424
 20
332.6838627952103
 30
0.0
 11
14.72789018692424
 21
335.6838627952103
 31
0.0
  0
ARC
  5
34D
330
18
100
AcDbEntity
  8
1
  6
Continuous
100
AcDbCircle
 10
27.74104318692399
 20
335.6970297952102
 30
0.0
 40
5.513164999999997
100
AcDbArc
 50
213.129964
 51
270.000032
  0
LINE
  5
34E
330
18
100
AcDbEntity
  8
4
  6
CENTER
 48
0.5
100
AcDbLine
 10
24.22789018692411
 20
340.6838627952103
 30
0.0
 11
24.22789018692411
 21
327.6838627952102
 31
0.0
  0
LINE
  5
34F
330
18
100
AcDbEntity
  8
4
  6
CENTER
 48
0.5
100
AcDbLine
 10
25.72789018692402
 20
340.6838627952103
 30
0.0
 11
25.72789018692402
 21
327.6838627952102
 31
0.0
  0
ARC
  5
350
330
18
100
AcDbEntity
  8
1
  6
Continuous
100
AcDbCircle
 10
34.72789018692413
 20
327.1838647952102
 30
0.0
 40
5.5
100
AcDbArc
 50
146.9442939999995
 51
156.6831330000001
  0
ARC
  5
351
330
18
100
AcDbEntity
  8
1
  6
Continuous
100
AcDbCircle
 10
58.22789018692422
 20
320.3838687952103
 30
0.0
 40
2.5
100
AcDbArc
 50
89.99998199999998
 51
179.9999639999999
  0
LINE
  5
352
330
18
100
AcDbEntity
  8
1
  6
Continuous
100
AcDbLine
 10
57.22789018692424
 20
320.3838687952103
 30
0.0
 11
79.22789018692424
 21
320.3838687952103
 31
0.0
  0
LINE
  5
353
330
18
100
AcDbEntity
  8
1
  6
Continuous
100
AcDbLine
 10
55.72789018692422
 20
317.4688817952105
 30
0.0
 11
77.22789018692401
 21
317.4688817952105
 31
0.0
  0
LINE
  5
354
330
18
100
AcDbEntity
  8
1
  6
Continuous
100
AcDbLine
 10
36.72789018692412
 20
322.8838687952103
 30
0.0
 11
79.22789018692424
 21
322.8838687952103
 31
0.0
  0
LINE
  5
355
330
18
100
AcDbEntity
  8
1
  6
Continuous
100
AcDbLine
 10
37.22789018692413
 20
313.3105967952103
 30
0.0
 11
37.22789018692413
 21
308.8838677952101
 31
0.0
  0
LINE
  5
356
330
18
100
AcDbEntity
  8
1
  6
Continuous
100
AcDbLine
 10
42.22789018692412
 20
302.4055047952102
 30
0.0
 11
55.72789018692422
 21
302.4055047952102
 31
0.0
  0
LINE
  5
357
330
18
100
AcDbEntity
  8
1
  6
Continuous
100
AcDbLine
 10
42.72789018692424
 20
301.0807017952103
 30
0.0
 11
56.72789018692423
 21
301.0807017952103
 31
0.0
  0
LINE
  5
358
330
18
100
AcDbEntity
  8
1
  6
Continuous
100
AcDbLine
 10
44.72789018692423
 20
299.4911707952105
 30
0.0
 11
57.72789018692424
 21
299.4911707952105
 31
0.0
  0
LINE
  5
359
330
18
100
AcDbEntity
  8
1
  6
Continuous
100
AcDbLine
 10
36.72789018692412
 20
302.0050107952103
 30
0.0
 11
36.72789018692412
 21
308.9696537952103
 31
0.0
  0
ARC
  5
35A
330
18
100
AcDbEntity
  8
1
  6
Continuous
100
AcDbCircle
 10
42.22789018692412
 20
300.4055047952105
 30
0.0
 40
2.0
100
AcDbArc
 50
89.99998199999998
 51
179.9999639999999
  0
LINE
  5
35B
330
18
100
AcDbEntity
  8
1
  6
Continuous
100
AcDbLine
 10
37.22789018692413
 20
300.5907957952105
 30
0.0
 11
37.72789018692412
 21
300.5907957952105
 31
0.0
  0
ARC
  5
35C
330
18
100
AcDbEntity
  8
1
  6
Continuous
100
AcDbCircle
 10
44.72789018692423
 20
297.4911707952102
 30
0.0
 40
2.0
100
AcDbArc
 50
89.99998199999998
 51
179.9999639999999
  0
LINE
  5
35D
330
18
100
AcDbEntity
  8
1
  6
Continuous
100
AcDbLine
 10
37.22789018692413
 20
310.3838677952102
 30
0.0
 11
37.72789018692412
 21
310.3838677952102
 31
0.0
  0
LINE
  5
35E
330
18
100
AcDbEntity
  8
1
  6
Continuous
100
AcDbLine
 10
37.22789018692413
 20
309.8838657952102
 30
0.0
 11
37.72789018692412
 21
309.8838657952102
 31
0.0
  0
LINE
  5
35F
330
18
100
AcDbEntity
  8
1
  6
Continuous
100
AcDbLine
 10
36.72789018692412
 20
304.8838657952102
 30
0.0
 11
37.72789018692412
 21
304.8838657952102
 31
0.0
  0
LINE
  5
360
330
18
100
AcDbEntity
  8
1
  6
Continuous
100
AcDbLine
 10
37.72789018692412
 20
306.8838677952101
 30
0.0
 11
40.22789018692413
 21
306.8838677952101
 31
0.0
  0
LINE
  5
361
330
18
100
AcDbEntity
  8
1
  6
Continuous
100
AcDbLine
 10
37.72789018692412
 20
304.0894107952104
 30
0.0
 11
40.22789018692413
 21
304.0894107952104
 31
0.0
  0
ARC
  5
362
330
18
100
AcDbEntity
  8
1
  6
Continuous
100
AcDbCircle
 10
55.72789018692422
 20
300.4055047952105
 30
0.0
 40
2.0
100
AcDbArc
 50
0.0
 51
89.99998199999998
  0
ARC
  5
363
330
18
100
AcDbEntity
  8
1
  6
Continuous
100
AcDbCircle
 10
56.72789018692423
 20
300.0807017952103
 30
0.0
 40
1.0
100
AcDbArc
 50
0.0
 51
89.99998199999998
  0
LINE
  5
364
330
18
100
AcDbEntity
  8
1
  6
Continuous
100
AcDbLine
 10
37.72789018692412
 20
319.0272067952103
 30
0.0
 11
52.72789018692424
 21
319.0272067952103
 31
0.0
  0
LINE
  5
365
330
18
100
AcDbEntity
  8
1
  6
Continuous
100
AcDbLine
 10
37.72789018692412
 20
319.6742877952103
 30
0.0
 11
52.72789018692424
 21
319.6742877952103
 31
0.0
  0
LINE
  5
366
330
18
100
AcDbEntity
  8
1
  6
Continuous
100
AcDbLine
 10
37.22789018692413
 20
313.3105967952103
 30
0.0
 11
53.22789018692422
 21
313.3105967952103
 31
0.0
  0
LINE
  5
367
330
18
100
AcDbEntity
  8
1
  6
Continuous
100
AcDbLine
 10
36.72789018692412
 20
315.8105427952103
 30
0.0
 11
37.72789018692412
 21
315.8105427952103
 31
0.0
  0
LINE
  5
368
330
18
100
AcDbEntity
  8
1
  6
Continuous
100
AcDbLine
 10
55.72789018692422
 20
315.8105967952103
 30
0.0
 11
55.72789018692422
 21
320.3838687952103
 31
0.0
  0
LINE
  5
369
330
18
100
AcDbEntity
  8
1
  6
Continuous
100
AcDbLine
 10
52.72789018692424
 20
313.3105967952103
 30
0.0
 11
52.72789018692424
 21
319.6742877952103
 31
0.0
  0
LINE
  5
36A
330
18
100
AcDbEntity
  8
1
  6
Continuous
100
AcDbLine
 10
52.72789018692424
 20
315.8105427952103
 30
0.0
 11
53.72789018692422
 21
315.8105427952103
 31
0.0
  0
ARC
  5
36B
330
18
100
AcDbEntity
  8
1
  6
Continuous
100
AcDbCircle
 10
53.22789018692422
 20
315.8105967952103
 30
0.0
 40
2.5
100
AcDbArc
 50
270.0000179999999
 51
0.0
  0
ARC
  5
36C
330
18
100
AcDbEntity
  8
1
  6
Continuous
100
AcDbCircle
 10
53.72789018692422
 20
317.8105427952103
 30
0.0
 40
2.0
100
AcDbArc
 50
270.0000179999999
 51
0.0
  0
ARC
  5
36D
330
18
100
AcDbEntity
  8
1
  6
Continuous
100
AcDbCircle
 10
57.22789018692424
 20
318.8838687952103
 30
0.0
 40
1.5
100
AcDbArc
 50
89.99998199999998
 51
179.9999639999999
  0
LINE
  5
36E
330
18
100
AcDbEntity
  8
1
  6
Continuous
100
AcDbLine
 10
76.72789018692424
 20
317.4688817952105
 30
0.0
 11
76.72789018692424
 21
320.3838687952103
 31
0.0
  0
ARC
  5
36F
330
18
100
AcDbEntity
  8
1
  6
Continuous
100
AcDbCircle
 10
77.22789018692401
 20
315.4688817952105
 30
0.0
 40
2.0
100
AcDbArc
 50
0.0
 51
89.99998199999998
  0
LINE
  5
370
330
18
100
AcDbEntity
  8
1
  6
Continuous
100
AcDbLine
 10
92.72789018692412
 20
278.6838477952105
 30
0.0
 11
92.72789018692412
 21
314.5537267952103
 31
0.0
  0
LINE
  5
371
330
18
100
AcDbEntity
  8
1
  6
Continuous
100
AcDbLine
 10
81.72789018692425
 20
289.5282687952104
 30
0.0
 11
81.72789018692425
 21
304.0894107952104
 31
0.0
  0
LINE
  5
372
330
18
100
AcDbEntity
  8
1
  6
Continuous
100
AcDbLine
 10
82.72789018692424
 20
295.0141697952103
 30
0.0
 11
82.72789018692424
 21
301.2055877952103
 31
0.0
  0
ARC
  5
373
330
18
100
AcDbEntity
  8
1
  6
Continuous
100
AcDbCircle
 10
78.99713118692415
 20
298.0907957952102
 30
0.0
 40
5.115518999999999
100
AcDbArc
 50
316.827887
 51
43.17211299999988
  0
LINE
  5
374
330
18
100
AcDbEntity
  8
1
  6
Continuous
100
AcDbLine
 10
85.22789018692424
 20
241.6838477952104
 30
0.0
 11
85.22789018692424
 21
320.8838497952104
 31
0.0
  0
ARC
  5
375
330
18
100
AcDbEntity
  8
1
  6
Continuous
100
AcDbCircle
 10
47.31121818692423
 20
278.6838477952105
 30
0.0
 40
45.416668
100
AcDbArc
 50
334.5902930000002
 51
0.0000549999998358
  0
LINE
  5
377
330
18
100
AcDbEntity
  8
1
  6
Continuous
100
AcDbLine
 10
82.72789018692424
 20
241.6838477952104
 30
0.0
 11
82.72789018692424
 21
294.5907957952103
 31
0.0
  0
LINE
  5
37A
330
18
100
AcDbEntity
  8
1
  6
Continuous
100
AcDbLine
 10
85.22789018692424
 20
244.6838477952105
 30
0.0
 11
85.22789018692424
 21
262.6838477952103
 31
0.0
  0
LINE
  5
37B
330
18
100
AcDbEntity
  8
1
  6
Continuous
100
AcDbLine
 10
86.72789018692425
 20
244.6838477952105
 30
0.0
 11
86.72789018692425
 21
262.6838477952103
 31
0.0
  0
ARC
  5
37C
330
18
100
AcDbEntity
  8
1
  6
Continuous
100
AcDbCircle
 10
71.77789318692425
 20
253.6838477952104
 30
0.0
 40
17.450001
100
AcDbArc
 50
328.9517630000001
 51
31.04826400000013
  0
LINE
  5
37F
330
18
100
AcDbEntity
  8
1
  6
Continuous
100
AcDbLine
 10
82.72789018692424
 20
241.6838477952104
 30
0.0
 11
85.22789018692424
 21
241.6838477952104
 31
0.0
  0
LINE
  5
380
330
18
100
AcDbEntity
  8
1
  6
Continuous
100
AcDbLine
 10
86.72789018692425
 20
244.6838477952105
 30
0.0
 11
85.22789018692424
 21
244.6838477952105
 31
0.0
  0
LINE
  5
382
330
18
100
AcDbEntity
  8
1
  6
Continuous
100
AcDbLine
 10
86.72789018692425
 20
262.6838477952103
 30
0.0
 11
85.22789018692424
 21
262.6838477952103
 31
0.0
  0
ARC
  5
385
330
18
100
AcDbEntity
  8
1
  6
Continuous
100
AcDbCircle
 10
80.22789018692424
 20
276.2291357952104
 30
0.0
 40
2.5
100
AcDbArc
 50
270.0000179999999
 51
0.0
  0
ARC
  5
386
330
18
100
AcDbEntity
  8
1
  6
Continuous
100
AcDbCircle
 10
80.72789018692423
 20
277.0078447952104
 30
0.0
 40
2.0
100
AcDbArc
 50
270.0000179999999
 51
0.0
  0
ARC
  5
387
330
18
100
AcDbEntity
  8
1
  6
Continuous
100
AcDbCircle
 10
81.22789018692401
 20
288.0282687952103
 30
0.0
 40
1.5
100
AcDbArc
 50
0.0
 51
89.99998199999998
  0
LINE
  5
388
330
18
100
AcDbEntity
  8
1
  6
Continuous
100
AcDbLine
 10
81.72789018692425
 20
294.5907957952103
 30
0.0
 11
82.72789018692424
 21
294.5907957952103
 31
0.0
  0
LINE
  5
389
330
18
100
AcDbEntity
  8
1
  6
Continuous
100
AcDbLine
 10
91.72789418692413
 20
324.8385577952102
 30
0.0
 11
89.7787071869242
 21
329.3608477952103
 31
0.0
  0
LINE
  5
38A
330
18
100
AcDbEntity
  8
1
  6
Continuous
100
AcDbLine
 10
82.72789018692424
 20
310.0283567952103
 30
0.0
 11
82.72789018692424
 21
315.6522297952104
 31
0.0
  0
LINE
  5
38B
330
18
100
AcDbEntity
  8
1
  6
Continuous
100
AcDbLine
 10
81.72789018692425
 20
306.8838677952101
 30
0.0
 11
81.72789018692425
 21
320.3838687952103
 31
0.0
  0
ARC
  5
38C
330
18
100
AcDbEntity
  8
1
  6
Continuous
100
AcDbCircle
 10
78.99713118692415
 20
312.8838677952102
 30
0.0
 40
5.115518999999999
100
AcDbArc
 50
316.827887
 51
43.17211299999988
  0
LINE
  5
38D
330
18
100
AcDbEntity
  8
1
  6
Continuous
100
AcDbLine
 10
82.72789018692424
 20
301.5907957952105
 30
0.0
 11
82.72789018692424
 21
309.3838677952102
 31
0.0
  0
LINE
  5
38E
330
18
100
AcDbEntity
  8
1
  6
Continuous
100
AcDbLine
 10
81.72789018692425
 20
301.5907957952105
 30
0.0
 11
82.72789018692424
 21
301.5907957952105
 31
0.0
  0
LINE
  5
38F
330
18
100
AcDbEntity
  8
1
  6
Continuous
100
AcDbLine
 10
85.22789018692424
 20
310.8838657952103
 30
0.0
 11
86.2278901869242
 21
310.8838657952103
 31
0.0
  0
LINE
  5
390
330
18
100
AcDbEntity
  8
1
  6
Continuous
100
AcDbLine
 10
85.22789018692424
 20
303.8838677952103
 30
0.0
 11
86.2278901869242
 21
303.8838677952103
 31
0.0
  0
LINE
  5
391
330
18
100
AcDbEntity
  8
1
  6
Continuous
100
AcDbLine
 10
81.72789018692425
 20
309.3838677952102
 30
0.0
 11
82.72789018692424
 21
309.3838677952102
 31
0.0
  0
LINE
  5
392
330
18
100
AcDbEntity
  8
1
  6
Continuous
100
AcDbLine
 10
86.2278901869242
 20
304.2497007952102
 30
0.0
 11
86.2278901869242
 21
310.5443097952103
 31
0.0
  0
ARC
  5
393
330
18
100
AcDbEntity
  8
1
  6
Continuous
100
AcDbCircle
 10
82.49713118692415
 20
307.3838657952102
 30
0.0
 40
5.115518999999999
100
AcDbArc
 50
316.827887
 51
43.17211299999988
  0
LINE
  5
394
330
18
100
AcDbEntity
  8
1
  6
Continuous
100
AcDbLine
 10
89.72786518692414
 20
323.6838507952104
 30
0.0
 11
91.72787918692415
 21
324.8385607952103
 31
0.0
  0
ARC
  5
395
330
18
100
AcDbEntity
  8
1
  6
Continuous
100
AcDbCircle
 10
90.22789018692412
 20
322.6838607952103
 30
0.0
 40
0.8
100
AcDbArc
 50
270.000032
 51
0.0000680000001671
  0
ARC
  5
396
330
18
100
AcDbEntity
  8
1
  6
Continuous
100
AcDbCircle
 10
92.22789018692413
 20
318.8838537952103
 30
0.0
 40
2.0
100
AcDbArc
 50
180.0000219999999
 51
240.0000509999999
  0
LINE
  5
397
330
18
100
AcDbEntity
  8
1
  6
Continuous
100
AcDbLine
 10
91.0278781869241
 20
322.6838627952103
 30
0.0
 11
80.20770318692404
 21
322.6838627952103
 31
0.0
  0
LINE
  5
398
330
18
100
AcDbEntity
  8
1
  6
Continuous
100
AcDbLine
 10
82.72789018692424
 20
316.3838677952103
 30
0.0
 11
82.72789018692424
 21
320.8838497952104
 31
0.0
  0
LINE
  5
399
330
18
100
AcDbEntity
  8
1
  6
Continuous
100
AcDbLine
 10
86.2278901869242
 20
312.2469487952101
 30
0.0
 11
86.2278901869242
 21
318.4899617952103
 31
0.0
  0
ARC
  5
39A
330
18
100
AcDbEntity
  8
1
  6
Continuous
100
AcDbCircle
 10
82.49713118692415
 20
315.3838657952102
 30
0.0
 40
5.115518999999999
100
AcDbArc
 50
316.827887
 51
43.17211299999988
  0
LINE
  5
39B
330
18
100
AcDbEntity
  8
1
  6
Continuous
100
AcDbLine
 10
85.22789018692424
 20
311.8838657952102
 30
0.0
 11
86.2278901869242
 21
311.8838657952102
 31
0.0
  0
LINE
  5
39C
330
18
100
AcDbEntity
  8
1
  6
Continuous
100
AcDbLine
 10
81.72789018692425
 20
317.8838657952102
 30
0.0
 11
82.72789018692424
 21
317.8838657952102
 31
0.0
  0
LINE
  5
39D
330
18
100
AcDbEntity
  8
1
  6
Continuous
100
AcDbLine
 10
81.72789018692425
 20
316.3838677952103
 30
0.0
 11
82.72789018692424
 21
316.3838677952103
 31
0.0
  0
LINE
  5
39E
330
18
100
AcDbEntity
  8
1
  6
Continuous
100
AcDbLine
 10
85.22789018692424
 20
318.8838657952103
 30
0.0
 11
86.2278901869242
 21
318.8838657952103
 31
0.0
  0
LINE
  5
39F
330
18
100
AcDbEntity
  8
1
  6
Continuous
100
AcDbLine
 10
90.22789018692412
 20
321.8838627952103
 30
0.0
 11
81.22789018692401
 21
321.8838627952103
 31
0.0
  0
LINE
  5
3A0
330
18
100
AcDbEntity
  8
1
  6
Continuous
100
AcDbLine
 10
82.72789018692424
 20
320.8838497952104
 30
0.0
 11
85.22789018692424
 21
320.8838497952104
 31
0.0
  0
ARC
  5
3A1
330
18
100
AcDbEntity
  8
1
  6
Continuous
100
AcDbCircle
 10
84.72789018692424
 20
319.3838497952103
 30
0.0
 40
5.5
100
AcDbArc
 50
0.0000680000001671
 51
27.03584199999993
  0
LINE
  5
3A2
330
18
100
AcDbEntity
  8
1
  6
Continuous
100
AcDbLine
 10
90.22789018692412
 20
318.8838497952104
 30
0.0
 11
90.22789018692412
 21
319.3838497952103
 31
0.0
  0
LINE
  5
3A3
330
18
100
AcDbEntity
  8
1
  6
Continuous
100
AcDbLine
 10
90.22790418692414
 20
322.6838557952103
 30
0.0
 11
89.38879618692414
 21
323.6838657952103
 31
0.0
  0
ARC
  5
3A4
330
18
100
AcDbEntity
  8
1
  6
Continuous
100
AcDbCircle
 10
89.72789018692401
 20
314.5537267952103
 30
0.0
 40
3.0
100
AcDbArc
 50
0.0000549999998358
 51
60.00000199999967
  0
ARC
  5
3A5
330
18
100
AcDbEntity
  8
1
  6
Continuous
100
AcDbCircle
 10
84.72789018692424
 20
327.1838607952103
 30
0.0
 40
5.5
100
AcDbArc
 50
23.31691300000007
 51
33.05575200000024
  0
LINE
  5
3A6
330
18
100
AcDbEntity
  8
4
  6
CENTER
 48
0.5
100
AcDbLine
 10
93.72789018692413
 20
340.6838627952103
 30
0.0
 11
93.72789018692413
 21
327.6838627952102
 31
0.0
  0
LINE
  5
3A7
330
18
100
AcDbEntity
  8
4
  6
CENTER
 48
0.5
100
AcDbLine
 10
95.22789018692412
 20
340.6838627952103
 30
0.0
 11
95.22789018692412
 21
327.6838627952102
 31
0.0
  0
ARC
  5
3A8
330
18
100
AcDbEntity
  8
1
  6
Continuous
100
AcDbCircle
 10
91.71473718692423
 20
335.6970247952103
 30
0.0
 40
5.513164999999997
100
AcDbArc
 50
270.000032
 51
326.8701129999998
  0
LINE
  5
3A9
330
18
100
AcDbEntity
  8
1
  6
Continuous
100
AcDbLine
 10
104.727890186924
 20
332.6838627952103
 30
0.0
 11
104.727890186924
 21
335.6838627952103
 31
0.0
  0
CIRCLE
  5
3AA
330
18
100
AcDbEntity
  8
5
  6
PHANTOM
 48
0.3
100
AcDbCircle
 10
203.9199048537106
 20
295.4131837952104
 30
0.0
 40
3.5
  0
LINE
  5
3AB
330
18
100
AcDbEntity
  8
4
  6
CENTER
 48
0.5
100
AcDbLine
 10
203.0654318537106
 20
294.0907997952103
 30
0.0
 11
203.0654318537106
 21
302.0907997952103
 31
0.0
  0
LINE
  5
3AC
330
18
100
AcDbEntity
  8
5
  6
PHANTOM
 48
0.3
100
AcDbLine
 10
184.1025018537106
 20
276.2806227952105
 30
0.0
 11
197.6025148537106
 21
299.6632967952103
 31
0.0
  0
LINE
  5
3AD
330
18
100
AcDbEntity
  8
1
  6
Continuous
100
AcDbLine
 10
192.8833648537106
 20
295.9491187952103
 30
0.0
 11
203.9562888537105
 21
313.6695007952103
 31
0.0
  0
ARC
  5
3AE
330
18
100
AcDbEntity
  8
1
  6
Continuous
100
AcDbCircle
 10
203.0658098537105
 20
298.0894147952103
 30
0.0
 40
6.0
100
AcDbArc
 50
33.44754900000027
 51
218.4865769999999
  0
ARC
  5
3AF
330
18
100
AcDbEntity
  8
5
  6
PHANTOM
 48
0.3
100
AcDbCircle
 10
203.9199018537106
 20
295.4131837952104
 30
0.0
 40
6.0
100
AcDbArc
 50
34.47751800000006
 51
222.999966
  0
CIRCLE
  5
3B0
330
18
100
AcDbEntity
  8
1
  6
Continuous
100
AcDbCircle
 10
203.0658098537105
 20
298.0894147952103
 30
0.0
 40
3.5
  0
LINE
  5
3B1
330
18
100
AcDbEntity
  8
5
  6
PHANTOM
 48
0.3
100
AcDbLine
 10
186.2675228537106
 20
275.0306187952105
 30
0.0
 11
199.7675358537106
 21
298.4132927952103
 31
0.0
  0
LINE
  5
3B2
330
18
100
AcDbEntity
  8
1
  6
Continuous
100
AcDbLine
 10
189.1560578537105
 20
275.4982127952104
 30
0.0
 11
194.6224708537105
 21
293.3780277952103
 31
0.0
  0
LINE
  5
3B3
330
18
100
AcDbEntity
  8
1
  6
Continuous
100
AcDbLine
 10
186.7653058537106
 20
276.2291237952102
 30
0.0
 11
192.6127508537105
 21
295.3552347952103
 31
0.0
  0
ARC
  5
3B4
330
18
100
AcDbEntity
  8
1
  6
Continuous
100
AcDbCircle
 10
186.7652728537106
 20
276.2291427952102
 30
0.0
 40
2.5
100
AcDbArc
 50
253.0000729999998
 51
343.0000959999996
  0
ARC
  5
3B5
330
18
100
AcDbEntity
  8
5
  6
PHANTOM
 48
0.3
100
AcDbCircle
 10
184.1024308537105
 20
276.2806267952104
 30
0.0
 40
2.5
100
AcDbArc
 50
240.0000649999996
 51
329.9999920000002
  0
LINE
  5
3B6
330
18
100
AcDbEntity
  8
1
  6
Continuous
100
AcDbLine
 10
182.2091138537105
 20
275.0078707952105
 30
0.0
 11
186.0343328537106
 21
273.8383827952103
 31
0.0
  0
LINE
  5
3B7
330
18
100
AcDbEntity
  8
1
  6
Continuous
100
AcDbLine
 10
182.9400398537106
 20
277.3986177952103
 30
0.0
 11
189.1560198537105
 21
275.4982007952104
 31
0.0
  0
LINE
  5
3B8
330
18
100
AcDbEntity
  8
5
  6
PHANTOM
 48
0.3
100
AcDbLine
 10
180.6383838537106
 20
278.2806617952104
 30
0.0
 11
186.2675458537106
 21
275.0306587952104
 31
0.0
  0
LINE
  5
3B9
330
18
100
AcDbEntity
  8
1
  6
Continuous
100
AcDbLine
 10
182.2091488537106
 20
275.0078527952102
 30
0.0
 11
182.9400788537105
 21
277.3986137952102
 31
0.0
  0
LINE
  5
3BA
330
18
100
AcDbEntity
  8
5
  6
PHANTOM
 48
0.3
100
AcDbLine
 10
179.3883758537105
 20
276.1155757952104
 30
0.0
 11
182.8524758537105
 21
274.1155737952104
 31
0.0
  0
LINE
  5
3BB
330
18
100
AcDbEntity
  8
5
  6
PHANTOM
 48
0.3
100
AcDbLine
 10
179.3883808537106
 20
276.1155467952103
 30
0.0
 11
180.6383818537106
 21
278.2806097952105
 31
0.0
  0
LINE
  5
3BC
330
18
100
AcDbEntity
  8
1
  6
Continuous
100
AcDbLine
 10
206.0059208537107
 20
284.7502597952106
 30
0.0
 11
198.3692908537106
 21
294.3554257952104
 31
0.0
  0
LINE
  5
3BD
330
18
100
AcDbEntity
  8
5
  6
PHANTOM
 48
0.3
100
AcDbLine
 10
199.5318288537106
 20
291.3212207952103
 30
0.0
 11
208.3615948537105
 21
281.8524387952103
 31
0.0
  0
LINE
  5
3BE
330
18
100
AcDbEntity
  8
1
  6
Continuous
100
AcDbLine
 10
206.0059208537107
 20
284.7502597952106
 30
0.0
 11
198.3692908537106
 21
294.3554257952104
 31
0.0
  0
ARC
  5
3BF
330
18
100
AcDbEntity
  8
1
  6
Continuous
100
AcDbCircle
 10
201.8932938537105
 20
296.2149527952103
 30
0.0
 40
5.0
100
AcDbArc
 50
238.0000219999999
 51
256.9381619999997
  0
ARC
  5
3C0
330
18
100
AcDbEntity
  8
1
  6
Continuous
100
AcDbCircle
 10
194.2467488537105
 20
292.1492177952103
 30
0.0
 40
2.5
100
AcDbArc
 50
58.00004000000034
 51
163.0001149999999
  0
ARC
  5
3C1
330
18
100
AcDbEntity
  8
1
  6
Continuous
100
AcDbCircle
 10
195.5787488537106
 20
293.0856497952103
 30
0.0
 40
1.0
100
AcDbArc
 50
58.00004000000034
 51
163.000293
  0
ARC
  5
3C2
330
18
100
AcDbEntity
  8
1
  6
Continuous
100
AcDbCircle
 10
195.0034928537106
 20
294.6243157952104
 30
0.0
 40
2.5
100
AcDbArc
 50
148.000022
 51
163.0001149999999
  0
LINE
  5
3C3
330
18
100
AcDbEntity
  8
1
  6
Continuous
100
AcDbLine
 10
191.7355808537105
 20
292.4863137952103
 30
0.0
 11
194.1263428537105
 21
291.7553837952103
 31
0.0
  0
LINE
  5
3C4
330
18
100
AcDbEntity
  8
1
  6
Continuous
100
AcDbLine
 10
199.2437258537106
 20
291.9747147952103
 30
0.0
 11
195.5715598537105
 21
294.2693387952104
 31
0.0
  0
ARC
  5
3C5
330
18
100
AcDbEntity
  8
1
  6
Continuous
100
AcDbCircle
 10
168.0821058537105
 20
315.8105947952102
 30
0.0
 40
2.5
100
AcDbArc
 50
195.000033
 51
284.9999599999998
  0
LINE
  5
3C6
330
18
100
AcDbEntity
  8
1
  6
Continuous
100
AcDbLine
 10
167.0468618537106
 20
319.6742857952103
 30
0.0
 11
168.7291838537106
 21
313.3957677952103
 31
0.0
  0
LINE
  5
3C7
330
18
100
AcDbEntity
  8
1
  6
Continuous
100
AcDbLine
 10
164.6320578537106
 20
319.0272437952103
 30
0.0
 11
165.6673328537106
 21
315.1635397952105
 31
0.0
  0
LINE
  5
3C8
330
18
100
AcDbEntity
  8
1
  6
Continuous
100
AcDbLine
 10
164.6320438537105
 20
319.0272087952103
 30
0.0
 11
167.0468588537105
 21
319.6742557952104
 31
0.0
  0
LINE
  5
3C9
330
18
100
AcDbEntity
  8
1
  6
Continuous
100
AcDbLine
 10
168.0821348537105
 20
315.8105477952103
 30
0.0
 11
194.1621338537106
 21
322.7986547952103
 31
0.0
  0
LINE
  5
3CA
330
18
100
AcDbEntity
  8
1
  6
Continuous
100
AcDbLine
 10
168.7291768537105
 20
313.3957517952103
 30
0.0
 11
194.8091748537106
 21
320.3838587952103
 31
0.0
  0
LINE
  5
3CB
330
18
100
AcDbEntity
  8
1
  6
Continuous
100
AcDbLine
 10
197.2528438537106
 20
321.9562077952104
 30
0.0
 11
207.6443668537106
 21
309.1103507952102
 31
0.0
  0
LINE
  5
3CC
330
18
100
AcDbEntity
  8
5
  6
PHANTOM
 48
0.3
100
AcDbLine
 10
199.7675288537105
 20
298.4133087952102
 30
0.0
 11
201.7198408537105
 21
300.3656207952103
 31
0.0
  0
LINE
  5
3CD
330
18
100
AcDbEntity
  8
5
  6
PHANTOM
 48
0.3
100
AcDbLine
 10
197.9997738537105
 20
300.1810857952103
 30
0.0
 11
207.3244778537105
 21
309.5057887952104
 31
0.0
  0
LINE
  5
3CE
330
18
100
AcDbEntity
  8
4
  6
CENTER
 48
0.5
100
AcDbLine
 10
199.0654318537106
 20
298.0907997952103
 30
0.0
 11
207.0654318537106
 21
298.0907997952103
 31
0.0
  0
LINE
  5
3CF
330
18
100
AcDbEntity
  8
5
  6
PHANTOM
 48
0.3
100
AcDbLine
 10
199.0378918537105
 20
301.0807057952104
 30
0.0
 11
196.9177708537106
 21
302.4055047952102
 31
0.0
  0
ARC
  5
3D0
330
18
100
AcDbEntity
  8
5
  6
PHANTOM
 48
0.3
100
AcDbCircle
 10
199.7675308537105
 20
298.4133247952103
 30
0.0
 40
2.5
100
AcDbArc
 50
135.0000139999999
 51
150.0001070000001
  0
LINE
  5
3D1
330
18
100
AcDbEntity
  8
5
  6
PHANTOM
 48
0.3
100
AcDbLine
 10
199.7675178537106
 20
298.4133037952103
 30
0.0
 11
197.9997508537105
 21
300.1810707952103
 31
0.0
  0
ARC
  5
3D2
330
18
100
AcDbEntity
  8
5
  6
PHANTOM
 48
0.3
100
AcDbCircle
 10
200.1210618537106
 20
298.7668557952104
 30
0.0
 40
2.5
100
AcDbArc
 50
83.97087800000022
 51
135.0000139999999
  0
ARC
  5
3D3
330
18
100
AcDbEntity
  8
5
  6
PHANTOM
 48
0.3
100
AcDbCircle
 10
203.1340318537105
 20
298.9514027952102
 30
0.0
 40
2.0
100
AcDbArc
 50
83.97107600000007
 51
135.0000139999999
  0
ARC
  5
3D4
330
18
100
AcDbEntity
  8
1
  6
Continuous
100
AcDbCircle
 10
209.7409368537106
 20
302.4988007952102
 30
0.0
 40
2.0
100
AcDbArc
 50
213.4474859999997
 51
284.3999759999998
  0
ARC
  5
3D5
330
18
100
AcDbEntity
  8
5
  6
PHANTOM
 48
0.3
100
AcDbCircle
 10
210.5146948537105
 20
299.9418397952102
 30
0.0
 40
2.0
100
AcDbArc
 50
214.4774919999997
 51
290.0000339999996
  0
LINE
  5
3D6
330
18
100
AcDbEntity
  8
1
  6
Continuous
100
AcDbLine
 10
194.8091568537105
 20
320.3838677952102
 30
0.0
 11
197.5701438537105
 21
320.3838677952102
 31
0.0
  0
LINE
  5
3D7
330
18
100
AcDbEntity
  8
1
  6
Continuous
100
AcDbLine
 10
194.8091568537105
 20
320.3838677952102
 30
0.0
 11
194.8091568537105
 21
322.8838677952102
 31
0.0
  0
ARC
  5
3D8
330
18
100
AcDbEntity
  8
1
  6
Continuous
100
AcDbCircle
 10
194.8091878537105
 20
320.3838677952102
 30
0.0
 40
2.5
100
AcDbArc
 50
89.99998199999998
 51
105.0000749999996
  0
ARC
  5
3D9
330
18
100
AcDbEntity
  8
1
  6
Continuous
100
AcDbCircle
 10
197.5701438537105
 20
318.3838677952103
 30
0.0
 40
2.0
100
AcDbArc
 50
38.97104399999999
 51
89.99998199999998
  0
ARC
  5
3DA
330
18
100
AcDbEntity
  8
1
  6
Continuous
100
AcDbCircle
 10
195.3091568537105
 20
320.3838677952102
 30
0.0
 40
2.5
100
AcDbArc
 50
38.97084300000027
 51
89.99998199999998
  0
LINE
  5
3DB
330
18
100
AcDbEntity
  8
1
  6
Continuous
100
AcDbLine
 10
194.8091568537105
 20
457.8827356131554
 30
0.0
 11
194.8091568537105
 21
439.8579891146638
 31
0.0
  0
LINE
  5
3DC
330
18
100
AcDbEntity
  8
1
  6
Continuous
100
AcDbLine
 10
182.9400766383236
 20
437.7167243715868
 30
0.0
 11
182.9400766383236
 21
455.0252117839083
 31
0.0
  0
LINE
  5
3DD
330
18
100
AcDbEntity
  8
1
  6
Continuous
100
AcDbLine
 10
182.2091138537105
 20
438.1579046465061
 30
0.0
 11
182.2091138537105
 21
454.5947447513652
 31
0.0
  0
LINE
  5
3DE
330
18
100
AcDbEntity
  8
1
  6
Continuous
100
AcDbLine
 10
186.9303444764474
 20
455.3827356131556
 30
0.0
 11
186.9303444764474
 21
437.3827356131555
 31
0.0
  0
LINE
  5
3DF
330
18
100
AcDbEntity
  8
4
  6
CENTER
 48
0.5
100
AcDbLine
 10
203.0654318537106
 20
427.4979756131555
 30
0.0
 11
203.0654318537106
 21
485.8827356131556
 31
0.0
  0
ARC
  5
3E0
330
18
100
AcDbEntity
  8
1
  6
Continuous
100
AcDbCircle
 10
191.6483833048715
 20
438.8116325679862
 30
0.0
 40
4.929669045082152
100
AcDbArc
 50
196.8493692034389
 51
271.014071206001
  0
LINE
  5
3E1
330
18
100
AcDbEntity
  8
1
  6
Continuous
100
AcDbLine
 10
183.2436364617805
 20
437.3827356131555
 30
0.0
 11
186.9303444764474
 21
437.3827356131555
 31
0.0
  0
ARC
  5
3E2
330
18
100
AcDbEntity
  8
1
  6
Continuous
100
AcDbCircle
 10
183.3413858828023
 20
438.5910991753076
 30
0.0
 40
1.212310788390205
100
AcDbArc
 50
200.9362878909952
 51
265.3751829015841
  0
ARC
  5
3E3
330
18
100
AcDbEntity
  8
1
  6
Continuous
100
AcDbCircle
 10
183.2609920860276
 20
437.7040348451356
 30
0.0
 40
0.3217676400197988
100
AcDbArc
 50
175.8290867947978
 51
266.9080581550711
  0
LINE
  5
3E4
330
18
100
AcDbEntity
  8
1
  6
Continuous
100
AcDbLine
 10
199.9285148537105
 20
433.8827356131556
 30
0.0
 11
206.1715278537106
 21
433.8827356131556
 31
0.0
  0
ARC
  5
3E5
330
18
100
AcDbEntity
  8
1
  6
Continuous
100
AcDbCircle
 10
203.0654318537106
 20
437.6134946131558
 30
0.0
 40
5.115518999999999
100
AcDbArc
 50
226.8278870000001
 51
313.1721129999998
  0
LINE
  5
3E6
330
18
100
AcDbEntity
  8
1
  6
Continuous
100
AcDbLine
 10
199.5654318537106
 20
434.8827356131557
 30
0.0
 11
199.5654318537106
 21
433.8827356131556
 31
0.0
  0
LINE
  5
3E7
330
18
100
AcDbEntity
  8
1
  6
Continuous
100
AcDbLine
 10
191.7356283775218
 20
433.8827356131556
 30
0.0
 11
191.735628377522
 21
437.4334477680624
 31
0.0
  0
ARC
  5
3E8
330
18
100
AcDbEntity
  8
1
  6
Continuous
100
AcDbCircle
 10
192.5743842784076
 20
434.9146152210138
 30
0.0
 40
1.55303460639351
100
AcDbArc
 50
318.3615453692802
 51
357.8670309581829
  0
LINE
  5
3E9
330
18
100
AcDbEntity
  8
1
  6
Continuous
100
AcDbLine
 10
193.7350482967789
 20
433.8827356131556
 30
0.0
 11
191.561138232219
 21
433.8827356131556
 31
0.0
  0
LINE
  5
3EA
330
18
100
AcDbEntity
  8
1
  6
Continuous
100
AcDbLine
 10
194.1263428537105
 20
437.3827356131555
 30
0.0
 11
197.5701438537105
 21
437.3827356131555
 31
0.0
  0
ARC
  5
3EB
330
18
100
AcDbEntity
  8
1
  6
Continuous
100
AcDbCircle
 10
197.3195749142765
 20
439.8807209578079
 30
0.0
 40
2.510520976910576
100
AcDbArc
 50
180.5187992780758
 51
275.7280882674621
  0
LINE
  5
3EC
330
18
100
AcDbEntity
  8
1
  6
Continuous
100
AcDbLine
 10
194.1263428537105
 20
434.8568132383531
 30
0.0
 11
194.1263428537105
 21
437.3827356131555
 31
0.0
  0
ARC
  5
3ED
330
18
100
AcDbEntity
  8
1
  6
Continuous
100
AcDbCircle
 10
194.1805498983401
 20
440.3103808702224
 30
0.0
 40
2.928147051449789
100
AcDbArc
 50
224.3156715201762
 51
268.9392567211954
  0
ARC
  5
3EE
330
18
100
AcDbEntity
  8
1
  6
Continuous
100
AcDbCircle
 10
192.6542011215838
 20
437.5361490587726
 30
0.0
 40
0.9242961869698614
100
AcDbArc
 50
127.975759098134
 51
186.379477142513
  0
ARC
  5
3EF
330
18
100
AcDbEntity
  8
1
  6
Continuous
100
AcDbCircle
 10
203.170864509216
 20
439.1326620407523
 30
0.0
 40
5.867735028356706
100
AcDbArc
 50
197.3512400127541
 51
226.4095984557899
  0
LINE
  5
3F0
330
18
100
AcDbEntity
  8
1
  6
Continuous
100
AcDbLine
 10
197.1090716084818
 20
434.8827356131558
 30
0.0
 11
197.1090716084818
 21
437.3827356131555
 31
0.0
  0
LINE
  5
3F1
330
18
100
AcDbEntity
  8
1
  6
Continuous
100
AcDbLine
 10
199.1250716668894
 20
434.8827356131558
 30
0.0
 11
197.1090716084818
 21
434.8827356131558
 31
0.0
  0
LINE
  5
3F2
330
18
100
AcDbEntity
  8
1
  6
Continuous
100
AcDbLine
 10
208.8091568537105
 20
434.8827356131557
 30
0.0
 11
208.8091568537105
 21
433.8827356131556
 31
0.0
  0
LINE
  5
3F3
330
18
100
AcDbEntity
  8
1
  6
Continuous
100
AcDbLine
 10
206.5654318537106
 20
434.8827356131557
 30
0.0
 11
206.5654318537106
 21
433.8827356131556
 31
0.0
  0
LINE
  5
3F4
330
18
100
AcDbEntity
  8
1
  6
Continuous
100
AcDbLine
 10
165.5693072792574
 20
478.8827356131555
 30
0.0
 11
168.7291838537106
 21
478.8827356131555
 31
0.0
  0
LINE
  5
3F5
330
18
100
AcDbEntity
  8
1
  6
Continuous
100
AcDbLine
 10
165.5693072792585
 20
463.8827356131552
 30
0.0
 11
168.7291838537106
 21
463.8827356131552
 31
0.0
  0
LINE
  5
3F6
330
18
100
AcDbEntity
  8
1
  6
Continuous
100
AcDbLine
 10
164.6320578537106
 20
464.8827356131556
 30
0.0
 11
164.6320578537106
 21
477.8827356131555
 31
0.0
  0
LINE
  5
3F7
330
18
100
AcDbEntity
  8
1
  6
Continuous
100
AcDbLine
 10
167.0468588537105
 20
463.8827356131552
 30
0.0
 11
167.0468588537105
 21
478.8827356131555
 31
0.0
  0
ARC
  5
3F8
330
18
100
AcDbEntity
  8
1
  6
Continuous
100
AcDbCircle
 10
165.6898880264126
 20
464.9349680920026
 30
0.0
 40
1.059118929169474
100
AcDbArc
 50
182.8267977833603
 51
263.4626976291402
  0
ARC
  5
3F9
330
18
100
AcDbEntity
  8
1
  6
Continuous
100
AcDbCircle
 10
165.6898880264126
 20
477.8305031343085
 30
0.0
 40
1.059118929169474
100
AcDbArc
 50
96.53730237085976
 51
177.1732022166395
  0
LINE
  5
3FA
330
18
100
AcDbEntity
  8
1
  6
Continuous
100
AcDbLine
 10
168.7291838537106
 20
478.8827356131555
 30
0.0
 11
168.7291838537106
 21
463.8827356131556
 31
0.0
  0
ARC
  5
3FB
330
18
100
AcDbEntity
  8
1
  6
Continuous
100
AcDbCircle
 10
191.6483833048715
 20
453.953838658325
 30
0.0
 40
4.929669045082152
100
AcDbArc
 50
88.98592879399897
 51
163.150630796561
  0
LINE
  5
3FC
330
18
100
AcDbEntity
  8
1
  6
Continuous
100
AcDbLine
 10
170.7931229118256
 20
460.8827356131556
 30
0.0
 11
192.5977361206888
 21
460.8827356131556
 31
0.0
  0
LINE
  5
3FD
330
18
100
AcDbEntity
  8
1
  6
Continuous
100
AcDbLine
 10
183.3334387719547
 20
455.3827356131556
 30
0.0
 11
186.9303444764474
 21
455.3827356131556
 31
0.0
  0
ARC
  5
3FE
330
18
100
AcDbEntity
  8
1
  6
Continuous
100
AcDbCircle
 10
183.2885376168674
 20
455.0369793193167
 30
0.0
 40
0.3486596169009045
100
AcDbArc
 50
82.60077358707722
 51
181.9341447974874
  0
ARC
  5
3FF
330
18
100
AcDbEntity
  8
1
  6
Continuous
100
AcDbCircle
 10
183.3628085663148
 20
454.144727282131
 30
0.0
 40
1.238356658037953
100
AcDbArc
 50
91.35899705936278
 51
158.6909174681485
  0
ARC
  5
400
330
18
100
AcDbEntity
  8
1
  6
Continuous
100
AcDbCircle
 10
171.5258872898899
 20
463.5968366925188
 30
0.0
 40
2.81127876646179
100
AcDbArc
 50
174.1630941027412
 51
254.8912692454341
  0
ARC
  5
401
330
18
100
AcDbEntity
  8
1
  6
Continuous
100
AcDbCircle
 10
191.4214932290166
 20
457.7006160308449
 30
0.0
 40
3.39255543452657
100
AcDbArc
 50
3.077238344964678
 51
69.71360447544217
  0
LINE
  5
402
330
18
100
AcDbEntity
  8
1
  6
Continuous
100
AcDbLine
 10
194.6014343714676
 20
458.8827356131556
 30
0.0
 11
191.561138232219
 21
458.8827356131556
 31
0.0
  0
LINE
  5
403
330
18
100
AcDbEntity
  8
1
  6
Continuous
100
AcDbLine
 10
170.7931229118254
 20
481.8827356131555
 30
0.0
 11
192.597736120689
 21
481.8827356131554
 31
0.0
  0
ARC
  5
404
330
18
100
AcDbEntity
  8
1
  6
Continuous
100
AcDbCircle
 10
171.5258872898899
 20
479.1686345337928
 30
0.0
 40
2.81127876646179
100
AcDbArc
 50
105.1087307545657
 51
185.8369058972586
  0
LINE
  5
405
330
18
100
AcDbEntity
  8
1
  6
Continuous
100
AcDbLine
 10
205.5654318537106
 20
480.8827356131557
 30
0.0
 11
200.5654318537106
 21
480.8827356131557
 31
0.0
  0
LINE
  5
406
330
18
100
AcDbEntity
  8
1
  6
Continuous
100
AcDbLine
 10
207.0654318537106
 20
479.3827356131556
 30
0.0
 11
199.0654318537106
 21
479.3827356131556
 31
0.0
  0
ARC
  5
407
330
18
100
AcDbEntity
  8
1
  6
Continuous
100
AcDbCircle
 10
203.170864509216
 20
474.6328091855589
 30
0.0
 40
5.867735028356706
100
AcDbArc
 50
133.5904015442098
 51
162.6487599872456
  0
ARC
  5
408
330
18
100
AcDbEntity
  8
1
  6
Continuous
100
AcDbCircle
 10
199.25514727028
 20
479.5412738104722
 30
0.0
 40
4.494497006512761
100
AcDbArc
 50
188.4253668816878
 51
222.6143065877919
  0
LINE
  5
409
330
18
100
AcDbEntity
  8
1
  6
Continuous
100
AcDbLine
 10
197.1090716084818
 20
478.8827356131554
 30
0.0
 11
197.1090716084818
 21
476.3827356131556
 31
0.0
  0
ARC
  5
40A
330
18
100
AcDbEntity
  8
1
  6
Continuous
100
AcDbCircle
 10
196.8600657166003
 20
477.8627381169354
 30
0.0
 40
1.641529278446113
100
AcDbArc
 50
236.2264862012843
 51
295.6308400525959
  0
LINE
  5
40B
330
18
100
AcDbEntity
  8
1
  6
Continuous
100
AcDbLine
 10
197.5701438537108
 20
476.3827356131556
 30
0.0
 11
197.1090716084818
 21
476.3827356131556
 31
0.0
  0
ARC
  5
40C
330
18
100
AcDbEntity
  8
1
  6
Continuous
100
AcDbCircle
 10
191.4214932290166
 20
478.7006160308449
 30
0.0
 40
3.39255543452657
100
AcDbArc
 50
3.077238344964678
 51
69.71360447544217
  0
LINE
  5
40D
330
18
100
AcDbEntity
  8
1
  6
Continuous
100
AcDbLine
 10
200.5654318537106
 20
479.3827356131556
 30
0.0
 11
200.5654318537106
 21
478.8827356131555
 31
0.0
  0
LINE
  5
40E
330
18
100
AcDbEntity
  8
1
  6
Continuous
100
AcDbLine
 10
199.1250716668894
 20
478.8827356131553
 30
0.0
 11
197.1090716084818
 21
478.8827356131554
 31
0.0
  0
ARC
  5
40F
330
18
100
AcDbEntity
  8
1
  6
Continuous
100
AcDbCircle
 10
200.5654318537106
 20
479.3827356131556
 30
0.0
 40
1.5
100
AcDbArc
 50
89.9999810000002
 51
180.0000179999999
  0
ARC
  5
410
330
18
100
AcDbEntity
  8
1
  6
Continuous
100
AcDbCircle
 10
205.5654318537106
 20
479.3827356131556
 30
0.0
 40
1.5
100
AcDbArc
 50
359.9999819999999
 51
89.99996399999997
  0
LINE
  5
411
330
18
100
AcDbEntity
  8
1
  6
Continuous
100
AcDbLine
 10
205.5654318537106
 20
479.3827356131556
 30
0.0
 11
205.5654318537106
 21
478.8827356131555
 31
0.0
  0
LINE
  5
412
330
18
100
AcDbEntity
  8
1
  6
Continuous
100
AcDbLine
 10
209.8091568537105
 20
479.3827356131556
 30
0.0
 11
209.8091568537105
 21
478.8827356131555
 31
0.0
  0
ARC
  5
413
330
18
100
AcDbEntity
  8
1
  6
Continuous
100
AcDbCircle
 10
209.8091568537108
 20
479.3827356131556
 30
0.0
 40
1.5
100
AcDbArc
 50
89.9999810000002
 51
180.0000179999999
  0
LINE
  5
418
330
18
100
AcDbEntity
  8
4
  6
CENTER
 48
0.5
100
AcDbLine
 10
250.8091568537106
 20
308.6838547952103
 30
0.0
 11
250.8091568537106
 21
198.6838547952104
 31
0.0
  0
LINE
  5
41F
330
18
100
AcDbEntity
  8
1
  6
Continuous
100
AcDbLine
 10
311.1287298537106
 20
307.2878507952103
 30
0.0
 11
260.0256588537106
 21
245.9990677952105
 31
0.0
  0
LINE
  5
420
330
18
100
AcDbEntity
  8
1
  6
Continuous
100
AcDbLine
 10
255.3091568537106
 20
321.8838627952103
 30
0.0
 11
316.3091568537106
 21
321.8838627952103
 31
0.0
  0
LINE
  5
421
330
18
100
AcDbEntity
  8
1
  6
Continuous
100
AcDbLine
 10
254.5091578537106
 20
322.6838627952103
 30
0.0
 11
317.1091598537107
 21
322.6838627952103
 31
0.0
  0
LINE
  5
422
330
18
100
AcDbEntity
  8
1
  6
Continuous
100
AcDbLine
 10
253.8223218537106
 20
330.1838627952103
 30
0.0
 11
317.7959958537106
 21
330.1838627952103
 31
0.0
  0
LINE
  5
423
330
18
100
AcDbEntity
  8
1
  6
Continuous
100
AcDbLine
 10
253.8091568537105
 20
324.8385647952102
 30
0.0
 11
317.8091568537106
 21
324.8385647952102
 31
0.0
  0
LINE
  5
424
330
18
100
AcDbEntity
  8
1
  6
Continuous
100
AcDbLine
 10
255.8091568537105
 20
323.6838627952103
 30
0.0
 11
315.4700528537107
 21
323.6838627952103
 31
0.0
  0
LINE
  5
425
330
18
100
AcDbEntity
  8
1
  6
Continuous
100
AcDbLine
 10
240.8091568537106
 20
332.6838627952103
 30
0.0
 11
330.8091568537106
 21
332.6838627952103
 31
0.0
  0
LINE
  5
426
330
18
100
AcDbEntity
  8
1
  6
Continuous
100
AcDbLine
 10
240.8091568537106
 20
335.6838627952103
 30
0.0
 11
330.8091568537106
 21
335.6838627952103
 31
0.0
  0
LINE
  5
427
330
18
100
AcDbEntity
  8
4
  6
CENTER
 48
0.5
100
AcDbLine
 10
285.8091568537107
 20
345.3872127952104
 30
0.0
 11
285.8091568537107
 21
283.1905707952103
 31
0.0
  0
ARC
  5
428
330
18
100
AcDbEntity
  8
1
  6
Continuous
100
AcDbCircle
 10
235.8091568537105
 20
290.8838517952103
 30
0.0
 40
8.0
100
AcDbArc
 50
352.0515370000002
 51
60.95706100000032
  0
LINE
  5
429
330
18
100
AcDbEntity
  8
5
  6
PHANTOM
 48
0.3
100
AcDbLine
 10
219.9934618537106
 20
294.8783977952105
 30
0.0
 11
235.1560818537105
 21
300.3971337952104
 31
0.0
  0
ARC
  5
42A
330
18
100
AcDbEntity
  8
1
  6
Continuous
100
AcDbCircle
 10
219.1020878537106
 20
295.6104217952102
 30
0.0
 40
1.0
100
AcDbArc
 50
104.4001109999997
 51
217.400208
  0
LINE
  5
42B
330
18
100
AcDbEntity
  8
1
  6
Continuous
100
AcDbLine
 10
262.8091568537106
 20
250.8254417952103
 30
0.0
 11
262.8091568537106
 21
314.1809087952103
 31
0.0
  0
CIRCLE
  5
42C
330
18
100
AcDbEntity
  8
1
  6
Continuous
100
AcDbCircle
 10
250.8091568537106
 20
253.6838547952104
 30
0.0
 40
9.0
  0
ARC
  5
42E
330
18
100
AcDbEntity
  8
1
  6
Continuous
100
AcDbCircle
 10
250.8091568537106
 20
253.6838547952104
 30
0.0
 40
12.0
100
AcDbArc
 50
172.0515229999998
 51
320.1783679999998
  0
LINE
  5
42F
330
18
100
AcDbEntity
  8
1
  6
Continuous
100
AcDbLine
 10
243.7322998537106
 20
289.7775947952102
 30
0.0
 11
238.9244418537106
 21
255.3432457952105
 31
0.0
  0
LINE
  5
432
330
18
100
AcDbEntity
  8
5
  6
PHANTOM
 48
0.3
100
AcDbLine
 10
215.2353798537105
 20
286.2113497952103
 30
0.0
 11
218.1607968537107
 21
288.9393407952102
 31
0.0
  0
LINE
  5
433
330
18
100
AcDbEntity
  8
1
  6
Continuous
100
AcDbLine
 10
211.6834418537106
 20
287.2028667952103
 30
0.0
 11
214.8611018537106
 21
289.6323687952104
 31
0.0
  0
LINE
  5
434
330
18
100
AcDbEntity
  8
5
  6
PHANTOM
 48
0.3
100
AcDbLine
 10
214.2124298537106
 20
287.3084257952104
 30
0.0
 11
215.2354268537106
 21
286.2113937952102
 31
0.0
  0
LINE
  5
435
330
18
100
AcDbEntity
  8
1
  6
Continuous
100
AcDbLine
 10
213.9500568537106
 20
290.8240117952104
 30
0.0
 11
214.8611248537106
 21
289.6323837952105
 31
0.0
  0
ARC
  5
436
330
18
100
AcDbEntity
  8
5
  6
PHANTOM
 48
0.3
100
AcDbCircle
 10
220.3354798537105
 20
293.9387107952102
 30
0.0
 40
1.0
100
AcDbArc
 50
109.9999989999997
 51
223.0000760000002
  0
LINE
  5
437
330
18
100
AcDbEntity
  8
5
  6
PHANTOM
 48
0.3
100
AcDbLine
 10
219.6041228537106
 20
293.2567227952104
 30
0.0
 11
220.0632238537105
 21
292.7643957952103
 31
0.0
  0
LINE
  5
438
330
18
100
AcDbEntity
  8
1
  6
Continuous
100
AcDbLine
 10
218.3076588537105
 20
295.0030437952103
 30
0.0
 11
218.7165268537106
 21
294.4682657952103
 31
0.0
  0
LINE
  5
439
330
18
100
AcDbEntity
  8
5
  6
PHANTOM
 48
0.3
100
AcDbLine
 10
217.1378378537106
 20
290.0364097952103
 30
0.0
 11
218.1608358537105
 21
288.9393767952103
 31
0.0
  0
LINE
  5
43B
330
18
100
AcDbEntity
  8
1
  6
Continuous
100
AcDbLine
 10
255.8091578537106
 20
323.6838627952103
 30
0.0
 11
253.8091568537105
 21
324.8385647952102
 31
0.0
  0
LINE
  5
43C
330
18
100
AcDbEntity
  8
1
  6
Continuous
100
AcDbLine
 10
253.8091558537106
 20
324.8385657952102
 30
0.0
 11
255.7583428537105
 21
329.3608547952103
 31
0.0
  0
ARC
  5
43D
330
18
100
AcDbEntity
  8
1
  6
Continuous
100
AcDbCircle
 10
255.3091568537106
 20
322.6838627952103
 30
0.0
 40
0.8
100
AcDbArc
 50
179.999981
 51
270.0000179999999
  0
ARC
  5
43E
330
18
100
AcDbEntity
  8
1
  6
Continuous
100
AcDbCircle
 10
253.3091568537106
 20
318.8838517952103
 30
0.0
 40
2.0
100
AcDbArc
 50
270.0000179999999
 51
0.0
  0
LINE
  5
43F
330
18
100
AcDbEntity
  8
1
  6
Continuous
100
AcDbLine
 10
232.6576258537105
 20
316.8838517952103
 30
0.0
 11
260.8091568537106
 21
316.8838517952103
 31
0.0
  0
LINE
  5
440
330
18
100
AcDbEntity
  8
1
  6
Continuous
100
AcDbLine
 10
218.8534018537106
 20
296.5789927952103
 30
0.0
 11
234.7033098537106
 21
300.6485517952103
 31
0.0
  0
LINE
  5
441
330
18
100
AcDbEntity
  8
1
  6
Continuous
100
AcDbLine
 10
219.8672978537107
 20
308.8868277952103
 30
0.0
 11
239.6928768537106
 21
297.8779017952102
 31
0.0
  0
LINE
  5
442
330
18
100
AcDbEntity
  8
4
  6
CENTER
 48
0.5
100
AcDbLine
 10
232.8091568537105
 20
307.3838677952102
 30
0.0
 11
240.8091568537106
 21
307.3838677952102
 31
0.0
  0
ARC
  5
443
330
18
100
AcDbEntity
  8
1
  6
Continuous
100
AcDbCircle
 10
221.8091568537106
 20
312.3838517952103
 30
0.0
 40
4.0
100
AcDbArc
 50
179.999981
 51
240.9570429999998
  0
LINE
  5
444
330
18
100
AcDbEntity
  8
4
  6
CENTER
 48
0.5
100
AcDbLine
 10
212.3091568537105
 20
308.8838677952101
 30
0.0
 11
212.3091568537105
 21
316.8838677952102
 31
0.0
  0
LINE
  5
445
330
18
100
AcDbEntity
  8
5
  6
PHANTOM
 48
0.3
100
AcDbLine
 10
221.7740808537106
 20
301.9115577952105
 30
0.0
 11
225.8362968537106
 21
305.5723117952102
 31
0.0
  0
LINE
  5
446
330
18
100
AcDbEntity
  8
1
  6
Continuous
100
AcDbLine
 10
221.3118398537106
 20
303.4048427952102
 30
0.0
 11
224.9306288537106
 21
306.0752127952103
 31
0.0
  0
ARC
  5
447
330
18
100
AcDbEntity
  8
5
  6
PHANTOM
 48
0.3
100
AcDbCircle
 10
217.4451888537106
 20
305.4843537952103
 30
0.0
 40
6.0
100
AcDbArc
 50
263.9708319999998
 51
327.264857
  0
CIRCLE
  5
448
330
18
100
AcDbEntity
  8
5
  6
PHANTOM
 48
0.3
100
AcDbCircle
 10
217.4451888537106
 20
305.4843537952103
 30
0.0
 40
3.5
  0
LINE
  5
449
330
18
100
AcDbEntity
  8
1
  6
Continuous
100
AcDbLine
 10
220.5144628537106
 20
308.5274637952102
 30
0.0
 11
213.5837568537106
 21
307.0207887952103
 31
0.0
  0
LINE
  5
44A
330
18
100
AcDbEntity
  8
5
  6
PHANTOM
 48
0.3
100
AcDbLine
 10
224.9507328537106
 20
306.0640497952105
 30
0.0
 11
222.4922908537105
 21
302.2398097952103
 31
0.0
  0
LINE
  5
44B
330
18
100
AcDbEntity
  8
4
  6
CENTER
 48
0.5
100
AcDbLine
 10
219.8091568537106
 20
315.3838677952102
 30
0.0
 11
227.8091568537106
 21
315.3838677952102
 31
0.0
  0
ARC
  5
44C
330
18
100
AcDbEntity
  8
1
  6
Continuous
100
AcDbCircle
 10
223.8091568537106
 20
314.8838517952103
 30
0.0
 40
6.0
100
AcDbArc
 50
11.53696599999993
 51
179.9999639999999
  0
CIRCLE
  5
44D
330
18
100
AcDbEntity
  8
1
  6
Continuous
100
AcDbCircle
 10
223.8091568537106
 20
315.3838677952102
 30
0.0
 40
3.5
  0
LINE
  5
44E
330
18
100
AcDbEntity
  8
1
  6
Continuous
100
AcDbLine
 10
217.8091568537106
 20
312.3838517952103
 30
0.0
 11
217.8091568537106
 21
314.8838517952103
 31
0.0
  0
LINE
  5
44F
330
18
100
AcDbEntity
  8
4
  6
CENTER
 48
0.5
100
AcDbLine
 10
223.8091568537106
 20
311.3838677952102
 30
0.0
 11
223.8091568537106
 21
319.3838677952101
 31
0.0
  0
LINE
  5
450
330
18
100
AcDbEntity
  8
1
  6
Continuous
100
AcDbLine
 10
232.6576258537105
 20
316.3838517952104
 30
0.0
 11
232.6576258537105
 21
316.8838517952103
 31
0.0
  0
ARC
  5
451
330
18
100
AcDbEntity
  8
1
  6
Continuous
100
AcDbCircle
 10
231.1576258537106
 20
316.3838517952104
 30
0.0
 40
1.5
100
AcDbArc
 50
191.5369079999999
 51
0.0
  0
LINE
  5
452
330
18
100
AcDbEntity
  8
1
  6
Continuous
100
AcDbLine
 10
223.8091568537106
 20
320.8838517952103
 30
0.0
 11
223.8091568537106
 21
322.8838677952102
 31
0.0
  0
LINE
  5
453
330
18
100
AcDbEntity
  8
4
  6
CENTER
 48
0.5
100
AcDbLine
 10
236.8091568537106
 20
303.3838677952102
 30
0.0
 11
236.8091568537106
 21
311.3838677952102
 31
0.0
  0
CIRCLE
  5
454
330
18
100
AcDbEntity
  8
1
  6
Continuous
100
AcDbCircle
 10
236.8091568537106
 20
307.3838677952102
 30
0.0
 40
3.5
  0
LINE
  5
455
330
18
100
AcDbEntity
  8
1
  6
Continuous
100
AcDbLine
 10
240.8091568537106
 20
332.6838627952103
 30
0.0
 11
240.8091568537106
 21
335.6838627952103
 31
0.0
  0
LINE
  5
456
330
18
100
AcDbEntity
  8
4
  6
CENTER
 48
0.5
100
AcDbLine
 10
251.8091568537105
 20
340.6838627952103
 30
0.0
 11
251.8091568537105
 21
327.6838627952102
 31
0.0
  0
LINE
  5
457
330
18
100
AcDbEntity
  8
4
  6
CENTER
 48
0.5
100
AcDbLine
 10
250.3091568537105
 20
340.6838627952103
 30
0.0
 11
250.3091568537106
 21
327.6838627952102
 31
0.0
  0
ARC
  5
458
330
18
100
AcDbEntity
  8
1
  6
Continuous
100
AcDbCircle
 10
253.8223218537106
 20
335.6970277952104
 30
0.0
 40
5.513164999999997
100
AcDbArc
 50
213.1299369999997
 51
270.0000179999999
  0
ARC
  5
459
330
18
100
AcDbEntity
  8
1
  6
Continuous
100
AcDbCircle
 10
260.8091568537106
 20
318.8838517952103
 30
0.0
 40
2.0
100
AcDbArc
 50
269.9999969999999
 51
340.33872
  0
ARC
  5
45A
330
18
100
AcDbEntity
  8
1
  6
Continuous
100
AcDbCircle
 10
260.8091568537106
 20
319.3838517952103
 30
0.0
 40
5.5
100
AcDbArc
 50
152.9642039999996
 51
179.9999639999999
  0
LINE
  5
45B
330
18
100
AcDbEntity
  8
1
  6
Continuous
100
AcDbLine
 10
255.3091568537106
 20
318.8838517952103
 30
0.0
 11
255.3091568537106
 21
319.3838517952103
 31
0.0
  0
LINE
  5
45C
330
18
100
AcDbEntity
  8
1
  6
Continuous
100
AcDbLine
 10
255.3091568537106
 20
322.6838627952103
 30
0.0
 11
256.1482568537106
 21
323.6838627952103
 31
0.0
  0
ARC
  5
45D
330
18
100
AcDbEntity
  8
1
  6
Continuous
100
AcDbCircle
 10
260.8091568537106
 20
327.1838627952103
 30
0.0
 40
5.5
100
AcDbArc
 50
146.9442800000001
 51
156.683119
  0
LINE
  5
45E
330
18
100
AcDbEntity
  8
1
  6
Continuous
100
AcDbLine
 10
317.8091598537107
 20
324.8385637952103
 30
0.0
 11
315.8599718537106
 21
329.3608527952102
 31
0.0
  0
LINE
  5
45F
330
18
100
AcDbEntity
  8
1
  6
Continuous
100
AcDbLine
 10
318.8091568537107
 20
310.8838517952103
 30
0.0
 11
318.8091568537107
 21
313.8838517952103
 31
0.0
  0
ARC
  5
460
330
18
100
AcDbEntity
  8
1
  6
Continuous
100
AcDbCircle
 10
318.8091568537107
 20
300.8838517952103
 30
0.0
 40
10.0
100
AcDbArc
 50
89.99998199999998
 51
140.1784039999999
  0
ARC
  5
461
330
18
100
AcDbEntity
  8
1
  6
Continuous
100
AcDbCircle
 10
318.3091568537106
 20
318.8838517952103
 30
0.0
 40
2.0
100
AcDbArc
 50
180.000036
 51
219.6395719999998
  0
LINE
  5
462
330
18
100
AcDbEntity
  8
1
  6
Continuous
100
AcDbLine
 10
316.7690168537105
 20
317.6079397952104
 30
0.0
 11
318.0044148537106
 21
316.1167007952103
 31
0.0
  0
ARC
  5
463
330
18
100
AcDbEntity
  8
1
  6
Continuous
100
AcDbCircle
 10
315.3091568537107
 20
313.8838517952103
 30
0.0
 40
3.5
100
AcDbArc
 50
0.0
 51
39.63964799999969
  0
LINE
  5
464
330
18
100
AcDbEntity
  8
1
  6
Continuous
100
AcDbLine
 10
315.8091598537107
 20
323.6838627952103
 30
0.0
 11
317.8091598537107
 21
324.8385647952102
 31
0.0
  0
ARC
  5
465
330
18
100
AcDbEntity
  8
1
  6
Continuous
100
AcDbCircle
 10
310.8091568537107
 20
319.3838517952103
 30
0.0
 40
5.5
100
AcDbArc
 50
0.0000549999998358
 51
27.0358269999998
  0
ARC
  5
466
330
18
100
AcDbEntity
  8
1
  6
Continuous
100
AcDbCircle
 10
316.3091568537106
 20
322.6838627952103
 30
0.0
 40
0.8
100
AcDbArc
 50
270.0000179999999
 51
0.0000549999998358
  0
LINE
  5
467
330
18
100
AcDbEntity
  8
1
  6
Continuous
100
AcDbLine
 10
316.3091568537106
 20
318.8838517952103
 30
0.0
 11
316.3091568537106
 21
319.3838517952103
 31
0.0
  0
LINE
  5
468
330
18
100
AcDbEntity
  8
1
  6
Continuous
100
AcDbLine
 10
316.3091548537106
 20
322.6838587952103
 30
0.0
 11
315.4700518537107
 21
323.6838627952103
 31
0.0
  0
ARC
  5
469
330
18
100
AcDbEntity
  8
1
  6
Continuous
100
AcDbCircle
 10
317.7959958537106
 20
335.6970277952104
 30
0.0
 40
5.513164999999997
100
AcDbArc
 50
270.0000179999999
 51
326.8700990000001
  0
LINE
  5
46A
330
18
100
AcDbEntity
  8
4
  6
CENTER
 48
0.5
100
AcDbLine
 10
319.8091568537106
 20
340.6838627952103
 30
0.0
 11
319.8091568537106
 21
327.6838627952102
 31
0.0
  0
ARC
  5
46B
330
18
100
AcDbEntity
  8
1
  6
Continuous
100
AcDbCircle
 10
310.8091568537107
 20
327.1838627952103
 30
0.0
 40
5.5
100
AcDbArc
 50
23.31689999999972
 51
33.05573899999977
  0
LINE
  5
46C
330
18
100
AcDbEntity
  8
4
  6
CENTER
 48
0.5
100
AcDbLine
 10
321.3091568537107
 20
340.6838627952103
 30
0.0
 11
321.3091568537107
 21
327.6838627952102
 31
0.0
  0
LINE
  5
46D
330
18
100
AcDbEntity
  8
1
  6
Continuous
100
AcDbLine
 10
330.8091568537106
 20
332.6838627952103
 30
0.0
 11
330.8091568537106
 21
335.6838627952103
 31
0.0
  0
LINE
  5
46E
330
18
100
AcDbEntity
  8
4
  6
CENTER
 48
0.5
100
AcDbLine
 10
250.8091568537106
 20
406.8827356131555
 30
0.0
 11
250.8091568537106
 21
506.8827356131555
 31
0.0
  0
LINE
  5
46F
330
18
100
AcDbEntity
  8
4
  6
CENTER
 48
0.5
100
AcDbLine
 10
285.8091568537107
 20
406.8827356131555
 30
0.0
 11
285.8091568537107
 21
506.8827356131555
 31
0.0
  0
LINE
  5
470
330
18
100
AcDbEntity
  8
1
  6
Continuous
100
AcDbLine
 10
330.8091568537106
 20
491.8827356131556
 30
0.0
 11
330.8091568537106
 21
421.8827356131556
 31
0.0
  0
LINE
  5
471
330
18
100
AcDbEntity
  8
1
  6
Continuous
100
AcDbLine
 10
232.6576258537105
 20
433.8827356131556
 30
0.0
 11
232.6576258537105
 21
479.8827356131552
 31
0.0
  0
LINE
  5
472
330
18
100
AcDbEntity
  8
1
  6
Continuous
100
AcDbLine
 10
223.8091568537108
 20
434.8827356131557
 30
0.0
 11
223.8091568537107
 21
478.8827356131555
 31
0.0
  0
LINE
  5
473
330
18
100
AcDbEntity
  8
4
  6
CENTER
 48
0.5
100
AcDbLine
 10
223.8091568537106
 20
423.9979756131555
 30
0.0
 11
223.8091568537106
 21
489.3827356131557
 31
0.0
  0
LINE
  5
474
330
18
100
AcDbEntity
  8
4
  6
CENTER
 48
0.5
100
AcDbLine
 10
212.3091568537105
 20
427.4979756131555
 30
0.0
 11
212.3091568537105
 21
485.8827356131556
 31
0.0
  0
LINE
  5
475
330
18
100
AcDbEntity
  8
4
  6
CENTER
 48
0.5
100
AcDbLine
 10
236.8091568537103
 20
423.9979756131555
 30
0.0
 11
236.8091568537103
 21
489.3827356131557
 31
0.0
  0
LINE
  5
476
330
18
100
AcDbEntity
  8
1
  6
Continuous
100
AcDbLine
 10
226.3091568537106
 20
476.3827356131556
 30
0.0
 11
226.3091568537106
 21
437.3827356131555
 31
0.0
  0
LINE
  5
477
330
18
100
AcDbEntity
  8
1
  6
Continuous
100
AcDbLine
 10
240.8091568537106
 20
491.8827356131556
 30
0.0
 11
240.8091568537106
 21
421.8827356131556
 31
0.0
  0
CIRCLE
  5
478
330
18
100
AcDbEntity
  8
1
  6
Continuous
100
AcDbCircle
 10
285.8091568537107
 20
456.8827356131555
 30
0.0
 40
34.5
  0
CIRCLE
  5
479
330
18
100
AcDbEntity
  8
1
  6
Continuous
100
AcDbCircle
 10
285.8091568537107
 20
456.8827356131555
 30
0.0
 40
31.0
  0
CIRCLE
  5
47A
330
18
100
AcDbEntity
  8
1
  6
Continuous
100
AcDbCircle
 10
285.8091568537107
 20
456.8827356131555
 30
0.0
 40
34.5
  0
CIRCLE
  5
47B
330
18
100
AcDbEntity
  8
1
  6
Continuous
100
AcDbCircle
 10
285.8091568537107
 20
456.8827356131555
 30
0.0
 40
16.0
  0
LINE
  5
47C
330
18
100
AcDbEntity
  8
1
  6
Continuous
100
AcDbLine
 10
320.8091568537107
 20
411.8827356131554
 30
0.0
 11
250.8091568537106
 21
411.8827356131554
 31
0.0
  0
LINE
  5
47D
330
18
100
AcDbEntity
  8
1
  6
Continuous
100
AcDbLine
 10
254.1982478537106
 20
417.4936476131556
 30
0.0
 11
255.6982438537106
 21
418.9936436131556
 31
0.0
  0
LINE
  5
47E
330
18
100
AcDbEntity
  8
4
  6
CENTER
 48
0.5
100
AcDbLine
 10
256.3091568537106
 20
421.3827356131556
 30
0.0
 11
244.3091568537105
 21
421.3827356131556
 31
0.0
  0
ARC
  5
47F
330
18
100
AcDbEntity
  8
1
  6
Continuous
100
AcDbCircle
 10
251.8091568537105
 20
422.8827356131557
 30
0.0
 40
5.5
100
AcDbArc
 50
314.9999989999999
 51
135.0000000000002
  0
LINE
  5
480
330
18
100
AcDbEntity
  8
4
  6
CENTER
 48
0.5
100
AcDbLine
 10
257.8091568537105
 20
422.8827356131557
 30
0.0
 11
245.8091568537106
 21
422.8827356131557
 31
0.0
  0
ARC
  5
481
330
18
100
AcDbEntity
  8
1
  6
Continuous
100
AcDbCircle
 10
250.8091568537106
 20
421.8827356131556
 30
0.0
 40
10.0
100
AcDbArc
 50
179.9999949999999
 51
269.9999969999999
  0
LINE
  5
482
330
18
100
AcDbEntity
  8
1
  6
Continuous
100
AcDbLine
 10
217.8300277365419
 20
431.3827356131556
 30
0.0
 11
240.8091568537106
 21
431.3827356131556
 31
0.0
  0
ARC
  5
483
330
18
100
AcDbEntity
  8
1
  6
Continuous
100
AcDbCircle
 10
223.8091568537106
 20
434.1134946131555
 30
0.0
 40
5.115518999999999
100
AcDbArc
 50
226.8278870000001
 51
313.1721129999998
  0
LINE
  5
484
330
18
100
AcDbEntity
  8
1
  6
Continuous
100
AcDbLine
 10
220.6722398537106
 20
430.3827356131556
 30
0.0
 11
226.9152528537107
 21
430.3827356131556
 31
0.0
  0
LINE
  5
485
330
18
100
AcDbEntity
  8
1
  6
Continuous
100
AcDbLine
 10
217.8300277365419
 20
433.8827356131556
 30
0.0
 11
232.6576258537105
 21
433.8827356131556
 31
0.0
  0
LINE
  5
486
330
18
100
AcDbEntity
  8
1
  6
Continuous
100
AcDbLine
 10
221.3091568537105
 20
433.8827356131556
 30
0.0
 11
221.3091568537105
 21
434.8827356131557
 31
0.0
  0
LINE
  5
487
330
18
100
AcDbEntity
  8
1
  6
Continuous
100
AcDbLine
 10
215.8091568537106
 20
434.8827356131557
 30
0.0
 11
215.8091568537106
 21
433.8827356131556
 31
0.0
  0
LINE
  5
488
330
18
100
AcDbEntity
  8
1
  6
Continuous
100
AcDbLine
 10
220.3091568537105
 20
431.3827356131556
 30
0.0
 11
220.3091568537105
 21
430.3827356131556
 31
0.0
  0
LINE
  5
489
330
18
100
AcDbEntity
  8
1
  6
Continuous
100
AcDbLine
 10
217.8300277365419
 20
433.8827356131556
 30
0.0
 11
217.8300277365419
 21
431.3827356131556
 31
0.0
  0
LINE
  5
48A
330
18
100
AcDbEntity
  8
1
  6
Continuous
100
AcDbLine
 10
226.3091568537106
 20
434.8827356131557
 30
0.0
 11
226.3091568537106
 21
433.8827356131556
 31
0.0
  0
LINE
  5
48B
330
18
100
AcDbEntity
  8
1
  6
Continuous
100
AcDbLine
 10
227.3091568537106
 20
431.3827356131556
 30
0.0
 11
227.3091568537106
 21
430.3827356131556
 31
0.0
  0
ARC
  5
48C
330
18
100
AcDbEntity
  8
1
  6
Continuous
100
AcDbCircle
 10
227.9686296555591
 20
434.9961333320464
 30
0.0
 40
4.819371310317405
100
AcDbArc
 50
311.4299423020933
 51
346.6425446337571
  0
LINE
  5
48E
330
18
100
AcDbEntity
  8
1
  6
Continuous
100
AcDbLine
 10
223.8091568537106
 20
437.3827356131555
 30
0.0
 11
229.687931740834
 21
437.3827356131555
 31
0.0
  0
LINE
  5
48F
330
18
100
AcDbEntity
  8
1
  6
Continuous
100
AcDbLine
 10
229.687931740834
 20
434.8827356131557
 30
0.0
 11
229.687931740834
 21
437.3827356131555
 31
0.0
  0
LINE
  5
490
330
18
100
AcDbEntity
  8
1
  6
Continuous
100
AcDbLine
 10
229.687931740834
 20
437.3827356131555
 30
0.0
 11
232.6576258537105
 21
437.3827356131555
 31
0.0
  0
LINE
  5
491
330
18
100
AcDbEntity
  8
1
  6
Continuous
100
AcDbLine
 10
229.687931740834
 20
434.8827356131557
 30
0.0
 11
232.6576258537105
 21
434.8827356131557
 31
0.0
  0
LINE
  5
492
330
18
100
AcDbEntity
  8
1
  6
Continuous
100
AcDbLine
 10
246.4200708537106
 20
425.2718246131554
 30
0.0
 11
247.9200668537106
 21
426.7718206131554
 31
0.0
  0
LINE
  5
493
330
18
100
AcDbEntity
  8
4
  6
CENTER
 48
0.5
100
AcDbLine
 10
250.3091568537106
 20
427.3827356131556
 30
0.0
 11
250.3091568537106
 21
415.3827356131555
 31
0.0
  0
LINE
  5
494
330
18
100
AcDbEntity
  8
4
  6
CENTER
 48
0.5
100
AcDbLine
 10
251.8091568537105
 20
428.8827356131555
 30
0.0
 11
251.8091568537105
 21
416.8827356131556
 31
0.0
  0
ARC
  5
495
330
18
100
AcDbEntity
  8
1
  6
Continuous
100
AcDbCircle
 10
250.3091568537106
 20
421.3827356131556
 30
0.0
 40
5.5
100
AcDbArc
 50
135.0000000000002
 51
314.9999920000003
  0
ARC
  5
496
330
18
100
AcDbEntity
  8
1
  6
Continuous
100
AcDbCircle
 10
236.8091568537106
 20
434.1134946131555
 30
0.0
 40
5.115518999999999
100
AcDbArc
 50
226.8278870000001
 51
313.1721129999998
  0
LINE
  5
497
330
18
100
AcDbEntity
  8
1
  6
Continuous
100
AcDbLine
 10
233.6722398537105
 20
430.3827356131556
 30
0.0
 11
239.9152528537106
 21
430.3827356131556
 31
0.0
  0
LINE
  5
498
330
18
100
AcDbEntity
  8
1
  6
Continuous
100
AcDbLine
 10
233.3091568537106
 20
431.3827356131556
 30
0.0
 11
233.3091568537106
 21
430.3827356131556
 31
0.0
  0
LINE
  5
499
330
18
100
AcDbEntity
  8
1
  6
Continuous
100
AcDbLine
 10
240.3091568537106
 20
431.3827356131556
 30
0.0
 11
240.3091568537106
 21
430.3827356131556
 31
0.0
  0
ARC
  5
49A
330
18
100
AcDbEntity
  8
1
  6
Continuous
100
AcDbCircle
 10
320.8091568537107
 20
421.8827356131556
 30
0.0
 40
10.0
100
AcDbArc
 50
269.9999969999999
 51
0.0
  0
LINE
  5
49B
330
18
100
AcDbEntity
  8
4
  6
CENTER
 48
0.5
100
AcDbLine
 10
315.3091568537107
 20
421.3827356131556
 30
0.0
 11
327.3091568537107
 21
421.3827356131556
 31
0.0
  0
ARC
  5
49C
330
18
100
AcDbEntity
  8
1
  6
Continuous
100
AcDbCircle
 10
321.3091568537107
 20
421.3827356131556
 30
0.0
 40
5.5
100
AcDbArc
 50
224.9999999999996
 51
45.00000100000007
  0
LINE
  5
49D
330
18
100
AcDbEntity
  8
4
  6
CENTER
 48
0.5
100
AcDbLine
 10
313.8091568537106
 20
422.8827356131557
 30
0.0
 11
325.8091568537107
 21
422.8827356131557
 31
0.0
  0
ARC
  5
49E
330
18
100
AcDbEntity
  8
1
  6
Continuous
100
AcDbCircle
 10
319.8091568537106
 20
422.8827356131557
 30
0.0
 40
5.5
100
AcDbArc
 50
45.00000100000007
 51
224.999996
  0
LINE
  5
49F
330
18
100
AcDbEntity
  8
4
  6
CENTER
 48
0.5
100
AcDbLine
 10
319.8091568537106
 20
428.8827356131555
 30
0.0
 11
319.8091568537106
 21
416.8827356131556
 31
0.0
  0
LINE
  5
4A0
330
18
100
AcDbEntity
  8
1
  6
Continuous
100
AcDbLine
 10
317.4200718537107
 20
417.4936486131556
 30
0.0
 11
315.9200718537106
 21
418.9936486131555
 31
0.0
  0
LINE
  5
4A1
330
18
100
AcDbEntity
  8
1
  6
Continuous
100
AcDbLine
 10
325.1982458537107
 20
425.2718236131554
 30
0.0
 11
323.6982458537107
 21
426.7718236131556
 31
0.0
  0
LINE
  5
4A2
330
18
100
AcDbEntity
  8
4
  6
CENTER
 48
0.5
100
AcDbLine
 10
321.3091568537107
 20
427.3827356131556
 30
0.0
 11
321.3091568537107
 21
415.3827356131555
 31
0.0
  0
LINE
  5
4A3
330
18
100
AcDbEntity
  8
1
  6
Continuous
100
AcDbLine
 10
320.8091568537107
 20
501.8827356131557
 30
0.0
 11
250.8091568537106
 21
501.8827356131557
 31
0.0
  0
CIRCLE
  5
4A4
330
18
100
AcDbEntity
  8
1
  6
Continuous
100
AcDbCircle
 10
285.8091568537107
 20
456.8827356131555
 30
0.0
 40
14.0
  0
ARC
  5
4A5
330
18
100
AcDbEntity
  8
1
  6
Continuous
100
AcDbCircle
 10
250.8091568537106
 20
491.8827356131556
 30
0.0
 40
10.0
100
AcDbArc
 50
90.00000300000015
 51
180.000005
  0
LINE
  5
4A6
330
18
100
AcDbEntity
  8
1
  6
Continuous
100
AcDbLine
 10
254.1982448537106
 20
496.2718246131556
 30
0.0
 11
255.6982468537106
 21
494.7718226131557
 31
0.0
  0
LINE
  5
4A7
330
18
100
AcDbEntity
  8
4
  6
CENTER
 48
0.5
100
AcDbLine
 10
256.3091568537106
 20
492.3827356131556
 30
0.0
 11
244.3091568537105
 21
492.3827356131556
 31
0.0
  0
ARC
  5
4A8
330
18
100
AcDbEntity
  8
1
  6
Continuous
100
AcDbCircle
 10
251.8091568537105
 20
490.8827356131554
 30
0.0
 40
5.5
100
AcDbArc
 50
224.9999999999996
 51
45.00000100000007
  0
LINE
  5
4A9
330
18
100
AcDbEntity
  8
4
  6
CENTER
 48
0.5
100
AcDbLine
 10
257.8091568537105
 20
490.8827356131554
 30
0.0
 11
245.8091568537106
 21
490.8827356131554
 31
0.0
  0
ARC
  5
4AE
330
18
100
AcDbEntity
  8
1
  6
Continuous
100
AcDbCircle
 10
234.3091568537106
 20
482.8827356131554
 30
0.0
 40
1.5
100
AcDbArc
 50
89.9999810000002
 51
180.0000179999999
  0
LINE
  5
4AF
330
18
100
AcDbEntity
  8
1
  6
Continuous
100
AcDbLine
 10
217.8300277365419
 20
482.3827356131554
 30
0.0
 11
240.8091568537106
 21
482.3827356131554
 31
0.0
  0
LINE
  5
4B0
330
18
100
AcDbEntity
  8
1
  6
Continuous
100
AcDbLine
 10
240.8091568537106
 20
482.8827356131554
 30
0.0
 11
232.8091568537105
 21
482.8827356131554
 31
0.0
  0
LINE
  5
4B1
330
18
100
AcDbEntity
  8
1
  6
Continuous
100
AcDbLine
 10
227.8091568537106
 20
482.8827356131554
 30
0.0
 11
219.8091568537106
 21
482.8827356131554
 31
0.0
  0
LINE
  5
4B2
330
18
100
AcDbEntity
  8
1
  6
Continuous
100
AcDbLine
 10
226.3091568537106
 20
484.3827356131556
 30
0.0
 11
221.3091568537106
 21
484.3827356131556
 31
0.0
  0
LINE
  5
4B3
330
18
100
AcDbEntity
  8
1
  6
Continuous
100
AcDbLine
 10
217.8300277365419
 20
479.8827356131556
 30
0.0
 11
232.6576258537105
 21
479.8827356131552
 31
0.0
  0
ARC
  5
4B4
330
18
100
AcDbEntity
  8
1
  6
Continuous
100
AcDbCircle
 10
214.8091568537106
 20
479.3827356131556
 30
0.0
 40
1.5
100
AcDbArc
 50
359.9999819999999
 51
89.99996399999997
  0
LINE
  5
4B5
330
18
100
AcDbEntity
  8
1
  6
Continuous
100
AcDbLine
 10
214.8091568537106
 20
479.3827356131556
 30
0.0
 11
214.8091568537106
 21
478.8827356131555
 31
0.0
  0
ARC
  5
4B6
330
18
100
AcDbEntity
  8
1
  6
Continuous
100
AcDbCircle
 10
221.3091568537105
 20
482.8827356131554
 30
0.0
 40
1.5
100
AcDbArc
 50
89.9999810000002
 51
180.0000179999999
  0
LINE
  5
4B7
330
18
100
AcDbEntity
  8
1
  6
Continuous
100
AcDbLine
 10
221.3091568537105
 20
482.8827356131554
 30
0.0
 11
221.3091568537105
 21
482.3827356131554
 31
0.0
  0
LINE
  5
4B8
330
18
100
AcDbEntity
  8
1
  6
Continuous
100
AcDbLine
 10
221.3091568537105
 20
479.8827356131556
 30
0.0
 11
221.3091568537105
 21
478.8827356131555
 31
0.0
  0
LINE
  5
4B9
330
18
100
AcDbEntity
  8
1
  6
Continuous
100
AcDbLine
 10
217.8300277365419
 20
482.3827356131554
 30
0.0
 11
217.8300277365419
 21
479.8827356131556
 31
0.0
  0
LINE
  5
4BA
330
18
100
AcDbEntity
  8
1
  6
Continuous
100
AcDbLine
 10
229.687931740834
 20
476.3827356131556
 30
0.0
 11
229.687931740834
 21
478.8827356131555
 31
0.0
  0
LINE
  5
4BB
330
18
100
AcDbEntity
  8
1
  6
Continuous
100
AcDbLine
 10
229.687931740834
 20
476.3827356131556
 30
0.0
 11
223.8091568537106
 21
476.3827356131556
 31
0.0
  0
LINE
  5
4BD
330
18
100
AcDbEntity
  8
1
  6
Continuous
100
AcDbLine
 10
229.687931740834
 20
476.3827356131556
 30
0.0
 11
232.6576258537105
 21
476.3827356131556
 31
0.0
  0
ARC
  5
4BE
330
18
100
AcDbEntity
  8
1
  6
Continuous
100
AcDbCircle
 10
226.3091568537106
 20
482.8827356131554
 30
0.0
 40
1.5
100
AcDbArc
 50
359.9999819999999
 51
89.99996399999997
  0
LINE
  5
4BF
330
18
100
AcDbEntity
  8
1
  6
Continuous
100
AcDbLine
 10
226.3091568537106
 20
482.8827356131554
 30
0.0
 11
226.3091568537106
 21
482.3827356131554
 31
0.0
  0
LINE
  5
4C0
330
18
100
AcDbEntity
  8
1
  6
Continuous
100
AcDbLine
 10
226.3091568537106
 20
479.8827356131556
 30
0.0
 11
226.3091568537106
 21
478.8827356131555
 31
0.0
  0
ARC
  5
4C1
330
18
100
AcDbEntity
  8
1
  6
Continuous
100
AcDbCircle
 10
227.9686296555591
 20
478.7693378942647
 30
0.0
 40
4.819371310317405
100
AcDbArc
 50
13.35745536624271
 51
48.57005769790654
  0
LINE
  5
4C2
330
18
100
AcDbEntity
  8
1
  6
Continuous
100
AcDbLine
 10
229.687931740834
 20
478.8827356131555
 30
0.0
 11
232.6576258537105
 21
478.8827356131555
 31
0.0
  0
LINE
  5
4C3
330
18
100
AcDbEntity
  8
4
  6
CENTER
 48
0.5
100
AcDbLine
 10
251.8091568537105
 20
484.8827356131557
 30
0.0
 11
251.8091568537105
 21
496.8827356131556
 31
0.0
  0
LINE
  5
4C4
330
18
100
AcDbEntity
  8
1
  6
Continuous
100
AcDbLine
 10
239.3091568537106
 20
484.3827356131556
 30
0.0
 11
234.3091568537106
 21
484.3827356131556
 31
0.0
  0
LINE
  5
4C5
330
18
100
AcDbEntity
  8
1
  6
Continuous
100
AcDbLine
 10
234.3091568537106
 20
482.8827356131554
 30
0.0
 11
234.3091568537106
 21
482.3827356131554
 31
0.0
  0
ARC
  5
4C6
330
18
100
AcDbEntity
  8
1
  6
Continuous
100
AcDbCircle
 10
239.3091568537105
 20
482.8827356131554
 30
0.0
 40
1.5
100
AcDbArc
 50
359.9999819999999
 51
89.99996399999997
  0
LINE
  5
4C7
330
18
100
AcDbEntity
  8
1
  6
Continuous
100
AcDbLine
 10
239.3091568537106
 20
482.8827356131554
 30
0.0
 11
239.3091568537106
 21
482.3827356131554
 31
0.0
  0
ARC
  5
4C8
330
18
100
AcDbEntity
  8
1
  6
Continuous
100
AcDbCircle
 10
250.3091568537106
 20
492.3827356131556
 30
0.0
 40
5.5
100
AcDbArc
 50
45.00000100000007
 51
224.999996
  0
LINE
  5
4C9
330
18
100
AcDbEntity
  8
4
  6
CENTER
 48
0.5
100
AcDbLine
 10
250.3091568537106
 20
486.3827356131555
 30
0.0
 11
250.3091568537106
 21
498.3827356131556
 31
0.0
  0
LINE
  5
4CA
330
18
100
AcDbEntity
  8
1
  6
Continuous
100
AcDbLine
 10
246.4200708537106
 20
488.4936496131556
 30
0.0
 11
247.9200718537106
 21
486.9936486131556
 31
0.0
  0
ARC
  5
4CB
330
18
100
AcDbEntity
  8
1
  6
Continuous
100
AcDbCircle
 10
320.8091568537107
 20
491.8827356131556
 30
0.0
 40
10.0
100
AcDbArc
 50
0.0
 51
90.00000300000015
  0
ARC
  5
4CC
330
18
100
AcDbEntity
  8
1
  6
Continuous
100
AcDbCircle
 10
321.3091568537107
 20
492.3827356131556
 30
0.0
 40
5.5
100
AcDbArc
 50
314.9999989999999
 51
135.0000000000002
  0
LINE
  5
4CD
330
18
100
AcDbEntity
  8
4
  6
CENTER
 48
0.5
100
AcDbLine
 10
315.3091568537107
 20
492.3827356131556
 30
0.0
 11
327.3091568537107
 21
492.3827356131556
 31
0.0
  0
ARC
  5
4CE
330
18
100
AcDbEntity
  8
1
  6
Continuous
100
AcDbCircle
 10
319.8091568537106
 20
490.8827356131554
 30
0.0
 40
5.5
100
AcDbArc
 50
135.0000000000002
 51
314.9999920000003
  0
LINE
  5
4CF
330
18
100
AcDbEntity
  8
4
  6
CENTER
 48
0.5
100
AcDbLine
 10
313.8091568537106
 20
490.8827356131554
 30
0.0
 11
325.8091568537107
 21
490.8827356131554
 31
0.0
  0
LINE
  5
4D0
330
18
100
AcDbEntity
  8
4
  6
CENTER
 48
0.5
100
AcDbLine
 10
319.8091568537106
 20
484.8827356131557
 30
0.0
 11
319.8091568537106
 21
496.8827356131556
 31
0.0
  0
LINE
  5
4D1
330
18
100
AcDbEntity
  8
1
  6
Continuous
100
AcDbLine
 10
317.4200648537107
 20
496.2718186131557
 30
0.0
 11
315.9200628537107
 21
494.7718176131557
 31
0.0
  0
LINE
  5
4D2
330
18
100
AcDbEntity
  8
4
  6
CENTER
 48
0.5
100
AcDbLine
 10
321.3091568537107
 20
486.3827356131555
 30
0.0
 11
321.3091568537107
 21
498.3827356131556
 31
0.0
  0
LINE
  5
4D3
330
18
100
AcDbEntity
  8
1
  6
Continuous
100
AcDbLine
 10
325.1982418537106
 20
488.4936416131556
 30
0.0
 11
323.6982408537106
 21
486.9936406131555
 31
0.0
  0
LINE
  5
68C
330
18
100
AcDbEntity
  8
4
  6
CENTER
 48
0.5
100
AcDbLine
 10
441.8904235204968
 20
195.8045517952104
 30
0.0
 11
441.8904235204968
 21
345.3872127952104
 31
0.0
  0
LINE
  5
69B
330
18
100
AcDbEntity
  8
1
  6
Continuous
100
AcDbLine
 10
473.8772705204972
 20
330.1838627952103
 30
0.0
 11
409.903576520497
 21
330.1838627952103
 31
0.0
  0
LINE
  5
69C
330
18
100
AcDbEntity
  8
1
  6
Continuous
100
AcDbLine
 10
473.8904235204969
 20
324.8385647952102
 30
0.0
 11
409.8904235204972
 21
324.8385647952102
 31
0.0
  0
LINE
  5
69D
330
18
100
AcDbEntity
  8
1
  6
Continuous
100
AcDbLine
 10
471.8904235204972
 20
323.6838627952103
 30
0.0
 11
412.2295195204968
 21
323.6838627952103
 31
0.0
  0
LINE
  5
6A0
330
18
100
AcDbEntity
  8
4
  6
CENTER
 48
0.5
100
AcDbLine
 10
471.8904235204972
 20
307.3838657952102
 30
0.0
 11
411.8904235204972
 21
307.3838657952102
 31
0.0
  0
LINE
  5
6A1
330
18
100
AcDbEntity
  8
4
  6
CENTER
 48
0.5
100
AcDbLine
 10
471.8904235204972
 20
312.8838677952102
 30
0.0
 11
411.8904235204972
 21
312.8838677952102
 31
0.0
  0
LINE
  5
6A2
330
18
100
AcDbEntity
  8
4
  6
CENTER
 48
0.5
100
AcDbLine
 10
471.8904235204972
 20
315.3838657952102
 30
0.0
 11
411.8904235204972
 21
315.3838657952102
 31
0.0
  0
LINE
  5
6AA
330
18
100
AcDbEntity
  8
4
  6
CENTER
 48
0.5
100
AcDbLine
 10
484.890423520497
 20
253.6838477952104
 30
0.0
 11
407.3904195204971
 21
253.6838477952104
 31
0.0
  0
LINE
  5
6AB
330
18
100
AcDbEntity
  8
4
  6
CENTER
 48
0.5
100
AcDbLine
 10
471.8904235204972
 20
298.0907957952102
 30
0.0
 11
411.8904235204972
 21
298.0907957952102
 31
0.0
  0
LINE
  5
6AC
330
18
100
AcDbEntity
  8
1
  6
Continuous
100
AcDbLine
 10
486.8904235204968
 20
335.6838627952103
 30
0.0
 11
396.8904235204971
 21
335.6838627952103
 31
0.0
  0
LINE
  5
6AD
330
18
100
AcDbEntity
  8
1
  6
Continuous
100
AcDbLine
 10
486.8904235204968
 20
332.6838627952103
 30
0.0
 11
396.8904235204971
 21
332.6838627952103
 31
0.0
  0
LINE
  5
6AF
330
18
100
AcDbEntity
  8
1
  6
Continuous
100
AcDbLine
 10
467.3904235204971
 20
241.6838477952104
 30
0.0
 11
467.3904235204971
 21
252.9447783352118
 31
0.0
  0
LINE
  5
6B0
330
18
100
AcDbEntity
  8
1
  6
Continuous
100
AcDbLine
 10
474.8904235204971
 20
278.6838477952105
 30
0.0
 11
474.8904235204971
 21
314.5537267952103
 31
0.0
  0
LINE
  5
6B8
330
18
100
AcDbEntity
  8
1
  6
Continuous
100
AcDbLine
 10
464.890423520497
 20
241.6838477952104
 30
0.0
 11
464.890423520497
 21
297.6838525709748
 31
0.0
  0
ARC
  5
6BD
330
18
100
AcDbEntity
  8
1
  6
Continuous
100
AcDbCircle
 10
473.4008455204969
 20
261.0450607952104
 30
0.0
 40
3.510416999999999
100
AcDbArc
 50
213.1761928563994
 51
224.345857
  0
LINE
  5
6BE
330
18
100
AcDbEntity
  8
1
  6
Continuous
100
AcDbLine
 10
475.8904235204972
 20
246.3226337952102
 30
0.0
 11
475.8904235204972
 21
261.0450607952104
 31
0.0
  0
ARC
  5
6BF
330
18
100
AcDbEntity
  8
1
  6
Continuous
100
AcDbCircle
 10
472.3800015204972
 20
261.0450607952104
 30
0.0
 40
3.510416999999999
100
AcDbArc
 50
315.654145
 51
44.34585900000036
  0
LINE
  5
6C0
330
18
100
AcDbEntity
  8
1
  6
Continuous
100
AcDbLine
 10
469.8904235204969
 20
244.6838477952105
 30
0.0
 11
469.8904235204969
 21
257.9675171194696
 31
0.0
  0
LINE
  5
6C1
330
18
100
AcDbEntity
  8
1
  6
Continuous
100
AcDbLine
 10
467.3904235204971
 20
241.6838477952104
 30
0.0
 11
464.890423520497
 21
241.6838477952104
 31
0.0
  0
LINE
  5
6C2
330
18
100
AcDbEntity
  8
1
  6
Continuous
100
AcDbLine
 10
479.1404205204972
 20
258.6838477952103
 30
0.0
 11
479.1404205204972
 21
248.6838477952104
 31
0.0
  0
ARC
  5
6C3
330
18
100
AcDbEntity
  8
1
  6
Continuous
100
AcDbCircle
 10
463.3487515204972
 20
253.6838477952104
 30
0.0
 40
12.541667
100
AcDbArc
 50
336.964963
 51
23.03502699999993
  0
LINE
  5
6C4
330
18
100
AcDbEntity
  8
1
  6
Continuous
100
AcDbLine
 10
479.8904235204971
 20
249.4338477952104
 30
0.0
 11
479.1404205204972
 21
248.6838477952104
 31
0.0
  0
ARC
  5
6C5
330
18
100
AcDbEntity
  8
1
  6
Continuous
100
AcDbCircle
 10
482.4320955204971
 20
253.6838477952104
 30
0.0
 40
12.541667
100
AcDbArc
 50
156.964968
 51
203.0350319999999
  0
LINE
  5
6C6
330
18
100
AcDbEntity
  8
1
  6
Continuous
100
AcDbLine
 10
474.8904235204971
 20
243.8688907952105
 30
0.0
 11
470.8904235204971
 21
243.8688907952105
 31
0.0
  0
LINE
  5
6C7
330
18
100
AcDbEntity
  8
1
  6
Continuous
100
AcDbLine
 10
474.8904235204971
 20
248.7763687952103
 30
0.0
 11
470.8904235204971
 21
248.7763687952103
 31
0.0
  0
LINE
  5
6C8
330
18
100
AcDbEntity
  8
1
  6
Continuous
100
AcDbLine
 10
479.1404205204972
 20
248.6838477952104
 30
0.0
 11
475.8904235204972
 21
248.6838477952104
 31
0.0
  0
ARC
  5
6C9
330
18
100
AcDbEntity
  8
1
  6
Continuous
100
AcDbCircle
 10
472.3800015204972
 20
246.3226337952102
 30
0.0
 40
3.510416999999999
100
AcDbArc
 50
315.654145
 51
44.34585900000036
  0
LINE
  5
6CA
330
18
100
AcDbEntity
  8
1
  6
Continuous
100
AcDbLine
 10
469.8904235204969
 20
244.6838477952105
 30
0.0
 11
467.3904235204971
 21
244.6838477952105
 31
0.0
  0
ARC
  5
6CB
330
18
100
AcDbEntity
  8
1
  6
Continuous
100
AcDbCircle
 10
473.4008455204969
 20
246.3226337952102
 30
0.0
 40
3.510416999999999
100
AcDbArc
 50
135.6541429999998
 51
224.345857
  0
LINE
  5
6CC
330
18
100
AcDbEntity
  8
1
  6
Continuous
100
AcDbLine
 10
474.8904235204971
 20
258.5913257952103
 30
0.0
 11
470.8904235204971
 21
258.5913257952103
 31
0.0
  0
LINE
  5
6CD
330
18
100
AcDbEntity
  8
2
  6
Continuous
100
AcDbLine
 10
479.8904235204971
 20
249.4338477952104
 30
0.0
 11
475.8904235204972
 21
249.4338477952104
 31
0.0
  0
LINE
  5
6CE
330
18
100
AcDbEntity
  8
1
  6
Continuous
100
AcDbLine
 10
479.1404205204972
 20
258.6838477952103
 30
0.0
 11
475.8904235204972
 21
258.6838477952103
 31
0.0
  0
LINE
  5
6CF
330
18
100
AcDbEntity
  8
2
  6
Continuous
100
AcDbLine
 10
479.8904235204971
 20
257.9338477952105
 30
0.0
 11
475.8904235204972
 21
257.9338477952105
 31
0.0
  0
LINE
  5
6D0
330
18
100
AcDbEntity
  8
1
  6
Continuous
100
AcDbLine
 10
479.8904235204971
 20
257.9338477952105
 30
0.0
 11
479.8904235204971
 21
249.4338477952104
 31
0.0
  0
LINE
  5
6D1
330
18
100
AcDbEntity
  8
1
  6
Continuous
100
AcDbLine
 10
479.8904235204971
 20
257.9338477952105
 30
0.0
 11
479.1404205204972
 21
258.6838477952103
 31
0.0
  0
ARC
  5
6E3
330
18
100
AcDbEntity
  8
1
  6
Continuous
100
AcDbCircle
 10
429.4737515204969
 20
278.6838477952105
 30
0.0
 40
45.416668
100
AcDbArc
 50
327.509268201589
 51
0.0000189999998023
  0
LINE
  5
6E4
330
18
100
AcDbEntity
  8
1
  6
Continuous
100
AcDbLine
 10
474.8904235204971
 20
263.4988037952102
 30
0.0
 11
472.2766506155384
 21
263.4988037952102
 31
0.0
  0
LINE
  5
712
330
18
100
AcDbEntity
  8
1
  6
Continuous
100
AcDbLine
 10
486.8904235204968
 20
332.6838627952103
 30
0.0
 11
486.8904235204968
 21
335.6838627952103
 31
0.0
  0
LINE
  5
717
330
18
100
AcDbEntity
  8
1
  6
Continuous
100
AcDbLine
 10
471.8904025204972
 20
323.6838607952102
 30
0.0
 11
473.8904025204972
 21
324.8385637952103
 31
0.0
  0
ARC
  5
727
330
18
100
AcDbEntity
  8
1
  6
Continuous
100
AcDbCircle
 10
474.3904235204971
 20
318.8838537952103
 30
0.0
 40
2.0
100
AcDbArc
 50
179.9999859999998
 51
240.000015
  0
ARC
  5
728
330
18
100
AcDbEntity
  8
1
  6
Continuous
100
AcDbCircle
 10
472.390423520497
 20
322.6838647952102
 30
0.0
 40
0.8
100
AcDbArc
 50
269.9999679999998
 51
0.0000050000001031
  0
ARC
  5
729
330
18
100
AcDbEntity
  8
1
  6
Continuous
100
AcDbCircle
 10
471.8904235204972
 20
314.5537267952103
 30
0.0
 40
3.0
100
AcDbArc
 50
0.0000360000000476
 51
59.99998299999971
  0
LINE
  5
72B
330
18
100
AcDbEntity
  8
1
  6
Continuous
100
AcDbLine
 10
472.390423520497
 20
321.8838627952103
 30
0.0
 11
411.3886346672606
 21
321.8838627952103
 31
0.0
  0
LINE
  5
72C
330
18
100
AcDbEntity
  8
1
  6
Continuous
100
AcDbLine
 10
473.1904115204971
 20
322.6838627952103
 30
0.0
 11
410.5904235204977
 21
322.6838617446694
 31
0.0
  0
ARC
  5
72D
330
18
100
AcDbEntity
  8
1
  6
Continuous
100
AcDbCircle
 10
466.8904235204971
 20
319.3838537952103
 30
0.0
 40
5.5
100
AcDbArc
 50
0.0000219999999413
 51
27.03578299999994
  0
LINE
  5
72E
330
18
100
AcDbEntity
  8
1
  6
Continuous
100
AcDbLine
 10
472.390423520497
 20
318.8838537952103
 30
0.0
 11
472.390423520497
 21
319.3838537952103
 31
0.0
  0
LINE
  5
72F
330
18
100
AcDbEntity
  8
1
  6
Continuous
100
AcDbLine
 10
472.3904115204971
 20
322.6838587952103
 30
0.0
 11
471.551312520497
 21
323.6838557952103
 31
0.0
  0
LINE
  5
73A
330
18
100
AcDbEntity
  8
4
  6
CENTER
 48
0.5
100
AcDbLine
 10
477.390423520497
 20
340.6838627952103
 30
0.0
 11
477.390423520497
 21
327.6838627952102
 31
0.0
  0
LINE
  5
73B
330
18
100
AcDbEntity
  8
4
  6
CENTER
 48
0.5
100
AcDbLine
 10
475.8904235204973
 20
340.6838627952103
 30
0.0
 11
475.8904235204973
 21
327.6838627952102
 31
0.0
  0
LINE
  5
73C
330
18
100
AcDbEntity
  8
1
  6
Continuous
100
AcDbLine
 10
473.8903385204971
 20
324.8385347952102
 30
0.0
 11
471.9411485204972
 21
329.3608277952103
 31
0.0
  0
ARC
  5
73D
330
18
100
AcDbEntity
  8
1
  6
Continuous
100
AcDbCircle
 10
473.8772705204972
 20
335.6970297952102
 30
0.0
 40
5.513164999999997
100
AcDbArc
 50
269.9999679999998
 51
326.8700359999998
  0
ARC
  5
73E
330
18
100
AcDbEntity
  8
1
  6
Continuous
100
AcDbCircle
 10
466.8904235204971
 20
327.1838647952102
 30
0.0
 40
5.5
100
AcDbArc
 50
23.31686699999991
 51
33.05570600000036
  0
LINE
  5
74E
330
18
100
AcDbEntity
  8
1
  6
Continuous
100
AcDbLine
 10
416.3904235204968
 20
241.6838477952104
 30
0.0
 11
416.3904235204971
 21
252.944778335211
 31
0.0
  0
LINE
  5
74F
330
18
100
AcDbEntity
  8
1
  6
Continuous
100
AcDbLine
 10
408.8904235204971
 20
278.6838477952105
 30
0.0
 11
408.8904235204971
 21
314.5537267952103
 31
0.0
  0
LINE
  5
751
330
18
100
AcDbEntity
  8
1
  6
Continuous
100
AcDbLine
 10
418.8904235204971
 20
241.6838477952104
 30
0.0
 11
418.8904235204971
 21
297.6838525709751
 31
0.0
  0
ARC
  5
752
330
18
100
AcDbEntity
  8
1
  6
Continuous
100
AcDbCircle
 10
454.3070955204971
 20
278.6838477952105
 30
0.0
 40
45.416668
100
AcDbArc
 50
179.999945
 51
212.4907317984118
  0
ARC
  5
753
330
18
100
AcDbEntity
  8
1
  6
Continuous
100
AcDbCircle
 10
429.840420520497
 20
253.6838477952104
 30
0.0
 40
17.450001
100
AcDbArc
 50
161.5855866669269
 51
211.0482369999997
  0
LINE
  5
754
330
18
100
AcDbEntity
  8
1
  6
Continuous
100
AcDbLine
 10
414.890423520497
 20
244.6838477952105
 30
0.0
 11
414.890423520497
 21
256.1228260837136
 31
0.0
  0
LINE
  5
756
330
18
100
AcDbEntity
  8
1
  6
Continuous
100
AcDbLine
 10
414.890423520497
 20
244.6838477952105
 30
0.0
 11
416.3904235204968
 21
244.6838477952105
 31
0.0
  0
LINE
  5
757
330
18
100
AcDbEntity
  8
1
  6
Continuous
100
AcDbLine
 10
418.8904235204971
 20
241.6838477952104
 30
0.0
 11
416.3904235204968
 21
241.6838477952104
 31
0.0
  0
LINE
  5
75C
330
18
100
AcDbEntity
  8
1
  6
Continuous
100
AcDbLine
 10
411.8904485204971
 20
323.6838507952104
 30
0.0
 11
409.8904345204971
 21
324.8385607952103
 31
0.0
  0
ARC
  5
766
330
18
100
AcDbEntity
  8
1
  6
Continuous
100
AcDbCircle
 10
416.8904235204968
 20
319.3838497952103
 30
0.0
 40
5.5
100
AcDbArc
 50
152.964158
 51
179.9999319999997
  0
ARC
  5
767
330
18
100
AcDbEntity
  8
1
  6
Continuous
100
AcDbCircle
 10
409.3904235204972
 20
318.8838537952103
 30
0.0
 40
2.0
100
AcDbArc
 50
299.999949
 51
359.999978
  0
LINE
  5
768
330
18
100
AcDbEntity
  8
1
  6
Continuous
100
AcDbLine
 10
411.3904095204971
 20
322.6838557952103
 30
0.0
 11
412.2295175204971
 21
323.6838657952103
 31
0.0
  0
ARC
  5
76C
330
18
100
AcDbEntity
  8
1
  6
Continuous
100
AcDbCircle
 10
411.8904235204972
 20
314.5537267952103
 30
0.0
 40
3.0
100
AcDbArc
 50
119.9999980000003
 51
179.999945
  0
LINE
  5
76D
330
18
100
AcDbEntity
  8
1
  6
Continuous
100
AcDbLine
 10
411.3904235204969
 20
318.8838497952104
 30
0.0
 11
411.3904235204969
 21
319.3838497952103
 31
0.0
  0
ARC
  5
76E
330
18
100
AcDbEntity
  8
1
  6
Continuous
100
AcDbCircle
 10
411.3904235204969
 20
322.6838607952103
 30
0.0
 40
0.8
100
AcDbArc
 50
179.9999319999997
 51
269.9999679999998
  0
LINE
  5
76F
330
18
100
AcDbEntity
  8
4
  6
CENTER
 48
0.5
100
AcDbLine
 10
407.8904235204971
 20
340.6838627952103
 30
0.0
 11
407.8904235204971
 21
327.6838627952102
 31
0.0
  0
LINE
  5
770
330
18
100
AcDbEntity
  8
4
  6
CENTER
 48
0.5
100
AcDbLine
 10
406.3904235204971
 20
340.6838627952103
 30
0.0
 11
406.3904235204971
 21
327.6838627952102
 31
0.0
  0
LINE
  5
771
330
18
100
AcDbEntity
  8
1
  6
Continuous
100
AcDbLine
 10
409.8904195204971
 20
324.8385577952102
 30
0.0
 11
411.839606520497
 21
329.3608477952103
 31
0.0
  0
ARC
  5
772
330
18
100
AcDbEntity
  8
1
  6
Continuous
100
AcDbCircle
 10
416.8904235204968
 20
327.1838607952103
 30
0.0
 40
5.5
100
AcDbArc
 50
146.9442479999997
 51
156.6830869999999
  0
ARC
  5
773
330
18
100
AcDbEntity
  8
1
  6
Continuous
100
AcDbCircle
 10
409.903576520497
 20
335.6970247952103
 30
0.0
 40
5.513164999999997
100
AcDbArc
 50
213.1298870000001
 51
269.9999679999998
  0
LINE
  5
774
330
18
100
AcDbEntity
  8
1
  6
Continuous
100
AcDbLine
 10
396.8904235204971
 20
332.6838627952103
 30
0.0
 11
396.8904235204971
 21
335.6838627952103
 31
0.0
  0
LINE
  5
80E
330
18
100
AcDbEntity
  8
1
  6
Continuous
100
AcDbLine
 10
642.9716901872835
 20
332.6838627952103
 30
0.0
 11
552.9716901872834
 21
332.6838627952103
 31
0.0
  0
LINE
  5
80F
330
18
100
AcDbEntity
  8
1
  6
Continuous
100
AcDbLine
 10
642.9716901872835
 20
335.6838627952103
 30
0.0
 11
552.9716901872834
 21
335.6838627952103
 31
0.0
  0
LINE
  5
810
330
18
100
AcDbEntity
  8
4
  6
CENTER
 48
0.5
100
AcDbLine
 10
632.9716901872834
 20
308.6838547952103
 30
0.0
 11
632.9716901872834
 21
198.6838547952104
 31
0.0
  0
LINE
  5
814
330
18
100
AcDbEntity
  8
4
  6
CENTER
 48
0.5
100
AcDbLine
 10
685.7154151872832
 20
298.0907997952103
 30
0.0
 11
675.7154151872834
 21
298.0907997952103
 31
0.0
  0
LINE
  5
815
330
18
100
AcDbEntity
  8
4
  6
CENTER
 48
0.5
100
AcDbLine
 10
687.9716901872833
 20
253.6838547952104
 30
0.0
 11
577.9716901872834
 21
253.6838547952104
 31
0.0
  0
LINE
  5
816
330
18
100
AcDbEntity
  8
5
  6
PHANTOM
 48
0.3
100
AcDbLine
 10
685.7810731872834
 20
300.1810857952103
 30
0.0
 11
676.4563691872832
 21
309.5057887952104
 31
0.0
  0
LINE
  5
817
330
18
100
AcDbEntity
  8
5
  6
PHANTOM
 48
0.3
100
AcDbLine
 10
684.2490181872832
 20
291.3212207952103
 30
0.0
 11
675.4192521872835
 21
281.8524387952103
 31
0.0
  0
ARC
  5
818
330
18
100
AcDbEntity
  8
5
  6
PHANTOM
 48
0.3
100
AcDbCircle
 10
679.8609451872835
 20
295.4131837952104
 30
0.0
 40
6.0
100
AcDbArc
 50
317.0000339999998
 51
145.5224819999999
  0
CIRCLE
  5
819
330
18
100
AcDbEntity
  8
5
  6
PHANTOM
 48
0.3
100
AcDbCircle
 10
679.8609421872834
 20
295.4131837952104
 30
0.0
 40
4.0
  0
LINE
  5
81A
330
18
100
AcDbEntity
  8
5
  6
PHANTOM
 48
0.3
100
AcDbLine
 10
683.3971961872832
 20
301.2530427952103
 30
0.0
 11
666.9658881872832
 21
299.5175607952104
 31
0.0
  0
LINE
  5
81C
330
18
100
AcDbEntity
  8
1
  6
Continuous
100
AcDbLine
 10
677.7749401872832
 20
284.7502457952103
 30
0.0
 11
661.0922241872834
 21
297.5051297952105
 31
0.0
  0
LINE
  5
81D
330
18
100
AcDbEntity
  8
1
  6
Continuous
100
AcDbLine
 10
688.9716591872833
 20
322.8838677952102
 30
0.0
 11
659.9716901872834
 21
322.8838677952102
 31
0.0
  0
ARC
  5
81E
330
18
100
AcDbEntity
  8
1
  6
Continuous
100
AcDbCircle
 10
680.7150371872834
 20
298.0894147952103
 30
0.0
 40
6.0
100
AcDbArc
 50
321.5134230000001
 51
146.5524509999997
  0
CIRCLE
  5
81F
330
18
100
AcDbEntity
  8
1
  6
Continuous
100
AcDbCircle
 10
680.7150371872834
 20
298.0894147952103
 30
0.0
 40
4.0
  0
LINE
  5
820
330
18
100
AcDbEntity
  8
1
  6
Continuous
100
AcDbLine
 10
686.5280031872834
 20
321.9562077952104
 30
0.0
 11
676.1364801872834
 21
309.1103507952102
 31
0.0
  0
LINE
  5
821
330
18
100
AcDbEntity
  8
1
  6
Continuous
100
AcDbLine
 10
690.8974821872833
 20
295.9491187952103
 30
0.0
 11
679.8245581872834
 21
313.6695007952103
 31
0.0
  0
LINE
  5
822
330
18
100
AcDbEntity
  8
5
  6
PHANTOM
 48
0.3
100
AcDbLine
 10
697.5133241872832
 20
275.0306187952105
 30
0.0
 11
684.0133111872834
 21
298.4132927952103
 31
0.0
  0
LINE
  5
823
330
18
100
AcDbEntity
  8
5
  6
PHANTOM
 48
0.3
100
AcDbLine
 10
699.6783451872833
 20
276.2806227952105
 30
0.0
 11
686.1783321872835
 21
299.6632967952103
 31
0.0
  0
LINE
  5
824
330
18
100
AcDbEntity
  8
1
  6
Continuous
100
AcDbLine
 10
694.6247891872833
 20
275.4982127952104
 30
0.0
 11
689.1583761872833
 21
293.3780277952103
 31
0.0
  0
LINE
  5
825
330
18
100
AcDbEntity
  8
1
  6
Continuous
100
AcDbLine
 10
697.0155411872833
 20
276.2291237952102
 30
0.0
 11
691.1680961872835
 21
295.3552347952103
 31
0.0
  0
LINE
  5
826
330
18
100
AcDbEntity
  8
5
  6
PHANTOM
 48
0.3
100
AcDbLine
 10
703.1424631872832
 20
278.2806617952104
 30
0.0
 11
697.5133011872833
 21
275.0306587952104
 31
0.0
  0
ARC
  5
827
330
18
100
AcDbEntity
  8
5
  6
PHANTOM
 48
0.3
100
AcDbCircle
 10
699.6784161872835
 20
276.2806267952104
 30
0.0
 40
2.5
100
AcDbArc
 50
210.0000079999996
 51
299.9999350000001
  0
LINE
  5
828
330
18
100
AcDbEntity
  8
1
  6
Continuous
100
AcDbLine
 10
701.5717331872835
 20
275.0078707952105
 30
0.0
 11
697.7465141872833
 21
273.8383827952103
 31
0.0
  0
LINE
  5
829
330
18
100
AcDbEntity
  8
1
  6
Continuous
100
AcDbLine
 10
700.8408071872833
 20
277.3986177952103
 30
0.0
 11
694.6248271872835
 21
275.4982007952104
 31
0.0
  0
LINE
  5
82A
330
18
100
AcDbEntity
  8
5
  6
PHANTOM
 48
0.3
100
AcDbLine
 10
704.3924661872832
 20
276.1155467952103
 30
0.0
 11
703.1424651872832
 21
278.2806097952105
 31
0.0
  0
LINE
  5
82B
330
18
100
AcDbEntity
  8
5
  6
PHANTOM
 48
0.3
100
AcDbLine
 10
704.3924711872834
 20
276.1155757952104
 30
0.0
 11
700.9283711872833
 21
274.1155737952104
 31
0.0
  0
LINE
  5
82C
330
18
100
AcDbEntity
  8
1
  6
Continuous
100
AcDbLine
 10
701.5716981872833
 20
275.0078527952102
 30
0.0
 11
700.8407681872835
 21
277.3986137952102
 31
0.0
  0
ARC
  5
82D
330
18
100
AcDbEntity
  8
1
  6
Continuous
100
AcDbCircle
 10
697.0155741872832
 20
276.2291427952102
 30
0.0
 40
2.5
100
AcDbArc
 50
196.999904
 51
286.9999270000001
  0
ARC
  5
82E
330
18
100
AcDbEntity
  8
1
  6
Continuous
100
AcDbCircle
 10
681.8875531872834
 20
296.2149527952103
 30
0.0
 40
5.0
100
AcDbArc
 50
283.0618380000002
 51
301.999978
  0
LINE
  5
82F
330
18
100
AcDbEntity
  8
1
  6
Continuous
100
AcDbLine
 10
692.0452661872833
 20
292.4863137952103
 30
0.0
 11
689.6545041872833
 21
291.7553837952103
 31
0.0
  0
LINE
  5
830
330
18
100
AcDbEntity
  8
1
  6
Continuous
100
AcDbLine
 10
677.7749261872834
 20
284.7502597952106
 30
0.0
 11
685.4115561872832
 21
294.3554257952104
 31
0.0
  0
LINE
  5
831
330
18
100
AcDbEntity
  8
1
  6
Continuous
100
AcDbLine
 10
677.7749261872834
 20
284.7502597952106
 30
0.0
 11
685.4115561872832
 21
294.3554257952104
 31
0.0
  0
ARC
  5
832
330
18
100
AcDbEntity
  8
5
  6
PHANTOM
 48
0.3
100
AcDbCircle
 10
683.6597851872834
 20
298.7668557952104
 30
0.0
 40
2.5
100
AcDbArc
 50
44.99998600000011
 51
96.02912199999977
  0
LINE
  5
833
330
18
100
AcDbEntity
  8
5
  6
PHANTOM
 48
0.3
100
AcDbLine
 10
684.0133291872834
 20
298.4133037952103
 30
0.0
 11
685.7810961872834
 21
300.1810707952103
 31
0.0
  0
LINE
  5
834
330
18
100
AcDbEntity
  8
5
  6
PHANTOM
 48
0.3
100
AcDbLine
 10
684.7429551872834
 20
301.0807057952104
 30
0.0
 11
686.8630761872832
 21
302.4055047952102
 31
0.0
  0
LINE
  5
835
330
18
100
AcDbEntity
  8
1
  6
Continuous
100
AcDbLine
 10
684.5371211872834
 20
291.9747147952103
 30
0.0
 11
688.2092871872835
 21
294.2693387952104
 31
0.0
  0
ARC
  5
836
330
18
100
AcDbEntity
  8
5
  6
PHANTOM
 48
0.3
100
AcDbCircle
 10
684.0133161872834
 20
298.4133247952103
 30
0.0
 40
2.5
100
AcDbArc
 50
29.99989299999977
 51
44.99998600000011
  0
ARC
  5
837
330
18
100
AcDbEntity
  8
1
  6
Continuous
100
AcDbCircle
 10
689.5340981872833
 20
292.1492177952103
 30
0.0
 40
2.5
100
AcDbArc
 50
16.99988500000004
 51
121.9999599999995
  0
ARC
  5
838
330
18
100
AcDbEntity
  8
1
  6
Continuous
100
AcDbCircle
 10
688.2020981872833
 20
293.0856497952103
 30
0.0
 40
1.0
100
AcDbArc
 50
16.99970699999983
 51
121.9999599999995
  0
ARC
  5
839
330
18
100
AcDbEntity
  8
1
  6
Continuous
100
AcDbCircle
 10
688.7773541872832
 20
294.6243157952104
 30
0.0
 40
2.5
100
AcDbArc
 50
16.99988500000004
 51
31.99997799999999
  0
LINE
  5
83A
330
18
100
AcDbEntity
  8
4
  6
CENTER
 48
0.5
100
AcDbLine
 10
680.7154151872834
 20
293.0907997952104
 30
0.0
 11
680.7154151872834
 21
303.0907997952104
 31
0.0
  0
ARC
  5
83B
330
18
100
AcDbEntity
  8
5
  6
PHANTOM
 48
0.3
100
AcDbCircle
 10
680.6468151872834
 20
298.9514027952102
 30
0.0
 40
2.0
100
AcDbArc
 50
44.99998600000011
 51
96.02892399999992
  0
LINE
  5
83C
330
18
100
AcDbEntity
  8
5
  6
PHANTOM
 48
0.3
100
AcDbLine
 10
684.0133181872833
 20
298.4133087952102
 30
0.0
 11
682.0610061872835
 21
300.3656207952103
 31
0.0
  0
LINE
  5
83D
330
18
100
AcDbEntity
  8
1
  6
Continuous
100
AcDbLine
 10
715.6987121872835
 20
315.8105477952103
 30
0.0
 11
689.6187131872833
 21
322.7986547952103
 31
0.0
  0
LINE
  5
83E
330
18
100
AcDbEntity
  8
1
  6
Continuous
100
AcDbLine
 10
715.0516701872833
 20
313.3957517952103
 30
0.0
 11
688.9716721872832
 21
320.3838587952103
 31
0.0
  0
ARC
  5
83F
330
18
100
AcDbEntity
  8
1
  6
Continuous
100
AcDbCircle
 10
715.6987411872833
 20
315.8105947952102
 30
0.0
 40
2.5
100
AcDbArc
 50
255.00004
 51
344.9999669999999
  0
LINE
  5
840
330
18
100
AcDbEntity
  8
1
  6
Continuous
100
AcDbLine
 10
716.7339851872833
 20
319.6742857952103
 30
0.0
 11
715.0516631872833
 21
313.3957677952103
 31
0.0
  0
LINE
  5
841
330
18
100
AcDbEntity
  8
1
  6
Continuous
100
AcDbLine
 10
719.1487891872833
 20
319.0272437952103
 30
0.0
 11
718.1135141872835
 21
315.1635397952105
 31
0.0
  0
LINE
  5
842
330
18
100
AcDbEntity
  8
1
  6
Continuous
100
AcDbLine
 10
719.1488031872832
 20
319.0272087952103
 30
0.0
 11
716.7339881872833
 21
319.6742557952104
 31
0.0
  0
ARC
  5
843
330
18
100
AcDbEntity
  8
1
  6
Continuous
100
AcDbCircle
 10
686.2107031872834
 20
318.3838677952103
 30
0.0
 40
2.0
100
AcDbArc
 50
90.00001800000005
 51
141.028956
  0
LINE
  5
844
330
18
100
AcDbEntity
  8
1
  6
Continuous
100
AcDbLine
 10
688.9716901872835
 20
320.3838677952102
 30
0.0
 11
686.2107031872834
 21
320.3838677952102
 31
0.0
  0
LINE
  5
845
330
18
100
AcDbEntity
  8
1
  6
Continuous
100
AcDbLine
 10
688.9716901872835
 20
320.3838677952102
 30
0.0
 11
688.9716901872835
 21
322.8838677952102
 31
0.0
  0
ARC
  5
846
330
18
100
AcDbEntity
  8
1
  6
Continuous
100
AcDbCircle
 10
688.9716591872833
 20
320.3838677952102
 30
0.0
 40
2.5
100
AcDbArc
 50
74.99992500000034
 51
90.00001800000005
  0
ARC
  5
847
330
18
100
AcDbEntity
  8
1
  6
Continuous
100
AcDbCircle
 10
688.4716901872835
 20
320.3838677952102
 30
0.0
 40
2.5
100
AcDbArc
 50
90.00001800000005
 51
141.0291569999996
  0
LINE
  5
848
330
18
100
AcDbEntity
  8
4
  6
CENTER
 48
0.5
100
AcDbLine
 10
597.9716901872834
 20
345.3872127952104
 30
0.0
 11
597.9716901872834
 21
283.1905707952103
 31
0.0
  0
LINE
  5
849
330
18
100
AcDbEntity
  8
5
  6
PHANTOM
 48
0.3
100
AcDbLine
 10
658.8301141872832
 20
306.0640497952105
 30
0.0
 11
661.2885561872832
 21
302.2398097952103
 31
0.0
  0
CIRCLE
  5
84A
330
18
100
AcDbEntity
  8
5
  6
PHANTOM
 48
0.3
100
AcDbCircle
 10
666.3356581872834
 20
305.4843537952103
 30
0.0
 40
4.0
  0
LINE
  5
84B
330
18
100
AcDbEntity
  8
5
  6
PHANTOM
 48
0.3
100
AcDbLine
 10
662.0067661872832
 20
301.9115577952105
 30
0.0
 11
657.9445501872831
 21
305.5723117952102
 31
0.0
  0
LINE
  5
84C
330
18
100
AcDbEntity
  8
1
  6
Continuous
100
AcDbLine
 10
673.2245101872834
 20
300.6432837952103
 30
0.0
 11
669.0888591872834
 21
307.2617087952103
 31
0.0
  0
LINE
  5
84D
330
18
100
AcDbEntity
  8
1
  6
Continuous
100
AcDbLine
 10
673.5425291872834
 20
300.5616277952103
 30
0.0
 11
662.4690191872834
 21
303.4048187952103
 31
0.0
  0
LINE
  5
84E
330
18
100
AcDbEntity
  8
1
  6
Continuous
100
AcDbLine
 10
663.9135491872835
 20
308.8868277952103
 30
0.0
 11
644.0879701872834
 21
297.8779017952102
 31
0.0
  0
LINE
  5
84F
330
18
100
AcDbEntity
  8
1
  6
Continuous
100
AcDbLine
 10
572.6521171872832
 20
307.2878507952103
 30
0.0
 11
623.7551881872832
 21
245.9990677952105
 31
0.0
  0
LINE
  5
850
330
18
100
AcDbEntity
  8
1
  6
Continuous
100
AcDbLine
 10
620.9716901872832
 20
250.8254417952103
 30
0.0
 11
620.9716901872832
 21
314.1809087952103
 31
0.0
  0
LINE
  5
854
330
18
100
AcDbEntity
  8
1
  6
Continuous
100
AcDbLine
 10
640.0485471872833
 20
289.7775947952102
 30
0.0
 11
644.8564051872834
 21
255.3432457952105
 31
0.0
  0
ARC
  5
855
330
18
100
AcDbEntity
  8
1
  6
Continuous
100
AcDbCircle
 10
632.9716901872834
 20
253.6838547952104
 30
0.0
 40
12.0
100
AcDbArc
 50
219.821632
 51
7.948477000000207
  0
ARC
  5
861
330
18
100
AcDbEntity
  8
5
  6
PHANTOM
 48
0.3
100
AcDbCircle
 10
666.3356581872834
 20
305.4843537952103
 30
0.0
 40
6.0
100
AcDbArc
 50
212.735143
 51
276.0291680000002
  0
LINE
  5
862
330
18
100
AcDbEntity
  8
5
  6
PHANTOM
 48
0.3
100
AcDbLine
 10
663.7873851872832
 20
294.8783977952105
 30
0.0
 11
648.6247651872834
 21
300.3971337952104
 31
0.0
  0
LINE
  5
863
330
18
100
AcDbEntity
  8
5
  6
PHANTOM
 48
0.3
100
AcDbLine
 10
675.4192861872834
 20
281.8524087952104
 30
0.0
 11
660.0608451872832
 21
296.1743607952103
 31
0.0
  0
LINE
  5
864
330
18
100
AcDbEntity
  8
5
  6
PHANTOM
 48
0.3
100
AcDbLine
 10
672.5821101872834
 20
298.0624477952104
 30
0.0
 11
662.0067741872832
 21
301.9115507952104
 31
0.0
  0
LINE
  5
865
330
18
100
AcDbEntity
  8
1
  6
Continuous
100
AcDbLine
 10
664.9274451872834
 20
296.5789927952103
 30
0.0
 11
649.0775371872834
 21
300.6485517952103
 31
0.0
  0
LINE
  5
866
330
18
100
AcDbEntity
  8
1
  6
Continuous
100
AcDbLine
 10
672.0974051872834
 20
287.2028667952103
 30
0.0
 11
668.9197451872835
 21
289.6323687952104
 31
0.0
  0
LINE
  5
867
330
18
100
AcDbEntity
  8
1
  6
Continuous
100
AcDbLine
 10
673.0084341872834
 20
288.3945207952103
 30
0.0
 11
672.0973671872834
 21
287.2028937952105
 31
0.0
  0
LINE
  5
868
330
18
100
AcDbEntity
  8
5
  6
PHANTOM
 48
0.3
100
AcDbLine
 10
666.6430091872832
 20
290.0364097952103
 30
0.0
 11
665.6200111872832
 21
288.9393767952103
 31
0.0
  0
LINE
  5
869
330
18
100
AcDbEntity
  8
5
  6
PHANTOM
 48
0.3
100
AcDbLine
 10
669.5684171872834
 20
287.3084257952104
 30
0.0
 11
668.5454201872834
 21
286.2113937952102
 31
0.0
  0
LINE
  5
86A
330
18
100
AcDbEntity
  8
5
  6
PHANTOM
 48
0.3
100
AcDbLine
 10
668.5454671872835
 20
286.2113497952103
 30
0.0
 11
665.6200501872834
 21
288.9393407952102
 31
0.0
  0
LINE
  5
86B
330
18
100
AcDbEntity
  8
1
  6
Continuous
100
AcDbLine
 10
669.8307901872832
 20
290.8240117952104
 30
0.0
 11
668.9197221872832
 21
289.6323837952105
 31
0.0
  0
ARC
  5
86C
330
18
100
AcDbEntity
  8
5
  6
PHANTOM
 48
0.3
100
AcDbCircle
 10
673.2661521872834
 20
299.9418397952102
 30
0.0
 40
2.0
100
AcDbArc
 50
249.9999660000002
 51
325.5225080000001
  0
ARC
  5
86D
330
18
100
AcDbEntity
  8
1
  6
Continuous
100
AcDbCircle
 10
674.0399101872834
 20
302.4988007952102
 30
0.0
 40
2.0
100
AcDbArc
 50
255.600024
 51
326.5525140000001
  0
LINE
  5
86E
330
18
100
AcDbEntity
  8
5
  6
PHANTOM
 48
0.3
100
AcDbLine
 10
664.1767241872834
 20
293.2567227952104
 30
0.0
 11
663.7176231872834
 21
292.7643957952103
 31
0.0
  0
ARC
  5
86F
330
18
100
AcDbEntity
  8
5
  6
PHANTOM
 48
0.3
100
AcDbCircle
 10
663.4453671872834
 20
293.9387107952102
 30
0.0
 40
1.0
100
AcDbArc
 50
316.9999239999996
 51
70.00000100000021
  0
ARC
  5
870
330
18
100
AcDbEntity
  8
1
  6
Continuous
100
AcDbCircle
 10
664.6787591872834
 20
295.6104217952102
 30
0.0
 40
1.0
100
AcDbArc
 50
322.5997919999997
 51
75.59988900000027
  0
LINE
  5
871
330
18
100
AcDbEntity
  8
1
  6
Continuous
100
AcDbLine
 10
665.4731881872834
 20
295.0030437952103
 30
0.0
 11
665.0643201872834
 21
294.4682657952103
 31
0.0
  0
ARC
  5
872
330
18
100
AcDbEntity
  8
1
  6
Continuous
100
AcDbCircle
 10
647.9716901872834
 20
290.8838517952103
 30
0.0
 40
8.0
100
AcDbArc
 50
119.0429389999996
 51
187.9484629999999
  0
LINE
  5
875
330
18
100
AcDbEntity
  8
1
  6
Continuous
100
AcDbLine
 10
628.4716901872834
 20
321.8838627952103
 30
0.0
 11
567.4716901872832
 21
321.8838627952103
 31
0.0
  0
LINE
  5
876
330
18
100
AcDbEntity
  8
1
  6
Continuous
100
AcDbLine
 10
629.2716891872832
 20
322.6838627952103
 30
0.0
 11
566.6716871872834
 21
322.6838627952103
 31
0.0
  0
LINE
  5
877
330
18
100
AcDbEntity
  8
1
  6
Continuous
100
AcDbLine
 10
629.9585251872834
 20
330.1838627952103
 30
0.0
 11
565.9848511872834
 21
330.1838627952103
 31
0.0
  0
LINE
  5
878
330
18
100
AcDbEntity
  8
1
  6
Continuous
100
AcDbLine
 10
629.9716901872834
 20
324.8385647952102
 30
0.0
 11
565.9716901872834
 21
324.8385647952102
 31
0.0
  0
LINE
  5
879
330
18
100
AcDbEntity
  8
1
  6
Continuous
100
AcDbLine
 10
627.9716901872834
 20
323.6838627952103
 30
0.0
 11
568.3107941872832
 21
323.6838627952103
 31
0.0
  0
LINE
  5
87A
330
18
100
AcDbEntity
  8
4
  6
CENTER
 48
0.5
100
AcDbLine
 10
651.9716901872834
 20
307.3838677952102
 30
0.0
 11
641.9716901872834
 21
307.3838677952102
 31
0.0
  0
LINE
  5
87B
330
18
100
AcDbEntity
  8
1
  6
Continuous
100
AcDbLine
 10
651.1232211872834
 20
316.8838517952103
 30
0.0
 11
622.9716901872834
 21
316.8838517952103
 31
0.0
  0
CIRCLE
  5
87C
330
18
100
AcDbEntity
  8
1
  6
Continuous
100
AcDbCircle
 10
646.9716901872835
 20
307.3838677952102
 30
0.0
 40
4.0
  0
LINE
  5
87D
330
18
100
AcDbEntity
  8
4
  6
CENTER
 48
0.5
100
AcDbLine
 10
664.9716901872834
 20
315.3838677952102
 30
0.0
 11
654.9716901872834
 21
315.3838677952102
 31
0.0
  0
ARC
  5
87E
330
18
100
AcDbEntity
  8
1
  6
Continuous
100
AcDbCircle
 10
659.9716901872834
 20
314.8838517952103
 30
0.0
 40
6.0
100
AcDbArc
 50
0.0000360000000476
 51
168.463034
  0
LINE
  5
880
330
18
100
AcDbEntity
  8
1
  6
Continuous
100
AcDbLine
 10
662.4690071872833
 20
303.4048427952102
 30
0.0
 11
658.8502181872834
 21
306.0752127952103
 31
0.0
  0
LINE
  5
881
330
18
100
AcDbEntity
  8
4
  6
CENTER
 48
0.5
100
AcDbLine
 10
671.4716901872834
 20
307.8838677952102
 30
0.0
 11
671.4716901872834
 21
317.8838677952102
 31
0.0
  0
LINE
  5
882
330
18
100
AcDbEntity
  8
1
  6
Continuous
100
AcDbLine
 10
665.9716901872834
 20
312.3838517952103
 30
0.0
 11
665.9716901872834
 21
314.8838517952103
 31
0.0
  0
CIRCLE
  5
883
330
18
100
AcDbEntity
  8
1
  6
Continuous
100
AcDbCircle
 10
671.4716901872834
 20
312.8838677952102
 30
0.0
 40
4.0
  0
LINE
  5
884
330
18
100
AcDbEntity
  8
4
  6
CENTER
 48
0.5
100
AcDbLine
 10
676.4716901872835
 20
312.8838677952102
 30
0.0
 11
666.4716901872834
 21
312.8838677952102
 31
0.0
  0
LINE
  5
885
330
18
100
AcDbEntity
  8
1
  6
Continuous
100
AcDbLine
 10
663.2663841872832
 20
308.5274637952102
 30
0.0
 11
670.1970901872832
 21
307.0207887952103
 31
0.0
  0
ARC
  5
886
330
18
100
AcDbEntity
  8
1
  6
Continuous
100
AcDbCircle
 10
671.4716901872834
 20
312.8838677952102
 30
0.0
 40
6.0
100
AcDbArc
 50
257.735175
 51
321.0291999999999
  0
ARC
  5
887
330
18
100
AcDbEntity
  8
1
  6
Continuous
100
AcDbCircle
 10
661.9716901872834
 20
312.3838517952103
 30
0.0
 40
4.0
100
AcDbArc
 50
299.0429570000001
 51
0.0000189999998023
  0
LINE
  5
888
330
18
100
AcDbEntity
  8
4
  6
CENTER
 48
0.5
100
AcDbLine
 10
659.9716901872834
 20
310.3838677952102
 30
0.0
 11
659.9716901872834
 21
320.3838677952102
 31
0.0
  0
LINE
  5
889
330
18
100
AcDbEntity
  8
4
  6
CENTER
 48
0.5
100
AcDbLine
 10
646.9716901872835
 20
302.3838677952102
 30
0.0
 11
646.9716901872835
 21
312.3838677952103
 31
0.0
  0
LINE
  5
88A
330
18
100
AcDbEntity
  8
1
  6
Continuous
100
AcDbLine
 10
659.9716901872834
 20
320.8838517952103
 30
0.0
 11
659.9716901872834
 21
322.8838677952102
 31
0.0
  0
LINE
  5
88B
330
18
100
AcDbEntity
  8
1
  6
Continuous
100
AcDbLine
 10
651.1232211872834
 20
316.3838517952104
 30
0.0
 11
651.1232211872834
 21
316.8838517952103
 31
0.0
  0
ARC
  5
88C
330
18
100
AcDbEntity
  8
1
  6
Continuous
100
AcDbCircle
 10
652.6232211872834
 20
316.3838517952104
 30
0.0
 40
1.5
100
AcDbArc
 50
180.0
 51
348.4630919999998
  0
LINE
  5
88D
330
18
100
AcDbEntity
  8
1
  6
Continuous
100
AcDbLine
 10
627.9716891872832
 20
323.6838627952103
 30
0.0
 11
629.9716901872834
 21
324.8385647952102
 31
0.0
  0
ARC
  5
88E
330
18
100
AcDbEntity
  8
1
  6
Continuous
100
AcDbCircle
 10
628.4716901872834
 20
322.6838627952103
 30
0.0
 40
0.8
100
AcDbArc
 50
269.9999819999999
 51
0.0000189999998023
  0
LINE
  5
88F
330
18
100
AcDbEntity
  8
1
  6
Continuous
100
AcDbLine
 10
628.4716901872834
 20
322.6838627952103
 30
0.0
 11
627.6325901872832
 21
323.6838627952103
 31
0.0
  0
ARC
  5
890
330
18
100
AcDbEntity
  8
1
  6
Continuous
100
AcDbCircle
 10
630.4716901872835
 20
318.8838517952103
 30
0.0
 40
2.0
100
AcDbArc
 50
180.0
 51
269.9999819999999
  0
LINE
  5
891
330
18
100
AcDbEntity
  8
1
  6
Continuous
100
AcDbLine
 10
628.4716901872834
 20
318.8838517952103
 30
0.0
 11
628.4716901872834
 21
319.3838517952103
 31
0.0
  0
ARC
  5
892
330
18
100
AcDbEntity
  8
1
  6
Continuous
100
AcDbCircle
 10
622.9716901872834
 20
319.3838517952103
 30
0.0
 40
5.5
100
AcDbArc
 50
0.0000360000000476
 51
27.03579600000022
  0
ARC
  5
893
330
18
100
AcDbEntity
  8
1
  6
Continuous
100
AcDbCircle
 10
622.9716901872834
 20
318.8838517952103
 30
0.0
 40
2.0
100
AcDbArc
 50
199.6612799999999
 51
270.000003
  0
ARC
  5
894
330
18
100
AcDbEntity
  8
1
  6
Continuous
100
AcDbCircle
 10
629.9585251872834
 20
335.6970277952104
 30
0.0
 40
5.513164999999997
100
AcDbArc
 50
269.9999819999999
 51
326.8700630000003
  0
LINE
  5
895
330
18
100
AcDbEntity
  8
4
  6
CENTER
 48
0.5
100
AcDbLine
 10
633.4716901872834
 20
340.6838627952103
 30
0.0
 11
633.4716901872832
 21
327.6838627952102
 31
0.0
  0
LINE
  5
896
330
18
100
AcDbEntity
  8
4
  6
CENTER
 48
0.5
100
AcDbLine
 10
631.9716901872834
 20
340.6838627952103
 30
0.0
 11
631.9716901872834
 21
327.6838627952102
 31
0.0
  0
LINE
  5
897
330
18
100
AcDbEntity
  8
1
  6
Continuous
100
AcDbLine
 10
642.9716901872835
 20
332.6838627952103
 30
0.0
 11
642.9716901872835
 21
335.6838627952103
 31
0.0
  0
LINE
  5
898
330
18
100
AcDbEntity
  8
1
  6
Continuous
100
AcDbLine
 10
629.9716911872832
 20
324.8385657952102
 30
0.0
 11
628.0225041872832
 21
329.3608547952103
 31
0.0
  0
ARC
  5
899
330
18
100
AcDbEntity
  8
1
  6
Continuous
100
AcDbCircle
 10
622.9716901872834
 20
327.1838627952103
 30
0.0
 40
5.5
100
AcDbArc
 50
23.31688099999999
 51
33.05571999999975
  0
LINE
  5
89A
330
18
100
AcDbEntity
  8
1
  6
Continuous
100
AcDbLine
 10
567.9716871872832
 20
323.6838627952103
 30
0.0
 11
565.9716871872832
 21
324.8385647952102
 31
0.0
  0
ARC
  5
89B
330
18
100
AcDbEntity
  8
1
  6
Continuous
100
AcDbCircle
 10
564.9716901872834
 20
300.8838517952103
 30
0.0
 40
10.0
100
AcDbArc
 50
39.82159600000009
 51
90.00001800000005
  0
LINE
  5
89C
330
18
100
AcDbEntity
  8
1
  6
Continuous
100
AcDbLine
 10
564.9716901872834
 20
310.8838517952103
 30
0.0
 11
564.9716901872834
 21
313.8838517952103
 31
0.0
  0
ARC
  5
89D
330
18
100
AcDbEntity
  8
1
  6
Continuous
100
AcDbCircle
 10
567.4716901872832
 20
322.6838627952103
 30
0.0
 40
0.8
100
AcDbArc
 50
179.999945
 51
269.9999819999999
  0
LINE
  5
89E
330
18
100
AcDbEntity
  8
1
  6
Continuous
100
AcDbLine
 10
567.4716921872832
 20
322.6838587952103
 30
0.0
 11
568.3107951872832
 21
323.6838627952103
 31
0.0
  0
ARC
  5
89F
330
18
100
AcDbEntity
  8
1
  6
Continuous
100
AcDbCircle
 10
565.4716901872834
 20
318.8838517952103
 30
0.0
 40
2.0
100
AcDbArc
 50
320.3604280000001
 51
359.999964
  0
LINE
  5
8A0
330
18
100
AcDbEntity
  8
1
  6
Continuous
100
AcDbLine
 10
567.0118301872835
 20
317.6079397952104
 30
0.0
 11
565.7764321872832
 21
316.1167007952103
 31
0.0
  0
ARC
  5
8A1
330
18
100
AcDbEntity
  8
1
  6
Continuous
100
AcDbCircle
 10
568.4716901872834
 20
313.8838517952103
 30
0.0
 40
3.5
100
AcDbArc
 50
140.3603520000002
 51
180.0
  0
LINE
  5
8A2
330
18
100
AcDbEntity
  8
1
  6
Continuous
100
AcDbLine
 10
567.4716901872832
 20
318.8838517952103
 30
0.0
 11
567.4716901872832
 21
319.3838517952103
 31
0.0
  0
ARC
  5
8A3
330
18
100
AcDbEntity
  8
1
  6
Continuous
100
AcDbCircle
 10
572.9716901872834
 20
319.3838517952103
 30
0.0
 40
5.5
100
AcDbArc
 50
152.9641730000001
 51
179.999945
  0
LINE
  5
8A4
330
18
100
AcDbEntity
  8
4
  6
CENTER
 48
0.5
100
AcDbLine
 10
562.4716901872833
 20
340.6838627952103
 30
0.0
 11
562.4716901872834
 21
327.6838627952102
 31
0.0
  0
LINE
  5
8A5
330
18
100
AcDbEntity
  8
4
  6
CENTER
 48
0.5
100
AcDbLine
 10
563.9716901872832
 20
340.6838627952103
 30
0.0
 11
563.9716901872832
 21
327.6838627952102
 31
0.0
  0
ARC
  5
8A6
330
18
100
AcDbEntity
  8
1
  6
Continuous
100
AcDbCircle
 10
565.9848511872834
 20
335.6970277952104
 30
0.0
 40
5.513164999999997
100
AcDbArc
 50
213.1299009999999
 51
269.9999819999999
  0
LINE
  5
8A7
330
18
100
AcDbEntity
  8
1
  6
Continuous
100
AcDbLine
 10
565.9716871872832
 20
324.8385637952103
 30
0.0
 11
567.9208751872834
 21
329.3608527952102
 31
0.0
  0
ARC
  5
8A8
330
18
100
AcDbEntity
  8
1
  6
Continuous
100
AcDbCircle
 10
572.9716901872834
 20
327.1838627952103
 30
0.0
 40
5.5
100
AcDbArc
 50
146.9442610000001
 51
156.6831000000002
  0
LINE
  5
8AA
330
18
100
AcDbEntity
  8
1
  6
Continuous
100
AcDbLine
 10
552.9716901872834
 20
332.6838627952103
 30
0.0
 11
552.9716901872834
 21
335.6838627952103
 31
0.0
  0
ARC
  5
940
330
18
100
AcDbEntity
  8
1
  6
Continuous
100
AcDbCircle
 10
320.8091568537107
 20
119.3090289772652
 30
0.0
 40
10.0
100
AcDbArc
 50
0.0
 51
90.00000300000015
  0
ARC
  5
941
330
18
100
AcDbEntity
  8
1
  6
Continuous
100
AcDbCircle
 10
320.8091568537107
 20
49.30902897726515
 30
0.0
 40
10.0
100
AcDbArc
 50
269.9999969999999
 51
0.0
  0
LINE
  5
947
330
18
100
AcDbEntity
  8
4
  6
CENTER
 48
0.5
100
AcDbLine
 10
335.8091568537107
 20
84.30902897726525
 30
0.0
 11
159.6320578537105
 21
84.30902897726525
 31
0.0
  0
ARC
  5
94A
330
18
100
AcDbEntity
  8
1
  6
Continuous
100
AcDbCircle
 10
203.0654318537106
 20
103.578269977265
 30
0.0
 40
5.115518999999999
100
AcDbArc
 50
46.82788700000012
 51
133.1721129999998
  0
LINE
  5
94B
330
18
100
AcDbEntity
  8
1
  6
Continuous
100
AcDbLine
 10
207.0654318537106
 20
61.80902897726515
 30
0.0
 11
199.0654318537106
 21
61.80902897726515
 31
0.0
  0
ARC
  5
94C
330
18
100
AcDbEntity
  8
1
  6
Continuous
100
AcDbCircle
 10
205.5654318537106
 20
61.80902897726515
 30
0.0
 40
1.5
100
AcDbArc
 50
270.0000359999999
 51
0.0000180000000343
  0
LINE
  5
94D
330
18
100
AcDbEntity
  8
1
  6
Continuous
100
AcDbLine
 10
164.6320578537106
 20
76.30902897726514
 30
0.0
 11
164.6320578537106
 21
63.30902897726525
 31
0.0
  0
LINE
  5
950
330
18
100
AcDbEntity
  8
4
  6
CENTER
 48
0.5
100
AcDbLine
 10
203.0654318537106
 20
113.6937889772652
 30
0.0
 11
203.0654318537106
 21
55.30902897726525
 31
0.0
  0
LINE
  5
951
330
18
100
AcDbEntity
  8
1
  6
Continuous
100
AcDbLine
 10
170.7931229118256
 20
80.30902897726525
 30
0.0
 11
192.5977361206888
 21
80.30902897726525
 31
0.0
  0
ARC
  5
952
330
18
100
AcDbEntity
  8
1
  6
Continuous
100
AcDbCircle
 10
171.5258872898899
 20
77.59492789790215
 30
0.0
 40
2.81127876646179
100
AcDbArc
 50
105.1087307545657
 51
185.8369058972586
  0
LINE
  5
953
330
18
100
AcDbEntity
  8
1
  6
Continuous
100
AcDbLine
 10
165.5693072792585
 20
77.30902897726548
 30
0.0
 11
168.7291838537106
 21
77.30902897726548
 31
0.0
  0
ARC
  5
954
330
18
100
AcDbEntity
  8
1
  6
Continuous
100
AcDbCircle
 10
165.6898880264126
 20
76.25679649841821
 30
0.0
 40
1.059118929169474
100
AcDbArc
 50
96.5373023708598
 51
177.1732022166395
  0
LINE
  5
956
330
18
100
AcDbEntity
  8
1
  6
Continuous
100
AcDbLine
 10
182.2091138537105
 20
103.0338599439147
 30
0.0
 11
182.2091138537105
 21
86.59701983905552
 31
0.0
  0
ARC
  5
959
330
18
100
AcDbEntity
  8
1
  6
Continuous
100
AcDbCircle
 10
191.6483833048715
 20
102.3801320224345
 30
0.0
 40
4.929669045082152
100
AcDbArc
 50
88.98592879399897
 51
163.150630796561
  0
ARC
  5
95A
330
18
100
AcDbEntity
  8
1
  6
Continuous
100
AcDbCircle
 10
183.3413858828023
 20
102.6006654151129
 30
0.0
 40
1.212310788390205
100
AcDbArc
 50
94.62481709841584
 51
159.0637121090046
  0
LINE
  5
95C
330
18
100
AcDbEntity
  8
1
  6
Continuous
100
AcDbLine
 10
183.2436364617805
 20
103.809028977265
 30
0.0
 11
189.1560359682985
 21
103.809028977265
 31
0.0
  0
LINE
  5
960
330
18
100
AcDbEntity
  8
1
  6
Continuous
100
AcDbLine
 10
194.1263428537105
 20
103.809028977265
 30
0.0
 11
204.4874684182703
 21
103.809028977265
 31
0.0
  0
ARC
  5
963
330
18
100
AcDbEntity
  8
1
  6
Continuous
100
AcDbCircle
 10
192.5743842784076
 20
106.2771493694069
 30
0.0
 40
1.55303460639351
100
AcDbArc
 50
2.132969041817009
 51
41.63845463071982
  0
LINE
  5
964
330
18
100
AcDbEntity
  8
1
  6
Continuous
100
AcDbLine
 10
193.7350482967789
 20
107.3090289772651
 30
0.0
 11
191.561138232219
 21
107.3090289772651
 31
0.0
  0
LINE
  5
966
330
18
100
AcDbEntity
  8
1
  6
Continuous
100
AcDbLine
 10
194.1263428537105
 20
106.3349513520676
 30
0.0
 11
194.1263428537105
 21
101.3090289772651
 31
0.0
  0
LINE
  5
967
330
18
100
AcDbEntity
  8
1
  6
Continuous
100
AcDbLine
 10
197.1090716084818
 20
106.309028977265
 30
0.0
 11
197.1090716084818
 21
103.809028977265
 31
0.0
  0
LINE
  5
968
330
18
100
AcDbEntity
  8
1
  6
Continuous
100
AcDbLine
 10
199.9285148537105
 20
107.3090289772651
 30
0.0
 11
206.1715278537106
 21
107.3090289772651
 31
0.0
  0
LINE
  5
969
330
18
100
AcDbEntity
  8
1
  6
Continuous
100
AcDbLine
 10
199.5654318537106
 20
106.3090289772651
 30
0.0
 11
199.5654318537106
 21
107.3090289772651
 31
0.0
  0
ARC
  5
96A
330
18
100
AcDbEntity
  8
1
  6
Continuous
100
AcDbCircle
 10
191.6483833048715
 20
87.23792593209589
 30
0.0
 40
4.929669045082152
100
AcDbArc
 50
196.8493692034389
 51
271.014071206001
  0
ARC
  5
96C
330
18
100
AcDbEntity
  8
1
  6
Continuous
100
AcDbCircle
 10
183.3628085663148
 20
87.04703730828986
 30
0.0
 40
1.238356658037953
100
AcDbArc
 50
201.3090825318514
 51
268.6410029406371
  0
LINE
  5
96D
330
18
100
AcDbEntity
  8
1
  6
Continuous
100
AcDbLine
 10
183.3334387719547
 20
85.80902897726526
 30
0.0
 11
189.1560359682985
 21
85.80902897726526
 31
0.0
  0
ARC
  5
96E
330
18
100
AcDbEntity
  8
1
  6
Continuous
100
AcDbCircle
 10
191.4214932290166
 20
83.491148559576
 30
0.0
 40
3.39255543452657
100
AcDbArc
 50
290.2863955245578
 51
339.6077552891863
  0
LINE
  5
96F
330
18
100
AcDbEntity
  8
1
  6
Continuous
100
AcDbLine
 10
198.0378799455314
 20
82.30902897726521
 30
0.0
 11
191.561138232219
 21
82.30902897726526
 31
0.0
  0
LINE
  5
970
330
18
100
AcDbEntity
  8
1
  6
Continuous
100
AcDbLine
 10
170.7931229118254
 20
59.30902897726525
 30
0.0
 11
192.597736120689
 21
59.30902897726546
 31
0.0
  0
LINE
  5
971
330
18
100
AcDbEntity
  8
1
  6
Continuous
100
AcDbLine
 10
165.5693072792574
 20
62.30902897726513
 30
0.0
 11
168.7291838537106
 21
62.30902897726513
 31
0.0
  0
ARC
  5
972
330
18
100
AcDbEntity
  8
1
  6
Continuous
100
AcDbCircle
 10
165.6898880264126
 20
63.36126145611239
 30
0.0
 40
1.059118929169474
100
AcDbArc
 50
182.8267977833603
 51
263.4626976291402
  0
ARC
  5
973
330
18
100
AcDbEntity
  8
1
  6
Continuous
100
AcDbCircle
 10
171.5258872898899
 20
62.02313005662813
 30
0.0
 40
2.81127876646179
100
AcDbArc
 50
174.1630941027412
 51
254.8912692454341
  0
ARC
  5
976
330
18
100
AcDbEntity
  8
1
  6
Continuous
100
AcDbCircle
 10
191.4214932290166
 20
62.491148559576
 30
0.0
 40
3.39255543452657
100
AcDbArc
 50
290.2863955245578
 51
356.9227616550354
  0
ARC
  5
977
330
18
100
AcDbEntity
  8
1
  6
Continuous
100
AcDbCircle
 10
196.8600657166003
 20
63.32902647348555
 30
0.0
 40
1.641529278446113
100
AcDbArc
 50
81.27504098248932
 51
123.7735137987156
  0
LINE
  5
978
330
18
100
AcDbEntity
  8
1
  6
Continuous
100
AcDbLine
 10
204.4874684182703
 20
64.80902897726526
 30
0.0
 11
197.1090716084818
 21
64.80902897726524
 31
0.0
  0
ARC
  5
979
330
18
100
AcDbEntity
  8
1
  6
Continuous
100
AcDbCircle
 10
199.25514727028
 20
61.65049077994865
 30
0.0
 40
4.494497006512761
100
AcDbArc
 50
137.3856934122078
 51
171.5746331183121
  0
LINE
  5
97A
330
18
100
AcDbEntity
  8
1
  6
Continuous
100
AcDbLine
 10
197.1090716084818
 20
62.30902897726525
 30
0.0
 11
197.1090716084818
 21
67.30902897726526
 31
0.0
  0
LINE
  5
97B
330
18
100
AcDbEntity
  8
1
  6
Continuous
100
AcDbLine
 10
205.5654318537106
 20
60.30902897726525
 30
0.0
 11
200.5654318537106
 21
60.30902897726525
 31
0.0
  0
LINE
  5
97C
330
18
100
AcDbEntity
  8
1
  6
Continuous
100
AcDbLine
 10
200.5654318537106
 20
61.80902897726515
 30
0.0
 11
200.5654318537106
 21
62.30902897726513
 31
0.0
  0
ARC
  5
97D
330
18
100
AcDbEntity
  8
1
  6
Continuous
100
AcDbCircle
 10
200.5654318537106
 20
61.80902897726515
 30
0.0
 40
1.5
100
AcDbArc
 50
179.999982
 51
270.0000189999995
  0
LINE
  5
97E
330
18
100
AcDbEntity
  8
1
  6
Continuous
100
AcDbLine
 10
205.5654318537106
 20
61.80902897726515
 30
0.0
 11
205.5654318537106
 21
62.30902897726513
 31
0.0
  0
LINE
  5
981
330
18
100
AcDbEntity
  8
1
  6
Continuous
100
AcDbLine
 10
226.3091568537106
 20
64.80902897726526
 30
0.0
 11
226.3091568537106
 21
68.30902897726516
 31
0.0
  0
LINE
  5
983
330
18
100
AcDbEntity
  8
1
  6
Continuous
100
AcDbLine
 10
240.8091568537106
 20
49.30902897726515
 30
0.0
 11
240.8091568537106
 21
58.80902897726521
 31
0.0
  0
LINE
  5
986
330
18
100
AcDbEntity
  8
4
  6
CENTER
 48
0.5
100
AcDbLine
 10
250.8091568537106
 20
134.3090289772651
 30
0.0
 11
250.8091568537106
 21
34.30902897726525
 31
0.0
  0
LINE
  5
987
330
18
100
AcDbEntity
  8
4
  6
CENTER
 48
0.5
100
AcDbLine
 10
285.8091568537107
 20
134.3090289772651
 30
0.0
 11
285.8091568537107
 21
34.30902897726525
 31
0.0
  0
LINE
  5
988
330
18
100
AcDbEntity
  8
4
  6
CENTER
 48
0.5
100
AcDbLine
 10
223.8091568537106
 20
117.1937889772652
 30
0.0
 11
223.8091568537106
 21
51.80902897726515
 31
0.0
  0
LINE
  5
989
330
18
100
AcDbEntity
  8
4
  6
CENTER
 48
0.5
100
AcDbLine
 10
212.3091568537105
 20
113.6937889772652
 30
0.0
 11
212.3091568537105
 21
55.30902897726525
 31
0.0
  0
LINE
  5
98A
330
18
100
AcDbEntity
  8
4
  6
CENTER
 48
0.5
100
AcDbLine
 10
236.8091568537103
 20
117.1937889772652
 30
0.0
 11
236.8091568537103
 21
51.80902897726515
 31
0.0
  0
LINE
  5
98B
330
18
100
AcDbEntity
  8
1
  6
Continuous
100
AcDbLine
 10
320.8091568537107
 20
129.3090289772651
 30
0.0
 11
250.8091568537106
 21
129.3090289772651
 31
0.0
  0
LINE
  5
98D
330
18
100
AcDbEntity
  8
1
  6
Continuous
100
AcDbLine
 10
240.3091568537106
 20
109.8090289772651
 30
0.0
 11
240.3091568537106
 21
110.8090289772652
 31
0.0
  0
LINE
  5
98E
330
18
100
AcDbEntity
  8
1
  6
Continuous
100
AcDbLine
 10
233.3091568537106
 20
109.8090289772651
 30
0.0
 11
233.3091568537106
 21
110.8090289772652
 31
0.0
  0
LINE
  5
98F
330
18
100
AcDbEntity
  8
1
  6
Continuous
100
AcDbLine
 10
227.3091568537106
 20
109.8090289772651
 30
0.0
 11
227.3091568537106
 21
110.8090289772652
 31
0.0
  0
LINE
  5
990
330
18
100
AcDbEntity
  8
1
  6
Continuous
100
AcDbLine
 10
220.3091568537105
 20
109.8090289772651
 30
0.0
 11
220.3091568537105
 21
110.8090289772652
 31
0.0
  0
ARC
  5
991
330
18
100
AcDbEntity
  8
1
  6
Continuous
100
AcDbCircle
 10
236.8091568537106
 20
107.0782699772653
 30
0.0
 40
5.115518999999999
100
AcDbArc
 50
46.82788700000012
 51
133.1721129999998
  0
LINE
  5
992
330
18
100
AcDbEntity
  8
1
  6
Continuous
100
AcDbLine
 10
233.6722398537105
 20
110.8090289772652
 30
0.0
 11
239.9152528537106
 21
110.8090289772652
 31
0.0
  0
ARC
  5
993
330
18
100
AcDbEntity
  8
1
  6
Continuous
100
AcDbCircle
 10
223.8091568537106
 20
107.0782699772653
 30
0.0
 40
5.115518999999999
100
AcDbArc
 50
46.82788700000012
 51
133.1721129999998
  0
LINE
  5
994
330
18
100
AcDbEntity
  8
1
  6
Continuous
100
AcDbLine
 10
220.6722398537106
 20
110.8090289772652
 30
0.0
 11
226.9152528537107
 21
110.8090289772652
 31
0.0
  0
LINE
  5
995
330
18
100
AcDbEntity
  8
4
  6
CENTER
 48
0.5
100
AcDbLine
 10
257.8091568537105
 20
118.309028977265
 30
0.0
 11
245.8091568537106
 21
118.309028977265
 31
0.0
  0
LINE
  5
996
330
18
100
AcDbEntity
  8
4
  6
CENTER
 48
0.5
100
AcDbLine
 10
256.3091568537106
 20
119.8090289772651
 30
0.0
 11
244.3091568537105
 21
119.8090289772651
 31
0.0
  0
ARC
  5
997
330
18
100
AcDbEntity
  8
1
  6
Continuous
100
AcDbCircle
 10
251.8091568537105
 20
118.309028977265
 30
0.0
 40
5.5
100
AcDbArc
 50
224.9999999999996
 51
237.0289809890528
  0
ARC
  5
998
330
18
100
AcDbEntity
  8
1
  6
Continuous
100
AcDbCircle
 10
250.3091568537106
 20
119.8090289772651
 30
0.0
 40
5.5
100
AcDbArc
 50
45.00000799999958
 51
224.9999999999996
  0
ARC
  5
999
330
18
100
AcDbEntity
  8
1
  6
Continuous
100
AcDbCircle
 10
250.8091568537106
 20
119.3090289772652
 30
0.0
 40
10.0
100
AcDbArc
 50
90.00000300000015
 51
180.000005
  0
LINE
  5
99A
330
18
100
AcDbEntity
  8
4
  6
CENTER
 48
0.5
100
AcDbLine
 10
250.3091568537106
 20
113.809028977265
 30
0.0
 11
250.3091568537106
 21
125.8090289772652
 31
0.0
  0
LINE
  5
99B
330
18
100
AcDbEntity
  8
4
  6
CENTER
 48
0.5
100
AcDbLine
 10
251.8091568537105
 20
112.309028977265
 30
0.0
 11
251.8091568537105
 21
124.3090289772652
 31
0.0
  0
LINE
  5
99C
330
18
100
AcDbEntity
  8
1
  6
Continuous
100
AcDbLine
 10
246.4200708537106
 20
115.9199399772651
 30
0.0
 11
247.9200668537106
 21
114.4199439772652
 31
0.0
  0
LINE
  5
99D
330
18
100
AcDbEntity
  8
1
  6
Continuous
100
AcDbLine
 10
254.1982478537106
 20
123.6981169772652
 30
0.0
 11
255.6982438537106
 21
122.1981209772652
 31
0.0
  0
LINE
  5
9A0
330
18
100
AcDbEntity
  8
1
  6
Continuous
100
AcDbLine
 10
209.1722398537106
 20
107.3090289772651
 30
0.0
 11
215.4152528537105
 21
107.3090289772651
 31
0.0
  0
ARC
  5
9A1
330
18
100
AcDbEntity
  8
1
  6
Continuous
100
AcDbCircle
 10
212.3091568537105
 20
103.578269977265
 30
0.0
 40
5.115518999999999
100
AcDbArc
 50
46.82788700000012
 51
133.1721129999998
  0
LINE
  5
9A2
330
18
100
AcDbEntity
  8
1
  6
Continuous
100
AcDbLine
 10
208.8091568537105
 20
106.3090289772651
 30
0.0
 11
208.8091568537105
 21
107.3090289772651
 31
0.0
  0
LINE
  5
9A3
330
18
100
AcDbEntity
  8
1
  6
Continuous
100
AcDbLine
 10
206.5654318537106
 20
106.3090289772651
 30
0.0
 11
206.5654318537106
 21
107.3090289772651
 31
0.0
  0
LINE
  5
9A4
330
18
100
AcDbEntity
  8
1
  6
Continuous
100
AcDbLine
 10
221.3091568537105
 20
107.3090289772651
 30
0.0
 11
221.3091568537105
 21
106.3090289772651
 31
0.0
  0
LINE
  5
9A5
330
18
100
AcDbEntity
  8
1
  6
Continuous
100
AcDbLine
 10
215.8091568537106
 20
106.3090289772651
 30
0.0
 11
215.8091568537106
 21
107.3090289772651
 31
0.0
  0
LINE
  5
9A6
330
18
100
AcDbEntity
  8
1
  6
Continuous
100
AcDbLine
 10
217.8300277365419
 20
107.3090289772651
 30
0.0
 11
217.8300277365419
 21
109.8090289772651
 31
0.0
  0
LINE
  5
9A7
330
18
100
AcDbEntity
  8
1
  6
Continuous
100
AcDbLine
 10
218.7165268537106
 20
103.809028977265
 30
0.0
 11
229.687931740834
 21
103.809028977265
 31
0.0
  0
LINE
  5
9A9
330
18
100
AcDbEntity
  8
1
  6
Continuous
100
AcDbLine
 10
226.3091568537106
 20
106.3090289772651
 30
0.0
 11
226.3091568537106
 21
107.3090289772651
 31
0.0
  0
LINE
  5
9AA
330
18
100
AcDbEntity
  8
1
  6
Continuous
100
AcDbLine
 10
229.687931740834
 20
103.809028977265
 30
0.0
 11
236.712499108816
 21
103.809028977265
 31
0.0
  0
LINE
  5
9AB
330
18
100
AcDbEntity
  8
1
  6
Continuous
100
AcDbLine
 10
229.687931740834
 20
106.3090289772651
 30
0.0
 11
232.6576258537105
 21
106.3090289772651
 31
0.0
  0
ARC
  5
9B3
330
18
100
AcDbEntity
  8
1
  6
Continuous
100
AcDbCircle
 10
319.8091568537106
 20
118.309028977265
 30
0.0
 40
5.5
100
AcDbArc
 50
135.0000039999999
 51
314.9999989999999
  0
LINE
  5
9B4
330
18
100
AcDbEntity
  8
4
  6
CENTER
 48
0.5
100
AcDbLine
 10
313.8091568537106
 20
118.309028977265
 30
0.0
 11
325.8091568537107
 21
118.309028977265
 31
0.0
  0
ARC
  5
9B5
330
18
100
AcDbEntity
  8
1
  6
Continuous
100
AcDbCircle
 10
321.3091568537107
 20
119.8090289772651
 30
0.0
 40
5.5
100
AcDbArc
 50
314.9999989999999
 51
135.0000000000002
  0
LINE
  5
9B6
330
18
100
AcDbEntity
  8
4
  6
CENTER
 48
0.5
100
AcDbLine
 10
319.8091568537106
 20
112.309028977265
 30
0.0
 11
319.8091568537106
 21
124.3090289772652
 31
0.0
  0
LINE
  5
9B7
330
18
100
AcDbEntity
  8
4
  6
CENTER
 48
0.5
100
AcDbLine
 10
321.3091568537107
 20
113.809028977265
 30
0.0
 11
321.3091568537107
 21
125.8090289772652
 31
0.0
  0
LINE
  5
9B8
330
18
100
AcDbEntity
  8
1
  6
Continuous
100
AcDbLine
 10
317.4200718537107
 20
123.6981159772652
 30
0.0
 11
315.9200718537106
 21
122.1981159772651
 31
0.0
  0
LINE
  5
9B9
330
18
100
AcDbEntity
  8
4
  6
CENTER
 48
0.5
100
AcDbLine
 10
315.3091568537107
 20
119.8090289772651
 30
0.0
 11
327.3091568537107
 21
119.8090289772651
 31
0.0
  0
LINE
  5
9BA
330
18
100
AcDbEntity
  8
1
  6
Continuous
100
AcDbLine
 10
325.1982458537107
 20
115.9199409772652
 30
0.0
 11
323.6982458537107
 21
114.4199409772651
 31
0.0
  0
LINE
  5
9BD
330
18
100
AcDbEntity
  8
1
  6
Continuous
100
AcDbLine
 10
320.8091568537107
 20
39.30902897726514
 30
0.0
 11
250.8091568537106
 21
39.30902897726514
 31
0.0
  0
LINE
  5
9C1
330
18
100
AcDbEntity
  8
1
  6
Continuous
100
AcDbLine
 10
240.8091568537106
 20
58.30902897726525
 30
0.0
 11
232.8091568537105
 21
58.30902897726525
 31
0.0
  0
LINE
  5
9C2
330
18
100
AcDbEntity
  8
1
  6
Continuous
100
AcDbLine
 10
239.3091568537106
 20
56.80902897726525
 30
0.0
 11
234.3091568537106
 21
56.80902897726525
 31
0.0
  0
LINE
  5
9C4
330
18
100
AcDbEntity
  8
1
  6
Continuous
100
AcDbLine
 10
227.8091568537106
 20
58.30902897726525
 30
0.0
 11
219.8091568537106
 21
58.30902897726525
 31
0.0
  0
LINE
  5
9C5
330
18
100
AcDbEntity
  8
1
  6
Continuous
100
AcDbLine
 10
226.3091568537106
 20
56.80902897726525
 30
0.0
 11
221.3091568537106
 21
56.80902897726525
 31
0.0
  0
ARC
  5
9C6
330
18
100
AcDbEntity
  8
1
  6
Continuous
100
AcDbCircle
 10
221.3091568537105
 20
58.30902897726525
 30
0.0
 40
1.5
100
AcDbArc
 50
179.999982
 51
270.0000189999995
  0
LINE
  5
9C7
330
18
100
AcDbEntity
  8
1
  6
Continuous
100
AcDbLine
 10
214.8091568537106
 20
60.30902897726525
 30
0.0
 11
209.8091568537105
 21
60.30902897726525
 31
0.0
  0
LINE
  5
9C8
330
18
100
AcDbEntity
  8
1
  6
Continuous
100
AcDbLine
 10
216.3091568537105
 20
61.80902897726515
 30
0.0
 11
208.3091568537106
 21
61.80902897726515
 31
0.0
  0
LINE
  5
9C9
330
18
100
AcDbEntity
  8
1
  6
Continuous
100
AcDbLine
 10
209.8091568537105
 20
61.80902897726515
 30
0.0
 11
209.8091568537105
 21
62.30902897726513
 31
0.0
  0
ARC
  5
9CA
330
18
100
AcDbEntity
  8
1
  6
Continuous
100
AcDbCircle
 10
209.8091568537108
 20
61.80902897726515
 30
0.0
 40
1.5
100
AcDbArc
 50
179.999982
 51
270.0000189999995
  0
LINE
  5
9CB
330
18
100
AcDbEntity
  8
1
  6
Continuous
100
AcDbLine
 10
217.8300277365419
 20
58.80902897726524
 30
0.0
 11
217.8300277365419
 21
61.30902897726524
 31
0.0
  0
ARC
  5
9CC
330
18
100
AcDbEntity
  8
1
  6
Continuous
100
AcDbCircle
 10
214.8091568537106
 20
61.80902897726515
 30
0.0
 40
1.5
100
AcDbArc
 50
270.0000359999999
 51
0.0000180000000343
  0
LINE
  5
9CD
330
18
100
AcDbEntity
  8
1
  6
Continuous
100
AcDbLine
 10
214.8091568537106
 20
61.80902897726515
 30
0.0
 11
214.8091568537106
 21
62.30902897726513
 31
0.0
  0
LINE
  5
9CE
330
18
100
AcDbEntity
  8
1
  6
Continuous
100
AcDbLine
 10
221.3091568537105
 20
61.30902897726524
 30
0.0
 11
221.3091568537105
 21
62.30902897726513
 31
0.0
  0
LINE
  5
9CF
330
18
100
AcDbEntity
  8
1
  6
Continuous
100
AcDbLine
 10
221.3091568537105
 20
58.30902897726525
 30
0.0
 11
221.3091568537105
 21
58.80902897726524
 31
0.0
  0
ARC
  5
9D0
330
18
100
AcDbEntity
  8
1
  6
Continuous
100
AcDbCircle
 10
234.3091568537106
 20
58.30902897726525
 30
0.0
 40
1.5
100
AcDbArc
 50
179.999982
 51
270.0000189999995
  0
ARC
  5
9D1
330
18
100
AcDbEntity
  8
1
  6
Continuous
100
AcDbCircle
 10
226.3091568537106
 20
58.30902897726525
 30
0.0
 40
1.5
100
AcDbArc
 50
270.0000359999999
 51
0.0000180000000343
  0
LINE
  5
9D2
330
18
100
AcDbEntity
  8
1
  6
Continuous
100
AcDbLine
 10
229.687931740834
 20
64.80902897726526
 30
0.0
 11
218.7165268537106
 21
64.80902897726524
 31
0.0
  0
LINE
  5
9D3
330
18
100
AcDbEntity
  8
1
  6
Continuous
100
AcDbLine
 10
226.3091568537106
 20
61.30902897726524
 30
0.0
 11
226.3091568537106
 21
62.30902897726513
 31
0.0
  0
LINE
  5
9D4
330
18
100
AcDbEntity
  8
1
  6
Continuous
100
AcDbLine
 10
226.3091568537106
 20
58.30902897726525
 30
0.0
 11
226.3091568537106
 21
58.80902897726524
 31
0.0
  0
LINE
  5
9D7
330
18
100
AcDbEntity
  8
1
  6
Continuous
100
AcDbLine
 10
229.687931740834
 20
64.80902897726526
 30
0.0
 11
236.7124992659058
 21
64.80902897726527
 31
0.0
  0
LINE
  5
9D9
330
18
100
AcDbEntity
  8
1
  6
Continuous
100
AcDbLine
 10
234.3091568537106
 20
58.30902897726525
 30
0.0
 11
234.3091568537106
 21
58.80902897726524
 31
0.0
  0
ARC
  5
9DA
330
18
100
AcDbEntity
  8
1
  6
Continuous
100
AcDbCircle
 10
250.8091568537106
 20
49.30902897726515
 30
0.0
 40
10.0
100
AcDbArc
 50
179.9999949999999
 51
269.9999969999999
  0
ARC
  5
9DB
330
18
100
AcDbEntity
  8
1
  6
Continuous
100
AcDbCircle
 10
250.3091568537106
 20
48.80902897726524
 30
0.0
 40
5.5
100
AcDbArc
 50
164.173379868128
 51
314.9999989999999
  0
ARC
  5
9DC
330
18
100
AcDbEntity
  8
1
  6
Continuous
100
AcDbCircle
 10
251.8091568537105
 20
50.30902897726525
 30
0.0
 40
5.5
100
AcDbArc
 50
314.9999989999999
 51
359.9999999999993
  0
LINE
  5
9DD
330
18
100
AcDbEntity
  8
4
  6
CENTER
 48
0.5
100
AcDbLine
 10
251.8091568537105
 20
56.30902897726524
 30
0.0
 11
251.8091568537105
 21
44.30902897726524
 31
0.0
  0
LINE
  5
9DE
330
18
100
AcDbEntity
  8
4
  6
CENTER
 48
0.5
100
AcDbLine
 10
250.3091568537106
 20
54.80902897726525
 30
0.0
 11
250.3091568537106
 21
42.80902897726513
 31
0.0
  0
LINE
  5
9DF
330
18
100
AcDbEntity
  8
4
  6
CENTER
 48
0.5
100
AcDbLine
 10
256.3091568537106
 20
48.80902897726524
 30
0.0
 11
244.3091568537105
 21
48.80902897726524
 31
0.0
  0
LINE
  5
9E0
330
18
100
AcDbEntity
  8
4
  6
CENTER
 48
0.5
100
AcDbLine
 10
257.8091568537105
 20
50.30902897726525
 30
0.0
 11
245.8091568537106
 21
50.30902897726525
 31
0.0
  0
ARC
  5
9E1
330
18
100
AcDbEntity
  8
1
  6
Continuous
100
AcDbCircle
 10
239.3091568537105
 20
58.30902897726525
 30
0.0
 40
1.5
100
AcDbArc
 50
270.0000359999999
 51
0.0000180000000343
  0
LINE
  5
9E2
330
18
100
AcDbEntity
  8
1
  6
Continuous
100
AcDbLine
 10
239.3091568537106
 20
58.30902897726525
 30
0.0
 11
239.3091568537106
 21
58.80902897726524
 31
0.0
  0
LINE
  5
9E4
330
18
100
AcDbEntity
  8
1
  6
Continuous
100
AcDbLine
 10
254.1982448537106
 20
44.91993997726511
 30
0.0
 11
255.6982468537106
 21
46.41994197726524
 31
0.0
  0
ARC
  5
9E5
330
18
100
AcDbEntity
  8
1
  6
Continuous
100
AcDbCircle
 10
321.3091568537107
 20
48.80902897726524
 30
0.0
 40
5.5
100
AcDbArc
 50
224.9999999999996
 51
45.00000100000014
  0
ARC
  5
9E6
330
18
100
AcDbEntity
  8
1
  6
Continuous
100
AcDbCircle
 10
319.8091568537106
 20
50.30902897726525
 30
0.0
 40
5.5
100
AcDbArc
 50
45.00000799999958
 51
224.9999999999996
  0
LINE
  5
9E7
330
18
100
AcDbEntity
  8
4
  6
CENTER
 48
0.5
100
AcDbLine
 10
319.8091568537106
 20
56.30902897726524
 30
0.0
 11
319.8091568537106
 21
44.30902897726524
 31
0.0
  0
LINE
  5
9E8
330
18
100
AcDbEntity
  8
4
  6
CENTER
 48
0.5
100
AcDbLine
 10
321.3091568537107
 20
54.80902897726525
 30
0.0
 11
321.3091568537107
 21
42.80902897726513
 31
0.0
  0
LINE
  5
9E9
330
18
100
AcDbEntity
  8
4
  6
CENTER
 48
0.5
100
AcDbLine
 10
313.8091568537106
 20
50.30902897726525
 30
0.0
 11
325.8091568537107
 21
50.30902897726525
 31
0.0
  0
LINE
  5
9EA
330
18
100
AcDbEntity
  8
4
  6
CENTER
 48
0.5
100
AcDbLine
 10
315.3091568537107
 20
48.80902897726524
 30
0.0
 11
327.3091568537107
 21
48.80902897726524
 31
0.0
  0
LINE
  5
9EB
330
18
100
AcDbEntity
  8
1
  6
Continuous
100
AcDbLine
 10
325.1982418537106
 20
52.69812297726525
 30
0.0
 11
323.6982408537106
 21
54.19812397726525
 31
0.0
  0
LINE
  5
9EC
330
18
100
AcDbEntity
  8
1
  6
Continuous
100
AcDbLine
 10
317.4200648537107
 20
44.91994597726521
 30
0.0
 11
315.9200628537107
 21
46.41994697726523
 31
0.0
  0
LINE
  5
9ED
330
18
100
AcDbEntity
  8
1
  6
Continuous
100
AcDbLine
 10
330.8091568537106
 20
49.30902897726515
 30
0.0
 11
330.8091568537106
 21
119.3090289772652
 31
0.0
  0
CIRCLE
  5
A98
330
18
100
AcDbEntity
  8
2
  6
Continuous
100
AcDbCircle
 10
632.9716901872832
 20
253.6838547952104
 30
0.0
 40
4.249993000000131
  0
CIRCLE
  5
A99
330
18
100
AcDbEntity
  8
1
  6
Continuous
100
AcDbCircle
 10
632.9716901872834
 20
253.6838547952104
 30
0.0
 40
4.999993000000016
  0
ARC
  5
A9B
330
18
100
AcDbEntity
  8
1
  6
Continuous
100
AcDbCircle
 10
632.9716901872834
 20
253.6838547952104
 30
0.0
 40
9.000006999999877
100
AcDbArc
 50
40.81164195542124
 51
79.18835804457853
  0
LINE
  5
A9E
330
18
100
AcDbEntity
  8
1
  6
Continuous
100
AcDbLine
 10
632.9716901872834
 20
243.8688907952104
 30
0.0
 11
641.471698348513
 21
248.7763727952104
 31
0.0
  0
LINE
  5
A9F
330
18
100
AcDbEntity
  8
1
  6
Continuous
100
AcDbLine
 10
632.9716901872832
 20
263.4988037952104
 30
0.0
 11
641.471698348513
 21
258.5913217952103
 31
0.0
  0
LINE
  5
AA0
330
18
100
AcDbEntity
  8
1
  6
Continuous
100
AcDbLine
 10
632.9716901872832
 20
263.4988037952104
 30
0.0
 11
624.4716820260538
 21
258.5913217952104
 31
0.0
  0
LINE
  5
AA1
330
18
100
AcDbEntity
  8
1
  6
Continuous
100
AcDbLine
 10
632.9716901872832
 20
243.8688907952104
 30
0.0
 11
624.4716820260538
 21
248.7763727952103
 31
0.0
  0
LINE
  5
AA3
330
18
100
AcDbEntity
  8
1
  6
Continuous
100
AcDbLine
 10
641.471698348513
 20
248.7763727952104
 30
0.0
 11
641.471698348513
 21
258.5913217952102
 31
0.0
  0
LINE
  5
AA4
330
18
100
AcDbEntity
  8
1
  6
Continuous
100
AcDbLine
 10
624.4716820260538
 20
248.7763727952103
 30
0.0
 11
624.4716820260538
 21
258.5913217952103
 31
0.0
  0
ARC
  5
AA5
330
18
100
AcDbEntity
  8
1
  6
Continuous
100
AcDbCircle
 10
632.9716901872834
 20
253.6838547952104
 30
0.0
 40
9.000006999999877
100
AcDbArc
 50
100.8116419554222
 51
139.188358044578
  0
ARC
  5
AA6
330
18
100
AcDbEntity
  8
1
  6
Continuous
100
AcDbCircle
 10
632.9716901872834
 20
253.6838547952104
 30
0.0
 40
9.000006999999877
100
AcDbArc
 50
160.8118935713165
 51
199.1881064286833
  0
ARC
  5
AA7
330
18
100
AcDbEntity
  8
1
  6
Continuous
100
AcDbCircle
 10
632.9716901872834
 20
253.6838547952104
 30
0.0
 40
9.000006999999877
100
AcDbArc
 50
220.81189357132
 51
259.1881064286793
  0
ARC
  5
AA8
330
18
100
AcDbEntity
  8
1
  6
Continuous
100
AcDbCircle
 10
632.9716901872834
 20
253.6838547952104
 30
0.0
 40
9.000006999999877
100
AcDbArc
 50
280.8118935713169
 51
319.1881064286828
  0
ARC
  5
AA9
330
18
100
AcDbEntity
  8
1
  6
Continuous
100
AcDbCircle
 10
632.9716901872834
 20
253.6838547952104
 30
0.0
 40
9.000006999999877
100
AcDbArc
 50
340.811893571317
 51
19.18810642868301
  0
CIRCLE
  5
AAD
330
18
100
AcDbEntity
  8
1
  6
Continuous
100
AcDbCircle
 10
659.9716901872834
 20
315.3838677952102
 30
0.0
 40
4.0
  0
CIRCLE
  5
AB0
330
18
100
AcDbEntity
  8
1
  6
Continuous
100
AcDbCircle
 10
659.9716901872834
 20
315.3838677952102
 30
0.0
 40
2.5
  0
CIRCLE
  5
AB2
330
18
100
AcDbEntity
  8
1
  6
Continuous
100
AcDbCircle
 10
646.9716901872835
 20
307.3838677952102
 30
0.0
 40
2.5
  0
CIRCLE
  5
AB3
330
18
100
AcDbEntity
  8
1
  6
Continuous
100
AcDbCircle
 10
671.4716901872834
 20
312.8838677952102
 30
0.0
 40
2.5
  0
CIRCLE
  5
AB4
330
18
100
AcDbEntity
  8
5
  6
PHANTOM
 48
0.3
100
AcDbCircle
 10
666.3356581872834
 20
305.4843537952103
 30
0.0
 40
2.5
  0
CIRCLE
  5
AB5
330
18
100
AcDbEntity
  8
1
  6
Continuous
100
AcDbCircle
 10
680.7150371872834
 20
298.0894147952103
 30
0.0
 40
2.5
  0
CIRCLE
  5
AB6
330
18
100
AcDbEntity
  8
5
  6
PHANTOM
 48
0.3
100
AcDbCircle
 10
679.8605641872832
 20
295.4117987952103
 30
0.0
 40
2.5
  0
ARC
  5
CBF
330
18
100
AcDbEntity
  8
1
  6
Continuous
100
AcDbCircle
 10
429.4737515204968
 20
278.6838477952104
 30
0.0
 40
42.916668
100
AcDbArc
 50
327.509268201589
 51
0.0000189999997952
  0
ARC
  5
CCA
330
18
100
AcDbEntity
  8
1
  6
Continuous
100
AcDbCircle
 10
454.3070955204971
 20
278.6838477952104
 30
0.0
 40
42.916668
100
AcDbArc
 50
179.999945
 51
212.490731798411
  0
ARC
  5
CD6
330
18
100
AcDbEntity
  8
1
  6
Continuous
100
AcDbCircle
 10
413.8904235204972
 20
252.944778335211
 30
0.0
 40
2.5
100
AcDbArc
 50
0.0
 51
32.49073179841139
  0
ARC
  5
CD7
330
18
100
AcDbEntity
  8
1
  6
Continuous
100
AcDbCircle
 10
413.8904235204972
 20
252.944778335211
 30
0.0
 40
5.0
100
AcDbArc
 50
0.0
 51
32.49073179841104
  0
ARC
  5
CED
330
18
100
AcDbEntity
  8
1
  6
Continuous
100
AcDbCircle
 10
469.8904235204972
 20
252.9447783352118
 30
0.0
 40
2.5
100
AcDbArc
 50
147.5092682015891
 51
180.0
  0
ARC
  5
CEE
330
18
100
AcDbEntity
  8
1
  6
Continuous
100
AcDbCircle
 10
469.8904235204969
 20
252.9447783352115
 30
0.0
 40
5.0
100
AcDbArc
 50
147.5092682015891
 51
180.0
  0
ARC
  5
D1F
330
18
100
AcDbEntity
  8
1
  6
Continuous
100
AcDbCircle
 10
441.8904214775945
 20
284.2459777952104
 30
0.0
 40
26.637875
100
AcDbArc
 50
30.29582480626864
 51
149.7041577728619
  0
ARC
  5
D2A
330
18
100
AcDbEntity
  8
1
  6
Continuous
100
AcDbCircle
 10
445.4669210483455
 20
274.747110409229
 30
0.0
 40
36.7877435112685
100
AcDbArc
 50
110.6322857094472
 51
173.8568895328181
  0
ARC
  5
D2B
330
18
100
AcDbEntity
  8
1
  6
Continuous
100
AcDbCircle
 10
457.6930816688655
 20
271.3867464303526
 30
0.0
 40
46.87413007993106
100
AcDbArc
 50
145.873955439916
 51
171.0440385760416
  0
ARC
  5
D3D
330
18
100
AcDbEntity
  8
1
  6
Continuous
100
AcDbCircle
 10
426.0877653721284
 20
271.3867464303526
 30
0.0
 40
46.87413007993106
100
AcDbArc
 50
8.955961423958273
 51
34.12604456008377
  0
ARC
  5
D3E
330
18
100
AcDbEntity
  8
1
  6
Continuous
100
AcDbCircle
 10
438.3139259926486
 20
274.747110409229
 30
0.0
 40
36.7877435112685
100
AcDbArc
 50
6.143110467181627
 51
69.36771429055271
  0
ARC
  5
D50
330
18
100
AcDbEntity
  8
1
  6
Continuous
100
AcDbCircle
 10
285.8091568537107
 20
84.30902897726525
 30
0.0
 40
26.0
100
AcDbArc
 50
217.9798724448516
 51
142.0201275551485
  0
ARC
  5
D51
330
18
100
AcDbEntity
  8
1
  6
Continuous
100
AcDbCircle
 10
285.8091568537107
 20
84.30902897726525
 30
0.0
 40
36.60374865654324
100
AcDbArc
 50
224.7398759857619
 51
135.2601240142385
  0
ARC
  5
D5D
330
18
100
AcDbEntity
  8
1
  6
Continuous
100
AcDbCircle
 10
285.8091568537107
 20
84.30902897726525
 30
0.0
 40
33.985973615842
100
AcDbArc
 50
230.1226077064304
 51
129.8773922935694
  0
ARC
  5
D5E
330
18
100
AcDbEntity
  8
1
  6
Continuous
100
AcDbCircle
 10
285.8091568537107
 20
84.30902897726525
 30
0.0
 40
31.485973615842
100
AcDbArc
 50
230.1226077064304
 51
129.8773922935694
  0
ARC
  5
D5F
330
18
100
AcDbEntity
  8
1
  6
Continuous
100
AcDbCircle
 10
285.8091568537107
 20
84.30902897726525
 30
0.0
 40
17.5
100
AcDbArc
 50
246.104491813837
 51
293.8955081861628
  0
LINE
  5
D6F
330
18
100
AcDbEntity
  8
1
  6
Continuous
100
AcDbLine
 10
242.3091547546587
 20
50.30902897726519
 30
0.0
 11
242.3091547546587
 21
56.30902897726521
 31
0.0
  0
LINE
  5
D70
330
18
100
AcDbEntity
  8
1
  6
Continuous
100
AcDbLine
 10
250.8091568537106
 20
51.30903318324754
 30
0.0
 11
250.8091568537106
 21
55.3090251138895
 31
0.0
  0
LINE
  5
D71
330
18
100
AcDbEntity
  8
1
  6
Continuous
100
AcDbLine
 10
259.3091631373784
 20
50.30902897726519
 30
0.0
 11
259.3091631373784
 21
56.30902897726521
 31
0.0
  0
ARC
  5
D75
330
18
100
AcDbEntity
  8
1
  6
Continuous
100
AcDbCircle
 10
255.0591599955445
 20
59.84025644787752
 30
0.0
 40
9.531227470612687
100
AcDbArc
 50
243.5188716007658
 51
296.4811283992275
  0
LINE
  5
D76
330
18
100
AcDbEntity
  8
1
  6
Continuous
100
AcDbLine
 10
259.3091631373784
 20
50.30902897726519
 30
0.0
 11
242.3091547546587
 21
50.30902897726519
 31
0.0
  0
ARC
  5
D7D
330
18
100
AcDbEntity
  8
1
  6
Continuous
100
AcDbCircle
 10
246.5591558041848
 20
59.84024755560557
 30
0.0
 40
9.531218578340507
100
AcDbArc
 50
243.5188590231291
 51
296.4811409768709
  0
ARC
  5
D86
330
18
100
AcDbEntity
  8
1
  6
Continuous
100
AcDbCircle
 10
255.0591599955445
 20
46.77780184925978
 30
0.0
 40
9.531227470612687
100
AcDbArc
 50
63.51887160077242
 51
116.4811283992275
  0
LINE
  5
D88
330
18
100
AcDbEntity
  8
1
  6
Continuous
100
AcDbLine
 10
262.4162889086314
 20
61.30902897726521
 30
0.0
 11
217.8300277365419
 21
61.30902897726521
 31
0.0
  0
LINE
  5
D89
330
18
100
AcDbEntity
  8
1
  6
Continuous
100
AcDbLine
 10
262.4162889086314
 20
58.80902897726521
 30
0.0
 11
217.8300277365419
 21
58.80902897726521
 31
0.0
  0
LINE
  5
D8A
330
18
100
AcDbEntity
  8
1
  6
Continuous
100
AcDbLine
 10
197.1090716084818
 20
62.30902897726525
 30
0.0
 11
260.8091568537104
 21
62.30902897726521
 31
0.0
  0
ARC
  5
D8D
330
18
100
AcDbEntity
  8
1
  6
Continuous
100
AcDbCircle
 10
246.5591558041848
 20
46.77781074153138
 30
0.0
 40
9.531218578340507
100
AcDbArc
 50
63.5188590231291
 51
116.4811409768709
  0
LINE
  5
D91
330
18
100
AcDbEntity
  8
1
  6
Continuous
100
AcDbLine
 10
238.3091568537108
 20
58.80902897726521
 30
0.0
 11
238.3091568537107
 21
61.30902897726521
 31
0.0
  0
ARC
  5
D98
330
18
100
AcDbEntity
  8
1
  6
Continuous
100
AcDbCircle
 10
262.4162889086314
 20
56.30902897726516
 30
0.0
 40
5.0
100
AcDbArc
 50
50.12260770643045
 51
90.0
  0
ARC
  5
D9A
330
18
100
AcDbEntity
  8
1
  6
Continuous
100
AcDbCircle
 10
262.4162889086314
 20
56.30902897726516
 30
0.0
 40
2.5
100
AcDbArc
 50
50.12260770643045
 51
90.0
  0
ARC
  5
DA5
330
18
100
AcDbEntity
  8
1
  6
Continuous
100
AcDbCircle
 10
285.8091568537107
 20
84.30902897726525
 30
0.0
 40
17.5
100
AcDbArc
 50
324.9301698848571
 51
35.06983011514275
  0
ARC
  5
DAB
330
18
100
AcDbEntity
  8
1
  6
Continuous
100
AcDbCircle
 10
285.8091568537107
 20
84.30902897726525
 30
0.0
 40
17.5
100
AcDbArc
 50
66.10449181383704
 51
113.8955081861629
  0
LINE
  5
DB4
330
18
100
AcDbEntity
  8
1
  6
Continuous
100
AcDbLine
 10
262.4162889086314
 20
107.3090289772651
 30
0.0
 11
217.8300277365419
 21
107.3090289772651
 31
0.0
  0
LINE
  5
DB5
330
18
100
AcDbEntity
  8
1
  6
Continuous
100
AcDbLine
 10
262.4162889086311
 20
109.8090289772651
 30
0.0
 11
217.8300277365419
 21
109.8090289772651
 31
0.0
  0
LINE
  5
DB8
330
18
100
AcDbEntity
  8
1
  6
Continuous
100
AcDbLine
 10
197.1090716084818
 20
106.3090289772649
 30
0.0
 11
260.8091568537104
 21
106.3090289772649
 31
0.0
  0
LINE
  5
DC6
330
18
100
AcDbEntity
  8
1
  6
Continuous
100
AcDbLine
 10
238.3091568537106
 20
109.8090289772652
 30
0.0
 11
238.3091568537106
 21
107.3090289772651
 31
0.0
  0
ARC
  5
DCB
330
18
100
AcDbEntity
  8
1
  6
Continuous
100
AcDbCircle
 10
262.4162889086314
 20
112.3090289772652
 30
0.0
 40
5.0
100
AcDbArc
 50
270.0
 51
309.8773922935695
  0
ARC
  5
DD2
330
18
100
AcDbEntity
  8
1
  6
Continuous
100
AcDbCircle
 10
262.4162889086311
 20
112.309028977265
 30
0.0
 40
2.5
100
AcDbArc
 50
270.0
 51
309.8773922935695
  0
LINE
  5
103D
330
18
100
AcDbEntity
  8
1
  6
Continuous
100
AcDbLine
 10
240.8091568537106
 20
109.8090289772651
 30
0.0
 11
240.8091568537106
 21
119.3090289772652
 31
0.0
  0
LINE
  5
1077
330
18
100
AcDbEntity
  8
1
  6
Continuous
100
AcDbLine
 10
241.8091568537106
 20
56.30902897726521
 30
0.0
 11
241.8091568537106
 21
58.80902897726521
 31
0.0
  0
LINE
  5
1078
330
18
100
AcDbEntity
  8
1
  6
Continuous
100
AcDbLine
 10
259.8091568537105
 20
56.30902897726521
 30
0.0
 11
259.8091568537105
 21
58.80902897726521
 31
0.0
  0
LINE
  5
1079
330
18
100
AcDbEntity
  8
1
  6
Continuous
100
AcDbLine
 10
246.5591568537106
 20
46.3090289772652
 30
0.0
 11
255.0591568537107
 21
46.3090289772652
 31
0.0
  0
LINE
  5
107A
330
18
100
AcDbEntity
  8
1
  6
Continuous
100
AcDbLine
 10
245.8091568537106
 20
47.05903197726517
 30
0.0
 11
255.8091568537105
 21
47.05903197726517
 31
0.0
  0
LINE
  5
107E
330
18
100
AcDbEntity
  8
1
  6
Continuous
100
AcDbLine
 10
259.8091568537105
 20
56.30902897726521
 30
0.0
 11
241.8091568537106
 21
56.30902897726521
 31
0.0
  0
LINE
  5
107F
330
18
100
AcDbEntity
  8
2
  6
Continuous
100
AcDbLine
 10
255.0591568537107
 20
46.3090289772652
 30
0.0
 11
255.0591568537107
 21
50.30902897726519
 31
0.0
  0
LINE
  5
1080
330
18
100
AcDbEntity
  8
1
  6
Continuous
100
AcDbLine
 10
255.8091568537105
 20
47.05903197726517
 30
0.0
 11
255.8091568537105
 21
50.30902897726519
 31
0.0
  0
LINE
  5
1081
330
18
100
AcDbEntity
  8
1
  6
Continuous
100
AcDbLine
 10
255.0591568537107
 20
46.3090289772652
 30
0.0
 11
255.8091568537105
 21
47.05903197726517
 31
0.0
  0
LINE
  5
1086
330
18
100
AcDbEntity
  8
1
  6
Continuous
100
AcDbLine
 10
245.8091568537106
 20
47.05903197726517
 30
0.0
 11
245.8091568537106
 21
50.30902897726519
 31
0.0
  0
LINE
  5
1087
330
18
100
AcDbEntity
  8
2
  6
Continuous
100
AcDbLine
 10
246.5591568537106
 20
46.3090289772652
 30
0.0
 11
246.5591568537106
 21
50.30902897726519
 31
0.0
  0
LINE
  5
1088
330
18
100
AcDbEntity
  8
1
  6
Continuous
100
AcDbLine
 10
246.5591568537106
 20
46.3090289772652
 30
0.0
 11
245.8091568537106
 21
47.05903197726517
 31
0.0
  0
ARC
  5
10E4
330
18
100
AcDbEntity
  8
1
  6
Continuous
100
AcDbCircle
 10
250.8091568537106
 20
96.3590319772652
 30
0.0
 40
17.450001
100
AcDbArc
 50
58.95176300000009
 51
121.048264
  0
LINE
  5
10E5
330
18
100
AcDbEntity
  8
1
  6
Continuous
100
AcDbLine
 10
259.8091568537105
 20
111.309028977265
 30
0.0
 11
241.8091568537106
 21
111.309028977265
 31
0.0
  0
LINE
  5
10E7
330
18
100
AcDbEntity
  8
1
  6
Continuous
100
AcDbLine
 10
259.8091568537105
 20
111.309028977265
 30
0.0
 11
259.8091568537105
 21
109.8090289772651
 31
0.0
  0
LINE
  5
10ED
330
18
100
AcDbEntity
  8
1
  6
Continuous
100
AcDbLine
 10
241.8091568537106
 20
111.309028977265
 30
0.0
 11
241.8091568537106
 21
109.8090289772651
 31
0.0
  0
ARC
  5
1133
330
18
100
AcDbEntity
  8
1
  6
Continuous
100
AcDbCircle
 10
251.8091568537105
 20
118.309028977265
 30
0.0
 40
5.5
100
AcDbArc
 50
297.7540534766081
 51
45.00000100000014
  0
LINE
  5
1136
330
18
100
AcDbEntity
  8
1
  6
Continuous
100
AcDbLine
 10
234.3091568537106
 20
61.30902897726521
 30
0.0
 11
234.3091568537106
 21
62.30902897726515
 31
0.0
  0
LINE
  5
1137
330
18
100
AcDbEntity
  8
1
  6
Continuous
100
AcDbLine
 10
239.3091568537106
 20
61.30902897726521
 30
0.0
 11
239.3091568537106
 21
62.30902897726515
 31
0.0
  0
LINE
  5
1155
330
18
100
AcDbEntity
  8
1
  6
Continuous
100
AcDbLine
 10
204.4874684182703
 20
67.30902897726524
 30
0.0
 11
197.1090716084818
 21
67.30902897726524
 31
0.0
  0
LINE
  5
1157
330
18
100
AcDbEntity
  8
1
  6
Continuous
100
AcDbLine
 10
200.5654318537106
 20
67.30902897726526
 30
0.0
 11
200.5654318537106
 21
101.3090289772651
 31
0.0
  0
ARC
  5
115C
330
18
100
AcDbEntity
  8
1
  6
Continuous
100
AcDbCircle
 10
193.8740747967228
 20
102.3801320224345
 30
0.0
 40
4.929669045082152
100
AcDbArc
 50
91.6040930404498
 51
163.150630796561
  0
ARC
  5
115E
330
18
100
AcDbEntity
  8
1
  6
Continuous
100
AcDbCircle
 10
193.8740747967228
 20
87.23792593209589
 30
0.0
 40
4.929669045082152
100
AcDbArc
 50
196.8493692034389
 51
271.014071206001
  0
LINE
  5
1161
330
18
100
AcDbEntity
  8
1
  6
Continuous
100
AcDbLine
 10
204.4874684182703
 20
101.3090289772651
 30
0.0
 11
194.1263428537105
 21
101.3090289772651
 31
0.0
  0
LINE
  5
1162
330
18
100
AcDbEntity
  8
1
  6
Continuous
100
AcDbLine
 10
206.0059068537106
 20
104.3090289772651
 30
0.0
 11
206.0059068537106
 21
100.3090289772651
 31
0.0
  0
LINE
  5
1164
330
18
100
AcDbEntity
  8
1
  6
Continuous
100
AcDbLine
 10
204.4874684182703
 20
103.809028977265
 30
0.0
 11
204.4874684182703
 21
100.3090289772651
 31
0.0
  0
ARC
  5
1165
330
18
100
AcDbEntity
  8
1
  6
Continuous
100
AcDbCircle
 10
204.0059068537106
 20
104.3090289772651
 30
0.0
 40
2.0
100
AcDbArc
 50
0.0
 51
90.0
  0
ARC
  5
1166
330
18
100
AcDbEntity
  8
1
  6
Continuous
100
AcDbCircle
 10
204.0059068537106
 20
64.30902897726529
 30
0.0
 40
2.0
100
AcDbArc
 50
270.0
 51
0.0
  0
LINE
  5
1167
330
18
100
AcDbEntity
  8
1
  6
Continuous
100
AcDbLine
 10
206.0059068537106
 20
68.30902897726526
 30
0.0
 11
206.0059068537106
 21
64.30902897726529
 31
0.0
  0
LINE
  5
1168
330
18
100
AcDbEntity
  8
1
  6
Continuous
100
AcDbLine
 10
204.4874684182703
 20
68.30902897726526
 30
0.0
 11
204.4874684182703
 21
64.80902897726526
 31
0.0
  0
LINE
  5
116A
330
18
100
AcDbEntity
  8
1
  6
Continuous
100
AcDbLine
 10
218.7165268537106
 20
104.3090289772651
 30
0.0
 11
218.7165268537106
 21
100.3090289772651
 31
0.0
  0
ARC
  5
116B
330
18
100
AcDbEntity
  8
1
  6
Continuous
100
AcDbCircle
 10
216.7165268537106
 20
64.30902897726529
 30
0.0
 40
2.0
100
AcDbArc
 50
270.0
 51
0.0
  0
ARC
  5
116C
330
18
100
AcDbEntity
  8
1
  6
Continuous
100
AcDbCircle
 10
216.7165268537106
 20
104.3090289772651
 30
0.0
 40
2.0
100
AcDbArc
 50
0.0
 51
90.0
  0
LINE
  5
116D
330
18
100
AcDbEntity
  8
1
  6
Continuous
100
AcDbLine
 10
221.3091568537105
 20
64.80902897726526
 30
0.0
 11
221.3091568537105
 21
68.30902897726516
 31
0.0
  0
LINE
  5
116E
330
18
100
AcDbEntity
  8
1
  6
Continuous
100
AcDbLine
 10
226.3091568537106
 20
100.3090289772651
 30
0.0
 11
226.3091568537106
 21
103.809028977265
 31
0.0
  0
LINE
  5
116F
330
18
100
AcDbEntity
  8
1
  6
Continuous
100
AcDbLine
 10
221.3091568537105
 20
100.3090289772651
 30
0.0
 11
221.3091568537105
 21
103.809028977265
 31
0.0
  0
LINE
  5
1170
330
18
100
AcDbEntity
  8
1
  6
Continuous
100
AcDbLine
 10
218.7165268537106
 20
68.30902897726514
 30
0.0
 11
218.7165268537106
 21
64.30902897726529
 31
0.0
  0
LINE
  5
1172
330
18
100
AcDbEntity
  8
1
  6
Continuous
100
AcDbLine
 10
234.3091568537103
 20
100.3090289772651
 30
0.0
 11
234.3091568537103
 21
103.809028977265
 31
0.0
  0
LINE
  5
1174
330
18
100
AcDbEntity
  8
1
  6
Continuous
100
AcDbLine
 10
239.3091568537105
 20
106.3090289772651
 30
0.0
 11
239.3091568537105
 21
107.3090289772651
 31
0.0
  0
LINE
  5
1175
330
18
100
AcDbEntity
  8
1
  6
Continuous
100
AcDbLine
 10
234.3091568537105
 20
107.3090289772651
 30
0.0
 11
234.3091568537105
 21
106.3090289772651
 31
0.0
  0
LINE
  5
1176
330
18
100
AcDbEntity
  8
1
  6
Continuous
100
AcDbLine
 10
234.3091568537105
 20
64.80902897726527
 30
0.0
 11
234.3091568537105
 21
68.30902897726517
 31
0.0
  0
LINE
  5
117B
330
18
100
AcDbEntity
  8
1
  6
Continuous
100
AcDbLine
 10
196.9177627291438
 20
81.30902897726523
 30
0.0
 11
196.9177627291438
 21
66.80902897726525
 31
0.0
  0
LINE
  5
117C
330
18
100
AcDbEntity
  8
1
  6
Continuous
100
AcDbLine
 10
199.0378799455313
 20
81.30902897726523
 30
0.0
 11
199.0378799455313
 21
67.30902897726526
 31
0.0
  0
ARC
  5
117E
330
18
100
AcDbEntity
  8
1
  6
Continuous
100
AcDbCircle
 10
198.0378799455314
 20
81.30902897726523
 30
0.0
 40
1.0
100
AcDbArc
 50
0.0
 51
90.0
  0
ARC
  5
117F
330
18
100
AcDbEntity
  8
1
  6
Continuous
100
AcDbCircle
 10
195.9177627291438
 20
81.30902897726526
 30
0.0
 40
1.0
100
AcDbArc
 50
359.9999999999983
 51
90.00000000000325
  0
ARC
  5
1180
330
18
100
AcDbEntity
  8
1
  6
Continuous
100
AcDbCircle
 10
198.9177627291438
 20
66.80902897726525
 30
0.0
 40
2.0
100
AcDbArc
 50
180.0
 51
205.2647152274571
  0
LINE
  5
1793
330
18
100
AcDbEntity
  8
1
  6
Continuous
100
AcDbLine
 10
425.0483918072998
 20
304.8838657952102
 30
0.0
 11
458.732451147889
 21
304.8838657952101
 31
0.0
  0
ARC
  5
188C
330
18
100
AcDbEntity
  8
1
  6
Continuous
100
AcDbCircle
 10
461.8904235204968
 20
286.7502457952101
 30
0.0
 40
2.0
100
AcDbArc
 50
270.0
 51
0.0
  0
LINE
  5
188D
330
18
100
AcDbEntity
  8
1
  6
Continuous
100
AcDbLine
 10
461.8904235204968
 20
284.7502457952103
 30
0.0
 11
457.8904235204968
 21
284.7502457952103
 31
0.0
  0
LINE
  5
188E
330
18
100
AcDbEntity
  8
1
  6
Continuous
100
AcDbLine
 10
425.8904235204968
 20
284.7502457952105
 30
0.0
 11
421.890423520497
 21
284.7502457952105
 31
0.0
  0
ARC
  5
188F
330
18
100
AcDbEntity
  8
1
  6
Continuous
100
AcDbCircle
 10
421.890423520497
 20
286.7502457952102
 30
0.0
 40
2.0
100
AcDbArc
 50
180.0
 51
270.0
  0
LINE
  5
1890
330
18
100
AcDbEntity
  8
1
  6
Continuous
100
AcDbLine
 10
422.3904235204971
 20
302.3933319877317
 30
0.0
 11
422.3904235204972
 21
294.4682657952103
 31
0.0
  0
LINE
  5
1891
330
18
100
AcDbEntity
  8
1
  6
Continuous
100
AcDbLine
 10
419.8904235204985
 20
299.2651813161496
 30
0.0
 11
419.8904235204969
 21
286.7502457952101
 31
0.0
  0
LINE
  5
1892
330
18
100
AcDbEntity
  8
1
  6
Continuous
100
AcDbLine
 10
463.890423520497
 20
299.2651753312943
 30
0.0
 11
463.890423520497
 21
286.7502457952101
 31
0.0
  0
LINE
  5
1893
330
18
100
AcDbEntity
  8
1
  6
Continuous
100
AcDbLine
 10
461.3904235204969
 20
294.4682657952103
 30
0.0
 11
461.3904235204969
 21
302.3933275973833
 31
0.0
  0
LINE
  5
1894
330
18
100
AcDbEntity
  8
1
  6
Continuous
100
AcDbLine
 10
421.890423520497
 20
294.4682657952103
 30
0.0
 11
425.890423520497
 21
294.4682657952103
 31
0.0
  0
ARC
  5
1895
330
18
100
AcDbEntity
  8
1
  6
Continuous
100
AcDbCircle
 10
421.890423520497
 20
296.4682657952104
 30
0.0
 40
2.0
100
AcDbArc
 50
180.0
 51
270.0
  0
ARC
  5
1896
330
18
100
AcDbEntity
  8
1
  6
Continuous
100
AcDbCircle
 10
461.8904235204968
 20
296.4682657952103
 30
0.0
 40
2.0
100
AcDbArc
 50
270.0
 51
0.0
  0
LINE
  5
1897
330
18
100
AcDbEntity
  8
1
  6
Continuous
100
AcDbLine
 10
457.8904235204968
 20
294.4682657952103
 30
0.0
 11
461.8904235204968
 21
294.4682657952103
 31
0.0
  0
ARC
  5
1898
330
18
100
AcDbEntity
  8
1
  6
Continuous
100
AcDbCircle
 10
421.3904235204968
 20
276.2291357952104
 30
0.0
 40
2.5
100
AcDbArc
 50
180.0
 51
269.9999819999999
  0
LINE
  5
1899
330
18
100
AcDbEntity
  8
1
  6
Continuous
100
AcDbLine
 10
425.890423520497
 20
273.7291357952104
 30
0.0
 11
421.3904235204968
 21
273.7291357952104
 31
0.0
  0
ARC
  5
189A
330
18
100
AcDbEntity
  8
1
  6
Continuous
100
AcDbCircle
 10
420.3904235204972
 20
288.0282687952103
 30
0.0
 40
1.5
100
AcDbArc
 50
109.4712206344816
 51
180.0
  0
LINE
  5
18DC
330
18
100
AcDbEntity
  8
1
  6
Continuous
100
AcDbLine
 10
686.2107031872832
 20
320.3838677952102
 30
0.0
 11
686.2107031872832
 21
321.5639659240141
 31
0.0
  0
ARC
  5
1A62
330
18
100
AcDbEntity
  8
1
  6
Continuous
100
AcDbCircle
 10
250.8091568537106
 20
253.6838547952104
 30
0.0
 40
50.0
100
AcDbArc
 50
112.5535480720909
 51
36.29185245369275
  0
ARC
  5
1A63
330
18
100
AcDbEntity
  8
1
  6
Continuous
100
AcDbCircle
 10
250.8091568537106
 20
253.6838547952104
 30
0.0
 40
41.74999999999999
100
AcDbArc
 50
100.9805733127149
 51
33.47452816655035
  0
LINE
  5
1A84
330
18
100
AcDbEntity
  8
1
  6
Continuous
100
AcDbLine
 10
232.6576258537105
 20
440.8827356131554
 30
0.0
 11
226.3091568537106
 21
440.8827356131554
 31
0.0
  0
LINE
  5
1A85
330
18
100
AcDbEntity
  8
1
  6
Continuous
100
AcDbLine
 10
232.6576258537105
 20
472.8827356131557
 30
0.0
 11
226.3091568537106
 21
472.8827356131557
 31
0.0
  0
LINE
  5
1B73
330
18
100
AcDbEntity
  8
1
  6
Continuous
100
AcDbLine
 10
255.8091568537105
 20
239.5417191952104
 30
0.0
 11
255.8091568537105
 21
231.0343507952104
 31
0.0
  0
LINE
  5
1B74
330
18
100
AcDbEntity
  8
1
  6
Continuous
100
AcDbLine
 10
245.8091568537105
 20
239.5417191952104
 30
0.0
 11
245.8091568537105
 21
231.0343507952104
 31
0.0
  0
ARC
  5
1B76
330
18
100
AcDbEntity
  8
1
  6
Continuous
100
AcDbCircle
 10
250.8091568537106
 20
253.6838547952104
 30
0.0
 40
24.0
100
AcDbArc
 50
259.9845800000001
 51
280.0154000000008
  0
ARC
  5
1B77
330
18
100
AcDbEntity
  8
1
  6
Continuous
100
AcDbCircle
 10
246.8091568537106
 20
231.0343507952104
 30
0.0
 40
1.0
100
AcDbArc
 50
179.9999800000011
 51
259.9846199999999
  0
ARC
  5
1B78
330
18
100
AcDbEntity
  8
1
  6
Continuous
100
AcDbCircle
 10
254.8091568537106
 20
231.0343507952104
 30
0.0
 40
1.0
100
AcDbArc
 50
280.0153500000007
 51
0.0
  0
ARC
  5
1B86
330
18
100
AcDbEntity
  8
1
  6
Continuous
100
AcDbCircle
 10
250.8091568537106
 20
253.6838547952104
 30
0.0
 40
15.0
100
AcDbArc
 50
135.1816356431495
 51
357.0483206366325
  0
ARC
  5
1BC5
330
18
100
AcDbEntity
  8
1
  6
Continuous
100
AcDbCircle
 10
632.9716901872834
 20
253.6838547952104
 30
0.0
 40
50.0
100
AcDbArc
 50
143.7081475463071
 51
67.44645192790902
  0
ARC
  5
1BC6
330
18
100
AcDbEntity
  8
1
  6
Continuous
100
AcDbCircle
 10
632.9716901872834
 20
253.6838547952104
 30
0.0
 40
41.74999999999999
100
AcDbArc
 50
146.5254718334495
 51
79.01942668728506
  0
ARC
  5
1BC7
330
18
100
AcDbEntity
  8
1
  6
Continuous
100
AcDbCircle
 10
632.9716901872834
 20
253.6838547952104
 30
0.0
 40
15.0
100
AcDbArc
 50
182.9516793633675
 51
44.81836435685043
  0
LINE
  5
1BE3
330
18
100
AcDbEntity
  8
1
  6
Continuous
100
AcDbLine
 10
75.7278901869242
 20
273.7291357952104
 30
0.0
 11
75.72789018692424
 21
207.0388897952105
 31
0.0
  0
LINE
  5
1BE4
330
18
100
AcDbEntity
  8
1
  6
Continuous
100
AcDbLine
 10
43.72789018692421
 20
284.7502537952104
 30
0.0
 11
43.72789018692422
 21
207.0388897952105
 31
0.0
  0
ARC
  5
1BE5
330
18
100
AcDbEntity
  8
1
  6
Continuous
100
AcDbCircle
 10
59.72789018692424
 20
278.6838477952105
 30
0.0
 40
75.0
100
AcDbArc
 50
258.9432499999994
 51
281.0567299999996
  0
ARC
  5
1BE6
330
18
100
AcDbEntity
  8
1
  6
Continuous
100
AcDbCircle
 10
45.72789018692422
 20
207.0388897952105
 30
0.0
 40
2.0
100
AcDbArc
 50
179.9999800000011
 51
258.9432899999999
  0
LINE
  5
1BE7
330
18
100
AcDbEntity
  8
1
  6
Continuous
100
AcDbLine
 10
37.72789018692424
 20
263.6838470970788
 30
0.0
 11
37.72789018692424
 21
243.6838477952104
 31
0.0
  0
LINE
  5
1BE8
330
18
100
AcDbEntity
  8
1
  6
Continuous
100
AcDbLine
 10
38.22789018692424
 20
266.6838476206776
 30
0.0
 11
38.22789018692424
 21
240.6838477952105
 31
0.0
  0
LINE
  5
1BE9
330
18
100
AcDbEntity
  8
1
  6
Continuous
100
AcDbLine
 10
36.72789018692424
 20
247.6838477952104
 30
0.0
 11
37.72789018692424
 21
247.6838477952104
 31
0.0
  0
ARC
  5
1BEA
330
18
100
AcDbEntity
  8
1
  6
Continuous
100
AcDbCircle
 10
39.22789018692424
 20
240.6838477952105
 30
0.0
 40
1.0
100
AcDbArc
 50
179.9999899999988
 51
264.7209699999983
  0
LINE
  5
1BEB
330
18
100
AcDbEntity
  8
1
  6
Continuous
100
AcDbLine
 10
43.72789018692422
 20
239.2637956952104
 30
0.0
 11
39.13589018692425
 21
239.6880892952105
 31
0.0
  0
ARC
  5
1BEC
330
18
100
AcDbEntity
  8
1
  6
Continuous
100
AcDbCircle
 10
38.72789018692424
 20
243.6838477952104
 30
0.0
 40
1.0
100
AcDbArc
 50
179.9999599999992
 51
239.999949999999
  0
LINE
  5
1BED
330
18
100
AcDbEntity
  8
1
  6
Continuous
100
AcDbLine
 10
36.72789018692424
 20
259.6838477952104
 30
0.0
 11
37.72789018692424
 21
259.6838477952104
 31
0.0
  0
ARC
  5
1BEE
330
18
100
AcDbEntity
  8
1
  6
Continuous
100
AcDbCircle
 10
39.22789018692424
 20
266.6838477952105
 30
0.0
 40
1.0
100
AcDbArc
 50
95.27902999999843
 51
180.0000100000009
  0
LINE
  5
1BEF
330
18
100
AcDbEntity
  8
1
  6
Continuous
100
AcDbLine
 10
43.72789018692422
 20
268.1038998952104
 30
0.0
 11
39.13589018692425
 21
267.6796062952104
 31
0.0
  0
ARC
  5
1BF0
330
18
100
AcDbEntity
  8
1
  6
Continuous
100
AcDbCircle
 10
38.72789018692424
 20
263.6838477952105
 30
0.0
 40
1.0
100
AcDbArc
 50
120.0000500000008
 51
180.0000400000006
  0
ARC
  5
1BF1
330
18
100
AcDbEntity
  8
1
  6
Continuous
100
AcDbCircle
 10
73.72789018692424
 20
207.0388897952105
 30
0.0
 40
2.0
100
AcDbArc
 50
281.0566899999985
 51
0.0
  0
LINE
  5
1BF2
330
18
100
AcDbEntity
  8
1
  6
Continuous
100
AcDbLine
 10
81.72789018692425
 20
263.6838477952105
 30
0.0
 11
81.72789018692425
 21
243.6838477952104
 31
0.0
  0
LINE
  5
1BF3
330
18
100
AcDbEntity
  8
1
  6
Continuous
100
AcDbLine
 10
81.22789018692424
 20
266.6838477952105
 30
0.0
 11
81.22789018692424
 21
240.6838477952105
 31
0.0
  0
ARC
  5
1BF4
330
18
100
AcDbEntity
  8
1
  6
Continuous
100
AcDbCircle
 10
80.22789018692424
 20
240.6838477952105
 30
0.0
 40
1.0
100
AcDbArc
 50
275.2790400000006
 51
0.0
  0
LINE
  5
1BF5
330
18
100
AcDbEntity
  8
1
  6
Continuous
100
AcDbLine
 10
75.72789418692423
 20
239.2637961952104
 30
0.0
 11
80.3198971869242
 21
239.6880896952104
 31
0.0
  0
LINE
  5
1BF6
330
18
100
AcDbEntity
  8
1
  6
Continuous
100
AcDbLine
 10
81.72789018692425
 20
247.6838477952104
 30
0.0
 11
82.72789018692424
 21
247.6838477952104
 31
0.0
  0
ARC
  5
1BF7
330
18
100
AcDbEntity
  8
1
  6
Continuous
100
AcDbCircle
 10
80.72789018692423
 20
243.6838477952104
 30
0.0
 40
1.0
100
AcDbArc
 50
299.9999999999997
 51
0.0
  0
LINE
  5
1BF8
330
18
100
AcDbEntity
  8
1
  6
Continuous
100
AcDbLine
 10
81.72789018692425
 20
259.6838477952104
 30
0.0
 11
82.72789018692424
 21
259.6838477952104
 31
0.0
  0
LINE
  5
1BF9
330
18
100
AcDbEntity
  8
1
  6
Continuous
100
AcDbLine
 10
75.72789418692423
 20
268.1038993952104
 30
0.0
 11
80.3198971869242
 21
267.6796058952104
 31
0.0
  0
ARC
  5
1BFA
330
18
100
AcDbEntity
  8
1
  6
Continuous
100
AcDbCircle
 10
80.22789018692424
 20
266.6838477952105
 30
0.0
 40
1.0
100
AcDbArc
 50
0.0
 51
84.72095999999931
  0
ARC
  5
1BFB
330
18
100
AcDbEntity
  8
1
  6
Continuous
100
AcDbCircle
 10
80.72789018692423
 20
263.6838477952105
 30
0.0
 40
1.0
100
AcDbArc
 50
0.0
 51
60.00000000000028
  0
LINE
  5
1BFF
330
18
100
AcDbEntity
  8
1
  6
Continuous
100
AcDbLine
 10
457.8904235204968
 20
300.3288057952104
 30
0.0
 11
457.8904235204968
 21
207.0388897952105
 31
0.0
  0
LINE
  5
1C00
330
18
100
AcDbEntity
  8
1
  6
Continuous
100
AcDbLine
 10
425.8904235204971
 20
300.3288057952104
 30
0.0
 11
425.890423520497
 21
207.0388897952105
 31
0.0
  0
ARC
  5
1C01
330
18
100
AcDbEntity
  8
1
  6
Continuous
100
AcDbCircle
 10
441.8904235204968
 20
278.6838477952105
 30
0.0
 40
75.0
100
AcDbArc
 50
258.9432700000002
 51
281.0567500000005
  0
ARC
  5
1C02
330
18
100
AcDbEntity
  8
1
  6
Continuous
100
AcDbCircle
 10
427.8904235204969
 20
207.0388897952105
 30
0.0
 40
2.0
100
AcDbArc
 50
180.0
 51
258.9433100000014
  0
ARC
  5
1C03
330
18
100
AcDbEntity
  8
1
  6
Continuous
100
AcDbCircle
 10
455.890423520497
 20
207.0388897952105
 30
0.0
 40
2.0
100
AcDbArc
 50
281.05671
 51
0.000019999998763
  0
LINE
  5
1C04
330
18
100
AcDbEntity
  8
1
  6
Continuous
100
AcDbLine
 10
420.3904235204968
 20
266.6838477952105
 30
0.0
 11
420.3904235204968
 21
240.6838477952105
 31
0.0
  0
LINE
  5
1C05
330
18
100
AcDbEntity
  8
1
  6
Continuous
100
AcDbLine
 10
419.8904235204969
 20
263.6838477952105
 30
0.0
 11
419.8904235204969
 21
243.6838477952104
 31
0.0
  0
LINE
  5
1C06
330
18
100
AcDbEntity
  8
1
  6
Continuous
100
AcDbLine
 10
463.390423520497
 20
266.6838476206776
 30
0.0
 11
463.390423520497
 21
240.6838477952105
 31
0.0
  0
LINE
  5
1C07
330
18
100
AcDbEntity
  8
1
  6
Continuous
100
AcDbLine
 10
463.890423520497
 20
263.6838470970788
 30
0.0
 11
463.890423520497
 21
243.6838477952104
 31
0.0
  0
ARC
  5
1C08
330
18
100
AcDbEntity
  8
1
  6
Continuous
100
AcDbCircle
 10
421.3904235204968
 20
240.6838477952105
 30
0.0
 40
1.0
100
AcDbArc
 50
180.0
 51
264.7209599999992
  0
ARC
  5
1C09
330
18
100
AcDbEntity
  8
1
  6
Continuous
100
AcDbCircle
 10
420.8904235204968
 20
243.6838477952104
 30
0.0
 40
1.0
100
AcDbArc
 50
180.0
 51
240.0000000000003
  0
LINE
  5
1C0A
330
18
100
AcDbEntity
  8
1
  6
Continuous
100
AcDbLine
 10
419.8904235204969
 20
247.6838477952104
 30
0.0
 11
418.8904235204971
 21
247.6838477952104
 31
0.0
  0
LINE
  5
1C0B
330
18
100
AcDbEntity
  8
1
  6
Continuous
100
AcDbLine
 10
425.8904195204968
 20
239.2637961952104
 30
0.0
 11
421.2984165204971
 21
239.6880896952104
 31
0.0
  0
LINE
  5
1C0C
330
18
100
AcDbEntity
  8
1
  6
Continuous
100
AcDbLine
 10
457.8904235204968
 20
239.2637956952104
 30
0.0
 11
462.4824235204969
 21
239.6880892952105
 31
0.0
  0
ARC
  5
1C0D
330
18
100
AcDbEntity
  8
1
  6
Continuous
100
AcDbCircle
 10
462.3904235204968
 20
240.6838477952105
 30
0.0
 40
1.0
100
AcDbArc
 50
275.2790300000016
 51
0.0000100000010134
  0
ARC
  5
1C0E
330
18
100
AcDbEntity
  8
1
  6
Continuous
100
AcDbCircle
 10
462.8904235204968
 20
243.6838477952104
 30
0.0
 40
1.0
100
AcDbArc
 50
300.0000500000008
 51
0.0000400000007758
  0
LINE
  5
1C0F
330
18
100
AcDbEntity
  8
1
  6
Continuous
100
AcDbLine
 10
464.890423520497
 20
247.6838477952104
 30
0.0
 11
463.890423520497
 21
247.6838477952104
 31
0.0
  0
ARC
  5
1C10
330
18
100
AcDbEntity
  8
1
  6
Continuous
100
AcDbCircle
 10
421.3904235204968
 20
266.6838477952105
 30
0.0
 40
1.0
100
AcDbArc
 50
95.27904000000068
 51
180.0
  0
LINE
  5
1C11
330
18
100
AcDbEntity
  8
1
  6
Continuous
100
AcDbLine
 10
419.8904235204969
 20
259.6838477952104
 30
0.0
 11
418.8904235204971
 21
259.6838477952104
 31
0.0
  0
ARC
  5
1C12
330
18
100
AcDbEntity
  8
1
  6
Continuous
100
AcDbCircle
 10
420.8904235204968
 20
263.6838477952105
 30
0.0
 40
1.0
100
AcDbArc
 50
119.9999999999997
 51
180.0
  0
LINE
  5
1C13
330
18
100
AcDbEntity
  8
1
  6
Continuous
100
AcDbLine
 10
425.8904195204968
 20
268.1038993952104
 30
0.0
 11
421.2984165204971
 21
267.6796058952104
 31
0.0
  0
LINE
  5
1C14
330
18
100
AcDbEntity
  8
1
  6
Continuous
100
AcDbLine
 10
464.890423520497
 20
259.6838477952104
 30
0.0
 11
463.890423520497
 21
259.6838477952104
 31
0.0
  0
LINE
  5
1C15
330
18
100
AcDbEntity
  8
1
  6
Continuous
100
AcDbLine
 10
457.8904235204968
 20
268.1038998952104
 30
0.0
 11
462.4824235204969
 21
267.6796062952104
 31
0.0
  0
ARC
  5
1C16
330
18
100
AcDbEntity
  8
1
  6
Continuous
100
AcDbCircle
 10
462.8904235204968
 20
263.6838477952105
 30
0.0
 40
1.0
100
AcDbArc
 50
359.9999599999991
 51
59.99994999999916
  0
ARC
  5
1C17
330
18
100
AcDbEntity
  8
1
  6
Continuous
100
AcDbCircle
 10
462.3904235204968
 20
266.6838477952105
 30
0.0
 40
1.0
100
AcDbArc
 50
359.999989999999
 51
84.72097000000159
  0
ARC
  5
1C18
330
18
100
AcDbEntity
  8
1
  6
Continuous
100
AcDbCircle
 10
441.8904235204968
 20
228.6838477952104
 30
0.0
 40
75.0
100
AcDbArc
 50
78.94324999999944
 51
101.0567299999996
  0
ARC
  5
1C19
330
18
100
AcDbEntity
  8
1
  6
Continuous
100
AcDbCircle
 10
427.8904235204969
 20
300.3288057952104
 30
0.0
 40
2.0
100
AcDbArc
 50
101.0566899999985
 51
180.0
  0
ARC
  5
1C1A
330
18
100
AcDbEntity
  8
1
  6
Continuous
100
AcDbCircle
 10
455.890423520497
 20
300.3288057952104
 30
0.0
 40
2.0
100
AcDbArc
 50
359.9999800000012
 51
78.94329
  0
ARC
  5
1C42
330
18
100
AcDbEntity
  8
1
  6
Continuous
100
AcDbCircle
 10
225.8091568537107
 20
84.30902897726531
 30
0.0
 40
75.0
100
AcDbArc
 50
348.9432499999994
 51
11.05672999999977
  0
ARC
  5
1C43
330
18
100
AcDbEntity
  8
1
  6
Continuous
100
AcDbCircle
 10
275.8091568537106
 20
84.30902897726525
 30
0.0
 40
75.0
100
AcDbArc
 50
168.9432700000001
 51
191.0567500000005
  0
LINE
  5
1C44
330
18
100
AcDbEntity
  8
1
  6
Continuous
100
AcDbLine
 10
297.4541148537106
 20
68.30902897726526
 30
0.0
 11
204.1641988537106
 21
68.30902897726526
 31
0.0
  0
ARC
  5
1C45
330
18
100
AcDbEntity
  8
1
  6
Continuous
100
AcDbCircle
 10
204.1641988537106
 20
70.30902897726531
 30
0.0
 40
2.0
100
AcDbArc
 50
191.0567099999999
 51
270.0000199999986
  0
ARC
  5
1C46
330
18
100
AcDbEntity
  8
1
  6
Continuous
100
AcDbCircle
 10
263.8091568537106
 20
63.80902897726524
 30
0.0
 40
1.0
100
AcDbArc
 50
269.999989999999
 51
354.7209700000014
  0
LINE
  5
1C47
330
18
100
AcDbEntity
  8
1
  6
Continuous
100
AcDbLine
 10
260.8091561555789
 20
62.30902897726525
 30
0.0
 11
240.8091568537106
 21
62.30902897726529
 31
0.0
  0
LINE
  5
1C48
330
18
100
AcDbEntity
  8
1
  6
Continuous
100
AcDbLine
 10
263.8091566791777
 20
62.80902897726525
 30
0.0
 11
237.8091568537105
 21
62.80902897726528
 31
0.0
  0
ARC
  5
1C49
330
18
100
AcDbEntity
  8
1
  6
Continuous
100
AcDbCircle
 10
240.8091568537106
 20
63.30902897726528
 30
0.0
 40
1.0
100
AcDbArc
 50
210.0000500000008
 51
270.0000400000007
  0
ARC
  5
1C4A
330
18
100
AcDbEntity
  8
1
  6
Continuous
100
AcDbCircle
 10
237.8091568537106
 20
63.80902897726532
 30
0.0
 40
1.0
100
AcDbArc
 50
185.2790300000016
 51
270.000010000001
  0
LINE
  5
1C4B
330
18
100
AcDbEntity
  8
1
  6
Continuous
100
AcDbLine
 10
236.3891047537105
 20
68.30902897726526
 30
0.0
 11
236.8133983537105
 21
63.71702897726527
 31
0.0
  0
LINE
  5
1C4C
330
18
100
AcDbEntity
  8
1
  6
Continuous
100
AcDbLine
 10
244.8091568537106
 20
61.30902897726528
 30
0.0
 11
244.8091568537106
 21
62.30902897726529
 31
0.0
  0
ARC
  5
1C4D
330
18
100
AcDbEntity
  8
1
  6
Continuous
100
AcDbCircle
 10
260.8091568537106
 20
63.30902897726528
 30
0.0
 40
1.0
100
AcDbArc
 50
269.9999599999991
 51
329.9999499999991
  0
LINE
  5
1C4E
330
18
100
AcDbEntity
  8
1
  6
Continuous
100
AcDbLine
 10
256.8091568537105
 20
61.30902897726524
 30
0.0
 11
256.8091568537105
 21
62.30902897726525
 31
0.0
  0
LINE
  5
1C4F
330
18
100
AcDbEntity
  8
1
  6
Continuous
100
AcDbLine
 10
265.2292089537106
 20
68.30902897726526
 30
0.0
 11
264.8049153537106
 21
63.71702897726527
 31
0.0
  0
ARC
  5
1C50
330
18
100
AcDbEntity
  8
1
  6
Continuous
100
AcDbCircle
 10
297.4541148537106
 20
70.30902897726526
 30
0.0
 40
2.0
100
AcDbArc
 50
269.9999800000012
 51
348.94329
  0
LINE
  5
1C51
330
18
100
AcDbEntity
  8
1
  6
Continuous
100
AcDbLine
 10
297.4541148537106
 20
100.309028977265
 30
0.0
 11
204.1641988537106
 21
100.3090289772651
 31
0.0
  0
ARC
  5
1C52
330
18
100
AcDbEntity
  8
1
  6
Continuous
100
AcDbCircle
 10
204.1641988537106
 20
98.30902897726531
 30
0.0
 40
2.0
100
AcDbArc
 50
89.99999999999998
 51
168.9433100000014
  0
ARC
  5
1C53
330
18
100
AcDbEntity
  8
1
  6
Continuous
100
AcDbCircle
 10
263.8091568537106
 20
104.8090289772652
 30
0.0
 40
1.0
100
AcDbArc
 50
5.279040000000684
 51
89.99999999999998
  0
LINE
  5
1C54
330
18
100
AcDbEntity
  8
1
  6
Continuous
100
AcDbLine
 10
236.3891052537105
 20
100.3090329772652
 30
0.0
 11
236.8133987537106
 21
104.9010359772652
 31
0.0
  0
LINE
  5
1C55
330
18
100
AcDbEntity
  8
1
  6
Continuous
100
AcDbLine
 10
260.8091568537105
 20
106.3090289772651
 30
0.0
 11
240.8091568537106
 21
106.3090289772651
 31
0.0
  0
LINE
  5
1C56
330
18
100
AcDbEntity
  8
1
  6
Continuous
100
AcDbLine
 10
263.8091568537106
 20
105.8090289772652
 30
0.0
 11
237.8091568537105
 21
105.8090289772652
 31
0.0
  0
ARC
  5
1C57
330
18
100
AcDbEntity
  8
1
  6
Continuous
100
AcDbCircle
 10
240.8091568537106
 20
105.3090289772651
 30
0.0
 40
1.0
100
AcDbArc
 50
89.99999999999998
 51
150.0000000000003
  0
ARC
  5
1C58
330
18
100
AcDbEntity
  8
1
  6
Continuous
100
AcDbCircle
 10
237.8091568537106
 20
104.8090289772652
 30
0.0
 40
1.0
100
AcDbArc
 50
89.99999999999998
 51
174.720959999999
  0
LINE
  5
1C59
330
18
100
AcDbEntity
  8
1
  6
Continuous
100
AcDbLine
 10
244.8091568537106
 20
106.3090289772651
 30
0.0
 11
244.8091568537106
 21
107.3090289772651
 31
0.0
  0
ARC
  5
1C5A
330
18
100
AcDbEntity
  8
1
  6
Continuous
100
AcDbCircle
 10
260.8091568537106
 20
105.3090289772651
 30
0.0
 40
1.0
100
AcDbArc
 50
29.99999999999971
 51
89.99999999999998
  0
LINE
  5
1C5B
330
18
100
AcDbEntity
  8
1
  6
Continuous
100
AcDbLine
 10
256.8091568537105
 20
106.3090289772651
 30
0.0
 11
256.8091568537105
 21
107.3090289772651
 31
0.0
  0
LINE
  5
1C5C
330
18
100
AcDbEntity
  8
1
  6
Continuous
100
AcDbLine
 10
265.2292084537106
 20
100.3090329772652
 30
0.0
 11
264.8049149537105
 21
104.9010359772652
 31
0.0
  0
ARC
  5
1C5D
330
18
100
AcDbEntity
  8
1
  6
Continuous
100
AcDbCircle
 10
297.4541148537106
 20
98.30902897726526
 30
0.0
 40
2.0
100
AcDbArc
 50
11.05668999999851
 51
89.99999999999998
  0
ENDSEC
  0
SECTION
  2
OBJECTS
  0
DICTIONARY
  5
C
330
0
100
AcDbDictionary
281
     1
  3
ACAD_CIP_PREVIOUS_PRODUCT_INFO
350
1CE6
  3
ACAD_COLOR
350
1CC9
  3
ACAD_DETAILVIEWSTYLE
350
1CE2
  3
ACAD_GROUP
350
D
  3
ACAD_LAYOUT
350
5D
  3
ACAD_MATERIAL
350
1C97
  3
ACAD_MLEADERSTYLE
350
1CDE
  3
ACAD_MLINESTYLE
350
1B
  3
ACAD_PLOTSETTINGS
350
5E
  3
ACAD_PLOTSTYLENAME
350
1C95
  3
ACAD_SCALELIST
350
1CCC
  3
ACAD_SECTIONVIEWSTYLE
350
1CE0
  3
ACAD_TABLESTYLE
350
1CCA
  3
ACAD_VISUALSTYLE
350
1CB0
  3
ACDB_RECOMPOSE_DATA
350
1D04
  3
AcDbVariableDictionary
350
1CF7
  3
CONTENTDICTIONARY
350
3D
  3
DWGPROPS
350
1D05
  0
DICTIONARY
  5
1CE7
330
E
100
AcDbDictionary
280
     1
281
     1
  3
ADSK_XREC_LAYER_RECONCILED
360
1CE8
  0
DICTIONARY
  5
1CE9
330
65
100
AcDbDictionary
280
     1
281
     1
  3
ADSK_XREC_LAYER_RECONCILED
360
1CEA
  0
DICTIONARY
  5
1CEB
330
66
100
AcDbDictionary
280
     1
281
     1
  3
ADSK_XREC_LAYER_RECONCILED
360
1CEC
  0
DICTIONARY
  5
1CED
330
67
100
AcDbDictionary
280
     1
281
     1
  3
ADSK_XREC_LAYER_RECONCILED
360
1CEE
  0
DICTIONARY
  5
1CEF
330
68
100
AcDbDictionary
280
     1
281
     1
  3
ADSK_XREC_LAYER_RECONCILED
360
1CF0
  0
DICTIONARY
  5
1CF1
330
69
100
AcDbDictionary
280
     1
281
     1
  3
ADSK_XREC_LAYER_RECONCILED
360
1CF2
  0
DICTIONARY
  5
1CF3
330
6A
100
AcDbDictionary
280
     1
281
     1
  3
ADSK_XREC_LAYER_RECONCILED
360
1CF4
  0
DICTIONARY
  5
1CF5
330
6B
100
AcDbDictionary
280
     1
281
     1
  3
ADSK_XREC_LAYER_RECONCILED
360
1CF6
  0
DICTIONARY
  5
1C79
330
18
100
AcDbDictionary
281
     1
  3
ACAD_LAYOUTSELFREF
350
1C91
  0
DICTIONARY
  5
1C77
330
15
100
AcDbDictionary
281
     1
  3
ACAD_LAYOUTSELFREF
350
1C90
  0
XRECORD
  5
1CE6
102
{ACAD_REACTORS
330
C
102
}
330
C
100
AcDbXrecord
280
     1
300
ACDLT
300
2014
300
ACDLT_F_S
  0
DICTIONARY
  5
1CC9
102
{ACAD_REACTORS
330
C
102
}
330
C
100
AcDbDictionary
281
     1
  0
DICTIONARY
  5
1CE2
102
{ACAD_REACTORS
330
C
102
}
330
C
100
AcDbDictionary
281
     1
  3
Imperial24
350
1CE3
  0
DICTIONARY
  5
D
102
{ACAD_REACTORS
330
C
102
}
330
C
100
AcDbDictionary
281
     1
  0
DICTIONARY
  5
5D
102
{ACAD_REACTORS
330
C
102
}
330
C
100
AcDbDictionary
281
     1
  3
Model
350
1CE4
  3
レイアウト1
350
1CE5
  0
DICTIONARY
  5
1C97
102
{ACAD_REACTORS
330
C
102
}
330
C
100
AcDbDictionary
281
     1
  3
ByBlock
350
1CA0
  3
ByLayer
350
1C98
  3
Global
350
1CA8
  0
DICTIONARY
  5
1CDE
102
{ACAD_REACTORS
330
C
102
}
330
C
100
AcDbDictionary
281
     1
  3
Standard
350
1CDF
  0
DICTIONARY
  5
1B
102
{ACAD_REACTORS
330
C
102
}
330
C
100
AcDbDictionary
281
     1
  3
STANDARD
350
1C
  0
DICTIONARY
  5
5E
102
{ACAD_REACTORS
330
C
102
}
330
C
100
AcDbDictionary
281
     1
  0
ACDBDICTIONARYWDFLT
  5
1C95
102
{ACAD_REACTORS
330
C
102
}
330
C
100
AcDbDictionary
281
     1
  3
Normal
350
1C96
100
AcDbDictionaryWithDefault
340
1C96
  0
DICTIONARY
  5
1CCC
102
{ACAD_REACTORS
330
C
102
}
330
C
100
AcDbDictionary
281
     1
  3
A0
350
1CCD
  3
A1
350
1CCE
  3
A2
350
1CCF
  3
A3
350
1CD0
  3
A4
350
1CD1
  3
A5
350
1CD2
  3
A6
350
1CD3
  3
A7
350
1CD4
  3
A8
350
1CD5
  3
A9
350
1CD6
  3
B0
350
1CD7
  3
B1
350
1CD8
  3
B2
350
1CD9
  3
B3
350
1CDA
  3
B4
350
1CDB
  3
B5
350
1CDC
  3
B6
350
1CDD
  0
DICTIONARY
  5
1CE0
102
{ACAD_REACTORS
330
C
102
}
330
C
100
AcDbDictionary
281
     1
  3
Imperial24
350
1CE1
  0
DICTIONARY
  5
1CCA
102
{ACAD_REACTORS
330
C
102
}
330
C
100
AcDbDictionary
281
     1
  3
Standard
350
1CCB
  0
DICTIONARY
  5
1CB0
102
{ACAD_REACTORS
330
C
102
}
330
C
100
AcDbDictionary
281
     1
  3
2dWireframe
350
1CB6
  3
Basic
350
1CB5
  3
Brighten
350
1CBC
  3
ColorChange
350
1CC0
  3
Conceptual
350
1CB9
  3
Dim
350
1CBB
  3
EdgeColorOff
350
1CC8
  3
Facepattern
350
1CBF
  3
Flat
350
1CB1
  3
FlatWithEdges
350
1CB2
  3
Gouraud
350
1CB3
  3
GouraudWithEdges
350
1CB4
  3
Hidden
350
1CB8
  3
JitterOff
350
1CC6
  3
Linepattern
350
1CBE
  3
OverhangOff
350
1CC7
  3
Realistic
350
1CBA
  3
Shaded
350
1CC5
  3
Shaded with edges
350
1CC4
  3
Shades of Gray
350
1CC1
  3
Sketchy
350
1CC2
  3
Thicken
350
1CBD
  3
Wireframe
350
1CB7
  3
X-Ray
350
1CC3
  0
XRECORD
  5
1D04
102
{ACAD_REACTORS
330
C
102
}
330
C
100
AcDbXrecord
280
     1
 90
        1
330
1CCB
  0
DICTIONARY
  5
1CF7
102
{ACAD_REACTORS
330
C
102
}
330
C
100
AcDbDictionary
281
     1
  3
CANNOSCALE
350
1CFC
  3
CMLEADERSTYLE
350
1CF9
  3
CTABLESTYLE
350
1CF8
  3
CVIEWDETAILSTYLE
350
1CFA
  3
CVIEWSECTIONSTYLE
350
1CFB
  3
DIMASSOC
350
1CFF
  3
INDEXCTL
350
1CFE
  3
SORTENTS
350
1CFD
  3
XCLIPFRAME
350
1D00
  0
DICTIONARY
  5
3D
102
{ACAD_REACTORS
330
C
102
}
330
C
100
AcDbDictionary
281
     1
  0
XRECORD
  5
1D05
102
{ACAD_REACTORS
330
C
102
}
330
C
100
AcDbXrecord
280
     1
  1
DWGPROPS COOKIE
  2

  3

  4

  6

  7

  8
Yoshitsune
  9

300
=
301
=
302
=
303
=
304
=
305
=
306
=
307
=
308
=
309
=
 40
0.4196779398148149
 41
2453281.596403889
 42
2457192.688995394
  1

 90
        0
  0
XRECORD
  5
1CE8
102
{ACAD_REACTORS
330
1CE7
102
}
330
1CE7
100
AcDbXrecord
280
     1
290
     1
  0
XRECORD
  5
1CEA
102
{ACAD_REACTORS
330
1CE9
102
}
330
1CE9
100
AcDbXrecord
280
     1
290
     1
  0
XRECORD
  5
1CEC
102
{ACAD_REACTORS
330
1CEB
102
}
330
1CEB
100
AcDbXrecord
280
     1
290
     1
  0
XRECORD
  5
1CEE
102
{ACAD_REACTORS
330
1CED
102
}
330
1CED
100
AcDbXrecord
280
     1
290
     1
  0
XRECORD
  5
1CF0
102
{ACAD_REACTORS
330
1CEF
102
}
330
1CEF
100
AcDbXrecord
280
     1
290
     1
  0
XRECORD
  5
1CF2
102
{ACAD_REACTORS
330
1CF1
102
}
330
1CF1
100
AcDbXrecord
280
     1
290
     1
  0
XRECORD
  5
1CF4
102
{ACAD_REACTORS
330
1CF3
102
}
330
1CF3
100
AcDbXrecord
280
     1
290
     1
  0
XRECORD
  5
1CF6
102
{ACAD_REACTORS
330
1CF5
102
}
330
1CF5
100
AcDbXrecord
280
     1
290
     1
  0
XRECORD
  5
1C91
102
{ACAD_REACTORS
330
1C79
102
}
330
1C79
100
AcDbXrecord
280
     1
340
18
  0
XRECORD
  5
1C90
102
{ACAD_REACTORS
330
1C77
102
}
330
1C77
100
AcDbXrecord
280
     1
340
15
  0
ACDBDETAILVIEWSTYLE
  5
1CE3
102
{ACAD_XDICTIONARY
360
1D3D
102
}
102
{ACAD_REACTORS
330
1CE2
102
}
330
1CE2
100
AcDbModelDocViewStyle
 70
     0
  3
Imperial24
290
     0
100
AcDbDetailViewStyle
 70
     0
 71
     0
 90
        3
 71
     1
340
F
 40
0.24
340
0
 40
0.24
300

 40
0.36
280
     3
 71
     2
340
14
 90
       25
 71
     3
340
F
 40
0.24
 90
        1
 40
0.75
 90
        1
300
%<\AcVar ViewType \f "%tc1">% %<\AcVar ViewDetailId>%\PSCALE %<\AcVar ViewScale \f "%sn">%
 71
     4
340
14
 90
       25
340
14
 90
       25
280
     0
  0
LAYOUT
  5
1CE4
102
{ACAD_XDICTIONARY
360
1D3F
102
}
102
{ACAD_REACTORS
330
5D
102
}
330
5D
100
AcDbPlotSettings
  1

  2
Canon LBP9100C
  4

  6

 40
0.0
 41
0.0
 42
0.0
 43
0.0
 44
0.0
 45
0.0
 46
0.0
 47
0.0
 48
0.0
 49
0.0
140
0.0
141
0.0
142
1.0
143
1.0
 70
  1712
 72
     0
 73
     0
 74
     0
  7

 75
     0
147
1.0
148
0.0
149
0.0
100
AcDbLayout
  1
Model
 70
     1
 71
     0
 10
0.0
 20
0.0
 11
12.0
 21
9.0
 12
0.0
 22
0.0
 32
0.0
 14
0.0
 24
0.0
 34
0.0
 15
0.0
 25
0.0
 35
0.0
146
0.0
 13
0.0
 23
0.0
 33
0.0
 16
1.0
 26
0.0
 36
0.0
 17
0.0
 27
1.0
 37
0.0
 76
     0
330
18
331
1C8F
  0
LAYOUT
  5
1CE5
102
{ACAD_XDICTIONARY
360
1D41
102
}
102
{ACAD_REACTORS
330
5D
102
}
330
5D
100
AcDbPlotSettings
  1

  2
Canon LBP9100C
  4

  6

 40
0.0
 41
0.0
 42
0.0
 43
0.0
 44
0.0
 45
0.0
 46
0.0
 47
0.0
 48
0.0
 49
0.0
140
0.0
141
0.0
142
1.0
143
1.0
 70
   688
 72
     0
 73
     0
 74
     5
  7

 75
    16
147
1.0
148
0.0
149
0.0
100
AcDbLayout
  1
レイアウト1
 70
     1
 71
     1
 10
0.0
 20
0.0
 11
420.0
 21
297.0
 12
0.0
 22
0.0
 32
0.0
 14
1.000000000000000E+20
 24
1.000000000000000E+20
 34
1.000000000000000E+20
 15
-1.000000000000000E+20
 25
-1.000000000000000E+20
 35
-1.000000000000000E+20
146
0.0
 13
0.0
 23
0.0
 33
0.0
 16
1.0
 26
0.0
 36
0.0
 17
0.0
 27
1.0
 37
0.0
 76
     0
330
15
  0
MATERIAL
  5
1CA0
102
{ACAD_XDICTIONARY
360
1CA1
102
}
102
{ACAD_REACTORS
330
1C97
102
}
330
1C97
100
AcDbMaterial
  1
ByBlock
 72
     0
 43
0.0208333333333333
 43
0.0
 43
0.0
 43
0.0
 43
0.0
 43
0.0208333333333333
 43
0.0
 43
0.0
 43
0.0
 43
0.0
 43
1.0
 43
0.0
 43
0.0
 43
0.0
 43
0.0
 43
1.0
 77
     0
 47
0.0208333333333333
 47
0.0
 47
0.0
 47
0.0
 47
0.0
 47
0.0208333333333333
 47
0.0
 47
0.0
 47
0.0
 47
0.0
 47
1.0
 47
0.0
 47
0.0
 47
0.0
 47
0.0
 47
1.0
171
     0
 49
0.0208333333333333
 49
0.0
 49
0.0
 49
0.0
 49
0.0
 49
0.0208333333333333
 49
0.0
 49
0.0
 49
0.0
 49
0.0
 49
1.0
 49
0.0
 49
0.0
 49
0.0
 49
0.0
 49
1.0
175
     0
142
0.0208333333333333
142
0.0
142
0.0
142
0.0
142
0.0
142
0.0208333333333333
142
0.0
142
0.0
142
0.0
142
0.0
142
1.0
142
0.0
142
0.0
142
0.0
142
0.0
142
1.0
179
     0
144
0.0208333333333333
144
0.0
144
0.0
144
0.0
144
0.0
144
0.0208333333333333
144
0.0
144
0.0
144
0.0
144
0.0
144
1.0
144
0.0
144
0.0
144
0.0
144
0.0
144
1.0
147
0.0208333333333333
147
0.0
147
0.0
147
0.0
147
0.0
147
0.0208333333333333
147
0.0
147
0.0
147
0.0
147
0.0
147
1.0
147
0.0
147
0.0
147
0.0
147
0.0
147
1.0
  0
MATERIAL
  5
1C98
102
{ACAD_XDICTIONARY
360
1C99
102
}
102
{ACAD_REACTORS
330
1C97
102
}
330
1C97
100
AcDbMaterial
  1
ByLayer
 72
     0
 43
0.0208333333333333
 43
0.0
 43
0.0
 43
0.0
 43
0.0
 43
0.0208333333333333
 43
0.0
 43
0.0
 43
0.0
 43
0.0
 43
1.0
 43
0.0
 43
0.0
 43
0.0
 43
0.0
 43
1.0
 77
     0
 47
0.0208333333333333
 47
0.0
 47
0.0
 47
0.0
 47
0.0
 47
0.0208333333333333
 47
0.0
 47
0.0
 47
0.0
 47
0.0
 47
1.0
 47
0.0
 47
0.0
 47
0.0
 47
0.0
 47
1.0
171
     0
 49
0.0208333333333333
 49
0.0
 49
0.0
 49
0.0
 49
0.0
 49
0.0208333333333333
 49
0.0
 49
0.0
 49
0.0
 49
0.0
 49
1.0
 49
0.0
 49
0.0
 49
0.0
 49
0.0
 49
1.0
175
     0
142
0.0208333333333333
142
0.0
142
0.0
142
0.0
142
0.0
142
0.0208333333333333
142
0.0
142
0.0
142
0.0
142
0.0
142
1.0
142
0.0
142
0.0
142
0.0
142
0.0
142
1.0
179
     0
144
0.0208333333333333
144
0.0
144
0.0
144
0.0
144
0.0
144
0.0208333333333333
144
0.0
144
0.0
144
0.0
144
0.0
144
1.0
144
0.0
144
0.0
144
0.0
144
0.0
144
1.0
147
0.0208333333333333
147
0.0
147
0.0
147
0.0
147
0.0
147
0.0208333333333333
147
0.0
147
0.0
147
0.0
147
0.0
147
1.0
147
0.0
147
0.0
147
0.0
147
0.0
147
1.0
  0
MATERIAL
  5
1CA8
102
{ACAD_XDICTIONARY
360
1CA9
102
}
102
{ACAD_REACTORS
330
1C97
102
}
330
1C97
100
AcDbMaterial
  1
Global
 72
     0
 43
0.0208333333333333
 43
0.0
 43
0.0
 43
0.0
 43
0.0
 43
0.0208333333333333
 43
0.0
 43
0.0
 43
0.0
 43
0.0
 43
1.0
 43
0.0
 43
0.0
 43
0.0
 43
0.0
 43
1.0
 77
     0
 47
0.0208333333333333
 47
0.0
 47
0.0
 47
0.0
 47
0.0
 47
0.0208333333333333
 47
0.0
 47
0.0
 47
0.0
 47
0.0
 47
1.0
 47
0.0
 47
0.0
 47
0.0
 47
0.0
 47
1.0
171
     0
 49
0.0208333333333333
 49
0.0
 49
0.0
 49
0.0
 49
0.0
 49
0.0208333333333333
 49
0.0
 49
0.0
 49
0.0
 49
0.0
 49
1.0
 49
0.0
 49
0.0
 49
0.0
 49
0.0
 49
1.0
175
     0
142
0.0208333333333333
142
0.0
142
0.0
142
0.0
142
0.0
142
0.0208333333333333
142
0.0
142
0.0
142
0.0
142
0.0
142
1.0
142
0.0
142
0.0
142
0.0
142
0.0
142
1.0
179
     0
144
0.0208333333333333
144
0.0
144
0.0
144
0.0
144
0.0
144
0.0208333333333333
144
0.0
144
0.0
144
0.0
144
0.0
144
1.0
144
0.0
144
0.0
144
0.0
144
0.0
144
1.0
147
0.0208333333333333
147
0.0
147
0.0
147
0.0
147
0.0
147
0.0208333333333333
147
0.0
147
0.0
147
0.0
147
0.0
147
1.0
147
0.0
147
0.0
147
0.0
147
0.0
147
1.0
  0
MLEADERSTYLE
  5
1CDF
102
{ACAD_REACTORS
330
1CDE
102
}
330
1CDE
100
AcDbMLeaderStyle
170
     2
171
     1
172
     0
 90
        2
 40
0.0
 41
0.0
173
     1
 91
-1056964608
340
12
 92
       -2
290
     1
 42
0.09
291
     1
 43
0.36
  3
Standard
 44
0.18
300

342
F
174
     1
178
     6
175
     1
176
     0
 93
-1056964608
 45
0.18
292
     0
297
     0
 46
0.18
 94
-1056964608
 47
1.0
 49
1.0
140
1.0
293
     1
141
0.0
294
     1
177
     0
142
1.0
295
     0
296
     0
143
0.125
1001
ACAD_MLEADERVER
1070
     2
  0
MLINESTYLE
  5
1C
102
{ACAD_REACTORS
330
1B
102
}
330
1B
100
AcDbMlineStyle
  2
STANDARD
 70
     0
  3

 62
   256
 51
90.0
 52
90.0
 71
     2
 49
0.5
 62
   256
  6
BYLAYER
 49
-0.5
 62
   256
  6
BYLAYER
  0
ACDBPLACEHOLDER
  5
1C96
102
{ACAD_REACTORS
330
1C95
102
}
330
1C95
  0
SCALE
  5
1CCD
102
{ACAD_REACTORS
330
1CCC
102
}
330
1CCC
100
AcDbScale
 70
     0
300
1:1
140
1.0
141
1.0
290
     1
  0
SCALE
  5
1CCE
102
{ACAD_REACTORS
330
1CCC
102
}
330
1CCC
100
AcDbScale
 70
     0
300
1/128" = 1'-0"
140
0.0078125
141
12.0
290
     0
  0
SCALE
  5
1CCF
102
{ACAD_REACTORS
330
1CCC
102
}
330
1CCC
100
AcDbScale
 70
     0
300
1/64" = 1'-0"
140
0.015625
141
12.0
290
     0
  0
SCALE
  5
1CD0
102
{ACAD_REACTORS
330
1CCC
102
}
330
1CCC
100
AcDbScale
 70
     0
300
1/32" = 1'-0"
140
0.03125
141
12.0
290
     0
  0
SCALE
  5
1CD1
102
{ACAD_REACTORS
330
1CCC
102
}
330
1CCC
100
AcDbScale
 70
     0
300
1/16" = 1'-0"
140
0.0625
141
12.0
290
     0
  0
SCALE
  5
1CD2
102
{ACAD_REACTORS
330
1CCC
102
}
330
1CCC
100
AcDbScale
 70
     0
300
3/32" = 1'-0"
140
0.09375
141
12.0
290
     0
  0
SCALE
  5
1CD3
102
{ACAD_REACTORS
330
1CCC
102
}
330
1CCC
100
AcDbScale
 70
     0
300
1/8" = 1'-0"
140
0.125
141
12.0
290
     0
  0
SCALE
  5
1CD4
102
{ACAD_REACTORS
330
1CCC
102
}
330
1CCC
100
AcDbScale
 70
     0
300
3/16" = 1'-0"
140
0.1875
141
12.0
290
     0
  0
SCALE
  5
1CD5
102
{ACAD_REACTORS
330
1CCC
102
}
330
1CCC
100
AcDbScale
 70
     0
300
1/4" = 1'-0"
140
0.25
141
12.0
290
     0
  0
SCALE
  5
1CD6
102
{ACAD_REACTORS
330
1CCC
102
}
330
1CCC
100
AcDbScale
 70
     0
300
3/8" = 1'-0"
140
0.375
141
12.0
290
     0
  0
SCALE
  5
1CD7
102
{ACAD_REACTORS
330
1CCC
102
}
330
1CCC
100
AcDbScale
 70
     0
300
1/2" = 1'-0"
140
0.5
141
12.0
290
     0
  0
SCALE
  5
1CD8
102
{ACAD_REACTORS
330
1CCC
102
}
330
1CCC
100
AcDbScale
 70
     0
300
3/4" = 1'-0"
140
0.75
141
12.0
290
     0
  0
SCALE
  5
1CD9
102
{ACAD_REACTORS
330
1CCC
102
}
330
1CCC
100
AcDbScale
 70
     0
300
1" = 1'-0"
140
1.0
141
12.0
290
     0
  0
SCALE
  5
1CDA
102
{ACAD_REACTORS
330
1CCC
102
}
330
1CCC
100
AcDbScale
 70
     0
300
1-1/2" = 1'-0"
140
1.5
141
12.0
290
     0
  0
SCALE
  5
1CDB
102
{ACAD_REACTORS
330
1CCC
102
}
330
1CCC
100
AcDbScale
 70
     0
300
3" = 1'-0"
140
3.0
141
12.0
290
     0
  0
SCALE
  5
1CDC
102
{ACAD_REACTORS
330
1CCC
102
}
330
1CCC
100
AcDbScale
 70
     0
300
6" = 1'-0"
140
6.0
141
12.0
290
     0
  0
SCALE
  5
1CDD
102
{ACAD_REACTORS
330
1CCC
102
}
330
1CCC
100
AcDbScale
 70
     0
300
1'-0" = 1'-0"
140
12.0
141
12.0
290
     0
  0
ACDBSECTIONVIEWSTYLE
  5
1CE1
102
{ACAD_XDICTIONARY
360
1D3B
102
}
102
{ACAD_REACTORS
330
1CE0
102
}
330
1CE0
100
AcDbModelDocViewStyle
 70
     0
  3
Imperial24
290
     0
100
AcDbSectionViewStyle
 70
     0
 71
     0
 90
       78
 71
     1
340
F
 40
0.24
340
0
340
0
 40
0.24
300
I, O, Q, S, X, Z
 40
0.48
 90
        3
 40
0.18
 90
        1
 71
     2
340
14
 90
       25
340
14
 90
       50
 40
0.24
 40
0.0
 40
0.24
 71
     3
340
F
 40
0.24
 90
        1
 40
0.75
 90
        1
300
%<\AcVar ViewType \f "%tc1">% %<\AcVar ViewSectionStartId>%-%<\AcVar ViewSectionEndId>%\PSCALE %<\AcVar ViewScale \f "%sn">%
 71
     4
300
ANSI31
 40
1.0
 90
        0
290
     0
290
     0
 90
        6
 40
0.0
 40
1.570796326794896
 40
0.2617993877991494
 40
1.308996938995747
 40
-0.2617993877991494
 40
1.832595714594046
  0
TABLESTYLE
  5
1CCB
102
{ACAD_XDICTIONARY
360
1D02
102
}
102
{ACAD_REACTORS
330
1CCA
102
}
330
1CCA
100
AcDbTableStyle
  3
Standard
 70
     0
 71
     0
 40
0.06
 41
0.06
280
     0
281
     0
  7
STANDARD
140
0.18
170
     2
 62
     0
 63
     7
283
     0
274
    -2
284
     1
 64
     0
275
    -2
285
     1
 65
     0
276
    -2
286
     1
 66
     0
277
    -2
287
     1
 67
     0
278
    -2
288
     1
 68
     0
279
    -2
289
     1
 69
     0
  7
STANDARD
140
0.25
170
     5
 62
     0
 63
     7
283
     0
274
    -2
284
     1
 64
     0
275
    -2
285
     1
 65
     0
276
    -2
286
     1
 66
     0
277
    -2
287
     1
 67
     0
278
    -2
288
     1
 68
     0
279
    -2
289
     1
 69
     0
  7
STANDARD
140
0.18
170
     5
 62
     0
 63
     7
283
     0
274
    -2
284
     1
 64
     0
275
    -2
285
     1
 65
     0
276
    -2
286
     1
 66
     0
277
    -2
287
     1
 67
     0
278
    -2
288
     1
 68
     0
279
    -2
289
     1
 69
     0
  0
VISUALSTYLE
  5
1CB6
102
{ACAD_XDICTIONARY
360
1D13
102
}
102
{ACAD_REACTORS
330
1CB0
102
}
330
1CB0
100
AcDbVisualStyle
  2
2dWireframe
 70
     4
 71
     0
 72
     2
 73
     0
 90
        0
 40
-0.6
 41
-30.0
 62
     5
 63
     7
 74
     1
 91
        4
 64
     7
 65
   257
 75
     1
175
     1
 42
1.0
 92
        0
 66
   257
 43
1.0
 76
     1
 77
     6
 78
     2
 67
     7
 79
     5
170
     0
171
     0
290
     0
174
     0
 93
        1
 44
0.0
173
     0
291
     0
 45
0.0
1001
ACAD
1000
AcDbSavedByObjectVersion
1070
     0
  0
VISUALSTYLE
  5
1CB5
102
{ACAD_XDICTIONARY
360
1D11
102
}
102
{ACAD_REACTORS
330
1CB0
102
}
330
1CB0
100
AcDbVisualStyle
  2
Basic
 70
     7
 71
     1
 72
     0
 73
     1
 90
        0
 40
-0.6
 41
-30.0
 62
     5
 63
     7
 74
     0
 91
        4
 64
     7
 65
   257
 75
     1
175
     1
 42
1.0
 92
        8
 66
     7
 43
1.0
 76
     1
 77
     6
 78
     2
 67
     7
 79
     5
170
     0
171
     0
290
     0
174
     0
 93
        1
 44
0.0
173
     0
291
     1
 45
0.0
1001
ACAD
1000
AcDbSavedByObjectVersion
1070
     0
  0
VISUALSTYLE
  5
1CBC
102
{ACAD_XDICTIONARY
360
1D1F
102
}
102
{ACAD_REACTORS
330
1CB0
102
}
330
1CB0
100
AcDbVisualStyle
  2
Brighten
 70
    12
 71
     2
 72
     2
 73
     0
 90
        0
 40
-0.6
 41
-30.0
 62
     5
 63
     7
 74
     1
 91
        4
 64
     7
 65
   257
 75
     1
175
     1
 42
1.0
 92
        8
 66
     7
 43
1.0
 76
     1
 77
     6
 78
     2
 67
     7
 79
     5
170
     0
171
     0
290
     0
174
     0
 93
        1
 44
50.0
173
     0
291
     1
 45
0.0
1001
ACAD
1000
AcDbSavedByObjectVersion
1070
     0
  0
VISUALSTYLE
  5
1CC0
102
{ACAD_XDICTIONARY
360
1D27
102
}
102
{ACAD_REACTORS
330
1CB0
102
}
330
1CB0
100
AcDbVisualStyle
  2
ColorChange
 70
    16
 71
     2
 72
     2
 73
     3
 90
        0
 40
-0.6
 41
-30.0
 62
     5
 63
     8
 74
     1
 91
        4
 64
     7
 65
   257
 75
     1
175
     1
 42
1.0
 92
        8
 66
     8
 43
1.0
 76
     1
 77
     6
 78
     2
 67
     7
 79
     5
170
     0
171
     0
290
     0
174
     0
 93
        1
 44
0.0
173
     0
291
     1
 45
0.0
1001
ACAD
1000
AcDbSavedByObjectVersion
1070
     0
  0
VISUALSTYLE
  5
1CB9
102
{ACAD_XDICTIONARY
360
1D19
102
}
102
{ACAD_REACTORS
330
1CB0
102
}
330
1CB0
100
AcDbVisualStyle
  2
Conceptual
 70
     9
 71
     3
 72
     2
 73
     0
 90
        0
 40
-0.6
 41
-30.0
 62
     5
 63
     7
 74
     2
 91
        2
 64
     7
 65
   257
 75
     1
175
     1
 42
179.0
 92
        8
 66
     7
 43
1.0
 76
     1
 77
     6
 78
     2
 67
     7
 79
     3
170
     0
171
     0
290
     0
174
     0
 93
        1
 44
0.0
173
     0
291
     0
 45
0.0
1001
ACAD
1000
AcDbSavedByObjectVersion
1070
     0
  0
VISUALSTYLE
  5
1CBB
102
{ACAD_XDICTIONARY
360
1D1D
102
}
102
{ACAD_REACTORS
330
1CB0
102
}
330
1CB0
100
AcDbVisualStyle
  2
Dim
 70
    11
 71
     2
 72
     2
 73
     0
 90
        0
 40
-0.6
 41
-30.0
 62
     5
 63
     7
 74
     1
 91
        4
 64
     7
 65
   257
 75
     1
175
     1
 42
1.0
 92
        8
 66
     7
 43
1.0
 76
     1
 77
     6
 78
     2
 67
     7
 79
     5
170
     0
171
     0
290
     0
174
     0
 93
        1
 44
-50.0
173
     0
291
     1
 45
0.0
1001
ACAD
1000
AcDbSavedByObjectVersion
1070
     0
  0
VISUALSTYLE
  5
1CC8
102
{ACAD_XDICTIONARY
360
1D37
102
}
102
{ACAD_REACTORS
330
1CB0
102
}
330
1CB0
100
AcDbVisualStyle
  2
EdgeColorOff
 70
    22
 71
     2
 72
     2
 73
     0
 90
        0
 40
-0.6
 41
-30.0
 62
     5
 63
     7
 74
     1
 91
        4
 64
     7
 65
   257
 75
     1
175
     1
 42
1.0
 92
        8
 66
     7
 43
1.0
 76
     1
 77
     6
 78
     2
 67
     7
 79
     5
170
     0
171
     0
290
     0
174
     0
 93
        1
 44
0.0
173
     0
291
     1
 45
0.0
1001
ACAD
1000
AcDbSavedByObjectVersion
1070
     0
  0
VISUALSTYLE
  5
1CBF
102
{ACAD_XDICTIONARY
360
1D25
102
}
102
{ACAD_REACTORS
330
1CB0
102
}
330
1CB0
100
AcDbVisualStyle
  2
Facepattern
 70
    15
 71
     2
 72
     2
 73
     0
 90
        0
 40
-0.6
 41
-30.0
 62
     5
 63
     7
 74
     1
 91
        4
 64
     7
 65
   257
 75
     1
175
     1
 42
1.0
 92
        8
 66
     7
 43
1.0
 76
     1
 77
     6
 78
     2
 67
     7
 79
     5
170
     0
171
     0
290
     0
174
     0
 93
        1
 44
0.0
173
     0
291
     1
 45
0.0
1001
ACAD
1000
AcDbSavedByObjectVersion
1070
     0
  0
VISUALSTYLE
  5
1CB1
102
{ACAD_XDICTIONARY
360
1D09
102
}
102
{ACAD_REACTORS
330
1CB0
102
}
330
1CB0
100
AcDbVisualStyle
  2
Flat
 70
     0
 71
     2
 72
     1
 73
     1
 90
        2
 40
-0.6
 41
30.0
 62
     5
 63
     7
 74
     0
 91
        0
 64
     7
 65
   257
 75
     1
175
     1
 42
1.0
 92
        8
 66
     7
 43
1.0
 76
     1
 77
     6
 78
     2
 67
     7
 79
     5
170
     0
171
     0
290
     0
174
     0
 93
       13
 44
0.0
173
     0
291
     1
 45
0.0
1001
ACAD
1000
AcDbSavedByObjectVersion
1070
     0
  0
VISUALSTYLE
  5
1CB2
102
{ACAD_XDICTIONARY
360
1D0B
102
}
102
{ACAD_REACTORS
330
1CB0
102
}
330
1CB0
100
AcDbVisualStyle
  2
FlatWithEdges
 70
     1
 71
     2
 72
     1
 73
     1
 90
        2
 40
-0.6
 41
30.0
 62
     5
 63
     7
 74
     1
 91
        0
 64
     7
 65
   257
 75
     1
175
     1
 42
1.0
 92
        0
 66
   257
 43
1.0
 76
     1
 77
     6
 78
     2
 67
     7
 79
     5
170
     0
171
     0
290
     0
174
     0
 93
       13
 44
0.0
173
     0
291
     1
 45
0.0
1001
ACAD
1000
AcDbSavedByObjectVersion
1070
     0
  0
VISUALSTYLE
  5
1CB3
102
{ACAD_XDICTIONARY
360
1D0D
102
}
102
{ACAD_REACTORS
330
1CB0
102
}
330
1CB0
100
AcDbVisualStyle
  2
Gouraud
 70
     2
 71
     2
 72
     2
 73
     1
 90
        2
 40
-0.6
 41
30.0
 62
     5
 63
     7
 74
     0
 91
        0
 64
     7
 65
   257
 75
     1
175
     1
 42
1.0
 92
        0
 66
     7
 43
1.0
 76
     1
 77
     6
 78
     2
 67
     7
 79
     5
170
     0
171
     0
290
     0
174
     0
 93
       13
 44
0.0
173
     0
291
     1
 45
0.0
1001
ACAD
1000
AcDbSavedByObjectVersion
1070
     0
  0
VISUALSTYLE
  5
1CB4
102
{ACAD_XDICTIONARY
360
1D0F
102
}
102
{ACAD_REACTORS
330
1CB0
102
}
330
1CB0
100
AcDbVisualStyle
  2
GouraudWithEdges
 70
     3
 71
     2
 72
     2
 73
     1
 90
        2
 40
-0.6
 41
30.0
 62
     5
 63
     7
 74
     1
 91
        0
 64
     7
 65
   257
 75
     1
175
     1
 42
1.0
 92
        0
 66
   257
 43
1.0
 76
     1
 77
     6
 78
     2
 67
     7
 79
     5
170
     0
171
     0
290
     0
174
     0
 93
       13
 44
0.0
173
     0
291
     1
 45
0.0
1001
ACAD
1000
AcDbSavedByObjectVersion
1070
     0
  0
VISUALSTYLE
  5
1CB8
102
{ACAD_XDICTIONARY
360
1D17
102
}
102
{ACAD_REACTORS
330
1CB0
102
}
330
1CB0
100
AcDbVisualStyle
  2
Hidden
 70
     6
 71
     1
 72
     2
 73
     2
 90
        0
 40
-0.6
 41
-30.0
 62
     5
 63
     7
 74
     2
 91
        2
 64
     7
 65
   257
 75
     2
175
     1
 42
40.0
 92
        0
 66
   257
 43
1.0
 76
     1
 77
     6
 78
     2
 67
     7
 79
     3
170
     0
171
     0
290
     0
174
     0
 93
        1
 44
0.0
173
     0
291
     0
 45
0.0
1001
ACAD
1000
AcDbSavedByObjectVersion
1070
     0
  0
VISUALSTYLE
  5
1CC6
102
{ACAD_XDICTIONARY
360
1D33
102
}
102
{ACAD_REACTORS
330
1CB0
102
}
330
1CB0
100
AcDbVisualStyle
  2
JitterOff
 70
    20
 71
     2
 72
     2
 73
     0
 90
        0
 40
-0.6
 41
-30.0
 62
     5
 63
     7
 74
     1
 91
        4
 64
     7
 65
   257
 75
     1
175
     1
 42
1.0
 92
       10
 66
     7
 43
1.0
 76
     1
 77
     6
 78
     2
 67
     7
 79
     5
170
     0
171
     0
290
     0
174
     0
 93
        1
 44
0.0
173
     0
291
     1
 45
0.0
1001
ACAD
1000
AcDbSavedByObjectVersion
1070
     0
  0
VISUALSTYLE
  5
1CBE
102
{ACAD_XDICTIONARY
360
1D23
102
}
102
{ACAD_REACTORS
330
1CB0
102
}
330
1CB0
100
AcDbVisualStyle
  2
Linepattern
 70
    14
 71
     2
 72
     2
 73
     0
 90
        0
 40
-0.6
 41
-30.0
 62
     5
 63
     7
 74
     1
 91
        4
 64
     7
 65
   257
 75
     7
175
     7
 42
1.0
 92
        8
 66
     7
 43
1.0
 76
     1
 77
     6
 78
     2
 67
     7
 79
     5
170
     0
171
     0
290
     0
174
     0
 93
        1
 44
0.0
173
     0
291
     1
 45
0.0
1001
ACAD
1000
AcDbSavedByObjectVersion
1070
     0
  0
VISUALSTYLE
  5
1CC7
102
{ACAD_XDICTIONARY
360
1D35
102
}
102
{ACAD_REACTORS
330
1CB0
102
}
330
1CB0
100
AcDbVisualStyle
  2
OverhangOff
 70
    21
 71
     2
 72
     2
 73
     0
 90
        0
 40
-0.6
 41
-30.0
 62
     5
 63
     7
 74
     1
 91
        4
 64
     7
 65
   257
 75
     1
175
     1
 42
1.0
 92
        9
 66
     7
 43
1.0
 76
     1
 77
     6
 78
     2
 67
     7
 79
     5
170
     0
171
     0
290
     0
174
     0
 93
        1
 44
0.0
173
     0
291
     1
 45
0.0
1001
ACAD
1000
AcDbSavedByObjectVersion
1070
     0
  0
VISUALSTYLE
  5
1CBA
102
{ACAD_XDICTIONARY
360
1D1B
102
}
102
{ACAD_REACTORS
330
1CB0
102
}
330
1CB0
100
AcDbVisualStyle
  2
Realistic
 70
     8
 71
     2
 72
     3
 73
     0
 90
        2
 40
-0.6
 41
30.0
 62
     5
 63
     7
 74
     0
 91
        0
 64
     7
 65
   257
 75
     1
175
     1
 42
1.0
 92
        8
 66
   257
 43
1.0
 76
     1
 77
     6
 78
     2
 67
     7
 79
     3
170
     0
171
     0
290
     0
174
     0
 93
       13
 44
0.0
173
     0
291
     0
 45
0.0
1001
ACAD
1000
AcDbSavedByObjectVersion
1070
     0
  0
VISUALSTYLE
  5
1CC5
102
{ACAD_XDICTIONARY
360
1D31
102
}
102
{ACAD_REACTORS
330
1CB0
102
}
330
1CB0
100
AcDbVisualStyle
  2
Shaded
 70
    27
 71
     2
 72
     2
 73
     1
 90
        2
 40
-0.6
 41
30.0
 62
     5
 63
     7
 74
     0
 91
        4
 64
     7
 65
   257
 75
     1
175
     1
 42
1.0
 92
        8
 66
   257
 43
1.0
 76
     1
 77
     6
 78
     2
 67
     8
 79
     3
170
     0
171
     0
290
     0
174
     0
 93
        5
 44
0.0
173
     0
291
     0
 45
0.0
1001
ACAD
1000
AcDbSavedByObjectVersion
1070
     0
  0
VISUALSTYLE
  5
1CC4
102
{ACAD_XDICTIONARY
360
1D2F
102
}
102
{ACAD_REACTORS
330
1CB0
102
}
330
1CB0
100
AcDbVisualStyle
  2
Shaded with edges
 70
    26
 71
     2
 72
     2
 73
     1
 90
        2
 40
-0.6
 41
30.0
 62
     5
 63
     7
 74
     1
 91
       10
 64
     7
 65
   257
 75
     2
175
     1
 42
1.0
 92
        8
 66
   257
 43
1.0
 76
     1
 77
     6
 78
     2
 67
     7
 79
     3
170
     0
171
     0
290
     0
174
     0
 93
        5
 44
0.0
173
     0
291
     0
 45
0.0
1001
ACAD
1000
AcDbSavedByObjectVersion
1070
     0
  0
VISUALSTYLE
  5
1CC1
102
{ACAD_XDICTIONARY
360
1D29
102
}
102
{ACAD_REACTORS
330
1CB0
102
}
330
1CB0
100
AcDbVisualStyle
  2
Shades of Gray
 70
    23
 71
     2
 72
     2
 73
     3
 90
        0
 40
-0.6
 41
-30.0
 62
     5
 63
     7
 74
     2
 91
        2
 64
     7
 65
     7
 75
     1
175
     1
 42
40.0
 92
        8
 66
     7
 43
1.0
 76
     1
 77
     6
 78
     2
 67
     7
 79
     3
170
     0
171
     0
290
     0
174
     0
 93
        1
 44
0.0
173
     0
291
     0
 45
0.0
1001
ACAD
1000
AcDbSavedByObjectVersion
1070
     0
  0
VISUALSTYLE
  5
1CC2
102
{ACAD_XDICTIONARY
360
1D2B
102
}
102
{ACAD_REACTORS
330
1CB0
102
}
330
1CB0
100
AcDbVisualStyle
  2
Sketchy
 70
    24
 71
     1
 72
     2
 73
     2
 90
        0
 40
-0.6
 41
-30.0
 62
     5
 63
     7
 74
     2
 91
        2
 64
     7
 65
     7
 75
     1
175
     1
 42
40.0
 92
       11
 66
     7
 43
1.0
 76
     1
 77
     6
 78
     2
 67
     7
 79
     6
170
     0
171
     0
290
     0
174
     0
 93
        1
 44
0.0
173
     0
291
     0
 45
0.0
1001
ACAD
1000
AcDbSavedByObjectVersion
1070
     0
  0
VISUALSTYLE
  5
1CBD
102
{ACAD_XDICTIONARY
360
1D21
102
}
102
{ACAD_REACTORS
330
1CB0
102
}
330
1CB0
100
AcDbVisualStyle
  2
Thicken
 70
    13
 71
     2
 72
     2
 73
     0
 90
        0
 40
-0.6
 41
-30.0
 62
     5
 63
     7
 74
     1
 91
        4
 64
     7
 65
   257
 75
     1
175
     1
 42
1.0
 92
       12
 66
     7
 43
1.0
 76
     1
 77
     6
 78
     2
 67
     7
 79
     5
170
     0
171
     0
290
     0
174
     0
 93
        1
 44
0.0
173
     0
291
     1
 45
0.0
1001
ACAD
1000
AcDbSavedByObjectVersion
1070
     0
  0
VISUALSTYLE
  5
1CB7
102
{ACAD_XDICTIONARY
360
1D15
102
}
102
{ACAD_REACTORS
330
1CB0
102
}
330
1CB0
100
AcDbVisualStyle
  2
Wireframe
 70
     5
 71
     0
 72
     2
 73
     0
 90
        0
 40
-0.6
 41
-30.0
 62
     5
 63
     7
 74
     1
 91
        4
 64
     7
 65
   257
 75
     1
175
     1
 42
1.0
 92
        0
 66
   257
 43
1.0
 76
     1
 77
     6
 78
     2
 67
     7
 79
     3
170
     0
171
     0
290
     0
174
     0
 93
        1
 44
0.0
173
     0
291
     0
 45
0.0
1001
ACAD
1000
AcDbSavedByObjectVersion
1070
     0
  0
VISUALSTYLE
  5
1CC3
102
{ACAD_XDICTIONARY
360
1D2D
102
}
102
{ACAD_REACTORS
330
1CB0
102
}
330
1CB0
100
AcDbVisualStyle
  2
X-Ray
 70
    25
 71
     2
 72
     2
 73
     1
 90
        1
 40
0.5
 41
-30.0
 62
     5
 63
     7
 74
     1
 91
        0
 64
     7
 65
   257
 75
     1
175
     1
 42
1.0
 92
        8
 66
     7
 43
1.0
 76
     1
 77
     6
 78
     2
 67
     7
 79
     3
170
     0
171
     0
290
     0
174
     0
 93
       13
 44
0.0
173
     0
291
     0
 45
0.0
1001
ACAD
1000
AcDbSavedByObjectVersion
1070
     0
  0
DICTIONARYVAR
  5
1CFC
102
{ACAD_REACTORS
330
1CF7
102
}
330
1CF7
100
DictionaryVariables
280
     0
  1
1:1
  0
DICTIONARYVAR
  5
1CF9
102
{ACAD_REACTORS
330
1CF7
102
}
330
1CF7
100
DictionaryVariables
280
     0
  1
STANDARD
  0
DICTIONARYVAR
  5
1CF8
102
{ACAD_REACTORS
330
1CF7
102
}
330
1CF7
100
DictionaryVariables
280
     0
  1
STANDARD
  0
DICTIONARYVAR
  5
1CFA
102
{ACAD_REACTORS
330
1CF7
102
}
330
1CF7
100
DictionaryVariables
280
     0
  1
Imperial24
  0
DICTIONARYVAR
  5
1CFB
102
{ACAD_REACTORS
330
1CF7
102
}
330
1CF7
100
DictionaryVariables
280
     0
  1
Imperial24
  0
DICTIONARYVAR
  5
1CFF
102
{ACAD_REACTORS
330
1CF7
102
}
330
1CF7
100
DictionaryVariables
280
     0
  1
1
  0
DICTIONARYVAR
  5
1CFE
102
{ACAD_REACTORS
330
1CF7
102
}
330
1CF7
100
DictionaryVariables
280
     0
  1
0
  0
DICTIONARYVAR
  5
1CFD
102
{ACAD_REACTORS
330
1CF7
102
}
330
1CF7
100
DictionaryVariables
280
     0
  1
127
  0
DICTIONARYVAR
  5
1D00
102
{ACAD_REACTORS
330
1CF7
102
}
330
1CF7
100
DictionaryVariables
280
     0
  1
2
  0
DICTIONARY
  5
1D3D
330
1CE3
100
AcDbDictionary
280
     1
281
     1
  3
ACAD_XREC_ROUNDTRIP
360
1D3E
  0
DICTIONARY
  5
1D3F
330
1CE4
100
AcDbDictionary
280
     1
281
     1
  3
ACAD_XREC_ROUNDTRIP
360
1D40
  0
DICTIONARY
  5
1D41
330
1CE5
100
AcDbDictionary
280
     1
281
     1
  3
ACAD_XREC_ROUNDTRIP
360
1D42
  0
DICTIONARY
  5
1CA1
330
1CA0
100
AcDbDictionary
280
     1
281
     1
  3
ACAD_XREC_ROUNDTRIP
360
1D07
  3
BUMPTILE
360
1CA3
  3
DIFFUSETILE
360
1CA2
  3
OPACITYTILE
360
1CA6
  3
REFLECTIONTILE
360
1CA5
  3
REFRACTIONTILE
360
1CA7
  3
SPECULARTILE
360
1CA4
  0
DICTIONARY
  5
1C99
330
1C98
100
AcDbDictionary
280
     1
281
     1
  3
ACAD_XREC_ROUNDTRIP
360
1D06
  3
BUMPTILE
360
1C9B
  3
DIFFUSETILE
360
1C9A
  3
OPACITYTILE
360
1C9E
  3
REFLECTIONTILE
360
1C9D
  3
REFRACTIONTILE
360
1C9F
  3
SPECULARTILE
360
1C9C
  0
DICTIONARY
  5
1CA9
330
1CA8
100
AcDbDictionary
280
     1
281
     1
  3
ACAD_XREC_ROUNDTRIP
360
1D08
  3
BUMPTILE
360
1CAB
  3
DIFFUSETILE
360
1CAA
  3
OPACITYTILE
360
1CAE
  3
REFLECTIONTILE
360
1CAD
  3
REFRACTIONTILE
360
1CAF
  3
SPECULARTILE
360
1CAC
  0
DICTIONARY
  5
1D3B
330
1CE1
100
AcDbDictionary
280
     1
281
     1
  3
ACAD_XREC_ROUNDTRIP
360
1D3C
  0
DICTIONARY
  5
1D02
330
1CCB
100
AcDbDictionary
280
     1
281
     1
  3
ACAD_ROUNDTRIP_2008_TABLESTYLE_CELLSTYLEMAP
360
1D03
  3
ACAD_XREC_ROUNDTRIP
360
1D39
  0
DICTIONARY
  5
1D13
330
1CB6
100
AcDbDictionary
280
     1
281
     1
  3
ACAD_XREC_ROUNDTRIP
360
1D14
  0
DICTIONARY
  5
1D11
330
1CB5
100
AcDbDictionary
280
     1
281
     1
  3
ACAD_XREC_ROUNDTRIP
360
1D12
  0
DICTIONARY
  5
1D1F
330
1CBC
100
AcDbDictionary
280
     1
281
     1
  3
ACAD_XREC_ROUNDTRIP
360
1D20
  0
DICTIONARY
  5
1D27
330
1CC0
100
AcDbDictionary
280
     1
281
     1
  3
ACAD_XREC_ROUNDTRIP
360
1D28
  0
DICTIONARY
  5
1D19
330
1CB9
100
AcDbDictionary
280
     1
281
     1
  3
ACAD_XREC_ROUNDTRIP
360
1D1A
  0
DICTIONARY
  5
1D1D
330
1CBB
100
AcDbDictionary
280
     1
281
     1
  3
ACAD_XREC_ROUNDTRIP
360
1D1E
  0
DICTIONARY
  5
1D37
330
1CC8
100
AcDbDictionary
280
     1
281
     1
  3
ACAD_XREC_ROUNDTRIP
360
1D38
  0
DICTIONARY
  5
1D25
330
1CBF
100
AcDbDictionary
280
     1
281
     1
  3
ACAD_XREC_ROUNDTRIP
360
1D26
  0
DICTIONARY
  5
1D09
330
1CB1
100
AcDbDictionary
280
     1
281
     1
  3
ACAD_XREC_ROUNDTRIP
360
1D0A
  0
DICTIONARY
  5
1D0B
330
1CB2
100
AcDbDictionary
280
     1
281
     1
  3
ACAD_XREC_ROUNDTRIP
360
1D0C
  0
DICTIONARY
  5
1D0D
330
1CB3
100
AcDbDictionary
280
     1
281
     1
  3
ACAD_XREC_ROUNDTRIP
360
1D0E
  0
DICTIONARY
  5
1D0F
330
1CB4
100
AcDbDictionary
280
     1
281
     1
  3
ACAD_XREC_ROUNDTRIP
360
1D10
  0
DICTIONARY
  5
1D17
330
1CB8
100
AcDbDictionary
280
     1
281
     1
  3
ACAD_XREC_ROUNDTRIP
360
1D18
  0
DICTIONARY
  5
1D33
330
1CC6
100
AcDbDictionary
280
     1
281
     1
  3
ACAD_XREC_ROUNDTRIP
360
1D34
  0
DICTIONARY
  5
1D23
330
1CBE
100
AcDbDictionary
280
     1
281
     1
  3
ACAD_XREC_ROUNDTRIP
360
1D24
  0
DICTIONARY
  5
1D35
330
1CC7
100
AcDbDictionary
280
     1
281
     1
  3
ACAD_XREC_ROUNDTRIP
360
1D36
  0
DICTIONARY
  5
1D1B
330
1CBA
100
AcDbDictionary
280
     1
281
     1
  3
ACAD_XREC_ROUNDTRIP
360
1D1C
  0
DICTIONARY
  5
1D31
330
1CC5
100
AcDbDictionary
280
     1
281
     1
  3
ACAD_XREC_ROUNDTRIP
360
1D32
  0
DICTIONARY
  5
1D2F
330
1CC4
100
AcDbDictionary
280
     1
281
     1
  3
ACAD_XREC_ROUNDTRIP
360
1D30
  0
DICTIONARY
  5
1D29
330
1CC1
100
AcDbDictionary
280
     1
281
     1
  3
ACAD_XREC_ROUNDTRIP
360
1D2A
  0
DICTIONARY
  5
1D2B
330
1CC2
100
AcDbDictionary
280
     1
281
     1
  3
ACAD_XREC_ROUNDTRIP
360
1D2C
  0
DICTIONARY
  5
1D21
330
1CBD
100
AcDbDictionary
280
     1
281
     1
  3
ACAD_XREC_ROUNDTRIP
360
1D22
  0
DICTIONARY
  5
1D15
330
1CB7
100
AcDbDictionary
280
     1
281
     1
  3
ACAD_XREC_ROUNDTRIP
360
1D16
  0
DICTIONARY
  5
1D2D
330
1CC3
100
AcDbDictionary
280
     1
281
     1
  3
ACAD_XREC_ROUNDTRIP
360
1D2E
  0
XRECORD
  5
1D3E
102
{ACAD_REACTORS
330
1D3D
102
}
330
1D3D
100
AcDbXrecord
280
     1
102
DISPLAYNAME
  1
Imperial24
102
FLAGS
 90
        0
  0
XRECORD
  5
1D40
102
{ACAD_REACTORS
330
1D3F
102
}
330
1D3F
100
AcDbXrecord
280
     1
102
SHADEPLOT
 70
     0
102
SHADEPLOTRESLEVEL
 70
     2
102
SHADEPLOTCUSTOMDPI
 70
   300
  0
XRECORD
  5
1D42
102
{ACAD_REACTORS
330
1D41
102
}
330
1D41
100
AcDbXrecord
280
     1
102
SHADEPLOT
 70
     0
102
SHADEPLOTRESLEVEL
 70
     2
102
SHADEPLOTCUSTOMDPI
 70
   300
  0
XRECORD
  5
1D07
102
{ACAD_REACTORS
330
1CA1
102
}
330
1CA1
100
AcDbXrecord
280
     1
102
MATERIAL
148
0.0
149
0.0
149
0.0
 93
        0
 94
      127
282
     0
 72
     0
 77
     0
171
     0
175
     0
179
     0
273
     0
  0
XRECORD
  5
1CA3
102
{ACAD_REACTORS
330
1CA1
102
}
330
1CA1
100
AcDbXrecord
280
     1
270
     1
271
     1
  0
XRECORD
  5
1CA2
102
{ACAD_REACTORS
330
1CA1
102
}
330
1CA1
100
AcDbXrecord
280
     1
270
     1
271
     1
  0
XRECORD
  5
1CA6
102
{ACAD_REACTORS
330
1CA1
102
}
330
1CA1
100
AcDbXrecord
280
     1
270
     1
271
     1
  0
XRECORD
  5
1CA5
102
{ACAD_REACTORS
330
1CA1
102
}
330
1CA1
100
AcDbXrecord
280
     1
270
     1
271
     1
  0
XRECORD
  5
1CA7
102
{ACAD_REACTORS
330
1CA1
102
}
330
1CA1
100
AcDbXrecord
280
     1
270
     1
271
     1
  0
XRECORD
  5
1CA4
102
{ACAD_REACTORS
330
1CA1
102
}
330
1CA1
100
AcDbXrecord
280
     1
270
     1
271
     1
  0
XRECORD
  5
1D06
102
{ACAD_REACTORS
330
1C99
102
}
330
1C99
100
AcDbXrecord
280
     1
102
MATERIAL
148
0.0
149
0.0
149
0.0
 93
        0
 94
      127
282
     0
 72
     0
 77
     0
171
     0
175
     0
179
     0
273
     0
  0
XRECORD
  5
1C9B
102
{ACAD_REACTORS
330
1C99
102
}
330
1C99
100
AcDbXrecord
280
     1
270
     1
271
     1
  0
XRECORD
  5
1C9A
102
{ACAD_REACTORS
330
1C99
102
}
330
1C99
100
AcDbXrecord
280
     1
270
     1
271
     1
  0
XRECORD
  5
1C9E
102
{ACAD_REACTORS
330
1C99
102
}
330
1C99
100
AcDbXrecord
280
     1
270
     1
271
     1
  0
XRECORD
  5
1C9D
102
{ACAD_REACTORS
330
1C99
102
}
330
1C99
100
AcDbXrecord
280
     1
270
     1
271
     1
  0
XRECORD
  5
1C9F
102
{ACAD_REACTORS
330
1C99
102
}
330
1C99
100
AcDbXrecord
280
     1
270
     1
271
     1
  0
XRECORD
  5
1C9C
102
{ACAD_REACTORS
330
1C99
102
}
330
1C99
100
AcDbXrecord
280
     1
270
     1
271
     1
  0
XRECORD
  5
1D08
102
{ACAD_REACTORS
330
1CA9
102
}
330
1CA9
100
AcDbXrecord
280
     1
102
MATERIAL
148
0.0
149
0.0
149
0.0
 93
        0
 94
      127
282
     0
 72
     0
 77
     0
171
     0
175
     0
179
     0
273
     0
  0
XRECORD
  5
1CAB
102
{ACAD_REACTORS
330
1CA9
102
}
330
1CA9
100
AcDbXrecord
280
     1
270
     1
271
     1
  0
XRECORD
  5
1CAA
102
{ACAD_REACTORS
330
1CA9
102
}
330
1CA9
100
AcDbXrecord
280
     1
270
     1
271
     1
  0
XRECORD
  5
1CAE
102
{ACAD_REACTORS
330
1CA9
102
}
330
1CA9
100
AcDbXrecord
280
     1
270
     1
271
     1
  0
XRECORD
  5
1CAD
102
{ACAD_REACTORS
330
1CA9
102
}
330
1CA9
100
AcDbXrecord
280
     1
270
     1
271
     1
  0
XRECORD
  5
1CAF
102
{ACAD_REACTORS
330
1CA9
102
}
330
1CA9
100
AcDbXrecord
280
     1
270
     1
271
     1
  0
XRECORD
  5
1CAC
102
{ACAD_REACTORS
330
1CA9
102
}
330
1CA9
100
AcDbXrecord
280
     1
270
     1
271
     1
  0
XRECORD
  5
1D3C
102
{ACAD_REACTORS
330
1D3B
102
}
330
1D3B
100
AcDbXrecord
280
     1
102
DISPLAYNAME
  1
Imperial24
102
FLAGS
 90
        0
  0
CELLSTYLEMAP
  5
1D03
102
{ACAD_REACTORS
330
1D02
102
}
330
1D02
100
AcDbCellStyleMap
 90
        3
300
CELLSTYLE
  1
TABLEFORMAT_BEGIN
 90
        5
170
     1
 91
        0
 92
    32768
 62
   257
 93
        1
300
CONTENTFORMAT
  1
CONTENTFORMAT_BEGIN
 90
        0
 91
        0
 92
      512
 93
        0
300

 40
0.0
140
1.0
 94
        5
 62
     0
340
F
144
0.25
309
CONTENTFORMAT_END
171
     0
 94
        0
309
TABLEFORMAT_END
  1
CELLSTYLE_BEGIN
 90
        1
 91
        1
300
_TITLE
309
CELLSTYLE_END
300
CELLSTYLE
  1
TABLEFORMAT_BEGIN
 90
        5
170
     1
 91
        0
 92
        0
 62
   257
 93
        1
300
CONTENTFORMAT
  1
CONTENTFORMAT_BEGIN
 90
        0
 91
        0
 92
      512
 93
        0
300

 40
0.0
140
1.0
 94
        5
 62
     0
340
F
144
0.18
309
CONTENTFORMAT_END
171
     0
 94
        0
309
TABLEFORMAT_END
  1
CELLSTYLE_BEGIN
 90
        2
 91
        1
300
_HEADER
309
CELLSTYLE_END
300
CELLSTYLE
  1
TABLEFORMAT_BEGIN
 90
        5
170
     1
 91
        0
 92
        0
 62
   257
 93
        1
300
CONTENTFORMAT
  1
CONTENTFORMAT_BEGIN
 90
        0
 91
        0
 92
      512
 93
        0
300

 40
0.0
140
1.0
 94
        2
 62
     0
340
F
144
0.18
309
CONTENTFORMAT_END
171
     0
 94
        0
309
TABLEFORMAT_END
  1
CELLSTYLE_BEGIN
 90
        3
 91
        2
300
_DATA
309
CELLSTYLE_END
  0
XRECORD
  5
1D39
102
{ACAD_REACTORS
330
1D02
102
}
330
1D02
100
AcDbXrecord
280
     1
102
ACAD_ROUNDTRIP_PRE2007_TABLESTYLE
 90
      512
 91
        0
  1

 92
      512
 93
        0
  2

 94
      512
 95
        0
  3

  0
XRECORD
  5
1D14
102
{ACAD_REACTORS
330
1D13
102
}
330
1D13
100
AcDbXrecord
280
     1
102
RTVSPost2010Prop28
280
     1
102
RTVSPost2010PropOp28
 70
     1
102
RTVSPost2010Prop29
280
     1
102
RTVSPost2010PropOp29
 70
     1
102
RTVSPost2010Prop30
280
     0
102
RTVSPost2010PropOp30
 70
     1
102
RTVSPost2010Prop31
280
     0
102
RTVSPost2010PropOp31
 70
     1
102
RTVSPost2010Prop32
280
     0
102
RTVSPost2010PropOp32
 70
     1
102
RTVSPost2010Prop33
280
     0
102
RTVSPost2010PropOp33
 70
     1
102
RTVSPost2010Prop34
280
     0
102
RTVSPost2010PropOp34
 70
     1
102
RTVSPost2010Prop35
280
     0
102
RTVSPost2010PropOp35
 70
     1
102
RTVSPost2010Prop36
280
     0
102
RTVSPost2010PropOp36
 70
     1
102
RTVSPost2010Prop37
 90
       50
102
RTVSPost2010PropOp37
 70
     1
102
RTVSPost2010Prop38
140
0.0
102
RTVSPost2010PropOp38
 70
     1
102
RTVSPost2010Prop39
140
1.0
102
RTVSPost2010PropOp39
 70
     1
102
RTVSPost2010Prop40
 90
        0
102
RTVSPost2010PropOp40
 70
     1
102
RTVSPost2010Prop41ColorIndex
 90
       18
102
RTVSPost2010Prop41ColorRGB
 90
        0
102
RTVSPost2010PropOp41
 70
     1
102
RTVSPost2010Prop42
 90
       50
102
RTVSPost2010PropOp42
 70
     1
102
RTVSPost2010Prop43
 90
        3
102
RTVSPost2010PropOp43
 70
     1
102
RTVSPost2010Prop44ColorIndex
 90
        5
102
RTVSPost2010Prop44ColorRGB
 90
      255
102
RTVSPost2010PropOp44
 70
     1
102
RTVSPost2010Prop45
280
     0
102
RTVSPost2010PropOp45
 70
     1
102
RTVSPost2010Prop46
 90
       50
102
RTVSPost2010PropOp46
 70
     1
102
RTVSPost2010Prop47
 90
       50
102
RTVSPost2010PropOp47
 70
     1
102
RTVSPost2010Prop48
 90
       50
102
RTVSPost2010PropOp48
 70
     1
102
RTVSPost2010Prop49
280
     0
102
RTVSPost2010PropOp49
 70
     1
102
RTVSPost2010Prop50
 90
       50
102
RTVSPost2010PropOp50
 70
     1
102
RTVSPost2010Prop51ColorIndex
 90
      256
102
RTVSPost2010Prop51ColorRGB
 90
-16777216
102
RTVSPost2010PropOp51
 70
     0
102
RTVSPost2010Prop52
140
1.0
102
RTVSPost2010PropOp52
 70
     0
102
RTVSPost2010Prop53
 90
        2
102
RTVSPost2010PropOp53
 70
     1
102
RTVSPost2010Prop54
  1
strokes_ogs.tif
102
RTVSPost2010PropOp54
 70
     1
102
RTVSPost2010Prop55
280
     0
102
RTVSPost2010PropOp55
 70
     1
102
RTVSPost2010Prop56
140
1.0
102
RTVSPost2010PropOp56
 70
     1
102
RTVSPost2010Prop57
140
1.0
102
RTVSPost2010PropOp57
 70
     1
102
RTVSPropertyOp0
 70
     1
102
RTVSPropertyOp1
 70
     1
102
RTVSPropertyOp2
 70
     1
102
RTVSPropertyOp3
 70
     1
102
RTVSPropertyOp4
 70
     1
102
RTVSPropertyOp5
 70
     1
102
RTVSPropertyOp6
 70
     1
102
RTVSPropertyOp7
 70
     1
102
RTVSPropertyOp8
 70
     1
102
RTVSPropertyOp9
 70
     1
102
RTVSPropertyOp10
 70
     1
102
RTVSPropertyOp11
 70
     1
102
RTVSPropertyOp12
 70
     1
102
RTVSPropertyOp13
 70
     1
102
RTVSPropertyOp14
 70
     1
102
RTVSPropertyOp15
 70
     1
102
RTVSPropertyOp16
 70
     1
102
RTVSPropertyOp17
 70
     1
102
RTVSPropertyOp18
 70
     1
102
RTVSPropertyOp19
 70
     1
102
RTVSPropertyOp20
 70
     1
102
RTVSPropertyOp21
 70
     1
102
RTVSPropertyOp22
 70
     1
102
RTVSPropertyOp23
 70
     1
102
RTVSPropertyOp24
 70
     1
102
RTVSPropertyOp25
 70
     1
102
RTVSPropertyOp26
 70
     1
102
RTVSPropertyOp27
 70
     1
102
RTVSPropertyOp28
 70
     1
102
RTVSPropertyOp29
 70
     1
102
RTVSPropertyOp30
 70
     1
102
RTVSPropertyOp31
 70
     1
102
RTVSPropertyOp32
 70
     1
102
RTVSPropertyOp33
 70
     1
102
RTVSPropertyOp34
 70
     1
102
RTVSPropertyOp35
 70
     1
102
RTVSPropertyOp36
 70
     1
102
RTVSPropertyOp37
 70
     1
102
RTVSPropertyOp38
 70
     1
102
RTVSPropertyOp39
 70
     1
102
RTVSPropertyOp40
 70
     1
102
RTVSPropertyOp41
 70
     1
102
RTVSPropertyOp42
 70
     1
102
RTVSPropertyOp43
 70
     1
102
RTVSPropertyOp44
 70
     1
102
RTVSPropertyOp45
 70
     1
102
RTVSPropertyOp46
 70
     1
102
RTVSPropertyOp47
 70
     1
102
RTVSPropertyOp48
 70
     1
102
RTVSPropertyOp49
 70
     1
102
RTVSPropertyOp50
 70
     1
102
RTVSPropertyOp51
 70
     0
102
RTVSPropertyOp52
 70
     0
102
RTVSPropertyOp53
 70
     1
102
RTVSPropertyOp54
 70
     1
102
RTVSPropertyOp55
 70
     1
102
RTVSPropertyOp56
 70
     1
102
RTVSPropertyOp57
 70
     1
102
RTVSPropertyOp58
 70
     1
102
RTVSPropertyOp59
 70
     1
102
RTVSPropertyOp60
 70
     1
102
RTVSPropertyOp61
 70
     1
102
RTVSPropertyOp62
 70
     1
  0
XRECORD
  5
1D12
102
{ACAD_REACTORS
330
1D11
102
}
330
1D11
100
AcDbXrecord
280
     1
102
RTVSPost2010Prop28
280
     0
102
RTVSPost2010PropOp28
 70
     1
102
RTVSPost2010Prop29
280
     1
102
RTVSPost2010PropOp29
 70
     1
102
RTVSPost2010Prop30
280
     1
102
RTVSPost2010PropOp30
 70
     1
102
RTVSPost2010Prop31
280
     0
102
RTVSPost2010PropOp31
 70
     1
102
RTVSPost2010Prop32
280
     0
102
RTVSPost2010PropOp32
 70
     1
102
RTVSPost2010Prop33
280
     0
102
RTVSPost2010PropOp33
 70
     1
102
RTVSPost2010Prop34
280
     0
102
RTVSPost2010PropOp34
 70
     1
102
RTVSPost2010Prop35
280
     0
102
RTVSPost2010PropOp35
 70
     1
102
RTVSPost2010Prop36
280
     0
102
RTVSPost2010PropOp36
 70
     1
102
RTVSPost2010Prop37
 90
       50
102
RTVSPost2010PropOp37
 70
     1
102
RTVSPost2010Prop38
140
0.0
102
RTVSPost2010PropOp38
 70
     1
102
RTVSPost2010Prop39
140
1.0
102
RTVSPost2010PropOp39
 70
     1
102
RTVSPost2010Prop40
 90
        0
102
RTVSPost2010PropOp40
 70
     1
102
RTVSPost2010Prop41ColorIndex
 90
       18
102
RTVSPost2010Prop41ColorRGB
 90
        0
102
RTVSPost2010PropOp41
 70
     1
102
RTVSPost2010Prop42
 90
       50
102
RTVSPost2010PropOp42
 70
     1
102
RTVSPost2010Prop43
 90
        3
102
RTVSPost2010PropOp43
 70
     1
102
RTVSPost2010Prop44ColorIndex
 90
        5
102
RTVSPost2010Prop44ColorRGB
 90
      255
102
RTVSPost2010PropOp44
 70
     1
102
RTVSPost2010Prop45
280
     0
102
RTVSPost2010PropOp45
 70
     1
102
RTVSPost2010Prop46
 90
       50
102
RTVSPost2010PropOp46
 70
     1
102
RTVSPost2010Prop47
 90
       50
102
RTVSPost2010PropOp47
 70
     1
102
RTVSPost2010Prop48
 90
       50
102
RTVSPost2010PropOp48
 70
     1
102
RTVSPost2010Prop49
280
     0
102
RTVSPost2010PropOp49
 70
     1
102
RTVSPost2010Prop50
 90
       50
102
RTVSPost2010PropOp50
 70
     1
102
RTVSPost2010Prop51ColorIndex
 90
      256
102
RTVSPost2010Prop51ColorRGB
 90
-16777216
102
RTVSPost2010PropOp51
 70
     0
102
RTVSPost2010Prop52
140
1.0
102
RTVSPost2010PropOp52
 70
     0
102
RTVSPost2010Prop53
 90
        2
102
RTVSPost2010PropOp53
 70
     1
102
RTVSPost2010Prop54
  1
strokes_ogs.tif
102
RTVSPost2010PropOp54
 70
     1
102
RTVSPost2010Prop55
280
     0
102
RTVSPost2010PropOp55
 70
     1
102
RTVSPost2010Prop56
140
1.0
102
RTVSPost2010PropOp56
 70
     1
102
RTVSPost2010Prop57
140
1.0
102
RTVSPost2010PropOp57
 70
     1
102
RTVSPropertyOp0
 70
     1
102
RTVSPropertyOp1
 70
     1
102
RTVSPropertyOp2
 70
     1
102
RTVSPropertyOp3
 70
     1
102
RTVSPropertyOp4
 70
     1
102
RTVSPropertyOp5
 70
     1
102
RTVSPropertyOp6
 70
     1
102
RTVSPropertyOp7
 70
     1
102
RTVSPropertyOp8
 70
     1
102
RTVSPropertyOp9
 70
     1
102
RTVSPropertyOp10
 70
     1
102
RTVSPropertyOp11
 70
     1
102
RTVSPropertyOp12
 70
     1
102
RTVSPropertyOp13
 70
     1
102
RTVSPropertyOp14
 70
     1
102
RTVSPropertyOp15
 70
     1
102
RTVSPropertyOp16
 70
     1
102
RTVSPropertyOp17
 70
     1
102
RTVSPropertyOp18
 70
     1
102
RTVSPropertyOp19
 70
     1
102
RTVSPropertyOp20
 70
     1
102
RTVSPropertyOp21
 70
     1
102
RTVSPropertyOp22
 70
     1
102
RTVSPropertyOp23
 70
     1
102
RTVSPropertyOp24
 70
     1
102
RTVSPropertyOp25
 70
     1
102
RTVSPropertyOp26
 70
     1
102
RTVSPropertyOp27
 70
     1
102
RTVSPropertyOp28
 70
     1
102
RTVSPropertyOp29
 70
     1
102
RTVSPropertyOp30
 70
     1
102
RTVSPropertyOp31
 70
     1
102
RTVSPropertyOp32
 70
     1
102
RTVSPropertyOp33
 70
     1
102
RTVSPropertyOp34
 70
     1
102
RTVSPropertyOp35
 70
     1
102
RTVSPropertyOp36
 70
     1
102
RTVSPropertyOp37
 70
     1
102
RTVSPropertyOp38
 70
     1
102
RTVSPropertyOp39
 70
     1
102
RTVSPropertyOp40
 70
     1
102
RTVSPropertyOp41
 70
     1
102
RTVSPropertyOp42
 70
     1
102
RTVSPropertyOp43
 70
     1
102
RTVSPropertyOp44
 70
     1
102
RTVSPropertyOp45
 70
     1
102
RTVSPropertyOp46
 70
     1
102
RTVSPropertyOp47
 70
     1
102
RTVSPropertyOp48
 70
     1
102
RTVSPropertyOp49
 70
     1
102
RTVSPropertyOp50
 70
     1
102
RTVSPropertyOp51
 70
     0
102
RTVSPropertyOp52
 70
     0
102
RTVSPropertyOp53
 70
     1
102
RTVSPropertyOp54
 70
     1
102
RTVSPropertyOp55
 70
     1
102
RTVSPropertyOp56
 70
     1
102
RTVSPropertyOp57
 70
     1
102
RTVSPropertyOp58
 70
     1
102
RTVSPropertyOp59
 70
     1
102
RTVSPropertyOp60
 70
     1
102
RTVSPropertyOp61
 70
     1
102
RTVSPropertyOp62
 70
     1
  0
XRECORD
  5
1D20
102
{ACAD_REACTORS
330
1D1F
102
}
330
1D1F
100
AcDbXrecord
280
     1
102
RTVSPost2010Prop28
280
     0
102
RTVSPost2010PropOp28
 70
     1
102
RTVSPost2010Prop29
280
     1
102
RTVSPost2010PropOp29
 70
     1
102
RTVSPost2010Prop30
280
     1
102
RTVSPost2010PropOp30
 70
     1
102
RTVSPost2010Prop31
280
     0
102
RTVSPost2010PropOp31
 70
     1
102
RTVSPost2010Prop32
280
     0
102
RTVSPost2010PropOp32
 70
     1
102
RTVSPost2010Prop33
280
     0
102
RTVSPost2010PropOp33
 70
     1
102
RTVSPost2010Prop34
280
     0
102
RTVSPost2010PropOp34
 70
     1
102
RTVSPost2010Prop35
280
     0
102
RTVSPost2010PropOp35
 70
     1
102
RTVSPost2010Prop36
280
     0
102
RTVSPost2010PropOp36
 70
     1
102
RTVSPost2010Prop37
 90
       50
102
RTVSPost2010PropOp37
 70
     1
102
RTVSPost2010Prop38
140
0.0
102
RTVSPost2010PropOp38
 70
     1
102
RTVSPost2010Prop39
140
1.0
102
RTVSPost2010PropOp39
 70
     1
102
RTVSPost2010Prop40
 90
        0
102
RTVSPost2010PropOp40
 70
     1
102
RTVSPost2010Prop41ColorIndex
 90
       18
102
RTVSPost2010Prop41ColorRGB
 90
        0
102
RTVSPost2010PropOp41
 70
     1
102
RTVSPost2010Prop42
 90
       50
102
RTVSPost2010PropOp42
 70
     1
102
RTVSPost2010Prop43
 90
        3
102
RTVSPost2010PropOp43
 70
     1
102
RTVSPost2010Prop44ColorIndex
 90
        5
102
RTVSPost2010Prop44ColorRGB
 90
      255
102
RTVSPost2010PropOp44
 70
     1
102
RTVSPost2010Prop45
280
     0
102
RTVSPost2010PropOp45
 70
     1
102
RTVSPost2010Prop46
 90
       50
102
RTVSPost2010PropOp46
 70
     1
102
RTVSPost2010Prop47
 90
       50
102
RTVSPost2010PropOp47
 70
     1
102
RTVSPost2010Prop48
 90
       50
102
RTVSPost2010PropOp48
 70
     1
102
RTVSPost2010Prop49
280
     0
102
RTVSPost2010PropOp49
 70
     1
102
RTVSPost2010Prop50
 90
       50
102
RTVSPost2010PropOp50
 70
     1
102
RTVSPost2010Prop51ColorIndex
 90
      256
102
RTVSPost2010Prop51ColorRGB
 90
-16777216
102
RTVSPost2010PropOp51
 70
     0
102
RTVSPost2010Prop52
140
1.0
102
RTVSPost2010PropOp52
 70
     0
102
RTVSPost2010Prop53
 90
        2
102
RTVSPost2010PropOp53
 70
     1
102
RTVSPost2010Prop54
  1
strokes_ogs.tif
102
RTVSPost2010PropOp54
 70
     1
102
RTVSPost2010Prop55
280
     0
102
RTVSPost2010PropOp55
 70
     1
102
RTVSPost2010Prop56
140
1.0
102
RTVSPost2010PropOp56
 70
     1
102
RTVSPost2010Prop57
140
1.0
102
RTVSPost2010PropOp57
 70
     1
102
RTVSPropertyOp0
 70
     1
102
RTVSPropertyOp1
 70
     1
102
RTVSPropertyOp2
 70
     1
102
RTVSPropertyOp3
 70
     1
102
RTVSPropertyOp4
 70
     1
102
RTVSPropertyOp5
 70
     1
102
RTVSPropertyOp6
 70
     1
102
RTVSPropertyOp7
 70
     1
102
RTVSPropertyOp8
 70
     1
102
RTVSPropertyOp9
 70
     1
102
RTVSPropertyOp10
 70
     1
102
RTVSPropertyOp11
 70
     1
102
RTVSPropertyOp12
 70
     1
102
RTVSPropertyOp13
 70
     1
102
RTVSPropertyOp14
 70
     1
102
RTVSPropertyOp15
 70
     1
102
RTVSPropertyOp16
 70
     1
102
RTVSPropertyOp17
 70
     1
102
RTVSPropertyOp18
 70
     1
102
RTVSPropertyOp19
 70
     1
102
RTVSPropertyOp20
 70
     1
102
RTVSPropertyOp21
 70
     1
102
RTVSPropertyOp22
 70
     1
102
RTVSPropertyOp23
 70
     1
102
RTVSPropertyOp24
 70
     1
102
RTVSPropertyOp25
 70
     1
102
RTVSPropertyOp26
 70
     1
102
RTVSPropertyOp27
 70
     1
102
RTVSPropertyOp28
 70
     1
102
RTVSPropertyOp29
 70
     1
102
RTVSPropertyOp30
 70
     1
102
RTVSPropertyOp31
 70
     1
102
RTVSPropertyOp32
 70
     1
102
RTVSPropertyOp33
 70
     1
102
RTVSPropertyOp34
 70
     1
102
RTVSPropertyOp35
 70
     1
102
RTVSPropertyOp36
 70
     1
102
RTVSPropertyOp37
 70
     1
102
RTVSPropertyOp38
 70
     1
102
RTVSPropertyOp39
 70
     1
102
RTVSPropertyOp40
 70
     1
102
RTVSPropertyOp41
 70
     1
102
RTVSPropertyOp42
 70
     1
102
RTVSPropertyOp43
 70
     1
102
RTVSPropertyOp44
 70
     1
102
RTVSPropertyOp45
 70
     1
102
RTVSPropertyOp46
 70
     1
102
RTVSPropertyOp47
 70
     1
102
RTVSPropertyOp48
 70
     1
102
RTVSPropertyOp49
 70
     1
102
RTVSPropertyOp50
 70
     1
102
RTVSPropertyOp51
 70
     0
102
RTVSPropertyOp52
 70
     0
102
RTVSPropertyOp53
 70
     1
102
RTVSPropertyOp54
 70
     1
102
RTVSPropertyOp55
 70
     1
102
RTVSPropertyOp56
 70
     1
102
RTVSPropertyOp57
 70
     1
102
RTVSPropertyOp58
 70
     1
102
RTVSPropertyOp59
 70
     1
102
RTVSPropertyOp60
 70
     1
102
RTVSPropertyOp61
 70
     1
102
RTVSPropertyOp62
 70
     1
  0
XRECORD
  5
1D28
102
{ACAD_REACTORS
330
1D27
102
}
330
1D27
100
AcDbXrecord
280
     1
102
RTVSPost2010Prop28
280
     0
102
RTVSPost2010PropOp28
 70
     1
102
RTVSPost2010Prop29
280
     1
102
RTVSPost2010PropOp29
 70
     1
102
RTVSPost2010Prop30
280
     1
102
RTVSPost2010PropOp30
 70
     1
102
RTVSPost2010Prop31
280
     0
102
RTVSPost2010PropOp31
 70
     1
102
RTVSPost2010Prop32
280
     0
102
RTVSPost2010PropOp32
 70
     1
102
RTVSPost2010Prop33
280
     0
102
RTVSPost2010PropOp33
 70
     1
102
RTVSPost2010Prop34
280
     0
102
RTVSPost2010PropOp34
 70
     1
102
RTVSPost2010Prop35
280
     0
102
RTVSPost2010PropOp35
 70
     1
102
RTVSPost2010Prop36
280
     0
102
RTVSPost2010PropOp36
 70
     1
102
RTVSPost2010Prop37
 90
       50
102
RTVSPost2010PropOp37
 70
     1
102
RTVSPost2010Prop38
140
0.0
102
RTVSPost2010PropOp38
 70
     1
102
RTVSPost2010Prop39
140
1.0
102
RTVSPost2010PropOp39
 70
     1
102
RTVSPost2010Prop40
 90
        0
102
RTVSPost2010PropOp40
 70
     1
102
RTVSPost2010Prop41ColorIndex
 90
       18
102
RTVSPost2010Prop41ColorRGB
 90
        0
102
RTVSPost2010PropOp41
 70
     1
102
RTVSPost2010Prop42
 90
       50
102
RTVSPost2010PropOp42
 70
     1
102
RTVSPost2010Prop43
 90
        3
102
RTVSPost2010PropOp43
 70
     1
102
RTVSPost2010Prop44ColorIndex
 90
        5
102
RTVSPost2010Prop44ColorRGB
 90
      255
102
RTVSPost2010PropOp44
 70
     1
102
RTVSPost2010Prop45
280
     0
102
RTVSPost2010PropOp45
 70
     1
102
RTVSPost2010Prop46
 90
       50
102
RTVSPost2010PropOp46
 70
     1
102
RTVSPost2010Prop47
 90
       50
102
RTVSPost2010PropOp47
 70
     1
102
RTVSPost2010Prop48
 90
       50
102
RTVSPost2010PropOp48
 70
     1
102
RTVSPost2010Prop49
280
     0
102
RTVSPost2010PropOp49
 70
     1
102
RTVSPost2010Prop50
 90
       50
102
RTVSPost2010PropOp50
 70
     1
102
RTVSPost2010Prop51ColorIndex
 90
      256
102
RTVSPost2010Prop51ColorRGB
 90
-16777216
102
RTVSPost2010PropOp51
 70
     0
102
RTVSPost2010Prop52
140
1.0
102
RTVSPost2010PropOp52
 70
     0
102
RTVSPost2010Prop53
 90
        2
102
RTVSPost2010PropOp53
 70
     1
102
RTVSPost2010Prop54
  1
strokes_ogs.tif
102
RTVSPost2010PropOp54
 70
     1
102
RTVSPost2010Prop55
280
     0
102
RTVSPost2010PropOp55
 70
     1
102
RTVSPost2010Prop56
140
1.0
102
RTVSPost2010PropOp56
 70
     1
102
RTVSPost2010Prop57
140
1.0
102
RTVSPost2010PropOp57
 70
     1
102
RTVSPropertyOp0
 70
     1
102
RTVSPropertyOp1
 70
     1
102
RTVSPropertyOp2
 70
     1
102
RTVSPropertyOp3
 70
     1
102
RTVSPropertyOp4
 70
     1
102
RTVSPropertyOp5
 70
     1
102
RTVSPropertyOp6
 70
     1
102
RTVSPropertyOp7
 70
     1
102
RTVSPropertyOp8
 70
     1
102
RTVSPropertyOp9
 70
     1
102
RTVSPropertyOp10
 70
     1
102
RTVSPropertyOp11
 70
     1
102
RTVSPropertyOp12
 70
     1
102
RTVSPropertyOp13
 70
     1
102
RTVSPropertyOp14
 70
     1
102
RTVSPropertyOp15
 70
     1
102
RTVSPropertyOp16
 70
     1
102
RTVSPropertyOp17
 70
     1
102
RTVSPropertyOp18
 70
     1
102
RTVSPropertyOp19
 70
     1
102
RTVSPropertyOp20
 70
     1
102
RTVSPropertyOp21
 70
     1
102
RTVSPropertyOp22
 70
     1
102
RTVSPropertyOp23
 70
     1
102
RTVSPropertyOp24
 70
     1
102
RTVSPropertyOp25
 70
     1
102
RTVSPropertyOp26
 70
     1
102
RTVSPropertyOp27
 70
     1
102
RTVSPropertyOp28
 70
     1
102
RTVSPropertyOp29
 70
     1
102
RTVSPropertyOp30
 70
     1
102
RTVSPropertyOp31
 70
     1
102
RTVSPropertyOp32
 70
     1
102
RTVSPropertyOp33
 70
     1
102
RTVSPropertyOp34
 70
     1
102
RTVSPropertyOp35
 70
     1
102
RTVSPropertyOp36
 70
     1
102
RTVSPropertyOp37
 70
     1
102
RTVSPropertyOp38
 70
     1
102
RTVSPropertyOp39
 70
     1
102
RTVSPropertyOp40
 70
     1
102
RTVSPropertyOp41
 70
     1
102
RTVSPropertyOp42
 70
     1
102
RTVSPropertyOp43
 70
     1
102
RTVSPropertyOp44
 70
     1
102
RTVSPropertyOp45
 70
     1
102
RTVSPropertyOp46
 70
     1
102
RTVSPropertyOp47
 70
     1
102
RTVSPropertyOp48
 70
     1
102
RTVSPropertyOp49
 70
     1
102
RTVSPropertyOp50
 70
     1
102
RTVSPropertyOp51
 70
     0
102
RTVSPropertyOp52
 70
     0
102
RTVSPropertyOp53
 70
     1
102
RTVSPropertyOp54
 70
     1
102
RTVSPropertyOp55
 70
     1
102
RTVSPropertyOp56
 70
     1
102
RTVSPropertyOp57
 70
     1
102
RTVSPropertyOp58
 70
     1
102
RTVSPropertyOp59
 70
     1
102
RTVSPropertyOp60
 70
     1
102
RTVSPropertyOp61
 70
     1
102
RTVSPropertyOp62
 70
     1
  0
XRECORD
  5
1D1A
102
{ACAD_REACTORS
330
1D19
102
}
330
1D19
100
AcDbXrecord
280
     1
102
RTVSPost2010Prop28
280
     0
102
RTVSPost2010PropOp28
 70
     1
102
RTVSPost2010Prop29
280
     1
102
RTVSPost2010PropOp29
 70
     1
102
RTVSPost2010Prop30
280
     1
102
RTVSPost2010PropOp30
 70
     1
102
RTVSPost2010Prop31
280
     0
102
RTVSPost2010PropOp31
 70
     1
102
RTVSPost2010Prop32
280
     0
102
RTVSPost2010PropOp32
 70
     1
102
RTVSPost2010Prop33
280
     0
102
RTVSPost2010PropOp33
 70
     1
102
RTVSPost2010Prop34
280
     0
102
RTVSPost2010PropOp34
 70
     1
102
RTVSPost2010Prop35
280
     0
102
RTVSPost2010PropOp35
 70
     1
102
RTVSPost2010Prop36
280
     0
102
RTVSPost2010PropOp36
 70
     1
102
RTVSPost2010Prop37
 90
       50
102
RTVSPost2010PropOp37
 70
     1
102
RTVSPost2010Prop38
140
0.0
102
RTVSPost2010PropOp38
 70
     1
102
RTVSPost2010Prop39
140
1.0
102
RTVSPost2010PropOp39
 70
     1
102
RTVSPost2010Prop40
 90
        0
102
RTVSPost2010PropOp40
 70
     1
102
RTVSPost2010Prop41ColorIndex
 90
       18
102
RTVSPost2010Prop41ColorRGB
 90
        0
102
RTVSPost2010PropOp41
 70
     1
102
RTVSPost2010Prop42
 90
       50
102
RTVSPost2010PropOp42
 70
     1
102
RTVSPost2010Prop43
 90
        3
102
RTVSPost2010PropOp43
 70
     1
102
RTVSPost2010Prop44ColorIndex
 90
        5
102
RTVSPost2010Prop44ColorRGB
 90
      255
102
RTVSPost2010PropOp44
 70
     1
102
RTVSPost2010Prop45
280
     0
102
RTVSPost2010PropOp45
 70
     1
102
RTVSPost2010Prop46
 90
       50
102
RTVSPost2010PropOp46
 70
     1
102
RTVSPost2010Prop47
 90
       50
102
RTVSPost2010PropOp47
 70
     1
102
RTVSPost2010Prop48
 90
       50
102
RTVSPost2010PropOp48
 70
     1
102
RTVSPost2010Prop49
280
     0
102
RTVSPost2010PropOp49
 70
     1
102
RTVSPost2010Prop50
 90
       50
102
RTVSPost2010PropOp50
 70
     1
102
RTVSPost2010Prop51ColorIndex
 90
      256
102
RTVSPost2010Prop51ColorRGB
 90
-16777216
102
RTVSPost2010PropOp51
 70
     0
102
RTVSPost2010Prop52
140
1.0
102
RTVSPost2010PropOp52
 70
     0
102
RTVSPost2010Prop53
 90
        2
102
RTVSPost2010PropOp53
 70
     1
102
RTVSPost2010Prop54
  1
strokes_ogs.tif
102
RTVSPost2010PropOp54
 70
     1
102
RTVSPost2010Prop55
280
     0
102
RTVSPost2010PropOp55
 70
     1
102
RTVSPost2010Prop56
140
1.0
102
RTVSPost2010PropOp56
 70
     1
102
RTVSPost2010Prop57
140
1.0
102
RTVSPost2010PropOp57
 70
     1
102
RTVSPropertyOp0
 70
     1
102
RTVSPropertyOp1
 70
     1
102
RTVSPropertyOp2
 70
     1
102
RTVSPropertyOp3
 70
     1
102
RTVSPropertyOp4
 70
     1
102
RTVSPropertyOp5
 70
     1
102
RTVSPropertyOp6
 70
     1
102
RTVSPropertyOp7
 70
     1
102
RTVSPropertyOp8
 70
     1
102
RTVSPropertyOp9
 70
     1
102
RTVSPropertyOp10
 70
     1
102
RTVSPropertyOp11
 70
     1
102
RTVSPropertyOp12
 70
     1
102
RTVSPropertyOp13
 70
     1
102
RTVSPropertyOp14
 70
     1
102
RTVSPropertyOp15
 70
     1
102
RTVSPropertyOp16
 70
     1
102
RTVSPropertyOp17
 70
     1
102
RTVSPropertyOp18
 70
     1
102
RTVSPropertyOp19
 70
     1
102
RTVSPropertyOp20
 70
     1
102
RTVSPropertyOp21
 70
     1
102
RTVSPropertyOp22
 70
     1
102
RTVSPropertyOp23
 70
     1
102
RTVSPropertyOp24
 70
     1
102
RTVSPropertyOp25
 70
     1
102
RTVSPropertyOp26
 70
     1
102
RTVSPropertyOp27
 70
     1
102
RTVSPropertyOp28
 70
     1
102
RTVSPropertyOp29
 70
     1
102
RTVSPropertyOp30
 70
     1
102
RTVSPropertyOp31
 70
     1
102
RTVSPropertyOp32
 70
     1
102
RTVSPropertyOp33
 70
     1
102
RTVSPropertyOp34
 70
     1
102
RTVSPropertyOp35
 70
     1
102
RTVSPropertyOp36
 70
     1
102
RTVSPropertyOp37
 70
     1
102
RTVSPropertyOp38
 70
     1
102
RTVSPropertyOp39
 70
     1
102
RTVSPropertyOp40
 70
     1
102
RTVSPropertyOp41
 70
     1
102
RTVSPropertyOp42
 70
     1
102
RTVSPropertyOp43
 70
     1
102
RTVSPropertyOp44
 70
     1
102
RTVSPropertyOp45
 70
     1
102
RTVSPropertyOp46
 70
     1
102
RTVSPropertyOp47
 70
     1
102
RTVSPropertyOp48
 70
     1
102
RTVSPropertyOp49
 70
     1
102
RTVSPropertyOp50
 70
     1
102
RTVSPropertyOp51
 70
     0
102
RTVSPropertyOp52
 70
     0
102
RTVSPropertyOp53
 70
     1
102
RTVSPropertyOp54
 70
     1
102
RTVSPropertyOp55
 70
     1
102
RTVSPropertyOp56
 70
     1
102
RTVSPropertyOp57
 70
     1
102
RTVSPropertyOp58
 70
     1
102
RTVSPropertyOp59
 70
     1
102
RTVSPropertyOp60
 70
     1
102
RTVSPropertyOp61
 70
     1
102
RTVSPropertyOp62
 70
     1
  0
XRECORD
  5
1D1E
102
{ACAD_REACTORS
330
1D1D
102
}
330
1D1D
100
AcDbXrecord
280
     1
102
RTVSPost2010Prop28
280
     0
102
RTVSPost2010PropOp28
 70
     1
102
RTVSPost2010Prop29
280
     1
102
RTVSPost2010PropOp29
 70
     1
102
RTVSPost2010Prop30
280
     1
102
RTVSPost2010PropOp30
 70
     1
102
RTVSPost2010Prop31
280
     0
102
RTVSPost2010PropOp31
 70
     1
102
RTVSPost2010Prop32
280
     0
102
RTVSPost2010PropOp32
 70
     1
102
RTVSPost2010Prop33
280
     0
102
RTVSPost2010PropOp33
 70
     1
102
RTVSPost2010Prop34
280
     0
102
RTVSPost2010PropOp34
 70
     1
102
RTVSPost2010Prop35
280
     0
102
RTVSPost2010PropOp35
 70
     1
102
RTVSPost2010Prop36
280
     0
102
RTVSPost2010PropOp36
 70
     1
102
RTVSPost2010Prop37
 90
       50
102
RTVSPost2010PropOp37
 70
     1
102
RTVSPost2010Prop38
140
0.0
102
RTVSPost2010PropOp38
 70
     1
102
RTVSPost2010Prop39
140
1.0
102
RTVSPost2010PropOp39
 70
     1
102
RTVSPost2010Prop40
 90
        0
102
RTVSPost2010PropOp40
 70
     1
102
RTVSPost2010Prop41ColorIndex
 90
       18
102
RTVSPost2010Prop41ColorRGB
 90
        0
102
RTVSPost2010PropOp41
 70
     1
102
RTVSPost2010Prop42
 90
       50
102
RTVSPost2010PropOp42
 70
     1
102
RTVSPost2010Prop43
 90
        3
102
RTVSPost2010PropOp43
 70
     1
102
RTVSPost2010Prop44ColorIndex
 90
        5
102
RTVSPost2010Prop44ColorRGB
 90
      255
102
RTVSPost2010PropOp44
 70
     1
102
RTVSPost2010Prop45
280
     0
102
RTVSPost2010PropOp45
 70
     1
102
RTVSPost2010Prop46
 90
       50
102
RTVSPost2010PropOp46
 70
     1
102
RTVSPost2010Prop47
 90
       50
102
RTVSPost2010PropOp47
 70
     1
102
RTVSPost2010Prop48
 90
       50
102
RTVSPost2010PropOp48
 70
     1
102
RTVSPost2010Prop49
280
     0
102
RTVSPost2010PropOp49
 70
     1
102
RTVSPost2010Prop50
 90
       50
102
RTVSPost2010PropOp50
 70
     1
102
RTVSPost2010Prop51ColorIndex
 90
      256
102
RTVSPost2010Prop51ColorRGB
 90
-16777216
102
RTVSPost2010PropOp51
 70
     0
102
RTVSPost2010Prop52
140
1.0
102
RTVSPost2010PropOp52
 70
     0
102
RTVSPost2010Prop53
 90
        2
102
RTVSPost2010PropOp53
 70
     1
102
RTVSPost2010Prop54
  1
strokes_ogs.tif
102
RTVSPost2010PropOp54
 70
     1
102
RTVSPost2010Prop55
280
     0
102
RTVSPost2010PropOp55
 70
     1
102
RTVSPost2010Prop56
140
1.0
102
RTVSPost2010PropOp56
 70
     1
102
RTVSPost2010Prop57
140
1.0
102
RTVSPost2010PropOp57
 70
     1
102
RTVSPropertyOp0
 70
     1
102
RTVSPropertyOp1
 70
     1
102
RTVSPropertyOp2
 70
     1
102
RTVSPropertyOp3
 70
     1
102
RTVSPropertyOp4
 70
     1
102
RTVSPropertyOp5
 70
     1
102
RTVSPropertyOp6
 70
     1
102
RTVSPropertyOp7
 70
     1
102
RTVSPropertyOp8
 70
     1
102
RTVSPropertyOp9
 70
     1
102
RTVSPropertyOp10
 70
     1
102
RTVSPropertyOp11
 70
     1
102
RTVSPropertyOp12
 70
     1
102
RTVSPropertyOp13
 70
     1
102
RTVSPropertyOp14
 70
     1
102
RTVSPropertyOp15
 70
     1
102
RTVSPropertyOp16
 70
     1
102
RTVSPropertyOp17
 70
     1
102
RTVSPropertyOp18
 70
     1
102
RTVSPropertyOp19
 70
     1
102
RTVSPropertyOp20
 70
     1
102
RTVSPropertyOp21
 70
     1
102
RTVSPropertyOp22
 70
     1
102
RTVSPropertyOp23
 70
     1
102
RTVSPropertyOp24
 70
     1
102
RTVSPropertyOp25
 70
     1
102
RTVSPropertyOp26
 70
     1
102
RTVSPropertyOp27
 70
     1
102
RTVSPropertyOp28
 70
     1
102
RTVSPropertyOp29
 70
     1
102
RTVSPropertyOp30
 70
     1
102
RTVSPropertyOp31
 70
     1
102
RTVSPropertyOp32
 70
     1
102
RTVSPropertyOp33
 70
     1
102
RTVSPropertyOp34
 70
     1
102
RTVSPropertyOp35
 70
     1
102
RTVSPropertyOp36
 70
     1
102
RTVSPropertyOp37
 70
     1
102
RTVSPropertyOp38
 70
     1
102
RTVSPropertyOp39
 70
     1
102
RTVSPropertyOp40
 70
     1
102
RTVSPropertyOp41
 70
     1
102
RTVSPropertyOp42
 70
     1
102
RTVSPropertyOp43
 70
     1
102
RTVSPropertyOp44
 70
     1
102
RTVSPropertyOp45
 70
     1
102
RTVSPropertyOp46
 70
     1
102
RTVSPropertyOp47
 70
     1
102
RTVSPropertyOp48
 70
     1
102
RTVSPropertyOp49
 70
     1
102
RTVSPropertyOp50
 70
     1
102
RTVSPropertyOp51
 70
     0
102
RTVSPropertyOp52
 70
     0
102
RTVSPropertyOp53
 70
     1
102
RTVSPropertyOp54
 70
     1
102
RTVSPropertyOp55
 70
     1
102
RTVSPropertyOp56
 70
     1
102
RTVSPropertyOp57
 70
     1
102
RTVSPropertyOp58
 70
     1
102
RTVSPropertyOp59
 70
     1
102
RTVSPropertyOp60
 70
     1
102
RTVSPropertyOp61
 70
     1
102
RTVSPropertyOp62
 70
     1
  0
XRECORD
  5
1D38
102
{ACAD_REACTORS
330
1D37
102
}
330
1D37
100
AcDbXrecord
280
     1
102
RTVSPost2010Prop28
280
     0
102
RTVSPost2010PropOp28
 70
     1
102
RTVSPost2010Prop29
280
     1
102
RTVSPost2010PropOp29
 70
     1
102
RTVSPost2010Prop30
280
     1
102
RTVSPost2010PropOp30
 70
     1
102
RTVSPost2010Prop31
280
     0
102
RTVSPost2010PropOp31
 70
     1
102
RTVSPost2010Prop32
280
     0
102
RTVSPost2010PropOp32
 70
     1
102
RTVSPost2010Prop33
280
     0
102
RTVSPost2010PropOp33
 70
     1
102
RTVSPost2010Prop34
280
     0
102
RTVSPost2010PropOp34
 70
     1
102
RTVSPost2010Prop35
280
     0
102
RTVSPost2010PropOp35
 70
     1
102
RTVSPost2010Prop36
280
     0
102
RTVSPost2010PropOp36
 70
     1
102
RTVSPost2010Prop37
 90
       50
102
RTVSPost2010PropOp37
 70
     0
102
RTVSPost2010Prop38
140
0.0
102
RTVSPost2010PropOp38
 70
     0
102
RTVSPost2010Prop39
140
1.0
102
RTVSPost2010PropOp39
 70
     0
102
RTVSPost2010Prop40
 90
        0
102
RTVSPost2010PropOp40
 70
     0
102
RTVSPost2010Prop41ColorIndex
 90
       18
102
RTVSPost2010Prop41ColorRGB
 90
        0
102
RTVSPost2010PropOp41
 70
     0
102
RTVSPost2010Prop42
 90
       50
102
RTVSPost2010PropOp42
 70
     0
102
RTVSPost2010Prop43
 90
        3
102
RTVSPost2010PropOp43
 70
     0
102
RTVSPost2010Prop44ColorIndex
 90
        5
102
RTVSPost2010Prop44ColorRGB
 90
      255
102
RTVSPost2010PropOp44
 70
     0
102
RTVSPost2010Prop45
280
     0
102
RTVSPost2010PropOp45
 70
     1
102
RTVSPost2010Prop46
 90
       50
102
RTVSPost2010PropOp46
 70
     0
102
RTVSPost2010Prop47
 90
       50
102
RTVSPost2010PropOp47
 70
     0
102
RTVSPost2010Prop48
 90
       50
102
RTVSPost2010PropOp48
 70
     0
102
RTVSPost2010Prop49
280
     0
102
RTVSPost2010PropOp49
 70
     1
102
RTVSPost2010Prop50
 90
       50
102
RTVSPost2010PropOp50
 70
     0
102
RTVSPost2010Prop51ColorIndex
 90
      256
102
RTVSPost2010Prop51ColorRGB
 90
-16777216
102
RTVSPost2010PropOp51
 70
     0
102
RTVSPost2010Prop52
140
1.0
102
RTVSPost2010PropOp52
 70
     0
102
RTVSPost2010Prop53
 90
        2
102
RTVSPost2010PropOp53
 70
     0
102
RTVSPost2010Prop54
  1
strokes_ogs.tif
102
RTVSPost2010PropOp54
 70
     0
102
RTVSPost2010Prop55
280
     0
102
RTVSPost2010PropOp55
 70
     1
102
RTVSPost2010Prop56
140
1.0
102
RTVSPost2010PropOp56
 70
     0
102
RTVSPost2010Prop57
140
1.0
102
RTVSPost2010PropOp57
 70
     0
102
RTVSPropertyOp0
 70
     0
102
RTVSPropertyOp1
 70
     0
102
RTVSPropertyOp2
 70
     0
102
RTVSPropertyOp3
 70
     0
102
RTVSPropertyOp4
 70
     0
102
RTVSPropertyOp5
 70
     0
102
RTVSPropertyOp6
 70
     0
102
RTVSPropertyOp7
 70
     0
102
RTVSPropertyOp8
 70
     0
102
RTVSPropertyOp9
 70
     0
102
RTVSPropertyOp10
 70
     0
102
RTVSPropertyOp11
 70
     0
102
RTVSPropertyOp12
 70
     0
102
RTVSPropertyOp13
 70
     0
102
RTVSPropertyOp14
 70
     2
102
RTVSPropertyOp15
 70
     0
102
RTVSPropertyOp16
 70
     0
102
RTVSPropertyOp17
 70
     0
102
RTVSPropertyOp18
 70
     0
102
RTVSPropertyOp19
 70
     0
102
RTVSPropertyOp20
 70
     0
102
RTVSPropertyOp21
 70
     0
102
RTVSPropertyOp22
 70
     0
102
RTVSPropertyOp23
 70
     0
102
RTVSPropertyOp24
 70
     0
102
RTVSPropertyOp25
 70
     0
102
RTVSPropertyOp26
 70
     0
102
RTVSPropertyOp27
 70
     0
102
RTVSPropertyOp28
 70
     1
102
RTVSPropertyOp29
 70
     1
102
RTVSPropertyOp30
 70
     1
102
RTVSPropertyOp31
 70
     1
102
RTVSPropertyOp32
 70
     1
102
RTVSPropertyOp33
 70
     1
102
RTVSPropertyOp34
 70
     1
102
RTVSPropertyOp35
 70
     1
102
RTVSPropertyOp36
 70
     1
102
RTVSPropertyOp37
 70
     0
102
RTVSPropertyOp38
 70
     0
102
RTVSPropertyOp39
 70
     0
102
RTVSPropertyOp40
 70
     0
102
RTVSPropertyOp41
 70
     0
102
RTVSPropertyOp42
 70
     0
102
RTVSPropertyOp43
 70
     0
102
RTVSPropertyOp44
 70
     0
102
RTVSPropertyOp45
 70
     1
102
RTVSPropertyOp46
 70
     0
102
RTVSPropertyOp47
 70
     0
102
RTVSPropertyOp48
 70
     0
102
RTVSPropertyOp49
 70
     1
102
RTVSPropertyOp50
 70
     0
102
RTVSPropertyOp51
 70
     0
102
RTVSPropertyOp52
 70
     0
102
RTVSPropertyOp53
 70
     0
102
RTVSPropertyOp54
 70
     0
102
RTVSPropertyOp55
 70
     1
102
RTVSPropertyOp56
 70
     0
102
RTVSPropertyOp57
 70
     0
102
RTVSPropertyOp58
 70
     0
102
RTVSPropertyOp59
 70
     0
102
RTVSPropertyOp60
 70
     0
102
RTVSPropertyOp61
 70
     0
102
RTVSPropertyOp62
 70
     0
  0
XRECORD
  5
1D26
102
{ACAD_REACTORS
330
1D25
102
}
330
1D25
100
AcDbXrecord
280
     1
102
RTVSPost2010Prop28
280
     0
102
RTVSPost2010PropOp28
 70
     1
102
RTVSPost2010Prop29
280
     1
102
RTVSPost2010PropOp29
 70
     1
102
RTVSPost2010Prop30
280
     1
102
RTVSPost2010PropOp30
 70
     1
102
RTVSPost2010Prop31
280
     0
102
RTVSPost2010PropOp31
 70
     1
102
RTVSPost2010Prop32
280
     0
102
RTVSPost2010PropOp32
 70
     1
102
RTVSPost2010Prop33
280
     0
102
RTVSPost2010PropOp33
 70
     1
102
RTVSPost2010Prop34
280
     0
102
RTVSPost2010PropOp34
 70
     1
102
RTVSPost2010Prop35
280
     0
102
RTVSPost2010PropOp35
 70
     1
102
RTVSPost2010Prop36
280
     0
102
RTVSPost2010PropOp36
 70
     1
102
RTVSPost2010Prop37
 90
       50
102
RTVSPost2010PropOp37
 70
     1
102
RTVSPost2010Prop38
140
0.0
102
RTVSPost2010PropOp38
 70
     1
102
RTVSPost2010Prop39
140
1.0
102
RTVSPost2010PropOp39
 70
     1
102
RTVSPost2010Prop40
 90
        0
102
RTVSPost2010PropOp40
 70
     1
102
RTVSPost2010Prop41ColorIndex
 90
       18
102
RTVSPost2010Prop41ColorRGB
 90
        0
102
RTVSPost2010PropOp41
 70
     1
102
RTVSPost2010Prop42
 90
       50
102
RTVSPost2010PropOp42
 70
     1
102
RTVSPost2010Prop43
 90
        3
102
RTVSPost2010PropOp43
 70
     1
102
RTVSPost2010Prop44ColorIndex
 90
        5
102
RTVSPost2010Prop44ColorRGB
 90
      255
102
RTVSPost2010PropOp44
 70
     1
102
RTVSPost2010Prop45
280
     0
102
RTVSPost2010PropOp45
 70
     1
102
RTVSPost2010Prop46
 90
       50
102
RTVSPost2010PropOp46
 70
     1
102
RTVSPost2010Prop47
 90
       50
102
RTVSPost2010PropOp47
 70
     1
102
RTVSPost2010Prop48
 90
       50
102
RTVSPost2010PropOp48
 70
     1
102
RTVSPost2010Prop49
280
     0
102
RTVSPost2010PropOp49
 70
     1
102
RTVSPost2010Prop50
 90
       50
102
RTVSPost2010PropOp50
 70
     1
102
RTVSPost2010Prop51ColorIndex
 90
      256
102
RTVSPost2010Prop51ColorRGB
 90
-16777216
102
RTVSPost2010PropOp51
 70
     0
102
RTVSPost2010Prop52
140
1.0
102
RTVSPost2010PropOp52
 70
     0
102
RTVSPost2010Prop53
 90
        2
102
RTVSPost2010PropOp53
 70
     1
102
RTVSPost2010Prop54
  1
strokes_ogs.tif
102
RTVSPost2010PropOp54
 70
     1
102
RTVSPost2010Prop55
280
     0
102
RTVSPost2010PropOp55
 70
     1
102
RTVSPost2010Prop56
140
1.0
102
RTVSPost2010PropOp56
 70
     1
102
RTVSPost2010Prop57
140
1.0
102
RTVSPost2010PropOp57
 70
     1
102
RTVSPropertyOp0
 70
     1
102
RTVSPropertyOp1
 70
     1
102
RTVSPropertyOp2
 70
     1
102
RTVSPropertyOp3
 70
     1
102
RTVSPropertyOp4
 70
     1
102
RTVSPropertyOp5
 70
     1
102
RTVSPropertyOp6
 70
     1
102
RTVSPropertyOp7
 70
     1
102
RTVSPropertyOp8
 70
     1
102
RTVSPropertyOp9
 70
     1
102
RTVSPropertyOp10
 70
     1
102
RTVSPropertyOp11
 70
     1
102
RTVSPropertyOp12
 70
     1
102
RTVSPropertyOp13
 70
     1
102
RTVSPropertyOp14
 70
     1
102
RTVSPropertyOp15
 70
     1
102
RTVSPropertyOp16
 70
     1
102
RTVSPropertyOp17
 70
     1
102
RTVSPropertyOp18
 70
     1
102
RTVSPropertyOp19
 70
     1
102
RTVSPropertyOp20
 70
     1
102
RTVSPropertyOp21
 70
     1
102
RTVSPropertyOp22
 70
     1
102
RTVSPropertyOp23
 70
     1
102
RTVSPropertyOp24
 70
     1
102
RTVSPropertyOp25
 70
     1
102
RTVSPropertyOp26
 70
     1
102
RTVSPropertyOp27
 70
     1
102
RTVSPropertyOp28
 70
     1
102
RTVSPropertyOp29
 70
     1
102
RTVSPropertyOp30
 70
     1
102
RTVSPropertyOp31
 70
     1
102
RTVSPropertyOp32
 70
     1
102
RTVSPropertyOp33
 70
     1
102
RTVSPropertyOp34
 70
     1
102
RTVSPropertyOp35
 70
     1
102
RTVSPropertyOp36
 70
     1
102
RTVSPropertyOp37
 70
     1
102
RTVSPropertyOp38
 70
     1
102
RTVSPropertyOp39
 70
     1
102
RTVSPropertyOp40
 70
     1
102
RTVSPropertyOp41
 70
     1
102
RTVSPropertyOp42
 70
     1
102
RTVSPropertyOp43
 70
     1
102
RTVSPropertyOp44
 70
     1
102
RTVSPropertyOp45
 70
     1
102
RTVSPropertyOp46
 70
     1
102
RTVSPropertyOp47
 70
     1
102
RTVSPropertyOp48
 70
     1
102
RTVSPropertyOp49
 70
     1
102
RTVSPropertyOp50
 70
     1
102
RTVSPropertyOp51
 70
     0
102
RTVSPropertyOp52
 70
     0
102
RTVSPropertyOp53
 70
     1
102
RTVSPropertyOp54
 70
     1
102
RTVSPropertyOp55
 70
     1
102
RTVSPropertyOp56
 70
     1
102
RTVSPropertyOp57
 70
     1
102
RTVSPropertyOp58
 70
     1
102
RTVSPropertyOp59
 70
     1
102
RTVSPropertyOp60
 70
     1
102
RTVSPropertyOp61
 70
     1
102
RTVSPropertyOp62
 70
     1
  0
XRECORD
  5
1D0A
102
{ACAD_REACTORS
330
1D09
102
}
330
1D09
100
AcDbXrecord
280
     1
102
RTVSPost2010Prop28
280
     0
102
RTVSPost2010PropOp28
 70
     1
102
RTVSPost2010Prop29
280
     1
102
RTVSPost2010PropOp29
 70
     1
102
RTVSPost2010Prop30
280
     1
102
RTVSPost2010PropOp30
 70
     1
102
RTVSPost2010Prop31
280
     0
102
RTVSPost2010PropOp31
 70
     1
102
RTVSPost2010Prop32
280
     0
102
RTVSPost2010PropOp32
 70
     1
102
RTVSPost2010Prop33
280
     0
102
RTVSPost2010PropOp33
 70
     1
102
RTVSPost2010Prop34
280
     0
102
RTVSPost2010PropOp34
 70
     1
102
RTVSPost2010Prop35
280
     0
102
RTVSPost2010PropOp35
 70
     1
102
RTVSPost2010Prop36
280
     0
102
RTVSPost2010PropOp36
 70
     1
102
RTVSPost2010Prop37
 90
       50
102
RTVSPost2010PropOp37
 70
     1
102
RTVSPost2010Prop38
140
0.0
102
RTVSPost2010PropOp38
 70
     1
102
RTVSPost2010Prop39
140
1.0
102
RTVSPost2010PropOp39
 70
     1
102
RTVSPost2010Prop40
 90
        0
102
RTVSPost2010PropOp40
 70
     1
102
RTVSPost2010Prop41ColorIndex
 90
       18
102
RTVSPost2010Prop41ColorRGB
 90
        0
102
RTVSPost2010PropOp41
 70
     1
102
RTVSPost2010Prop42
 90
       50
102
RTVSPost2010PropOp42
 70
     1
102
RTVSPost2010Prop43
 90
        3
102
RTVSPost2010PropOp43
 70
     1
102
RTVSPost2010Prop44ColorIndex
 90
        5
102
RTVSPost2010Prop44ColorRGB
 90
      255
102
RTVSPost2010PropOp44
 70
     1
102
RTVSPost2010Prop45
280
     0
102
RTVSPost2010PropOp45
 70
     1
102
RTVSPost2010Prop46
 90
       50
102
RTVSPost2010PropOp46
 70
     1
102
RTVSPost2010Prop47
 90
       50
102
RTVSPost2010PropOp47
 70
     1
102
RTVSPost2010Prop48
 90
       50
102
RTVSPost2010PropOp48
 70
     1
102
RTVSPost2010Prop49
280
     0
102
RTVSPost2010PropOp49
 70
     1
102
RTVSPost2010Prop50
 90
       50
102
RTVSPost2010PropOp50
 70
     1
102
RTVSPost2010Prop51ColorIndex
 90
      256
102
RTVSPost2010Prop51ColorRGB
 90
-16777216
102
RTVSPost2010PropOp51
 70
     0
102
RTVSPost2010Prop52
140
1.0
102
RTVSPost2010PropOp52
 70
     0
102
RTVSPost2010Prop53
 90
        2
102
RTVSPost2010PropOp53
 70
     1
102
RTVSPost2010Prop54
  1
strokes_ogs.tif
102
RTVSPost2010PropOp54
 70
     1
102
RTVSPost2010Prop55
280
     0
102
RTVSPost2010PropOp55
 70
     1
102
RTVSPost2010Prop56
140
1.0
102
RTVSPost2010PropOp56
 70
     1
102
RTVSPost2010Prop57
140
1.0
102
RTVSPost2010PropOp57
 70
     1
102
RTVSPropertyOp0
 70
     1
102
RTVSPropertyOp1
 70
     1
102
RTVSPropertyOp2
 70
     1
102
RTVSPropertyOp3
 70
     1
102
RTVSPropertyOp4
 70
     1
102
RTVSPropertyOp5
 70
     1
102
RTVSPropertyOp6
 70
     1
102
RTVSPropertyOp7
 70
     1
102
RTVSPropertyOp8
 70
     1
102
RTVSPropertyOp9
 70
     1
102
RTVSPropertyOp10
 70
     1
102
RTVSPropertyOp11
 70
     1
102
RTVSPropertyOp12
 70
     1
102
RTVSPropertyOp13
 70
     1
102
RTVSPropertyOp14
 70
     1
102
RTVSPropertyOp15
 70
     1
102
RTVSPropertyOp16
 70
     1
102
RTVSPropertyOp17
 70
     1
102
RTVSPropertyOp18
 70
     1
102
RTVSPropertyOp19
 70
     1
102
RTVSPropertyOp20
 70
     1
102
RTVSPropertyOp21
 70
     1
102
RTVSPropertyOp22
 70
     1
102
RTVSPropertyOp23
 70
     1
102
RTVSPropertyOp24
 70
     1
102
RTVSPropertyOp25
 70
     1
102
RTVSPropertyOp26
 70
     1
102
RTVSPropertyOp27
 70
     1
102
RTVSPropertyOp28
 70
     1
102
RTVSPropertyOp29
 70
     1
102
RTVSPropertyOp30
 70
     1
102
RTVSPropertyOp31
 70
     1
102
RTVSPropertyOp32
 70
     1
102
RTVSPropertyOp33
 70
     1
102
RTVSPropertyOp34
 70
     1
102
RTVSPropertyOp35
 70
     1
102
RTVSPropertyOp36
 70
     1
102
RTVSPropertyOp37
 70
     1
102
RTVSPropertyOp38
 70
     1
102
RTVSPropertyOp39
 70
     1
102
RTVSPropertyOp40
 70
     1
102
RTVSPropertyOp41
 70
     1
102
RTVSPropertyOp42
 70
     1
102
RTVSPropertyOp43
 70
     1
102
RTVSPropertyOp44
 70
     1
102
RTVSPropertyOp45
 70
     1
102
RTVSPropertyOp46
 70
     1
102
RTVSPropertyOp47
 70
     1
102
RTVSPropertyOp48
 70
     1
102
RTVSPropertyOp49
 70
     1
102
RTVSPropertyOp50
 70
     1
102
RTVSPropertyOp51
 70
     0
102
RTVSPropertyOp52
 70
     0
102
RTVSPropertyOp53
 70
     1
102
RTVSPropertyOp54
 70
     1
102
RTVSPropertyOp55
 70
     1
102
RTVSPropertyOp56
 70
     1
102
RTVSPropertyOp57
 70
     1
102
RTVSPropertyOp58
 70
     1
102
RTVSPropertyOp59
 70
     1
102
RTVSPropertyOp60
 70
     1
102
RTVSPropertyOp61
 70
     1
102
RTVSPropertyOp62
 70
     1
  0
XRECORD
  5
1D0C
102
{ACAD_REACTORS
330
1D0B
102
}
330
1D0B
100
AcDbXrecord
280
     1
102
RTVSPost2010Prop28
280
     0
102
RTVSPost2010PropOp28
 70
     1
102
RTVSPost2010Prop29
280
     1
102
RTVSPost2010PropOp29
 70
     1
102
RTVSPost2010Prop30
280
     1
102
RTVSPost2010PropOp30
 70
     1
102
RTVSPost2010Prop31
280
     0
102
RTVSPost2010PropOp31
 70
     1
102
RTVSPost2010Prop32
280
     0
102
RTVSPost2010PropOp32
 70
     1
102
RTVSPost2010Prop33
280
     0
102
RTVSPost2010PropOp33
 70
     1
102
RTVSPost2010Prop34
280
     0
102
RTVSPost2010PropOp34
 70
     1
102
RTVSPost2010Prop35
280
     0
102
RTVSPost2010PropOp35
 70
     1
102
RTVSPost2010Prop36
280
     0
102
RTVSPost2010PropOp36
 70
     1
102
RTVSPost2010Prop37
 90
       50
102
RTVSPost2010PropOp37
 70
     1
102
RTVSPost2010Prop38
140
0.0
102
RTVSPost2010PropOp38
 70
     1
102
RTVSPost2010Prop39
140
1.0
102
RTVSPost2010PropOp39
 70
     1
102
RTVSPost2010Prop40
 90
        0
102
RTVSPost2010PropOp40
 70
     1
102
RTVSPost2010Prop41ColorIndex
 90
       18
102
RTVSPost2010Prop41ColorRGB
 90
        0
102
RTVSPost2010PropOp41
 70
     1
102
RTVSPost2010Prop42
 90
       50
102
RTVSPost2010PropOp42
 70
     1
102
RTVSPost2010Prop43
 90
        3
102
RTVSPost2010PropOp43
 70
     1
102
RTVSPost2010Prop44ColorIndex
 90
        5
102
RTVSPost2010Prop44ColorRGB
 90
      255
102
RTVSPost2010PropOp44
 70
     1
102
RTVSPost2010Prop45
280
     0
102
RTVSPost2010PropOp45
 70
     1
102
RTVSPost2010Prop46
 90
       50
102
RTVSPost2010PropOp46
 70
     1
102
RTVSPost2010Prop47
 90
       50
102
RTVSPost2010PropOp47
 70
     1
102
RTVSPost2010Prop48
 90
       50
102
RTVSPost2010PropOp48
 70
     1
102
RTVSPost2010Prop49
280
     0
102
RTVSPost2010PropOp49
 70
     1
102
RTVSPost2010Prop50
 90
       50
102
RTVSPost2010PropOp50
 70
     1
102
RTVSPost2010Prop51ColorIndex
 90
      256
102
RTVSPost2010Prop51ColorRGB
 90
-16777216
102
RTVSPost2010PropOp51
 70
     0
102
RTVSPost2010Prop52
140
1.0
102
RTVSPost2010PropOp52
 70
     0
102
RTVSPost2010Prop53
 90
        2
102
RTVSPost2010PropOp53
 70
     1
102
RTVSPost2010Prop54
  1
strokes_ogs.tif
102
RTVSPost2010PropOp54
 70
     1
102
RTVSPost2010Prop55
280
     0
102
RTVSPost2010PropOp55
 70
     1
102
RTVSPost2010Prop56
140
1.0
102
RTVSPost2010PropOp56
 70
     1
102
RTVSPost2010Prop57
140
1.0
102
RTVSPost2010PropOp57
 70
     1
102
RTVSPropertyOp0
 70
     1
102
RTVSPropertyOp1
 70
     1
102
RTVSPropertyOp2
 70
     1
102
RTVSPropertyOp3
 70
     1
102
RTVSPropertyOp4
 70
     1
102
RTVSPropertyOp5
 70
     1
102
RTVSPropertyOp6
 70
     1
102
RTVSPropertyOp7
 70
     1
102
RTVSPropertyOp8
 70
     1
102
RTVSPropertyOp9
 70
     1
102
RTVSPropertyOp10
 70
     1
102
RTVSPropertyOp11
 70
     1
102
RTVSPropertyOp12
 70
     1
102
RTVSPropertyOp13
 70
     1
102
RTVSPropertyOp14
 70
     1
102
RTVSPropertyOp15
 70
     1
102
RTVSPropertyOp16
 70
     1
102
RTVSPropertyOp17
 70
     1
102
RTVSPropertyOp18
 70
     1
102
RTVSPropertyOp19
 70
     1
102
RTVSPropertyOp20
 70
     1
102
RTVSPropertyOp21
 70
     1
102
RTVSPropertyOp22
 70
     1
102
RTVSPropertyOp23
 70
     1
102
RTVSPropertyOp24
 70
     1
102
RTVSPropertyOp25
 70
     1
102
RTVSPropertyOp26
 70
     1
102
RTVSPropertyOp27
 70
     1
102
RTVSPropertyOp28
 70
     1
102
RTVSPropertyOp29
 70
     1
102
RTVSPropertyOp30
 70
     1
102
RTVSPropertyOp31
 70
     1
102
RTVSPropertyOp32
 70
     1
102
RTVSPropertyOp33
 70
     1
102
RTVSPropertyOp34
 70
     1
102
RTVSPropertyOp35
 70
     1
102
RTVSPropertyOp36
 70
     1
102
RTVSPropertyOp37
 70
     1
102
RTVSPropertyOp38
 70
     1
102
RTVSPropertyOp39
 70
     1
102
RTVSPropertyOp40
 70
     1
102
RTVSPropertyOp41
 70
     1
102
RTVSPropertyOp42
 70
     1
102
RTVSPropertyOp43
 70
     1
102
RTVSPropertyOp44
 70
     1
102
RTVSPropertyOp45
 70
     1
102
RTVSPropertyOp46
 70
     1
102
RTVSPropertyOp47
 70
     1
102
RTVSPropertyOp48
 70
     1
102
RTVSPropertyOp49
 70
     1
102
RTVSPropertyOp50
 70
     1
102
RTVSPropertyOp51
 70
     0
102
RTVSPropertyOp52
 70
     0
102
RTVSPropertyOp53
 70
     1
102
RTVSPropertyOp54
 70
     1
102
RTVSPropertyOp55
 70
     1
102
RTVSPropertyOp56
 70
     1
102
RTVSPropertyOp57
 70
     1
102
RTVSPropertyOp58
 70
     1
102
RTVSPropertyOp59
 70
     1
102
RTVSPropertyOp60
 70
     1
102
RTVSPropertyOp61
 70
     1
102
RTVSPropertyOp62
 70
     1
  0
XRECORD
  5
1D0E
102
{ACAD_REACTORS
330
1D0D
102
}
330
1D0D
100
AcDbXrecord
280
     1
102
RTVSPost2010Prop28
280
     0
102
RTVSPost2010PropOp28
 70
     1
102
RTVSPost2010Prop29
280
     1
102
RTVSPost2010PropOp29
 70
     1
102
RTVSPost2010Prop30
280
     1
102
RTVSPost2010PropOp30
 70
     1
102
RTVSPost2010Prop31
280
     0
102
RTVSPost2010PropOp31
 70
     1
102
RTVSPost2010Prop32
280
     0
102
RTVSPost2010PropOp32
 70
     1
102
RTVSPost2010Prop33
280
     0
102
RTVSPost2010PropOp33
 70
     1
102
RTVSPost2010Prop34
280
     0
102
RTVSPost2010PropOp34
 70
     1
102
RTVSPost2010Prop35
280
     0
102
RTVSPost2010PropOp35
 70
     1
102
RTVSPost2010Prop36
280
     0
102
RTVSPost2010PropOp36
 70
     1
102
RTVSPost2010Prop37
 90
       50
102
RTVSPost2010PropOp37
 70
     1
102
RTVSPost2010Prop38
140
0.0
102
RTVSPost2010PropOp38
 70
     1
102
RTVSPost2010Prop39
140
1.0
102
RTVSPost2010PropOp39
 70
     1
102
RTVSPost2010Prop40
 90
        0
102
RTVSPost2010PropOp40
 70
     1
102
RTVSPost2010Prop41ColorIndex
 90
       18
102
RTVSPost2010Prop41ColorRGB
 90
        0
102
RTVSPost2010PropOp41
 70
     1
102
RTVSPost2010Prop42
 90
       50
102
RTVSPost2010PropOp42
 70
     1
102
RTVSPost2010Prop43
 90
        3
102
RTVSPost2010PropOp43
 70
     1
102
RTVSPost2010Prop44ColorIndex
 90
        5
102
RTVSPost2010Prop44ColorRGB
 90
      255
102
RTVSPost2010PropOp44
 70
     1
102
RTVSPost2010Prop45
280
     0
102
RTVSPost2010PropOp45
 70
     1
102
RTVSPost2010Prop46
 90
       50
102
RTVSPost2010PropOp46
 70
     1
102
RTVSPost2010Prop47
 90
       50
102
RTVSPost2010PropOp47
 70
     1
102
RTVSPost2010Prop48
 90
       50
102
RTVSPost2010PropOp48
 70
     1
102
RTVSPost2010Prop49
280
     0
102
RTVSPost2010PropOp49
 70
     1
102
RTVSPost2010Prop50
 90
       50
102
RTVSPost2010PropOp50
 70
     1
102
RTVSPost2010Prop51ColorIndex
 90
      256
102
RTVSPost2010Prop51ColorRGB
 90
-16777216
102
RTVSPost2010PropOp51
 70
     0
102
RTVSPost2010Prop52
140
1.0
102
RTVSPost2010PropOp52
 70
     0
102
RTVSPost2010Prop53
 90
        2
102
RTVSPost2010PropOp53
 70
     1
102
RTVSPost2010Prop54
  1
strokes_ogs.tif
102
RTVSPost2010PropOp54
 70
     1
102
RTVSPost2010Prop55
280
     0
102
RTVSPost2010PropOp55
 70
     1
102
RTVSPost2010Prop56
140
1.0
102
RTVSPost2010PropOp56
 70
     1
102
RTVSPost2010Prop57
140
1.0
102
RTVSPost2010PropOp57
 70
     1
102
RTVSPropertyOp0
 70
     1
102
RTVSPropertyOp1
 70
     1
102
RTVSPropertyOp2
 70
     1
102
RTVSPropertyOp3
 70
     1
102
RTVSPropertyOp4
 70
     1
102
RTVSPropertyOp5
 70
     1
102
RTVSPropertyOp6
 70
     1
102
RTVSPropertyOp7
 70
     1
102
RTVSPropertyOp8
 70
     1
102
RTVSPropertyOp9
 70
     1
102
RTVSPropertyOp10
 70
     1
102
RTVSPropertyOp11
 70
     1
102
RTVSPropertyOp12
 70
     1
102
RTVSPropertyOp13
 70
     1
102
RTVSPropertyOp14
 70
     1
102
RTVSPropertyOp15
 70
     1
102
RTVSPropertyOp16
 70
     1
102
RTVSPropertyOp17
 70
     1
102
RTVSPropertyOp18
 70
     1
102
RTVSPropertyOp19
 70
     1
102
RTVSPropertyOp20
 70
     1
102
RTVSPropertyOp21
 70
     1
102
RTVSPropertyOp22
 70
     1
102
RTVSPropertyOp23
 70
     1
102
RTVSPropertyOp24
 70
     1
102
RTVSPropertyOp25
 70
     1
102
RTVSPropertyOp26
 70
     1
102
RTVSPropertyOp27
 70
     1
102
RTVSPropertyOp28
 70
     1
102
RTVSPropertyOp29
 70
     1
102
RTVSPropertyOp30
 70
     1
102
RTVSPropertyOp31
 70
     1
102
RTVSPropertyOp32
 70
     1
102
RTVSPropertyOp33
 70
     1
102
RTVSPropertyOp34
 70
     1
102
RTVSPropertyOp35
 70
     1
102
RTVSPropertyOp36
 70
     1
102
RTVSPropertyOp37
 70
     1
102
RTVSPropertyOp38
 70
     1
102
RTVSPropertyOp39
 70
     1
102
RTVSPropertyOp40
 70
     1
102
RTVSPropertyOp41
 70
     1
102
RTVSPropertyOp42
 70
     1
102
RTVSPropertyOp43
 70
     1
102
RTVSPropertyOp44
 70
     1
102
RTVSPropertyOp45
 70
     1
102
RTVSPropertyOp46
 70
     1
102
RTVSPropertyOp47
 70
     1
102
RTVSPropertyOp48
 70
     1
102
RTVSPropertyOp49
 70
     1
102
RTVSPropertyOp50
 70
     1
102
RTVSPropertyOp51
 70
     0
102
RTVSPropertyOp52
 70
     0
102
RTVSPropertyOp53
 70
     1
102
RTVSPropertyOp54
 70
     1
102
RTVSPropertyOp55
 70
     1
102
RTVSPropertyOp56
 70
     1
102
RTVSPropertyOp57
 70
     1
102
RTVSPropertyOp58
 70
     1
102
RTVSPropertyOp59
 70
     1
102
RTVSPropertyOp60
 70
     1
102
RTVSPropertyOp61
 70
     1
102
RTVSPropertyOp62
 70
     1
  0
XRECORD
  5
1D10
102
{ACAD_REACTORS
330
1D0F
102
}
330
1D0F
100
AcDbXrecord
280
     1
102
RTVSPost2010Prop28
280
     0
102
RTVSPost2010PropOp28
 70
     1
102
RTVSPost2010Prop29
280
     1
102
RTVSPost2010PropOp29
 70
     1
102
RTVSPost2010Prop30
280
     1
102
RTVSPost2010PropOp30
 70
     1
102
RTVSPost2010Prop31
280
     0
102
RTVSPost2010PropOp31
 70
     1
102
RTVSPost2010Prop32
280
     0
102
RTVSPost2010PropOp32
 70
     1
102
RTVSPost2010Prop33
280
     0
102
RTVSPost2010PropOp33
 70
     1
102
RTVSPost2010Prop34
280
     0
102
RTVSPost2010PropOp34
 70
     1
102
RTVSPost2010Prop35
280
     0
102
RTVSPost2010PropOp35
 70
     1
102
RTVSPost2010Prop36
280
     0
102
RTVSPost2010PropOp36
 70
     1
102
RTVSPost2010Prop37
 90
       50
102
RTVSPost2010PropOp37
 70
     1
102
RTVSPost2010Prop38
140
0.0
102
RTVSPost2010PropOp38
 70
     1
102
RTVSPost2010Prop39
140
1.0
102
RTVSPost2010PropOp39
 70
     1
102
RTVSPost2010Prop40
 90
        0
102
RTVSPost2010PropOp40
 70
     1
102
RTVSPost2010Prop41ColorIndex
 90
       18
102
RTVSPost2010Prop41ColorRGB
 90
        0
102
RTVSPost2010PropOp41
 70
     1
102
RTVSPost2010Prop42
 90
       50
102
RTVSPost2010PropOp42
 70
     1
102
RTVSPost2010Prop43
 90
        3
102
RTVSPost2010PropOp43
 70
     1
102
RTVSPost2010Prop44ColorIndex
 90
        5
102
RTVSPost2010Prop44ColorRGB
 90
      255
102
RTVSPost2010PropOp44
 70
     1
102
RTVSPost2010Prop45
280
     0
102
RTVSPost2010PropOp45
 70
     1
102
RTVSPost2010Prop46
 90
       50
102
RTVSPost2010PropOp46
 70
     1
102
RTVSPost2010Prop47
 90
       50
102
RTVSPost2010PropOp47
 70
     1
102
RTVSPost2010Prop48
 90
       50
102
RTVSPost2010PropOp48
 70
     1
102
RTVSPost2010Prop49
280
     0
102
RTVSPost2010PropOp49
 70
     1
102
RTVSPost2010Prop50
 90
       50
102
RTVSPost2010PropOp50
 70
     1
102
RTVSPost2010Prop51ColorIndex
 90
      256
102
RTVSPost2010Prop51ColorRGB
 90
-16777216
102
RTVSPost2010PropOp51
 70
     0
102
RTVSPost2010Prop52
140
1.0
102
RTVSPost2010PropOp52
 70
     0
102
RTVSPost2010Prop53
 90
        2
102
RTVSPost2010PropOp53
 70
     1
102
RTVSPost2010Prop54
  1
strokes_ogs.tif
102
RTVSPost2010PropOp54
 70
     1
102
RTVSPost2010Prop55
280
     0
102
RTVSPost2010PropOp55
 70
     1
102
RTVSPost2010Prop56
140
1.0
102
RTVSPost2010PropOp56
 70
     1
102
RTVSPost2010Prop57
140
1.0
102
RTVSPost2010PropOp57
 70
     1
102
RTVSPropertyOp0
 70
     1
102
RTVSPropertyOp1
 70
     1
102
RTVSPropertyOp2
 70
     1
102
RTVSPropertyOp3
 70
     1
102
RTVSPropertyOp4
 70
     1
102
RTVSPropertyOp5
 70
     1
102
RTVSPropertyOp6
 70
     1
102
RTVSPropertyOp7
 70
     1
102
RTVSPropertyOp8
 70
     1
102
RTVSPropertyOp9
 70
     1
102
RTVSPropertyOp10
 70
     1
102
RTVSPropertyOp11
 70
     1
102
RTVSPropertyOp12
 70
     1
102
RTVSPropertyOp13
 70
     1
102
RTVSPropertyOp14
 70
     1
102
RTVSPropertyOp15
 70
     1
102
RTVSPropertyOp16
 70
     1
102
RTVSPropertyOp17
 70
     1
102
RTVSPropertyOp18
 70
     1
102
RTVSPropertyOp19
 70
     1
102
RTVSPropertyOp20
 70
     1
102
RTVSPropertyOp21
 70
     1
102
RTVSPropertyOp22
 70
     1
102
RTVSPropertyOp23
 70
     1
102
RTVSPropertyOp24
 70
     1
102
RTVSPropertyOp25
 70
     1
102
RTVSPropertyOp26
 70
     1
102
RTVSPropertyOp27
 70
     1
102
RTVSPropertyOp28
 70
     1
102
RTVSPropertyOp29
 70
     1
102
RTVSPropertyOp30
 70
     1
102
RTVSPropertyOp31
 70
     1
102
RTVSPropertyOp32
 70
     1
102
RTVSPropertyOp33
 70
     1
102
RTVSPropertyOp34
 70
     1
102
RTVSPropertyOp35
 70
     1
102
RTVSPropertyOp36
 70
     1
102
RTVSPropertyOp37
 70
     1
102
RTVSPropertyOp38
 70
     1
102
RTVSPropertyOp39
 70
     1
102
RTVSPropertyOp40
 70
     1
102
RTVSPropertyOp41
 70
     1
102
RTVSPropertyOp42
 70
     1
102
RTVSPropertyOp43
 70
     1
102
RTVSPropertyOp44
 70
     1
102
RTVSPropertyOp45
 70
     1
102
RTVSPropertyOp46
 70
     1
102
RTVSPropertyOp47
 70
     1
102
RTVSPropertyOp48
 70
     1
102
RTVSPropertyOp49
 70
     1
102
RTVSPropertyOp50
 70
     1
102
RTVSPropertyOp51
 70
     0
102
RTVSPropertyOp52
 70
     0
102
RTVSPropertyOp53
 70
     1
102
RTVSPropertyOp54
 70
     1
102
RTVSPropertyOp55
 70
     1
102
RTVSPropertyOp56
 70
     1
102
RTVSPropertyOp57
 70
     1
102
RTVSPropertyOp58
 70
     1
102
RTVSPropertyOp59
 70
     1
102
RTVSPropertyOp60
 70
     1
102
RTVSPropertyOp61
 70
     1
102
RTVSPropertyOp62
 70
     1
  0
XRECORD
  5
1D18
102
{ACAD_REACTORS
330
1D17
102
}
330
1D17
100
AcDbXrecord
280
     1
102
RTVSPost2010Prop28
280
     0
102
RTVSPost2010PropOp28
 70
     1
102
RTVSPost2010Prop29
280
     1
102
RTVSPost2010PropOp29
 70
     1
102
RTVSPost2010Prop30
280
     1
102
RTVSPost2010PropOp30
 70
     1
102
RTVSPost2010Prop31
280
     0
102
RTVSPost2010PropOp31
 70
     1
102
RTVSPost2010Prop32
280
     0
102
RTVSPost2010PropOp32
 70
     1
102
RTVSPost2010Prop33
280
     0
102
RTVSPost2010PropOp33
 70
     1
102
RTVSPost2010Prop34
280
     0
102
RTVSPost2010PropOp34
 70
     1
102
RTVSPost2010Prop35
280
     0
102
RTVSPost2010PropOp35
 70
     1
102
RTVSPost2010Prop36
280
     0
102
RTVSPost2010PropOp36
 70
     1
102
RTVSPost2010Prop37
 90
       50
102
RTVSPost2010PropOp37
 70
     1
102
RTVSPost2010Prop38
140
0.0
102
RTVSPost2010PropOp38
 70
     1
102
RTVSPost2010Prop39
140
1.0
102
RTVSPost2010PropOp39
 70
     1
102
RTVSPost2010Prop40
 90
        0
102
RTVSPost2010PropOp40
 70
     1
102
RTVSPost2010Prop41ColorIndex
 90
       18
102
RTVSPost2010Prop41ColorRGB
 90
        0
102
RTVSPost2010PropOp41
 70
     1
102
RTVSPost2010Prop42
 90
       50
102
RTVSPost2010PropOp42
 70
     1
102
RTVSPost2010Prop43
 90
        3
102
RTVSPost2010PropOp43
 70
     1
102
RTVSPost2010Prop44ColorIndex
 90
        5
102
RTVSPost2010Prop44ColorRGB
 90
      255
102
RTVSPost2010PropOp44
 70
     1
102
RTVSPost2010Prop45
280
     0
102
RTVSPost2010PropOp45
 70
     1
102
RTVSPost2010Prop46
 90
       50
102
RTVSPost2010PropOp46
 70
     1
102
RTVSPost2010Prop47
 90
       50
102
RTVSPost2010PropOp47
 70
     1
102
RTVSPost2010Prop48
 90
       50
102
RTVSPost2010PropOp48
 70
     1
102
RTVSPost2010Prop49
280
     0
102
RTVSPost2010PropOp49
 70
     1
102
RTVSPost2010Prop50
 90
       50
102
RTVSPost2010PropOp50
 70
     1
102
RTVSPost2010Prop51ColorIndex
 90
      256
102
RTVSPost2010Prop51ColorRGB
 90
-16777216
102
RTVSPost2010PropOp51
 70
     0
102
RTVSPost2010Prop52
140
1.0
102
RTVSPost2010PropOp52
 70
     0
102
RTVSPost2010Prop53
 90
        2
102
RTVSPost2010PropOp53
 70
     1
102
RTVSPost2010Prop54
  1
strokes_ogs.tif
102
RTVSPost2010PropOp54
 70
     1
102
RTVSPost2010Prop55
280
     0
102
RTVSPost2010PropOp55
 70
     1
102
RTVSPost2010Prop56
140
1.0
102
RTVSPost2010PropOp56
 70
     1
102
RTVSPost2010Prop57
140
1.0
102
RTVSPost2010PropOp57
 70
     1
102
RTVSPropertyOp0
 70
     1
102
RTVSPropertyOp1
 70
     1
102
RTVSPropertyOp2
 70
     1
102
RTVSPropertyOp3
 70
     1
102
RTVSPropertyOp4
 70
     1
102
RTVSPropertyOp5
 70
     1
102
RTVSPropertyOp6
 70
     1
102
RTVSPropertyOp7
 70
     1
102
RTVSPropertyOp8
 70
     1
102
RTVSPropertyOp9
 70
     1
102
RTVSPropertyOp10
 70
     1
102
RTVSPropertyOp11
 70
     1
102
RTVSPropertyOp12
 70
     1
102
RTVSPropertyOp13
 70
     1
102
RTVSPropertyOp14
 70
     1
102
RTVSPropertyOp15
 70
     1
102
RTVSPropertyOp16
 70
     1
102
RTVSPropertyOp17
 70
     1
102
RTVSPropertyOp18
 70
     1
102
RTVSPropertyOp19
 70
     1
102
RTVSPropertyOp20
 70
     1
102
RTVSPropertyOp21
 70
     1
102
RTVSPropertyOp22
 70
     1
102
RTVSPropertyOp23
 70
     1
102
RTVSPropertyOp24
 70
     1
102
RTVSPropertyOp25
 70
     1
102
RTVSPropertyOp26
 70
     1
102
RTVSPropertyOp27
 70
     1
102
RTVSPropertyOp28
 70
     1
102
RTVSPropertyOp29
 70
     1
102
RTVSPropertyOp30
 70
     1
102
RTVSPropertyOp31
 70
     1
102
RTVSPropertyOp32
 70
     1
102
RTVSPropertyOp33
 70
     1
102
RTVSPropertyOp34
 70
     1
102
RTVSPropertyOp35
 70
     1
102
RTVSPropertyOp36
 70
     1
102
RTVSPropertyOp37
 70
     1
102
RTVSPropertyOp38
 70
     1
102
RTVSPropertyOp39
 70
     1
102
RTVSPropertyOp40
 70
     1
102
RTVSPropertyOp41
 70
     1
102
RTVSPropertyOp42
 70
     1
102
RTVSPropertyOp43
 70
     1
102
RTVSPropertyOp44
 70
     1
102
RTVSPropertyOp45
 70
     1
102
RTVSPropertyOp46
 70
     1
102
RTVSPropertyOp47
 70
     1
102
RTVSPropertyOp48
 70
     1
102
RTVSPropertyOp49
 70
     1
102
RTVSPropertyOp50
 70
     1
102
RTVSPropertyOp51
 70
     0
102
RTVSPropertyOp52
 70
     0
102
RTVSPropertyOp53
 70
     1
102
RTVSPropertyOp54
 70
     1
102
RTVSPropertyOp55
 70
     1
102
RTVSPropertyOp56
 70
     1
102
RTVSPropertyOp57
 70
     1
102
RTVSPropertyOp58
 70
     1
102
RTVSPropertyOp59
 70
     1
102
RTVSPropertyOp60
 70
     1
102
RTVSPropertyOp61
 70
     1
102
RTVSPropertyOp62
 70
     1
  0
XRECORD
  5
1D34
102
{ACAD_REACTORS
330
1D33
102
}
330
1D33
100
AcDbXrecord
280
     1
102
RTVSPost2010Prop28
280
     0
102
RTVSPost2010PropOp28
 70
     1
102
RTVSPost2010Prop29
280
     1
102
RTVSPost2010PropOp29
 70
     1
102
RTVSPost2010Prop30
280
     1
102
RTVSPost2010PropOp30
 70
     1
102
RTVSPost2010Prop31
280
     0
102
RTVSPost2010PropOp31
 70
     1
102
RTVSPost2010Prop32
280
     0
102
RTVSPost2010PropOp32
 70
     1
102
RTVSPost2010Prop33
280
     0
102
RTVSPost2010PropOp33
 70
     1
102
RTVSPost2010Prop34
280
     0
102
RTVSPost2010PropOp34
 70
     1
102
RTVSPost2010Prop35
280
     0
102
RTVSPost2010PropOp35
 70
     1
102
RTVSPost2010Prop36
280
     0
102
RTVSPost2010PropOp36
 70
     1
102
RTVSPost2010Prop37
 90
       50
102
RTVSPost2010PropOp37
 70
     0
102
RTVSPost2010Prop38
140
0.0
102
RTVSPost2010PropOp38
 70
     0
102
RTVSPost2010Prop39
140
1.0
102
RTVSPost2010PropOp39
 70
     0
102
RTVSPost2010Prop40
 90
        0
102
RTVSPost2010PropOp40
 70
     0
102
RTVSPost2010Prop41ColorIndex
 90
       18
102
RTVSPost2010Prop41ColorRGB
 90
        0
102
RTVSPost2010PropOp41
 70
     0
102
RTVSPost2010Prop42
 90
       50
102
RTVSPost2010PropOp42
 70
     0
102
RTVSPost2010Prop43
 90
        3
102
RTVSPost2010PropOp43
 70
     0
102
RTVSPost2010Prop44ColorIndex
 90
        5
102
RTVSPost2010Prop44ColorRGB
 90
      255
102
RTVSPost2010PropOp44
 70
     0
102
RTVSPost2010Prop45
280
     0
102
RTVSPost2010PropOp45
 70
     1
102
RTVSPost2010Prop46
 90
       50
102
RTVSPost2010PropOp46
 70
     0
102
RTVSPost2010Prop47
 90
       50
102
RTVSPost2010PropOp47
 70
     0
102
RTVSPost2010Prop48
 90
       50
102
RTVSPost2010PropOp48
 70
     0
102
RTVSPost2010Prop49
280
     0
102
RTVSPost2010PropOp49
 70
     1
102
RTVSPost2010Prop50
 90
       50
102
RTVSPost2010PropOp50
 70
     0
102
RTVSPost2010Prop51ColorIndex
 90
      256
102
RTVSPost2010Prop51ColorRGB
 90
-16777216
102
RTVSPost2010PropOp51
 70
     0
102
RTVSPost2010Prop52
140
1.0
102
RTVSPost2010PropOp52
 70
     0
102
RTVSPost2010Prop53
 90
        2
102
RTVSPost2010PropOp53
 70
     0
102
RTVSPost2010Prop54
  1
strokes_ogs.tif
102
RTVSPost2010PropOp54
 70
     0
102
RTVSPost2010Prop55
280
     0
102
RTVSPost2010PropOp55
 70
     1
102
RTVSPost2010Prop56
140
1.0
102
RTVSPost2010PropOp56
 70
     0
102
RTVSPost2010Prop57
140
1.0
102
RTVSPost2010PropOp57
 70
     0
102
RTVSPropertyOp0
 70
     0
102
RTVSPropertyOp1
 70
     0
102
RTVSPropertyOp2
 70
     0
102
RTVSPropertyOp3
 70
     0
102
RTVSPropertyOp4
 70
     0
102
RTVSPropertyOp5
 70
     0
102
RTVSPropertyOp6
 70
     0
102
RTVSPropertyOp7
 70
     0
102
RTVSPropertyOp8
 70
     0
102
RTVSPropertyOp9
 70
     0
102
RTVSPropertyOp10
 70
     0
102
RTVSPropertyOp11
 70
     0
102
RTVSPropertyOp12
 70
     0
102
RTVSPropertyOp13
 70
     0
102
RTVSPropertyOp14
 70
     2
102
RTVSPropertyOp15
 70
     0
102
RTVSPropertyOp16
 70
     0
102
RTVSPropertyOp17
 70
     0
102
RTVSPropertyOp18
 70
     0
102
RTVSPropertyOp19
 70
     0
102
RTVSPropertyOp20
 70
     0
102
RTVSPropertyOp21
 70
     0
102
RTVSPropertyOp22
 70
     0
102
RTVSPropertyOp23
 70
     0
102
RTVSPropertyOp24
 70
     0
102
RTVSPropertyOp25
 70
     0
102
RTVSPropertyOp26
 70
     0
102
RTVSPropertyOp27
 70
     0
102
RTVSPropertyOp28
 70
     1
102
RTVSPropertyOp29
 70
     1
102
RTVSPropertyOp30
 70
     1
102
RTVSPropertyOp31
 70
     1
102
RTVSPropertyOp32
 70
     1
102
RTVSPropertyOp33
 70
     1
102
RTVSPropertyOp34
 70
     1
102
RTVSPropertyOp35
 70
     1
102
RTVSPropertyOp36
 70
     1
102
RTVSPropertyOp37
 70
     0
102
RTVSPropertyOp38
 70
     0
102
RTVSPropertyOp39
 70
     0
102
RTVSPropertyOp40
 70
     0
102
RTVSPropertyOp41
 70
     0
102
RTVSPropertyOp42
 70
     0
102
RTVSPropertyOp43
 70
     0
102
RTVSPropertyOp44
 70
     0
102
RTVSPropertyOp45
 70
     1
102
RTVSPropertyOp46
 70
     0
102
RTVSPropertyOp47
 70
     0
102
RTVSPropertyOp48
 70
     0
102
RTVSPropertyOp49
 70
     1
102
RTVSPropertyOp50
 70
     0
102
RTVSPropertyOp51
 70
     0
102
RTVSPropertyOp52
 70
     0
102
RTVSPropertyOp53
 70
     0
102
RTVSPropertyOp54
 70
     0
102
RTVSPropertyOp55
 70
     1
102
RTVSPropertyOp56
 70
     0
102
RTVSPropertyOp57
 70
     0
102
RTVSPropertyOp58
 70
     0
102
RTVSPropertyOp59
 70
     0
102
RTVSPropertyOp60
 70
     0
102
RTVSPropertyOp61
 70
     0
102
RTVSPropertyOp62
 70
     0
  0
XRECORD
  5
1D24
102
{ACAD_REACTORS
330
1D23
102
}
330
1D23
100
AcDbXrecord
280
     1
102
RTVSPost2010Prop28
280
     0
102
RTVSPost2010PropOp28
 70
     1
102
RTVSPost2010Prop29
280
     1
102
RTVSPost2010PropOp29
 70
     1
102
RTVSPost2010Prop30
280
     1
102
RTVSPost2010PropOp30
 70
     1
102
RTVSPost2010Prop31
280
     0
102
RTVSPost2010PropOp31
 70
     1
102
RTVSPost2010Prop32
280
     0
102
RTVSPost2010PropOp32
 70
     1
102
RTVSPost2010Prop33
280
     0
102
RTVSPost2010PropOp33
 70
     1
102
RTVSPost2010Prop34
280
     0
102
RTVSPost2010PropOp34
 70
     1
102
RTVSPost2010Prop35
280
     0
102
RTVSPost2010PropOp35
 70
     1
102
RTVSPost2010Prop36
280
     0
102
RTVSPost2010PropOp36
 70
     1
102
RTVSPost2010Prop37
 90
       50
102
RTVSPost2010PropOp37
 70
     1
102
RTVSPost2010Prop38
140
0.0
102
RTVSPost2010PropOp38
 70
     1
102
RTVSPost2010Prop39
140
1.0
102
RTVSPost2010PropOp39
 70
     1
102
RTVSPost2010Prop40
 90
        0
102
RTVSPost2010PropOp40
 70
     1
102
RTVSPost2010Prop41ColorIndex
 90
       18
102
RTVSPost2010Prop41ColorRGB
 90
        0
102
RTVSPost2010PropOp41
 70
     1
102
RTVSPost2010Prop42
 90
       50
102
RTVSPost2010PropOp42
 70
     1
102
RTVSPost2010Prop43
 90
        3
102
RTVSPost2010PropOp43
 70
     1
102
RTVSPost2010Prop44ColorIndex
 90
        5
102
RTVSPost2010Prop44ColorRGB
 90
      255
102
RTVSPost2010PropOp44
 70
     1
102
RTVSPost2010Prop45
280
     0
102
RTVSPost2010PropOp45
 70
     1
102
RTVSPost2010Prop46
 90
       50
102
RTVSPost2010PropOp46
 70
     1
102
RTVSPost2010Prop47
 90
       50
102
RTVSPost2010PropOp47
 70
     1
102
RTVSPost2010Prop48
 90
       50
102
RTVSPost2010PropOp48
 70
     1
102
RTVSPost2010Prop49
280
     0
102
RTVSPost2010PropOp49
 70
     1
102
RTVSPost2010Prop50
 90
       50
102
RTVSPost2010PropOp50
 70
     1
102
RTVSPost2010Prop51ColorIndex
 90
      256
102
RTVSPost2010Prop51ColorRGB
 90
-16777216
102
RTVSPost2010PropOp51
 70
     0
102
RTVSPost2010Prop52
140
1.0
102
RTVSPost2010PropOp52
 70
     0
102
RTVSPost2010Prop53
 90
        2
102
RTVSPost2010PropOp53
 70
     1
102
RTVSPost2010Prop54
  1
strokes_ogs.tif
102
RTVSPost2010PropOp54
 70
     1
102
RTVSPost2010Prop55
280
     0
102
RTVSPost2010PropOp55
 70
     1
102
RTVSPost2010Prop56
140
1.0
102
RTVSPost2010PropOp56
 70
     1
102
RTVSPost2010Prop57
140
1.0
102
RTVSPost2010PropOp57
 70
     1
102
RTVSPropertyOp0
 70
     1
102
RTVSPropertyOp1
 70
     1
102
RTVSPropertyOp2
 70
     1
102
RTVSPropertyOp3
 70
     1
102
RTVSPropertyOp4
 70
     1
102
RTVSPropertyOp5
 70
     1
102
RTVSPropertyOp6
 70
     1
102
RTVSPropertyOp7
 70
     1
102
RTVSPropertyOp8
 70
     1
102
RTVSPropertyOp9
 70
     1
102
RTVSPropertyOp10
 70
     1
102
RTVSPropertyOp11
 70
     1
102
RTVSPropertyOp12
 70
     1
102
RTVSPropertyOp13
 70
     1
102
RTVSPropertyOp14
 70
     1
102
RTVSPropertyOp15
 70
     1
102
RTVSPropertyOp16
 70
     1
102
RTVSPropertyOp17
 70
     1
102
RTVSPropertyOp18
 70
     1
102
RTVSPropertyOp19
 70
     1
102
RTVSPropertyOp20
 70
     1
102
RTVSPropertyOp21
 70
     1
102
RTVSPropertyOp22
 70
     1
102
RTVSPropertyOp23
 70
     1
102
RTVSPropertyOp24
 70
     1
102
RTVSPropertyOp25
 70
     1
102
RTVSPropertyOp26
 70
     1
102
RTVSPropertyOp27
 70
     1
102
RTVSPropertyOp28
 70
     1
102
RTVSPropertyOp29
 70
     1
102
RTVSPropertyOp30
 70
     1
102
RTVSPropertyOp31
 70
     1
102
RTVSPropertyOp32
 70
     1
102
RTVSPropertyOp33
 70
     1
102
RTVSPropertyOp34
 70
     1
102
RTVSPropertyOp35
 70
     1
102
RTVSPropertyOp36
 70
     1
102
RTVSPropertyOp37
 70
     1
102
RTVSPropertyOp38
 70
     1
102
RTVSPropertyOp39
 70
     1
102
RTVSPropertyOp40
 70
     1
102
RTVSPropertyOp41
 70
     1
102
RTVSPropertyOp42
 70
     1
102
RTVSPropertyOp43
 70
     1
102
RTVSPropertyOp44
 70
     1
102
RTVSPropertyOp45
 70
     1
102
RTVSPropertyOp46
 70
     1
102
RTVSPropertyOp47
 70
     1
102
RTVSPropertyOp48
 70
     1
102
RTVSPropertyOp49
 70
     1
102
RTVSPropertyOp50
 70
     1
102
RTVSPropertyOp51
 70
     0
102
RTVSPropertyOp52
 70
     0
102
RTVSPropertyOp53
 70
     1
102
RTVSPropertyOp54
 70
     1
102
RTVSPropertyOp55
 70
     1
102
RTVSPropertyOp56
 70
     1
102
RTVSPropertyOp57
 70
     1
102
RTVSPropertyOp58
 70
     1
102
RTVSPropertyOp59
 70
     1
102
RTVSPropertyOp60
 70
     1
102
RTVSPropertyOp61
 70
     1
102
RTVSPropertyOp62
 70
     1
  0
XRECORD
  5
1D36
102
{ACAD_REACTORS
330
1D35
102
}
330
1D35
100
AcDbXrecord
280
     1
102
RTVSPost2010Prop28
280
     0
102
RTVSPost2010PropOp28
 70
     1
102
RTVSPost2010Prop29
280
     1
102
RTVSPost2010PropOp29
 70
     1
102
RTVSPost2010Prop30
280
     1
102
RTVSPost2010PropOp30
 70
     1
102
RTVSPost2010Prop31
280
     0
102
RTVSPost2010PropOp31
 70
     1
102
RTVSPost2010Prop32
280
     0
102
RTVSPost2010PropOp32
 70
     1
102
RTVSPost2010Prop33
280
     0
102
RTVSPost2010PropOp33
 70
     1
102
RTVSPost2010Prop34
280
     0
102
RTVSPost2010PropOp34
 70
     1
102
RTVSPost2010Prop35
280
     0
102
RTVSPost2010PropOp35
 70
     1
102
RTVSPost2010Prop36
280
     0
102
RTVSPost2010PropOp36
 70
     1
102
RTVSPost2010Prop37
 90
       50
102
RTVSPost2010PropOp37
 70
     0
102
RTVSPost2010Prop38
140
0.0
102
RTVSPost2010PropOp38
 70
     0
102
RTVSPost2010Prop39
140
1.0
102
RTVSPost2010PropOp39
 70
     0
102
RTVSPost2010Prop40
 90
        0
102
RTVSPost2010PropOp40
 70
     0
102
RTVSPost2010Prop41ColorIndex
 90
       18
102
RTVSPost2010Prop41ColorRGB
 90
        0
102
RTVSPost2010PropOp41
 70
     0
102
RTVSPost2010Prop42
 90
       50
102
RTVSPost2010PropOp42
 70
     0
102
RTVSPost2010Prop43
 90
        3
102
RTVSPost2010PropOp43
 70
     0
102
RTVSPost2010Prop44ColorIndex
 90
        5
102
RTVSPost2010Prop44ColorRGB
 90
      255
102
RTVSPost2010PropOp44
 70
     0
102
RTVSPost2010Prop45
280
     0
102
RTVSPost2010PropOp45
 70
     1
102
RTVSPost2010Prop46
 90
       50
102
RTVSPost2010PropOp46
 70
     0
102
RTVSPost2010Prop47
 90
       50
102
RTVSPost2010PropOp47
 70
     0
102
RTVSPost2010Prop48
 90
       50
102
RTVSPost2010PropOp48
 70
     0
102
RTVSPost2010Prop49
280
     0
102
RTVSPost2010PropOp49
 70
     1
102
RTVSPost2010Prop50
 90
       50
102
RTVSPost2010PropOp50
 70
     0
102
RTVSPost2010Prop51ColorIndex
 90
      256
102
RTVSPost2010Prop51ColorRGB
 90
-16777216
102
RTVSPost2010PropOp51
 70
     0
102
RTVSPost2010Prop52
140
1.0
102
RTVSPost2010PropOp52
 70
     0
102
RTVSPost2010Prop53
 90
        2
102
RTVSPost2010PropOp53
 70
     0
102
RTVSPost2010Prop54
  1
strokes_ogs.tif
102
RTVSPost2010PropOp54
 70
     0
102
RTVSPost2010Prop55
280
     0
102
RTVSPost2010PropOp55
 70
     1
102
RTVSPost2010Prop56
140
1.0
102
RTVSPost2010PropOp56
 70
     0
102
RTVSPost2010Prop57
140
1.0
102
RTVSPost2010PropOp57
 70
     0
102
RTVSPropertyOp0
 70
     0
102
RTVSPropertyOp1
 70
     0
102
RTVSPropertyOp2
 70
     0
102
RTVSPropertyOp3
 70
     0
102
RTVSPropertyOp4
 70
     0
102
RTVSPropertyOp5
 70
     0
102
RTVSPropertyOp6
 70
     0
102
RTVSPropertyOp7
 70
     0
102
RTVSPropertyOp8
 70
     0
102
RTVSPropertyOp9
 70
     0
102
RTVSPropertyOp10
 70
     0
102
RTVSPropertyOp11
 70
     0
102
RTVSPropertyOp12
 70
     0
102
RTVSPropertyOp13
 70
     0
102
RTVSPropertyOp14
 70
     2
102
RTVSPropertyOp15
 70
     0
102
RTVSPropertyOp16
 70
     0
102
RTVSPropertyOp17
 70
     0
102
RTVSPropertyOp18
 70
     0
102
RTVSPropertyOp19
 70
     0
102
RTVSPropertyOp20
 70
     0
102
RTVSPropertyOp21
 70
     0
102
RTVSPropertyOp22
 70
     0
102
RTVSPropertyOp23
 70
     0
102
RTVSPropertyOp24
 70
     0
102
RTVSPropertyOp25
 70
     0
102
RTVSPropertyOp26
 70
     0
102
RTVSPropertyOp27
 70
     0
102
RTVSPropertyOp28
 70
     1
102
RTVSPropertyOp29
 70
     1
102
RTVSPropertyOp30
 70
     1
102
RTVSPropertyOp31
 70
     1
102
RTVSPropertyOp32
 70
     1
102
RTVSPropertyOp33
 70
     1
102
RTVSPropertyOp34
 70
     1
102
RTVSPropertyOp35
 70
     1
102
RTVSPropertyOp36
 70
     1
102
RTVSPropertyOp37
 70
     0
102
RTVSPropertyOp38
 70
     0
102
RTVSPropertyOp39
 70
     0
102
RTVSPropertyOp40
 70
     0
102
RTVSPropertyOp41
 70
     0
102
RTVSPropertyOp42
 70
     0
102
RTVSPropertyOp43
 70
     0
102
RTVSPropertyOp44
 70
     0
102
RTVSPropertyOp45
 70
     1
102
RTVSPropertyOp46
 70
     0
102
RTVSPropertyOp47
 70
     0
102
RTVSPropertyOp48
 70
     0
102
RTVSPropertyOp49
 70
     1
102
RTVSPropertyOp50
 70
     0
102
RTVSPropertyOp51
 70
     0
102
RTVSPropertyOp52
 70
     0
102
RTVSPropertyOp53
 70
     0
102
RTVSPropertyOp54
 70
     0
102
RTVSPropertyOp55
 70
     1
102
RTVSPropertyOp56
 70
     0
102
RTVSPropertyOp57
 70
     0
102
RTVSPropertyOp58
 70
     0
102
RTVSPropertyOp59
 70
     0
102
RTVSPropertyOp60
 70
     0
102
RTVSPropertyOp61
 70
     0
102
RTVSPropertyOp62
 70
     0
  0
XRECORD
  5
1D1C
102
{ACAD_REACTORS
330
1D1B
102
}
330
1D1B
100
AcDbXrecord
280
     1
102
RTVSPost2010Prop28
280
     0
102
RTVSPost2010PropOp28
 70
     1
102
RTVSPost2010Prop29
280
     1
102
RTVSPost2010PropOp29
 70
     1
102
RTVSPost2010Prop30
280
     1
102
RTVSPost2010PropOp30
 70
     1
102
RTVSPost2010Prop31
280
     0
102
RTVSPost2010PropOp31
 70
     1
102
RTVSPost2010Prop32
280
     0
102
RTVSPost2010PropOp32
 70
     1
102
RTVSPost2010Prop33
280
     0
102
RTVSPost2010PropOp33
 70
     1
102
RTVSPost2010Prop34
280
     0
102
RTVSPost2010PropOp34
 70
     1
102
RTVSPost2010Prop35
280
     0
102
RTVSPost2010PropOp35
 70
     1
102
RTVSPost2010Prop36
280
     0
102
RTVSPost2010PropOp36
 70
     1
102
RTVSPost2010Prop37
 90
       50
102
RTVSPost2010PropOp37
 70
     1
102
RTVSPost2010Prop38
140
0.0
102
RTVSPost2010PropOp38
 70
     1
102
RTVSPost2010Prop39
140
1.0
102
RTVSPost2010PropOp39
 70
     1
102
RTVSPost2010Prop40
 90
        0
102
RTVSPost2010PropOp40
 70
     1
102
RTVSPost2010Prop41ColorIndex
 90
       18
102
RTVSPost2010Prop41ColorRGB
 90
        0
102
RTVSPost2010PropOp41
 70
     1
102
RTVSPost2010Prop42
 90
       50
102
RTVSPost2010PropOp42
 70
     1
102
RTVSPost2010Prop43
 90
        3
102
RTVSPost2010PropOp43
 70
     1
102
RTVSPost2010Prop44ColorIndex
 90
        5
102
RTVSPost2010Prop44ColorRGB
 90
      255
102
RTVSPost2010PropOp44
 70
     1
102
RTVSPost2010Prop45
280
     0
102
RTVSPost2010PropOp45
 70
     1
102
RTVSPost2010Prop46
 90
       50
102
RTVSPost2010PropOp46
 70
     1
102
RTVSPost2010Prop47
 90
       50
102
RTVSPost2010PropOp47
 70
     1
102
RTVSPost2010Prop48
 90
       50
102
RTVSPost2010PropOp48
 70
     1
102
RTVSPost2010Prop49
280
     0
102
RTVSPost2010PropOp49
 70
     1
102
RTVSPost2010Prop50
 90
       50
102
RTVSPost2010PropOp50
 70
     1
102
RTVSPost2010Prop51ColorIndex
 90
      256
102
RTVSPost2010Prop51ColorRGB
 90
-16777216
102
RTVSPost2010PropOp51
 70
     0
102
RTVSPost2010Prop52
140
1.0
102
RTVSPost2010PropOp52
 70
     0
102
RTVSPost2010Prop53
 90
        2
102
RTVSPost2010PropOp53
 70
     1
102
RTVSPost2010Prop54
  1
strokes_ogs.tif
102
RTVSPost2010PropOp54
 70
     1
102
RTVSPost2010Prop55
280
     0
102
RTVSPost2010PropOp55
 70
     1
102
RTVSPost2010Prop56
140
1.0
102
RTVSPost2010PropOp56
 70
     1
102
RTVSPost2010Prop57
140
1.0
102
RTVSPost2010PropOp57
 70
     1
102
RTVSPropertyOp0
 70
     1
102
RTVSPropertyOp1
 70
     1
102
RTVSPropertyOp2
 70
     1
102
RTVSPropertyOp3
 70
     1
102
RTVSPropertyOp4
 70
     1
102
RTVSPropertyOp5
 70
     1
102
RTVSPropertyOp6
 70
     1
102
RTVSPropertyOp7
 70
     1
102
RTVSPropertyOp8
 70
     1
102
RTVSPropertyOp9
 70
     1
102
RTVSPropertyOp10
 70
     1
102
RTVSPropertyOp11
 70
     1
102
RTVSPropertyOp12
 70
     1
102
RTVSPropertyOp13
 70
     1
102
RTVSPropertyOp14
 70
     1
102
RTVSPropertyOp15
 70
     1
102
RTVSPropertyOp16
 70
     1
102
RTVSPropertyOp17
 70
     1
102
RTVSPropertyOp18
 70
     1
102
RTVSPropertyOp19
 70
     1
102
RTVSPropertyOp20
 70
     1
102
RTVSPropertyOp21
 70
     1
102
RTVSPropertyOp22
 70
     1
102
RTVSPropertyOp23
 70
     1
102
RTVSPropertyOp24
 70
     1
102
RTVSPropertyOp25
 70
     1
102
RTVSPropertyOp26
 70
     1
102
RTVSPropertyOp27
 70
     1
102
RTVSPropertyOp28
 70
     1
102
RTVSPropertyOp29
 70
     1
102
RTVSPropertyOp30
 70
     1
102
RTVSPropertyOp31
 70
     1
102
RTVSPropertyOp32
 70
     1
102
RTVSPropertyOp33
 70
     1
102
RTVSPropertyOp34
 70
     1
102
RTVSPropertyOp35
 70
     1
102
RTVSPropertyOp36
 70
     1
102
RTVSPropertyOp37
 70
     1
102
RTVSPropertyOp38
 70
     1
102
RTVSPropertyOp39
 70
     1
102
RTVSPropertyOp40
 70
     1
102
RTVSPropertyOp41
 70
     1
102
RTVSPropertyOp42
 70
     1
102
RTVSPropertyOp43
 70
     1
102
RTVSPropertyOp44
 70
     1
102
RTVSPropertyOp45
 70
     1
102
RTVSPropertyOp46
 70
     1
102
RTVSPropertyOp47
 70
     1
102
RTVSPropertyOp48
 70
     1
102
RTVSPropertyOp49
 70
     1
102
RTVSPropertyOp50
 70
     1
102
RTVSPropertyOp51
 70
     0
102
RTVSPropertyOp52
 70
     0
102
RTVSPropertyOp53
 70
     1
102
RTVSPropertyOp54
 70
     1
102
RTVSPropertyOp55
 70
     1
102
RTVSPropertyOp56
 70
     1
102
RTVSPropertyOp57
 70
     1
102
RTVSPropertyOp58
 70
     1
102
RTVSPropertyOp59
 70
     1
102
RTVSPropertyOp60
 70
     1
102
RTVSPropertyOp61
 70
     1
102
RTVSPropertyOp62
 70
     1
  0
XRECORD
  5
1D32
102
{ACAD_REACTORS
330
1D31
102
}
330
1D31
100
AcDbXrecord
280
     1
102
RTVSPost2010Prop28
280
     0
102
RTVSPost2010PropOp28
 70
     1
102
RTVSPost2010Prop29
280
     1
102
RTVSPost2010PropOp29
 70
     1
102
RTVSPost2010Prop30
280
     1
102
RTVSPost2010PropOp30
 70
     1
102
RTVSPost2010Prop31
280
     0
102
RTVSPost2010PropOp31
 70
     1
102
RTVSPost2010Prop32
280
     0
102
RTVSPost2010PropOp32
 70
     1
102
RTVSPost2010Prop33
280
     0
102
RTVSPost2010PropOp33
 70
     1
102
RTVSPost2010Prop34
280
     0
102
RTVSPost2010PropOp34
 70
     1
102
RTVSPost2010Prop35
280
     0
102
RTVSPost2010PropOp35
 70
     1
102
RTVSPost2010Prop36
280
     0
102
RTVSPost2010PropOp36
 70
     1
102
RTVSPost2010Prop37
 90
       50
102
RTVSPost2010PropOp37
 70
     1
102
RTVSPost2010Prop38
140
0.0
102
RTVSPost2010PropOp38
 70
     1
102
RTVSPost2010Prop39
140
1.0
102
RTVSPost2010PropOp39
 70
     1
102
RTVSPost2010Prop40
 90
        0
102
RTVSPost2010PropOp40
 70
     1
102
RTVSPost2010Prop41ColorIndex
 90
       18
102
RTVSPost2010Prop41ColorRGB
 90
        0
102
RTVSPost2010PropOp41
 70
     1
102
RTVSPost2010Prop42
 90
       50
102
RTVSPost2010PropOp42
 70
     1
102
RTVSPost2010Prop43
 90
        3
102
RTVSPost2010PropOp43
 70
     1
102
RTVSPost2010Prop44ColorIndex
 90
        5
102
RTVSPost2010Prop44ColorRGB
 90
      255
102
RTVSPost2010PropOp44
 70
     1
102
RTVSPost2010Prop45
280
     0
102
RTVSPost2010PropOp45
 70
     1
102
RTVSPost2010Prop46
 90
       50
102
RTVSPost2010PropOp46
 70
     1
102
RTVSPost2010Prop47
 90
       50
102
RTVSPost2010PropOp47
 70
     1
102
RTVSPost2010Prop48
 90
       50
102
RTVSPost2010PropOp48
 70
     1
102
RTVSPost2010Prop49
280
     0
102
RTVSPost2010PropOp49
 70
     1
102
RTVSPost2010Prop50
 90
       50
102
RTVSPost2010PropOp50
 70
     1
102
RTVSPost2010Prop51ColorIndex
 90
      256
102
RTVSPost2010Prop51ColorRGB
 90
-16777216
102
RTVSPost2010PropOp51
 70
     0
102
RTVSPost2010Prop52
140
1.0
102
RTVSPost2010PropOp52
 70
     0
102
RTVSPost2010Prop53
 90
        2
102
RTVSPost2010PropOp53
 70
     1
102
RTVSPost2010Prop54
  1
strokes_ogs.tif
102
RTVSPost2010PropOp54
 70
     1
102
RTVSPost2010Prop55
280
     0
102
RTVSPost2010PropOp55
 70
     1
102
RTVSPost2010Prop56
140
1.0
102
RTVSPost2010PropOp56
 70
     1
102
RTVSPost2010Prop57
140
1.0
102
RTVSPost2010PropOp57
 70
     1
102
RTVSPropertyOp0
 70
     1
102
RTVSPropertyOp1
 70
     1
102
RTVSPropertyOp2
 70
     1
102
RTVSPropertyOp3
 70
     1
102
RTVSPropertyOp4
 70
     1
102
RTVSPropertyOp5
 70
     1
102
RTVSPropertyOp6
 70
     1
102
RTVSPropertyOp7
 70
     1
102
RTVSPropertyOp8
 70
     1
102
RTVSPropertyOp9
 70
     1
102
RTVSPropertyOp10
 70
     1
102
RTVSPropertyOp11
 70
     1
102
RTVSPropertyOp12
 70
     1
102
RTVSPropertyOp13
 70
     1
102
RTVSPropertyOp14
 70
     1
102
RTVSPropertyOp15
 70
     1
102
RTVSPropertyOp16
 70
     1
102
RTVSPropertyOp17
 70
     1
102
RTVSPropertyOp18
 70
     1
102
RTVSPropertyOp19
 70
     1
102
RTVSPropertyOp20
 70
     1
102
RTVSPropertyOp21
 70
     1
102
RTVSPropertyOp22
 70
     1
102
RTVSPropertyOp23
 70
     1
102
RTVSPropertyOp24
 70
     1
102
RTVSPropertyOp25
 70
     1
102
RTVSPropertyOp26
 70
     1
102
RTVSPropertyOp27
 70
     1
102
RTVSPropertyOp28
 70
     1
102
RTVSPropertyOp29
 70
     1
102
RTVSPropertyOp30
 70
     1
102
RTVSPropertyOp31
 70
     1
102
RTVSPropertyOp32
 70
     1
102
RTVSPropertyOp33
 70
     1
102
RTVSPropertyOp34
 70
     1
102
RTVSPropertyOp35
 70
     1
102
RTVSPropertyOp36
 70
     1
102
RTVSPropertyOp37
 70
     1
102
RTVSPropertyOp38
 70
     1
102
RTVSPropertyOp39
 70
     1
102
RTVSPropertyOp40
 70
     1
102
RTVSPropertyOp41
 70
     1
102
RTVSPropertyOp42
 70
     1
102
RTVSPropertyOp43
 70
     1
102
RTVSPropertyOp44
 70
     1
102
RTVSPropertyOp45
 70
     1
102
RTVSPropertyOp46
 70
     1
102
RTVSPropertyOp47
 70
     1
102
RTVSPropertyOp48
 70
     1
102
RTVSPropertyOp49
 70
     1
102
RTVSPropertyOp50
 70
     1
102
RTVSPropertyOp51
 70
     0
102
RTVSPropertyOp52
 70
     0
102
RTVSPropertyOp53
 70
     1
102
RTVSPropertyOp54
 70
     1
102
RTVSPropertyOp55
 70
     1
102
RTVSPropertyOp56
 70
     1
102
RTVSPropertyOp57
 70
     1
102
RTVSPropertyOp58
 70
     1
102
RTVSPropertyOp59
 70
     1
102
RTVSPropertyOp60
 70
     1
102
RTVSPropertyOp61
 70
     1
102
RTVSPropertyOp62
 70
     1
  0
XRECORD
  5
1D30
102
{ACAD_REACTORS
330
1D2F
102
}
330
1D2F
100
AcDbXrecord
280
     1
102
RTVSPost2010Prop28
280
     0
102
RTVSPost2010PropOp28
 70
     1
102
RTVSPost2010Prop29
280
     1
102
RTVSPost2010PropOp29
 70
     1
102
RTVSPost2010Prop30
280
     1
102
RTVSPost2010PropOp30
 70
     1
102
RTVSPost2010Prop31
280
     0
102
RTVSPost2010PropOp31
 70
     1
102
RTVSPost2010Prop32
280
     0
102
RTVSPost2010PropOp32
 70
     1
102
RTVSPost2010Prop33
280
     0
102
RTVSPost2010PropOp33
 70
     1
102
RTVSPost2010Prop34
280
     0
102
RTVSPost2010PropOp34
 70
     1
102
RTVSPost2010Prop35
280
     0
102
RTVSPost2010PropOp35
 70
     1
102
RTVSPost2010Prop36
280
     0
102
RTVSPost2010PropOp36
 70
     1
102
RTVSPost2010Prop37
 90
       50
102
RTVSPost2010PropOp37
 70
     1
102
RTVSPost2010Prop38
140
0.0
102
RTVSPost2010PropOp38
 70
     1
102
RTVSPost2010Prop39
140
1.0
102
RTVSPost2010PropOp39
 70
     1
102
RTVSPost2010Prop40
 90
        0
102
RTVSPost2010PropOp40
 70
     1
102
RTVSPost2010Prop41ColorIndex
 90
       18
102
RTVSPost2010Prop41ColorRGB
 90
        0
102
RTVSPost2010PropOp41
 70
     1
102
RTVSPost2010Prop42
 90
       50
102
RTVSPost2010PropOp42
 70
     1
102
RTVSPost2010Prop43
 90
        3
102
RTVSPost2010PropOp43
 70
     1
102
RTVSPost2010Prop44ColorIndex
 90
        5
102
RTVSPost2010Prop44ColorRGB
 90
      255
102
RTVSPost2010PropOp44
 70
     1
102
RTVSPost2010Prop45
280
     0
102
RTVSPost2010PropOp45
 70
     1
102
RTVSPost2010Prop46
 90
       50
102
RTVSPost2010PropOp46
 70
     1
102
RTVSPost2010Prop47
 90
       50
102
RTVSPost2010PropOp47
 70
     1
102
RTVSPost2010Prop48
 90
       50
102
RTVSPost2010PropOp48
 70
     1
102
RTVSPost2010Prop49
280
     0
102
RTVSPost2010PropOp49
 70
     1
102
RTVSPost2010Prop50
 90
       50
102
RTVSPost2010PropOp50
 70
     1
102
RTVSPost2010Prop51ColorIndex
 90
      256
102
RTVSPost2010Prop51ColorRGB
 90
-16777216
102
RTVSPost2010PropOp51
 70
     0
102
RTVSPost2010Prop52
140
1.0
102
RTVSPost2010PropOp52
 70
     0
102
RTVSPost2010Prop53
 90
        2
102
RTVSPost2010PropOp53
 70
     1
102
RTVSPost2010Prop54
  1
strokes_ogs.tif
102
RTVSPost2010PropOp54
 70
     1
102
RTVSPost2010Prop55
280
     0
102
RTVSPost2010PropOp55
 70
     1
102
RTVSPost2010Prop56
140
1.0
102
RTVSPost2010PropOp56
 70
     1
102
RTVSPost2010Prop57
140
1.0
102
RTVSPost2010PropOp57
 70
     1
102
RTVSPropertyOp0
 70
     1
102
RTVSPropertyOp1
 70
     1
102
RTVSPropertyOp2
 70
     1
102
RTVSPropertyOp3
 70
     1
102
RTVSPropertyOp4
 70
     1
102
RTVSPropertyOp5
 70
     1
102
RTVSPropertyOp6
 70
     1
102
RTVSPropertyOp7
 70
     1
102
RTVSPropertyOp8
 70
     1
102
RTVSPropertyOp9
 70
     1
102
RTVSPropertyOp10
 70
     1
102
RTVSPropertyOp11
 70
     1
102
RTVSPropertyOp12
 70
     1
102
RTVSPropertyOp13
 70
     1
102
RTVSPropertyOp14
 70
     1
102
RTVSPropertyOp15
 70
     1
102
RTVSPropertyOp16
 70
     1
102
RTVSPropertyOp17
 70
     1
102
RTVSPropertyOp18
 70
     1
102
RTVSPropertyOp19
 70
     1
102
RTVSPropertyOp20
 70
     1
102
RTVSPropertyOp21
 70
     1
102
RTVSPropertyOp22
 70
     1
102
RTVSPropertyOp23
 70
     1
102
RTVSPropertyOp24
 70
     1
102
RTVSPropertyOp25
 70
     1
102
RTVSPropertyOp26
 70
     1
102
RTVSPropertyOp27
 70
     1
102
RTVSPropertyOp28
 70
     1
102
RTVSPropertyOp29
 70
     1
102
RTVSPropertyOp30
 70
     1
102
RTVSPropertyOp31
 70
     1
102
RTVSPropertyOp32
 70
     1
102
RTVSPropertyOp33
 70
     1
102
RTVSPropertyOp34
 70
     1
102
RTVSPropertyOp35
 70
     1
102
RTVSPropertyOp36
 70
     1
102
RTVSPropertyOp37
 70
     1
102
RTVSPropertyOp38
 70
     1
102
RTVSPropertyOp39
 70
     1
102
RTVSPropertyOp40
 70
     1
102
RTVSPropertyOp41
 70
     1
102
RTVSPropertyOp42
 70
     1
102
RTVSPropertyOp43
 70
     1
102
RTVSPropertyOp44
 70
     1
102
RTVSPropertyOp45
 70
     1
102
RTVSPropertyOp46
 70
     1
102
RTVSPropertyOp47
 70
     1
102
RTVSPropertyOp48
 70
     1
102
RTVSPropertyOp49
 70
     1
102
RTVSPropertyOp50
 70
     1
102
RTVSPropertyOp51
 70
     0
102
RTVSPropertyOp52
 70
     0
102
RTVSPropertyOp53
 70
     1
102
RTVSPropertyOp54
 70
     1
102
RTVSPropertyOp55
 70
     1
102
RTVSPropertyOp56
 70
     1
102
RTVSPropertyOp57
 70
     1
102
RTVSPropertyOp58
 70
     1
102
RTVSPropertyOp59
 70
     1
102
RTVSPropertyOp60
 70
     1
102
RTVSPropertyOp61
 70
     1
102
RTVSPropertyOp62
 70
     1
  0
XRECORD
  5
1D2A
102
{ACAD_REACTORS
330
1D29
102
}
330
1D29
100
AcDbXrecord
280
     1
102
RTVSPost2010Prop28
280
     0
102
RTVSPost2010PropOp28
 70
     1
102
RTVSPost2010Prop29
280
     1
102
RTVSPost2010PropOp29
 70
     1
102
RTVSPost2010Prop30
280
     1
102
RTVSPost2010PropOp30
 70
     1
102
RTVSPost2010Prop31
280
     0
102
RTVSPost2010PropOp31
 70
     1
102
RTVSPost2010Prop32
280
     0
102
RTVSPost2010PropOp32
 70
     1
102
RTVSPost2010Prop33
280
     0
102
RTVSPost2010PropOp33
 70
     1
102
RTVSPost2010Prop34
280
     0
102
RTVSPost2010PropOp34
 70
     1
102
RTVSPost2010Prop35
280
     0
102
RTVSPost2010PropOp35
 70
     1
102
RTVSPost2010Prop36
280
     0
102
RTVSPost2010PropOp36
 70
     1
102
RTVSPost2010Prop37
 90
       50
102
RTVSPost2010PropOp37
 70
     1
102
RTVSPost2010Prop38
140
0.0
102
RTVSPost2010PropOp38
 70
     1
102
RTVSPost2010Prop39
140
1.0
102
RTVSPost2010PropOp39
 70
     1
102
RTVSPost2010Prop40
 90
        0
102
RTVSPost2010PropOp40
 70
     1
102
RTVSPost2010Prop41ColorIndex
 90
       18
102
RTVSPost2010Prop41ColorRGB
 90
        0
102
RTVSPost2010PropOp41
 70
     1
102
RTVSPost2010Prop42
 90
       50
102
RTVSPost2010PropOp42
 70
     1
102
RTVSPost2010Prop43
 90
        3
102
RTVSPost2010PropOp43
 70
     1
102
RTVSPost2010Prop44ColorIndex
 90
        5
102
RTVSPost2010Prop44ColorRGB
 90
      255
102
RTVSPost2010PropOp44
 70
     1
102
RTVSPost2010Prop45
280
     0
102
RTVSPost2010PropOp45
 70
     1
102
RTVSPost2010Prop46
 90
       50
102
RTVSPost2010PropOp46
 70
     1
102
RTVSPost2010Prop47
 90
       50
102
RTVSPost2010PropOp47
 70
     1
102
RTVSPost2010Prop48
 90
       50
102
RTVSPost2010PropOp48
 70
     1
102
RTVSPost2010Prop49
280
     0
102
RTVSPost2010PropOp49
 70
     1
102
RTVSPost2010Prop50
 90
       50
102
RTVSPost2010PropOp50
 70
     1
102
RTVSPost2010Prop51ColorIndex
 90
      256
102
RTVSPost2010Prop51ColorRGB
 90
-16777216
102
RTVSPost2010PropOp51
 70
     0
102
RTVSPost2010Prop52
140
1.0
102
RTVSPost2010PropOp52
 70
     0
102
RTVSPost2010Prop53
 90
        2
102
RTVSPost2010PropOp53
 70
     1
102
RTVSPost2010Prop54
  1
strokes_ogs.tif
102
RTVSPost2010PropOp54
 70
     1
102
RTVSPost2010Prop55
280
     0
102
RTVSPost2010PropOp55
 70
     1
102
RTVSPost2010Prop56
140
1.0
102
RTVSPost2010PropOp56
 70
     1
102
RTVSPost2010Prop57
140
1.0
102
RTVSPost2010PropOp57
 70
     1
102
RTVSPropertyOp0
 70
     1
102
RTVSPropertyOp1
 70
     1
102
RTVSPropertyOp2
 70
     1
102
RTVSPropertyOp3
 70
     1
102
RTVSPropertyOp4
 70
     1
102
RTVSPropertyOp5
 70
     1
102
RTVSPropertyOp6
 70
     1
102
RTVSPropertyOp7
 70
     1
102
RTVSPropertyOp8
 70
     1
102
RTVSPropertyOp9
 70
     1
102
RTVSPropertyOp10
 70
     1
102
RTVSPropertyOp11
 70
     1
102
RTVSPropertyOp12
 70
     1
102
RTVSPropertyOp13
 70
     1
102
RTVSPropertyOp14
 70
     1
102
RTVSPropertyOp15
 70
     1
102
RTVSPropertyOp16
 70
     1
102
RTVSPropertyOp17
 70
     1
102
RTVSPropertyOp18
 70
     1
102
RTVSPropertyOp19
 70
     1
102
RTVSPropertyOp20
 70
     1
102
RTVSPropertyOp21
 70
     1
102
RTVSPropertyOp22
 70
     1
102
RTVSPropertyOp23
 70
     1
102
RTVSPropertyOp24
 70
     1
102
RTVSPropertyOp25
 70
     1
102
RTVSPropertyOp26
 70
     1
102
RTVSPropertyOp27
 70
     1
102
RTVSPropertyOp28
 70
     1
102
RTVSPropertyOp29
 70
     1
102
RTVSPropertyOp30
 70
     1
102
RTVSPropertyOp31
 70
     1
102
RTVSPropertyOp32
 70
     1
102
RTVSPropertyOp33
 70
     1
102
RTVSPropertyOp34
 70
     1
102
RTVSPropertyOp35
 70
     1
102
RTVSPropertyOp36
 70
     1
102
RTVSPropertyOp37
 70
     1
102
RTVSPropertyOp38
 70
     1
102
RTVSPropertyOp39
 70
     1
102
RTVSPropertyOp40
 70
     1
102
RTVSPropertyOp41
 70
     1
102
RTVSPropertyOp42
 70
     1
102
RTVSPropertyOp43
 70
     1
102
RTVSPropertyOp44
 70
     1
102
RTVSPropertyOp45
 70
     1
102
RTVSPropertyOp46
 70
     1
102
RTVSPropertyOp47
 70
     1
102
RTVSPropertyOp48
 70
     1
102
RTVSPropertyOp49
 70
     1
102
RTVSPropertyOp50
 70
     1
102
RTVSPropertyOp51
 70
     0
102
RTVSPropertyOp52
 70
     0
102
RTVSPropertyOp53
 70
     1
102
RTVSPropertyOp54
 70
     1
102
RTVSPropertyOp55
 70
     1
102
RTVSPropertyOp56
 70
     1
102
RTVSPropertyOp57
 70
     1
102
RTVSPropertyOp58
 70
     1
102
RTVSPropertyOp59
 70
     1
102
RTVSPropertyOp60
 70
     1
102
RTVSPropertyOp61
 70
     1
102
RTVSPropertyOp62
 70
     1
  0
XRECORD
  5
1D2C
102
{ACAD_REACTORS
330
1D2B
102
}
330
1D2B
100
AcDbXrecord
280
     1
102
RTVSPost2010Prop28
280
     0
102
RTVSPost2010PropOp28
 70
     1
102
RTVSPost2010Prop29
280
     1
102
RTVSPost2010PropOp29
 70
     1
102
RTVSPost2010Prop30
280
     1
102
RTVSPost2010PropOp30
 70
     1
102
RTVSPost2010Prop31
280
     0
102
RTVSPost2010PropOp31
 70
     1
102
RTVSPost2010Prop32
280
     0
102
RTVSPost2010PropOp32
 70
     1
102
RTVSPost2010Prop33
280
     0
102
RTVSPost2010PropOp33
 70
     1
102
RTVSPost2010Prop34
280
     0
102
RTVSPost2010PropOp34
 70
     1
102
RTVSPost2010Prop35
280
     0
102
RTVSPost2010PropOp35
 70
     1
102
RTVSPost2010Prop36
280
     0
102
RTVSPost2010PropOp36
 70
     1
102
RTVSPost2010Prop37
 90
       50
102
RTVSPost2010PropOp37
 70
     1
102
RTVSPost2010Prop38
140
0.0
102
RTVSPost2010PropOp38
 70
     1
102
RTVSPost2010Prop39
140
1.0
102
RTVSPost2010PropOp39
 70
     1
102
RTVSPost2010Prop40
 90
        0
102
RTVSPost2010PropOp40
 70
     1
102
RTVSPost2010Prop41ColorIndex
 90
       18
102
RTVSPost2010Prop41ColorRGB
 90
        0
102
RTVSPost2010PropOp41
 70
     1
102
RTVSPost2010Prop42
 90
       50
102
RTVSPost2010PropOp42
 70
     1
102
RTVSPost2010Prop43
 90
        3
102
RTVSPost2010PropOp43
 70
     1
102
RTVSPost2010Prop44ColorIndex
 90
        5
102
RTVSPost2010Prop44ColorRGB
 90
      255
102
RTVSPost2010PropOp44
 70
     1
102
RTVSPost2010Prop45
280
     0
102
RTVSPost2010PropOp45
 70
     1
102
RTVSPost2010Prop46
 90
       50
102
RTVSPost2010PropOp46
 70
     1
102
RTVSPost2010Prop47
 90
       50
102
RTVSPost2010PropOp47
 70
     1
102
RTVSPost2010Prop48
 90
       50
102
RTVSPost2010PropOp48
 70
     1
102
RTVSPost2010Prop49
280
     0
102
RTVSPost2010PropOp49
 70
     1
102
RTVSPost2010Prop50
 90
       50
102
RTVSPost2010PropOp50
 70
     1
102
RTVSPost2010Prop51ColorIndex
 90
      256
102
RTVSPost2010Prop51ColorRGB
 90
-16777216
102
RTVSPost2010PropOp51
 70
     0
102
RTVSPost2010Prop52
140
1.0
102
RTVSPost2010PropOp52
 70
     0
102
RTVSPost2010Prop53
 90
        2
102
RTVSPost2010PropOp53
 70
     1
102
RTVSPost2010Prop54
  1
strokes_ogs.tif
102
RTVSPost2010PropOp54
 70
     1
102
RTVSPost2010Prop55
280
     0
102
RTVSPost2010PropOp55
 70
     1
102
RTVSPost2010Prop56
140
1.0
102
RTVSPost2010PropOp56
 70
     1
102
RTVSPost2010Prop57
140
1.0
102
RTVSPost2010PropOp57
 70
     1
102
RTVSPropertyOp0
 70
     1
102
RTVSPropertyOp1
 70
     1
102
RTVSPropertyOp2
 70
     1
102
RTVSPropertyOp3
 70
     1
102
RTVSPropertyOp4
 70
     1
102
RTVSPropertyOp5
 70
     1
102
RTVSPropertyOp6
 70
     1
102
RTVSPropertyOp7
 70
     1
102
RTVSPropertyOp8
 70
     1
102
RTVSPropertyOp9
 70
     1
102
RTVSPropertyOp10
 70
     1
102
RTVSPropertyOp11
 70
     1
102
RTVSPropertyOp12
 70
     1
102
RTVSPropertyOp13
 70
     1
102
RTVSPropertyOp14
 70
     1
102
RTVSPropertyOp15
 70
     1
102
RTVSPropertyOp16
 70
     1
102
RTVSPropertyOp17
 70
     1
102
RTVSPropertyOp18
 70
     1
102
RTVSPropertyOp19
 70
     1
102
RTVSPropertyOp20
 70
     1
102
RTVSPropertyOp21
 70
     1
102
RTVSPropertyOp22
 70
     1
102
RTVSPropertyOp23
 70
     1
102
RTVSPropertyOp24
 70
     1
102
RTVSPropertyOp25
 70
     1
102
RTVSPropertyOp26
 70
     1
102
RTVSPropertyOp27
 70
     1
102
RTVSPropertyOp28
 70
     1
102
RTVSPropertyOp29
 70
     1
102
RTVSPropertyOp30
 70
     1
102
RTVSPropertyOp31
 70
     1
102
RTVSPropertyOp32
 70
     1
102
RTVSPropertyOp33
 70
     1
102
RTVSPropertyOp34
 70
     1
102
RTVSPropertyOp35
 70
     1
102
RTVSPropertyOp36
 70
     1
102
RTVSPropertyOp37
 70
     1
102
RTVSPropertyOp38
 70
     1
102
RTVSPropertyOp39
 70
     1
102
RTVSPropertyOp40
 70
     1
102
RTVSPropertyOp41
 70
     1
102
RTVSPropertyOp42
 70
     1
102
RTVSPropertyOp43
 70
     1
102
RTVSPropertyOp44
 70
     1
102
RTVSPropertyOp45
 70
     1
102
RTVSPropertyOp46
 70
     1
102
RTVSPropertyOp47
 70
     1
102
RTVSPropertyOp48
 70
     1
102
RTVSPropertyOp49
 70
     1
102
RTVSPropertyOp50
 70
     1
102
RTVSPropertyOp51
 70
     0
102
RTVSPropertyOp52
 70
     0
102
RTVSPropertyOp53
 70
     1
102
RTVSPropertyOp54
 70
     1
102
RTVSPropertyOp55
 70
     1
102
RTVSPropertyOp56
 70
     1
102
RTVSPropertyOp57
 70
     1
102
RTVSPropertyOp58
 70
     1
102
RTVSPropertyOp59
 70
     1
102
RTVSPropertyOp60
 70
     1
102
RTVSPropertyOp61
 70
     1
102
RTVSPropertyOp62
 70
     1
  0
XRECORD
  5
1D22
102
{ACAD_REACTORS
330
1D21
102
}
330
1D21
100
AcDbXrecord
280
     1
102
RTVSPost2010Prop28
280
     0
102
RTVSPost2010PropOp28
 70
     1
102
RTVSPost2010Prop29
280
     1
102
RTVSPost2010PropOp29
 70
     1
102
RTVSPost2010Prop30
280
     1
102
RTVSPost2010PropOp30
 70
     1
102
RTVSPost2010Prop31
280
     0
102
RTVSPost2010PropOp31
 70
     1
102
RTVSPost2010Prop32
280
     0
102
RTVSPost2010PropOp32
 70
     1
102
RTVSPost2010Prop33
280
     0
102
RTVSPost2010PropOp33
 70
     1
102
RTVSPost2010Prop34
280
     0
102
RTVSPost2010PropOp34
 70
     1
102
RTVSPost2010Prop35
280
     0
102
RTVSPost2010PropOp35
 70
     1
102
RTVSPost2010Prop36
280
     0
102
RTVSPost2010PropOp36
 70
     1
102
RTVSPost2010Prop37
 90
       50
102
RTVSPost2010PropOp37
 70
     1
102
RTVSPost2010Prop38
140
0.0
102
RTVSPost2010PropOp38
 70
     1
102
RTVSPost2010Prop39
140
1.0
102
RTVSPost2010PropOp39
 70
     1
102
RTVSPost2010Prop40
 90
        0
102
RTVSPost2010PropOp40
 70
     1
102
RTVSPost2010Prop41ColorIndex
 90
       18
102
RTVSPost2010Prop41ColorRGB
 90
        0
102
RTVSPost2010PropOp41
 70
     1
102
RTVSPost2010Prop42
 90
       50
102
RTVSPost2010PropOp42
 70
     1
102
RTVSPost2010Prop43
 90
        3
102
RTVSPost2010PropOp43
 70
     1
102
RTVSPost2010Prop44ColorIndex
 90
        5
102
RTVSPost2010Prop44ColorRGB
 90
      255
102
RTVSPost2010PropOp44
 70
     1
102
RTVSPost2010Prop45
280
     0
102
RTVSPost2010PropOp45
 70
     1
102
RTVSPost2010Prop46
 90
       50
102
RTVSPost2010PropOp46
 70
     1
102
RTVSPost2010Prop47
 90
       50
102
RTVSPost2010PropOp47
 70
     1
102
RTVSPost2010Prop48
 90
       50
102
RTVSPost2010PropOp48
 70
     1
102
RTVSPost2010Prop49
280
     0
102
RTVSPost2010PropOp49
 70
     1
102
RTVSPost2010Prop50
 90
       50
102
RTVSPost2010PropOp50
 70
     1
102
RTVSPost2010Prop51ColorIndex
 90
      256
102
RTVSPost2010Prop51ColorRGB
 90
-16777216
102
RTVSPost2010PropOp51
 70
     0
102
RTVSPost2010Prop52
140
1.0
102
RTVSPost2010PropOp52
 70
     0
102
RTVSPost2010Prop53
 90
        2
102
RTVSPost2010PropOp53
 70
     1
102
RTVSPost2010Prop54
  1
strokes_ogs.tif
102
RTVSPost2010PropOp54
 70
     1
102
RTVSPost2010Prop55
280
     0
102
RTVSPost2010PropOp55
 70
     1
102
RTVSPost2010Prop56
140
1.0
102
RTVSPost2010PropOp56
 70
     1
102
RTVSPost2010Prop57
140
1.0
102
RTVSPost2010PropOp57
 70
     1
102
RTVSPropertyOp0
 70
     1
102
RTVSPropertyOp1
 70
     1
102
RTVSPropertyOp2
 70
     1
102
RTVSPropertyOp3
 70
     1
102
RTVSPropertyOp4
 70
     1
102
RTVSPropertyOp5
 70
     1
102
RTVSPropertyOp6
 70
     1
102
RTVSPropertyOp7
 70
     1
102
RTVSPropertyOp8
 70
     1
102
RTVSPropertyOp9
 70
     1
102
RTVSPropertyOp10
 70
     1
102
RTVSPropertyOp11
 70
     1
102
RTVSPropertyOp12
 70
     1
102
RTVSPropertyOp13
 70
     1
102
RTVSPropertyOp14
 70
     1
102
RTVSPropertyOp15
 70
     1
102
RTVSPropertyOp16
 70
     1
102
RTVSPropertyOp17
 70
     1
102
RTVSPropertyOp18
 70
     1
102
RTVSPropertyOp19
 70
     1
102
RTVSPropertyOp20
 70
     1
102
RTVSPropertyOp21
 70
     1
102
RTVSPropertyOp22
 70
     1
102
RTVSPropertyOp23
 70
     1
102
RTVSPropertyOp24
 70
     1
102
RTVSPropertyOp25
 70
     1
102
RTVSPropertyOp26
 70
     1
102
RTVSPropertyOp27
 70
     1
102
RTVSPropertyOp28
 70
     1
102
RTVSPropertyOp29
 70
     1
102
RTVSPropertyOp30
 70
     1
102
RTVSPropertyOp31
 70
     1
102
RTVSPropertyOp32
 70
     1
102
RTVSPropertyOp33
 70
     1
102
RTVSPropertyOp34
 70
     1
102
RTVSPropertyOp35
 70
     1
102
RTVSPropertyOp36
 70
     1
102
RTVSPropertyOp37
 70
     1
102
RTVSPropertyOp38
 70
     1
102
RTVSPropertyOp39
 70
     1
102
RTVSPropertyOp40
 70
     1
102
RTVSPropertyOp41
 70
     1
102
RTVSPropertyOp42
 70
     1
102
RTVSPropertyOp43
 70
     1
102
RTVSPropertyOp44
 70
     1
102
RTVSPropertyOp45
 70
     1
102
RTVSPropertyOp46
 70
     1
102
RTVSPropertyOp47
 70
     1
102
RTVSPropertyOp48
 70
     1
102
RTVSPropertyOp49
 70
     1
102
RTVSPropertyOp50
 70
     1
102
RTVSPropertyOp51
 70
     0
102
RTVSPropertyOp52
 70
     0
102
RTVSPropertyOp53
 70
     1
102
RTVSPropertyOp54
 70
     1
102
RTVSPropertyOp55
 70
     1
102
RTVSPropertyOp56
 70
     1
102
RTVSPropertyOp57
 70
     1
102
RTVSPropertyOp58
 70
     1
102
RTVSPropertyOp59
 70
     1
102
RTVSPropertyOp60
 70
     1
102
RTVSPropertyOp61
 70
     1
102
RTVSPropertyOp62
 70
     1
  0
XRECORD
  5
1D16
102
{ACAD_REACTORS
330
1D15
102
}
330
1D15
100
AcDbXrecord
280
     1
102
RTVSPost2010Prop28
280
     0
102
RTVSPost2010PropOp28
 70
     1
102
RTVSPost2010Prop29
280
     1
102
RTVSPost2010PropOp29
 70
     1
102
RTVSPost2010Prop30
280
     1
102
RTVSPost2010PropOp30
 70
     1
102
RTVSPost2010Prop31
280
     0
102
RTVSPost2010PropOp31
 70
     1
102
RTVSPost2010Prop32
280
     0
102
RTVSPost2010PropOp32
 70
     1
102
RTVSPost2010Prop33
280
     0
102
RTVSPost2010PropOp33
 70
     1
102
RTVSPost2010Prop34
280
     0
102
RTVSPost2010PropOp34
 70
     1
102
RTVSPost2010Prop35
280
     0
102
RTVSPost2010PropOp35
 70
     1
102
RTVSPost2010Prop36
280
     0
102
RTVSPost2010PropOp36
 70
     1
102
RTVSPost2010Prop37
 90
       50
102
RTVSPost2010PropOp37
 70
     1
102
RTVSPost2010Prop38
140
0.0
102
RTVSPost2010PropOp38
 70
     1
102
RTVSPost2010Prop39
140
1.0
102
RTVSPost2010PropOp39
 70
     1
102
RTVSPost2010Prop40
 90
        0
102
RTVSPost2010PropOp40
 70
     1
102
RTVSPost2010Prop41ColorIndex
 90
       18
102
RTVSPost2010Prop41ColorRGB
 90
        0
102
RTVSPost2010PropOp41
 70
     1
102
RTVSPost2010Prop42
 90
       50
102
RTVSPost2010PropOp42
 70
     1
102
RTVSPost2010Prop43
 90
        3
102
RTVSPost2010PropOp43
 70
     1
102
RTVSPost2010Prop44ColorIndex
 90
        5
102
RTVSPost2010Prop44ColorRGB
 90
      255
102
RTVSPost2010PropOp44
 70
     1
102
RTVSPost2010Prop45
280
     0
102
RTVSPost2010PropOp45
 70
     1
102
RTVSPost2010Prop46
 90
       50
102
RTVSPost2010PropOp46
 70
     1
102
RTVSPost2010Prop47
 90
       50
102
RTVSPost2010PropOp47
 70
     1
102
RTVSPost2010Prop48
 90
       50
102
RTVSPost2010PropOp48
 70
     1
102
RTVSPost2010Prop49
280
     0
102
RTVSPost2010PropOp49
 70
     1
102
RTVSPost2010Prop50
 90
       50
102
RTVSPost2010PropOp50
 70
     1
102
RTVSPost2010Prop51ColorIndex
 90
      256
102
RTVSPost2010Prop51ColorRGB
 90
-16777216
102
RTVSPost2010PropOp51
 70
     0
102
RTVSPost2010Prop52
140
1.0
102
RTVSPost2010PropOp52
 70
     0
102
RTVSPost2010Prop53
 90
        2
102
RTVSPost2010PropOp53
 70
     1
102
RTVSPost2010Prop54
  1
strokes_ogs.tif
102
RTVSPost2010PropOp54
 70
     1
102
RTVSPost2010Prop55
280
     0
102
RTVSPost2010PropOp55
 70
     1
102
RTVSPost2010Prop56
140
1.0
102
RTVSPost2010PropOp56
 70
     1
102
RTVSPost2010Prop57
140
1.0
102
RTVSPost2010PropOp57
 70
     1
102
RTVSPropertyOp0
 70
     1
102
RTVSPropertyOp1
 70
     1
102
RTVSPropertyOp2
 70
     1
102
RTVSPropertyOp3
 70
     1
102
RTVSPropertyOp4
 70
     1
102
RTVSPropertyOp5
 70
     1
102
RTVSPropertyOp6
 70
     1
102
RTVSPropertyOp7
 70
     1
102
RTVSPropertyOp8
 70
     1
102
RTVSPropertyOp9
 70
     1
102
RTVSPropertyOp10
 70
     1
102
RTVSPropertyOp11
 70
     1
102
RTVSPropertyOp12
 70
     1
102
RTVSPropertyOp13
 70
     1
102
RTVSPropertyOp14
 70
     1
102
RTVSPropertyOp15
 70
     1
102
RTVSPropertyOp16
 70
     1
102
RTVSPropertyOp17
 70
     1
102
RTVSPropertyOp18
 70
     1
102
RTVSPropertyOp19
 70
     1
102
RTVSPropertyOp20
 70
     1
102
RTVSPropertyOp21
 70
     1
102
RTVSPropertyOp22
 70
     1
102
RTVSPropertyOp23
 70
     1
102
RTVSPropertyOp24
 70
     1
102
RTVSPropertyOp25
 70
     1
102
RTVSPropertyOp26
 70
     1
102
RTVSPropertyOp27
 70
     1
102
RTVSPropertyOp28
 70
     1
102
RTVSPropertyOp29
 70
     1
102
RTVSPropertyOp30
 70
     1
102
RTVSPropertyOp31
 70
     1
102
RTVSPropertyOp32
 70
     1
102
RTVSPropertyOp33
 70
     1
102
RTVSPropertyOp34
 70
     1
102
RTVSPropertyOp35
 70
     1
102
RTVSPropertyOp36
 70
     1
102
RTVSPropertyOp37
 70
     1
102
RTVSPropertyOp38
 70
     1
102
RTVSPropertyOp39
 70
     1
102
RTVSPropertyOp40
 70
     1
102
RTVSPropertyOp41
 70
     1
102
RTVSPropertyOp42
 70
     1
102
RTVSPropertyOp43
 70
     1
102
RTVSPropertyOp44
 70
     1
102
RTVSPropertyOp45
 70
     1
102
RTVSPropertyOp46
 70
     1
102
RTVSPropertyOp47
 70
     1
102
RTVSPropertyOp48
 70
     1
102
RTVSPropertyOp49
 70
     1
102
RTVSPropertyOp50
 70
     1
102
RTVSPropertyOp51
 70
     0
102
RTVSPropertyOp52
 70
     0
102
RTVSPropertyOp53
 70
     1
102
RTVSPropertyOp54
 70
     1
102
RTVSPropertyOp55
 70
     1
102
RTVSPropertyOp56
 70
     1
102
RTVSPropertyOp57
 70
     1
102
RTVSPropertyOp58
 70
     1
102
RTVSPropertyOp59
 70
     1
102
RTVSPropertyOp60
 70
     1
102
RTVSPropertyOp61
 70
     1
102
RTVSPropertyOp62
 70
     1
  0
XRECORD
  5
1D2E
102
{ACAD_REACTORS
330
1D2D
102
}
330
1D2D
100
AcDbXrecord
280
     1
102
RTVSPost2010Prop28
280
     0
102
RTVSPost2010PropOp28
 70
     1
102
RTVSPost2010Prop29
280
     1
102
RTVSPost2010PropOp29
 70
     1
102
RTVSPost2010Prop30
280
     1
102
RTVSPost2010PropOp30
 70
     1
102
RTVSPost2010Prop31
280
     0
102
RTVSPost2010PropOp31
 70
     1
102
RTVSPost2010Prop32
280
     0
102
RTVSPost2010PropOp32
 70
     1
102
RTVSPost2010Prop33
280
     0
102
RTVSPost2010PropOp33
 70
     1
102
RTVSPost2010Prop34
280
     0
102
RTVSPost2010PropOp34
 70
     1
102
RTVSPost2010Prop35
280
     0
102
RTVSPost2010PropOp35
 70
     1
102
RTVSPost2010Prop36
280
     0
102
RTVSPost2010PropOp36
 70
     1
102
RTVSPost2010Prop37
 90
       50
102
RTVSPost2010PropOp37
 70
     1
102
RTVSPost2010Prop38
140
0.0
102
RTVSPost2010PropOp38
 70
     1
102
RTVSPost2010Prop39
140
1.0
102
RTVSPost2010PropOp39
 70
     1
102
RTVSPost2010Prop40
 90
        0
102
RTVSPost2010PropOp40
 70
     1
102
RTVSPost2010Prop41ColorIndex
 90
       18
102
RTVSPost2010Prop41ColorRGB
 90
        0
102
RTVSPost2010PropOp41
 70
     1
102
RTVSPost2010Prop42
 90
       50
102
RTVSPost2010PropOp42
 70
     1
102
RTVSPost2010Prop43
 90
        3
102
RTVSPost2010PropOp43
 70
     1
102
RTVSPost2010Prop44ColorIndex
 90
        5
102
RTVSPost2010Prop44ColorRGB
 90
      255
102
RTVSPost2010PropOp44
 70
     1
102
RTVSPost2010Prop45
280
     0
102
RTVSPost2010PropOp45
 70
     1
102
RTVSPost2010Prop46
 90
       50
102
RTVSPost2010PropOp46
 70
     1
102
RTVSPost2010Prop47
 90
       50
102
RTVSPost2010PropOp47
 70
     1
102
RTVSPost2010Prop48
 90
       50
102
RTVSPost2010PropOp48
 70
     1
102
RTVSPost2010Prop49
280
     0
102
RTVSPost2010PropOp49
 70
     1
102
RTVSPost2010Prop50
 90
       50
102
RTVSPost2010PropOp50
 70
     1
102
RTVSPost2010Prop51ColorIndex
 90
      256
102
RTVSPost2010Prop51ColorRGB
 90
-16777216
102
RTVSPost2010PropOp51
 70
     0
102
RTVSPost2010Prop52
140
1.0
102
RTVSPost2010PropOp52
 70
     0
102
RTVSPost2010Prop53
 90
        2
102
RTVSPost2010PropOp53
 70
     1
102
RTVSPost2010Prop54
  1
strokes_ogs.tif
102
RTVSPost2010PropOp54
 70
     1
102
RTVSPost2010Prop55
280
     0
102
RTVSPost2010PropOp55
 70
     1
102
RTVSPost2010Prop56
140
1.0
102
RTVSPost2010PropOp56
 70
     1
102
RTVSPost2010Prop57
140
1.0
102
RTVSPost2010PropOp57
 70
     1
102
RTVSPropertyOp0
 70
     1
102
RTVSPropertyOp1
 70
     1
102
RTVSPropertyOp2
 70
     1
102
RTVSPropertyOp3
 70
     1
102
RTVSPropertyOp4
 70
     1
102
RTVSPropertyOp5
 70
     1
102
RTVSPropertyOp6
 70
     1
102
RTVSPropertyOp7
 70
     1
102
RTVSPropertyOp8
 70
     1
102
RTVSPropertyOp9
 70
     1
102
RTVSPropertyOp10
 70
     1
102
RTVSPropertyOp11
 70
     1
102
RTVSPropertyOp12
 70
     1
102
RTVSPropertyOp13
 70
     1
102
RTVSPropertyOp14
 70
     1
102
RTVSPropertyOp15
 70
     1
102
RTVSPropertyOp16
 70
     1
102
RTVSPropertyOp17
 70
     1
102
RTVSPropertyOp18
 70
     1
102
RTVSPropertyOp19
 70
     1
102
RTVSPropertyOp20
 70
     1
102
RTVSPropertyOp21
 70
     1
102
RTVSPropertyOp22
 70
     1
102
RTVSPropertyOp23
 70
     1
102
RTVSPropertyOp24
 70
     1
102
RTVSPropertyOp25
 70
     1
102
RTVSPropertyOp26
 70
     1
102
RTVSPropertyOp27
 70
     1
102
RTVSPropertyOp28
 70
     1
102
RTVSPropertyOp29
 70
     1
102
RTVSPropertyOp30
 70
     1
102
RTVSPropertyOp31
 70
     1
102
RTVSPropertyOp32
 70
     1
102
RTVSPropertyOp33
 70
     1
102
RTVSPropertyOp34
 70
     1
102
RTVSPropertyOp35
 70
     1
102
RTVSPropertyOp36
 70
     1
102
RTVSPropertyOp37
 70
     1
102
RTVSPropertyOp38
 70
     1
102
RTVSPropertyOp39
 70
     1
102
RTVSPropertyOp40
 70
     1
102
RTVSPropertyOp41
 70
     1
102
RTVSPropertyOp42
 70
     1
102
RTVSPropertyOp43
 70
     1
102
RTVSPropertyOp44
 70
     1
102
RTVSPropertyOp45
 70
     1
102
RTVSPropertyOp46
 70
     1
102
RTVSPropertyOp47
 70
     1
102
RTVSPropertyOp48
 70
     1
102
RTVSPropertyOp49
 70
     1
102
RTVSPropertyOp50
 70
     1
102
RTVSPropertyOp51
 70
     0
102
RTVSPropertyOp52
 70
     0
102
RTVSPropertyOp53
 70
     1
102
RTVSPropertyOp54
 70
     1
102
RTVSPropertyOp55
 70
     1
102
RTVSPropertyOp56
 70
     1
102
RTVSPropertyOp57
 70
     1
102
RTVSPropertyOp58
 70
     1
102
RTVSPropertyOp59
 70
     1
102
RTVSPropertyOp60
 70
     1
102
RTVSPropertyOp61
 70
     1
102
RTVSPropertyOp62
 70
     1
  0
ENDSEC
  0
EOF
