  0
SECTION
  2
HEADER
  9
$ACADVER
  1
AC1015
  9
$ACADMAINTVER
 70
    20
  9
$DWGCODEPAGE
  3
ANSI_932
  9
$INSBASE
 10
0.0
 20
0.0
 30
0.0
  9
$EXTMIN
 10
9.999999064246615
 20
9.999999806846743
 30
0.0
  9
$EXTMAX
 10
874.7497398123122
 20
613.5574705008139
 30
0.0
  9
$LIMMIN
 10
0.0000015376081137
 20
-0.0000001931532552
  9
$LIMMAX
 10
952.0000015376083
 20
656.303030109877
  9
$ORTHOMODE
 70
     0
  9
$REGENMODE
 70
     1
  9
$FILLMODE
 70
     1
  9
$QTEXTMODE
 70
     0
  9
$MIRRTEXT
 70
     1
  9
$LTSCALE
 40
1.0
  9
$ATTMODE
 70
     1
  9
$TEXTSIZE
 40
2.5
  9
$TRACEWID
 40
1.0
  9
$TEXTSTYLE
  7
STANDARD
  9
$CLAYER
  8
0
  9
$CELTYPE
  6
BYLAYER
  9
$CECOLOR
 62
   256
  9
$CELTSCALE
 40
1.0
  9
$DISPSILH
 70
     0
  9
$DIMSCALE
 40
1.0
  9
$DIMASZ
 40
3.0
  9
$DIMEXO
 40
1.0
  9
$DIMDLI
 40
10.0
  9
$DIMRND
 40
0.0
  9
$DIMDLE
 40
0.0
  9
$DIMEXE
 40
1.0
  9
$DIMTP
 40
0.0
  9
$DIMTM
 40
0.0
  9
$DIMTXT
 40
3.2
  9
$DIMCEN
 40
0.0
  9
$DIMTSZ
 40
0.0
  9
$DIMTOL
 70
     0
  9
$DIMLIM
 70
     0
  9
$DIMTIH
 70
     0
  9
$DIMTOH
 70
     0
  9
$DIMSE1
 70
     0
  9
$DIMSE2
 70
     0
  9
$DIMTAD
 70
     3
  9
$DIMZIN
 70
     8
  9
$DIMBLK
  1

  9
$DIMASO
 70
     1
  9
$DIMSHO
 70
     1
  9
$DIMPOST
  1

  9
$DIMAPOST
  1

  9
$DIMALT
 70
     0
  9
$DIMALTD
 70
     2
  9
$DIMALTF
 40
25.4
  9
$DIMLFAC
 40
1.0
  9
$DIMTOFL
 70
     1
  9
$DIMTVP
 40
0.0
  9
$DIMTIX
 70
     0
  9
$DIMSOXD
 70
     0
  9
$DIMSAH
 70
     1
  9
$DIMBLK1
  1
OPEN
  9
$DIMBLK2
  1
OPEN
  9
$DIMSTYLE
  2
STANDARD
  9
$DIMCLRD
 70
     0
  9
$DIMCLRE
 70
     0
  9
$DIMCLRT
 70
     0
  9
$DIMTFAC
 40
1.0
  9
$DIMGAP
 40
1.0
  9
$DIMJUST
 70
     0
  9
$DIMSD1
 70
     0
  9
$DIMSD2
 70
     0
  9
$DIMTOLJ
 70
     1
  9
$DIMTZIN
 70
     0
  9
$DIMALTZ
 70
     0
  9
$DIMALTTZ
 70
     0
  9
$DIMUPT
 70
     0
  9
$DIMDEC
 70
     4
  9
$DIMTDEC
 70
     4
  9
$DIMALTU
 70
     2
  9
$DIMALTTD
 70
     2
  9
$DIMTXSTY
  7
STANDARD
  9
$DIMAUNIT
 70
     0
  9
$DIMADEC
 70
     0
  9
$DIMALTRND
 40
0.0
  9
$DIMAZIN
 70
     0
  9
$DIMDSEP
 70
    46
  9
$DIMATFIT
 70
     3
  9
$DIMFRAC
 70
     0
  9
$DIMLDRBLK
  1
OPEN
  9
$DIMLUNIT
 70
     2
  9
$DIMLWD
 70
    -2
  9
$DIMLWE
 70
    -2
  9
$DIMTMOVE
 70
     0
  9
$LUNITS
 70
     2
  9
$LUPREC
 70
     4
  9
$SKETCHINC
 40
1.0
  9
$FILLETRAD
 40
0.0
  9
$AUNITS
 70
     0
  9
$AUPREC
 70
     0
  9
$MENU
  1
.
  9
$ELEVATION
 40
0.0
  9
$PELEVATION
 40
0.0
  9
$THICKNESS
 40
0.0
  9
$LIMCHECK
 70
     0
  9
$CHAMFERA
 40
10.0
  9
$CHAMFERB
 40
10.0
  9
$CHAMFERC
 40
20.0
  9
$CHAMFERD
 40
0.0
  9
$SKPOLY
 70
     0
  9
$TDCREATE
 40
2453284.392786817
  9
$TDUCREATE
 40
2453284.017786817
  9
$TDUPDATE
 40
2457192.689013692
  9
$TDUUPDATE
 40
2457192.314013692
  9
$TDINDWG
 40
0.2897763542
  9
$TDUSRTIMER
 40
0.2897763426
  9
$USRTIMER
 70
     1
  9
$ANGBASE
 50
0.0
  9
$ANGDIR
 70
     0
  9
$PDMODE
 70
     0
  9
$PDSIZE
 40
0.0
  9
$PLINEWID
 40
0.0
  9
$SPLFRAME
 70
     0
  9
$SPLINETYPE
 70
     6
  9
$SPLINESEGS
 70
     8
  9
$HANDSEED
  5
1BF7
  9
$SURFTAB1
 70
     6
  9
$SURFTAB2
 70
     6
  9
$SURFTYPE
 70
     6
  9
$SURFU
 70
     6
  9
$SURFV
 70
     6
  9
$UCSBASE
  2

  9
$UCSNAME
  2

  9
$UCSORG
 10
0.0
 20
0.0
 30
0.0
  9
$UCSXDIR
 10
1.0
 20
0.0
 30
0.0
  9
$UCSYDIR
 10
0.0
 20
1.0
 30
0.0
  9
$UCSORTHOREF
  2

  9
$UCSORTHOVIEW
 70
     0
  9
$UCSORGTOP
 10
0.0
 20
0.0
 30
0.0
  9
$UCSORGBOTTOM
 10
0.0
 20
0.0
 30
0.0
  9
$UCSORGLEFT
 10
0.0
 20
0.0
 30
0.0
  9
$UCSORGRIGHT
 10
0.0
 20
0.0
 30
0.0
  9
$UCSORGFRONT
 10
0.0
 20
0.0
 30
0.0
  9
$UCSORGBACK
 10
0.0
 20
0.0
 30
0.0
  9
$PUCSBASE
  2

  9
$PUCSNAME
  2

  9
$PUCSORG
 10
0.0
 20
0.0
 30
0.0
  9
$PUCSXDIR
 10
1.0
 20
0.0
 30
0.0
  9
$PUCSYDIR
 10
0.0
 20
1.0
 30
0.0
  9
$PUCSORTHOREF
  2

  9
$PUCSORTHOVIEW
 70
     0
  9
$PUCSORGTOP
 10
0.0
 20
0.0
 30
0.0
  9
$PUCSORGBOTTOM
 10
0.0
 20
0.0
 30
0.0
  9
$PUCSORGLEFT
 10
0.0
 20
0.0
 30
0.0
  9
$PUCSORGRIGHT
 10
0.0
 20
0.0
 30
0.0
  9
$PUCSORGFRONT
 10
0.0
 20
0.0
 30
0.0
  9
$PUCSORGBACK
 10
0.0
 20
0.0
 30
0.0
  9
$USERI1
 70
     0
  9
$USERI2
 70
     0
  9
$USERI3
 70
     0
  9
$USERI4
 70
     0
  9
$USERI5
 70
     0
  9
$USERR1
 40
0.0
  9
$USERR2
 40
0.0
  9
$USERR3
 40
0.0
  9
$USERR4
 40
0.0
  9
$USERR5
 40
0.0
  9
$WORLDVIEW
 70
     1
  9
$SHADEDGE
 70
     3
  9
$SHADEDIF
 70
    70
  9
$TILEMODE
 70
     1
  9
$MAXACTVP
 70
    48
  9
$PINSBASE
 10
0.0
 20
0.0
 30
0.0
  9
$PLIMCHECK
 70
     0
  9
$PEXTMIN
 10
1.000000000000000E+20
 20
1.000000000000000E+20
 30
1.000000000000000E+20
  9
$PEXTMAX
 10
-1.000000000000000E+20
 20
-1.000000000000000E+20
 30
-1.000000000000000E+20
  9
$PLIMMIN
 10
0.0
 20
0.0
  9
$PLIMMAX
 10
420.0
 20
297.0
  9
$UNITMODE
 70
     0
  9
$VISRETAIN
 70
     1
  9
$PLINEGEN
 70
     0
  9
$PSLTSCALE
 70
     1
  9
$TREEDEPTH
 70
  3020
  9
$CMLSTYLE
  2
STANDARD
  9
$CMLJUST
 70
     0
  9
$CMLSCALE
 40
20.0
  9
$PROXYGRAPHICS
 70
     1
  9
$MEASUREMENT
 70
     0
  9
$CELWEIGHT
370
    -1
  9
$ENDCAPS
280
     0
  9
$JOINSTYLE
280
     0
  9
$LWDISPLAY
290
     0
  9
$INSUNITS
 70
     0
  9
$HYPERLINKBASE
  1

  9
$STYLESHEET
  1

  9
$XEDIT
290
     1
  9
$CEPSNTYPE
380
     0
  9
$PSTYLEMODE
290
     1
  9
$FINGERPRINTGUID
  2
{FE9CF285-1ACE-4A4A-9D69-C6F4F93624FB}
  9
$VERSIONGUID
  2
{9B101ABE-9DE5-4376-BE29-D8C06F64D1D3}
  9
$EXTNAMES
290
     1
  9
$PSVPSCALE
 40
0.0
  9
$OLESTARTUP
290
     0
  0
ENDSEC
  0
SECTION
  2
CLASSES
  0
CLASS
  1
ACDBDICTIONARYWDFLT
  2
AcDbDictionaryWithDefault
  3
ObjectDBX Classes
 90
        0
280
     0
281
     0
  0
CLASS
  1
ACDBPLACEHOLDER
  2
AcDbPlaceHolder
  3
ObjectDBX Classes
 90
        0
280
     0
281
     0
  0
CLASS
  1
LAYOUT
  2
AcDbLayout
  3
ObjectDBX Classes
 90
        0
280
     0
281
     0
  0
CLASS
  1
DICTIONARYVAR
  2
AcDbDictionaryVar
  3
ObjectDBX Classes
 90
        0
280
     0
281
     0
  0
CLASS
  1
MATERIAL
  2
AcDbMaterial
  3
ObjectDBX Classes
 90
     1153
280
     0
281
     0
  0
CLASS
  1
VISUALSTYLE
  2
AcDbVisualStyle
  3
ObjectDBX Classes
 90
     4095
280
     0
281
     0
  0
CLASS
  1
TABLESTYLE
  2
AcDbTableStyle
  3
ObjectDBX Classes
 90
     4095
280
     0
281
     0
  0
CLASS
  1
SCALE
  2
AcDbScale
  3
ObjectDBX Classes
 90
     1153
280
     0
281
     0
  0
CLASS
  1
MLEADERSTYLE
  2
AcDbMLeaderStyle
  3
ACDB_MLEADERSTYLE_CLASS
 90
     4095
280
     0
281
     0
  0
CLASS
  1
ACDBSECTIONVIEWSTYLE
  2
AcDbSectionViewStyle
  3
ObjectDBX Classes
 90
     1025
280
     0
281
     0
  0
CLASS
  1
ACDBDETAILVIEWSTYLE
  2
AcDbDetailViewStyle
  3
ObjectDBX Classes
 90
     1025
280
     0
281
     0
  0
CLASS
  1
CELLSTYLEMAP
  2
AcDbCellStyleMap
  3
ObjectDBX Classes
 90
     1152
280
     0
281
     0
  0
ENDSEC
  0
SECTION
  2
TABLES
  0
TABLE
  2
VPORT
  5
8
330
0
100
AcDbSymbolTable
 70
     1
  0
VPORT
  5
1B43
330
8
100
AcDbSymbolTableRecord
100
AcDbViewportTableRecord
  2
*ACTIVE
 70
     0
 10
0.0
 20
0.0
 11
1.0
 21
1.0
 12
674.7202244913173
 22
311.7779896341008
 13
0.0
 23
0.0
 14
10.0
 24
10.0
 15
10.0
 25
10.0
 16
0.0
 26
0.0
 36
1.0
 17
0.0
 27
0.0
 37
0.0
 40
608.3322597779242
 41
2.35006605019815
 42
50.0
 43
0.0
 44
0.0
 50
0.0
 51
0.0
 71
     0
 72
   100
 73
     1
 74
     0
 75
     0
 76
     0
 77
     0
 78
     0
281
     0
 65
     1
110
0.0
120
0.0
130
0.0
111
1.0
121
0.0
131
0.0
112
0.0
122
1.0
132
0.0
 79
     0
146
0.0
1001
ACAD_NAV_VCDISPLAY
1070
     3
  0
ENDTAB
  0
TABLE
  2
LTYPE
  5
5
330
0
100
AcDbSymbolTable
 70
     4
  0
LTYPE
  5
12
330
5
100
AcDbSymbolTableRecord
100
AcDbLinetypeTableRecord
  2
BYBLOCK
 70
     0
  3

 72
    65
 73
     0
 40
0.0
  0
LTYPE
  5
13
330
5
100
AcDbSymbolTableRecord
100
AcDbLinetypeTableRecord
  2
BYLAYER
 70
     0
  3

 72
    65
 73
     0
 40
0.0
  0
LTYPE
  5
14
330
5
100
AcDbSymbolTableRecord
100
AcDbLinetypeTableRecord
  2
CONTINUOUS
 70
     0
  3
Solid line
 72
    65
 73
     0
 40
0.0
  0
LTYPE
  5
62
330
5
100
AcDbSymbolTableRecord
100
AcDbLinetypeTableRecord
  2
DASHED
 70
     0
  3
Dashed __ __ __ __ __ __ __ __ __ __ __ __ __ _
 72
    65
 73
     2
 40
19.04999999999998
 49
12.7
 74
     0
 49
-6.349999999999997
 74
     0
  0
LTYPE
  5
63
330
5
100
AcDbSymbolTableRecord
100
AcDbLinetypeTableRecord
  2
CENTER
 70
     0
  3
Center ____ _ ____ _ ____ _ ____ _ ____ _ ____
 72
    65
 73
     4
 40
50.8
 49
31.75
 74
     0
 49
-6.349999999999997
 74
     0
 49
6.349999999999997
 74
     0
 49
-6.349999999999997
 74
     0
  0
LTYPE
  5
64
330
5
100
AcDbSymbolTableRecord
100
AcDbLinetypeTableRecord
  2
PHANTOM
 70
     0
  3
Phantom ______  __  __  ______  __  __  ______
 72
    65
 73
     6
 40
63.5
 49
31.75
 74
     0
 49
-6.349999999999997
 74
     0
 49
6.349999999999997
 74
     0
 49
-6.349999999999997
 74
     0
 49
6.349999999999997
 74
     0
 49
-6.349999999999997
 74
     0
  0
ENDTAB
  0
TABLE
  2
LAYER
  5
2
330
0
100
AcDbSymbolTable
 70
     8
  0
LAYER
  5
E
102
{ACAD_XDICTIONARY
360
1B9B
102
}
330
2
100
AcDbSymbolTableRecord
100
AcDbLayerTableRecord
  2
0
 70
     0
 62
     7
  6
CONTINUOUS
370
    -3
390
1B4A
  0
LAYER
  5
65
102
{ACAD_XDICTIONARY
360
1B9D
102
}
330
2
100
AcDbSymbolTableRecord
100
AcDbLayerTableRecord
  2
4
 70
     0
 62
     1
  6
CENTER
370
    -3
390
1B4A
  0
LAYER
  5
66
102
{ACAD_XDICTIONARY
360
1B9F
102
}
330
2
100
AcDbSymbolTableRecord
100
AcDbLayerTableRecord
  2
5
 70
     0
 62
     6
  6
PHANTOM
370
    -3
390
1B4A
  0
LAYER
  5
67
102
{ACAD_XDICTIONARY
360
1BA1
102
}
330
2
100
AcDbSymbolTableRecord
100
AcDbLayerTableRecord
  2
1
 70
     0
 62
     7
  6
CONTINUOUS
370
    -3
390
1B4A
  0
LAYER
  5
68
102
{ACAD_XDICTIONARY
360
1BA3
102
}
330
2
100
AcDbSymbolTableRecord
100
AcDbLayerTableRecord
  2
2
 70
     0
 62
     4
  6
CONTINUOUS
370
    -3
390
1B4A
  0
LAYER
  5
69
102
{ACAD_XDICTIONARY
360
1BA5
102
}
330
2
100
AcDbSymbolTableRecord
100
AcDbLayerTableRecord
  2
3
 70
     0
 62
     2
  6
DASHED
370
    -3
390
1B4A
  0
LAYER
  5
6A
102
{ACAD_XDICTIONARY
360
1BA7
102
}
330
2
100
AcDbSymbolTableRecord
100
AcDbLayerTableRecord
  2
6
 70
     0
 62
     5
  6
CONTINUOUS
370
    -3
390
1B4A
  0
LAYER
  5
6B
102
{ACAD_XDICTIONARY
360
1BA9
102
}
330
2
100
AcDbSymbolTableRecord
100
AcDbLayerTableRecord
  2
7
 70
     0
 62
     3
  6
CONTINUOUS
370
    -3
390
1B4A
  0
ENDTAB
  0
TABLE
  2
STYLE
  5
3
330
0
100
AcDbSymbolTable
 70
     1
  0
STYLE
  5
F
330
3
100
AcDbSymbolTableRecord
100
AcDbTextStyleTableRecord
  2
STANDARD
 70
     0
 40
0.0
 41
1.0
 50
0.0
 71
     0
 42
2.5
  3
simplex.shx
  4

  0
ENDTAB
  0
TABLE
  2
VIEW
  5
6
330
0
100
AcDbSymbolTable
 70
     0
  0
ENDTAB
  0
TABLE
  2
UCS
  5
7
330
0
100
AcDbSymbolTable
 70
     0
  0
ENDTAB
  0
TABLE
  2
APPID
  5
9
330
0
100
AcDbSymbolTable
 70
     5
  0
APPID
  5
10
330
9
100
AcDbSymbolTableRecord
100
AcDbRegAppTableRecord
  2
ACAD
 70
     0
  0
APPID
  5
3E
330
9
100
AcDbSymbolTableRecord
100
AcDbRegAppTableRecord
  2
CONTENTTABDATA
 70
     0
  0
APPID
  5
3F
330
9
100
AcDbSymbolTableRecord
100
AcDbRegAppTableRecord
  2
CONTENTCURRENTTAB
 70
     0
  0
APPID
  5
1BB5
330
9
100
AcDbSymbolTableRecord
100
AcDbRegAppTableRecord
  2
ACAD_NAV_VCDISPLAY
 70
     0
  0
APPID
  5
1BEE
330
9
100
AcDbSymbolTableRecord
100
AcDbRegAppTableRecord
  2
ACAD_MLEADERVER
 70
     0
  0
ENDTAB
  0
TABLE
  2
DIMSTYLE
  5
A
330
0
100
AcDbSymbolTable
 70
     1
100
AcDbDimStyleTable
 71
     0
  0
DIMSTYLE
105
1D
330
A
100
AcDbSymbolTableRecord
100
AcDbDimStyleTableRecord
  2
STANDARD
 70
     0
 41
3.0
 42
1.0
 43
10.0
 44
1.0
 73
     0
 74
     0
 77
     3
 78
     8
140
3.2
141
0.0
147
1.0
172
     1
173
     1
340
F
341
2E
343
2E
344
2E
  0
ENDTAB
  0
TABLE
  2
BLOCK_RECORD
  5
1
330
0
100
AcDbSymbolTable
 70
     1
  0
BLOCK_RECORD
  5
18
102
{ACAD_XDICTIONARY
360
1B2D
102
}
330
1
100
AcDbSymbolTableRecord
100
AcDbBlockTableRecord
  2
*MODEL_SPACE
340
1B98
  0
BLOCK_RECORD
  5
15
102
{ACAD_XDICTIONARY
360
1B2B
102
}
330
1
100
AcDbSymbolTableRecord
100
AcDbBlockTableRecord
  2
*PAPER_SPACE
340
1B99
  0
BLOCK_RECORD
  5
2E
330
1
100
AcDbSymbolTableRecord
100
AcDbBlockTableRecord
  2
_OPEN
340
0
  0
ENDTAB
  0
ENDSEC
  0
SECTION
  2
BLOCKS
  0
BLOCK
  5
19
330
18
100
AcDbEntity
  8
0
100
AcDbBlockBegin
  2
*MODEL_SPACE
 70
     0
 10
0.0
 20
0.0
 30
0.0
  3
*MODEL_SPACE
  1

  0
ENDBLK
  5
1A
330
18
100
AcDbEntity
  8
0
100
AcDbBlockEnd
  0
BLOCK
  5
16
330
15
100
AcDbEntity
 67
     1
  8
0
100
AcDbBlockBegin
  2
*PAPER_SPACE
 70
     0
 10
0.0
 20
0.0
 30
0.0
  3
*PAPER_SPACE
  1

  0
ENDBLK
  5
17
330
15
100
AcDbEntity
 67
     1
  8
0
100
AcDbBlockEnd
  0
BLOCK
  5
2F
330
2E
100
AcDbEntity
  8
0
100
AcDbBlockBegin
  2
_OPEN
 70
     0
 10
0.0
 20
0.0
 30
0.0
  3
_OPEN
  1

  0
LINE
  5
30
330
2E
100
AcDbEntity
  8
0
  6
ByBlock
 62
     0
100
AcDbLine
 10
-1.0
 20
0.1666666666666666
 30
0.0
 11
0.0
 21
0.0
 31
0.0
  0
LINE
  5
31
330
2E
100
AcDbEntity
  8
0
  6
ByBlock
 62
     0
100
AcDbLine
 10
0.0
 20
0.0
 30
0.0
 11
-1.0
 21
-0.1666666666666666
 31
0.0
  0
LINE
  5
32
330
2E
100
AcDbEntity
  8
0
  6
ByBlock
 62
     0
100
AcDbLine
 10
0.0
 20
0.0
 30
0.0
 11
-1.0
 21
0.0
 31
0.0
  0
ENDBLK
  5
33
330
2E
100
AcDbEntity
  8
0
100
AcDbBlockEnd
  0
ENDSEC
  0
SECTION
  2
ENTITIES
  0
ARC
  5
29B
330
18
100
AcDbEntity
  8
1
  6
Continuous
100
AcDbCircle
 10
311.1737388571266
 20
595.0574705008135
 30
0.0
 40
5.5
100
AcDbArc
 50
224.9999309999999
 51
45.00000499999997
  0
ARC
  5
29C
330
18
100
AcDbEntity
  8
1
  6
Continuous
100
AcDbCircle
 10
308.6737388571267
 20
597.5574705008138
 30
0.0
 40
5.5
100
AcDbArc
 50
45.00000499999997
 51
224.9999279999997
  0
LINE
  5
29D
330
18
100
AcDbEntity
  8
4
  6
CENTER
 48
0.5
100
AcDbLine
 10
314.6737388571267
 20
597.5574705008138
 30
0.0
 11
302.6737388571266
 21
597.5574705008138
 31
0.0
  0
LINE
  5
29E
330
18
100
AcDbEntity
  8
4
  6
CENTER
 48
0.5
100
AcDbLine
 10
317.1737388571266
 20
595.0574705008135
 30
0.0
 11
305.1737388571265
 21
595.0574705008135
 31
0.0
  0
ARC
  5
29F
330
18
100
AcDbEntity
  8
1
  6
Continuous
100
AcDbCircle
 10
308.6737578571263
 20
597.5574705008138
 30
0.0
 40
11.0
100
AcDbArc
 50
89.99998199999998
 51
179.9999639999999
  0
ARC
  5
2A0
330
18
100
AcDbEntity
  8
1
  6
Continuous
100
AcDbCircle
 10
308.6737578571263
 20
517.5574705008137
 30
0.0
 40
11.0
100
AcDbArc
 50
180.000036
 51
270.0000179999999
  0
ARC
  5
2A1
330
18
100
AcDbEntity
  8
1
  6
Continuous
100
AcDbCircle
 10
311.1737388571266
 20
520.0574705008135
 30
0.0
 40
5.5
100
AcDbArc
 50
314.999995
 51
135.0000549999999
  0
LINE
  5
2A2
330
18
100
AcDbEntity
  8
4
  6
CENTER
 48
0.5
100
AcDbLine
 10
314.6737388571267
 20
517.5574705008137
 30
0.0
 11
302.6737388571266
 21
517.5574705008137
 31
0.0
  0
ARC
  5
2A3
330
18
100
AcDbEntity
  8
1
  6
Continuous
100
AcDbCircle
 10
308.6737388571267
 20
517.5574705008137
 30
0.0
 40
5.5
100
AcDbArc
 50
135.0000549999999
 51
314.9999640000002
  0
LINE
  5
2A4
330
18
100
AcDbEntity
  8
4
  6
CENTER
 48
0.5
100
AcDbLine
 10
317.1737388571266
 20
520.0574705008135
 30
0.0
 11
305.1737388571265
 21
520.0574705008135
 31
0.0
  0
LINE
  5
2A5
330
18
100
AcDbEntity
  8
4
  6
CENTER
 48
0.5
100
AcDbLine
 10
196.4055388571265
 20
557.5574705008135
 30
0.0
 11
404.6737388571266
 21
557.5574705008135
 31
0.0
  0
LINE
  5
2A6
330
18
100
AcDbEntity
  8
1
  6
Continuous
100
AcDbLine
 10
297.6737578571266
 20
413.9397209389157
 30
0.0
 11
399.6737238571266
 21
413.9397209389157
 31
0.0
  0
LINE
  5
2A7
330
18
100
AcDbEntity
  8
1
  6
Continuous
100
AcDbLine
 10
297.6737578571266
 20
417.9397209389156
 30
0.0
 11
399.6737238571266
 21
417.9397209389156
 31
0.0
  0
LINE
  5
2A8
330
18
100
AcDbEntity
  8
1
  6
Continuous
100
AcDbLine
 10
282.8388848571266
 20
393.5897189389157
 30
0.0
 11
320.6737388571267
 21
393.5897189389157
 31
0.0
  0
CIRCLE
  5
2AC
330
18
100
AcDbEntity
  8
1
  6
Continuous
100
AcDbCircle
 10
307.6737388571267
 20
302.9397289389156
 30
0.0
 40
11.5
  0
ARC
  5
2AE
330
18
100
AcDbEntity
  8
1
  6
Continuous
100
AcDbCircle
 10
307.2737368571266
 20
302.9397289389156
 30
0.0
 40
17.0
100
AcDbArc
 50
173.3291099999999
 51
325.3649399999996
  0
LINE
  5
2AF
330
18
100
AcDbEntity
  8
4
  6
CENTER
 48
0.5
100
AcDbLine
 10
227.6737388571266
 20
302.9397289389156
 30
0.0
 11
387.6737388571269
 21
302.9397289389156
 31
0.0
  0
ARC
  5
2B3
330
18
100
AcDbEntity
  8
1
  6
Continuous
100
AcDbCircle
 10
311.0467588571267
 20
416.4381209389156
 30
0.0
 40
5.0
100
AcDbArc
 50
209.978692
 51
271.4539670000001
  0
LINE
  5
2B4
330
18
100
AcDbEntity
  8
1
  6
Continuous
100
AcDbLine
 10
297.6737578571266
 20
413.9397219389157
 30
0.0
 11
297.6737578571266
 21
417.9397209389156
 31
0.0
  0
LINE
  5
2B5
330
18
100
AcDbEntity
  8
1
  6
Continuous
100
AcDbLine
 10
114.0016628795335
 20
413.9397209389157
 30
0.0
 11
114.0016628795335
 21
417.9397209389156
 31
0.0
  0
LINE
  5
2B6
330
18
100
AcDbEntity
  8
1
  6
Continuous
100
AcDbLine
 10
12.00166287953368
 20
413.9397209389157
 30
0.0
 11
12.00166287953368
 21
417.9397209389156
 31
0.0
  0
LINE
  5
2B7
330
18
100
AcDbEntity
  8
4
  6
CENTER
 48
0.5
100
AcDbLine
 10
63.00166287953377
 20
424.0870299389156
 30
0.0
 11
63.00166287953377
 21
219.3547679389158
 31
0.0
  0
LINE
  5
2B8
330
18
100
AcDbEntity
  8
4
  6
CENTER
 48
0.5
100
AcDbLine
 10
23.00166287953377
 20
422.9397209389157
 30
0.0
 11
23.00166287953377
 21
408.9397209389156
 31
0.0
  0
LINE
  5
2B9
330
18
100
AcDbEntity
  8
4
  6
CENTER
 48
0.5
100
AcDbLine
 10
25.50166287953377
 20
422.9397209389157
 30
0.0
 11
25.50166287953377
 21
408.9397209389156
 31
0.0
  0
LINE
  5
2BA
330
18
100
AcDbEntity
  8
4
  6
CENTER
 48
0.5
100
AcDbLine
 10
100.5016628795335
 20
422.9397209389157
 30
0.0
 11
100.5016628795335
 21
408.9397209389156
 31
0.0
  0
LINE
  5
2BB
330
18
100
AcDbEntity
  8
4
  6
CENTER
 48
0.5
100
AcDbLine
 10
103.0016628795338
 20
422.9397209389157
 30
0.0
 11
103.0016628795338
 21
408.9397209389156
 31
0.0
  0
LINE
  5
2BC
330
18
100
AcDbEntity
  8
1
  6
Continuous
100
AcDbLine
 10
12.00166287953368
 20
413.9397209389157
 30
0.0
 11
114.0016628795335
 21
413.9397209389157
 31
0.0
  0
TEXT
  5
2C7
330
18
100
AcDbEntity
  8
2
  6
Continuous
 48
0.25
100
AcDbText
 10
19.9795100642466
 20
9.999999806846743
 30
0.0
 40
1.399999999999999
  1
2
100
AcDbText
  0
TEXT
  5
2C8
330
18
100
AcDbEntity
  8
7
  6
Continuous
 48
0.25
100
AcDbText
 10
9.999999064246617
 20
18.00000056761564
 30
0.0
 40
3.0
  1
TYPE No.TCA-315S-N150
100
AcDbText
  0
TEXT
  5
2C9
330
18
100
AcDbEntity
  8
7
  6
Continuous
 48
0.25
100
AcDbText
 10
9.999999064246617
 20
26.00000056761564
 30
0.0
 40
3.0
  1
CODE No.19165
100
AcDbText
  0
TEXT
  5
2CA
330
18
100
AcDbEntity
  8
1
  6
Continuous
 48
0.25
100
AcDbText
 10
9.999999064246617
 20
10.00000056761564
 30
0.0
 40
1.399999999999999
  1
LAYER
100
AcDbText
  0
TEXT
  5
2CB
330
18
100
AcDbEntity
  8
1
  6
Continuous
 48
0.25
100
AcDbText
 10
17.9795100642466
 20
9.999999806846743
 30
0.0
 40
1.399999999999999
  1
1
100
AcDbText
  0
TEXT
  5
2CC
330
18
100
AcDbEntity
  8
5
  6
PHANTOM
 48
0.3
100
AcDbText
 10
25.97951006424661
 20
9.999999806846743
 30
0.0
 40
1.399999999999999
  1
5
100
AcDbText
  0
TEXT
  5
2CD
330
18
100
AcDbEntity
  8
3
  6
DASHED
 48
0.25
100
AcDbText
 10
21.97951006424661
 20
9.999999806846743
 30
0.0
 40
1.399999999999999
  1
3
100
AcDbText
  0
TEXT
  5
2CE
330
18
100
AcDbEntity
  8
4
  6
CENTER
 48
0.5
100
AcDbText
 10
23.97951006424661
 20
9.999999806846743
 30
0.0
 40
1.399999999999999
  1
4
100
AcDbText
  0
TEXT
  5
2CF
330
18
100
AcDbEntity
  8
7
  6
Continuous
 48
0.25
100
AcDbText
 10
29.97951006424661
 20
9.999999806846743
 30
0.0
 40
1.399999999999999
  1
7
100
AcDbText
  0
TEXT
  5
2D0
330
18
100
AcDbEntity
  8
6
  6
Continuous
 48
0.25
100
AcDbText
 10
27.97951006424661
 20
9.999999806846743
 30
0.0
 40
1.399999999999999
  1
6
100
AcDbText
  0
ARC
  5
2DC
330
18
100
AcDbEntity
  8
1
  6
Continuous
100
AcDbCircle
 10
91.00166287953376
 20
345.4961559389157
 30
0.0
 40
2.0
100
AcDbArc
 50
270.0000179999999
 51
0.0
  0
LINE
  5
2DD
330
18
100
AcDbEntity
  8
1
  6
Continuous
100
AcDbLine
 10
94.00166287953366
 20
396.5897359389156
 30
0.0
 11
94.00166287953366
 21
285.9397139389157
 31
0.0
  0
LINE
  5
2DE
330
18
100
AcDbEntity
  8
1
  6
Continuous
100
AcDbLine
 10
91.00166287953376
 20
343.4961559389157
 30
0.0
 11
91.00166287953376
 21
285.9397139389157
 31
0.0
  0
ARC
  5
2DF
330
18
100
AcDbEntity
  8
1
  6
Continuous
100
AcDbCircle
 10
-82.87706012046625
 20
347.9397139389157
 30
0.0
 40
182.028732
100
AcDbArc
 50
348.9225039999997
 51
0.0
  0
ARC
  5
2E0
330
18
100
AcDbEntity
  8
1
  6
Continuous
100
AcDbCircle
 10
65.00166287953368
 20
345.4961559389157
 30
0.0
 40
2.0
100
AcDbArc
 50
179.999978
 51
270.0000280000002
  0
LINE
  5
2E1
330
18
100
AcDbEntity
  8
1
  6
Continuous
100
AcDbLine
 10
32.00166287953376
 20
396.5897359389156
 30
0.0
 11
32.00166287953376
 21
285.9397139389157
 31
0.0
  0
LINE
  5
2E2
330
18
100
AcDbEntity
  8
1
  6
Continuous
100
AcDbLine
 10
35.00166287953368
 20
364.6721849389156
 30
0.0
 11
35.00166287953368
 21
285.9397139389157
 31
0.0
  0
ARC
  5
2E3
330
18
100
AcDbEntity
  8
1
  6
Continuous
100
AcDbCircle
 10
208.8803858795337
 20
347.9397139389157
 30
0.0
 40
182.028732
100
AcDbArc
 50
179.9999639999999
 51
190.9253869999997
  0
LINE
  5
2E4
330
18
100
AcDbEntity
  8
4
  6
CENTER
 48
0.5
100
AcDbLine
 10
103.0563808795335
 20
302.9397139389157
 30
0.0
 11
13.00166287953367
 21
302.9397139389157
 31
0.0
  0
LINE
  5
2E6
330
18
100
AcDbEntity
  8
1
  6
Continuous
100
AcDbLine
 10
22.00166287953376
 20
311.1669549389156
 30
0.0
 11
22.00166287953376
 21
294.7124719389157
 31
0.0
  0
LINE
  5
2E7
330
18
100
AcDbEntity
  8
1
  6
Continuous
100
AcDbLine
 10
18.00166287953376
 20
308.1897139389156
 30
0.0
 11
18.00166287953376
 21
297.6897139389156
 31
0.0
  0
LINE
  5
2E8
330
18
100
AcDbEntity
  8
1
  6
Continuous
100
AcDbLine
 10
29.00166287953377
 20
313.4397139389156
 30
0.0
 11
29.00166287953377
 21
292.4397139389157
 31
0.0
  0
ARC
  5
2E9
330
18
100
AcDbEntity
  8
1
  6
Continuous
100
AcDbCircle
 10
34.65998787953367
 20
302.9397139389157
 30
0.0
 40
12.65833399999999
100
AcDbArc
 50
154.3229739999998
 51
205.6770219999996
  0
ARC
  5
2EA
330
18
100
AcDbEntity
  8
1
  6
Continuous
100
AcDbCircle
 10
16.34333787953369
 20
302.9397139389157
 30
0.0
 40
12.65833399999999
100
AcDbArc
 50
334.3229729999997
 51
25.67702700000022
  0
LINE
  5
2EB
330
18
100
AcDbEntity
  8
1
  6
Continuous
100
AcDbLine
 10
18.75166287953376
 20
308.9397139389157
 30
0.0
 11
18.75166287953376
 21
296.9397139389156
 31
0.0
  0
LINE
  5
2ED
330
18
100
AcDbEntity
  8
1
  6
Continuous
100
AcDbLine
 10
35.00166287953368
 20
285.9397139389157
 30
0.0
 11
32.00166287953376
 21
285.9397139389157
 31
0.0
  0
LINE
  5
2EE
330
18
100
AcDbEntity
  8
2
  6
Continuous
100
AcDbLine
 10
18.00166287953376
 20
307.4397139389156
 30
0.0
 11
22.00166287953376
 21
307.4397139389156
 31
0.0
  0
LINE
  5
2EF
330
18
100
AcDbEntity
  8
1
  6
Continuous
100
AcDbLine
 10
18.75166287953376
 20
296.9397139389156
 30
0.0
 11
22.00166287953376
 21
296.9397139389156
 31
0.0
  0
LINE
  5
2F0
330
18
100
AcDbEntity
  8
2
  6
Continuous
100
AcDbLine
 10
18.00166287953376
 20
298.4397139389157
 30
0.0
 11
22.00166287953376
 21
298.4397139389157
 31
0.0
  0
LINE
  5
2F1
330
18
100
AcDbEntity
  8
1
  6
Continuous
100
AcDbLine
 10
18.00166287953376
 20
297.6897139389156
 30
0.0
 11
18.75166287953376
 21
296.9397139389156
 31
0.0
  0
LINE
  5
2F2
330
18
100
AcDbEntity
  8
1
  6
Continuous
100
AcDbLine
 10
23.25166287953376
 20
297.4548889389156
 30
0.0
 11
27.75166287953368
 21
297.4548889389156
 31
0.0
  0
LINE
  5
2F3
330
18
100
AcDbEntity
  8
1
  6
Continuous
100
AcDbLine
 10
23.25166287953376
 20
291.9700559389156
 30
0.0
 11
27.75166287953368
 21
291.9700559389156
 31
0.0
  0
ARC
  5
2F4
330
18
100
AcDbEntity
  8
1
  6
Continuous
100
AcDbCircle
 10
25.63499387953376
 20
294.7124719389157
 30
0.0
 40
3.633333
100
AcDbArc
 50
130.9927280000001
 51
229.0072679999999
  0
LINE
  5
2F5
330
18
100
AcDbEntity
  8
1
  6
Continuous
100
AcDbLine
 10
32.00166287953376
 20
292.4397139389157
 30
0.0
 11
29.00166287953377
 21
292.4397139389157
 31
0.0
  0
ARC
  5
2F6
330
18
100
AcDbEntity
  8
1
  6
Continuous
100
AcDbCircle
 10
25.36833187953376
 20
294.7124719389157
 30
0.0
 40
3.633333
100
AcDbArc
 50
310.992734
 51
49.00726599999983
  0
LINE
  5
2FB
330
18
100
AcDbEntity
  8
1
  6
Continuous
100
AcDbLine
 10
18.75166287953376
 20
308.9397139389157
 30
0.0
 11
22.00166287953376
 21
308.9397139389157
 31
0.0
  0
LINE
  5
2FC
330
18
100
AcDbEntity
  8
1
  6
Continuous
100
AcDbLine
 10
18.00166287953376
 20
308.1897139389156
 30
0.0
 11
18.75166287953376
 21
308.9397139389157
 31
0.0
  0
LINE
  5
2FD
330
18
100
AcDbEntity
  8
1
  6
Continuous
100
AcDbLine
 10
23.25166287953376
 20
313.9093719389157
 30
0.0
 11
27.75166287953368
 21
313.9093719389157
 31
0.0
  0
LINE
  5
2FE
330
18
100
AcDbEntity
  8
1
  6
Continuous
100
AcDbLine
 10
23.25166287953376
 20
308.4245389389157
 30
0.0
 11
27.75166287953368
 21
308.4245389389157
 31
0.0
  0
ARC
  5
2FF
330
18
100
AcDbEntity
  8
1
  6
Continuous
100
AcDbCircle
 10
25.63499387953376
 20
311.1669549389156
 30
0.0
 40
3.633333
100
AcDbArc
 50
130.9927280000001
 51
229.0072679999999
  0
LINE
  5
300
330
18
100
AcDbEntity
  8
1
  6
Continuous
100
AcDbLine
 10
32.00166287953376
 20
313.4397139389156
 30
0.0
 11
29.00166287953377
 21
313.4397139389156
 31
0.0
  0
ARC
  5
301
330
18
100
AcDbEntity
  8
1
  6
Continuous
100
AcDbCircle
 10
25.36833187953376
 20
311.1669549389156
 30
0.0
 40
3.633333
100
AcDbArc
 50
310.992734
 51
49.00726599999983
  0
LINE
  5
308
330
18
100
AcDbEntity
  8
1
  6
Continuous
100
AcDbLine
 10
95.00166287953369
 20
314.4397139389156
 30
0.0
 11
95.00166287953369
 21
291.4397139389156
 31
0.0
  0
ARC
  5
309
330
18
100
AcDbEntity
  8
1
  6
Continuous
100
AcDbCircle
 10
74.45999087953365
 20
302.9397139389157
 30
0.0
 40
23.541666
100
AcDbArc
 50
330.7582049999997
 51
29.24172
  0
LINE
  5
30C
330
18
100
AcDbEntity
  8
1
  6
Continuous
100
AcDbLine
 10
91.00166287953376
 20
285.9397139389157
 30
0.0
 11
94.00166287953366
 21
285.9397139389157
 31
0.0
  0
LINE
  5
30F
330
18
100
AcDbEntity
  8
1
  6
Continuous
100
AcDbLine
 10
94.00166287953366
 20
291.4397139389156
 30
0.0
 11
95.00166287953369
 21
291.4397139389156
 31
0.0
  0
LINE
  5
313
330
18
100
AcDbEntity
  8
1
  6
Continuous
100
AcDbLine
 10
94.00166287953366
 20
314.4397139389156
 30
0.0
 11
95.00166287953369
 21
314.4397139389156
 31
0.0
  0
ARC
  5
315
330
18
100
AcDbEntity
  8
1
  6
Continuous
100
AcDbCircle
 10
58.50166287953378
 20
390.2605809389156
 30
0.0
 40
2.0
100
AcDbArc
 50
270.0000179999999
 51
0.0
  0
ARC
  5
316
330
18
100
AcDbEntity
  8
1
  6
Continuous
100
AcDbCircle
 10
58.50166287953378
 20
387.7606209389156
 30
0.0
 40
2.0
100
AcDbArc
 50
270.0000179999999
 51
0.0
  0
LINE
  5
317
330
18
100
AcDbEntity
  8
1
  6
Continuous
100
AcDbLine
 10
45.00166287953375
 20
363.4589739389156
 30
0.0
 11
63.00166287953377
 21
363.4589739389156
 31
0.0
  0
LINE
  5
318
330
18
100
AcDbEntity
  8
1
  6
Continuous
100
AcDbLine
 10
44.50166287953376
 20
364.7954879389156
 30
0.0
 11
63.00166287953377
 21
364.7954879389156
 31
0.0
  0
LINE
  5
319
330
18
100
AcDbEntity
  8
1
  6
Continuous
100
AcDbLine
 10
41.00166287953377
 20
366.3967719389156
 30
0.0
 11
63.00166287953377
 21
366.3967719389156
 31
0.0
  0
LINE
  5
31A
330
18
100
AcDbEntity
  8
1
  6
Continuous
100
AcDbLine
 10
38.00166287953377
 20
356.8377619389157
 30
0.0
 11
63.00166287953377
 21
356.8377619389157
 31
0.0
  0
LINE
  5
31B
330
18
100
AcDbEntity
  8
1
  6
Continuous
100
AcDbLine
 10
37.50166287953376
 20
354.7542509389156
 30
0.0
 11
63.00166287953377
 21
354.7542509389156
 31
0.0
  0
LINE
  5
31C
330
18
100
AcDbEntity
  8
1
  6
Continuous
100
AcDbLine
 10
40.50166287953376
 20
367.6467719389155
 30
0.0
 11
61.00166287953368
 21
367.6467719389155
 31
0.0
  0
LINE
  5
31D
330
18
100
AcDbEntity
  8
4
  6
CENTER
 48
0.5
100
AcDbLine
 10
21.85166887953376
 20
368.6721849389156
 30
0.0
 11
104.1516568795335
 21
368.6721849389156
 31
0.0
  0
LINE
  5
31E
330
18
100
AcDbEntity
  8
4
  6
CENTER
 48
0.5
100
AcDbLine
 10
21.85166887953376
 20
389.9397289389156
 30
0.0
 11
104.1516568795335
 21
389.9397289389156
 31
0.0
  0
LINE
  5
31F
330
18
100
AcDbEntity
  8
4
  6
CENTER
 48
0.5
100
AcDbLine
 10
21.85166887953376
 20
382.9397249389156
 30
0.0
 11
104.1516568795335
 21
382.9397249389156
 31
0.0
  0
LINE
  5
320
330
18
100
AcDbEntity
  8
4
  6
CENTER
 48
0.5
100
AcDbLine
 10
21.85166887953376
 20
385.9397139389157
 30
0.0
 11
104.1516568795335
 21
385.9397139389157
 31
0.0
  0
LINE
  5
321
330
18
100
AcDbEntity
  8
1
  6
Continuous
100
AcDbLine
 10
26.00166287953376
 20
403.9397209389155
 30
0.0
 11
100.0016628795336
 21
403.9397209389155
 31
0.0
  0
LINE
  5
322
330
18
100
AcDbEntity
  8
1
  6
Continuous
100
AcDbLine
 10
27.00166287953376
 20
402.9397209389157
 30
0.0
 11
99.00166287953382
 21
402.9397209389157
 31
0.0
  0
LINE
  5
323
330
18
100
AcDbEntity
  8
1
  6
Continuous
100
AcDbLine
 10
27.50166287953377
 20
405.9397209389157
 30
0.0
 11
98.50166287953381
 21
405.9397209389157
 31
0.0
  0
LINE
  5
324
330
18
100
AcDbEntity
  8
1
  6
Continuous
100
AcDbLine
 10
25.50166287953369
 20
407.4397209389156
 30
0.0
 11
100.5016938795337
 21
407.4397209389156
 31
0.0
  0
LINE
  5
325
330
18
100
AcDbEntity
  8
1
  6
Continuous
100
AcDbLine
 10
25.24781787953378
 20
411.4397209389156
 30
0.0
 11
100.6286468795337
 21
411.4397209389156
 31
0.0
  0
LINE
  5
326
330
18
100
AcDbEntity
  8
1
  6
Continuous
100
AcDbLine
 10
38.00166287953377
 20
398.4397139389157
 30
0.0
 11
88.00166287953377
 21
398.4397139389157
 31
0.0
  0
ARC
  5
327
330
18
100
AcDbEntity
  8
1
  6
Continuous
100
AcDbCircle
 10
35.00166287953368
 20
383.4397139389157
 30
0.0
 40
1.5
100
AcDbArc
 50
179.999978
 51
270.0000280000002
  0
LINE
  5
328
330
18
100
AcDbEntity
  8
1
  6
Continuous
100
AcDbLine
 10
35.00166287953368
 20
385.8241292658119
 30
0.0
 11
35.00166287953368
 21
378.9397249389157
 31
0.0
  0
LINE
  5
329
330
18
100
AcDbEntity
  8
1
  6
Continuous
100
AcDbLine
 10
26.85166887953377
 20
399.5897079389156
 30
0.0
 11
26.85166887953377
 21
347.9397139389157
 31
0.0
  0
LINE
  5
32A
330
18
100
AcDbEntity
  8
1
  6
Continuous
100
AcDbLine
 10
35.50166287953377
 20
385.7606209389156
 30
0.0
 11
35.50166287953377
 21
356.7542509389156
 31
0.0
  0
LINE
  5
32B
330
18
100
AcDbEntity
  8
1
  6
Continuous
100
AcDbLine
 10
38.50166287953376
 20
385.7606209389156
 30
0.0
 11
38.50166287953376
 21
363.2268919389156
 31
0.0
  0
LINE
  5
32C
330
18
100
AcDbEntity
  8
1
  6
Continuous
100
AcDbLine
 10
38.00166287953377
 20
375.6237839389156
 30
0.0
 11
38.00166287953377
 21
356.8377619389157
 31
0.0
  0
ARC
  5
32D
330
18
100
AcDbEntity
  8
1
  6
Continuous
100
AcDbCircle
 10
37.50166287953376
 20
356.7542509389156
 30
0.0
 40
2.0
100
AcDbArc
 50
179.999978
 51
270.0000280000002
  0
LINE
  5
32E
330
18
100
AcDbEntity
  8
1
  6
Continuous
100
AcDbLine
 10
33.50166287953376
 20
371.1721849389157
 30
0.0
 11
33.50166287953376
 21
366.1721849389156
 31
0.0
  0
LINE
  5
32F
330
18
100
AcDbEntity
  8
1
  6
Continuous
100
AcDbLine
 10
35.00166287953368
 20
372.6721849389156
 30
0.0
 11
35.00166287953368
 21
364.6721849389156
 31
0.0
  0
LINE
  5
330
330
18
100
AcDbEntity
  8
1
  6
Continuous
100
AcDbLine
 10
38.50166287953376
 20
363.2268919389156
 30
0.0
 11
41.00166287953377
 21
363.2268919389156
 31
0.0
  0
ARC
  5
331
330
18
100
AcDbEntity
  8
1
  6
Continuous
100
AcDbCircle
 10
40.50166287953376
 20
365.6467719389155
 30
0.0
 40
2.0
100
AcDbArc
 50
89.99998199999998
 51
179.9999639999999
  0
LINE
  5
332
330
18
100
AcDbEntity
  8
1
  6
Continuous
100
AcDbLine
 10
35.00166287953368
 20
366.1721849389156
 30
0.0
 11
35.50166287953377
 21
366.1721849389156
 31
0.0
  0
ARC
  5
333
330
18
100
AcDbEntity
  8
1
  6
Continuous
100
AcDbCircle
 10
35.00166287953368
 20
366.1721849389156
 30
0.0
 40
1.5
100
AcDbArc
 50
179.999978
 51
270.0000280000002
  0
LINE
  5
334
330
18
100
AcDbEntity
  8
1
  6
Continuous
100
AcDbLine
 10
41.00166287953377
 20
366.3967719389156
 30
0.0
 11
41.00166287953377
 21
363.2268919389156
 31
0.0
  0
LINE
  5
335
330
18
100
AcDbEntity
  8
1
  6
Continuous
100
AcDbLine
 10
43.00166287953376
 20
366.3967719389156
 30
0.0
 11
43.00166287953376
 21
365.4589739389156
 31
0.0
  0
ARC
  5
336
330
18
100
AcDbEntity
  8
1
  6
Continuous
100
AcDbCircle
 10
45.00166287953375
 20
365.4589739389156
 30
0.0
 40
2.0
100
AcDbArc
 50
179.999978
 51
270.0000280000002
  0
ARC
  5
337
330
18
100
AcDbEntity
  8
1
  6
Continuous
100
AcDbCircle
 10
44.50166287953376
 20
366.2954879389157
 30
0.0
 40
1.5
100
AcDbArc
 50
179.999978
 51
270.0000280000002
  0
LINE
  5
338
330
18
100
AcDbEntity
  8
1
  6
Continuous
100
AcDbLine
 10
35.50166287953377
 20
375.6237839389156
 30
0.0
 11
38.00166287953377
 21
375.6237839389156
 31
0.0
  0
LINE
  5
339
330
18
100
AcDbEntity
  8
1
  6
Continuous
100
AcDbLine
 10
35.00166287953368
 20
371.1721849389157
 30
0.0
 11
35.50166287953377
 21
371.1721849389157
 31
0.0
  0
ARC
  5
33A
330
18
100
AcDbEntity
  8
1
  6
Continuous
100
AcDbCircle
 10
35.00166287953368
 20
371.1721849389157
 30
0.0
 40
1.5
100
AcDbArc
 50
89.99998199999998
 51
179.9999639999999
  0
LINE
  5
33B
330
18
100
AcDbEntity
  8
1
  6
Continuous
100
AcDbLine
 10
35.00166287953368
 20
378.9397249389157
 30
0.0
 11
35.00166287953368
 21
372.6721849389156
 31
0.0
  0
LINE
  5
33C
330
18
100
AcDbEntity
  8
1
  6
Continuous
100
AcDbLine
 10
32.00166287953376
 20
396.5897359389156
 30
0.0
 11
35.00166287953368
 21
396.5897359389156
 31
0.0
  0
LINE
  5
33D
330
18
100
AcDbEntity
  8
1
  6
Continuous
100
AcDbLine
 10
30.00166287953377
 20
392.4397289389157
 30
0.0
 11
30.00166287953377
 21
387.4397289389154
 31
0.0
  0
ARC
  5
33E
330
18
100
AcDbEntity
  8
1
  6
Continuous
100
AcDbCircle
 10
31.50166287953377
 20
385.4397249389156
 30
0.0
 40
1.5
100
AcDbArc
 50
138.1895826103363
 51
179.9999639999999
  0
LINE
  5
340
330
18
100
AcDbEntity
  8
1
  6
Continuous
100
AcDbLine
 10
31.50166287953377
 20
387.4397289389156
 30
0.0
 11
32.00166287953376
 21
387.4397289389156
 31
0.0
  0
LINE
  5
341
330
18
100
AcDbEntity
  8
1
  6
Continuous
100
AcDbLine
 10
31.50166287953377
 20
385.4397249389156
 30
0.0
 11
32.00166287953376
 21
385.4397249389156
 31
0.0
  0
LINE
  5
342
330
18
100
AcDbEntity
  8
1
  6
Continuous
100
AcDbLine
 10
31.50166287953377
 20
380.4397249389156
 30
0.0
 11
32.00166287953376
 21
380.4397249389156
 31
0.0
  0
ARC
  5
343
330
18
100
AcDbEntity
  8
1
  6
Continuous
100
AcDbCircle
 10
31.50166287953377
 20
380.4397249389156
 30
0.0
 40
1.5
100
AcDbArc
 50
179.999978
 51
270.0000280000002
  0
LINE
  5
344
330
18
100
AcDbEntity
  8
1
  6
Continuous
100
AcDbLine
 10
30.00166287953377
 20
385.4397249389156
 30
0.0
 11
30.00166287953377
 21
380.4397249389156
 31
0.0
  0
LINE
  5
345
330
18
100
AcDbEntity
  8
1
  6
Continuous
100
AcDbLine
 10
31.50166287953377
 20
392.4397289389157
 30
0.0
 11
32.00166287953376
 21
392.4397289389157
 31
0.0
  0
LINE
  5
346
330
18
100
AcDbEntity
  8
1
  6
Continuous
100
AcDbLine
 10
31.50166287953377
 20
393.9397289389156
 30
0.0
 11
31.50166361257205
 21
378.9397249389157
 31
0.0
  0
ARC
  5
347
330
18
100
AcDbEntity
  8
1
  6
Continuous
100
AcDbCircle
 10
31.50166287953377
 20
392.4397289389157
 30
0.0
 40
1.5
100
AcDbArc
 50
89.99998199999998
 51
179.9999639999999
  0
LINE
  5
348
330
18
100
AcDbEntity
  8
1
  6
Continuous
100
AcDbLine
 10
25.50164687953378
 20
407.4397329389156
 30
0.0
 11
27.50164587953378
 21
405.9397329389156
 31
0.0
  0
ARC
  5
349
330
18
100
AcDbEntity
  8
1
  6
Continuous
100
AcDbCircle
 10
27.00166287953376
 20
403.9397329389156
 30
0.0
 40
1.0
100
AcDbArc
 50
179.9999909999999
 51
270.0000280000002
  0
LINE
  5
34A
330
18
100
AcDbEntity
  8
1
  6
Continuous
100
AcDbLine
 10
27.00165887953378
 20
403.9397359389156
 30
0.0
 11
29.00166087953376
 21
405.9397379389156
 31
0.0
  0
ARC
  5
34B
330
18
100
AcDbEntity
  8
1
  6
Continuous
100
AcDbCircle
 10
32.85166887953376
 20
399.5897099389157
 30
0.0
 40
6.0
100
AcDbArc
 50
146.059361
 51
179.9999499999998
  0
LINE
  5
34C
330
18
100
AcDbEntity
  8
1
  6
Continuous
100
AcDbLine
 10
28.08875987953376
 20
411.4397449389156
 30
0.0
 11
25.50163987953377
 21
407.4397499389156
 31
0.0
  0
ARC
  5
34D
330
18
100
AcDbEntity
  8
1
  6
Continuous
100
AcDbCircle
 10
25.37467887953376
 20
416.4381229389156
 30
0.0
 40
5.0
100
AcDbArc
 50
209.978706
 51
271.4539880000003
  0
LINE
  5
34E
330
18
100
AcDbEntity
  8
1
  6
Continuous
100
AcDbLine
 10
38.00166287953377
 20
398.4397139389157
 30
0.0
 11
38.00166287953377
 21
396.0251919389156
 31
0.0
  0
ARC
  5
34F
330
18
100
AcDbEntity
  8
1
  6
Continuous
100
AcDbCircle
 10
38.00166287953377
 20
395.9397139389157
 30
0.0
 40
2.5
100
AcDbArc
 50
89.99998199999998
 51
178.0406065944718
  0
LINE
  5
350
330
18
100
AcDbEntity
  8
1
  6
Continuous
100
AcDbLine
 10
35.50166287953377
 20
385.7606209389156
 30
0.0
 11
58.50166287953378
 21
385.7606209389156
 31
0.0
  0
LINE
  5
351
330
18
100
AcDbEntity
  8
1
  6
Continuous
100
AcDbLine
 10
37.00166287953368
 20
392.1242689389156
 30
0.0
 11
57.00166287953376
 21
392.1242689389156
 31
0.0
  0
LINE
  5
352
330
18
100
AcDbEntity
  8
1
  6
Continuous
100
AcDbLine
 10
37.00166287953368
 20
391.4772219389157
 30
0.0
 11
57.00166287953376
 21
391.4772219389157
 31
0.0
  0
ARC
  5
353
330
18
100
AcDbEntity
  8
1
  6
Continuous
100
AcDbCircle
 10
35.50166287953377
 20
390.2605809389156
 30
0.0
 40
2.0
100
AcDbArc
 50
179.999978
 51
270.0000280000002
  0
LINE
  5
354
330
18
100
AcDbEntity
  8
1
  6
Continuous
100
AcDbLine
 10
37.00166287953368
 20
392.1242689389156
 30
0.0
 11
37.00166287953368
 21
385.7606209389156
 31
0.0
  0
LINE
  5
355
330
18
100
AcDbEntity
  8
1
  6
Continuous
100
AcDbLine
 10
33.50166287953376
 20
394.0251919389156
 30
0.0
 11
33.5016628795338
 21
383.4397145148744
 31
0.0
  0
LINE
  5
356
330
18
100
AcDbEntity
  8
1
  6
Continuous
100
AcDbLine
 10
35.50166287953377
 20
388.2605809389156
 30
0.0
 11
37.00166287953368
 21
388.2605809389156
 31
0.0
  0
ARC
  5
358
330
18
100
AcDbEntity
  8
1
  6
Continuous
100
AcDbCircle
 10
35.50166287953377
 20
387.7606209389156
 30
0.0
 40
2.0
100
AcDbArc
 50
179.999978
 51
270.0
  0
LINE
  5
35A
330
18
100
AcDbEntity
  8
1
  6
Continuous
100
AcDbLine
 10
35.00166287953368
 20
383.4397139389157
 30
0.0
 11
35.50166287953377
 21
383.4397139389157
 31
0.0
  0
LINE
  5
35B
330
18
100
AcDbEntity
  8
1
  6
Continuous
100
AcDbLine
 10
38.00166287953377
 20
379.9397369389156
 30
0.0
 11
35.50166287953377
 21
379.9397369389156
 31
0.0
  0
LINE
  5
35D
330
18
100
AcDbEntity
  8
1
  6
Continuous
100
AcDbLine
 10
38.00166287953377
 20
385.7606209389156
 30
0.0
 11
38.00166287953377
 21
379.9397369389156
 31
0.0
  0
LINE
  5
35E
330
18
100
AcDbEntity
  8
1
  6
Continuous
100
AcDbLine
 10
35.00166287953368
 20
396.5897359389156
 30
0.0
 11
35.00166287953368
 21
395.9616829389157
 31
0.0
  0
ARC
  5
35F
330
18
100
AcDbEntity
  8
1
  6
Continuous
100
AcDbCircle
 10
35.50166379434915
 20
394.0251915599862
 30
0.0
 40
2.000000914815609
100
AcDbArc
 50
89.95805706447628
 51
179.9999531444929
  0
LINE
  5
360
330
18
100
AcDbEntity
  8
1
  6
Continuous
100
AcDbLine
 10
35.50312787953375
 20
396.0251919389156
 30
0.0
 11
38.00166287953377
 21
396.0251919389156
 31
0.0
  0
LINE
  5
361
330
18
100
AcDbEntity
  8
1
  6
Continuous
100
AcDbLine
 10
57.00166287953376
 20
392.1242689389156
 30
0.0
 11
57.00166287953376
 21
385.7606209389156
 31
0.0
  0
LINE
  5
362
330
18
100
AcDbEntity
  8
1
  6
Continuous
100
AcDbLine
 10
57.00166287953376
 20
388.2605809389156
 30
0.0
 11
58.50166287953378
 21
388.2605809389156
 31
0.0
  0
LINE
  5
363
330
18
100
AcDbEntity
  8
1
  6
Continuous
100
AcDbLine
 10
91.00166287953378
 20
390.9397139389156
 30
0.0
 11
91.00166287953378
 21
380.9397139389157
 31
0.0
  0
ARC
  5
364
330
18
100
AcDbEntity
  8
1
  6
Continuous
100
AcDbCircle
 10
85.75166287953377
 20
385.9397139389157
 30
0.0
 40
7.25
100
AcDbArc
 50
316.3971819999998
 51
43.602818
  0
LINE
  5
365
330
18
100
AcDbEntity
  8
1
  6
Continuous
100
AcDbLine
 10
99.15165687953381
 20
399.5897079389156
 30
0.0
 11
99.15165687953381
 21
347.9397139389157
 31
0.0
  0
LINE
  5
366
330
18
100
AcDbEntity
  8
1
  6
Continuous
100
AcDbLine
 10
90.50166287953377
 20
395.9397139389157
 30
0.0
 11
90.50166287953377
 21
365.4817019389156
 31
0.0
  0
LINE
  5
367
330
18
100
AcDbEntity
  8
1
  6
Continuous
100
AcDbLine
 10
87.50166287953376
 20
394.2875089389156
 30
0.0
 11
87.50166287953376
 21
367.4817019389156
 31
0.0
  0
ARC
  5
368
330
18
100
AcDbEntity
  8
1
  6
Continuous
100
AcDbCircle
 10
85.30967687953378
 20
366.2897199389157
 30
0.0
 40
0.808018
100
AcDbArc
 50
89.99998199999998
 51
270.0000009999997
  0
LINE
  5
369
330
18
100
AcDbEntity
  8
1
  6
Continuous
100
AcDbLine
 10
68.00166287953378
 20
347.9961409389157
 30
0.0
 11
88.00166287953377
 21
347.9961409389157
 31
0.0
  0
LINE
  5
36A
330
18
100
AcDbEntity
  8
1
  6
Continuous
100
AcDbLine
 10
68.00166287953378
 20
346.2409069389157
 30
0.0
 11
88.00166287953377
 21
346.2409069389157
 31
0.0
  0
LINE
  5
36B
330
18
100
AcDbEntity
  8
1
  6
Continuous
100
AcDbLine
 10
65.00166287953368
 20
343.4961559389157
 30
0.0
 11
91.00166287953376
 21
343.4961559389157
 31
0.0
  0
LINE
  5
36C
330
18
100
AcDbEntity
  8
1
  6
Continuous
100
AcDbLine
 10
63.00166287953377
 20
366.1721849389156
 30
0.0
 11
63.00166287953377
 21
345.4961559389157
 31
0.0
  0
LINE
  5
36D
330
18
100
AcDbEntity
  8
1
  6
Continuous
100
AcDbLine
 10
65.00166287953368
 20
344.7461479389157
 30
0.0
 11
68.00166287953378
 21
344.7461479389157
 31
0.0
  0
ARC
  5
36E
330
18
100
AcDbEntity
  8
1
  6
Continuous
100
AcDbCircle
 10
65.00166287953368
 20
346.7461479389157
 30
0.0
 40
2.0
100
AcDbArc
 50
179.999978
 51
270.0000280000002
  0
LINE
  5
36F
330
18
100
AcDbEntity
  8
1
  6
Continuous
100
AcDbLine
 10
68.00166287953378
 20
347.9961409389157
 30
0.0
 11
68.00166287953378
 21
343.4961559389157
 31
0.0
  0
ARC
  5
370
330
18
100
AcDbEntity
  8
1
  6
Continuous
100
AcDbCircle
 10
61.00166287953368
 20
365.6467719389155
 30
0.0
 40
2.0
100
AcDbArc
 50
0.0
 51
89.99998199999998
  0
LINE
  5
371
330
18
100
AcDbEntity
  8
1
  6
Continuous
100
AcDbLine
 10
93.00166287953377
 20
363.4817019389156
 30
0.0
 11
93.00166287953377
 21
345.4961559389157
 31
0.0
  0
ARC
  5
372
330
18
100
AcDbEntity
  8
1
  6
Continuous
100
AcDbCircle
 10
91.00166287953376
 20
346.7461479389157
 30
0.0
 40
2.0
100
AcDbArc
 50
270.0000179999999
 51
0.0
  0
LINE
  5
373
330
18
100
AcDbEntity
  8
1
  6
Continuous
100
AcDbLine
 10
88.00166287953377
 20
344.7461479389157
 30
0.0
 11
91.00166287953376
 21
344.7461479389157
 31
0.0
  0
LINE
  5
374
330
18
100
AcDbEntity
  8
1
  6
Continuous
100
AcDbLine
 10
88.00166287953377
 20
347.9961409389157
 30
0.0
 11
88.00166287953377
 21
343.4961559389157
 31
0.0
  0
LINE
  5
375
330
18
100
AcDbEntity
  8
1
  6
Continuous
100
AcDbLine
 10
91.00166287953376
 20
373.6721849389156
 30
0.0
 11
91.00166287953376
 21
365.4817019389156
 31
0.0
  0
ARC
  5
376
330
18
100
AcDbEntity
  8
1
  6
Continuous
100
AcDbCircle
 10
85.75166287953377
 20
368.6721849389156
 30
0.0
 40
7.25
100
AcDbArc
 50
331.0040879999998
 51
43.602818
  0
LINE
  5
377
330
18
100
AcDbEntity
  8
1
  6
Continuous
100
AcDbLine
 10
88.00166287953377
 20
375.6237839389156
 30
0.0
 11
88.00166287953377
 21
365.4817019389156
 31
0.0
  0
ARC
  5
378
330
18
100
AcDbEntity
  8
1
  6
Continuous
100
AcDbCircle
 10
91.00166287953376
 20
363.4817019389156
 30
0.0
 40
2.0
100
AcDbArc
 50
0.0
 51
89.99998199999998
  0
LINE
  5
379
330
18
100
AcDbEntity
  8
1
  6
Continuous
100
AcDbLine
 10
85.30967687953378
 20
367.0977379389157
 30
0.0
 11
86.00166287953365
 21
367.0977379389157
 31
0.0
  0
LINE
  5
37A
330
18
100
AcDbEntity
  8
1
  6
Continuous
100
AcDbLine
 10
85.30967687953378
 20
365.4817019389156
 30
0.0
 11
91.00166287953376
 21
365.4817019389156
 31
0.0
  0
ARC
  5
37B
330
18
100
AcDbEntity
  8
1
  6
Continuous
100
AcDbCircle
 10
86.00166287953365
 20
368.5977379389157
 30
0.0
 40
1.5
100
AcDbArc
 50
270.0000179999999
 51
0.0
  0
ARC
  5
37C
330
18
100
AcDbEntity
  8
1
  6
Continuous
100
AcDbCircle
 10
85.50166287953377
 20
367.4817019389156
 30
0.0
 40
2.0
100
AcDbArc
 50
275.4061670000004
 51
0.0
  0
LINE
  5
37D
330
18
100
AcDbEntity
  8
1
  6
Continuous
100
AcDbLine
 10
90.50166287953377
 20
375.6237839389156
 30
0.0
 11
88.00166287953377
 21
375.6237839389156
 31
0.0
  0
LINE
  5
37E
330
18
100
AcDbEntity
  8
1
  6
Continuous
100
AcDbLine
 10
90.50166287953381
 20
380.9397139389157
 30
0.0
 11
91.00166287953378
 21
380.9397139389157
 31
0.0
  0
LINE
  5
37F
330
18
100
AcDbEntity
  8
1
  6
Continuous
100
AcDbLine
 10
88.00166287953377
 20
371.1721849389157
 30
0.0
 11
87.50166287953376
 21
371.1721849389157
 31
0.0
  0
LINE
  5
380
330
18
100
AcDbEntity
  8
1
  6
Continuous
100
AcDbLine
 10
90.50166287953377
 20
373.6721849389156
 30
0.0
 11
91.00166287953376
 21
373.6721849389156
 31
0.0
  0
LINE
  5
381
330
18
100
AcDbEntity
  8
1
  6
Continuous
100
AcDbLine
 10
91.00166287953378
 20
380.9397139389157
 30
0.0
 11
91.00166287953376
 21
373.6721849389156
 31
0.0
  0
LINE
  5
382
330
18
100
AcDbEntity
  8
1
  6
Continuous
100
AcDbLine
 10
62.50166287953376
 20
393.6103849389157
 30
0.0
 11
86.00166287953365
 21
393.6103849389157
 31
0.0
  0
LINE
  5
383
330
18
100
AcDbEntity
  8
1
  6
Continuous
100
AcDbLine
 10
62.50166287953376
 20
396.0251919389156
 30
0.0
 11
86.00166287953365
 21
396.0251919389156
 31
0.0
  0
LINE
  5
384
330
18
100
AcDbEntity
  8
1
  6
Continuous
100
AcDbLine
 10
60.50166287953377
 20
389.2973929389156
 30
0.0
 11
85.50166287953377
 21
389.2973929389156
 31
0.0
  0
LINE
  5
385
330
18
100
AcDbEntity
  8
1
  6
Continuous
100
AcDbLine
 10
85.00166287953366
 20
392.4397289389157
 30
0.0
 11
60.50166287953377
 21
392.4397289389157
 31
0.0
  0
LINE
  5
386
330
18
100
AcDbEntity
  8
1
  6
Continuous
100
AcDbLine
 10
60.50166287953377
 20
394.0251919389156
 30
0.0
 11
60.50166287953377
 21
387.7606209389156
 31
0.0
  0
ARC
  5
387
330
18
100
AcDbEntity
  8
1
  6
Continuous
100
AcDbCircle
 10
62.50166287953376
 20
394.0251919389156
 30
0.0
 40
2.0
100
AcDbArc
 50
89.99998199999998
 51
179.9999639999999
  0
ARC
  5
388
330
18
100
AcDbEntity
  8
1
  6
Continuous
100
AcDbCircle
 10
62.50166287953376
 20
391.6103849389156
 30
0.0
 40
2.0
100
AcDbArc
 50
89.99998199999998
 51
179.9999639999999
  0
ARC
  5
389
330
18
100
AcDbEntity
  8
1
  6
Continuous
100
AcDbCircle
 10
88.00166287953377
 20
395.9397139389157
 30
0.0
 40
2.5
100
AcDbArc
 50
0.0
 51
89.99998199999998
  0
LINE
  5
38A
330
18
100
AcDbEntity
  8
1
  6
Continuous
100
AcDbLine
 10
88.00166287953377
 20
398.4397139389157
 30
0.0
 11
88.00166287953377
 21
379.9397369389156
 31
0.0
  0
ARC
  5
38B
330
18
100
AcDbEntity
  8
1
  6
Continuous
100
AcDbCircle
 10
86.00166287953365
 20
398.0251919389156
 30
0.0
 40
2.0
100
AcDbArc
 50
270.0000179999999
 51
0.0
  0
ARC
  5
38C
330
18
100
AcDbEntity
  8
1
  6
Continuous
100
AcDbCircle
 10
89.25166287953375
 20
382.9397249389156
 30
0.0
 40
7.25
100
AcDbArc
 50
316.3971819999998
 51
28.86574546316157
  0
ARC
  5
38E
330
18
100
AcDbEntity
  8
1
  6
Continuous
100
AcDbCircle
 10
89.25166287953377
 20
389.9397289389156
 30
0.0
 40
7.25
100
AcDbArc
 50
316.3971810272963
 51
43.602818
  0
LINE
  5
38F
330
18
100
AcDbEntity
  8
1
  6
Continuous
100
AcDbLine
 10
91.00166287953376
 20
396.5897359389156
 30
0.0
 11
91.00166287953376
 21
387.9397249389156
 31
0.0
  0
ARC
  5
390
330
18
100
AcDbEntity
  8
1
  6
Continuous
100
AcDbCircle
 10
85.50166287953377
 20
387.2973929389156
 30
0.0
 40
2.0
100
AcDbArc
 50
0.0
 51
89.99998199999998
  0
LINE
  5
391
330
18
100
AcDbEntity
  8
1
  6
Continuous
100
AcDbLine
 10
88.00166287953377
 20
388.4397139389156
 30
0.0
 11
87.50166287953376
 21
388.4397139389156
 31
0.0
  0
LINE
  5
392
330
18
100
AcDbEntity
  8
1
  6
Continuous
100
AcDbLine
 10
88.00166287953377
 20
385.4397249389156
 30
0.0
 11
87.50166287953376
 21
385.4397249389156
 31
0.0
  0
LINE
  5
393
330
18
100
AcDbEntity
  8
1
  6
Continuous
100
AcDbLine
 10
90.50166287953381
 20
390.9397139389156
 30
0.0
 11
91.00166287953378
 21
390.9397139389156
 31
0.0
  0
LINE
  5
394
330
18
100
AcDbEntity
  8
1
  6
Continuous
100
AcDbLine
 10
88.00166287953377
 20
379.9397369389156
 30
0.0
 11
90.50166287953377
 21
379.9397369389156
 31
0.0
  0
LINE
  5
395
330
18
100
AcDbEntity
  8
1
  6
Continuous
100
AcDbLine
 10
88.00166287953377
 20
380.4397249389156
 30
0.0
 11
87.50166287953376
 21
380.4397249389156
 31
0.0
  0
LINE
  5
396
330
18
100
AcDbEntity
  8
1
  6
Continuous
100
AcDbLine
 10
94.00166287953364
 20
377.9397249389156
 30
0.0
 11
94.50166287953377
 21
377.9397249389156
 31
0.0
  0
LINE
  5
397
330
18
100
AcDbEntity
  8
1
  6
Continuous
100
AcDbLine
 10
94.00166287953366
 20
396.5897359389156
 30
0.0
 11
91.00166287953376
 21
396.5897359389156
 31
0.0
  0
LINE
  5
398
330
18
100
AcDbEntity
  8
1
  6
Continuous
100
AcDbLine
 10
88.00166287953377
 20
392.4397289389157
 30
0.0
 11
87.50166287953376
 21
392.4397289389157
 31
0.0
  0
LINE
  5
399
330
18
100
AcDbEntity
  8
1
  6
Continuous
100
AcDbLine
 10
85.00166287953366
 20
393.6103849389157
 30
0.0
 11
85.00166287953366
 21
389.2973929389156
 31
0.0
  0
ARC
  5
39A
330
18
100
AcDbEntity
  8
1
  6
Continuous
100
AcDbCircle
 10
86.00166287953365
 20
395.6103849389156
 30
0.0
 40
2.0
100
AcDbArc
 50
270.0000179999999
 51
0.0
  0
LINE
  5
39B
330
18
100
AcDbEntity
  8
1
  6
Continuous
100
AcDbLine
 10
94.00166287953366
 20
394.9397289389155
 30
0.0
 11
94.50166287953381
 21
394.9397289389155
 31
0.0
  0
LINE
  5
39D
330
18
100
AcDbEntity
  8
1
  6
Continuous
100
AcDbLine
 10
94.50166287953381
 20
394.9397289389155
 30
0.0
 11
94.50166296441816
 21
377.9397250280442
 31
0.0
  0
LINE
  5
39E
330
18
100
AcDbEntity
  8
1
  6
Continuous
100
AcDbLine
 10
97.91456387953381
 20
411.4397419389156
 30
0.0
 11
100.5016828795337
 21
407.4397459389157
 31
0.0
  0
LINE
  5
39F
330
18
100
AcDbEntity
  8
1
  6
Continuous
100
AcDbLine
 10
99.00166887953378
 20
403.9397379389156
 30
0.0
 11
97.00167287953366
 21
405.9397349389156
 31
0.0
  0
LINE
  5
3A0
330
18
100
AcDbEntity
  8
1
  6
Continuous
100
AcDbLine
 10
100.5016388795336
 20
407.4397089389156
 30
0.0
 11
98.50163787953363
 21
405.9397089389156
 31
0.0
  0
ARC
  5
3A1
330
18
100
AcDbEntity
  8
1
  6
Continuous
100
AcDbCircle
 10
93.15165687953379
 20
399.5897099389157
 30
0.0
 40
6.0
100
AcDbArc
 50
0.0000140000001062
 51
33.94060299999996
  0
ARC
  5
3A2
330
18
100
AcDbEntity
  8
1
  6
Continuous
100
AcDbCircle
 10
99.00166287953382
 20
403.9397099389156
 30
0.0
 40
1.0
100
AcDbArc
 50
269.9999770000001
 51
0.0000140000001062
  0
ARC
  5
3A3
330
18
100
AcDbEntity
  8
1
  6
Continuous
100
AcDbCircle
 10
100.6286468795337
 20
416.4380999389156
 30
0.0
 40
5.0
100
AcDbArc
 50
268.546021
 51
330.0213029999998
  0
LINE
  5
3A4
330
18
100
AcDbEntity
  8
4
  6
CENTER
 48
0.5
100
AcDbLine
 10
307.6737388571267
 20
382.9397289389156
 30
0.0
 11
307.6737388571267
 21
222.9397289389158
 31
0.0
  0
LINE
  5
3A5
330
18
100
AcDbEntity
  8
1
  6
Continuous
100
AcDbLine
 10
201.4055128571266
 20
391.4772209389157
 30
0.0
 11
203.8203268571267
 21
392.1242679389156
 31
0.0
  0
ARC
  5
3A6
330
18
100
AcDbEntity
  8
1
  6
Continuous
100
AcDbCircle
 10
204.8555778571265
 20
388.2606249389155
 30
0.0
 40
2.5
100
AcDbArc
 50
195.0000189999999
 51
285.0000080000003
  0
LINE
  5
3A7
330
18
100
AcDbEntity
  8
1
  6
Continuous
100
AcDbLine
 10
201.4054898571266
 20
391.4772759389157
 30
0.0
 11
202.4407638571267
 21
387.6135799389156
 31
0.0
  0
LINE
  5
3A8
330
18
100
AcDbEntity
  8
1
  6
Continuous
100
AcDbLine
 10
296.6886168571264
 20
358.7780709389156
 30
0.0
 11
290.3888308571266
 21
304.9145629389157
 31
0.0
  0
ARC
  5
3A9
330
18
100
AcDbEntity
  8
1
  6
Continuous
100
AcDbCircle
 10
223.9520288571265
 20
345.9961639389157
 30
0.0
 40
2.5
100
AcDbArc
 50
239.9999689999998
 51
330.0000129999996
  0
LINE
  5
3AD
330
18
100
AcDbEntity
  8
4
  6
CENTER
 48
0.5
100
AcDbLine
 10
249.6737388571267
 20
385.9397139389157
 30
0.0
 11
261.6737388571265
 21
385.9397139389157
 31
0.0
  0
CIRCLE
  5
3AE
330
18
100
AcDbEntity
  8
1
  6
Continuous
100
AcDbCircle
 10
255.6737388571267
 20
385.9397139389157
 30
0.0
 40
5.0
  0
LINE
  5
3AF
330
18
100
AcDbEntity
  8
1
  6
Continuous
100
AcDbLine
 10
255.0605248571265
 20
360.5572869389157
 30
0.0
 11
256.1658578571265
 21
358.8904729389156
 31
0.0
  0
ARC
  5
3B0
330
18
100
AcDbEntity
  8
5
  6
PHANTOM
 48
0.3
100
AcDbCircle
 10
260.0942938571265
 20
378.9172259389157
 30
0.0
 40
8.0
100
AcDbArc
 50
232.499957
 51
318.5209989999999
  0
LINE
  5
3B1
330
18
100
AcDbEntity
  8
5
  6
PHANTOM
 48
0.3
100
AcDbLine
 10
255.9382628571265
 20
368.1637879389156
 30
0.0
 11
267.2655888571266
 21
373.3559609389156
 31
0.0
  0
LINE
  5
3B2
330
18
100
AcDbEntity
  8
5
  6
PHANTOM
 48
0.3
100
AcDbLine
 10
268.0135448571267
 20
365.7881439389157
 30
0.0
 11
249.5280848571265
 21
350.4817359389156
 31
0.0
  0
LINE
  5
3B3
330
18
100
AcDbEntity
  8
1
  6
Continuous
100
AcDbLine
 10
253.1332168571267
 20
371.5394149389156
 30
0.0
 11
258.2241488571265
 21
380.3571659389156
 31
0.0
  0
LINE
  5
3B4
330
18
100
AcDbEntity
  8
1
  6
Continuous
100
AcDbLine
 10
254.5554338571265
 20
371.6585559389157
 30
0.0
 11
266.3686768571265
 21
375.6226769389156
 31
0.0
  0
ARC
  5
3B5
330
18
100
AcDbEntity
  8
1
  6
Continuous
100
AcDbCircle
 10
255.6737308571265
 20
387.9397369389156
 30
0.0
 40
8.0
100
AcDbArc
 50
194.999965
 51
281.0210060000001
  0
LINE
  5
3B6
330
18
100
AcDbEntity
  8
1
  6
Continuous
100
AcDbLine
 10
266.3114888571265
 20
368.0182039389157
 30
0.0
 11
246.3097968571267
 21
354.7542569389157
 31
0.0
  0
LINE
  5
3B7
330
18
100
AcDbEntity
  8
1
  6
Continuous
100
AcDbLine
 10
243.1737348571266
 20
398.4397139389157
 30
0.0
 11
271.1737348571267
 21
398.4397139389157
 31
0.0
  0
ARC
  5
3B8
330
18
100
AcDbEntity
  8
5
  6
PHANTOM
 48
0.3
100
AcDbCircle
 10
245.0973148571268
 20
376.5596059389157
 30
0.0
 40
3.0
100
AcDbArc
 50
52.50001000000007
 51
142.5000669999996
  0
ARC
  5
3B9
330
18
100
AcDbEntity
  8
5
  6
PHANTOM
 48
0.3
100
AcDbCircle
 10
245.3072758571265
 20
377.6545379389157
 30
0.0
 40
2.5
100
AcDbArc
 50
127.4999879999999
 51
142.5000129999999
  0
LINE
  5
3BA
330
18
100
AcDbEntity
  8
1
  6
Continuous
100
AcDbLine
 10
223.9520458571266
 20
345.9961519389157
 30
0.0
 11
247.6377288571265
 21
387.0209539389156
 31
0.0
  0
LINE
  5
3BB
330
18
100
AcDbEntity
  8
1
  6
Continuous
100
AcDbLine
 10
226.1171088571266
 20
344.7461519389158
 30
0.0
 11
238.6171108571267
 21
366.3967869389156
 31
0.0
  0
LINE
  5
3BC
330
18
100
AcDbEntity
  8
5
  6
PHANTOM
 48
0.3
100
AcDbLine
 10
221.8328178571265
 20
346.9232469389156
 30
0.0
 11
240.0091798571267
 21
364.0877419389156
 31
0.0
  0
LINE
  5
3BD
330
18
100
AcDbEntity
  8
5
  6
PHANTOM
 48
0.3
100
AcDbLine
 10
220.0355158571266
 20
348.8264719389157
 30
0.0
 11
243.3238708571265
 21
379.1764459389156
 31
0.0
  0
LINE
  5
3BE
330
18
100
AcDbEntity
  8
5
  6
PHANTOM
 48
0.3
100
AcDbLine
 10
220.1163868571265
 20
348.7408739389156
 30
0.0
 11
249.7769248571267
 21
376.7502299389156
 31
0.0
  0
LINE
  5
3BF
330
18
100
AcDbEntity
  8
5
  6
PHANTOM
 48
0.3
100
AcDbLine
 10
215.5523978571265
 20
349.9326449389156
 30
0.0
 11
217.3700228571265
 21
351.6490839389156
 31
0.0
  0
LINE
  5
3C0
330
18
100
AcDbEntity
  8
5
  6
PHANTOM
 48
0.3
100
AcDbLine
 10
214.8868728571265
 20
348.6873319389157
 30
0.0
 11
218.0602858571266
 21
346.2522869389156
 31
0.0
  0
LINE
  5
3C1
330
18
100
AcDbEntity
  8
5
  6
PHANTOM
 48
0.3
100
AcDbLine
 10
215.5523938571267
 20
349.9326489389157
 30
0.0
 11
218.2987128571267
 21
347.0244309389157
 31
0.0
  0
LINE
  5
3C2
330
18
100
AcDbEntity
  8
5
  6
PHANTOM
 48
0.3
100
AcDbLine
 10
214.8868678571266
 20
348.6873259389156
 30
0.0
 11
215.7124158571267
 21
349.7631999389156
 31
0.0
  0
LINE
  5
3C3
330
18
100
AcDbEntity
  8
1
  6
Continuous
100
AcDbLine
 10
220.4879058571265
 20
347.9961399389157
 30
0.0
 11
226.1170708571266
 21
344.7461389389157
 31
0.0
  0
ARC
  5
3C4
330
18
100
AcDbEntity
  8
5
  6
PHANTOM
 48
0.3
100
AcDbCircle
 10
220.1163578571265
 20
348.7409069389157
 30
0.0
 40
2.5
100
AcDbArc
 50
223.359989
 51
313.3600259999998
  0
ARC
  5
3C5
330
18
100
AcDbEntity
  8
5
  6
PHANTOM
 48
0.3
100
AcDbCircle
 10
219.5821788571266
 20
348.2356659389156
 30
0.0
 40
2.5
100
AcDbArc
 50
232.5000119999999
 51
322.500007
  0
LINE
  5
3C6
330
18
100
AcDbEntity
  8
1
  6
Continuous
100
AcDbLine
 10
219.2379018571267
 20
345.8310699389156
 30
0.0
 11
222.7020028571265
 21
343.8310689389156
 31
0.0
  0
LINE
  5
3C7
330
18
100
AcDbEntity
  8
5
  6
PHANTOM
 48
0.3
100
AcDbLine
 10
217.3699848571265
 20
351.6491139389156
 30
0.0
 11
221.8327538571267
 21
346.9232589389156
 31
0.0
  0
LINE
  5
3C8
330
18
100
AcDbEntity
  8
1
  6
Continuous
100
AcDbLine
 10
219.2379368571265
 20
345.8310929389157
 30
0.0
 11
220.4879298571265
 21
347.9961429389156
 31
0.0
  0
LINE
  5
3C9
330
18
100
AcDbEntity
  8
1
  6
Continuous
100
AcDbLine
 10
239.6778218571265
 20
364.7551609389156
 30
0.0
 11
246.3097978571265
 21
354.7543119389156
 31
0.0
  0
LINE
  5
3CA
330
18
100
AcDbEntity
  8
5
  6
PHANTOM
 48
0.3
100
AcDbLine
 10
231.0269768571266
 20
359.0441239389156
 30
0.0
 11
244.7006478571267
 21
376.8639979389157
 31
0.0
  0
ARC
  5
3CB
330
18
100
AcDbEntity
  8
5
  6
PHANTOM
 48
0.3
100
AcDbCircle
 10
247.2664738571267
 20
364.1888399389157
 30
0.0
 40
7.0
100
AcDbArc
 50
42.0831690000002
 51
219.625566
  0
CIRCLE
  5
3CC
330
18
100
AcDbEntity
  8
5
  6
PHANTOM
 48
0.3
100
AcDbCircle
 10
247.4048028571266
 20
364.2522559389157
 30
0.0
 40
5.0
  0
LINE
  5
3CD
330
18
100
AcDbEntity
  8
5
  6
PHANTOM
 48
0.3
100
AcDbLine
 10
241.8748818571267
 20
359.7244409389156
 30
0.0
 11
249.5280968571265
 21
350.4816979389157
 31
0.0
  0
LINE
  5
3CE
330
18
100
AcDbEntity
  8
4
  6
CENTER
 48
0.5
100
AcDbLine
 10
239.6559318571267
 20
368.6721889389157
 30
0.0
 11
251.6559318571267
 21
368.6721889389157
 31
0.0
  0
ARC
  5
3CF
330
18
100
AcDbEntity
  8
1
  6
Continuous
100
AcDbCircle
 10
245.5116368571267
 20
368.6237919389157
 30
0.0
 40
7.0
100
AcDbArc
 50
36.00758900000025
 51
213.5499899999999
  0
CIRCLE
  5
3D0
330
18
100
AcDbEntity
  8
1
  6
Continuous
100
AcDbCircle
 10
245.6559318571267
 20
368.6721889389157
 30
0.0
 40
5.0
  0
LINE
  5
3D1
330
18
100
AcDbEntity
  8
5
  6
PHANTOM
 48
0.3
100
AcDbLine
 10
237.8450308571265
 20
372.0362419389156
 30
0.0
 11
239.8284018571265
 21
370.5143479389156
 31
0.0
  0
LINE
  5
3D2
330
18
100
AcDbEntity
  8
5
  6
PHANTOM
 48
0.3
100
AcDbLine
 10
236.4750748571267
 20
364.1889499389157
 30
0.0
 11
238.1915238571266
 21
362.3713139389157
 31
0.0
  0
ARC
  5
3D3
330
18
100
AcDbEntity
  8
1
  6
Continuous
100
AcDbCircle
 10
237.0010778571265
 20
365.5977379389157
 30
0.0
 40
1.5
100
AcDbArc
 50
60.00003600000011
 51
150.0000110000001
  0
LINE
  5
3D4
330
18
100
AcDbEntity
  8
1
  6
Continuous
100
AcDbLine
 10
235.2020258571265
 20
365.4817099389156
 30
0.0
 11
237.3670888571266
 21
364.2317089389156
 31
0.0
  0
LINE
  5
3D5
330
18
100
AcDbEntity
  8
1
  6
Continuous
100
AcDbLine
 10
237.7510778571267
 20
366.8967739389156
 30
0.0
 11
238.9410698571267
 21
366.2097319389157
 31
0.0
  0
LINE
  5
3D6
330
18
100
AcDbEntity
  8
5
  6
PHANTOM
 48
0.3
100
AcDbLine
 10
239.3225858571265
 20
364.8147889389156
 30
0.0
 11
240.0091558571267
 21
364.0877459389157
 31
0.0
  0
ARC
  5
3D7
330
18
100
AcDbEntity
  8
5
  6
PHANTOM
 48
0.3
100
AcDbCircle
 10
238.2319888571265
 20
363.7849129389156
 30
0.0
 40
1.5
100
AcDbArc
 50
43.35981000000027
 51
133.359812
  0
LINE
  5
3D8
330
18
100
AcDbEntity
  8
4
  6
CENTER
 48
0.5
100
AcDbLine
 10
245.6559318571267
 20
362.6721889389155
 30
0.0
 11
245.6559318571267
 21
374.6721889389156
 31
0.0
  0
ARC
  5
3D9
330
18
100
AcDbEntity
  8
5
  6
PHANTOM
 48
0.3
100
AcDbCircle
 10
254.6881968571265
 20
370.8909239389157
 30
0.0
 40
3.0
100
AcDbArc
 50
222.0831949999999
 51
294.6255959999998
  0
LINE
  5
3DA
330
18
100
AcDbEntity
  8
5
  6
PHANTOM
 48
0.3
100
AcDbLine
 10
247.5238728571266
 20
371.1840969389156
 30
0.0
 11
251.7857988571265
 21
375.2087649389157
 31
0.0
  0
LINE
  5
3DB
330
18
100
AcDbEntity
  8
5
  6
PHANTOM
 48
0.3
100
AcDbLine
 10
246.9236128571266
 20
378.9396539389156
 30
0.0
 11
255.2241878571265
 21
372.5703989389156
 31
0.0
  0
ARC
  5
3DC
330
18
100
AcDbEntity
  8
5
  6
PHANTOM
 48
0.3
100
AcDbCircle
 10
247.0807138571265
 20
375.0376939389156
 30
0.0
 40
3.0
100
AcDbArc
 50
52.50001000000007
 51
142.500026
  0
ARC
  5
3DD
330
18
100
AcDbEntity
  8
1
  6
Continuous
100
AcDbCircle
 10
253.6010308571265
 20
374.5027169389156
 30
0.0
 40
3.0
100
AcDbArc
 50
216.0076179999998
 51
288.5500190000001
  0
LINE
  5
3DE
330
18
100
AcDbEntity
  8
1
  6
Continuous
100
AcDbLine
 10
205.5026488571267
 20
385.8457579389157
 30
0.0
 11
242.2112198571267
 21
395.6817889389157
 31
0.0
  0
LINE
  5
3DF
330
18
100
AcDbEntity
  8
1
  6
Continuous
100
AcDbLine
 10
204.8555978571265
 20
388.2605839389157
 30
0.0
 11
242.5266938571267
 21
398.3545219389156
 31
0.0
  0
LINE
  5
3E0
330
18
100
AcDbEntity
  8
1
  6
Continuous
100
AcDbLine
 10
203.8203368571266
 20
392.1243199389156
 30
0.0
 11
205.5026608571266
 21
385.8458029389156
 31
0.0
  0
ARC
  5
3E1
330
18
100
AcDbEntity
  8
1
  6
Continuous
100
AcDbCircle
 10
242.3406168571267
 20
395.1988709389157
 30
0.0
 40
3.0
100
AcDbArc
 50
15.00001100000002
 51
105.0000609999997
  0
ARC
  5
3E2
330
18
100
AcDbEntity
  8
1
  6
Continuous
100
AcDbCircle
 10
242.9876658571266
 20
392.7840529389157
 30
0.0
 40
3.0
100
AcDbArc
 50
15.00001100000002
 51
105.0000270000001
  0
LINE
  5
3E3
330
18
100
AcDbEntity
  8
1
  6
Continuous
100
AcDbLine
 10
233.8333538571265
 20
396.0251929389156
 30
0.0
 11
234.4803998571264
 21
393.6103849389157
 31
0.0
  0
LINE
  5
3E4
330
18
100
AcDbEntity
  8
4
  6
CENTER
 48
0.5
100
AcDbLine
 10
255.6737388571267
 20
379.9397139389157
 30
0.0
 11
255.6737388571267
 21
391.9397139389157
 31
0.0
  0
LINE
  5
3E5
330
18
100
AcDbEntity
  8
1
  6
Continuous
100
AcDbLine
 10
245.2384138571265
 20
395.9753289389157
 30
0.0
 11
247.9463458571265
 21
385.8691869389156
 31
0.0
  0
LINE
  5
3E6
330
18
100
AcDbEntity
  8
5
  6
PHANTOM
 48
0.3
100
AcDbLine
 10
243.7853858571267
 20
379.6379489389157
 30
0.0
 11
248.9516978571267
 21
383.6021989389156
 31
0.0
  0
ARC
  5
3E7
330
18
100
AcDbEntity
  8
1
  6
Continuous
100
AcDbCircle
 10
243.1737308571265
 20
395.9397389389156
 30
0.0
 40
2.5
100
AcDbArc
 50
89.99998199999998
 51
105.0000060000002
  0
LINE
  5
3E8
330
18
100
AcDbEntity
  8
4
  6
CENTER
 48
0.5
100
AcDbLine
 10
288.1737308571264
 20
376.9397289389156
 30
0.0
 11
288.1737308571264
 21
388.9397289389155
 31
0.0
  0
CIRCLE
  5
3E9
330
18
100
AcDbEntity
  8
5
  6
PHANTOM
 48
0.3
100
AcDbCircle
 10
261.3117848571265
 20
377.3305299389156
 30
0.0
 40
5.0
  0
CIRCLE
  5
3EA
330
18
100
AcDbEntity
  8
1
  6
Continuous
100
AcDbCircle
 10
288.1737308571264
 20
382.9397289389156
 30
0.0
 40
5.0
  0
LINE
  5
3EB
330
18
100
AcDbEntity
  8
1
  6
Continuous
100
AcDbLine
 10
266.9517458571267
 20
381.2426969389156
 30
0.0
 11
291.2929618571266
 21
368.8514609389156
 31
0.0
  0
LINE
  5
3EC
330
18
100
AcDbEntity
  8
5
  6
PHANTOM
 48
0.3
100
AcDbLine
 10
262.5680048571268
 20
364.5249129389156
 30
0.0
 11
282.9115568571267
 21
373.1181299389156
 31
0.0
  0
LINE
  5
3ED
330
18
100
AcDbEntity
  8
1
  6
Continuous
100
AcDbLine
 10
258.3941728571267
 20
362.7679369389156
 30
0.0
 11
259.4994978571266
 21
361.1011359389157
 31
0.0
  0
LINE
  5
3EE
330
18
100
AcDbEntity
  8
5
  6
PHANTOM
 48
0.3
100
AcDbLine
 10
260.6964108571267
 20
359.7293449389157
 30
0.0
 11
261.9719468571267
 21
358.1888879389156
 31
0.0
  0
LINE
  5
3EF
330
18
100
AcDbEntity
  8
1
  6
Continuous
100
AcDbLine
 10
259.4994808571267
 20
361.1010989389157
 30
0.0
 11
256.1658648571265
 21
358.8904409389156
 31
0.0
  0
LINE
  5
3F0
330
18
100
AcDbEntity
  8
5
  6
PHANTOM
 48
0.3
100
AcDbLine
 10
257.6154588571268
 20
357.1782819389156
 30
0.0
 11
258.8910048571265
 21
355.6378129389157
 31
0.0
  0
LINE
  5
3F1
330
18
100
AcDbEntity
  8
5
  6
PHANTOM
 48
0.3
100
AcDbLine
 10
261.9719148571267
 20
358.1889379389156
 30
0.0
 11
258.8910008571267
 21
355.6378669389157
 31
0.0
  0
LINE
  5
3F2
330
18
100
AcDbEntity
  8
1
  6
Continuous
100
AcDbLine
 10
266.3686728571267
 20
375.6226719389156
 30
0.0
 11
271.1295618571265
 21
379.1159189389156
 31
0.0
  0
LINE
  5
3F3
330
18
100
AcDbEntity
  8
1
  6
Continuous
100
AcDbLine
 10
260.7628088571265
 20
367.3384189389157
 30
0.0
 11
281.7809028571267
 21
373.6937049389156
 31
0.0
  0
LINE
  5
3F4
330
18
100
AcDbEntity
  8
5
  6
PHANTOM
 48
0.3
100
AcDbLine
 10
266.0878028571265
 20
373.6184839389157
 30
0.0
 11
271.0043028571265
 21
379.1796819389156
 31
0.0
  0
LINE
  5
3F5
330
18
100
AcDbEntity
  8
5
  6
PHANTOM
 48
0.3
100
AcDbLine
 10
267.2656448571265
 20
373.3559079389157
 30
0.0
 11
272.7055958571265
 21
378.3136129389156
 31
0.0
  0
LINE
  5
3F6
330
18
100
AcDbEntity
  8
5
  6
PHANTOM
 48
0.3
100
AcDbLine
 10
262.5680058571266
 20
364.5248709389156
 30
0.0
 11
264.1624258571265
 21
362.5992989389156
 31
0.0
  0
LINE
  5
3F7
330
18
100
AcDbEntity
  8
1
  6
Continuous
100
AcDbLine
 10
260.7628058571267
 20
367.3384369389156
 30
0.0
 11
262.1444728571265
 21
365.2549179389156
 31
0.0
  0
LINE
  5
3F8
330
18
100
AcDbEntity
  8
1
  6
Continuous
100
AcDbLine
 10
265.7602398571266
 20
368.8495229389157
 30
0.0
 11
266.3114958571266
 21
368.0182419389157
 31
0.0
  0
ARC
  5
3F9
330
18
100
AcDbEntity
  8
1
  6
Continuous
100
AcDbCircle
 10
286.7563188571264
 20
359.9397329389157
 30
0.0
 40
10.0
100
AcDbArc
 50
353.3290889999999
 51
63.02099399999979
  0
ARC
  5
3FA
330
18
100
AcDbEntity
  8
1
  6
Continuous
100
AcDbCircle
 10
279.8388848571267
 20
393.5897359389156
 30
0.0
 40
3.0
100
AcDbArc
 50
203.5781359999996
 51
0.0
  0
LINE
  5
3FB
330
18
100
AcDbEntity
  8
4
  6
CENTER
 48
0.5
100
AcDbLine
 10
282.1737308571266
 20
382.9397289389156
 30
0.0
 11
294.1737308571266
 21
382.9397289389156
 31
0.0
  0
LINE
  5
3FC
330
18
100
AcDbEntity
  8
1
  6
Continuous
100
AcDbLine
 10
271.1737388571267
 20
398.4397329389157
 30
0.0
 11
271.1737388571267
 21
396.5718589389156
 31
0.0
  0
ARC
  5
3FD
330
18
100
AcDbEntity
  8
1
  6
Continuous
100
AcDbCircle
 10
270.6737308571266
 20
389.5897379389156
 30
0.0
 40
7.0
100
AcDbArc
 50
23.57818000000019
 51
179.9999639999999
  0
LINE
  5
3FE
330
18
100
AcDbEntity
  8
4
  6
CENTER
 48
0.5
100
AcDbLine
 10
265.1737308571266
 20
389.9397329389157
 30
0.0
 11
277.1737308571266
 21
389.9397329389157
 31
0.0
  0
CIRCLE
  5
3FF
330
18
100
AcDbEntity
  8
1
  6
Continuous
100
AcDbCircle
 10
271.1737308571266
 20
389.9397329389157
 30
0.0
 40
5.0
  0
LINE
  5
400
330
18
100
AcDbEntity
  8
1
  6
Continuous
100
AcDbLine
 10
263.6737388571265
 20
389.5897399389157
 30
0.0
 11
263.6737388571265
 21
386.5897399389156
 31
0.0
  0
LINE
  5
401
330
18
100
AcDbEntity
  8
1
  6
Continuous
100
AcDbLine
 10
257.2030848571265
 20
380.0872569389156
 30
0.0
 11
266.0472108571267
 21
381.8097439389156
 31
0.0
  0
ARC
  5
402
330
18
100
AcDbEntity
  8
1
  6
Continuous
100
AcDbCircle
 10
269.6737308571266
 20
386.5897379389156
 30
0.0
 40
6.0
100
AcDbArc
 50
179.999978
 51
243.0209720000001
  0
LINE
  5
403
330
18
100
AcDbEntity
  8
4
  6
CENTER
 48
0.5
100
AcDbLine
 10
271.1737308571266
 20
383.9397329389157
 30
0.0
 11
271.1737308571266
 21
395.9397329389156
 31
0.0
  0
LINE
  5
404
330
18
100
AcDbEntity
  8
1
  6
Continuous
100
AcDbLine
 10
12.00166287953368
 20
417.9397209389156
 30
0.0
 11
114.0016628795335
 21
417.9397209389156
 31
0.0
  0
LINE
  5
405
330
18
100
AcDbEntity
  8
4
  6
CENTER
 48
0.5
100
AcDbLine
 10
307.6737388571267
 20
501.5574705008137
 30
0.0
 11
307.6737388571267
 21
613.5574705008139
 31
0.0
  0
LINE
  5
406
330
18
100
AcDbEntity
  8
1
  6
Continuous
100
AcDbLine
 10
271.1737378571263
 20
530.0574705008139
 30
0.0
 11
271.1737378571263
 21
585.0574705008138
 31
0.0
  0
LINE
  5
407
330
18
100
AcDbEntity
  8
1
  6
Continuous
100
AcDbLine
 10
282.8388848571266
 20
585.5574705008137
 30
0.0
 11
282.8388848571266
 21
529.5574705008139
 31
0.0
  0
LINE
  5
408
330
18
100
AcDbEntity
  8
1
  6
Continuous
100
AcDbLine
 10
220.4878838571264
 20
532.5574705008135
 30
0.0
 11
220.4878838571264
 21
552.5509626489897
 31
0.0
  0
ARC
  5
409
330
18
100
AcDbEntity
  8
1
  6
Continuous
100
AcDbCircle
 10
238.8334078571265
 20
537.5574705008139
 30
0.0
 40
5.0
100
AcDbArc
 50
180.0
 51
270.0
  0
LINE
  5
40A
330
18
100
AcDbEntity
  8
1
  6
Continuous
100
AcDbLine
 10
219.2379378571263
 20
533.5574705008139
 30
0.0
 11
219.2379378571263
 21
551.5574705008138
 31
0.0
  0
LINE
  5
40B
330
18
100
AcDbEntity
  8
1
  6
Continuous
100
AcDbLine
 10
223.9520448571265
 20
532.5574705008135
 30
0.0
 11
223.9520448571265
 21
552.5574705008136
 31
0.0
  0
LINE
  5
40C
330
18
100
AcDbEntity
  8
1
  6
Continuous
100
AcDbLine
 10
273.6737338571263
 20
582.5574705008139
 30
0.0
 11
273.6737338571263
 21
532.5574705008135
 31
0.0
  0
LINE
  5
40D
330
18
100
AcDbEntity
  8
4
  6
CENTER
 48
0.5
100
AcDbLine
 10
245.6559318571263
 20
592.057470500814
 30
0.0
 11
245.6559318571263
 21
522.5574923666148
 31
0.0
  0
LINE
  5
40E
330
18
100
AcDbEntity
  8
4
  6
CENTER
 48
0.5
100
AcDbLine
 10
255.6737388571263
 20
592.0574705008139
 30
0.0
 11
255.6737388571263
 21
522.5574923666148
 31
0.0
  0
LINE
  5
40F
330
18
100
AcDbEntity
  8
4
  6
CENTER
 48
0.5
100
AcDbLine
 10
271.1737308571266
 20
595.5574705008135
 30
0.0
 11
271.1737308571266
 21
519.0574705008144
 31
0.0
  0
LINE
  5
410
330
18
100
AcDbEntity
  8
4
  6
CENTER
 48
0.5
100
AcDbLine
 10
288.1737308571264
 20
595.5574705008135
 30
0.0
 11
288.1737308571264
 21
519.0574705008144
 31
0.0
  0
LINE
  5
411
330
18
100
AcDbEntity
  8
1
  6
Continuous
100
AcDbLine
 10
297.6737578571266
 20
517.5574705008137
 30
0.0
 11
297.6737578571266
 21
597.5574705008138
 31
0.0
  0
ARC
  5
412
330
18
100
AcDbEntity
  8
1
  6
Continuous
100
AcDbCircle
 10
255.6737418571263
 20
534.8074705008139
 30
0.0
 40
7.25
100
AcDbArc
 50
226.3971819999996
 51
313.6028179999996
  0
LINE
  5
413
330
18
100
AcDbEntity
  8
1
  6
Continuous
100
AcDbLine
 10
260.6737388571263
 20
529.5574705008139
 30
0.0
 11
250.6737388571263
 21
529.5574705008139
 31
0.0
  0
LINE
  5
414
330
18
100
AcDbEntity
  8
1
  6
Continuous
100
AcDbLine
 10
245.6737378571264
 20
530.0574705008139
 30
0.0
 11
271.1737378571263
 21
530.0574705008139
 31
0.0
  0
LINE
  5
415
330
18
100
AcDbEntity
  8
1
  6
Continuous
100
AcDbLine
 10
227.8492617591449
 20
527.5574705008136
 30
0.0
 11
236.8670788571264
 21
527.5574705008136
 31
0.0
  0
LINE
  5
416
330
18
100
AcDbEntity
  8
1
  6
Continuous
100
AcDbLine
 10
220.2379378571265
 20
532.5574705008135
 30
0.0
 11
223.9520448571265
 21
532.5574705008135
 31
0.0
  0
ARC
  5
417
330
18
100
AcDbEntity
  8
1
  6
Continuous
100
AcDbCircle
 10
220.2379378571265
 20
533.5574705008139
 30
0.0
 40
1.0
100
AcDbArc
 50
179.9999999999995
 51
270.0
  0
ARC
  5
418
330
18
100
AcDbEntity
  8
1
  6
Continuous
100
AcDbCircle
 10
227.8492617591449
 20
528.0574705008139
 30
0.0
 40
0.5
100
AcDbArc
 50
237.0559873442986
 51
270.0
  0
ARC
  5
419
330
18
100
AcDbEntity
  8
1
  6
Continuous
100
AcDbCircle
 10
232.2850098165726
 20
534.9025577801902
 30
0.0
 40
8.656658671985146
100
AcDbArc
 50
195.7178184140819
 51
237.0559873443015
  0
ARC
  5
41A
330
18
100
AcDbEntity
  8
1
  6
Continuous
100
AcDbCircle
 10
245.6737378571264
 20
532.5574705008135
 30
0.0
 40
2.5
100
AcDbArc
 50
180.0
 51
270.0
  0
LINE
  5
41B
330
18
100
AcDbEntity
  8
1
  6
Continuous
100
AcDbLine
 10
238.8334078571265
 20
532.5574705008135
 30
0.0
 11
243.1737378571263
 21
532.5574705008135
 31
0.0
  0
LINE
  5
41C
330
18
100
AcDbEntity
  8
1
  6
Continuous
100
AcDbLine
 10
245.6737378571264
 20
530.0574705008139
 30
0.0
 11
238.5117919843816
 21
530.0574705008139
 31
0.0
  0
ARC
  5
41D
330
18
100
AcDbEntity
  8
1
  6
Continuous
100
AcDbCircle
 10
245.6737378571264
 20
534.8074705008139
 30
0.0
 40
7.25
100
AcDbArc
 50
226.3971819999996
 51
313.6028179999996
  0
LINE
  5
41E
330
18
100
AcDbEntity
  8
1
  6
Continuous
100
AcDbLine
 10
250.6737348571264
 20
529.5574705008139
 30
0.0
 11
240.6737348571263
 21
529.5574705008139
 31
0.0
  0
LINE
  5
41F
330
18
100
AcDbEntity
  8
1
  6
Continuous
100
AcDbLine
 10
235.2020283487727
 20
527.5574705008136
 30
0.0
 11
235.2020283487727
 21
534.1204539360721
 31
0.0
  0
LINE
  5
420
330
18
100
AcDbEntity
  8
1
  6
Continuous
100
AcDbLine
 10
240.6737378571266
 20
532.5574705008135
 30
0.0
 11
240.6737378571266
 21
532.5574705008135
 31
0.0
  0
LINE
  5
421
330
18
100
AcDbEntity
  8
1
  6
Continuous
100
AcDbLine
 10
240.6737378571263
 20
530.0574705008139
 30
0.0
 11
240.6737378571263
 21
529.5574705008139
 31
0.0
  0
LINE
  5
422
330
18
100
AcDbEntity
  8
1
  6
Continuous
100
AcDbLine
 10
238.5117919843816
 20
530.0574705008139
 30
0.0
 11
238.5117919843816
 21
532.5678248991305
 31
0.0
  0
LINE
  5
423
330
18
100
AcDbEntity
  8
1
  6
Continuous
100
AcDbLine
 10
237.3670788571264
 20
528.0574705008139
 30
0.0
 11
237.3670788571264
 21
532.7773157686153
 31
0.0
  0
ARC
  5
424
330
18
100
AcDbEntity
  8
1
  6
Continuous
100
AcDbCircle
 10
236.8670788571264
 20
528.0574705008139
 30
0.0
 40
0.5
100
AcDbArc
 50
270.0
 51
0.0
  0
LINE
  5
425
330
18
100
AcDbEntity
  8
1
  6
Continuous
100
AcDbLine
 10
243.1737378571263
 20
532.5574705008135
 30
0.0
 11
243.1737378571265
 21
532.5574705008135
 31
0.0
  0
LINE
  5
426
330
18
100
AcDbEntity
  8
1
  6
Continuous
100
AcDbLine
 10
250.6737378571263
 20
530.0574705008139
 30
0.0
 11
250.6737378571263
 21
529.5574705008139
 31
0.0
  0
LINE
  5
427
330
18
100
AcDbEntity
  8
1
  6
Continuous
100
AcDbLine
 10
250.6737418571264
 20
530.0574705008139
 30
0.0
 11
250.6737418571264
 21
529.5574705008139
 31
0.0
  0
ARC
  5
428
330
18
100
AcDbEntity
  8
1
  6
Continuous
100
AcDbCircle
 10
278.149888658975
 20
530.6708682197048
 30
0.0
 40
4.819371310317405
100
AcDbArc
 50
301.4041186141874
 51
346.6425446337573
  0
LINE
  5
429
330
18
100
AcDbEntity
  8
1
  6
Continuous
100
AcDbLine
 10
271.1737378571263
 20
530.0574705008139
 30
0.0
 11
282.8388848571266
 21
530.0574705008139
 31
0.0
  0
LINE
  5
42A
330
18
100
AcDbEntity
  8
1
  6
Continuous
100
AcDbLine
 10
271.1737378571263
 20
532.5574705008135
 30
0.0
 11
282.8388848571266
 21
532.5574705008135
 31
0.0
  0
LINE
  5
42B
330
18
100
AcDbEntity
  8
1
  6
Continuous
100
AcDbLine
 10
263.68248603235
 20
529.5574705008139
 30
0.0
 11
282.8388848571266
 21
529.5574705008139
 31
0.0
  0
LINE
  5
42C
330
18
100
AcDbEntity
  8
1
  6
Continuous
100
AcDbLine
 10
263.68248603235
 20
526.5574705008137
 30
0.0
 11
297.6737578571264
 21
526.5574705008137
 31
0.0
  0
ARC
  5
42D
330
18
100
AcDbEntity
  8
1
  6
Continuous
100
AcDbCircle
 10
271.1737338571263
 20
531.3074705008139
 30
0.0
 40
7.25
100
AcDbArc
 50
226.3971819999996
 51
313.6028179999996
  0
LINE
  5
42E
330
18
100
AcDbEntity
  8
1
  6
Continuous
100
AcDbLine
 10
276.1737308571263
 20
526.0574705008139
 30
0.0
 11
266.1737308571263
 21
526.0574705008139
 31
0.0
  0
LINE
  5
42F
330
18
100
AcDbEntity
  8
1
  6
Continuous
100
AcDbLine
 10
263.68248603235
 20
526.5574705008138
 30
0.0
 11
263.68248603235
 21
529.5574705008139
 31
0.0
  0
LINE
  5
430
330
18
100
AcDbEntity
  8
1
  6
Continuous
100
AcDbLine
 10
266.1737338571266
 20
526.5574705008138
 30
0.0
 11
266.1737338571266
 21
526.0574705008139
 31
0.0
  0
LINE
  5
431
330
18
100
AcDbEntity
  8
1
  6
Continuous
100
AcDbLine
 10
260.6737418571265
 20
530.0574705008139
 30
0.0
 11
260.6737418571265
 21
529.5574705008139
 31
0.0
  0
LINE
  5
432
330
18
100
AcDbEntity
  8
1
  6
Continuous
100
AcDbLine
 10
268.6737418571265
 20
530.0574705008137
 30
0.0
 11
268.6737418571265
 21
529.5574705008135
 31
0.0
  0
LINE
  5
433
330
18
100
AcDbEntity
  8
1
  6
Continuous
100
AcDbLine
 10
276.1737338571264
 20
526.5574705008138
 30
0.0
 11
276.1737338571264
 21
526.0574705008139
 31
0.0
  0
LINE
  5
434
330
18
100
AcDbEntity
  8
1
  6
Continuous
100
AcDbLine
 10
273.6737338571263
 20
530.0574705008139
 30
0.0
 11
273.6737338571263
 21
529.5574705008139
 31
0.0
  0
LINE
  5
435
330
18
100
AcDbEntity
  8
1
  6
Continuous
100
AcDbLine
 10
277.3336261359787
 20
532.5574705008135
 30
0.0
 11
277.3336261359787
 21
530.0574705008137
 31
0.0
  0
LINE
  5
436
330
18
100
AcDbEntity
  8
1
  6
Continuous
100
AcDbLine
 10
293.1737308571263
 20
526.0574705008139
 30
0.0
 11
283.1737308571263
 21
526.0574705008139
 31
0.0
  0
ARC
  5
437
330
18
100
AcDbEntity
  8
1
  6
Continuous
100
AcDbCircle
 10
288.1737338571264
 20
531.3074705008139
 30
0.0
 40
7.25
100
AcDbArc
 50
226.3971819999996
 51
313.6028179999996
  0
LINE
  5
438
330
18
100
AcDbEntity
  8
1
  6
Continuous
100
AcDbLine
 10
283.1737338571264
 20
526.5574705008138
 30
0.0
 11
283.1737338571264
 21
526.0574705008139
 31
0.0
  0
LINE
  5
439
330
18
100
AcDbEntity
  8
1
  6
Continuous
100
AcDbLine
 10
293.1737338571266
 20
526.5574705008138
 30
0.0
 11
293.1737338571266
 21
526.0574705008139
 31
0.0
  0
LINE
  5
43A
330
18
100
AcDbEntity
  8
1
  6
Continuous
100
AcDbLine
 10
297.6737578571264
 20
525.5574705008135
 30
0.0
 11
296.1737388571265
 21
525.5574705008135
 31
0.0
  0
ARC
  5
43B
330
18
100
AcDbEntity
  8
1
  6
Continuous
100
AcDbCircle
 10
307.6737388571265
 20
546.0991425008136
 30
0.0
 40
23.541666
100
AcDbArc
 50
240.7582511143796
 51
244.8633898039569
  0
LINE
  5
43C
330
18
100
AcDbEntity
  8
1
  6
Continuous
100
AcDbLine
 10
296.1737388571265
 20
526.5574705008137
 30
0.0
 11
296.1737388571265
 21
525.5574705008135
 31
0.0
  0
LINE
  5
43D
330
18
100
AcDbEntity
  8
1
  6
Continuous
100
AcDbLine
 10
304.7846528571266
 20
521.4465815008136
 30
0.0
 11
307.2846558571266
 21
523.9465845008136
 31
0.0
  0
LINE
  5
43E
330
18
100
AcDbEntity
  8
1
  6
Continuous
100
AcDbLine
 10
202.4055388571265
 20
563.5574705008139
 30
0.0
 11
204.8556088571265
 21
563.5574705008139
 31
0.0
  0
LINE
  5
43F
330
18
100
AcDbEntity
  8
1
  6
Continuous
100
AcDbLine
 10
202.4055388571265
 20
583.5574705008135
 30
0.0
 11
204.8556088571262
 21
583.5574705008135
 31
0.0
  0
LINE
  5
440
330
18
100
AcDbEntity
  8
1
  6
Continuous
100
AcDbLine
 10
201.4055388571265
 20
564.5574705008137
 30
0.0
 11
201.4055388571265
 21
582.5574705008135
 31
0.0
  0
ARC
  5
441
330
18
100
AcDbEntity
  8
1
  6
Continuous
100
AcDbCircle
 10
202.4055388571265
 20
564.5574705008137
 30
0.0
 40
1.0
100
AcDbArc
 50
180.0
 51
270.0
  0
ARC
  5
442
330
18
100
AcDbEntity
  8
1
  6
Continuous
100
AcDbCircle
 10
202.4055388571265
 20
582.5574705008135
 30
0.0
 40
1.0
100
AcDbArc
 50
90.0
 51
180.0
  0
LINE
  5
443
330
18
100
AcDbEntity
  8
1
  6
Continuous
100
AcDbLine
 10
251.6737418571265
 20
585.5574697677755
 30
0.0
 11
259.6737418571263
 21
585.5574700295749
 31
0.0
  0
LINE
  5
444
330
18
100
AcDbEntity
  8
1
  6
Continuous
100
AcDbLine
 10
258.1737388571263
 20
587.0574705008139
 30
0.0
 11
253.1737388571265
 21
587.0574705008139
 31
0.0
  0
LINE
  5
445
330
18
100
AcDbEntity
  8
1
  6
Continuous
100
AcDbLine
 10
240.5391899699659
 20
585.0574705008138
 30
0.0
 11
271.1737378571263
 21
585.0574705008138
 31
0.0
  0
LINE
  5
446
330
18
100
AcDbEntity
  8
1
  6
Continuous
100
AcDbLine
 10
204.8556088571265
 20
563.0574705008139
 30
0.0
 11
204.8556088571262
 21
584.0574705008135
 31
0.0
  0
LINE
  5
447
330
18
100
AcDbEntity
  8
1
  6
Continuous
100
AcDbLine
 10
203.8203508571263
 20
563.5574705008139
 30
0.0
 11
203.8203508571263
 21
583.5574705008139
 31
0.0
  0
LINE
  5
448
330
18
100
AcDbEntity
  8
1
  6
Continuous
100
AcDbLine
 10
233.7914477486763
 20
557.5574705008139
 30
0.0
 11
227.7038055838854
 21
557.5574705008139
 31
0.0
  0
LINE
  5
449
330
18
100
AcDbEntity
  8
1
  6
Continuous
100
AcDbLine
 10
207.8556088571263
 20
560.0574705008137
 30
0.0
 11
230.8334078571264
 21
560.0574705008137
 31
0.0
  0
ARC
  5
44A
330
18
100
AcDbEntity
  8
1
  6
Continuous
100
AcDbCircle
 10
232.2850098165726
 20
550.212383221437
 30
0.0
 40
8.656658671985146
100
AcDbArc
 50
121.9522016411167
 51
164.282181585918
  0
LINE
  5
44B
330
18
100
AcDbEntity
  8
1
  6
Continuous
100
AcDbLine
 10
220.2379378571265
 20
552.5574705008136
 30
0.0
 11
223.9520448571265
 21
552.5574705008136
 31
0.0
  0
ARC
  5
44C
330
18
100
AcDbEntity
  8
1
  6
Continuous
100
AcDbCircle
 10
220.2379378571265
 20
551.5574705008138
 30
0.0
 40
1.0
100
AcDbArc
 50
90.0
 51
180.0
  0
ARC
  5
44D
330
18
100
AcDbEntity
  8
1
  6
Continuous
100
AcDbCircle
 10
207.8556088571263
 20
563.0574705008139
 30
0.0
 40
3.0
100
AcDbArc
 50
180.0
 51
270.0
  0
LINE
  5
44E
330
18
100
AcDbEntity
  8
1
  6
Continuous
100
AcDbLine
 10
233.8334078571266
 20
557.0574705008139
 30
0.0
 11
233.8334078571266
 21
537.5574705008139
 31
0.0
  0
ARC
  5
44F
330
18
100
AcDbEntity
  8
1
  6
Continuous
100
AcDbCircle
 10
230.8334078571264
 20
557.0574705008139
 30
0.0
 40
3.0
100
AcDbArc
 50
0.0
 51
90.0
  0
LINE
  5
450
330
18
100
AcDbEntity
  8
1
  6
Continuous
100
AcDbLine
 10
207.8556088571263
 20
587.0574705008135
 30
0.0
 11
231.3334078571265
 21
587.0574705008139
 31
0.0
  0
ARC
  5
451
330
18
100
AcDbEntity
  8
1
  6
Continuous
100
AcDbCircle
 10
207.8556088571263
 20
584.0574705008135
 30
0.0
 40
3.0
100
AcDbArc
 50
90.0
 51
180.0
  0
ARC
  5
452
330
18
100
AcDbEntity
  8
1
  6
Continuous
100
AcDbCircle
 10
243.1559348571262
 20
585.5574705008137
 30
0.0
 40
1.5
100
AcDbArc
 50
89.99997800000008
 51
180.0000279999998
  0
LINE
  5
453
330
18
100
AcDbEntity
  8
1
  6
Continuous
100
AcDbLine
 10
241.6559348571265
 20
585.5574697677757
 30
0.0
 11
249.6559348571263
 21
585.5574700295749
 31
0.0
  0
ARC
  5
454
330
18
100
AcDbEntity
  8
1
  6
Continuous
100
AcDbCircle
 10
236.6402514745946
 20
585.3941384702498
 30
0.0
 40
2.928887909087888
100
AcDbArc
 50
196.5983417393053
 51
284.4160020524942
  0
ARC
  5
455
330
18
100
AcDbEntity
  8
1
  6
Continuous
100
AcDbCircle
 10
231.3334078571265
 20
584.5574705008138
 30
0.0
 40
2.5
100
AcDbArc
 50
0.0
 51
90.0
  0
LINE
  5
456
330
18
100
AcDbEntity
  8
1
  6
Continuous
100
AcDbLine
 10
240.5391899699659
 20
585.0574705008138
 30
0.0
 11
238.5117919843816
 21
585.0574705008138
 31
0.0
  0
LINE
  5
457
330
18
100
AcDbEntity
  8
1
  6
Continuous
100
AcDbLine
 10
238.5117919843816
 20
583.9813695789358
 30
0.0
 11
238.5117919843816
 21
585.057470500814
 31
0.0
  0
ARC
  5
458
330
18
100
AcDbEntity
  8
1
  6
Continuous
100
AcDbCircle
 10
241.8564639135458
 20
580.1278153682569
 30
0.0
 40
5.102617991617603
100
AcDbArc
 50
104.9607027754224
 51
151.5651907210766
  0
ARC
  5
459
330
18
100
AcDbEntity
  8
1
  6
Continuous
100
AcDbCircle
 10
248.1559348571265
 20
585.5574705008137
 30
0.0
 40
1.5
100
AcDbArc
 50
359.9999819999999
 51
89.99996399999997
  0
LINE
  5
45A
330
18
100
AcDbEntity
  8
1
  6
Continuous
100
AcDbLine
 10
248.1559348571265
 20
585.5574705008137
 30
0.0
 11
248.1559348571265
 21
585.0574705008138
 31
0.0
  0
LINE
  5
45B
330
18
100
AcDbEntity
  8
1
  6
Continuous
100
AcDbLine
 10
243.1559348571262
 20
585.5574705008137
 30
0.0
 11
243.1559348571262
 21
585.0574705008138
 31
0.0
  0
LINE
  5
45C
330
18
100
AcDbEntity
  8
1
  6
Continuous
100
AcDbLine
 10
248.1559318571263
 20
587.0574705008139
 30
0.0
 11
243.1559318571263
 21
587.0574705008139
 31
0.0
  0
LINE
  5
45D
330
18
100
AcDbEntity
  8
1
  6
Continuous
100
AcDbLine
 10
253.1737418571263
 20
585.5574705008137
 30
0.0
 11
253.1737418571263
 21
585.0574705008138
 31
0.0
  0
ARC
  5
45E
330
18
100
AcDbEntity
  8
1
  6
Continuous
100
AcDbCircle
 10
253.1737418571263
 20
585.5574705008137
 30
0.0
 40
1.5
100
AcDbArc
 50
89.99997800000008
 51
180.0000279999998
  0
ARC
  5
469
330
18
100
AcDbEntity
  8
1
  6
Continuous
100
AcDbCircle
 10
278.149888658975
 20
584.4440727819227
 30
0.0
 40
4.819371310317405
100
AcDbArc
 50
13.35745536624266
 51
58.59588138581223
  0
LINE
  5
46A
330
18
100
AcDbEntity
  8
1
  6
Continuous
100
AcDbLine
 10
271.1737378571263
 20
585.0574705008138
 30
0.0
 11
282.8388848571266
 21
585.0574705008138
 31
0.0
  0
LINE
  5
46B
330
18
100
AcDbEntity
  8
1
  6
Continuous
100
AcDbLine
 10
271.1737378571263
 20
582.5574705008139
 30
0.0
 11
282.8388848571266
 21
582.5574705008139
 31
0.0
  0
LINE
  5
46C
330
18
100
AcDbEntity
  8
1
  6
Continuous
100
AcDbLine
 10
263.68248603235
 20
585.5574705008137
 30
0.0
 11
282.8388848571266
 21
585.5574705008137
 31
0.0
  0
LINE
  5
46D
330
18
100
AcDbEntity
  8
1
  6
Continuous
100
AcDbLine
 10
263.68248603235
 20
588.5574705008139
 30
0.0
 11
297.6737578571264
 21
588.5574705008138
 31
0.0
  0
ARC
  5
46E
330
18
100
AcDbEntity
  8
1
  6
Continuous
100
AcDbCircle
 10
273.6737338571263
 20
589.0574705008138
 30
0.0
 40
1.5
100
AcDbArc
 50
359.9999819999999
 51
89.99996399999997
  0
ARC
  5
46F
330
18
100
AcDbEntity
  8
1
  6
Continuous
100
AcDbCircle
 10
268.6737338571266
 20
589.0574705008138
 30
0.0
 40
1.5
100
AcDbArc
 50
89.99997800000008
 51
180.0000279999998
  0
LINE
  5
470
330
18
100
AcDbEntity
  8
1
  6
Continuous
100
AcDbLine
 10
267.1737338571267
 20
589.0574697677755
 30
0.0
 11
275.1737338571263
 21
589.0574700295746
 31
0.0
  0
ARC
  5
471
330
18
100
AcDbEntity
  8
1
  6
Continuous
100
AcDbCircle
 10
258.1737418571265
 20
585.5574705008137
 30
0.0
 40
1.5
100
AcDbArc
 50
359.9999819999999
 51
89.99996399999997
  0
LINE
  5
472
330
18
100
AcDbEntity
  8
1
  6
Continuous
100
AcDbLine
 10
258.1737418571265
 20
585.5574705008137
 30
0.0
 11
258.1737418571265
 21
585.0574705008138
 31
0.0
  0
LINE
  5
473
330
18
100
AcDbEntity
  8
1
  6
Continuous
100
AcDbLine
 10
268.6737338571266
 20
589.0574705008138
 30
0.0
 11
268.6737338571266
 21
588.5574705008138
 31
0.0
  0
LINE
  5
474
330
18
100
AcDbEntity
  8
1
  6
Continuous
100
AcDbLine
 10
268.6737338571262
 20
585.5574705008137
 30
0.0
 11
268.6737338571266
 21
585.0574705008138
 31
0.0
  0
LINE
  5
475
330
18
100
AcDbEntity
  8
1
  6
Continuous
100
AcDbLine
 10
263.68248603235
 20
585.5574705008137
 30
0.0
 11
263.68248603235
 21
588.5574705008138
 31
0.0
  0
LINE
  5
476
330
18
100
AcDbEntity
  8
1
  6
Continuous
100
AcDbLine
 10
273.6737338571263
 20
589.0574705008138
 30
0.0
 11
273.6737338571263
 21
588.5574705008138
 31
0.0
  0
LINE
  5
477
330
18
100
AcDbEntity
  8
1
  6
Continuous
100
AcDbLine
 10
273.6737338571263
 20
585.5574705008137
 30
0.0
 11
273.6737338571263
 21
585.0574705008138
 31
0.0
  0
LINE
  5
478
330
18
100
AcDbEntity
  8
1
  6
Continuous
100
AcDbLine
 10
277.3336261359787
 20
582.5574705008139
 30
0.0
 11
277.3336261359787
 21
585.0574705008138
 31
0.0
  0
LINE
  5
479
330
18
100
AcDbEntity
  8
1
  6
Continuous
100
AcDbLine
 10
273.6737308571266
 20
590.5574705008135
 30
0.0
 11
268.6737308571266
 21
590.5574705008135
 31
0.0
  0
LINE
  5
47A
330
18
100
AcDbEntity
  8
1
  6
Continuous
100
AcDbLine
 10
297.1737388571264
 20
591.5574705008135
 30
0.0
 11
297.1737388571264
 21
588.5574705008138
 31
0.0
  0
ARC
  5
47B
330
18
100
AcDbEntity
  8
1
  6
Continuous
100
AcDbCircle
 10
290.6737338571263
 20
589.0574705008138
 30
0.0
 40
1.5
100
AcDbArc
 50
359.9999819999999
 51
89.99996399999997
  0
ARC
  5
47C
330
18
100
AcDbEntity
  8
1
  6
Continuous
100
AcDbCircle
 10
285.6737338571264
 20
589.0574705008138
 30
0.0
 40
1.5
100
AcDbArc
 50
89.99997800000008
 51
180.0000279999998
  0
LINE
  5
47D
330
18
100
AcDbEntity
  8
1
  6
Continuous
100
AcDbLine
 10
284.1737338571268
 20
589.0574697677755
 30
0.0
 11
292.1737338571265
 21
589.0574700295746
 31
0.0
  0
LINE
  5
47E
330
18
100
AcDbEntity
  8
1
  6
Continuous
100
AcDbLine
 10
285.6737338571264
 20
589.0574705008138
 30
0.0
 11
285.6737338571264
 21
588.5574705008138
 31
0.0
  0
LINE
  5
47F
330
18
100
AcDbEntity
  8
1
  6
Continuous
100
AcDbLine
 10
290.6737338571263
 20
589.0574705008138
 30
0.0
 11
290.6737338571263
 21
588.5574705008138
 31
0.0
  0
LINE
  5
480
330
18
100
AcDbEntity
  8
1
  6
Continuous
100
AcDbLine
 10
290.6737308571265
 20
590.5574705008135
 30
0.0
 11
285.6737308571266
 21
590.5574705008135
 31
0.0
  0
LINE
  5
481
330
18
100
AcDbEntity
  8
1
  6
Continuous
100
AcDbLine
 10
297.6737578571266
 20
591.5574705008135
 30
0.0
 11
297.1737388571264
 21
591.5574705008135
 31
0.0
  0
LINE
  5
482
330
18
100
AcDbEntity
  8
1
  6
Continuous
100
AcDbLine
 10
304.7846478571266
 20
593.6683895008136
 30
0.0
 11
307.2846498571266
 21
591.1683865008138
 31
0.0
  0
LINE
  5
483
330
18
100
AcDbEntity
  8
1
  6
Continuous
100
AcDbLine
 10
399.6737238571266
 20
413.9397209389157
 30
0.0
 11
399.6737238571266
 21
417.9397209389156
 31
0.0
  0
LINE
  5
484
330
18
100
AcDbEntity
  8
4
  6
CENTER
 48
0.5
100
AcDbLine
 10
348.6737388571266
 20
424.0870299389156
 30
0.0
 11
348.6737388571266
 21
326.7383509389158
 31
0.0
  0
LINE
  5
485
330
18
100
AcDbEntity
  8
4
  6
CENTER
 48
0.5
100
AcDbLine
 10
386.1737388571264
 20
422.9397209389157
 30
0.0
 11
386.1737388571264
 21
408.9397209389156
 31
0.0
  0
LINE
  5
486
330
18
100
AcDbEntity
  8
4
  6
CENTER
 48
0.5
100
AcDbLine
 10
388.6737388571266
 20
422.9397209389157
 30
0.0
 11
388.6737388571266
 21
408.9397209389156
 31
0.0
  0
LINE
  5
487
330
18
100
AcDbEntity
  8
4
  6
CENTER
 48
0.5
100
AcDbLine
 10
311.1737388571268
 20
422.9397209389157
 30
0.0
 11
311.1737388571268
 21
408.9397209389156
 31
0.0
  0
LINE
  5
488
330
18
100
AcDbEntity
  8
4
  6
CENTER
 48
0.5
100
AcDbLine
 10
308.6737388571267
 20
422.9397209389157
 30
0.0
 11
308.6737388571267
 21
408.9397209389156
 31
0.0
  0
LINE
  5
489
330
18
100
AcDbEntity
  8
1
  6
Continuous
100
AcDbLine
 10
323.6737388571266
 20
389.9754629389157
 30
0.0
 11
323.6737388571266
 21
304.0230569389156
 31
0.0
  0
LINE
  5
48A
330
18
100
AcDbEntity
  8
1
  6
Continuous
100
AcDbLine
 10
382.5464538571268
 20
381.9997919389156
 30
0.0
 11
321.2611548571266
 21
293.2778249389156
 31
0.0
  0
LINE
  5
48E
330
18
100
AcDbEntity
  8
1
  6
Continuous
100
AcDbLine
 10
311.6737348571267
 20
403.9397209389155
 30
0.0
 11
385.6737308571266
 21
403.9397209389155
 31
0.0
  0
LINE
  5
48F
330
18
100
AcDbEntity
  8
1
  6
Continuous
100
AcDbLine
 10
312.6737348571268
 20
402.9397209389157
 30
0.0
 11
384.6737308571265
 21
402.9397209389157
 31
0.0
  0
LINE
  5
490
330
18
100
AcDbEntity
  8
1
  6
Continuous
100
AcDbLine
 10
313.1737348571268
 20
405.9397209389157
 30
0.0
 11
384.1737388571266
 21
405.9397209389157
 31
0.0
  0
LINE
  5
491
330
18
100
AcDbEntity
  8
1
  6
Continuous
100
AcDbLine
 10
311.1737348571264
 20
407.4397209389156
 30
0.0
 11
386.1737688571266
 21
407.4397209389156
 31
0.0
  0
LINE
  5
492
330
18
100
AcDbEntity
  8
1
  6
Continuous
100
AcDbLine
 10
310.9198898571266
 20
411.4397209389156
 30
0.0
 11
386.3007148571266
 21
411.4397209389156
 31
0.0
  0
LINE
  5
493
330
18
100
AcDbEntity
  8
1
  6
Continuous
100
AcDbLine
 10
312.5237368571266
 20
399.5897289389156
 30
0.0
 11
312.5237368571266
 21
396.5897289389157
 31
0.0
  0
ARC
  5
494
330
18
100
AcDbEntity
  8
1
  6
Continuous
100
AcDbCircle
 10
320.6737388571267
 20
396.5897189389156
 30
0.0
 40
3.0
100
AcDbArc
 50
269.9999969999999
 51
332.3958229999998
  0
ARC
  5
495
330
18
100
AcDbEntity
  8
1
  6
Continuous
100
AcDbCircle
 10
309.5237338571266
 20
396.5897289389157
 30
0.0
 40
3.0
100
AcDbArc
 50
270.0000179999999
 51
0.0
  0
LINE
  5
496
330
18
100
AcDbEntity
  8
1
  6
Continuous
100
AcDbLine
 10
311.1737368571267
 20
407.4397249389154
 30
0.0
 11
313.1737368571268
 21
405.9397249389157
 31
0.0
  0
LINE
  5
497
330
18
100
AcDbEntity
  8
1
  6
Continuous
100
AcDbLine
 10
312.6737408571266
 20
403.9397309389157
 30
0.0
 11
314.6737398571266
 21
405.9397309389156
 31
0.0
  0
ARC
  5
498
330
18
100
AcDbEntity
  8
1
  6
Continuous
100
AcDbCircle
 10
318.5237338571266
 20
399.5897269389157
 30
0.0
 40
6.0
100
AcDbArc
 50
146.0593739999997
 51
179.9999639999999
  0
ARC
  5
499
330
18
100
AcDbEntity
  8
1
  6
Continuous
100
AcDbCircle
 10
312.6737348571268
 20
403.9397299389156
 30
0.0
 40
1.0
100
AcDbArc
 50
179.999978
 51
270.0000280000002
  0
LINE
  5
49A
330
18
100
AcDbEntity
  8
1
  6
Continuous
100
AcDbLine
 10
313.7608528571266
 20
411.4397319389156
 30
0.0
 11
311.1737298571268
 21
407.4397319389156
 31
0.0
  0
ARC
  5
49B
330
18
100
AcDbEntity
  8
1
  6
Continuous
100
AcDbCircle
 10
387.4831788571266
 20
378.5897119389157
 30
0.0
 40
6.0
100
AcDbArc
 50
91.52284100000036
 51
145.3649759999998
  0
ARC
  5
49C
330
18
100
AcDbEntity
  8
1
  6
Continuous
100
AcDbCircle
 10
382.8904668571266
 20
391.0294659389156
 30
0.0
 40
4.433265
100
AcDbArc
 50
0.0
 51
48.41932000000018
  0
ARC
  5
49D
330
18
100
AcDbEntity
  8
1
  6
Continuous
100
AcDbCircle
 10
386.3007148571266
 20
416.4381019389156
 30
0.0
 40
5.0
100
AcDbArc
 50
268.5460069999998
 51
330.0212819999998
  0
LINE
  5
49E
330
18
100
AcDbEntity
  8
1
  6
Continuous
100
AcDbLine
 10
384.8237398571266
 20
399.5897099389157
 30
0.0
 11
384.8237398571266
 21
396.5897099389156
 31
0.0
  0
ARC
  5
49F
330
18
100
AcDbEntity
  8
1
  6
Continuous
100
AcDbCircle
 10
387.8237398571266
 20
396.5897099389156
 30
0.0
 40
3.0
100
AcDbArc
 50
179.999978
 51
228.419271
  0
LINE
  5
4A0
330
18
100
AcDbEntity
  8
1
  6
Continuous
100
AcDbLine
 10
386.1737428571266
 20
407.4397249389154
 30
0.0
 11
384.1737428571266
 21
405.9397249389157
 31
0.0
  0
LINE
  5
4A1
330
18
100
AcDbEntity
  8
1
  6
Continuous
100
AcDbLine
 10
384.6737528571265
 20
403.9397269389156
 30
0.0
 11
382.6737498571266
 21
405.9397289389155
 31
0.0
  0
ARC
  5
4A2
330
18
100
AcDbEntity
  8
1
  6
Continuous
100
AcDbCircle
 10
378.8237398571266
 20
399.5897119389157
 30
0.0
 40
6.0
100
AcDbArc
 50
0.0
 51
33.94058999999973
  0
ARC
  5
4A3
330
18
100
AcDbEntity
  8
1
  6
Continuous
100
AcDbCircle
 10
384.6737308571265
 20
403.9397129389157
 30
0.0
 40
1.0
100
AcDbArc
 50
269.9999630000001
 51
0.0
  0
LINE
  5
4A4
330
18
100
AcDbEntity
  8
1
  6
Continuous
100
AcDbLine
 10
383.5866358571268
 20
411.4397369389156
 30
0.0
 11
386.1737628571269
 21
407.4397319389156
 31
0.0
  0
LINE
  5
4A5
330
18
100
AcDbEntity
  8
1
  6
Continuous
100
AcDbLine
 10
387.3237398571266
 20
391.0294639389157
 30
0.0
 11
387.3237398571266
 21
384.5897079389157
 31
0.0
  0
LINE
  5
4A6
330
18
100
AcDbEntity
  8
4
  6
CENTER
 48
0.5
100
AcDbLine
 10
348.6737388571266
 20
501.5574705008137
 30
0.0
 11
348.6737388571266
 21
613.5574705008139
 31
0.0
  0
LINE
  5
4A7
330
18
100
AcDbEntity
  8
1
  6
Continuous
100
AcDbLine
 10
399.6737238571266
 20
517.5574705008137
 30
0.0
 11
399.6737238571266
 21
597.5574705008138
 31
0.0
  0
CIRCLE
  5
4A8
330
18
100
AcDbEntity
  8
1
  6
Continuous
100
AcDbCircle
 10
348.6737388571266
 20
557.5574705008135
 30
0.0
 40
39.5
  0
CIRCLE
  5
4A9
330
18
100
AcDbEntity
  8
1
  6
Continuous
100
AcDbCircle
 10
348.6737388571266
 20
557.5574705008135
 30
0.0
 40
35.5
  0
LINE
  5
4AA
330
18
100
AcDbEntity
  8
1
  6
Continuous
100
AcDbLine
 10
308.6737578571263
 20
506.5574705008137
 30
0.0
 11
388.6737238571264
 21
506.5574705008137
 31
0.0
  0
LINE
  5
4AB
330
18
100
AcDbEntity
  8
4
  6
CENTER
 48
0.5
100
AcDbLine
 10
308.6737388571267
 20
523.5574705008136
 30
0.0
 11
308.6737388571267
 21
511.5574705008135
 31
0.0
  0
LINE
  5
4AC
330
18
100
AcDbEntity
  8
4
  6
CENTER
 48
0.5
100
AcDbLine
 10
311.1737388571266
 20
526.0574705008137
 30
0.0
 11
311.1737388571266
 21
514.0574705008137
 31
0.0
  0
LINE
  5
4AD
330
18
100
AcDbEntity
  8
1
  6
Continuous
100
AcDbLine
 10
312.5628248571266
 20
513.6684095008137
 30
0.0
 11
315.0628268571267
 21
516.1684125008137
 31
0.0
  0
LINE
  5
4AE
330
18
100
AcDbEntity
  8
4
  6
CENTER
 48
0.5
100
AcDbLine
 10
380.1737388571266
 20
520.0574705008135
 30
0.0
 11
392.1737388571266
 21
520.0574705008135
 31
0.0
  0
LINE
  5
4AF
330
18
100
AcDbEntity
  8
4
  6
CENTER
 48
0.5
100
AcDbLine
 10
382.6737388571266
 20
517.5574705008137
 30
0.0
 11
394.6737388571266
 21
517.5574705008137
 31
0.0
  0
ARC
  5
4B0
330
18
100
AcDbEntity
  8
1
  6
Continuous
100
AcDbCircle
 10
386.1737388571267
 20
520.0574705008135
 30
0.0
 40
5.5
100
AcDbArc
 50
44.99996400000005
 51
225.0000369999998
  0
ARC
  5
4B1
330
18
100
AcDbEntity
  8
1
  6
Continuous
100
AcDbCircle
 10
388.6737388571266
 20
517.5574705008137
 30
0.0
 40
5.5
100
AcDbArc
 50
225.0000539999995
 51
44.99994999999985
  0
LINE
  5
4B2
330
18
100
AcDbEntity
  8
4
  6
CENTER
 48
0.5
100
AcDbLine
 10
386.1737388571267
 20
526.0574705008137
 30
0.0
 11
386.1737388571267
 21
514.0574705008137
 31
0.0
  0
LINE
  5
4B3
330
18
100
AcDbEntity
  8
1
  6
Continuous
100
AcDbLine
 10
384.7846448571264
 20
513.6683925008136
 30
0.0
 11
382.2846418571267
 21
516.1683945008136
 31
0.0
  0
LINE
  5
4B4
330
18
100
AcDbEntity
  8
4
  6
CENTER
 48
0.5
100
AcDbLine
 10
388.6737388571266
 20
523.5574705008136
 30
0.0
 11
388.6737388571266
 21
511.5574705008135
 31
0.0
  0
ARC
  5
4B5
330
18
100
AcDbEntity
  8
1
  6
Continuous
100
AcDbCircle
 10
388.6737238571264
 20
517.5574705008137
 30
0.0
 40
11.0
100
AcDbArc
 50
270.0000179999999
 51
0.0
  0
LINE
  5
4B6
330
18
100
AcDbEntity
  8
1
  6
Continuous
100
AcDbLine
 10
392.5628168571264
 20
521.4465475008137
 30
0.0
 11
390.0628138571267
 21
523.9465505008137
 31
0.0
  0
ARC
  5
4B7
330
18
100
AcDbEntity
  8
1
  6
Continuous
100
AcDbCircle
 10
388.6737238571264
 20
597.5574705008138
 30
0.0
 40
11.0
100
AcDbArc
 50
0.0000549999998358
 51
90.00003699999981
  0
CIRCLE
  5
4B8
330
18
100
AcDbEntity
  8
1
  6
Continuous
100
AcDbCircle
 10
348.6737388571266
 20
557.5574705008135
 30
0.0
 40
18.0
  0
CIRCLE
  5
4B9
330
18
100
AcDbEntity
  8
1
  6
Continuous
100
AcDbCircle
 10
348.6737388571266
 20
557.5574705008135
 30
0.0
 40
16.0
  0
LINE
  5
4BA
330
18
100
AcDbEntity
  8
4
  6
CENTER
 48
0.5
100
AcDbLine
 10
311.1737388571266
 20
589.0574705008138
 30
0.0
 11
311.1737388571266
 21
601.0574705008139
 31
0.0
  0
LINE
  5
4BB
330
18
100
AcDbEntity
  8
1
  6
Continuous
100
AcDbLine
 10
312.5628108571266
 20
601.4465315008138
 30
0.0
 11
315.0628138571266
 21
598.9465285008138
 31
0.0
  0
LINE
  5
4BC
330
18
100
AcDbEntity
  8
4
  6
CENTER
 48
0.5
100
AcDbLine
 10
308.6737388571267
 20
591.5574705008135
 30
0.0
 11
308.6737388571267
 21
603.5574705008135
 31
0.0
  0
ARC
  5
4BD
330
18
100
AcDbEntity
  8
1
  6
Continuous
100
AcDbCircle
 10
388.6737388571266
 20
597.5574705008138
 30
0.0
 40
5.5
100
AcDbArc
 50
315.0001049999997
 51
135.0
  0
LINE
  5
4BE
330
18
100
AcDbEntity
  8
4
  6
CENTER
 48
0.5
100
AcDbLine
 10
380.1737388571266
 20
595.0574705008135
 30
0.0
 11
392.1737388571266
 21
595.0574705008135
 31
0.0
  0
LINE
  5
4BF
330
18
100
AcDbEntity
  8
4
  6
CENTER
 48
0.5
100
AcDbLine
 10
382.6737388571266
 20
597.5574705008138
 30
0.0
 11
394.6737388571266
 21
597.5574705008138
 31
0.0
  0
ARC
  5
4C0
330
18
100
AcDbEntity
  8
1
  6
Continuous
100
AcDbCircle
 10
386.1737388571267
 20
595.0574705008135
 30
0.0
 40
5.5
100
AcDbArc
 50
135.0
 51
315.000074
  0
LINE
  5
4C1
330
18
100
AcDbEntity
  8
4
  6
CENTER
 48
0.5
100
AcDbLine
 10
386.1737388571267
 20
589.0574705008138
 30
0.0
 11
386.1737388571267
 21
601.0574705008139
 31
0.0
  0
LINE
  5
4C2
330
18
100
AcDbEntity
  8
1
  6
Continuous
100
AcDbLine
 10
384.7846678571269
 20
601.4465425008136
 30
0.0
 11
382.2846538571269
 21
598.9465285008138
 31
0.0
  0
LINE
  5
4C3
330
18
100
AcDbEntity
  8
4
  6
CENTER
 48
0.5
100
AcDbLine
 10
388.6737388571266
 20
591.5574705008135
 30
0.0
 11
388.6737388571266
 21
603.5574705008135
 31
0.0
  0
LINE
  5
4C4
330
18
100
AcDbEntity
  8
1
  6
Continuous
100
AcDbLine
 10
392.5628308571264
 20
593.6683785008137
 30
0.0
 11
390.0628178571266
 21
591.1683655008137
 31
0.0
  0
LINE
  5
4C5
330
18
100
AcDbEntity
  8
1
  6
Continuous
100
AcDbLine
 10
308.6737578571263
 20
608.5574705008135
 30
0.0
 11
388.6737238571264
 21
608.5574705008135
 31
0.0
  0
LINE
  5
5F8
330
18
100
AcDbEntity
  8
4
  6
CENTER
 48
0.5
100
AcDbLine
 10
538.0776148347194
 20
424.0870299389156
 30
0.0
 11
538.0776148347194
 21
219.3547679389158
 31
0.0
  0
LINE
  5
612
330
18
100
AcDbEntity
  8
4
  6
CENTER
 48
0.5
100
AcDbLine
 10
498.0776148347193
 20
422.9397209389157
 30
0.0
 11
498.0776148347193
 21
408.9397209389156
 31
0.0
  0
LINE
  5
613
330
18
100
AcDbEntity
  8
4
  6
CENTER
 48
0.5
100
AcDbLine
 10
500.5776148347195
 20
422.9397209389157
 30
0.0
 11
500.5776148347195
 21
408.9397209389156
 31
0.0
  0
LINE
  5
614
330
18
100
AcDbEntity
  8
4
  6
CENTER
 48
0.5
100
AcDbLine
 10
575.5776148347194
 20
422.9397209389157
 30
0.0
 11
575.5776148347194
 21
408.9397209389156
 31
0.0
  0
LINE
  5
615
330
18
100
AcDbEntity
  8
4
  6
CENTER
 48
0.5
100
AcDbLine
 10
578.0776148347195
 20
422.9397209389157
 30
0.0
 11
578.0776148347195
 21
408.9397209389156
 31
0.0
  0
LINE
  5
617
330
18
100
AcDbEntity
  8
1
  6
Continuous
100
AcDbLine
 10
566.0776148347196
 20
344.9896246365367
 30
0.0
 11
566.0776148347196
 21
285.9397139389157
 31
0.0
  0
LINE
  5
618
330
18
100
AcDbEntity
  8
1
  6
Continuous
100
AcDbLine
 10
569.0776148347195
 20
304.5891120597155
 30
0.0
 11
569.0776148347195
 21
285.9397139389157
 31
0.0
  0
LINE
  5
619
330
18
100
AcDbEntity
  8
1
  6
Continuous
100
AcDbLine
 10
510.0776148347196
 20
344.9895725402774
 30
0.0
 11
510.0776148347192
 21
285.9397139389157
 31
0.0
  0
LINE
  5
61A
330
18
100
AcDbEntity
  8
1
  6
Continuous
100
AcDbLine
 10
507.0776148347193
 20
304.5891120597163
 30
0.0
 11
507.0776148347196
 21
285.9397139389157
 31
0.0
  0
ARC
  5
61B
330
18
100
AcDbEntity
  8
1
  6
Continuous
100
AcDbCircle
 10
392.1988918347194
 20
347.9397139389157
 30
0.0
 40
182.028732
100
AcDbArc
 50
346.4483798166259
 51
0.0000360000000476
  0
ARC
  5
61C
330
18
100
AcDbEntity
  8
1
  6
Continuous
100
AcDbCircle
 10
683.9563378347194
 20
347.9397139389157
 30
0.0
 40
182.028732
100
AcDbArc
 50
180.0
 51
193.5516201834275
  0
LINE
  5
61D
330
18
100
AcDbEntity
  8
4
  6
CENTER
 48
0.5
100
AcDbLine
 10
498.0228968347196
 20
302.9397139389157
 30
0.0
 11
588.0776148347194
 21
302.9397139389157
 31
0.0
  0
LINE
  5
61F
330
18
100
AcDbEntity
  8
1
  6
Continuous
100
AcDbLine
 10
572.0776148347193
 20
313.4397139389156
 30
0.0
 11
572.0776148347193
 21
292.4397139389157
 31
0.0
  0
LINE
  5
620
330
18
100
AcDbEntity
  8
1
  6
Continuous
100
AcDbLine
 10
579.0776148347195
 20
311.1669549389156
 30
0.0
 11
579.0776148347195
 21
294.7124719389157
 31
0.0
  0
ARC
  5
622
330
18
100
AcDbEntity
  8
1
  6
Continuous
100
AcDbCircle
 10
575.4442838347195
 20
294.7124719389157
 30
0.0
 40
3.633333
100
AcDbArc
 50
310.9927320000001
 51
49.00727199999979
  0
ARC
  5
623
330
18
100
AcDbEntity
  8
1
  6
Continuous
100
AcDbCircle
 10
575.7109458347192
 20
294.7124719389157
 30
0.0
 40
3.633333
100
AcDbArc
 50
130.9927340000001
 51
229.007266
  0
LINE
  5
624
330
18
100
AcDbEntity
  8
1
  6
Continuous
100
AcDbLine
 10
569.0776148347195
 20
292.4397139389157
 30
0.0
 11
572.0776148347193
 21
292.4397139389157
 31
0.0
  0
LINE
  5
625
330
18
100
AcDbEntity
  8
1
  6
Continuous
100
AcDbLine
 10
577.8276148347194
 20
291.9700559389156
 30
0.0
 11
573.3276148347195
 21
291.9700559389156
 31
0.0
  0
LINE
  5
62A
330
18
100
AcDbEntity
  8
1
  6
Continuous
100
AcDbLine
 10
566.0776148347196
 20
285.9397139389157
 30
0.0
 11
569.0776148347195
 21
285.9397139389157
 31
0.0
  0
LINE
  5
62B
330
18
100
AcDbEntity
  8
1
  6
Continuous
100
AcDbLine
 10
570.9283221855372
 20
313.4397139389156
 30
0.0
 11
572.0776148347193
 21
313.4397139389156
 31
0.0
  0
ARC
  5
62C
330
18
100
AcDbEntity
  8
1
  6
Continuous
100
AcDbCircle
 10
584.7359398347196
 20
302.9397139389157
 30
0.0
 40
12.65833399999999
100
AcDbArc
 50
154.3229729999997
 51
205.6770270000001
  0
LINE
  5
62D
330
18
100
AcDbEntity
  8
1
  6
Continuous
100
AcDbLine
 10
582.3276148347193
 20
308.9397139389157
 30
0.0
 11
582.3276148347193
 21
296.9397139389156
 31
0.0
  0
ARC
  5
62E
330
18
100
AcDbEntity
  8
1
  6
Continuous
100
AcDbCircle
 10
566.4192898347196
 20
302.9397139389157
 30
0.0
 40
12.65833399999999
100
AcDbArc
 50
334.3229780000001
 51
25.67702600000014
  0
LINE
  5
62F
330
18
100
AcDbEntity
  8
1
  6
Continuous
100
AcDbLine
 10
583.0776148347195
 20
308.1897139389156
 30
0.0
 11
583.0776148347195
 21
297.6897139389156
 31
0.0
  0
LINE
  5
630
330
18
100
AcDbEntity
  8
1
  6
Continuous
100
AcDbLine
 10
582.3276148347193
 20
296.9397139389156
 30
0.0
 11
579.0776148347195
 21
296.9397139389156
 31
0.0
  0
LINE
  5
631
330
18
100
AcDbEntity
  8
2
  6
Continuous
100
AcDbLine
 10
583.0776148347195
 20
298.4397139389157
 30
0.0
 11
579.0776148347195
 21
298.4397139389157
 31
0.0
  0
LINE
  5
632
330
18
100
AcDbEntity
  8
1
  6
Continuous
100
AcDbLine
 10
583.0776148347195
 20
297.6897139389156
 30
0.0
 11
582.3276148347193
 21
296.9397139389156
 31
0.0
  0
LINE
  5
633
330
18
100
AcDbEntity
  8
1
  6
Continuous
100
AcDbLine
 10
577.8276148347194
 20
297.4548889389156
 30
0.0
 11
573.3276148347195
 21
297.4548889389156
 31
0.0
  0
LINE
  5
634
330
18
100
AcDbEntity
  8
1
  6
Continuous
100
AcDbLine
 10
582.3276148347193
 20
308.9397139389157
 30
0.0
 11
579.0776148347195
 21
308.9397139389157
 31
0.0
  0
LINE
  5
635
330
18
100
AcDbEntity
  8
2
  6
Continuous
100
AcDbLine
 10
583.0776148347195
 20
307.4397139389156
 30
0.0
 11
579.0776148347195
 21
307.4397139389156
 31
0.0
  0
LINE
  5
636
330
18
100
AcDbEntity
  8
1
  6
Continuous
100
AcDbLine
 10
583.0776148347195
 20
308.1897139389156
 30
0.0
 11
582.3276148347193
 21
308.9397139389157
 31
0.0
  0
ARC
  5
637
330
18
100
AcDbEntity
  8
1
  6
Continuous
100
AcDbCircle
 10
575.7109458347192
 20
311.1669549389156
 30
0.0
 40
3.633333
100
AcDbArc
 50
130.9927340000001
 51
229.007266
  0
ARC
  5
638
330
18
100
AcDbEntity
  8
1
  6
Continuous
100
AcDbCircle
 10
575.4442838347195
 20
311.1669549389156
 30
0.0
 40
3.633333
100
AcDbArc
 50
310.9927320000001
 51
49.00727199999979
  0
LINE
  5
639
330
18
100
AcDbEntity
  8
1
  6
Continuous
100
AcDbLine
 10
577.8276148347194
 20
308.4245389389157
 30
0.0
 11
573.3276148347195
 21
308.4245389389157
 31
0.0
  0
LINE
  5
63A
330
18
100
AcDbEntity
  8
1
  6
Continuous
100
AcDbLine
 10
577.8276148347194
 20
313.9093719389157
 30
0.0
 11
573.3276148347195
 21
313.9093719389157
 31
0.0
  0
ARC
  5
640
330
18
100
AcDbEntity
  8
1
  6
Continuous
100
AcDbCircle
 10
526.6192868347197
 20
302.9397139389157
 30
0.0
 40
23.541666
100
AcDbArc
 50
154.7944138678661
 51
209.2417950000001
  0
LINE
  5
641
330
18
100
AcDbEntity
  8
1
  6
Continuous
100
AcDbLine
 10
506.0776148347196
 20
309.2923443335062
 30
0.0
 11
506.0776148347196
 21
291.4397139389156
 31
0.0
  0
LINE
  5
643
330
18
100
AcDbEntity
  8
1
  6
Continuous
100
AcDbLine
 10
510.0776148347192
 20
285.9397139389157
 30
0.0
 11
507.0776148347196
 21
285.9397139389157
 31
0.0
  0
LINE
  5
648
330
18
100
AcDbEntity
  8
1
  6
Continuous
100
AcDbLine
 10
507.0776148347196
 20
291.4397139389156
 30
0.0
 11
506.0776148347196
 21
291.4397139389156
 31
0.0
  0
LINE
  5
64E
330
18
100
AcDbEntity
  8
4
  6
CENTER
 48
0.5
100
AcDbLine
 10
579.2276088347192
 20
385.9397139389157
 30
0.0
 11
496.9276208347196
 21
385.9397139389157
 31
0.0
  0
LINE
  5
64F
330
18
100
AcDbEntity
  8
4
  6
CENTER
 48
0.5
100
AcDbLine
 10
579.2276088347192
 20
382.9397249389156
 30
0.0
 11
496.9276208347196
 21
382.9397249389156
 31
0.0
  0
LINE
  5
650
330
18
100
AcDbEntity
  8
4
  6
CENTER
 48
0.5
100
AcDbLine
 10
579.2276088347192
 20
389.9397289389156
 30
0.0
 11
496.9276208347196
 21
389.9397289389156
 31
0.0
  0
LINE
  5
651
330
18
100
AcDbEntity
  8
4
  6
CENTER
 48
0.5
100
AcDbLine
 10
579.2276088347192
 20
368.6721849389156
 30
0.0
 11
496.9276208347196
 21
368.6721849389156
 31
0.0
  0
LINE
  5
659
330
18
100
AcDbEntity
  8
1
  6
Continuous
100
AcDbLine
 10
563.5776148347193
 20
354.7542509389156
 30
0.0
 11
555.5776148347196
 21
354.7542509389156
 31
0.0
  0
LINE
  5
65C
330
18
100
AcDbEntity
  8
1
  6
Continuous
100
AcDbLine
 10
589.0776148347196
 20
417.9397209389156
 30
0.0
 11
487.0776148347196
 21
417.9397209389156
 31
0.0
  0
LINE
  5
65E
330
18
100
AcDbEntity
  8
1
  6
Continuous
100
AcDbLine
 10
575.8314598347192
 20
411.4397209389156
 30
0.0
 11
500.4506308347195
 21
411.4397209389156
 31
0.0
  0
LINE
  5
65F
330
18
100
AcDbEntity
  8
1
  6
Continuous
100
AcDbLine
 10
575.5776148347194
 20
407.4397209389156
 30
0.0
 11
500.5775838347195
 21
407.4397209389156
 31
0.0
  0
LINE
  5
660
330
18
100
AcDbEntity
  8
1
  6
Continuous
100
AcDbLine
 10
573.5776148347195
 20
405.9397209389157
 30
0.0
 11
502.5776148347193
 21
405.9397209389157
 31
0.0
  0
LINE
  5
661
330
18
100
AcDbEntity
  8
1
  6
Continuous
100
AcDbLine
 10
574.0776148347195
 20
402.9397209389157
 30
0.0
 11
502.0776148347193
 21
402.9397209389157
 31
0.0
  0
LINE
  5
662
330
18
100
AcDbEntity
  8
1
  6
Continuous
100
AcDbLine
 10
575.0776148347195
 20
403.9397209389155
 30
0.0
 11
501.0776148347196
 21
403.9397209389155
 31
0.0
  0
LINE
  5
663
330
18
100
AcDbEntity
  8
1
  6
Continuous
100
AcDbLine
 10
589.0776148347196
 20
413.9397209389157
 30
0.0
 11
487.0776148347196
 21
413.9397209389157
 31
0.0
  0
LINE
  5
666
330
18
100
AcDbEntity
  8
1
  6
Continuous
100
AcDbLine
 10
574.2276088347193
 20
399.5897079389156
 30
0.0
 11
574.2276088347193
 21
347.9397139389157
 31
0.0
  0
ARC
  5
67B
330
18
100
AcDbEntity
  8
1
  6
Continuous
100
AcDbCircle
 10
568.2276088347195
 20
399.5897099389157
 30
0.0
 40
6.0
100
AcDbArc
 50
0.0000500000001538
 51
33.94063899999991
  0
LINE
  5
67C
330
18
100
AcDbEntity
  8
1
  6
Continuous
100
AcDbLine
 10
589.0776148347196
 20
413.9397209389157
 30
0.0
 11
589.0776148347196
 21
417.9397209389156
 31
0.0
  0
ARC
  5
67D
330
18
100
AcDbEntity
  8
1
  6
Continuous
100
AcDbCircle
 10
575.7045988347194
 20
416.4381229389156
 30
0.0
 40
5.0
100
AcDbArc
 50
268.5460119999995
 51
330.0212939999998
  0
LINE
  5
67E
330
18
100
AcDbEntity
  8
1
  6
Continuous
100
AcDbLine
 10
574.0776188347195
 20
403.9397359389156
 30
0.0
 11
572.0776168347192
 21
405.9397379389156
 31
0.0
  0
ARC
  5
67F
330
18
100
AcDbEntity
  8
1
  6
Continuous
100
AcDbCircle
 10
574.0776148347195
 20
403.9397329389156
 30
0.0
 40
1.0
100
AcDbArc
 50
269.9999719999996
 51
0.0000090000000172
  0
LINE
  5
680
330
18
100
AcDbEntity
  8
1
  6
Continuous
100
AcDbLine
 10
572.9905178347194
 20
411.4397449389156
 30
0.0
 11
575.5776378347194
 21
407.4397499389156
 31
0.0
  0
LINE
  5
681
330
18
100
AcDbEntity
  8
1
  6
Continuous
100
AcDbLine
 10
575.5776308347192
 20
407.4397329389156
 30
0.0
 11
573.5776318347196
 21
405.9397329389156
 31
0.0
  0
LINE
  5
6A3
330
18
100
AcDbEntity
  8
1
  6
Continuous
100
AcDbLine
 10
501.9276208347194
 20
399.5897079389156
 30
0.0
 11
501.9276208347194
 21
347.9397139389157
 31
0.0
  0
LINE
  5
6AC
330
18
100
AcDbEntity
  8
1
  6
Continuous
100
AcDbLine
 10
520.5776148347195
 20
343.4961559389157
 30
0.0
 11
510.0776148347192
 21
343.4961559389157
 31
0.0
  0
ARC
  5
6D5
330
18
100
AcDbEntity
  8
1
  6
Continuous
100
AcDbCircle
 10
507.9276208347193
 20
399.5897099389157
 30
0.0
 40
6.0
100
AcDbArc
 50
146.0593969999999
 51
179.9999859999998
  0
ARC
  5
6DD
330
18
100
AcDbEntity
  8
1
  6
Continuous
100
AcDbCircle
 10
500.4506308347195
 20
416.4380999389156
 30
0.0
 40
5.0
100
AcDbArc
 50
209.9786970000002
 51
271.4539789999999
  0
ARC
  5
6DE
330
18
100
AcDbEntity
  8
1
  6
Continuous
100
AcDbCircle
 10
502.0776148347193
 20
403.9397099389156
 30
0.0
 40
1.0
100
AcDbArc
 50
179.9999859999998
 51
270.0000229999997
  0
LINE
  5
6DF
330
18
100
AcDbEntity
  8
1
  6
Continuous
100
AcDbLine
 10
500.5776388347197
 20
407.4397089389156
 30
0.0
 11
502.5776398347196
 21
405.9397089389156
 31
0.0
  0
LINE
  5
6E0
330
18
100
AcDbEntity
  8
1
  6
Continuous
100
AcDbLine
 10
503.1647138347194
 20
411.4397419389156
 30
0.0
 11
500.5775948347195
 21
407.4397459389157
 31
0.0
  0
LINE
  5
6E1
330
18
100
AcDbEntity
  8
1
  6
Continuous
100
AcDbLine
 10
502.0776088347195
 20
403.9397379389156
 30
0.0
 11
504.0776048347196
 21
405.9397349389156
 31
0.0
  0
LINE
  5
6E2
330
18
100
AcDbEntity
  8
1
  6
Continuous
100
AcDbLine
 10
487.0776148347196
 20
413.9397209389157
 30
0.0
 11
487.0776148347196
 21
417.9397209389156
 31
0.0
  0
LINE
  5
77C
330
18
100
AcDbEntity
  8
4
  6
CENTER
 48
0.5
100
AcDbLine
 10
848.4814908123123
 20
302.9397289389156
 30
0.0
 11
688.4814908123121
 21
302.9397289389156
 31
0.0
  0
LINE
  5
782
330
18
100
AcDbEntity
  8
1
  6
Continuous
100
AcDbLine
 10
778.4814718123123
 20
413.9397209389157
 30
0.0
 11
676.4815058123121
 21
413.9397209389157
 31
0.0
  0
LINE
  5
783
330
18
100
AcDbEntity
  8
1
  6
Continuous
100
AcDbLine
 10
778.4814718123123
 20
417.9397209389156
 30
0.0
 11
676.4815058123121
 21
417.9397209389156
 31
0.0
  0
LINE
  5
785
330
18
100
AcDbEntity
  8
1
  6
Continuous
100
AcDbLine
 10
693.6087758123123
 20
381.9997919389156
 30
0.0
 11
754.8940748123122
 21
293.2778249389156
 31
0.0
  0
LINE
  5
786
330
18
100
AcDbEntity
  8
1
  6
Continuous
100
AcDbLine
 10
764.4814948123123
 20
403.9397209389155
 30
0.0
 11
690.4814988123123
 21
403.9397209389155
 31
0.0
  0
LINE
  5
787
330
18
100
AcDbEntity
  8
1
  6
Continuous
100
AcDbLine
 10
763.4814948123121
 20
402.9397209389157
 30
0.0
 11
691.4814988123123
 21
402.9397209389157
 31
0.0
  0
LINE
  5
788
330
18
100
AcDbEntity
  8
1
  6
Continuous
100
AcDbLine
 10
762.981494812312
 20
405.9397209389157
 30
0.0
 11
691.9814908123123
 21
405.9397209389157
 31
0.0
  0
LINE
  5
789
330
18
100
AcDbEntity
  8
1
  6
Continuous
100
AcDbLine
 10
764.9814948123123
 20
407.4397209389156
 30
0.0
 11
689.9814608123123
 21
407.4397209389156
 31
0.0
  0
LINE
  5
78A
330
18
100
AcDbEntity
  8
1
  6
Continuous
100
AcDbLine
 10
765.2353398123123
 20
411.4397209389156
 30
0.0
 11
689.8545148123123
 21
411.4397209389156
 31
0.0
  0
LINE
  5
78B
330
18
100
AcDbEntity
  8
4
  6
CENTER
 48
0.5
100
AcDbLine
 10
768.4814908123123
 20
382.9397289389156
 30
0.0
 11
768.4814908123123
 21
222.9397289389158
 31
0.0
  0
LINE
  5
78E
330
18
100
AcDbEntity
  8
4
  6
CENTER
 48
0.5
100
AcDbLine
 10
767.4814908123123
 20
422.9397209389157
 30
0.0
 11
767.4814908123123
 21
408.9397209389156
 31
0.0
  0
LINE
  5
78F
330
18
100
AcDbEntity
  8
4
  6
CENTER
 48
0.5
100
AcDbLine
 10
764.9814908123121
 20
422.9397209389157
 30
0.0
 11
764.9814908123121
 21
408.9397209389156
 31
0.0
  0
LINE
  5
790
330
18
100
AcDbEntity
  8
4
  6
CENTER
 48
0.5
100
AcDbLine
 10
727.4814908123123
 20
424.0870299389156
 30
0.0
 11
727.4814908123123
 21
326.7383509389158
 31
0.0
  0
LINE
  5
791
330
18
100
AcDbEntity
  8
4
  6
CENTER
 48
0.5
100
AcDbLine
 10
836.4992978123122
 20
368.6721889389157
 30
0.0
 11
824.4992978123123
 21
368.6721889389157
 31
0.0
  0
LINE
  5
792
330
18
100
AcDbEntity
  8
5
  6
PHANTOM
 48
0.3
100
AcDbLine
 10
832.3698438123123
 20
379.6379489389157
 30
0.0
 11
827.2035318123123
 21
383.6021989389156
 31
0.0
  0
ARC
  5
793
330
18
100
AcDbEntity
  8
5
  6
PHANTOM
 48
0.3
100
AcDbCircle
 10
829.0745158123124
 20
375.0376939389156
 30
0.0
 40
3.0
100
AcDbArc
 50
37.49997399999996
 51
127.4999899999999
  0
LINE
  5
794
330
18
100
AcDbEntity
  8
5
  6
PHANTOM
 48
0.3
100
AcDbLine
 10
834.2803478123123
 20
359.7244409389156
 30
0.0
 11
826.6271328123123
 21
350.4816979389157
 31
0.0
  0
CIRCLE
  5
795
330
18
100
AcDbEntity
  8
5
  6
PHANTOM
 48
0.3
100
AcDbCircle
 10
828.7504268123123
 20
364.2522559389157
 30
0.0
 40
4.0
  0
ARC
  5
796
330
18
100
AcDbEntity
  8
5
  6
PHANTOM
 48
0.3
100
AcDbCircle
 10
828.8887558123123
 20
364.1888399389157
 30
0.0
 40
7.0
100
AcDbArc
 50
320.3744339999999
 51
137.9168309999998
  0
LINE
  5
797
330
18
100
AcDbEntity
  8
5
  6
PHANTOM
 48
0.3
100
AcDbLine
 10
856.0388428123122
 20
348.7408739389156
 30
0.0
 11
826.3783048123123
 21
376.7502299389156
 31
0.0
  0
ARC
  5
798
330
18
100
AcDbEntity
  8
5
  6
PHANTOM
 48
0.3
100
AcDbCircle
 10
831.0579148123121
 20
376.5596059389157
 30
0.0
 40
3.0
100
AcDbArc
 50
37.49993300000029
 51
127.4999899999999
  0
LINE
  5
799
330
18
100
AcDbEntity
  8
1
  6
Continuous
100
AcDbLine
 10
832.9814948123123
 20
398.4397139389157
 30
0.0
 11
804.9814948123124
 21
398.4397139389157
 31
0.0
  0
LINE
  5
79A
330
18
100
AcDbEntity
  8
1
  6
Continuous
100
AcDbLine
 10
852.2031838123123
 20
345.9961519389157
 30
0.0
 11
828.5175008123122
 21
387.0209539389156
 31
0.0
  0
LINE
  5
79B
330
18
100
AcDbEntity
  8
1
  6
Continuous
100
AcDbLine
 10
836.4774078123122
 20
364.7551609389156
 30
0.0
 11
829.8454318123123
 21
354.7543119389156
 31
0.0
  0
ARC
  5
79C
330
18
100
AcDbEntity
  8
1
  6
Continuous
100
AcDbCircle
 10
830.6435928123123
 20
368.6237919389157
 30
0.0
 40
7.0
100
AcDbArc
 50
326.45001
 51
143.9924109999996
  0
CIRCLE
  5
79D
330
18
100
AcDbEntity
  8
1
  6
Continuous
100
AcDbCircle
 10
830.4992978123122
 20
368.6721889389157
 30
0.0
 40
4.0
  0
ARC
  5
79E
330
18
100
AcDbEntity
  8
1
  6
Continuous
100
AcDbCircle
 10
833.1675638123122
 20
392.7840529389157
 30
0.0
 40
3.0
100
AcDbArc
 50
74.99997299999984
 51
164.9999889999999
  0
LINE
  5
79F
330
18
100
AcDbEntity
  8
1
  6
Continuous
100
AcDbLine
 10
830.9168158123123
 20
395.9753289389157
 30
0.0
 11
828.2088838123124
 21
385.8691869389156
 31
0.0
  0
LINE
  5
7A0
330
18
100
AcDbEntity
  8
5
  6
PHANTOM
 48
0.3
100
AcDbLine
 10
861.2683618123122
 20
348.6873259389156
 30
0.0
 11
860.4428138123124
 21
349.7631999389156
 31
0.0
  0
LINE
  5
7A1
330
18
100
AcDbEntity
  8
5
  6
PHANTOM
 48
0.3
100
AcDbLine
 10
861.2683568123122
 20
348.6873319389157
 30
0.0
 11
858.0949438123123
 21
346.2522869389156
 31
0.0
  0
LINE
  5
7A2
330
18
100
AcDbEntity
  8
5
  6
PHANTOM
 48
0.3
100
AcDbLine
 10
856.1197138123123
 20
348.8264719389157
 30
0.0
 11
832.8313588123123
 21
379.1764459389156
 31
0.0
  0
LINE
  5
7A3
330
18
100
AcDbEntity
  8
5
  6
PHANTOM
 48
0.3
100
AcDbLine
 10
854.3224118123124
 20
346.9232469389156
 30
0.0
 11
836.1460498123122
 21
364.0877419389156
 31
0.0
  0
LINE
  5
7A4
330
18
100
AcDbEntity
  8
1
  6
Continuous
100
AcDbLine
 10
850.0381208123123
 20
344.7461519389158
 30
0.0
 11
837.5381188123123
 21
366.3967869389156
 31
0.0
  0
LINE
  5
7A5
330
18
100
AcDbEntity
  8
5
  6
PHANTOM
 48
0.3
100
AcDbLine
 10
858.7852448123122
 20
351.6491139389156
 30
0.0
 11
854.3224758123123
 21
346.9232589389156
 31
0.0
  0
LINE
  5
7A6
330
18
100
AcDbEntity
  8
5
  6
PHANTOM
 48
0.3
100
AcDbLine
 10
860.6028358123122
 20
349.9326489389157
 30
0.0
 11
857.8565168123123
 21
347.0244309389157
 31
0.0
  0
ARC
  5
7A7
330
18
100
AcDbEntity
  8
1
  6
Continuous
100
AcDbCircle
 10
852.2032008123122
 20
345.9961639389157
 30
0.0
 40
2.5
100
AcDbArc
 50
209.9999870000003
 51
300.0000309999999
  0
LINE
  5
7A8
330
18
100
AcDbEntity
  8
1
  6
Continuous
100
AcDbLine
 10
855.6673238123122
 20
347.9961399389157
 30
0.0
 11
850.0381588123122
 21
344.7461389389157
 31
0.0
  0
ARC
  5
7A9
330
18
100
AcDbEntity
  8
5
  6
PHANTOM
 48
0.3
100
AcDbCircle
 10
856.5730508123122
 20
348.2356659389156
 30
0.0
 40
2.5
100
AcDbArc
 50
217.4999929999998
 51
307.499988
  0
ARC
  5
7AA
330
18
100
AcDbEntity
  8
5
  6
PHANTOM
 48
0.3
100
AcDbCircle
 10
856.0388718123125
 20
348.7409069389157
 30
0.0
 40
2.5
100
AcDbArc
 50
226.639974
 51
316.6400109999997
  0
LINE
  5
7AB
330
18
100
AcDbEntity
  8
1
  6
Continuous
100
AcDbLine
 10
856.9173278123123
 20
345.8310699389156
 30
0.0
 11
853.4532268123124
 21
343.8310689389156
 31
0.0
  0
LINE
  5
7AC
330
18
100
AcDbEntity
  8
1
  6
Continuous
100
AcDbLine
 10
856.9172928123123
 20
345.8310929389157
 30
0.0
 11
855.6672998123122
 21
347.9961429389156
 31
0.0
  0
LINE
  5
7AD
330
18
100
AcDbEntity
  8
5
  6
PHANTOM
 48
0.3
100
AcDbLine
 10
860.6028318123122
 20
349.9326449389156
 30
0.0
 11
858.7852068123124
 21
351.6490839389156
 31
0.0
  0
LINE
  5
7AE
330
18
100
AcDbEntity
  8
4
  6
CENTER
 48
0.5
100
AcDbLine
 10
830.4992978123122
 20
362.6721889389155
 30
0.0
 11
830.4992978123122
 21
374.6721889389156
 31
0.0
  0
LINE
  5
7AF
330
18
100
AcDbEntity
  8
5
  6
PHANTOM
 48
0.3
100
AcDbLine
 10
845.1282528123122
 20
359.0441239389156
 30
0.0
 11
831.4545818123123
 21
376.8639979389157
 31
0.0
  0
ARC
  5
7B0
330
18
100
AcDbEntity
  8
5
  6
PHANTOM
 48
0.3
100
AcDbCircle
 10
837.9232408123122
 20
363.7849129389156
 30
0.0
 40
1.5
100
AcDbArc
 50
46.64018799999989
 51
136.6401899999997
  0
LINE
  5
7B1
330
18
100
AcDbEntity
  8
1
  6
Continuous
100
AcDbLine
 10
838.4041518123122
 20
366.8967739389156
 30
0.0
 11
837.2141598123123
 21
366.2097319389157
 31
0.0
  0
LINE
  5
7B2
330
18
100
AcDbEntity
  8
5
  6
PHANTOM
 48
0.3
100
AcDbLine
 10
839.6801548123123
 20
364.1889499389157
 30
0.0
 11
837.9637058123122
 21
362.3713139389157
 31
0.0
  0
ARC
  5
7B3
330
18
100
AcDbEntity
  8
1
  6
Continuous
100
AcDbCircle
 10
839.1541518123123
 20
365.5977379389157
 30
0.0
 40
1.5
100
AcDbArc
 50
29.99998899999975
 51
119.9999639999999
  0
LINE
  5
7B4
330
18
100
AcDbEntity
  8
1
  6
Continuous
100
AcDbLine
 10
840.9532038123122
 20
365.4817099389156
 30
0.0
 11
838.7881408123122
 21
364.2317089389156
 31
0.0
  0
LINE
  5
7B5
330
18
100
AcDbEntity
  8
5
  6
PHANTOM
 48
0.3
100
AcDbLine
 10
836.8326438123123
 20
364.8147889389156
 30
0.0
 11
836.1460738123124
 21
364.0877459389157
 31
0.0
  0
LINE
  5
7B6
330
18
100
AcDbEntity
  8
5
  6
PHANTOM
 48
0.3
100
AcDbLine
 10
838.3101988123124
 20
372.0362419389156
 30
0.0
 11
836.3268278123124
 21
370.5143479389156
 31
0.0
  0
ARC
  5
7B7
330
18
100
AcDbEntity
  8
5
  6
PHANTOM
 48
0.3
100
AcDbCircle
 10
830.8479538123123
 20
377.6545379389157
 30
0.0
 40
2.5
100
AcDbArc
 50
37.49998699999996
 51
52.50001200000006
  0
LINE
  5
7B8
330
18
100
AcDbEntity
  8
1
  6
Continuous
100
AcDbLine
 10
870.6525808123123
 20
385.8457579389157
 30
0.0
 11
833.9440098123123
 21
395.6817889389157
 31
0.0
  0
LINE
  5
7B9
330
18
100
AcDbEntity
  8
1
  6
Continuous
100
AcDbLine
 10
871.2996318123122
 20
388.2605839389157
 30
0.0
 11
833.6285358123122
 21
398.3545219389156
 31
0.0
  0
LINE
  5
7BA
330
18
100
AcDbEntity
  8
1
  6
Continuous
100
AcDbLine
 10
874.7497398123122
 20
391.4772759389157
 30
0.0
 11
873.7144658123124
 21
387.6135799389156
 31
0.0
  0
LINE
  5
7BB
330
18
100
AcDbEntity
  8
1
  6
Continuous
100
AcDbLine
 10
872.3348928123122
 20
392.1243199389156
 30
0.0
 11
870.6525688123123
 21
385.8458029389156
 31
0.0
  0
ARC
  5
7BC
330
18
100
AcDbEntity
  8
1
  6
Continuous
100
AcDbCircle
 10
871.2996518123123
 20
388.2606249389155
 30
0.0
 40
2.5
100
AcDbArc
 50
254.9999919999995
 51
344.999981
  0
LINE
  5
7BD
330
18
100
AcDbEntity
  8
1
  6
Continuous
100
AcDbLine
 10
874.7497168123123
 20
391.4772209389157
 30
0.0
 11
872.3349028123122
 21
392.1242679389156
 31
0.0
  0
LINE
  5
7BE
330
18
100
AcDbEntity
  8
1
  6
Continuous
100
AcDbLine
 10
842.3218758123123
 20
396.0251929389156
 30
0.0
 11
841.6748298123122
 21
393.6103849389157
 31
0.0
  0
ARC
  5
7BF
330
18
100
AcDbEntity
  8
1
  6
Continuous
100
AcDbCircle
 10
833.8146128123124
 20
395.1988709389157
 30
0.0
 40
3.0
100
AcDbArc
 50
74.99993900000024
 51
164.9999889999999
  0
ARC
  5
7C0
330
18
100
AcDbEntity
  8
1
  6
Continuous
100
AcDbCircle
 10
832.9814988123123
 20
395.9397389389156
 30
0.0
 40
2.5
100
AcDbArc
 50
74.9999939999997
 51
90.00001800000005
  0
LINE
  5
7C1
330
18
100
AcDbEntity
  8
1
  6
Continuous
100
AcDbLine
 10
779.4666128123123
 20
358.7780709389156
 30
0.0
 11
785.7663988123123
 21
304.9145629389157
 31
0.0
  0
LINE
  5
7C2
330
18
100
AcDbEntity
  8
1
  6
Continuous
100
AcDbLine
 10
752.4814908123123
 20
389.9754629389157
 30
0.0
 11
752.4814908123123
 21
304.0230569389156
 31
0.0
  0
ARC
  5
7C9
330
18
100
AcDbEntity
  8
1
  6
Continuous
100
AcDbCircle
 10
768.8814928123123
 20
302.9397289389156
 30
0.0
 40
17.0
100
AcDbArc
 50
214.6350600000001
 51
6.670890000000082
  0
LINE
  5
7D0
330
18
100
AcDbEntity
  8
1
  6
Continuous
100
AcDbLine
 10
793.3163448123123
 20
393.5897189389157
 30
0.0
 11
755.4814908123121
 21
393.5897189389157
 31
0.0
  0
ARC
  5
7D1
330
18
100
AcDbEntity
  8
1
  6
Continuous
100
AcDbCircle
 10
765.1084708123123
 20
416.4381209389156
 30
0.0
 40
5.0
100
AcDbArc
 50
268.5460329999999
 51
330.0213079999998
  0
LINE
  5
7D2
330
18
100
AcDbEntity
  8
4
  6
CENTER
 48
0.5
100
AcDbLine
 10
787.9814988123123
 20
376.9397289389156
 30
0.0
 11
787.9814988123123
 21
388.9397289389155
 31
0.0
  0
LINE
  5
7D3
330
18
100
AcDbEntity
  8
4
  6
CENTER
 48
0.5
100
AcDbLine
 10
820.4814908123124
 20
379.9397139389157
 30
0.0
 11
820.4814908123124
 21
391.9397139389157
 31
0.0
  0
CIRCLE
  5
7D4
330
18
100
AcDbEntity
  8
5
  6
PHANTOM
 48
0.3
100
AcDbCircle
 10
814.8434448123122
 20
377.3305299389156
 30
0.0
 40
4.0
  0
CIRCLE
  5
7D5
330
18
100
AcDbEntity
  8
1
  6
Continuous
100
AcDbCircle
 10
787.9814988123123
 20
382.9397289389156
 30
0.0
 40
4.0
  0
ARC
  5
7D6
330
18
100
AcDbEntity
  8
1
  6
Continuous
100
AcDbCircle
 10
820.4814988123123
 20
387.9397369389156
 30
0.0
 40
8.0
100
AcDbArc
 50
258.9789939999997
 51
345.0000349999998
  0
LINE
  5
7D7
330
18
100
AcDbEntity
  8
1
  6
Continuous
100
AcDbLine
 10
823.0220128123123
 20
371.5394149389156
 30
0.0
 11
817.9310808123123
 21
380.3571659389156
 31
0.0
  0
LINE
  5
7D8
330
18
100
AcDbEntity
  8
1
  6
Continuous
100
AcDbLine
 10
809.2034838123122
 20
381.2426969389156
 30
0.0
 11
784.8622678123123
 21
368.8514609389156
 31
0.0
  0
LINE
  5
7D9
330
18
100
AcDbEntity
  8
5
  6
PHANTOM
 48
0.3
100
AcDbLine
 10
813.5872248123121
 20
364.5249129389156
 30
0.0
 11
793.2436728123122
 21
373.1181299389156
 31
0.0
  0
LINE
  5
7DA
330
18
100
AcDbEntity
  8
1
  6
Continuous
100
AcDbLine
 10
815.3924208123124
 20
367.3384189389157
 30
0.0
 11
794.3743268123123
 21
373.6937049389156
 31
0.0
  0
LINE
  5
7DB
330
18
100
AcDbEntity
  8
5
  6
PHANTOM
 48
0.3
100
AcDbLine
 10
815.4588188123122
 20
359.7293449389157
 30
0.0
 11
814.1832828123122
 21
358.1888879389156
 31
0.0
  0
LINE
  5
7DC
330
18
100
AcDbEntity
  8
5
  6
PHANTOM
 48
0.3
100
AcDbLine
 10
808.1416848123122
 20
365.7881439389157
 30
0.0
 11
826.6271448123122
 21
350.4817359389156
 31
0.0
  0
LINE
  5
7DD
330
18
100
AcDbEntity
  8
1
  6
Continuous
100
AcDbLine
 10
809.8437408123123
 20
368.0182039389157
 30
0.0
 11
829.8454328123122
 21
354.7542569389157
 31
0.0
  0
LINE
  5
7DE
330
18
100
AcDbEntity
  8
5
  6
PHANTOM
 48
0.3
100
AcDbLine
 10
814.1833148123122
 20
358.1889379389156
 30
0.0
 11
817.2642288123123
 21
355.6378669389157
 31
0.0
  0
LINE
  5
7DF
330
18
100
AcDbEntity
  8
5
  6
PHANTOM
 48
0.3
100
AcDbLine
 10
818.5397708123122
 20
357.1782819389156
 30
0.0
 11
817.2642248123123
 21
355.6378129389157
 31
0.0
  0
LINE
  5
7E0
330
18
100
AcDbEntity
  8
5
  6
PHANTOM
 48
0.3
100
AcDbLine
 10
820.2169668123122
 20
368.1637879389156
 30
0.0
 11
808.8896408123122
 21
373.3559609389156
 31
0.0
  0
ARC
  5
7E1
330
18
100
AcDbEntity
  8
5
  6
PHANTOM
 48
0.3
100
AcDbCircle
 10
816.0609358123123
 20
378.9172259389157
 30
0.0
 40
8.0
100
AcDbArc
 50
221.479001
 51
307.500043
  0
LINE
  5
7E2
330
18
100
AcDbEntity
  8
1
  6
Continuous
100
AcDbLine
 10
815.3924238123122
 20
367.3384369389156
 30
0.0
 11
814.0107568123124
 21
365.2549179389156
 31
0.0
  0
LINE
  5
7E3
330
18
100
AcDbEntity
  8
1
  6
Continuous
100
AcDbLine
 10
821.5997958123123
 20
371.6585559389157
 30
0.0
 11
809.7865528123122
 21
375.6226769389156
 31
0.0
  0
ARC
  5
7E4
330
18
100
AcDbEntity
  8
5
  6
PHANTOM
 48
0.3
100
AcDbCircle
 10
821.4670328123123
 20
370.8909239389157
 30
0.0
 40
3.0
100
AcDbArc
 50
245.374404
 51
317.9168049999999
  0
LINE
  5
7E5
330
18
100
AcDbEntity
  8
1
  6
Continuous
100
AcDbLine
 10
821.0947048123124
 20
360.5572869389157
 30
0.0
 11
819.9893718123123
 21
358.8904729389156
 31
0.0
  0
LINE
  5
7E6
330
18
100
AcDbEntity
  8
1
  6
Continuous
100
AcDbLine
 10
816.6557488123123
 20
361.1010989389157
 30
0.0
 11
819.9893648123122
 21
358.8904409389156
 31
0.0
  0
LINE
  5
7E7
330
18
100
AcDbEntity
  8
1
  6
Continuous
100
AcDbLine
 10
817.7610568123123
 20
362.7679369389156
 30
0.0
 11
816.6557318123123
 21
361.1011359389157
 31
0.0
  0
LINE
  5
7E8
330
18
100
AcDbEntity
  8
5
  6
PHANTOM
 48
0.3
100
AcDbLine
 10
829.2316168123122
 20
378.9396539389156
 30
0.0
 11
820.9310418123122
 21
372.5703989389156
 31
0.0
  0
ARC
  5
7E9
330
18
100
AcDbEntity
  8
1
  6
Continuous
100
AcDbCircle
 10
822.5541988123122
 20
374.5027169389156
 30
0.0
 40
3.0
100
AcDbArc
 50
251.4499809999998
 51
323.9923820000001
  0
LINE
  5
7EA
330
18
100
AcDbEntity
  8
5
  6
PHANTOM
 48
0.3
100
AcDbLine
 10
828.6313568123123
 20
371.1840969389156
 30
0.0
 11
824.3694308123123
 21
375.2087649389157
 31
0.0
  0
LINE
  5
7EB
330
18
100
AcDbEntity
  8
5
  6
PHANTOM
 48
0.3
100
AcDbLine
 10
813.5872238123123
 20
364.5248709389156
 30
0.0
 11
811.9928038123124
 21
362.5992989389156
 31
0.0
  0
LINE
  5
7EC
330
18
100
AcDbEntity
  8
1
  6
Continuous
100
AcDbLine
 10
810.3949898123124
 20
368.8495229389157
 30
0.0
 11
809.8437338123122
 21
368.0182419389157
 31
0.0
  0
LINE
  5
7ED
330
18
100
AcDbEntity
  8
5
  6
PHANTOM
 48
0.3
100
AcDbLine
 10
808.8895848123124
 20
373.3559079389157
 30
0.0
 11
803.4496338123123
 21
378.3136129389156
 31
0.0
  0
LINE
  5
7EE
330
18
100
AcDbEntity
  8
5
  6
PHANTOM
 48
0.3
100
AcDbLine
 10
810.0674268123123
 20
373.6184839389157
 30
0.0
 11
805.1509268123123
 21
379.1796819389156
 31
0.0
  0
LINE
  5
7EF
330
18
100
AcDbEntity
  8
1
  6
Continuous
100
AcDbLine
 10
809.7865568123124
 20
375.6226719389156
 30
0.0
 11
805.0256678123123
 21
379.1159189389156
 31
0.0
  0
ARC
  5
7F0
330
18
100
AcDbEntity
  8
1
  6
Continuous
100
AcDbCircle
 10
789.3989108123125
 20
359.9397329389157
 30
0.0
 40
10.0
100
AcDbArc
 50
116.9790060000002
 51
186.670911
  0
LINE
  5
7F1
330
18
100
AcDbEntity
  8
4
  6
CENTER
 48
0.5
100
AcDbLine
 10
810.9814988123122
 20
389.9397329389157
 30
0.0
 11
798.9814988123123
 21
389.9397329389157
 31
0.0
  0
ARC
  5
7F2
330
18
100
AcDbEntity
  8
1
  6
Continuous
100
AcDbCircle
 10
805.4814988123123
 20
389.5897379389156
 30
0.0
 40
7.0
100
AcDbArc
 50
0.0000360000000476
 51
156.4218199999998
  0
LINE
  5
7F3
330
18
100
AcDbEntity
  8
4
  6
CENTER
 48
0.5
100
AcDbLine
 10
826.4814908123124
 20
385.9397139389157
 30
0.0
 11
814.4814908123123
 21
385.9397139389157
 31
0.0
  0
LINE
  5
7F4
330
18
100
AcDbEntity
  8
1
  6
Continuous
100
AcDbLine
 10
818.9521448123123
 20
380.0872569389156
 30
0.0
 11
810.1080188123123
 21
381.8097439389156
 31
0.0
  0
CIRCLE
  5
7F5
330
18
100
AcDbEntity
  8
1
  6
Continuous
100
AcDbCircle
 10
820.4814908123124
 20
385.9397139389157
 30
0.0
 40
4.0
  0
LINE
  5
7F6
330
18
100
AcDbEntity
  8
4
  6
CENTER
 48
0.5
100
AcDbLine
 10
804.9814988123124
 20
383.9397329389157
 30
0.0
 11
804.9814988123124
 21
395.9397329389156
 31
0.0
  0
CIRCLE
  5
7F7
330
18
100
AcDbEntity
  8
1
  6
Continuous
100
AcDbCircle
 10
804.9814988123124
 20
389.9397329389157
 30
0.0
 40
4.0
  0
LINE
  5
7F8
330
18
100
AcDbEntity
  8
1
  6
Continuous
100
AcDbLine
 10
812.4814908123124
 20
389.5897399389157
 30
0.0
 11
812.4814908123124
 21
386.5897399389156
 31
0.0
  0
ARC
  5
7F9
330
18
100
AcDbEntity
  8
1
  6
Continuous
100
AcDbCircle
 10
806.4814988123123
 20
386.5897379389156
 30
0.0
 40
6.0
100
AcDbArc
 50
296.9790279999998
 51
0.0000219999999413
  0
LINE
  5
7FA
330
18
100
AcDbEntity
  8
1
  6
Continuous
100
AcDbLine
 10
804.9814908123122
 20
398.4397329389157
 30
0.0
 11
804.9814908123122
 21
396.5718589389156
 31
0.0
  0
LINE
  5
7FB
330
18
100
AcDbEntity
  8
4
  6
CENTER
 48
0.5
100
AcDbLine
 10
793.9814988123123
 20
382.9397289389156
 30
0.0
 11
781.9814988123123
 21
382.9397289389156
 31
0.0
  0
ARC
  5
7FC
330
18
100
AcDbEntity
  8
1
  6
Continuous
100
AcDbCircle
 10
796.3163448123123
 20
393.5897359389156
 30
0.0
 40
3.0
100
AcDbArc
 50
180.0
 51
336.4218640000002
  0
LINE
  5
7FD
330
18
100
AcDbEntity
  8
1
  6
Continuous
100
AcDbLine
 10
778.4814718123123
 20
413.9397219389157
 30
0.0
 11
778.4814718123123
 21
417.9397209389156
 31
0.0
  0
ARC
  5
7FE
330
18
100
AcDbEntity
  8
1
  6
Continuous
100
AcDbCircle
 10
757.6314958123123
 20
399.5897269389157
 30
0.0
 40
6.0
100
AcDbArc
 50
0.0000360000000476
 51
33.94062600000021
  0
ARC
  5
7FF
330
18
100
AcDbEntity
  8
1
  6
Continuous
100
AcDbCircle
 10
755.4814908123121
 20
396.5897189389156
 30
0.0
 40
3.0
100
AcDbArc
 50
207.604177
 51
270.000003
  0
LINE
  5
800
330
18
100
AcDbEntity
  8
1
  6
Continuous
100
AcDbLine
 10
763.6314928123123
 20
399.5897289389156
 30
0.0
 11
763.6314928123123
 21
396.5897289389157
 31
0.0
  0
ARC
  5
801
330
18
100
AcDbEntity
  8
1
  6
Continuous
100
AcDbCircle
 10
766.6314958123123
 20
396.5897289389157
 30
0.0
 40
3.0
100
AcDbArc
 50
180.0
 51
269.9999819999999
  0
LINE
  5
802
330
18
100
AcDbEntity
  8
1
  6
Continuous
100
AcDbLine
 10
764.9814928123123
 20
407.4397249389154
 30
0.0
 11
762.9814928123121
 21
405.9397249389157
 31
0.0
  0
LINE
  5
803
330
18
100
AcDbEntity
  8
1
  6
Continuous
100
AcDbLine
 10
762.3943768123123
 20
411.4397319389156
 30
0.0
 11
764.9814998123123
 21
407.4397319389156
 31
0.0
  0
ARC
  5
804
330
18
100
AcDbEntity
  8
1
  6
Continuous
100
AcDbCircle
 10
763.4814948123121
 20
403.9397299389156
 30
0.0
 40
1.0
100
AcDbArc
 50
269.9999719999996
 51
0.0000219999999413
  0
LINE
  5
805
330
18
100
AcDbEntity
  8
1
  6
Continuous
100
AcDbLine
 10
763.4814888123123
 20
403.9397309389157
 30
0.0
 11
761.4814898123123
 21
405.9397309389156
 31
0.0
  0
LINE
  5
806
330
18
100
AcDbEntity
  8
4
  6
CENTER
 48
0.5
100
AcDbLine
 10
687.4814908123124
 20
422.9397209389157
 30
0.0
 11
687.4814908123124
 21
408.9397209389156
 31
0.0
  0
LINE
  5
807
330
18
100
AcDbEntity
  8
4
  6
CENTER
 48
0.5
100
AcDbLine
 10
689.9814908123126
 20
422.9397209389157
 30
0.0
 11
689.9814908123126
 21
408.9397209389156
 31
0.0
  0
ARC
  5
809
330
18
100
AcDbEntity
  8
1
  6
Continuous
100
AcDbCircle
 10
697.3314898123122
 20
399.5897119389157
 30
0.0
 40
6.0
100
AcDbArc
 50
146.0594100000001
 51
180.0
  0
ARC
  5
80A
330
18
100
AcDbEntity
  8
1
  6
Continuous
100
AcDbCircle
 10
688.3314898123122
 20
396.5897099389156
 30
0.0
 40
3.0
100
AcDbArc
 50
311.5807289999998
 51
0.0000219999999413
  0
ARC
  5
80B
330
18
100
AcDbEntity
  8
1
  6
Continuous
100
AcDbCircle
 10
688.6720508123123
 20
378.5897119389157
 30
0.0
 40
6.0
100
AcDbArc
 50
34.63502400000015
 51
88.47715899999966
  0
LINE
  5
80C
330
18
100
AcDbEntity
  8
1
  6
Continuous
100
AcDbLine
 10
691.3314898123123
 20
399.5897099389157
 30
0.0
 11
691.3314898123123
 21
396.5897099389156
 31
0.0
  0
LINE
  5
80D
330
18
100
AcDbEntity
  8
1
  6
Continuous
100
AcDbLine
 10
688.8314898123122
 20
391.0294639389157
 30
0.0
 11
688.8314898123122
 21
384.5897079389157
 31
0.0
  0
ARC
  5
80E
330
18
100
AcDbEntity
  8
1
  6
Continuous
100
AcDbCircle
 10
693.2647628123123
 20
391.0294659389156
 30
0.0
 40
4.433265
100
AcDbArc
 50
131.5806799999998
 51
180.0
  0
LINE
  5
80F
330
18
100
AcDbEntity
  8
1
  6
Continuous
100
AcDbLine
 10
689.9814868123123
 20
407.4397249389154
 30
0.0
 11
691.9814868123124
 21
405.9397249389157
 31
0.0
  0
ARC
  5
810
330
18
100
AcDbEntity
  8
1
  6
Continuous
100
AcDbCircle
 10
691.4814988123123
 20
403.9397129389157
 30
0.0
 40
1.0
100
AcDbArc
 50
180.0
 51
270.0000369999997
  0
LINE
  5
811
330
18
100
AcDbEntity
  8
1
  6
Continuous
100
AcDbLine
 10
692.5685938123121
 20
411.4397369389156
 30
0.0
 11
689.9814668123123
 21
407.4397319389156
 31
0.0
  0
LINE
  5
812
330
18
100
AcDbEntity
  8
1
  6
Continuous
100
AcDbLine
 10
691.4814768123123
 20
403.9397269389156
 30
0.0
 11
693.4814798123122
 21
405.9397289389155
 31
0.0
  0
ARC
  5
813
330
18
100
AcDbEntity
  8
1
  6
Continuous
100
AcDbCircle
 10
689.8545148123123
 20
416.4381019389156
 30
0.0
 40
5.0
100
AcDbArc
 50
209.9787180000001
 51
271.4539930000002
  0
LINE
  5
814
330
18
100
AcDbEntity
  8
1
  6
Continuous
100
AcDbLine
 10
676.4815058123121
 20
413.9397209389157
 30
0.0
 11
676.4815058123121
 21
417.9397209389156
 31
0.0
  0
LINE
  5
8AA
330
18
100
AcDbEntity
  8
4
  6
CENTER
 48
0.5
100
AcDbLine
 10
196.4055388571265
 20
85.88432737701783
 30
0.0
 11
404.6737388571266
 21
85.88432737701783
 31
0.0
  0
LINE
  5
8B0
330
18
100
AcDbEntity
  8
1
  6
Continuous
100
AcDbLine
 10
308.6737578571263
 20
136.8843273770177
 30
0.0
 11
388.6737238571264
 21
136.8843273770177
 31
0.0
  0
LINE
  5
8B1
330
18
100
AcDbEntity
  8
1
  6
Continuous
100
AcDbLine
 10
308.6737578571263
 20
34.88432737701783
 30
0.0
 11
388.6737238571264
 21
34.88432737701783
 31
0.0
  0
LINE
  5
8B2
330
18
100
AcDbEntity
  8
4
  6
CENTER
 48
0.5
100
AcDbLine
 10
308.6737388571267
 20
51.88432737701782
 30
0.0
 11
308.6737388571267
 21
39.88432737701783
 31
0.0
  0
LINE
  5
8B3
330
18
100
AcDbEntity
  8
4
  6
CENTER
 48
0.5
100
AcDbLine
 10
311.1737388571266
 20
54.38432737701782
 30
0.0
 11
311.1737388571266
 21
42.38432737701759
 31
0.0
  0
LINE
  5
8B4
330
18
100
AcDbEntity
  8
4
  6
CENTER
 48
0.5
100
AcDbLine
 10
348.6737388571266
 20
141.8843273770177
 30
0.0
 11
348.6737388571266
 21
29.8843273770176
 31
0.0
  0
LINE
  5
8B5
330
18
100
AcDbEntity
  8
4
  6
CENTER
 48
0.5
100
AcDbLine
 10
288.1737308571264
 20
47.88432737701782
 30
0.0
 11
288.1737308571264
 21
124.384327377017
 31
0.0
  0
LINE
  5
8B6
330
18
100
AcDbEntity
  8
4
  6
CENTER
 48
0.5
100
AcDbLine
 10
271.1737308571266
 20
47.88432737701782
 30
0.0
 11
271.1737308571266
 21
124.384327377017
 31
0.0
  0
LINE
  5
8B7
330
18
100
AcDbEntity
  8
4
  6
CENTER
 48
0.5
100
AcDbLine
 10
307.6737388571267
 20
141.8843273770177
 30
0.0
 11
307.6737388571267
 21
29.8843273770176
 31
0.0
  0
LINE
  5
8BC
330
18
100
AcDbEntity
  8
1
  6
Continuous
100
AcDbLine
 10
297.6737578571266
 20
125.8843273770178
 30
0.0
 11
297.6737578571266
 21
118.6548682620091
 31
0.0
  0
LINE
  5
8BD
330
18
100
AcDbEntity
  8
1
  6
Continuous
100
AcDbLine
 10
248.1559318571263
 20
56.3843273770176
 30
0.0
 11
243.1559318571263
 21
56.3843273770176
 31
0.0
  0
LINE
  5
8BE
330
18
100
AcDbEntity
  8
1
  6
Continuous
100
AcDbLine
 10
245.6737378571264
 20
113.3843273770176
 30
0.0
 11
271.1737378571263
 21
113.3843273770176
 31
0.0
  0
ARC
  5
8BF
330
18
100
AcDbEntity
  8
1
  6
Continuous
100
AcDbCircle
 10
245.6737378571264
 20
108.6343273770175
 30
0.0
 40
7.25
100
AcDbArc
 50
46.39718200000028
 51
133.6028180000002
  0
LINE
  5
8C0
330
18
100
AcDbEntity
  8
1
  6
Continuous
100
AcDbLine
 10
250.6737348571264
 20
113.8843273770175
 30
0.0
 11
240.6737348571263
 21
113.8843273770175
 31
0.0
  0
LINE
  5
8C1
330
18
100
AcDbEntity
  8
1
  6
Continuous
100
AcDbLine
 10
240.5391899699659
 20
58.38432737701783
 30
0.0
 11
294.3336261359787
 21
58.38432737701783
 31
0.0
  0
LINE
  5
8C2
330
18
100
AcDbEntity
  8
1
  6
Continuous
100
AcDbLine
 10
241.6559348571265
 20
57.88432811005577
 30
0.0
 11
249.6559348571263
 21
57.88432784825658
 31
0.0
  0
LINE
  5
8C3
330
18
100
AcDbEntity
  8
4
  6
CENTER
 48
0.5
100
AcDbLine
 10
245.6559318571263
 20
51.38432737701748
 30
0.0
 11
245.6559318571263
 21
120.8843055112166
 31
0.0
  0
LINE
  5
8C5
330
18
100
AcDbEntity
  8
1
  6
Continuous
100
AcDbLine
 10
219.2379378571263
 20
109.8843273770176
 30
0.0
 11
219.2379378571263
 21
91.88432737701759
 31
0.0
  0
LINE
  5
8C9
330
18
100
AcDbEntity
  8
1
  6
Continuous
100
AcDbLine
 10
237.3670788571264
 20
115.3843273770176
 30
0.0
 11
237.3670788571264
 21
107.8843273770178
 31
0.0
  0
ARC
  5
8CA
330
18
100
AcDbEntity
  8
1
  6
Continuous
100
AcDbCircle
 10
232.2850098165726
 20
108.5392400976409
 30
0.0
 40
8.656658671985146
100
AcDbArc
 50
122.9440126556984
 51
164.282181585918
  0
LINE
  5
8CB
330
18
100
AcDbEntity
  8
1
  6
Continuous
100
AcDbLine
 10
227.8492617591449
 20
115.8843273770175
 30
0.0
 11
236.8670788571264
 21
115.8843273770175
 31
0.0
  0
ARC
  5
8CC
330
18
100
AcDbEntity
  8
1
  6
Continuous
100
AcDbCircle
 10
227.8492617591449
 20
115.3843273770176
 30
0.0
 40
0.5
100
AcDbArc
 50
90.00000000000005
 51
122.9440126557014
  0
ARC
  5
8CD
330
18
100
AcDbEntity
  8
1
  6
Continuous
100
AcDbCircle
 10
236.8670788571264
 20
115.3843273770176
 30
0.0
 40
0.5
100
AcDbArc
 50
0.0
 51
90.00000000000005
  0
LINE
  5
8CE
330
18
100
AcDbEntity
  8
1
  6
Continuous
100
AcDbLine
 10
220.2379378571265
 20
110.8843273770178
 30
0.0
 11
223.9520448571265
 21
110.8843273770178
 31
0.0
  0
ARC
  5
8CF
330
18
100
AcDbEntity
  8
1
  6
Continuous
100
AcDbCircle
 10
220.2379378571265
 20
109.8843273770176
 30
0.0
 40
1.0
100
AcDbArc
 50
90.00000000000005
 51
180.0000000000004
  0
ARC
  5
8D0
330
18
100
AcDbEntity
  8
1
  6
Continuous
100
AcDbCircle
 10
238.8334078571265
 20
105.8843273770176
 30
0.0
 40
5.0
100
AcDbArc
 50
90.00000000000005
 51
107.0535762440387
  0
LINE
  5
8D4
330
18
100
AcDbEntity
  8
1
  6
Continuous
100
AcDbLine
 10
245.6737378571264
 20
113.3843273770176
 30
0.0
 11
238.5117919843816
 21
113.3843273770176
 31
0.0
  0
LINE
  5
8D5
330
18
100
AcDbEntity
  8
1
  6
Continuous
100
AcDbLine
 10
240.6737378571263
 20
113.3843273770176
 30
0.0
 11
240.6737378571263
 21
113.8843273770175
 31
0.0
  0
LINE
  5
8D7
330
18
100
AcDbEntity
  8
1
  6
Continuous
100
AcDbLine
 10
238.5117919843816
 20
113.3843273770176
 30
0.0
 11
238.5117919843816
 21
110.8739729787009
 31
0.0
  0
LINE
  5
8D8
330
18
100
AcDbEntity
  8
1
  6
Continuous
100
AcDbLine
 10
207.8556088571263
 20
56.38432737701783
 30
0.0
 11
231.3334078571265
 21
56.3843273770176
 31
0.0
  0
LINE
  5
8D9
330
18
100
AcDbEntity
  8
1
  6
Continuous
100
AcDbLine
 10
207.8556088571263
 20
83.38432737701783
 30
0.0
 11
230.8334078571264
 21
83.38432737701783
 31
0.0
  0
LINE
  5
8DA
330
18
100
AcDbEntity
  8
1
  6
Continuous
100
AcDbLine
 10
201.4055388571265
 20
78.88432737701783
 30
0.0
 11
201.4055388571265
 21
60.88432737701783
 31
0.0
  0
LINE
  5
8DC
330
18
100
AcDbEntity
  8
1
  6
Continuous
100
AcDbLine
 10
204.8556088571265
 20
80.38432737701759
 30
0.0
 11
204.8556088571265
 21
79.8843273770176
 31
0.0
  0
ARC
  5
8DD
330
18
100
AcDbEntity
  8
1
  6
Continuous
100
AcDbCircle
 10
207.8556088571263
 20
80.38432737701759
 30
0.0
 40
3.0
100
AcDbArc
 50
90.00000000000005
 51
180.0
  0
LINE
  5
8DE
330
18
100
AcDbEntity
  8
1
  6
Continuous
100
AcDbLine
 10
202.4055388571265
 20
79.8843273770176
 30
0.0
 11
204.8556088571265
 21
79.8843273770176
 31
0.0
  0
ARC
  5
8DF
330
18
100
AcDbEntity
  8
1
  6
Continuous
100
AcDbCircle
 10
202.4055388571265
 20
78.88432737701783
 30
0.0
 40
1.0
100
AcDbArc
 50
90.00000000000005
 51
180.0
  0
ARC
  5
8E0
330
18
100
AcDbEntity
  8
1
  6
Continuous
100
AcDbCircle
 10
202.4055388571265
 20
60.88432737701783
 30
0.0
 40
1.0
100
AcDbArc
 50
180.0
 51
270.0
  0
ARC
  5
8E1
330
18
100
AcDbEntity
  8
1
  6
Continuous
100
AcDbCircle
 10
207.8556088571263
 20
59.38432737701782
 30
0.0
 40
3.0
100
AcDbArc
 50
180.0
 51
270.0
  0
LINE
  5
8E2
330
18
100
AcDbEntity
  8
1
  6
Continuous
100
AcDbLine
 10
202.4055388571265
 20
59.88432737701782
 30
0.0
 11
204.8556088571262
 21
59.88432737701782
 31
0.0
  0
LINE
  5
8E3
330
18
100
AcDbEntity
  8
1
  6
Continuous
100
AcDbLine
 10
232.6737388571266
 20
85.8843273770176
 30
0.0
 11
227.7038055838854
 21
85.8843273770176
 31
0.0
  0
LINE
  5
8E4
330
18
100
AcDbEntity
  8
1
  6
Continuous
100
AcDbLine
 10
220.2379378571265
 20
90.8843273770176
 30
0.0
 11
223.9520448571265
 21
90.88432737701785
 31
0.0
  0
ARC
  5
8E5
330
18
100
AcDbEntity
  8
1
  6
Continuous
100
AcDbCircle
 10
220.2379378571265
 20
91.88432737701759
 30
0.0
 40
1.0
100
AcDbArc
 50
180.0
 51
270.0
  0
ARC
  5
8E6
330
18
100
AcDbEntity
  8
1
  6
Continuous
100
AcDbCircle
 10
232.2850098165726
 20
93.2294146563945
 30
0.0
 40
8.656658671985146
100
AcDbArc
 50
195.7178184140819
 51
238.0477983588833
  0
ARC
  5
8E7
330
18
100
AcDbEntity
  8
1
  6
Continuous
100
AcDbCircle
 10
230.8334078571264
 20
86.3843273770176
 30
0.0
 40
3.0
100
AcDbArc
 50
270.0
 51
308.6647826437168
  0
ARC
  5
8E8
330
18
100
AcDbEntity
  8
1
  6
Continuous
100
AcDbCircle
 10
236.6402514745946
 20
58.0476594075817
 30
0.0
 40
2.928887909087888
100
AcDbArc
 50
75.58399794750581
 51
163.4016582606946
  0
ARC
  5
8E9
330
18
100
AcDbEntity
  8
1
  6
Continuous
100
AcDbCircle
 10
241.8564639135458
 20
63.31398250957454
 30
0.0
 40
5.102617991617603
100
AcDbArc
 50
208.4348092789233
 51
229.0438265956394
  0
ARC
  5
8EA
330
18
100
AcDbEntity
  8
1
  6
Continuous
100
AcDbCircle
 10
231.3334078571265
 20
58.88432737701783
 30
0.0
 40
2.5
100
AcDbArc
 50
270.0
 51
0.0
  0
LINE
  5
8EB
330
18
100
AcDbEntity
  8
1
  6
Continuous
100
AcDbLine
 10
240.5391899699659
 20
58.38432737701783
 30
0.0
 11
238.5117919843816
 21
58.38432737701783
 31
0.0
  0
LINE
  5
8EC
330
18
100
AcDbEntity
  8
1
  6
Continuous
100
AcDbLine
 10
238.5117919843816
 20
60.88432737701761
 30
0.0
 11
238.5117919843816
 21
58.38432737701747
 31
0.0
  0
LINE
  5
8ED
330
18
100
AcDbEntity
  8
1
  6
Continuous
100
AcDbLine
 10
243.1559348571262
 20
57.88432737701782
 30
0.0
 11
243.1559348571262
 21
58.38432737701783
 31
0.0
  0
ARC
  5
8EE
330
18
100
AcDbEntity
  8
1
  6
Continuous
100
AcDbCircle
 10
243.1559348571262
 20
57.88432737701782
 30
0.0
 40
1.5
100
AcDbArc
 50
179.999972
 51
270.0000219999999
  0
ARC
  5
8EF
330
18
100
AcDbEntity
  8
1
  6
Continuous
100
AcDbCircle
 10
308.6737578571263
 20
125.8843273770178
 30
0.0
 40
11.0
100
AcDbArc
 50
89.99998199999998
 51
179.9999639999999
  0
LINE
  5
8F1
330
18
100
AcDbEntity
  8
4
  6
CENTER
 48
0.5
100
AcDbLine
 10
317.1737388571266
 20
123.3843273770178
 30
0.0
 11
305.1737388571265
 21
123.3843273770178
 31
0.0
  0
LINE
  5
8F2
330
18
100
AcDbEntity
  8
4
  6
CENTER
 48
0.5
100
AcDbLine
 10
314.6737388571267
 20
125.8843273770178
 30
0.0
 11
302.6737388571266
 21
125.8843273770178
 31
0.0
  0
ARC
  5
8F3
330
18
100
AcDbEntity
  8
1
  6
Continuous
100
AcDbCircle
 10
311.1737388571266
 20
123.3843273770178
 30
0.0
 40
5.5
100
AcDbArc
 50
317.1816755288056
 51
45.00000500000001
  0
ARC
  5
8F4
330
18
100
AcDbEntity
  8
1
  6
Continuous
100
AcDbCircle
 10
308.6737388571267
 20
125.8843273770178
 30
0.0
 40
5.5
100
AcDbArc
 50
45.00003599999979
 51
224.999945
  0
LINE
  5
8F5
330
18
100
AcDbEntity
  8
4
  6
CENTER
 48
0.5
100
AcDbLine
 10
255.6737388571263
 20
51.3843273770176
 30
0.0
 11
255.6737388571263
 21
120.8843055112166
 31
0.0
  0
LINE
  5
8F8
330
18
100
AcDbEntity
  8
1
  6
Continuous
100
AcDbLine
 10
273.6737338571263
 20
60.88432737701761
 30
0.0
 11
273.6737338571263
 21
68.38432737701785
 31
0.0
  0
LINE
  5
8FB
330
18
100
AcDbEntity
  8
1
  6
Continuous
100
AcDbLine
 10
263.68248603235
 20
116.8843273770177
 30
0.0
 11
324.6170852390525
 21
116.8843273770177
 31
0.0
  0
LINE
  5
8FC
330
18
100
AcDbEntity
  8
1
  6
Continuous
100
AcDbLine
 10
271.1737378571263
 20
113.3843273770176
 30
0.0
 11
294.3336261359787
 21
113.3843273770176
 31
0.0
  0
LINE
  5
8FD
330
18
100
AcDbEntity
  8
1
  6
Continuous
100
AcDbLine
 10
238.8334078571265
 20
110.8843273770178
 30
0.0
 11
244.9281356787686
 21
110.8843273770178
 31
0.0
  0
LINE
  5
8FE
330
18
100
AcDbEntity
  8
1
  6
Continuous
100
AcDbLine
 10
263.68248603235
 20
113.8843273770175
 30
0.0
 11
324.6170852390523
 21
113.8843273770175
 31
0.0
  0
LINE
  5
900
330
18
100
AcDbEntity
  8
1
  6
Continuous
100
AcDbLine
 10
263.68248603235
 20
116.8843273770175
 30
0.0
 11
263.68248603235
 21
113.8843273770175
 31
0.0
  0
ARC
  5
901
330
18
100
AcDbEntity
  8
1
  6
Continuous
100
AcDbCircle
 10
255.6737418571263
 20
108.6343273770175
 30
0.0
 40
7.25
100
AcDbArc
 50
46.39718200000028
 51
133.6028180000002
  0
ARC
  5
902
330
18
100
AcDbEntity
  8
1
  6
Continuous
100
AcDbCircle
 10
271.1737338571263
 20
112.1343273770176
 30
0.0
 40
7.25
100
AcDbArc
 50
46.39718200000028
 51
133.6028180000002
  0
LINE
  5
903
330
18
100
AcDbEntity
  8
1
  6
Continuous
100
AcDbLine
 10
276.1737308571263
 20
117.3843273770176
 30
0.0
 11
266.1737308571263
 21
117.3843273770176
 31
0.0
  0
LINE
  5
904
330
18
100
AcDbEntity
  8
1
  6
Continuous
100
AcDbLine
 10
266.1737338571266
 20
116.8843273770175
 30
0.0
 11
266.1737338571266
 21
117.3843273770176
 31
0.0
  0
LINE
  5
905
330
18
100
AcDbEntity
  8
1
  6
Continuous
100
AcDbLine
 10
276.1737338571264
 20
116.8843273770175
 30
0.0
 11
276.1737338571264
 21
117.3843273770176
 31
0.0
  0
LINE
  5
906
330
18
100
AcDbEntity
  8
1
  6
Continuous
100
AcDbLine
 10
260.6737388571263
 20
113.8843273770175
 30
0.0
 11
250.6737388571263
 21
113.8843273770175
 31
0.0
  0
LINE
  5
907
330
18
100
AcDbEntity
  8
1
  6
Continuous
100
AcDbLine
 10
250.6737378571263
 20
113.3843273770176
 30
0.0
 11
250.6737378571263
 21
113.8843273770175
 31
0.0
  0
LINE
  5
908
330
18
100
AcDbEntity
  8
1
  6
Continuous
100
AcDbLine
 10
250.6737418571264
 20
113.3843273770176
 30
0.0
 11
250.6737418571264
 21
113.8843273770175
 31
0.0
  0
LINE
  5
909
330
18
100
AcDbEntity
  8
1
  6
Continuous
100
AcDbLine
 10
260.6737418571265
 20
113.3843273770176
 30
0.0
 11
260.6737418571265
 21
113.8843273770175
 31
0.0
  0
LINE
  5
90A
330
18
100
AcDbEntity
  8
1
  6
Continuous
100
AcDbLine
 10
268.6737418571265
 20
113.3843273770178
 30
0.0
 11
268.6737418571265
 21
113.8843273770177
 31
0.0
  0
LINE
  5
90B
330
18
100
AcDbEntity
  8
1
  6
Continuous
100
AcDbLine
 10
273.6737338571263
 20
113.3843273770176
 30
0.0
 11
273.6737338571263
 21
113.8843273770175
 31
0.0
  0
LINE
  5
90D
330
18
100
AcDbEntity
  8
1
  6
Continuous
100
AcDbLine
 10
293.1737308571263
 20
117.3843273770176
 30
0.0
 11
283.1737308571263
 21
117.3843273770176
 31
0.0
  0
ARC
  5
90E
330
18
100
AcDbEntity
  8
1
  6
Continuous
100
AcDbCircle
 10
288.1737338571264
 20
112.1343273770176
 30
0.0
 40
7.25
100
AcDbArc
 50
46.39718200000028
 51
133.6028180000002
  0
LINE
  5
90F
330
18
100
AcDbEntity
  8
1
  6
Continuous
100
AcDbLine
 10
283.1737338571264
 20
116.8843273770175
 30
0.0
 11
283.1737338571264
 21
117.3843273770176
 31
0.0
  0
LINE
  5
910
330
18
100
AcDbEntity
  8
1
  6
Continuous
100
AcDbLine
 10
293.1737338571266
 20
116.8843273770175
 30
0.0
 11
293.1737338571266
 21
117.3843273770176
 31
0.0
  0
LINE
  5
914
330
18
100
AcDbEntity
  8
1
  6
Continuous
100
AcDbLine
 10
304.7846528571266
 20
121.9952163770178
 30
0.0
 11
305.9581429881605
 21
120.8217262459839
 31
0.0
  0
LINE
  5
916
330
18
100
AcDbEntity
  8
1
  6
Continuous
100
AcDbLine
 10
263.68248603235
 20
54.8843273770176
 30
0.0
 11
324.6170852390528
 21
54.88432737701799
 31
0.0
  0
LINE
  5
91F
330
18
100
AcDbEntity
  8
1
  6
Continuous
100
AcDbLine
 10
238.5117919843816
 20
60.88432737701761
 30
0.0
 11
244.9281356787686
 21
60.88432737701761
 31
0.0
  0
LINE
  5
920
330
18
100
AcDbEntity
  8
1
  6
Continuous
100
AcDbLine
 10
263.68248603235
 20
57.88432737701782
 30
0.0
 11
324.6170852390523
 21
57.88432737701782
 31
0.0
  0
LINE
  5
921
330
18
100
AcDbEntity
  8
1
  6
Continuous
100
AcDbLine
 10
258.1737388571263
 20
56.3843273770176
 30
0.0
 11
253.1737388571265
 21
56.3843273770176
 31
0.0
  0
LINE
  5
922
330
18
100
AcDbEntity
  8
1
  6
Continuous
100
AcDbLine
 10
251.6737418571265
 20
57.88432811005598
 30
0.0
 11
259.6737418571263
 21
57.88432784825658
 31
0.0
  0
LINE
  5
923
330
18
100
AcDbEntity
  8
1
  6
Continuous
100
AcDbLine
 10
248.1559348571265
 20
57.88432737701782
 30
0.0
 11
248.1559348571265
 21
58.38432737701783
 31
0.0
  0
LINE
  5
924
330
18
100
AcDbEntity
  8
1
  6
Continuous
100
AcDbLine
 10
253.1737418571263
 20
57.88432737701782
 30
0.0
 11
253.1737418571263
 21
58.38432737701783
 31
0.0
  0
ARC
  5
925
330
18
100
AcDbEntity
  8
1
  6
Continuous
100
AcDbCircle
 10
248.1559348571265
 20
57.88432737701782
 30
0.0
 40
1.5
100
AcDbArc
 50
270.0000359999999
 51
0.0000180000000343
  0
ARC
  5
926
330
18
100
AcDbEntity
  8
1
  6
Continuous
100
AcDbCircle
 10
253.1737418571263
 20
57.88432737701782
 30
0.0
 40
1.5
100
AcDbArc
 50
179.999972
 51
270.0000219999999
  0
LINE
  5
927
330
18
100
AcDbEntity
  8
1
  6
Continuous
100
AcDbLine
 10
258.1737418571265
 20
57.88432737701782
 30
0.0
 11
258.1737418571265
 21
58.38432737701783
 31
0.0
  0
ARC
  5
928
330
18
100
AcDbEntity
  8
1
  6
Continuous
100
AcDbCircle
 10
258.1737418571265
 20
57.88432737701782
 30
0.0
 40
1.5
100
AcDbArc
 50
270.0000359999999
 51
0.0000180000000343
  0
LINE
  5
929
330
18
100
AcDbEntity
  8
1
  6
Continuous
100
AcDbLine
 10
267.1737338571267
 20
54.38432811005601
 30
0.0
 11
275.1737338571263
 21
54.38432784825682
 31
0.0
  0
LINE
  5
92A
330
18
100
AcDbEntity
  8
1
  6
Continuous
100
AcDbLine
 10
273.6737308571266
 20
52.88432737701782
 30
0.0
 11
268.6737308571266
 21
52.88432737701782
 31
0.0
  0
ARC
  5
92B
330
18
100
AcDbEntity
  8
1
  6
Continuous
100
AcDbCircle
 10
268.6737338571266
 20
54.38432737701782
 30
0.0
 40
1.5
100
AcDbArc
 50
179.999972
 51
270.0000219999999
  0
LINE
  5
92C
330
18
100
AcDbEntity
  8
1
  6
Continuous
100
AcDbLine
 10
268.6737338571266
 20
54.38432737701782
 30
0.0
 11
268.6737338571266
 21
54.88432737701782
 31
0.0
  0
LINE
  5
92D
330
18
100
AcDbEntity
  8
1
  6
Continuous
100
AcDbLine
 10
268.6737338571262
 20
57.88432737701782
 30
0.0
 11
268.6737338571266
 21
58.38432737701783
 31
0.0
  0
LINE
  5
92E
330
18
100
AcDbEntity
  8
1
  6
Continuous
100
AcDbLine
 10
263.68248603235
 20
57.88432737701782
 30
0.0
 11
263.68248603235
 21
54.88432737701782
 31
0.0
  0
ARC
  5
92F
330
18
100
AcDbEntity
  8
1
  6
Continuous
100
AcDbCircle
 10
273.6737338571263
 20
54.38432737701782
 30
0.0
 40
1.5
100
AcDbArc
 50
270.0000359999999
 51
0.0000180000000343
  0
LINE
  5
930
330
18
100
AcDbEntity
  8
1
  6
Continuous
100
AcDbLine
 10
273.6737338571263
 20
54.38432737701782
 30
0.0
 11
273.6737338571263
 21
54.88432737701782
 31
0.0
  0
LINE
  5
931
330
18
100
AcDbEntity
  8
1
  6
Continuous
100
AcDbLine
 10
273.6737338571263
 20
57.88432737701782
 30
0.0
 11
273.6737338571263
 21
58.38432737701783
 31
0.0
  0
ARC
  5
932
330
18
100
AcDbEntity
  8
1
  6
Continuous
100
AcDbCircle
 10
290.6737338571263
 20
54.38432737701782
 30
0.0
 40
1.5
100
AcDbArc
 50
270.0000359999999
 51
0.0000180000000343
  0
ARC
  5
934
330
18
100
AcDbEntity
  8
1
  6
Continuous
100
AcDbCircle
 10
285.6737338571264
 20
54.38432737701782
 30
0.0
 40
1.5
100
AcDbArc
 50
179.999972
 51
270.0000219999999
  0
LINE
  5
935
330
18
100
AcDbEntity
  8
1
  6
Continuous
100
AcDbLine
 10
284.1737338571268
 20
54.38432811005601
 30
0.0
 11
292.1737338571265
 21
54.38432784825682
 31
0.0
  0
LINE
  5
937
330
18
100
AcDbEntity
  8
1
  6
Continuous
100
AcDbLine
 10
285.6737338571264
 20
54.38432737701782
 30
0.0
 11
285.6737338571264
 21
54.88432737701782
 31
0.0
  0
LINE
  5
938
330
18
100
AcDbEntity
  8
1
  6
Continuous
100
AcDbLine
 10
290.6737338571263
 20
54.38432737701782
 30
0.0
 11
290.6737338571263
 21
54.88432737701782
 31
0.0
  0
LINE
  5
939
330
18
100
AcDbEntity
  8
1
  6
Continuous
100
AcDbLine
 10
290.6737308571265
 20
52.88432737701782
 30
0.0
 11
285.6737308571266
 21
52.88432737701782
 31
0.0
  0
LINE
  5
93E
330
18
100
AcDbEntity
  8
4
  6
CENTER
 48
0.5
100
AcDbLine
 10
311.1737388571266
 20
117.3843273770178
 30
0.0
 11
311.1737388571266
 21
129.3843273770177
 31
0.0
  0
LINE
  5
93F
330
18
100
AcDbEntity
  8
4
  6
CENTER
 48
0.5
100
AcDbLine
 10
308.6737388571267
 20
119.8843273770177
 30
0.0
 11
308.6737388571267
 21
131.8843273770178
 31
0.0
  0
LINE
  5
940
330
18
100
AcDbEntity
  8
1
  6
Continuous
100
AcDbLine
 10
312.5628248571266
 20
129.7733883770177
 30
0.0
 11
315.0628268571267
 21
127.2733853770178
 31
0.0
  0
LINE
  5
941
330
18
100
AcDbEntity
  8
4
  6
CENTER
 48
0.5
100
AcDbLine
 10
317.1737388571266
 20
48.38432737701783
 30
0.0
 11
305.1737388571265
 21
48.38432737701783
 31
0.0
  0
LINE
  5
942
330
18
100
AcDbEntity
  8
4
  6
CENTER
 48
0.5
100
AcDbLine
 10
314.6737388571267
 20
45.88432737701782
 30
0.0
 11
302.6737388571266
 21
45.88432737701782
 31
0.0
  0
ARC
  5
944
330
18
100
AcDbEntity
  8
1
  6
Continuous
100
AcDbCircle
 10
308.6737578571263
 20
45.88432737701782
 30
0.0
 40
11.0
100
AcDbArc
 50
180.000036
 51
270.0000179999999
  0
LINE
  5
946
330
18
100
AcDbEntity
  8
4
  6
CENTER
 48
0.5
100
AcDbLine
 10
388.6737388571266
 20
51.88432737701782
 30
0.0
 11
388.6737388571266
 21
39.88432737701783
 31
0.0
  0
LINE
  5
947
330
18
100
AcDbEntity
  8
4
  6
CENTER
 48
0.5
100
AcDbLine
 10
386.1737388571267
 20
54.38432737701782
 30
0.0
 11
386.1737388571267
 21
42.38432737701759
 31
0.0
  0
LINE
  5
94B
330
18
100
AcDbEntity
  8
1
  6
Continuous
100
AcDbLine
 10
392.5628308571264
 20
49.77341937701783
 30
0.0
 11
390.0628178571266
 21
52.27343237701767
 31
0.0
  0
ARC
  5
94C
330
18
100
AcDbEntity
  8
1
  6
Continuous
100
AcDbCircle
 10
386.1737388571267
 20
48.38432737701783
 30
0.0
 40
5.5
100
AcDbArc
 50
44.99992599999997
 51
224.9999999999998
  0
LINE
  5
94D
330
18
100
AcDbEntity
  8
1
  6
Continuous
100
AcDbLine
 10
399.6737238571266
 20
125.8843273770178
 30
0.0
 11
399.6737238571266
 21
45.88432737701782
 31
0.0
  0
ARC
  5
94E
330
18
100
AcDbEntity
  8
1
  6
Continuous
100
AcDbCircle
 10
388.6737238571264
 20
125.8843273770178
 30
0.0
 40
11.0
100
AcDbArc
 50
0.0
 51
89.99998199999998
  0
LINE
  5
94F
330
18
100
AcDbEntity
  8
4
  6
CENTER
 48
0.5
100
AcDbLine
 10
382.6737388571266
 20
125.8843273770178
 30
0.0
 11
394.6737388571266
 21
125.8843273770178
 31
0.0
  0
LINE
  5
950
330
18
100
AcDbEntity
  8
4
  6
CENTER
 48
0.5
100
AcDbLine
 10
380.1737388571266
 20
123.3843273770178
 30
0.0
 11
392.1737388571266
 21
123.3843273770178
 31
0.0
  0
ARC
  5
951
330
18
100
AcDbEntity
  8
1
  6
Continuous
100
AcDbCircle
 10
388.6737388571266
 20
125.8843273770178
 30
0.0
 40
5.5
100
AcDbArc
 50
315.00005
 51
134.9999460000003
  0
ARC
  5
952
330
18
100
AcDbEntity
  8
1
  6
Continuous
100
AcDbCircle
 10
386.1737388571267
 20
123.3843273770178
 30
0.0
 40
5.5
100
AcDbArc
 50
134.9999630000001
 51
315.0000359999999
  0
LINE
  5
953
330
18
100
AcDbEntity
  8
1
  6
Continuous
100
AcDbLine
 10
384.7846448571264
 20
129.7734053770176
 30
0.0
 11
382.2846418571267
 21
127.2734033770177
 31
0.0
  0
LINE
  5
954
330
18
100
AcDbEntity
  8
4
  6
CENTER
 48
0.5
100
AcDbLine
 10
388.6737388571266
 20
119.8843273770177
 30
0.0
 11
388.6737388571266
 21
131.8843273770178
 31
0.0
  0
LINE
  5
955
330
18
100
AcDbEntity
  8
4
  6
CENTER
 48
0.5
100
AcDbLine
 10
386.1737388571267
 20
117.3843273770178
 30
0.0
 11
386.1737388571267
 21
129.3843273770177
 31
0.0
  0
LINE
  5
956
330
18
100
AcDbEntity
  8
1
  6
Continuous
100
AcDbLine
 10
392.5628168571264
 20
121.9952503770177
 30
0.0
 11
390.0628138571267
 21
119.4952473770177
 31
0.0
  0
ARC
  5
958
330
18
100
AcDbEntity
  8
1
  6
Continuous
100
AcDbCircle
 10
388.6737238571264
 20
45.88432737701782
 30
0.0
 40
11.0
100
AcDbArc
 50
269.9999630000001
 51
359.9999450000002
  0
LINE
  5
959
330
18
100
AcDbEntity
  8
4
  6
CENTER
 48
0.5
100
AcDbLine
 10
382.6737388571266
 20
45.88432737701782
 30
0.0
 11
394.6737388571266
 21
45.88432737701782
 31
0.0
  0
LINE
  5
95A
330
18
100
AcDbEntity
  8
4
  6
CENTER
 48
0.5
100
AcDbLine
 10
380.1737388571266
 20
48.38432737701783
 30
0.0
 11
392.1737388571266
 21
48.38432737701783
 31
0.0
  0
ARC
  5
95B
330
18
100
AcDbEntity
  8
1
  6
Continuous
100
AcDbCircle
 10
388.6737388571266
 20
45.88432737701782
 30
0.0
 40
5.5
100
AcDbArc
 50
224.9999999999998
 51
44.99989500000018
  0
LINE
  5
95C
330
18
100
AcDbEntity
  8
1
  6
Continuous
100
AcDbLine
 10
384.7846678571269
 20
41.99525537701788
 30
0.0
 11
382.2846538571269
 21
44.49526937701785
 31
0.0
  0
LINE
  5
A4B
330
18
100
AcDbEntity
  8
2
  6
Continuous
100
AcDbLine
 10
312.1737388571267
 20
40.88432737701777
 30
0.0
 11
312.1737388571267
 21
44.88432737701777
 31
0.0
  0
LINE
  5
A4F
330
18
100
AcDbEntity
  8
2
  6
Continuous
100
AcDbLine
 10
303.1737388571266
 20
40.88432737701777
 30
0.0
 11
303.1737388571266
 21
44.88432737701777
 31
0.0
  0
ARC
  5
A5A
330
18
100
AcDbEntity
  8
1
  6
Continuous
100
AcDbCircle
 10
307.6737388571267
 20
97.34265537701777
 30
0.0
 40
23.541666
100
AcDbArc
 50
60.75820499999981
 51
119.2417199999999
  0
LINE
  5
A5B
330
18
100
AcDbEntity
  8
1
  6
Continuous
100
AcDbLine
 10
296.1737388571267
 20
117.8843273770177
 30
0.0
 11
319.1737388571266
 21
117.8843273770177
 31
0.0
  0
LINE
  5
A62
330
18
100
AcDbEntity
  8
1
  6
Continuous
100
AcDbLine
 10
319.1737388571266
 20
116.8843273770177
 30
0.0
 11
319.1737388571266
 21
117.8843273770177
 31
0.0
  0
LINE
  5
A67
330
18
100
AcDbEntity
  8
1
  6
Continuous
100
AcDbLine
 10
296.1737388571267
 20
116.8843273770177
 30
0.0
 11
296.1737388571267
 21
117.8843273770177
 31
0.0
  0
LINE
  5
B0A
330
18
100
AcDbEntity
  8
1
  6
Continuous
100
AcDbLine
 10
297.6737578571266
 20
51.88432737701752
 30
0.0
 11
297.6737578571266
 21
45.88432737701782
 31
0.0
  0
LINE
  5
B0D
330
18
100
AcDbEntity
  8
1
  6
Continuous
100
AcDbLine
 10
273.6737338571263
 20
103.3843273770177
 30
0.0
 11
273.6737338571263
 21
110.8843273770178
 31
0.0
  0
ARC
  5
DB4
330
18
100
AcDbEntity
  8
1
  6
Continuous
100
AcDbCircle
 10
348.6737388571266
 20
85.88432737701783
 30
0.0
 40
41.95804023832699
100
AcDbArc
 50
227.632130652801
 51
132.3678693471989
  0
ARC
  5
DB9
330
18
100
AcDbEntity
  8
1
  6
Continuous
100
AcDbCircle
 10
348.6737388571266
 20
85.88432737701783
 30
0.0
 40
35.65000099999997
100
AcDbArc
 50
234.7187362284915
 51
330.8246255411643
  0
ARC
  5
DBA
330
18
100
AcDbEntity
  8
1
  6
Continuous
100
AcDbCircle
 10
348.6737388571266
 20
85.88432737701783
 30
0.0
 40
38.65000099999996
100
AcDbArc
 50
234.7187362284915
 51
125.2812637715084
  0
ARC
  5
DC7
330
18
100
AcDbEntity
  8
1
  6
Continuous
100
AcDbCircle
 10
348.6737388571266
 20
85.88432737701783
 30
0.0
 40
30.65000100000009
100
AcDbArc
 50
34.81736838791607
 51
134.1808466083556
  0
ARC
  5
DC8
330
18
100
AcDbEntity
  8
1
  6
Continuous
100
AcDbCircle
 10
348.6737388571266
 20
85.88432737701783
 30
0.0
 40
30.65000100000009
100
AcDbArc
 50
225.8191585376965
 51
325.1826316120838
  0
ARC
  5
DE5
330
18
100
AcDbEntity
  8
1
  6
Continuous
100
AcDbCircle
 10
312.4237366424384
 20
54.5342672391418
 30
0.0
 40
9.649952699615059
100
AcDbArc
 50
240.5127306237643
 51
299.4872693762355
  0
LINE
  5
DE6
330
18
100
AcDbEntity
  8
1
  6
Continuous
100
AcDbLine
 10
317.1737344277503
 20
44.88432737701777
 30
0.0
 11
298.1737432865029
 21
44.88432737701777
 31
0.0
  0
ARC
  5
DE7
330
18
100
AcDbEntity
  8
1
  6
Continuous
100
AcDbCircle
 10
312.4237366424384
 20
42.2343749213716
 30
0.0
 40
9.649952699615059
100
AcDbArc
 50
60.51273062376439
 51
119.4872693762356
  0
LINE
  5
DEB
330
18
100
AcDbEntity
  8
1
  6
Continuous
100
AcDbLine
 10
297.1737388571268
 20
51.88432737701752
 30
0.0
 11
318.1737388571266
 21
51.88432737701752
 31
0.0
  0
LINE
  5
DEC
330
18
100
AcDbEntity
  8
1
  6
Continuous
100
AcDbLine
 10
301.6737388571268
 20
41.63432737701754
 30
0.0
 11
313.6737388571266
 21
41.63432737701754
 31
0.0
  0
LINE
  5
DED
330
18
100
AcDbEntity
  8
1
  6
Continuous
100
AcDbLine
 10
302.4237388571267
 20
40.88432737701753
 30
0.0
 11
312.9237388571266
 21
40.88432737701753
 31
0.0
  0
LINE
  5
DF2
330
18
100
AcDbEntity
  8
1
  6
Continuous
100
AcDbLine
 10
301.6737388571268
 20
41.63432737701754
 30
0.0
 11
301.6737388571268
 21
44.88432737701745
 31
0.0
  0
LINE
  5
DF6
330
18
100
AcDbEntity
  8
1
  6
Continuous
100
AcDbLine
 10
302.4237388571267
 20
40.88432737701753
 30
0.0
 11
301.6737388571268
 21
41.63432737701754
 31
0.0
  0
ARC
  5
DFA
330
18
100
AcDbEntity
  8
1
  6
Continuous
100
AcDbCircle
 10
302.9237410718149
 20
54.53426723913771
 30
0.0
 40
9.649952699611626
100
AcDbArc
 50
240.5127306237512
 51
299.4872693762373
  0
ARC
  5
DFB
330
18
100
AcDbEntity
  8
1
  6
Continuous
100
AcDbCircle
 10
302.9237410718149
 20
42.23437492137525
 30
0.0
 40
9.649952699611626
100
AcDbArc
 50
60.51273062375123
 51
119.4872693762487
  0
LINE
  5
DFC
330
18
100
AcDbEntity
  8
1
  6
Continuous
100
AcDbLine
 10
298.1737432865029
 20
51.88432737701752
 30
0.0
 11
298.1737432865029
 21
44.88432737701777
 31
0.0
  0
LINE
  5
DFD
330
18
100
AcDbEntity
  8
1
  6
Continuous
100
AcDbLine
 10
297.1737388571268
 20
54.88432737701753
 30
0.0
 11
297.1737388571268
 21
51.88432737701752
 31
0.0
  0
LINE
  5
DFF
330
18
100
AcDbEntity
  8
1
  6
Continuous
100
AcDbLine
 10
307.6737388571266
 20
50.63432737701752
 30
0.0
 11
307.6737388571266
 21
46.13432737701752
 31
0.0
  0
LINE
  5
E03
330
18
100
AcDbEntity
  8
1
  6
Continuous
100
AcDbLine
 10
313.6737388571266
 20
41.63432737701754
 30
0.0
 11
313.6737388571266
 21
44.88432737701745
 31
0.0
  0
LINE
  5
E06
330
18
100
AcDbEntity
  8
1
  6
Continuous
100
AcDbLine
 10
312.9237388571266
 20
40.88432737701753
 30
0.0
 11
313.6737388571266
 21
41.63432737701754
 31
0.0
  0
ARC
  5
E07
330
18
100
AcDbEntity
  8
1
  6
Continuous
100
AcDbCircle
 10
324.6170852390523
 20
51.88432737701799
 30
0.0
 40
6.0
100
AcDbArc
 50
54.71873622849146
 51
90.0
  0
LINE
  5
E08
330
18
100
AcDbEntity
  8
1
  6
Continuous
100
AcDbLine
 10
317.1737344277503
 20
51.88432737701752
 30
0.0
 11
317.1737344277503
 21
44.88432737701777
 31
0.0
  0
LINE
  5
E09
330
18
100
AcDbEntity
  8
1
  6
Continuous
100
AcDbLine
 10
318.1737388571266
 20
54.88432737701753
 30
0.0
 11
318.1737388571266
 21
51.88432737701752
 31
0.0
  0
ARC
  5
E0C
330
18
100
AcDbEntity
  8
1
  6
Continuous
100
AcDbCircle
 10
324.6170852390528
 20
51.88432737701777
 30
0.0
 40
3.0
100
AcDbArc
 50
54.71873622849159
 51
90.0
  0
ARC
  5
E1D
330
18
100
AcDbEntity
  8
1
  6
Continuous
100
AcDbCircle
 10
324.6170852390523
 20
119.8843273770175
 30
0.0
 40
6.0
100
AcDbArc
 50
270.0
 51
305.2812637715084
  0
ARC
  5
E20
330
18
100
AcDbEntity
  8
1
  6
Continuous
100
AcDbCircle
 10
324.6170852390525
 20
119.8843273770177
 30
0.0
 40
3.0
100
AcDbArc
 50
270.0
 51
305.2812637715084
  0
LINE
  5
E48
330
18
100
AcDbEntity
  8
1
  6
Continuous
100
AcDbLine
 10
572.1900903268062
 20
333.2283193578224
 30
0.0
 11
563.1124073378718
 21
365.6082182634124
 31
0.0
  0
LINE
  5
E49
330
18
100
AcDbEntity
  8
1
  6
Continuous
100
AcDbLine
 10
503.9651393426326
 20
333.2283193578224
 30
0.0
 11
513.0428223315673
 21
365.6082182634124
 31
0.0
  0
LINE
  5
E4C
330
18
100
AcDbEntity
  8
1
  6
Continuous
100
AcDbLine
 10
506.8711465940904
 20
332.4832543576544
 30
0.0
 11
515.7982238347194
 21
367.3018959389157
 31
0.0
  0
LINE
  5
E4D
330
18
100
AcDbEntity
  8
1
  6
Continuous
100
AcDbLine
 10
569.2840875402096
 20
332.4832908847428
 30
0.0
 11
560.3570178347196
 21
367.3018979389157
 31
0.0
  0
ARC
  5
E74
330
18
100
AcDbEntity
  8
1
  6
Continuous
100
AcDbCircle
 10
683.9563378347194
 20
347.9397369389157
 30
0.0
 40
179.028732
100
AcDbArc
 50
187.3787039721594
 51
193.5498518943362
  0
ARC
  5
E75
330
18
100
AcDbEntity
  8
1
  6
Continuous
100
AcDbCircle
 10
504.0776148347194
 20
304.5890890597158
 30
0.0
 40
6.0
100
AcDbArc
 50
359.9999999999996
 51
13.54985189433622
  0
ARC
  5
E76
330
18
100
AcDbEntity
  8
1
  6
Continuous
100
AcDbCircle
 10
504.0776148347194
 20
304.5891120597163
 30
0.0
 40
3.0
100
AcDbArc
 50
359.9999999999993
 51
13.54985189433622
  0
ARC
  5
E7A
330
18
100
AcDbEntity
  8
1
  6
Continuous
100
AcDbCircle
 10
526.244528270475
 20
327.5161543565346
 30
0.0
 40
23.0
100
AcDbArc
 50
165.6198091062313
 51
187.3787039721594
  0
ARC
  5
E7B
330
18
100
AcDbEntity
  8
1
  6
Continuous
100
AcDbCircle
 10
526.244528270475
 20
327.5161543565346
 30
0.0
 40
20.0
100
AcDbArc
 50
165.6198091062313
 51
187.3787039721594
  0
ARC
  5
E8A
330
18
100
AcDbEntity
  8
1
  6
Continuous
100
AcDbCircle
 10
392.1988918347196
 20
347.9397369389157
 30
0.0
 40
179.028732
100
AcDbArc
 50
346.4501481056635
 51
352.6213090480835
  0
ARC
  5
E8B
330
18
100
AcDbEntity
  8
1
  6
Continuous
100
AcDbCircle
 10
572.0776148347197
 20
304.5890890597155
 30
0.0
 40
6.0
100
AcDbArc
 50
166.4501481056642
 51
180.0
  0
ARC
  5
E8C
330
18
100
AcDbEntity
  8
1
  6
Continuous
100
AcDbCircle
 10
572.0776148347197
 20
304.5891120597155
 30
0.0
 40
3.0
100
AcDbArc
 50
166.4501481056631
 51
180.0
  0
ARC
  5
EA1
330
18
100
AcDbEntity
  8
1
  6
Continuous
100
AcDbCircle
 10
549.91070604014
 20
327.5161901959335
 30
0.0
 40
20.0
100
AcDbArc
 50
352.6213090480832
 51
14.38019292757459
  0
ARC
  5
EA4
330
18
100
AcDbEntity
  8
1
  6
Continuous
100
AcDbCircle
 10
549.91070604014
 20
327.5161901959335
 30
0.0
 40
23.0
100
AcDbArc
 50
352.6213090480832
 51
14.38019292757459
  0
ARC
  5
EA7
330
18
100
AcDbEntity
  8
1
  6
Continuous
100
AcDbCircle
 10
538.0776148347194
 20
358.5897309389154
 30
0.0
 40
26.0
100
AcDbArc
 50
15.66080484320105
 51
164.3391951567986
  0
ARC
  5
EBD
330
18
100
AcDbEntity
  8
1
  6
Continuous
100
AcDbCircle
 10
538.0776148347194
 20
361.5897309389154
 30
0.0
 40
23.0
100
AcDbArc
 50
14.38018000000101
 51
165.6198070000013
  0
LINE
  5
EDE
330
18
100
AcDbEntity
  8
1
  6
Continuous
100
AcDbLine
 10
777.9814218874713
 20
297.4549039389161
 30
0.0
 11
768.4814263168474
 21
291.9700789389159
 31
0.0
  0
ARC
  5
EDF
330
18
100
AcDbEntity
  8
1
  6
Continuous
100
AcDbCircle
 10
768.4814263168476
 20
302.9397289389156
 30
0.0
 40
10.49999999999976
100
AcDbArc
 50
274.7911779553524
 51
325.2088220446513
  0
ARC
  5
EE0
330
18
100
AcDbEntity
  8
1
  6
Continuous
100
AcDbCircle
 10
768.4814263168476
 20
302.9397289389156
 30
0.0
 40
10.49999999999976
100
AcDbArc
 50
214.7911779553487
 51
265.2088220446474
  0
LINE
  5
EE1
330
18
100
AcDbEntity
  8
1
  6
Continuous
100
AcDbLine
 10
758.9814307462237
 20
297.4549039389161
 30
0.0
 11
768.4814263168479
 21
291.9700789389159
 31
0.0
  0
CIRCLE
  5
EE2
330
18
100
AcDbEntity
  8
1
  6
Continuous
100
AcDbCircle
 10
768.4814263168476
 20
302.9397289389156
 30
0.0
 40
9.499995570623923
  0
LINE
  5
EE3
330
18
100
AcDbEntity
  8
1
  6
Continuous
100
AcDbLine
 10
777.9814218874713
 20
308.4245539389153
 30
0.0
 11
768.4814263168474
 21
313.9093789389156
 31
0.0
  0
ARC
  5
EE4
330
18
100
AcDbEntity
  8
1
  6
Continuous
100
AcDbCircle
 10
768.4814263168476
 20
302.9397289389156
 30
0.0
 40
10.49999999999976
100
AcDbArc
 50
34.79117795534874
 51
85.20882204464752
  0
ARC
  5
EE5
330
18
100
AcDbEntity
  8
1
  6
Continuous
100
AcDbCircle
 10
768.4814263168476
 20
302.9397289389156
 30
0.0
 40
10.49999999999976
100
AcDbArc
 50
154.7911779553473
 51
205.2088220446524
  0
CIRCLE
  5
EE6
330
18
100
AcDbEntity
  8
2
  6
Continuous
100
AcDbCircle
 10
768.4814263168476
 20
302.9397289389156
 30
0.0
 40
4.500015000462315
  0
CIRCLE
  5
EE7
330
18
100
AcDbEntity
  8
1
  6
Continuous
100
AcDbCircle
 10
768.4814263168476
 20
302.9397289389156
 30
0.0
 40
5.999999999999772
  0
LINE
  5
EE8
330
18
100
AcDbEntity
  8
1
  6
Continuous
100
AcDbLine
 10
758.9814307462237
 20
308.4245539389158
 30
0.0
 11
758.9814307462237
 21
297.4549039389156
 31
0.0
  0
ARC
  5
EE9
330
18
100
AcDbEntity
  8
1
  6
Continuous
100
AcDbCircle
 10
768.4814263168476
 20
302.9397289389156
 30
0.0
 40
10.49999999999976
100
AcDbArc
 50
94.7911779553525
 51
145.2088220446511
  0
LINE
  5
EEA
330
18
100
AcDbEntity
  8
1
  6
Continuous
100
AcDbLine
 10
758.9814307462237
 20
308.4245539389153
 30
0.0
 11
768.4814263168479
 21
313.9093789389156
 31
0.0
  0
ARC
  5
EEB
330
18
100
AcDbEntity
  8
1
  6
Continuous
100
AcDbCircle
 10
768.4814263168476
 20
302.9397289389156
 30
0.0
 40
10.49999999999976
100
AcDbArc
 50
334.7911779553474
 51
25.20882204465249
  0
LINE
  5
EEC
330
18
100
AcDbEntity
  8
1
  6
Continuous
100
AcDbLine
 10
777.9814218874713
 20
308.4245539389158
 30
0.0
 11
777.9814218874713
 21
297.4549039389156
 31
0.0
  0
LINE
  5
1229
330
18
100
AcDbEntity
  8
1
  6
Continuous
100
AcDbLine
 10
204.8556088571263
 20
59.88432737701782
 30
0.0
 11
204.8556088571262
 21
59.38432737701782
 31
0.0
  0
LINE
  5
122A
330
18
100
AcDbEntity
  8
1
  6
Continuous
100
AcDbLine
 10
268.6737278571267
 20
103.3843273770177
 30
0.0
 11
268.6737278571267
 21
110.8843273770178
 31
0.0
  0
CIRCLE
  5
122D
330
18
100
AcDbEntity
  8
1
  6
Continuous
100
AcDbCircle
 10
787.9814988123123
 20
382.9397289389156
 30
0.0
 40
2.5
  0
CIRCLE
  5
122E
330
18
100
AcDbEntity
  8
1
  6
Continuous
100
AcDbCircle
 10
804.9814988123124
 20
389.9397329389157
 30
0.0
 40
2.5
  0
CIRCLE
  5
122F
330
18
100
AcDbEntity
  8
1
  6
Continuous
100
AcDbCircle
 10
820.4814908123124
 20
385.9397139389157
 30
0.0
 40
2.5
  0
CIRCLE
  5
1230
330
18
100
AcDbEntity
  8
1
  6
Continuous
100
AcDbCircle
 10
830.6435928123123
 20
368.6237919389157
 30
0.0
 40
2.5
  0
CIRCLE
  5
1231
330
18
100
AcDbEntity
  8
5
  6
PHANTOM
 48
0.3
100
AcDbCircle
 10
814.8434448123122
 20
377.3305299389156
 30
0.0
 40
2.5
  0
CIRCLE
  5
1232
330
18
100
AcDbEntity
  8
5
  6
PHANTOM
 48
0.3
100
AcDbCircle
 10
828.7504268123123
 20
364.2522559389157
 30
0.0
 40
2.5
  0
LINE
  5
1236
330
18
100
AcDbEntity
  8
1
  6
Continuous
100
AcDbLine
 10
838.7858121211396
 20
396.9726781849714
 30
0.0
 11
838.1387661211396
 21
394.5578701849713
 31
0.0
  0
LINE
  5
1653
330
18
100
AcDbEntity
  8
1
  6
Continuous
100
AcDbLine
 10
94.00166287953366
 20
384.9397289389156
 30
0.0
 11
94.50166287953381
 21
384.9397289389156
 31
0.0
  0
ARC
  5
1654
330
18
100
AcDbEntity
  8
1
  6
Continuous
100
AcDbCircle
 10
31.50166287953377
 20
387.4397289389154
 30
0.0
 40
1.5
100
AcDbArc
 50
180.000036
 51
270.0000149333293
  0
LINE
  5
1659
330
18
100
AcDbEntity
  8
1
  6
Continuous
100
AcDbLine
 10
238.6171021968711
 20
63.88432737701783
 30
0.0
 11
238.6171021968713
 21
68.38432737701788
 31
0.0
  0
LINE
  5
165A
330
18
100
AcDbEntity
  8
1
  6
Continuous
100
AcDbLine
 10
236.452038473141
 20
63.38432737701785
 30
0.0
 11
236.452038473141
 21
68.38432737701785
 31
0.0
  0
LINE
  5
1771
330
18
100
AcDbEntity
  8
1
  6
Continuous
100
AcDbLine
 10
238.6171021968711
 20
63.88432737701785
 30
0.0
 11
244.9281356787686
 21
63.88432737701785
 31
0.0
  0
LINE
  5
1772
330
18
100
AcDbEntity
  8
1
  6
Continuous
100
AcDbLine
 10
238.452038473141
 20
61.38432737701785
 30
0.0
 11
244.9281356787686
 21
61.38432737701785
 31
0.0
  0
LINE
  5
1774
330
18
100
AcDbEntity
  8
1
  6
Continuous
100
AcDbLine
 10
246.3097968571267
 20
60.38432737701782
 30
0.0
 11
246.3097968571267
 21
68.38432737701785
 31
0.0
  0
LINE
  5
1775
330
18
100
AcDbEntity
  8
1
  6
Continuous
100
AcDbLine
 10
244.9281356787686
 20
60.88432737701761
 30
0.0
 11
244.9281356787687
 21
68.38432737701785
 31
0.0
  0
ARC
  5
1776
330
18
100
AcDbEntity
  8
1
  6
Continuous
100
AcDbCircle
 10
244.3097968571267
 20
60.38432737701782
 30
0.0
 40
2.0
100
AcDbArc
 50
269.9999999999982
 51
0.0000000000002036
  0
LINE
  5
1777
330
18
100
AcDbEntity
  8
1
  6
Continuous
100
AcDbLine
 10
268.6737278571267
 20
60.88432737701761
 30
0.0
 11
268.6737278571267
 21
68.38432737701785
 31
0.0
  0
ARC
  5
1778
330
18
100
AcDbEntity
  8
1
  6
Continuous
100
AcDbCircle
 10
238.452038473141
 20
63.38432737701785
 30
0.0
 40
2.0
100
AcDbArc
 50
180.0
 51
270.0
  0
LINE
  5
1779
330
18
100
AcDbEntity
  8
1
  6
Continuous
100
AcDbLine
 10
243.1559348571262
 20
60.88432737701761
 30
0.0
 11
243.1559348571262
 21
61.38432737701786
 31
0.0
  0
LINE
  5
177A
330
18
100
AcDbEntity
  8
1
  6
Continuous
100
AcDbLine
 10
243.1559348571262
 20
63.88432737701786
 30
0.0
 11
243.1559348571262
 21
68.38432737701785
 31
0.0
  0
ARC
  5
177B
330
18
100
AcDbEntity
  8
1
  6
Continuous
100
AcDbCircle
 10
244.3097968571267
 20
111.3843273770177
 30
0.0
 40
2.0
100
AcDbArc
 50
359.9999999999997
 51
90.00000000000161
  0
ARC
  5
177D
330
18
100
AcDbEntity
  8
1
  6
Continuous
100
AcDbCircle
 10
260.1444728571265
 20
111.3843273770177
 30
0.0
 40
2.0
100
AcDbArc
 50
359.9999999999997
 51
90.00000000000161
  0
LINE
  5
177E
330
18
100
AcDbEntity
  8
1
  6
Continuous
100
AcDbLine
 10
262.1444728571265
 20
60.38432737701782
 30
0.0
 11
262.1444728571265
 21
68.38432737701785
 31
0.0
  0
ARC
  5
177F
330
18
100
AcDbEntity
  8
1
  6
Continuous
100
AcDbCircle
 10
260.1444728571265
 20
60.38432737701782
 30
0.0
 40
2.0
100
AcDbArc
 50
269.9999999999982
 51
0.0000000000002036
  0
LINE
  5
1780
330
18
100
AcDbEntity
  8
1
  6
Continuous
100
AcDbLine
 10
262.1444728571265
 20
103.3843273770177
 30
0.0
 11
262.1444728571265
 21
111.3843273770177
 31
0.0
  0
LINE
  5
1781
330
18
100
AcDbEntity
  8
1
  6
Continuous
100
AcDbLine
 10
246.3097968571267
 20
103.3843273770177
 30
0.0
 11
246.3097968571267
 21
111.3843273770177
 31
0.0
  0
LINE
  5
1782
330
18
100
AcDbEntity
  8
1
  6
Continuous
100
AcDbLine
 10
244.9281356787686
 20
103.3843273770177
 30
0.0
 11
244.9281356787686
 21
110.8843273770178
 31
0.0
  0
LINE
  5
1783
330
18
100
AcDbEntity
  8
1
  6
Continuous
100
AcDbLine
 10
262.1444728571265
 20
110.8843273770178
 30
0.0
 11
288.84358839222
 21
110.8843273770178
 31
0.0
  0
LINE
  5
1784
330
18
100
AcDbEntity
  8
1
  6
Continuous
100
AcDbLine
 10
285.6737278571266
 20
103.3843273770177
 30
0.0
 11
285.6737278571267
 21
110.8843273770178
 31
0.0
  0
LINE
  5
1785
330
18
100
AcDbEntity
  8
1
  6
Continuous
100
AcDbLine
 10
285.6737418571266
 20
113.3843273770178
 30
0.0
 11
285.6737418571266
 21
113.8843273770177
 31
0.0
  0
LINE
  5
1786
330
18
100
AcDbEntity
  8
1
  6
Continuous
100
AcDbLine
 10
290.6737338571263
 20
113.3843273770176
 30
0.0
 11
290.6737338571263
 21
113.8843273770175
 31
0.0
  0
LINE
  5
1787
330
18
100
AcDbEntity
  8
1
  6
Continuous
100
AcDbLine
 10
262.1444728571265
 20
60.88432737701761
 30
0.0
 11
288.8435855749118
 21
60.88432737701761
 31
0.0
  0
LINE
  5
1788
330
18
100
AcDbEntity
  8
1
  6
Continuous
100
AcDbLine
 10
285.6737338571263
 20
57.88432737701771
 30
0.0
 11
285.6737338571264
 21
58.38432737701772
 31
0.0
  0
LINE
  5
1789
330
18
100
AcDbEntity
  8
1
  6
Continuous
100
AcDbLine
 10
290.6737338571263
 20
57.88432737701771
 30
0.0
 11
290.6737338571263
 21
58.38432737701772
 31
0.0
  0
LINE
  5
178A
330
18
100
AcDbEntity
  8
1
  6
Continuous
100
AcDbLine
 10
285.6737278571266
 20
60.88432737701751
 30
0.0
 11
285.6737278571266
 21
68.38432737701785
 31
0.0
  0
LINE
  5
178C
330
18
100
AcDbEntity
  8
1
  6
Continuous
100
AcDbLine
 10
294.3336261359787
 20
113.3843273770176
 30
0.0
 11
294.3336261359787
 21
112.824712051985
 31
0.0
  0
LINE
  5
178E
330
18
100
AcDbEntity
  8
1
  6
Continuous
100
AcDbLine
 10
294.3336261359787
 20
58.38432737701805
 30
0.0
 11
294.3336261359787
 21
58.94394270205062
 31
0.0
  0
LINE
  5
1790
330
18
100
AcDbEntity
  8
1
  6
Continuous
100
AcDbLine
 10
237.3670788571264
 20
107.8843273770178
 30
0.0
 11
244.9281356787686
 21
107.8843273770178
 31
0.0
  0
LINE
  5
1791
330
18
100
AcDbEntity
  8
1
  6
Continuous
100
AcDbLine
 10
237.3670788571264
 20
110.3843273770177
 30
0.0
 11
244.9281356787686
 21
110.3843273770177
 31
0.0
  0
LINE
  5
1797
330
18
100
AcDbEntity
  8
1
  6
Continuous
100
AcDbLine
 10
243.1559348571262
 20
110.8843273770179
 30
0.0
 11
243.1559348571262
 21
110.3843273770177
 31
0.0
  0
LINE
  5
1798
330
18
100
AcDbEntity
  8
1
  6
Continuous
100
AcDbLine
 10
243.1559348571262
 20
107.8843273770178
 30
0.0
 11
243.1559348571262
 21
103.3843273770177
 31
0.0
  0
ARC
  5
191A
330
18
100
AcDbEntity
  8
1
  6
Continuous
100
AcDbCircle
 10
307.6737388571267
 20
302.9397289389156
 30
0.0
 40
30.0
100
AcDbArc
 50
262.0718299999984
 51
277.9281500000016
  0
ARC
  5
191B
330
18
100
AcDbEntity
  8
1
  6
Continuous
100
AcDbCircle
 10
307.6737388571267
 20
302.9397289389156
 30
0.0
 40
62.0
100
AcDbArc
 50
100.8804256416103
 51
39.76701249543475
  0
ARC
  5
191C
330
18
100
AcDbEntity
  8
1
  6
Continuous
100
AcDbCircle
 10
307.6737388571267
 20
302.9397289389156
 30
0.0
 40
18.5
100
AcDbArc
 50
153.4469678017569
 51
351.0580659313794
  0
ARC
  5
191D
330
18
100
AcDbEntity
  8
1
  6
Continuous
100
AcDbCircle
 10
307.6737388571267
 20
302.9397289389156
 30
0.0
 40
75.0
100
AcDbArc
 50
109.8562569139577
 51
42.52206278637832
  0
LINE
  5
192E
330
18
100
AcDbEntity
  8
1
  6
Continuous
100
AcDbLine
 10
273.6737338571263
 20
575.0574705008135
 30
0.0
 11
282.8388848571266
 21
575.0574705008138
 31
0.0
  0
LINE
  5
192F
330
18
100
AcDbEntity
  8
1
  6
Continuous
100
AcDbLine
 10
273.6737338571263
 20
540.0574705008136
 30
0.0
 11
282.8388848571266
 21
540.0574705008136
 31
0.0
  0
LINE
  5
1A03
330
18
100
AcDbEntity
  8
1
  6
Continuous
100
AcDbLine
 10
302.6737388571266
 20
285.1282150389156
 30
0.0
 11
302.6737388571266
 21
274.2169159389157
 31
0.0
  0
ARC
  5
1A04
330
18
100
AcDbEntity
  8
1
  6
Continuous
100
AcDbCircle
 10
303.6737388571267
 20
274.2169159389157
 30
0.0
 40
1.0
100
AcDbArc
 50
179.9999799999978
 51
262.0717899999955
  0
LINE
  5
1A65
330
18
100
AcDbEntity
  8
1
  6
Continuous
100
AcDbLine
 10
312.6737388571267
 20
285.1282150389156
 30
0.0
 11
312.6737388571267
 21
274.2169159389157
 31
0.0
  0
ARC
  5
1A66
330
18
100
AcDbEntity
  8
1
  6
Continuous
100
AcDbCircle
 10
311.6737388571266
 20
274.2169159389157
 30
0.0
 40
1.0
100
AcDbArc
 50
277.9281999999968
 51
0.0
  0
ARC
  5
1A82
330
18
100
AcDbEntity
  8
1
  6
Continuous
100
AcDbCircle
 10
768.4815553077768
 20
302.9397289389156
 30
0.0
 40
62.0
100
AcDbArc
 50
140.232987504565
 51
79.1195743583897
  0
ARC
  5
1A83
330
18
100
AcDbEntity
  8
1
  6
Continuous
100
AcDbCircle
 10
768.4815553077768
 20
302.9397289389156
 30
0.0
 40
75.0
100
AcDbArc
 50
137.4779372136216
 51
70.14374308604226
  0
ARC
  5
1A84
330
18
100
AcDbEntity
  8
1
  6
Continuous
100
AcDbCircle
 10
768.4815553077768
 20
302.9397289389156
 30
0.0
 40
18.5
100
AcDbArc
 50
188.9419340686204
 51
26.55303219824296
  0
LINE
  5
1AA0
330
18
100
AcDbEntity
  8
1
  6
Continuous
100
AcDbLine
 10
45.50166287953384
 20
354.7542509389156
 30
0.0
 11
45.5016628795338
 21
231.6566019389155
 31
0.0
  0
LINE
  5
1AA1
330
18
100
AcDbEntity
  8
1
  6
Continuous
100
AcDbLine
 10
80.50166287953375
 20
343.4961559389157
 30
0.0
 11
80.50166287953379
 21
231.6566019389155
 31
0.0
  0
LINE
  5
1AA2
330
18
100
AcDbEntity
  8
1
  6
Continuous
100
AcDbLine
 10
90.00166287953382
 20
315.9397139389156
 30
0.0
 11
90.00166287953382
 21
289.9397139389157
 31
0.0
  0
LINE
  5
1AA3
330
18
100
AcDbEntity
  8
1
  6
Continuous
100
AcDbLine
 10
89.50166287953381
 20
320.6006140389157
 30
0.0
 11
89.50166287953381
 21
285.2788138389156
 31
0.0
  0
LINE
  5
1AA4
330
18
100
AcDbEntity
  8
1
  6
Continuous
100
AcDbLine
 10
36.0016628795338
 20
315.9397135898497
 30
0.0
 11
36.0016628795338
 21
289.9397139389157
 31
0.0
  0
LINE
  5
1AA5
330
18
100
AcDbEntity
  8
1
  6
Continuous
100
AcDbLine
 10
36.50166287953378
 20
320.6006136898498
 30
0.0
 11
36.50166287953378
 21
285.2788138389156
 31
0.0
  0
ARC
  5
1AA6
330
18
100
AcDbEntity
  8
1
  6
Continuous
100
AcDbCircle
 10
63.0016628795338
 20
377.9397139389157
 30
0.0
 40
150.0
100
AcDbArc
 50
264.3391499999984
 51
275.6608300000012
  0
ARC
  5
1AA7
330
18
100
AcDbEntity
  8
1
  6
Continuous
100
AcDbCircle
 10
48.5016628795338
 20
231.6566019389155
 30
0.0
 40
3.0
100
AcDbArc
 50
179.9999799999978
 51
264.3390899999997
  0
LINE
  5
1AA8
330
18
100
AcDbEntity
  8
1
  6
Continuous
100
AcDbLine
 10
37.24284287953378
 20
284.3128857389156
 30
0.0
 11
45.5016628795338
 21
282.0999429389157
 31
0.0
  0
ARC
  5
1AA9
330
18
100
AcDbEntity
  8
1
  6
Continuous
100
AcDbCircle
 10
37.50166287953379
 20
285.2788138389156
 30
0.0
 40
1.0
100
AcDbArc
 50
179.9999799999978
 51
259.9999499999973
  0
LINE
  5
1AAA
330
18
100
AcDbEntity
  8
1
  6
Continuous
100
AcDbLine
 10
35.00166287953379
 20
294.4397139389156
 30
0.0
 11
36.0016628795338
 21
294.4397139389156
 31
0.0
  0
ARC
  5
1AAB
330
18
100
AcDbEntity
  8
1
  6
Continuous
100
AcDbCircle
 10
37.00166287953379
 20
289.9397139389157
 30
0.0
 40
1.0
100
AcDbArc
 50
179.9999799999978
 51
239.9999799999988
  0
LINE
  5
1AAC
330
18
100
AcDbEntity
  8
1
  6
Continuous
100
AcDbLine
 10
35.00166287953379
 20
311.4397139389156
 30
0.0
 11
36.0016628795338
 21
311.4397139389156
 31
0.0
  0
ARC
  5
1AAD
330
18
100
AcDbEntity
  8
1
  6
Continuous
100
AcDbCircle
 10
77.5016628795338
 20
231.6566019389155
 30
0.0
 40
3.0
100
AcDbArc
 50
275.6608899999978
 51
0.0
  0
LINE
  5
1AAE
330
18
100
AcDbEntity
  8
1
  6
Continuous
100
AcDbLine
 10
88.76048287953375
 20
284.3128886389156
 30
0.0
 11
80.50166287953379
 21
282.0999449389157
 31
0.0
  0
ARC
  5
1AAF
330
18
100
AcDbEntity
  8
1
  6
Continuous
100
AcDbCircle
 10
88.50166287953381
 20
285.2788138389156
 30
0.0
 40
1.0
100
AcDbArc
 50
280.0000399999985
 51
0.0
  0
LINE
  5
1AB0
330
18
100
AcDbEntity
  8
1
  6
Continuous
100
AcDbLine
 10
90.00166287953382
 20
294.4397139389156
 30
0.0
 11
91.00166287953381
 21
294.4397139389156
 31
0.0
  0
ARC
  5
1AB1
330
18
100
AcDbEntity
  8
1
  6
Continuous
100
AcDbCircle
 10
89.0016628795338
 20
289.9397139389157
 30
0.0
 40
1.0
100
AcDbArc
 50
300.0000100000008
 51
0.0
  0
LINE
  5
1AB2
330
18
100
AcDbEntity
  8
1
  6
Continuous
100
AcDbLine
 10
90.00166287953382
 20
311.4397139389156
 30
0.0
 11
91.00166287953381
 21
311.4397139389156
 31
0.0
  0
LINE
  5
1AB4
330
18
100
AcDbEntity
  8
1
  6
Continuous
100
AcDbLine
 10
37.24284287953378
 20
321.5665421389156
 30
0.0
 11
45.5016628795338
 21
323.7794849389156
 31
0.0
  0
ARC
  5
1AB5
330
18
100
AcDbEntity
  8
1
  6
Continuous
100
AcDbCircle
 10
37.50166287953379
 20
320.6006140389157
 30
0.0
 40
1.0
100
AcDbArc
 50
100.0000500000025
 51
180.0000199999987
  0
ARC
  5
1AB6
330
18
100
AcDbEntity
  8
1
  6
Continuous
100
AcDbCircle
 10
37.00166287953379
 20
315.9397139389156
 30
0.0
 40
1.0
100
AcDbArc
 50
120.000020000001
 51
180.0000199999987
  0
LINE
  5
1AB8
330
18
100
AcDbEntity
  8
1
  6
Continuous
100
AcDbLine
 10
88.76048287953375
 20
321.5665392389157
 30
0.0
 11
80.50166287953379
 21
323.7794829389156
 31
0.0
  0
ARC
  5
1AB9
330
18
100
AcDbEntity
  8
1
  6
Continuous
100
AcDbCircle
 10
88.50166287953381
 20
320.6006140389157
 30
0.0
 40
1.0
100
AcDbArc
 50
0.0
 51
79.99996000000132
  0
ARC
  5
1ABA
330
18
100
AcDbEntity
  8
1
  6
Continuous
100
AcDbCircle
 10
89.0016628795338
 20
315.9397139389156
 30
0.0
 40
1.0
100
AcDbArc
 50
0.0
 51
59.99998999999918
  0
LINE
  5
1ABD
330
18
100
AcDbEntity
  8
1
  6
Continuous
100
AcDbLine
 10
555.5776148347193
 20
374.2228259389157
 30
0.0
 11
555.5776148347193
 21
231.6566019389155
 31
0.0
  0
LINE
  5
1ABE
330
18
100
AcDbEntity
  8
1
  6
Continuous
100
AcDbLine
 10
520.5776148347195
 20
374.2228259389157
 30
0.0
 11
520.5776148347195
 21
231.6566019389155
 31
0.0
  0
LINE
  5
1ABF
330
18
100
AcDbEntity
  8
1
  6
Continuous
100
AcDbLine
 10
511.0776148347193
 20
315.9397139389156
 30
0.0
 11
511.0776148347193
 21
289.9397139389157
 31
0.0
  0
LINE
  5
1AC0
330
18
100
AcDbEntity
  8
1
  6
Continuous
100
AcDbLine
 10
511.5776148347193
 20
320.6006140389157
 30
0.0
 11
511.5776148347193
 21
285.2788138389156
 31
0.0
  0
LINE
  5
1AC1
330
18
100
AcDbEntity
  8
1
  6
Continuous
100
AcDbLine
 10
565.0776148347195
 20
315.9397135898497
 30
0.0
 11
565.0776148347195
 21
289.9397139389157
 31
0.0
  0
LINE
  5
1AC2
330
18
100
AcDbEntity
  8
1
  6
Continuous
100
AcDbLine
 10
564.5776148347192
 20
320.6006136898498
 30
0.0
 11
564.5776148347192
 21
285.2788138389156
 31
0.0
  0
ARC
  5
1AC4
330
18
100
AcDbEntity
  8
1
  6
Continuous
100
AcDbCircle
 10
538.0776148347194
 20
377.9397139389157
 30
0.0
 40
150.0
100
AcDbArc
 50
264.3391699999986
 51
275.6608500000016
  0
ARC
  5
1AC5
330
18
100
AcDbEntity
  8
1
  6
Continuous
100
AcDbCircle
 10
552.5776148347195
 20
231.6566019389155
 30
0.0
 40
3.0
100
AcDbArc
 50
275.6609100000001
 51
0.0000200000020199
  0
LINE
  5
1AC6
330
18
100
AcDbEntity
  8
1
  6
Continuous
100
AcDbLine
 10
563.8364348347193
 20
284.3128857389156
 30
0.0
 11
555.5776148347193
 21
282.0999429389157
 31
0.0
  0
ARC
  5
1AC7
330
18
100
AcDbEntity
  8
1
  6
Continuous
100
AcDbCircle
 10
563.5776148347193
 20
285.2788138389156
 30
0.0
 40
1.0
100
AcDbArc
 50
280.0000500000026
 51
0.0000200000020199
  0
LINE
  5
1AC8
330
18
100
AcDbEntity
  8
1
  6
Continuous
100
AcDbLine
 10
566.0776148347195
 20
294.4397139389156
 30
0.0
 11
565.0776148347195
 21
294.4397139389156
 31
0.0
  0
ARC
  5
1AC9
330
18
100
AcDbEntity
  8
1
  6
Continuous
100
AcDbCircle
 10
564.0776148347192
 20
289.9397139389157
 30
0.0
 40
1.0
100
AcDbArc
 50
300.0000200000008
 51
0.0000200000020199
  0
LINE
  5
1ACA
330
18
100
AcDbEntity
  8
1
  6
Continuous
100
AcDbLine
 10
566.0776148347195
 20
311.4397139389156
 30
0.0
 11
565.0776148347195
 21
311.4397139389156
 31
0.0
  0
ARC
  5
1ACB
330
18
100
AcDbEntity
  8
1
  6
Continuous
100
AcDbCircle
 10
523.5776148347195
 20
231.6566019389155
 30
0.0
 40
3.0
100
AcDbArc
 50
180.0
 51
264.339110000002
  0
LINE
  5
1ACC
330
18
100
AcDbEntity
  8
1
  6
Continuous
100
AcDbLine
 10
512.3187948347195
 20
284.3128886389156
 30
0.0
 11
520.5776148347195
 21
282.0999449389157
 31
0.0
  0
ARC
  5
1ACD
330
18
100
AcDbEntity
  8
1
  6
Continuous
100
AcDbCircle
 10
512.5776148347195
 20
285.2788138389156
 30
0.0
 40
1.0
100
AcDbArc
 50
180.0
 51
259.9999600000013
  0
LINE
  5
1ACE
330
18
100
AcDbEntity
  8
1
  6
Continuous
100
AcDbLine
 10
511.0776148347193
 20
294.4397139389156
 30
0.0
 11
510.0776148347192
 21
294.4397139389156
 31
0.0
  0
ARC
  5
1ACF
330
18
100
AcDbEntity
  8
1
  6
Continuous
100
AcDbCircle
 10
512.0776148347195
 20
289.9397139389157
 30
0.0
 40
1.0
100
AcDbArc
 50
180.0
 51
239.999989999999
  0
LINE
  5
1AD0
330
18
100
AcDbEntity
  8
1
  6
Continuous
100
AcDbLine
 10
511.0776148347193
 20
311.4397139389156
 30
0.0
 11
510.0776148347192
 21
311.4397139389156
 31
0.0
  0
ARC
  5
1AD1
330
18
100
AcDbEntity
  8
1
  6
Continuous
100
AcDbCircle
 10
538.0776148347194
 20
227.9397139389156
 30
0.0
 40
150.0
100
AcDbArc
 50
84.3391499999984
 51
95.66083000000134
  0
LINE
  5
1AD2
330
18
100
AcDbEntity
  8
1
  6
Continuous
100
AcDbLine
 10
563.8364348347193
 20
321.5665421389156
 30
0.0
 11
555.5776148347193
 21
323.7794849389156
 31
0.0
  0
ARC
  5
1AD3
330
18
100
AcDbEntity
  8
1
  6
Continuous
100
AcDbCircle
 10
563.5776148347193
 20
320.6006140389157
 30
0.0
 40
1.0
100
AcDbArc
 50
359.9999800000012
 51
79.99994999999731
  0
ARC
  5
1AD4
330
18
100
AcDbEntity
  8
1
  6
Continuous
100
AcDbCircle
 10
564.0776148347192
 20
315.9397139389156
 30
0.0
 40
1.0
100
AcDbArc
 50
359.9999800000012
 51
59.99997999999888
  0
ARC
  5
1AD5
330
18
100
AcDbEntity
  8
1
  6
Continuous
100
AcDbCircle
 10
552.5776148347195
 20
374.2228259389157
 30
0.0
 40
3.0
100
AcDbArc
 50
359.9999799999979
 51
84.33908999999976
  0
LINE
  5
1AD6
330
18
100
AcDbEntity
  8
1
  6
Continuous
100
AcDbLine
 10
512.3187948347195
 20
321.5665392389157
 30
0.0
 11
520.5776148347195
 21
323.7794829389156
 31
0.0
  0
ARC
  5
1AD7
330
18
100
AcDbEntity
  8
1
  6
Continuous
100
AcDbCircle
 10
512.5776148347195
 20
320.6006140389157
 30
0.0
 40
1.0
100
AcDbArc
 50
100.0000399999986
 51
180.0
  0
ARC
  5
1AD8
330
18
100
AcDbEntity
  8
1
  6
Continuous
100
AcDbCircle
 10
512.0776148347195
 20
315.9397139389156
 30
0.0
 40
1.0
100
AcDbArc
 50
120.0000100000008
 51
180.0
  0
ARC
  5
1AD9
330
18
100
AcDbEntity
  8
1
  6
Continuous
100
AcDbCircle
 10
523.5776148347195
 20
374.2228259389157
 30
0.0
 40
3.0
100
AcDbArc
 50
95.66088999999797
 51
180.0
  0
LINE
  5
1AF4
330
18
100
AcDbEntity
  8
1
  6
Continuous
100
AcDbLine
 10
236.3906268571266
 20
103.3843273770177
 30
0.0
 11
378.9568508571267
 21
103.3843273770177
 31
0.0
  0
LINE
  5
1AF5
330
18
100
AcDbEntity
  8
1
  6
Continuous
100
AcDbLine
 10
236.3906268571266
 20
68.38432737701788
 30
0.0
 11
378.9568508571267
 21
68.38432737701783
 31
0.0
  0
ARC
  5
1AF6
330
18
100
AcDbEntity
  8
1
  6
Continuous
100
AcDbCircle
 10
382.6737388571266
 20
85.88432737701785
 30
0.0
 40
150.0
100
AcDbArc
 50
174.3391699999985
 51
185.6608500000015
  0
ARC
  5
1AF7
330
18
100
AcDbEntity
  8
1
  6
Continuous
100
AcDbCircle
 10
236.3906268571266
 20
71.38432737701783
 30
0.0
 40
3.0
100
AcDbArc
 50
185.6609100000001
 51
270.0000200000018
  0
LINE
  5
1AF8
330
18
100
AcDbEntity
  8
1
  6
Continuous
100
AcDbLine
 10
290.0128391061923
 20
59.38432737701782
 30
0.0
 11
325.3346389571266
 21
59.38432737701782
 31
0.0
  0
LINE
  5
1AF9
330
18
100
AcDbEntity
  8
1
  6
Continuous
100
AcDbLine
 10
294.6737392061925
 20
58.88432737701783
 30
0.0
 11
320.6737388571266
 21
58.88432737701783
 31
0.0
  0
ARC
  5
1AFA
330
18
100
AcDbEntity
  8
1
  6
Continuous
100
AcDbCircle
 10
294.6737388571266
 20
59.88432737701785
 30
0.0
 40
1.0
100
AcDbArc
 50
210.0000200000011
 51
270.0000199999986
  0
ARC
  5
1AFB
330
18
100
AcDbEntity
  8
1
  6
Continuous
100
AcDbCircle
 10
290.0128387571267
 20
60.38432737701786
 30
0.0
 40
1.0
100
AcDbArc
 50
190.0000500000025
 51
270.0000199999986
  0
LINE
  5
1AFC
330
18
100
AcDbEntity
  8
1
  6
Continuous
100
AcDbLine
 10
289.0280311556513
 20
60.21067833994404
 30
0.0
 11
286.8339678571267
 21
68.38432737701783
 31
0.0
  0
LINE
  5
1AFD
330
18
100
AcDbEntity
  8
1
  6
Continuous
100
AcDbLine
 10
326.3005670571266
 20
60.12550737701781
 30
0.0
 11
328.5135098571267
 21
68.38432737701783
 31
0.0
  0
LINE
  5
1AFE
330
18
100
AcDbEntity
  8
1
  6
Continuous
100
AcDbLine
 10
299.1737388571266
 20
57.88432737701782
 30
0.0
 11
299.1737388571266
 21
58.88432737701783
 31
0.0
  0
ARC
  5
1AFF
330
18
100
AcDbEntity
  8
1
  6
Continuous
100
AcDbCircle
 10
320.6737388571266
 20
59.88432737701785
 30
0.0
 40
1.0
100
AcDbArc
 50
269.999979999998
 51
329.9999799999988
  0
LINE
  5
1B00
330
18
100
AcDbEntity
  8
1
  6
Continuous
100
AcDbLine
 10
316.1737388571266
 20
57.88432737701782
 30
0.0
 11
316.1737388571266
 21
58.88432737701783
 31
0.0
  0
ARC
  5
1B01
330
18
100
AcDbEntity
  8
1
  6
Continuous
100
AcDbCircle
 10
325.3346389571266
 20
60.38432737701786
 30
0.0
 40
1.0
100
AcDbArc
 50
269.999979999998
 51
349.9999499999974
  0
ARC
  5
1B02
330
18
100
AcDbEntity
  8
1
  6
Continuous
100
AcDbCircle
 10
236.3906268571266
 20
100.3843273770177
 30
0.0
 40
3.0
100
AcDbArc
 50
90.0
 51
174.3391100000019
  0
LINE
  5
1B03
330
18
100
AcDbEntity
  8
1
  6
Continuous
100
AcDbLine
 10
290.0128387571267
 20
112.3843273770178
 30
0.0
 11
325.3346389571266
 21
112.3843273770178
 31
0.0
  0
LINE
  5
1B04
330
18
100
AcDbEntity
  8
1
  6
Continuous
100
AcDbLine
 10
294.6737388571266
 20
112.8843273770177
 30
0.0
 11
320.6737388571267
 21
112.8843273770177
 31
0.0
  0
LINE
  5
1B05
330
18
100
AcDbEntity
  8
1
  6
Continuous
100
AcDbLine
 10
289.028031125344
 20
111.5579762422101
 30
0.0
 11
286.8339698571267
 21
103.3843273770177
 31
0.0
  0
ARC
  5
1B06
330
18
100
AcDbEntity
  8
1
  6
Continuous
100
AcDbCircle
 10
294.6737388571266
 20
111.8843273770177
 30
0.0
 40
1.0
100
AcDbArc
 50
90.0
 51
149.999989999999
  0
ARC
  5
1B07
330
18
100
AcDbEntity
  8
1
  6
Continuous
100
AcDbCircle
 10
290.0128387571267
 20
111.3843273770177
 30
0.0
 40
1.0
100
AcDbArc
 50
90.0
 51
169.9999600000013
  0
LINE
  5
1B08
330
18
100
AcDbEntity
  8
1
  6
Continuous
100
AcDbLine
 10
326.3005641571266
 20
111.6431473770177
 30
0.0
 11
328.5135078571266
 21
103.3843273770177
 31
0.0
  0
LINE
  5
1B09
330
18
100
AcDbEntity
  8
1
  6
Continuous
100
AcDbLine
 10
299.1737388571266
 20
112.8843273770177
 30
0.0
 11
299.1737388571266
 21
113.8843273770177
 31
0.0
  0
ARC
  5
1B0A
330
18
100
AcDbEntity
  8
1
  6
Continuous
100
AcDbCircle
 10
320.6737388571266
 20
111.8843273770177
 30
0.0
 40
1.0
100
AcDbArc
 50
30.0000100000008
 51
90.0
  0
LINE
  5
1B0B
330
18
100
AcDbEntity
  8
1
  6
Continuous
100
AcDbLine
 10
316.1737388571267
 20
112.8843273770177
 30
0.0
 11
316.1737388571267
 21
113.8843273770177
 31
0.0
  0
ARC
  5
1B0C
330
18
100
AcDbEntity
  8
1
  6
Continuous
100
AcDbCircle
 10
325.3346389571266
 20
111.3843273770177
 30
0.0
 40
1.0
100
AcDbArc
 50
10.00003999999863
 51
90.0
  0
ARC
  5
1B0D
330
18
100
AcDbEntity
  8
1
  6
Continuous
100
AcDbCircle
 10
232.6737388571265
 20
85.88432737701785
 30
0.0
 40
150.0
100
AcDbArc
 50
354.3391499999984
 51
5.660830000001357
  0
ARC
  5
1B0E
330
18
100
AcDbEntity
  8
1
  6
Continuous
100
AcDbCircle
 10
378.9568508571267
 20
71.38432737701783
 30
0.0
 40
3.0
100
AcDbArc
 50
269.999979999998
 51
354.3390899999997
  0
ARC
  5
1B0F
330
18
100
AcDbEntity
  8
1
  6
Continuous
100
AcDbCircle
 10
378.9568508571267
 20
100.3843273770177
 30
0.0
 40
3.0
100
AcDbArc
 50
5.660889999998008
 51
90.0
  0
ARC
  5
1B10
330
18
100
AcDbEntity
  8
1
  6
Continuous
100
AcDbCircle
 10
348.6737388571266
 20
85.88432737701783
 30
0.0
 40
35.65000099999997
100
AcDbArc
 50
29.17537445883571
 51
125.2812637715084
  0
ARC
  5
1B11
330
18
100
AcDbEntity
  8
1
  6
Continuous
100
AcDbCircle
 10
348.6737388571266
 20
85.88432737701783
 30
0.0
 40
35.65000099999997
100
AcDbArc
 50
340.0216326430493
 51
19.97836735695053
  0
ENDSEC
  0
SECTION
  2
OBJECTS
  0
DICTIONARY
  5
C
330
0
100
AcDbDictionary
281
     1
  3
ACAD_CIP_PREVIOUS_PRODUCT_INFO
350
1B9A
  3
ACAD_COLOR
350
1B7D
  3
ACAD_DETAILVIEWSTYLE
350
1B96
  3
ACAD_GROUP
350
D
  3
ACAD_LAYOUT
350
5D
  3
ACAD_MATERIAL
350
1B4B
  3
ACAD_MLEADERSTYLE
350
1B92
  3
ACAD_MLINESTYLE
350
1B
  3
ACAD_PLOTSETTINGS
350
5E
  3
ACAD_PLOTSTYLENAME
350
1B49
  3
ACAD_SCALELIST
350
1B80
  3
ACAD_SECTIONVIEWSTYLE
350
1B94
  3
ACAD_TABLESTYLE
350
1B7E
  3
ACAD_VISUALSTYLE
350
1B64
  3
ACDB_RECOMPOSE_DATA
350
1BB8
  3
AcDbVariableDictionary
350
1BAB
  3
CONTENTDICTIONARY
350
3D
  3
DWGPROPS
350
1BB9
  0
DICTIONARY
  5
1B9B
330
E
100
AcDbDictionary
280
     1
281
     1
  3
ADSK_XREC_LAYER_RECONCILED
360
1B9C
  0
DICTIONARY
  5
1B9D
330
65
100
AcDbDictionary
280
     1
281
     1
  3
ADSK_XREC_LAYER_RECONCILED
360
1B9E
  0
DICTIONARY
  5
1B9F
330
66
100
AcDbDictionary
280
     1
281
     1
  3
ADSK_XREC_LAYER_RECONCILED
360
1BA0
  0
DICTIONARY
  5
1BA1
330
67
100
AcDbDictionary
280
     1
281
     1
  3
ADSK_XREC_LAYER_RECONCILED
360
1BA2
  0
DICTIONARY
  5
1BA3
330
68
100
AcDbDictionary
280
     1
281
     1
  3
ADSK_XREC_LAYER_RECONCILED
360
1BA4
  0
DICTIONARY
  5
1BA5
330
69
100
AcDbDictionary
280
     1
281
     1
  3
ADSK_XREC_LAYER_RECONCILED
360
1BA6
  0
DICTIONARY
  5
1BA7
330
6A
100
AcDbDictionary
280
     1
281
     1
  3
ADSK_XREC_LAYER_RECONCILED
360
1BA8
  0
DICTIONARY
  5
1BA9
330
6B
100
AcDbDictionary
280
     1
281
     1
  3
ADSK_XREC_LAYER_RECONCILED
360
1BAA
  0
DICTIONARY
  5
1B2D
330
18
100
AcDbDictionary
281
     1
  3
ACAD_LAYOUTSELFREF
350
1B45
  0
DICTIONARY
  5
1B2B
330
15
100
AcDbDictionary
281
     1
  3
ACAD_LAYOUTSELFREF
350
1B44
  0
XRECORD
  5
1B9A
102
{ACAD_REACTORS
330
C
102
}
330
C
100
AcDbXrecord
280
     1
300
ACDLT
300
2014
300
ACDLT_F_S
  0
DICTIONARY
  5
1B7D
102
{ACAD_REACTORS
330
C
102
}
330
C
100
AcDbDictionary
281
     1
  0
DICTIONARY
  5
1B96
102
{ACAD_REACTORS
330
C
102
}
330
C
100
AcDbDictionary
281
     1
  3
Imperial24
350
1B97
  0
DICTIONARY
  5
D
102
{ACAD_REACTORS
330
C
102
}
330
C
100
AcDbDictionary
281
     1
  0
DICTIONARY
  5
5D
102
{ACAD_REACTORS
330
C
102
}
330
C
100
AcDbDictionary
281
     1
  3
Model
350
1B98
  3
レイアウト1
350
1B99
  0
DICTIONARY
  5
1B4B
102
{ACAD_REACTORS
330
C
102
}
330
C
100
AcDbDictionary
281
     1
  3
ByBlock
350
1B54
  3
ByLayer
350
1B4C
  3
Global
350
1B5C
  0
DICTIONARY
  5
1B92
102
{ACAD_REACTORS
330
C
102
}
330
C
100
AcDbDictionary
281
     1
  3
Standard
350
1B93
  0
DICTIONARY
  5
1B
102
{ACAD_REACTORS
330
C
102
}
330
C
100
AcDbDictionary
281
     1
  3
STANDARD
350
1C
  0
DICTIONARY
  5
5E
102
{ACAD_REACTORS
330
C
102
}
330
C
100
AcDbDictionary
281
     1
  0
ACDBDICTIONARYWDFLT
  5
1B49
102
{ACAD_REACTORS
330
C
102
}
330
C
100
AcDbDictionary
281
     1
  3
Normal
350
1B4A
100
AcDbDictionaryWithDefault
340
1B4A
  0
DICTIONARY
  5
1B80
102
{ACAD_REACTORS
330
C
102
}
330
C
100
AcDbDictionary
281
     1
  3
A0
350
1B81
  3
A1
350
1B82
  3
A2
350
1B83
  3
A3
350
1B84
  3
A4
350
1B85
  3
A5
350
1B86
  3
A6
350
1B87
  3
A7
350
1B88
  3
A8
350
1B89
  3
A9
350
1B8A
  3
B0
350
1B8B
  3
B1
350
1B8C
  3
B2
350
1B8D
  3
B3
350
1B8E
  3
B4
350
1B8F
  3
B5
350
1B90
  3
B6
350
1B91
  0
DICTIONARY
  5
1B94
102
{ACAD_REACTORS
330
C
102
}
330
C
100
AcDbDictionary
281
     1
  3
Imperial24
350
1B95
  0
DICTIONARY
  5
1B7E
102
{ACAD_REACTORS
330
C
102
}
330
C
100
AcDbDictionary
281
     1
  3
Standard
350
1B7F
  0
DICTIONARY
  5
1B64
102
{ACAD_REACTORS
330
C
102
}
330
C
100
AcDbDictionary
281
     1
  3
2dWireframe
350
1B6A
  3
Basic
350
1B69
  3
Brighten
350
1B70
  3
ColorChange
350
1B74
  3
Conceptual
350
1B6D
  3
Dim
350
1B6F
  3
EdgeColorOff
350
1B7C
  3
Facepattern
350
1B73
  3
Flat
350
1B65
  3
FlatWithEdges
350
1B66
  3
Gouraud
350
1B67
  3
GouraudWithEdges
350
1B68
  3
Hidden
350
1B6C
  3
JitterOff
350
1B7A
  3
Linepattern
350
1B72
  3
OverhangOff
350
1B7B
  3
Realistic
350
1B6E
  3
Shaded
350
1B79
  3
Shaded with edges
350
1B78
  3
Shades of Gray
350
1B75
  3
Sketchy
350
1B76
  3
Thicken
350
1B71
  3
Wireframe
350
1B6B
  3
X-Ray
350
1B77
  0
XRECORD
  5
1BB8
102
{ACAD_REACTORS
330
C
102
}
330
C
100
AcDbXrecord
280
     1
 90
        1
330
1B7F
  0
DICTIONARY
  5
1BAB
102
{ACAD_REACTORS
330
C
102
}
330
C
100
AcDbDictionary
281
     1
  3
CANNOSCALE
350
1BB0
  3
CMLEADERSTYLE
350
1BAD
  3
CTABLESTYLE
350
1BAC
  3
CVIEWDETAILSTYLE
350
1BAE
  3
CVIEWSECTIONSTYLE
350
1BAF
  3
DIMASSOC
350
1BB3
  3
INDEXCTL
350
1BB2
  3
SORTENTS
350
1BB1
  3
XCLIPFRAME
350
1BB4
  0
DICTIONARY
  5
3D
102
{ACAD_REACTORS
330
C
102
}
330
C
100
AcDbDictionary
281
     1
  0
XRECORD
  5
1BB9
102
{ACAD_REACTORS
330
C
102
}
330
C
100
AcDbXrecord
280
     1
  1
DWGPROPS COOKIE
  2

  3

  4

  6

  7

  8
Yoshitsune
  9

300
=
301
=
302
=
303
=
304
=
305
=
306
=
307
=
308
=
309
=
 40
0.2897756828703704
 41
2453284.392786817
 42
2457192.689013692
  1

 90
        0
  0
XRECORD
  5
1B9C
102
{ACAD_REACTORS
330
1B9B
102
}
330
1B9B
100
AcDbXrecord
280
     1
290
     1
  0
XRECORD
  5
1B9E
102
{ACAD_REACTORS
330
1B9D
102
}
330
1B9D
100
AcDbXrecord
280
     1
290
     1
  0
XRECORD
  5
1BA0
102
{ACAD_REACTORS
330
1B9F
102
}
330
1B9F
100
AcDbXrecord
280
     1
290
     1
  0
XRECORD
  5
1BA2
102
{ACAD_REACTORS
330
1BA1
102
}
330
1BA1
100
AcDbXrecord
280
     1
290
     1
  0
XRECORD
  5
1BA4
102
{ACAD_REACTORS
330
1BA3
102
}
330
1BA3
100
AcDbXrecord
280
     1
290
     1
  0
XRECORD
  5
1BA6
102
{ACAD_REACTORS
330
1BA5
102
}
330
1BA5
100
AcDbXrecord
280
     1
290
     1
  0
XRECORD
  5
1BA8
102
{ACAD_REACTORS
330
1BA7
102
}
330
1BA7
100
AcDbXrecord
280
     1
290
     1
  0
XRECORD
  5
1BAA
102
{ACAD_REACTORS
330
1BA9
102
}
330
1BA9
100
AcDbXrecord
280
     1
290
     1
  0
XRECORD
  5
1B45
102
{ACAD_REACTORS
330
1B2D
102
}
330
1B2D
100
AcDbXrecord
280
     1
340
18
  0
XRECORD
  5
1B44
102
{ACAD_REACTORS
330
1B2B
102
}
330
1B2B
100
AcDbXrecord
280
     1
340
15
  0
ACDBDETAILVIEWSTYLE
  5
1B97
102
{ACAD_XDICTIONARY
360
1BF1
102
}
102
{ACAD_REACTORS
330
1B96
102
}
330
1B96
100
AcDbModelDocViewStyle
 70
     0
  3
Imperial24
290
     0
100
AcDbDetailViewStyle
 70
     0
 71
     0
 90
        3
 71
     1
340
F
 40
0.24
340
0
 40
0.24
300

 40
0.36
280
     3
 71
     2
340
14
 90
       25
 71
     3
340
F
 40
0.24
 90
        1
 40
0.75
 90
        1
300
%<\AcVar ViewType \f "%tc1">% %<\AcVar ViewDetailId>%\PSCALE %<\AcVar ViewScale \f "%sn">%
 71
     4
340
14
 90
       25
340
14
 90
       25
280
     0
  0
LAYOUT
  5
1B98
102
{ACAD_XDICTIONARY
360
1BF3
102
}
102
{ACAD_REACTORS
330
5D
102
}
330
5D
100
AcDbPlotSettings
  1

  2
Canon LBP9100C
  4

  6

 40
0.0
 41
0.0
 42
0.0
 43
0.0
 44
0.0
 45
0.0
 46
0.0
 47
0.0
 48
0.0
 49
0.0
140
0.0
141
0.0
142
1.0
143
1.0
 70
  1712
 72
     0
 73
     0
 74
     0
  7

 75
     0
147
1.0
148
0.0
149
0.0
100
AcDbLayout
  1
Model
 70
     1
 71
     0
 10
0.0
 20
0.0
 11
12.0
 21
9.0
 12
0.0
 22
0.0
 32
0.0
 14
0.0
 24
0.0
 34
0.0
 15
0.0
 25
0.0
 35
0.0
146
0.0
 13
0.0
 23
0.0
 33
0.0
 16
1.0
 26
0.0
 36
0.0
 17
0.0
 27
1.0
 37
0.0
 76
     0
330
18
331
1B43
  0
LAYOUT
  5
1B99
102
{ACAD_XDICTIONARY
360
1BF5
102
}
102
{ACAD_REACTORS
330
5D
102
}
330
5D
100
AcDbPlotSettings
  1

  2
Canon LBP9100C
  4

  6

 40
0.0
 41
0.0
 42
0.0
 43
0.0
 44
0.0
 45
0.0
 46
0.0
 47
0.0
 48
0.0
 49
0.0
140
0.0
141
0.0
142
1.0
143
1.0
 70
   688
 72
     0
 73
     0
 74
     5
  7

 75
    16
147
1.0
148
0.0
149
0.0
100
AcDbLayout
  1
レイアウト1
 70
     1
 71
     1
 10
0.0
 20
0.0
 11
420.0
 21
297.0
 12
0.0
 22
0.0
 32
0.0
 14
1.000000000000000E+20
 24
1.000000000000000E+20
 34
1.000000000000000E+20
 15
-1.000000000000000E+20
 25
-1.000000000000000E+20
 35
-1.000000000000000E+20
146
0.0
 13
0.0
 23
0.0
 33
0.0
 16
1.0
 26
0.0
 36
0.0
 17
0.0
 27
1.0
 37
0.0
 76
     0
330
15
  0
MATERIAL
  5
1B54
102
{ACAD_XDICTIONARY
360
1B55
102
}
102
{ACAD_REACTORS
330
1B4B
102
}
330
1B4B
100
AcDbMaterial
  1
ByBlock
 72
     0
 43
0.0208333333333333
 43
0.0
 43
0.0
 43
0.0
 43
0.0
 43
0.0208333333333333
 43
0.0
 43
0.0
 43
0.0
 43
0.0
 43
1.0
 43
0.0
 43
0.0
 43
0.0
 43
0.0
 43
1.0
 77
     0
 47
0.0208333333333333
 47
0.0
 47
0.0
 47
0.0
 47
0.0
 47
0.0208333333333333
 47
0.0
 47
0.0
 47
0.0
 47
0.0
 47
1.0
 47
0.0
 47
0.0
 47
0.0
 47
0.0
 47
1.0
171
     0
 49
0.0208333333333333
 49
0.0
 49
0.0
 49
0.0
 49
0.0
 49
0.0208333333333333
 49
0.0
 49
0.0
 49
0.0
 49
0.0
 49
1.0
 49
0.0
 49
0.0
 49
0.0
 49
0.0
 49
1.0
175
     0
142
0.0208333333333333
142
0.0
142
0.0
142
0.0
142
0.0
142
0.0208333333333333
142
0.0
142
0.0
142
0.0
142
0.0
142
1.0
142
0.0
142
0.0
142
0.0
142
0.0
142
1.0
179
     0
144
0.0208333333333333
144
0.0
144
0.0
144
0.0
144
0.0
144
0.0208333333333333
144
0.0
144
0.0
144
0.0
144
0.0
144
1.0
144
0.0
144
0.0
144
0.0
144
0.0
144
1.0
147
0.0208333333333333
147
0.0
147
0.0
147
0.0
147
0.0
147
0.0208333333333333
147
0.0
147
0.0
147
0.0
147
0.0
147
1.0
147
0.0
147
0.0
147
0.0
147
0.0
147
1.0
  0
MATERIAL
  5
1B4C
102
{ACAD_XDICTIONARY
360
1B4D
102
}
102
{ACAD_REACTORS
330
1B4B
102
}
330
1B4B
100
AcDbMaterial
  1
ByLayer
 72
     0
 43
0.0208333333333333
 43
0.0
 43
0.0
 43
0.0
 43
0.0
 43
0.0208333333333333
 43
0.0
 43
0.0
 43
0.0
 43
0.0
 43
1.0
 43
0.0
 43
0.0
 43
0.0
 43
0.0
 43
1.0
 77
     0
 47
0.0208333333333333
 47
0.0
 47
0.0
 47
0.0
 47
0.0
 47
0.0208333333333333
 47
0.0
 47
0.0
 47
0.0
 47
0.0
 47
1.0
 47
0.0
 47
0.0
 47
0.0
 47
0.0
 47
1.0
171
     0
 49
0.0208333333333333
 49
0.0
 49
0.0
 49
0.0
 49
0.0
 49
0.0208333333333333
 49
0.0
 49
0.0
 49
0.0
 49
0.0
 49
1.0
 49
0.0
 49
0.0
 49
0.0
 49
0.0
 49
1.0
175
     0
142
0.0208333333333333
142
0.0
142
0.0
142
0.0
142
0.0
142
0.0208333333333333
142
0.0
142
0.0
142
0.0
142
0.0
142
1.0
142
0.0
142
0.0
142
0.0
142
0.0
142
1.0
179
     0
144
0.0208333333333333
144
0.0
144
0.0
144
0.0
144
0.0
144
0.0208333333333333
144
0.0
144
0.0
144
0.0
144
0.0
144
1.0
144
0.0
144
0.0
144
0.0
144
0.0
144
1.0
147
0.0208333333333333
147
0.0
147
0.0
147
0.0
147
0.0
147
0.0208333333333333
147
0.0
147
0.0
147
0.0
147
0.0
147
1.0
147
0.0
147
0.0
147
0.0
147
0.0
147
1.0
  0
MATERIAL
  5
1B5C
102
{ACAD_XDICTIONARY
360
1B5D
102
}
102
{ACAD_REACTORS
330
1B4B
102
}
330
1B4B
100
AcDbMaterial
  1
Global
 72
     0
 43
0.0208333333333333
 43
0.0
 43
0.0
 43
0.0
 43
0.0
 43
0.0208333333333333
 43
0.0
 43
0.0
 43
0.0
 43
0.0
 43
1.0
 43
0.0
 43
0.0
 43
0.0
 43
0.0
 43
1.0
 77
     0
 47
0.0208333333333333
 47
0.0
 47
0.0
 47
0.0
 47
0.0
 47
0.0208333333333333
 47
0.0
 47
0.0
 47
0.0
 47
0.0
 47
1.0
 47
0.0
 47
0.0
 47
0.0
 47
0.0
 47
1.0
171
     0
 49
0.0208333333333333
 49
0.0
 49
0.0
 49
0.0
 49
0.0
 49
0.0208333333333333
 49
0.0
 49
0.0
 49
0.0
 49
0.0
 49
1.0
 49
0.0
 49
0.0
 49
0.0
 49
0.0
 49
1.0
175
     0
142
0.0208333333333333
142
0.0
142
0.0
142
0.0
142
0.0
142
0.0208333333333333
142
0.0
142
0.0
142
0.0
142
0.0
142
1.0
142
0.0
142
0.0
142
0.0
142
0.0
142
1.0
179
     0
144
0.0208333333333333
144
0.0
144
0.0
144
0.0
144
0.0
144
0.0208333333333333
144
0.0
144
0.0
144
0.0
144
0.0
144
1.0
144
0.0
144
0.0
144
0.0
144
0.0
144
1.0
147
0.0208333333333333
147
0.0
147
0.0
147
0.0
147
0.0
147
0.0208333333333333
147
0.0
147
0.0
147
0.0
147
0.0
147
1.0
147
0.0
147
0.0
147
0.0
147
0.0
147
1.0
  0
MLEADERSTYLE
  5
1B93
102
{ACAD_REACTORS
330
1B92
102
}
330
1B92
100
AcDbMLeaderStyle
170
     2
171
     1
172
     0
 90
        2
 40
0.0
 41
0.0
173
     1
 91
-1056964608
340
12
 92
       -2
290
     1
 42
0.09
291
     1
 43
0.36
  3
Standard
 44
0.18
300

342
F
174
     1
178
     6
175
     1
176
     0
 93
-1056964608
 45
0.18
292
     0
297
     0
 46
0.18
 94
-1056964608
 47
1.0
 49
1.0
140
1.0
293
     1
141
0.0
294
     1
177
     0
142
1.0
295
     0
296
     0
143
0.125
1001
ACAD_MLEADERVER
1070
     2
  0
MLINESTYLE
  5
1C
102
{ACAD_REACTORS
330
1B
102
}
330
1B
100
AcDbMlineStyle
  2
STANDARD
 70
     0
  3

 62
   256
 51
90.0
 52
90.0
 71
     2
 49
0.5
 62
   256
  6
BYLAYER
 49
-0.5
 62
   256
  6
BYLAYER
  0
ACDBPLACEHOLDER
  5
1B4A
102
{ACAD_REACTORS
330
1B49
102
}
330
1B49
  0
SCALE
  5
1B81
102
{ACAD_REACTORS
330
1B80
102
}
330
1B80
100
AcDbScale
 70
     0
300
1:1
140
1.0
141
1.0
290
     1
  0
SCALE
  5
1B82
102
{ACAD_REACTORS
330
1B80
102
}
330
1B80
100
AcDbScale
 70
     0
300
1/128" = 1'-0"
140
0.0078125
141
12.0
290
     0
  0
SCALE
  5
1B83
102
{ACAD_REACTORS
330
1B80
102
}
330
1B80
100
AcDbScale
 70
     0
300
1/64" = 1'-0"
140
0.015625
141
12.0
290
     0
  0
SCALE
  5
1B84
102
{ACAD_REACTORS
330
1B80
102
}
330
1B80
100
AcDbScale
 70
     0
300
1/32" = 1'-0"
140
0.03125
141
12.0
290
     0
  0
SCALE
  5
1B85
102
{ACAD_REACTORS
330
1B80
102
}
330
1B80
100
AcDbScale
 70
     0
300
1/16" = 1'-0"
140
0.0625
141
12.0
290
     0
  0
SCALE
  5
1B86
102
{ACAD_REACTORS
330
1B80
102
}
330
1B80
100
AcDbScale
 70
     0
300
3/32" = 1'-0"
140
0.09375
141
12.0
290
     0
  0
SCALE
  5
1B87
102
{ACAD_REACTORS
330
1B80
102
}
330
1B80
100
AcDbScale
 70
     0
300
1/8" = 1'-0"
140
0.125
141
12.0
290
     0
  0
SCALE
  5
1B88
102
{ACAD_REACTORS
330
1B80
102
}
330
1B80
100
AcDbScale
 70
     0
300
3/16" = 1'-0"
140
0.1875
141
12.0
290
     0
  0
SCALE
  5
1B89
102
{ACAD_REACTORS
330
1B80
102
}
330
1B80
100
AcDbScale
 70
     0
300
1/4" = 1'-0"
140
0.25
141
12.0
290
     0
  0
SCALE
  5
1B8A
102
{ACAD_REACTORS
330
1B80
102
}
330
1B80
100
AcDbScale
 70
     0
300
3/8" = 1'-0"
140
0.375
141
12.0
290
     0
  0
SCALE
  5
1B8B
102
{ACAD_REACTORS
330
1B80
102
}
330
1B80
100
AcDbScale
 70
     0
300
1/2" = 1'-0"
140
0.5
141
12.0
290
     0
  0
SCALE
  5
1B8C
102
{ACAD_REACTORS
330
1B80
102
}
330
1B80
100
AcDbScale
 70
     0
300
3/4" = 1'-0"
140
0.75
141
12.0
290
     0
  0
SCALE
  5
1B8D
102
{ACAD_REACTORS
330
1B80
102
}
330
1B80
100
AcDbScale
 70
     0
300
1" = 1'-0"
140
1.0
141
12.0
290
     0
  0
SCALE
  5
1B8E
102
{ACAD_REACTORS
330
1B80
102
}
330
1B80
100
AcDbScale
 70
     0
300
1-1/2" = 1'-0"
140
1.5
141
12.0
290
     0
  0
SCALE
  5
1B8F
102
{ACAD_REACTORS
330
1B80
102
}
330
1B80
100
AcDbScale
 70
     0
300
3" = 1'-0"
140
3.0
141
12.0
290
     0
  0
SCALE
  5
1B90
102
{ACAD_REACTORS
330
1B80
102
}
330
1B80
100
AcDbScale
 70
     0
300
6" = 1'-0"
140
6.0
141
12.0
290
     0
  0
SCALE
  5
1B91
102
{ACAD_REACTORS
330
1B80
102
}
330
1B80
100
AcDbScale
 70
     0
300
1'-0" = 1'-0"
140
12.0
141
12.0
290
     0
  0
ACDBSECTIONVIEWSTYLE
  5
1B95
102
{ACAD_XDICTIONARY
360
1BEF
102
}
102
{ACAD_REACTORS
330
1B94
102
}
330
1B94
100
AcDbModelDocViewStyle
 70
     0
  3
Imperial24
290
     0
100
AcDbSectionViewStyle
 70
     0
 71
     0
 90
       78
 71
     1
340
F
 40
0.24
340
0
340
0
 40
0.24
300
I, O, Q, S, X, Z
 40
0.48
 90
        3
 40
0.18
 90
        1
 71
     2
340
14
 90
       25
340
14
 90
       50
 40
0.24
 40
0.0
 40
0.24
 71
     3
340
F
 40
0.24
 90
        1
 40
0.75
 90
        1
300
%<\AcVar ViewType \f "%tc1">% %<\AcVar ViewSectionStartId>%-%<\AcVar ViewSectionEndId>%\PSCALE %<\AcVar ViewScale \f "%sn">%
 71
     4
300
ANSI31
 40
1.0
 90
        0
290
     0
290
     0
 90
        6
 40
0.0
 40
1.570796326794896
 40
0.2617993877991494
 40
1.308996938995747
 40
-0.2617993877991494
 40
1.832595714594046
  0
TABLESTYLE
  5
1B7F
102
{ACAD_XDICTIONARY
360
1BB6
102
}
102
{ACAD_REACTORS
330
1B7E
102
}
330
1B7E
100
AcDbTableStyle
  3
Standard
 70
     0
 71
     0
 40
0.06
 41
0.06
280
     0
281
     0
  7
STANDARD
140
0.18
170
     2
 62
     0
 63
     7
283
     0
274
    -2
284
     1
 64
     0
275
    -2
285
     1
 65
     0
276
    -2
286
     1
 66
     0
277
    -2
287
     1
 67
     0
278
    -2
288
     1
 68
     0
279
    -2
289
     1
 69
     0
  7
STANDARD
140
0.25
170
     5
 62
     0
 63
     7
283
     0
274
    -2
284
     1
 64
     0
275
    -2
285
     1
 65
     0
276
    -2
286
     1
 66
     0
277
    -2
287
     1
 67
     0
278
    -2
288
     1
 68
     0
279
    -2
289
     1
 69
     0
  7
STANDARD
140
0.18
170
     5
 62
     0
 63
     7
283
     0
274
    -2
284
     1
 64
     0
275
    -2
285
     1
 65
     0
276
    -2
286
     1
 66
     0
277
    -2
287
     1
 67
     0
278
    -2
288
     1
 68
     0
279
    -2
289
     1
 69
     0
  0
VISUALSTYLE
  5
1B6A
102
{ACAD_XDICTIONARY
360
1BC7
102
}
102
{ACAD_REACTORS
330
1B64
102
}
330
1B64
100
AcDbVisualStyle
  2
2dWireframe
 70
     4
 71
     0
 72
     2
 73
     0
 90
        0
 40
-0.6
 41
-30.0
 62
     5
 63
     7
 74
     1
 91
        4
 64
     7
 65
   257
 75
     1
175
     1
 42
1.0
 92
        0
 66
   257
 43
1.0
 76
     1
 77
     6
 78
     2
 67
     7
 79
     5
170
     0
171
     0
290
     0
174
     0
 93
        1
 44
0.0
173
     0
291
     0
 45
0.0
1001
ACAD
1000
AcDbSavedByObjectVersion
1070
     0
  0
VISUALSTYLE
  5
1B69
102
{ACAD_XDICTIONARY
360
1BC5
102
}
102
{ACAD_REACTORS
330
1B64
102
}
330
1B64
100
AcDbVisualStyle
  2
Basic
 70
     7
 71
     1
 72
     0
 73
     1
 90
        0
 40
-0.6
 41
-30.0
 62
     5
 63
     7
 74
     0
 91
        4
 64
     7
 65
   257
 75
     1
175
     1
 42
1.0
 92
        8
 66
     7
 43
1.0
 76
     1
 77
     6
 78
     2
 67
     7
 79
     5
170
     0
171
     0
290
     0
174
     0
 93
        1
 44
0.0
173
     0
291
     1
 45
0.0
1001
ACAD
1000
AcDbSavedByObjectVersion
1070
     0
  0
VISUALSTYLE
  5
1B70
102
{ACAD_XDICTIONARY
360
1BD3
102
}
102
{ACAD_REACTORS
330
1B64
102
}
330
1B64
100
AcDbVisualStyle
  2
Brighten
 70
    12
 71
     2
 72
     2
 73
     0
 90
        0
 40
-0.6
 41
-30.0
 62
     5
 63
     7
 74
     1
 91
        4
 64
     7
 65
   257
 75
     1
175
     1
 42
1.0
 92
        8
 66
     7
 43
1.0
 76
     1
 77
     6
 78
     2
 67
     7
 79
     5
170
     0
171
     0
290
     0
174
     0
 93
        1
 44
50.0
173
     0
291
     1
 45
0.0
1001
ACAD
1000
AcDbSavedByObjectVersion
1070
     0
  0
VISUALSTYLE
  5
1B74
102
{ACAD_XDICTIONARY
360
1BDB
102
}
102
{ACAD_REACTORS
330
1B64
102
}
330
1B64
100
AcDbVisualStyle
  2
ColorChange
 70
    16
 71
     2
 72
     2
 73
     3
 90
        0
 40
-0.6
 41
-30.0
 62
     5
 63
     8
 74
     1
 91
        4
 64
     7
 65
   257
 75
     1
175
     1
 42
1.0
 92
        8
 66
     8
 43
1.0
 76
     1
 77
     6
 78
     2
 67
     7
 79
     5
170
     0
171
     0
290
     0
174
     0
 93
        1
 44
0.0
173
     0
291
     1
 45
0.0
1001
ACAD
1000
AcDbSavedByObjectVersion
1070
     0
  0
VISUALSTYLE
  5
1B6D
102
{ACAD_XDICTIONARY
360
1BCD
102
}
102
{ACAD_REACTORS
330
1B64
102
}
330
1B64
100
AcDbVisualStyle
  2
Conceptual
 70
     9
 71
     3
 72
     2
 73
     0
 90
        0
 40
-0.6
 41
-30.0
 62
     5
 63
     7
 74
     2
 91
        2
 64
     7
 65
   257
 75
     1
175
     1
 42
179.0
 92
        8
 66
     7
 43
1.0
 76
     1
 77
     6
 78
     2
 67
     7
 79
     3
170
     0
171
     0
290
     0
174
     0
 93
        1
 44
0.0
173
     0
291
     0
 45
0.0
1001
ACAD
1000
AcDbSavedByObjectVersion
1070
     0
  0
VISUALSTYLE
  5
1B6F
102
{ACAD_XDICTIONARY
360
1BD1
102
}
102
{ACAD_REACTORS
330
1B64
102
}
330
1B64
100
AcDbVisualStyle
  2
Dim
 70
    11
 71
     2
 72
     2
 73
     0
 90
        0
 40
-0.6
 41
-30.0
 62
     5
 63
     7
 74
     1
 91
        4
 64
     7
 65
   257
 75
     1
175
     1
 42
1.0
 92
        8
 66
     7
 43
1.0
 76
     1
 77
     6
 78
     2
 67
     7
 79
     5
170
     0
171
     0
290
     0
174
     0
 93
        1
 44
-50.0
173
     0
291
     1
 45
0.0
1001
ACAD
1000
AcDbSavedByObjectVersion
1070
     0
  0
VISUALSTYLE
  5
1B7C
102
{ACAD_XDICTIONARY
360
1BEB
102
}
102
{ACAD_REACTORS
330
1B64
102
}
330
1B64
100
AcDbVisualStyle
  2
EdgeColorOff
 70
    22
 71
     2
 72
     2
 73
     0
 90
        0
 40
-0.6
 41
-30.0
 62
     5
 63
     7
 74
     1
 91
        4
 64
     7
 65
   257
 75
     1
175
     1
 42
1.0
 92
        8
 66
     7
 43
1.0
 76
     1
 77
     6
 78
     2
 67
     7
 79
     5
170
     0
171
     0
290
     0
174
     0
 93
        1
 44
0.0
173
     0
291
     1
 45
0.0
1001
ACAD
1000
AcDbSavedByObjectVersion
1070
     0
  0
VISUALSTYLE
  5
1B73
102
{ACAD_XDICTIONARY
360
1BD9
102
}
102
{ACAD_REACTORS
330
1B64
102
}
330
1B64
100
AcDbVisualStyle
  2
Facepattern
 70
    15
 71
     2
 72
     2
 73
     0
 90
        0
 40
-0.6
 41
-30.0
 62
     5
 63
     7
 74
     1
 91
        4
 64
     7
 65
   257
 75
     1
175
     1
 42
1.0
 92
        8
 66
     7
 43
1.0
 76
     1
 77
     6
 78
     2
 67
     7
 79
     5
170
     0
171
     0
290
     0
174
     0
 93
        1
 44
0.0
173
     0
291
     1
 45
0.0
1001
ACAD
1000
AcDbSavedByObjectVersion
1070
     0
  0
VISUALSTYLE
  5
1B65
102
{ACAD_XDICTIONARY
360
1BBD
102
}
102
{ACAD_REACTORS
330
1B64
102
}
330
1B64
100
AcDbVisualStyle
  2
Flat
 70
     0
 71
     2
 72
     1
 73
     1
 90
        2
 40
-0.6
 41
30.0
 62
     5
 63
     7
 74
     0
 91
        0
 64
     7
 65
   257
 75
     1
175
     1
 42
1.0
 92
        8
 66
     7
 43
1.0
 76
     1
 77
     6
 78
     2
 67
     7
 79
     5
170
     0
171
     0
290
     0
174
     0
 93
       13
 44
0.0
173
     0
291
     1
 45
0.0
1001
ACAD
1000
AcDbSavedByObjectVersion
1070
     0
  0
VISUALSTYLE
  5
1B66
102
{ACAD_XDICTIONARY
360
1BBF
102
}
102
{ACAD_REACTORS
330
1B64
102
}
330
1B64
100
AcDbVisualStyle
  2
FlatWithEdges
 70
     1
 71
     2
 72
     1
 73
     1
 90
        2
 40
-0.6
 41
30.0
 62
     5
 63
     7
 74
     1
 91
        0
 64
     7
 65
   257
 75
     1
175
     1
 42
1.0
 92
        0
 66
   257
 43
1.0
 76
     1
 77
     6
 78
     2
 67
     7
 79
     5
170
     0
171
     0
290
     0
174
     0
 93
       13
 44
0.0
173
     0
291
     1
 45
0.0
1001
ACAD
1000
AcDbSavedByObjectVersion
1070
     0
  0
VISUALSTYLE
  5
1B67
102
{ACAD_XDICTIONARY
360
1BC1
102
}
102
{ACAD_REACTORS
330
1B64
102
}
330
1B64
100
AcDbVisualStyle
  2
Gouraud
 70
     2
 71
     2
 72
     2
 73
     1
 90
        2
 40
-0.6
 41
30.0
 62
     5
 63
     7
 74
     0
 91
        0
 64
     7
 65
   257
 75
     1
175
     1
 42
1.0
 92
        0
 66
     7
 43
1.0
 76
     1
 77
     6
 78
     2
 67
     7
 79
     5
170
     0
171
     0
290
     0
174
     0
 93
       13
 44
0.0
173
     0
291
     1
 45
0.0
1001
ACAD
1000
AcDbSavedByObjectVersion
1070
     0
  0
VISUALSTYLE
  5
1B68
102
{ACAD_XDICTIONARY
360
1BC3
102
}
102
{ACAD_REACTORS
330
1B64
102
}
330
1B64
100
AcDbVisualStyle
  2
GouraudWithEdges
 70
     3
 71
     2
 72
     2
 73
     1
 90
        2
 40
-0.6
 41
30.0
 62
     5
 63
     7
 74
     1
 91
        0
 64
     7
 65
   257
 75
     1
175
     1
 42
1.0
 92
        0
 66
   257
 43
1.0
 76
     1
 77
     6
 78
     2
 67
     7
 79
     5
170
     0
171
     0
290
     0
174
     0
 93
       13
 44
0.0
173
     0
291
     1
 45
0.0
1001
ACAD
1000
AcDbSavedByObjectVersion
1070
     0
  0
VISUALSTYLE
  5
1B6C
102
{ACAD_XDICTIONARY
360
1BCB
102
}
102
{ACAD_REACTORS
330
1B64
102
}
330
1B64
100
AcDbVisualStyle
  2
Hidden
 70
     6
 71
     1
 72
     2
 73
     2
 90
        0
 40
-0.6
 41
-30.0
 62
     5
 63
     7
 74
     2
 91
        2
 64
     7
 65
   257
 75
     2
175
     1
 42
40.0
 92
        0
 66
   257
 43
1.0
 76
     1
 77
     6
 78
     2
 67
     7
 79
     3
170
     0
171
     0
290
     0
174
     0
 93
        1
 44
0.0
173
     0
291
     0
 45
0.0
1001
ACAD
1000
AcDbSavedByObjectVersion
1070
     0
  0
VISUALSTYLE
  5
1B7A
102
{ACAD_XDICTIONARY
360
1BE7
102
}
102
{ACAD_REACTORS
330
1B64
102
}
330
1B64
100
AcDbVisualStyle
  2
JitterOff
 70
    20
 71
     2
 72
     2
 73
     0
 90
        0
 40
-0.6
 41
-30.0
 62
     5
 63
     7
 74
     1
 91
        4
 64
     7
 65
   257
 75
     1
175
     1
 42
1.0
 92
       10
 66
     7
 43
1.0
 76
     1
 77
     6
 78
     2
 67
     7
 79
     5
170
     0
171
     0
290
     0
174
     0
 93
        1
 44
0.0
173
     0
291
     1
 45
0.0
1001
ACAD
1000
AcDbSavedByObjectVersion
1070
     0
  0
VISUALSTYLE
  5
1B72
102
{ACAD_XDICTIONARY
360
1BD7
102
}
102
{ACAD_REACTORS
330
1B64
102
}
330
1B64
100
AcDbVisualStyle
  2
Linepattern
 70
    14
 71
     2
 72
     2
 73
     0
 90
        0
 40
-0.6
 41
-30.0
 62
     5
 63
     7
 74
     1
 91
        4
 64
     7
 65
   257
 75
     7
175
     7
 42
1.0
 92
        8
 66
     7
 43
1.0
 76
     1
 77
     6
 78
     2
 67
     7
 79
     5
170
     0
171
     0
290
     0
174
     0
 93
        1
 44
0.0
173
     0
291
     1
 45
0.0
1001
ACAD
1000
AcDbSavedByObjectVersion
1070
     0
  0
VISUALSTYLE
  5
1B7B
102
{ACAD_XDICTIONARY
360
1BE9
102
}
102
{ACAD_REACTORS
330
1B64
102
}
330
1B64
100
AcDbVisualStyle
  2
OverhangOff
 70
    21
 71
     2
 72
     2
 73
     0
 90
        0
 40
-0.6
 41
-30.0
 62
     5
 63
     7
 74
     1
 91
        4
 64
     7
 65
   257
 75
     1
175
     1
 42
1.0
 92
        9
 66
     7
 43
1.0
 76
     1
 77
     6
 78
     2
 67
     7
 79
     5
170
     0
171
     0
290
     0
174
     0
 93
        1
 44
0.0
173
     0
291
     1
 45
0.0
1001
ACAD
1000
AcDbSavedByObjectVersion
1070
     0
  0
VISUALSTYLE
  5
1B6E
102
{ACAD_XDICTIONARY
360
1BCF
102
}
102
{ACAD_REACTORS
330
1B64
102
}
330
1B64
100
AcDbVisualStyle
  2
Realistic
 70
     8
 71
     2
 72
     3
 73
     0
 90
        2
 40
-0.6
 41
30.0
 62
     5
 63
     7
 74
     0
 91
        0
 64
     7
 65
   257
 75
     1
175
     1
 42
1.0
 92
        8
 66
   257
 43
1.0
 76
     1
 77
     6
 78
     2
 67
     7
 79
     3
170
     0
171
     0
290
     0
174
     0
 93
       13
 44
0.0
173
     0
291
     0
 45
0.0
1001
ACAD
1000
AcDbSavedByObjectVersion
1070
     0
  0
VISUALSTYLE
  5
1B79
102
{ACAD_XDICTIONARY
360
1BE5
102
}
102
{ACAD_REACTORS
330
1B64
102
}
330
1B64
100
AcDbVisualStyle
  2
Shaded
 70
    27
 71
     2
 72
     2
 73
     1
 90
        2
 40
-0.6
 41
30.0
 62
     5
 63
     7
 74
     0
 91
        4
 64
     7
 65
   257
 75
     1
175
     1
 42
1.0
 92
        8
 66
   257
 43
1.0
 76
     1
 77
     6
 78
     2
 67
     8
 79
     3
170
     0
171
     0
290
     0
174
     0
 93
        5
 44
0.0
173
     0
291
     0
 45
0.0
1001
ACAD
1000
AcDbSavedByObjectVersion
1070
     0
  0
VISUALSTYLE
  5
1B78
102
{ACAD_XDICTIONARY
360
1BE3
102
}
102
{ACAD_REACTORS
330
1B64
102
}
330
1B64
100
AcDbVisualStyle
  2
Shaded with edges
 70
    26
 71
     2
 72
     2
 73
     1
 90
        2
 40
-0.6
 41
30.0
 62
     5
 63
     7
 74
     1
 91
       10
 64
     7
 65
   257
 75
     2
175
     1
 42
1.0
 92
        8
 66
   257
 43
1.0
 76
     1
 77
     6
 78
     2
 67
     7
 79
     3
170
     0
171
     0
290
     0
174
     0
 93
        5
 44
0.0
173
     0
291
     0
 45
0.0
1001
ACAD
1000
AcDbSavedByObjectVersion
1070
     0
  0
VISUALSTYLE
  5
1B75
102
{ACAD_XDICTIONARY
360
1BDD
102
}
102
{ACAD_REACTORS
330
1B64
102
}
330
1B64
100
AcDbVisualStyle
  2
Shades of Gray
 70
    23
 71
     2
 72
     2
 73
     3
 90
        0
 40
-0.6
 41
-30.0
 62
     5
 63
     7
 74
     2
 91
        2
 64
     7
 65
     7
 75
     1
175
     1
 42
40.0
 92
        8
 66
     7
 43
1.0
 76
     1
 77
     6
 78
     2
 67
     7
 79
     3
170
     0
171
     0
290
     0
174
     0
 93
        1
 44
0.0
173
     0
291
     0
 45
0.0
1001
ACAD
1000
AcDbSavedByObjectVersion
1070
     0
  0
VISUALSTYLE
  5
1B76
102
{ACAD_XDICTIONARY
360
1BDF
102
}
102
{ACAD_REACTORS
330
1B64
102
}
330
1B64
100
AcDbVisualStyle
  2
Sketchy
 70
    24
 71
     1
 72
     2
 73
     2
 90
        0
 40
-0.6
 41
-30.0
 62
     5
 63
     7
 74
     2
 91
        2
 64
     7
 65
     7
 75
     1
175
     1
 42
40.0
 92
       11
 66
     7
 43
1.0
 76
     1
 77
     6
 78
     2
 67
     7
 79
     6
170
     0
171
     0
290
     0
174
     0
 93
        1
 44
0.0
173
     0
291
     0
 45
0.0
1001
ACAD
1000
AcDbSavedByObjectVersion
1070
     0
  0
VISUALSTYLE
  5
1B71
102
{ACAD_XDICTIONARY
360
1BD5
102
}
102
{ACAD_REACTORS
330
1B64
102
}
330
1B64
100
AcDbVisualStyle
  2
Thicken
 70
    13
 71
     2
 72
     2
 73
     0
 90
        0
 40
-0.6
 41
-30.0
 62
     5
 63
     7
 74
     1
 91
        4
 64
     7
 65
   257
 75
     1
175
     1
 42
1.0
 92
       12
 66
     7
 43
1.0
 76
     1
 77
     6
 78
     2
 67
     7
 79
     5
170
     0
171
     0
290
     0
174
     0
 93
        1
 44
0.0
173
     0
291
     1
 45
0.0
1001
ACAD
1000
AcDbSavedByObjectVersion
1070
     0
  0
VISUALSTYLE
  5
1B6B
102
{ACAD_XDICTIONARY
360
1BC9
102
}
102
{ACAD_REACTORS
330
1B64
102
}
330
1B64
100
AcDbVisualStyle
  2
Wireframe
 70
     5
 71
     0
 72
     2
 73
     0
 90
        0
 40
-0.6
 41
-30.0
 62
     5
 63
     7
 74
     1
 91
        4
 64
     7
 65
   257
 75
     1
175
     1
 42
1.0
 92
        0
 66
   257
 43
1.0
 76
     1
 77
     6
 78
     2
 67
     7
 79
     3
170
     0
171
     0
290
     0
174
     0
 93
        1
 44
0.0
173
     0
291
     0
 45
0.0
1001
ACAD
1000
AcDbSavedByObjectVersion
1070
     0
  0
VISUALSTYLE
  5
1B77
102
{ACAD_XDICTIONARY
360
1BE1
102
}
102
{ACAD_REACTORS
330
1B64
102
}
330
1B64
100
AcDbVisualStyle
  2
X-Ray
 70
    25
 71
     2
 72
     2
 73
     1
 90
        1
 40
0.5
 41
-30.0
 62
     5
 63
     7
 74
     1
 91
        0
 64
     7
 65
   257
 75
     1
175
     1
 42
1.0
 92
        8
 66
     7
 43
1.0
 76
     1
 77
     6
 78
     2
 67
     7
 79
     3
170
     0
171
     0
290
     0
174
     0
 93
       13
 44
0.0
173
     0
291
     0
 45
0.0
1001
ACAD
1000
AcDbSavedByObjectVersion
1070
     0
  0
DICTIONARYVAR
  5
1BB0
102
{ACAD_REACTORS
330
1BAB
102
}
330
1BAB
100
DictionaryVariables
280
     0
  1
1:1
  0
DICTIONARYVAR
  5
1BAD
102
{ACAD_REACTORS
330
1BAB
102
}
330
1BAB
100
DictionaryVariables
280
     0
  1
STANDARD
  0
DICTIONARYVAR
  5
1BAC
102
{ACAD_REACTORS
330
1BAB
102
}
330
1BAB
100
DictionaryVariables
280
     0
  1
STANDARD
  0
DICTIONARYVAR
  5
1BAE
102
{ACAD_REACTORS
330
1BAB
102
}
330
1BAB
100
DictionaryVariables
280
     0
  1
Imperial24
  0
DICTIONARYVAR
  5
1BAF
102
{ACAD_REACTORS
330
1BAB
102
}
330
1BAB
100
DictionaryVariables
280
     0
  1
Imperial24
  0
DICTIONARYVAR
  5
1BB3
102
{ACAD_REACTORS
330
1BAB
102
}
330
1BAB
100
DictionaryVariables
280
     0
  1
1
  0
DICTIONARYVAR
  5
1BB2
102
{ACAD_REACTORS
330
1BAB
102
}
330
1BAB
100
DictionaryVariables
280
     0
  1
0
  0
DICTIONARYVAR
  5
1BB1
102
{ACAD_REACTORS
330
1BAB
102
}
330
1BAB
100
DictionaryVariables
280
     0
  1
127
  0
DICTIONARYVAR
  5
1BB4
102
{ACAD_REACTORS
330
1BAB
102
}
330
1BAB
100
DictionaryVariables
280
     0
  1
2
  0
DICTIONARY
  5
1BF1
330
1B97
100
AcDbDictionary
280
     1
281
     1
  3
ACAD_XREC_ROUNDTRIP
360
1BF2
  0
DICTIONARY
  5
1BF3
330
1B98
100
AcDbDictionary
280
     1
281
     1
  3
ACAD_XREC_ROUNDTRIP
360
1BF4
  0
DICTIONARY
  5
1BF5
330
1B99
100
AcDbDictionary
280
     1
281
     1
  3
ACAD_XREC_ROUNDTRIP
360
1BF6
  0
DICTIONARY
  5
1B55
330
1B54
100
AcDbDictionary
280
     1
281
     1
  3
ACAD_XREC_ROUNDTRIP
360
1BBB
  3
BUMPTILE
360
1B57
  3
DIFFUSETILE
360
1B56
  3
OPACITYTILE
360
1B5A
  3
REFLECTIONTILE
360
1B59
  3
REFRACTIONTILE
360
1B5B
  3
SPECULARTILE
360
1B58
  0
DICTIONARY
  5
1B4D
330
1B4C
100
AcDbDictionary
280
     1
281
     1
  3
ACAD_XREC_ROUNDTRIP
360
1BBA
  3
BUMPTILE
360
1B4F
  3
DIFFUSETILE
360
1B4E
  3
OPACITYTILE
360
1B52
  3
REFLECTIONTILE
360
1B51
  3
REFRACTIONTILE
360
1B53
  3
SPECULARTILE
360
1B50
  0
DICTIONARY
  5
1B5D
330
1B5C
100
AcDbDictionary
280
     1
281
     1
  3
ACAD_XREC_ROUNDTRIP
360
1BBC
  3
BUMPTILE
360
1B5F
  3
DIFFUSETILE
360
1B5E
  3
OPACITYTILE
360
1B62
  3
REFLECTIONTILE
360
1B61
  3
REFRACTIONTILE
360
1B63
  3
SPECULARTILE
360
1B60
  0
DICTIONARY
  5
1BEF
330
1B95
100
AcDbDictionary
280
     1
281
     1
  3
ACAD_XREC_ROUNDTRIP
360
1BF0
  0
DICTIONARY
  5
1BB6
330
1B7F
100
AcDbDictionary
280
     1
281
     1
  3
ACAD_ROUNDTRIP_2008_TABLESTYLE_CELLSTYLEMAP
360
1BB7
  3
ACAD_XREC_ROUNDTRIP
360
1BED
  0
DICTIONARY
  5
1BC7
330
1B6A
100
AcDbDictionary
280
     1
281
     1
  3
ACAD_XREC_ROUNDTRIP
360
1BC8
  0
DICTIONARY
  5
1BC5
330
1B69
100
AcDbDictionary
280
     1
281
     1
  3
ACAD_XREC_ROUNDTRIP
360
1BC6
  0
DICTIONARY
  5
1BD3
330
1B70
100
AcDbDictionary
280
     1
281
     1
  3
ACAD_XREC_ROUNDTRIP
360
1BD4
  0
DICTIONARY
  5
1BDB
330
1B74
100
AcDbDictionary
280
     1
281
     1
  3
ACAD_XREC_ROUNDTRIP
360
1BDC
  0
DICTIONARY
  5
1BCD
330
1B6D
100
AcDbDictionary
280
     1
281
     1
  3
ACAD_XREC_ROUNDTRIP
360
1BCE
  0
DICTIONARY
  5
1BD1
330
1B6F
100
AcDbDictionary
280
     1
281
     1
  3
ACAD_XREC_ROUNDTRIP
360
1BD2
  0
DICTIONARY
  5
1BEB
330
1B7C
100
AcDbDictionary
280
     1
281
     1
  3
ACAD_XREC_ROUNDTRIP
360
1BEC
  0
DICTIONARY
  5
1BD9
330
1B73
100
AcDbDictionary
280
     1
281
     1
  3
ACAD_XREC_ROUNDTRIP
360
1BDA
  0
DICTIONARY
  5
1BBD
330
1B65
100
AcDbDictionary
280
     1
281
     1
  3
ACAD_XREC_ROUNDTRIP
360
1BBE
  0
DICTIONARY
  5
1BBF
330
1B66
100
AcDbDictionary
280
     1
281
     1
  3
ACAD_XREC_ROUNDTRIP
360
1BC0
  0
DICTIONARY
  5
1BC1
330
1B67
100
AcDbDictionary
280
     1
281
     1
  3
ACAD_XREC_ROUNDTRIP
360
1BC2
  0
DICTIONARY
  5
1BC3
330
1B68
100
AcDbDictionary
280
     1
281
     1
  3
ACAD_XREC_ROUNDTRIP
360
1BC4
  0
DICTIONARY
  5
1BCB
330
1B6C
100
AcDbDictionary
280
     1
281
     1
  3
ACAD_XREC_ROUNDTRIP
360
1BCC
  0
DICTIONARY
  5
1BE7
330
1B7A
100
AcDbDictionary
280
     1
281
     1
  3
ACAD_XREC_ROUNDTRIP
360
1BE8
  0
DICTIONARY
  5
1BD7
330
1B72
100
AcDbDictionary
280
     1
281
     1
  3
ACAD_XREC_ROUNDTRIP
360
1BD8
  0
DICTIONARY
  5
1BE9
330
1B7B
100
AcDbDictionary
280
     1
281
     1
  3
ACAD_XREC_ROUNDTRIP
360
1BEA
  0
DICTIONARY
  5
1BCF
330
1B6E
100
AcDbDictionary
280
     1
281
     1
  3
ACAD_XREC_ROUNDTRIP
360
1BD0
  0
DICTIONARY
  5
1BE5
330
1B79
100
AcDbDictionary
280
     1
281
     1
  3
ACAD_XREC_ROUNDTRIP
360
1BE6
  0
DICTIONARY
  5
1BE3
330
1B78
100
AcDbDictionary
280
     1
281
     1
  3
ACAD_XREC_ROUNDTRIP
360
1BE4
  0
DICTIONARY
  5
1BDD
330
1B75
100
AcDbDictionary
280
     1
281
     1
  3
ACAD_XREC_ROUNDTRIP
360
1BDE
  0
DICTIONARY
  5
1BDF
330
1B76
100
AcDbDictionary
280
     1
281
     1
  3
ACAD_XREC_ROUNDTRIP
360
1BE0
  0
DICTIONARY
  5
1BD5
330
1B71
100
AcDbDictionary
280
     1
281
     1
  3
ACAD_XREC_ROUNDTRIP
360
1BD6
  0
DICTIONARY
  5
1BC9
330
1B6B
100
AcDbDictionary
280
     1
281
     1
  3
ACAD_XREC_ROUNDTRIP
360
1BCA
  0
DICTIONARY
  5
1BE1
330
1B77
100
AcDbDictionary
280
     1
281
     1
  3
ACAD_XREC_ROUNDTRIP
360
1BE2
  0
XRECORD
  5
1BF2
102
{ACAD_REACTORS
330
1BF1
102
}
330
1BF1
100
AcDbXrecord
280
     1
102
DISPLAYNAME
  1
Imperial24
102
FLAGS
 90
        0
  0
XRECORD
  5
1BF4
102
{ACAD_REACTORS
330
1BF3
102
}
330
1BF3
100
AcDbXrecord
280
     1
102
SHADEPLOT
 70
     0
102
SHADEPLOTRESLEVEL
 70
     2
102
SHADEPLOTCUSTOMDPI
 70
   300
  0
XRECORD
  5
1BF6
102
{ACAD_REACTORS
330
1BF5
102
}
330
1BF5
100
AcDbXrecord
280
     1
102
SHADEPLOT
 70
     0
102
SHADEPLOTRESLEVEL
 70
     2
102
SHADEPLOTCUSTOMDPI
 70
   300
  0
XRECORD
  5
1BBB
102
{ACAD_REACTORS
330
1B55
102
}
330
1B55
100
AcDbXrecord
280
     1
102
MATERIAL
148
0.0
149
0.0
149
0.0
 93
        0
 94
      127
282
     0
 72
     0
 77
     0
171
     0
175
     0
179
     0
273
     0
  0
XRECORD
  5
1B57
102
{ACAD_REACTORS
330
1B55
102
}
330
1B55
100
AcDbXrecord
280
     1
270
     1
271
     1
  0
XRECORD
  5
1B56
102
{ACAD_REACTORS
330
1B55
102
}
330
1B55
100
AcDbXrecord
280
     1
270
     1
271
     1
  0
XRECORD
  5
1B5A
102
{ACAD_REACTORS
330
1B55
102
}
330
1B55
100
AcDbXrecord
280
     1
270
     1
271
     1
  0
XRECORD
  5
1B59
102
{ACAD_REACTORS
330
1B55
102
}
330
1B55
100
AcDbXrecord
280
     1
270
     1
271
     1
  0
XRECORD
  5
1B5B
102
{ACAD_REACTORS
330
1B55
102
}
330
1B55
100
AcDbXrecord
280
     1
270
     1
271
     1
  0
XRECORD
  5
1B58
102
{ACAD_REACTORS
330
1B55
102
}
330
1B55
100
AcDbXrecord
280
     1
270
     1
271
     1
  0
XRECORD
  5
1BBA
102
{ACAD_REACTORS
330
1B4D
102
}
330
1B4D
100
AcDbXrecord
280
     1
102
MATERIAL
148
0.0
149
0.0
149
0.0
 93
        0
 94
      127
282
     0
 72
     0
 77
     0
171
     0
175
     0
179
     0
273
     0
  0
XRECORD
  5
1B4F
102
{ACAD_REACTORS
330
1B4D
102
}
330
1B4D
100
AcDbXrecord
280
     1
270
     1
271
     1
  0
XRECORD
  5
1B4E
102
{ACAD_REACTORS
330
1B4D
102
}
330
1B4D
100
AcDbXrecord
280
     1
270
     1
271
     1
  0
XRECORD
  5
1B52
102
{ACAD_REACTORS
330
1B4D
102
}
330
1B4D
100
AcDbXrecord
280
     1
270
     1
271
     1
  0
XRECORD
  5
1B51
102
{ACAD_REACTORS
330
1B4D
102
}
330
1B4D
100
AcDbXrecord
280
     1
270
     1
271
     1
  0
XRECORD
  5
1B53
102
{ACAD_REACTORS
330
1B4D
102
}
330
1B4D
100
AcDbXrecord
280
     1
270
     1
271
     1
  0
XRECORD
  5
1B50
102
{ACAD_REACTORS
330
1B4D
102
}
330
1B4D
100
AcDbXrecord
280
     1
270
     1
271
     1
  0
XRECORD
  5
1BBC
102
{ACAD_REACTORS
330
1B5D
102
}
330
1B5D
100
AcDbXrecord
280
     1
102
MATERIAL
148
0.0
149
0.0
149
0.0
 93
        0
 94
      127
282
     0
 72
     0
 77
     0
171
     0
175
     0
179
     0
273
     0
  0
XRECORD
  5
1B5F
102
{ACAD_REACTORS
330
1B5D
102
}
330
1B5D
100
AcDbXrecord
280
     1
270
     1
271
     1
  0
XRECORD
  5
1B5E
102
{ACAD_REACTORS
330
1B5D
102
}
330
1B5D
100
AcDbXrecord
280
     1
270
     1
271
     1
  0
XRECORD
  5
1B62
102
{ACAD_REACTORS
330
1B5D
102
}
330
1B5D
100
AcDbXrecord
280
     1
270
     1
271
     1
  0
XRECORD
  5
1B61
102
{ACAD_REACTORS
330
1B5D
102
}
330
1B5D
100
AcDbXrecord
280
     1
270
     1
271
     1
  0
XRECORD
  5
1B63
102
{ACAD_REACTORS
330
1B5D
102
}
330
1B5D
100
AcDbXrecord
280
     1
270
     1
271
     1
  0
XRECORD
  5
1B60
102
{ACAD_REACTORS
330
1B5D
102
}
330
1B5D
100
AcDbXrecord
280
     1
270
     1
271
     1
  0
XRECORD
  5
1BF0
102
{ACAD_REACTORS
330
1BEF
102
}
330
1BEF
100
AcDbXrecord
280
     1
102
DISPLAYNAME
  1
Imperial24
102
FLAGS
 90
        0
  0
CELLSTYLEMAP
  5
1BB7
102
{ACAD_REACTORS
330
1BB6
102
}
330
1BB6
100
AcDbCellStyleMap
 90
        3
300
CELLSTYLE
  1
TABLEFORMAT_BEGIN
 90
        5
170
     1
 91
        0
 92
    32768
 62
   257
 93
        1
300
CONTENTFORMAT
  1
CONTENTFORMAT_BEGIN
 90
        0
 91
        0
 92
      512
 93
        0
300

 40
0.0
140
1.0
 94
        5
 62
     0
340
F
144
0.25
309
CONTENTFORMAT_END
171
     0
 94
        0
309
TABLEFORMAT_END
  1
CELLSTYLE_BEGIN
 90
        1
 91
        1
300
_TITLE
309
CELLSTYLE_END
300
CELLSTYLE
  1
TABLEFORMAT_BEGIN
 90
        5
170
     1
 91
        0
 92
        0
 62
   257
 93
        1
300
CONTENTFORMAT
  1
CONTENTFORMAT_BEGIN
 90
        0
 91
        0
 92
      512
 93
        0
300

 40
0.0
140
1.0
 94
        5
 62
     0
340
F
144
0.18
309
CONTENTFORMAT_END
171
     0
 94
        0
309
TABLEFORMAT_END
  1
CELLSTYLE_BEGIN
 90
        2
 91
        1
300
_HEADER
309
CELLSTYLE_END
300
CELLSTYLE
  1
TABLEFORMAT_BEGIN
 90
        5
170
     1
 91
        0
 92
        0
 62
   257
 93
        1
300
CONTENTFORMAT
  1
CONTENTFORMAT_BEGIN
 90
        0
 91
        0
 92
      512
 93
        0
300

 40
0.0
140
1.0
 94
        2
 62
     0
340
F
144
0.18
309
CONTENTFORMAT_END
171
     0
 94
        0
309
TABLEFORMAT_END
  1
CELLSTYLE_BEGIN
 90
        3
 91
        2
300
_DATA
309
CELLSTYLE_END
  0
XRECORD
  5
1BED
102
{ACAD_REACTORS
330
1BB6
102
}
330
1BB6
100
AcDbXrecord
280
     1
102
ACAD_ROUNDTRIP_PRE2007_TABLESTYLE
 90
      512
 91
        0
  1

 92
      512
 93
        0
  2

 94
      512
 95
        0
  3

  0
XRECORD
  5
1BC8
102
{ACAD_REACTORS
330
1BC7
102
}
330
1BC7
100
AcDbXrecord
280
     1
102
RTVSPost2010Prop28
280
     1
102
RTVSPost2010PropOp28
 70
     1
102
RTVSPost2010Prop29
280
     1
102
RTVSPost2010PropOp29
 70
     1
102
RTVSPost2010Prop30
280
     0
102
RTVSPost2010PropOp30
 70
     1
102
RTVSPost2010Prop31
280
     0
102
RTVSPost2010PropOp31
 70
     1
102
RTVSPost2010Prop32
280
     0
102
RTVSPost2010PropOp32
 70
     1
102
RTVSPost2010Prop33
280
     0
102
RTVSPost2010PropOp33
 70
     1
102
RTVSPost2010Prop34
280
     0
102
RTVSPost2010PropOp34
 70
     1
102
RTVSPost2010Prop35
280
     0
102
RTVSPost2010PropOp35
 70
     1
102
RTVSPost2010Prop36
280
     0
102
RTVSPost2010PropOp36
 70
     1
102
RTVSPost2010Prop37
 90
       50
102
RTVSPost2010PropOp37
 70
     1
102
RTVSPost2010Prop38
140
0.0
102
RTVSPost2010PropOp38
 70
     1
102
RTVSPost2010Prop39
140
1.0
102
RTVSPost2010PropOp39
 70
     1
102
RTVSPost2010Prop40
 90
        0
102
RTVSPost2010PropOp40
 70
     1
102
RTVSPost2010Prop41ColorIndex
 90
       18
102
RTVSPost2010Prop41ColorRGB
 90
        0
102
RTVSPost2010PropOp41
 70
     1
102
RTVSPost2010Prop42
 90
       50
102
RTVSPost2010PropOp42
 70
     1
102
RTVSPost2010Prop43
 90
        3
102
RTVSPost2010PropOp43
 70
     1
102
RTVSPost2010Prop44ColorIndex
 90
        5
102
RTVSPost2010Prop44ColorRGB
 90
      255
102
RTVSPost2010PropOp44
 70
     1
102
RTVSPost2010Prop45
280
     0
102
RTVSPost2010PropOp45
 70
     1
102
RTVSPost2010Prop46
 90
       50
102
RTVSPost2010PropOp46
 70
     1
102
RTVSPost2010Prop47
 90
       50
102
RTVSPost2010PropOp47
 70
     1
102
RTVSPost2010Prop48
 90
       50
102
RTVSPost2010PropOp48
 70
     1
102
RTVSPost2010Prop49
280
     0
102
RTVSPost2010PropOp49
 70
     1
102
RTVSPost2010Prop50
 90
       50
102
RTVSPost2010PropOp50
 70
     1
102
RTVSPost2010Prop51ColorIndex
 90
      256
102
RTVSPost2010Prop51ColorRGB
 90
-16777216
102
RTVSPost2010PropOp51
 70
     0
102
RTVSPost2010Prop52
140
1.0
102
RTVSPost2010PropOp52
 70
     0
102
RTVSPost2010Prop53
 90
        2
102
RTVSPost2010PropOp53
 70
     1
102
RTVSPost2010Prop54
  1
strokes_ogs.tif
102
RTVSPost2010PropOp54
 70
     1
102
RTVSPost2010Prop55
280
     0
102
RTVSPost2010PropOp55
 70
     1
102
RTVSPost2010Prop56
140
1.0
102
RTVSPost2010PropOp56
 70
     1
102
RTVSPost2010Prop57
140
1.0
102
RTVSPost2010PropOp57
 70
     1
102
RTVSPropertyOp0
 70
     1
102
RTVSPropertyOp1
 70
     1
102
RTVSPropertyOp2
 70
     1
102
RTVSPropertyOp3
 70
     1
102
RTVSPropertyOp4
 70
     1
102
RTVSPropertyOp5
 70
     1
102
RTVSPropertyOp6
 70
     1
102
RTVSPropertyOp7
 70
     1
102
RTVSPropertyOp8
 70
     1
102
RTVSPropertyOp9
 70
     1
102
RTVSPropertyOp10
 70
     1
102
RTVSPropertyOp11
 70
     1
102
RTVSPropertyOp12
 70
     1
102
RTVSPropertyOp13
 70
     1
102
RTVSPropertyOp14
 70
     1
102
RTVSPropertyOp15
 70
     1
102
RTVSPropertyOp16
 70
     1
102
RTVSPropertyOp17
 70
     1
102
RTVSPropertyOp18
 70
     1
102
RTVSPropertyOp19
 70
     1
102
RTVSPropertyOp20
 70
     1
102
RTVSPropertyOp21
 70
     1
102
RTVSPropertyOp22
 70
     1
102
RTVSPropertyOp23
 70
     1
102
RTVSPropertyOp24
 70
     1
102
RTVSPropertyOp25
 70
     1
102
RTVSPropertyOp26
 70
     1
102
RTVSPropertyOp27
 70
     1
102
RTVSPropertyOp28
 70
     1
102
RTVSPropertyOp29
 70
     1
102
RTVSPropertyOp30
 70
     1
102
RTVSPropertyOp31
 70
     1
102
RTVSPropertyOp32
 70
     1
102
RTVSPropertyOp33
 70
     1
102
RTVSPropertyOp34
 70
     1
102
RTVSPropertyOp35
 70
     1
102
RTVSPropertyOp36
 70
     1
102
RTVSPropertyOp37
 70
     1
102
RTVSPropertyOp38
 70
     1
102
RTVSPropertyOp39
 70
     1
102
RTVSPropertyOp40
 70
     1
102
RTVSPropertyOp41
 70
     1
102
RTVSPropertyOp42
 70
     1
102
RTVSPropertyOp43
 70
     1
102
RTVSPropertyOp44
 70
     1
102
RTVSPropertyOp45
 70
     1
102
RTVSPropertyOp46
 70
     1
102
RTVSPropertyOp47
 70
     1
102
RTVSPropertyOp48
 70
     1
102
RTVSPropertyOp49
 70
     1
102
RTVSPropertyOp50
 70
     1
102
RTVSPropertyOp51
 70
     0
102
RTVSPropertyOp52
 70
     0
102
RTVSPropertyOp53
 70
     1
102
RTVSPropertyOp54
 70
     1
102
RTVSPropertyOp55
 70
     1
102
RTVSPropertyOp56
 70
     1
102
RTVSPropertyOp57
 70
     1
102
RTVSPropertyOp58
 70
     1
102
RTVSPropertyOp59
 70
     1
102
RTVSPropertyOp60
 70
     1
102
RTVSPropertyOp61
 70
     1
102
RTVSPropertyOp62
 70
     1
  0
XRECORD
  5
1BC6
102
{ACAD_REACTORS
330
1BC5
102
}
330
1BC5
100
AcDbXrecord
280
     1
102
RTVSPost2010Prop28
280
     0
102
RTVSPost2010PropOp28
 70
     1
102
RTVSPost2010Prop29
280
     1
102
RTVSPost2010PropOp29
 70
     1
102
RTVSPost2010Prop30
280
     1
102
RTVSPost2010PropOp30
 70
     1
102
RTVSPost2010Prop31
280
     0
102
RTVSPost2010PropOp31
 70
     1
102
RTVSPost2010Prop32
280
     0
102
RTVSPost2010PropOp32
 70
     1
102
RTVSPost2010Prop33
280
     0
102
RTVSPost2010PropOp33
 70
     1
102
RTVSPost2010Prop34
280
     0
102
RTVSPost2010PropOp34
 70
     1
102
RTVSPost2010Prop35
280
     0
102
RTVSPost2010PropOp35
 70
     1
102
RTVSPost2010Prop36
280
     0
102
RTVSPost2010PropOp36
 70
     1
102
RTVSPost2010Prop37
 90
       50
102
RTVSPost2010PropOp37
 70
     1
102
RTVSPost2010Prop38
140
0.0
102
RTVSPost2010PropOp38
 70
     1
102
RTVSPost2010Prop39
140
1.0
102
RTVSPost2010PropOp39
 70
     1
102
RTVSPost2010Prop40
 90
        0
102
RTVSPost2010PropOp40
 70
     1
102
RTVSPost2010Prop41ColorIndex
 90
       18
102
RTVSPost2010Prop41ColorRGB
 90
        0
102
RTVSPost2010PropOp41
 70
     1
102
RTVSPost2010Prop42
 90
       50
102
RTVSPost2010PropOp42
 70
     1
102
RTVSPost2010Prop43
 90
        3
102
RTVSPost2010PropOp43
 70
     1
102
RTVSPost2010Prop44ColorIndex
 90
        5
102
RTVSPost2010Prop44ColorRGB
 90
      255
102
RTVSPost2010PropOp44
 70
     1
102
RTVSPost2010Prop45
280
     0
102
RTVSPost2010PropOp45
 70
     1
102
RTVSPost2010Prop46
 90
       50
102
RTVSPost2010PropOp46
 70
     1
102
RTVSPost2010Prop47
 90
       50
102
RTVSPost2010PropOp47
 70
     1
102
RTVSPost2010Prop48
 90
       50
102
RTVSPost2010PropOp48
 70
     1
102
RTVSPost2010Prop49
280
     0
102
RTVSPost2010PropOp49
 70
     1
102
RTVSPost2010Prop50
 90
       50
102
RTVSPost2010PropOp50
 70
     1
102
RTVSPost2010Prop51ColorIndex
 90
      256
102
RTVSPost2010Prop51ColorRGB
 90
-16777216
102
RTVSPost2010PropOp51
 70
     0
102
RTVSPost2010Prop52
140
1.0
102
RTVSPost2010PropOp52
 70
     0
102
RTVSPost2010Prop53
 90
        2
102
RTVSPost2010PropOp53
 70
     1
102
RTVSPost2010Prop54
  1
strokes_ogs.tif
102
RTVSPost2010PropOp54
 70
     1
102
RTVSPost2010Prop55
280
     0
102
RTVSPost2010PropOp55
 70
     1
102
RTVSPost2010Prop56
140
1.0
102
RTVSPost2010PropOp56
 70
     1
102
RTVSPost2010Prop57
140
1.0
102
RTVSPost2010PropOp57
 70
     1
102
RTVSPropertyOp0
 70
     1
102
RTVSPropertyOp1
 70
     1
102
RTVSPropertyOp2
 70
     1
102
RTVSPropertyOp3
 70
     1
102
RTVSPropertyOp4
 70
     1
102
RTVSPropertyOp5
 70
     1
102
RTVSPropertyOp6
 70
     1
102
RTVSPropertyOp7
 70
     1
102
RTVSPropertyOp8
 70
     1
102
RTVSPropertyOp9
 70
     1
102
RTVSPropertyOp10
 70
     1
102
RTVSPropertyOp11
 70
     1
102
RTVSPropertyOp12
 70
     1
102
RTVSPropertyOp13
 70
     1
102
RTVSPropertyOp14
 70
     1
102
RTVSPropertyOp15
 70
     1
102
RTVSPropertyOp16
 70
     1
102
RTVSPropertyOp17
 70
     1
102
RTVSPropertyOp18
 70
     1
102
RTVSPropertyOp19
 70
     1
102
RTVSPropertyOp20
 70
     1
102
RTVSPropertyOp21
 70
     1
102
RTVSPropertyOp22
 70
     1
102
RTVSPropertyOp23
 70
     1
102
RTVSPropertyOp24
 70
     1
102
RTVSPropertyOp25
 70
     1
102
RTVSPropertyOp26
 70
     1
102
RTVSPropertyOp27
 70
     1
102
RTVSPropertyOp28
 70
     1
102
RTVSPropertyOp29
 70
     1
102
RTVSPropertyOp30
 70
     1
102
RTVSPropertyOp31
 70
     1
102
RTVSPropertyOp32
 70
     1
102
RTVSPropertyOp33
 70
     1
102
RTVSPropertyOp34
 70
     1
102
RTVSPropertyOp35
 70
     1
102
RTVSPropertyOp36
 70
     1
102
RTVSPropertyOp37
 70
     1
102
RTVSPropertyOp38
 70
     1
102
RTVSPropertyOp39
 70
     1
102
RTVSPropertyOp40
 70
     1
102
RTVSPropertyOp41
 70
     1
102
RTVSPropertyOp42
 70
     1
102
RTVSPropertyOp43
 70
     1
102
RTVSPropertyOp44
 70
     1
102
RTVSPropertyOp45
 70
     1
102
RTVSPropertyOp46
 70
     1
102
RTVSPropertyOp47
 70
     1
102
RTVSPropertyOp48
 70
     1
102
RTVSPropertyOp49
 70
     1
102
RTVSPropertyOp50
 70
     1
102
RTVSPropertyOp51
 70
     0
102
RTVSPropertyOp52
 70
     0
102
RTVSPropertyOp53
 70
     1
102
RTVSPropertyOp54
 70
     1
102
RTVSPropertyOp55
 70
     1
102
RTVSPropertyOp56
 70
     1
102
RTVSPropertyOp57
 70
     1
102
RTVSPropertyOp58
 70
     1
102
RTVSPropertyOp59
 70
     1
102
RTVSPropertyOp60
 70
     1
102
RTVSPropertyOp61
 70
     1
102
RTVSPropertyOp62
 70
     1
  0
XRECORD
  5
1BD4
102
{ACAD_REACTORS
330
1BD3
102
}
330
1BD3
100
AcDbXrecord
280
     1
102
RTVSPost2010Prop28
280
     0
102
RTVSPost2010PropOp28
 70
     1
102
RTVSPost2010Prop29
280
     1
102
RTVSPost2010PropOp29
 70
     1
102
RTVSPost2010Prop30
280
     1
102
RTVSPost2010PropOp30
 70
     1
102
RTVSPost2010Prop31
280
     0
102
RTVSPost2010PropOp31
 70
     1
102
RTVSPost2010Prop32
280
     0
102
RTVSPost2010PropOp32
 70
     1
102
RTVSPost2010Prop33
280
     0
102
RTVSPost2010PropOp33
 70
     1
102
RTVSPost2010Prop34
280
     0
102
RTVSPost2010PropOp34
 70
     1
102
RTVSPost2010Prop35
280
     0
102
RTVSPost2010PropOp35
 70
     1
102
RTVSPost2010Prop36
280
     0
102
RTVSPost2010PropOp36
 70
     1
102
RTVSPost2010Prop37
 90
       50
102
RTVSPost2010PropOp37
 70
     1
102
RTVSPost2010Prop38
140
0.0
102
RTVSPost2010PropOp38
 70
     1
102
RTVSPost2010Prop39
140
1.0
102
RTVSPost2010PropOp39
 70
     1
102
RTVSPost2010Prop40
 90
        0
102
RTVSPost2010PropOp40
 70
     1
102
RTVSPost2010Prop41ColorIndex
 90
       18
102
RTVSPost2010Prop41ColorRGB
 90
        0
102
RTVSPost2010PropOp41
 70
     1
102
RTVSPost2010Prop42
 90
       50
102
RTVSPost2010PropOp42
 70
     1
102
RTVSPost2010Prop43
 90
        3
102
RTVSPost2010PropOp43
 70
     1
102
RTVSPost2010Prop44ColorIndex
 90
        5
102
RTVSPost2010Prop44ColorRGB
 90
      255
102
RTVSPost2010PropOp44
 70
     1
102
RTVSPost2010Prop45
280
     0
102
RTVSPost2010PropOp45
 70
     1
102
RTVSPost2010Prop46
 90
       50
102
RTVSPost2010PropOp46
 70
     1
102
RTVSPost2010Prop47
 90
       50
102
RTVSPost2010PropOp47
 70
     1
102
RTVSPost2010Prop48
 90
       50
102
RTVSPost2010PropOp48
 70
     1
102
RTVSPost2010Prop49
280
     0
102
RTVSPost2010PropOp49
 70
     1
102
RTVSPost2010Prop50
 90
       50
102
RTVSPost2010PropOp50
 70
     1
102
RTVSPost2010Prop51ColorIndex
 90
      256
102
RTVSPost2010Prop51ColorRGB
 90
-16777216
102
RTVSPost2010PropOp51
 70
     0
102
RTVSPost2010Prop52
140
1.0
102
RTVSPost2010PropOp52
 70
     0
102
RTVSPost2010Prop53
 90
        2
102
RTVSPost2010PropOp53
 70
     1
102
RTVSPost2010Prop54
  1
strokes_ogs.tif
102
RTVSPost2010PropOp54
 70
     1
102
RTVSPost2010Prop55
280
     0
102
RTVSPost2010PropOp55
 70
     1
102
RTVSPost2010Prop56
140
1.0
102
RTVSPost2010PropOp56
 70
     1
102
RTVSPost2010Prop57
140
1.0
102
RTVSPost2010PropOp57
 70
     1
102
RTVSPropertyOp0
 70
     1
102
RTVSPropertyOp1
 70
     1
102
RTVSPropertyOp2
 70
     1
102
RTVSPropertyOp3
 70
     1
102
RTVSPropertyOp4
 70
     1
102
RTVSPropertyOp5
 70
     1
102
RTVSPropertyOp6
 70
     1
102
RTVSPropertyOp7
 70
     1
102
RTVSPropertyOp8
 70
     1
102
RTVSPropertyOp9
 70
     1
102
RTVSPropertyOp10
 70
     1
102
RTVSPropertyOp11
 70
     1
102
RTVSPropertyOp12
 70
     1
102
RTVSPropertyOp13
 70
     1
102
RTVSPropertyOp14
 70
     1
102
RTVSPropertyOp15
 70
     1
102
RTVSPropertyOp16
 70
     1
102
RTVSPropertyOp17
 70
     1
102
RTVSPropertyOp18
 70
     1
102
RTVSPropertyOp19
 70
     1
102
RTVSPropertyOp20
 70
     1
102
RTVSPropertyOp21
 70
     1
102
RTVSPropertyOp22
 70
     1
102
RTVSPropertyOp23
 70
     1
102
RTVSPropertyOp24
 70
     1
102
RTVSPropertyOp25
 70
     1
102
RTVSPropertyOp26
 70
     1
102
RTVSPropertyOp27
 70
     1
102
RTVSPropertyOp28
 70
     1
102
RTVSPropertyOp29
 70
     1
102
RTVSPropertyOp30
 70
     1
102
RTVSPropertyOp31
 70
     1
102
RTVSPropertyOp32
 70
     1
102
RTVSPropertyOp33
 70
     1
102
RTVSPropertyOp34
 70
     1
102
RTVSPropertyOp35
 70
     1
102
RTVSPropertyOp36
 70
     1
102
RTVSPropertyOp37
 70
     1
102
RTVSPropertyOp38
 70
     1
102
RTVSPropertyOp39
 70
     1
102
RTVSPropertyOp40
 70
     1
102
RTVSPropertyOp41
 70
     1
102
RTVSPropertyOp42
 70
     1
102
RTVSPropertyOp43
 70
     1
102
RTVSPropertyOp44
 70
     1
102
RTVSPropertyOp45
 70
     1
102
RTVSPropertyOp46
 70
     1
102
RTVSPropertyOp47
 70
     1
102
RTVSPropertyOp48
 70
     1
102
RTVSPropertyOp49
 70
     1
102
RTVSPropertyOp50
 70
     1
102
RTVSPropertyOp51
 70
     0
102
RTVSPropertyOp52
 70
     0
102
RTVSPropertyOp53
 70
     1
102
RTVSPropertyOp54
 70
     1
102
RTVSPropertyOp55
 70
     1
102
RTVSPropertyOp56
 70
     1
102
RTVSPropertyOp57
 70
     1
102
RTVSPropertyOp58
 70
     1
102
RTVSPropertyOp59
 70
     1
102
RTVSPropertyOp60
 70
     1
102
RTVSPropertyOp61
 70
     1
102
RTVSPropertyOp62
 70
     1
  0
XRECORD
  5
1BDC
102
{ACAD_REACTORS
330
1BDB
102
}
330
1BDB
100
AcDbXrecord
280
     1
102
RTVSPost2010Prop28
280
     0
102
RTVSPost2010PropOp28
 70
     1
102
RTVSPost2010Prop29
280
     1
102
RTVSPost2010PropOp29
 70
     1
102
RTVSPost2010Prop30
280
     1
102
RTVSPost2010PropOp30
 70
     1
102
RTVSPost2010Prop31
280
     0
102
RTVSPost2010PropOp31
 70
     1
102
RTVSPost2010Prop32
280
     0
102
RTVSPost2010PropOp32
 70
     1
102
RTVSPost2010Prop33
280
     0
102
RTVSPost2010PropOp33
 70
     1
102
RTVSPost2010Prop34
280
     0
102
RTVSPost2010PropOp34
 70
     1
102
RTVSPost2010Prop35
280
     0
102
RTVSPost2010PropOp35
 70
     1
102
RTVSPost2010Prop36
280
     0
102
RTVSPost2010PropOp36
 70
     1
102
RTVSPost2010Prop37
 90
       50
102
RTVSPost2010PropOp37
 70
     1
102
RTVSPost2010Prop38
140
0.0
102
RTVSPost2010PropOp38
 70
     1
102
RTVSPost2010Prop39
140
1.0
102
RTVSPost2010PropOp39
 70
     1
102
RTVSPost2010Prop40
 90
        0
102
RTVSPost2010PropOp40
 70
     1
102
RTVSPost2010Prop41ColorIndex
 90
       18
102
RTVSPost2010Prop41ColorRGB
 90
        0
102
RTVSPost2010PropOp41
 70
     1
102
RTVSPost2010Prop42
 90
       50
102
RTVSPost2010PropOp42
 70
     1
102
RTVSPost2010Prop43
 90
        3
102
RTVSPost2010PropOp43
 70
     1
102
RTVSPost2010Prop44ColorIndex
 90
        5
102
RTVSPost2010Prop44ColorRGB
 90
      255
102
RTVSPost2010PropOp44
 70
     1
102
RTVSPost2010Prop45
280
     0
102
RTVSPost2010PropOp45
 70
     1
102
RTVSPost2010Prop46
 90
       50
102
RTVSPost2010PropOp46
 70
     1
102
RTVSPost2010Prop47
 90
       50
102
RTVSPost2010PropOp47
 70
     1
102
RTVSPost2010Prop48
 90
       50
102
RTVSPost2010PropOp48
 70
     1
102
RTVSPost2010Prop49
280
     0
102
RTVSPost2010PropOp49
 70
     1
102
RTVSPost2010Prop50
 90
       50
102
RTVSPost2010PropOp50
 70
     1
102
RTVSPost2010Prop51ColorIndex
 90
      256
102
RTVSPost2010Prop51ColorRGB
 90
-16777216
102
RTVSPost2010PropOp51
 70
     0
102
RTVSPost2010Prop52
140
1.0
102
RTVSPost2010PropOp52
 70
     0
102
RTVSPost2010Prop53
 90
        2
102
RTVSPost2010PropOp53
 70
     1
102
RTVSPost2010Prop54
  1
strokes_ogs.tif
102
RTVSPost2010PropOp54
 70
     1
102
RTVSPost2010Prop55
280
     0
102
RTVSPost2010PropOp55
 70
     1
102
RTVSPost2010Prop56
140
1.0
102
RTVSPost2010PropOp56
 70
     1
102
RTVSPost2010Prop57
140
1.0
102
RTVSPost2010PropOp57
 70
     1
102
RTVSPropertyOp0
 70
     1
102
RTVSPropertyOp1
 70
     1
102
RTVSPropertyOp2
 70
     1
102
RTVSPropertyOp3
 70
     1
102
RTVSPropertyOp4
 70
     1
102
RTVSPropertyOp5
 70
     1
102
RTVSPropertyOp6
 70
     1
102
RTVSPropertyOp7
 70
     1
102
RTVSPropertyOp8
 70
     1
102
RTVSPropertyOp9
 70
     1
102
RTVSPropertyOp10
 70
     1
102
RTVSPropertyOp11
 70
     1
102
RTVSPropertyOp12
 70
     1
102
RTVSPropertyOp13
 70
     1
102
RTVSPropertyOp14
 70
     1
102
RTVSPropertyOp15
 70
     1
102
RTVSPropertyOp16
 70
     1
102
RTVSPropertyOp17
 70
     1
102
RTVSPropertyOp18
 70
     1
102
RTVSPropertyOp19
 70
     1
102
RTVSPropertyOp20
 70
     1
102
RTVSPropertyOp21
 70
     1
102
RTVSPropertyOp22
 70
     1
102
RTVSPropertyOp23
 70
     1
102
RTVSPropertyOp24
 70
     1
102
RTVSPropertyOp25
 70
     1
102
RTVSPropertyOp26
 70
     1
102
RTVSPropertyOp27
 70
     1
102
RTVSPropertyOp28
 70
     1
102
RTVSPropertyOp29
 70
     1
102
RTVSPropertyOp30
 70
     1
102
RTVSPropertyOp31
 70
     1
102
RTVSPropertyOp32
 70
     1
102
RTVSPropertyOp33
 70
     1
102
RTVSPropertyOp34
 70
     1
102
RTVSPropertyOp35
 70
     1
102
RTVSPropertyOp36
 70
     1
102
RTVSPropertyOp37
 70
     1
102
RTVSPropertyOp38
 70
     1
102
RTVSPropertyOp39
 70
     1
102
RTVSPropertyOp40
 70
     1
102
RTVSPropertyOp41
 70
     1
102
RTVSPropertyOp42
 70
     1
102
RTVSPropertyOp43
 70
     1
102
RTVSPropertyOp44
 70
     1
102
RTVSPropertyOp45
 70
     1
102
RTVSPropertyOp46
 70
     1
102
RTVSPropertyOp47
 70
     1
102
RTVSPropertyOp48
 70
     1
102
RTVSPropertyOp49
 70
     1
102
RTVSPropertyOp50
 70
     1
102
RTVSPropertyOp51
 70
     0
102
RTVSPropertyOp52
 70
     0
102
RTVSPropertyOp53
 70
     1
102
RTVSPropertyOp54
 70
     1
102
RTVSPropertyOp55
 70
     1
102
RTVSPropertyOp56
 70
     1
102
RTVSPropertyOp57
 70
     1
102
RTVSPropertyOp58
 70
     1
102
RTVSPropertyOp59
 70
     1
102
RTVSPropertyOp60
 70
     1
102
RTVSPropertyOp61
 70
     1
102
RTVSPropertyOp62
 70
     1
  0
XRECORD
  5
1BCE
102
{ACAD_REACTORS
330
1BCD
102
}
330
1BCD
100
AcDbXrecord
280
     1
102
RTVSPost2010Prop28
280
     0
102
RTVSPost2010PropOp28
 70
     1
102
RTVSPost2010Prop29
280
     1
102
RTVSPost2010PropOp29
 70
     1
102
RTVSPost2010Prop30
280
     1
102
RTVSPost2010PropOp30
 70
     1
102
RTVSPost2010Prop31
280
     0
102
RTVSPost2010PropOp31
 70
     1
102
RTVSPost2010Prop32
280
     0
102
RTVSPost2010PropOp32
 70
     1
102
RTVSPost2010Prop33
280
     0
102
RTVSPost2010PropOp33
 70
     1
102
RTVSPost2010Prop34
280
     0
102
RTVSPost2010PropOp34
 70
     1
102
RTVSPost2010Prop35
280
     0
102
RTVSPost2010PropOp35
 70
     1
102
RTVSPost2010Prop36
280
     0
102
RTVSPost2010PropOp36
 70
     1
102
RTVSPost2010Prop37
 90
       50
102
RTVSPost2010PropOp37
 70
     1
102
RTVSPost2010Prop38
140
0.0
102
RTVSPost2010PropOp38
 70
     1
102
RTVSPost2010Prop39
140
1.0
102
RTVSPost2010PropOp39
 70
     1
102
RTVSPost2010Prop40
 90
        0
102
RTVSPost2010PropOp40
 70
     1
102
RTVSPost2010Prop41ColorIndex
 90
       18
102
RTVSPost2010Prop41ColorRGB
 90
        0
102
RTVSPost2010PropOp41
 70
     1
102
RTVSPost2010Prop42
 90
       50
102
RTVSPost2010PropOp42
 70
     1
102
RTVSPost2010Prop43
 90
        3
102
RTVSPost2010PropOp43
 70
     1
102
RTVSPost2010Prop44ColorIndex
 90
        5
102
RTVSPost2010Prop44ColorRGB
 90
      255
102
RTVSPost2010PropOp44
 70
     1
102
RTVSPost2010Prop45
280
     0
102
RTVSPost2010PropOp45
 70
     1
102
RTVSPost2010Prop46
 90
       50
102
RTVSPost2010PropOp46
 70
     1
102
RTVSPost2010Prop47
 90
       50
102
RTVSPost2010PropOp47
 70
     1
102
RTVSPost2010Prop48
 90
       50
102
RTVSPost2010PropOp48
 70
     1
102
RTVSPost2010Prop49
280
     0
102
RTVSPost2010PropOp49
 70
     1
102
RTVSPost2010Prop50
 90
       50
102
RTVSPost2010PropOp50
 70
     1
102
RTVSPost2010Prop51ColorIndex
 90
      256
102
RTVSPost2010Prop51ColorRGB
 90
-16777216
102
RTVSPost2010PropOp51
 70
     0
102
RTVSPost2010Prop52
140
1.0
102
RTVSPost2010PropOp52
 70
     0
102
RTVSPost2010Prop53
 90
        2
102
RTVSPost2010PropOp53
 70
     1
102
RTVSPost2010Prop54
  1
strokes_ogs.tif
102
RTVSPost2010PropOp54
 70
     1
102
RTVSPost2010Prop55
280
     0
102
RTVSPost2010PropOp55
 70
     1
102
RTVSPost2010Prop56
140
1.0
102
RTVSPost2010PropOp56
 70
     1
102
RTVSPost2010Prop57
140
1.0
102
RTVSPost2010PropOp57
 70
     1
102
RTVSPropertyOp0
 70
     1
102
RTVSPropertyOp1
 70
     1
102
RTVSPropertyOp2
 70
     1
102
RTVSPropertyOp3
 70
     1
102
RTVSPropertyOp4
 70
     1
102
RTVSPropertyOp5
 70
     1
102
RTVSPropertyOp6
 70
     1
102
RTVSPropertyOp7
 70
     1
102
RTVSPropertyOp8
 70
     1
102
RTVSPropertyOp9
 70
     1
102
RTVSPropertyOp10
 70
     1
102
RTVSPropertyOp11
 70
     1
102
RTVSPropertyOp12
 70
     1
102
RTVSPropertyOp13
 70
     1
102
RTVSPropertyOp14
 70
     1
102
RTVSPropertyOp15
 70
     1
102
RTVSPropertyOp16
 70
     1
102
RTVSPropertyOp17
 70
     1
102
RTVSPropertyOp18
 70
     1
102
RTVSPropertyOp19
 70
     1
102
RTVSPropertyOp20
 70
     1
102
RTVSPropertyOp21
 70
     1
102
RTVSPropertyOp22
 70
     1
102
RTVSPropertyOp23
 70
     1
102
RTVSPropertyOp24
 70
     1
102
RTVSPropertyOp25
 70
     1
102
RTVSPropertyOp26
 70
     1
102
RTVSPropertyOp27
 70
     1
102
RTVSPropertyOp28
 70
     1
102
RTVSPropertyOp29
 70
     1
102
RTVSPropertyOp30
 70
     1
102
RTVSPropertyOp31
 70
     1
102
RTVSPropertyOp32
 70
     1
102
RTVSPropertyOp33
 70
     1
102
RTVSPropertyOp34
 70
     1
102
RTVSPropertyOp35
 70
     1
102
RTVSPropertyOp36
 70
     1
102
RTVSPropertyOp37
 70
     1
102
RTVSPropertyOp38
 70
     1
102
RTVSPropertyOp39
 70
     1
102
RTVSPropertyOp40
 70
     1
102
RTVSPropertyOp41
 70
     1
102
RTVSPropertyOp42
 70
     1
102
RTVSPropertyOp43
 70
     1
102
RTVSPropertyOp44
 70
     1
102
RTVSPropertyOp45
 70
     1
102
RTVSPropertyOp46
 70
     1
102
RTVSPropertyOp47
 70
     1
102
RTVSPropertyOp48
 70
     1
102
RTVSPropertyOp49
 70
     1
102
RTVSPropertyOp50
 70
     1
102
RTVSPropertyOp51
 70
     0
102
RTVSPropertyOp52
 70
     0
102
RTVSPropertyOp53
 70
     1
102
RTVSPropertyOp54
 70
     1
102
RTVSPropertyOp55
 70
     1
102
RTVSPropertyOp56
 70
     1
102
RTVSPropertyOp57
 70
     1
102
RTVSPropertyOp58
 70
     1
102
RTVSPropertyOp59
 70
     1
102
RTVSPropertyOp60
 70
     1
102
RTVSPropertyOp61
 70
     1
102
RTVSPropertyOp62
 70
     1
  0
XRECORD
  5
1BD2
102
{ACAD_REACTORS
330
1BD1
102
}
330
1BD1
100
AcDbXrecord
280
     1
102
RTVSPost2010Prop28
280
     0
102
RTVSPost2010PropOp28
 70
     1
102
RTVSPost2010Prop29
280
     1
102
RTVSPost2010PropOp29
 70
     1
102
RTVSPost2010Prop30
280
     1
102
RTVSPost2010PropOp30
 70
     1
102
RTVSPost2010Prop31
280
     0
102
RTVSPost2010PropOp31
 70
     1
102
RTVSPost2010Prop32
280
     0
102
RTVSPost2010PropOp32
 70
     1
102
RTVSPost2010Prop33
280
     0
102
RTVSPost2010PropOp33
 70
     1
102
RTVSPost2010Prop34
280
     0
102
RTVSPost2010PropOp34
 70
     1
102
RTVSPost2010Prop35
280
     0
102
RTVSPost2010PropOp35
 70
     1
102
RTVSPost2010Prop36
280
     0
102
RTVSPost2010PropOp36
 70
     1
102
RTVSPost2010Prop37
 90
       50
102
RTVSPost2010PropOp37
 70
     1
102
RTVSPost2010Prop38
140
0.0
102
RTVSPost2010PropOp38
 70
     1
102
RTVSPost2010Prop39
140
1.0
102
RTVSPost2010PropOp39
 70
     1
102
RTVSPost2010Prop40
 90
        0
102
RTVSPost2010PropOp40
 70
     1
102
RTVSPost2010Prop41ColorIndex
 90
       18
102
RTVSPost2010Prop41ColorRGB
 90
        0
102
RTVSPost2010PropOp41
 70
     1
102
RTVSPost2010Prop42
 90
       50
102
RTVSPost2010PropOp42
 70
     1
102
RTVSPost2010Prop43
 90
        3
102
RTVSPost2010PropOp43
 70
     1
102
RTVSPost2010Prop44ColorIndex
 90
        5
102
RTVSPost2010Prop44ColorRGB
 90
      255
102
RTVSPost2010PropOp44
 70
     1
102
RTVSPost2010Prop45
280
     0
102
RTVSPost2010PropOp45
 70
     1
102
RTVSPost2010Prop46
 90
       50
102
RTVSPost2010PropOp46
 70
     1
102
RTVSPost2010Prop47
 90
       50
102
RTVSPost2010PropOp47
 70
     1
102
RTVSPost2010Prop48
 90
       50
102
RTVSPost2010PropOp48
 70
     1
102
RTVSPost2010Prop49
280
     0
102
RTVSPost2010PropOp49
 70
     1
102
RTVSPost2010Prop50
 90
       50
102
RTVSPost2010PropOp50
 70
     1
102
RTVSPost2010Prop51ColorIndex
 90
      256
102
RTVSPost2010Prop51ColorRGB
 90
-16777216
102
RTVSPost2010PropOp51
 70
     0
102
RTVSPost2010Prop52
140
1.0
102
RTVSPost2010PropOp52
 70
     0
102
RTVSPost2010Prop53
 90
        2
102
RTVSPost2010PropOp53
 70
     1
102
RTVSPost2010Prop54
  1
strokes_ogs.tif
102
RTVSPost2010PropOp54
 70
     1
102
RTVSPost2010Prop55
280
     0
102
RTVSPost2010PropOp55
 70
     1
102
RTVSPost2010Prop56
140
1.0
102
RTVSPost2010PropOp56
 70
     1
102
RTVSPost2010Prop57
140
1.0
102
RTVSPost2010PropOp57
 70
     1
102
RTVSPropertyOp0
 70
     1
102
RTVSPropertyOp1
 70
     1
102
RTVSPropertyOp2
 70
     1
102
RTVSPropertyOp3
 70
     1
102
RTVSPropertyOp4
 70
     1
102
RTVSPropertyOp5
 70
     1
102
RTVSPropertyOp6
 70
     1
102
RTVSPropertyOp7
 70
     1
102
RTVSPropertyOp8
 70
     1
102
RTVSPropertyOp9
 70
     1
102
RTVSPropertyOp10
 70
     1
102
RTVSPropertyOp11
 70
     1
102
RTVSPropertyOp12
 70
     1
102
RTVSPropertyOp13
 70
     1
102
RTVSPropertyOp14
 70
     1
102
RTVSPropertyOp15
 70
     1
102
RTVSPropertyOp16
 70
     1
102
RTVSPropertyOp17
 70
     1
102
RTVSPropertyOp18
 70
     1
102
RTVSPropertyOp19
 70
     1
102
RTVSPropertyOp20
 70
     1
102
RTVSPropertyOp21
 70
     1
102
RTVSPropertyOp22
 70
     1
102
RTVSPropertyOp23
 70
     1
102
RTVSPropertyOp24
 70
     1
102
RTVSPropertyOp25
 70
     1
102
RTVSPropertyOp26
 70
     1
102
RTVSPropertyOp27
 70
     1
102
RTVSPropertyOp28
 70
     1
102
RTVSPropertyOp29
 70
     1
102
RTVSPropertyOp30
 70
     1
102
RTVSPropertyOp31
 70
     1
102
RTVSPropertyOp32
 70
     1
102
RTVSPropertyOp33
 70
     1
102
RTVSPropertyOp34
 70
     1
102
RTVSPropertyOp35
 70
     1
102
RTVSPropertyOp36
 70
     1
102
RTVSPropertyOp37
 70
     1
102
RTVSPropertyOp38
 70
     1
102
RTVSPropertyOp39
 70
     1
102
RTVSPropertyOp40
 70
     1
102
RTVSPropertyOp41
 70
     1
102
RTVSPropertyOp42
 70
     1
102
RTVSPropertyOp43
 70
     1
102
RTVSPropertyOp44
 70
     1
102
RTVSPropertyOp45
 70
     1
102
RTVSPropertyOp46
 70
     1
102
RTVSPropertyOp47
 70
     1
102
RTVSPropertyOp48
 70
     1
102
RTVSPropertyOp49
 70
     1
102
RTVSPropertyOp50
 70
     1
102
RTVSPropertyOp51
 70
     0
102
RTVSPropertyOp52
 70
     0
102
RTVSPropertyOp53
 70
     1
102
RTVSPropertyOp54
 70
     1
102
RTVSPropertyOp55
 70
     1
102
RTVSPropertyOp56
 70
     1
102
RTVSPropertyOp57
 70
     1
102
RTVSPropertyOp58
 70
     1
102
RTVSPropertyOp59
 70
     1
102
RTVSPropertyOp60
 70
     1
102
RTVSPropertyOp61
 70
     1
102
RTVSPropertyOp62
 70
     1
  0
XRECORD
  5
1BEC
102
{ACAD_REACTORS
330
1BEB
102
}
330
1BEB
100
AcDbXrecord
280
     1
102
RTVSPost2010Prop28
280
     0
102
RTVSPost2010PropOp28
 70
     1
102
RTVSPost2010Prop29
280
     1
102
RTVSPost2010PropOp29
 70
     1
102
RTVSPost2010Prop30
280
     1
102
RTVSPost2010PropOp30
 70
     1
102
RTVSPost2010Prop31
280
     0
102
RTVSPost2010PropOp31
 70
     1
102
RTVSPost2010Prop32
280
     0
102
RTVSPost2010PropOp32
 70
     1
102
RTVSPost2010Prop33
280
     0
102
RTVSPost2010PropOp33
 70
     1
102
RTVSPost2010Prop34
280
     0
102
RTVSPost2010PropOp34
 70
     1
102
RTVSPost2010Prop35
280
     0
102
RTVSPost2010PropOp35
 70
     1
102
RTVSPost2010Prop36
280
     0
102
RTVSPost2010PropOp36
 70
     1
102
RTVSPost2010Prop37
 90
       50
102
RTVSPost2010PropOp37
 70
     0
102
RTVSPost2010Prop38
140
0.0
102
RTVSPost2010PropOp38
 70
     0
102
RTVSPost2010Prop39
140
1.0
102
RTVSPost2010PropOp39
 70
     0
102
RTVSPost2010Prop40
 90
        0
102
RTVSPost2010PropOp40
 70
     0
102
RTVSPost2010Prop41ColorIndex
 90
       18
102
RTVSPost2010Prop41ColorRGB
 90
        0
102
RTVSPost2010PropOp41
 70
     0
102
RTVSPost2010Prop42
 90
       50
102
RTVSPost2010PropOp42
 70
     0
102
RTVSPost2010Prop43
 90
        3
102
RTVSPost2010PropOp43
 70
     0
102
RTVSPost2010Prop44ColorIndex
 90
        5
102
RTVSPost2010Prop44ColorRGB
 90
      255
102
RTVSPost2010PropOp44
 70
     0
102
RTVSPost2010Prop45
280
     0
102
RTVSPost2010PropOp45
 70
     1
102
RTVSPost2010Prop46
 90
       50
102
RTVSPost2010PropOp46
 70
     0
102
RTVSPost2010Prop47
 90
       50
102
RTVSPost2010PropOp47
 70
     0
102
RTVSPost2010Prop48
 90
       50
102
RTVSPost2010PropOp48
 70
     0
102
RTVSPost2010Prop49
280
     0
102
RTVSPost2010PropOp49
 70
     1
102
RTVSPost2010Prop50
 90
       50
102
RTVSPost2010PropOp50
 70
     0
102
RTVSPost2010Prop51ColorIndex
 90
      256
102
RTVSPost2010Prop51ColorRGB
 90
-16777216
102
RTVSPost2010PropOp51
 70
     0
102
RTVSPost2010Prop52
140
1.0
102
RTVSPost2010PropOp52
 70
     0
102
RTVSPost2010Prop53
 90
        2
102
RTVSPost2010PropOp53
 70
     0
102
RTVSPost2010Prop54
  1
strokes_ogs.tif
102
RTVSPost2010PropOp54
 70
     0
102
RTVSPost2010Prop55
280
     0
102
RTVSPost2010PropOp55
 70
     1
102
RTVSPost2010Prop56
140
1.0
102
RTVSPost2010PropOp56
 70
     0
102
RTVSPost2010Prop57
140
1.0
102
RTVSPost2010PropOp57
 70
     0
102
RTVSPropertyOp0
 70
     0
102
RTVSPropertyOp1
 70
     0
102
RTVSPropertyOp2
 70
     0
102
RTVSPropertyOp3
 70
     0
102
RTVSPropertyOp4
 70
     0
102
RTVSPropertyOp5
 70
     0
102
RTVSPropertyOp6
 70
     0
102
RTVSPropertyOp7
 70
     0
102
RTVSPropertyOp8
 70
     0
102
RTVSPropertyOp9
 70
     0
102
RTVSPropertyOp10
 70
     0
102
RTVSPropertyOp11
 70
     0
102
RTVSPropertyOp12
 70
     0
102
RTVSPropertyOp13
 70
     0
102
RTVSPropertyOp14
 70
     2
102
RTVSPropertyOp15
 70
     0
102
RTVSPropertyOp16
 70
     0
102
RTVSPropertyOp17
 70
     0
102
RTVSPropertyOp18
 70
     0
102
RTVSPropertyOp19
 70
     0
102
RTVSPropertyOp20
 70
     0
102
RTVSPropertyOp21
 70
     0
102
RTVSPropertyOp22
 70
     0
102
RTVSPropertyOp23
 70
     0
102
RTVSPropertyOp24
 70
     0
102
RTVSPropertyOp25
 70
     0
102
RTVSPropertyOp26
 70
     0
102
RTVSPropertyOp27
 70
     0
102
RTVSPropertyOp28
 70
     1
102
RTVSPropertyOp29
 70
     1
102
RTVSPropertyOp30
 70
     1
102
RTVSPropertyOp31
 70
     1
102
RTVSPropertyOp32
 70
     1
102
RTVSPropertyOp33
 70
     1
102
RTVSPropertyOp34
 70
     1
102
RTVSPropertyOp35
 70
     1
102
RTVSPropertyOp36
 70
     1
102
RTVSPropertyOp37
 70
     0
102
RTVSPropertyOp38
 70
     0
102
RTVSPropertyOp39
 70
     0
102
RTVSPropertyOp40
 70
     0
102
RTVSPropertyOp41
 70
     0
102
RTVSPropertyOp42
 70
     0
102
RTVSPropertyOp43
 70
     0
102
RTVSPropertyOp44
 70
     0
102
RTVSPropertyOp45
 70
     1
102
RTVSPropertyOp46
 70
     0
102
RTVSPropertyOp47
 70
     0
102
RTVSPropertyOp48
 70
     0
102
RTVSPropertyOp49
 70
     1
102
RTVSPropertyOp50
 70
     0
102
RTVSPropertyOp51
 70
     0
102
RTVSPropertyOp52
 70
     0
102
RTVSPropertyOp53
 70
     0
102
RTVSPropertyOp54
 70
     0
102
RTVSPropertyOp55
 70
     1
102
RTVSPropertyOp56
 70
     0
102
RTVSPropertyOp57
 70
     0
102
RTVSPropertyOp58
 70
     0
102
RTVSPropertyOp59
 70
     0
102
RTVSPropertyOp60
 70
     0
102
RTVSPropertyOp61
 70
     0
102
RTVSPropertyOp62
 70
     0
  0
XRECORD
  5
1BDA
102
{ACAD_REACTORS
330
1BD9
102
}
330
1BD9
100
AcDbXrecord
280
     1
102
RTVSPost2010Prop28
280
     0
102
RTVSPost2010PropOp28
 70
     1
102
RTVSPost2010Prop29
280
     1
102
RTVSPost2010PropOp29
 70
     1
102
RTVSPost2010Prop30
280
     1
102
RTVSPost2010PropOp30
 70
     1
102
RTVSPost2010Prop31
280
     0
102
RTVSPost2010PropOp31
 70
     1
102
RTVSPost2010Prop32
280
     0
102
RTVSPost2010PropOp32
 70
     1
102
RTVSPost2010Prop33
280
     0
102
RTVSPost2010PropOp33
 70
     1
102
RTVSPost2010Prop34
280
     0
102
RTVSPost2010PropOp34
 70
     1
102
RTVSPost2010Prop35
280
     0
102
RTVSPost2010PropOp35
 70
     1
102
RTVSPost2010Prop36
280
     0
102
RTVSPost2010PropOp36
 70
     1
102
RTVSPost2010Prop37
 90
       50
102
RTVSPost2010PropOp37
 70
     1
102
RTVSPost2010Prop38
140
0.0
102
RTVSPost2010PropOp38
 70
     1
102
RTVSPost2010Prop39
140
1.0
102
RTVSPost2010PropOp39
 70
     1
102
RTVSPost2010Prop40
 90
        0
102
RTVSPost2010PropOp40
 70
     1
102
RTVSPost2010Prop41ColorIndex
 90
       18
102
RTVSPost2010Prop41ColorRGB
 90
        0
102
RTVSPost2010PropOp41
 70
     1
102
RTVSPost2010Prop42
 90
       50
102
RTVSPost2010PropOp42
 70
     1
102
RTVSPost2010Prop43
 90
        3
102
RTVSPost2010PropOp43
 70
     1
102
RTVSPost2010Prop44ColorIndex
 90
        5
102
RTVSPost2010Prop44ColorRGB
 90
      255
102
RTVSPost2010PropOp44
 70
     1
102
RTVSPost2010Prop45
280
     0
102
RTVSPost2010PropOp45
 70
     1
102
RTVSPost2010Prop46
 90
       50
102
RTVSPost2010PropOp46
 70
     1
102
RTVSPost2010Prop47
 90
       50
102
RTVSPost2010PropOp47
 70
     1
102
RTVSPost2010Prop48
 90
       50
102
RTVSPost2010PropOp48
 70
     1
102
RTVSPost2010Prop49
280
     0
102
RTVSPost2010PropOp49
 70
     1
102
RTVSPost2010Prop50
 90
       50
102
RTVSPost2010PropOp50
 70
     1
102
RTVSPost2010Prop51ColorIndex
 90
      256
102
RTVSPost2010Prop51ColorRGB
 90
-16777216
102
RTVSPost2010PropOp51
 70
     0
102
RTVSPost2010Prop52
140
1.0
102
RTVSPost2010PropOp52
 70
     0
102
RTVSPost2010Prop53
 90
        2
102
RTVSPost2010PropOp53
 70
     1
102
RTVSPost2010Prop54
  1
strokes_ogs.tif
102
RTVSPost2010PropOp54
 70
     1
102
RTVSPost2010Prop55
280
     0
102
RTVSPost2010PropOp55
 70
     1
102
RTVSPost2010Prop56
140
1.0
102
RTVSPost2010PropOp56
 70
     1
102
RTVSPost2010Prop57
140
1.0
102
RTVSPost2010PropOp57
 70
     1
102
RTVSPropertyOp0
 70
     1
102
RTVSPropertyOp1
 70
     1
102
RTVSPropertyOp2
 70
     1
102
RTVSPropertyOp3
 70
     1
102
RTVSPropertyOp4
 70
     1
102
RTVSPropertyOp5
 70
     1
102
RTVSPropertyOp6
 70
     1
102
RTVSPropertyOp7
 70
     1
102
RTVSPropertyOp8
 70
     1
102
RTVSPropertyOp9
 70
     1
102
RTVSPropertyOp10
 70
     1
102
RTVSPropertyOp11
 70
     1
102
RTVSPropertyOp12
 70
     1
102
RTVSPropertyOp13
 70
     1
102
RTVSPropertyOp14
 70
     1
102
RTVSPropertyOp15
 70
     1
102
RTVSPropertyOp16
 70
     1
102
RTVSPropertyOp17
 70
     1
102
RTVSPropertyOp18
 70
     1
102
RTVSPropertyOp19
 70
     1
102
RTVSPropertyOp20
 70
     1
102
RTVSPropertyOp21
 70
     1
102
RTVSPropertyOp22
 70
     1
102
RTVSPropertyOp23
 70
     1
102
RTVSPropertyOp24
 70
     1
102
RTVSPropertyOp25
 70
     1
102
RTVSPropertyOp26
 70
     1
102
RTVSPropertyOp27
 70
     1
102
RTVSPropertyOp28
 70
     1
102
RTVSPropertyOp29
 70
     1
102
RTVSPropertyOp30
 70
     1
102
RTVSPropertyOp31
 70
     1
102
RTVSPropertyOp32
 70
     1
102
RTVSPropertyOp33
 70
     1
102
RTVSPropertyOp34
 70
     1
102
RTVSPropertyOp35
 70
     1
102
RTVSPropertyOp36
 70
     1
102
RTVSPropertyOp37
 70
     1
102
RTVSPropertyOp38
 70
     1
102
RTVSPropertyOp39
 70
     1
102
RTVSPropertyOp40
 70
     1
102
RTVSPropertyOp41
 70
     1
102
RTVSPropertyOp42
 70
     1
102
RTVSPropertyOp43
 70
     1
102
RTVSPropertyOp44
 70
     1
102
RTVSPropertyOp45
 70
     1
102
RTVSPropertyOp46
 70
     1
102
RTVSPropertyOp47
 70
     1
102
RTVSPropertyOp48
 70
     1
102
RTVSPropertyOp49
 70
     1
102
RTVSPropertyOp50
 70
     1
102
RTVSPropertyOp51
 70
     0
102
RTVSPropertyOp52
 70
     0
102
RTVSPropertyOp53
 70
     1
102
RTVSPropertyOp54
 70
     1
102
RTVSPropertyOp55
 70
     1
102
RTVSPropertyOp56
 70
     1
102
RTVSPropertyOp57
 70
     1
102
RTVSPropertyOp58
 70
     1
102
RTVSPropertyOp59
 70
     1
102
RTVSPropertyOp60
 70
     1
102
RTVSPropertyOp61
 70
     1
102
RTVSPropertyOp62
 70
     1
  0
XRECORD
  5
1BBE
102
{ACAD_REACTORS
330
1BBD
102
}
330
1BBD
100
AcDbXrecord
280
     1
102
RTVSPost2010Prop28
280
     0
102
RTVSPost2010PropOp28
 70
     1
102
RTVSPost2010Prop29
280
     1
102
RTVSPost2010PropOp29
 70
     1
102
RTVSPost2010Prop30
280
     1
102
RTVSPost2010PropOp30
 70
     1
102
RTVSPost2010Prop31
280
     0
102
RTVSPost2010PropOp31
 70
     1
102
RTVSPost2010Prop32
280
     0
102
RTVSPost2010PropOp32
 70
     1
102
RTVSPost2010Prop33
280
     0
102
RTVSPost2010PropOp33
 70
     1
102
RTVSPost2010Prop34
280
     0
102
RTVSPost2010PropOp34
 70
     1
102
RTVSPost2010Prop35
280
     0
102
RTVSPost2010PropOp35
 70
     1
102
RTVSPost2010Prop36
280
     0
102
RTVSPost2010PropOp36
 70
     1
102
RTVSPost2010Prop37
 90
       50
102
RTVSPost2010PropOp37
 70
     1
102
RTVSPost2010Prop38
140
0.0
102
RTVSPost2010PropOp38
 70
     1
102
RTVSPost2010Prop39
140
1.0
102
RTVSPost2010PropOp39
 70
     1
102
RTVSPost2010Prop40
 90
        0
102
RTVSPost2010PropOp40
 70
     1
102
RTVSPost2010Prop41ColorIndex
 90
       18
102
RTVSPost2010Prop41ColorRGB
 90
        0
102
RTVSPost2010PropOp41
 70
     1
102
RTVSPost2010Prop42
 90
       50
102
RTVSPost2010PropOp42
 70
     1
102
RTVSPost2010Prop43
 90
        3
102
RTVSPost2010PropOp43
 70
     1
102
RTVSPost2010Prop44ColorIndex
 90
        5
102
RTVSPost2010Prop44ColorRGB
 90
      255
102
RTVSPost2010PropOp44
 70
     1
102
RTVSPost2010Prop45
280
     0
102
RTVSPost2010PropOp45
 70
     1
102
RTVSPost2010Prop46
 90
       50
102
RTVSPost2010PropOp46
 70
     1
102
RTVSPost2010Prop47
 90
       50
102
RTVSPost2010PropOp47
 70
     1
102
RTVSPost2010Prop48
 90
       50
102
RTVSPost2010PropOp48
 70
     1
102
RTVSPost2010Prop49
280
     0
102
RTVSPost2010PropOp49
 70
     1
102
RTVSPost2010Prop50
 90
       50
102
RTVSPost2010PropOp50
 70
     1
102
RTVSPost2010Prop51ColorIndex
 90
      256
102
RTVSPost2010Prop51ColorRGB
 90
-16777216
102
RTVSPost2010PropOp51
 70
     0
102
RTVSPost2010Prop52
140
1.0
102
RTVSPost2010PropOp52
 70
     0
102
RTVSPost2010Prop53
 90
        2
102
RTVSPost2010PropOp53
 70
     1
102
RTVSPost2010Prop54
  1
strokes_ogs.tif
102
RTVSPost2010PropOp54
 70
     1
102
RTVSPost2010Prop55
280
     0
102
RTVSPost2010PropOp55
 70
     1
102
RTVSPost2010Prop56
140
1.0
102
RTVSPost2010PropOp56
 70
     1
102
RTVSPost2010Prop57
140
1.0
102
RTVSPost2010PropOp57
 70
     1
102
RTVSPropertyOp0
 70
     1
102
RTVSPropertyOp1
 70
     1
102
RTVSPropertyOp2
 70
     1
102
RTVSPropertyOp3
 70
     1
102
RTVSPropertyOp4
 70
     1
102
RTVSPropertyOp5
 70
     1
102
RTVSPropertyOp6
 70
     1
102
RTVSPropertyOp7
 70
     1
102
RTVSPropertyOp8
 70
     1
102
RTVSPropertyOp9
 70
     1
102
RTVSPropertyOp10
 70
     1
102
RTVSPropertyOp11
 70
     1
102
RTVSPropertyOp12
 70
     1
102
RTVSPropertyOp13
 70
     1
102
RTVSPropertyOp14
 70
     1
102
RTVSPropertyOp15
 70
     1
102
RTVSPropertyOp16
 70
     1
102
RTVSPropertyOp17
 70
     1
102
RTVSPropertyOp18
 70
     1
102
RTVSPropertyOp19
 70
     1
102
RTVSPropertyOp20
 70
     1
102
RTVSPropertyOp21
 70
     1
102
RTVSPropertyOp22
 70
     1
102
RTVSPropertyOp23
 70
     1
102
RTVSPropertyOp24
 70
     1
102
RTVSPropertyOp25
 70
     1
102
RTVSPropertyOp26
 70
     1
102
RTVSPropertyOp27
 70
     1
102
RTVSPropertyOp28
 70
     1
102
RTVSPropertyOp29
 70
     1
102
RTVSPropertyOp30
 70
     1
102
RTVSPropertyOp31
 70
     1
102
RTVSPropertyOp32
 70
     1
102
RTVSPropertyOp33
 70
     1
102
RTVSPropertyOp34
 70
     1
102
RTVSPropertyOp35
 70
     1
102
RTVSPropertyOp36
 70
     1
102
RTVSPropertyOp37
 70
     1
102
RTVSPropertyOp38
 70
     1
102
RTVSPropertyOp39
 70
     1
102
RTVSPropertyOp40
 70
     1
102
RTVSPropertyOp41
 70
     1
102
RTVSPropertyOp42
 70
     1
102
RTVSPropertyOp43
 70
     1
102
RTVSPropertyOp44
 70
     1
102
RTVSPropertyOp45
 70
     1
102
RTVSPropertyOp46
 70
     1
102
RTVSPropertyOp47
 70
     1
102
RTVSPropertyOp48
 70
     1
102
RTVSPropertyOp49
 70
     1
102
RTVSPropertyOp50
 70
     1
102
RTVSPropertyOp51
 70
     0
102
RTVSPropertyOp52
 70
     0
102
RTVSPropertyOp53
 70
     1
102
RTVSPropertyOp54
 70
     1
102
RTVSPropertyOp55
 70
     1
102
RTVSPropertyOp56
 70
     1
102
RTVSPropertyOp57
 70
     1
102
RTVSPropertyOp58
 70
     1
102
RTVSPropertyOp59
 70
     1
102
RTVSPropertyOp60
 70
     1
102
RTVSPropertyOp61
 70
     1
102
RTVSPropertyOp62
 70
     1
  0
XRECORD
  5
1BC0
102
{ACAD_REACTORS
330
1BBF
102
}
330
1BBF
100
AcDbXrecord
280
     1
102
RTVSPost2010Prop28
280
     0
102
RTVSPost2010PropOp28
 70
     1
102
RTVSPost2010Prop29
280
     1
102
RTVSPost2010PropOp29
 70
     1
102
RTVSPost2010Prop30
280
     1
102
RTVSPost2010PropOp30
 70
     1
102
RTVSPost2010Prop31
280
     0
102
RTVSPost2010PropOp31
 70
     1
102
RTVSPost2010Prop32
280
     0
102
RTVSPost2010PropOp32
 70
     1
102
RTVSPost2010Prop33
280
     0
102
RTVSPost2010PropOp33
 70
     1
102
RTVSPost2010Prop34
280
     0
102
RTVSPost2010PropOp34
 70
     1
102
RTVSPost2010Prop35
280
     0
102
RTVSPost2010PropOp35
 70
     1
102
RTVSPost2010Prop36
280
     0
102
RTVSPost2010PropOp36
 70
     1
102
RTVSPost2010Prop37
 90
       50
102
RTVSPost2010PropOp37
 70
     1
102
RTVSPost2010Prop38
140
0.0
102
RTVSPost2010PropOp38
 70
     1
102
RTVSPost2010Prop39
140
1.0
102
RTVSPost2010PropOp39
 70
     1
102
RTVSPost2010Prop40
 90
        0
102
RTVSPost2010PropOp40
 70
     1
102
RTVSPost2010Prop41ColorIndex
 90
       18
102
RTVSPost2010Prop41ColorRGB
 90
        0
102
RTVSPost2010PropOp41
 70
     1
102
RTVSPost2010Prop42
 90
       50
102
RTVSPost2010PropOp42
 70
     1
102
RTVSPost2010Prop43
 90
        3
102
RTVSPost2010PropOp43
 70
     1
102
RTVSPost2010Prop44ColorIndex
 90
        5
102
RTVSPost2010Prop44ColorRGB
 90
      255
102
RTVSPost2010PropOp44
 70
     1
102
RTVSPost2010Prop45
280
     0
102
RTVSPost2010PropOp45
 70
     1
102
RTVSPost2010Prop46
 90
       50
102
RTVSPost2010PropOp46
 70
     1
102
RTVSPost2010Prop47
 90
       50
102
RTVSPost2010PropOp47
 70
     1
102
RTVSPost2010Prop48
 90
       50
102
RTVSPost2010PropOp48
 70
     1
102
RTVSPost2010Prop49
280
     0
102
RTVSPost2010PropOp49
 70
     1
102
RTVSPost2010Prop50
 90
       50
102
RTVSPost2010PropOp50
 70
     1
102
RTVSPost2010Prop51ColorIndex
 90
      256
102
RTVSPost2010Prop51ColorRGB
 90
-16777216
102
RTVSPost2010PropOp51
 70
     0
102
RTVSPost2010Prop52
140
1.0
102
RTVSPost2010PropOp52
 70
     0
102
RTVSPost2010Prop53
 90
        2
102
RTVSPost2010PropOp53
 70
     1
102
RTVSPost2010Prop54
  1
strokes_ogs.tif
102
RTVSPost2010PropOp54
 70
     1
102
RTVSPost2010Prop55
280
     0
102
RTVSPost2010PropOp55
 70
     1
102
RTVSPost2010Prop56
140
1.0
102
RTVSPost2010PropOp56
 70
     1
102
RTVSPost2010Prop57
140
1.0
102
RTVSPost2010PropOp57
 70
     1
102
RTVSPropertyOp0
 70
     1
102
RTVSPropertyOp1
 70
     1
102
RTVSPropertyOp2
 70
     1
102
RTVSPropertyOp3
 70
     1
102
RTVSPropertyOp4
 70
     1
102
RTVSPropertyOp5
 70
     1
102
RTVSPropertyOp6
 70
     1
102
RTVSPropertyOp7
 70
     1
102
RTVSPropertyOp8
 70
     1
102
RTVSPropertyOp9
 70
     1
102
RTVSPropertyOp10
 70
     1
102
RTVSPropertyOp11
 70
     1
102
RTVSPropertyOp12
 70
     1
102
RTVSPropertyOp13
 70
     1
102
RTVSPropertyOp14
 70
     1
102
RTVSPropertyOp15
 70
     1
102
RTVSPropertyOp16
 70
     1
102
RTVSPropertyOp17
 70
     1
102
RTVSPropertyOp18
 70
     1
102
RTVSPropertyOp19
 70
     1
102
RTVSPropertyOp20
 70
     1
102
RTVSPropertyOp21
 70
     1
102
RTVSPropertyOp22
 70
     1
102
RTVSPropertyOp23
 70
     1
102
RTVSPropertyOp24
 70
     1
102
RTVSPropertyOp25
 70
     1
102
RTVSPropertyOp26
 70
     1
102
RTVSPropertyOp27
 70
     1
102
RTVSPropertyOp28
 70
     1
102
RTVSPropertyOp29
 70
     1
102
RTVSPropertyOp30
 70
     1
102
RTVSPropertyOp31
 70
     1
102
RTVSPropertyOp32
 70
     1
102
RTVSPropertyOp33
 70
     1
102
RTVSPropertyOp34
 70
     1
102
RTVSPropertyOp35
 70
     1
102
RTVSPropertyOp36
 70
     1
102
RTVSPropertyOp37
 70
     1
102
RTVSPropertyOp38
 70
     1
102
RTVSPropertyOp39
 70
     1
102
RTVSPropertyOp40
 70
     1
102
RTVSPropertyOp41
 70
     1
102
RTVSPropertyOp42
 70
     1
102
RTVSPropertyOp43
 70
     1
102
RTVSPropertyOp44
 70
     1
102
RTVSPropertyOp45
 70
     1
102
RTVSPropertyOp46
 70
     1
102
RTVSPropertyOp47
 70
     1
102
RTVSPropertyOp48
 70
     1
102
RTVSPropertyOp49
 70
     1
102
RTVSPropertyOp50
 70
     1
102
RTVSPropertyOp51
 70
     0
102
RTVSPropertyOp52
 70
     0
102
RTVSPropertyOp53
 70
     1
102
RTVSPropertyOp54
 70
     1
102
RTVSPropertyOp55
 70
     1
102
RTVSPropertyOp56
 70
     1
102
RTVSPropertyOp57
 70
     1
102
RTVSPropertyOp58
 70
     1
102
RTVSPropertyOp59
 70
     1
102
RTVSPropertyOp60
 70
     1
102
RTVSPropertyOp61
 70
     1
102
RTVSPropertyOp62
 70
     1
  0
XRECORD
  5
1BC2
102
{ACAD_REACTORS
330
1BC1
102
}
330
1BC1
100
AcDbXrecord
280
     1
102
RTVSPost2010Prop28
280
     0
102
RTVSPost2010PropOp28
 70
     1
102
RTVSPost2010Prop29
280
     1
102
RTVSPost2010PropOp29
 70
     1
102
RTVSPost2010Prop30
280
     1
102
RTVSPost2010PropOp30
 70
     1
102
RTVSPost2010Prop31
280
     0
102
RTVSPost2010PropOp31
 70
     1
102
RTVSPost2010Prop32
280
     0
102
RTVSPost2010PropOp32
 70
     1
102
RTVSPost2010Prop33
280
     0
102
RTVSPost2010PropOp33
 70
     1
102
RTVSPost2010Prop34
280
     0
102
RTVSPost2010PropOp34
 70
     1
102
RTVSPost2010Prop35
280
     0
102
RTVSPost2010PropOp35
 70
     1
102
RTVSPost2010Prop36
280
     0
102
RTVSPost2010PropOp36
 70
     1
102
RTVSPost2010Prop37
 90
       50
102
RTVSPost2010PropOp37
 70
     1
102
RTVSPost2010Prop38
140
0.0
102
RTVSPost2010PropOp38
 70
     1
102
RTVSPost2010Prop39
140
1.0
102
RTVSPost2010PropOp39
 70
     1
102
RTVSPost2010Prop40
 90
        0
102
RTVSPost2010PropOp40
 70
     1
102
RTVSPost2010Prop41ColorIndex
 90
       18
102
RTVSPost2010Prop41ColorRGB
 90
        0
102
RTVSPost2010PropOp41
 70
     1
102
RTVSPost2010Prop42
 90
       50
102
RTVSPost2010PropOp42
 70
     1
102
RTVSPost2010Prop43
 90
        3
102
RTVSPost2010PropOp43
 70
     1
102
RTVSPost2010Prop44ColorIndex
 90
        5
102
RTVSPost2010Prop44ColorRGB
 90
      255
102
RTVSPost2010PropOp44
 70
     1
102
RTVSPost2010Prop45
280
     0
102
RTVSPost2010PropOp45
 70
     1
102
RTVSPost2010Prop46
 90
       50
102
RTVSPost2010PropOp46
 70
     1
102
RTVSPost2010Prop47
 90
       50
102
RTVSPost2010PropOp47
 70
     1
102
RTVSPost2010Prop48
 90
       50
102
RTVSPost2010PropOp48
 70
     1
102
RTVSPost2010Prop49
280
     0
102
RTVSPost2010PropOp49
 70
     1
102
RTVSPost2010Prop50
 90
       50
102
RTVSPost2010PropOp50
 70
     1
102
RTVSPost2010Prop51ColorIndex
 90
      256
102
RTVSPost2010Prop51ColorRGB
 90
-16777216
102
RTVSPost2010PropOp51
 70
     0
102
RTVSPost2010Prop52
140
1.0
102
RTVSPost2010PropOp52
 70
     0
102
RTVSPost2010Prop53
 90
        2
102
RTVSPost2010PropOp53
 70
     1
102
RTVSPost2010Prop54
  1
strokes_ogs.tif
102
RTVSPost2010PropOp54
 70
     1
102
RTVSPost2010Prop55
280
     0
102
RTVSPost2010PropOp55
 70
     1
102
RTVSPost2010Prop56
140
1.0
102
RTVSPost2010PropOp56
 70
     1
102
RTVSPost2010Prop57
140
1.0
102
RTVSPost2010PropOp57
 70
     1
102
RTVSPropertyOp0
 70
     1
102
RTVSPropertyOp1
 70
     1
102
RTVSPropertyOp2
 70
     1
102
RTVSPropertyOp3
 70
     1
102
RTVSPropertyOp4
 70
     1
102
RTVSPropertyOp5
 70
     1
102
RTVSPropertyOp6
 70
     1
102
RTVSPropertyOp7
 70
     1
102
RTVSPropertyOp8
 70
     1
102
RTVSPropertyOp9
 70
     1
102
RTVSPropertyOp10
 70
     1
102
RTVSPropertyOp11
 70
     1
102
RTVSPropertyOp12
 70
     1
102
RTVSPropertyOp13
 70
     1
102
RTVSPropertyOp14
 70
     1
102
RTVSPropertyOp15
 70
     1
102
RTVSPropertyOp16
 70
     1
102
RTVSPropertyOp17
 70
     1
102
RTVSPropertyOp18
 70
     1
102
RTVSPropertyOp19
 70
     1
102
RTVSPropertyOp20
 70
     1
102
RTVSPropertyOp21
 70
     1
102
RTVSPropertyOp22
 70
     1
102
RTVSPropertyOp23
 70
     1
102
RTVSPropertyOp24
 70
     1
102
RTVSPropertyOp25
 70
     1
102
RTVSPropertyOp26
 70
     1
102
RTVSPropertyOp27
 70
     1
102
RTVSPropertyOp28
 70
     1
102
RTVSPropertyOp29
 70
     1
102
RTVSPropertyOp30
 70
     1
102
RTVSPropertyOp31
 70
     1
102
RTVSPropertyOp32
 70
     1
102
RTVSPropertyOp33
 70
     1
102
RTVSPropertyOp34
 70
     1
102
RTVSPropertyOp35
 70
     1
102
RTVSPropertyOp36
 70
     1
102
RTVSPropertyOp37
 70
     1
102
RTVSPropertyOp38
 70
     1
102
RTVSPropertyOp39
 70
     1
102
RTVSPropertyOp40
 70
     1
102
RTVSPropertyOp41
 70
     1
102
RTVSPropertyOp42
 70
     1
102
RTVSPropertyOp43
 70
     1
102
RTVSPropertyOp44
 70
     1
102
RTVSPropertyOp45
 70
     1
102
RTVSPropertyOp46
 70
     1
102
RTVSPropertyOp47
 70
     1
102
RTVSPropertyOp48
 70
     1
102
RTVSPropertyOp49
 70
     1
102
RTVSPropertyOp50
 70
     1
102
RTVSPropertyOp51
 70
     0
102
RTVSPropertyOp52
 70
     0
102
RTVSPropertyOp53
 70
     1
102
RTVSPropertyOp54
 70
     1
102
RTVSPropertyOp55
 70
     1
102
RTVSPropertyOp56
 70
     1
102
RTVSPropertyOp57
 70
     1
102
RTVSPropertyOp58
 70
     1
102
RTVSPropertyOp59
 70
     1
102
RTVSPropertyOp60
 70
     1
102
RTVSPropertyOp61
 70
     1
102
RTVSPropertyOp62
 70
     1
  0
XRECORD
  5
1BC4
102
{ACAD_REACTORS
330
1BC3
102
}
330
1BC3
100
AcDbXrecord
280
     1
102
RTVSPost2010Prop28
280
     0
102
RTVSPost2010PropOp28
 70
     1
102
RTVSPost2010Prop29
280
     1
102
RTVSPost2010PropOp29
 70
     1
102
RTVSPost2010Prop30
280
     1
102
RTVSPost2010PropOp30
 70
     1
102
RTVSPost2010Prop31
280
     0
102
RTVSPost2010PropOp31
 70
     1
102
RTVSPost2010Prop32
280
     0
102
RTVSPost2010PropOp32
 70
     1
102
RTVSPost2010Prop33
280
     0
102
RTVSPost2010PropOp33
 70
     1
102
RTVSPost2010Prop34
280
     0
102
RTVSPost2010PropOp34
 70
     1
102
RTVSPost2010Prop35
280
     0
102
RTVSPost2010PropOp35
 70
     1
102
RTVSPost2010Prop36
280
     0
102
RTVSPost2010PropOp36
 70
     1
102
RTVSPost2010Prop37
 90
       50
102
RTVSPost2010PropOp37
 70
     1
102
RTVSPost2010Prop38
140
0.0
102
RTVSPost2010PropOp38
 70
     1
102
RTVSPost2010Prop39
140
1.0
102
RTVSPost2010PropOp39
 70
     1
102
RTVSPost2010Prop40
 90
        0
102
RTVSPost2010PropOp40
 70
     1
102
RTVSPost2010Prop41ColorIndex
 90
       18
102
RTVSPost2010Prop41ColorRGB
 90
        0
102
RTVSPost2010PropOp41
 70
     1
102
RTVSPost2010Prop42
 90
       50
102
RTVSPost2010PropOp42
 70
     1
102
RTVSPost2010Prop43
 90
        3
102
RTVSPost2010PropOp43
 70
     1
102
RTVSPost2010Prop44ColorIndex
 90
        5
102
RTVSPost2010Prop44ColorRGB
 90
      255
102
RTVSPost2010PropOp44
 70
     1
102
RTVSPost2010Prop45
280
     0
102
RTVSPost2010PropOp45
 70
     1
102
RTVSPost2010Prop46
 90
       50
102
RTVSPost2010PropOp46
 70
     1
102
RTVSPost2010Prop47
 90
       50
102
RTVSPost2010PropOp47
 70
     1
102
RTVSPost2010Prop48
 90
       50
102
RTVSPost2010PropOp48
 70
     1
102
RTVSPost2010Prop49
280
     0
102
RTVSPost2010PropOp49
 70
     1
102
RTVSPost2010Prop50
 90
       50
102
RTVSPost2010PropOp50
 70
     1
102
RTVSPost2010Prop51ColorIndex
 90
      256
102
RTVSPost2010Prop51ColorRGB
 90
-16777216
102
RTVSPost2010PropOp51
 70
     0
102
RTVSPost2010Prop52
140
1.0
102
RTVSPost2010PropOp52
 70
     0
102
RTVSPost2010Prop53
 90
        2
102
RTVSPost2010PropOp53
 70
     1
102
RTVSPost2010Prop54
  1
strokes_ogs.tif
102
RTVSPost2010PropOp54
 70
     1
102
RTVSPost2010Prop55
280
     0
102
RTVSPost2010PropOp55
 70
     1
102
RTVSPost2010Prop56
140
1.0
102
RTVSPost2010PropOp56
 70
     1
102
RTVSPost2010Prop57
140
1.0
102
RTVSPost2010PropOp57
 70
     1
102
RTVSPropertyOp0
 70
     1
102
RTVSPropertyOp1
 70
     1
102
RTVSPropertyOp2
 70
     1
102
RTVSPropertyOp3
 70
     1
102
RTVSPropertyOp4
 70
     1
102
RTVSPropertyOp5
 70
     1
102
RTVSPropertyOp6
 70
     1
102
RTVSPropertyOp7
 70
     1
102
RTVSPropertyOp8
 70
     1
102
RTVSPropertyOp9
 70
     1
102
RTVSPropertyOp10
 70
     1
102
RTVSPropertyOp11
 70
     1
102
RTVSPropertyOp12
 70
     1
102
RTVSPropertyOp13
 70
     1
102
RTVSPropertyOp14
 70
     1
102
RTVSPropertyOp15
 70
     1
102
RTVSPropertyOp16
 70
     1
102
RTVSPropertyOp17
 70
     1
102
RTVSPropertyOp18
 70
     1
102
RTVSPropertyOp19
 70
     1
102
RTVSPropertyOp20
 70
     1
102
RTVSPropertyOp21
 70
     1
102
RTVSPropertyOp22
 70
     1
102
RTVSPropertyOp23
 70
     1
102
RTVSPropertyOp24
 70
     1
102
RTVSPropertyOp25
 70
     1
102
RTVSPropertyOp26
 70
     1
102
RTVSPropertyOp27
 70
     1
102
RTVSPropertyOp28
 70
     1
102
RTVSPropertyOp29
 70
     1
102
RTVSPropertyOp30
 70
     1
102
RTVSPropertyOp31
 70
     1
102
RTVSPropertyOp32
 70
     1
102
RTVSPropertyOp33
 70
     1
102
RTVSPropertyOp34
 70
     1
102
RTVSPropertyOp35
 70
     1
102
RTVSPropertyOp36
 70
     1
102
RTVSPropertyOp37
 70
     1
102
RTVSPropertyOp38
 70
     1
102
RTVSPropertyOp39
 70
     1
102
RTVSPropertyOp40
 70
     1
102
RTVSPropertyOp41
 70
     1
102
RTVSPropertyOp42
 70
     1
102
RTVSPropertyOp43
 70
     1
102
RTVSPropertyOp44
 70
     1
102
RTVSPropertyOp45
 70
     1
102
RTVSPropertyOp46
 70
     1
102
RTVSPropertyOp47
 70
     1
102
RTVSPropertyOp48
 70
     1
102
RTVSPropertyOp49
 70
     1
102
RTVSPropertyOp50
 70
     1
102
RTVSPropertyOp51
 70
     0
102
RTVSPropertyOp52
 70
     0
102
RTVSPropertyOp53
 70
     1
102
RTVSPropertyOp54
 70
     1
102
RTVSPropertyOp55
 70
     1
102
RTVSPropertyOp56
 70
     1
102
RTVSPropertyOp57
 70
     1
102
RTVSPropertyOp58
 70
     1
102
RTVSPropertyOp59
 70
     1
102
RTVSPropertyOp60
 70
     1
102
RTVSPropertyOp61
 70
     1
102
RTVSPropertyOp62
 70
     1
  0
XRECORD
  5
1BCC
102
{ACAD_REACTORS
330
1BCB
102
}
330
1BCB
100
AcDbXrecord
280
     1
102
RTVSPost2010Prop28
280
     0
102
RTVSPost2010PropOp28
 70
     1
102
RTVSPost2010Prop29
280
     1
102
RTVSPost2010PropOp29
 70
     1
102
RTVSPost2010Prop30
280
     1
102
RTVSPost2010PropOp30
 70
     1
102
RTVSPost2010Prop31
280
     0
102
RTVSPost2010PropOp31
 70
     1
102
RTVSPost2010Prop32
280
     0
102
RTVSPost2010PropOp32
 70
     1
102
RTVSPost2010Prop33
280
     0
102
RTVSPost2010PropOp33
 70
     1
102
RTVSPost2010Prop34
280
     0
102
RTVSPost2010PropOp34
 70
     1
102
RTVSPost2010Prop35
280
     0
102
RTVSPost2010PropOp35
 70
     1
102
RTVSPost2010Prop36
280
     0
102
RTVSPost2010PropOp36
 70
     1
102
RTVSPost2010Prop37
 90
       50
102
RTVSPost2010PropOp37
 70
     1
102
RTVSPost2010Prop38
140
0.0
102
RTVSPost2010PropOp38
 70
     1
102
RTVSPost2010Prop39
140
1.0
102
RTVSPost2010PropOp39
 70
     1
102
RTVSPost2010Prop40
 90
        0
102
RTVSPost2010PropOp40
 70
     1
102
RTVSPost2010Prop41ColorIndex
 90
       18
102
RTVSPost2010Prop41ColorRGB
 90
        0
102
RTVSPost2010PropOp41
 70
     1
102
RTVSPost2010Prop42
 90
       50
102
RTVSPost2010PropOp42
 70
     1
102
RTVSPost2010Prop43
 90
        3
102
RTVSPost2010PropOp43
 70
     1
102
RTVSPost2010Prop44ColorIndex
 90
        5
102
RTVSPost2010Prop44ColorRGB
 90
      255
102
RTVSPost2010PropOp44
 70
     1
102
RTVSPost2010Prop45
280
     0
102
RTVSPost2010PropOp45
 70
     1
102
RTVSPost2010Prop46
 90
       50
102
RTVSPost2010PropOp46
 70
     1
102
RTVSPost2010Prop47
 90
       50
102
RTVSPost2010PropOp47
 70
     1
102
RTVSPost2010Prop48
 90
       50
102
RTVSPost2010PropOp48
 70
     1
102
RTVSPost2010Prop49
280
     0
102
RTVSPost2010PropOp49
 70
     1
102
RTVSPost2010Prop50
 90
       50
102
RTVSPost2010PropOp50
 70
     1
102
RTVSPost2010Prop51ColorIndex
 90
      256
102
RTVSPost2010Prop51ColorRGB
 90
-16777216
102
RTVSPost2010PropOp51
 70
     0
102
RTVSPost2010Prop52
140
1.0
102
RTVSPost2010PropOp52
 70
     0
102
RTVSPost2010Prop53
 90
        2
102
RTVSPost2010PropOp53
 70
     1
102
RTVSPost2010Prop54
  1
strokes_ogs.tif
102
RTVSPost2010PropOp54
 70
     1
102
RTVSPost2010Prop55
280
     0
102
RTVSPost2010PropOp55
 70
     1
102
RTVSPost2010Prop56
140
1.0
102
RTVSPost2010PropOp56
 70
     1
102
RTVSPost2010Prop57
140
1.0
102
RTVSPost2010PropOp57
 70
     1
102
RTVSPropertyOp0
 70
     1
102
RTVSPropertyOp1
 70
     1
102
RTVSPropertyOp2
 70
     1
102
RTVSPropertyOp3
 70
     1
102
RTVSPropertyOp4
 70
     1
102
RTVSPropertyOp5
 70
     1
102
RTVSPropertyOp6
 70
     1
102
RTVSPropertyOp7
 70
     1
102
RTVSPropertyOp8
 70
     1
102
RTVSPropertyOp9
 70
     1
102
RTVSPropertyOp10
 70
     1
102
RTVSPropertyOp11
 70
     1
102
RTVSPropertyOp12
 70
     1
102
RTVSPropertyOp13
 70
     1
102
RTVSPropertyOp14
 70
     1
102
RTVSPropertyOp15
 70
     1
102
RTVSPropertyOp16
 70
     1
102
RTVSPropertyOp17
 70
     1
102
RTVSPropertyOp18
 70
     1
102
RTVSPropertyOp19
 70
     1
102
RTVSPropertyOp20
 70
     1
102
RTVSPropertyOp21
 70
     1
102
RTVSPropertyOp22
 70
     1
102
RTVSPropertyOp23
 70
     1
102
RTVSPropertyOp24
 70
     1
102
RTVSPropertyOp25
 70
     1
102
RTVSPropertyOp26
 70
     1
102
RTVSPropertyOp27
 70
     1
102
RTVSPropertyOp28
 70
     1
102
RTVSPropertyOp29
 70
     1
102
RTVSPropertyOp30
 70
     1
102
RTVSPropertyOp31
 70
     1
102
RTVSPropertyOp32
 70
     1
102
RTVSPropertyOp33
 70
     1
102
RTVSPropertyOp34
 70
     1
102
RTVSPropertyOp35
 70
     1
102
RTVSPropertyOp36
 70
     1
102
RTVSPropertyOp37
 70
     1
102
RTVSPropertyOp38
 70
     1
102
RTVSPropertyOp39
 70
     1
102
RTVSPropertyOp40
 70
     1
102
RTVSPropertyOp41
 70
     1
102
RTVSPropertyOp42
 70
     1
102
RTVSPropertyOp43
 70
     1
102
RTVSPropertyOp44
 70
     1
102
RTVSPropertyOp45
 70
     1
102
RTVSPropertyOp46
 70
     1
102
RTVSPropertyOp47
 70
     1
102
RTVSPropertyOp48
 70
     1
102
RTVSPropertyOp49
 70
     1
102
RTVSPropertyOp50
 70
     1
102
RTVSPropertyOp51
 70
     0
102
RTVSPropertyOp52
 70
     0
102
RTVSPropertyOp53
 70
     1
102
RTVSPropertyOp54
 70
     1
102
RTVSPropertyOp55
 70
     1
102
RTVSPropertyOp56
 70
     1
102
RTVSPropertyOp57
 70
     1
102
RTVSPropertyOp58
 70
     1
102
RTVSPropertyOp59
 70
     1
102
RTVSPropertyOp60
 70
     1
102
RTVSPropertyOp61
 70
     1
102
RTVSPropertyOp62
 70
     1
  0
XRECORD
  5
1BE8
102
{ACAD_REACTORS
330
1BE7
102
}
330
1BE7
100
AcDbXrecord
280
     1
102
RTVSPost2010Prop28
280
     0
102
RTVSPost2010PropOp28
 70
     1
102
RTVSPost2010Prop29
280
     1
102
RTVSPost2010PropOp29
 70
     1
102
RTVSPost2010Prop30
280
     1
102
RTVSPost2010PropOp30
 70
     1
102
RTVSPost2010Prop31
280
     0
102
RTVSPost2010PropOp31
 70
     1
102
RTVSPost2010Prop32
280
     0
102
RTVSPost2010PropOp32
 70
     1
102
RTVSPost2010Prop33
280
     0
102
RTVSPost2010PropOp33
 70
     1
102
RTVSPost2010Prop34
280
     0
102
RTVSPost2010PropOp34
 70
     1
102
RTVSPost2010Prop35
280
     0
102
RTVSPost2010PropOp35
 70
     1
102
RTVSPost2010Prop36
280
     0
102
RTVSPost2010PropOp36
 70
     1
102
RTVSPost2010Prop37
 90
       50
102
RTVSPost2010PropOp37
 70
     0
102
RTVSPost2010Prop38
140
0.0
102
RTVSPost2010PropOp38
 70
     0
102
RTVSPost2010Prop39
140
1.0
102
RTVSPost2010PropOp39
 70
     0
102
RTVSPost2010Prop40
 90
        0
102
RTVSPost2010PropOp40
 70
     0
102
RTVSPost2010Prop41ColorIndex
 90
       18
102
RTVSPost2010Prop41ColorRGB
 90
        0
102
RTVSPost2010PropOp41
 70
     0
102
RTVSPost2010Prop42
 90
       50
102
RTVSPost2010PropOp42
 70
     0
102
RTVSPost2010Prop43
 90
        3
102
RTVSPost2010PropOp43
 70
     0
102
RTVSPost2010Prop44ColorIndex
 90
        5
102
RTVSPost2010Prop44ColorRGB
 90
      255
102
RTVSPost2010PropOp44
 70
     0
102
RTVSPost2010Prop45
280
     0
102
RTVSPost2010PropOp45
 70
     1
102
RTVSPost2010Prop46
 90
       50
102
RTVSPost2010PropOp46
 70
     0
102
RTVSPost2010Prop47
 90
       50
102
RTVSPost2010PropOp47
 70
     0
102
RTVSPost2010Prop48
 90
       50
102
RTVSPost2010PropOp48
 70
     0
102
RTVSPost2010Prop49
280
     0
102
RTVSPost2010PropOp49
 70
     1
102
RTVSPost2010Prop50
 90
       50
102
RTVSPost2010PropOp50
 70
     0
102
RTVSPost2010Prop51ColorIndex
 90
      256
102
RTVSPost2010Prop51ColorRGB
 90
-16777216
102
RTVSPost2010PropOp51
 70
     0
102
RTVSPost2010Prop52
140
1.0
102
RTVSPost2010PropOp52
 70
     0
102
RTVSPost2010Prop53
 90
        2
102
RTVSPost2010PropOp53
 70
     0
102
RTVSPost2010Prop54
  1
strokes_ogs.tif
102
RTVSPost2010PropOp54
 70
     0
102
RTVSPost2010Prop55
280
     0
102
RTVSPost2010PropOp55
 70
     1
102
RTVSPost2010Prop56
140
1.0
102
RTVSPost2010PropOp56
 70
     0
102
RTVSPost2010Prop57
140
1.0
102
RTVSPost2010PropOp57
 70
     0
102
RTVSPropertyOp0
 70
     0
102
RTVSPropertyOp1
 70
     0
102
RTVSPropertyOp2
 70
     0
102
RTVSPropertyOp3
 70
     0
102
RTVSPropertyOp4
 70
     0
102
RTVSPropertyOp5
 70
     0
102
RTVSPropertyOp6
 70
     0
102
RTVSPropertyOp7
 70
     0
102
RTVSPropertyOp8
 70
     0
102
RTVSPropertyOp9
 70
     0
102
RTVSPropertyOp10
 70
     0
102
RTVSPropertyOp11
 70
     0
102
RTVSPropertyOp12
 70
     0
102
RTVSPropertyOp13
 70
     0
102
RTVSPropertyOp14
 70
     2
102
RTVSPropertyOp15
 70
     0
102
RTVSPropertyOp16
 70
     0
102
RTVSPropertyOp17
 70
     0
102
RTVSPropertyOp18
 70
     0
102
RTVSPropertyOp19
 70
     0
102
RTVSPropertyOp20
 70
     0
102
RTVSPropertyOp21
 70
     0
102
RTVSPropertyOp22
 70
     0
102
RTVSPropertyOp23
 70
     0
102
RTVSPropertyOp24
 70
     0
102
RTVSPropertyOp25
 70
     0
102
RTVSPropertyOp26
 70
     0
102
RTVSPropertyOp27
 70
     0
102
RTVSPropertyOp28
 70
     1
102
RTVSPropertyOp29
 70
     1
102
RTVSPropertyOp30
 70
     1
102
RTVSPropertyOp31
 70
     1
102
RTVSPropertyOp32
 70
     1
102
RTVSPropertyOp33
 70
     1
102
RTVSPropertyOp34
 70
     1
102
RTVSPropertyOp35
 70
     1
102
RTVSPropertyOp36
 70
     1
102
RTVSPropertyOp37
 70
     0
102
RTVSPropertyOp38
 70
     0
102
RTVSPropertyOp39
 70
     0
102
RTVSPropertyOp40
 70
     0
102
RTVSPropertyOp41
 70
     0
102
RTVSPropertyOp42
 70
     0
102
RTVSPropertyOp43
 70
     0
102
RTVSPropertyOp44
 70
     0
102
RTVSPropertyOp45
 70
     1
102
RTVSPropertyOp46
 70
     0
102
RTVSPropertyOp47
 70
     0
102
RTVSPropertyOp48
 70
     0
102
RTVSPropertyOp49
 70
     1
102
RTVSPropertyOp50
 70
     0
102
RTVSPropertyOp51
 70
     0
102
RTVSPropertyOp52
 70
     0
102
RTVSPropertyOp53
 70
     0
102
RTVSPropertyOp54
 70
     0
102
RTVSPropertyOp55
 70
     1
102
RTVSPropertyOp56
 70
     0
102
RTVSPropertyOp57
 70
     0
102
RTVSPropertyOp58
 70
     0
102
RTVSPropertyOp59
 70
     0
102
RTVSPropertyOp60
 70
     0
102
RTVSPropertyOp61
 70
     0
102
RTVSPropertyOp62
 70
     0
  0
XRECORD
  5
1BD8
102
{ACAD_REACTORS
330
1BD7
102
}
330
1BD7
100
AcDbXrecord
280
     1
102
RTVSPost2010Prop28
280
     0
102
RTVSPost2010PropOp28
 70
     1
102
RTVSPost2010Prop29
280
     1
102
RTVSPost2010PropOp29
 70
     1
102
RTVSPost2010Prop30
280
     1
102
RTVSPost2010PropOp30
 70
     1
102
RTVSPost2010Prop31
280
     0
102
RTVSPost2010PropOp31
 70
     1
102
RTVSPost2010Prop32
280
     0
102
RTVSPost2010PropOp32
 70
     1
102
RTVSPost2010Prop33
280
     0
102
RTVSPost2010PropOp33
 70
     1
102
RTVSPost2010Prop34
280
     0
102
RTVSPost2010PropOp34
 70
     1
102
RTVSPost2010Prop35
280
     0
102
RTVSPost2010PropOp35
 70
     1
102
RTVSPost2010Prop36
280
     0
102
RTVSPost2010PropOp36
 70
     1
102
RTVSPost2010Prop37
 90
       50
102
RTVSPost2010PropOp37
 70
     1
102
RTVSPost2010Prop38
140
0.0
102
RTVSPost2010PropOp38
 70
     1
102
RTVSPost2010Prop39
140
1.0
102
RTVSPost2010PropOp39
 70
     1
102
RTVSPost2010Prop40
 90
        0
102
RTVSPost2010PropOp40
 70
     1
102
RTVSPost2010Prop41ColorIndex
 90
       18
102
RTVSPost2010Prop41ColorRGB
 90
        0
102
RTVSPost2010PropOp41
 70
     1
102
RTVSPost2010Prop42
 90
       50
102
RTVSPost2010PropOp42
 70
     1
102
RTVSPost2010Prop43
 90
        3
102
RTVSPost2010PropOp43
 70
     1
102
RTVSPost2010Prop44ColorIndex
 90
        5
102
RTVSPost2010Prop44ColorRGB
 90
      255
102
RTVSPost2010PropOp44
 70
     1
102
RTVSPost2010Prop45
280
     0
102
RTVSPost2010PropOp45
 70
     1
102
RTVSPost2010Prop46
 90
       50
102
RTVSPost2010PropOp46
 70
     1
102
RTVSPost2010Prop47
 90
       50
102
RTVSPost2010PropOp47
 70
     1
102
RTVSPost2010Prop48
 90
       50
102
RTVSPost2010PropOp48
 70
     1
102
RTVSPost2010Prop49
280
     0
102
RTVSPost2010PropOp49
 70
     1
102
RTVSPost2010Prop50
 90
       50
102
RTVSPost2010PropOp50
 70
     1
102
RTVSPost2010Prop51ColorIndex
 90
      256
102
RTVSPost2010Prop51ColorRGB
 90
-16777216
102
RTVSPost2010PropOp51
 70
     0
102
RTVSPost2010Prop52
140
1.0
102
RTVSPost2010PropOp52
 70
     0
102
RTVSPost2010Prop53
 90
        2
102
RTVSPost2010PropOp53
 70
     1
102
RTVSPost2010Prop54
  1
strokes_ogs.tif
102
RTVSPost2010PropOp54
 70
     1
102
RTVSPost2010Prop55
280
     0
102
RTVSPost2010PropOp55
 70
     1
102
RTVSPost2010Prop56
140
1.0
102
RTVSPost2010PropOp56
 70
     1
102
RTVSPost2010Prop57
140
1.0
102
RTVSPost2010PropOp57
 70
     1
102
RTVSPropertyOp0
 70
     1
102
RTVSPropertyOp1
 70
     1
102
RTVSPropertyOp2
 70
     1
102
RTVSPropertyOp3
 70
     1
102
RTVSPropertyOp4
 70
     1
102
RTVSPropertyOp5
 70
     1
102
RTVSPropertyOp6
 70
     1
102
RTVSPropertyOp7
 70
     1
102
RTVSPropertyOp8
 70
     1
102
RTVSPropertyOp9
 70
     1
102
RTVSPropertyOp10
 70
     1
102
RTVSPropertyOp11
 70
     1
102
RTVSPropertyOp12
 70
     1
102
RTVSPropertyOp13
 70
     1
102
RTVSPropertyOp14
 70
     1
102
RTVSPropertyOp15
 70
     1
102
RTVSPropertyOp16
 70
     1
102
RTVSPropertyOp17
 70
     1
102
RTVSPropertyOp18
 70
     1
102
RTVSPropertyOp19
 70
     1
102
RTVSPropertyOp20
 70
     1
102
RTVSPropertyOp21
 70
     1
102
RTVSPropertyOp22
 70
     1
102
RTVSPropertyOp23
 70
     1
102
RTVSPropertyOp24
 70
     1
102
RTVSPropertyOp25
 70
     1
102
RTVSPropertyOp26
 70
     1
102
RTVSPropertyOp27
 70
     1
102
RTVSPropertyOp28
 70
     1
102
RTVSPropertyOp29
 70
     1
102
RTVSPropertyOp30
 70
     1
102
RTVSPropertyOp31
 70
     1
102
RTVSPropertyOp32
 70
     1
102
RTVSPropertyOp33
 70
     1
102
RTVSPropertyOp34
 70
     1
102
RTVSPropertyOp35
 70
     1
102
RTVSPropertyOp36
 70
     1
102
RTVSPropertyOp37
 70
     1
102
RTVSPropertyOp38
 70
     1
102
RTVSPropertyOp39
 70
     1
102
RTVSPropertyOp40
 70
     1
102
RTVSPropertyOp41
 70
     1
102
RTVSPropertyOp42
 70
     1
102
RTVSPropertyOp43
 70
     1
102
RTVSPropertyOp44
 70
     1
102
RTVSPropertyOp45
 70
     1
102
RTVSPropertyOp46
 70
     1
102
RTVSPropertyOp47
 70
     1
102
RTVSPropertyOp48
 70
     1
102
RTVSPropertyOp49
 70
     1
102
RTVSPropertyOp50
 70
     1
102
RTVSPropertyOp51
 70
     0
102
RTVSPropertyOp52
 70
     0
102
RTVSPropertyOp53
 70
     1
102
RTVSPropertyOp54
 70
     1
102
RTVSPropertyOp55
 70
     1
102
RTVSPropertyOp56
 70
     1
102
RTVSPropertyOp57
 70
     1
102
RTVSPropertyOp58
 70
     1
102
RTVSPropertyOp59
 70
     1
102
RTVSPropertyOp60
 70
     1
102
RTVSPropertyOp61
 70
     1
102
RTVSPropertyOp62
 70
     1
  0
XRECORD
  5
1BEA
102
{ACAD_REACTORS
330
1BE9
102
}
330
1BE9
100
AcDbXrecord
280
     1
102
RTVSPost2010Prop28
280
     0
102
RTVSPost2010PropOp28
 70
     1
102
RTVSPost2010Prop29
280
     1
102
RTVSPost2010PropOp29
 70
     1
102
RTVSPost2010Prop30
280
     1
102
RTVSPost2010PropOp30
 70
     1
102
RTVSPost2010Prop31
280
     0
102
RTVSPost2010PropOp31
 70
     1
102
RTVSPost2010Prop32
280
     0
102
RTVSPost2010PropOp32
 70
     1
102
RTVSPost2010Prop33
280
     0
102
RTVSPost2010PropOp33
 70
     1
102
RTVSPost2010Prop34
280
     0
102
RTVSPost2010PropOp34
 70
     1
102
RTVSPost2010Prop35
280
     0
102
RTVSPost2010PropOp35
 70
     1
102
RTVSPost2010Prop36
280
     0
102
RTVSPost2010PropOp36
 70
     1
102
RTVSPost2010Prop37
 90
       50
102
RTVSPost2010PropOp37
 70
     0
102
RTVSPost2010Prop38
140
0.0
102
RTVSPost2010PropOp38
 70
     0
102
RTVSPost2010Prop39
140
1.0
102
RTVSPost2010PropOp39
 70
     0
102
RTVSPost2010Prop40
 90
        0
102
RTVSPost2010PropOp40
 70
     0
102
RTVSPost2010Prop41ColorIndex
 90
       18
102
RTVSPost2010Prop41ColorRGB
 90
        0
102
RTVSPost2010PropOp41
 70
     0
102
RTVSPost2010Prop42
 90
       50
102
RTVSPost2010PropOp42
 70
     0
102
RTVSPost2010Prop43
 90
        3
102
RTVSPost2010PropOp43
 70
     0
102
RTVSPost2010Prop44ColorIndex
 90
        5
102
RTVSPost2010Prop44ColorRGB
 90
      255
102
RTVSPost2010PropOp44
 70
     0
102
RTVSPost2010Prop45
280
     0
102
RTVSPost2010PropOp45
 70
     1
102
RTVSPost2010Prop46
 90
       50
102
RTVSPost2010PropOp46
 70
     0
102
RTVSPost2010Prop47
 90
       50
102
RTVSPost2010PropOp47
 70
     0
102
RTVSPost2010Prop48
 90
       50
102
RTVSPost2010PropOp48
 70
     0
102
RTVSPost2010Prop49
280
     0
102
RTVSPost2010PropOp49
 70
     1
102
RTVSPost2010Prop50
 90
       50
102
RTVSPost2010PropOp50
 70
     0
102
RTVSPost2010Prop51ColorIndex
 90
      256
102
RTVSPost2010Prop51ColorRGB
 90
-16777216
102
RTVSPost2010PropOp51
 70
     0
102
RTVSPost2010Prop52
140
1.0
102
RTVSPost2010PropOp52
 70
     0
102
RTVSPost2010Prop53
 90
        2
102
RTVSPost2010PropOp53
 70
     0
102
RTVSPost2010Prop54
  1
strokes_ogs.tif
102
RTVSPost2010PropOp54
 70
     0
102
RTVSPost2010Prop55
280
     0
102
RTVSPost2010PropOp55
 70
     1
102
RTVSPost2010Prop56
140
1.0
102
RTVSPost2010PropOp56
 70
     0
102
RTVSPost2010Prop57
140
1.0
102
RTVSPost2010PropOp57
 70
     0
102
RTVSPropertyOp0
 70
     0
102
RTVSPropertyOp1
 70
     0
102
RTVSPropertyOp2
 70
     0
102
RTVSPropertyOp3
 70
     0
102
RTVSPropertyOp4
 70
     0
102
RTVSPropertyOp5
 70
     0
102
RTVSPropertyOp6
 70
     0
102
RTVSPropertyOp7
 70
     0
102
RTVSPropertyOp8
 70
     0
102
RTVSPropertyOp9
 70
     0
102
RTVSPropertyOp10
 70
     0
102
RTVSPropertyOp11
 70
     0
102
RTVSPropertyOp12
 70
     0
102
RTVSPropertyOp13
 70
     0
102
RTVSPropertyOp14
 70
     2
102
RTVSPropertyOp15
 70
     0
102
RTVSPropertyOp16
 70
     0
102
RTVSPropertyOp17
 70
     0
102
RTVSPropertyOp18
 70
     0
102
RTVSPropertyOp19
 70
     0
102
RTVSPropertyOp20
 70
     0
102
RTVSPropertyOp21
 70
     0
102
RTVSPropertyOp22
 70
     0
102
RTVSPropertyOp23
 70
     0
102
RTVSPropertyOp24
 70
     0
102
RTVSPropertyOp25
 70
     0
102
RTVSPropertyOp26
 70
     0
102
RTVSPropertyOp27
 70
     0
102
RTVSPropertyOp28
 70
     1
102
RTVSPropertyOp29
 70
     1
102
RTVSPropertyOp30
 70
     1
102
RTVSPropertyOp31
 70
     1
102
RTVSPropertyOp32
 70
     1
102
RTVSPropertyOp33
 70
     1
102
RTVSPropertyOp34
 70
     1
102
RTVSPropertyOp35
 70
     1
102
RTVSPropertyOp36
 70
     1
102
RTVSPropertyOp37
 70
     0
102
RTVSPropertyOp38
 70
     0
102
RTVSPropertyOp39
 70
     0
102
RTVSPropertyOp40
 70
     0
102
RTVSPropertyOp41
 70
     0
102
RTVSPropertyOp42
 70
     0
102
RTVSPropertyOp43
 70
     0
102
RTVSPropertyOp44
 70
     0
102
RTVSPropertyOp45
 70
     1
102
RTVSPropertyOp46
 70
     0
102
RTVSPropertyOp47
 70
     0
102
RTVSPropertyOp48
 70
     0
102
RTVSPropertyOp49
 70
     1
102
RTVSPropertyOp50
 70
     0
102
RTVSPropertyOp51
 70
     0
102
RTVSPropertyOp52
 70
     0
102
RTVSPropertyOp53
 70
     0
102
RTVSPropertyOp54
 70
     0
102
RTVSPropertyOp55
 70
     1
102
RTVSPropertyOp56
 70
     0
102
RTVSPropertyOp57
 70
     0
102
RTVSPropertyOp58
 70
     0
102
RTVSPropertyOp59
 70
     0
102
RTVSPropertyOp60
 70
     0
102
RTVSPropertyOp61
 70
     0
102
RTVSPropertyOp62
 70
     0
  0
XRECORD
  5
1BD0
102
{ACAD_REACTORS
330
1BCF
102
}
330
1BCF
100
AcDbXrecord
280
     1
102
RTVSPost2010Prop28
280
     0
102
RTVSPost2010PropOp28
 70
     1
102
RTVSPost2010Prop29
280
     1
102
RTVSPost2010PropOp29
 70
     1
102
RTVSPost2010Prop30
280
     1
102
RTVSPost2010PropOp30
 70
     1
102
RTVSPost2010Prop31
280
     0
102
RTVSPost2010PropOp31
 70
     1
102
RTVSPost2010Prop32
280
     0
102
RTVSPost2010PropOp32
 70
     1
102
RTVSPost2010Prop33
280
     0
102
RTVSPost2010PropOp33
 70
     1
102
RTVSPost2010Prop34
280
     0
102
RTVSPost2010PropOp34
 70
     1
102
RTVSPost2010Prop35
280
     0
102
RTVSPost2010PropOp35
 70
     1
102
RTVSPost2010Prop36
280
     0
102
RTVSPost2010PropOp36
 70
     1
102
RTVSPost2010Prop37
 90
       50
102
RTVSPost2010PropOp37
 70
     1
102
RTVSPost2010Prop38
140
0.0
102
RTVSPost2010PropOp38
 70
     1
102
RTVSPost2010Prop39
140
1.0
102
RTVSPost2010PropOp39
 70
     1
102
RTVSPost2010Prop40
 90
        0
102
RTVSPost2010PropOp40
 70
     1
102
RTVSPost2010Prop41ColorIndex
 90
       18
102
RTVSPost2010Prop41ColorRGB
 90
        0
102
RTVSPost2010PropOp41
 70
     1
102
RTVSPost2010Prop42
 90
       50
102
RTVSPost2010PropOp42
 70
     1
102
RTVSPost2010Prop43
 90
        3
102
RTVSPost2010PropOp43
 70
     1
102
RTVSPost2010Prop44ColorIndex
 90
        5
102
RTVSPost2010Prop44ColorRGB
 90
      255
102
RTVSPost2010PropOp44
 70
     1
102
RTVSPost2010Prop45
280
     0
102
RTVSPost2010PropOp45
 70
     1
102
RTVSPost2010Prop46
 90
       50
102
RTVSPost2010PropOp46
 70
     1
102
RTVSPost2010Prop47
 90
       50
102
RTVSPost2010PropOp47
 70
     1
102
RTVSPost2010Prop48
 90
       50
102
RTVSPost2010PropOp48
 70
     1
102
RTVSPost2010Prop49
280
     0
102
RTVSPost2010PropOp49
 70
     1
102
RTVSPost2010Prop50
 90
       50
102
RTVSPost2010PropOp50
 70
     1
102
RTVSPost2010Prop51ColorIndex
 90
      256
102
RTVSPost2010Prop51ColorRGB
 90
-16777216
102
RTVSPost2010PropOp51
 70
     0
102
RTVSPost2010Prop52
140
1.0
102
RTVSPost2010PropOp52
 70
     0
102
RTVSPost2010Prop53
 90
        2
102
RTVSPost2010PropOp53
 70
     1
102
RTVSPost2010Prop54
  1
strokes_ogs.tif
102
RTVSPost2010PropOp54
 70
     1
102
RTVSPost2010Prop55
280
     0
102
RTVSPost2010PropOp55
 70
     1
102
RTVSPost2010Prop56
140
1.0
102
RTVSPost2010PropOp56
 70
     1
102
RTVSPost2010Prop57
140
1.0
102
RTVSPost2010PropOp57
 70
     1
102
RTVSPropertyOp0
 70
     1
102
RTVSPropertyOp1
 70
     1
102
RTVSPropertyOp2
 70
     1
102
RTVSPropertyOp3
 70
     1
102
RTVSPropertyOp4
 70
     1
102
RTVSPropertyOp5
 70
     1
102
RTVSPropertyOp6
 70
     1
102
RTVSPropertyOp7
 70
     1
102
RTVSPropertyOp8
 70
     1
102
RTVSPropertyOp9
 70
     1
102
RTVSPropertyOp10
 70
     1
102
RTVSPropertyOp11
 70
     1
102
RTVSPropertyOp12
 70
     1
102
RTVSPropertyOp13
 70
     1
102
RTVSPropertyOp14
 70
     1
102
RTVSPropertyOp15
 70
     1
102
RTVSPropertyOp16
 70
     1
102
RTVSPropertyOp17
 70
     1
102
RTVSPropertyOp18
 70
     1
102
RTVSPropertyOp19
 70
     1
102
RTVSPropertyOp20
 70
     1
102
RTVSPropertyOp21
 70
     1
102
RTVSPropertyOp22
 70
     1
102
RTVSPropertyOp23
 70
     1
102
RTVSPropertyOp24
 70
     1
102
RTVSPropertyOp25
 70
     1
102
RTVSPropertyOp26
 70
     1
102
RTVSPropertyOp27
 70
     1
102
RTVSPropertyOp28
 70
     1
102
RTVSPropertyOp29
 70
     1
102
RTVSPropertyOp30
 70
     1
102
RTVSPropertyOp31
 70
     1
102
RTVSPropertyOp32
 70
     1
102
RTVSPropertyOp33
 70
     1
102
RTVSPropertyOp34
 70
     1
102
RTVSPropertyOp35
 70
     1
102
RTVSPropertyOp36
 70
     1
102
RTVSPropertyOp37
 70
     1
102
RTVSPropertyOp38
 70
     1
102
RTVSPropertyOp39
 70
     1
102
RTVSPropertyOp40
 70
     1
102
RTVSPropertyOp41
 70
     1
102
RTVSPropertyOp42
 70
     1
102
RTVSPropertyOp43
 70
     1
102
RTVSPropertyOp44
 70
     1
102
RTVSPropertyOp45
 70
     1
102
RTVSPropertyOp46
 70
     1
102
RTVSPropertyOp47
 70
     1
102
RTVSPropertyOp48
 70
     1
102
RTVSPropertyOp49
 70
     1
102
RTVSPropertyOp50
 70
     1
102
RTVSPropertyOp51
 70
     0
102
RTVSPropertyOp52
 70
     0
102
RTVSPropertyOp53
 70
     1
102
RTVSPropertyOp54
 70
     1
102
RTVSPropertyOp55
 70
     1
102
RTVSPropertyOp56
 70
     1
102
RTVSPropertyOp57
 70
     1
102
RTVSPropertyOp58
 70
     1
102
RTVSPropertyOp59
 70
     1
102
RTVSPropertyOp60
 70
     1
102
RTVSPropertyOp61
 70
     1
102
RTVSPropertyOp62
 70
     1
  0
XRECORD
  5
1BE6
102
{ACAD_REACTORS
330
1BE5
102
}
330
1BE5
100
AcDbXrecord
280
     1
102
RTVSPost2010Prop28
280
     0
102
RTVSPost2010PropOp28
 70
     1
102
RTVSPost2010Prop29
280
     1
102
RTVSPost2010PropOp29
 70
     1
102
RTVSPost2010Prop30
280
     1
102
RTVSPost2010PropOp30
 70
     1
102
RTVSPost2010Prop31
280
     0
102
RTVSPost2010PropOp31
 70
     1
102
RTVSPost2010Prop32
280
     0
102
RTVSPost2010PropOp32
 70
     1
102
RTVSPost2010Prop33
280
     0
102
RTVSPost2010PropOp33
 70
     1
102
RTVSPost2010Prop34
280
     0
102
RTVSPost2010PropOp34
 70
     1
102
RTVSPost2010Prop35
280
     0
102
RTVSPost2010PropOp35
 70
     1
102
RTVSPost2010Prop36
280
     0
102
RTVSPost2010PropOp36
 70
     1
102
RTVSPost2010Prop37
 90
       50
102
RTVSPost2010PropOp37
 70
     1
102
RTVSPost2010Prop38
140
0.0
102
RTVSPost2010PropOp38
 70
     1
102
RTVSPost2010Prop39
140
1.0
102
RTVSPost2010PropOp39
 70
     1
102
RTVSPost2010Prop40
 90
        0
102
RTVSPost2010PropOp40
 70
     1
102
RTVSPost2010Prop41ColorIndex
 90
       18
102
RTVSPost2010Prop41ColorRGB
 90
        0
102
RTVSPost2010PropOp41
 70
     1
102
RTVSPost2010Prop42
 90
       50
102
RTVSPost2010PropOp42
 70
     1
102
RTVSPost2010Prop43
 90
        3
102
RTVSPost2010PropOp43
 70
     1
102
RTVSPost2010Prop44ColorIndex
 90
        5
102
RTVSPost2010Prop44ColorRGB
 90
      255
102
RTVSPost2010PropOp44
 70
     1
102
RTVSPost2010Prop45
280
     0
102
RTVSPost2010PropOp45
 70
     1
102
RTVSPost2010Prop46
 90
       50
102
RTVSPost2010PropOp46
 70
     1
102
RTVSPost2010Prop47
 90
       50
102
RTVSPost2010PropOp47
 70
     1
102
RTVSPost2010Prop48
 90
       50
102
RTVSPost2010PropOp48
 70
     1
102
RTVSPost2010Prop49
280
     0
102
RTVSPost2010PropOp49
 70
     1
102
RTVSPost2010Prop50
 90
       50
102
RTVSPost2010PropOp50
 70
     1
102
RTVSPost2010Prop51ColorIndex
 90
      256
102
RTVSPost2010Prop51ColorRGB
 90
-16777216
102
RTVSPost2010PropOp51
 70
     0
102
RTVSPost2010Prop52
140
1.0
102
RTVSPost2010PropOp52
 70
     0
102
RTVSPost2010Prop53
 90
        2
102
RTVSPost2010PropOp53
 70
     1
102
RTVSPost2010Prop54
  1
strokes_ogs.tif
102
RTVSPost2010PropOp54
 70
     1
102
RTVSPost2010Prop55
280
     0
102
RTVSPost2010PropOp55
 70
     1
102
RTVSPost2010Prop56
140
1.0
102
RTVSPost2010PropOp56
 70
     1
102
RTVSPost2010Prop57
140
1.0
102
RTVSPost2010PropOp57
 70
     1
102
RTVSPropertyOp0
 70
     1
102
RTVSPropertyOp1
 70
     1
102
RTVSPropertyOp2
 70
     1
102
RTVSPropertyOp3
 70
     1
102
RTVSPropertyOp4
 70
     1
102
RTVSPropertyOp5
 70
     1
102
RTVSPropertyOp6
 70
     1
102
RTVSPropertyOp7
 70
     1
102
RTVSPropertyOp8
 70
     1
102
RTVSPropertyOp9
 70
     1
102
RTVSPropertyOp10
 70
     1
102
RTVSPropertyOp11
 70
     1
102
RTVSPropertyOp12
 70
     1
102
RTVSPropertyOp13
 70
     1
102
RTVSPropertyOp14
 70
     1
102
RTVSPropertyOp15
 70
     1
102
RTVSPropertyOp16
 70
     1
102
RTVSPropertyOp17
 70
     1
102
RTVSPropertyOp18
 70
     1
102
RTVSPropertyOp19
 70
     1
102
RTVSPropertyOp20
 70
     1
102
RTVSPropertyOp21
 70
     1
102
RTVSPropertyOp22
 70
     1
102
RTVSPropertyOp23
 70
     1
102
RTVSPropertyOp24
 70
     1
102
RTVSPropertyOp25
 70
     1
102
RTVSPropertyOp26
 70
     1
102
RTVSPropertyOp27
 70
     1
102
RTVSPropertyOp28
 70
     1
102
RTVSPropertyOp29
 70
     1
102
RTVSPropertyOp30
 70
     1
102
RTVSPropertyOp31
 70
     1
102
RTVSPropertyOp32
 70
     1
102
RTVSPropertyOp33
 70
     1
102
RTVSPropertyOp34
 70
     1
102
RTVSPropertyOp35
 70
     1
102
RTVSPropertyOp36
 70
     1
102
RTVSPropertyOp37
 70
     1
102
RTVSPropertyOp38
 70
     1
102
RTVSPropertyOp39
 70
     1
102
RTVSPropertyOp40
 70
     1
102
RTVSPropertyOp41
 70
     1
102
RTVSPropertyOp42
 70
     1
102
RTVSPropertyOp43
 70
     1
102
RTVSPropertyOp44
 70
     1
102
RTVSPropertyOp45
 70
     1
102
RTVSPropertyOp46
 70
     1
102
RTVSPropertyOp47
 70
     1
102
RTVSPropertyOp48
 70
     1
102
RTVSPropertyOp49
 70
     1
102
RTVSPropertyOp50
 70
     1
102
RTVSPropertyOp51
 70
     0
102
RTVSPropertyOp52
 70
     0
102
RTVSPropertyOp53
 70
     1
102
RTVSPropertyOp54
 70
     1
102
RTVSPropertyOp55
 70
     1
102
RTVSPropertyOp56
 70
     1
102
RTVSPropertyOp57
 70
     1
102
RTVSPropertyOp58
 70
     1
102
RTVSPropertyOp59
 70
     1
102
RTVSPropertyOp60
 70
     1
102
RTVSPropertyOp61
 70
     1
102
RTVSPropertyOp62
 70
     1
  0
XRECORD
  5
1BE4
102
{ACAD_REACTORS
330
1BE3
102
}
330
1BE3
100
AcDbXrecord
280
     1
102
RTVSPost2010Prop28
280
     0
102
RTVSPost2010PropOp28
 70
     1
102
RTVSPost2010Prop29
280
     1
102
RTVSPost2010PropOp29
 70
     1
102
RTVSPost2010Prop30
280
     1
102
RTVSPost2010PropOp30
 70
     1
102
RTVSPost2010Prop31
280
     0
102
RTVSPost2010PropOp31
 70
     1
102
RTVSPost2010Prop32
280
     0
102
RTVSPost2010PropOp32
 70
     1
102
RTVSPost2010Prop33
280
     0
102
RTVSPost2010PropOp33
 70
     1
102
RTVSPost2010Prop34
280
     0
102
RTVSPost2010PropOp34
 70
     1
102
RTVSPost2010Prop35
280
     0
102
RTVSPost2010PropOp35
 70
     1
102
RTVSPost2010Prop36
280
     0
102
RTVSPost2010PropOp36
 70
     1
102
RTVSPost2010Prop37
 90
       50
102
RTVSPost2010PropOp37
 70
     1
102
RTVSPost2010Prop38
140
0.0
102
RTVSPost2010PropOp38
 70
     1
102
RTVSPost2010Prop39
140
1.0
102
RTVSPost2010PropOp39
 70
     1
102
RTVSPost2010Prop40
 90
        0
102
RTVSPost2010PropOp40
 70
     1
102
RTVSPost2010Prop41ColorIndex
 90
       18
102
RTVSPost2010Prop41ColorRGB
 90
        0
102
RTVSPost2010PropOp41
 70
     1
102
RTVSPost2010Prop42
 90
       50
102
RTVSPost2010PropOp42
 70
     1
102
RTVSPost2010Prop43
 90
        3
102
RTVSPost2010PropOp43
 70
     1
102
RTVSPost2010Prop44ColorIndex
 90
        5
102
RTVSPost2010Prop44ColorRGB
 90
      255
102
RTVSPost2010PropOp44
 70
     1
102
RTVSPost2010Prop45
280
     0
102
RTVSPost2010PropOp45
 70
     1
102
RTVSPost2010Prop46
 90
       50
102
RTVSPost2010PropOp46
 70
     1
102
RTVSPost2010Prop47
 90
       50
102
RTVSPost2010PropOp47
 70
     1
102
RTVSPost2010Prop48
 90
       50
102
RTVSPost2010PropOp48
 70
     1
102
RTVSPost2010Prop49
280
     0
102
RTVSPost2010PropOp49
 70
     1
102
RTVSPost2010Prop50
 90
       50
102
RTVSPost2010PropOp50
 70
     1
102
RTVSPost2010Prop51ColorIndex
 90
      256
102
RTVSPost2010Prop51ColorRGB
 90
-16777216
102
RTVSPost2010PropOp51
 70
     0
102
RTVSPost2010Prop52
140
1.0
102
RTVSPost2010PropOp52
 70
     0
102
RTVSPost2010Prop53
 90
        2
102
RTVSPost2010PropOp53
 70
     1
102
RTVSPost2010Prop54
  1
strokes_ogs.tif
102
RTVSPost2010PropOp54
 70
     1
102
RTVSPost2010Prop55
280
     0
102
RTVSPost2010PropOp55
 70
     1
102
RTVSPost2010Prop56
140
1.0
102
RTVSPost2010PropOp56
 70
     1
102
RTVSPost2010Prop57
140
1.0
102
RTVSPost2010PropOp57
 70
     1
102
RTVSPropertyOp0
 70
     1
102
RTVSPropertyOp1
 70
     1
102
RTVSPropertyOp2
 70
     1
102
RTVSPropertyOp3
 70
     1
102
RTVSPropertyOp4
 70
     1
102
RTVSPropertyOp5
 70
     1
102
RTVSPropertyOp6
 70
     1
102
RTVSPropertyOp7
 70
     1
102
RTVSPropertyOp8
 70
     1
102
RTVSPropertyOp9
 70
     1
102
RTVSPropertyOp10
 70
     1
102
RTVSPropertyOp11
 70
     1
102
RTVSPropertyOp12
 70
     1
102
RTVSPropertyOp13
 70
     1
102
RTVSPropertyOp14
 70
     1
102
RTVSPropertyOp15
 70
     1
102
RTVSPropertyOp16
 70
     1
102
RTVSPropertyOp17
 70
     1
102
RTVSPropertyOp18
 70
     1
102
RTVSPropertyOp19
 70
     1
102
RTVSPropertyOp20
 70
     1
102
RTVSPropertyOp21
 70
     1
102
RTVSPropertyOp22
 70
     1
102
RTVSPropertyOp23
 70
     1
102
RTVSPropertyOp24
 70
     1
102
RTVSPropertyOp25
 70
     1
102
RTVSPropertyOp26
 70
     1
102
RTVSPropertyOp27
 70
     1
102
RTVSPropertyOp28
 70
     1
102
RTVSPropertyOp29
 70
     1
102
RTVSPropertyOp30
 70
     1
102
RTVSPropertyOp31
 70
     1
102
RTVSPropertyOp32
 70
     1
102
RTVSPropertyOp33
 70
     1
102
RTVSPropertyOp34
 70
     1
102
RTVSPropertyOp35
 70
     1
102
RTVSPropertyOp36
 70
     1
102
RTVSPropertyOp37
 70
     1
102
RTVSPropertyOp38
 70
     1
102
RTVSPropertyOp39
 70
     1
102
RTVSPropertyOp40
 70
     1
102
RTVSPropertyOp41
 70
     1
102
RTVSPropertyOp42
 70
     1
102
RTVSPropertyOp43
 70
     1
102
RTVSPropertyOp44
 70
     1
102
RTVSPropertyOp45
 70
     1
102
RTVSPropertyOp46
 70
     1
102
RTVSPropertyOp47
 70
     1
102
RTVSPropertyOp48
 70
     1
102
RTVSPropertyOp49
 70
     1
102
RTVSPropertyOp50
 70
     1
102
RTVSPropertyOp51
 70
     0
102
RTVSPropertyOp52
 70
     0
102
RTVSPropertyOp53
 70
     1
102
RTVSPropertyOp54
 70
     1
102
RTVSPropertyOp55
 70
     1
102
RTVSPropertyOp56
 70
     1
102
RTVSPropertyOp57
 70
     1
102
RTVSPropertyOp58
 70
     1
102
RTVSPropertyOp59
 70
     1
102
RTVSPropertyOp60
 70
     1
102
RTVSPropertyOp61
 70
     1
102
RTVSPropertyOp62
 70
     1
  0
XRECORD
  5
1BDE
102
{ACAD_REACTORS
330
1BDD
102
}
330
1BDD
100
AcDbXrecord
280
     1
102
RTVSPost2010Prop28
280
     0
102
RTVSPost2010PropOp28
 70
     1
102
RTVSPost2010Prop29
280
     1
102
RTVSPost2010PropOp29
 70
     1
102
RTVSPost2010Prop30
280
     1
102
RTVSPost2010PropOp30
 70
     1
102
RTVSPost2010Prop31
280
     0
102
RTVSPost2010PropOp31
 70
     1
102
RTVSPost2010Prop32
280
     0
102
RTVSPost2010PropOp32
 70
     1
102
RTVSPost2010Prop33
280
     0
102
RTVSPost2010PropOp33
 70
     1
102
RTVSPost2010Prop34
280
     0
102
RTVSPost2010PropOp34
 70
     1
102
RTVSPost2010Prop35
280
     0
102
RTVSPost2010PropOp35
 70
     1
102
RTVSPost2010Prop36
280
     0
102
RTVSPost2010PropOp36
 70
     1
102
RTVSPost2010Prop37
 90
       50
102
RTVSPost2010PropOp37
 70
     1
102
RTVSPost2010Prop38
140
0.0
102
RTVSPost2010PropOp38
 70
     1
102
RTVSPost2010Prop39
140
1.0
102
RTVSPost2010PropOp39
 70
     1
102
RTVSPost2010Prop40
 90
        0
102
RTVSPost2010PropOp40
 70
     1
102
RTVSPost2010Prop41ColorIndex
 90
       18
102
RTVSPost2010Prop41ColorRGB
 90
        0
102
RTVSPost2010PropOp41
 70
     1
102
RTVSPost2010Prop42
 90
       50
102
RTVSPost2010PropOp42
 70
     1
102
RTVSPost2010Prop43
 90
        3
102
RTVSPost2010PropOp43
 70
     1
102
RTVSPost2010Prop44ColorIndex
 90
        5
102
RTVSPost2010Prop44ColorRGB
 90
      255
102
RTVSPost2010PropOp44
 70
     1
102
RTVSPost2010Prop45
280
     0
102
RTVSPost2010PropOp45
 70
     1
102
RTVSPost2010Prop46
 90
       50
102
RTVSPost2010PropOp46
 70
     1
102
RTVSPost2010Prop47
 90
       50
102
RTVSPost2010PropOp47
 70
     1
102
RTVSPost2010Prop48
 90
       50
102
RTVSPost2010PropOp48
 70
     1
102
RTVSPost2010Prop49
280
     0
102
RTVSPost2010PropOp49
 70
     1
102
RTVSPost2010Prop50
 90
       50
102
RTVSPost2010PropOp50
 70
     1
102
RTVSPost2010Prop51ColorIndex
 90
      256
102
RTVSPost2010Prop51ColorRGB
 90
-16777216
102
RTVSPost2010PropOp51
 70
     0
102
RTVSPost2010Prop52
140
1.0
102
RTVSPost2010PropOp52
 70
     0
102
RTVSPost2010Prop53
 90
        2
102
RTVSPost2010PropOp53
 70
     1
102
RTVSPost2010Prop54
  1
strokes_ogs.tif
102
RTVSPost2010PropOp54
 70
     1
102
RTVSPost2010Prop55
280
     0
102
RTVSPost2010PropOp55
 70
     1
102
RTVSPost2010Prop56
140
1.0
102
RTVSPost2010PropOp56
 70
     1
102
RTVSPost2010Prop57
140
1.0
102
RTVSPost2010PropOp57
 70
     1
102
RTVSPropertyOp0
 70
     1
102
RTVSPropertyOp1
 70
     1
102
RTVSPropertyOp2
 70
     1
102
RTVSPropertyOp3
 70
     1
102
RTVSPropertyOp4
 70
     1
102
RTVSPropertyOp5
 70
     1
102
RTVSPropertyOp6
 70
     1
102
RTVSPropertyOp7
 70
     1
102
RTVSPropertyOp8
 70
     1
102
RTVSPropertyOp9
 70
     1
102
RTVSPropertyOp10
 70
     1
102
RTVSPropertyOp11
 70
     1
102
RTVSPropertyOp12
 70
     1
102
RTVSPropertyOp13
 70
     1
102
RTVSPropertyOp14
 70
     1
102
RTVSPropertyOp15
 70
     1
102
RTVSPropertyOp16
 70
     1
102
RTVSPropertyOp17
 70
     1
102
RTVSPropertyOp18
 70
     1
102
RTVSPropertyOp19
 70
     1
102
RTVSPropertyOp20
 70
     1
102
RTVSPropertyOp21
 70
     1
102
RTVSPropertyOp22
 70
     1
102
RTVSPropertyOp23
 70
     1
102
RTVSPropertyOp24
 70
     1
102
RTVSPropertyOp25
 70
     1
102
RTVSPropertyOp26
 70
     1
102
RTVSPropertyOp27
 70
     1
102
RTVSPropertyOp28
 70
     1
102
RTVSPropertyOp29
 70
     1
102
RTVSPropertyOp30
 70
     1
102
RTVSPropertyOp31
 70
     1
102
RTVSPropertyOp32
 70
     1
102
RTVSPropertyOp33
 70
     1
102
RTVSPropertyOp34
 70
     1
102
RTVSPropertyOp35
 70
     1
102
RTVSPropertyOp36
 70
     1
102
RTVSPropertyOp37
 70
     1
102
RTVSPropertyOp38
 70
     1
102
RTVSPropertyOp39
 70
     1
102
RTVSPropertyOp40
 70
     1
102
RTVSPropertyOp41
 70
     1
102
RTVSPropertyOp42
 70
     1
102
RTVSPropertyOp43
 70
     1
102
RTVSPropertyOp44
 70
     1
102
RTVSPropertyOp45
 70
     1
102
RTVSPropertyOp46
 70
     1
102
RTVSPropertyOp47
 70
     1
102
RTVSPropertyOp48
 70
     1
102
RTVSPropertyOp49
 70
     1
102
RTVSPropertyOp50
 70
     1
102
RTVSPropertyOp51
 70
     0
102
RTVSPropertyOp52
 70
     0
102
RTVSPropertyOp53
 70
     1
102
RTVSPropertyOp54
 70
     1
102
RTVSPropertyOp55
 70
     1
102
RTVSPropertyOp56
 70
     1
102
RTVSPropertyOp57
 70
     1
102
RTVSPropertyOp58
 70
     1
102
RTVSPropertyOp59
 70
     1
102
RTVSPropertyOp60
 70
     1
102
RTVSPropertyOp61
 70
     1
102
RTVSPropertyOp62
 70
     1
  0
XRECORD
  5
1BE0
102
{ACAD_REACTORS
330
1BDF
102
}
330
1BDF
100
AcDbXrecord
280
     1
102
RTVSPost2010Prop28
280
     0
102
RTVSPost2010PropOp28
 70
     1
102
RTVSPost2010Prop29
280
     1
102
RTVSPost2010PropOp29
 70
     1
102
RTVSPost2010Prop30
280
     1
102
RTVSPost2010PropOp30
 70
     1
102
RTVSPost2010Prop31
280
     0
102
RTVSPost2010PropOp31
 70
     1
102
RTVSPost2010Prop32
280
     0
102
RTVSPost2010PropOp32
 70
     1
102
RTVSPost2010Prop33
280
     0
102
RTVSPost2010PropOp33
 70
     1
102
RTVSPost2010Prop34
280
     0
102
RTVSPost2010PropOp34
 70
     1
102
RTVSPost2010Prop35
280
     0
102
RTVSPost2010PropOp35
 70
     1
102
RTVSPost2010Prop36
280
     0
102
RTVSPost2010PropOp36
 70
     1
102
RTVSPost2010Prop37
 90
       50
102
RTVSPost2010PropOp37
 70
     1
102
RTVSPost2010Prop38
140
0.0
102
RTVSPost2010PropOp38
 70
     1
102
RTVSPost2010Prop39
140
1.0
102
RTVSPost2010PropOp39
 70
     1
102
RTVSPost2010Prop40
 90
        0
102
RTVSPost2010PropOp40
 70
     1
102
RTVSPost2010Prop41ColorIndex
 90
       18
102
RTVSPost2010Prop41ColorRGB
 90
        0
102
RTVSPost2010PropOp41
 70
     1
102
RTVSPost2010Prop42
 90
       50
102
RTVSPost2010PropOp42
 70
     1
102
RTVSPost2010Prop43
 90
        3
102
RTVSPost2010PropOp43
 70
     1
102
RTVSPost2010Prop44ColorIndex
 90
        5
102
RTVSPost2010Prop44ColorRGB
 90
      255
102
RTVSPost2010PropOp44
 70
     1
102
RTVSPost2010Prop45
280
     0
102
RTVSPost2010PropOp45
 70
     1
102
RTVSPost2010Prop46
 90
       50
102
RTVSPost2010PropOp46
 70
     1
102
RTVSPost2010Prop47
 90
       50
102
RTVSPost2010PropOp47
 70
     1
102
RTVSPost2010Prop48
 90
       50
102
RTVSPost2010PropOp48
 70
     1
102
RTVSPost2010Prop49
280
     0
102
RTVSPost2010PropOp49
 70
     1
102
RTVSPost2010Prop50
 90
       50
102
RTVSPost2010PropOp50
 70
     1
102
RTVSPost2010Prop51ColorIndex
 90
      256
102
RTVSPost2010Prop51ColorRGB
 90
-16777216
102
RTVSPost2010PropOp51
 70
     0
102
RTVSPost2010Prop52
140
1.0
102
RTVSPost2010PropOp52
 70
     0
102
RTVSPost2010Prop53
 90
        2
102
RTVSPost2010PropOp53
 70
     1
102
RTVSPost2010Prop54
  1
strokes_ogs.tif
102
RTVSPost2010PropOp54
 70
     1
102
RTVSPost2010Prop55
280
     0
102
RTVSPost2010PropOp55
 70
     1
102
RTVSPost2010Prop56
140
1.0
102
RTVSPost2010PropOp56
 70
     1
102
RTVSPost2010Prop57
140
1.0
102
RTVSPost2010PropOp57
 70
     1
102
RTVSPropertyOp0
 70
     1
102
RTVSPropertyOp1
 70
     1
102
RTVSPropertyOp2
 70
     1
102
RTVSPropertyOp3
 70
     1
102
RTVSPropertyOp4
 70
     1
102
RTVSPropertyOp5
 70
     1
102
RTVSPropertyOp6
 70
     1
102
RTVSPropertyOp7
 70
     1
102
RTVSPropertyOp8
 70
     1
102
RTVSPropertyOp9
 70
     1
102
RTVSPropertyOp10
 70
     1
102
RTVSPropertyOp11
 70
     1
102
RTVSPropertyOp12
 70
     1
102
RTVSPropertyOp13
 70
     1
102
RTVSPropertyOp14
 70
     1
102
RTVSPropertyOp15
 70
     1
102
RTVSPropertyOp16
 70
     1
102
RTVSPropertyOp17
 70
     1
102
RTVSPropertyOp18
 70
     1
102
RTVSPropertyOp19
 70
     1
102
RTVSPropertyOp20
 70
     1
102
RTVSPropertyOp21
 70
     1
102
RTVSPropertyOp22
 70
     1
102
RTVSPropertyOp23
 70
     1
102
RTVSPropertyOp24
 70
     1
102
RTVSPropertyOp25
 70
     1
102
RTVSPropertyOp26
 70
     1
102
RTVSPropertyOp27
 70
     1
102
RTVSPropertyOp28
 70
     1
102
RTVSPropertyOp29
 70
     1
102
RTVSPropertyOp30
 70
     1
102
RTVSPropertyOp31
 70
     1
102
RTVSPropertyOp32
 70
     1
102
RTVSPropertyOp33
 70
     1
102
RTVSPropertyOp34
 70
     1
102
RTVSPropertyOp35
 70
     1
102
RTVSPropertyOp36
 70
     1
102
RTVSPropertyOp37
 70
     1
102
RTVSPropertyOp38
 70
     1
102
RTVSPropertyOp39
 70
     1
102
RTVSPropertyOp40
 70
     1
102
RTVSPropertyOp41
 70
     1
102
RTVSPropertyOp42
 70
     1
102
RTVSPropertyOp43
 70
     1
102
RTVSPropertyOp44
 70
     1
102
RTVSPropertyOp45
 70
     1
102
RTVSPropertyOp46
 70
     1
102
RTVSPropertyOp47
 70
     1
102
RTVSPropertyOp48
 70
     1
102
RTVSPropertyOp49
 70
     1
102
RTVSPropertyOp50
 70
     1
102
RTVSPropertyOp51
 70
     0
102
RTVSPropertyOp52
 70
     0
102
RTVSPropertyOp53
 70
     1
102
RTVSPropertyOp54
 70
     1
102
RTVSPropertyOp55
 70
     1
102
RTVSPropertyOp56
 70
     1
102
RTVSPropertyOp57
 70
     1
102
RTVSPropertyOp58
 70
     1
102
RTVSPropertyOp59
 70
     1
102
RTVSPropertyOp60
 70
     1
102
RTVSPropertyOp61
 70
     1
102
RTVSPropertyOp62
 70
     1
  0
XRECORD
  5
1BD6
102
{ACAD_REACTORS
330
1BD5
102
}
330
1BD5
100
AcDbXrecord
280
     1
102
RTVSPost2010Prop28
280
     0
102
RTVSPost2010PropOp28
 70
     1
102
RTVSPost2010Prop29
280
     1
102
RTVSPost2010PropOp29
 70
     1
102
RTVSPost2010Prop30
280
     1
102
RTVSPost2010PropOp30
 70
     1
102
RTVSPost2010Prop31
280
     0
102
RTVSPost2010PropOp31
 70
     1
102
RTVSPost2010Prop32
280
     0
102
RTVSPost2010PropOp32
 70
     1
102
RTVSPost2010Prop33
280
     0
102
RTVSPost2010PropOp33
 70
     1
102
RTVSPost2010Prop34
280
     0
102
RTVSPost2010PropOp34
 70
     1
102
RTVSPost2010Prop35
280
     0
102
RTVSPost2010PropOp35
 70
     1
102
RTVSPost2010Prop36
280
     0
102
RTVSPost2010PropOp36
 70
     1
102
RTVSPost2010Prop37
 90
       50
102
RTVSPost2010PropOp37
 70
     1
102
RTVSPost2010Prop38
140
0.0
102
RTVSPost2010PropOp38
 70
     1
102
RTVSPost2010Prop39
140
1.0
102
RTVSPost2010PropOp39
 70
     1
102
RTVSPost2010Prop40
 90
        0
102
RTVSPost2010PropOp40
 70
     1
102
RTVSPost2010Prop41ColorIndex
 90
       18
102
RTVSPost2010Prop41ColorRGB
 90
        0
102
RTVSPost2010PropOp41
 70
     1
102
RTVSPost2010Prop42
 90
       50
102
RTVSPost2010PropOp42
 70
     1
102
RTVSPost2010Prop43
 90
        3
102
RTVSPost2010PropOp43
 70
     1
102
RTVSPost2010Prop44ColorIndex
 90
        5
102
RTVSPost2010Prop44ColorRGB
 90
      255
102
RTVSPost2010PropOp44
 70
     1
102
RTVSPost2010Prop45
280
     0
102
RTVSPost2010PropOp45
 70
     1
102
RTVSPost2010Prop46
 90
       50
102
RTVSPost2010PropOp46
 70
     1
102
RTVSPost2010Prop47
 90
       50
102
RTVSPost2010PropOp47
 70
     1
102
RTVSPost2010Prop48
 90
       50
102
RTVSPost2010PropOp48
 70
     1
102
RTVSPost2010Prop49
280
     0
102
RTVSPost2010PropOp49
 70
     1
102
RTVSPost2010Prop50
 90
       50
102
RTVSPost2010PropOp50
 70
     1
102
RTVSPost2010Prop51ColorIndex
 90
      256
102
RTVSPost2010Prop51ColorRGB
 90
-16777216
102
RTVSPost2010PropOp51
 70
     0
102
RTVSPost2010Prop52
140
1.0
102
RTVSPost2010PropOp52
 70
     0
102
RTVSPost2010Prop53
 90
        2
102
RTVSPost2010PropOp53
 70
     1
102
RTVSPost2010Prop54
  1
strokes_ogs.tif
102
RTVSPost2010PropOp54
 70
     1
102
RTVSPost2010Prop55
280
     0
102
RTVSPost2010PropOp55
 70
     1
102
RTVSPost2010Prop56
140
1.0
102
RTVSPost2010PropOp56
 70
     1
102
RTVSPost2010Prop57
140
1.0
102
RTVSPost2010PropOp57
 70
     1
102
RTVSPropertyOp0
 70
     1
102
RTVSPropertyOp1
 70
     1
102
RTVSPropertyOp2
 70
     1
102
RTVSPropertyOp3
 70
     1
102
RTVSPropertyOp4
 70
     1
102
RTVSPropertyOp5
 70
     1
102
RTVSPropertyOp6
 70
     1
102
RTVSPropertyOp7
 70
     1
102
RTVSPropertyOp8
 70
     1
102
RTVSPropertyOp9
 70
     1
102
RTVSPropertyOp10
 70
     1
102
RTVSPropertyOp11
 70
     1
102
RTVSPropertyOp12
 70
     1
102
RTVSPropertyOp13
 70
     1
102
RTVSPropertyOp14
 70
     1
102
RTVSPropertyOp15
 70
     1
102
RTVSPropertyOp16
 70
     1
102
RTVSPropertyOp17
 70
     1
102
RTVSPropertyOp18
 70
     1
102
RTVSPropertyOp19
 70
     1
102
RTVSPropertyOp20
 70
     1
102
RTVSPropertyOp21
 70
     1
102
RTVSPropertyOp22
 70
     1
102
RTVSPropertyOp23
 70
     1
102
RTVSPropertyOp24
 70
     1
102
RTVSPropertyOp25
 70
     1
102
RTVSPropertyOp26
 70
     1
102
RTVSPropertyOp27
 70
     1
102
RTVSPropertyOp28
 70
     1
102
RTVSPropertyOp29
 70
     1
102
RTVSPropertyOp30
 70
     1
102
RTVSPropertyOp31
 70
     1
102
RTVSPropertyOp32
 70
     1
102
RTVSPropertyOp33
 70
     1
102
RTVSPropertyOp34
 70
     1
102
RTVSPropertyOp35
 70
     1
102
RTVSPropertyOp36
 70
     1
102
RTVSPropertyOp37
 70
     1
102
RTVSPropertyOp38
 70
     1
102
RTVSPropertyOp39
 70
     1
102
RTVSPropertyOp40
 70
     1
102
RTVSPropertyOp41
 70
     1
102
RTVSPropertyOp42
 70
     1
102
RTVSPropertyOp43
 70
     1
102
RTVSPropertyOp44
 70
     1
102
RTVSPropertyOp45
 70
     1
102
RTVSPropertyOp46
 70
     1
102
RTVSPropertyOp47
 70
     1
102
RTVSPropertyOp48
 70
     1
102
RTVSPropertyOp49
 70
     1
102
RTVSPropertyOp50
 70
     1
102
RTVSPropertyOp51
 70
     0
102
RTVSPropertyOp52
 70
     0
102
RTVSPropertyOp53
 70
     1
102
RTVSPropertyOp54
 70
     1
102
RTVSPropertyOp55
 70
     1
102
RTVSPropertyOp56
 70
     1
102
RTVSPropertyOp57
 70
     1
102
RTVSPropertyOp58
 70
     1
102
RTVSPropertyOp59
 70
     1
102
RTVSPropertyOp60
 70
     1
102
RTVSPropertyOp61
 70
     1
102
RTVSPropertyOp62
 70
     1
  0
XRECORD
  5
1BCA
102
{ACAD_REACTORS
330
1BC9
102
}
330
1BC9
100
AcDbXrecord
280
     1
102
RTVSPost2010Prop28
280
     0
102
RTVSPost2010PropOp28
 70
     1
102
RTVSPost2010Prop29
280
     1
102
RTVSPost2010PropOp29
 70
     1
102
RTVSPost2010Prop30
280
     1
102
RTVSPost2010PropOp30
 70
     1
102
RTVSPost2010Prop31
280
     0
102
RTVSPost2010PropOp31
 70
     1
102
RTVSPost2010Prop32
280
     0
102
RTVSPost2010PropOp32
 70
     1
102
RTVSPost2010Prop33
280
     0
102
RTVSPost2010PropOp33
 70
     1
102
RTVSPost2010Prop34
280
     0
102
RTVSPost2010PropOp34
 70
     1
102
RTVSPost2010Prop35
280
     0
102
RTVSPost2010PropOp35
 70
     1
102
RTVSPost2010Prop36
280
     0
102
RTVSPost2010PropOp36
 70
     1
102
RTVSPost2010Prop37
 90
       50
102
RTVSPost2010PropOp37
 70
     1
102
RTVSPost2010Prop38
140
0.0
102
RTVSPost2010PropOp38
 70
     1
102
RTVSPost2010Prop39
140
1.0
102
RTVSPost2010PropOp39
 70
     1
102
RTVSPost2010Prop40
 90
        0
102
RTVSPost2010PropOp40
 70
     1
102
RTVSPost2010Prop41ColorIndex
 90
       18
102
RTVSPost2010Prop41ColorRGB
 90
        0
102
RTVSPost2010PropOp41
 70
     1
102
RTVSPost2010Prop42
 90
       50
102
RTVSPost2010PropOp42
 70
     1
102
RTVSPost2010Prop43
 90
        3
102
RTVSPost2010PropOp43
 70
     1
102
RTVSPost2010Prop44ColorIndex
 90
        5
102
RTVSPost2010Prop44ColorRGB
 90
      255
102
RTVSPost2010PropOp44
 70
     1
102
RTVSPost2010Prop45
280
     0
102
RTVSPost2010PropOp45
 70
     1
102
RTVSPost2010Prop46
 90
       50
102
RTVSPost2010PropOp46
 70
     1
102
RTVSPost2010Prop47
 90
       50
102
RTVSPost2010PropOp47
 70
     1
102
RTVSPost2010Prop48
 90
       50
102
RTVSPost2010PropOp48
 70
     1
102
RTVSPost2010Prop49
280
     0
102
RTVSPost2010PropOp49
 70
     1
102
RTVSPost2010Prop50
 90
       50
102
RTVSPost2010PropOp50
 70
     1
102
RTVSPost2010Prop51ColorIndex
 90
      256
102
RTVSPost2010Prop51ColorRGB
 90
-16777216
102
RTVSPost2010PropOp51
 70
     0
102
RTVSPost2010Prop52
140
1.0
102
RTVSPost2010PropOp52
 70
     0
102
RTVSPost2010Prop53
 90
        2
102
RTVSPost2010PropOp53
 70
     1
102
RTVSPost2010Prop54
  1
strokes_ogs.tif
102
RTVSPost2010PropOp54
 70
     1
102
RTVSPost2010Prop55
280
     0
102
RTVSPost2010PropOp55
 70
     1
102
RTVSPost2010Prop56
140
1.0
102
RTVSPost2010PropOp56
 70
     1
102
RTVSPost2010Prop57
140
1.0
102
RTVSPost2010PropOp57
 70
     1
102
RTVSPropertyOp0
 70
     1
102
RTVSPropertyOp1
 70
     1
102
RTVSPropertyOp2
 70
     1
102
RTVSPropertyOp3
 70
     1
102
RTVSPropertyOp4
 70
     1
102
RTVSPropertyOp5
 70
     1
102
RTVSPropertyOp6
 70
     1
102
RTVSPropertyOp7
 70
     1
102
RTVSPropertyOp8
 70
     1
102
RTVSPropertyOp9
 70
     1
102
RTVSPropertyOp10
 70
     1
102
RTVSPropertyOp11
 70
     1
102
RTVSPropertyOp12
 70
     1
102
RTVSPropertyOp13
 70
     1
102
RTVSPropertyOp14
 70
     1
102
RTVSPropertyOp15
 70
     1
102
RTVSPropertyOp16
 70
     1
102
RTVSPropertyOp17
 70
     1
102
RTVSPropertyOp18
 70
     1
102
RTVSPropertyOp19
 70
     1
102
RTVSPropertyOp20
 70
     1
102
RTVSPropertyOp21
 70
     1
102
RTVSPropertyOp22
 70
     1
102
RTVSPropertyOp23
 70
     1
102
RTVSPropertyOp24
 70
     1
102
RTVSPropertyOp25
 70
     1
102
RTVSPropertyOp26
 70
     1
102
RTVSPropertyOp27
 70
     1
102
RTVSPropertyOp28
 70
     1
102
RTVSPropertyOp29
 70
     1
102
RTVSPropertyOp30
 70
     1
102
RTVSPropertyOp31
 70
     1
102
RTVSPropertyOp32
 70
     1
102
RTVSPropertyOp33
 70
     1
102
RTVSPropertyOp34
 70
     1
102
RTVSPropertyOp35
 70
     1
102
RTVSPropertyOp36
 70
     1
102
RTVSPropertyOp37
 70
     1
102
RTVSPropertyOp38
 70
     1
102
RTVSPropertyOp39
 70
     1
102
RTVSPropertyOp40
 70
     1
102
RTVSPropertyOp41
 70
     1
102
RTVSPropertyOp42
 70
     1
102
RTVSPropertyOp43
 70
     1
102
RTVSPropertyOp44
 70
     1
102
RTVSPropertyOp45
 70
     1
102
RTVSPropertyOp46
 70
     1
102
RTVSPropertyOp47
 70
     1
102
RTVSPropertyOp48
 70
     1
102
RTVSPropertyOp49
 70
     1
102
RTVSPropertyOp50
 70
     1
102
RTVSPropertyOp51
 70
     0
102
RTVSPropertyOp52
 70
     0
102
RTVSPropertyOp53
 70
     1
102
RTVSPropertyOp54
 70
     1
102
RTVSPropertyOp55
 70
     1
102
RTVSPropertyOp56
 70
     1
102
RTVSPropertyOp57
 70
     1
102
RTVSPropertyOp58
 70
     1
102
RTVSPropertyOp59
 70
     1
102
RTVSPropertyOp60
 70
     1
102
RTVSPropertyOp61
 70
     1
102
RTVSPropertyOp62
 70
     1
  0
XRECORD
  5
1BE2
102
{ACAD_REACTORS
330
1BE1
102
}
330
1BE1
100
AcDbXrecord
280
     1
102
RTVSPost2010Prop28
280
     0
102
RTVSPost2010PropOp28
 70
     1
102
RTVSPost2010Prop29
280
     1
102
RTVSPost2010PropOp29
 70
     1
102
RTVSPost2010Prop30
280
     1
102
RTVSPost2010PropOp30
 70
     1
102
RTVSPost2010Prop31
280
     0
102
RTVSPost2010PropOp31
 70
     1
102
RTVSPost2010Prop32
280
     0
102
RTVSPost2010PropOp32
 70
     1
102
RTVSPost2010Prop33
280
     0
102
RTVSPost2010PropOp33
 70
     1
102
RTVSPost2010Prop34
280
     0
102
RTVSPost2010PropOp34
 70
     1
102
RTVSPost2010Prop35
280
     0
102
RTVSPost2010PropOp35
 70
     1
102
RTVSPost2010Prop36
280
     0
102
RTVSPost2010PropOp36
 70
     1
102
RTVSPost2010Prop37
 90
       50
102
RTVSPost2010PropOp37
 70
     1
102
RTVSPost2010Prop38
140
0.0
102
RTVSPost2010PropOp38
 70
     1
102
RTVSPost2010Prop39
140
1.0
102
RTVSPost2010PropOp39
 70
     1
102
RTVSPost2010Prop40
 90
        0
102
RTVSPost2010PropOp40
 70
     1
102
RTVSPost2010Prop41ColorIndex
 90
       18
102
RTVSPost2010Prop41ColorRGB
 90
        0
102
RTVSPost2010PropOp41
 70
     1
102
RTVSPost2010Prop42
 90
       50
102
RTVSPost2010PropOp42
 70
     1
102
RTVSPost2010Prop43
 90
        3
102
RTVSPost2010PropOp43
 70
     1
102
RTVSPost2010Prop44ColorIndex
 90
        5
102
RTVSPost2010Prop44ColorRGB
 90
      255
102
RTVSPost2010PropOp44
 70
     1
102
RTVSPost2010Prop45
280
     0
102
RTVSPost2010PropOp45
 70
     1
102
RTVSPost2010Prop46
 90
       50
102
RTVSPost2010PropOp46
 70
     1
102
RTVSPost2010Prop47
 90
       50
102
RTVSPost2010PropOp47
 70
     1
102
RTVSPost2010Prop48
 90
       50
102
RTVSPost2010PropOp48
 70
     1
102
RTVSPost2010Prop49
280
     0
102
RTVSPost2010PropOp49
 70
     1
102
RTVSPost2010Prop50
 90
       50
102
RTVSPost2010PropOp50
 70
     1
102
RTVSPost2010Prop51ColorIndex
 90
      256
102
RTVSPost2010Prop51ColorRGB
 90
-16777216
102
RTVSPost2010PropOp51
 70
     0
102
RTVSPost2010Prop52
140
1.0
102
RTVSPost2010PropOp52
 70
     0
102
RTVSPost2010Prop53
 90
        2
102
RTVSPost2010PropOp53
 70
     1
102
RTVSPost2010Prop54
  1
strokes_ogs.tif
102
RTVSPost2010PropOp54
 70
     1
102
RTVSPost2010Prop55
280
     0
102
RTVSPost2010PropOp55
 70
     1
102
RTVSPost2010Prop56
140
1.0
102
RTVSPost2010PropOp56
 70
     1
102
RTVSPost2010Prop57
140
1.0
102
RTVSPost2010PropOp57
 70
     1
102
RTVSPropertyOp0
 70
     1
102
RTVSPropertyOp1
 70
     1
102
RTVSPropertyOp2
 70
     1
102
RTVSPropertyOp3
 70
     1
102
RTVSPropertyOp4
 70
     1
102
RTVSPropertyOp5
 70
     1
102
RTVSPropertyOp6
 70
     1
102
RTVSPropertyOp7
 70
     1
102
RTVSPropertyOp8
 70
     1
102
RTVSPropertyOp9
 70
     1
102
RTVSPropertyOp10
 70
     1
102
RTVSPropertyOp11
 70
     1
102
RTVSPropertyOp12
 70
     1
102
RTVSPropertyOp13
 70
     1
102
RTVSPropertyOp14
 70
     1
102
RTVSPropertyOp15
 70
     1
102
RTVSPropertyOp16
 70
     1
102
RTVSPropertyOp17
 70
     1
102
RTVSPropertyOp18
 70
     1
102
RTVSPropertyOp19
 70
     1
102
RTVSPropertyOp20
 70
     1
102
RTVSPropertyOp21
 70
     1
102
RTVSPropertyOp22
 70
     1
102
RTVSPropertyOp23
 70
     1
102
RTVSPropertyOp24
 70
     1
102
RTVSPropertyOp25
 70
     1
102
RTVSPropertyOp26
 70
     1
102
RTVSPropertyOp27
 70
     1
102
RTVSPropertyOp28
 70
     1
102
RTVSPropertyOp29
 70
     1
102
RTVSPropertyOp30
 70
     1
102
RTVSPropertyOp31
 70
     1
102
RTVSPropertyOp32
 70
     1
102
RTVSPropertyOp33
 70
     1
102
RTVSPropertyOp34
 70
     1
102
RTVSPropertyOp35
 70
     1
102
RTVSPropertyOp36
 70
     1
102
RTVSPropertyOp37
 70
     1
102
RTVSPropertyOp38
 70
     1
102
RTVSPropertyOp39
 70
     1
102
RTVSPropertyOp40
 70
     1
102
RTVSPropertyOp41
 70
     1
102
RTVSPropertyOp42
 70
     1
102
RTVSPropertyOp43
 70
     1
102
RTVSPropertyOp44
 70
     1
102
RTVSPropertyOp45
 70
     1
102
RTVSPropertyOp46
 70
     1
102
RTVSPropertyOp47
 70
     1
102
RTVSPropertyOp48
 70
     1
102
RTVSPropertyOp49
 70
     1
102
RTVSPropertyOp50
 70
     1
102
RTVSPropertyOp51
 70
     0
102
RTVSPropertyOp52
 70
     0
102
RTVSPropertyOp53
 70
     1
102
RTVSPropertyOp54
 70
     1
102
RTVSPropertyOp55
 70
     1
102
RTVSPropertyOp56
 70
     1
102
RTVSPropertyOp57
 70
     1
102
RTVSPropertyOp58
 70
     1
102
RTVSPropertyOp59
 70
     1
102
RTVSPropertyOp60
 70
     1
102
RTVSPropertyOp61
 70
     1
102
RTVSPropertyOp62
 70
     1
  0
ENDSEC
  0
EOF
