  0
SECTION
  2
HEADER
  9
$ACADVER
  1
AC1015
  9
$ACADMAINTVER
 70
    20
  9
$DWGCODEPAGE
  3
ANSI_932
  9
$INSBASE
 10
0.0
 20
0.0
 30
0.0
  9
$EXTMIN
 10
8.83015797056646
 20
9.999999806846743
 30
0.0
  9
$EXTMAX
 10
537.8191416258728
 20
388.7407162403508
 30
0.0
  9
$LIMMIN
 10
0.0000015376081137
 20
-0.0000001931532552
  9
$LIMMAX
 10
595.0000015376081
 20
410.1893937462405
  9
$ORTHOMODE
 70
     0
  9
$REGENMODE
 70
     1
  9
$FILLMODE
 70
     1
  9
$QTEXTMODE
 70
     0
  9
$MIRRTEXT
 70
     1
  9
$LTSCALE
 40
1.0
  9
$ATTMODE
 70
     1
  9
$TEXTSIZE
 40
2.5
  9
$TRACEWID
 40
1.0
  9
$TEXTSTYLE
  7
STANDARD
  9
$CLAYER
  8
0
  9
$CELTYPE
  6
BYLAYER
  9
$CECOLOR
 62
   256
  9
$CELTSCALE
 40
1.0
  9
$DISPSILH
 70
     0
  9
$DIMSCALE
 40
1.0
  9
$DIMASZ
 40
3.0
  9
$DIMEXO
 40
1.0
  9
$DIMDLI
 40
10.0
  9
$DIMRND
 40
0.0
  9
$DIMDLE
 40
0.0
  9
$DIMEXE
 40
1.0
  9
$DIMTP
 40
0.0
  9
$DIMTM
 40
0.0
  9
$DIMTXT
 40
3.2
  9
$DIMCEN
 40
0.0
  9
$DIMTSZ
 40
0.0
  9
$DIMTOL
 70
     0
  9
$DIMLIM
 70
     0
  9
$DIMTIH
 70
     0
  9
$DIMTOH
 70
     0
  9
$DIMSE1
 70
     0
  9
$DIMSE2
 70
     0
  9
$DIMTAD
 70
     3
  9
$DIMZIN
 70
     8
  9
$DIMBLK
  1

  9
$DIMASO
 70
     1
  9
$DIMSHO
 70
     1
  9
$DIMPOST
  1

  9
$DIMAPOST
  1

  9
$DIMALT
 70
     0
  9
$DIMALTD
 70
     2
  9
$DIMALTF
 40
25.4
  9
$DIMLFAC
 40
1.0
  9
$DIMTOFL
 70
     1
  9
$DIMTVP
 40
0.0
  9
$DIMTIX
 70
     0
  9
$DIMSOXD
 70
     0
  9
$DIMSAH
 70
     1
  9
$DIMBLK1
  1
OPEN
  9
$DIMBLK2
  1
OPEN
  9
$DIMSTYLE
  2
STANDARD
  9
$DIMCLRD
 70
     0
  9
$DIMCLRE
 70
     0
  9
$DIMCLRT
 70
     0
  9
$DIMTFAC
 40
1.0
  9
$DIMGAP
 40
1.0
  9
$DIMJUST
 70
     0
  9
$DIMSD1
 70
     0
  9
$DIMSD2
 70
     0
  9
$DIMTOLJ
 70
     1
  9
$DIMTZIN
 70
     0
  9
$DIMALTZ
 70
     0
  9
$DIMALTTZ
 70
     0
  9
$DIMUPT
 70
     0
  9
$DIMDEC
 70
     4
  9
$DIMTDEC
 70
     4
  9
$DIMALTU
 70
     2
  9
$DIMALTTD
 70
     2
  9
$DIMTXSTY
  7
STANDARD
  9
$DIMAUNIT
 70
     0
  9
$DIMADEC
 70
     0
  9
$DIMALTRND
 40
0.0
  9
$DIMAZIN
 70
     0
  9
$DIMDSEP
 70
    46
  9
$DIMATFIT
 70
     3
  9
$DIMFRAC
 70
     0
  9
$DIMLDRBLK
  1
OPEN
  9
$DIMLUNIT
 70
     2
  9
$DIMLWD
 70
    -2
  9
$DIMLWE
 70
    -2
  9
$DIMTMOVE
 70
     0
  9
$LUNITS
 70
     2
  9
$LUPREC
 70
     4
  9
$SKETCHINC
 40
1.0
  9
$FILLETRAD
 40
0.0
  9
$AUNITS
 70
     0
  9
$AUPREC
 70
     0
  9
$MENU
  1
.
  9
$ELEVATION
 40
0.0
  9
$PELEVATION
 40
0.0
  9
$THICKNESS
 40
0.0
  9
$LIMCHECK
 70
     0
  9
$CHAMFERA
 40
10.0
  9
$CHAMFERB
 40
10.0
  9
$CHAMFERC
 40
20.0
  9
$CHAMFERD
 40
0.0
  9
$SKPOLY
 70
     0
  9
$TDCREATE
 40
2453281.404552581
  9
$TDUCREATE
 40
2453281.029552581
  9
$TDUPDATE
 40
2457192.689127130
  9
$TDUUPDATE
 40
2457192.314127130
  9
$TDINDWG
 40
0.1353102778
  9
$TDUSRTIMER
 40
0.1353100810
  9
$USRTIMER
 70
     1
  9
$ANGBASE
 50
0.0
  9
$ANGDIR
 70
     0
  9
$PDMODE
 70
     0
  9
$PDSIZE
 40
0.0
  9
$PLINEWID
 40
0.0
  9
$SPLFRAME
 70
     0
  9
$SPLINETYPE
 70
     6
  9
$SPLINESEGS
 70
     8
  9
$HANDSEED
  5
1BB4
  9
$SURFTAB1
 70
     6
  9
$SURFTAB2
 70
     6
  9
$SURFTYPE
 70
     6
  9
$SURFU
 70
     6
  9
$SURFV
 70
     6
  9
$UCSBASE
  2

  9
$UCSNAME
  2

  9
$UCSORG
 10
0.0
 20
0.0
 30
0.0
  9
$UCSXDIR
 10
1.0
 20
0.0
 30
0.0
  9
$UCSYDIR
 10
0.0
 20
1.0
 30
0.0
  9
$UCSORTHOREF
  2

  9
$UCSORTHOVIEW
 70
     0
  9
$UCSORGTOP
 10
0.0
 20
0.0
 30
0.0
  9
$UCSORGBOTTOM
 10
0.0
 20
0.0
 30
0.0
  9
$UCSORGLEFT
 10
0.0
 20
0.0
 30
0.0
  9
$UCSORGRIGHT
 10
0.0
 20
0.0
 30
0.0
  9
$UCSORGFRONT
 10
0.0
 20
0.0
 30
0.0
  9
$UCSORGBACK
 10
0.0
 20
0.0
 30
0.0
  9
$PUCSBASE
  2

  9
$PUCSNAME
  2

  9
$PUCSORG
 10
0.0
 20
0.0
 30
0.0
  9
$PUCSXDIR
 10
1.0
 20
0.0
 30
0.0
  9
$PUCSYDIR
 10
0.0
 20
1.0
 30
0.0
  9
$PUCSORTHOREF
  2

  9
$PUCSORTHOVIEW
 70
     0
  9
$PUCSORGTOP
 10
0.0
 20
0.0
 30
0.0
  9
$PUCSORGBOTTOM
 10
0.0
 20
0.0
 30
0.0
  9
$PUCSORGLEFT
 10
0.0
 20
0.0
 30
0.0
  9
$PUCSORGRIGHT
 10
0.0
 20
0.0
 30
0.0
  9
$PUCSORGFRONT
 10
0.0
 20
0.0
 30
0.0
  9
$PUCSORGBACK
 10
0.0
 20
0.0
 30
0.0
  9
$USERI1
 70
     0
  9
$USERI2
 70
     0
  9
$USERI3
 70
     0
  9
$USERI4
 70
     0
  9
$USERI5
 70
     0
  9
$USERR1
 40
0.0
  9
$USERR2
 40
0.0
  9
$USERR3
 40
0.0
  9
$USERR4
 40
0.0
  9
$USERR5
 40
0.0
  9
$WORLDVIEW
 70
     1
  9
$SHADEDGE
 70
     3
  9
$SHADEDIF
 70
    70
  9
$TILEMODE
 70
     1
  9
$MAXACTVP
 70
    48
  9
$PINSBASE
 10
0.0
 20
0.0
 30
0.0
  9
$PLIMCHECK
 70
     0
  9
$PEXTMIN
 10
1.000000000000000E+20
 20
1.000000000000000E+20
 30
1.000000000000000E+20
  9
$PEXTMAX
 10
-1.000000000000000E+20
 20
-1.000000000000000E+20
 30
-1.000000000000000E+20
  9
$PLIMMIN
 10
0.0
 20
0.0
  9
$PLIMMAX
 10
420.0
 20
297.0
  9
$UNITMODE
 70
     0
  9
$VISRETAIN
 70
     1
  9
$PLINEGEN
 70
     0
  9
$PSLTSCALE
 70
     1
  9
$TREEDEPTH
 70
  3020
  9
$CMLSTYLE
  2
STANDARD
  9
$CMLJUST
 70
     0
  9
$CMLSCALE
 40
20.0
  9
$PROXYGRAPHICS
 70
     1
  9
$MEASUREMENT
 70
     0
  9
$CELWEIGHT
370
    -1
  9
$ENDCAPS
280
     0
  9
$JOINSTYLE
280
     0
  9
$LWDISPLAY
290
     0
  9
$INSUNITS
 70
     0
  9
$HYPERLINKBASE
  1

  9
$STYLESHEET
  1

  9
$XEDIT
290
     1
  9
$CEPSNTYPE
380
     0
  9
$PSTYLEMODE
290
     1
  9
$FINGERPRINTGUID
  2
{0BC0B747-426D-4036-9149-D557336AD0C7}
  9
$VERSIONGUID
  2
{66302967-2D2A-427E-9C4A-FE201C31E24A}
  9
$EXTNAMES
290
     1
  9
$PSVPSCALE
 40
0.0
  9
$OLESTARTUP
290
     0
  0
ENDSEC
  0
SECTION
  2
CLASSES
  0
CLASS
  1
ACDBDICTIONARYWDFLT
  2
AcDbDictionaryWithDefault
  3
ObjectDBX Classes
 90
        0
280
     0
281
     0
  0
CLASS
  1
ACDBPLACEHOLDER
  2
AcDbPlaceHolder
  3
ObjectDBX Classes
 90
        0
280
     0
281
     0
  0
CLASS
  1
LAYOUT
  2
AcDbLayout
  3
ObjectDBX Classes
 90
        0
280
     0
281
     0
  0
CLASS
  1
DICTIONARYVAR
  2
AcDbDictionaryVar
  3
ObjectDBX Classes
 90
        0
280
     0
281
     0
  0
CLASS
  1
MATERIAL
  2
AcDbMaterial
  3
ObjectDBX Classes
 90
     1153
280
     0
281
     0
  0
CLASS
  1
VISUALSTYLE
  2
AcDbVisualStyle
  3
ObjectDBX Classes
 90
     4095
280
     0
281
     0
  0
CLASS
  1
TABLESTYLE
  2
AcDbTableStyle
  3
ObjectDBX Classes
 90
     4095
280
     0
281
     0
  0
CLASS
  1
SCALE
  2
AcDbScale
  3
ObjectDBX Classes
 90
     1153
280
     0
281
     0
  0
CLASS
  1
MLEADERSTYLE
  2
AcDbMLeaderStyle
  3
ACDB_MLEADERSTYLE_CLASS
 90
     4095
280
     0
281
     0
  0
CLASS
  1
ACDBSECTIONVIEWSTYLE
  2
AcDbSectionViewStyle
  3
ObjectDBX Classes
 90
     1025
280
     0
281
     0
  0
CLASS
  1
ACDBDETAILVIEWSTYLE
  2
AcDbDetailViewStyle
  3
ObjectDBX Classes
 90
     1025
280
     0
281
     0
  0
CLASS
  1
CELLSTYLEMAP
  2
AcDbCellStyleMap
  3
ObjectDBX Classes
 90
     1152
280
     0
281
     0
  0
ENDSEC
  0
SECTION
  2
TABLES
  0
TABLE
  2
VPORT
  5
8
330
0
100
AcDbSymbolTable
 70
     1
  0
VPORT
  5
1B00
330
8
100
AcDbSymbolTableRecord
100
AcDbViewportTableRecord
  2
*ACTIVE
 70
     0
 10
0.0
 20
0.0
 11
1.0
 21
1.0
 12
419.1020707194766
 22
199.3677187293398
 13
0.0
 23
0.0
 14
10.0
 24
10.0
 15
10.0
 25
10.0
 16
0.0
 26
0.0
 36
1.0
 17
0.0
 27
0.0
 37
0.0
 40
381.7847639990094
 41
2.35006605019815
 42
50.0
 43
0.0
 44
0.0
 50
0.0
 51
0.0
 71
     0
 72
   100
 73
     1
 74
     0
 75
     0
 76
     0
 77
     0
 78
     0
281
     0
 65
     1
110
0.0
120
0.0
130
0.0
111
1.0
121
0.0
131
0.0
112
0.0
122
1.0
132
0.0
 79
     0
146
0.0
1001
ACAD_NAV_VCDISPLAY
1070
     3
  0
ENDTAB
  0
TABLE
  2
LTYPE
  5
5
330
0
100
AcDbSymbolTable
 70
     4
  0
LTYPE
  5
12
330
5
100
AcDbSymbolTableRecord
100
AcDbLinetypeTableRecord
  2
BYBLOCK
 70
     0
  3

 72
    65
 73
     0
 40
0.0
  0
LTYPE
  5
13
330
5
100
AcDbSymbolTableRecord
100
AcDbLinetypeTableRecord
  2
BYLAYER
 70
     0
  3

 72
    65
 73
     0
 40
0.0
  0
LTYPE
  5
14
330
5
100
AcDbSymbolTableRecord
100
AcDbLinetypeTableRecord
  2
CONTINUOUS
 70
     0
  3
Solid line
 72
    65
 73
     0
 40
0.0
  0
LTYPE
  5
62
330
5
100
AcDbSymbolTableRecord
100
AcDbLinetypeTableRecord
  2
DASHED
 70
     0
  3
Dashed __ __ __ __ __ __ __ __ __ __ __ __ __ _
 72
    65
 73
     2
 40
19.04999999999998
 49
12.7
 74
     0
 49
-6.349999999999997
 74
     0
  0
LTYPE
  5
63
330
5
100
AcDbSymbolTableRecord
100
AcDbLinetypeTableRecord
  2
CENTER
 70
     0
  3
Center ____ _ ____ _ ____ _ ____ _ ____ _ ____
 72
    65
 73
     4
 40
50.8
 49
31.75
 74
     0
 49
-6.349999999999997
 74
     0
 49
6.349999999999997
 74
     0
 49
-6.349999999999997
 74
     0
  0
LTYPE
  5
64
330
5
100
AcDbSymbolTableRecord
100
AcDbLinetypeTableRecord
  2
PHANTOM
 70
     0
  3
Phantom ______  __  __  ______  __  __  ______
 72
    65
 73
     6
 40
63.5
 49
31.75
 74
     0
 49
-6.349999999999997
 74
     0
 49
6.349999999999997
 74
     0
 49
-6.349999999999997
 74
     0
 49
6.349999999999997
 74
     0
 49
-6.349999999999997
 74
     0
  0
ENDTAB
  0
TABLE
  2
LAYER
  5
2
330
0
100
AcDbSymbolTable
 70
     8
  0
LAYER
  5
E
102
{ACAD_XDICTIONARY
360
1B58
102
}
330
2
100
AcDbSymbolTableRecord
100
AcDbLayerTableRecord
  2
0
 70
     0
 62
     7
  6
CONTINUOUS
370
    -3
390
1B07
  0
LAYER
  5
65
102
{ACAD_XDICTIONARY
360
1B5A
102
}
330
2
100
AcDbSymbolTableRecord
100
AcDbLayerTableRecord
  2
4
 70
     0
 62
     1
  6
CENTER
370
    -3
390
1B07
  0
LAYER
  5
66
102
{ACAD_XDICTIONARY
360
1B5C
102
}
330
2
100
AcDbSymbolTableRecord
100
AcDbLayerTableRecord
  2
5
 70
     0
 62
     6
  6
PHANTOM
370
    -3
390
1B07
  0
LAYER
  5
67
102
{ACAD_XDICTIONARY
360
1B5E
102
}
330
2
100
AcDbSymbolTableRecord
100
AcDbLayerTableRecord
  2
1
 70
     0
 62
     7
  6
CONTINUOUS
370
    -3
390
1B07
  0
LAYER
  5
68
102
{ACAD_XDICTIONARY
360
1B60
102
}
330
2
100
AcDbSymbolTableRecord
100
AcDbLayerTableRecord
  2
2
 70
     0
 62
     4
  6
CONTINUOUS
370
    -3
390
1B07
  0
LAYER
  5
69
102
{ACAD_XDICTIONARY
360
1B62
102
}
330
2
100
AcDbSymbolTableRecord
100
AcDbLayerTableRecord
  2
3
 70
     0
 62
     2
  6
DASHED
370
    -3
390
1B07
  0
LAYER
  5
6A
102
{ACAD_XDICTIONARY
360
1B64
102
}
330
2
100
AcDbSymbolTableRecord
100
AcDbLayerTableRecord
  2
6
 70
     0
 62
     5
  6
CONTINUOUS
370
    -3
390
1B07
  0
LAYER
  5
6B
102
{ACAD_XDICTIONARY
360
1B66
102
}
330
2
100
AcDbSymbolTableRecord
100
AcDbLayerTableRecord
  2
7
 70
     0
 62
     3
  6
CONTINUOUS
370
    -3
390
1B07
  0
ENDTAB
  0
TABLE
  2
STYLE
  5
3
330
0
100
AcDbSymbolTable
 70
     1
  0
STYLE
  5
F
330
3
100
AcDbSymbolTableRecord
100
AcDbTextStyleTableRecord
  2
STANDARD
 70
     0
 40
0.0
 41
1.0
 50
0.0
 71
     0
 42
2.5
  3
simplex.shx
  4

  0
ENDTAB
  0
TABLE
  2
VIEW
  5
6
330
0
100
AcDbSymbolTable
 70
     0
  0
ENDTAB
  0
TABLE
  2
UCS
  5
7
330
0
100
AcDbSymbolTable
 70
     0
  0
ENDTAB
  0
TABLE
  2
APPID
  5
9
330
0
100
AcDbSymbolTable
 70
     5
  0
APPID
  5
10
330
9
100
AcDbSymbolTableRecord
100
AcDbRegAppTableRecord
  2
ACAD
 70
     0
  0
APPID
  5
3E
330
9
100
AcDbSymbolTableRecord
100
AcDbRegAppTableRecord
  2
CONTENTTABDATA
 70
     0
  0
APPID
  5
3F
330
9
100
AcDbSymbolTableRecord
100
AcDbRegAppTableRecord
  2
CONTENTCURRENTTAB
 70
     0
  0
APPID
  5
1B72
330
9
100
AcDbSymbolTableRecord
100
AcDbRegAppTableRecord
  2
ACAD_NAV_VCDISPLAY
 70
     0
  0
APPID
  5
1BAB
330
9
100
AcDbSymbolTableRecord
100
AcDbRegAppTableRecord
  2
ACAD_MLEADERVER
 70
     0
  0
ENDTAB
  0
TABLE
  2
DIMSTYLE
  5
A
330
0
100
AcDbSymbolTable
 70
     1
100
AcDbDimStyleTable
 71
     0
  0
DIMSTYLE
105
1D
330
A
100
AcDbSymbolTableRecord
100
AcDbDimStyleTableRecord
  2
STANDARD
 70
     0
 41
3.0
 42
1.0
 43
10.0
 44
1.0
 73
     0
 74
     0
 77
     3
 78
     8
140
3.2
141
0.0
147
1.0
172
     1
173
     1
340
F
341
2E
343
2E
344
2E
  0
ENDTAB
  0
TABLE
  2
BLOCK_RECORD
  5
1
330
0
100
AcDbSymbolTable
 70
     1
  0
BLOCK_RECORD
  5
18
102
{ACAD_XDICTIONARY
360
1AEA
102
}
330
1
100
AcDbSymbolTableRecord
100
AcDbBlockTableRecord
  2
*MODEL_SPACE
340
1B55
  0
BLOCK_RECORD
  5
15
102
{ACAD_XDICTIONARY
360
1AE8
102
}
330
1
100
AcDbSymbolTableRecord
100
AcDbBlockTableRecord
  2
*PAPER_SPACE
340
1B56
  0
BLOCK_RECORD
  5
2E
330
1
100
AcDbSymbolTableRecord
100
AcDbBlockTableRecord
  2
_OPEN
340
0
  0
ENDTAB
  0
ENDSEC
  0
SECTION
  2
BLOCKS
  0
BLOCK
  5
19
330
18
100
AcDbEntity
  8
0
100
AcDbBlockBegin
  2
*MODEL_SPACE
 70
     0
 10
0.0
 20
0.0
 30
0.0
  3
*MODEL_SPACE
  1

  0
ENDBLK
  5
1A
330
18
100
AcDbEntity
  8
0
100
AcDbBlockEnd
  0
BLOCK
  5
16
330
15
100
AcDbEntity
 67
     1
  8
0
100
AcDbBlockBegin
  2
*PAPER_SPACE
 70
     0
 10
0.0
 20
0.0
 30
0.0
  3
*PAPER_SPACE
  1

  0
ENDBLK
  5
17
330
15
100
AcDbEntity
 67
     1
  8
0
100
AcDbBlockEnd
  0
BLOCK
  5
2F
330
2E
100
AcDbEntity
  8
0
100
AcDbBlockBegin
  2
_OPEN
 70
     0
 10
0.0
 20
0.0
 30
0.0
  3
_OPEN
  1

  0
LINE
  5
30
330
2E
100
AcDbEntity
  8
0
  6
ByBlock
 62
     0
100
AcDbLine
 10
-1.0
 20
0.1666666666666666
 30
0.0
 11
0.0
 21
0.0
 31
0.0
  0
LINE
  5
31
330
2E
100
AcDbEntity
  8
0
  6
ByBlock
 62
     0
100
AcDbLine
 10
0.0
 20
0.0
 30
0.0
 11
-1.0
 21
-0.1666666666666666
 31
0.0
  0
LINE
  5
32
330
2E
100
AcDbEntity
  8
0
  6
ByBlock
 62
     0
100
AcDbLine
 10
0.0
 20
0.0
 30
0.0
 11
-1.0
 21
0.0
 31
0.0
  0
ENDBLK
  5
33
330
2E
100
AcDbEntity
  8
0
100
AcDbBlockEnd
  0
ENDSEC
  0
SECTION
  2
ENTITIES
  0
LINE
  5
22B
330
18
100
AcDbEntity
  8
1
  6
Continuous
100
AcDbLine
 10
157.0070512422428
 20
336.7407162403508
 30
0.0
 11
145.9487519605144
 21
336.7407162403508
 31
0.0
  0
ARC
  5
22C
330
18
100
AcDbEntity
  8
1
  6
Continuous
100
AcDbCircle
 10
150.8228142962236
 20
330.3268904683628
 30
0.0
 40
13.59594225091025
100
AcDbArc
 50
267.9657885531718
 51
297.7013865018598
  0
LINE
  5
22D
330
18
100
AcDbEntity
  8
5
  6
PHANTOM
 48
0.3
100
AcDbLine
 10
148.0636608556686
 20
199.8019260686902
 30
0.0
 11
152.3828168556686
 21
200.6414880686901
 31
0.0
  0
LINE
  5
22E
330
18
100
AcDbEntity
  8
5
  6
PHANTOM
 48
0.3
100
AcDbLine
 10
151.6195798556686
 20
204.5679940686902
 30
0.0
 11
152.3828168556686
 21
200.6414880686901
 31
0.0
  0
ARC
  5
22F
330
18
100
AcDbEntity
  8
1
  6
Continuous
100
AcDbCircle
 10
172.8658608556685
 20
221.6396230686902
 30
0.0
 40
25.0
100
AcDbArc
 50
182.66986
 51
224.6126699999998
  0
ARC
  5
230
330
18
100
AcDbEntity
  8
5
  6
PHANTOM
 48
0.3
100
AcDbCircle
 10
156.9149978556685
 20
214.8599860686901
 30
0.0
 40
25.0
100
AcDbArc
 50
231.6698699999999
 51
273.6126799999997
  0
LINE
  5
231
330
18
100
AcDbEntity
  8
1
  6
Continuous
100
AcDbLine
 10
141.6088148556686
 20
234.5217684686902
 30
0.0
 11
165.5147948556685
 21
215.8443710686901
 31
0.0
  0
LINE
  5
232
330
18
100
AcDbEntity
  8
1
  6
Continuous
100
AcDbLine
 10
142.8401388556686
 20
236.0977901686901
 30
0.0
 11
166.7461178556685
 21
217.4203920686901
 31
0.0
  0
LINE
  5
235
330
18
100
AcDbEntity
  8
4
  6
CENTER
 48
0.5
100
AcDbLine
 10
134.8287058556685
 20
200.7493180686901
 30
0.0
 11
209.8287058556684
 21
200.7493180686901
 31
0.0
  0
LINE
  5
236
330
18
100
AcDbEntity
  8
5
  6
PHANTOM
 48
0.3
100
AcDbLine
 10
126.3046368556685
 20
201.6847010686901
 30
0.0
 11
156.0843778556684
 21
207.4732980686901
 31
0.0
  0
LINE
  5
237
330
18
100
AcDbEntity
  8
5
  6
PHANTOM
 48
0.3
100
AcDbLine
 10
126.6862558556685
 20
199.7214480686901
 30
0.0
 11
156.4659968556684
 21
205.5100410686901
 31
0.0
  0
LINE
  5
238
330
18
100
AcDbEntity
  8
4
  6
CENTER
 48
0.5
100
AcDbLine
 10
134.8287058556685
 20
354.7407162403509
 30
0.0
 11
239.3253758556685
 21
354.7407162403509
 31
0.0
  0
ARC
  5
239
330
18
100
AcDbEntity
  8
1
  6
Continuous
100
AcDbCircle
 10
37.83015797056646
 20
247.0213174686902
 30
0.0
 40
2.778000099999998
100
AcDbArc
 50
317.4661199999996
 51
350.21762
  0
ARC
  5
23B
330
18
100
AcDbEntity
  8
1
  6
Continuous
100
AcDbCircle
 10
37.83015797056646
 20
468.9754180686902
 30
0.0
 40
228.99847
100
AcDbArc
 50
266.4216453488105
 51
273.5760000000002
  0
ARC
  5
23C
330
18
100
AcDbEntity
  8
1
  6
Continuous
100
AcDbCircle
 10
37.83015797056646
 20
431.6933180686901
 30
0.0
 40
190.0
100
AcDbArc
 50
264.86565
 51
275.1343499999998
  0
ARC
  5
23D
330
18
100
AcDbEntity
  8
1
  6
Continuous
100
AcDbCircle
 10
37.83015797056646
 20
467.0058180686901
 30
0.0
 40
228.99847
100
AcDbArc
 50
266.3933047843694
 51
273.6066899999999
  0
ARC
  5
23E
330
18
100
AcDbEntity
  8
1
  6
Continuous
100
AcDbCircle
 10
37.83015797056646
 20
-136.1880319313095
 30
0.0
 40
371.0813299999998
100
AcDbArc
 50
87.52879900000037
 51
92.47120155307195
  0
LINE
  5
23F
330
18
100
AcDbEntity
  8
1
  6
Continuous
100
AcDbLine
 10
59.33015797056635
 20
245.1433171686901
 30
0.0
 11
16.33015797056646
 21
245.1433171686901
 31
0.0
  0
LINE
  5
240
330
18
100
AcDbEntity
  8
1
  6
Continuous
100
AcDbLine
 10
60.33015797056634
 20
246.5493172686901
 30
0.0
 11
15.33015797056646
 21
246.5493172686901
 31
0.0
  0
LINE
  5
241
330
18
100
AcDbEntity
  8
1
  6
Continuous
100
AcDbLine
 10
66.83015797056635
 20
251.2493180686901
 30
0.0
 11
8.83015797056646
 21
251.2493180686901
 31
0.0
  0
LINE
  5
242
330
18
100
AcDbEntity
  8
1
  6
Continuous
100
AcDbLine
 10
66.83015797056635
 20
253.2493180686901
 30
0.0
 11
8.83015797056646
 21
253.2493180686901
 31
0.0
  0
LINE
  5
244
330
18
100
AcDbEntity
  8
4
  6
CENTER
 48
0.5
100
AcDbLine
 10
10.83020797056643
 20
200.7493180686901
 30
0.0
 11
76.83017297056648
 21
200.7493180686901
 31
0.0
  0
LINE
  5
245
330
18
100
AcDbEntity
  8
4
  6
CENTER
 48
0.5
100
AcDbLine
 10
37.83015797056646
 20
258.2493180686901
 30
0.0
 11
37.83015797056646
 21
163.2493180686901
 31
0.0
  0
TEXT
  5
247
330
18
100
AcDbEntity
  8
1
  6
Continuous
 48
0.25
100
AcDbText
 10
9.99999906424682
 20
10.00000056761564
 30
0.0
 40
1.399999999999999
  1
LAYER
100
AcDbText
  0
TEXT
  5
248
330
18
100
AcDbEntity
  8
7
  6
Continuous
 48
0.25
100
AcDbText
 10
9.99999906424682
 20
18.00000056761564
 30
0.0
 40
3.0
  1
TYPE No.TCA-315S-UB65
100
AcDbText
  0
TEXT
  5
249
330
18
100
AcDbEntity
  8
7
  6
Continuous
 48
0.25
100
AcDbText
 10
9.99999906424682
 20
26.00000056761564
 30
0.0
 40
3.0
  1
CODE No.19166
100
AcDbText
  0
TEXT
  5
24A
330
18
100
AcDbEntity
  8
2
  6
Continuous
 48
0.25
100
AcDbText
 10
19.97951006424682
 20
9.999999806846743
 30
0.0
 40
1.399999999999999
  1
2
100
AcDbText
  0
TEXT
  5
24B
330
18
100
AcDbEntity
  8
1
  6
Continuous
 48
0.25
100
AcDbText
 10
17.97951006424682
 20
9.999999806846743
 30
0.0
 40
1.399999999999999
  1
1
100
AcDbText
  0
TEXT
  5
24C
330
18
100
AcDbEntity
  8
3
  6
DASHED
 48
0.25
100
AcDbText
 10
21.97951006424682
 20
9.999999806846743
 30
0.0
 40
1.399999999999999
  1
3
100
AcDbText
  0
TEXT
  5
24D
330
18
100
AcDbEntity
  8
5
  6
PHANTOM
 48
0.3
100
AcDbText
 10
25.97951006424682
 20
9.999999806846743
 30
0.0
 40
1.399999999999999
  1
5
100
AcDbText
  0
TEXT
  5
24E
330
18
100
AcDbEntity
  8
4
  6
CENTER
 48
0.5
100
AcDbText
 10
23.97951006424682
 20
9.999999806846743
 30
0.0
 40
1.399999999999999
  1
4
100
AcDbText
  0
TEXT
  5
24F
330
18
100
AcDbEntity
  8
7
  6
Continuous
 48
0.25
100
AcDbText
 10
29.97951006424682
 20
9.999999806846743
 30
0.0
 40
1.399999999999999
  1
7
100
AcDbText
  0
TEXT
  5
250
330
18
100
AcDbEntity
  8
6
  6
Continuous
 48
0.25
100
AcDbText
 10
27.97951006424682
 20
9.999999806846743
 30
0.0
 40
1.399999999999999
  1
6
100
AcDbText
  0
LINE
  5
254
330
18
100
AcDbEntity
  8
1
  6
Continuous
100
AcDbLine
 10
21.83015797056645
 20
236.963876952856
 30
0.0
 11
21.83015797056645
 21
189.7433140686901
 31
0.0
  0
LINE
  5
255
330
18
100
AcDbEntity
  8
1
  6
Continuous
100
AcDbLine
 10
19.83015797056646
 20
237.0329884686901
 30
0.0
 11
19.83015797056646
 21
189.7433140686901
 31
0.0
  0
LINE
  5
256
330
18
100
AcDbEntity
  8
1
  6
Continuous
100
AcDbLine
 10
12.80098797056643
 20
219.4094280686901
 30
0.0
 11
13.33096797056646
 21
242.2130218686902
 31
0.0
  0
LINE
  5
257
330
18
100
AcDbEntity
  8
1
  6
Continuous
100
AcDbLine
 10
15.83020797056645
 20
194.7493180686903
 30
0.0
 11
15.83020797056645
 21
206.7493180686903
 31
0.0
  0
ARC
  5
25C
330
18
100
AcDbEntity
  8
1
  6
Continuous
100
AcDbCircle
 10
17.33020797056638
 20
199.2493180686901
 30
0.0
 40
1.5
100
AcDbArc
 50
180.0000100000002
 51
270.0
  0
ARC
  5
25D
330
18
100
AcDbEntity
  8
1
  6
Continuous
100
AcDbCircle
 10
17.33020797056638
 20
194.7493180686903
 30
0.0
 40
1.5
100
AcDbArc
 50
180.0000100000002
 51
270.0
  0
ARC
  5
25E
330
18
100
AcDbEntity
  8
1
  6
Continuous
100
AcDbCircle
 10
17.33020797056638
 20
195.7493180686901
 30
0.0
 40
1.5
100
AcDbArc
 50
89.99996799999987
 51
180.0000100000002
  0
ARC
  5
25F
330
18
100
AcDbEntity
  8
1
  6
Continuous
100
AcDbCircle
 10
18.33020397056644
 20
194.7493180686903
 30
0.0
 40
1.5
100
AcDbArc
 50
270.0
 51
0.0
  0
LINE
  5
260
330
18
100
AcDbEntity
  8
1
  6
Continuous
100
AcDbLine
 10
19.83015797056646
 20
189.7493180686901
 30
0.0
 11
21.83015797056645
 21
189.7493180686901
 31
0.0
  0
LINE
  5
261
330
18
100
AcDbEntity
  8
1
  6
Continuous
100
AcDbLine
 10
17.33020797056638
 20
193.2493180686901
 30
0.0
 11
18.33020397056644
 21
193.2493180686901
 31
0.0
  0
ARC
  5
262
330
18
100
AcDbEntity
  8
1
  6
Continuous
100
AcDbCircle
 10
18.33020397056644
 20
195.7493180686901
 30
0.0
 40
1.5
100
AcDbArc
 50
0.0
 51
89.9999619999996
  0
LINE
  5
263
330
18
100
AcDbEntity
  8
1
  6
Continuous
100
AcDbLine
 10
17.33020797056638
 20
197.7493180686901
 30
0.0
 11
18.33020397056644
 21
197.7493180686901
 31
0.0
  0
LINE
  5
264
330
18
100
AcDbEntity
  8
1
  6
Continuous
100
AcDbLine
 10
17.33020797056638
 20
197.2493180686901
 30
0.0
 11
18.33020397056644
 21
197.2493180686901
 31
0.0
  0
ARC
  5
265
330
18
100
AcDbEntity
  8
1
  6
Continuous
100
AcDbCircle
 10
18.33020397056644
 20
199.2493180686901
 30
0.0
 40
1.5
100
AcDbArc
 50
270.0
 51
0.0
  0
ARC
  5
267
330
18
100
AcDbEntity
  8
1
  6
Continuous
100
AcDbCircle
 10
48.79126297056639
 20
218.5729650686901
 30
0.0
 40
36.0
100
AcDbArc
 50
178.6686099999999
 51
203.71106
  0
ARC
  5
268
330
18
100
AcDbEntity
  8
1
  6
Continuous
100
AcDbCircle
 10
17.33020797056638
 20
206.7493180686903
 30
0.0
 40
1.5
100
AcDbArc
 50
89.99996799999987
 51
180.0000100000002
  0
ARC
  5
269
330
18
100
AcDbEntity
  8
1
  6
Continuous
100
AcDbCircle
 10
17.33020797056638
 20
202.2493180686903
 30
0.0
 40
1.5
100
AcDbArc
 50
89.99996799999987
 51
180.0000100000002
  0
ARC
  5
26A
330
18
100
AcDbEntity
  8
1
  6
Continuous
100
AcDbCircle
 10
17.33020797056638
 20
205.7493180686901
 30
0.0
 40
1.5
100
AcDbArc
 50
180.0000100000002
 51
270.0
  0
ARC
  5
26B
330
18
100
AcDbEntity
  8
1
  6
Continuous
100
AcDbCircle
 10
18.33020397056644
 20
205.7493180686901
 30
0.0
 40
1.5
100
AcDbArc
 50
270.0
 51
0.0
  0
LINE
  5
26C
330
18
100
AcDbEntity
  8
1
  6
Continuous
100
AcDbLine
 10
17.33020797056638
 20
204.2493180686903
 30
0.0
 11
18.33020397056644
 21
204.2493180686903
 31
0.0
  0
LINE
  5
26D
330
18
100
AcDbEntity
  8
1
  6
Continuous
100
AcDbLine
 10
17.33020797056638
 20
203.7493180686901
 30
0.0
 11
18.33020397056644
 21
203.7493180686901
 31
0.0
  0
ARC
  5
26E
330
18
100
AcDbEntity
  8
1
  6
Continuous
100
AcDbCircle
 10
18.33020397056644
 20
202.2493180686903
 30
0.0
 40
1.5
100
AcDbArc
 50
0.0
 51
89.9999619999996
  0
ARC
  5
26F
330
18
100
AcDbEntity
  8
1
  6
Continuous
100
AcDbCircle
 10
18.33020397056644
 20
206.7493180686903
 30
0.0
 40
1.5
100
AcDbArc
 50
0.0
 51
89.9999619999996
  0
LINE
  5
270
330
18
100
AcDbEntity
  8
1
  6
Continuous
100
AcDbLine
 10
17.33020797056638
 20
208.2493180686901
 30
0.0
 11
18.33020397056644
 21
208.2493180686901
 31
0.0
  0
LINE
  5
275
330
18
100
AcDbEntity
  8
1
  6
Continuous
100
AcDbLine
 10
8.83015797056646
 20
253.2493180686901
 30
0.0
 11
8.83015797056646
 21
251.2493180686901
 31
0.0
  0
ARC
  5
27B
330
18
100
AcDbEntity
  8
1
  6
Continuous
100
AcDbCircle
 10
23.32863197056639
 20
236.92965026869
 30
0.0
 40
3.5
100
AcDbArc
 50
86.42399499999964
 51
178.30809
  0
LINE
  5
280
330
18
100
AcDbEntity
  8
4
  6
CENTER
 48
0.5
100
AcDbLine
 10
16.83015797056646
 20
258.2493180686901
 30
0.0
 11
16.83015797056646
 21
246.2493180686901
 31
0.0
  0
ARC
  5
281
330
18
100
AcDbEntity
  8
1
  6
Continuous
100
AcDbCircle
 10
17.48306797056642
 20
250.2493170686901
 30
0.0
 40
3.0
100
AcDbArc
 50
194.8123899999999
 51
270.0
  0
ARC
  5
282
330
18
100
AcDbEntity
  8
1
  6
Continuous
100
AcDbCircle
 10
15.33015797056646
 20
249.5493172686902
 30
0.0
 40
3.0
100
AcDbArc
 50
213.0681
 51
269.9999599999999
  0
ARC
  5
283
330
18
100
AcDbEntity
  8
1
  6
Continuous
100
AcDbCircle
 10
16.33015797056646
 20
242.1433171686901
 30
0.0
 40
3.0
100
AcDbArc
 50
89.99999600000005
 51
178.6686099999999
  0
ARC
  5
284
330
18
100
AcDbEntity
  8
1
  6
Continuous
100
AcDbCircle
 10
9.83015797056646
 20
249.7493180686902
 30
0.0
 40
1.5
100
AcDbArc
 50
33.06801899999995
 51
90.00000300000015
  0
LINE
  5
285
330
18
100
AcDbEntity
  8
1
  6
Continuous
100
AcDbLine
 10
12.81608797056644
 20
247.9124144686901
 30
0.0
 11
11.08719797056642
 21
250.5677694686903
 31
0.0
  0
ARC
  5
286
330
18
100
AcDbEntity
  8
1
  6
Continuous
100
AcDbCircle
 10
13.34556797056642
 20
250.2493180686901
 30
0.0
 40
1.0
100
AcDbArc
 50
14.812389
 51
90.00000300000015
  0
LINE
  5
287
330
18
100
AcDbEntity
  8
1
  6
Continuous
100
AcDbLine
 10
14.31234797056646
 20
250.5049733686901
 30
0.0
 11
14.58276797056646
 21
249.4823550686902
 31
0.0
  0
ARC
  5
288
330
18
100
AcDbEntity
  8
1
  6
Continuous
100
AcDbCircle
 10
17.48306797056642
 20
247.7493170686901
 30
0.0
 40
0.5
100
AcDbArc
 50
270.0
 51
352.3953099999997
  0
ARC
  5
289
330
18
100
AcDbEntity
  8
1
  6
Continuous
100
AcDbCircle
 10
21.93015597056648
 20
247.0213174686902
 30
0.0
 40
2.778000099999998
100
AcDbArc
 50
189.7823799999999
 51
222.5338800000002
  0
ARC
  5
28A
330
18
100
AcDbEntity
  8
1
  6
Continuous
100
AcDbCircle
 10
20.43015597056649
 20
247.0213174686902
 30
0.0
 40
2.778000099999998
100
AcDbArc
 50
189.7823799999999
 51
222.5338800000002
  0
ARC
  5
28B
330
18
100
AcDbEntity
  8
1
  6
Continuous
100
AcDbCircle
 10
24.43015597056643
 20
247.0213174686902
 30
0.0
 40
2.778000099999998
100
AcDbArc
 50
189.7823799999999
 51
222.5338800000002
  0
LINE
  5
28C
330
18
100
AcDbEntity
  8
1
  6
Continuous
100
AcDbLine
 10
17.97867197056643
 20
247.6831483686903
 30
0.0
 11
18.33895497056646
 21
250.3816556686901
 31
0.0
  0
ARC
  5
28D
330
18
100
AcDbEntity
  8
1
  6
Continuous
100
AcDbCircle
 10
19.33015797056646
 20
250.2493180686901
 30
0.0
 40
1.0
100
AcDbArc
 50
90.00000300000015
 51
172.3953100000001
  0
ARC
  5
28E
330
18
100
AcDbEntity
  8
1
  6
Continuous
100
AcDbCircle
 10
27.93015597056643
 20
247.0213174686902
 30
0.0
 40
2.778000099999998
100
AcDbArc
 50
189.7823799999999
 51
222.5338800000002
  0
ARC
  5
28F
330
18
100
AcDbEntity
  8
1
  6
Continuous
100
AcDbCircle
 10
32.43015597056649
 20
247.0213174686902
 30
0.0
 40
2.778000099999998
100
AcDbArc
 50
189.7823799999999
 51
222.5338800000002
  0
ARC
  5
290
330
18
100
AcDbEntity
  8
1
  6
Continuous
100
AcDbCircle
 10
27.93015597056643
 20
247.0213174686902
 30
0.0
 40
2.778000099999998
100
AcDbArc
 50
317.4661199999996
 51
324.0896000000003
  0
ARC
  5
291
330
18
100
AcDbEntity
  8
1
  6
Continuous
100
AcDbCircle
 10
37.83015797056646
 20
247.0213174686902
 30
0.0
 40
2.778000099999998
100
AcDbArc
 50
189.7823799999999
 51
222.5338800000002
  0
ARC
  5
292
330
18
100
AcDbEntity
  8
1
  6
Continuous
100
AcDbCircle
 10
32.43015597056649
 20
247.0213174686902
 30
0.0
 40
2.778000099999998
100
AcDbArc
 50
317.4661199999996
 51
346.3905399999999
  0
LINE
  5
295
330
18
100
AcDbEntity
  8
1
  6
Continuous
100
AcDbLine
 10
53.13016097056635
 20
221.1988720686901
 30
0.0
 11
53.13016097056635
 21
218.4899640686901
 31
0.0
  0
LINE
  5
296
330
18
100
AcDbEntity
  8
1
  6
Continuous
100
AcDbLine
 10
67.83015797056633
 20
214.5724400686901
 30
0.0
 11
75.38189297056636
 21
226.7876140686901
 31
0.0
  0
LINE
  5
297
330
18
100
AcDbEntity
  8
1
  6
Continuous
100
AcDbLine
 10
57.83015797056634
 20
229.1057560686902
 30
0.0
 11
57.83015797056634
 21
185.3798420686903
 31
0.0
  0
LINE
  5
299
330
18
100
AcDbEntity
  8
1
  6
Continuous
100
AcDbLine
 10
55.83015797056635
 20
237.0329884686901
 30
0.0
 11
55.83015797056635
 21
185.3798490686903
 31
0.0
  0
LINE
  5
29A
330
18
100
AcDbEntity
  8
1
  6
Continuous
100
AcDbLine
 10
52.43015597056646
 20
222.7748960686902
 30
0.0
 11
52.43015597056646
 21
220.0659840686901
 31
0.0
  0
LINE
  5
29B
330
18
100
AcDbEntity
  8
2
  6
Continuous
100
AcDbLine
 10
68.33015607056637
 20
204.1243180686901
 30
0.0
 11
71.83017297056633
 21
204.1243180686901
 31
0.0
  0
LINE
  5
29C
330
18
100
AcDbEntity
  8
1
  6
Continuous
100
AcDbLine
 10
68.33015607056636
 20
204.7493180686903
 30
0.0
 11
71.20517297056633
 21
204.7493180686903
 31
0.0
  0
LINE
  5
29D
330
18
100
AcDbEntity
  8
2
  6
Continuous
100
AcDbLine
 10
68.33015607056637
 20
197.3743180686901
 30
0.0
 11
71.83017297056633
 21
197.3743180686901
 31
0.0
  0
LINE
  5
29E
330
18
100
AcDbEntity
  8
1
  6
Continuous
100
AcDbLine
 10
68.33015607056636
 20
196.7493180686901
 30
0.0
 11
71.20517297056633
 21
196.7493180686901
 31
0.0
  0
ARC
  5
29F
330
18
100
AcDbEntity
  8
1
  6
Continuous
100
AcDbCircle
 10
70.36230797056635
 20
191.7579010686901
 30
0.0
 40
12.03
100
AcDbArc
 50
228.74859
 51
320.5731999999995
  0
LINE
  5
2A1
330
18
100
AcDbEntity
  8
1
  6
Continuous
100
AcDbLine
 10
53.83015797056635
 20
218.8839690686902
 30
0.0
 11
53.83015797056635
 21
189.7433140686901
 31
0.0
  0
ARC
  5
2A7
330
18
100
AcDbEntity
  8
1
  6
Continuous
100
AcDbCircle
 10
67.42018497056637
 20
195.2914550686902
 30
0.0
 40
10.0
100
AcDbArc
 50
132.9747899999998
 51
163.5370599999999
  0
LINE
  5
2A8
330
18
100
AcDbEntity
  8
1
  6
Continuous
100
AcDbLine
 10
53.83015797056635
 20
189.7493180686901
 30
0.0
 11
55.83015797056635
 21
189.7493180686901
 31
0.0
  0
LINE
  5
2AC
330
18
100
AcDbEntity
  8
1
  6
Continuous
100
AcDbLine
 10
62.43015597056636
 20
192.4322290686902
 30
0.0
 11
62.43015597056636
 21
178.9484600686902
 31
0.0
  0
ARC
  5
2AD
330
18
100
AcDbEntity
  8
1
  6
Continuous
100
AcDbCircle
 10
75.27473797056638
 20
196.5252730686901
 30
0.0
 40
20.0
100
AcDbArc
 50
214.69145
 51
230.04177
  0
ARC
  5
2AE
330
18
100
AcDbEntity
  8
1
  6
Continuous
100
AcDbCircle
 10
73.27473797056637
 20
196.5252730686901
 30
0.0
 40
20.0
100
AcDbArc
 50
214.69145
 51
230.04177
  0
LINE
  5
2AF
330
18
100
AcDbEntity
  8
1
  6
Continuous
100
AcDbLine
 10
60.43015597056637
 20
178.9484600686902
 30
0.0
 11
62.43015597056636
 21
178.9484600686902
 31
0.0
  0
LINE
  5
2B0
330
18
100
AcDbEntity
  8
1
  6
Continuous
100
AcDbLine
 10
60.43015597056637
 20
180.5062000686902
 30
0.0
 11
62.43015597056636
 21
180.5062000686902
 31
0.0
  0
LINE
  5
2B1
330
18
100
AcDbEntity
  8
1
  6
Continuous
100
AcDbLine
 10
60.43015597056637
 20
181.1950120686901
 30
0.0
 11
60.43015597056637
 21
178.9484600686902
 31
0.0
  0
LINE
  5
2B2
330
18
100
AcDbEntity
  8
1
  6
Continuous
100
AcDbLine
 10
56.83015797056635
 20
185.1421400686902
 30
0.0
 11
55.83015797056635
 21
185.3798450686903
 31
0.0
  0
LINE
  5
2B3
330
18
100
AcDbEntity
  8
1
  6
Continuous
100
AcDbLine
 10
57.83015397056636
 20
185.3798450686903
 30
0.0
 11
58.83015397056635
 21
185.1421400686902
 31
0.0
  0
ARC
  5
2B6
330
18
100
AcDbEntity
  8
1
  6
Continuous
100
AcDbCircle
 10
57.93200297056635
 20
197.1975870686902
 30
0.0
 40
3.0
100
AcDbArc
 50
271.9454499999999
 51
343.23157
  0
LINE
  5
2BC
330
18
100
AcDbEntity
  8
2
  6
Continuous
100
AcDbLine
 10
57.83015797056634
 20
197.3743180686901
 30
0.0
 11
60.93015597056639
 21
197.3743180686901
 31
0.0
  0
LINE
  5
2BD
330
18
100
AcDbEntity
  8
1
  6
Continuous
100
AcDbLine
 10
57.83015797056634
 20
196.7493180686901
 30
0.0
 11
60.93015597056639
 21
196.7493180686901
 31
0.0
  0
LINE
  5
2C0
330
18
100
AcDbEntity
  8
1
  6
Continuous
100
AcDbLine
 10
53.61879297056635
 20
218.8839690686902
 30
0.0
 11
55.83015797056635
 21
218.8839690686902
 31
0.0
  0
ARC
  5
2C4
330
18
100
AcDbEntity
  8
1
  6
Continuous
100
AcDbCircle
 10
53.61879297056635
 20
218.3839690686903
 30
0.0
 40
0.5
100
AcDbArc
 50
90.00000300000015
 51
167.7610399999998
  0
LINE
  5
2C5
330
18
100
AcDbEntity
  8
1
  6
Continuous
100
AcDbLine
 10
53.13016097056635
 20
218.4899660686901
 30
0.0
 11
52.43016397056635
 21
220.0659890686901
 31
0.0
  0
ARC
  5
2C7
330
18
100
AcDbEntity
  8
1
  6
Continuous
100
AcDbCircle
 10
66.83015797056635
 20
210.7570580686902
 30
0.0
 40
3.0
100
AcDbArc
 50
115.7961200000001
 51
215.7567299999997
  0
ARC
  5
2CD
330
18
100
AcDbEntity
  8
1
  6
Continuous
100
AcDbCircle
 10
57.93200297056635
 20
204.3010490686901
 30
0.0
 40
3.0
100
AcDbArc
 50
16.76842999999998
 51
91.94543800000037
  0
LINE
  5
2D4
330
18
100
AcDbEntity
  8
1
  6
Continuous
100
AcDbLine
 10
66.01923297056635
 20
206.7492680686902
 30
0.0
 11
64.39564097056639
 21
209.0040250686902
 31
0.0
  0
LINE
  5
2D5
330
18
100
AcDbEntity
  8
1
  6
Continuous
100
AcDbLine
 10
57.83015797056634
 20
214.5724380686901
 30
0.0
 11
67.83015797056633
 21
214.5724380686901
 31
0.0
  0
LINE
  5
2D6
330
18
100
AcDbEntity
  8
1
  6
Continuous
100
AcDbLine
 10
67.83015797056633
 20
214.5724380686901
 30
0.0
 11
65.52464997056637
 21
213.4581040686903
 31
0.0
  0
LINE
  5
2D7
330
18
100
AcDbEntity
  8
1
  6
Continuous
100
AcDbLine
 10
71.83017297056633
 20
204.1243180686901
 30
0.0
 11
71.83017297056633
 21
197.3743180686901
 31
0.0
  0
LINE
  5
2D8
330
18
100
AcDbEntity
  8
1
  6
Continuous
100
AcDbLine
 10
71.20517297056633
 20
204.7493180686903
 30
0.0
 11
71.20517297056633
 21
196.7493180686901
 31
0.0
  0
ARC
  5
2D9
330
18
100
AcDbEntity
  8
1
  6
Continuous
100
AcDbCircle
 10
77.23015997056638
 20
187.4605380686903
 30
0.0
 40
3.0
100
AcDbArc
 50
0.0
 51
39.43729000000015
  0
LINE
  5
2DA
330
18
100
AcDbEntity
  8
1
  6
Continuous
100
AcDbLine
 10
71.83017297056633
 20
198.6715130686901
 30
0.0
 11
79.67625397056639
 21
187.6213500686901
 31
0.0
  0
ARC
  5
2DB
330
18
100
AcDbEntity
  8
1
  6
Continuous
100
AcDbCircle
 10
77.23015997056638
 20
185.8845110686903
 30
0.0
 40
3.0
100
AcDbArc
 50
323.9193500000002
 51
35.37635999999993
  0
LINE
  5
2DC
330
18
100
AcDbEntity
  8
1
  6
Continuous
100
AcDbLine
 10
80.23015997056637
 20
187.4605380686903
 30
0.0
 11
80.23015997056637
 21
185.8845110686903
 31
0.0
  0
LINE
  5
2DD
330
18
100
AcDbEntity
  8
1
  6
Continuous
100
AcDbLine
 10
71.83017297056633
 20
198.7485470686901
 30
0.0
 11
79.54712297056636
 21
189.3662380686901
 31
0.0
  0
LINE
  5
2DE
330
18
100
AcDbEntity
  8
1
  6
Continuous
100
AcDbLine
 10
71.83017297056633
 20
197.3743220686901
 30
0.0
 11
71.20517297056633
 21
196.7493220686901
 31
0.0
  0
LINE
  5
2DF
330
18
100
AcDbEntity
  8
1
  6
Continuous
100
AcDbLine
 10
71.20517697056634
 20
204.7493180686903
 30
0.0
 11
71.83017297056633
 21
204.1243220686901
 31
0.0
  0
ARC
  5
2E0
330
18
100
AcDbEntity
  8
1
  6
Continuous
100
AcDbCircle
 10
65.65028697056636
 20
223.3547600686901
 30
0.0
 40
12.743032
100
AcDbArc
 50
42.5315440000002
 51
135.6127399999998
  0
ARC
  5
2E1
330
18
100
AcDbEntity
  8
1
  6
Continuous
100
AcDbCircle
 10
65.78098697056635
 20
222.08471206869
 30
0.0
 40
12.437059
100
AcDbArc
 50
40.87401400000032
 51
134.7867500000002
  0
LINE
  5
2E2
330
18
100
AcDbEntity
  8
1
  6
Continuous
100
AcDbLine
 10
62.32952097056635
 20
242.2049354686901
 30
0.0
 11
62.46330597056633
 21
235.6928314686901
 31
0.0
  0
ARC
  5
2E3
330
18
100
AcDbEntity
  8
1
  6
Continuous
100
AcDbCircle
 10
52.33168397056648
 20
236.92965026869
 30
0.0
 40
3.5
100
AcDbArc
 50
358.30808
 51
93.57600300000028
  0
LINE
  5
2E4
330
18
100
AcDbEntity
  8
1
  6
Continuous
100
AcDbLine
 10
53.92562497056636
 20
221.5928790686902
 30
0.0
 11
55.83015797056635
 21
221.5928790686902
 31
0.0
  0
LINE
  5
2E5
330
18
100
AcDbEntity
  8
1
  6
Continuous
100
AcDbLine
 10
53.22562797056637
 20
223.1689000686903
 30
0.0
 11
55.83015797056635
 21
223.1689000686903
 31
0.0
  0
LINE
  5
2E6
330
18
100
AcDbEntity
  8
1
  6
Continuous
100
AcDbLine
 10
53.83015797056635
 20
236.9638756686901
 30
0.0
 11
53.83015797056635
 21
223.1689000686903
 31
0.0
  0
ARC
  5
2E8
330
18
100
AcDbEntity
  8
1
  6
Continuous
100
AcDbCircle
 10
53.22562797056637
 20
222.1689000686903
 30
0.0
 40
1.0
100
AcDbArc
 50
90.00000300000015
 51
142.6995499999998
  0
ARC
  5
2E9
330
18
100
AcDbEntity
  8
1
  6
Continuous
100
AcDbCircle
 10
53.92562497056636
 20
220.5928770686901
 30
0.0
 40
1.0
100
AcDbArc
 50
90.00000300000015
 51
142.6995499999998
  0
LINE
  5
2EA
330
18
100
AcDbEntity
  8
1
  6
Continuous
100
AcDbLine
 10
52.43015597056646
 20
222.7748970686902
 30
0.0
 11
53.13016097056635
 21
221.1988760686902
 31
0.0
  0
ARC
  5
2EB
330
18
100
AcDbEntity
  8
1
  6
Continuous
100
AcDbCircle
 10
52.33015797056633
 20
236.9638756686901
 30
0.0
 40
1.5
100
AcDbArc
 50
0.0
 51
93.60669799999985
  0
ARC
  5
2EC
330
18
100
AcDbEntity
  8
1
  6
Continuous
100
AcDbCircle
 10
58.33015797056635
 20
230.5199710686901
 30
0.0
 40
2.5
100
AcDbArc
 50
135.6127399999998
 51
180.0000100000002
  0
ARC
  5
2ED
330
18
100
AcDbEntity
  8
1
  6
Continuous
100
AcDbCircle
 10
57.33015797056633
 20
230.5199710686901
 30
0.0
 40
0.5
100
AcDbArc
 50
128.4196699999996
 51
250.52877
  0
ARC
  5
2EE
330
18
100
AcDbEntity
  8
1
  6
Continuous
100
AcDbCircle
 10
56.83015797056635
 20
229.1057560686902
 30
0.0
 40
1.0
100
AcDbArc
 50
0.0
 51
70.52877900000016
  0
ARC
  5
2EF
330
18
100
AcDbEntity
  8
1
  6
Continuous
100
AcDbCircle
 10
43.23015997056637
 20
247.0213174686902
 30
0.0
 40
2.778000099999998
100
AcDbArc
 50
193.60946
 51
222.5338800000002
  0
ARC
  5
2F0
330
18
100
AcDbEntity
  8
1
  6
Continuous
100
AcDbCircle
 10
47.73015997056639
 20
247.0213174686902
 30
0.0
 40
2.778000099999998
100
AcDbArc
 50
215.9104000000004
 51
222.5338800000002
  0
ARC
  5
2F1
330
18
100
AcDbEntity
  8
1
  6
Continuous
100
AcDbCircle
 10
43.23015997056637
 20
247.0213174686902
 30
0.0
 40
2.778000099999998
100
AcDbArc
 50
317.4661199999996
 51
350.21762
  0
ARC
  5
2F2
330
18
100
AcDbEntity
  8
1
  6
Continuous
100
AcDbCircle
 10
47.73015997056639
 20
247.0213174686902
 30
0.0
 40
2.778000099999998
100
AcDbArc
 50
317.4661199999996
 51
350.21762
  0
ARC
  5
2F3
330
18
100
AcDbEntity
  8
1
  6
Continuous
100
AcDbCircle
 10
51.23015997056636
 20
247.0213174686902
 30
0.0
 40
2.778000099999998
100
AcDbArc
 50
317.4661199999996
 51
350.21762
  0
LINE
  5
2F4
330
18
100
AcDbEntity
  8
1
  6
Continuous
100
AcDbLine
 10
66.83015797056635
 20
253.2493180686901
 30
0.0
 11
66.83015797056635
 21
251.2493180686901
 31
0.0
  0
LINE
  5
2F5
330
18
100
AcDbEntity
  8
4
  6
CENTER
 48
0.5
100
AcDbLine
 10
58.83015797056635
 20
258.2493180686901
 30
0.0
 11
58.83015797056635
 21
246.2493180686901
 31
0.0
  0
LINE
  5
2F6
330
18
100
AcDbEntity
  8
1
  6
Continuous
100
AcDbLine
 10
64.57311997056638
 20
250.5677651686903
 30
0.0
 11
62.84422697056633
 21
247.9124101686901
 31
0.0
  0
ARC
  5
2F7
330
18
100
AcDbEntity
  8
1
  6
Continuous
100
AcDbCircle
 10
58.17724997056639
 20
250.2493170686901
 30
0.0
 40
3.0
100
AcDbArc
 50
270.0
 51
345.18761
  0
ARC
  5
2F8
330
18
100
AcDbEntity
  8
1
  6
Continuous
100
AcDbCircle
 10
60.33015797056634
 20
249.5493172686902
 30
0.0
 40
3.0
100
AcDbArc
 50
269.9999799999996
 51
326.9318999999998
  0
ARC
  5
2F9
330
18
100
AcDbEntity
  8
1
  6
Continuous
100
AcDbCircle
 10
58.17724997056639
 20
247.7493170686901
 30
0.0
 40
0.5
100
AcDbArc
 50
187.6046899999998
 51
270.0
  0
ARC
  5
2FA
330
18
100
AcDbEntity
  8
1
  6
Continuous
100
AcDbCircle
 10
59.33015797056635
 20
242.1433171686901
 30
0.0
 40
3.0
100
AcDbArc
 50
1.176911000000137
 51
90.00000300000015
  0
ARC
  5
2FB
330
18
100
AcDbEntity
  8
1
  6
Continuous
100
AcDbCircle
 10
53.73015997056636
 20
247.0213174686902
 30
0.0
 40
2.778000099999998
100
AcDbArc
 50
317.4661199999996
 51
350.21762
  0
ARC
  5
2FC
330
18
100
AcDbEntity
  8
1
  6
Continuous
100
AcDbCircle
 10
55.23015997056639
 20
247.0213174686902
 30
0.0
 40
2.778000099999998
100
AcDbArc
 50
317.4661199999996
 51
350.21762
  0
LINE
  5
2FD
330
18
100
AcDbEntity
  8
1
  6
Continuous
100
AcDbLine
 10
57.68163997056639
 20
247.6831473686903
 30
0.0
 11
57.32135697056637
 21
250.3816546686902
 31
0.0
  0
ARC
  5
2FE
330
18
100
AcDbEntity
  8
1
  6
Continuous
100
AcDbCircle
 10
56.33015797056635
 20
250.2493180686901
 30
0.0
 40
1.0
100
AcDbArc
 50
7.604693300000017
 51
89.99999600000005
  0
ARC
  5
2FF
330
18
100
AcDbEntity
  8
1
  6
Continuous
100
AcDbCircle
 10
62.31474697056636
 20
250.2493180686901
 30
0.0
 40
1.0
100
AcDbArc
 50
89.99999600000005
 51
165.18761
  0
LINE
  5
300
330
18
100
AcDbEntity
  8
1
  6
Continuous
100
AcDbLine
 10
61.34797997056637
 20
250.5049723686901
 30
0.0
 11
61.07755597056637
 21
249.48235316869
 31
0.0
  0
ARC
  5
301
330
18
100
AcDbEntity
  8
1
  6
Continuous
100
AcDbCircle
 10
65.83015797056635
 20
249.7493180686902
 30
0.0
 40
1.5
100
AcDbArc
 50
89.99994800000029
 51
146.9319899999999
  0
ARC
  5
302
330
18
100
AcDbEntity
  8
1
  6
Continuous
100
AcDbCircle
 10
72.83015797056633
 20
229.9411780686903
 30
0.0
 40
3.0
100
AcDbArc
 50
0.0
 51
42.5315440000002
  0
LINE
  5
303
330
18
100
AcDbEntity
  8
1
  6
Continuous
100
AcDbLine
 10
75.83015797056633
 20
229.9411780686903
 30
0.0
 11
75.83015797056633
 21
228.3651550686901
 31
0.0
  0
ARC
  5
304
330
18
100
AcDbEntity
  8
1
  6
Continuous
100
AcDbCircle
 10
72.83015797056633
 20
228.3651550686901
 30
0.0
 40
3.0
100
AcDbArc
 50
328.27457
 51
45.12296899999999
  0
ARC
  5
305
330
18
100
AcDbEntity
  8
1
  6
Continuous
100
AcDbCircle
 10
155.8824928556685
 20
226.4890760686902
 30
0.0
 40
10.0
100
AcDbArc
 50
156.2285699999999
 51
216.9701099999997
  0
ARC
  5
306
330
18
100
AcDbEntity
  8
5
  6
PHANTOM
 48
0.3
100
AcDbCircle
 10
142.1129768556685
 20
205.2240040686903
 30
0.0
 40
10.0
100
AcDbArc
 50
205.22857
 51
265.9701100000002
  0
LINE
  5
307
330
18
100
AcDbEntity
  8
5
  6
PHANTOM
 48
0.3
100
AcDbLine
 10
126.3046368556685
 20
201.6847010686901
 30
0.0
 11
126.6862558556685
 21
199.7214480686901
 31
0.0
  0
LINE
  5
308
330
18
100
AcDbEntity
  8
5
  6
PHANTOM
 48
0.3
100
AcDbLine
 10
147.3004238556686
 20
203.7284360686901
 30
0.0
 11
148.0636608556686
 21
199.8019260686902
 31
0.0
  0
LINE
  5
309
330
18
100
AcDbEntity
  8
1
  6
Continuous
100
AcDbLine
 10
142.8401388556686
 20
236.0977901686901
 30
0.0
 11
141.6088148556686
 21
234.5217684686902
 31
0.0
  0
ARC
  5
30B
330
18
100
AcDbEntity
  8
1
  6
Continuous
100
AcDbCircle
 10
152.358852691734
 20
326.0517970216186
 30
0.0
 40
9.528561970159287
100
AcDbArc
 50
126.202566828277
 51
257.7691049925288
  0
ARC
  5
30C
330
18
100
AcDbEntity
  8
1
  6
Continuous
100
AcDbCircle
 10
150.6842847497775
 20
325.7471201630065
 30
0.0
 40
9.014173069428037
100
AcDbArc
 50
119.5928701739876
 51
267.8124623072214
  0
ARC
  5
30D
330
18
100
AcDbEntity
  8
5
  6
PHANTOM
 48
0.3
100
AcDbCircle
 10
135.824245566492
 20
326.0517970216184
 30
0.0
 40
9.528561970159287
100
AcDbArc
 50
126.202566828277
 51
257.7691049925288
  0
ARC
  5
30E
330
18
100
AcDbEntity
  8
1
  6
Continuous
100
AcDbCircle
 10
145.5157621492426
 20
335.0258754680794
 30
0.0
 40
1.768660241795906
100
AcDbArc
 50
313.3954974089121
 51
75.8292574950908
  0
LINE
  5
30F
330
18
100
AcDbEntity
  8
1
  6
Continuous
100
AcDbLine
 10
145.9487519605144
 20
336.7407162403508
 30
0.0
 11
145.9487519605144
 21
334.7407162403508
 31
0.0
  0
ARC
  5
310
330
18
100
AcDbEntity
  8
1
  6
Continuous
100
AcDbCircle
 10
145.5151941887459
 20
333.8318697082854
 30
0.0
 40
1.00696293889502
100
AcDbArc
 50
21.81104042281481
 51
64.49690765721893
  0
ARC
  5
311
330
18
100
AcDbEntity
  8
1
  6
Continuous
100
AcDbCircle
 10
145.9858658055056
 20
334.0202301356312
 30
0.0
 40
0.5
100
AcDbArc
 50
299.5928701739869
 51
21.81104042281532
  0
LINE
  5
315
330
18
100
AcDbEntity
  8
4
  6
CENTER
 48
0.5
100
AcDbLine
 10
172.3287058556684
 20
241.6493071686901
 30
0.0
 11
172.3287058556684
 21
163.2493180686901
 31
0.0
  0
ARC
  5
316
330
18
100
AcDbEntity
  8
1
  6
Continuous
100
AcDbCircle
 10
218.9012358556686
 20
228.2885450686901
 30
0.0
 40
7.0
100
AcDbArc
 50
94.4897930000004
 51
140.1047200000002
  0
LINE
  5
317
330
18
100
AcDbEntity
  8
1
  6
Continuous
100
AcDbLine
 10
222.8287058556686
 20
245.1433171686901
 30
0.0
 11
201.3287058556684
 21
245.1433171686901
 31
0.0
  0
LINE
  5
318
330
18
100
AcDbEntity
  8
1
  6
Continuous
100
AcDbLine
 10
236.3287058556685
 20
253.2493180686901
 30
0.0
 11
201.3287058556684
 21
253.2493180686901
 31
0.0
  0
LINE
  5
319
330
18
100
AcDbEntity
  8
1
  6
Continuous
100
AcDbLine
 10
236.3287058556685
 20
251.2493180686901
 30
0.0
 11
201.3287058556684
 21
251.2493180686901
 31
0.0
  0
LINE
  5
31A
330
18
100
AcDbEntity
  8
1
  6
Continuous
100
AcDbLine
 10
223.8287058556684
 20
246.5493172686901
 30
0.0
 11
201.3287058556684
 21
246.5493172686901
 31
0.0
  0
LINE
  5
31B
330
18
100
AcDbEntity
  8
4
  6
CENTER
 48
0.5
100
AcDbLine
 10
201.3287058556686
 20
258.2493180686901
 30
0.0
 11
201.3287058556684
 21
210.9826400686901
 31
0.0
  0
LINE
  5
31C
330
18
100
AcDbEntity
  8
1
  6
Continuous
100
AcDbLine
 10
158.1570408556685
 20
221.5928750686902
 30
0.0
 11
155.6943978556685
 21
218.4408330686901
 31
0.0
  0
LINE
  5
31D
330
18
100
AcDbEntity
  8
1
  6
Continuous
100
AcDbLine
 10
184.8287058556684
 20
242.4073609786901
 30
0.0
 11
184.8287058556684
 21
208.8825230686902
 31
0.0
  0
LINE
  5
31E
330
18
100
AcDbEntity
  8
1
  6
Continuous
100
AcDbLine
 10
164.2148978556685
 20
219.3979960686902
 30
0.0
 11
166.9896518556685
 21
236.5801333686901
 31
0.0
  0
LINE
  5
31F
330
18
100
AcDbEntity
  8
1
  6
Continuous
100
AcDbLine
 10
188.1810468556686
 20
202.4553350686903
 30
0.0
 11
213.5307058556686
 21
232.7782480686901
 31
0.0
  0
ARC
  5
320
330
18
100
AcDbEntity
  8
5
  6
PHANTOM
 48
0.3
100
AcDbCircle
 10
184.1081018556685
 20
216.9954190686901
 30
0.0
 40
4.0
100
AcDbArc
 50
243.3415399999999
 51
280.9999999999998
  0
ARC
  5
321
330
18
100
AcDbEntity
  8
5
  6
PHANTOM
 48
0.3
100
AcDbCircle
 10
184.1081018556685
 20
216.9954190686901
 30
0.0
 40
6.0
100
AcDbArc
 50
243.3415399999999
 51
280.9999999999998
  0
LINE
  5
322
330
18
100
AcDbEntity
  8
5
  6
PHANTOM
 48
0.3
100
AcDbLine
 10
183.4348838556684
 20
205.4549340686901
 30
0.0
 11
169.7093168556684
 21
213.1767300686902
 31
0.0
  0
ARC
  5
323
330
18
100
AcDbEntity
  8
1
  6
Continuous
100
AcDbCircle
 10
191.0514768556684
 20
205.5061960686901
 30
0.0
 40
25.0
100
AcDbArc
 50
234.5441200000003
 51
276.0268299999996
  0
LINE
  5
324
330
18
100
AcDbEntity
  8
1
  6
Continuous
100
AcDbLine
 10
183.1663828556684
 20
195.4545370686901
 30
0.0
 11
192.9281398556685
 21
193.4800270686901
 31
0.0
  0
ARC
  5
325
330
18
100
AcDbEntity
  8
5
  6
PHANTOM
 48
0.3
100
AcDbCircle
 10
169.6573798556684
 20
214.4920970686901
 30
0.0
 40
27.0
100
AcDbArc
 50
245.5690499999998
 51
309.6245500000001
  0
ARC
  5
326
330
18
100
AcDbEntity
  8
1
  6
Continuous
100
AcDbCircle
 10
169.0656978556685
 20
196.5728620686902
 30
0.0
 40
18.0
100
AcDbArc
 50
14.34153900000016
 51
89.65845900000015
  0
ARC
  5
327
330
18
100
AcDbEntity
  8
1
  6
Continuous
100
AcDbCircle
 10
169.0656978556685
 20
196.5728620686902
 30
0.0
 40
20.0
100
AcDbArc
 50
14.34153900000016
 51
89.65845900000015
  0
ARC
  5
328
330
18
100
AcDbEntity
  8
1
  6
Continuous
100
AcDbCircle
 10
178.3042838556684
 20
197.2993170686901
 30
0.0
 40
3.099999899999998
100
AcDbArc
 50
260.5687727258139
 51
39.43123542709386
  0
LINE
  5
329
330
18
100
AcDbEntity
  8
1
  6
Continuous
100
AcDbLine
 10
183.1663908556684
 20
195.4545410686901
 30
0.0
 11
179.9893198556685
 21
210.8793150686901
 31
0.0
  0
ARC
  5
32B
330
18
100
AcDbEntity
  8
5
  6
PHANTOM
 48
0.3
100
AcDbCircle
 10
165.8046238556685
 20
198.5028960686901
 30
0.0
 40
3.099999899999998
100
AcDbArc
 50
129.5687414220707
 51
268.43126511077
  0
ARC
  5
32E
330
18
100
AcDbEntity
  8
1
  6
Continuous
100
AcDbCircle
 10
180.9479688556684
 20
211.7814680686901
 30
0.0
 40
27.0
100
AcDbArc
 50
196.56905
 51
260.6245499999999
  0
CIRCLE
  5
330
330
18
100
AcDbEntity
  8
2
  6
Continuous
100
AcDbCircle
 10
172.3287058556684
 20
200.7493180686901
 30
0.0
 40
3.4000001
  0
CIRCLE
  5
332
330
18
100
AcDbEntity
  8
1
  6
Continuous
100
AcDbCircle
 10
172.3287058556684
 20
200.7493180686901
 30
0.0
 40
4.0
  0
LINE
  5
333
330
18
100
AcDbEntity
  8
1
  6
Continuous
100
AcDbLine
 10
183.1663828556684
 20
195.4545410686901
 30
0.0
 11
175.2951668556685
 21
185.3798450686903
 31
0.0
  0
ARC
  5
335
330
18
100
AcDbEntity
  8
1
  6
Continuous
100
AcDbCircle
 10
169.2087638556685
 20
220.5724340686902
 30
0.0
 40
4.0
100
AcDbArc
 50
232.0000000000004
 51
269.6584599999997
  0
ARC
  5
336
330
18
100
AcDbEntity
  8
1
  6
Continuous
100
AcDbCircle
 10
169.2087638556685
 20
220.5724340686902
 30
0.0
 40
6.0
100
AcDbArc
 50
232.0000000000004
 51
269.6584599999997
  0
ARC
  5
338
330
18
100
AcDbEntity
  8
5
  6
PHANTOM
 48
0.3
100
AcDbCircle
 10
173.3399978556684
 20
195.5466930686901
 30
0.0
 40
20.0
100
AcDbArc
 50
63.34154200000019
 51
138.6584699999995
  0
ARC
  5
339
330
18
100
AcDbEntity
  8
5
  6
PHANTOM
 48
0.3
100
AcDbCircle
 10
173.3399978556684
 20
195.5466930686901
 30
0.0
 40
18.0
100
AcDbArc
 50
63.34154200000019
 51
138.6584699999995
  0
ARC
  5
33A
330
18
100
AcDbEntity
  8
5
  6
PHANTOM
 48
0.3
100
AcDbCircle
 10
155.3211408556685
 20
211.3998040686901
 30
0.0
 40
4.0
100
AcDbArc
 50
280.9999999999998
 51
318.6584599999999
  0
ARC
  5
33B
330
18
100
AcDbEntity
  8
5
  6
PHANTOM
 48
0.3
100
AcDbCircle
 10
155.3211408556685
 20
211.3998040686901
 30
0.0
 40
6.0
100
AcDbArc
 50
280.9999999999998
 51
318.6584599999999
  0
ARC
  5
33C
330
18
100
AcDbEntity
  8
1
  6
Continuous
100
AcDbCircle
 10
166.3531278556685
 20
204.1993190686901
 30
0.0
 40
3.099999899999998
100
AcDbArc
 50
80.56877272581349
 51
219.4312354270957
  0
LINE
  5
33D
330
18
100
AcDbEntity
  8
1
  6
Continuous
100
AcDbLine
 10
161.6242878556685
 20
218.8839650686901
 30
0.0
 11
159.1616408556685
 21
215.7319230686901
 31
0.0
  0
LINE
  5
33E
330
18
100
AcDbEntity
  8
1
  6
Continuous
100
AcDbLine
 10
155.6943978556685
 20
218.4408330686901
 30
0.0
 11
159.1616408556685
 21
215.7319230686901
 31
0.0
  0
ARC
  5
340
330
18
100
AcDbEntity
  8
5
  6
PHANTOM
 48
0.3
100
AcDbCircle
 10
178.8527838556686
 20
202.9957360686903
 30
0.0
 40
3.099999899999998
100
AcDbArc
 50
309.5688370432906
 51
88.431128306312
  0
ARC
  5
342
330
18
100
AcDbEntity
  8
1
  6
Continuous
100
AcDbCircle
 10
192.3177728556684
 20
202.5176970686902
 30
0.0
 40
4.0
100
AcDbArc
 50
194.34153
 51
232.0000000000004
  0
LINE
  5
343
330
18
100
AcDbEntity
  8
5
  6
PHANTOM
 48
0.3
100
AcDbLine
 10
192.8252348556684
 20
211.6505310686902
 30
0.0
 11
195.2561428556684
 21
199.1446010686901
 31
0.0
  0
ARC
  5
344
330
18
100
AcDbEntity
  8
1
  6
Continuous
100
AcDbCircle
 10
192.3177728556684
 20
202.5176970686902
 30
0.0
 40
6.0
100
AcDbArc
 50
194.34153
 51
232.0000000000004
  0
LINE
  5
345
330
18
100
AcDbEntity
  8
5
  6
PHANTOM
 48
0.3
100
AcDbLine
 10
183.4348838556684
 20
205.4549340686901
 30
0.0
 11
185.8743758556684
 21
192.9048580686901
 31
0.0
  0
LINE
  5
347
330
18
100
AcDbEntity
  8
1
  6
Continuous
100
AcDbLine
 10
189.8551268556686
 20
199.3656550686901
 30
0.0
 11
212.9730958556684
 21
181.3039220686901
 31
0.0
  0
ARC
  5
349
330
18
100
AcDbEntity
  8
5
  6
PHANTOM
 48
0.3
100
AcDbCircle
 10
181.0218898556684
 20
218.0003630686901
 30
0.0
 40
25.0
100
AcDbArc
 50
283.5441199999996
 51
325.0268399999997
  0
LINE
  5
34A
330
18
100
AcDbEntity
  8
1
  6
Continuous
100
AcDbLine
 10
197.5525068556684
 20
184.4686710686901
 30
0.0
 11
200.5469518556684
 21
182.1291550686901
 31
0.0
  0
LINE
  5
34B
330
18
100
AcDbEntity
  8
1
  6
Continuous
100
AcDbLine
 10
200.6308148556684
 20
188.4087270686901
 30
0.0
 11
197.5525068556684
 21
184.4686710686901
 31
0.0
  0
ARC
  5
34C
330
18
100
AcDbEntity
  8
1
  6
Continuous
100
AcDbCircle
 10
198.6016248556684
 20
186.9484600686901
 30
0.0
 40
8.0
100
AcDbArc
 50
232.0000000000004
 51
318.8732200000001
  0
LINE
  5
34D
330
18
100
AcDbEntity
  8
1
  6
Continuous
100
AcDbLine
 10
188.6238028556684
 20
197.7896360686901
 30
0.0
 11
211.7417658556686
 21
179.7278980686902
 31
0.0
  0
LINE
  5
34E
330
18
100
AcDbEntity
  8
1
  6
Continuous
100
AcDbLine
 10
194.0028768556685
 20
192.4322330686903
 30
0.0
 11
186.1593558556684
 21
182.3929760686901
 31
0.0
  0
ARC
  5
34F
330
18
100
AcDbEntity
  8
1
  6
Continuous
100
AcDbCircle
 10
206.8874458556684
 20
179.7134600686901
 30
0.0
 40
3.0
100
AcDbArc
 50
52.00000299999977
 51
138.87322
  0
LINE
  5
350
330
18
100
AcDbEntity
  8
1
  6
Continuous
100
AcDbLine
 10
203.6252608556685
 20
186.0692110686903
 30
0.0
 11
200.5469518556684
 21
182.1291550686901
 31
0.0
  0
LINE
  5
351
330
18
100
AcDbEntity
  8
1
  6
Continuous
100
AcDbLine
 10
212.9730958556684
 20
181.3039220686901
 30
0.0
 11
211.7417658556686
 21
179.7278980686902
 31
0.0
  0
LINE
  5
352
330
18
100
AcDbEntity
  8
5
  6
PHANTOM
 48
0.3
100
AcDbLine
 10
184.8713388556684
 20
213.0689150686901
 30
0.0
 11
213.6694558556686
 21
218.6667030686901
 31
0.0
  0
LINE
  5
353
330
18
100
AcDbEntity
  8
5
  6
PHANTOM
 48
0.3
100
AcDbLine
 10
185.2529538556684
 20
211.1056600686902
 30
0.0
 11
214.0510758556686
 21
216.7034480686901
 31
0.0
  0
LINE
  5
354
330
18
100
AcDbEntity
  8
5
  6
PHANTOM
 48
0.3
100
AcDbLine
 10
183.4348838556684
 20
205.4549300686903
 30
0.0
 11
191.3293538556684
 21
211.5268260686901
 31
0.0
  0
LINE
  5
355
330
18
100
AcDbEntity
  8
5
  6
PHANTOM
 48
0.3
100
AcDbLine
 10
203.9403158556685
 20
214.7381140686901
 30
0.0
 11
204.8943568556684
 21
209.8299800686902
 31
0.0
  0
LINE
  5
356
330
18
100
AcDbEntity
  8
5
  6
PHANTOM
 48
0.3
100
AcDbLine
 10
200.2101378556684
 20
214.0130410686901
 30
0.0
 11
201.1641778556684
 21
209.1049050686901
 31
0.0
  0
ARC
  5
357
330
18
100
AcDbEntity
  8
5
  6
PHANTOM
 48
0.3
100
AcDbCircle
 10
199.9809278556684
 20
211.5235640686901
 30
0.0
 40
8.0
100
AcDbArc
 50
280.9999999999998
 51
7.873223900000185
  0
LINE
  5
358
330
18
100
AcDbEntity
  8
5
  6
PHANTOM
 48
0.3
100
AcDbLine
 10
201.1641778556684
 20
209.1049050686901
 30
0.0
 11
204.8943568556684
 21
209.8299800686902
 31
0.0
  0
ARC
  5
359
330
18
100
AcDbEntity
  8
5
  6
PHANTOM
 48
0.3
100
AcDbCircle
 10
210.8772458556686
 20
213.0303620686901
 30
0.0
 40
3.0
100
AcDbArc
 50
100.9999999999997
 51
187.8732299999999
  0
LINE
  5
35A
330
18
100
AcDbEntity
  8
5
  6
PHANTOM
 48
0.3
100
AcDbLine
 10
213.6694558556686
 20
218.6667030686901
 30
0.0
 11
214.0510758556686
 21
216.7034480686901
 31
0.0
  0
ARC
  5
35B
330
18
100
AcDbEntity
  8
1
  6
Continuous
100
AcDbCircle
 10
185.4287038556686
 20
247.0213174686902
 30
0.0
 40
2.778000099999998
100
AcDbArc
 50
189.7823799999999
 51
222.5338800000002
  0
LINE
  5
35C
330
18
100
AcDbEntity
  8
1
  6
Continuous
100
AcDbLine
 10
179.8287058556685
 20
245.1433171686901
 30
0.0
 11
201.3287058556684
 21
245.1433171686901
 31
0.0
  0
LINE
  5
35D
330
18
100
AcDbEntity
  8
1
  6
Continuous
100
AcDbLine
 10
178.8287058556685
 20
246.5493172686901
 30
0.0
 11
201.3287058556684
 21
246.5493172686901
 31
0.0
  0
LINE
  5
35E
330
18
100
AcDbEntity
  8
1
  6
Continuous
100
AcDbLine
 10
166.3287058556685
 20
251.2493180686901
 30
0.0
 11
201.3287058556684
 21
251.2493180686901
 31
0.0
  0
LINE
  5
35F
330
18
100
AcDbEntity
  8
1
  6
Continuous
100
AcDbLine
 10
166.3287058556685
 20
253.2493180686901
 30
0.0
 11
201.3287058556684
 21
253.2493180686901
 31
0.0
  0
ARC
  5
360
330
18
100
AcDbEntity
  8
1
  6
Continuous
100
AcDbCircle
 10
176.4215248556684
 20
242.1232489686901
 30
0.0
 40
0.5
100
AcDbArc
 50
280.0
 51
349.1141499999995
  0
ARC
  5
361
330
18
100
AcDbEntity
  8
1
  6
Continuous
100
AcDbCircle
 10
176.4215248556684
 20
242.1232489686901
 30
0.0
 40
0.5
100
AcDbArc
 50
280.0
 51
349.1141499999995
  0
LINE
  5
362
330
18
100
AcDbEntity
  8
1
  6
Continuous
100
AcDbLine
 10
163.8287058556685
 20
239.3950821686903
 30
0.0
 11
181.9650428556686
 21
242.5930078086901
 31
0.0
  0
ARC
  5
365
330
18
100
AcDbEntity
  8
1
  6
Continuous
100
AcDbCircle
 10
164.5216298556684
 20
236.9786957686901
 30
0.0
 40
2.5
100
AcDbArc
 50
350.8264599999997
 51
100.0000000000001
  0
LINE
  5
366
330
18
100
AcDbEntity
  8
1
  6
Continuous
100
AcDbLine
 10
163.8287058556685
 20
239.3950821686903
 30
0.0
 11
164.1760038556685
 21
237.4254678686903
 31
0.0
  0
ARC
  5
367
330
18
100
AcDbEntity
  8
1
  6
Continuous
100
AcDbCircle
 10
166.0012028556685
 20
236.7318715686902
 30
0.0
 40
1.0
100
AcDbArc
 50
0.0
 51
100.0000000000001
  0
LINE
  5
368
330
18
100
AcDbEntity
  8
1
  6
Continuous
100
AcDbLine
 10
164.1760038556685
 20
237.4254678686903
 30
0.0
 11
165.8275538556685
 21
237.7166804686903
 31
0.0
  0
LINE
  5
369
330
18
100
AcDbEntity
  8
1
  6
Continuous
100
AcDbLine
 10
166.3287058556685
 20
251.2493180686901
 30
0.0
 11
166.3287058556685
 21
253.2493180686901
 31
0.0
  0
LINE
  5
36A
330
18
100
AcDbEntity
  8
4
  6
CENTER
 48
0.5
100
AcDbLine
 10
173.8287058556686
 20
258.2493180686901
 30
0.0
 11
173.8287058556684
 21
246.2493180686901
 31
0.0
  0
LINE
  5
36B
330
18
100
AcDbEntity
  8
1
  6
Continuous
100
AcDbLine
 10
176.3146368556684
 20
247.9124111686902
 30
0.0
 11
174.5857398556684
 21
250.56776806869
 31
0.0
  0
ARC
  5
36C
330
18
100
AcDbEntity
  8
1
  6
Continuous
100
AcDbCircle
 10
173.3287058556684
 20
249.7493180686902
 30
0.0
 40
1.5
100
AcDbArc
 50
33.06801899999995
 51
90.00000300000015
  0
ARC
  5
36D
330
18
100
AcDbEntity
  8
1
  6
Continuous
100
AcDbCircle
 10
180.9816138556684
 20
247.7493170686901
 30
0.0
 40
0.5
100
AcDbArc
 50
270.0
 51
352.3953099999997
  0
ARC
  5
36E
330
18
100
AcDbEntity
  8
1
  6
Continuous
100
AcDbCircle
 10
180.9816138556684
 20
250.2493170686901
 30
0.0
 40
3.0
100
AcDbArc
 50
194.8123899999999
 51
270.0
  0
ARC
  5
36F
330
18
100
AcDbEntity
  8
1
  6
Continuous
100
AcDbCircle
 10
178.8287058556685
 20
249.5493172686902
 30
0.0
 40
3.0
100
AcDbArc
 50
213.0681
 51
269.9999599999999
  0
ARC
  5
370
330
18
100
AcDbEntity
  8
1
  6
Continuous
100
AcDbCircle
 10
180.8405468556686
 20
241.2734097686902
 30
0.0
 40
4.0
100
AcDbArc
 50
104.65275
 51
169.11415
  0
ARC
  5
371
330
18
100
AcDbEntity
  8
1
  6
Continuous
100
AcDbCircle
 10
183.9287038556684
 20
247.0213174686902
 30
0.0
 40
2.778000099999998
100
AcDbArc
 50
189.7823799999999
 51
222.5338800000002
  0
LINE
  5
372
330
18
100
AcDbEntity
  8
1
  6
Continuous
100
AcDbLine
 10
177.8108908556685
 20
250.5049733686901
 30
0.0
 11
178.0813148556684
 21
249.48235366869
 31
0.0
  0
ARC
  5
373
330
18
100
AcDbEntity
  8
1
  6
Continuous
100
AcDbCircle
 10
176.8441168556685
 20
250.2493180686901
 30
0.0
 40
1.0
100
AcDbArc
 50
14.812389
 51
90.00000300000015
  0
LINE
  5
374
330
18
100
AcDbEntity
  8
1
  6
Continuous
100
AcDbLine
 10
181.4772198556685
 20
247.68314876869
 30
0.0
 11
181.8375028556685
 21
250.3816551686901
 31
0.0
  0
ARC
  5
375
330
18
100
AcDbEntity
  8
1
  6
Continuous
100
AcDbCircle
 10
182.8287058556684
 20
250.2493180686901
 30
0.0
 40
1.0
100
AcDbArc
 50
90.00000300000015
 51
172.3953100000001
  0
ARC
  5
376
330
18
100
AcDbEntity
  8
1
  6
Continuous
100
AcDbCircle
 10
201.3287058556684
 20
247.0213174686902
 30
0.0
 40
2.778000099999998
100
AcDbArc
 50
189.7823799999999
 51
222.5338800000002
  0
ARC
  5
377
330
18
100
AcDbEntity
  8
1
  6
Continuous
100
AcDbCircle
 10
195.9287038556686
 20
247.0213174686902
 30
0.0
 40
2.778000099999998
100
AcDbArc
 50
317.4661199999996
 51
346.3905399999999
  0
ARC
  5
378
330
18
100
AcDbEntity
  8
1
  6
Continuous
100
AcDbCircle
 10
187.9287038556686
 20
247.0213174686902
 30
0.0
 40
2.778000099999998
100
AcDbArc
 50
189.7823799999999
 51
222.5338800000002
  0
ARC
  5
379
330
18
100
AcDbEntity
  8
1
  6
Continuous
100
AcDbCircle
 10
191.4287038556686
 20
247.0213174686902
 30
0.0
 40
2.778000099999998
100
AcDbArc
 50
189.7823799999999
 51
222.5338800000002
  0
ARC
  5
37A
330
18
100
AcDbEntity
  8
1
  6
Continuous
100
AcDbCircle
 10
195.9287038556686
 20
247.0213174686902
 30
0.0
 40
2.778000099999998
100
AcDbArc
 50
189.7823799999999
 51
222.5338800000002
  0
ARC
  5
37B
330
18
100
AcDbEntity
  8
1
  6
Continuous
100
AcDbCircle
 10
191.4287038556686
 20
247.0213174686902
 30
0.0
 40
2.778000099999998
100
AcDbArc
 50
317.4661199999996
 51
324.0896000000003
  0
ARC
  5
37C
330
18
100
AcDbEntity
  8
1
  6
Continuous
100
AcDbCircle
 10
201.3287058556684
 20
247.0213174686902
 30
0.0
 40
2.778000099999998
100
AcDbArc
 50
317.4661199999996
 51
350.21762
  0
ARC
  5
37D
330
18
100
AcDbEntity
  8
1
  6
Continuous
100
AcDbCircle
 10
206.7287058556685
 20
247.0213174686902
 30
0.0
 40
2.778000099999998
100
AcDbArc
 50
193.60946
 51
222.5338800000002
  0
ARC
  5
37E
330
18
100
AcDbEntity
  8
1
  6
Continuous
100
AcDbCircle
 10
206.7287058556685
 20
247.0213174686902
 30
0.0
 40
2.778000099999998
100
AcDbArc
 50
317.4661199999996
 51
350.21762
  0
ARC
  5
37F
330
18
100
AcDbEntity
  8
1
  6
Continuous
100
AcDbCircle
 10
211.2287058556685
 20
247.0213174686902
 30
0.0
 40
2.778000099999998
100
AcDbArc
 50
215.9104000000004
 51
222.5338800000002
  0
ARC
  5
380
330
18
100
AcDbEntity
  8
1
  6
Continuous
100
AcDbCircle
 10
211.2287058556685
 20
247.0213174686902
 30
0.0
 40
2.778000099999998
100
AcDbArc
 50
317.4661199999996
 51
350.21762
  0
LINE
  5
381
330
18
100
AcDbEntity
  8
1
  6
Continuous
100
AcDbLine
 10
226.3286958556685
 20
235.8933161686902
 30
0.0
 11
225.8194858556686
 21
242.3781614986903
 31
0.0
  0
LINE
  5
382
330
18
100
AcDbEntity
  8
1
  6
Continuous
100
AcDbLine
 10
218.3532558556686
 20
235.2670644686903
 30
0.0
 11
226.3286958556685
 21
235.8933161686902
 31
0.0
  0
LINE
  5
383
330
18
100
AcDbEntity
  8
4
  6
CENTER
 48
0.5
100
AcDbLine
 10
228.8286958556685
 20
258.2493180686901
 30
0.0
 11
228.8286958556685
 21
246.2493180686901
 31
0.0
  0
ARC
  5
384
330
18
100
AcDbEntity
  8
1
  6
Continuous
100
AcDbCircle
 10
221.6757958556686
 20
250.2493170686901
 30
0.0
 40
3.0
100
AcDbArc
 50
270.0
 51
345.18761
  0
ARC
  5
385
330
18
100
AcDbEntity
  8
1
  6
Continuous
100
AcDbCircle
 10
221.6757958556686
 20
247.7493170686901
 30
0.0
 40
0.5
100
AcDbArc
 50
187.6046899999998
 51
270.0
  0
ARC
  5
386
330
18
100
AcDbEntity
  8
1
  6
Continuous
100
AcDbCircle
 10
214.7287058556686
 20
247.0213174686902
 30
0.0
 40
2.778000099999998
100
AcDbArc
 50
317.4661199999996
 51
350.21762
  0
ARC
  5
387
330
18
100
AcDbEntity
  8
1
  6
Continuous
100
AcDbCircle
 10
217.2287058556686
 20
247.0213174686902
 30
0.0
 40
2.778000099999998
100
AcDbArc
 50
317.4661199999996
 51
350.21762
  0
ARC
  5
388
330
18
100
AcDbEntity
  8
1
  6
Continuous
100
AcDbCircle
 10
218.7287058556686
 20
247.0213174686902
 30
0.0
 40
2.778000099999998
100
AcDbArc
 50
317.4661199999996
 51
350.21762
  0
LINE
  5
389
330
18
100
AcDbEntity
  8
1
  6
Continuous
100
AcDbLine
 10
221.1801958556686
 20
247.68314876869
 30
0.0
 11
220.8199158556686
 21
250.3816560686901
 31
0.0
  0
ARC
  5
38A
330
18
100
AcDbEntity
  8
1
  6
Continuous
100
AcDbCircle
 10
219.8287058556686
 20
250.2493180686901
 30
0.0
 40
1.0
100
AcDbArc
 50
7.604693300000017
 51
89.99999600000005
  0
ARC
  5
38B
330
18
100
AcDbEntity
  8
1
  6
Continuous
100
AcDbCircle
 10
223.8287058556684
 20
249.5493172686902
 30
0.0
 40
3.0
100
AcDbArc
 50
269.9999799999996
 51
326.9318999999998
  0
ARC
  5
38C
330
18
100
AcDbEntity
  8
1
  6
Continuous
100
AcDbCircle
 10
222.8287058556686
 20
242.1433171686901
 30
0.0
 40
3.0
100
AcDbArc
 50
4.489795000000173
 51
90.00000300000015
  0
ARC
  5
38D
330
18
100
AcDbEntity
  8
1
  6
Continuous
100
AcDbCircle
 10
225.8132958556685
 20
250.2493180686901
 30
0.0
 40
1.0
100
AcDbArc
 50
89.99999600000005
 51
165.18761
  0
LINE
  5
38E
330
18
100
AcDbEntity
  8
1
  6
Continuous
100
AcDbLine
 10
224.8465158556685
 20
250.5049738686901
 30
0.0
 11
224.5760958556686
 21
249.4823555686902
 31
0.0
  0
ARC
  5
38F
330
18
100
AcDbEntity
  8
1
  6
Continuous
100
AcDbCircle
 10
229.3287058556686
 20
249.7493180686902
 30
0.0
 40
1.5
100
AcDbArc
 50
89.99994800000029
 51
146.9319899999999
  0
LINE
  5
390
330
18
100
AcDbEntity
  8
1
  6
Continuous
100
AcDbLine
 10
228.0716658556686
 20
250.5677646686903
 30
0.0
 11
226.3427758556685
 21
247.9124092686901
 31
0.0
  0
LINE
  5
391
330
18
100
AcDbEntity
  8
1
  6
Continuous
100
AcDbLine
 10
236.3287058556685
 20
251.2493180686901
 30
0.0
 11
236.3287058556685
 21
253.2493180686901
 31
0.0
  0
LINE
  5
392
330
18
100
AcDbEntity
  8
4
  6
CENTER
 48
0.5
100
AcDbLine
 10
172.3287058556684
 20
388.7407162403508
 30
0.0
 11
172.3287058556684
 21
317.5143452337778
 31
0.0
  0
LINE
  5
393
330
18
100
AcDbEntity
  8
4
  6
CENTER
 48
0.5
100
AcDbLine
 10
228.8286958556685
 20
324.3407161403508
 30
0.0
 11
228.8286958556685
 21
343.1407163403509
 31
0.0
  0
LINE
  5
394
330
18
100
AcDbEntity
  8
4
  6
CENTER
 48
0.5
100
AcDbLine
 10
173.8287058556686
 20
324.3407161403508
 30
0.0
 11
173.8287058556686
 21
343.1407163403509
 31
0.0
  0
CIRCLE
  5
395
330
18
100
AcDbEntity
  8
1
  6
Continuous
100
AcDbCircle
 10
201.3287058556684
 20
354.7407162403509
 30
0.0
 40
23.5
  0
CIRCLE
  5
396
330
18
100
AcDbEntity
  8
1
  6
Continuous
100
AcDbCircle
 10
201.3287058556684
 20
354.7407162403509
 30
0.0
 40
21.49999999999999
  0
ARC
  5
397
330
18
100
AcDbEntity
  8
1
  6
Continuous
100
AcDbCircle
 10
209.6814858556685
 20
354.7407162403509
 30
0.0
 40
45.852779
100
AcDbArc
 50
158.7253699999999
 51
201.2746399999999
  0
ARC
  5
398
330
18
100
AcDbEntity
  8
1
  6
Continuous
100
AcDbCircle
 10
64.87069785566854
 20
354.7407162403509
 30
0.0
 40
103.46132
100
AcDbArc
 50
348.7159299999998
 51
11.2840680000001
  0
LINE
  5
399
330
18
100
AcDbEntity
  8
4
  6
CENTER
 48
0.5
100
AcDbLine
 10
201.3287058556684
 20
388.7407162403508
 30
0.0
 11
201.3287058556684
 21
320.7407162403508
 31
0.0
  0
ARC
  5
39A
330
18
100
AcDbEntity
  8
1
  6
Continuous
100
AcDbCircle
 10
337.7866958556686
 20
354.7407162403509
 30
0.0
 40
103.46132
100
AcDbArc
 50
168.71589
 51
191.2840400000001
  0
ARC
  5
39B
330
18
100
AcDbEntity
  8
1
  6
Continuous
100
AcDbCircle
 10
200.2398511796388
 20
323.7677022684521
 30
0.0
 40
12.98156091158014
100
AcDbArc
 50
301.7134573937847
 51
8.742028845065167
  0
LINE
  5
39C
330
18
100
AcDbEntity
  8
1
  6
Continuous
100
AcDbLine
 10
175.3286978556686
 20
325.7407162403509
 30
0.0
 11
227.3286958556686
 21
325.7407162403509
 31
0.0
  0
ARC
  5
39D
330
18
100
AcDbEntity
  8
1
  6
Continuous
100
AcDbCircle
 10
176.9335478038081
 20
307.7155866720163
 30
0.0
 40
18.70551547513595
100
AcDbArc
 50
46.30734432166614
 51
74.49914283296846
  0
ARC
  5
39E
330
18
100
AcDbEntity
  8
1
  6
Continuous
100
AcDbCircle
 10
169.2238023257503
 20
298.4656216164763
 30
0.0
 40
29.73302351983562
100
AcDbArc
 50
47.68979391933281
 51
66.53930032093803
  0
LINE
  5
39F
330
18
100
AcDbEntity
  8
4
  6
CENTER
 48
0.5
100
AcDbLine
 10
183.2287059556684
 20
333.7407162403508
 30
0.0
 11
164.4287057556685
 21
333.7407162403508
 31
0.0
  0
LINE
  5
3A0
330
18
100
AcDbEntity
  8
2
  6
Continuous
100
AcDbLine
 10
175.7037058556685
 20
324.2407642403508
 30
0.0
 11
175.7037058556685
 21
320.7407472403508
 31
0.0
  0
LINE
  5
3A1
330
18
100
AcDbEntity
  8
1
  6
Continuous
100
AcDbLine
 10
176.3287078556684
 20
321.3657452403508
 30
0.0
 11
175.7037078556684
 21
320.7407452403508
 31
0.0
  0
LINE
  5
3A2
330
18
100
AcDbEntity
  8
2
  6
Continuous
100
AcDbLine
 10
168.9537058556685
 20
324.2407642403508
 30
0.0
 11
168.9537058556685
 21
320.7407472403508
 31
0.0
  0
LINE
  5
3A3
330
18
100
AcDbEntity
  8
1
  6
Continuous
100
AcDbLine
 10
168.9537078556685
 20
320.7407492403508
 30
0.0
 11
168.3287088556685
 21
321.3657472403508
 31
0.0
  0
ARC
  5
3A4
330
18
100
AcDbEntity
  8
1
  6
Continuous
100
AcDbCircle
 10
224.890554946828
 20
206.3000229718729
 30
0.0
 40
130.886652760822
100
AcDbArc
 50
115.1887818877084
 51
121.1716840476925
  0
LINE
  5
3A5
330
18
100
AcDbEntity
  8
1
  6
Continuous
100
AcDbLine
 10
175.7037058556685
 20
320.7407472403508
 30
0.0
 11
168.9537058556685
 21
320.7407472403508
 31
0.0
  0
ARC
  5
3A6
330
18
100
AcDbEntity
  8
1
  6
Continuous
100
AcDbCircle
 10
175.3287058556684
 20
334.7407162403508
 30
0.0
 40
9.0
100
AcDbArc
 50
181.5575799999999
 51
270.0000200000004
  0
LINE
  5
3A7
330
18
100
AcDbEntity
  8
1
  6
Continuous
100
AcDbLine
 10
166.970948313364
 20
331.4018708015721
 30
0.0
 11
166.970948313364
 21
326.1529880942299
 31
0.0
  0
LINE
  5
3A8
330
18
100
AcDbEntity
  8
1
  6
Continuous
100
AcDbLine
 10
161.1912260278853
 20
340.1407362403508
 30
0.0
 11
157.7240260278853
 21
340.1407362403508
 31
0.0
  0
LINE
  5
3A9
330
18
100
AcDbEntity
  8
1
  6
Continuous
100
AcDbLine
 10
157.0070380278851
 20
337.7544064236103
 30
0.0
 11
157.0070512422428
 21
336.7407162403508
 31
0.0
  0
LINE
  5
3AA
330
18
100
AcDbEntity
  8
1
  6
Continuous
100
AcDbLine
 10
158.1570320278851
 20
338.3305862403509
 30
0.0
 11
158.1570320278851
 21
333.7407162403508
 31
0.0
  0
ARC
  5
3AB
330
18
100
AcDbEntity
  8
1
  6
Continuous
100
AcDbCircle
 10
151.3921385280164
 20
332.8679596943199
 30
0.0
 40
6.820959467201523
100
AcDbArc
 50
7.351271869064081
 51
34.59507506815585
  0
ARC
  5
3AC
330
18
100
AcDbEntity
  8
1
  6
Continuous
100
AcDbCircle
 10
154.1570320278851
 20
338.3305862403509
 30
0.0
 40
4.0
100
AcDbArc
 50
0.0000030000001391
 51
26.9064199999998
  0
ARC
  5
3AF
330
18
100
AcDbEntity
  8
1
  6
Continuous
100
AcDbCircle
 10
153.5070380278851
 20
337.7544062403508
 30
0.0
 40
3.5
100
AcDbArc
 50
0.000002999999732
 51
28.80293199999996
  0
LINE
  5
3B0
330
18
100
AcDbEntity
  8
1
  6
Continuous
100
AcDbLine
 10
156.5740170278853
 20
339.4407162403508
 30
0.0
 11
157.7240330278851
 21
340.1407362403508
 31
0.0
  0
ARC
  5
3B1
330
18
100
AcDbEntity
  8
1
  6
Continuous
100
AcDbCircle
 10
166.0216298556685
 20
337.7407162403508
 30
0.0
 40
1.0
100
AcDbArc
 50
270.0
 51
323.4310670749559
  0
LINE
  5
3B2
330
18
100
AcDbEntity
  8
1
  6
Continuous
100
AcDbLine
 10
161.6242320278852
 20
338.3305862403509
 30
0.0
 11
161.6242320278852
 21
333.7407162403508
 31
0.0
  0
LINE
  5
3B3
330
18
100
AcDbEntity
  8
1
  6
Continuous
100
AcDbLine
 10
166.7541818556686
 20
336.7407162403508
 30
0.0
 11
161.6242320278852
 21
336.7407162403508
 31
0.0
  0
ARC
  5
3B6
330
18
100
AcDbEntity
  8
1
  6
Continuous
100
AcDbCircle
 10
157.6242320278852
 20
338.3305862403509
 30
0.0
 40
4.0
100
AcDbArc
 50
0.0000030000001391
 51
26.9064199999998
  0
ARC
  5
3B7
330
18
100
AcDbEntity
  8
1
  6
Continuous
100
AcDbCircle
 10
166.0216298556685
 20
337.7407162403508
 30
0.0
 40
1.0
100
AcDbArc
 50
17.48851199999984
 51
21.27463900000022
  0
CIRCLE
  5
3B8
330
18
100
AcDbEntity
  8
1
  6
Continuous
100
AcDbCircle
 10
173.8287058556686
 20
333.7407162403508
 30
0.0
 40
4.400000099999997
  0
LINE
  5
3B9
330
18
100
AcDbEntity
  8
1
  6
Continuous
100
AcDbLine
 10
176.3287058556684
 20
321.3657472403508
 30
0.0
 11
168.3287058556685
 21
321.3657472403508
 31
0.0
  0
ARC
  5
3BC
330
18
100
AcDbEntity
  8
1
  6
Continuous
100
AcDbCircle
 10
176.9335478038081
 20
307.7155866720163
 30
0.0
 40
18.70551547513595
100
AcDbArc
 50
101.8464605248507
 51
114.4716587055382
  0
LINE
  5
3BD
330
18
100
AcDbEntity
  8
1
  6
Continuous
100
AcDbLine
 10
168.3287058556685
 20
324.2407642403509
 30
0.0
 11
168.3287058556685
 21
321.3657472403508
 31
0.0
  0
LINE
  5
3C0
330
18
100
AcDbEntity
  8
1
  6
Continuous
100
AcDbLine
 10
176.3287058556684
 20
324.2407642403508
 30
0.0
 11
176.3287058556684
 21
321.3657472403508
 31
0.0
  0
ARC
  5
3C3
330
18
100
AcDbEntity
  8
1
  6
Continuous
100
AcDbCircle
 10
853.9519229454217
 20
1168.918172637387
 30
0.0
 40
1076.838718652249
100
AcDbArc
 50
231.9237503726183
 51
232.5452217603289
  0
ARC
  5
3C4
330
18
100
AcDbEntity
  8
1
  6
Continuous
100
AcDbCircle
 10
227.8033436403867
 20
369.3208555656753
 30
0.0
 40
62.25166321005164
100
AcDbArc
 50
231.7203431394618
 51
242.5309256609545
  0
ARC
  5
3C5
330
18
100
AcDbEntity
  8
1
  6
Continuous
100
AcDbCircle
 10
204.395781261605
 20
321.1271849331258
 30
0.0
 40
8.816165241644052
100
AcDbArc
 50
232.9874037232061
 51
287.6161134103075
  0
LINE
  5
3C6
330
18
100
AcDbEntity
  8
1
  6
Continuous
100
AcDbLine
 10
186.1265045007878
 20
325.7407162403509
 30
0.0
 11
186.1265045007878
 21
324.5581241234209
 31
0.0
  0
CIRCLE
  5
3C7
330
18
100
AcDbEntity
  8
1
  6
Continuous
100
AcDbCircle
 10
228.8286958556685
 20
333.7407162403508
 30
0.0
 40
4.400000099999997
  0
ARC
  5
3C8
330
18
100
AcDbEntity
  8
1
  6
Continuous
100
AcDbCircle
 10
227.3286958556686
 20
334.7407162403508
 30
0.0
 40
9.0
100
AcDbArc
 50
270.0000200000004
 51
358.44251
  0
LINE
  5
3C9
330
18
100
AcDbEntity
  8
4
  6
CENTER
 48
0.5
100
AcDbLine
 10
219.4286957556685
 20
333.7407162403508
 30
0.0
 11
238.2286959556686
 21
333.7407162403508
 31
0.0
  0
LINE
  5
3CA
330
18
100
AcDbEntity
  8
1
  6
Continuous
100
AcDbLine
 10
175.3286978556686
 20
383.7407162403508
 30
0.0
 11
227.3286958556686
 21
383.7407162403508
 31
0.0
  0
LINE
  5
3CB
330
18
100
AcDbEntity
  8
4
  6
CENTER
 48
0.5
100
AcDbLine
 10
173.8287058556686
 20
385.1407163403509
 30
0.0
 11
173.8287058556686
 21
366.3407161403508
 31
0.0
  0
ARC
  5
3CC
330
18
100
AcDbEntity
  8
1
  6
Continuous
100
AcDbCircle
 10
175.3287058556684
 20
374.7407162403508
 30
0.0
 40
9.0
100
AcDbArc
 50
89.99998199999998
 51
178.4427853385313
  0
LINE
  5
3CD
330
18
100
AcDbEntity
  8
4
  6
CENTER
 48
0.5
100
AcDbLine
 10
183.2287059556684
 20
375.7407162403509
 30
0.0
 11
164.4287057556685
 21
375.7407162403509
 31
0.0
  0
LINE
  5
3CE
330
18
100
AcDbEntity
  8
1
  6
Continuous
100
AcDbLine
 10
165.3287058556686
 20
376.4407162403508
 30
0.0
 11
165.3287058556686
 21
373.0407162403508
 31
0.0
  0
LINE
  5
3D3
330
18
100
AcDbEntity
  8
1
  6
Continuous
100
AcDbLine
 10
166.7541818556686
 20
372.7407162403508
 30
0.0
 11
161.4702578556685
 21
372.7407162403508
 31
0.0
  0
LINE
  5
3D4
330
18
100
AcDbEntity
  8
1
  6
Continuous
100
AcDbLine
 10
166.7108278556685
 20
370.7407162403508
 30
0.0
 11
161.4702578556685
 21
370.7407162403508
 31
0.0
  0
LINE
  5
3D5
330
18
100
AcDbEntity
  8
1
  6
Continuous
100
AcDbLine
 10
161.4702578556685
 20
372.7407162403508
 30
0.0
 11
161.4702578556685
 21
370.7407162403508
 31
0.0
  0
ARC
  5
3D6
330
18
100
AcDbEntity
  8
1
  6
Continuous
100
AcDbCircle
 10
166.0216298556685
 20
371.7407162403508
 30
0.0
 40
1.0
100
AcDbArc
 50
36.56910300000003
 51
90.00000300000015
  0
ARC
  5
3D7
330
18
100
AcDbEntity
  8
1
  6
Continuous
100
AcDbCircle
 10
165.6287088556685
 20
373.0407162403508
 30
0.0
 40
0.30000001
100
AcDbArc
 50
179.9999899999995
 51
270.0
  0
ARC
  5
3D8
330
18
100
AcDbEntity
  8
1
  6
Continuous
100
AcDbCircle
 10
166.0216298556685
 20
371.7407162403508
 30
0.0
 40
1.0
100
AcDbArc
 50
338.7253599999999
 51
342.51149
  0
LINE
  5
3D9
330
18
100
AcDbEntity
  8
1
  6
Continuous
100
AcDbLine
 10
165.6287088556685
 20
376.7407162403508
 30
0.0
 11
166.5537414682763
 21
376.7407162403508
 31
0.0
  0
ARC
  5
3DA
330
18
100
AcDbEntity
  8
1
  6
Continuous
100
AcDbCircle
 10
165.6287088556685
 20
376.4407162403508
 30
0.0
 40
0.30000001
100
AcDbArc
 50
90.00000300000015
 51
180.0000100000002
  0
CIRCLE
  5
3DB
330
18
100
AcDbEntity
  8
1
  6
Continuous
100
AcDbCircle
 10
173.8287058556686
 20
375.7407162403509
 30
0.0
 40
4.400000099999997
  0
CIRCLE
  5
3DC
330
18
100
AcDbEntity
  8
1
  6
Continuous
100
AcDbCircle
 10
201.3287058556684
 20
354.7407162403509
 30
0.0
 40
12.0
  0
CIRCLE
  5
3DD
330
18
100
AcDbEntity
  8
1
  6
Continuous
100
AcDbCircle
 10
201.3287058556684
 20
354.7407162403509
 30
0.0
 40
9.5
  0
LINE
  5
3DE
330
18
100
AcDbEntity
  8
4
  6
CENTER
 48
0.5
100
AcDbLine
 10
228.8286958556685
 20
385.1407163403509
 30
0.0
 11
228.8286958556685
 21
366.3407161403508
 31
0.0
  0
ARC
  5
3DF
330
18
100
AcDbEntity
  8
1
  6
Continuous
100
AcDbCircle
 10
227.3286958556686
 20
374.7407162403508
 30
0.0
 40
9.0
100
AcDbArc
 50
1.557439383594645
 51
89.99998199999998
  0
CIRCLE
  5
3E0
330
18
100
AcDbEntity
  8
1
  6
Continuous
100
AcDbCircle
 10
228.8286958556685
 20
375.7407162403509
 30
0.0
 40
4.400000099999997
  0
LINE
  5
3E1
330
18
100
AcDbEntity
  8
4
  6
CENTER
 48
0.5
100
AcDbLine
 10
219.4286957556685
 20
375.7407162403509
 30
0.0
 11
238.2286959556686
 21
375.7407162403509
 31
0.0
  0
LINE
  5
5AA
330
18
100
AcDbEntity
  8
1
  6
Continuous
100
AcDbLine
 10
318.3239237407706
 20
197.1894574710349
 30
0.0
 11
318.3239237407708
 21
185.3798490686903
 31
0.0
  0
LINE
  5
5AB
330
18
100
AcDbEntity
  8
1
  6
Continuous
100
AcDbLine
 10
354.3239237407706
 20
197.1894574710349
 30
0.0
 11
354.3239237407707
 21
189.7433140686901
 31
0.0
  0
LINE
  5
5AC
330
18
100
AcDbEntity
  8
1
  6
Continuous
100
AcDbLine
 10
352.3239237407707
 20
234.4145744257851
 30
0.0
 11
352.3239237407707
 21
189.7433140686901
 31
0.0
  0
LINE
  5
5AF
330
18
100
AcDbEntity
  8
1
  6
Continuous
100
AcDbLine
 10
311.7239257407707
 20
181.6700858122083
 30
0.0
 11
311.7239257407707
 21
178.9484600686902
 31
0.0
  0
LINE
  5
5B2
330
18
100
AcDbEntity
  8
1
  6
Continuous
100
AcDbLine
 10
320.3239237407708
 20
234.4145744257851
 30
0.0
 11
320.3239237407708
 21
189.7433140686901
 31
0.0
  0
LINE
  5
5B3
330
18
100
AcDbEntity
  8
1
  6
Continuous
100
AcDbLine
 10
302.7240403703057
 20
199.2350292396217
 30
0.0
 11
294.6069587407706
 21
189.3662380686901
 31
0.0
  0
LINE
  5
5B5
330
18
100
AcDbEntity
  8
4
  6
CENTER
 48
0.5
100
AcDbLine
 10
336.3239237407706
 20
258.2493180686901
 30
0.0
 11
336.3239237407706
 21
163.2493180686901
 31
0.0
  0
LINE
  5
5C0
330
18
100
AcDbEntity
  8
1
  6
Continuous
100
AcDbLine
 10
354.3239237407707
 20
189.7493180686901
 30
0.0
 11
352.3239237407707
 21
189.7493180686901
 31
0.0
  0
ARC
  5
5C1
330
18
100
AcDbEntity
  8
1
  6
Continuous
100
AcDbCircle
 10
303.7917737407706
 20
191.7579010686901
 30
0.0
 40
12.03
100
AcDbArc
 50
219.4268000000004
 51
306.3807624640086
  0
LINE
  5
5C3
330
18
100
AcDbEntity
  8
1
  6
Continuous
100
AcDbLine
 10
317.3239237407706
 20
185.1421400686902
 30
0.0
 11
318.3239237407708
 21
185.3798450686903
 31
0.0
  0
LINE
  5
5C4
330
18
100
AcDbEntity
  8
1
  6
Continuous
100
AcDbLine
 10
320.3239237407708
 20
189.7493180686901
 30
0.0
 11
318.3239237407708
 21
189.7493180686901
 31
0.0
  0
LINE
  5
5C9
330
18
100
AcDbEntity
  8
1
  6
Continuous
100
AcDbLine
 10
313.7239257407707
 20
178.9484600686902
 30
0.0
 11
311.7239257407707
 21
178.9484600686902
 31
0.0
  0
ARC
  5
5CB
330
18
100
AcDbEntity
  8
1
  6
Continuous
100
AcDbCircle
 10
300.8793437407707
 20
196.5252730686901
 30
0.0
 40
20.0
100
AcDbArc
 50
309.9582299999998
 51
325.3085499999999
  0
ARC
  5
5CD
330
18
100
AcDbEntity
  8
1
  6
Continuous
100
AcDbCircle
 10
296.9239217407707
 20
187.4605380686903
 30
0.0
 40
3.0
100
AcDbArc
 50
140.5627099999997
 51
180.0
  0
LINE
  5
5CE
330
18
100
AcDbEntity
  8
1
  6
Continuous
100
AcDbLine
 10
293.9239217407707
 20
187.4605380686903
 30
0.0
 11
293.9239217407707
 21
185.8845110686903
 31
0.0
  0
ARC
  5
5CF
330
18
100
AcDbEntity
  8
1
  6
Continuous
100
AcDbCircle
 10
296.9239217407707
 20
185.8845110686903
 30
0.0
 40
3.0
100
AcDbArc
 50
180.0
 51
216.0806499999998
  0
ARC
  5
5D0
330
18
100
AcDbEntity
  8
1
  6
Continuous
100
AcDbCircle
 10
330.9239217407707
 20
247.0213174686902
 30
0.0
 40
2.778000099999998
100
AcDbArc
 50
317.4661199999998
 51
346.3905399999999
  0
LINE
  5
5DA
330
18
100
AcDbEntity
  8
4
  6
CENTER
 48
0.5
100
AcDbLine
 10
363.3238737407706
 20
200.7493180686901
 30
0.0
 11
297.3239087407705
 21
200.7493180686901
 31
0.0
  0
LINE
  5
5DC
330
18
100
AcDbEntity
  8
1
  6
Continuous
100
AcDbLine
 10
361.3530937407706
 20
219.4094280686901
 30
0.0
 11
360.8231137407706
 21
242.2130218686902
 31
0.0
  0
ARC
  5
5DE
330
18
100
AcDbEntity
  8
1
  6
Continuous
100
AcDbCircle
 10
325.3628187407707
 20
218.5729650686901
 30
0.0
 40
36.0
100
AcDbArc
 50
323.5595970069066
 51
1.331390000000024
  0
LINE
  5
5DF
330
18
100
AcDbEntity
  8
1
  6
Continuous
100
AcDbLine
 10
358.3238737407707
 20
194.7493180686903
 30
0.0
 11
358.3238737407707
 21
204.0964719406229
 31
0.0
  0
LINE
  5
5E0
330
18
100
AcDbEntity
  8
1
  6
Continuous
100
AcDbLine
 10
356.8238737407706
 20
193.2493180686901
 30
0.0
 11
355.8238777407706
 21
193.2493180686901
 31
0.0
  0
LINE
  5
5E1
330
18
100
AcDbEntity
  8
1
  6
Continuous
100
AcDbLine
 10
356.8238737407706
 20
197.2493180686901
 30
0.0
 11
355.8238777407706
 21
197.2493180686901
 31
0.0
  0
LINE
  5
5E2
330
18
100
AcDbEntity
  8
1
  6
Continuous
100
AcDbLine
 10
356.8238737407706
 20
197.7493180686901
 30
0.0
 11
355.8238777407706
 21
197.7493180686901
 31
0.0
  0
ARC
  5
5E3
330
18
100
AcDbEntity
  8
1
  6
Continuous
100
AcDbCircle
 10
356.8238737407706
 20
195.7493180686901
 30
0.0
 40
1.5
100
AcDbArc
 50
359.9999899999998
 51
90.00003200000014
  0
ARC
  5
5E4
330
18
100
AcDbEntity
  8
1
  6
Continuous
100
AcDbCircle
 10
356.8238737407706
 20
194.7493180686903
 30
0.0
 40
1.5
100
AcDbArc
 50
270.0
 51
359.9999899999998
  0
ARC
  5
5E5
330
18
100
AcDbEntity
  8
1
  6
Continuous
100
AcDbCircle
 10
356.8238737407706
 20
199.2493180686901
 30
0.0
 40
1.5
100
AcDbArc
 50
270.0
 51
359.9999899999998
  0
ARC
  5
5E6
330
18
100
AcDbEntity
  8
1
  6
Continuous
100
AcDbCircle
 10
355.8238777407706
 20
195.7493180686901
 30
0.0
 40
1.5
100
AcDbArc
 50
90.0000380000004
 51
180.0
  0
ARC
  5
5E7
330
18
100
AcDbEntity
  8
1
  6
Continuous
100
AcDbCircle
 10
355.8238777407706
 20
194.7493180686903
 30
0.0
 40
1.5
100
AcDbArc
 50
180.0
 51
270.0
  0
ARC
  5
5E8
330
18
100
AcDbEntity
  8
1
  6
Continuous
100
AcDbCircle
 10
355.8238777407706
 20
199.2493180686901
 30
0.0
 40
1.5
100
AcDbArc
 50
233.6204881263361
 51
270.0
  0
ARC
  5
5EE
330
18
100
AcDbEntity
  8
1
  6
Continuous
100
AcDbCircle
 10
356.8238737407706
 20
202.2493180686903
 30
0.0
 40
1.5
100
AcDbArc
 50
359.9999899999998
 51
41.93197520329347
  0
ARC
  5
5F7
330
18
100
AcDbEntity
  8
1
  6
Continuous
100
AcDbCircle
 10
364.3239237407706
 20
249.7493180686902
 30
0.0
 40
1.5
100
AcDbArc
 50
89.99999699999987
 51
146.931981
  0
LINE
  5
5F8
330
18
100
AcDbEntity
  8
1
  6
Continuous
100
AcDbLine
 10
365.3239237407706
 20
251.2493180686901
 30
0.0
 11
307.3239237407706
 21
251.2493180686901
 31
0.0
  0
LINE
  5
5F9
330
18
100
AcDbEntity
  8
1
  6
Continuous
100
AcDbLine
 10
365.3239237407706
 20
253.2493180686901
 30
0.0
 11
307.3239237407706
 21
253.2493180686901
 31
0.0
  0
LINE
  5
5FA
330
18
100
AcDbEntity
  8
1
  6
Continuous
100
AcDbLine
 10
365.3239237407706
 20
253.2493180686901
 30
0.0
 11
365.3239237407706
 21
251.2493180686901
 31
0.0
  0
LINE
  5
5FB
330
18
100
AcDbEntity
  8
4
  6
CENTER
 48
0.5
100
AcDbLine
 10
357.3239237407706
 20
258.2493180686901
 30
0.0
 11
357.3239237407706
 21
246.2493180686901
 31
0.0
  0
ARC
  5
5FC
330
18
100
AcDbEntity
  8
1
  6
Continuous
100
AcDbCircle
 10
346.2239257407706
 20
247.0213174686902
 30
0.0
 40
2.778000099999998
100
AcDbArc
 50
317.4661199999998
 51
350.21762
  0
ARC
  5
5FD
330
18
100
AcDbEntity
  8
1
  6
Continuous
100
AcDbCircle
 10
336.3239237407706
 20
-136.1880319313095
 30
0.0
 40
371.0813299999998
100
AcDbArc
 50
87.31373488923811
 51
92.6862651107619
  0
LINE
  5
600
330
18
100
AcDbEntity
  8
1
  6
Continuous
100
AcDbLine
 10
358.8239237407707
 20
246.5493172686901
 30
0.0
 11
313.8239237407708
 21
246.5493172686901
 31
0.0
  0
LINE
  5
601
330
18
100
AcDbEntity
  8
1
  6
Continuous
100
AcDbLine
 10
357.8239237407706
 20
245.1433171686901
 30
0.0
 11
314.8239237407707
 21
245.1433171686901
 31
0.0
  0
ARC
  5
603
330
18
100
AcDbEntity
  8
1
  6
Continuous
100
AcDbCircle
 10
357.8239237407706
 20
242.1433171686901
 30
0.0
 40
3.0
100
AcDbArc
 50
1.331390000000024
 51
90.00000399999995
  0
ARC
  5
606
330
18
100
AcDbEntity
  8
1
  6
Continuous
100
AcDbCircle
 10
353.7239257407707
 20
247.0213174686902
 30
0.0
 40
2.778000099999998
100
AcDbArc
 50
317.4661199999998
 51
350.21762
  0
ARC
  5
607
330
18
100
AcDbEntity
  8
1
  6
Continuous
100
AcDbCircle
 10
356.6710137407707
 20
247.7493170686901
 30
0.0
 40
0.5
100
AcDbArc
 50
187.6046900000002
 51
270.0
  0
LINE
  5
608
330
18
100
AcDbEntity
  8
1
  6
Continuous
100
AcDbLine
 10
359.8417337407706
 20
250.5049733686901
 30
0.0
 11
359.5713137407706
 21
249.4823550686902
 31
0.0
  0
ARC
  5
609
330
18
100
AcDbEntity
  8
1
  6
Continuous
100
AcDbCircle
 10
356.6710137407707
 20
250.2493170686901
 30
0.0
 40
3.0
100
AcDbArc
 50
270.0
 51
345.18761
  0
LINE
  5
60A
330
18
100
AcDbEntity
  8
1
  6
Continuous
100
AcDbLine
 10
361.3379937407708
 20
247.9124144686901
 30
0.0
 11
363.0668837407707
 21
250.5677694686903
 31
0.0
  0
ARC
  5
60B
330
18
100
AcDbEntity
  8
1
  6
Continuous
100
AcDbCircle
 10
358.8239237407707
 20
249.5493172686902
 30
0.0
 40
3.0
100
AcDbArc
 50
270.0000399999999
 51
326.9318999999998
  0
ARC
  5
60C
330
18
100
AcDbEntity
  8
1
  6
Continuous
100
AcDbCircle
 10
360.8085137407706
 20
250.2493180686901
 30
0.0
 40
1.0
100
AcDbArc
 50
89.99999699999987
 51
165.187611
  0
ARC
  5
60D
330
18
100
AcDbEntity
  8
1
  6
Continuous
100
AcDbCircle
 10
349.7239257407707
 20
247.0213174686902
 30
0.0
 40
2.778000099999998
100
AcDbArc
 50
317.4661199999998
 51
350.21762
  0
ARC
  5
60E
330
18
100
AcDbEntity
  8
1
  6
Continuous
100
AcDbCircle
 10
354.8239237407706
 20
250.2493180686901
 30
0.0
 40
1.0
100
AcDbArc
 50
7.604689999999886
 51
89.99999699999987
  0
LINE
  5
60F
330
18
100
AcDbEntity
  8
1
  6
Continuous
100
AcDbLine
 10
356.1754097407707
 20
247.6831483686903
 30
0.0
 11
355.8151267407707
 21
250.3816556686901
 31
0.0
  0
ARC
  5
610
330
18
100
AcDbEntity
  8
1
  6
Continuous
100
AcDbCircle
 10
352.2239257407707
 20
247.0213174686902
 30
0.0
 40
2.778000099999998
100
AcDbArc
 50
317.4661199999998
 51
350.21762
  0
ARC
  5
611
330
18
100
AcDbEntity
  8
1
  6
Continuous
100
AcDbCircle
 10
346.2239257407706
 20
247.0213174686902
 30
0.0
 40
2.778000099999998
100
AcDbArc
 50
215.9103999999995
 51
222.5338800000002
  0
ARC
  5
612
330
18
100
AcDbEntity
  8
1
  6
Continuous
100
AcDbCircle
 10
341.7239257407706
 20
247.0213174686902
 30
0.0
 40
2.778000099999998
100
AcDbArc
 50
317.4661199999998
 51
350.21762
  0
ARC
  5
613
330
18
100
AcDbEntity
  8
1
  6
Continuous
100
AcDbCircle
 10
336.3239237407706
 20
247.0213174686902
 30
0.0
 40
2.778000099999998
100
AcDbArc
 50
189.7823799999999
 51
222.5338800000002
  0
ARC
  5
614
330
18
100
AcDbEntity
  8
1
  6
Continuous
100
AcDbCircle
 10
341.7239257407706
 20
247.0213174686902
 30
0.0
 40
2.778000099999998
100
AcDbArc
 50
193.60946
 51
222.5338800000002
  0
ARC
  5
615
330
18
100
AcDbEntity
  8
1
  6
Continuous
100
AcDbCircle
 10
336.3239237407706
 20
247.0213174686902
 30
0.0
 40
2.778000099999998
100
AcDbArc
 50
317.4661199999998
 51
350.21762
  0
ARC
  5
618
330
18
100
AcDbEntity
  8
1
  6
Continuous
100
AcDbCircle
 10
308.5037947407708
 20
223.3547600686901
 30
0.0
 40
12.743032
100
AcDbArc
 50
75.59793803344614
 51
137.4684559999998
  0
LINE
  5
619
330
18
100
AcDbEntity
  8
1
  6
Continuous
100
AcDbLine
 10
306.3239237407707
 20
214.5724400686901
 30
0.0
 11
298.7721887407706
 21
226.7876140686901
 31
0.0
  0
LINE
  5
61A
330
18
100
AcDbEntity
  8
1
  6
Continuous
100
AcDbLine
 10
302.9489047407706
 20
204.7493180686903
 30
0.0
 11
302.3239087407706
 21
204.1243220686901
 31
0.0
  0
LINE
  5
61B
330
18
100
AcDbEntity
  8
2
  6
Continuous
100
AcDbLine
 10
305.8239256407708
 20
204.1243180686901
 30
0.0
 11
302.3239087407706
 21
204.1243180686901
 31
0.0
  0
ARC
  5
61F
330
18
100
AcDbEntity
  8
1
  6
Continuous
100
AcDbCircle
 10
307.3239237407708
 20
210.7570580686902
 30
0.0
 40
3.0
100
AcDbArc
 50
324.2432700000001
 51
64.20387999999983
  0
LINE
  5
623
330
18
100
AcDbEntity
  8
1
  6
Continuous
100
AcDbLine
 10
302.9489087407706
 20
204.7493180686903
 30
0.0
 11
302.9489087407706
 21
199.5473143040866
 31
0.0
  0
LINE
  5
643
330
18
100
AcDbEntity
  8
1
  6
Continuous
100
AcDbLine
 10
305.8239256407708
 20
204.7493180686903
 30
0.0
 11
302.9489087407706
 21
204.7493180686903
 31
0.0
  0
LINE
  5
644
330
18
100
AcDbEntity
  8
1
  6
Continuous
100
AcDbLine
 10
302.7240403703061
 20
199.2350292396224
 30
0.0
 11
309.7584407407707
 21
209.0040250686902
 31
0.0
  0
ARC
  5
646
330
18
100
AcDbEntity
  8
1
  6
Continuous
100
AcDbCircle
 10
320.9284537407707
 20
222.1689000686903
 30
0.0
 40
1.0
100
AcDbArc
 50
37.3004500000001
 51
89.99999699999987
  0
LINE
  5
649
330
18
100
AcDbEntity
  8
1
  6
Continuous
100
AcDbLine
 10
320.9284537407707
 20
223.1689000686903
 30
0.0
 11
320.3239237407708
 21
223.1689000686903
 31
0.0
  0
LINE
  5
64B
330
18
100
AcDbEntity
  8
1
  6
Continuous
100
AcDbLine
 10
321.0239207407706
 20
218.4899660686901
 30
0.0
 11
321.7239177407706
 21
220.0659890686901
 31
0.0
  0
ARC
  5
64C
330
18
100
AcDbEntity
  8
1
  6
Continuous
100
AcDbCircle
 10
320.5352887407708
 20
218.3839690686903
 30
0.0
 40
0.5
100
AcDbArc
 50
12.23896000000012
 51
89.99999699999987
  0
LINE
  5
64D
330
18
100
AcDbEntity
  8
1
  6
Continuous
100
AcDbLine
 10
320.5352887407708
 20
218.8839690686902
 30
0.0
 11
320.3239237407708
 21
218.8839690686902
 31
0.0
  0
LINE
  5
64E
330
18
100
AcDbEntity
  8
1
  6
Continuous
100
AcDbLine
 10
321.7239257407707
 20
222.7748960686902
 30
0.0
 11
321.7239257407707
 21
220.0659840686901
 31
0.0
  0
LINE
  5
654
330
18
100
AcDbEntity
  8
1
  6
Continuous
100
AcDbLine
 10
306.3239237407707
 20
214.5724380686901
 30
0.0
 11
308.6294317407706
 21
213.4581040686903
 31
0.0
  0
LINE
  5
657
330
18
100
AcDbEntity
  8
1
  6
Continuous
100
AcDbLine
 10
302.3239087407706
 20
204.1243180686901
 30
0.0
 11
302.3239087407706
 21
198.7485470686902
 31
0.0
  0
LINE
  5
658
330
18
100
AcDbEntity
  8
1
  6
Continuous
100
AcDbLine
 10
298.3239237407707
 20
229.9411780686903
 30
0.0
 11
298.3239237407707
 21
228.3651550686901
 31
0.0
  0
ARC
  5
659
330
18
100
AcDbEntity
  8
1
  6
Continuous
100
AcDbCircle
 10
301.3239237407708
 20
228.3651550686901
 30
0.0
 40
3.0
100
AcDbArc
 50
180.0
 51
211.7254299999999
  0
ARC
  5
65A
330
18
100
AcDbEntity
  8
1
  6
Continuous
100
AcDbCircle
 10
301.3239237407708
 20
229.9411780686903
 30
0.0
 40
3.0
100
AcDbArc
 50
137.4684559999998
 51
180.0
  0
LINE
  5
65C
330
18
100
AcDbEntity
  8
4
  6
CENTER
 48
0.5
100
AcDbLine
 10
315.3239237407706
 20
258.2493180686901
 30
0.0
 11
315.3239237407706
 21
246.2493180686901
 31
0.0
  0
ARC
  5
65D
330
18
100
AcDbEntity
  8
1
  6
Continuous
100
AcDbCircle
 10
317.8239237407708
 20
250.2493180686901
 30
0.0
 40
1.0
100
AcDbArc
 50
90.00000399999995
 51
172.3953067
  0
ARC
  5
65E
330
18
100
AcDbEntity
  8
1
  6
Continuous
100
AcDbCircle
 10
320.4239217407707
 20
247.0213174686902
 30
0.0
 40
2.778000099999998
100
AcDbArc
 50
189.7823799999999
 51
222.5338800000002
  0
ARC
  5
661
330
18
100
AcDbEntity
  8
1
  6
Continuous
100
AcDbCircle
 10
330.9239217407707
 20
247.0213174686902
 30
0.0
 40
2.778000099999998
100
AcDbArc
 50
189.7823799999999
 51
222.5338800000002
  0
ARC
  5
662
330
18
100
AcDbEntity
  8
1
  6
Continuous
100
AcDbCircle
 10
326.4239217407707
 20
247.0213174686902
 30
0.0
 40
2.778000099999998
100
AcDbArc
 50
317.4661199999998
 51
324.0895999999995
  0
ARC
  5
663
330
18
100
AcDbEntity
  8
1
  6
Continuous
100
AcDbCircle
 10
322.9239217407707
 20
247.0213174686902
 30
0.0
 40
2.778000099999998
100
AcDbArc
 50
189.7823799999999
 51
222.5338800000002
  0
ARC
  5
664
330
18
100
AcDbEntity
  8
1
  6
Continuous
100
AcDbCircle
 10
326.4239217407707
 20
247.0213174686902
 30
0.0
 40
2.778000099999998
100
AcDbArc
 50
189.7823799999999
 51
222.5338800000002
  0
ARC
  5
665
330
18
100
AcDbEntity
  8
1
  6
Continuous
100
AcDbCircle
 10
314.8239237407707
 20
242.1433171686901
 30
0.0
 40
3.0
100
AcDbArc
 50
89.99999699999987
 51
178.8230889999998
  0
LINE
  5
667
330
18
100
AcDbEntity
  8
1
  6
Continuous
100
AcDbLine
 10
309.5809617407707
 20
250.5677651686903
 30
0.0
 11
311.3098547407706
 21
247.9124101686901
 31
0.0
  0
LINE
  5
668
330
18
100
AcDbEntity
  8
1
  6
Continuous
100
AcDbLine
 10
312.8061017407706
 20
250.5049723686901
 30
0.0
 11
313.0765257407706
 21
249.48235316869
 31
0.0
  0
ARC
  5
669
330
18
100
AcDbEntity
  8
1
  6
Continuous
100
AcDbCircle
 10
313.8239237407708
 20
249.5493172686902
 30
0.0
 40
3.0
100
AcDbArc
 50
213.0681
 51
270.0000200000004
  0
ARC
  5
66A
330
18
100
AcDbEntity
  8
1
  6
Continuous
100
AcDbCircle
 10
311.8393347407707
 20
250.2493180686901
 30
0.0
 40
1.0
100
AcDbArc
 50
14.81238999999995
 51
90.00000399999995
  0
LINE
  5
66B
330
18
100
AcDbEntity
  8
1
  6
Continuous
100
AcDbLine
 10
316.4724417407707
 20
247.6831473686903
 30
0.0
 11
316.8327247407708
 21
250.3816546686902
 31
0.0
  0
ARC
  5
66C
330
18
100
AcDbEntity
  8
1
  6
Continuous
100
AcDbCircle
 10
318.9239217407707
 20
247.0213174686902
 30
0.0
 40
2.778000099999998
100
AcDbArc
 50
189.7823799999999
 51
222.5338800000002
  0
ARC
  5
66D
330
18
100
AcDbEntity
  8
1
  6
Continuous
100
AcDbCircle
 10
315.9768317407706
 20
247.7493170686901
 30
0.0
 40
0.5
100
AcDbArc
 50
270.0
 51
352.3953100000002
  0
ARC
  5
66E
330
18
100
AcDbEntity
  8
1
  6
Continuous
100
AcDbCircle
 10
315.9768317407706
 20
250.2493170686901
 30
0.0
 40
3.0
100
AcDbArc
 50
194.8123899999999
 51
270.0
  0
ARC
  5
66F
330
18
100
AcDbEntity
  8
1
  6
Continuous
100
AcDbCircle
 10
308.3239237407706
 20
249.7493180686902
 30
0.0
 40
1.5
100
AcDbArc
 50
33.06801000000008
 51
90.0000519999997
  0
LINE
  5
670
330
18
100
AcDbEntity
  8
1
  6
Continuous
100
AcDbLine
 10
307.3239237407708
 20
253.2493180686901
 30
0.0
 11
307.3239237407708
 21
251.2493180686901
 31
0.0
  0
LINE
  5
6F6
330
18
100
AcDbEntity
  8
1
  6
Continuous
100
AcDbLine
 10
436.3191416258726
 20
253.2493180686901
 30
0.0
 11
471.3191416258728
 21
253.2493180686901
 31
0.0
  0
LINE
  5
6F7
330
18
100
AcDbEntity
  8
1
  6
Continuous
100
AcDbLine
 10
436.3191416258726
 20
251.2493180686901
 30
0.0
 11
471.3191416258728
 21
251.2493180686901
 31
0.0
  0
ARC
  5
6F8
330
18
100
AcDbEntity
  8
1
  6
Continuous
100
AcDbCircle
 10
448.8191416258726
 20
249.5493172686902
 30
0.0
 40
3.0
100
AcDbArc
 50
213.0681
 51
270.0000200000004
  0
LINE
  5
6F9
330
18
100
AcDbEntity
  8
1
  6
Continuous
100
AcDbLine
 10
444.5761816258726
 20
250.5677646686903
 30
0.0
 11
446.3050716258726
 21
247.9124092686901
 31
0.0
  0
LINE
  5
6FB
330
18
100
AcDbEntity
  8
4
  6
CENTER
 48
0.5
100
AcDbLine
 10
500.3191416258728
 20
241.6493071686901
 30
0.0
 11
500.3191416258728
 21
163.2493180686901
 31
0.0
  0
LINE
  5
700
330
18
100
AcDbEntity
  8
1
  6
Continuous
100
AcDbLine
 10
469.9041520138085
 20
189.2960038366426
 30
0.0
 11
459.6747516258727
 21
181.3039220686901
 31
0.0
  0
LINE
  5
701
330
18
100
AcDbEntity
  8
1
  6
Continuous
100
AcDbLine
 10
463.9174192304134
 20
182.0806136103995
 30
0.0
 11
460.9060816258726
 21
179.7278980686902
 31
0.0
  0
ARC
  5
707
330
18
100
AcDbEntity
  8
1
  6
Continuous
100
AcDbCircle
 10
474.0462226258728
 20
186.9484600686901
 30
0.0
 40
8.0
100
AcDbArc
 50
221.1267799999998
 51
284.1289716976317
  0
ARC
  5
70C
330
18
100
AcDbEntity
  8
1
  6
Continuous
100
AcDbCircle
 10
465.7604016258726
 20
179.7134600686901
 30
0.0
 40
3.0
100
AcDbArc
 50
41.12677999999981
 51
127.9999970000002
  0
LINE
  5
70D
330
18
100
AcDbEntity
  8
1
  6
Continuous
100
AcDbLine
 10
459.6747516258727
 20
181.3039220686901
 30
0.0
 11
460.9060816258726
 21
179.7278980686902
 31
0.0
  0
LINE
  5
70F
330
18
100
AcDbEntity
  8
4
  6
CENTER
 48
0.5
100
AcDbLine
 10
537.8191416258728
 20
200.7493180686901
 30
0.0
 11
462.8191416258728
 21
200.7493180686901
 31
0.0
  0
LINE
  5
713
330
18
100
AcDbEntity
  8
1
  6
Continuous
100
AcDbLine
 10
508.8191416258728
 20
239.3950821686903
 30
0.0
 11
490.6828046258726
 21
242.5930078086901
 31
0.0
  0
ARC
  5
714
330
18
100
AcDbEntity
  8
1
  6
Continuous
100
AcDbCircle
 10
508.1262176258729
 20
236.9786957686901
 30
0.0
 40
2.5
100
AcDbArc
 50
79.99999999999983
 51
189.1735400000003
  0
LINE
  5
715
330
18
100
AcDbEntity
  8
1
  6
Continuous
100
AcDbLine
 10
508.4718436258728
 20
237.4254678686903
 30
0.0
 11
506.8202936258726
 21
237.7166804686903
 31
0.0
  0
LINE
  5
719
330
18
100
AcDbEntity
  8
1
  6
Continuous
100
AcDbLine
 10
531.0390326258726
 20
234.5217684686902
 30
0.0
 11
525.9169615202136
 21
230.5199681847672
 31
0.0
  0
LINE
  5
71A
330
18
100
AcDbEntity
  8
1
  6
Continuous
100
AcDbLine
 10
529.8077086258727
 20
236.0977901686901
 30
0.0
 11
518.7902964870677
 21
227.4900442759896
 31
0.0
  0
LINE
  5
71B
330
18
100
AcDbEntity
  8
1
  6
Continuous
100
AcDbLine
 10
511.2589389382915
 20
201.8985938246319
 30
0.0
 11
505.6581956258725
 21
236.5801333686901
 31
0.0
  0
ARC
  5
727
330
18
100
AcDbEntity
  8
1
  6
Continuous
100
AcDbCircle
 10
516.7653546258726
 20
226.4890760686902
 30
0.0
 40
10.0
100
AcDbArc
 50
329.6036602241124
 51
23.77142999999993
  0
LINE
  5
72B
330
18
100
AcDbEntity
  8
1
  6
Continuous
100
AcDbLine
 10
529.8077086258727
 20
236.0977901686901
 30
0.0
 11
531.0390326258726
 21
234.5217684686902
 31
0.0
  0
LINE
  5
72C
330
18
100
AcDbEntity
  8
1
  6
Continuous
100
AcDbLine
 10
508.8191416258728
 20
239.3950821686903
 30
0.0
 11
508.4718436258728
 21
237.4254678686903
 31
0.0
  0
LINE
  5
72D
330
18
100
AcDbEntity
  8
4
  6
CENTER
 48
0.5
100
AcDbLine
 10
471.3191416258726
 20
258.2493180686901
 30
0.0
 11
471.3191416258728
 21
210.9826400686901
 31
0.0
  0
ARC
  5
72E
330
18
100
AcDbEntity
  8
1
  6
Continuous
100
AcDbCircle
 10
453.7466116258726
 20
228.2885450686901
 30
0.0
 40
7.0
100
AcDbArc
 50
39.8952799999998
 51
85.51020699999961
  0
LINE
  5
72F
330
18
100
AcDbEntity
  8
1
  6
Continuous
100
AcDbLine
 10
487.8191416258728
 20
242.4073609786901
 30
0.0
 11
487.8191416258728
 21
208.8825230686902
 31
0.0
  0
LINE
  5
734
330
18
100
AcDbEntity
  8
1
  6
Continuous
100
AcDbLine
 10
491.889155212864
 20
193.682824661314
 30
0.0
 11
459.1171416258728
 21
232.7782480686901
 31
0.0
  0
LINE
  5
754
330
18
100
AcDbEntity
  8
1
  6
Continuous
100
AcDbLine
 10
492.8191416258726
 20
245.1433171686901
 30
0.0
 11
471.3191416258728
 21
245.1433171686901
 31
0.0
  0
LINE
  5
755
330
18
100
AcDbEntity
  8
1
  6
Continuous
100
AcDbLine
 10
493.8191416258728
 20
246.5493172686901
 30
0.0
 11
471.3191416258728
 21
246.5493172686901
 31
0.0
  0
LINE
  5
756
330
18
100
AcDbEntity
  8
1
  6
Continuous
100
AcDbLine
 10
506.3191416258728
 20
251.2493180686901
 30
0.0
 11
471.3191416258728
 21
251.2493180686901
 31
0.0
  0
LINE
  5
757
330
18
100
AcDbEntity
  8
1
  6
Continuous
100
AcDbLine
 10
506.3191416258728
 20
253.2493180686901
 30
0.0
 11
471.3191416258728
 21
253.2493180686901
 31
0.0
  0
LINE
  5
758
330
18
100
AcDbEntity
  8
4
  6
CENTER
 48
0.5
100
AcDbLine
 10
498.8191416258726
 20
258.2493180686901
 30
0.0
 11
498.8191416258728
 21
246.2493180686901
 31
0.0
  0
ARC
  5
759
330
18
100
AcDbEntity
  8
1
  6
Continuous
100
AcDbCircle
 10
491.6662336258728
 20
250.2493170686901
 30
0.0
 40
3.0
100
AcDbArc
 50
270.0
 51
345.18761
  0
ARC
  5
75A
330
18
100
AcDbEntity
  8
1
  6
Continuous
100
AcDbCircle
 10
491.8073006258726
 20
241.2734097686902
 30
0.0
 40
4.0
100
AcDbArc
 50
10.88584999999997
 51
75.34724999999986
  0
ARC
  5
75B
330
18
100
AcDbEntity
  8
1
  6
Continuous
100
AcDbCircle
 10
506.6466446258726
 20
236.7318715686902
 30
0.0
 40
1.0
100
AcDbArc
 50
79.99999999999983
 51
180.0
  0
ARC
  5
75C
330
18
100
AcDbEntity
  8
1
  6
Continuous
100
AcDbCircle
 10
496.2263226258728
 20
242.1232489686901
 30
0.0
 40
0.5
100
AcDbArc
 50
190.8858500000004
 51
259.9999999999998
  0
ARC
  5
75D
330
18
100
AcDbEntity
  8
1
  6
Continuous
100
AcDbCircle
 10
496.2263226258728
 20
242.1232489686901
 30
0.0
 40
0.5
100
AcDbArc
 50
190.8858500000004
 51
259.9999999999998
  0
LINE
  5
75E
330
18
100
AcDbEntity
  8
1
  6
Continuous
100
AcDbLine
 10
506.3191416258728
 20
251.2493180686901
 30
0.0
 11
506.3191416258728
 21
253.2493180686901
 31
0.0
  0
ARC
  5
75F
330
18
100
AcDbEntity
  8
1
  6
Continuous
100
AcDbCircle
 10
499.3191416258728
 20
249.7493180686902
 30
0.0
 40
1.5
100
AcDbArc
 50
89.99999699999987
 51
146.931981
  0
ARC
  5
760
330
18
100
AcDbEntity
  8
1
  6
Continuous
100
AcDbCircle
 10
495.8037306258726
 20
250.2493180686901
 30
0.0
 40
1.0
100
AcDbArc
 50
89.99999699999987
 51
165.187611
  0
ARC
  5
761
330
18
100
AcDbEntity
  8
1
  6
Continuous
100
AcDbCircle
 10
493.8191416258728
 20
249.5493172686902
 30
0.0
 40
3.0
100
AcDbArc
 50
270.0000399999999
 51
326.9318999999998
  0
LINE
  5
762
330
18
100
AcDbEntity
  8
1
  6
Continuous
100
AcDbLine
 10
496.3332106258729
 20
247.9124111686902
 30
0.0
 11
498.0621076258726
 21
250.56776806869
 31
0.0
  0
LINE
  5
763
330
18
100
AcDbEntity
  8
1
  6
Continuous
100
AcDbLine
 10
494.8369566258726
 20
250.5049733686901
 30
0.0
 11
494.5665326258728
 21
249.48235366869
 31
0.0
  0
ARC
  5
764
330
18
100
AcDbEntity
  8
1
  6
Continuous
100
AcDbCircle
 10
487.2191436258726
 20
247.0213174686902
 30
0.0
 40
2.778000099999998
100
AcDbArc
 50
317.4661199999998
 51
350.21762
  0
ARC
  5
765
330
18
100
AcDbEntity
  8
1
  6
Continuous
100
AcDbCircle
 10
491.6662336258728
 20
247.7493170686901
 30
0.0
 40
0.5
100
AcDbArc
 50
187.6046900000002
 51
270.0
  0
ARC
  5
766
330
18
100
AcDbEntity
  8
1
  6
Continuous
100
AcDbCircle
 10
488.7191436258728
 20
247.0213174686902
 30
0.0
 40
2.778000099999998
100
AcDbArc
 50
317.4661199999998
 51
350.21762
  0
LINE
  5
767
330
18
100
AcDbEntity
  8
1
  6
Continuous
100
AcDbLine
 10
491.1706276258726
 20
247.68314876869
 30
0.0
 11
490.8103446258726
 21
250.3816551686901
 31
0.0
  0
ARC
  5
768
330
18
100
AcDbEntity
  8
1
  6
Continuous
100
AcDbCircle
 10
484.7191436258728
 20
247.0213174686902
 30
0.0
 40
2.778000099999998
100
AcDbArc
 50
317.4661199999998
 51
350.21762
  0
ARC
  5
769
330
18
100
AcDbEntity
  8
1
  6
Continuous
100
AcDbCircle
 10
489.8191416258728
 20
250.2493180686901
 30
0.0
 40
1.0
100
AcDbArc
 50
7.604689999999886
 51
89.99999699999987
  0
ARC
  5
76A
330
18
100
AcDbEntity
  8
1
  6
Continuous
100
AcDbCircle
 10
481.2191436258728
 20
247.0213174686902
 30
0.0
 40
2.778000099999998
100
AcDbArc
 50
317.4661199999998
 51
350.21762
  0
ARC
  5
76B
330
18
100
AcDbEntity
  8
1
  6
Continuous
100
AcDbCircle
 10
476.7191436258728
 20
247.0213174686902
 30
0.0
 40
2.778000099999998
100
AcDbArc
 50
317.4661199999998
 51
350.21762
  0
ARC
  5
76C
330
18
100
AcDbEntity
  8
1
  6
Continuous
100
AcDbCircle
 10
481.2191436258728
 20
247.0213174686902
 30
0.0
 40
2.778000099999998
100
AcDbArc
 50
215.9103999999995
 51
222.5338800000002
  0
LINE
  5
76D
330
18
100
AcDbEntity
  8
1
  6
Continuous
100
AcDbLine
 10
449.8191416258726
 20
245.1433171686901
 30
0.0
 11
471.3191416258728
 21
245.1433171686901
 31
0.0
  0
LINE
  5
76E
330
18
100
AcDbEntity
  8
1
  6
Continuous
100
AcDbLine
 10
448.8191416258726
 20
246.5493172686901
 30
0.0
 11
471.3191416258728
 21
246.5493172686901
 31
0.0
  0
ARC
  5
76F
330
18
100
AcDbEntity
  8
1
  6
Continuous
100
AcDbCircle
 10
471.3191416258728
 20
247.0213174686902
 30
0.0
 40
2.778000099999998
100
AcDbArc
 50
317.4661199999998
 51
350.21762
  0
ARC
  5
770
330
18
100
AcDbEntity
  8
1
  6
Continuous
100
AcDbCircle
 10
476.7191436258728
 20
247.0213174686902
 30
0.0
 40
2.778000099999998
100
AcDbArc
 50
193.60946
 51
222.5338800000002
  0
ARC
  5
771
330
18
100
AcDbEntity
  8
1
  6
Continuous
100
AcDbCircle
 10
471.3191416258728
 20
247.0213174686902
 30
0.0
 40
2.778000099999998
100
AcDbArc
 50
189.7823799999999
 51
222.5338800000002
  0
ARC
  5
772
330
18
100
AcDbEntity
  8
1
  6
Continuous
100
AcDbCircle
 10
465.9191416258726
 20
247.0213174686902
 30
0.0
 40
2.778000099999998
100
AcDbArc
 50
317.4661199999998
 51
346.3905399999999
  0
ARC
  5
773
330
18
100
AcDbEntity
  8
1
  6
Continuous
100
AcDbCircle
 10
465.9191416258726
 20
247.0213174686902
 30
0.0
 40
2.778000099999998
100
AcDbArc
 50
189.7823799999999
 51
222.5338800000002
  0
ARC
  5
774
330
18
100
AcDbEntity
  8
1
  6
Continuous
100
AcDbCircle
 10
461.4191416258726
 20
247.0213174686902
 30
0.0
 40
2.778000099999998
100
AcDbArc
 50
317.4661199999998
 51
324.0895999999995
  0
ARC
  5
775
330
18
100
AcDbEntity
  8
1
  6
Continuous
100
AcDbCircle
 10
449.8191416258726
 20
242.1433171686901
 30
0.0
 40
3.0
100
AcDbArc
 50
89.99999699999987
 51
175.5102049999998
  0
LINE
  5
776
330
18
100
AcDbEntity
  8
1
  6
Continuous
100
AcDbLine
 10
454.2945916258727
 20
235.2670644686903
 30
0.0
 11
446.3191516258726
 21
235.8933161686902
 31
0.0
  0
LINE
  5
777
330
18
100
AcDbEntity
  8
1
  6
Continuous
100
AcDbLine
 10
446.3191516258726
 20
235.8933161686902
 30
0.0
 11
446.8283616258727
 21
242.3781614986903
 31
0.0
  0
ARC
  5
778
330
18
100
AcDbEntity
  8
1
  6
Continuous
100
AcDbCircle
 10
461.4191416258726
 20
247.0213174686902
 30
0.0
 40
2.778000099999998
100
AcDbArc
 50
189.7823799999999
 51
222.5338800000002
  0
ARC
  5
779
330
18
100
AcDbEntity
  8
1
  6
Continuous
100
AcDbCircle
 10
457.9191416258726
 20
247.0213174686902
 30
0.0
 40
2.778000099999998
100
AcDbArc
 50
189.7823799999999
 51
222.5338800000002
  0
ARC
  5
77A
330
18
100
AcDbEntity
  8
1
  6
Continuous
100
AcDbCircle
 10
446.8345516258726
 20
250.2493180686901
 30
0.0
 40
1.0
100
AcDbArc
 50
14.81238999999995
 51
90.00000399999995
  0
ARC
  5
77B
330
18
100
AcDbEntity
  8
1
  6
Continuous
100
AcDbCircle
 10
450.9720516258727
 20
250.2493170686901
 30
0.0
 40
3.0
100
AcDbArc
 50
194.8123899999999
 51
270.0
  0
ARC
  5
77C
330
18
100
AcDbEntity
  8
1
  6
Continuous
100
AcDbCircle
 10
450.9720516258727
 20
247.7493170686901
 30
0.0
 40
0.5
100
AcDbArc
 50
270.0
 51
352.3953100000002
  0
ARC
  5
77D
330
18
100
AcDbEntity
  8
1
  6
Continuous
100
AcDbCircle
 10
455.4191416258726
 20
247.0213174686902
 30
0.0
 40
2.778000099999998
100
AcDbArc
 50
189.7823799999999
 51
222.5338800000002
  0
ARC
  5
77E
330
18
100
AcDbEntity
  8
1
  6
Continuous
100
AcDbCircle
 10
453.9191416258726
 20
247.0213174686902
 30
0.0
 40
2.778000099999998
100
AcDbArc
 50
189.7823799999999
 51
222.5338800000002
  0
LINE
  5
77F
330
18
100
AcDbEntity
  8
1
  6
Continuous
100
AcDbLine
 10
451.4676516258726
 20
247.68314876869
 30
0.0
 11
451.8279316258726
 21
250.3816560686901
 31
0.0
  0
ARC
  5
780
330
18
100
AcDbEntity
  8
1
  6
Continuous
100
AcDbCircle
 10
452.8191416258726
 20
250.2493180686901
 30
0.0
 40
1.0
100
AcDbArc
 50
90.00000399999995
 51
172.3953067
  0
LINE
  5
781
330
18
100
AcDbEntity
  8
1
  6
Continuous
100
AcDbLine
 10
447.8013316258726
 20
250.5049738686901
 30
0.0
 11
448.0717516258726
 21
249.4823555686902
 31
0.0
  0
LINE
  5
783
330
18
100
AcDbEntity
  8
4
  6
CENTER
 48
0.5
100
AcDbLine
 10
443.8191516258727
 20
258.2493180686901
 30
0.0
 11
443.8191516258727
 21
246.2493180686901
 31
0.0
  0
ARC
  5
784
330
18
100
AcDbEntity
  8
1
  6
Continuous
100
AcDbCircle
 10
443.3191416258726
 20
249.7493180686902
 30
0.0
 40
1.5
100
AcDbArc
 50
33.06801000000008
 51
90.0000519999997
  0
LINE
  5
785
330
18
100
AcDbEntity
  8
1
  6
Continuous
100
AcDbLine
 10
436.3191416258726
 20
251.2493180686901
 30
0.0
 11
436.3191416258726
 21
253.2493180686901
 31
0.0
  0
CIRCLE
  5
806
330
18
100
AcDbEntity
  8
1
  6
Continuous
100
AcDbCircle
 10
228.8286958556685
 20
45.75791989702952
 30
0.0
 40
4.400000099999997
  0
LINE
  5
807
330
18
100
AcDbEntity
  8
1
  6
Continuous
100
AcDbLine
 10
175.3286978556686
 20
37.75791989702952
 30
0.0
 11
227.3286958556686
 21
37.75791989702952
 31
0.0
  0
CIRCLE
  5
808
330
18
100
AcDbEntity
  8
1
  6
Continuous
100
AcDbCircle
 10
228.8286958556685
 20
87.7579198970295
 30
0.0
 40
4.400000099999997
  0
LINE
  5
809
330
18
100
AcDbEntity
  8
1
  6
Continuous
100
AcDbLine
 10
213.0706009460304
 20
95.75791989702951
 30
0.0
 11
227.3286958556686
 21
95.75791989702951
 31
0.0
  0
LINE
  5
80A
330
18
100
AcDbEntity
  8
4
  6
CENTER
 48
0.5
100
AcDbLine
 10
134.8287058556685
 20
66.75791989702952
 30
0.0
 11
239.3253758556685
 21
66.75791989702952
 31
0.0
  0
LINE
  5
80B
330
18
100
AcDbEntity
  8
4
  6
CENTER
 48
0.5
100
AcDbLine
 10
219.4286957556685
 20
87.7579198970295
 30
0.0
 11
238.2286959556686
 21
87.7579198970295
 31
0.0
  0
LINE
  5
80C
330
18
100
AcDbEntity
  8
4
  6
CENTER
 48
0.5
100
AcDbLine
 10
219.4286957556685
 20
45.75791989702952
 30
0.0
 11
238.2286959556686
 21
45.75791989702952
 31
0.0
  0
LINE
  5
817
330
18
100
AcDbEntity
  8
4
  6
CENTER
 48
0.5
100
AcDbLine
 10
172.3287058556684
 20
32.75791989702951
 30
0.0
 11
172.3287058556684
 21
103.9842909036025
 31
0.0
  0
LINE
  5
818
330
18
100
AcDbEntity
  8
4
  6
CENTER
 48
0.5
100
AcDbLine
 10
201.3287058556684
 20
32.75791989702951
 30
0.0
 11
201.3287058556684
 21
100.7579198970294
 31
0.0
  0
LINE
  5
81A
330
18
100
AcDbEntity
  8
1
  6
Continuous
100
AcDbLine
 10
182.0673611466381
 20
82.7579198970295
 30
0.0
 11
161.4702578556685
 21
82.7579198970295
 31
0.0
  0
LINE
  5
81C
330
18
100
AcDbEntity
  8
1
  6
Continuous
100
AcDbLine
 10
183.3124410451056
 20
84.75791989702928
 30
0.0
 11
145.9487519605144
 21
84.75791989702953
 31
0.0
  0
ARC
  5
81E
330
18
100
AcDbEntity
  8
1
  6
Continuous
100
AcDbCircle
 10
224.890554946828
 20
215.1986131655073
 30
0.0
 40
130.886652760822
100
AcDbArc
 50
238.8283159523073
 51
244.3018029803567
  0
LINE
  5
820
330
18
100
AcDbEntity
  8
4
  6
CENTER
 48
0.5
100
AcDbLine
 10
183.2287059556684
 20
87.7579198970295
 30
0.0
 11
164.4287057556685
 21
87.7579198970295
 31
0.0
  0
ARC
  5
823
330
18
100
AcDbEntity
  8
1
  6
Continuous
100
AcDbCircle
 10
150.6842847497775
 20
95.75151597437388
 30
0.0
 40
9.014173069428037
100
AcDbArc
 50
92.18753769277858
 51
240.407129826012
  0
ARC
  5
825
330
18
100
AcDbEntity
  8
5
  6
PHANTOM
 48
0.3
100
AcDbCircle
 10
135.824245566492
 20
95.44683911576193
 30
0.0
 40
9.528561970159287
100
AcDbArc
 50
102.2308950074712
 51
233.7974331717227
  0
ARC
  5
826
330
18
100
AcDbEntity
  8
1
  6
Continuous
100
AcDbCircle
 10
150.8228142962236
 20
91.17174566901752
 30
0.0
 40
13.59594225091025
100
AcDbArc
 50
62.2986134981402
 51
92.0342114468281
  0
LINE
  5
82A
330
18
100
AcDbEntity
  8
1
  6
Continuous
100
AcDbLine
 10
145.9487519605144
 20
84.75791989702953
 30
0.0
 11
145.9487519605144
 21
86.75791989702949
 31
0.0
  0
ARC
  5
82B
330
18
100
AcDbEntity
  8
1
  6
Continuous
100
AcDbCircle
 10
145.9858658055056
 20
87.47840600174937
 30
0.0
 40
0.5
100
AcDbArc
 50
338.1889595771846
 51
60.40712982601309
  0
ARC
  5
82C
330
18
100
AcDbEntity
  8
1
  6
Continuous
100
AcDbCircle
 10
145.5151941887459
 20
87.66676642909494
 30
0.0
 40
1.00696293889502
100
AcDbArc
 50
295.5030923427809
 51
338.1889595771851
  0
LINE
  5
82E
330
18
100
AcDbEntity
  8
1
  6
Continuous
100
AcDbLine
 10
156.5740170278853
 20
82.05791989702953
 30
0.0
 11
157.7239931683546
 21
81.3579241597081
 31
0.0
  0
ARC
  5
82F
330
18
100
AcDbEntity
  8
1
  6
Continuous
100
AcDbCircle
 10
153.5070380278851
 20
83.74422989702953
 30
0.0
 40
3.5
100
AcDbArc
 50
331.1970679999999
 51
359.9999970000002
  0
ARC
  5
830
330
18
100
AcDbEntity
  8
1
  6
Continuous
100
AcDbCircle
 10
157.6242320278852
 20
83.1680498970295
 30
0.0
 40
4.0
100
AcDbArc
 50
333.093541471262
 51
354.1149781513591
  0
LINE
  5
832
330
18
100
AcDbEntity
  8
1
  6
Continuous
100
AcDbLine
 10
157.0070380278851
 20
83.74422971377004
 30
0.0
 11
157.0070512422428
 21
84.75791989702953
 31
0.0
  0
ARC
  5
83A
330
18
100
AcDbEntity
  8
1
  6
Continuous
100
AcDbCircle
 10
227.8033436403867
 20
52.17778057170503
 30
0.0
 40
62.25166321005164
100
AcDbArc
 50
117.4690743390452
 51
128.2796568605381
  0
ARC
  5
83C
330
18
100
AcDbEntity
  8
1
  6
Continuous
100
AcDbCircle
 10
200.2398511796388
 20
97.73093386892828
 30
0.0
 40
12.98156091158014
100
AcDbArc
 50
351.2579711549349
 51
58.28654260621525
  0
ARC
  5
83E
330
18
100
AcDbEntity
  8
1
  6
Continuous
100
AcDbCircle
 10
204.395781261605
 20
100.3714512042545
 30
0.0
 40
8.816165241644052
100
AcDbArc
 50
72.38388658969249
 51
127.0125962767937
  0
LINE
  5
83F
330
18
100
AcDbEntity
  8
4
  6
CENTER
 48
0.5
100
AcDbLine
 10
173.8287058556686
 20
97.15791999702958
 30
0.0
 11
173.8287058556686
 21
78.35791979702958
 31
0.0
  0
LINE
  5
845
330
18
100
AcDbEntity
  8
1
  6
Continuous
100
AcDbLine
 10
176.3287058556684
 20
100.1328888970294
 30
0.0
 11
168.3287058556685
 21
100.1328888970294
 31
0.0
  0
LINE
  5
846
330
18
100
AcDbEntity
  8
1
  6
Continuous
100
AcDbLine
 10
175.7037058556685
 20
100.7578888970295
 30
0.0
 11
168.9537058556685
 21
100.7578888970295
 31
0.0
  0
LINE
  5
847
330
18
100
AcDbEntity
  8
1
  6
Continuous
100
AcDbLine
 10
168.9537078556685
 20
100.7578868970294
 30
0.0
 11
168.3287088556685
 21
100.1328888970294
 31
0.0
  0
LINE
  5
848
330
18
100
AcDbEntity
  8
1
  6
Continuous
100
AcDbLine
 10
168.3287058556685
 20
97.25787189702952
 30
0.0
 11
168.3287058556685
 21
100.1328888970294
 31
0.0
  0
LINE
  5
849
330
18
100
AcDbEntity
  8
2
  6
Continuous
100
AcDbLine
 10
168.9537058556685
 20
97.25787189702948
 30
0.0
 11
168.9537058556685
 21
100.7578888970295
 31
0.0
  0
LINE
  5
84E
330
18
100
AcDbEntity
  8
1
  6
Continuous
100
AcDbLine
 10
176.3287078556684
 20
100.1328908970295
 30
0.0
 11
175.7037078556684
 21
100.7578908970294
 31
0.0
  0
LINE
  5
84F
330
18
100
AcDbEntity
  8
1
  6
Continuous
100
AcDbLine
 10
176.3287058556684
 20
97.25787189702952
 30
0.0
 11
176.3287058556684
 21
100.1328888970294
 31
0.0
  0
LINE
  5
850
330
18
100
AcDbEntity
  8
2
  6
Continuous
100
AcDbLine
 10
175.7037058556685
 20
97.25787189702952
 30
0.0
 11
175.7037058556685
 21
100.7578888970295
 31
0.0
  0
ARC
  5
853
330
18
100
AcDbEntity
  8
1
  6
Continuous
100
AcDbCircle
 10
169.2238023257503
 20
123.033014520904
 30
0.0
 40
29.73302351983562
100
AcDbArc
 50
289.7210124292245
 51
312.3102060806671
  0
LINE
  5
856
330
18
100
AcDbEntity
  8
1
  6
Continuous
100
AcDbLine
 10
182.067361146638
 20
50.75791989702953
 30
0.0
 11
161.4702578556685
 21
50.75791989702953
 31
0.0
  0
LINE
  5
857
330
18
100
AcDbEntity
  8
1
  6
Continuous
100
AcDbLine
 10
182.067361146638
 20
48.75791989702953
 30
0.0
 11
161.4702578556685
 21
48.75791989702952
 31
0.0
  0
LINE
  5
859
330
18
100
AcDbEntity
  8
4
  6
CENTER
 48
0.5
100
AcDbLine
 10
183.2287059556684
 20
45.75791989702952
 30
0.0
 11
164.4287057556685
 21
45.75791989702952
 31
0.0
  0
ARC
  5
85A
330
18
100
AcDbEntity
  8
1
  6
Continuous
100
AcDbCircle
 10
175.3287058556684
 20
46.75791989702952
 30
0.0
 40
9.0
100
AcDbArc
 50
192.8395232429013
 51
270.0000179999999
  0
LINE
  5
85C
330
18
100
AcDbEntity
  8
1
  6
Continuous
100
AcDbLine
 10
161.4702578556685
 20
48.75791989702952
 30
0.0
 11
161.4702578556685
 21
50.75791989702953
 31
0.0
  0
LINE
  5
861
330
18
100
AcDbEntity
  8
4
  6
CENTER
 48
0.5
100
AcDbLine
 10
173.8287058556686
 20
36.35791979702953
 30
0.0
 11
173.8287058556686
 21
55.15791999702958
 31
0.0
  0
ARC
  5
863
330
18
100
AcDbEntity
  8
1
  6
Continuous
100
AcDbCircle
 10
173.8287058556686
 20
45.75791989702952
 30
0.0
 40
4.400000099999997
100
AcDbArc
 50
193.1364250336183
 51
346.8635749663817
  0
ARC
  5
869
330
18
100
AcDbEntity
  8
1
  6
Continuous
100
AcDbCircle
 10
337.7866958556686
 20
66.75791989702952
 30
0.0
 40
103.46132
100
AcDbArc
 50
168.7159599999997
 51
191.2841099999999
  0
LINE
  5
86C
330
18
100
AcDbEntity
  8
4
  6
CENTER
 48
0.5
100
AcDbLine
 10
228.8286958556685
 20
97.15791999702958
 30
0.0
 11
228.8286958556685
 21
78.35791979702958
 31
0.0
  0
ARC
  5
86D
330
18
100
AcDbEntity
  8
1
  6
Continuous
100
AcDbCircle
 10
227.3286958556686
 20
86.75791989702949
 30
0.0
 40
9.0
100
AcDbArc
 50
1.557489999999965
 51
89.99997999999962
  0
LINE
  5
86E
330
18
100
AcDbEntity
  8
4
  6
CENTER
 48
0.5
100
AcDbLine
 10
228.8286958556685
 20
36.35791979702953
 30
0.0
 11
228.8286958556685
 21
55.15791999702958
 31
0.0
  0
ARC
  5
86F
330
18
100
AcDbEntity
  8
1
  6
Continuous
100
AcDbCircle
 10
227.3286958556686
 20
46.75791989702952
 30
0.0
 40
9.0
100
AcDbArc
 50
270.0000179999999
 51
358.4425606164054
  0
ARC
  5
925
330
18
100
AcDbEntity
  8
1
  6
Continuous
100
AcDbCircle
 10
464.5290716258728
 20
181.2894840686903
 30
0.0
 40
3.0
100
AcDbArc
 50
41.12677999999981
 51
127.9999970000002
  0
LINE
  5
926
330
18
100
AcDbEntity
  8
1
  6
Continuous
100
AcDbLine
 10
468.0201741990433
 20
181.686640957631
 30
0.0
 11
466.7888397859337
 21
183.2626662353374
 31
0.0
  0
LINE
  5
927
330
18
100
AcDbEntity
  8
1
  6
Continuous
100
AcDbLine
 10
524.6856375202135
 20
232.0959898847672
 30
0.0
 11
525.9169615202136
 21
230.5199681847672
 31
0.0
  0
ARC
  5
BB7
330
18
100
AcDbEntity
  8
1
  6
Continuous
100
AcDbCircle
 10
347.2872417407704
 20
219.53064916869
 30
0.0
 40
34.0
100
AcDbArc
 50
180.0
 51
216.4344729815145
  0
ARC
  5
BBE
330
18
100
AcDbEntity
  8
1
  6
Continuous
100
AcDbCircle
 10
318.3239237407706
 20
198.1501391085704
 30
0.0
 40
2.0
100
AcDbArc
 50
0.0
 51
36.43447298151488
  0
ARC
  5
BBF
330
18
100
AcDbEntity
  8
1
  6
Continuous
100
AcDbCircle
 10
334.9535123885489
 20
219.5306489772468
 30
0.0
 40
23.66627064777831
100
AcDbArc
 50
147.7507858932563
 51
176.5150550974781
  0
ARC
  5
BC0
330
18
100
AcDbEntity
  8
1
  6
Continuous
100
AcDbCircle
 10
334.9535123885489
 20
219.5306489772468
 30
0.0
 40
21.66627064777832
100
AcDbArc
 50
142.8304377668134
 51
180.0000008893413
  0
ARC
  5
BDC
330
18
100
AcDbEntity
  8
1
  6
Continuous
100
AcDbCircle
 10
325.3606057407706
 20
219.53064916869
 30
0.0
 40
34.0
100
AcDbArc
 50
323.5655270184853
 51
0.0
  0
ARC
  5
BE2
330
18
100
AcDbEntity
  8
1
  6
Continuous
100
AcDbCircle
 10
354.3239237407705
 20
198.1501391085704
 30
0.0
 40
2.0
100
AcDbArc
 50
143.5655270184861
 51
180.0
  0
ARC
  5
BED
330
18
100
AcDbEntity
  8
1
  6
Continuous
100
AcDbCircle
 10
337.6943350929924
 20
219.5306489772468
 30
0.0
 40
23.66627064777831
100
AcDbArc
 50
3.484944902524274
 51
32.24921410674369
  0
ARC
  5
BEE
330
18
100
AcDbEntity
  8
1
  6
Continuous
100
AcDbCircle
 10
337.6943350929924
 20
219.5306489772468
 30
0.0
 40
21.66627064777832
100
AcDbArc
 50
359.9999991106586
 51
37.16956223318641
  0
ARC
  5
C15
330
18
100
AcDbEntity
  8
1
  6
Continuous
100
AcDbCircle
 10
500.3191416258728
 20
200.7493180686901
 30
0.0
 40
11.0
100
AcDbArc
 50
219.9716499999988
 51
5.997185743677516
  0
ARC
  5
C5D
330
18
100
AcDbEntity
  8
1
  6
Continuous
100
AcDbCircle
 10
201.3287058556687
 20
66.75791989702928
 30
0.0
 40
18.0
100
AcDbArc
 50
229.2532754652122
 51
131.4096221092698
  0
ARC
  5
C5E
330
18
100
AcDbEntity
  8
1
  6
Continuous
100
AcDbCircle
 10
201.3287058556687
 20
66.75791989702928
 30
0.0
 40
28.0
100
AcDbArc
 50
220.0052008848604
 51
67.62978999150703
  0
ARC
  5
C5F
330
18
100
AcDbEntity
  8
1
  6
Continuous
100
AcDbCircle
 10
201.3287058556687
 20
66.75791989702928
 30
0.0
 40
22.99999000000001
100
AcDbArc
 50
230.0555176158369
 51
79.29883955181207
  0
ARC
  5
C60
330
18
100
AcDbEntity
  8
1
  6
Continuous
100
AcDbCircle
 10
201.3287058556687
 20
66.75791989702928
 30
0.0
 40
24.99999000000002
100
AcDbArc
 50
230.0555176158369
 51
69.81157102064436
  0
ARC
  5
C78
330
18
100
AcDbEntity
  8
1
  6
Continuous
100
AcDbCircle
 10
182.067361146638
 20
43.75791989702928
 30
0.0
 40
7.0
100
AcDbArc
 50
50.05551761583706
 51
90.0
  0
ARC
  5
C79
330
18
100
AcDbEntity
  8
1
  6
Continuous
100
AcDbCircle
 10
182.067361146638
 20
43.75791989702928
 30
0.0
 40
5.0
100
AcDbArc
 50
50.05551761583706
 51
90.0
  0
ARC
  5
C8E
330
18
100
AcDbEntity
  8
1
  6
Continuous
100
AcDbCircle
 10
167.9968558556685
 20
47.25792987702948
 30
0.0
 40
1.5
100
AcDbArc
 50
89.99999700000229
 51
180.0
  0
ARC
  5
C8F
330
18
100
AcDbEntity
  8
1
  6
Continuous
100
AcDbCircle
 10
167.9968558556685
 20
46.25792987702925
 30
0.0
 40
1.5
100
AcDbArc
 50
180.0
 51
270.0
  0
LINE
  5
C90
330
18
100
AcDbEntity
  8
1
  6
Continuous
100
AcDbLine
 10
179.0287058556684
 20
44.75792987702948
 30
0.0
 11
165.6287058556686
 21
44.75792987702948
 31
0.0
  0
LINE
  5
C98
330
18
100
AcDbEntity
  8
1
  6
Continuous
100
AcDbLine
 10
165.3287058556685
 20
45.0579298770292
 30
0.0
 11
165.3287058556685
 21
48.45791987702932
 31
0.0
  0
ARC
  5
C9B
330
18
100
AcDbEntity
  8
1
  6
Continuous
100
AcDbCircle
 10
165.6287058556686
 20
48.45791987702932
 30
0.0
 40
0.30000001
100
AcDbArc
 50
89.99999700000229
 51
180.0
  0
LINE
  5
C9C
330
18
100
AcDbEntity
  8
1
  6
Continuous
100
AcDbLine
 10
166.4968558556685
 20
46.25792987702925
 30
0.0
 11
166.4968558556685
 21
47.25792987702948
 31
0.0
  0
ARC
  5
C9F
330
18
100
AcDbEntity
  8
1
  6
Continuous
100
AcDbCircle
 10
165.6287058556686
 20
45.0579298770292
 30
0.0
 40
0.30000001
100
AcDbArc
 50
180.0
 51
270.0
  0
ARC
  5
CA0
330
18
100
AcDbEntity
  8
1
  6
Continuous
100
AcDbCircle
 10
182.0673611466381
 20
89.75791989702939
 30
0.0
 40
7.0
100
AcDbArc
 50
270.0
 51
309.9444823841628
  0
ARC
  5
CA2
330
18
100
AcDbEntity
  8
1
  6
Continuous
100
AcDbCircle
 10
176.6605558556684
 20
46.25792987702925
 30
0.0
 40
1.5
100
AcDbArc
 50
270.0
 51
0.0000100000010205
  0
ARC
  5
CA3
330
18
100
AcDbEntity
  8
1
  6
Continuous
100
AcDbCircle
 10
174.9968558556684
 20
46.25792987702925
 30
0.0
 40
1.5
100
AcDbArc
 50
180.0
 51
270.0
  0
LINE
  5
CA4
330
18
100
AcDbEntity
  8
1
  6
Continuous
100
AcDbLine
 10
179.3287058556684
 20
45.0579298770292
 30
0.0
 11
179.3287058556684
 21
48.45791987702932
 31
0.0
  0
ARC
  5
CA5
330
18
100
AcDbEntity
  8
1
  6
Continuous
100
AcDbCircle
 10
169.6605558556685
 20
46.25792987702925
 30
0.0
 40
1.5
100
AcDbArc
 50
270.0
 51
0.0000100000010205
  0
ARC
  5
CA7
330
18
100
AcDbEntity
  8
1
  6
Continuous
100
AcDbCircle
 10
174.9968558556684
 20
47.25792987702948
 30
0.0
 40
1.5
100
AcDbArc
 50
89.99999700000229
 51
180.0
  0
LINE
  5
CA8
330
18
100
AcDbEntity
  8
1
  6
Continuous
100
AcDbLine
 10
173.4968558556684
 20
46.25792987702925
 30
0.0
 11
173.4968558556684
 21
47.25792987702948
 31
0.0
  0
LINE
  5
CA9
330
18
100
AcDbEntity
  8
1
  6
Continuous
100
AcDbLine
 10
171.1605558556685
 20
46.25792987702925
 30
0.0
 11
171.1605558556685
 21
47.25792987702948
 31
0.0
  0
ARC
  5
CAA
330
18
100
AcDbEntity
  8
1
  6
Continuous
100
AcDbCircle
 10
169.6605558556685
 20
47.25792987702948
 30
0.0
 40
1.5
100
AcDbArc
 50
359.999989999999
 51
89.99999700000229
  0
ARC
  5
CAC
330
18
100
AcDbEntity
  8
1
  6
Continuous
100
AcDbCircle
 10
176.6605558556684
 20
47.25792987702948
 30
0.0
 40
1.5
100
AcDbArc
 50
359.999989999999
 51
89.99999700000229
  0
LINE
  5
CAD
330
18
100
AcDbEntity
  8
1
  6
Continuous
100
AcDbLine
 10
178.1605558556685
 20
46.25792987702925
 30
0.0
 11
178.1605558556685
 21
47.25792987702948
 31
0.0
  0
ARC
  5
CAE
330
18
100
AcDbEntity
  8
1
  6
Continuous
100
AcDbCircle
 10
179.0287058556684
 20
48.45791987702932
 30
0.0
 40
0.30000001
100
AcDbArc
 50
359.999989999999
 51
89.99999700000229
  0
ARC
  5
CB1
330
18
100
AcDbEntity
  8
1
  6
Continuous
100
AcDbCircle
 10
179.0287058556684
 20
45.0579298770292
 30
0.0
 40
0.30000001
100
AcDbArc
 50
270.0
 51
0.0000100000010205
  0
ARC
  5
CC0
330
18
100
AcDbEntity
  8
1
  6
Continuous
100
AcDbCircle
 10
201.3287058556687
 20
66.75791989702928
 30
0.0
 40
7.5
100
AcDbArc
 50
294.7695883220582
 51
65.23041167794132
  0
LINE
  5
F9B
330
18
100
AcDbEntity
  8
1
  6
Continuous
100
AcDbLine
 10
174.8543504030164
 20
86.75791989702956
 30
0.0
 11
145.9487519605144
 21
86.75791989702949
 31
0.0
  0
LINE
  5
F9C
330
18
100
AcDbEntity
  8
1
  6
Continuous
100
AcDbLine
 10
160.0412251191998
 20
82.05793508837063
 30
0.0
 11
156.5740251191997
 21
82.05793508837063
 31
0.0
  0
LINE
  5
F9D
330
18
100
AcDbEntity
  8
1
  6
Continuous
100
AcDbLine
 10
160.4742380278851
 20
83.74422971377004
 30
0.0
 11
160.4742512422428
 21
84.75791989702953
 31
0.0
  0
ARC
  5
F9E
330
18
100
AcDbEntity
  8
1
  6
Continuous
100
AcDbCircle
 10
156.9742380278851
 20
83.74422989702953
 30
0.0
 40
3.5
100
AcDbArc
 50
331.1970679999999
 51
359.9999970000002
  0
LINE
  5
F9F
330
18
100
AcDbEntity
  8
1
  6
Continuous
100
AcDbLine
 10
160.0412170278852
 20
82.05791989702953
 30
0.0
 11
161.191218125192
 21
81.357908968367
 31
0.0
  0
LINE
  5
FA1
330
18
100
AcDbEntity
  8
1
  6
Continuous
100
AcDbLine
 10
161.4702578556685
 20
84.75791989702953
 30
0.0
 11
161.4702578556685
 21
82.7579198970295
 31
0.0
  0
LINE
  5
1064
330
18
100
AcDbEntity
  8
1
  6
Continuous
100
AcDbLine
 10
186.1050387233826
 20
89.35791789702944
 30
0.0
 11
208.734430157865
 21
89.35791789702944
 31
0.0
  0
LINE
  5
1065
330
18
100
AcDbEntity
  8
1
  6
Continuous
100
AcDbLine
 10
186.1050387233826
 20
91.35791789702944
 30
0.0
 11
208.734430157865
 21
91.35791789702944
 31
0.0
  0
LINE
  5
1066
330
18
100
AcDbEntity
  8
1
  6
Continuous
100
AcDbLine
 10
175.6951380253604
 20
86.94323640558723
 30
0.0
 11
184.4234634786948
 21
90.98728487991406
 31
0.0
  0
LINE
  5
1067
330
18
100
AcDbEntity
  8
1
  6
Continuous
100
AcDbLine
 10
176.5359256477043
 20
85.12855291414494
 30
0.0
 11
185.2642511010387
 21
89.17260138847174
 31
0.0
  0
ARC
  5
1068
330
18
100
AcDbEntity
  8
1
  6
Continuous
100
AcDbCircle
 10
174.8543504030164
 20
88.75791989702953
 30
0.0
 40
2.0
100
AcDbArc
 50
270.0
 51
294.8594529283502
  0
ARC
  5
1069
330
18
100
AcDbEntity
  8
1
  6
Continuous
100
AcDbCircle
 10
186.1050387233826
 20
87.35791789702945
 30
0.0
 40
2.0
100
AcDbArc
 50
90.0
 51
114.8594529283502
  0
ARC
  5
106A
330
18
100
AcDbEntity
  8
1
  6
Continuous
100
AcDbCircle
 10
186.1050387233826
 20
87.35791789702943
 30
0.0
 40
4.0
100
AcDbArc
 50
90.0
 51
114.8594529283502
  0
ARC
  5
106B
330
18
100
AcDbEntity
  8
1
  6
Continuous
100
AcDbCircle
 10
174.8543504030163
 20
88.75791989702952
 30
0.0
 40
4.0
100
AcDbArc
 50
270.0
 51
294.8594529283502
  0
LINE
  5
106C
330
18
100
AcDbEntity
  8
1
  6
Continuous
100
AcDbLine
 10
208.734430157865
 20
91.35791789702944
 30
0.0
 11
208.734430157865
 21
89.35791789702944
 31
0.0
  0
ARC
  5
106F
330
18
100
AcDbEntity
  8
1
  6
Continuous
100
AcDbCircle
 10
204.1562346003655
 20
97.12870284225417
 30
0.0
 40
9.019144816868113
100
AcDbArc
 50
300.5046712845656
 51
351.2579693914724
  0
ARC
  5
1071
330
18
100
AcDbEntity
  8
1
  6
Continuous
100
AcDbCircle
 10
198.7602049440884
 20
97.73093386892831
 30
0.0
 40
12.98156091158014
100
AcDbArc
 50
351.2579711549349
 51
58.28654260621525
  0
ARC
  5
1072
330
18
100
AcDbEntity
  8
1
  6
Continuous
100
AcDbCircle
 10
206.208539450857
 20
96.12499388509451
 30
0.0
 40
5.394917732434525
100
AcDbArc
 50
297.9174004527756
 51
356.0985406749773
  0
ARC
  5
1073
330
18
100
AcDbEntity
  8
1
  6
Continuous
100
AcDbCircle
 10
202.9161350260546
 20
100.3714512042545
 30
0.0
 40
8.816165241644052
100
AcDbArc
 50
72.38388658969249
 51
85.18626866883911
  0
ARC
  5
1075
330
18
100
AcDbEntity
  8
1
  6
Continuous
100
AcDbCircle
 10
201.3287058556687
 20
66.75791989702928
 30
0.0
 40
22.99999000000001
100
AcDbArc
 50
100.7011604481877
 51
129.9444823841629
  0
LINE
  5
1077
330
18
100
AcDbEntity
  8
1
  6
Continuous
100
AcDbLine
 10
184.9940162897935
 20
85.12855291414494
 30
0.0
 11
193.7223417431279
 21
89.17260138847174
 31
0.0
  0
ARC
  5
1078
330
18
100
AcDbEntity
  8
1
  6
Continuous
100
AcDbCircle
 10
194.5631293654719
 20
87.35791789702945
 30
0.0
 40
2.0
100
AcDbArc
 50
90.0
 51
114.8594529283502
  0
ARC
  5
1079
330
18
100
AcDbEntity
  8
1
  6
Continuous
100
AcDbCircle
 10
183.3124410451056
 20
88.75791989702952
 30
0.0
 40
4.0
100
AcDbArc
 50
270.0
 51
294.8594529283502
  0
LINE
  5
1084
330
18
100
AcDbEntity
  8
1
  6
Continuous
100
AcDbLine
 10
186.8799511530799
 20
98.1099483249023
 30
0.0
 11
186.8799511530799
 21
92.35791789702943
 31
0.0
  0
LINE
  5
108B
330
18
100
AcDbEntity
  8
1
  6
Continuous
100
AcDbLine
 10
164.5287068556685
 20
89.1578710970295
 30
0.0
 11
164.6692609825155
 21
89.26948667634681
 31
0.0
  0
LINE
  5
1090
330
18
100
AcDbEntity
  8
1
  6
Continuous
100
AcDbLine
 10
180.256310648329
 20
89.05654018712892
 30
0.0
 11
179.9881572823665
 21
89.26948566382867
 31
0.0
  0
ARC
  5
1099
330
18
100
AcDbEntity
  8
1
  6
Continuous
100
AcDbCircle
 10
166.3988138711525
 20
86.62494376746806
 30
0.0
 40
3.148495280274048
100
AcDbArc
 50
126.4390196685619
 51
177.5794031001488
  0
ARC
  5
10A6
330
18
100
AcDbEntity
  8
1
  6
Continuous
100
AcDbCircle
 10
166.4586038772634
 20
86.62493976746809
 30
0.0
 40
3.148495280274048
100
AcDbArc
 50
2.420596899850925
 51
53.47862561574475
  0
ARC
  5
10A7
330
18
100
AcDbEntity
  8
1
  6
Continuous
100
AcDbCircle
 10
176.6988134244633
 20
86.62494424583826
 30
0.0
 40
3.148495280274048
100
AcDbArc
 50
122.1124869023297
 51
177.5794031001488
  0
ARC
  5
10F3
330
18
100
AcDbEntity
  8
1
  6
Continuous
100
AcDbCircle
 10
200.125246539145
 20
88.34422789702944
 30
0.0
 40
3.5
100
AcDbArc
 50
331.1970679999997
 51
359.9999970000002
  0
LINE
  5
10F4
330
18
100
AcDbEntity
  8
1
  6
Continuous
100
AcDbLine
 10
203.1922336304595
 20
86.65793308837058
 30
0.0
 11
200.197788780085
 21
86.65793308837058
 31
0.0
  0
ARC
  5
10F5
330
18
100
AcDbEntity
  8
1
  6
Continuous
100
AcDbCircle
 10
197.1308016887704
 20
88.34422789702944
 30
0.0
 40
3.5
100
AcDbArc
 50
331.1970679999999
 51
359.9999970000002
  0
LINE
  5
10F6
330
18
100
AcDbEntity
  8
1
  6
Continuous
100
AcDbLine
 10
203.625246539145
 20
88.34422771376996
 30
0.0
 11
203.6252597535025
 21
89.35791789702944
 31
0.0
  0
LINE
  5
10F7
330
18
100
AcDbEntity
  8
1
  6
Continuous
100
AcDbLine
 10
200.6308016887704
 20
88.34422771376996
 30
0.0
 11
200.630814903128
 21
89.35791789702944
 31
0.0
  0
LINE
  5
10F9
330
18
100
AcDbEntity
  8
1
  6
Continuous
100
AcDbLine
 10
203.1922336304595
 20
86.65793308837058
 30
0.0
 11
204.4235710027778
 21
85.95790696836692
 31
0.0
  0
ARC
  5
10FA
330
18
100
AcDbEntity
  8
1
  6
Continuous
100
AcDbCircle
 10
200.856584905471
 20
87.76804789702941
 30
0.0
 40
4.0
100
AcDbArc
 50
333.093541471262
 51
0.0
  0
LINE
  5
10FE
330
18
100
AcDbEntity
  8
1
  6
Continuous
100
AcDbLine
 10
204.856584905471
 20
87.76804789702941
 30
0.0
 11
204.856584905471
 21
89.35791789702944
 31
0.0
  0
LINE
  5
10FF
330
18
100
AcDbEntity
  8
1
  6
Continuous
100
AcDbLine
 10
200.197788780085
 20
86.65793308837058
 30
0.0
 11
201.4291261524032
 21
85.95790696836692
 31
0.0
  0
LINE
  5
1100
330
18
100
AcDbEntity
  8
1
  6
Continuous
100
AcDbLine
 10
204.4235710027778
 20
85.95790696836692
 30
0.0
 11
201.4291261524032
 21
85.95790696836692
 31
0.0
  0
ARC
  5
1102
330
18
100
AcDbEntity
  8
1
  6
Continuous
100
AcDbCircle
 10
23.33015797056645
 20
236.963876952856
 30
0.0
 40
1.5
100
AcDbArc
 50
86.39330478436582
 51
180.0
  0
ARC
  5
1110
330
18
100
AcDbEntity
  8
1
  6
Continuous
100
AcDbCircle
 10
350.9748693981435
 20
229.6000077390896
 30
0.0
 40
5.0
100
AcDbArc
 50
37.16956223318653
 51
87.70635230450544
  0
ARC
  5
1111
330
18
100
AcDbEntity
  8
1
  6
Continuous
100
AcDbCircle
 10
353.4810561295151
 20
229.4910254164744
 30
0.0
 40
5.0
100
AcDbArc
 50
32.24921410674363
 51
87.3137348892382
  0
ARC
  5
1112
330
18
100
AcDbEntity
  8
1
  6
Continuous
100
AcDbCircle
 10
321.6729780833976
 20
229.6000077390896
 30
0.0
 40
5.0
100
AcDbArc
 50
92.29364769549393
 51
142.8304377668134
  0
ARC
  5
1113
330
18
100
AcDbEntity
  8
1
  6
Continuous
100
AcDbCircle
 10
319.1667913520262
 20
229.4910254164744
 30
0.0
 40
5.0
100
AcDbArc
 50
92.68626511076117
 51
147.7507858932563
  0
ARC
  5
1114
330
18
100
AcDbEntity
  8
1
  6
Continuous
100
AcDbCircle
 10
347.2850287407703
 20
218.5729650686901
 30
0.0
 40
36.0
100
AcDbArc
 50
178.6686099999999
 51
216.4404029930931
  0
LINE
  5
1115
330
18
100
AcDbEntity
  8
1
  6
Continuous
100
AcDbLine
 10
311.2947537407706
 20
219.4094280686901
 30
0.0
 11
311.8247337407706
 21
242.2130218686902
 31
0.0
  0
ARC
  5
1116
330
18
100
AcDbEntity
  8
1
  6
Continuous
100
AcDbCircle
 10
320.9284570193621
 20
219.4599894208089
 30
0.0
 40
1.0
100
AcDbArc
 50
37.3004500000001
 51
89.99999699999987
  0
LINE
  5
1117
330
18
100
AcDbEntity
  8
1
  6
Continuous
100
AcDbLine
 10
320.9284570193621
 20
220.459989420809
 30
0.0
 11
320.3239237407708
 21
220.459989420809
 31
0.0
  0
ARC
  5
1118
330
18
100
AcDbEntity
  8
1
  6
Continuous
100
AcDbCircle
 10
311.2239257407708
 20
181.6700858122083
 30
0.0
 40
0.5
100
AcDbArc
 50
0.0
 51
126.380762464009
  0
ARC
  5
111A
330
18
100
AcDbEntity
  8
1
  6
Continuous
100
AcDbCircle
 10
303.7917737407706
 20
193.3339220686901
 30
0.0
 40
12.03
100
AcDbArc
 50
219.4268000000004
 51
304.4280426807628
  0
ARC
  5
111B
330
18
100
AcDbEntity
  8
1
  6
Continuous
100
AcDbCircle
 10
296.9239217407707
 20
187.4605320686903
 30
0.0
 40
3.0
100
AcDbArc
 50
180.0
 51
216.0806499999998
  0
ARC
  5
111C
330
18
100
AcDbEntity
  8
1
  6
Continuous
100
AcDbCircle
 10
311.7239257407707
 20
181.7614605911605
 30
0.0
 40
2.0
100
AcDbArc
 50
0.0
 51
124.4280426807629
  0
LINE
  5
111D
330
18
100
AcDbEntity
  8
1
  6
Continuous
100
AcDbLine
 10
304.4538788249686
 20
200.2485895210966
 30
0.0
 11
313.7239257407707
 21
200.2485895210966
 31
0.0
  0
LINE
  5
111E
330
18
100
AcDbEntity
  8
1
  6
Continuous
100
AcDbLine
 10
306.0874310449412
 20
216.5725067327465
 30
0.0
 11
311.340652734973
 21
216.5725067327465
 31
0.0
  0
ARC
  5
1122
330
18
100
AcDbEntity
  8
1
  6
Continuous
100
AcDbCircle
 10
316.3284557407708
 20
188.9847509307178
 30
0.0
 40
1.0
100
AcDbArc
 50
37.3004500000001
 51
89.99999699999987
  0
LINE
  5
1124
330
18
100
AcDbEntity
  8
1
  6
Continuous
100
AcDbLine
 10
316.3284590193621
 20
187.6452340444112
 30
0.0
 11
312.7239257407707
 21
187.6452340444112
 31
0.0
  0
LINE
  5
1125
330
18
100
AcDbEntity
  8
1
  6
Continuous
100
AcDbLine
 10
316.3284557407708
 20
189.9847509307178
 30
0.0
 11
312.7239257407707
 21
189.9847509307178
 31
0.0
  0
ARC
  5
1126
330
18
100
AcDbEntity
  8
1
  6
Continuous
100
AcDbCircle
 10
316.3284590193621
 20
186.6452340444112
 30
0.0
 40
1.0
100
AcDbArc
 50
37.3004500000001
 51
89.99999699999987
  0
LINE
  5
1127
330
18
100
AcDbEntity
  8
1
  6
Continuous
100
AcDbLine
 10
317.1239277407707
 20
189.5907469307177
 30
0.0
 11
317.1239277407707
 21
187.2512286922923
 31
0.0
  0
LINE
  5
1129
330
18
100
AcDbEntity
  8
1
  6
Continuous
100
AcDbLine
 10
316.7307594098196
 20
186.0692096203239
 30
0.0
 11
317.1239197407708
 21
187.2512336922923
 31
0.0
  0
LINE
  5
112A
330
18
100
AcDbEntity
  8
1
  6
Continuous
100
AcDbLine
 10
315.9352907407708
 20
186.4632149724428
 30
0.0
 11
313.7239257145908
 21
186.4632149724428
 31
0.0
  0
ARC
  5
112B
330
18
100
AcDbEntity
  8
1
  6
Continuous
100
AcDbCircle
 10
315.9352906884109
 20
185.4632149724428
 30
0.0
 40
1.0
100
AcDbArc
 50
37.3004500000001
 51
89.99999699999987
  0
LINE
  5
112C
330
18
100
AcDbEntity
  8
1
  6
Continuous
100
AcDbLine
 10
312.7239257407707
 20
187.6452340444112
 30
0.0
 11
313.7239257145908
 21
186.4632149724428
 31
0.0
  0
LINE
  5
112D
330
18
100
AcDbEntity
  8
1
  6
Continuous
100
AcDbLine
 10
313.7239257407708
 20
186.4632149724428
 30
0.0
 11
313.7239257407707
 21
178.9484600686902
 31
0.0
  0
LINE
  5
112E
330
18
100
AcDbEntity
  8
1
  6
Continuous
100
AcDbLine
 10
315.5632948362486
 20
198.0912733470968
 30
0.0
 11
313.7239257407708
 21
189.9847509307178
 31
0.0
  0
LINE
  5
12D6
330
18
100
AcDbEntity
  8
1
  6
Continuous
100
AcDbLine
 10
507.319141625873
 20
203.4418992686904
 30
0.0
 11
507.319141625873
 21
198.0567370686901
 31
0.0
  0
CIRCLE
  5
12D7
330
18
100
AcDbEntity
  8
1
  6
Continuous
100
AcDbCircle
 10
500.319141625873
 20
200.7493180686901
 30
0.0
 40
2.299999999999998
  0
CIRCLE
  5
12D8
330
18
100
AcDbEntity
  8
1
  6
Continuous
100
AcDbCircle
 10
500.319141625873
 20
200.7493180686901
 30
0.0
 40
6.3000002
  0
LINE
  5
12D9
330
18
100
AcDbEntity
  8
1
  6
Continuous
100
AcDbLine
 10
493.319141625873
 20
203.4418992686904
 30
0.0
 11
493.319141625873
 21
198.0567370686901
 31
0.0
  0
LINE
  5
12DA
330
18
100
AcDbEntity
  8
1
  6
Continuous
100
AcDbLine
 10
494.487291625873
 20
196.0334190686904
 30
0.0
 11
499.1509716258729
 21
193.3408380686904
 31
0.0
  0
ARC
  5
12DB
330
18
100
AcDbEntity
  8
1
  6
Continuous
100
AcDbCircle
 10
500.319141625873
 20
200.7493180686901
 30
0.0
 40
7.5
100
AcDbArc
 50
201.0394399999987
 51
218.9605300000001
  0
ARC
  5
12DC
330
18
100
AcDbEntity
  8
1
  6
Continuous
100
AcDbCircle
 10
500.319141625873
 20
200.7493180686901
 30
0.0
 40
7.5
100
AcDbArc
 50
321.0394400000053
 51
338.9605399999993
  0
ARC
  5
12DD
330
18
100
AcDbEntity
  8
1
  6
Continuous
100
AcDbCircle
 10
500.319141625873
 20
200.7493180686901
 30
0.0
 40
7.5
100
AcDbArc
 50
261.0394499999967
 51
278.960560000004
  0
LINE
  5
12DE
330
18
100
AcDbEntity
  8
1
  6
Continuous
100
AcDbLine
 10
501.4873116258729
 20
193.3408380686904
 30
0.0
 11
506.1509916258731
 21
196.0334190686904
 31
0.0
  0
LINE
  5
12DF
330
18
100
AcDbEntity
  8
1
  6
Continuous
100
AcDbLine
 10
494.487291625873
 20
205.4651869686902
 30
0.0
 11
499.1509916258729
 21
208.1577758686904
 31
0.0
  0
ARC
  5
12E0
330
18
100
AcDbEntity
  8
1
  6
Continuous
100
AcDbCircle
 10
500.319141625873
 20
200.7493180686901
 30
0.0
 40
7.5
100
AcDbArc
 50
141.0395299999985
 51
158.9605600000011
  0
ARC
  5
12E1
330
18
100
AcDbEntity
  8
1
  6
Continuous
100
AcDbCircle
 10
500.319141625873
 20
200.7493180686901
 30
0.0
 40
7.5
100
AcDbArc
 50
21.03946000000068
 51
38.96051600000396
  0
ARC
  5
12E2
330
18
100
AcDbEntity
  8
1
  6
Continuous
100
AcDbCircle
 10
500.319141625873
 20
200.7493180686901
 30
0.0
 40
7.5
100
AcDbArc
 50
81.0394840000055
 51
98.960513999997
  0
LINE
  5
12E3
330
18
100
AcDbEntity
  8
1
  6
Continuous
100
AcDbLine
 10
501.487291625873
 20
208.1577886686901
 30
0.0
 11
506.1509916258731
 21
205.4652075686905
 31
0.0
  0
LINE
  5
1357
330
18
100
AcDbEntity
  8
1
  6
Continuous
100
AcDbLine
 10
68.33015607056637
 20
206.7492703686903
 30
0.0
 11
68.33015607056637
 21
194.7492340686903
 31
0.0
  0
ARC
  5
1358
330
18
100
AcDbEntity
  8
1
  6
Continuous
100
AcDbCircle
 10
58.10500057484166
 20
197.7492760686903
 30
0.0
 40
6.025157499999997
100
AcDbArc
 50
330.1375650387541
 51
29.8624339999999
  0
LINE
  5
1359
330
18
100
AcDbEntity
  8
1
  6
Continuous
100
AcDbLine
 10
62.33015607056636
 20
192.2493180686903
 30
0.0
 11
62.33015607056636
 21
209.2493180686901
 31
0.0
  0
LINE
  5
135A
330
18
100
AcDbEntity
  8
1
  6
Continuous
100
AcDbLine
 10
60.93015597056639
 20
209.2493180686901
 30
0.0
 11
60.93015597056642
 21
192.2493180686903
 31
0.0
  0
ARC
  5
135B
330
18
100
AcDbEntity
  8
1
  6
Continuous
100
AcDbCircle
 10
65.04443897056643
 20
200.7493180686902
 30
0.0
 40
4.8142858
100
AcDbArc
 50
148.7155100000009
 51
211.2844999999992
  0
ARC
  5
135C
330
18
100
AcDbEntity
  8
1
  6
Continuous
100
AcDbCircle
 10
62.30499917056643
 20
197.7492760686903
 30
0.0
 40
6.025157499999997
100
AcDbArc
 50
330.1375700000023
 51
29.8624339999999
  0
LINE
  5
135D
330
18
100
AcDbEntity
  8
1
  6
Continuous
100
AcDbLine
 10
63.33015807467376
 20
194.7492340686903
 30
0.0
 11
68.33015607056637
 21
194.7492340686903
 31
0.0
  0
LINE
  5
135E
330
18
100
AcDbEntity
  8
1
  6
Continuous
100
AcDbLine
 10
63.92063970745248
 20
194.7492340686903
 30
0.0
 11
62.33015607056636
 21
192.2493180686903
 31
0.0
  0
LINE
  5
135F
330
18
100
AcDbEntity
  8
1
  6
Continuous
100
AcDbLine
 10
60.93015597056642
 20
192.9493170686903
 30
0.0
 11
60.49041997056638
 21
193.5030620686903
 31
0.0
  0
ARC
  5
1360
330
18
100
AcDbEntity
  8
1
  6
Continuous
100
AcDbCircle
 10
61.43015597056631
 20
194.2493180686904
 30
0.0
 40
1.199999999999999
100
AcDbArc
 50
163.2315600000002
 51
218.453530000001
  0
LINE
  5
1361
330
18
100
AcDbEntity
  8
1
  6
Continuous
100
AcDbLine
 10
60.93015597056642
 20
196.7493190686903
 30
0.0
 11
60.28117997056646
 21
194.5955220686902
 31
0.0
  0
LINE
  5
1362
330
18
100
AcDbEntity
  8
1
  6
Continuous
100
AcDbLine
 10
60.93015597056642
 20
192.2493180686903
 30
0.0
 11
62.33015607056636
 21
192.2493180686903
 31
0.0
  0
LINE
  5
1363
330
18
100
AcDbEntity
  8
1
  6
Continuous
100
AcDbLine
 10
63.33015812500452
 20
200.7493179810278
 30
0.0
 11
67.53015717056638
 21
200.7493180686902
 31
0.0
  0
LINE
  5
1364
330
18
100
AcDbEntity
  8
1
  6
Continuous
100
AcDbLine
 10
63.33015649536467
 20
206.7492703686903
 30
0.0
 11
68.33015607056637
 21
206.7492703686903
 31
0.0
  0
ARC
  5
1365
330
18
100
AcDbEntity
  8
1
  6
Continuous
100
AcDbCircle
 10
58.10524557484161
 20
203.7492951686902
 30
0.0
 40
6.0249104
100
AcDbArc
 50
330.1369399999976
 51
29.86305163530118
  0
LINE
  5
1366
330
18
100
AcDbEntity
  8
1
  6
Continuous
100
AcDbLine
 10
63.92072349694569
 20
206.7492703686903
 30
0.0
 11
62.33015607056636
 21
209.2493180686901
 31
0.0
  0
LINE
  5
1367
330
18
100
AcDbEntity
  8
1
  6
Continuous
100
AcDbLine
 10
60.93015597056642
 20
204.7493190686902
 30
0.0
 11
60.28118197056635
 21
206.9031125686904
 31
0.0
  0
ARC
  5
1368
330
18
100
AcDbEntity
  8
1
  6
Continuous
100
AcDbCircle
 10
61.43015597056631
 20
207.2493180686904
 30
0.0
 40
1.199999999999999
100
AcDbArc
 50
141.5464599999998
 51
196.768429999999
  0
LINE
  5
1369
330
18
100
AcDbEntity
  8
1
  6
Continuous
100
AcDbLine
 10
60.93015597056642
 20
208.5493206986904
 30
0.0
 11
60.49041997056638
 21
207.9955757686902
 31
0.0
  0
LINE
  5
136A
330
18
100
AcDbEntity
  8
1
  6
Continuous
100
AcDbLine
 10
60.93015597056642
 20
209.2493180686901
 30
0.0
 11
62.33015607056636
 21
209.2493180686901
 31
0.0
  0
ARC
  5
136B
330
18
100
AcDbEntity
  8
1
  6
Continuous
100
AcDbCircle
 10
62.30524717056636
 20
203.7492951686902
 30
0.0
 40
6.0249104
100
AcDbArc
 50
330.1369399999976
 51
29.86306199999825
  0
CIRCLE
  5
1371
330
18
100
AcDbEntity
  8
1
  6
Continuous
100
AcDbCircle
 10
172.3287058556684
 20
200.7493180686901
 30
0.0
 40
6.0
  0
CIRCLE
  5
1372
330
18
100
AcDbEntity
  8
1
  6
Continuous
100
AcDbCircle
 10
172.3287058556684
 20
200.7493180686901
 30
0.0
 40
8.5
  0
LINE
  5
1376
330
18
100
AcDbEntity
  8
1
  6
Continuous
100
AcDbLine
 10
175.7928019556684
 20
206.7493180686903
 30
0.0
 11
168.8646097556684
 21
206.7493180686903
 31
0.0
  0
LINE
  5
1377
330
18
100
AcDbEntity
  8
1
  6
Continuous
100
AcDbLine
 10
175.7928019556684
 20
194.7493180686903
 30
0.0
 11
168.8646097556684
 21
194.7493180686903
 31
0.0
  0
LINE
  5
1378
330
18
100
AcDbEntity
  8
1
  6
Continuous
100
AcDbLine
 10
165.4004984556684
 20
200.7492990686903
 30
0.0
 11
168.8645980556684
 21
194.7493030686903
 31
0.0
  0
LINE
  5
1379
330
18
100
AcDbEntity
  8
1
  6
Continuous
100
AcDbLine
 10
165.4004994556684
 20
200.7493260686902
 30
0.0
 11
168.8645997556685
 21
206.7493220686901
 31
0.0
  0
LINE
  5
137A
330
18
100
AcDbEntity
  8
1
  6
Continuous
100
AcDbLine
 10
175.7928054556684
 20
194.7493260686901
 30
0.0
 11
179.2569056556684
 21
200.7493220686901
 31
0.0
  0
LINE
  5
137B
330
18
100
AcDbEntity
  8
1
  6
Continuous
100
AcDbLine
 10
175.7928062556684
 20
206.7493140686901
 30
0.0
 11
179.2569056556684
 21
200.7493140686903
 31
0.0
  0
LINE
  5
137C
330
18
100
AcDbEntity
  8
1
  6
Continuous
100
AcDbLine
 10
163.8287098556685
 20
89.85787179702958
 30
0.0
 11
180.8287098556684
 21
89.85787179702954
 31
0.0
  0
ARC
  5
137D
330
18
100
AcDbEntity
  8
1
  6
Continuous
100
AcDbCircle
 10
176.0787098556684
 20
93.06556009702957
 30
0.0
 40
3.9181328
100
AcDbArc
 50
234.9526500000001
 51
305.0473400000007
  0
LINE
  5
137E
330
18
100
AcDbEntity
  8
1
  6
Continuous
100
AcDbLine
 10
163.8287098556685
 20
91.25787189702952
 30
0.0
 11
180.8287098556684
 21
91.25787189702947
 31
0.0
  0
ARC
  5
137F
330
18
100
AcDbEntity
  8
1
  6
Continuous
100
AcDbCircle
 10
172.3287098556684
 20
85.15787199702961
 30
0.0
 40
7.900000099999997
100
AcDbArc
 50
63.9921799999991
 51
90.0
  0
ARC
  5
1381
330
18
100
AcDbEntity
  8
1
  6
Continuous
100
AcDbCircle
 10
172.3287098556684
 20
89.35787179702961
 30
0.0
 40
7.900000099999997
100
AcDbArc
 50
63.9921799999991
 51
90.0
  0
LINE
  5
1384
330
18
100
AcDbEntity
  8
1
  6
Continuous
100
AcDbLine
 10
180.8287098556684
 20
89.85787179702954
 30
0.0
 11
180.8287098556684
 21
91.25787189702947
 31
0.0
  0
LINE
  5
1388
330
18
100
AcDbEntity
  8
1
  6
Continuous
100
AcDbLine
 10
179.2569129556684
 20
92.25787239702958
 30
0.0
 11
180.8287098556684
 21
91.25787189702947
 31
0.0
  0
LINE
  5
1389
330
18
100
AcDbEntity
  8
1
  6
Continuous
100
AcDbLine
 10
175.7928114556684
 20
92.25787189702947
 30
0.0
 11
175.7928114556684
 21
96.45787169702948
 31
0.0
  0
LINE
  5
138A
330
18
100
AcDbEntity
  8
1
  6
Continuous
100
AcDbLine
 10
179.2569129556684
 20
92.25787189702947
 30
0.0
 11
179.2569129556684
 21
96.45787169702948
 31
0.0
  0
ARC
  5
138B
330
18
100
AcDbEntity
  8
1
  6
Continuous
100
AcDbCircle
 10
177.5248620556684
 20
90.78287199702959
 30
0.0
 40
2.2750001
100
AcDbArc
 50
40.41744000000262
 51
139.5825629999982
  0
ARC
  5
138C
330
18
100
AcDbEntity
  8
1
  6
Continuous
100
AcDbCircle
 10
177.5248620556684
 20
94.98287226702954
 30
0.0
 40
2.2750001
100
AcDbArc
 50
58.06775999999803
 51
139.5825629999982
  0
LINE
  5
138D
330
18
100
AcDbEntity
  8
1
  6
Continuous
100
AcDbLine
 10
179.2569134556685
 20
96.45787228702952
 30
0.0
 11
178.3287098556684
 21
97.25787239702958
 31
0.0
  0
LINE
  5
138E
330
18
100
AcDbEntity
  8
1
  6
Continuous
100
AcDbLine
 10
180.8287098556684
 20
89.85787229702948
 30
0.0
 11
179.8287098556684
 21
89.15787249702948
 31
0.0
  0
LINE
  5
138F
330
18
100
AcDbEntity
  8
1
  6
Continuous
100
AcDbLine
 10
179.8287098556684
 20
89.15787149702948
 30
0.0
 11
178.0225317556684
 21
89.6636016970295
 31
0.0
  0
LINE
  5
1390
330
18
100
AcDbEntity
  8
1
  6
Continuous
100
AcDbLine
 10
163.8287098556685
 20
89.85787179702958
 30
0.0
 11
163.8287098556685
 21
91.25787189702952
 31
0.0
  0
ARC
  5
1395
330
18
100
AcDbEntity
  8
1
  6
Continuous
100
AcDbCircle
 10
167.1325576556685
 20
90.78287199702959
 30
0.0
 40
2.2750001
100
AcDbArc
 50
40.41744000000262
 51
139.5825629999982
  0
ARC
  5
1396
330
18
100
AcDbEntity
  8
1
  6
Continuous
100
AcDbCircle
 10
167.1325576556685
 20
94.98287226702954
 30
0.0
 40
2.2750001
100
AcDbArc
 50
40.41744000000262
 51
121.9322410000009
  0
LINE
  5
1397
330
18
100
AcDbEntity
  8
1
  6
Continuous
100
AcDbLine
 10
178.3287104357956
 20
97.25787189702952
 30
0.0
 11
166.3287098556684
 21
97.25787189702948
 31
0.0
  0
LINE
  5
1399
330
18
100
AcDbEntity
  8
1
  6
Continuous
100
AcDbLine
 10
168.8646082556684
 20
92.25787189702947
 30
0.0
 11
168.8646082556684
 21
96.45787169702948
 31
0.0
  0
ARC
  5
139A
330
18
100
AcDbEntity
  8
1
  6
Continuous
100
AcDbCircle
 10
172.3287098556684
 20
85.15787199702961
 30
0.0
 40
7.900000099999997
100
AcDbArc
 50
90.0
 51
116.0078240000009
  0
ARC
  5
139B
330
18
100
AcDbEntity
  8
1
  6
Continuous
100
AcDbCircle
 10
172.3287098556684
 20
89.35787179702961
 30
0.0
 40
7.900000099999997
100
AcDbArc
 50
90.0
 51
116.0078240000009
  0
LINE
  5
139C
330
18
100
AcDbEntity
  8
1
  6
Continuous
100
AcDbLine
 10
165.4005067556685
 20
92.25787189702947
 30
0.0
 11
165.4005067556685
 21
96.45787169702948
 31
0.0
  0
LINE
  5
139D
330
18
100
AcDbEntity
  8
1
  6
Continuous
100
AcDbLine
 10
165.4005062556685
 20
96.45787228702952
 30
0.0
 11
166.3287098556684
 21
97.25787239702958
 31
0.0
  0
LINE
  5
139E
330
18
100
AcDbEntity
  8
1
  6
Continuous
100
AcDbLine
 10
165.4005067556685
 20
92.25787239702958
 30
0.0
 11
163.8287098556685
 21
91.25787189702952
 31
0.0
  0
ARC
  5
139F
330
18
100
AcDbEntity
  8
1
  6
Continuous
100
AcDbCircle
 10
168.5787098556684
 20
93.06556009702957
 30
0.0
 40
3.9181328
100
AcDbArc
 50
234.9526500000001
 51
305.0473400000007
  0
LINE
  5
13A1
330
18
100
AcDbEntity
  8
1
  6
Continuous
100
AcDbLine
 10
164.8287098556685
 20
89.15787149702952
 30
0.0
 11
166.6348879556685
 21
89.66360169702953
 31
0.0
  0
LINE
  5
13A2
330
18
100
AcDbEntity
  8
1
  6
Continuous
100
AcDbLine
 10
163.8287098556685
 20
89.85787229702951
 30
0.0
 11
164.8287098556685
 21
89.15787249702951
 31
0.0
  0
LINE
  5
13A5
330
18
100
AcDbEntity
  8
1
  6
Continuous
100
AcDbLine
 10
305.8239256407708
 20
206.7492703686903
 30
0.0
 11
305.8239256407708
 21
203.5399827087065
 31
0.0
  0
LINE
  5
13A6
330
18
100
AcDbEntity
  8
1
  6
Continuous
100
AcDbLine
 10
308.134850396941
 20
206.7492703686903
 30
0.0
 11
305.8239256407708
 21
206.7492703686903
 31
0.0
  0
ARC
  5
13A7
330
18
100
AcDbEntity
  8
1
  6
Continuous
100
AcDbCircle
 10
311.8488345407707
 20
203.7492951686902
 30
0.0
 40
6.0249104
100
AcDbArc
 50
150.1369380000016
 51
181.9450702790781
  0
ARC
  5
13AD
330
18
100
AcDbEntity
  8
1
  6
Continuous
100
AcDbCircle
 10
172.3287058556685
 20
332.1407643403508
 30
0.0
 40
7.900000099999997
100
AcDbArc
 50
247.9313897800762
 51
270.0
  0
LINE
  5
13BD
330
18
100
AcDbEntity
  8
1
  6
Continuous
100
AcDbLine
 10
179.2569094556684
 20
325.0407638503508
 30
0.0
 11
178.3287058556684
 21
324.2407637403508
 31
0.0
  0
ARC
  5
13BE
330
18
100
AcDbEntity
  8
1
  6
Continuous
100
AcDbCircle
 10
172.3287058556685
 20
332.1407643403508
 30
0.0
 40
7.900000099999997
100
AcDbArc
 50
270.0
 51
296.007824000001
  0
ARC
  5
13BF
330
18
100
AcDbEntity
  8
1
  6
Continuous
100
AcDbCircle
 10
177.5248580556684
 20
326.5157638703509
 30
0.0
 40
2.2750001
100
AcDbArc
 50
220.4174400000026
 51
301.9322410000008
  0
LINE
  5
13C1
330
18
100
AcDbEntity
  8
1
  6
Continuous
100
AcDbLine
 10
168.134080250332
 20
324.2407642403508
 30
0.0
 11
178.3287058556684
 21
324.2407642403508
 31
0.0
  0
LINE
  5
13C9
330
18
100
AcDbEntity
  8
1
  6
Continuous
100
AcDbLine
 10
175.7928074556684
 20
325.7407162403509
 30
0.0
 11
175.7928074556684
 21
325.0407644403508
 31
0.0
  0
LINE
  5
13CE
330
18
100
AcDbEntity
  8
1
  6
Continuous
100
AcDbLine
 10
179.2569089556684
 20
325.7407162403509
 30
0.0
 11
179.2569089556684
 21
325.0407644403508
 31
0.0
  0
LINE
  5
16D7
330
18
100
AcDbEntity
  8
1
  6
Continuous
100
AcDbLine
 10
161.1912262165066
 20
81.3579241597081
 30
0.0
 11
157.7239931683546
 21
81.3579241597081
 31
0.0
  0
ARC
  5
18D4
330
18
100
AcDbEntity
  8
1
  6
Continuous
100
AcDbCircle
 10
204.8287058556685
 20
354.7407162403509
 30
0.0
 40
65.0
100
AcDbArc
 50
168.7370204539616
 51
191.2629795460381
  0
LINE
  5
18E0
330
18
100
AcDbEntity
  8
1
  6
Continuous
100
AcDbLine
 10
165.8610871579975
 20
368.2407162403508
 30
0.0
 11
142.0612779969455
 21
368.2407162403508
 31
0.0
  0
ARC
  5
18E2
330
18
100
AcDbEntity
  8
1
  6
Continuous
100
AcDbCircle
 10
142.0612779969455
 20
367.2407162403509
 30
0.0
 40
1.0
100
AcDbArc
 50
90.00000000000005
 51
168.7370204539616
  0
LINE
  5
18E6
330
18
100
AcDbEntity
  8
1
  6
Continuous
100
AcDbLine
 10
157.3287058556685
 20
370.2407162403508
 30
0.0
 11
166.5279536477154
 21
370.2407162403508
 31
0.0
  0
ARC
  5
18E8
330
18
100
AcDbEntity
  8
1
  6
Continuous
100
AcDbCircle
 10
157.3287058556685
 20
368.2407162403508
 30
0.0
 40
2.0
100
AcDbArc
 50
90.00004999999935
 51
148.9972800000005
  0
LINE
  5
18E9
330
18
100
AcDbEntity
  8
1
  6
Continuous
100
AcDbLine
 10
154.9953705177139
 20
368.2407162403508
 30
0.0
 11
155.6144228556684
 21
369.2708832403508
 31
0.0
  0
LINE
  5
1921
330
18
100
AcDbEntity
  8
1
  6
Continuous
100
AcDbLine
 10
165.8610871579975
 20
341.2407162403508
 30
0.0
 11
142.0612779969455
 21
341.2407162403508
 31
0.0
  0
ARC
  5
1922
330
18
100
AcDbEntity
  8
1
  6
Continuous
100
AcDbCircle
 10
142.0612779969455
 20
342.2407162403509
 30
0.0
 40
1.0
100
AcDbArc
 50
191.2629795460381
 51
270.0
  0
LINE
  5
192D
330
18
100
AcDbEntity
  8
1
  6
Continuous
100
AcDbLine
 10
166.351619227408
 20
339.7407162403508
 30
0.0
 11
161.8287058556685
 21
339.7407162403508
 31
0.0
  0
ARC
  5
1936
330
18
100
AcDbEntity
  8
1
  6
Continuous
100
AcDbCircle
 10
161.8287058556685
 20
341.2407162403508
 30
0.0
 40
1.5
100
AcDbArc
 50
188.7497500000004
 51
227.1654482831351
  0
LINE
  5
1937
330
18
100
AcDbEntity
  8
1
  6
Continuous
100
AcDbLine
 10
160.3110433273354
 20
341.2407162403508
 30
0.0
 11
160.3461627556685
 21
341.0125362403508
 31
0.0
  0
ARC
  5
1A15
330
18
100
AcDbEntity
  8
1
  6
Continuous
100
AcDbCircle
 10
172.3285838556686
 20
200.7494290686901
 30
0.0
 40
23.5
100
AcDbArc
 50
108.6899213071035
 51
117.6212898179912
  0
ARC
  5
1A16
330
18
100
AcDbEntity
  8
1
  6
Continuous
100
AcDbCircle
 10
172.3285838556686
 20
200.7494290686901
 30
0.0
 40
28.5
100
AcDbArc
 50
103.4933022729979
 51
122.1017443321196
  0
ARC
  5
1A17
330
18
100
AcDbEntity
  8
1
  6
Continuous
100
AcDbCircle
 10
172.3285838556686
 20
200.7494290686901
 30
0.0
 40
32.5
100
AcDbArc
 50
100.5779809155499
 51
124.6347745209368
  0
ARC
  5
1A18
330
18
100
AcDbEntity
  8
1
  6
Continuous
100
AcDbCircle
 10
172.3285838556686
 20
200.7494290686901
 30
0.0
 40
23.5
100
AcDbArc
 50
156.777485494094
 51
303.5779887125443
  0
ARC
  5
1A19
330
18
100
AcDbEntity
  8
1
  6
Continuous
100
AcDbCircle
 10
172.3285838556686
 20
200.7494290686901
 30
0.0
 40
28.5
100
AcDbArc
 50
146.9382354033959
 51
314.8501800956481
  0
ARC
  5
1A1A
330
18
100
AcDbEntity
  8
1
  6
Continuous
100
AcDbCircle
 10
172.3285838556686
 20
200.7494290686901
 30
0.0
 40
32.5
100
AcDbArc
 50
140.483024254392
 51
318.4441983531913
  0
ARC
  5
1A1B
330
18
100
AcDbEntity
  8
1
  6
Continuous
100
AcDbCircle
 10
172.3285838556686
 20
200.7494290686901
 30
0.0
 40
32.5
100
AcDbArc
 50
339.3652277685793
 51
30.1941184179549
  0
ARC
  5
1A1C
330
18
100
AcDbEntity
  8
1
  6
Continuous
100
AcDbCircle
 10
172.3285838556686
 20
200.7494290686901
 30
0.0
 40
28.5
100
AcDbArc
 50
341.8982574492007
 51
27.25281978215686
  0
ARC
  5
1A1D
330
18
100
AcDbEntity
  8
1
  6
Continuous
100
AcDbCircle
 10
172.3285838556686
 20
200.7494290686901
 30
0.0
 40
23.5
100
AcDbArc
 50
346.3787110220668
 51
22.00690874208898
  0
ARC
  5
1A1E
330
18
100
AcDbEntity
  8
1
  6
Continuous
100
AcDbCircle
 10
500.319141625873
 20
200.7493180686901
 30
0.0
 40
32.5
100
AcDbArc
 50
149.7548282854808
 51
79.42201908445205
  0
ARC
  5
1A1F
330
18
100
AcDbEntity
  8
1
  6
Continuous
100
AcDbCircle
 10
500.319141625873
 20
200.7493180686901
 30
0.0
 40
28.5
100
AcDbArc
 50
152.6753141792666
 51
76.50669772700405
  0
ARC
  5
1A20
330
18
100
AcDbEntity
  8
1
  6
Continuous
100
AcDbCircle
 10
500.319141625873
 20
200.7493180686901
 30
0.0
 40
23.5
100
AcDbArc
 50
157.8817261898478
 51
71.31007869289733
  0
LINE
  5
1A21
330
18
100
AcDbEntity
  8
1
  6
Continuous
100
AcDbLine
 10
22.33015797056645
 20
185.7493180686901
 30
0.0
 11
22.33015797056645
 21
215.7493180686901
 31
0.0
  0
LINE
  5
1A22
330
18
100
AcDbEntity
  8
1
  6
Continuous
100
AcDbLine
 10
24.33015797056645
 20
231.0167459274131
 30
0.0
 11
24.33015797056645
 21
170.4818902099671
 31
0.0
  0
LINE
  5
1A23
330
18
100
AcDbEntity
  8
1
  6
Continuous
100
AcDbLine
 10
51.33015797056646
 20
231.0167459274131
 30
0.0
 11
51.33015797056646
 21
170.4818902099671
 31
0.0
  0
ARC
  5
1A24
330
18
100
AcDbEntity
  8
1
  6
Continuous
100
AcDbCircle
 10
24.33015797056645
 20
185.7493180686901
 30
0.0
 40
2.0
100
AcDbArc
 50
180.0000499999993
 51
238.9972800000006
  0
ARC
  5
1A25
330
18
100
AcDbEntity
  8
1
  6
Continuous
100
AcDbCircle
 10
37.83015797056646
 20
233.2493180686901
 30
0.0
 40
65.0
100
AcDbArc
 50
258.7370204539616
 51
281.2629795460381
  0
ARC
  5
1A26
330
18
100
AcDbEntity
  8
1
  6
Continuous
100
AcDbCircle
 10
25.33015797056645
 20
170.4818902099671
 30
0.0
 40
1.0
100
AcDbArc
 50
180.0
 51
258.7370204539616
  0
LINE
  5
1A27
330
18
100
AcDbEntity
  8
1
  6
Continuous
100
AcDbLine
 10
24.33015797056648
 20
183.4159827307355
 30
0.0
 11
23.29999097056644
 21
184.0350350686901
 31
0.0
  0
ARC
  5
1A28
330
18
100
AcDbEntity
  8
1
  6
Continuous
100
AcDbCircle
 10
50.33015797056646
 20
170.4818902099671
 30
0.0
 40
1.0
100
AcDbArc
 50
281.2629795460381
 51
0.0
  0
ARC
  5
1A29
330
18
100
AcDbEntity
  8
1
  6
Continuous
100
AcDbCircle
 10
24.33015797056645
 20
215.7493180686901
 30
0.0
 40
2.0
100
AcDbArc
 50
121.0027699999992
 51
180.0000100000002
  0
LINE
  5
1A2A
330
18
100
AcDbEntity
  8
1
  6
Continuous
100
AcDbLine
 10
22.33015797056645
 20
196.7493096615269
 30
0.0
 11
21.83013180023755
 21
196.7493093903136
 31
0.0
  0
LINE
  5
1A2B
330
18
100
AcDbEntity
  8
1
  6
Continuous
100
AcDbLine
 10
22.33015797056645
 20
204.749309661528
 30
0.0
 11
21.83012746105396
 21
204.7493093903125
 31
0.0
  0
LINE
  5
1A2C
330
18
100
AcDbEntity
  8
1
  6
Continuous
100
AcDbLine
 10
52.83015797056646
 20
211.2493180686901
 30
0.0
 11
52.83015797056646
 21
190.2493180686903
 31
0.0
  0
LINE
  5
1A2D
330
18
100
AcDbEntity
  8
1
  6
Continuous
100
AcDbLine
 10
52.83015797056639
 20
196.7493180686901
 30
0.0
 11
53.83016597056638
 21
196.7493180686901
 31
0.0
  0
ARC
  5
1A2E
330
18
100
AcDbEntity
  8
1
  6
Continuous
100
AcDbCircle
 10
51.33015797056646
 20
190.2493180686903
 30
0.0
 40
1.5
100
AcDbArc
 50
278.7497500000005
 51
359.9999499999999
  0
LINE
  5
1A2F
330
18
100
AcDbEntity
  8
1
  6
Continuous
100
AcDbLine
 10
51.33015797056646
 20
188.7316555403573
 30
0.0
 11
51.55833797056647
 21
188.7667749686903
 31
0.0
  0
LINE
  5
1A30
330
18
100
AcDbEntity
  8
1
  6
Continuous
100
AcDbLine
 10
52.83015797056639
 20
204.7493180686903
 30
0.0
 11
53.83016597056638
 21
204.7493180686903
 31
0.0
  0
LINE
  5
1A31
330
18
100
AcDbEntity
  8
1
  6
Continuous
100
AcDbLine
 10
24.33015797056645
 20
218.082648730731
 30
0.0
 11
23.30000697056646
 21
217.4636050686901
 31
0.0
  0
LINE
  5
1A32
330
18
100
AcDbEntity
  8
1
  6
Continuous
100
AcDbLine
 10
51.33015797056646
 20
212.7669805970231
 30
0.0
 11
51.55833797056647
 21
212.7318611686901
 31
0.0
  0
ARC
  5
1A33
330
18
100
AcDbEntity
  8
1
  6
Continuous
100
AcDbCircle
 10
51.33015797056646
 20
211.2493180686901
 30
0.0
 40
1.5
100
AcDbArc
 50
0.0000500000001468
 51
81.25024999999935
  0
ARC
  5
1A34
330
18
100
AcDbEntity
  8
1
  6
Continuous
100
AcDbCircle
 10
37.83015797056646
 20
168.2493180686901
 30
0.0
 40
65.0
100
AcDbArc
 50
78.73702045396189
 51
101.262979546038
  0
ARC
  5
1A35
330
18
100
AcDbEntity
  8
1
  6
Continuous
100
AcDbCircle
 10
25.33015797056645
 20
231.0167459274131
 30
0.0
 40
1.0
100
AcDbArc
 50
101.262979546038
 51
180.0
  0
ARC
  5
1A36
330
18
100
AcDbEntity
  8
1
  6
Continuous
100
AcDbCircle
 10
50.33015797056646
 20
231.0167459274131
 30
0.0
 40
1.0
100
AcDbArc
 50
0.0
 51
78.73702045396189
  0
LINE
  5
1A37
330
18
100
AcDbEntity
  8
1
  6
Continuous
100
AcDbLine
 10
322.8239237407706
 20
231.0167459274131
 30
0.0
 11
322.8239237407706
 21
170.4818902099671
 31
0.0
  0
LINE
  5
1A38
330
18
100
AcDbEntity
  8
1
  6
Continuous
100
AcDbLine
 10
349.8239237407706
 20
231.0167459274131
 30
0.0
 11
349.8239237407706
 21
170.4818902099671
 31
0.0
  0
LINE
  5
1A39
330
18
100
AcDbEntity
  8
1
  6
Continuous
100
AcDbLine
 10
351.8239237407706
 20
185.7493180686901
 30
0.0
 11
351.8239237407706
 21
215.7493180686901
 31
0.0
  0
ARC
  5
1A3A
330
18
100
AcDbEntity
  8
1
  6
Continuous
100
AcDbCircle
 10
336.3239237407706
 20
233.2493180686901
 30
0.0
 40
65.0
100
AcDbArc
 50
258.7370204539616
 51
281.2629795460381
  0
ARC
  5
1A3B
330
18
100
AcDbEntity
  8
1
  6
Continuous
100
AcDbCircle
 10
323.8239237407706
 20
170.4818902099671
 30
0.0
 40
1.0
100
AcDbArc
 50
180.0
 51
258.7370204539616
  0
ARC
  5
1A3C
330
18
100
AcDbEntity
  8
1
  6
Continuous
100
AcDbCircle
 10
348.8239237407706
 20
170.4818902099671
 30
0.0
 40
1.0
100
AcDbArc
 50
281.2629795460381
 51
0.000000000000007
  0
LINE
  5
1A3D
330
18
100
AcDbEntity
  8
1
  6
Continuous
100
AcDbLine
 10
349.8239237407706
 20
183.4159827307355
 30
0.0
 11
350.8540907407706
 21
184.0350350686901
 31
0.0
  0
ARC
  5
1A3E
330
18
100
AcDbEntity
  8
1
  6
Continuous
100
AcDbCircle
 10
349.8239237407706
 20
185.7493180686901
 30
0.0
 40
2.0
100
AcDbArc
 50
301.0027199999993
 51
359.9999500000006
  0
ARC
  5
1A3F
330
18
100
AcDbEntity
  8
1
  6
Continuous
100
AcDbCircle
 10
322.8239237407706
 20
211.2493180686901
 30
0.0
 40
1.5
100
AcDbArc
 50
98.74975000000064
 51
179.9999499999998
  0
LINE
  5
1A40
330
18
100
AcDbEntity
  8
1
  6
Continuous
100
AcDbLine
 10
321.3239237407707
 20
204.7493180686903
 30
0.0
 11
320.3239157407707
 21
204.7493180686903
 31
0.0
  0
ARC
  5
1A41
330
18
100
AcDbEntity
  8
1
  6
Continuous
100
AcDbCircle
 10
322.8239237407706
 20
190.2493180686903
 30
0.0
 40
1.5
100
AcDbArc
 50
180.00005
 51
261.2502499999993
  0
LINE
  5
1A42
330
18
100
AcDbEntity
  8
1
  6
Continuous
100
AcDbLine
 10
321.3239237407707
 20
196.7493180686901
 30
0.0
 11
320.3239157407707
 21
196.7493180686901
 31
0.0
  0
LINE
  5
1A43
330
18
100
AcDbEntity
  8
1
  6
Continuous
100
AcDbLine
 10
321.3239237407707
 20
211.2493180686901
 30
0.0
 11
321.3239237407707
 21
190.2493180686903
 31
0.0
  0
LINE
  5
1A44
330
18
100
AcDbEntity
  8
1
  6
Continuous
100
AcDbLine
 10
322.8239237407706
 20
188.7316555403573
 30
0.0
 11
322.5957437407706
 21
188.7667749686903
 31
0.0
  0
LINE
  5
1A45
330
18
100
AcDbEntity
  8
1
  6
Continuous
100
AcDbLine
 10
351.8239237407706
 20
196.7493096615269
 30
0.0
 11
352.3239499110994
 21
196.7493093903136
 31
0.0
  0
LINE
  5
1A46
330
18
100
AcDbEntity
  8
1
  6
Continuous
100
AcDbLine
 10
351.8239237407706
 20
204.749309661528
 30
0.0
 11
352.3239542502831
 21
204.7493093903125
 31
0.0
  0
LINE
  5
1A47
330
18
100
AcDbEntity
  8
1
  6
Continuous
100
AcDbLine
 10
322.8239237407706
 20
212.7669805970231
 30
0.0
 11
322.5957437407706
 21
212.7318611686901
 31
0.0
  0
LINE
  5
1A48
330
18
100
AcDbEntity
  8
1
  6
Continuous
100
AcDbLine
 10
349.8239237407706
 20
218.082648730731
 30
0.0
 11
350.8540747407707
 21
217.4636050686901
 31
0.0
  0
ARC
  5
1A49
330
18
100
AcDbEntity
  8
1
  6
Continuous
100
AcDbCircle
 10
349.8239237407706
 20
215.7493180686901
 30
0.0
 40
2.0
100
AcDbArc
 50
359.9999899999998
 51
58.99723000000081
  0
ARC
  5
1A4A
330
18
100
AcDbEntity
  8
1
  6
Continuous
100
AcDbCircle
 10
336.3239237407706
 20
168.2493180686901
 30
0.0
 40
65.0
100
AcDbArc
 50
78.7370204539619
 51
101.262979546038
  0
ARC
  5
1A4B
330
18
100
AcDbEntity
  8
1
  6
Continuous
100
AcDbCircle
 10
323.8239237407706
 20
231.0167459274131
 30
0.0
 40
1.0
100
AcDbArc
 50
101.262979546038
 51
180.0
  0
ARC
  5
1A4C
330
18
100
AcDbEntity
  8
1
  6
Continuous
100
AcDbCircle
 10
348.8239237407706
 20
231.0167459274131
 30
0.0
 40
1.0
100
AcDbArc
 50
0.000000000000007
 51
78.7370204539619
  0
ARC
  5
1A4D
330
18
100
AcDbEntity
  8
1
  6
Continuous
100
AcDbCircle
 10
139.8287058556685
 20
66.75791989702952
 30
0.0
 40
65.0
100
AcDbArc
 50
348.7370204539618
 51
11.26297954603807
  0
ARC
  5
1A4E
330
18
100
AcDbEntity
  8
1
  6
Continuous
100
AcDbCircle
 10
204.8287058556685
 20
66.7579198970295
 30
0.0
 40
65.0
100
AcDbArc
 50
168.7370204539616
 51
191.2629795460381
  0
LINE
  5
1A4F
330
18
100
AcDbEntity
  8
1
  6
Continuous
100
AcDbLine
 10
202.5961337143915
 20
53.25791989702949
 30
0.0
 11
142.0612779969455
 21
53.25791989702953
 31
0.0
  0
LINE
  5
1A50
330
18
100
AcDbEntity
  8
1
  6
Continuous
100
AcDbLine
 10
154.9953705177139
 20
53.25791989702954
 30
0.0
 11
155.6144228556684
 21
52.2277528970295
 31
0.0
  0
ARC
  5
1A51
330
18
100
AcDbEntity
  8
1
  6
Continuous
100
AcDbCircle
 10
142.0612779969455
 20
54.25791989702952
 30
0.0
 40
1.0
100
AcDbArc
 50
191.2629795460381
 51
270.0
  0
LINE
  5
1A52
330
18
100
AcDbEntity
  8
1
  6
Continuous
100
AcDbLine
 10
157.3287058556685
 20
51.25791989702952
 30
0.0
 11
187.3287058556685
 21
51.2579198970295
 31
0.0
  0
ARC
  5
1A53
330
18
100
AcDbEntity
  8
1
  6
Continuous
100
AcDbCircle
 10
157.3287058556685
 20
53.25791989702949
 30
0.0
 40
2.0
100
AcDbArc
 50
211.0027199999993
 51
269.9999500000007
  0
LINE
  5
1A54
330
18
100
AcDbEntity
  8
1
  6
Continuous
100
AcDbLine
 10
176.3286974485064
 20
51.2579198970295
 30
0.0
 11
176.3286971772909
 21
50.757889387517
 31
0.0
  0
LINE
  5
1A55
330
18
100
AcDbEntity
  8
1
  6
Continuous
100
AcDbLine
 10
168.3286974485051
 20
51.25791989702952
 30
0.0
 11
168.328697177292
 21
50.75789372670062
 31
0.0
  0
ARC
  5
1A56
330
18
100
AcDbEntity
  8
1
  6
Continuous
100
AcDbCircle
 10
187.3287058556685
 20
53.25791989702949
 30
0.0
 40
2.0
100
AcDbArc
 50
269.9999899999998
 51
328.9972300000008
  0
LINE
  5
1A57
330
18
100
AcDbEntity
  8
1
  6
Continuous
100
AcDbLine
 10
189.6620365177093
 20
53.25791989702949
 30
0.0
 11
189.0429928556685
 21
52.22776889702952
 31
0.0
  0
ARC
  5
1A58
330
18
100
AcDbEntity
  8
1
  6
Continuous
100
AcDbCircle
 10
202.5961337143915
 20
54.2579198970295
 30
0.0
 40
1.0
100
AcDbArc
 50
270.0
 51
348.7370204539618
  0
LINE
  5
1A59
330
18
100
AcDbEntity
  8
1
  6
Continuous
100
AcDbLine
 10
202.5961337143915
 20
80.2579198970295
 30
0.0
 11
142.0612779969455
 21
80.2579198970295
 31
0.0
  0
ARC
  5
1A5A
330
18
100
AcDbEntity
  8
1
  6
Continuous
100
AcDbCircle
 10
142.0612779969455
 20
79.2579198970295
 30
0.0
 40
1.0
100
AcDbArc
 50
89.99999999999998
 51
168.7370204539616
  0
LINE
  5
1A5B
330
18
100
AcDbEntity
  8
1
  6
Continuous
100
AcDbLine
 10
182.8287058556684
 20
81.75791989702949
 30
0.0
 11
161.8287058556685
 21
81.75791989702949
 31
0.0
  0
LINE
  5
1A5C
330
18
100
AcDbEntity
  8
1
  6
Continuous
100
AcDbLine
 10
160.3110433273354
 20
80.2579198970295
 30
0.0
 11
160.3461627556685
 21
80.48609989702953
 31
0.0
  0
ARC
  5
1A5D
330
18
100
AcDbEntity
  8
1
  6
Continuous
100
AcDbCircle
 10
161.8287058556685
 20
80.2579198970295
 30
0.0
 40
1.5
100
AcDbArc
 50
90.00005000000015
 51
171.2502499999994
  0
LINE
  5
1A5E
330
18
100
AcDbEntity
  8
1
  6
Continuous
100
AcDbLine
 10
168.3287058556685
 20
81.75791989702943
 30
0.0
 11
168.3287058556685
 21
82.75792789702945
 31
0.0
  0
LINE
  5
1A5F
330
18
100
AcDbEntity
  8
1
  6
Continuous
100
AcDbLine
 10
176.3287058556684
 20
81.75791989702943
 30
0.0
 11
176.3287058556684
 21
82.75792789702945
 31
0.0
  0
LINE
  5
1A60
330
18
100
AcDbEntity
  8
1
  6
Continuous
100
AcDbLine
 10
184.3463683840013
 20
80.2579198970295
 30
0.0
 11
184.3112489556684
 21
80.48609989702953
 31
0.0
  0
ARC
  5
1A61
330
18
100
AcDbEntity
  8
1
  6
Continuous
100
AcDbCircle
 10
182.8287058556684
 20
80.2579198970295
 30
0.0
 40
1.5
100
AcDbArc
 50
8.749750000000616
 51
89.99994999999984
  0
ARC
  5
1A62
330
18
100
AcDbEntity
  8
1
  6
Continuous
100
AcDbCircle
 10
202.5961337143915
 20
79.2579198970295
 30
0.0
 40
1.0
100
AcDbArc
 50
11.26297954603807
 51
89.99999999999998
  0
ARC
  5
1A63
330
18
100
AcDbEntity
  8
1
  6
Continuous
100
AcDbCircle
 10
161.8287058556685
 20
341.2407162403508
 30
0.0
 40
1.5
100
AcDbArc
 50
250.7775010967733
 51
269.9999499999996
  0
ARC
  5
1A65
330
18
100
AcDbEntity
  8
1
  6
Continuous
100
AcDbCircle
 10
500.3191416258728
 20
200.7493180686901
 30
0.0
 40
17.33333533795456
100
AcDbArc
 50
169.363116568882
 51
59.85431606359878
  0
ENDSEC
  0
SECTION
  2
OBJECTS
  0
DICTIONARY
  5
C
330
0
100
AcDbDictionary
281
     1
  3
ACAD_CIP_PREVIOUS_PRODUCT_INFO
350
1B57
  3
ACAD_COLOR
350
1B3A
  3
ACAD_DETAILVIEWSTYLE
350
1B53
  3
ACAD_GROUP
350
D
  3
ACAD_LAYOUT
350
5D
  3
ACAD_MATERIAL
350
1B08
  3
ACAD_MLEADERSTYLE
350
1B4F
  3
ACAD_MLINESTYLE
350
1B
  3
ACAD_PLOTSETTINGS
350
5E
  3
ACAD_PLOTSTYLENAME
350
1B06
  3
ACAD_SCALELIST
350
1B3D
  3
ACAD_SECTIONVIEWSTYLE
350
1B51
  3
ACAD_TABLESTYLE
350
1B3B
  3
ACAD_VISUALSTYLE
350
1B21
  3
ACDB_RECOMPOSE_DATA
350
1B75
  3
AcDbVariableDictionary
350
1B68
  3
CONTENTDICTIONARY
350
3D
  3
DWGPROPS
350
1B76
  0
DICTIONARY
  5
1B58
330
E
100
AcDbDictionary
280
     1
281
     1
  3
ADSK_XREC_LAYER_RECONCILED
360
1B59
  0
DICTIONARY
  5
1B5A
330
65
100
AcDbDictionary
280
     1
281
     1
  3
ADSK_XREC_LAYER_RECONCILED
360
1B5B
  0
DICTIONARY
  5
1B5C
330
66
100
AcDbDictionary
280
     1
281
     1
  3
ADSK_XREC_LAYER_RECONCILED
360
1B5D
  0
DICTIONARY
  5
1B5E
330
67
100
AcDbDictionary
280
     1
281
     1
  3
ADSK_XREC_LAYER_RECONCILED
360
1B5F
  0
DICTIONARY
  5
1B60
330
68
100
AcDbDictionary
280
     1
281
     1
  3
ADSK_XREC_LAYER_RECONCILED
360
1B61
  0
DICTIONARY
  5
1B62
330
69
100
AcDbDictionary
280
     1
281
     1
  3
ADSK_XREC_LAYER_RECONCILED
360
1B63
  0
DICTIONARY
  5
1B64
330
6A
100
AcDbDictionary
280
     1
281
     1
  3
ADSK_XREC_LAYER_RECONCILED
360
1B65
  0
DICTIONARY
  5
1B66
330
6B
100
AcDbDictionary
280
     1
281
     1
  3
ADSK_XREC_LAYER_RECONCILED
360
1B67
  0
DICTIONARY
  5
1AEA
330
18
100
AcDbDictionary
281
     1
  3
ACAD_LAYOUTSELFREF
350
1B02
  0
DICTIONARY
  5
1AE8
330
15
100
AcDbDictionary
281
     1
  3
ACAD_LAYOUTSELFREF
350
1B01
  0
XRECORD
  5
1B57
102
{ACAD_REACTORS
330
C
102
}
330
C
100
AcDbXrecord
280
     1
300
ACDLT
300
2014
300
ACDLT_F_S
  0
DICTIONARY
  5
1B3A
102
{ACAD_REACTORS
330
C
102
}
330
C
100
AcDbDictionary
281
     1
  0
DICTIONARY
  5
1B53
102
{ACAD_REACTORS
330
C
102
}
330
C
100
AcDbDictionary
281
     1
  3
Imperial24
350
1B54
  0
DICTIONARY
  5
D
102
{ACAD_REACTORS
330
C
102
}
330
C
100
AcDbDictionary
281
     1
  0
DICTIONARY
  5
5D
102
{ACAD_REACTORS
330
C
102
}
330
C
100
AcDbDictionary
281
     1
  3
Model
350
1B55
  3
レイアウト1
350
1B56
  0
DICTIONARY
  5
1B08
102
{ACAD_REACTORS
330
C
102
}
330
C
100
AcDbDictionary
281
     1
  3
ByBlock
350
1B11
  3
ByLayer
350
1B09
  3
Global
350
1B19
  0
DICTIONARY
  5
1B4F
102
{ACAD_REACTORS
330
C
102
}
330
C
100
AcDbDictionary
281
     1
  3
Standard
350
1B50
  0
DICTIONARY
  5
1B
102
{ACAD_REACTORS
330
C
102
}
330
C
100
AcDbDictionary
281
     1
  3
STANDARD
350
1C
  0
DICTIONARY
  5
5E
102
{ACAD_REACTORS
330
C
102
}
330
C
100
AcDbDictionary
281
     1
  0
ACDBDICTIONARYWDFLT
  5
1B06
102
{ACAD_REACTORS
330
C
102
}
330
C
100
AcDbDictionary
281
     1
  3
Normal
350
1B07
100
AcDbDictionaryWithDefault
340
1B07
  0
DICTIONARY
  5
1B3D
102
{ACAD_REACTORS
330
C
102
}
330
C
100
AcDbDictionary
281
     1
  3
A0
350
1B3E
  3
A1
350
1B3F
  3
A2
350
1B40
  3
A3
350
1B41
  3
A4
350
1B42
  3
A5
350
1B43
  3
A6
350
1B44
  3
A7
350
1B45
  3
A8
350
1B46
  3
A9
350
1B47
  3
B0
350
1B48
  3
B1
350
1B49
  3
B2
350
1B4A
  3
B3
350
1B4B
  3
B4
350
1B4C
  3
B5
350
1B4D
  3
B6
350
1B4E
  0
DICTIONARY
  5
1B51
102
{ACAD_REACTORS
330
C
102
}
330
C
100
AcDbDictionary
281
     1
  3
Imperial24
350
1B52
  0
DICTIONARY
  5
1B3B
102
{ACAD_REACTORS
330
C
102
}
330
C
100
AcDbDictionary
281
     1
  3
Standard
350
1B3C
  0
DICTIONARY
  5
1B21
102
{ACAD_REACTORS
330
C
102
}
330
C
100
AcDbDictionary
281
     1
  3
2dWireframe
350
1B27
  3
Basic
350
1B26
  3
Brighten
350
1B2D
  3
ColorChange
350
1B31
  3
Conceptual
350
1B2A
  3
Dim
350
1B2C
  3
EdgeColorOff
350
1B39
  3
Facepattern
350
1B30
  3
Flat
350
1B22
  3
FlatWithEdges
350
1B23
  3
Gouraud
350
1B24
  3
GouraudWithEdges
350
1B25
  3
Hidden
350
1B29
  3
JitterOff
350
1B37
  3
Linepattern
350
1B2F
  3
OverhangOff
350
1B38
  3
Realistic
350
1B2B
  3
Shaded
350
1B36
  3
Shaded with edges
350
1B35
  3
Shades of Gray
350
1B32
  3
Sketchy
350
1B33
  3
Thicken
350
1B2E
  3
Wireframe
350
1B28
  3
X-Ray
350
1B34
  0
XRECORD
  5
1B75
102
{ACAD_REACTORS
330
C
102
}
330
C
100
AcDbXrecord
280
     1
 90
        1
330
1B3C
  0
DICTIONARY
  5
1B68
102
{ACAD_REACTORS
330
C
102
}
330
C
100
AcDbDictionary
281
     1
  3
CANNOSCALE
350
1B6D
  3
CMLEADERSTYLE
350
1B6A
  3
CTABLESTYLE
350
1B69
  3
CVIEWDETAILSTYLE
350
1B6B
  3
CVIEWSECTIONSTYLE
350
1B6C
  3
DIMASSOC
350
1B70
  3
INDEXCTL
350
1B6F
  3
SORTENTS
350
1B6E
  3
XCLIPFRAME
350
1B71
  0
DICTIONARY
  5
3D
102
{ACAD_REACTORS
330
C
102
}
330
C
100
AcDbDictionary
281
     1
  0
XRECORD
  5
1B76
102
{ACAD_REACTORS
330
C
102
}
330
C
100
AcDbXrecord
280
     1
  1
DWGPROPS COOKIE
  2

  3

  4

  6

  7

  8
Yoshitsune
  9

300
=
301
=
302
=
303
=
304
=
305
=
306
=
307
=
308
=
309
=
 40
0.1353096064814815
 41
2453281.404552581
 42
2457192.68912713
  1

 90
        0
  0
XRECORD
  5
1B59
102
{ACAD_REACTORS
330
1B58
102
}
330
1B58
100
AcDbXrecord
280
     1
290
     1
  0
XRECORD
  5
1B5B
102
{ACAD_REACTORS
330
1B5A
102
}
330
1B5A
100
AcDbXrecord
280
     1
290
     1
  0
XRECORD
  5
1B5D
102
{ACAD_REACTORS
330
1B5C
102
}
330
1B5C
100
AcDbXrecord
280
     1
290
     1
  0
XRECORD
  5
1B5F
102
{ACAD_REACTORS
330
1B5E
102
}
330
1B5E
100
AcDbXrecord
280
     1
290
     1
  0
XRECORD
  5
1B61
102
{ACAD_REACTORS
330
1B60
102
}
330
1B60
100
AcDbXrecord
280
     1
290
     1
  0
XRECORD
  5
1B63
102
{ACAD_REACTORS
330
1B62
102
}
330
1B62
100
AcDbXrecord
280
     1
290
     1
  0
XRECORD
  5
1B65
102
{ACAD_REACTORS
330
1B64
102
}
330
1B64
100
AcDbXrecord
280
     1
290
     1
  0
XRECORD
  5
1B67
102
{ACAD_REACTORS
330
1B66
102
}
330
1B66
100
AcDbXrecord
280
     1
290
     1
  0
XRECORD
  5
1B02
102
{ACAD_REACTORS
330
1AEA
102
}
330
1AEA
100
AcDbXrecord
280
     1
340
18
  0
XRECORD
  5
1B01
102
{ACAD_REACTORS
330
1AE8
102
}
330
1AE8
100
AcDbXrecord
280
     1
340
15
  0
ACDBDETAILVIEWSTYLE
  5
1B54
102
{ACAD_XDICTIONARY
360
1BAE
102
}
102
{ACAD_REACTORS
330
1B53
102
}
330
1B53
100
AcDbModelDocViewStyle
 70
     0
  3
Imperial24
290
     0
100
AcDbDetailViewStyle
 70
     0
 71
     0
 90
        3
 71
     1
340
F
 40
0.24
340
0
 40
0.24
300

 40
0.36
280
     3
 71
     2
340
14
 90
       25
 71
     3
340
F
 40
0.24
 90
        1
 40
0.75
 90
        1
300
%<\AcVar ViewType \f "%tc1">% %<\AcVar ViewDetailId>%\PSCALE %<\AcVar ViewScale \f "%sn">%
 71
     4
340
14
 90
       25
340
14
 90
       25
280
     0
  0
LAYOUT
  5
1B55
102
{ACAD_XDICTIONARY
360
1BB0
102
}
102
{ACAD_REACTORS
330
5D
102
}
330
5D
100
AcDbPlotSettings
  1

  2
Canon LBP9100C
  4

  6

 40
0.0
 41
0.0
 42
0.0
 43
0.0
 44
0.0
 45
0.0
 46
0.0
 47
0.0
 48
0.0
 49
0.0
140
0.0
141
0.0
142
1.0
143
1.0
 70
  1712
 72
     0
 73
     0
 74
     0
  7

 75
     0
147
1.0
148
0.0
149
0.0
100
AcDbLayout
  1
Model
 70
     1
 71
     0
 10
0.0
 20
0.0
 11
12.0
 21
9.0
 12
0.0
 22
0.0
 32
0.0
 14
0.0
 24
0.0
 34
0.0
 15
0.0
 25
0.0
 35
0.0
146
0.0
 13
0.0
 23
0.0
 33
0.0
 16
1.0
 26
0.0
 36
0.0
 17
0.0
 27
1.0
 37
0.0
 76
     0
330
18
331
1B00
  0
LAYOUT
  5
1B56
102
{ACAD_XDICTIONARY
360
1BB2
102
}
102
{ACAD_REACTORS
330
5D
102
}
330
5D
100
AcDbPlotSettings
  1

  2
Canon LBP9100C
  4

  6

 40
0.0
 41
0.0
 42
0.0
 43
0.0
 44
0.0
 45
0.0
 46
0.0
 47
0.0
 48
0.0
 49
0.0
140
0.0
141
0.0
142
1.0
143
1.0
 70
   688
 72
     0
 73
     0
 74
     5
  7

 75
    16
147
1.0
148
0.0
149
0.0
100
AcDbLayout
  1
レイアウト1
 70
     1
 71
     1
 10
0.0
 20
0.0
 11
420.0
 21
297.0
 12
0.0
 22
0.0
 32
0.0
 14
1.000000000000000E+20
 24
1.000000000000000E+20
 34
1.000000000000000E+20
 15
-1.000000000000000E+20
 25
-1.000000000000000E+20
 35
-1.000000000000000E+20
146
0.0
 13
0.0
 23
0.0
 33
0.0
 16
1.0
 26
0.0
 36
0.0
 17
0.0
 27
1.0
 37
0.0
 76
     0
330
15
  0
MATERIAL
  5
1B11
102
{ACAD_XDICTIONARY
360
1B12
102
}
102
{ACAD_REACTORS
330
1B08
102
}
330
1B08
100
AcDbMaterial
  1
ByBlock
 72
     0
 43
0.0208333333333333
 43
0.0
 43
0.0
 43
0.0
 43
0.0
 43
0.0208333333333333
 43
0.0
 43
0.0
 43
0.0
 43
0.0
 43
1.0
 43
0.0
 43
0.0
 43
0.0
 43
0.0
 43
1.0
 77
     0
 47
0.0208333333333333
 47
0.0
 47
0.0
 47
0.0
 47
0.0
 47
0.0208333333333333
 47
0.0
 47
0.0
 47
0.0
 47
0.0
 47
1.0
 47
0.0
 47
0.0
 47
0.0
 47
0.0
 47
1.0
171
     0
 49
0.0208333333333333
 49
0.0
 49
0.0
 49
0.0
 49
0.0
 49
0.0208333333333333
 49
0.0
 49
0.0
 49
0.0
 49
0.0
 49
1.0
 49
0.0
 49
0.0
 49
0.0
 49
0.0
 49
1.0
175
     0
142
0.0208333333333333
142
0.0
142
0.0
142
0.0
142
0.0
142
0.0208333333333333
142
0.0
142
0.0
142
0.0
142
0.0
142
1.0
142
0.0
142
0.0
142
0.0
142
0.0
142
1.0
179
     0
144
0.0208333333333333
144
0.0
144
0.0
144
0.0
144
0.0
144
0.0208333333333333
144
0.0
144
0.0
144
0.0
144
0.0
144
1.0
144
0.0
144
0.0
144
0.0
144
0.0
144
1.0
147
0.0208333333333333
147
0.0
147
0.0
147
0.0
147
0.0
147
0.0208333333333333
147
0.0
147
0.0
147
0.0
147
0.0
147
1.0
147
0.0
147
0.0
147
0.0
147
0.0
147
1.0
  0
MATERIAL
  5
1B09
102
{ACAD_XDICTIONARY
360
1B0A
102
}
102
{ACAD_REACTORS
330
1B08
102
}
330
1B08
100
AcDbMaterial
  1
ByLayer
 72
     0
 43
0.0208333333333333
 43
0.0
 43
0.0
 43
0.0
 43
0.0
 43
0.0208333333333333
 43
0.0
 43
0.0
 43
0.0
 43
0.0
 43
1.0
 43
0.0
 43
0.0
 43
0.0
 43
0.0
 43
1.0
 77
     0
 47
0.0208333333333333
 47
0.0
 47
0.0
 47
0.0
 47
0.0
 47
0.0208333333333333
 47
0.0
 47
0.0
 47
0.0
 47
0.0
 47
1.0
 47
0.0
 47
0.0
 47
0.0
 47
0.0
 47
1.0
171
     0
 49
0.0208333333333333
 49
0.0
 49
0.0
 49
0.0
 49
0.0
 49
0.0208333333333333
 49
0.0
 49
0.0
 49
0.0
 49
0.0
 49
1.0
 49
0.0
 49
0.0
 49
0.0
 49
0.0
 49
1.0
175
     0
142
0.0208333333333333
142
0.0
142
0.0
142
0.0
142
0.0
142
0.0208333333333333
142
0.0
142
0.0
142
0.0
142
0.0
142
1.0
142
0.0
142
0.0
142
0.0
142
0.0
142
1.0
179
     0
144
0.0208333333333333
144
0.0
144
0.0
144
0.0
144
0.0
144
0.0208333333333333
144
0.0
144
0.0
144
0.0
144
0.0
144
1.0
144
0.0
144
0.0
144
0.0
144
0.0
144
1.0
147
0.0208333333333333
147
0.0
147
0.0
147
0.0
147
0.0
147
0.0208333333333333
147
0.0
147
0.0
147
0.0
147
0.0
147
1.0
147
0.0
147
0.0
147
0.0
147
0.0
147
1.0
  0
MATERIAL
  5
1B19
102
{ACAD_XDICTIONARY
360
1B1A
102
}
102
{ACAD_REACTORS
330
1B08
102
}
330
1B08
100
AcDbMaterial
  1
Global
 72
     0
 43
0.0208333333333333
 43
0.0
 43
0.0
 43
0.0
 43
0.0
 43
0.0208333333333333
 43
0.0
 43
0.0
 43
0.0
 43
0.0
 43
1.0
 43
0.0
 43
0.0
 43
0.0
 43
0.0
 43
1.0
 77
     0
 47
0.0208333333333333
 47
0.0
 47
0.0
 47
0.0
 47
0.0
 47
0.0208333333333333
 47
0.0
 47
0.0
 47
0.0
 47
0.0
 47
1.0
 47
0.0
 47
0.0
 47
0.0
 47
0.0
 47
1.0
171
     0
 49
0.0208333333333333
 49
0.0
 49
0.0
 49
0.0
 49
0.0
 49
0.0208333333333333
 49
0.0
 49
0.0
 49
0.0
 49
0.0
 49
1.0
 49
0.0
 49
0.0
 49
0.0
 49
0.0
 49
1.0
175
     0
142
0.0208333333333333
142
0.0
142
0.0
142
0.0
142
0.0
142
0.0208333333333333
142
0.0
142
0.0
142
0.0
142
0.0
142
1.0
142
0.0
142
0.0
142
0.0
142
0.0
142
1.0
179
     0
144
0.0208333333333333
144
0.0
144
0.0
144
0.0
144
0.0
144
0.0208333333333333
144
0.0
144
0.0
144
0.0
144
0.0
144
1.0
144
0.0
144
0.0
144
0.0
144
0.0
144
1.0
147
0.0208333333333333
147
0.0
147
0.0
147
0.0
147
0.0
147
0.0208333333333333
147
0.0
147
0.0
147
0.0
147
0.0
147
1.0
147
0.0
147
0.0
147
0.0
147
0.0
147
1.0
  0
MLEADERSTYLE
  5
1B50
102
{ACAD_REACTORS
330
1B4F
102
}
330
1B4F
100
AcDbMLeaderStyle
170
     2
171
     1
172
     0
 90
        2
 40
0.0
 41
0.0
173
     1
 91
-1056964608
340
12
 92
       -2
290
     1
 42
0.09
291
     1
 43
0.36
  3
Standard
 44
0.18
300

342
F
174
     1
178
     6
175
     1
176
     0
 93
-1056964608
 45
0.18
292
     0
297
     0
 46
0.18
 94
-1056964608
 47
1.0
 49
1.0
140
1.0
293
     1
141
0.0
294
     1
177
     0
142
1.0
295
     0
296
     0
143
0.125
1001
ACAD_MLEADERVER
1070
     2
  0
MLINESTYLE
  5
1C
102
{ACAD_REACTORS
330
1B
102
}
330
1B
100
AcDbMlineStyle
  2
STANDARD
 70
     0
  3

 62
   256
 51
90.0
 52
90.0
 71
     2
 49
0.5
 62
   256
  6
BYLAYER
 49
-0.5
 62
   256
  6
BYLAYER
  0
ACDBPLACEHOLDER
  5
1B07
102
{ACAD_REACTORS
330
1B06
102
}
330
1B06
  0
SCALE
  5
1B3E
102
{ACAD_REACTORS
330
1B3D
102
}
330
1B3D
100
AcDbScale
 70
     0
300
1:1
140
1.0
141
1.0
290
     1
  0
SCALE
  5
1B3F
102
{ACAD_REACTORS
330
1B3D
102
}
330
1B3D
100
AcDbScale
 70
     0
300
1/128" = 1'-0"
140
0.0078125
141
12.0
290
     0
  0
SCALE
  5
1B40
102
{ACAD_REACTORS
330
1B3D
102
}
330
1B3D
100
AcDbScale
 70
     0
300
1/64" = 1'-0"
140
0.015625
141
12.0
290
     0
  0
SCALE
  5
1B41
102
{ACAD_REACTORS
330
1B3D
102
}
330
1B3D
100
AcDbScale
 70
     0
300
1/32" = 1'-0"
140
0.03125
141
12.0
290
     0
  0
SCALE
  5
1B42
102
{ACAD_REACTORS
330
1B3D
102
}
330
1B3D
100
AcDbScale
 70
     0
300
1/16" = 1'-0"
140
0.0625
141
12.0
290
     0
  0
SCALE
  5
1B43
102
{ACAD_REACTORS
330
1B3D
102
}
330
1B3D
100
AcDbScale
 70
     0
300
3/32" = 1'-0"
140
0.09375
141
12.0
290
     0
  0
SCALE
  5
1B44
102
{ACAD_REACTORS
330
1B3D
102
}
330
1B3D
100
AcDbScale
 70
     0
300
1/8" = 1'-0"
140
0.125
141
12.0
290
     0
  0
SCALE
  5
1B45
102
{ACAD_REACTORS
330
1B3D
102
}
330
1B3D
100
AcDbScale
 70
     0
300
3/16" = 1'-0"
140
0.1875
141
12.0
290
     0
  0
SCALE
  5
1B46
102
{ACAD_REACTORS
330
1B3D
102
}
330
1B3D
100
AcDbScale
 70
     0
300
1/4" = 1'-0"
140
0.25
141
12.0
290
     0
  0
SCALE
  5
1B47
102
{ACAD_REACTORS
330
1B3D
102
}
330
1B3D
100
AcDbScale
 70
     0
300
3/8" = 1'-0"
140
0.375
141
12.0
290
     0
  0
SCALE
  5
1B48
102
{ACAD_REACTORS
330
1B3D
102
}
330
1B3D
100
AcDbScale
 70
     0
300
1/2" = 1'-0"
140
0.5
141
12.0
290
     0
  0
SCALE
  5
1B49
102
{ACAD_REACTORS
330
1B3D
102
}
330
1B3D
100
AcDbScale
 70
     0
300
3/4" = 1'-0"
140
0.75
141
12.0
290
     0
  0
SCALE
  5
1B4A
102
{ACAD_REACTORS
330
1B3D
102
}
330
1B3D
100
AcDbScale
 70
     0
300
1" = 1'-0"
140
1.0
141
12.0
290
     0
  0
SCALE
  5
1B4B
102
{ACAD_REACTORS
330
1B3D
102
}
330
1B3D
100
AcDbScale
 70
     0
300
1-1/2" = 1'-0"
140
1.5
141
12.0
290
     0
  0
SCALE
  5
1B4C
102
{ACAD_REACTORS
330
1B3D
102
}
330
1B3D
100
AcDbScale
 70
     0
300
3" = 1'-0"
140
3.0
141
12.0
290
     0
  0
SCALE
  5
1B4D
102
{ACAD_REACTORS
330
1B3D
102
}
330
1B3D
100
AcDbScale
 70
     0
300
6" = 1'-0"
140
6.0
141
12.0
290
     0
  0
SCALE
  5
1B4E
102
{ACAD_REACTORS
330
1B3D
102
}
330
1B3D
100
AcDbScale
 70
     0
300
1'-0" = 1'-0"
140
12.0
141
12.0
290
     0
  0
ACDBSECTIONVIEWSTYLE
  5
1B52
102
{ACAD_XDICTIONARY
360
1BAC
102
}
102
{ACAD_REACTORS
330
1B51
102
}
330
1B51
100
AcDbModelDocViewStyle
 70
     0
  3
Imperial24
290
     0
100
AcDbSectionViewStyle
 70
     0
 71
     0
 90
       78
 71
     1
340
F
 40
0.24
340
0
340
0
 40
0.24
300
I, O, Q, S, X, Z
 40
0.48
 90
        3
 40
0.18
 90
        1
 71
     2
340
14
 90
       25
340
14
 90
       50
 40
0.24
 40
0.0
 40
0.24
 71
     3
340
F
 40
0.24
 90
        1
 40
0.75
 90
        1
300
%<\AcVar ViewType \f "%tc1">% %<\AcVar ViewSectionStartId>%-%<\AcVar ViewSectionEndId>%\PSCALE %<\AcVar ViewScale \f "%sn">%
 71
     4
300
ANSI31
 40
1.0
 90
        0
290
     0
290
     0
 90
        6
 40
0.0
 40
1.570796326794896
 40
0.2617993877991494
 40
1.308996938995747
 40
-0.2617993877991494
 40
1.832595714594046
  0
TABLESTYLE
  5
1B3C
102
{ACAD_XDICTIONARY
360
1B73
102
}
102
{ACAD_REACTORS
330
1B3B
102
}
330
1B3B
100
AcDbTableStyle
  3
Standard
 70
     0
 71
     0
 40
0.06
 41
0.06
280
     0
281
     0
  7
STANDARD
140
0.18
170
     2
 62
     0
 63
     7
283
     0
274
    -2
284
     1
 64
     0
275
    -2
285
     1
 65
     0
276
    -2
286
     1
 66
     0
277
    -2
287
     1
 67
     0
278
    -2
288
     1
 68
     0
279
    -2
289
     1
 69
     0
  7
STANDARD
140
0.25
170
     5
 62
     0
 63
     7
283
     0
274
    -2
284
     1
 64
     0
275
    -2
285
     1
 65
     0
276
    -2
286
     1
 66
     0
277
    -2
287
     1
 67
     0
278
    -2
288
     1
 68
     0
279
    -2
289
     1
 69
     0
  7
STANDARD
140
0.18
170
     5
 62
     0
 63
     7
283
     0
274
    -2
284
     1
 64
     0
275
    -2
285
     1
 65
     0
276
    -2
286
     1
 66
     0
277
    -2
287
     1
 67
     0
278
    -2
288
     1
 68
     0
279
    -2
289
     1
 69
     0
  0
VISUALSTYLE
  5
1B27
102
{ACAD_XDICTIONARY
360
1B84
102
}
102
{ACAD_REACTORS
330
1B21
102
}
330
1B21
100
AcDbVisualStyle
  2
2dWireframe
 70
     4
 71
     0
 72
     2
 73
     0
 90
        0
 40
-0.6
 41
-30.0
 62
     5
 63
     7
 74
     1
 91
        4
 64
     7
 65
   257
 75
     1
175
     1
 42
1.0
 92
        0
 66
   257
 43
1.0
 76
     1
 77
     6
 78
     2
 67
     7
 79
     5
170
     0
171
     0
290
     0
174
     0
 93
        1
 44
0.0
173
     0
291
     0
 45
0.0
1001
ACAD
1000
AcDbSavedByObjectVersion
1070
     0
  0
VISUALSTYLE
  5
1B26
102
{ACAD_XDICTIONARY
360
1B82
102
}
102
{ACAD_REACTORS
330
1B21
102
}
330
1B21
100
AcDbVisualStyle
  2
Basic
 70
     7
 71
     1
 72
     0
 73
     1
 90
        0
 40
-0.6
 41
-30.0
 62
     5
 63
     7
 74
     0
 91
        4
 64
     7
 65
   257
 75
     1
175
     1
 42
1.0
 92
        8
 66
     7
 43
1.0
 76
     1
 77
     6
 78
     2
 67
     7
 79
     5
170
     0
171
     0
290
     0
174
     0
 93
        1
 44
0.0
173
     0
291
     1
 45
0.0
1001
ACAD
1000
AcDbSavedByObjectVersion
1070
     0
  0
VISUALSTYLE
  5
1B2D
102
{ACAD_XDICTIONARY
360
1B90
102
}
102
{ACAD_REACTORS
330
1B21
102
}
330
1B21
100
AcDbVisualStyle
  2
Brighten
 70
    12
 71
     2
 72
     2
 73
     0
 90
        0
 40
-0.6
 41
-30.0
 62
     5
 63
     7
 74
     1
 91
        4
 64
     7
 65
   257
 75
     1
175
     1
 42
1.0
 92
        8
 66
     7
 43
1.0
 76
     1
 77
     6
 78
     2
 67
     7
 79
     5
170
     0
171
     0
290
     0
174
     0
 93
        1
 44
50.0
173
     0
291
     1
 45
0.0
1001
ACAD
1000
AcDbSavedByObjectVersion
1070
     0
  0
VISUALSTYLE
  5
1B31
102
{ACAD_XDICTIONARY
360
1B98
102
}
102
{ACAD_REACTORS
330
1B21
102
}
330
1B21
100
AcDbVisualStyle
  2
ColorChange
 70
    16
 71
     2
 72
     2
 73
     3
 90
        0
 40
-0.6
 41
-30.0
 62
     5
 63
     8
 74
     1
 91
        4
 64
     7
 65
   257
 75
     1
175
     1
 42
1.0
 92
        8
 66
     8
 43
1.0
 76
     1
 77
     6
 78
     2
 67
     7
 79
     5
170
     0
171
     0
290
     0
174
     0
 93
        1
 44
0.0
173
     0
291
     1
 45
0.0
1001
ACAD
1000
AcDbSavedByObjectVersion
1070
     0
  0
VISUALSTYLE
  5
1B2A
102
{ACAD_XDICTIONARY
360
1B8A
102
}
102
{ACAD_REACTORS
330
1B21
102
}
330
1B21
100
AcDbVisualStyle
  2
Conceptual
 70
     9
 71
     3
 72
     2
 73
     0
 90
        0
 40
-0.6
 41
-30.0
 62
     5
 63
     7
 74
     2
 91
        2
 64
     7
 65
   257
 75
     1
175
     1
 42
179.0
 92
        8
 66
     7
 43
1.0
 76
     1
 77
     6
 78
     2
 67
     7
 79
     3
170
     0
171
     0
290
     0
174
     0
 93
        1
 44
0.0
173
     0
291
     0
 45
0.0
1001
ACAD
1000
AcDbSavedByObjectVersion
1070
     0
  0
VISUALSTYLE
  5
1B2C
102
{ACAD_XDICTIONARY
360
1B8E
102
}
102
{ACAD_REACTORS
330
1B21
102
}
330
1B21
100
AcDbVisualStyle
  2
Dim
 70
    11
 71
     2
 72
     2
 73
     0
 90
        0
 40
-0.6
 41
-30.0
 62
     5
 63
     7
 74
     1
 91
        4
 64
     7
 65
   257
 75
     1
175
     1
 42
1.0
 92
        8
 66
     7
 43
1.0
 76
     1
 77
     6
 78
     2
 67
     7
 79
     5
170
     0
171
     0
290
     0
174
     0
 93
        1
 44
-50.0
173
     0
291
     1
 45
0.0
1001
ACAD
1000
AcDbSavedByObjectVersion
1070
     0
  0
VISUALSTYLE
  5
1B39
102
{ACAD_XDICTIONARY
360
1BA8
102
}
102
{ACAD_REACTORS
330
1B21
102
}
330
1B21
100
AcDbVisualStyle
  2
EdgeColorOff
 70
    22
 71
     2
 72
     2
 73
     0
 90
        0
 40
-0.6
 41
-30.0
 62
     5
 63
     7
 74
     1
 91
        4
 64
     7
 65
   257
 75
     1
175
     1
 42
1.0
 92
        8
 66
     7
 43
1.0
 76
     1
 77
     6
 78
     2
 67
     7
 79
     5
170
     0
171
     0
290
     0
174
     0
 93
        1
 44
0.0
173
     0
291
     1
 45
0.0
1001
ACAD
1000
AcDbSavedByObjectVersion
1070
     0
  0
VISUALSTYLE
  5
1B30
102
{ACAD_XDICTIONARY
360
1B96
102
}
102
{ACAD_REACTORS
330
1B21
102
}
330
1B21
100
AcDbVisualStyle
  2
Facepattern
 70
    15
 71
     2
 72
     2
 73
     0
 90
        0
 40
-0.6
 41
-30.0
 62
     5
 63
     7
 74
     1
 91
        4
 64
     7
 65
   257
 75
     1
175
     1
 42
1.0
 92
        8
 66
     7
 43
1.0
 76
     1
 77
     6
 78
     2
 67
     7
 79
     5
170
     0
171
     0
290
     0
174
     0
 93
        1
 44
0.0
173
     0
291
     1
 45
0.0
1001
ACAD
1000
AcDbSavedByObjectVersion
1070
     0
  0
VISUALSTYLE
  5
1B22
102
{ACAD_XDICTIONARY
360
1B7A
102
}
102
{ACAD_REACTORS
330
1B21
102
}
330
1B21
100
AcDbVisualStyle
  2
Flat
 70
     0
 71
     2
 72
     1
 73
     1
 90
        2
 40
-0.6
 41
30.0
 62
     5
 63
     7
 74
     0
 91
        0
 64
     7
 65
   257
 75
     1
175
     1
 42
1.0
 92
        8
 66
     7
 43
1.0
 76
     1
 77
     6
 78
     2
 67
     7
 79
     5
170
     0
171
     0
290
     0
174
     0
 93
       13
 44
0.0
173
     0
291
     1
 45
0.0
1001
ACAD
1000
AcDbSavedByObjectVersion
1070
     0
  0
VISUALSTYLE
  5
1B23
102
{ACAD_XDICTIONARY
360
1B7C
102
}
102
{ACAD_REACTORS
330
1B21
102
}
330
1B21
100
AcDbVisualStyle
  2
FlatWithEdges
 70
     1
 71
     2
 72
     1
 73
     1
 90
        2
 40
-0.6
 41
30.0
 62
     5
 63
     7
 74
     1
 91
        0
 64
     7
 65
   257
 75
     1
175
     1
 42
1.0
 92
        0
 66
   257
 43
1.0
 76
     1
 77
     6
 78
     2
 67
     7
 79
     5
170
     0
171
     0
290
     0
174
     0
 93
       13
 44
0.0
173
     0
291
     1
 45
0.0
1001
ACAD
1000
AcDbSavedByObjectVersion
1070
     0
  0
VISUALSTYLE
  5
1B24
102
{ACAD_XDICTIONARY
360
1B7E
102
}
102
{ACAD_REACTORS
330
1B21
102
}
330
1B21
100
AcDbVisualStyle
  2
Gouraud
 70
     2
 71
     2
 72
     2
 73
     1
 90
        2
 40
-0.6
 41
30.0
 62
     5
 63
     7
 74
     0
 91
        0
 64
     7
 65
   257
 75
     1
175
     1
 42
1.0
 92
        0
 66
     7
 43
1.0
 76
     1
 77
     6
 78
     2
 67
     7
 79
     5
170
     0
171
     0
290
     0
174
     0
 93
       13
 44
0.0
173
     0
291
     1
 45
0.0
1001
ACAD
1000
AcDbSavedByObjectVersion
1070
     0
  0
VISUALSTYLE
  5
1B25
102
{ACAD_XDICTIONARY
360
1B80
102
}
102
{ACAD_REACTORS
330
1B21
102
}
330
1B21
100
AcDbVisualStyle
  2
GouraudWithEdges
 70
     3
 71
     2
 72
     2
 73
     1
 90
        2
 40
-0.6
 41
30.0
 62
     5
 63
     7
 74
     1
 91
        0
 64
     7
 65
   257
 75
     1
175
     1
 42
1.0
 92
        0
 66
   257
 43
1.0
 76
     1
 77
     6
 78
     2
 67
     7
 79
     5
170
     0
171
     0
290
     0
174
     0
 93
       13
 44
0.0
173
     0
291
     1
 45
0.0
1001
ACAD
1000
AcDbSavedByObjectVersion
1070
     0
  0
VISUALSTYLE
  5
1B29
102
{ACAD_XDICTIONARY
360
1B88
102
}
102
{ACAD_REACTORS
330
1B21
102
}
330
1B21
100
AcDbVisualStyle
  2
Hidden
 70
     6
 71
     1
 72
     2
 73
     2
 90
        0
 40
-0.6
 41
-30.0
 62
     5
 63
     7
 74
     2
 91
        2
 64
     7
 65
   257
 75
     2
175
     1
 42
40.0
 92
        0
 66
   257
 43
1.0
 76
     1
 77
     6
 78
     2
 67
     7
 79
     3
170
     0
171
     0
290
     0
174
     0
 93
        1
 44
0.0
173
     0
291
     0
 45
0.0
1001
ACAD
1000
AcDbSavedByObjectVersion
1070
     0
  0
VISUALSTYLE
  5
1B37
102
{ACAD_XDICTIONARY
360
1BA4
102
}
102
{ACAD_REACTORS
330
1B21
102
}
330
1B21
100
AcDbVisualStyle
  2
JitterOff
 70
    20
 71
     2
 72
     2
 73
     0
 90
        0
 40
-0.6
 41
-30.0
 62
     5
 63
     7
 74
     1
 91
        4
 64
     7
 65
   257
 75
     1
175
     1
 42
1.0
 92
       10
 66
     7
 43
1.0
 76
     1
 77
     6
 78
     2
 67
     7
 79
     5
170
     0
171
     0
290
     0
174
     0
 93
        1
 44
0.0
173
     0
291
     1
 45
0.0
1001
ACAD
1000
AcDbSavedByObjectVersion
1070
     0
  0
VISUALSTYLE
  5
1B2F
102
{ACAD_XDICTIONARY
360
1B94
102
}
102
{ACAD_REACTORS
330
1B21
102
}
330
1B21
100
AcDbVisualStyle
  2
Linepattern
 70
    14
 71
     2
 72
     2
 73
     0
 90
        0
 40
-0.6
 41
-30.0
 62
     5
 63
     7
 74
     1
 91
        4
 64
     7
 65
   257
 75
     7
175
     7
 42
1.0
 92
        8
 66
     7
 43
1.0
 76
     1
 77
     6
 78
     2
 67
     7
 79
     5
170
     0
171
     0
290
     0
174
     0
 93
        1
 44
0.0
173
     0
291
     1
 45
0.0
1001
ACAD
1000
AcDbSavedByObjectVersion
1070
     0
  0
VISUALSTYLE
  5
1B38
102
{ACAD_XDICTIONARY
360
1BA6
102
}
102
{ACAD_REACTORS
330
1B21
102
}
330
1B21
100
AcDbVisualStyle
  2
OverhangOff
 70
    21
 71
     2
 72
     2
 73
     0
 90
        0
 40
-0.6
 41
-30.0
 62
     5
 63
     7
 74
     1
 91
        4
 64
     7
 65
   257
 75
     1
175
     1
 42
1.0
 92
        9
 66
     7
 43
1.0
 76
     1
 77
     6
 78
     2
 67
     7
 79
     5
170
     0
171
     0
290
     0
174
     0
 93
        1
 44
0.0
173
     0
291
     1
 45
0.0
1001
ACAD
1000
AcDbSavedByObjectVersion
1070
     0
  0
VISUALSTYLE
  5
1B2B
102
{ACAD_XDICTIONARY
360
1B8C
102
}
102
{ACAD_REACTORS
330
1B21
102
}
330
1B21
100
AcDbVisualStyle
  2
Realistic
 70
     8
 71
     2
 72
     3
 73
     0
 90
        2
 40
-0.6
 41
30.0
 62
     5
 63
     7
 74
     0
 91
        0
 64
     7
 65
   257
 75
     1
175
     1
 42
1.0
 92
        8
 66
   257
 43
1.0
 76
     1
 77
     6
 78
     2
 67
     7
 79
     3
170
     0
171
     0
290
     0
174
     0
 93
       13
 44
0.0
173
     0
291
     0
 45
0.0
1001
ACAD
1000
AcDbSavedByObjectVersion
1070
     0
  0
VISUALSTYLE
  5
1B36
102
{ACAD_XDICTIONARY
360
1BA2
102
}
102
{ACAD_REACTORS
330
1B21
102
}
330
1B21
100
AcDbVisualStyle
  2
Shaded
 70
    27
 71
     2
 72
     2
 73
     1
 90
        2
 40
-0.6
 41
30.0
 62
     5
 63
     7
 74
     0
 91
        4
 64
     7
 65
   257
 75
     1
175
     1
 42
1.0
 92
        8
 66
   257
 43
1.0
 76
     1
 77
     6
 78
     2
 67
     8
 79
     3
170
     0
171
     0
290
     0
174
     0
 93
        5
 44
0.0
173
     0
291
     0
 45
0.0
1001
ACAD
1000
AcDbSavedByObjectVersion
1070
     0
  0
VISUALSTYLE
  5
1B35
102
{ACAD_XDICTIONARY
360
1BA0
102
}
102
{ACAD_REACTORS
330
1B21
102
}
330
1B21
100
AcDbVisualStyle
  2
Shaded with edges
 70
    26
 71
     2
 72
     2
 73
     1
 90
        2
 40
-0.6
 41
30.0
 62
     5
 63
     7
 74
     1
 91
       10
 64
     7
 65
   257
 75
     2
175
     1
 42
1.0
 92
        8
 66
   257
 43
1.0
 76
     1
 77
     6
 78
     2
 67
     7
 79
     3
170
     0
171
     0
290
     0
174
     0
 93
        5
 44
0.0
173
     0
291
     0
 45
0.0
1001
ACAD
1000
AcDbSavedByObjectVersion
1070
     0
  0
VISUALSTYLE
  5
1B32
102
{ACAD_XDICTIONARY
360
1B9A
102
}
102
{ACAD_REACTORS
330
1B21
102
}
330
1B21
100
AcDbVisualStyle
  2
Shades of Gray
 70
    23
 71
     2
 72
     2
 73
     3
 90
        0
 40
-0.6
 41
-30.0
 62
     5
 63
     7
 74
     2
 91
        2
 64
     7
 65
     7
 75
     1
175
     1
 42
40.0
 92
        8
 66
     7
 43
1.0
 76
     1
 77
     6
 78
     2
 67
     7
 79
     3
170
     0
171
     0
290
     0
174
     0
 93
        1
 44
0.0
173
     0
291
     0
 45
0.0
1001
ACAD
1000
AcDbSavedByObjectVersion
1070
     0
  0
VISUALSTYLE
  5
1B33
102
{ACAD_XDICTIONARY
360
1B9C
102
}
102
{ACAD_REACTORS
330
1B21
102
}
330
1B21
100
AcDbVisualStyle
  2
Sketchy
 70
    24
 71
     1
 72
     2
 73
     2
 90
        0
 40
-0.6
 41
-30.0
 62
     5
 63
     7
 74
     2
 91
        2
 64
     7
 65
     7
 75
     1
175
     1
 42
40.0
 92
       11
 66
     7
 43
1.0
 76
     1
 77
     6
 78
     2
 67
     7
 79
     6
170
     0
171
     0
290
     0
174
     0
 93
        1
 44
0.0
173
     0
291
     0
 45
0.0
1001
ACAD
1000
AcDbSavedByObjectVersion
1070
     0
  0
VISUALSTYLE
  5
1B2E
102
{ACAD_XDICTIONARY
360
1B92
102
}
102
{ACAD_REACTORS
330
1B21
102
}
330
1B21
100
AcDbVisualStyle
  2
Thicken
 70
    13
 71
     2
 72
     2
 73
     0
 90
        0
 40
-0.6
 41
-30.0
 62
     5
 63
     7
 74
     1
 91
        4
 64
     7
 65
   257
 75
     1
175
     1
 42
1.0
 92
       12
 66
     7
 43
1.0
 76
     1
 77
     6
 78
     2
 67
     7
 79
     5
170
     0
171
     0
290
     0
174
     0
 93
        1
 44
0.0
173
     0
291
     1
 45
0.0
1001
ACAD
1000
AcDbSavedByObjectVersion
1070
     0
  0
VISUALSTYLE
  5
1B28
102
{ACAD_XDICTIONARY
360
1B86
102
}
102
{ACAD_REACTORS
330
1B21
102
}
330
1B21
100
AcDbVisualStyle
  2
Wireframe
 70
     5
 71
     0
 72
     2
 73
     0
 90
        0
 40
-0.6
 41
-30.0
 62
     5
 63
     7
 74
     1
 91
        4
 64
     7
 65
   257
 75
     1
175
     1
 42
1.0
 92
        0
 66
   257
 43
1.0
 76
     1
 77
     6
 78
     2
 67
     7
 79
     3
170
     0
171
     0
290
     0
174
     0
 93
        1
 44
0.0
173
     0
291
     0
 45
0.0
1001
ACAD
1000
AcDbSavedByObjectVersion
1070
     0
  0
VISUALSTYLE
  5
1B34
102
{ACAD_XDICTIONARY
360
1B9E
102
}
102
{ACAD_REACTORS
330
1B21
102
}
330
1B21
100
AcDbVisualStyle
  2
X-Ray
 70
    25
 71
     2
 72
     2
 73
     1
 90
        1
 40
0.5
 41
-30.0
 62
     5
 63
     7
 74
     1
 91
        0
 64
     7
 65
   257
 75
     1
175
     1
 42
1.0
 92
        8
 66
     7
 43
1.0
 76
     1
 77
     6
 78
     2
 67
     7
 79
     3
170
     0
171
     0
290
     0
174
     0
 93
       13
 44
0.0
173
     0
291
     0
 45
0.0
1001
ACAD
1000
AcDbSavedByObjectVersion
1070
     0
  0
DICTIONARYVAR
  5
1B6D
102
{ACAD_REACTORS
330
1B68
102
}
330
1B68
100
DictionaryVariables
280
     0
  1
1:1
  0
DICTIONARYVAR
  5
1B6A
102
{ACAD_REACTORS
330
1B68
102
}
330
1B68
100
DictionaryVariables
280
     0
  1
STANDARD
  0
DICTIONARYVAR
  5
1B69
102
{ACAD_REACTORS
330
1B68
102
}
330
1B68
100
DictionaryVariables
280
     0
  1
STANDARD
  0
DICTIONARYVAR
  5
1B6B
102
{ACAD_REACTORS
330
1B68
102
}
330
1B68
100
DictionaryVariables
280
     0
  1
Imperial24
  0
DICTIONARYVAR
  5
1B6C
102
{ACAD_REACTORS
330
1B68
102
}
330
1B68
100
DictionaryVariables
280
     0
  1
Imperial24
  0
DICTIONARYVAR
  5
1B70
102
{ACAD_REACTORS
330
1B68
102
}
330
1B68
100
DictionaryVariables
280
     0
  1
1
  0
DICTIONARYVAR
  5
1B6F
102
{ACAD_REACTORS
330
1B68
102
}
330
1B68
100
DictionaryVariables
280
     0
  1
0
  0
DICTIONARYVAR
  5
1B6E
102
{ACAD_REACTORS
330
1B68
102
}
330
1B68
100
DictionaryVariables
280
     0
  1
127
  0
DICTIONARYVAR
  5
1B71
102
{ACAD_REACTORS
330
1B68
102
}
330
1B68
100
DictionaryVariables
280
     0
  1
2
  0
DICTIONARY
  5
1BAE
330
1B54
100
AcDbDictionary
280
     1
281
     1
  3
ACAD_XREC_ROUNDTRIP
360
1BAF
  0
DICTIONARY
  5
1BB0
330
1B55
100
AcDbDictionary
280
     1
281
     1
  3
ACAD_XREC_ROUNDTRIP
360
1BB1
  0
DICTIONARY
  5
1BB2
330
1B56
100
AcDbDictionary
280
     1
281
     1
  3
ACAD_XREC_ROUNDTRIP
360
1BB3
  0
DICTIONARY
  5
1B12
330
1B11
100
AcDbDictionary
280
     1
281
     1
  3
ACAD_XREC_ROUNDTRIP
360
1B78
  3
BUMPTILE
360
1B14
  3
DIFFUSETILE
360
1B13
  3
OPACITYTILE
360
1B17
  3
REFLECTIONTILE
360
1B16
  3
REFRACTIONTILE
360
1B18
  3
SPECULARTILE
360
1B15
  0
DICTIONARY
  5
1B0A
330
1B09
100
AcDbDictionary
280
     1
281
     1
  3
ACAD_XREC_ROUNDTRIP
360
1B77
  3
BUMPTILE
360
1B0C
  3
DIFFUSETILE
360
1B0B
  3
OPACITYTILE
360
1B0F
  3
REFLECTIONTILE
360
1B0E
  3
REFRACTIONTILE
360
1B10
  3
SPECULARTILE
360
1B0D
  0
DICTIONARY
  5
1B1A
330
1B19
100
AcDbDictionary
280
     1
281
     1
  3
ACAD_XREC_ROUNDTRIP
360
1B79
  3
BUMPTILE
360
1B1C
  3
DIFFUSETILE
360
1B1B
  3
OPACITYTILE
360
1B1F
  3
REFLECTIONTILE
360
1B1E
  3
REFRACTIONTILE
360
1B20
  3
SPECULARTILE
360
1B1D
  0
DICTIONARY
  5
1BAC
330
1B52
100
AcDbDictionary
280
     1
281
     1
  3
ACAD_XREC_ROUNDTRIP
360
1BAD
  0
DICTIONARY
  5
1B73
330
1B3C
100
AcDbDictionary
280
     1
281
     1
  3
ACAD_ROUNDTRIP_2008_TABLESTYLE_CELLSTYLEMAP
360
1B74
  3
ACAD_XREC_ROUNDTRIP
360
1BAA
  0
DICTIONARY
  5
1B84
330
1B27
100
AcDbDictionary
280
     1
281
     1
  3
ACAD_XREC_ROUNDTRIP
360
1B85
  0
DICTIONARY
  5
1B82
330
1B26
100
AcDbDictionary
280
     1
281
     1
  3
ACAD_XREC_ROUNDTRIP
360
1B83
  0
DICTIONARY
  5
1B90
330
1B2D
100
AcDbDictionary
280
     1
281
     1
  3
ACAD_XREC_ROUNDTRIP
360
1B91
  0
DICTIONARY
  5
1B98
330
1B31
100
AcDbDictionary
280
     1
281
     1
  3
ACAD_XREC_ROUNDTRIP
360
1B99
  0
DICTIONARY
  5
1B8A
330
1B2A
100
AcDbDictionary
280
     1
281
     1
  3
ACAD_XREC_ROUNDTRIP
360
1B8B
  0
DICTIONARY
  5
1B8E
330
1B2C
100
AcDbDictionary
280
     1
281
     1
  3
ACAD_XREC_ROUNDTRIP
360
1B8F
  0
DICTIONARY
  5
1BA8
330
1B39
100
AcDbDictionary
280
     1
281
     1
  3
ACAD_XREC_ROUNDTRIP
360
1BA9
  0
DICTIONARY
  5
1B96
330
1B30
100
AcDbDictionary
280
     1
281
     1
  3
ACAD_XREC_ROUNDTRIP
360
1B97
  0
DICTIONARY
  5
1B7A
330
1B22
100
AcDbDictionary
280
     1
281
     1
  3
ACAD_XREC_ROUNDTRIP
360
1B7B
  0
DICTIONARY
  5
1B7C
330
1B23
100
AcDbDictionary
280
     1
281
     1
  3
ACAD_XREC_ROUNDTRIP
360
1B7D
  0
DICTIONARY
  5
1B7E
330
1B24
100
AcDbDictionary
280
     1
281
     1
  3
ACAD_XREC_ROUNDTRIP
360
1B7F
  0
DICTIONARY
  5
1B80
330
1B25
100
AcDbDictionary
280
     1
281
     1
  3
ACAD_XREC_ROUNDTRIP
360
1B81
  0
DICTIONARY
  5
1B88
330
1B29
100
AcDbDictionary
280
     1
281
     1
  3
ACAD_XREC_ROUNDTRIP
360
1B89
  0
DICTIONARY
  5
1BA4
330
1B37
100
AcDbDictionary
280
     1
281
     1
  3
ACAD_XREC_ROUNDTRIP
360
1BA5
  0
DICTIONARY
  5
1B94
330
1B2F
100
AcDbDictionary
280
     1
281
     1
  3
ACAD_XREC_ROUNDTRIP
360
1B95
  0
DICTIONARY
  5
1BA6
330
1B38
100
AcDbDictionary
280
     1
281
     1
  3
ACAD_XREC_ROUNDTRIP
360
1BA7
  0
DICTIONARY
  5
1B8C
330
1B2B
100
AcDbDictionary
280
     1
281
     1
  3
ACAD_XREC_ROUNDTRIP
360
1B8D
  0
DICTIONARY
  5
1BA2
330
1B36
100
AcDbDictionary
280
     1
281
     1
  3
ACAD_XREC_ROUNDTRIP
360
1BA3
  0
DICTIONARY
  5
1BA0
330
1B35
100
AcDbDictionary
280
     1
281
     1
  3
ACAD_XREC_ROUNDTRIP
360
1BA1
  0
DICTIONARY
  5
1B9A
330
1B32
100
AcDbDictionary
280
     1
281
     1
  3
ACAD_XREC_ROUNDTRIP
360
1B9B
  0
DICTIONARY
  5
1B9C
330
1B33
100
AcDbDictionary
280
     1
281
     1
  3
ACAD_XREC_ROUNDTRIP
360
1B9D
  0
DICTIONARY
  5
1B92
330
1B2E
100
AcDbDictionary
280
     1
281
     1
  3
ACAD_XREC_ROUNDTRIP
360
1B93
  0
DICTIONARY
  5
1B86
330
1B28
100
AcDbDictionary
280
     1
281
     1
  3
ACAD_XREC_ROUNDTRIP
360
1B87
  0
DICTIONARY
  5
1B9E
330
1B34
100
AcDbDictionary
280
     1
281
     1
  3
ACAD_XREC_ROUNDTRIP
360
1B9F
  0
XRECORD
  5
1BAF
102
{ACAD_REACTORS
330
1BAE
102
}
330
1BAE
100
AcDbXrecord
280
     1
102
DISPLAYNAME
  1
Imperial24
102
FLAGS
 90
        0
  0
XRECORD
  5
1BB1
102
{ACAD_REACTORS
330
1BB0
102
}
330
1BB0
100
AcDbXrecord
280
     1
102
SHADEPLOT
 70
     0
102
SHADEPLOTRESLEVEL
 70
     2
102
SHADEPLOTCUSTOMDPI
 70
   300
  0
XRECORD
  5
1BB3
102
{ACAD_REACTORS
330
1BB2
102
}
330
1BB2
100
AcDbXrecord
280
     1
102
SHADEPLOT
 70
     0
102
SHADEPLOTRESLEVEL
 70
     2
102
SHADEPLOTCUSTOMDPI
 70
   300
  0
XRECORD
  5
1B78
102
{ACAD_REACTORS
330
1B12
102
}
330
1B12
100
AcDbXrecord
280
     1
102
MATERIAL
148
0.0
149
0.0
149
0.0
 93
        0
 94
      127
282
     0
 72
     0
 77
     0
171
     0
175
     0
179
     0
273
     0
  0
XRECORD
  5
1B14
102
{ACAD_REACTORS
330
1B12
102
}
330
1B12
100
AcDbXrecord
280
     1
270
     1
271
     1
  0
XRECORD
  5
1B13
102
{ACAD_REACTORS
330
1B12
102
}
330
1B12
100
AcDbXrecord
280
     1
270
     1
271
     1
  0
XRECORD
  5
1B17
102
{ACAD_REACTORS
330
1B12
102
}
330
1B12
100
AcDbXrecord
280
     1
270
     1
271
     1
  0
XRECORD
  5
1B16
102
{ACAD_REACTORS
330
1B12
102
}
330
1B12
100
AcDbXrecord
280
     1
270
     1
271
     1
  0
XRECORD
  5
1B18
102
{ACAD_REACTORS
330
1B12
102
}
330
1B12
100
AcDbXrecord
280
     1
270
     1
271
     1
  0
XRECORD
  5
1B15
102
{ACAD_REACTORS
330
1B12
102
}
330
1B12
100
AcDbXrecord
280
     1
270
     1
271
     1
  0
XRECORD
  5
1B77
102
{ACAD_REACTORS
330
1B0A
102
}
330
1B0A
100
AcDbXrecord
280
     1
102
MATERIAL
148
0.0
149
0.0
149
0.0
 93
        0
 94
      127
282
     0
 72
     0
 77
     0
171
     0
175
     0
179
     0
273
     0
  0
XRECORD
  5
1B0C
102
{ACAD_REACTORS
330
1B0A
102
}
330
1B0A
100
AcDbXrecord
280
     1
270
     1
271
     1
  0
XRECORD
  5
1B0B
102
{ACAD_REACTORS
330
1B0A
102
}
330
1B0A
100
AcDbXrecord
280
     1
270
     1
271
     1
  0
XRECORD
  5
1B0F
102
{ACAD_REACTORS
330
1B0A
102
}
330
1B0A
100
AcDbXrecord
280
     1
270
     1
271
     1
  0
XRECORD
  5
1B0E
102
{ACAD_REACTORS
330
1B0A
102
}
330
1B0A
100
AcDbXrecord
280
     1
270
     1
271
     1
  0
XRECORD
  5
1B10
102
{ACAD_REACTORS
330
1B0A
102
}
330
1B0A
100
AcDbXrecord
280
     1
270
     1
271
     1
  0
XRECORD
  5
1B0D
102
{ACAD_REACTORS
330
1B0A
102
}
330
1B0A
100
AcDbXrecord
280
     1
270
     1
271
     1
  0
XRECORD
  5
1B79
102
{ACAD_REACTORS
330
1B1A
102
}
330
1B1A
100
AcDbXrecord
280
     1
102
MATERIAL
148
0.0
149
0.0
149
0.0
 93
        0
 94
      127
282
     0
 72
     0
 77
     0
171
     0
175
     0
179
     0
273
     0
  0
XRECORD
  5
1B1C
102
{ACAD_REACTORS
330
1B1A
102
}
330
1B1A
100
AcDbXrecord
280
     1
270
     1
271
     1
  0
XRECORD
  5
1B1B
102
{ACAD_REACTORS
330
1B1A
102
}
330
1B1A
100
AcDbXrecord
280
     1
270
     1
271
     1
  0
XRECORD
  5
1B1F
102
{ACAD_REACTORS
330
1B1A
102
}
330
1B1A
100
AcDbXrecord
280
     1
270
     1
271
     1
  0
XRECORD
  5
1B1E
102
{ACAD_REACTORS
330
1B1A
102
}
330
1B1A
100
AcDbXrecord
280
     1
270
     1
271
     1
  0
XRECORD
  5
1B20
102
{ACAD_REACTORS
330
1B1A
102
}
330
1B1A
100
AcDbXrecord
280
     1
270
     1
271
     1
  0
XRECORD
  5
1B1D
102
{ACAD_REACTORS
330
1B1A
102
}
330
1B1A
100
AcDbXrecord
280
     1
270
     1
271
     1
  0
XRECORD
  5
1BAD
102
{ACAD_REACTORS
330
1BAC
102
}
330
1BAC
100
AcDbXrecord
280
     1
102
DISPLAYNAME
  1
Imperial24
102
FLAGS
 90
        0
  0
CELLSTYLEMAP
  5
1B74
102
{ACAD_REACTORS
330
1B73
102
}
330
1B73
100
AcDbCellStyleMap
 90
        3
300
CELLSTYLE
  1
TABLEFORMAT_BEGIN
 90
        5
170
     1
 91
        0
 92
    32768
 62
   257
 93
        1
300
CONTENTFORMAT
  1
CONTENTFORMAT_BEGIN
 90
        0
 91
        0
 92
      512
 93
        0
300

 40
0.0
140
1.0
 94
        5
 62
     0
340
F
144
0.25
309
CONTENTFORMAT_END
171
     0
 94
        0
309
TABLEFORMAT_END
  1
CELLSTYLE_BEGIN
 90
        1
 91
        1
300
_TITLE
309
CELLSTYLE_END
300
CELLSTYLE
  1
TABLEFORMAT_BEGIN
 90
        5
170
     1
 91
        0
 92
        0
 62
   257
 93
        1
300
CONTENTFORMAT
  1
CONTENTFORMAT_BEGIN
 90
        0
 91
        0
 92
      512
 93
        0
300

 40
0.0
140
1.0
 94
        5
 62
     0
340
F
144
0.18
309
CONTENTFORMAT_END
171
     0
 94
        0
309
TABLEFORMAT_END
  1
CELLSTYLE_BEGIN
 90
        2
 91
        1
300
_HEADER
309
CELLSTYLE_END
300
CELLSTYLE
  1
TABLEFORMAT_BEGIN
 90
        5
170
     1
 91
        0
 92
        0
 62
   257
 93
        1
300
CONTENTFORMAT
  1
CONTENTFORMAT_BEGIN
 90
        0
 91
        0
 92
      512
 93
        0
300

 40
0.0
140
1.0
 94
        2
 62
     0
340
F
144
0.18
309
CONTENTFORMAT_END
171
     0
 94
        0
309
TABLEFORMAT_END
  1
CELLSTYLE_BEGIN
 90
        3
 91
        2
300
_DATA
309
CELLSTYLE_END
  0
XRECORD
  5
1BAA
102
{ACAD_REACTORS
330
1B73
102
}
330
1B73
100
AcDbXrecord
280
     1
102
ACAD_ROUNDTRIP_PRE2007_TABLESTYLE
 90
      512
 91
        0
  1

 92
      512
 93
        0
  2

 94
      512
 95
        0
  3

  0
XRECORD
  5
1B85
102
{ACAD_REACTORS
330
1B84
102
}
330
1B84
100
AcDbXrecord
280
     1
102
RTVSPost2010Prop28
280
     1
102
RTVSPost2010PropOp28
 70
     1
102
RTVSPost2010Prop29
280
     1
102
RTVSPost2010PropOp29
 70
     1
102
RTVSPost2010Prop30
280
     0
102
RTVSPost2010PropOp30
 70
     1
102
RTVSPost2010Prop31
280
     0
102
RTVSPost2010PropOp31
 70
     1
102
RTVSPost2010Prop32
280
     0
102
RTVSPost2010PropOp32
 70
     1
102
RTVSPost2010Prop33
280
     0
102
RTVSPost2010PropOp33
 70
     1
102
RTVSPost2010Prop34
280
     0
102
RTVSPost2010PropOp34
 70
     1
102
RTVSPost2010Prop35
280
     0
102
RTVSPost2010PropOp35
 70
     1
102
RTVSPost2010Prop36
280
     0
102
RTVSPost2010PropOp36
 70
     1
102
RTVSPost2010Prop37
 90
       50
102
RTVSPost2010PropOp37
 70
     1
102
RTVSPost2010Prop38
140
0.0
102
RTVSPost2010PropOp38
 70
     1
102
RTVSPost2010Prop39
140
1.0
102
RTVSPost2010PropOp39
 70
     1
102
RTVSPost2010Prop40
 90
        0
102
RTVSPost2010PropOp40
 70
     1
102
RTVSPost2010Prop41ColorIndex
 90
       18
102
RTVSPost2010Prop41ColorRGB
 90
        0
102
RTVSPost2010PropOp41
 70
     1
102
RTVSPost2010Prop42
 90
       50
102
RTVSPost2010PropOp42
 70
     1
102
RTVSPost2010Prop43
 90
        3
102
RTVSPost2010PropOp43
 70
     1
102
RTVSPost2010Prop44ColorIndex
 90
        5
102
RTVSPost2010Prop44ColorRGB
 90
      255
102
RTVSPost2010PropOp44
 70
     1
102
RTVSPost2010Prop45
280
     0
102
RTVSPost2010PropOp45
 70
     1
102
RTVSPost2010Prop46
 90
       50
102
RTVSPost2010PropOp46
 70
     1
102
RTVSPost2010Prop47
 90
       50
102
RTVSPost2010PropOp47
 70
     1
102
RTVSPost2010Prop48
 90
       50
102
RTVSPost2010PropOp48
 70
     1
102
RTVSPost2010Prop49
280
     0
102
RTVSPost2010PropOp49
 70
     1
102
RTVSPost2010Prop50
 90
       50
102
RTVSPost2010PropOp50
 70
     1
102
RTVSPost2010Prop51ColorIndex
 90
      256
102
RTVSPost2010Prop51ColorRGB
 90
-16777216
102
RTVSPost2010PropOp51
 70
     0
102
RTVSPost2010Prop52
140
1.0
102
RTVSPost2010PropOp52
 70
     0
102
RTVSPost2010Prop53
 90
        2
102
RTVSPost2010PropOp53
 70
     1
102
RTVSPost2010Prop54
  1
strokes_ogs.tif
102
RTVSPost2010PropOp54
 70
     1
102
RTVSPost2010Prop55
280
     0
102
RTVSPost2010PropOp55
 70
     1
102
RTVSPost2010Prop56
140
1.0
102
RTVSPost2010PropOp56
 70
     1
102
RTVSPost2010Prop57
140
1.0
102
RTVSPost2010PropOp57
 70
     1
102
RTVSPropertyOp0
 70
     1
102
RTVSPropertyOp1
 70
     1
102
RTVSPropertyOp2
 70
     1
102
RTVSPropertyOp3
 70
     1
102
RTVSPropertyOp4
 70
     1
102
RTVSPropertyOp5
 70
     1
102
RTVSPropertyOp6
 70
     1
102
RTVSPropertyOp7
 70
     1
102
RTVSPropertyOp8
 70
     1
102
RTVSPropertyOp9
 70
     1
102
RTVSPropertyOp10
 70
     1
102
RTVSPropertyOp11
 70
     1
102
RTVSPropertyOp12
 70
     1
102
RTVSPropertyOp13
 70
     1
102
RTVSPropertyOp14
 70
     1
102
RTVSPropertyOp15
 70
     1
102
RTVSPropertyOp16
 70
     1
102
RTVSPropertyOp17
 70
     1
102
RTVSPropertyOp18
 70
     1
102
RTVSPropertyOp19
 70
     1
102
RTVSPropertyOp20
 70
     1
102
RTVSPropertyOp21
 70
     1
102
RTVSPropertyOp22
 70
     1
102
RTVSPropertyOp23
 70
     1
102
RTVSPropertyOp24
 70
     1
102
RTVSPropertyOp25
 70
     1
102
RTVSPropertyOp26
 70
     1
102
RTVSPropertyOp27
 70
     1
102
RTVSPropertyOp28
 70
     1
102
RTVSPropertyOp29
 70
     1
102
RTVSPropertyOp30
 70
     1
102
RTVSPropertyOp31
 70
     1
102
RTVSPropertyOp32
 70
     1
102
RTVSPropertyOp33
 70
     1
102
RTVSPropertyOp34
 70
     1
102
RTVSPropertyOp35
 70
     1
102
RTVSPropertyOp36
 70
     1
102
RTVSPropertyOp37
 70
     1
102
RTVSPropertyOp38
 70
     1
102
RTVSPropertyOp39
 70
     1
102
RTVSPropertyOp40
 70
     1
102
RTVSPropertyOp41
 70
     1
102
RTVSPropertyOp42
 70
     1
102
RTVSPropertyOp43
 70
     1
102
RTVSPropertyOp44
 70
     1
102
RTVSPropertyOp45
 70
     1
102
RTVSPropertyOp46
 70
     1
102
RTVSPropertyOp47
 70
     1
102
RTVSPropertyOp48
 70
     1
102
RTVSPropertyOp49
 70
     1
102
RTVSPropertyOp50
 70
     1
102
RTVSPropertyOp51
 70
     0
102
RTVSPropertyOp52
 70
     0
102
RTVSPropertyOp53
 70
     1
102
RTVSPropertyOp54
 70
     1
102
RTVSPropertyOp55
 70
     1
102
RTVSPropertyOp56
 70
     1
102
RTVSPropertyOp57
 70
     1
102
RTVSPropertyOp58
 70
     1
102
RTVSPropertyOp59
 70
     1
102
RTVSPropertyOp60
 70
     1
102
RTVSPropertyOp61
 70
     1
102
RTVSPropertyOp62
 70
     1
  0
XRECORD
  5
1B83
102
{ACAD_REACTORS
330
1B82
102
}
330
1B82
100
AcDbXrecord
280
     1
102
RTVSPost2010Prop28
280
     0
102
RTVSPost2010PropOp28
 70
     1
102
RTVSPost2010Prop29
280
     1
102
RTVSPost2010PropOp29
 70
     1
102
RTVSPost2010Prop30
280
     1
102
RTVSPost2010PropOp30
 70
     1
102
RTVSPost2010Prop31
280
     0
102
RTVSPost2010PropOp31
 70
     1
102
RTVSPost2010Prop32
280
     0
102
RTVSPost2010PropOp32
 70
     1
102
RTVSPost2010Prop33
280
     0
102
RTVSPost2010PropOp33
 70
     1
102
RTVSPost2010Prop34
280
     0
102
RTVSPost2010PropOp34
 70
     1
102
RTVSPost2010Prop35
280
     0
102
RTVSPost2010PropOp35
 70
     1
102
RTVSPost2010Prop36
280
     0
102
RTVSPost2010PropOp36
 70
     1
102
RTVSPost2010Prop37
 90
       50
102
RTVSPost2010PropOp37
 70
     1
102
RTVSPost2010Prop38
140
0.0
102
RTVSPost2010PropOp38
 70
     1
102
RTVSPost2010Prop39
140
1.0
102
RTVSPost2010PropOp39
 70
     1
102
RTVSPost2010Prop40
 90
        0
102
RTVSPost2010PropOp40
 70
     1
102
RTVSPost2010Prop41ColorIndex
 90
       18
102
RTVSPost2010Prop41ColorRGB
 90
        0
102
RTVSPost2010PropOp41
 70
     1
102
RTVSPost2010Prop42
 90
       50
102
RTVSPost2010PropOp42
 70
     1
102
RTVSPost2010Prop43
 90
        3
102
RTVSPost2010PropOp43
 70
     1
102
RTVSPost2010Prop44ColorIndex
 90
        5
102
RTVSPost2010Prop44ColorRGB
 90
      255
102
RTVSPost2010PropOp44
 70
     1
102
RTVSPost2010Prop45
280
     0
102
RTVSPost2010PropOp45
 70
     1
102
RTVSPost2010Prop46
 90
       50
102
RTVSPost2010PropOp46
 70
     1
102
RTVSPost2010Prop47
 90
       50
102
RTVSPost2010PropOp47
 70
     1
102
RTVSPost2010Prop48
 90
       50
102
RTVSPost2010PropOp48
 70
     1
102
RTVSPost2010Prop49
280
     0
102
RTVSPost2010PropOp49
 70
     1
102
RTVSPost2010Prop50
 90
       50
102
RTVSPost2010PropOp50
 70
     1
102
RTVSPost2010Prop51ColorIndex
 90
      256
102
RTVSPost2010Prop51ColorRGB
 90
-16777216
102
RTVSPost2010PropOp51
 70
     0
102
RTVSPost2010Prop52
140
1.0
102
RTVSPost2010PropOp52
 70
     0
102
RTVSPost2010Prop53
 90
        2
102
RTVSPost2010PropOp53
 70
     1
102
RTVSPost2010Prop54
  1
strokes_ogs.tif
102
RTVSPost2010PropOp54
 70
     1
102
RTVSPost2010Prop55
280
     0
102
RTVSPost2010PropOp55
 70
     1
102
RTVSPost2010Prop56
140
1.0
102
RTVSPost2010PropOp56
 70
     1
102
RTVSPost2010Prop57
140
1.0
102
RTVSPost2010PropOp57
 70
     1
102
RTVSPropertyOp0
 70
     1
102
RTVSPropertyOp1
 70
     1
102
RTVSPropertyOp2
 70
     1
102
RTVSPropertyOp3
 70
     1
102
RTVSPropertyOp4
 70
     1
102
RTVSPropertyOp5
 70
     1
102
RTVSPropertyOp6
 70
     1
102
RTVSPropertyOp7
 70
     1
102
RTVSPropertyOp8
 70
     1
102
RTVSPropertyOp9
 70
     1
102
RTVSPropertyOp10
 70
     1
102
RTVSPropertyOp11
 70
     1
102
RTVSPropertyOp12
 70
     1
102
RTVSPropertyOp13
 70
     1
102
RTVSPropertyOp14
 70
     1
102
RTVSPropertyOp15
 70
     1
102
RTVSPropertyOp16
 70
     1
102
RTVSPropertyOp17
 70
     1
102
RTVSPropertyOp18
 70
     1
102
RTVSPropertyOp19
 70
     1
102
RTVSPropertyOp20
 70
     1
102
RTVSPropertyOp21
 70
     1
102
RTVSPropertyOp22
 70
     1
102
RTVSPropertyOp23
 70
     1
102
RTVSPropertyOp24
 70
     1
102
RTVSPropertyOp25
 70
     1
102
RTVSPropertyOp26
 70
     1
102
RTVSPropertyOp27
 70
     1
102
RTVSPropertyOp28
 70
     1
102
RTVSPropertyOp29
 70
     1
102
RTVSPropertyOp30
 70
     1
102
RTVSPropertyOp31
 70
     1
102
RTVSPropertyOp32
 70
     1
102
RTVSPropertyOp33
 70
     1
102
RTVSPropertyOp34
 70
     1
102
RTVSPropertyOp35
 70
     1
102
RTVSPropertyOp36
 70
     1
102
RTVSPropertyOp37
 70
     1
102
RTVSPropertyOp38
 70
     1
102
RTVSPropertyOp39
 70
     1
102
RTVSPropertyOp40
 70
     1
102
RTVSPropertyOp41
 70
     1
102
RTVSPropertyOp42
 70
     1
102
RTVSPropertyOp43
 70
     1
102
RTVSPropertyOp44
 70
     1
102
RTVSPropertyOp45
 70
     1
102
RTVSPropertyOp46
 70
     1
102
RTVSPropertyOp47
 70
     1
102
RTVSPropertyOp48
 70
     1
102
RTVSPropertyOp49
 70
     1
102
RTVSPropertyOp50
 70
     1
102
RTVSPropertyOp51
 70
     0
102
RTVSPropertyOp52
 70
     0
102
RTVSPropertyOp53
 70
     1
102
RTVSPropertyOp54
 70
     1
102
RTVSPropertyOp55
 70
     1
102
RTVSPropertyOp56
 70
     1
102
RTVSPropertyOp57
 70
     1
102
RTVSPropertyOp58
 70
     1
102
RTVSPropertyOp59
 70
     1
102
RTVSPropertyOp60
 70
     1
102
RTVSPropertyOp61
 70
     1
102
RTVSPropertyOp62
 70
     1
  0
XRECORD
  5
1B91
102
{ACAD_REACTORS
330
1B90
102
}
330
1B90
100
AcDbXrecord
280
     1
102
RTVSPost2010Prop28
280
     0
102
RTVSPost2010PropOp28
 70
     1
102
RTVSPost2010Prop29
280
     1
102
RTVSPost2010PropOp29
 70
     1
102
RTVSPost2010Prop30
280
     1
102
RTVSPost2010PropOp30
 70
     1
102
RTVSPost2010Prop31
280
     0
102
RTVSPost2010PropOp31
 70
     1
102
RTVSPost2010Prop32
280
     0
102
RTVSPost2010PropOp32
 70
     1
102
RTVSPost2010Prop33
280
     0
102
RTVSPost2010PropOp33
 70
     1
102
RTVSPost2010Prop34
280
     0
102
RTVSPost2010PropOp34
 70
     1
102
RTVSPost2010Prop35
280
     0
102
RTVSPost2010PropOp35
 70
     1
102
RTVSPost2010Prop36
280
     0
102
RTVSPost2010PropOp36
 70
     1
102
RTVSPost2010Prop37
 90
       50
102
RTVSPost2010PropOp37
 70
     1
102
RTVSPost2010Prop38
140
0.0
102
RTVSPost2010PropOp38
 70
     1
102
RTVSPost2010Prop39
140
1.0
102
RTVSPost2010PropOp39
 70
     1
102
RTVSPost2010Prop40
 90
        0
102
RTVSPost2010PropOp40
 70
     1
102
RTVSPost2010Prop41ColorIndex
 90
       18
102
RTVSPost2010Prop41ColorRGB
 90
        0
102
RTVSPost2010PropOp41
 70
     1
102
RTVSPost2010Prop42
 90
       50
102
RTVSPost2010PropOp42
 70
     1
102
RTVSPost2010Prop43
 90
        3
102
RTVSPost2010PropOp43
 70
     1
102
RTVSPost2010Prop44ColorIndex
 90
        5
102
RTVSPost2010Prop44ColorRGB
 90
      255
102
RTVSPost2010PropOp44
 70
     1
102
RTVSPost2010Prop45
280
     0
102
RTVSPost2010PropOp45
 70
     1
102
RTVSPost2010Prop46
 90
       50
102
RTVSPost2010PropOp46
 70
     1
102
RTVSPost2010Prop47
 90
       50
102
RTVSPost2010PropOp47
 70
     1
102
RTVSPost2010Prop48
 90
       50
102
RTVSPost2010PropOp48
 70
     1
102
RTVSPost2010Prop49
280
     0
102
RTVSPost2010PropOp49
 70
     1
102
RTVSPost2010Prop50
 90
       50
102
RTVSPost2010PropOp50
 70
     1
102
RTVSPost2010Prop51ColorIndex
 90
      256
102
RTVSPost2010Prop51ColorRGB
 90
-16777216
102
RTVSPost2010PropOp51
 70
     0
102
RTVSPost2010Prop52
140
1.0
102
RTVSPost2010PropOp52
 70
     0
102
RTVSPost2010Prop53
 90
        2
102
RTVSPost2010PropOp53
 70
     1
102
RTVSPost2010Prop54
  1
strokes_ogs.tif
102
RTVSPost2010PropOp54
 70
     1
102
RTVSPost2010Prop55
280
     0
102
RTVSPost2010PropOp55
 70
     1
102
RTVSPost2010Prop56
140
1.0
102
RTVSPost2010PropOp56
 70
     1
102
RTVSPost2010Prop57
140
1.0
102
RTVSPost2010PropOp57
 70
     1
102
RTVSPropertyOp0
 70
     1
102
RTVSPropertyOp1
 70
     1
102
RTVSPropertyOp2
 70
     1
102
RTVSPropertyOp3
 70
     1
102
RTVSPropertyOp4
 70
     1
102
RTVSPropertyOp5
 70
     1
102
RTVSPropertyOp6
 70
     1
102
RTVSPropertyOp7
 70
     1
102
RTVSPropertyOp8
 70
     1
102
RTVSPropertyOp9
 70
     1
102
RTVSPropertyOp10
 70
     1
102
RTVSPropertyOp11
 70
     1
102
RTVSPropertyOp12
 70
     1
102
RTVSPropertyOp13
 70
     1
102
RTVSPropertyOp14
 70
     1
102
RTVSPropertyOp15
 70
     1
102
RTVSPropertyOp16
 70
     1
102
RTVSPropertyOp17
 70
     1
102
RTVSPropertyOp18
 70
     1
102
RTVSPropertyOp19
 70
     1
102
RTVSPropertyOp20
 70
     1
102
RTVSPropertyOp21
 70
     1
102
RTVSPropertyOp22
 70
     1
102
RTVSPropertyOp23
 70
     1
102
RTVSPropertyOp24
 70
     1
102
RTVSPropertyOp25
 70
     1
102
RTVSPropertyOp26
 70
     1
102
RTVSPropertyOp27
 70
     1
102
RTVSPropertyOp28
 70
     1
102
RTVSPropertyOp29
 70
     1
102
RTVSPropertyOp30
 70
     1
102
RTVSPropertyOp31
 70
     1
102
RTVSPropertyOp32
 70
     1
102
RTVSPropertyOp33
 70
     1
102
RTVSPropertyOp34
 70
     1
102
RTVSPropertyOp35
 70
     1
102
RTVSPropertyOp36
 70
     1
102
RTVSPropertyOp37
 70
     1
102
RTVSPropertyOp38
 70
     1
102
RTVSPropertyOp39
 70
     1
102
RTVSPropertyOp40
 70
     1
102
RTVSPropertyOp41
 70
     1
102
RTVSPropertyOp42
 70
     1
102
RTVSPropertyOp43
 70
     1
102
RTVSPropertyOp44
 70
     1
102
RTVSPropertyOp45
 70
     1
102
RTVSPropertyOp46
 70
     1
102
RTVSPropertyOp47
 70
     1
102
RTVSPropertyOp48
 70
     1
102
RTVSPropertyOp49
 70
     1
102
RTVSPropertyOp50
 70
     1
102
RTVSPropertyOp51
 70
     0
102
RTVSPropertyOp52
 70
     0
102
RTVSPropertyOp53
 70
     1
102
RTVSPropertyOp54
 70
     1
102
RTVSPropertyOp55
 70
     1
102
RTVSPropertyOp56
 70
     1
102
RTVSPropertyOp57
 70
     1
102
RTVSPropertyOp58
 70
     1
102
RTVSPropertyOp59
 70
     1
102
RTVSPropertyOp60
 70
     1
102
RTVSPropertyOp61
 70
     1
102
RTVSPropertyOp62
 70
     1
  0
XRECORD
  5
1B99
102
{ACAD_REACTORS
330
1B98
102
}
330
1B98
100
AcDbXrecord
280
     1
102
RTVSPost2010Prop28
280
     0
102
RTVSPost2010PropOp28
 70
     1
102
RTVSPost2010Prop29
280
     1
102
RTVSPost2010PropOp29
 70
     1
102
RTVSPost2010Prop30
280
     1
102
RTVSPost2010PropOp30
 70
     1
102
RTVSPost2010Prop31
280
     0
102
RTVSPost2010PropOp31
 70
     1
102
RTVSPost2010Prop32
280
     0
102
RTVSPost2010PropOp32
 70
     1
102
RTVSPost2010Prop33
280
     0
102
RTVSPost2010PropOp33
 70
     1
102
RTVSPost2010Prop34
280
     0
102
RTVSPost2010PropOp34
 70
     1
102
RTVSPost2010Prop35
280
     0
102
RTVSPost2010PropOp35
 70
     1
102
RTVSPost2010Prop36
280
     0
102
RTVSPost2010PropOp36
 70
     1
102
RTVSPost2010Prop37
 90
       50
102
RTVSPost2010PropOp37
 70
     1
102
RTVSPost2010Prop38
140
0.0
102
RTVSPost2010PropOp38
 70
     1
102
RTVSPost2010Prop39
140
1.0
102
RTVSPost2010PropOp39
 70
     1
102
RTVSPost2010Prop40
 90
        0
102
RTVSPost2010PropOp40
 70
     1
102
RTVSPost2010Prop41ColorIndex
 90
       18
102
RTVSPost2010Prop41ColorRGB
 90
        0
102
RTVSPost2010PropOp41
 70
     1
102
RTVSPost2010Prop42
 90
       50
102
RTVSPost2010PropOp42
 70
     1
102
RTVSPost2010Prop43
 90
        3
102
RTVSPost2010PropOp43
 70
     1
102
RTVSPost2010Prop44ColorIndex
 90
        5
102
RTVSPost2010Prop44ColorRGB
 90
      255
102
RTVSPost2010PropOp44
 70
     1
102
RTVSPost2010Prop45
280
     0
102
RTVSPost2010PropOp45
 70
     1
102
RTVSPost2010Prop46
 90
       50
102
RTVSPost2010PropOp46
 70
     1
102
RTVSPost2010Prop47
 90
       50
102
RTVSPost2010PropOp47
 70
     1
102
RTVSPost2010Prop48
 90
       50
102
RTVSPost2010PropOp48
 70
     1
102
RTVSPost2010Prop49
280
     0
102
RTVSPost2010PropOp49
 70
     1
102
RTVSPost2010Prop50
 90
       50
102
RTVSPost2010PropOp50
 70
     1
102
RTVSPost2010Prop51ColorIndex
 90
      256
102
RTVSPost2010Prop51ColorRGB
 90
-16777216
102
RTVSPost2010PropOp51
 70
     0
102
RTVSPost2010Prop52
140
1.0
102
RTVSPost2010PropOp52
 70
     0
102
RTVSPost2010Prop53
 90
        2
102
RTVSPost2010PropOp53
 70
     1
102
RTVSPost2010Prop54
  1
strokes_ogs.tif
102
RTVSPost2010PropOp54
 70
     1
102
RTVSPost2010Prop55
280
     0
102
RTVSPost2010PropOp55
 70
     1
102
RTVSPost2010Prop56
140
1.0
102
RTVSPost2010PropOp56
 70
     1
102
RTVSPost2010Prop57
140
1.0
102
RTVSPost2010PropOp57
 70
     1
102
RTVSPropertyOp0
 70
     1
102
RTVSPropertyOp1
 70
     1
102
RTVSPropertyOp2
 70
     1
102
RTVSPropertyOp3
 70
     1
102
RTVSPropertyOp4
 70
     1
102
RTVSPropertyOp5
 70
     1
102
RTVSPropertyOp6
 70
     1
102
RTVSPropertyOp7
 70
     1
102
RTVSPropertyOp8
 70
     1
102
RTVSPropertyOp9
 70
     1
102
RTVSPropertyOp10
 70
     1
102
RTVSPropertyOp11
 70
     1
102
RTVSPropertyOp12
 70
     1
102
RTVSPropertyOp13
 70
     1
102
RTVSPropertyOp14
 70
     1
102
RTVSPropertyOp15
 70
     1
102
RTVSPropertyOp16
 70
     1
102
RTVSPropertyOp17
 70
     1
102
RTVSPropertyOp18
 70
     1
102
RTVSPropertyOp19
 70
     1
102
RTVSPropertyOp20
 70
     1
102
RTVSPropertyOp21
 70
     1
102
RTVSPropertyOp22
 70
     1
102
RTVSPropertyOp23
 70
     1
102
RTVSPropertyOp24
 70
     1
102
RTVSPropertyOp25
 70
     1
102
RTVSPropertyOp26
 70
     1
102
RTVSPropertyOp27
 70
     1
102
RTVSPropertyOp28
 70
     1
102
RTVSPropertyOp29
 70
     1
102
RTVSPropertyOp30
 70
     1
102
RTVSPropertyOp31
 70
     1
102
RTVSPropertyOp32
 70
     1
102
RTVSPropertyOp33
 70
     1
102
RTVSPropertyOp34
 70
     1
102
RTVSPropertyOp35
 70
     1
102
RTVSPropertyOp36
 70
     1
102
RTVSPropertyOp37
 70
     1
102
RTVSPropertyOp38
 70
     1
102
RTVSPropertyOp39
 70
     1
102
RTVSPropertyOp40
 70
     1
102
RTVSPropertyOp41
 70
     1
102
RTVSPropertyOp42
 70
     1
102
RTVSPropertyOp43
 70
     1
102
RTVSPropertyOp44
 70
     1
102
RTVSPropertyOp45
 70
     1
102
RTVSPropertyOp46
 70
     1
102
RTVSPropertyOp47
 70
     1
102
RTVSPropertyOp48
 70
     1
102
RTVSPropertyOp49
 70
     1
102
RTVSPropertyOp50
 70
     1
102
RTVSPropertyOp51
 70
     0
102
RTVSPropertyOp52
 70
     0
102
RTVSPropertyOp53
 70
     1
102
RTVSPropertyOp54
 70
     1
102
RTVSPropertyOp55
 70
     1
102
RTVSPropertyOp56
 70
     1
102
RTVSPropertyOp57
 70
     1
102
RTVSPropertyOp58
 70
     1
102
RTVSPropertyOp59
 70
     1
102
RTVSPropertyOp60
 70
     1
102
RTVSPropertyOp61
 70
     1
102
RTVSPropertyOp62
 70
     1
  0
XRECORD
  5
1B8B
102
{ACAD_REACTORS
330
1B8A
102
}
330
1B8A
100
AcDbXrecord
280
     1
102
RTVSPost2010Prop28
280
     0
102
RTVSPost2010PropOp28
 70
     1
102
RTVSPost2010Prop29
280
     1
102
RTVSPost2010PropOp29
 70
     1
102
RTVSPost2010Prop30
280
     1
102
RTVSPost2010PropOp30
 70
     1
102
RTVSPost2010Prop31
280
     0
102
RTVSPost2010PropOp31
 70
     1
102
RTVSPost2010Prop32
280
     0
102
RTVSPost2010PropOp32
 70
     1
102
RTVSPost2010Prop33
280
     0
102
RTVSPost2010PropOp33
 70
     1
102
RTVSPost2010Prop34
280
     0
102
RTVSPost2010PropOp34
 70
     1
102
RTVSPost2010Prop35
280
     0
102
RTVSPost2010PropOp35
 70
     1
102
RTVSPost2010Prop36
280
     0
102
RTVSPost2010PropOp36
 70
     1
102
RTVSPost2010Prop37
 90
       50
102
RTVSPost2010PropOp37
 70
     1
102
RTVSPost2010Prop38
140
0.0
102
RTVSPost2010PropOp38
 70
     1
102
RTVSPost2010Prop39
140
1.0
102
RTVSPost2010PropOp39
 70
     1
102
RTVSPost2010Prop40
 90
        0
102
RTVSPost2010PropOp40
 70
     1
102
RTVSPost2010Prop41ColorIndex
 90
       18
102
RTVSPost2010Prop41ColorRGB
 90
        0
102
RTVSPost2010PropOp41
 70
     1
102
RTVSPost2010Prop42
 90
       50
102
RTVSPost2010PropOp42
 70
     1
102
RTVSPost2010Prop43
 90
        3
102
RTVSPost2010PropOp43
 70
     1
102
RTVSPost2010Prop44ColorIndex
 90
        5
102
RTVSPost2010Prop44ColorRGB
 90
      255
102
RTVSPost2010PropOp44
 70
     1
102
RTVSPost2010Prop45
280
     0
102
RTVSPost2010PropOp45
 70
     1
102
RTVSPost2010Prop46
 90
       50
102
RTVSPost2010PropOp46
 70
     1
102
RTVSPost2010Prop47
 90
       50
102
RTVSPost2010PropOp47
 70
     1
102
RTVSPost2010Prop48
 90
       50
102
RTVSPost2010PropOp48
 70
     1
102
RTVSPost2010Prop49
280
     0
102
RTVSPost2010PropOp49
 70
     1
102
RTVSPost2010Prop50
 90
       50
102
RTVSPost2010PropOp50
 70
     1
102
RTVSPost2010Prop51ColorIndex
 90
      256
102
RTVSPost2010Prop51ColorRGB
 90
-16777216
102
RTVSPost2010PropOp51
 70
     0
102
RTVSPost2010Prop52
140
1.0
102
RTVSPost2010PropOp52
 70
     0
102
RTVSPost2010Prop53
 90
        2
102
RTVSPost2010PropOp53
 70
     1
102
RTVSPost2010Prop54
  1
strokes_ogs.tif
102
RTVSPost2010PropOp54
 70
     1
102
RTVSPost2010Prop55
280
     0
102
RTVSPost2010PropOp55
 70
     1
102
RTVSPost2010Prop56
140
1.0
102
RTVSPost2010PropOp56
 70
     1
102
RTVSPost2010Prop57
140
1.0
102
RTVSPost2010PropOp57
 70
     1
102
RTVSPropertyOp0
 70
     1
102
RTVSPropertyOp1
 70
     1
102
RTVSPropertyOp2
 70
     1
102
RTVSPropertyOp3
 70
     1
102
RTVSPropertyOp4
 70
     1
102
RTVSPropertyOp5
 70
     1
102
RTVSPropertyOp6
 70
     1
102
RTVSPropertyOp7
 70
     1
102
RTVSPropertyOp8
 70
     1
102
RTVSPropertyOp9
 70
     1
102
RTVSPropertyOp10
 70
     1
102
RTVSPropertyOp11
 70
     1
102
RTVSPropertyOp12
 70
     1
102
RTVSPropertyOp13
 70
     1
102
RTVSPropertyOp14
 70
     1
102
RTVSPropertyOp15
 70
     1
102
RTVSPropertyOp16
 70
     1
102
RTVSPropertyOp17
 70
     1
102
RTVSPropertyOp18
 70
     1
102
RTVSPropertyOp19
 70
     1
102
RTVSPropertyOp20
 70
     1
102
RTVSPropertyOp21
 70
     1
102
RTVSPropertyOp22
 70
     1
102
RTVSPropertyOp23
 70
     1
102
RTVSPropertyOp24
 70
     1
102
RTVSPropertyOp25
 70
     1
102
RTVSPropertyOp26
 70
     1
102
RTVSPropertyOp27
 70
     1
102
RTVSPropertyOp28
 70
     1
102
RTVSPropertyOp29
 70
     1
102
RTVSPropertyOp30
 70
     1
102
RTVSPropertyOp31
 70
     1
102
RTVSPropertyOp32
 70
     1
102
RTVSPropertyOp33
 70
     1
102
RTVSPropertyOp34
 70
     1
102
RTVSPropertyOp35
 70
     1
102
RTVSPropertyOp36
 70
     1
102
RTVSPropertyOp37
 70
     1
102
RTVSPropertyOp38
 70
     1
102
RTVSPropertyOp39
 70
     1
102
RTVSPropertyOp40
 70
     1
102
RTVSPropertyOp41
 70
     1
102
RTVSPropertyOp42
 70
     1
102
RTVSPropertyOp43
 70
     1
102
RTVSPropertyOp44
 70
     1
102
RTVSPropertyOp45
 70
     1
102
RTVSPropertyOp46
 70
     1
102
RTVSPropertyOp47
 70
     1
102
RTVSPropertyOp48
 70
     1
102
RTVSPropertyOp49
 70
     1
102
RTVSPropertyOp50
 70
     1
102
RTVSPropertyOp51
 70
     0
102
RTVSPropertyOp52
 70
     0
102
RTVSPropertyOp53
 70
     1
102
RTVSPropertyOp54
 70
     1
102
RTVSPropertyOp55
 70
     1
102
RTVSPropertyOp56
 70
     1
102
RTVSPropertyOp57
 70
     1
102
RTVSPropertyOp58
 70
     1
102
RTVSPropertyOp59
 70
     1
102
RTVSPropertyOp60
 70
     1
102
RTVSPropertyOp61
 70
     1
102
RTVSPropertyOp62
 70
     1
  0
XRECORD
  5
1B8F
102
{ACAD_REACTORS
330
1B8E
102
}
330
1B8E
100
AcDbXrecord
280
     1
102
RTVSPost2010Prop28
280
     0
102
RTVSPost2010PropOp28
 70
     1
102
RTVSPost2010Prop29
280
     1
102
RTVSPost2010PropOp29
 70
     1
102
RTVSPost2010Prop30
280
     1
102
RTVSPost2010PropOp30
 70
     1
102
RTVSPost2010Prop31
280
     0
102
RTVSPost2010PropOp31
 70
     1
102
RTVSPost2010Prop32
280
     0
102
RTVSPost2010PropOp32
 70
     1
102
RTVSPost2010Prop33
280
     0
102
RTVSPost2010PropOp33
 70
     1
102
RTVSPost2010Prop34
280
     0
102
RTVSPost2010PropOp34
 70
     1
102
RTVSPost2010Prop35
280
     0
102
RTVSPost2010PropOp35
 70
     1
102
RTVSPost2010Prop36
280
     0
102
RTVSPost2010PropOp36
 70
     1
102
RTVSPost2010Prop37
 90
       50
102
RTVSPost2010PropOp37
 70
     1
102
RTVSPost2010Prop38
140
0.0
102
RTVSPost2010PropOp38
 70
     1
102
RTVSPost2010Prop39
140
1.0
102
RTVSPost2010PropOp39
 70
     1
102
RTVSPost2010Prop40
 90
        0
102
RTVSPost2010PropOp40
 70
     1
102
RTVSPost2010Prop41ColorIndex
 90
       18
102
RTVSPost2010Prop41ColorRGB
 90
        0
102
RTVSPost2010PropOp41
 70
     1
102
RTVSPost2010Prop42
 90
       50
102
RTVSPost2010PropOp42
 70
     1
102
RTVSPost2010Prop43
 90
        3
102
RTVSPost2010PropOp43
 70
     1
102
RTVSPost2010Prop44ColorIndex
 90
        5
102
RTVSPost2010Prop44ColorRGB
 90
      255
102
RTVSPost2010PropOp44
 70
     1
102
RTVSPost2010Prop45
280
     0
102
RTVSPost2010PropOp45
 70
     1
102
RTVSPost2010Prop46
 90
       50
102
RTVSPost2010PropOp46
 70
     1
102
RTVSPost2010Prop47
 90
       50
102
RTVSPost2010PropOp47
 70
     1
102
RTVSPost2010Prop48
 90
       50
102
RTVSPost2010PropOp48
 70
     1
102
RTVSPost2010Prop49
280
     0
102
RTVSPost2010PropOp49
 70
     1
102
RTVSPost2010Prop50
 90
       50
102
RTVSPost2010PropOp50
 70
     1
102
RTVSPost2010Prop51ColorIndex
 90
      256
102
RTVSPost2010Prop51ColorRGB
 90
-16777216
102
RTVSPost2010PropOp51
 70
     0
102
RTVSPost2010Prop52
140
1.0
102
RTVSPost2010PropOp52
 70
     0
102
RTVSPost2010Prop53
 90
        2
102
RTVSPost2010PropOp53
 70
     1
102
RTVSPost2010Prop54
  1
strokes_ogs.tif
102
RTVSPost2010PropOp54
 70
     1
102
RTVSPost2010Prop55
280
     0
102
RTVSPost2010PropOp55
 70
     1
102
RTVSPost2010Prop56
140
1.0
102
RTVSPost2010PropOp56
 70
     1
102
RTVSPost2010Prop57
140
1.0
102
RTVSPost2010PropOp57
 70
     1
102
RTVSPropertyOp0
 70
     1
102
RTVSPropertyOp1
 70
     1
102
RTVSPropertyOp2
 70
     1
102
RTVSPropertyOp3
 70
     1
102
RTVSPropertyOp4
 70
     1
102
RTVSPropertyOp5
 70
     1
102
RTVSPropertyOp6
 70
     1
102
RTVSPropertyOp7
 70
     1
102
RTVSPropertyOp8
 70
     1
102
RTVSPropertyOp9
 70
     1
102
RTVSPropertyOp10
 70
     1
102
RTVSPropertyOp11
 70
     1
102
RTVSPropertyOp12
 70
     1
102
RTVSPropertyOp13
 70
     1
102
RTVSPropertyOp14
 70
     1
102
RTVSPropertyOp15
 70
     1
102
RTVSPropertyOp16
 70
     1
102
RTVSPropertyOp17
 70
     1
102
RTVSPropertyOp18
 70
     1
102
RTVSPropertyOp19
 70
     1
102
RTVSPropertyOp20
 70
     1
102
RTVSPropertyOp21
 70
     1
102
RTVSPropertyOp22
 70
     1
102
RTVSPropertyOp23
 70
     1
102
RTVSPropertyOp24
 70
     1
102
RTVSPropertyOp25
 70
     1
102
RTVSPropertyOp26
 70
     1
102
RTVSPropertyOp27
 70
     1
102
RTVSPropertyOp28
 70
     1
102
RTVSPropertyOp29
 70
     1
102
RTVSPropertyOp30
 70
     1
102
RTVSPropertyOp31
 70
     1
102
RTVSPropertyOp32
 70
     1
102
RTVSPropertyOp33
 70
     1
102
RTVSPropertyOp34
 70
     1
102
RTVSPropertyOp35
 70
     1
102
RTVSPropertyOp36
 70
     1
102
RTVSPropertyOp37
 70
     1
102
RTVSPropertyOp38
 70
     1
102
RTVSPropertyOp39
 70
     1
102
RTVSPropertyOp40
 70
     1
102
RTVSPropertyOp41
 70
     1
102
RTVSPropertyOp42
 70
     1
102
RTVSPropertyOp43
 70
     1
102
RTVSPropertyOp44
 70
     1
102
RTVSPropertyOp45
 70
     1
102
RTVSPropertyOp46
 70
     1
102
RTVSPropertyOp47
 70
     1
102
RTVSPropertyOp48
 70
     1
102
RTVSPropertyOp49
 70
     1
102
RTVSPropertyOp50
 70
     1
102
RTVSPropertyOp51
 70
     0
102
RTVSPropertyOp52
 70
     0
102
RTVSPropertyOp53
 70
     1
102
RTVSPropertyOp54
 70
     1
102
RTVSPropertyOp55
 70
     1
102
RTVSPropertyOp56
 70
     1
102
RTVSPropertyOp57
 70
     1
102
RTVSPropertyOp58
 70
     1
102
RTVSPropertyOp59
 70
     1
102
RTVSPropertyOp60
 70
     1
102
RTVSPropertyOp61
 70
     1
102
RTVSPropertyOp62
 70
     1
  0
XRECORD
  5
1BA9
102
{ACAD_REACTORS
330
1BA8
102
}
330
1BA8
100
AcDbXrecord
280
     1
102
RTVSPost2010Prop28
280
     0
102
RTVSPost2010PropOp28
 70
     1
102
RTVSPost2010Prop29
280
     1
102
RTVSPost2010PropOp29
 70
     1
102
RTVSPost2010Prop30
280
     1
102
RTVSPost2010PropOp30
 70
     1
102
RTVSPost2010Prop31
280
     0
102
RTVSPost2010PropOp31
 70
     1
102
RTVSPost2010Prop32
280
     0
102
RTVSPost2010PropOp32
 70
     1
102
RTVSPost2010Prop33
280
     0
102
RTVSPost2010PropOp33
 70
     1
102
RTVSPost2010Prop34
280
     0
102
RTVSPost2010PropOp34
 70
     1
102
RTVSPost2010Prop35
280
     0
102
RTVSPost2010PropOp35
 70
     1
102
RTVSPost2010Prop36
280
     0
102
RTVSPost2010PropOp36
 70
     1
102
RTVSPost2010Prop37
 90
       50
102
RTVSPost2010PropOp37
 70
     0
102
RTVSPost2010Prop38
140
0.0
102
RTVSPost2010PropOp38
 70
     0
102
RTVSPost2010Prop39
140
1.0
102
RTVSPost2010PropOp39
 70
     0
102
RTVSPost2010Prop40
 90
        0
102
RTVSPost2010PropOp40
 70
     0
102
RTVSPost2010Prop41ColorIndex
 90
       18
102
RTVSPost2010Prop41ColorRGB
 90
        0
102
RTVSPost2010PropOp41
 70
     0
102
RTVSPost2010Prop42
 90
       50
102
RTVSPost2010PropOp42
 70
     0
102
RTVSPost2010Prop43
 90
        3
102
RTVSPost2010PropOp43
 70
     0
102
RTVSPost2010Prop44ColorIndex
 90
        5
102
RTVSPost2010Prop44ColorRGB
 90
      255
102
RTVSPost2010PropOp44
 70
     0
102
RTVSPost2010Prop45
280
     0
102
RTVSPost2010PropOp45
 70
     1
102
RTVSPost2010Prop46
 90
       50
102
RTVSPost2010PropOp46
 70
     0
102
RTVSPost2010Prop47
 90
       50
102
RTVSPost2010PropOp47
 70
     0
102
RTVSPost2010Prop48
 90
       50
102
RTVSPost2010PropOp48
 70
     0
102
RTVSPost2010Prop49
280
     0
102
RTVSPost2010PropOp49
 70
     1
102
RTVSPost2010Prop50
 90
       50
102
RTVSPost2010PropOp50
 70
     0
102
RTVSPost2010Prop51ColorIndex
 90
      256
102
RTVSPost2010Prop51ColorRGB
 90
-16777216
102
RTVSPost2010PropOp51
 70
     0
102
RTVSPost2010Prop52
140
1.0
102
RTVSPost2010PropOp52
 70
     0
102
RTVSPost2010Prop53
 90
        2
102
RTVSPost2010PropOp53
 70
     0
102
RTVSPost2010Prop54
  1
strokes_ogs.tif
102
RTVSPost2010PropOp54
 70
     0
102
RTVSPost2010Prop55
280
     0
102
RTVSPost2010PropOp55
 70
     1
102
RTVSPost2010Prop56
140
1.0
102
RTVSPost2010PropOp56
 70
     0
102
RTVSPost2010Prop57
140
1.0
102
RTVSPost2010PropOp57
 70
     0
102
RTVSPropertyOp0
 70
     0
102
RTVSPropertyOp1
 70
     0
102
RTVSPropertyOp2
 70
     0
102
RTVSPropertyOp3
 70
     0
102
RTVSPropertyOp4
 70
     0
102
RTVSPropertyOp5
 70
     0
102
RTVSPropertyOp6
 70
     0
102
RTVSPropertyOp7
 70
     0
102
RTVSPropertyOp8
 70
     0
102
RTVSPropertyOp9
 70
     0
102
RTVSPropertyOp10
 70
     0
102
RTVSPropertyOp11
 70
     0
102
RTVSPropertyOp12
 70
     0
102
RTVSPropertyOp13
 70
     0
102
RTVSPropertyOp14
 70
     2
102
RTVSPropertyOp15
 70
     0
102
RTVSPropertyOp16
 70
     0
102
RTVSPropertyOp17
 70
     0
102
RTVSPropertyOp18
 70
     0
102
RTVSPropertyOp19
 70
     0
102
RTVSPropertyOp20
 70
     0
102
RTVSPropertyOp21
 70
     0
102
RTVSPropertyOp22
 70
     0
102
RTVSPropertyOp23
 70
     0
102
RTVSPropertyOp24
 70
     0
102
RTVSPropertyOp25
 70
     0
102
RTVSPropertyOp26
 70
     0
102
RTVSPropertyOp27
 70
     0
102
RTVSPropertyOp28
 70
     1
102
RTVSPropertyOp29
 70
     1
102
RTVSPropertyOp30
 70
     1
102
RTVSPropertyOp31
 70
     1
102
RTVSPropertyOp32
 70
     1
102
RTVSPropertyOp33
 70
     1
102
RTVSPropertyOp34
 70
     1
102
RTVSPropertyOp35
 70
     1
102
RTVSPropertyOp36
 70
     1
102
RTVSPropertyOp37
 70
     0
102
RTVSPropertyOp38
 70
     0
102
RTVSPropertyOp39
 70
     0
102
RTVSPropertyOp40
 70
     0
102
RTVSPropertyOp41
 70
     0
102
RTVSPropertyOp42
 70
     0
102
RTVSPropertyOp43
 70
     0
102
RTVSPropertyOp44
 70
     0
102
RTVSPropertyOp45
 70
     1
102
RTVSPropertyOp46
 70
     0
102
RTVSPropertyOp47
 70
     0
102
RTVSPropertyOp48
 70
     0
102
RTVSPropertyOp49
 70
     1
102
RTVSPropertyOp50
 70
     0
102
RTVSPropertyOp51
 70
     0
102
RTVSPropertyOp52
 70
     0
102
RTVSPropertyOp53
 70
     0
102
RTVSPropertyOp54
 70
     0
102
RTVSPropertyOp55
 70
     1
102
RTVSPropertyOp56
 70
     0
102
RTVSPropertyOp57
 70
     0
102
RTVSPropertyOp58
 70
     0
102
RTVSPropertyOp59
 70
     0
102
RTVSPropertyOp60
 70
     0
102
RTVSPropertyOp61
 70
     0
102
RTVSPropertyOp62
 70
     0
  0
XRECORD
  5
1B97
102
{ACAD_REACTORS
330
1B96
102
}
330
1B96
100
AcDbXrecord
280
     1
102
RTVSPost2010Prop28
280
     0
102
RTVSPost2010PropOp28
 70
     1
102
RTVSPost2010Prop29
280
     1
102
RTVSPost2010PropOp29
 70
     1
102
RTVSPost2010Prop30
280
     1
102
RTVSPost2010PropOp30
 70
     1
102
RTVSPost2010Prop31
280
     0
102
RTVSPost2010PropOp31
 70
     1
102
RTVSPost2010Prop32
280
     0
102
RTVSPost2010PropOp32
 70
     1
102
RTVSPost2010Prop33
280
     0
102
RTVSPost2010PropOp33
 70
     1
102
RTVSPost2010Prop34
280
     0
102
RTVSPost2010PropOp34
 70
     1
102
RTVSPost2010Prop35
280
     0
102
RTVSPost2010PropOp35
 70
     1
102
RTVSPost2010Prop36
280
     0
102
RTVSPost2010PropOp36
 70
     1
102
RTVSPost2010Prop37
 90
       50
102
RTVSPost2010PropOp37
 70
     1
102
RTVSPost2010Prop38
140
0.0
102
RTVSPost2010PropOp38
 70
     1
102
RTVSPost2010Prop39
140
1.0
102
RTVSPost2010PropOp39
 70
     1
102
RTVSPost2010Prop40
 90
        0
102
RTVSPost2010PropOp40
 70
     1
102
RTVSPost2010Prop41ColorIndex
 90
       18
102
RTVSPost2010Prop41ColorRGB
 90
        0
102
RTVSPost2010PropOp41
 70
     1
102
RTVSPost2010Prop42
 90
       50
102
RTVSPost2010PropOp42
 70
     1
102
RTVSPost2010Prop43
 90
        3
102
RTVSPost2010PropOp43
 70
     1
102
RTVSPost2010Prop44ColorIndex
 90
        5
102
RTVSPost2010Prop44ColorRGB
 90
      255
102
RTVSPost2010PropOp44
 70
     1
102
RTVSPost2010Prop45
280
     0
102
RTVSPost2010PropOp45
 70
     1
102
RTVSPost2010Prop46
 90
       50
102
RTVSPost2010PropOp46
 70
     1
102
RTVSPost2010Prop47
 90
       50
102
RTVSPost2010PropOp47
 70
     1
102
RTVSPost2010Prop48
 90
       50
102
RTVSPost2010PropOp48
 70
     1
102
RTVSPost2010Prop49
280
     0
102
RTVSPost2010PropOp49
 70
     1
102
RTVSPost2010Prop50
 90
       50
102
RTVSPost2010PropOp50
 70
     1
102
RTVSPost2010Prop51ColorIndex
 90
      256
102
RTVSPost2010Prop51ColorRGB
 90
-16777216
102
RTVSPost2010PropOp51
 70
     0
102
RTVSPost2010Prop52
140
1.0
102
RTVSPost2010PropOp52
 70
     0
102
RTVSPost2010Prop53
 90
        2
102
RTVSPost2010PropOp53
 70
     1
102
RTVSPost2010Prop54
  1
strokes_ogs.tif
102
RTVSPost2010PropOp54
 70
     1
102
RTVSPost2010Prop55
280
     0
102
RTVSPost2010PropOp55
 70
     1
102
RTVSPost2010Prop56
140
1.0
102
RTVSPost2010PropOp56
 70
     1
102
RTVSPost2010Prop57
140
1.0
102
RTVSPost2010PropOp57
 70
     1
102
RTVSPropertyOp0
 70
     1
102
RTVSPropertyOp1
 70
     1
102
RTVSPropertyOp2
 70
     1
102
RTVSPropertyOp3
 70
     1
102
RTVSPropertyOp4
 70
     1
102
RTVSPropertyOp5
 70
     1
102
RTVSPropertyOp6
 70
     1
102
RTVSPropertyOp7
 70
     1
102
RTVSPropertyOp8
 70
     1
102
RTVSPropertyOp9
 70
     1
102
RTVSPropertyOp10
 70
     1
102
RTVSPropertyOp11
 70
     1
102
RTVSPropertyOp12
 70
     1
102
RTVSPropertyOp13
 70
     1
102
RTVSPropertyOp14
 70
     1
102
RTVSPropertyOp15
 70
     1
102
RTVSPropertyOp16
 70
     1
102
RTVSPropertyOp17
 70
     1
102
RTVSPropertyOp18
 70
     1
102
RTVSPropertyOp19
 70
     1
102
RTVSPropertyOp20
 70
     1
102
RTVSPropertyOp21
 70
     1
102
RTVSPropertyOp22
 70
     1
102
RTVSPropertyOp23
 70
     1
102
RTVSPropertyOp24
 70
     1
102
RTVSPropertyOp25
 70
     1
102
RTVSPropertyOp26
 70
     1
102
RTVSPropertyOp27
 70
     1
102
RTVSPropertyOp28
 70
     1
102
RTVSPropertyOp29
 70
     1
102
RTVSPropertyOp30
 70
     1
102
RTVSPropertyOp31
 70
     1
102
RTVSPropertyOp32
 70
     1
102
RTVSPropertyOp33
 70
     1
102
RTVSPropertyOp34
 70
     1
102
RTVSPropertyOp35
 70
     1
102
RTVSPropertyOp36
 70
     1
102
RTVSPropertyOp37
 70
     1
102
RTVSPropertyOp38
 70
     1
102
RTVSPropertyOp39
 70
     1
102
RTVSPropertyOp40
 70
     1
102
RTVSPropertyOp41
 70
     1
102
RTVSPropertyOp42
 70
     1
102
RTVSPropertyOp43
 70
     1
102
RTVSPropertyOp44
 70
     1
102
RTVSPropertyOp45
 70
     1
102
RTVSPropertyOp46
 70
     1
102
RTVSPropertyOp47
 70
     1
102
RTVSPropertyOp48
 70
     1
102
RTVSPropertyOp49
 70
     1
102
RTVSPropertyOp50
 70
     1
102
RTVSPropertyOp51
 70
     0
102
RTVSPropertyOp52
 70
     0
102
RTVSPropertyOp53
 70
     1
102
RTVSPropertyOp54
 70
     1
102
RTVSPropertyOp55
 70
     1
102
RTVSPropertyOp56
 70
     1
102
RTVSPropertyOp57
 70
     1
102
RTVSPropertyOp58
 70
     1
102
RTVSPropertyOp59
 70
     1
102
RTVSPropertyOp60
 70
     1
102
RTVSPropertyOp61
 70
     1
102
RTVSPropertyOp62
 70
     1
  0
XRECORD
  5
1B7B
102
{ACAD_REACTORS
330
1B7A
102
}
330
1B7A
100
AcDbXrecord
280
     1
102
RTVSPost2010Prop28
280
     0
102
RTVSPost2010PropOp28
 70
     1
102
RTVSPost2010Prop29
280
     1
102
RTVSPost2010PropOp29
 70
     1
102
RTVSPost2010Prop30
280
     1
102
RTVSPost2010PropOp30
 70
     1
102
RTVSPost2010Prop31
280
     0
102
RTVSPost2010PropOp31
 70
     1
102
RTVSPost2010Prop32
280
     0
102
RTVSPost2010PropOp32
 70
     1
102
RTVSPost2010Prop33
280
     0
102
RTVSPost2010PropOp33
 70
     1
102
RTVSPost2010Prop34
280
     0
102
RTVSPost2010PropOp34
 70
     1
102
RTVSPost2010Prop35
280
     0
102
RTVSPost2010PropOp35
 70
     1
102
RTVSPost2010Prop36
280
     0
102
RTVSPost2010PropOp36
 70
     1
102
RTVSPost2010Prop37
 90
       50
102
RTVSPost2010PropOp37
 70
     1
102
RTVSPost2010Prop38
140
0.0
102
RTVSPost2010PropOp38
 70
     1
102
RTVSPost2010Prop39
140
1.0
102
RTVSPost2010PropOp39
 70
     1
102
RTVSPost2010Prop40
 90
        0
102
RTVSPost2010PropOp40
 70
     1
102
RTVSPost2010Prop41ColorIndex
 90
       18
102
RTVSPost2010Prop41ColorRGB
 90
        0
102
RTVSPost2010PropOp41
 70
     1
102
RTVSPost2010Prop42
 90
       50
102
RTVSPost2010PropOp42
 70
     1
102
RTVSPost2010Prop43
 90
        3
102
RTVSPost2010PropOp43
 70
     1
102
RTVSPost2010Prop44ColorIndex
 90
        5
102
RTVSPost2010Prop44ColorRGB
 90
      255
102
RTVSPost2010PropOp44
 70
     1
102
RTVSPost2010Prop45
280
     0
102
RTVSPost2010PropOp45
 70
     1
102
RTVSPost2010Prop46
 90
       50
102
RTVSPost2010PropOp46
 70
     1
102
RTVSPost2010Prop47
 90
       50
102
RTVSPost2010PropOp47
 70
     1
102
RTVSPost2010Prop48
 90
       50
102
RTVSPost2010PropOp48
 70
     1
102
RTVSPost2010Prop49
280
     0
102
RTVSPost2010PropOp49
 70
     1
102
RTVSPost2010Prop50
 90
       50
102
RTVSPost2010PropOp50
 70
     1
102
RTVSPost2010Prop51ColorIndex
 90
      256
102
RTVSPost2010Prop51ColorRGB
 90
-16777216
102
RTVSPost2010PropOp51
 70
     0
102
RTVSPost2010Prop52
140
1.0
102
RTVSPost2010PropOp52
 70
     0
102
RTVSPost2010Prop53
 90
        2
102
RTVSPost2010PropOp53
 70
     1
102
RTVSPost2010Prop54
  1
strokes_ogs.tif
102
RTVSPost2010PropOp54
 70
     1
102
RTVSPost2010Prop55
280
     0
102
RTVSPost2010PropOp55
 70
     1
102
RTVSPost2010Prop56
140
1.0
102
RTVSPost2010PropOp56
 70
     1
102
RTVSPost2010Prop57
140
1.0
102
RTVSPost2010PropOp57
 70
     1
102
RTVSPropertyOp0
 70
     1
102
RTVSPropertyOp1
 70
     1
102
RTVSPropertyOp2
 70
     1
102
RTVSPropertyOp3
 70
     1
102
RTVSPropertyOp4
 70
     1
102
RTVSPropertyOp5
 70
     1
102
RTVSPropertyOp6
 70
     1
102
RTVSPropertyOp7
 70
     1
102
RTVSPropertyOp8
 70
     1
102
RTVSPropertyOp9
 70
     1
102
RTVSPropertyOp10
 70
     1
102
RTVSPropertyOp11
 70
     1
102
RTVSPropertyOp12
 70
     1
102
RTVSPropertyOp13
 70
     1
102
RTVSPropertyOp14
 70
     1
102
RTVSPropertyOp15
 70
     1
102
RTVSPropertyOp16
 70
     1
102
RTVSPropertyOp17
 70
     1
102
RTVSPropertyOp18
 70
     1
102
RTVSPropertyOp19
 70
     1
102
RTVSPropertyOp20
 70
     1
102
RTVSPropertyOp21
 70
     1
102
RTVSPropertyOp22
 70
     1
102
RTVSPropertyOp23
 70
     1
102
RTVSPropertyOp24
 70
     1
102
RTVSPropertyOp25
 70
     1
102
RTVSPropertyOp26
 70
     1
102
RTVSPropertyOp27
 70
     1
102
RTVSPropertyOp28
 70
     1
102
RTVSPropertyOp29
 70
     1
102
RTVSPropertyOp30
 70
     1
102
RTVSPropertyOp31
 70
     1
102
RTVSPropertyOp32
 70
     1
102
RTVSPropertyOp33
 70
     1
102
RTVSPropertyOp34
 70
     1
102
RTVSPropertyOp35
 70
     1
102
RTVSPropertyOp36
 70
     1
102
RTVSPropertyOp37
 70
     1
102
RTVSPropertyOp38
 70
     1
102
RTVSPropertyOp39
 70
     1
102
RTVSPropertyOp40
 70
     1
102
RTVSPropertyOp41
 70
     1
102
RTVSPropertyOp42
 70
     1
102
RTVSPropertyOp43
 70
     1
102
RTVSPropertyOp44
 70
     1
102
RTVSPropertyOp45
 70
     1
102
RTVSPropertyOp46
 70
     1
102
RTVSPropertyOp47
 70
     1
102
RTVSPropertyOp48
 70
     1
102
RTVSPropertyOp49
 70
     1
102
RTVSPropertyOp50
 70
     1
102
RTVSPropertyOp51
 70
     0
102
RTVSPropertyOp52
 70
     0
102
RTVSPropertyOp53
 70
     1
102
RTVSPropertyOp54
 70
     1
102
RTVSPropertyOp55
 70
     1
102
RTVSPropertyOp56
 70
     1
102
RTVSPropertyOp57
 70
     1
102
RTVSPropertyOp58
 70
     1
102
RTVSPropertyOp59
 70
     1
102
RTVSPropertyOp60
 70
     1
102
RTVSPropertyOp61
 70
     1
102
RTVSPropertyOp62
 70
     1
  0
XRECORD
  5
1B7D
102
{ACAD_REACTORS
330
1B7C
102
}
330
1B7C
100
AcDbXrecord
280
     1
102
RTVSPost2010Prop28
280
     0
102
RTVSPost2010PropOp28
 70
     1
102
RTVSPost2010Prop29
280
     1
102
RTVSPost2010PropOp29
 70
     1
102
RTVSPost2010Prop30
280
     1
102
RTVSPost2010PropOp30
 70
     1
102
RTVSPost2010Prop31
280
     0
102
RTVSPost2010PropOp31
 70
     1
102
RTVSPost2010Prop32
280
     0
102
RTVSPost2010PropOp32
 70
     1
102
RTVSPost2010Prop33
280
     0
102
RTVSPost2010PropOp33
 70
     1
102
RTVSPost2010Prop34
280
     0
102
RTVSPost2010PropOp34
 70
     1
102
RTVSPost2010Prop35
280
     0
102
RTVSPost2010PropOp35
 70
     1
102
RTVSPost2010Prop36
280
     0
102
RTVSPost2010PropOp36
 70
     1
102
RTVSPost2010Prop37
 90
       50
102
RTVSPost2010PropOp37
 70
     1
102
RTVSPost2010Prop38
140
0.0
102
RTVSPost2010PropOp38
 70
     1
102
RTVSPost2010Prop39
140
1.0
102
RTVSPost2010PropOp39
 70
     1
102
RTVSPost2010Prop40
 90
        0
102
RTVSPost2010PropOp40
 70
     1
102
RTVSPost2010Prop41ColorIndex
 90
       18
102
RTVSPost2010Prop41ColorRGB
 90
        0
102
RTVSPost2010PropOp41
 70
     1
102
RTVSPost2010Prop42
 90
       50
102
RTVSPost2010PropOp42
 70
     1
102
RTVSPost2010Prop43
 90
        3
102
RTVSPost2010PropOp43
 70
     1
102
RTVSPost2010Prop44ColorIndex
 90
        5
102
RTVSPost2010Prop44ColorRGB
 90
      255
102
RTVSPost2010PropOp44
 70
     1
102
RTVSPost2010Prop45
280
     0
102
RTVSPost2010PropOp45
 70
     1
102
RTVSPost2010Prop46
 90
       50
102
RTVSPost2010PropOp46
 70
     1
102
RTVSPost2010Prop47
 90
       50
102
RTVSPost2010PropOp47
 70
     1
102
RTVSPost2010Prop48
 90
       50
102
RTVSPost2010PropOp48
 70
     1
102
RTVSPost2010Prop49
280
     0
102
RTVSPost2010PropOp49
 70
     1
102
RTVSPost2010Prop50
 90
       50
102
RTVSPost2010PropOp50
 70
     1
102
RTVSPost2010Prop51ColorIndex
 90
      256
102
RTVSPost2010Prop51ColorRGB
 90
-16777216
102
RTVSPost2010PropOp51
 70
     0
102
RTVSPost2010Prop52
140
1.0
102
RTVSPost2010PropOp52
 70
     0
102
RTVSPost2010Prop53
 90
        2
102
RTVSPost2010PropOp53
 70
     1
102
RTVSPost2010Prop54
  1
strokes_ogs.tif
102
RTVSPost2010PropOp54
 70
     1
102
RTVSPost2010Prop55
280
     0
102
RTVSPost2010PropOp55
 70
     1
102
RTVSPost2010Prop56
140
1.0
102
RTVSPost2010PropOp56
 70
     1
102
RTVSPost2010Prop57
140
1.0
102
RTVSPost2010PropOp57
 70
     1
102
RTVSPropertyOp0
 70
     1
102
RTVSPropertyOp1
 70
     1
102
RTVSPropertyOp2
 70
     1
102
RTVSPropertyOp3
 70
     1
102
RTVSPropertyOp4
 70
     1
102
RTVSPropertyOp5
 70
     1
102
RTVSPropertyOp6
 70
     1
102
RTVSPropertyOp7
 70
     1
102
RTVSPropertyOp8
 70
     1
102
RTVSPropertyOp9
 70
     1
102
RTVSPropertyOp10
 70
     1
102
RTVSPropertyOp11
 70
     1
102
RTVSPropertyOp12
 70
     1
102
RTVSPropertyOp13
 70
     1
102
RTVSPropertyOp14
 70
     1
102
RTVSPropertyOp15
 70
     1
102
RTVSPropertyOp16
 70
     1
102
RTVSPropertyOp17
 70
     1
102
RTVSPropertyOp18
 70
     1
102
RTVSPropertyOp19
 70
     1
102
RTVSPropertyOp20
 70
     1
102
RTVSPropertyOp21
 70
     1
102
RTVSPropertyOp22
 70
     1
102
RTVSPropertyOp23
 70
     1
102
RTVSPropertyOp24
 70
     1
102
RTVSPropertyOp25
 70
     1
102
RTVSPropertyOp26
 70
     1
102
RTVSPropertyOp27
 70
     1
102
RTVSPropertyOp28
 70
     1
102
RTVSPropertyOp29
 70
     1
102
RTVSPropertyOp30
 70
     1
102
RTVSPropertyOp31
 70
     1
102
RTVSPropertyOp32
 70
     1
102
RTVSPropertyOp33
 70
     1
102
RTVSPropertyOp34
 70
     1
102
RTVSPropertyOp35
 70
     1
102
RTVSPropertyOp36
 70
     1
102
RTVSPropertyOp37
 70
     1
102
RTVSPropertyOp38
 70
     1
102
RTVSPropertyOp39
 70
     1
102
RTVSPropertyOp40
 70
     1
102
RTVSPropertyOp41
 70
     1
102
RTVSPropertyOp42
 70
     1
102
RTVSPropertyOp43
 70
     1
102
RTVSPropertyOp44
 70
     1
102
RTVSPropertyOp45
 70
     1
102
RTVSPropertyOp46
 70
     1
102
RTVSPropertyOp47
 70
     1
102
RTVSPropertyOp48
 70
     1
102
RTVSPropertyOp49
 70
     1
102
RTVSPropertyOp50
 70
     1
102
RTVSPropertyOp51
 70
     0
102
RTVSPropertyOp52
 70
     0
102
RTVSPropertyOp53
 70
     1
102
RTVSPropertyOp54
 70
     1
102
RTVSPropertyOp55
 70
     1
102
RTVSPropertyOp56
 70
     1
102
RTVSPropertyOp57
 70
     1
102
RTVSPropertyOp58
 70
     1
102
RTVSPropertyOp59
 70
     1
102
RTVSPropertyOp60
 70
     1
102
RTVSPropertyOp61
 70
     1
102
RTVSPropertyOp62
 70
     1
  0
XRECORD
  5
1B7F
102
{ACAD_REACTORS
330
1B7E
102
}
330
1B7E
100
AcDbXrecord
280
     1
102
RTVSPost2010Prop28
280
     0
102
RTVSPost2010PropOp28
 70
     1
102
RTVSPost2010Prop29
280
     1
102
RTVSPost2010PropOp29
 70
     1
102
RTVSPost2010Prop30
280
     1
102
RTVSPost2010PropOp30
 70
     1
102
RTVSPost2010Prop31
280
     0
102
RTVSPost2010PropOp31
 70
     1
102
RTVSPost2010Prop32
280
     0
102
RTVSPost2010PropOp32
 70
     1
102
RTVSPost2010Prop33
280
     0
102
RTVSPost2010PropOp33
 70
     1
102
RTVSPost2010Prop34
280
     0
102
RTVSPost2010PropOp34
 70
     1
102
RTVSPost2010Prop35
280
     0
102
RTVSPost2010PropOp35
 70
     1
102
RTVSPost2010Prop36
280
     0
102
RTVSPost2010PropOp36
 70
     1
102
RTVSPost2010Prop37
 90
       50
102
RTVSPost2010PropOp37
 70
     1
102
RTVSPost2010Prop38
140
0.0
102
RTVSPost2010PropOp38
 70
     1
102
RTVSPost2010Prop39
140
1.0
102
RTVSPost2010PropOp39
 70
     1
102
RTVSPost2010Prop40
 90
        0
102
RTVSPost2010PropOp40
 70
     1
102
RTVSPost2010Prop41ColorIndex
 90
       18
102
RTVSPost2010Prop41ColorRGB
 90
        0
102
RTVSPost2010PropOp41
 70
     1
102
RTVSPost2010Prop42
 90
       50
102
RTVSPost2010PropOp42
 70
     1
102
RTVSPost2010Prop43
 90
        3
102
RTVSPost2010PropOp43
 70
     1
102
RTVSPost2010Prop44ColorIndex
 90
        5
102
RTVSPost2010Prop44ColorRGB
 90
      255
102
RTVSPost2010PropOp44
 70
     1
102
RTVSPost2010Prop45
280
     0
102
RTVSPost2010PropOp45
 70
     1
102
RTVSPost2010Prop46
 90
       50
102
RTVSPost2010PropOp46
 70
     1
102
RTVSPost2010Prop47
 90
       50
102
RTVSPost2010PropOp47
 70
     1
102
RTVSPost2010Prop48
 90
       50
102
RTVSPost2010PropOp48
 70
     1
102
RTVSPost2010Prop49
280
     0
102
RTVSPost2010PropOp49
 70
     1
102
RTVSPost2010Prop50
 90
       50
102
RTVSPost2010PropOp50
 70
     1
102
RTVSPost2010Prop51ColorIndex
 90
      256
102
RTVSPost2010Prop51ColorRGB
 90
-16777216
102
RTVSPost2010PropOp51
 70
     0
102
RTVSPost2010Prop52
140
1.0
102
RTVSPost2010PropOp52
 70
     0
102
RTVSPost2010Prop53
 90
        2
102
RTVSPost2010PropOp53
 70
     1
102
RTVSPost2010Prop54
  1
strokes_ogs.tif
102
RTVSPost2010PropOp54
 70
     1
102
RTVSPost2010Prop55
280
     0
102
RTVSPost2010PropOp55
 70
     1
102
RTVSPost2010Prop56
140
1.0
102
RTVSPost2010PropOp56
 70
     1
102
RTVSPost2010Prop57
140
1.0
102
RTVSPost2010PropOp57
 70
     1
102
RTVSPropertyOp0
 70
     1
102
RTVSPropertyOp1
 70
     1
102
RTVSPropertyOp2
 70
     1
102
RTVSPropertyOp3
 70
     1
102
RTVSPropertyOp4
 70
     1
102
RTVSPropertyOp5
 70
     1
102
RTVSPropertyOp6
 70
     1
102
RTVSPropertyOp7
 70
     1
102
RTVSPropertyOp8
 70
     1
102
RTVSPropertyOp9
 70
     1
102
RTVSPropertyOp10
 70
     1
102
RTVSPropertyOp11
 70
     1
102
RTVSPropertyOp12
 70
     1
102
RTVSPropertyOp13
 70
     1
102
RTVSPropertyOp14
 70
     1
102
RTVSPropertyOp15
 70
     1
102
RTVSPropertyOp16
 70
     1
102
RTVSPropertyOp17
 70
     1
102
RTVSPropertyOp18
 70
     1
102
RTVSPropertyOp19
 70
     1
102
RTVSPropertyOp20
 70
     1
102
RTVSPropertyOp21
 70
     1
102
RTVSPropertyOp22
 70
     1
102
RTVSPropertyOp23
 70
     1
102
RTVSPropertyOp24
 70
     1
102
RTVSPropertyOp25
 70
     1
102
RTVSPropertyOp26
 70
     1
102
RTVSPropertyOp27
 70
     1
102
RTVSPropertyOp28
 70
     1
102
RTVSPropertyOp29
 70
     1
102
RTVSPropertyOp30
 70
     1
102
RTVSPropertyOp31
 70
     1
102
RTVSPropertyOp32
 70
     1
102
RTVSPropertyOp33
 70
     1
102
RTVSPropertyOp34
 70
     1
102
RTVSPropertyOp35
 70
     1
102
RTVSPropertyOp36
 70
     1
102
RTVSPropertyOp37
 70
     1
102
RTVSPropertyOp38
 70
     1
102
RTVSPropertyOp39
 70
     1
102
RTVSPropertyOp40
 70
     1
102
RTVSPropertyOp41
 70
     1
102
RTVSPropertyOp42
 70
     1
102
RTVSPropertyOp43
 70
     1
102
RTVSPropertyOp44
 70
     1
102
RTVSPropertyOp45
 70
     1
102
RTVSPropertyOp46
 70
     1
102
RTVSPropertyOp47
 70
     1
102
RTVSPropertyOp48
 70
     1
102
RTVSPropertyOp49
 70
     1
102
RTVSPropertyOp50
 70
     1
102
RTVSPropertyOp51
 70
     0
102
RTVSPropertyOp52
 70
     0
102
RTVSPropertyOp53
 70
     1
102
RTVSPropertyOp54
 70
     1
102
RTVSPropertyOp55
 70
     1
102
RTVSPropertyOp56
 70
     1
102
RTVSPropertyOp57
 70
     1
102
RTVSPropertyOp58
 70
     1
102
RTVSPropertyOp59
 70
     1
102
RTVSPropertyOp60
 70
     1
102
RTVSPropertyOp61
 70
     1
102
RTVSPropertyOp62
 70
     1
  0
XRECORD
  5
1B81
102
{ACAD_REACTORS
330
1B80
102
}
330
1B80
100
AcDbXrecord
280
     1
102
RTVSPost2010Prop28
280
     0
102
RTVSPost2010PropOp28
 70
     1
102
RTVSPost2010Prop29
280
     1
102
RTVSPost2010PropOp29
 70
     1
102
RTVSPost2010Prop30
280
     1
102
RTVSPost2010PropOp30
 70
     1
102
RTVSPost2010Prop31
280
     0
102
RTVSPost2010PropOp31
 70
     1
102
RTVSPost2010Prop32
280
     0
102
RTVSPost2010PropOp32
 70
     1
102
RTVSPost2010Prop33
280
     0
102
RTVSPost2010PropOp33
 70
     1
102
RTVSPost2010Prop34
280
     0
102
RTVSPost2010PropOp34
 70
     1
102
RTVSPost2010Prop35
280
     0
102
RTVSPost2010PropOp35
 70
     1
102
RTVSPost2010Prop36
280
     0
102
RTVSPost2010PropOp36
 70
     1
102
RTVSPost2010Prop37
 90
       50
102
RTVSPost2010PropOp37
 70
     1
102
RTVSPost2010Prop38
140
0.0
102
RTVSPost2010PropOp38
 70
     1
102
RTVSPost2010Prop39
140
1.0
102
RTVSPost2010PropOp39
 70
     1
102
RTVSPost2010Prop40
 90
        0
102
RTVSPost2010PropOp40
 70
     1
102
RTVSPost2010Prop41ColorIndex
 90
       18
102
RTVSPost2010Prop41ColorRGB
 90
        0
102
RTVSPost2010PropOp41
 70
     1
102
RTVSPost2010Prop42
 90
       50
102
RTVSPost2010PropOp42
 70
     1
102
RTVSPost2010Prop43
 90
        3
102
RTVSPost2010PropOp43
 70
     1
102
RTVSPost2010Prop44ColorIndex
 90
        5
102
RTVSPost2010Prop44ColorRGB
 90
      255
102
RTVSPost2010PropOp44
 70
     1
102
RTVSPost2010Prop45
280
     0
102
RTVSPost2010PropOp45
 70
     1
102
RTVSPost2010Prop46
 90
       50
102
RTVSPost2010PropOp46
 70
     1
102
RTVSPost2010Prop47
 90
       50
102
RTVSPost2010PropOp47
 70
     1
102
RTVSPost2010Prop48
 90
       50
102
RTVSPost2010PropOp48
 70
     1
102
RTVSPost2010Prop49
280
     0
102
RTVSPost2010PropOp49
 70
     1
102
RTVSPost2010Prop50
 90
       50
102
RTVSPost2010PropOp50
 70
     1
102
RTVSPost2010Prop51ColorIndex
 90
      256
102
RTVSPost2010Prop51ColorRGB
 90
-16777216
102
RTVSPost2010PropOp51
 70
     0
102
RTVSPost2010Prop52
140
1.0
102
RTVSPost2010PropOp52
 70
     0
102
RTVSPost2010Prop53
 90
        2
102
RTVSPost2010PropOp53
 70
     1
102
RTVSPost2010Prop54
  1
strokes_ogs.tif
102
RTVSPost2010PropOp54
 70
     1
102
RTVSPost2010Prop55
280
     0
102
RTVSPost2010PropOp55
 70
     1
102
RTVSPost2010Prop56
140
1.0
102
RTVSPost2010PropOp56
 70
     1
102
RTVSPost2010Prop57
140
1.0
102
RTVSPost2010PropOp57
 70
     1
102
RTVSPropertyOp0
 70
     1
102
RTVSPropertyOp1
 70
     1
102
RTVSPropertyOp2
 70
     1
102
RTVSPropertyOp3
 70
     1
102
RTVSPropertyOp4
 70
     1
102
RTVSPropertyOp5
 70
     1
102
RTVSPropertyOp6
 70
     1
102
RTVSPropertyOp7
 70
     1
102
RTVSPropertyOp8
 70
     1
102
RTVSPropertyOp9
 70
     1
102
RTVSPropertyOp10
 70
     1
102
RTVSPropertyOp11
 70
     1
102
RTVSPropertyOp12
 70
     1
102
RTVSPropertyOp13
 70
     1
102
RTVSPropertyOp14
 70
     1
102
RTVSPropertyOp15
 70
     1
102
RTVSPropertyOp16
 70
     1
102
RTVSPropertyOp17
 70
     1
102
RTVSPropertyOp18
 70
     1
102
RTVSPropertyOp19
 70
     1
102
RTVSPropertyOp20
 70
     1
102
RTVSPropertyOp21
 70
     1
102
RTVSPropertyOp22
 70
     1
102
RTVSPropertyOp23
 70
     1
102
RTVSPropertyOp24
 70
     1
102
RTVSPropertyOp25
 70
     1
102
RTVSPropertyOp26
 70
     1
102
RTVSPropertyOp27
 70
     1
102
RTVSPropertyOp28
 70
     1
102
RTVSPropertyOp29
 70
     1
102
RTVSPropertyOp30
 70
     1
102
RTVSPropertyOp31
 70
     1
102
RTVSPropertyOp32
 70
     1
102
RTVSPropertyOp33
 70
     1
102
RTVSPropertyOp34
 70
     1
102
RTVSPropertyOp35
 70
     1
102
RTVSPropertyOp36
 70
     1
102
RTVSPropertyOp37
 70
     1
102
RTVSPropertyOp38
 70
     1
102
RTVSPropertyOp39
 70
     1
102
RTVSPropertyOp40
 70
     1
102
RTVSPropertyOp41
 70
     1
102
RTVSPropertyOp42
 70
     1
102
RTVSPropertyOp43
 70
     1
102
RTVSPropertyOp44
 70
     1
102
RTVSPropertyOp45
 70
     1
102
RTVSPropertyOp46
 70
     1
102
RTVSPropertyOp47
 70
     1
102
RTVSPropertyOp48
 70
     1
102
RTVSPropertyOp49
 70
     1
102
RTVSPropertyOp50
 70
     1
102
RTVSPropertyOp51
 70
     0
102
RTVSPropertyOp52
 70
     0
102
RTVSPropertyOp53
 70
     1
102
RTVSPropertyOp54
 70
     1
102
RTVSPropertyOp55
 70
     1
102
RTVSPropertyOp56
 70
     1
102
RTVSPropertyOp57
 70
     1
102
RTVSPropertyOp58
 70
     1
102
RTVSPropertyOp59
 70
     1
102
RTVSPropertyOp60
 70
     1
102
RTVSPropertyOp61
 70
     1
102
RTVSPropertyOp62
 70
     1
  0
XRECORD
  5
1B89
102
{ACAD_REACTORS
330
1B88
102
}
330
1B88
100
AcDbXrecord
280
     1
102
RTVSPost2010Prop28
280
     0
102
RTVSPost2010PropOp28
 70
     1
102
RTVSPost2010Prop29
280
     1
102
RTVSPost2010PropOp29
 70
     1
102
RTVSPost2010Prop30
280
     1
102
RTVSPost2010PropOp30
 70
     1
102
RTVSPost2010Prop31
280
     0
102
RTVSPost2010PropOp31
 70
     1
102
RTVSPost2010Prop32
280
     0
102
RTVSPost2010PropOp32
 70
     1
102
RTVSPost2010Prop33
280
     0
102
RTVSPost2010PropOp33
 70
     1
102
RTVSPost2010Prop34
280
     0
102
RTVSPost2010PropOp34
 70
     1
102
RTVSPost2010Prop35
280
     0
102
RTVSPost2010PropOp35
 70
     1
102
RTVSPost2010Prop36
280
     0
102
RTVSPost2010PropOp36
 70
     1
102
RTVSPost2010Prop37
 90
       50
102
RTVSPost2010PropOp37
 70
     1
102
RTVSPost2010Prop38
140
0.0
102
RTVSPost2010PropOp38
 70
     1
102
RTVSPost2010Prop39
140
1.0
102
RTVSPost2010PropOp39
 70
     1
102
RTVSPost2010Prop40
 90
        0
102
RTVSPost2010PropOp40
 70
     1
102
RTVSPost2010Prop41ColorIndex
 90
       18
102
RTVSPost2010Prop41ColorRGB
 90
        0
102
RTVSPost2010PropOp41
 70
     1
102
RTVSPost2010Prop42
 90
       50
102
RTVSPost2010PropOp42
 70
     1
102
RTVSPost2010Prop43
 90
        3
102
RTVSPost2010PropOp43
 70
     1
102
RTVSPost2010Prop44ColorIndex
 90
        5
102
RTVSPost2010Prop44ColorRGB
 90
      255
102
RTVSPost2010PropOp44
 70
     1
102
RTVSPost2010Prop45
280
     0
102
RTVSPost2010PropOp45
 70
     1
102
RTVSPost2010Prop46
 90
       50
102
RTVSPost2010PropOp46
 70
     1
102
RTVSPost2010Prop47
 90
       50
102
RTVSPost2010PropOp47
 70
     1
102
RTVSPost2010Prop48
 90
       50
102
RTVSPost2010PropOp48
 70
     1
102
RTVSPost2010Prop49
280
     0
102
RTVSPost2010PropOp49
 70
     1
102
RTVSPost2010Prop50
 90
       50
102
RTVSPost2010PropOp50
 70
     1
102
RTVSPost2010Prop51ColorIndex
 90
      256
102
RTVSPost2010Prop51ColorRGB
 90
-16777216
102
RTVSPost2010PropOp51
 70
     0
102
RTVSPost2010Prop52
140
1.0
102
RTVSPost2010PropOp52
 70
     0
102
RTVSPost2010Prop53
 90
        2
102
RTVSPost2010PropOp53
 70
     1
102
RTVSPost2010Prop54
  1
strokes_ogs.tif
102
RTVSPost2010PropOp54
 70
     1
102
RTVSPost2010Prop55
280
     0
102
RTVSPost2010PropOp55
 70
     1
102
RTVSPost2010Prop56
140
1.0
102
RTVSPost2010PropOp56
 70
     1
102
RTVSPost2010Prop57
140
1.0
102
RTVSPost2010PropOp57
 70
     1
102
RTVSPropertyOp0
 70
     1
102
RTVSPropertyOp1
 70
     1
102
RTVSPropertyOp2
 70
     1
102
RTVSPropertyOp3
 70
     1
102
RTVSPropertyOp4
 70
     1
102
RTVSPropertyOp5
 70
     1
102
RTVSPropertyOp6
 70
     1
102
RTVSPropertyOp7
 70
     1
102
RTVSPropertyOp8
 70
     1
102
RTVSPropertyOp9
 70
     1
102
RTVSPropertyOp10
 70
     1
102
RTVSPropertyOp11
 70
     1
102
RTVSPropertyOp12
 70
     1
102
RTVSPropertyOp13
 70
     1
102
RTVSPropertyOp14
 70
     1
102
RTVSPropertyOp15
 70
     1
102
RTVSPropertyOp16
 70
     1
102
RTVSPropertyOp17
 70
     1
102
RTVSPropertyOp18
 70
     1
102
RTVSPropertyOp19
 70
     1
102
RTVSPropertyOp20
 70
     1
102
RTVSPropertyOp21
 70
     1
102
RTVSPropertyOp22
 70
     1
102
RTVSPropertyOp23
 70
     1
102
RTVSPropertyOp24
 70
     1
102
RTVSPropertyOp25
 70
     1
102
RTVSPropertyOp26
 70
     1
102
RTVSPropertyOp27
 70
     1
102
RTVSPropertyOp28
 70
     1
102
RTVSPropertyOp29
 70
     1
102
RTVSPropertyOp30
 70
     1
102
RTVSPropertyOp31
 70
     1
102
RTVSPropertyOp32
 70
     1
102
RTVSPropertyOp33
 70
     1
102
RTVSPropertyOp34
 70
     1
102
RTVSPropertyOp35
 70
     1
102
RTVSPropertyOp36
 70
     1
102
RTVSPropertyOp37
 70
     1
102
RTVSPropertyOp38
 70
     1
102
RTVSPropertyOp39
 70
     1
102
RTVSPropertyOp40
 70
     1
102
RTVSPropertyOp41
 70
     1
102
RTVSPropertyOp42
 70
     1
102
RTVSPropertyOp43
 70
     1
102
RTVSPropertyOp44
 70
     1
102
RTVSPropertyOp45
 70
     1
102
RTVSPropertyOp46
 70
     1
102
RTVSPropertyOp47
 70
     1
102
RTVSPropertyOp48
 70
     1
102
RTVSPropertyOp49
 70
     1
102
RTVSPropertyOp50
 70
     1
102
RTVSPropertyOp51
 70
     0
102
RTVSPropertyOp52
 70
     0
102
RTVSPropertyOp53
 70
     1
102
RTVSPropertyOp54
 70
     1
102
RTVSPropertyOp55
 70
     1
102
RTVSPropertyOp56
 70
     1
102
RTVSPropertyOp57
 70
     1
102
RTVSPropertyOp58
 70
     1
102
RTVSPropertyOp59
 70
     1
102
RTVSPropertyOp60
 70
     1
102
RTVSPropertyOp61
 70
     1
102
RTVSPropertyOp62
 70
     1
  0
XRECORD
  5
1BA5
102
{ACAD_REACTORS
330
1BA4
102
}
330
1BA4
100
AcDbXrecord
280
     1
102
RTVSPost2010Prop28
280
     0
102
RTVSPost2010PropOp28
 70
     1
102
RTVSPost2010Prop29
280
     1
102
RTVSPost2010PropOp29
 70
     1
102
RTVSPost2010Prop30
280
     1
102
RTVSPost2010PropOp30
 70
     1
102
RTVSPost2010Prop31
280
     0
102
RTVSPost2010PropOp31
 70
     1
102
RTVSPost2010Prop32
280
     0
102
RTVSPost2010PropOp32
 70
     1
102
RTVSPost2010Prop33
280
     0
102
RTVSPost2010PropOp33
 70
     1
102
RTVSPost2010Prop34
280
     0
102
RTVSPost2010PropOp34
 70
     1
102
RTVSPost2010Prop35
280
     0
102
RTVSPost2010PropOp35
 70
     1
102
RTVSPost2010Prop36
280
     0
102
RTVSPost2010PropOp36
 70
     1
102
RTVSPost2010Prop37
 90
       50
102
RTVSPost2010PropOp37
 70
     0
102
RTVSPost2010Prop38
140
0.0
102
RTVSPost2010PropOp38
 70
     0
102
RTVSPost2010Prop39
140
1.0
102
RTVSPost2010PropOp39
 70
     0
102
RTVSPost2010Prop40
 90
        0
102
RTVSPost2010PropOp40
 70
     0
102
RTVSPost2010Prop41ColorIndex
 90
       18
102
RTVSPost2010Prop41ColorRGB
 90
        0
102
RTVSPost2010PropOp41
 70
     0
102
RTVSPost2010Prop42
 90
       50
102
RTVSPost2010PropOp42
 70
     0
102
RTVSPost2010Prop43
 90
        3
102
RTVSPost2010PropOp43
 70
     0
102
RTVSPost2010Prop44ColorIndex
 90
        5
102
RTVSPost2010Prop44ColorRGB
 90
      255
102
RTVSPost2010PropOp44
 70
     0
102
RTVSPost2010Prop45
280
     0
102
RTVSPost2010PropOp45
 70
     1
102
RTVSPost2010Prop46
 90
       50
102
RTVSPost2010PropOp46
 70
     0
102
RTVSPost2010Prop47
 90
       50
102
RTVSPost2010PropOp47
 70
     0
102
RTVSPost2010Prop48
 90
       50
102
RTVSPost2010PropOp48
 70
     0
102
RTVSPost2010Prop49
280
     0
102
RTVSPost2010PropOp49
 70
     1
102
RTVSPost2010Prop50
 90
       50
102
RTVSPost2010PropOp50
 70
     0
102
RTVSPost2010Prop51ColorIndex
 90
      256
102
RTVSPost2010Prop51ColorRGB
 90
-16777216
102
RTVSPost2010PropOp51
 70
     0
102
RTVSPost2010Prop52
140
1.0
102
RTVSPost2010PropOp52
 70
     0
102
RTVSPost2010Prop53
 90
        2
102
RTVSPost2010PropOp53
 70
     0
102
RTVSPost2010Prop54
  1
strokes_ogs.tif
102
RTVSPost2010PropOp54
 70
     0
102
RTVSPost2010Prop55
280
     0
102
RTVSPost2010PropOp55
 70
     1
102
RTVSPost2010Prop56
140
1.0
102
RTVSPost2010PropOp56
 70
     0
102
RTVSPost2010Prop57
140
1.0
102
RTVSPost2010PropOp57
 70
     0
102
RTVSPropertyOp0
 70
     0
102
RTVSPropertyOp1
 70
     0
102
RTVSPropertyOp2
 70
     0
102
RTVSPropertyOp3
 70
     0
102
RTVSPropertyOp4
 70
     0
102
RTVSPropertyOp5
 70
     0
102
RTVSPropertyOp6
 70
     0
102
RTVSPropertyOp7
 70
     0
102
RTVSPropertyOp8
 70
     0
102
RTVSPropertyOp9
 70
     0
102
RTVSPropertyOp10
 70
     0
102
RTVSPropertyOp11
 70
     0
102
RTVSPropertyOp12
 70
     0
102
RTVSPropertyOp13
 70
     0
102
RTVSPropertyOp14
 70
     2
102
RTVSPropertyOp15
 70
     0
102
RTVSPropertyOp16
 70
     0
102
RTVSPropertyOp17
 70
     0
102
RTVSPropertyOp18
 70
     0
102
RTVSPropertyOp19
 70
     0
102
RTVSPropertyOp20
 70
     0
102
RTVSPropertyOp21
 70
     0
102
RTVSPropertyOp22
 70
     0
102
RTVSPropertyOp23
 70
     0
102
RTVSPropertyOp24
 70
     0
102
RTVSPropertyOp25
 70
     0
102
RTVSPropertyOp26
 70
     0
102
RTVSPropertyOp27
 70
     0
102
RTVSPropertyOp28
 70
     1
102
RTVSPropertyOp29
 70
     1
102
RTVSPropertyOp30
 70
     1
102
RTVSPropertyOp31
 70
     1
102
RTVSPropertyOp32
 70
     1
102
RTVSPropertyOp33
 70
     1
102
RTVSPropertyOp34
 70
     1
102
RTVSPropertyOp35
 70
     1
102
RTVSPropertyOp36
 70
     1
102
RTVSPropertyOp37
 70
     0
102
RTVSPropertyOp38
 70
     0
102
RTVSPropertyOp39
 70
     0
102
RTVSPropertyOp40
 70
     0
102
RTVSPropertyOp41
 70
     0
102
RTVSPropertyOp42
 70
     0
102
RTVSPropertyOp43
 70
     0
102
RTVSPropertyOp44
 70
     0
102
RTVSPropertyOp45
 70
     1
102
RTVSPropertyOp46
 70
     0
102
RTVSPropertyOp47
 70
     0
102
RTVSPropertyOp48
 70
     0
102
RTVSPropertyOp49
 70
     1
102
RTVSPropertyOp50
 70
     0
102
RTVSPropertyOp51
 70
     0
102
RTVSPropertyOp52
 70
     0
102
RTVSPropertyOp53
 70
     0
102
RTVSPropertyOp54
 70
     0
102
RTVSPropertyOp55
 70
     1
102
RTVSPropertyOp56
 70
     0
102
RTVSPropertyOp57
 70
     0
102
RTVSPropertyOp58
 70
     0
102
RTVSPropertyOp59
 70
     0
102
RTVSPropertyOp60
 70
     0
102
RTVSPropertyOp61
 70
     0
102
RTVSPropertyOp62
 70
     0
  0
XRECORD
  5
1B95
102
{ACAD_REACTORS
330
1B94
102
}
330
1B94
100
AcDbXrecord
280
     1
102
RTVSPost2010Prop28
280
     0
102
RTVSPost2010PropOp28
 70
     1
102
RTVSPost2010Prop29
280
     1
102
RTVSPost2010PropOp29
 70
     1
102
RTVSPost2010Prop30
280
     1
102
RTVSPost2010PropOp30
 70
     1
102
RTVSPost2010Prop31
280
     0
102
RTVSPost2010PropOp31
 70
     1
102
RTVSPost2010Prop32
280
     0
102
RTVSPost2010PropOp32
 70
     1
102
RTVSPost2010Prop33
280
     0
102
RTVSPost2010PropOp33
 70
     1
102
RTVSPost2010Prop34
280
     0
102
RTVSPost2010PropOp34
 70
     1
102
RTVSPost2010Prop35
280
     0
102
RTVSPost2010PropOp35
 70
     1
102
RTVSPost2010Prop36
280
     0
102
RTVSPost2010PropOp36
 70
     1
102
RTVSPost2010Prop37
 90
       50
102
RTVSPost2010PropOp37
 70
     1
102
RTVSPost2010Prop38
140
0.0
102
RTVSPost2010PropOp38
 70
     1
102
RTVSPost2010Prop39
140
1.0
102
RTVSPost2010PropOp39
 70
     1
102
RTVSPost2010Prop40
 90
        0
102
RTVSPost2010PropOp40
 70
     1
102
RTVSPost2010Prop41ColorIndex
 90
       18
102
RTVSPost2010Prop41ColorRGB
 90
        0
102
RTVSPost2010PropOp41
 70
     1
102
RTVSPost2010Prop42
 90
       50
102
RTVSPost2010PropOp42
 70
     1
102
RTVSPost2010Prop43
 90
        3
102
RTVSPost2010PropOp43
 70
     1
102
RTVSPost2010Prop44ColorIndex
 90
        5
102
RTVSPost2010Prop44ColorRGB
 90
      255
102
RTVSPost2010PropOp44
 70
     1
102
RTVSPost2010Prop45
280
     0
102
RTVSPost2010PropOp45
 70
     1
102
RTVSPost2010Prop46
 90
       50
102
RTVSPost2010PropOp46
 70
     1
102
RTVSPost2010Prop47
 90
       50
102
RTVSPost2010PropOp47
 70
     1
102
RTVSPost2010Prop48
 90
       50
102
RTVSPost2010PropOp48
 70
     1
102
RTVSPost2010Prop49
280
     0
102
RTVSPost2010PropOp49
 70
     1
102
RTVSPost2010Prop50
 90
       50
102
RTVSPost2010PropOp50
 70
     1
102
RTVSPost2010Prop51ColorIndex
 90
      256
102
RTVSPost2010Prop51ColorRGB
 90
-16777216
102
RTVSPost2010PropOp51
 70
     0
102
RTVSPost2010Prop52
140
1.0
102
RTVSPost2010PropOp52
 70
     0
102
RTVSPost2010Prop53
 90
        2
102
RTVSPost2010PropOp53
 70
     1
102
RTVSPost2010Prop54
  1
strokes_ogs.tif
102
RTVSPost2010PropOp54
 70
     1
102
RTVSPost2010Prop55
280
     0
102
RTVSPost2010PropOp55
 70
     1
102
RTVSPost2010Prop56
140
1.0
102
RTVSPost2010PropOp56
 70
     1
102
RTVSPost2010Prop57
140
1.0
102
RTVSPost2010PropOp57
 70
     1
102
RTVSPropertyOp0
 70
     1
102
RTVSPropertyOp1
 70
     1
102
RTVSPropertyOp2
 70
     1
102
RTVSPropertyOp3
 70
     1
102
RTVSPropertyOp4
 70
     1
102
RTVSPropertyOp5
 70
     1
102
RTVSPropertyOp6
 70
     1
102
RTVSPropertyOp7
 70
     1
102
RTVSPropertyOp8
 70
     1
102
RTVSPropertyOp9
 70
     1
102
RTVSPropertyOp10
 70
     1
102
RTVSPropertyOp11
 70
     1
102
RTVSPropertyOp12
 70
     1
102
RTVSPropertyOp13
 70
     1
102
RTVSPropertyOp14
 70
     1
102
RTVSPropertyOp15
 70
     1
102
RTVSPropertyOp16
 70
     1
102
RTVSPropertyOp17
 70
     1
102
RTVSPropertyOp18
 70
     1
102
RTVSPropertyOp19
 70
     1
102
RTVSPropertyOp20
 70
     1
102
RTVSPropertyOp21
 70
     1
102
RTVSPropertyOp22
 70
     1
102
RTVSPropertyOp23
 70
     1
102
RTVSPropertyOp24
 70
     1
102
RTVSPropertyOp25
 70
     1
102
RTVSPropertyOp26
 70
     1
102
RTVSPropertyOp27
 70
     1
102
RTVSPropertyOp28
 70
     1
102
RTVSPropertyOp29
 70
     1
102
RTVSPropertyOp30
 70
     1
102
RTVSPropertyOp31
 70
     1
102
RTVSPropertyOp32
 70
     1
102
RTVSPropertyOp33
 70
     1
102
RTVSPropertyOp34
 70
     1
102
RTVSPropertyOp35
 70
     1
102
RTVSPropertyOp36
 70
     1
102
RTVSPropertyOp37
 70
     1
102
RTVSPropertyOp38
 70
     1
102
RTVSPropertyOp39
 70
     1
102
RTVSPropertyOp40
 70
     1
102
RTVSPropertyOp41
 70
     1
102
RTVSPropertyOp42
 70
     1
102
RTVSPropertyOp43
 70
     1
102
RTVSPropertyOp44
 70
     1
102
RTVSPropertyOp45
 70
     1
102
RTVSPropertyOp46
 70
     1
102
RTVSPropertyOp47
 70
     1
102
RTVSPropertyOp48
 70
     1
102
RTVSPropertyOp49
 70
     1
102
RTVSPropertyOp50
 70
     1
102
RTVSPropertyOp51
 70
     0
102
RTVSPropertyOp52
 70
     0
102
RTVSPropertyOp53
 70
     1
102
RTVSPropertyOp54
 70
     1
102
RTVSPropertyOp55
 70
     1
102
RTVSPropertyOp56
 70
     1
102
RTVSPropertyOp57
 70
     1
102
RTVSPropertyOp58
 70
     1
102
RTVSPropertyOp59
 70
     1
102
RTVSPropertyOp60
 70
     1
102
RTVSPropertyOp61
 70
     1
102
RTVSPropertyOp62
 70
     1
  0
XRECORD
  5
1BA7
102
{ACAD_REACTORS
330
1BA6
102
}
330
1BA6
100
AcDbXrecord
280
     1
102
RTVSPost2010Prop28
280
     0
102
RTVSPost2010PropOp28
 70
     1
102
RTVSPost2010Prop29
280
     1
102
RTVSPost2010PropOp29
 70
     1
102
RTVSPost2010Prop30
280
     1
102
RTVSPost2010PropOp30
 70
     1
102
RTVSPost2010Prop31
280
     0
102
RTVSPost2010PropOp31
 70
     1
102
RTVSPost2010Prop32
280
     0
102
RTVSPost2010PropOp32
 70
     1
102
RTVSPost2010Prop33
280
     0
102
RTVSPost2010PropOp33
 70
     1
102
RTVSPost2010Prop34
280
     0
102
RTVSPost2010PropOp34
 70
     1
102
RTVSPost2010Prop35
280
     0
102
RTVSPost2010PropOp35
 70
     1
102
RTVSPost2010Prop36
280
     0
102
RTVSPost2010PropOp36
 70
     1
102
RTVSPost2010Prop37
 90
       50
102
RTVSPost2010PropOp37
 70
     0
102
RTVSPost2010Prop38
140
0.0
102
RTVSPost2010PropOp38
 70
     0
102
RTVSPost2010Prop39
140
1.0
102
RTVSPost2010PropOp39
 70
     0
102
RTVSPost2010Prop40
 90
        0
102
RTVSPost2010PropOp40
 70
     0
102
RTVSPost2010Prop41ColorIndex
 90
       18
102
RTVSPost2010Prop41ColorRGB
 90
        0
102
RTVSPost2010PropOp41
 70
     0
102
RTVSPost2010Prop42
 90
       50
102
RTVSPost2010PropOp42
 70
     0
102
RTVSPost2010Prop43
 90
        3
102
RTVSPost2010PropOp43
 70
     0
102
RTVSPost2010Prop44ColorIndex
 90
        5
102
RTVSPost2010Prop44ColorRGB
 90
      255
102
RTVSPost2010PropOp44
 70
     0
102
RTVSPost2010Prop45
280
     0
102
RTVSPost2010PropOp45
 70
     1
102
RTVSPost2010Prop46
 90
       50
102
RTVSPost2010PropOp46
 70
     0
102
RTVSPost2010Prop47
 90
       50
102
RTVSPost2010PropOp47
 70
     0
102
RTVSPost2010Prop48
 90
       50
102
RTVSPost2010PropOp48
 70
     0
102
RTVSPost2010Prop49
280
     0
102
RTVSPost2010PropOp49
 70
     1
102
RTVSPost2010Prop50
 90
       50
102
RTVSPost2010PropOp50
 70
     0
102
RTVSPost2010Prop51ColorIndex
 90
      256
102
RTVSPost2010Prop51ColorRGB
 90
-16777216
102
RTVSPost2010PropOp51
 70
     0
102
RTVSPost2010Prop52
140
1.0
102
RTVSPost2010PropOp52
 70
     0
102
RTVSPost2010Prop53
 90
        2
102
RTVSPost2010PropOp53
 70
     0
102
RTVSPost2010Prop54
  1
strokes_ogs.tif
102
RTVSPost2010PropOp54
 70
     0
102
RTVSPost2010Prop55
280
     0
102
RTVSPost2010PropOp55
 70
     1
102
RTVSPost2010Prop56
140
1.0
102
RTVSPost2010PropOp56
 70
     0
102
RTVSPost2010Prop57
140
1.0
102
RTVSPost2010PropOp57
 70
     0
102
RTVSPropertyOp0
 70
     0
102
RTVSPropertyOp1
 70
     0
102
RTVSPropertyOp2
 70
     0
102
RTVSPropertyOp3
 70
     0
102
RTVSPropertyOp4
 70
     0
102
RTVSPropertyOp5
 70
     0
102
RTVSPropertyOp6
 70
     0
102
RTVSPropertyOp7
 70
     0
102
RTVSPropertyOp8
 70
     0
102
RTVSPropertyOp9
 70
     0
102
RTVSPropertyOp10
 70
     0
102
RTVSPropertyOp11
 70
     0
102
RTVSPropertyOp12
 70
     0
102
RTVSPropertyOp13
 70
     0
102
RTVSPropertyOp14
 70
     2
102
RTVSPropertyOp15
 70
     0
102
RTVSPropertyOp16
 70
     0
102
RTVSPropertyOp17
 70
     0
102
RTVSPropertyOp18
 70
     0
102
RTVSPropertyOp19
 70
     0
102
RTVSPropertyOp20
 70
     0
102
RTVSPropertyOp21
 70
     0
102
RTVSPropertyOp22
 70
     0
102
RTVSPropertyOp23
 70
     0
102
RTVSPropertyOp24
 70
     0
102
RTVSPropertyOp25
 70
     0
102
RTVSPropertyOp26
 70
     0
102
RTVSPropertyOp27
 70
     0
102
RTVSPropertyOp28
 70
     1
102
RTVSPropertyOp29
 70
     1
102
RTVSPropertyOp30
 70
     1
102
RTVSPropertyOp31
 70
     1
102
RTVSPropertyOp32
 70
     1
102
RTVSPropertyOp33
 70
     1
102
RTVSPropertyOp34
 70
     1
102
RTVSPropertyOp35
 70
     1
102
RTVSPropertyOp36
 70
     1
102
RTVSPropertyOp37
 70
     0
102
RTVSPropertyOp38
 70
     0
102
RTVSPropertyOp39
 70
     0
102
RTVSPropertyOp40
 70
     0
102
RTVSPropertyOp41
 70
     0
102
RTVSPropertyOp42
 70
     0
102
RTVSPropertyOp43
 70
     0
102
RTVSPropertyOp44
 70
     0
102
RTVSPropertyOp45
 70
     1
102
RTVSPropertyOp46
 70
     0
102
RTVSPropertyOp47
 70
     0
102
RTVSPropertyOp48
 70
     0
102
RTVSPropertyOp49
 70
     1
102
RTVSPropertyOp50
 70
     0
102
RTVSPropertyOp51
 70
     0
102
RTVSPropertyOp52
 70
     0
102
RTVSPropertyOp53
 70
     0
102
RTVSPropertyOp54
 70
     0
102
RTVSPropertyOp55
 70
     1
102
RTVSPropertyOp56
 70
     0
102
RTVSPropertyOp57
 70
     0
102
RTVSPropertyOp58
 70
     0
102
RTVSPropertyOp59
 70
     0
102
RTVSPropertyOp60
 70
     0
102
RTVSPropertyOp61
 70
     0
102
RTVSPropertyOp62
 70
     0
  0
XRECORD
  5
1B8D
102
{ACAD_REACTORS
330
1B8C
102
}
330
1B8C
100
AcDbXrecord
280
     1
102
RTVSPost2010Prop28
280
     0
102
RTVSPost2010PropOp28
 70
     1
102
RTVSPost2010Prop29
280
     1
102
RTVSPost2010PropOp29
 70
     1
102
RTVSPost2010Prop30
280
     1
102
RTVSPost2010PropOp30
 70
     1
102
RTVSPost2010Prop31
280
     0
102
RTVSPost2010PropOp31
 70
     1
102
RTVSPost2010Prop32
280
     0
102
RTVSPost2010PropOp32
 70
     1
102
RTVSPost2010Prop33
280
     0
102
RTVSPost2010PropOp33
 70
     1
102
RTVSPost2010Prop34
280
     0
102
RTVSPost2010PropOp34
 70
     1
102
RTVSPost2010Prop35
280
     0
102
RTVSPost2010PropOp35
 70
     1
102
RTVSPost2010Prop36
280
     0
102
RTVSPost2010PropOp36
 70
     1
102
RTVSPost2010Prop37
 90
       50
102
RTVSPost2010PropOp37
 70
     1
102
RTVSPost2010Prop38
140
0.0
102
RTVSPost2010PropOp38
 70
     1
102
RTVSPost2010Prop39
140
1.0
102
RTVSPost2010PropOp39
 70
     1
102
RTVSPost2010Prop40
 90
        0
102
RTVSPost2010PropOp40
 70
     1
102
RTVSPost2010Prop41ColorIndex
 90
       18
102
RTVSPost2010Prop41ColorRGB
 90
        0
102
RTVSPost2010PropOp41
 70
     1
102
RTVSPost2010Prop42
 90
       50
102
RTVSPost2010PropOp42
 70
     1
102
RTVSPost2010Prop43
 90
        3
102
RTVSPost2010PropOp43
 70
     1
102
RTVSPost2010Prop44ColorIndex
 90
        5
102
RTVSPost2010Prop44ColorRGB
 90
      255
102
RTVSPost2010PropOp44
 70
     1
102
RTVSPost2010Prop45
280
     0
102
RTVSPost2010PropOp45
 70
     1
102
RTVSPost2010Prop46
 90
       50
102
RTVSPost2010PropOp46
 70
     1
102
RTVSPost2010Prop47
 90
       50
102
RTVSPost2010PropOp47
 70
     1
102
RTVSPost2010Prop48
 90
       50
102
RTVSPost2010PropOp48
 70
     1
102
RTVSPost2010Prop49
280
     0
102
RTVSPost2010PropOp49
 70
     1
102
RTVSPost2010Prop50
 90
       50
102
RTVSPost2010PropOp50
 70
     1
102
RTVSPost2010Prop51ColorIndex
 90
      256
102
RTVSPost2010Prop51ColorRGB
 90
-16777216
102
RTVSPost2010PropOp51
 70
     0
102
RTVSPost2010Prop52
140
1.0
102
RTVSPost2010PropOp52
 70
     0
102
RTVSPost2010Prop53
 90
        2
102
RTVSPost2010PropOp53
 70
     1
102
RTVSPost2010Prop54
  1
strokes_ogs.tif
102
RTVSPost2010PropOp54
 70
     1
102
RTVSPost2010Prop55
280
     0
102
RTVSPost2010PropOp55
 70
     1
102
RTVSPost2010Prop56
140
1.0
102
RTVSPost2010PropOp56
 70
     1
102
RTVSPost2010Prop57
140
1.0
102
RTVSPost2010PropOp57
 70
     1
102
RTVSPropertyOp0
 70
     1
102
RTVSPropertyOp1
 70
     1
102
RTVSPropertyOp2
 70
     1
102
RTVSPropertyOp3
 70
     1
102
RTVSPropertyOp4
 70
     1
102
RTVSPropertyOp5
 70
     1
102
RTVSPropertyOp6
 70
     1
102
RTVSPropertyOp7
 70
     1
102
RTVSPropertyOp8
 70
     1
102
RTVSPropertyOp9
 70
     1
102
RTVSPropertyOp10
 70
     1
102
RTVSPropertyOp11
 70
     1
102
RTVSPropertyOp12
 70
     1
102
RTVSPropertyOp13
 70
     1
102
RTVSPropertyOp14
 70
     1
102
RTVSPropertyOp15
 70
     1
102
RTVSPropertyOp16
 70
     1
102
RTVSPropertyOp17
 70
     1
102
RTVSPropertyOp18
 70
     1
102
RTVSPropertyOp19
 70
     1
102
RTVSPropertyOp20
 70
     1
102
RTVSPropertyOp21
 70
     1
102
RTVSPropertyOp22
 70
     1
102
RTVSPropertyOp23
 70
     1
102
RTVSPropertyOp24
 70
     1
102
RTVSPropertyOp25
 70
     1
102
RTVSPropertyOp26
 70
     1
102
RTVSPropertyOp27
 70
     1
102
RTVSPropertyOp28
 70
     1
102
RTVSPropertyOp29
 70
     1
102
RTVSPropertyOp30
 70
     1
102
RTVSPropertyOp31
 70
     1
102
RTVSPropertyOp32
 70
     1
102
RTVSPropertyOp33
 70
     1
102
RTVSPropertyOp34
 70
     1
102
RTVSPropertyOp35
 70
     1
102
RTVSPropertyOp36
 70
     1
102
RTVSPropertyOp37
 70
     1
102
RTVSPropertyOp38
 70
     1
102
RTVSPropertyOp39
 70
     1
102
RTVSPropertyOp40
 70
     1
102
RTVSPropertyOp41
 70
     1
102
RTVSPropertyOp42
 70
     1
102
RTVSPropertyOp43
 70
     1
102
RTVSPropertyOp44
 70
     1
102
RTVSPropertyOp45
 70
     1
102
RTVSPropertyOp46
 70
     1
102
RTVSPropertyOp47
 70
     1
102
RTVSPropertyOp48
 70
     1
102
RTVSPropertyOp49
 70
     1
102
RTVSPropertyOp50
 70
     1
102
RTVSPropertyOp51
 70
     0
102
RTVSPropertyOp52
 70
     0
102
RTVSPropertyOp53
 70
     1
102
RTVSPropertyOp54
 70
     1
102
RTVSPropertyOp55
 70
     1
102
RTVSPropertyOp56
 70
     1
102
RTVSPropertyOp57
 70
     1
102
RTVSPropertyOp58
 70
     1
102
RTVSPropertyOp59
 70
     1
102
RTVSPropertyOp60
 70
     1
102
RTVSPropertyOp61
 70
     1
102
RTVSPropertyOp62
 70
     1
  0
XRECORD
  5
1BA3
102
{ACAD_REACTORS
330
1BA2
102
}
330
1BA2
100
AcDbXrecord
280
     1
102
RTVSPost2010Prop28
280
     0
102
RTVSPost2010PropOp28
 70
     1
102
RTVSPost2010Prop29
280
     1
102
RTVSPost2010PropOp29
 70
     1
102
RTVSPost2010Prop30
280
     1
102
RTVSPost2010PropOp30
 70
     1
102
RTVSPost2010Prop31
280
     0
102
RTVSPost2010PropOp31
 70
     1
102
RTVSPost2010Prop32
280
     0
102
RTVSPost2010PropOp32
 70
     1
102
RTVSPost2010Prop33
280
     0
102
RTVSPost2010PropOp33
 70
     1
102
RTVSPost2010Prop34
280
     0
102
RTVSPost2010PropOp34
 70
     1
102
RTVSPost2010Prop35
280
     0
102
RTVSPost2010PropOp35
 70
     1
102
RTVSPost2010Prop36
280
     0
102
RTVSPost2010PropOp36
 70
     1
102
RTVSPost2010Prop37
 90
       50
102
RTVSPost2010PropOp37
 70
     1
102
RTVSPost2010Prop38
140
0.0
102
RTVSPost2010PropOp38
 70
     1
102
RTVSPost2010Prop39
140
1.0
102
RTVSPost2010PropOp39
 70
     1
102
RTVSPost2010Prop40
 90
        0
102
RTVSPost2010PropOp40
 70
     1
102
RTVSPost2010Prop41ColorIndex
 90
       18
102
RTVSPost2010Prop41ColorRGB
 90
        0
102
RTVSPost2010PropOp41
 70
     1
102
RTVSPost2010Prop42
 90
       50
102
RTVSPost2010PropOp42
 70
     1
102
RTVSPost2010Prop43
 90
        3
102
RTVSPost2010PropOp43
 70
     1
102
RTVSPost2010Prop44ColorIndex
 90
        5
102
RTVSPost2010Prop44ColorRGB
 90
      255
102
RTVSPost2010PropOp44
 70
     1
102
RTVSPost2010Prop45
280
     0
102
RTVSPost2010PropOp45
 70
     1
102
RTVSPost2010Prop46
 90
       50
102
RTVSPost2010PropOp46
 70
     1
102
RTVSPost2010Prop47
 90
       50
102
RTVSPost2010PropOp47
 70
     1
102
RTVSPost2010Prop48
 90
       50
102
RTVSPost2010PropOp48
 70
     1
102
RTVSPost2010Prop49
280
     0
102
RTVSPost2010PropOp49
 70
     1
102
RTVSPost2010Prop50
 90
       50
102
RTVSPost2010PropOp50
 70
     1
102
RTVSPost2010Prop51ColorIndex
 90
      256
102
RTVSPost2010Prop51ColorRGB
 90
-16777216
102
RTVSPost2010PropOp51
 70
     0
102
RTVSPost2010Prop52
140
1.0
102
RTVSPost2010PropOp52
 70
     0
102
RTVSPost2010Prop53
 90
        2
102
RTVSPost2010PropOp53
 70
     1
102
RTVSPost2010Prop54
  1
strokes_ogs.tif
102
RTVSPost2010PropOp54
 70
     1
102
RTVSPost2010Prop55
280
     0
102
RTVSPost2010PropOp55
 70
     1
102
RTVSPost2010Prop56
140
1.0
102
RTVSPost2010PropOp56
 70
     1
102
RTVSPost2010Prop57
140
1.0
102
RTVSPost2010PropOp57
 70
     1
102
RTVSPropertyOp0
 70
     1
102
RTVSPropertyOp1
 70
     1
102
RTVSPropertyOp2
 70
     1
102
RTVSPropertyOp3
 70
     1
102
RTVSPropertyOp4
 70
     1
102
RTVSPropertyOp5
 70
     1
102
RTVSPropertyOp6
 70
     1
102
RTVSPropertyOp7
 70
     1
102
RTVSPropertyOp8
 70
     1
102
RTVSPropertyOp9
 70
     1
102
RTVSPropertyOp10
 70
     1
102
RTVSPropertyOp11
 70
     1
102
RTVSPropertyOp12
 70
     1
102
RTVSPropertyOp13
 70
     1
102
RTVSPropertyOp14
 70
     1
102
RTVSPropertyOp15
 70
     1
102
RTVSPropertyOp16
 70
     1
102
RTVSPropertyOp17
 70
     1
102
RTVSPropertyOp18
 70
     1
102
RTVSPropertyOp19
 70
     1
102
RTVSPropertyOp20
 70
     1
102
RTVSPropertyOp21
 70
     1
102
RTVSPropertyOp22
 70
     1
102
RTVSPropertyOp23
 70
     1
102
RTVSPropertyOp24
 70
     1
102
RTVSPropertyOp25
 70
     1
102
RTVSPropertyOp26
 70
     1
102
RTVSPropertyOp27
 70
     1
102
RTVSPropertyOp28
 70
     1
102
RTVSPropertyOp29
 70
     1
102
RTVSPropertyOp30
 70
     1
102
RTVSPropertyOp31
 70
     1
102
RTVSPropertyOp32
 70
     1
102
RTVSPropertyOp33
 70
     1
102
RTVSPropertyOp34
 70
     1
102
RTVSPropertyOp35
 70
     1
102
RTVSPropertyOp36
 70
     1
102
RTVSPropertyOp37
 70
     1
102
RTVSPropertyOp38
 70
     1
102
RTVSPropertyOp39
 70
     1
102
RTVSPropertyOp40
 70
     1
102
RTVSPropertyOp41
 70
     1
102
RTVSPropertyOp42
 70
     1
102
RTVSPropertyOp43
 70
     1
102
RTVSPropertyOp44
 70
     1
102
RTVSPropertyOp45
 70
     1
102
RTVSPropertyOp46
 70
     1
102
RTVSPropertyOp47
 70
     1
102
RTVSPropertyOp48
 70
     1
102
RTVSPropertyOp49
 70
     1
102
RTVSPropertyOp50
 70
     1
102
RTVSPropertyOp51
 70
     0
102
RTVSPropertyOp52
 70
     0
102
RTVSPropertyOp53
 70
     1
102
RTVSPropertyOp54
 70
     1
102
RTVSPropertyOp55
 70
     1
102
RTVSPropertyOp56
 70
     1
102
RTVSPropertyOp57
 70
     1
102
RTVSPropertyOp58
 70
     1
102
RTVSPropertyOp59
 70
     1
102
RTVSPropertyOp60
 70
     1
102
RTVSPropertyOp61
 70
     1
102
RTVSPropertyOp62
 70
     1
  0
XRECORD
  5
1BA1
102
{ACAD_REACTORS
330
1BA0
102
}
330
1BA0
100
AcDbXrecord
280
     1
102
RTVSPost2010Prop28
280
     0
102
RTVSPost2010PropOp28
 70
     1
102
RTVSPost2010Prop29
280
     1
102
RTVSPost2010PropOp29
 70
     1
102
RTVSPost2010Prop30
280
     1
102
RTVSPost2010PropOp30
 70
     1
102
RTVSPost2010Prop31
280
     0
102
RTVSPost2010PropOp31
 70
     1
102
RTVSPost2010Prop32
280
     0
102
RTVSPost2010PropOp32
 70
     1
102
RTVSPost2010Prop33
280
     0
102
RTVSPost2010PropOp33
 70
     1
102
RTVSPost2010Prop34
280
     0
102
RTVSPost2010PropOp34
 70
     1
102
RTVSPost2010Prop35
280
     0
102
RTVSPost2010PropOp35
 70
     1
102
RTVSPost2010Prop36
280
     0
102
RTVSPost2010PropOp36
 70
     1
102
RTVSPost2010Prop37
 90
       50
102
RTVSPost2010PropOp37
 70
     1
102
RTVSPost2010Prop38
140
0.0
102
RTVSPost2010PropOp38
 70
     1
102
RTVSPost2010Prop39
140
1.0
102
RTVSPost2010PropOp39
 70
     1
102
RTVSPost2010Prop40
 90
        0
102
RTVSPost2010PropOp40
 70
     1
102
RTVSPost2010Prop41ColorIndex
 90
       18
102
RTVSPost2010Prop41ColorRGB
 90
        0
102
RTVSPost2010PropOp41
 70
     1
102
RTVSPost2010Prop42
 90
       50
102
RTVSPost2010PropOp42
 70
     1
102
RTVSPost2010Prop43
 90
        3
102
RTVSPost2010PropOp43
 70
     1
102
RTVSPost2010Prop44ColorIndex
 90
        5
102
RTVSPost2010Prop44ColorRGB
 90
      255
102
RTVSPost2010PropOp44
 70
     1
102
RTVSPost2010Prop45
280
     0
102
RTVSPost2010PropOp45
 70
     1
102
RTVSPost2010Prop46
 90
       50
102
RTVSPost2010PropOp46
 70
     1
102
RTVSPost2010Prop47
 90
       50
102
RTVSPost2010PropOp47
 70
     1
102
RTVSPost2010Prop48
 90
       50
102
RTVSPost2010PropOp48
 70
     1
102
RTVSPost2010Prop49
280
     0
102
RTVSPost2010PropOp49
 70
     1
102
RTVSPost2010Prop50
 90
       50
102
RTVSPost2010PropOp50
 70
     1
102
RTVSPost2010Prop51ColorIndex
 90
      256
102
RTVSPost2010Prop51ColorRGB
 90
-16777216
102
RTVSPost2010PropOp51
 70
     0
102
RTVSPost2010Prop52
140
1.0
102
RTVSPost2010PropOp52
 70
     0
102
RTVSPost2010Prop53
 90
        2
102
RTVSPost2010PropOp53
 70
     1
102
RTVSPost2010Prop54
  1
strokes_ogs.tif
102
RTVSPost2010PropOp54
 70
     1
102
RTVSPost2010Prop55
280
     0
102
RTVSPost2010PropOp55
 70
     1
102
RTVSPost2010Prop56
140
1.0
102
RTVSPost2010PropOp56
 70
     1
102
RTVSPost2010Prop57
140
1.0
102
RTVSPost2010PropOp57
 70
     1
102
RTVSPropertyOp0
 70
     1
102
RTVSPropertyOp1
 70
     1
102
RTVSPropertyOp2
 70
     1
102
RTVSPropertyOp3
 70
     1
102
RTVSPropertyOp4
 70
     1
102
RTVSPropertyOp5
 70
     1
102
RTVSPropertyOp6
 70
     1
102
RTVSPropertyOp7
 70
     1
102
RTVSPropertyOp8
 70
     1
102
RTVSPropertyOp9
 70
     1
102
RTVSPropertyOp10
 70
     1
102
RTVSPropertyOp11
 70
     1
102
RTVSPropertyOp12
 70
     1
102
RTVSPropertyOp13
 70
     1
102
RTVSPropertyOp14
 70
     1
102
RTVSPropertyOp15
 70
     1
102
RTVSPropertyOp16
 70
     1
102
RTVSPropertyOp17
 70
     1
102
RTVSPropertyOp18
 70
     1
102
RTVSPropertyOp19
 70
     1
102
RTVSPropertyOp20
 70
     1
102
RTVSPropertyOp21
 70
     1
102
RTVSPropertyOp22
 70
     1
102
RTVSPropertyOp23
 70
     1
102
RTVSPropertyOp24
 70
     1
102
RTVSPropertyOp25
 70
     1
102
RTVSPropertyOp26
 70
     1
102
RTVSPropertyOp27
 70
     1
102
RTVSPropertyOp28
 70
     1
102
RTVSPropertyOp29
 70
     1
102
RTVSPropertyOp30
 70
     1
102
RTVSPropertyOp31
 70
     1
102
RTVSPropertyOp32
 70
     1
102
RTVSPropertyOp33
 70
     1
102
RTVSPropertyOp34
 70
     1
102
RTVSPropertyOp35
 70
     1
102
RTVSPropertyOp36
 70
     1
102
RTVSPropertyOp37
 70
     1
102
RTVSPropertyOp38
 70
     1
102
RTVSPropertyOp39
 70
     1
102
RTVSPropertyOp40
 70
     1
102
RTVSPropertyOp41
 70
     1
102
RTVSPropertyOp42
 70
     1
102
RTVSPropertyOp43
 70
     1
102
RTVSPropertyOp44
 70
     1
102
RTVSPropertyOp45
 70
     1
102
RTVSPropertyOp46
 70
     1
102
RTVSPropertyOp47
 70
     1
102
RTVSPropertyOp48
 70
     1
102
RTVSPropertyOp49
 70
     1
102
RTVSPropertyOp50
 70
     1
102
RTVSPropertyOp51
 70
     0
102
RTVSPropertyOp52
 70
     0
102
RTVSPropertyOp53
 70
     1
102
RTVSPropertyOp54
 70
     1
102
RTVSPropertyOp55
 70
     1
102
RTVSPropertyOp56
 70
     1
102
RTVSPropertyOp57
 70
     1
102
RTVSPropertyOp58
 70
     1
102
RTVSPropertyOp59
 70
     1
102
RTVSPropertyOp60
 70
     1
102
RTVSPropertyOp61
 70
     1
102
RTVSPropertyOp62
 70
     1
  0
XRECORD
  5
1B9B
102
{ACAD_REACTORS
330
1B9A
102
}
330
1B9A
100
AcDbXrecord
280
     1
102
RTVSPost2010Prop28
280
     0
102
RTVSPost2010PropOp28
 70
     1
102
RTVSPost2010Prop29
280
     1
102
RTVSPost2010PropOp29
 70
     1
102
RTVSPost2010Prop30
280
     1
102
RTVSPost2010PropOp30
 70
     1
102
RTVSPost2010Prop31
280
     0
102
RTVSPost2010PropOp31
 70
     1
102
RTVSPost2010Prop32
280
     0
102
RTVSPost2010PropOp32
 70
     1
102
RTVSPost2010Prop33
280
     0
102
RTVSPost2010PropOp33
 70
     1
102
RTVSPost2010Prop34
280
     0
102
RTVSPost2010PropOp34
 70
     1
102
RTVSPost2010Prop35
280
     0
102
RTVSPost2010PropOp35
 70
     1
102
RTVSPost2010Prop36
280
     0
102
RTVSPost2010PropOp36
 70
     1
102
RTVSPost2010Prop37
 90
       50
102
RTVSPost2010PropOp37
 70
     1
102
RTVSPost2010Prop38
140
0.0
102
RTVSPost2010PropOp38
 70
     1
102
RTVSPost2010Prop39
140
1.0
102
RTVSPost2010PropOp39
 70
     1
102
RTVSPost2010Prop40
 90
        0
102
RTVSPost2010PropOp40
 70
     1
102
RTVSPost2010Prop41ColorIndex
 90
       18
102
RTVSPost2010Prop41ColorRGB
 90
        0
102
RTVSPost2010PropOp41
 70
     1
102
RTVSPost2010Prop42
 90
       50
102
RTVSPost2010PropOp42
 70
     1
102
RTVSPost2010Prop43
 90
        3
102
RTVSPost2010PropOp43
 70
     1
102
RTVSPost2010Prop44ColorIndex
 90
        5
102
RTVSPost2010Prop44ColorRGB
 90
      255
102
RTVSPost2010PropOp44
 70
     1
102
RTVSPost2010Prop45
280
     0
102
RTVSPost2010PropOp45
 70
     1
102
RTVSPost2010Prop46
 90
       50
102
RTVSPost2010PropOp46
 70
     1
102
RTVSPost2010Prop47
 90
       50
102
RTVSPost2010PropOp47
 70
     1
102
RTVSPost2010Prop48
 90
       50
102
RTVSPost2010PropOp48
 70
     1
102
RTVSPost2010Prop49
280
     0
102
RTVSPost2010PropOp49
 70
     1
102
RTVSPost2010Prop50
 90
       50
102
RTVSPost2010PropOp50
 70
     1
102
RTVSPost2010Prop51ColorIndex
 90
      256
102
RTVSPost2010Prop51ColorRGB
 90
-16777216
102
RTVSPost2010PropOp51
 70
     0
102
RTVSPost2010Prop52
140
1.0
102
RTVSPost2010PropOp52
 70
     0
102
RTVSPost2010Prop53
 90
        2
102
RTVSPost2010PropOp53
 70
     1
102
RTVSPost2010Prop54
  1
strokes_ogs.tif
102
RTVSPost2010PropOp54
 70
     1
102
RTVSPost2010Prop55
280
     0
102
RTVSPost2010PropOp55
 70
     1
102
RTVSPost2010Prop56
140
1.0
102
RTVSPost2010PropOp56
 70
     1
102
RTVSPost2010Prop57
140
1.0
102
RTVSPost2010PropOp57
 70
     1
102
RTVSPropertyOp0
 70
     1
102
RTVSPropertyOp1
 70
     1
102
RTVSPropertyOp2
 70
     1
102
RTVSPropertyOp3
 70
     1
102
RTVSPropertyOp4
 70
     1
102
RTVSPropertyOp5
 70
     1
102
RTVSPropertyOp6
 70
     1
102
RTVSPropertyOp7
 70
     1
102
RTVSPropertyOp8
 70
     1
102
RTVSPropertyOp9
 70
     1
102
RTVSPropertyOp10
 70
     1
102
RTVSPropertyOp11
 70
     1
102
RTVSPropertyOp12
 70
     1
102
RTVSPropertyOp13
 70
     1
102
RTVSPropertyOp14
 70
     1
102
RTVSPropertyOp15
 70
     1
102
RTVSPropertyOp16
 70
     1
102
RTVSPropertyOp17
 70
     1
102
RTVSPropertyOp18
 70
     1
102
RTVSPropertyOp19
 70
     1
102
RTVSPropertyOp20
 70
     1
102
RTVSPropertyOp21
 70
     1
102
RTVSPropertyOp22
 70
     1
102
RTVSPropertyOp23
 70
     1
102
RTVSPropertyOp24
 70
     1
102
RTVSPropertyOp25
 70
     1
102
RTVSPropertyOp26
 70
     1
102
RTVSPropertyOp27
 70
     1
102
RTVSPropertyOp28
 70
     1
102
RTVSPropertyOp29
 70
     1
102
RTVSPropertyOp30
 70
     1
102
RTVSPropertyOp31
 70
     1
102
RTVSPropertyOp32
 70
     1
102
RTVSPropertyOp33
 70
     1
102
RTVSPropertyOp34
 70
     1
102
RTVSPropertyOp35
 70
     1
102
RTVSPropertyOp36
 70
     1
102
RTVSPropertyOp37
 70
     1
102
RTVSPropertyOp38
 70
     1
102
RTVSPropertyOp39
 70
     1
102
RTVSPropertyOp40
 70
     1
102
RTVSPropertyOp41
 70
     1
102
RTVSPropertyOp42
 70
     1
102
RTVSPropertyOp43
 70
     1
102
RTVSPropertyOp44
 70
     1
102
RTVSPropertyOp45
 70
     1
102
RTVSPropertyOp46
 70
     1
102
RTVSPropertyOp47
 70
     1
102
RTVSPropertyOp48
 70
     1
102
RTVSPropertyOp49
 70
     1
102
RTVSPropertyOp50
 70
     1
102
RTVSPropertyOp51
 70
     0
102
RTVSPropertyOp52
 70
     0
102
RTVSPropertyOp53
 70
     1
102
RTVSPropertyOp54
 70
     1
102
RTVSPropertyOp55
 70
     1
102
RTVSPropertyOp56
 70
     1
102
RTVSPropertyOp57
 70
     1
102
RTVSPropertyOp58
 70
     1
102
RTVSPropertyOp59
 70
     1
102
RTVSPropertyOp60
 70
     1
102
RTVSPropertyOp61
 70
     1
102
RTVSPropertyOp62
 70
     1
  0
XRECORD
  5
1B9D
102
{ACAD_REACTORS
330
1B9C
102
}
330
1B9C
100
AcDbXrecord
280
     1
102
RTVSPost2010Prop28
280
     0
102
RTVSPost2010PropOp28
 70
     1
102
RTVSPost2010Prop29
280
     1
102
RTVSPost2010PropOp29
 70
     1
102
RTVSPost2010Prop30
280
     1
102
RTVSPost2010PropOp30
 70
     1
102
RTVSPost2010Prop31
280
     0
102
RTVSPost2010PropOp31
 70
     1
102
RTVSPost2010Prop32
280
     0
102
RTVSPost2010PropOp32
 70
     1
102
RTVSPost2010Prop33
280
     0
102
RTVSPost2010PropOp33
 70
     1
102
RTVSPost2010Prop34
280
     0
102
RTVSPost2010PropOp34
 70
     1
102
RTVSPost2010Prop35
280
     0
102
RTVSPost2010PropOp35
 70
     1
102
RTVSPost2010Prop36
280
     0
102
RTVSPost2010PropOp36
 70
     1
102
RTVSPost2010Prop37
 90
       50
102
RTVSPost2010PropOp37
 70
     1
102
RTVSPost2010Prop38
140
0.0
102
RTVSPost2010PropOp38
 70
     1
102
RTVSPost2010Prop39
140
1.0
102
RTVSPost2010PropOp39
 70
     1
102
RTVSPost2010Prop40
 90
        0
102
RTVSPost2010PropOp40
 70
     1
102
RTVSPost2010Prop41ColorIndex
 90
       18
102
RTVSPost2010Prop41ColorRGB
 90
        0
102
RTVSPost2010PropOp41
 70
     1
102
RTVSPost2010Prop42
 90
       50
102
RTVSPost2010PropOp42
 70
     1
102
RTVSPost2010Prop43
 90
        3
102
RTVSPost2010PropOp43
 70
     1
102
RTVSPost2010Prop44ColorIndex
 90
        5
102
RTVSPost2010Prop44ColorRGB
 90
      255
102
RTVSPost2010PropOp44
 70
     1
102
RTVSPost2010Prop45
280
     0
102
RTVSPost2010PropOp45
 70
     1
102
RTVSPost2010Prop46
 90
       50
102
RTVSPost2010PropOp46
 70
     1
102
RTVSPost2010Prop47
 90
       50
102
RTVSPost2010PropOp47
 70
     1
102
RTVSPost2010Prop48
 90
       50
102
RTVSPost2010PropOp48
 70
     1
102
RTVSPost2010Prop49
280
     0
102
RTVSPost2010PropOp49
 70
     1
102
RTVSPost2010Prop50
 90
       50
102
RTVSPost2010PropOp50
 70
     1
102
RTVSPost2010Prop51ColorIndex
 90
      256
102
RTVSPost2010Prop51ColorRGB
 90
-16777216
102
RTVSPost2010PropOp51
 70
     0
102
RTVSPost2010Prop52
140
1.0
102
RTVSPost2010PropOp52
 70
     0
102
RTVSPost2010Prop53
 90
        2
102
RTVSPost2010PropOp53
 70
     1
102
RTVSPost2010Prop54
  1
strokes_ogs.tif
102
RTVSPost2010PropOp54
 70
     1
102
RTVSPost2010Prop55
280
     0
102
RTVSPost2010PropOp55
 70
     1
102
RTVSPost2010Prop56
140
1.0
102
RTVSPost2010PropOp56
 70
     1
102
RTVSPost2010Prop57
140
1.0
102
RTVSPost2010PropOp57
 70
     1
102
RTVSPropertyOp0
 70
     1
102
RTVSPropertyOp1
 70
     1
102
RTVSPropertyOp2
 70
     1
102
RTVSPropertyOp3
 70
     1
102
RTVSPropertyOp4
 70
     1
102
RTVSPropertyOp5
 70
     1
102
RTVSPropertyOp6
 70
     1
102
RTVSPropertyOp7
 70
     1
102
RTVSPropertyOp8
 70
     1
102
RTVSPropertyOp9
 70
     1
102
RTVSPropertyOp10
 70
     1
102
RTVSPropertyOp11
 70
     1
102
RTVSPropertyOp12
 70
     1
102
RTVSPropertyOp13
 70
     1
102
RTVSPropertyOp14
 70
     1
102
RTVSPropertyOp15
 70
     1
102
RTVSPropertyOp16
 70
     1
102
RTVSPropertyOp17
 70
     1
102
RTVSPropertyOp18
 70
     1
102
RTVSPropertyOp19
 70
     1
102
RTVSPropertyOp20
 70
     1
102
RTVSPropertyOp21
 70
     1
102
RTVSPropertyOp22
 70
     1
102
RTVSPropertyOp23
 70
     1
102
RTVSPropertyOp24
 70
     1
102
RTVSPropertyOp25
 70
     1
102
RTVSPropertyOp26
 70
     1
102
RTVSPropertyOp27
 70
     1
102
RTVSPropertyOp28
 70
     1
102
RTVSPropertyOp29
 70
     1
102
RTVSPropertyOp30
 70
     1
102
RTVSPropertyOp31
 70
     1
102
RTVSPropertyOp32
 70
     1
102
RTVSPropertyOp33
 70
     1
102
RTVSPropertyOp34
 70
     1
102
RTVSPropertyOp35
 70
     1
102
RTVSPropertyOp36
 70
     1
102
RTVSPropertyOp37
 70
     1
102
RTVSPropertyOp38
 70
     1
102
RTVSPropertyOp39
 70
     1
102
RTVSPropertyOp40
 70
     1
102
RTVSPropertyOp41
 70
     1
102
RTVSPropertyOp42
 70
     1
102
RTVSPropertyOp43
 70
     1
102
RTVSPropertyOp44
 70
     1
102
RTVSPropertyOp45
 70
     1
102
RTVSPropertyOp46
 70
     1
102
RTVSPropertyOp47
 70
     1
102
RTVSPropertyOp48
 70
     1
102
RTVSPropertyOp49
 70
     1
102
RTVSPropertyOp50
 70
     1
102
RTVSPropertyOp51
 70
     0
102
RTVSPropertyOp52
 70
     0
102
RTVSPropertyOp53
 70
     1
102
RTVSPropertyOp54
 70
     1
102
RTVSPropertyOp55
 70
     1
102
RTVSPropertyOp56
 70
     1
102
RTVSPropertyOp57
 70
     1
102
RTVSPropertyOp58
 70
     1
102
RTVSPropertyOp59
 70
     1
102
RTVSPropertyOp60
 70
     1
102
RTVSPropertyOp61
 70
     1
102
RTVSPropertyOp62
 70
     1
  0
XRECORD
  5
1B93
102
{ACAD_REACTORS
330
1B92
102
}
330
1B92
100
AcDbXrecord
280
     1
102
RTVSPost2010Prop28
280
     0
102
RTVSPost2010PropOp28
 70
     1
102
RTVSPost2010Prop29
280
     1
102
RTVSPost2010PropOp29
 70
     1
102
RTVSPost2010Prop30
280
     1
102
RTVSPost2010PropOp30
 70
     1
102
RTVSPost2010Prop31
280
     0
102
RTVSPost2010PropOp31
 70
     1
102
RTVSPost2010Prop32
280
     0
102
RTVSPost2010PropOp32
 70
     1
102
RTVSPost2010Prop33
280
     0
102
RTVSPost2010PropOp33
 70
     1
102
RTVSPost2010Prop34
280
     0
102
RTVSPost2010PropOp34
 70
     1
102
RTVSPost2010Prop35
280
     0
102
RTVSPost2010PropOp35
 70
     1
102
RTVSPost2010Prop36
280
     0
102
RTVSPost2010PropOp36
 70
     1
102
RTVSPost2010Prop37
 90
       50
102
RTVSPost2010PropOp37
 70
     1
102
RTVSPost2010Prop38
140
0.0
102
RTVSPost2010PropOp38
 70
     1
102
RTVSPost2010Prop39
140
1.0
102
RTVSPost2010PropOp39
 70
     1
102
RTVSPost2010Prop40
 90
        0
102
RTVSPost2010PropOp40
 70
     1
102
RTVSPost2010Prop41ColorIndex
 90
       18
102
RTVSPost2010Prop41ColorRGB
 90
        0
102
RTVSPost2010PropOp41
 70
     1
102
RTVSPost2010Prop42
 90
       50
102
RTVSPost2010PropOp42
 70
     1
102
RTVSPost2010Prop43
 90
        3
102
RTVSPost2010PropOp43
 70
     1
102
RTVSPost2010Prop44ColorIndex
 90
        5
102
RTVSPost2010Prop44ColorRGB
 90
      255
102
RTVSPost2010PropOp44
 70
     1
102
RTVSPost2010Prop45
280
     0
102
RTVSPost2010PropOp45
 70
     1
102
RTVSPost2010Prop46
 90
       50
102
RTVSPost2010PropOp46
 70
     1
102
RTVSPost2010Prop47
 90
       50
102
RTVSPost2010PropOp47
 70
     1
102
RTVSPost2010Prop48
 90
       50
102
RTVSPost2010PropOp48
 70
     1
102
RTVSPost2010Prop49
280
     0
102
RTVSPost2010PropOp49
 70
     1
102
RTVSPost2010Prop50
 90
       50
102
RTVSPost2010PropOp50
 70
     1
102
RTVSPost2010Prop51ColorIndex
 90
      256
102
RTVSPost2010Prop51ColorRGB
 90
-16777216
102
RTVSPost2010PropOp51
 70
     0
102
RTVSPost2010Prop52
140
1.0
102
RTVSPost2010PropOp52
 70
     0
102
RTVSPost2010Prop53
 90
        2
102
RTVSPost2010PropOp53
 70
     1
102
RTVSPost2010Prop54
  1
strokes_ogs.tif
102
RTVSPost2010PropOp54
 70
     1
102
RTVSPost2010Prop55
280
     0
102
RTVSPost2010PropOp55
 70
     1
102
RTVSPost2010Prop56
140
1.0
102
RTVSPost2010PropOp56
 70
     1
102
RTVSPost2010Prop57
140
1.0
102
RTVSPost2010PropOp57
 70
     1
102
RTVSPropertyOp0
 70
     1
102
RTVSPropertyOp1
 70
     1
102
RTVSPropertyOp2
 70
     1
102
RTVSPropertyOp3
 70
     1
102
RTVSPropertyOp4
 70
     1
102
RTVSPropertyOp5
 70
     1
102
RTVSPropertyOp6
 70
     1
102
RTVSPropertyOp7
 70
     1
102
RTVSPropertyOp8
 70
     1
102
RTVSPropertyOp9
 70
     1
102
RTVSPropertyOp10
 70
     1
102
RTVSPropertyOp11
 70
     1
102
RTVSPropertyOp12
 70
     1
102
RTVSPropertyOp13
 70
     1
102
RTVSPropertyOp14
 70
     1
102
RTVSPropertyOp15
 70
     1
102
RTVSPropertyOp16
 70
     1
102
RTVSPropertyOp17
 70
     1
102
RTVSPropertyOp18
 70
     1
102
RTVSPropertyOp19
 70
     1
102
RTVSPropertyOp20
 70
     1
102
RTVSPropertyOp21
 70
     1
102
RTVSPropertyOp22
 70
     1
102
RTVSPropertyOp23
 70
     1
102
RTVSPropertyOp24
 70
     1
102
RTVSPropertyOp25
 70
     1
102
RTVSPropertyOp26
 70
     1
102
RTVSPropertyOp27
 70
     1
102
RTVSPropertyOp28
 70
     1
102
RTVSPropertyOp29
 70
     1
102
RTVSPropertyOp30
 70
     1
102
RTVSPropertyOp31
 70
     1
102
RTVSPropertyOp32
 70
     1
102
RTVSPropertyOp33
 70
     1
102
RTVSPropertyOp34
 70
     1
102
RTVSPropertyOp35
 70
     1
102
RTVSPropertyOp36
 70
     1
102
RTVSPropertyOp37
 70
     1
102
RTVSPropertyOp38
 70
     1
102
RTVSPropertyOp39
 70
     1
102
RTVSPropertyOp40
 70
     1
102
RTVSPropertyOp41
 70
     1
102
RTVSPropertyOp42
 70
     1
102
RTVSPropertyOp43
 70
     1
102
RTVSPropertyOp44
 70
     1
102
RTVSPropertyOp45
 70
     1
102
RTVSPropertyOp46
 70
     1
102
RTVSPropertyOp47
 70
     1
102
RTVSPropertyOp48
 70
     1
102
RTVSPropertyOp49
 70
     1
102
RTVSPropertyOp50
 70
     1
102
RTVSPropertyOp51
 70
     0
102
RTVSPropertyOp52
 70
     0
102
RTVSPropertyOp53
 70
     1
102
RTVSPropertyOp54
 70
     1
102
RTVSPropertyOp55
 70
     1
102
RTVSPropertyOp56
 70
     1
102
RTVSPropertyOp57
 70
     1
102
RTVSPropertyOp58
 70
     1
102
RTVSPropertyOp59
 70
     1
102
RTVSPropertyOp60
 70
     1
102
RTVSPropertyOp61
 70
     1
102
RTVSPropertyOp62
 70
     1
  0
XRECORD
  5
1B87
102
{ACAD_REACTORS
330
1B86
102
}
330
1B86
100
AcDbXrecord
280
     1
102
RTVSPost2010Prop28
280
     0
102
RTVSPost2010PropOp28
 70
     1
102
RTVSPost2010Prop29
280
     1
102
RTVSPost2010PropOp29
 70
     1
102
RTVSPost2010Prop30
280
     1
102
RTVSPost2010PropOp30
 70
     1
102
RTVSPost2010Prop31
280
     0
102
RTVSPost2010PropOp31
 70
     1
102
RTVSPost2010Prop32
280
     0
102
RTVSPost2010PropOp32
 70
     1
102
RTVSPost2010Prop33
280
     0
102
RTVSPost2010PropOp33
 70
     1
102
RTVSPost2010Prop34
280
     0
102
RTVSPost2010PropOp34
 70
     1
102
RTVSPost2010Prop35
280
     0
102
RTVSPost2010PropOp35
 70
     1
102
RTVSPost2010Prop36
280
     0
102
RTVSPost2010PropOp36
 70
     1
102
RTVSPost2010Prop37
 90
       50
102
RTVSPost2010PropOp37
 70
     1
102
RTVSPost2010Prop38
140
0.0
102
RTVSPost2010PropOp38
 70
     1
102
RTVSPost2010Prop39
140
1.0
102
RTVSPost2010PropOp39
 70
     1
102
RTVSPost2010Prop40
 90
        0
102
RTVSPost2010PropOp40
 70
     1
102
RTVSPost2010Prop41ColorIndex
 90
       18
102
RTVSPost2010Prop41ColorRGB
 90
        0
102
RTVSPost2010PropOp41
 70
     1
102
RTVSPost2010Prop42
 90
       50
102
RTVSPost2010PropOp42
 70
     1
102
RTVSPost2010Prop43
 90
        3
102
RTVSPost2010PropOp43
 70
     1
102
RTVSPost2010Prop44ColorIndex
 90
        5
102
RTVSPost2010Prop44ColorRGB
 90
      255
102
RTVSPost2010PropOp44
 70
     1
102
RTVSPost2010Prop45
280
     0
102
RTVSPost2010PropOp45
 70
     1
102
RTVSPost2010Prop46
 90
       50
102
RTVSPost2010PropOp46
 70
     1
102
RTVSPost2010Prop47
 90
       50
102
RTVSPost2010PropOp47
 70
     1
102
RTVSPost2010Prop48
 90
       50
102
RTVSPost2010PropOp48
 70
     1
102
RTVSPost2010Prop49
280
     0
102
RTVSPost2010PropOp49
 70
     1
102
RTVSPost2010Prop50
 90
       50
102
RTVSPost2010PropOp50
 70
     1
102
RTVSPost2010Prop51ColorIndex
 90
      256
102
RTVSPost2010Prop51ColorRGB
 90
-16777216
102
RTVSPost2010PropOp51
 70
     0
102
RTVSPost2010Prop52
140
1.0
102
RTVSPost2010PropOp52
 70
     0
102
RTVSPost2010Prop53
 90
        2
102
RTVSPost2010PropOp53
 70
     1
102
RTVSPost2010Prop54
  1
strokes_ogs.tif
102
RTVSPost2010PropOp54
 70
     1
102
RTVSPost2010Prop55
280
     0
102
RTVSPost2010PropOp55
 70
     1
102
RTVSPost2010Prop56
140
1.0
102
RTVSPost2010PropOp56
 70
     1
102
RTVSPost2010Prop57
140
1.0
102
RTVSPost2010PropOp57
 70
     1
102
RTVSPropertyOp0
 70
     1
102
RTVSPropertyOp1
 70
     1
102
RTVSPropertyOp2
 70
     1
102
RTVSPropertyOp3
 70
     1
102
RTVSPropertyOp4
 70
     1
102
RTVSPropertyOp5
 70
     1
102
RTVSPropertyOp6
 70
     1
102
RTVSPropertyOp7
 70
     1
102
RTVSPropertyOp8
 70
     1
102
RTVSPropertyOp9
 70
     1
102
RTVSPropertyOp10
 70
     1
102
RTVSPropertyOp11
 70
     1
102
RTVSPropertyOp12
 70
     1
102
RTVSPropertyOp13
 70
     1
102
RTVSPropertyOp14
 70
     1
102
RTVSPropertyOp15
 70
     1
102
RTVSPropertyOp16
 70
     1
102
RTVSPropertyOp17
 70
     1
102
RTVSPropertyOp18
 70
     1
102
RTVSPropertyOp19
 70
     1
102
RTVSPropertyOp20
 70
     1
102
RTVSPropertyOp21
 70
     1
102
RTVSPropertyOp22
 70
     1
102
RTVSPropertyOp23
 70
     1
102
RTVSPropertyOp24
 70
     1
102
RTVSPropertyOp25
 70
     1
102
RTVSPropertyOp26
 70
     1
102
RTVSPropertyOp27
 70
     1
102
RTVSPropertyOp28
 70
     1
102
RTVSPropertyOp29
 70
     1
102
RTVSPropertyOp30
 70
     1
102
RTVSPropertyOp31
 70
     1
102
RTVSPropertyOp32
 70
     1
102
RTVSPropertyOp33
 70
     1
102
RTVSPropertyOp34
 70
     1
102
RTVSPropertyOp35
 70
     1
102
RTVSPropertyOp36
 70
     1
102
RTVSPropertyOp37
 70
     1
102
RTVSPropertyOp38
 70
     1
102
RTVSPropertyOp39
 70
     1
102
RTVSPropertyOp40
 70
     1
102
RTVSPropertyOp41
 70
     1
102
RTVSPropertyOp42
 70
     1
102
RTVSPropertyOp43
 70
     1
102
RTVSPropertyOp44
 70
     1
102
RTVSPropertyOp45
 70
     1
102
RTVSPropertyOp46
 70
     1
102
RTVSPropertyOp47
 70
     1
102
RTVSPropertyOp48
 70
     1
102
RTVSPropertyOp49
 70
     1
102
RTVSPropertyOp50
 70
     1
102
RTVSPropertyOp51
 70
     0
102
RTVSPropertyOp52
 70
     0
102
RTVSPropertyOp53
 70
     1
102
RTVSPropertyOp54
 70
     1
102
RTVSPropertyOp55
 70
     1
102
RTVSPropertyOp56
 70
     1
102
RTVSPropertyOp57
 70
     1
102
RTVSPropertyOp58
 70
     1
102
RTVSPropertyOp59
 70
     1
102
RTVSPropertyOp60
 70
     1
102
RTVSPropertyOp61
 70
     1
102
RTVSPropertyOp62
 70
     1
  0
XRECORD
  5
1B9F
102
{ACAD_REACTORS
330
1B9E
102
}
330
1B9E
100
AcDbXrecord
280
     1
102
RTVSPost2010Prop28
280
     0
102
RTVSPost2010PropOp28
 70
     1
102
RTVSPost2010Prop29
280
     1
102
RTVSPost2010PropOp29
 70
     1
102
RTVSPost2010Prop30
280
     1
102
RTVSPost2010PropOp30
 70
     1
102
RTVSPost2010Prop31
280
     0
102
RTVSPost2010PropOp31
 70
     1
102
RTVSPost2010Prop32
280
     0
102
RTVSPost2010PropOp32
 70
     1
102
RTVSPost2010Prop33
280
     0
102
RTVSPost2010PropOp33
 70
     1
102
RTVSPost2010Prop34
280
     0
102
RTVSPost2010PropOp34
 70
     1
102
RTVSPost2010Prop35
280
     0
102
RTVSPost2010PropOp35
 70
     1
102
RTVSPost2010Prop36
280
     0
102
RTVSPost2010PropOp36
 70
     1
102
RTVSPost2010Prop37
 90
       50
102
RTVSPost2010PropOp37
 70
     1
102
RTVSPost2010Prop38
140
0.0
102
RTVSPost2010PropOp38
 70
     1
102
RTVSPost2010Prop39
140
1.0
102
RTVSPost2010PropOp39
 70
     1
102
RTVSPost2010Prop40
 90
        0
102
RTVSPost2010PropOp40
 70
     1
102
RTVSPost2010Prop41ColorIndex
 90
       18
102
RTVSPost2010Prop41ColorRGB
 90
        0
102
RTVSPost2010PropOp41
 70
     1
102
RTVSPost2010Prop42
 90
       50
102
RTVSPost2010PropOp42
 70
     1
102
RTVSPost2010Prop43
 90
        3
102
RTVSPost2010PropOp43
 70
     1
102
RTVSPost2010Prop44ColorIndex
 90
        5
102
RTVSPost2010Prop44ColorRGB
 90
      255
102
RTVSPost2010PropOp44
 70
     1
102
RTVSPost2010Prop45
280
     0
102
RTVSPost2010PropOp45
 70
     1
102
RTVSPost2010Prop46
 90
       50
102
RTVSPost2010PropOp46
 70
     1
102
RTVSPost2010Prop47
 90
       50
102
RTVSPost2010PropOp47
 70
     1
102
RTVSPost2010Prop48
 90
       50
102
RTVSPost2010PropOp48
 70
     1
102
RTVSPost2010Prop49
280
     0
102
RTVSPost2010PropOp49
 70
     1
102
RTVSPost2010Prop50
 90
       50
102
RTVSPost2010PropOp50
 70
     1
102
RTVSPost2010Prop51ColorIndex
 90
      256
102
RTVSPost2010Prop51ColorRGB
 90
-16777216
102
RTVSPost2010PropOp51
 70
     0
102
RTVSPost2010Prop52
140
1.0
102
RTVSPost2010PropOp52
 70
     0
102
RTVSPost2010Prop53
 90
        2
102
RTVSPost2010PropOp53
 70
     1
102
RTVSPost2010Prop54
  1
strokes_ogs.tif
102
RTVSPost2010PropOp54
 70
     1
102
RTVSPost2010Prop55
280
     0
102
RTVSPost2010PropOp55
 70
     1
102
RTVSPost2010Prop56
140
1.0
102
RTVSPost2010PropOp56
 70
     1
102
RTVSPost2010Prop57
140
1.0
102
RTVSPost2010PropOp57
 70
     1
102
RTVSPropertyOp0
 70
     1
102
RTVSPropertyOp1
 70
     1
102
RTVSPropertyOp2
 70
     1
102
RTVSPropertyOp3
 70
     1
102
RTVSPropertyOp4
 70
     1
102
RTVSPropertyOp5
 70
     1
102
RTVSPropertyOp6
 70
     1
102
RTVSPropertyOp7
 70
     1
102
RTVSPropertyOp8
 70
     1
102
RTVSPropertyOp9
 70
     1
102
RTVSPropertyOp10
 70
     1
102
RTVSPropertyOp11
 70
     1
102
RTVSPropertyOp12
 70
     1
102
RTVSPropertyOp13
 70
     1
102
RTVSPropertyOp14
 70
     1
102
RTVSPropertyOp15
 70
     1
102
RTVSPropertyOp16
 70
     1
102
RTVSPropertyOp17
 70
     1
102
RTVSPropertyOp18
 70
     1
102
RTVSPropertyOp19
 70
     1
102
RTVSPropertyOp20
 70
     1
102
RTVSPropertyOp21
 70
     1
102
RTVSPropertyOp22
 70
     1
102
RTVSPropertyOp23
 70
     1
102
RTVSPropertyOp24
 70
     1
102
RTVSPropertyOp25
 70
     1
102
RTVSPropertyOp26
 70
     1
102
RTVSPropertyOp27
 70
     1
102
RTVSPropertyOp28
 70
     1
102
RTVSPropertyOp29
 70
     1
102
RTVSPropertyOp30
 70
     1
102
RTVSPropertyOp31
 70
     1
102
RTVSPropertyOp32
 70
     1
102
RTVSPropertyOp33
 70
     1
102
RTVSPropertyOp34
 70
     1
102
RTVSPropertyOp35
 70
     1
102
RTVSPropertyOp36
 70
     1
102
RTVSPropertyOp37
 70
     1
102
RTVSPropertyOp38
 70
     1
102
RTVSPropertyOp39
 70
     1
102
RTVSPropertyOp40
 70
     1
102
RTVSPropertyOp41
 70
     1
102
RTVSPropertyOp42
 70
     1
102
RTVSPropertyOp43
 70
     1
102
RTVSPropertyOp44
 70
     1
102
RTVSPropertyOp45
 70
     1
102
RTVSPropertyOp46
 70
     1
102
RTVSPropertyOp47
 70
     1
102
RTVSPropertyOp48
 70
     1
102
RTVSPropertyOp49
 70
     1
102
RTVSPropertyOp50
 70
     1
102
RTVSPropertyOp51
 70
     0
102
RTVSPropertyOp52
 70
     0
102
RTVSPropertyOp53
 70
     1
102
RTVSPropertyOp54
 70
     1
102
RTVSPropertyOp55
 70
     1
102
RTVSPropertyOp56
 70
     1
102
RTVSPropertyOp57
 70
     1
102
RTVSPropertyOp58
 70
     1
102
RTVSPropertyOp59
 70
     1
102
RTVSPropertyOp60
 70
     1
102
RTVSPropertyOp61
 70
     1
102
RTVSPropertyOp62
 70
     1
  0
ENDSEC
  0
EOF
