  0
SECTION
  2
HEADER
  9
$ACADVER
  1
AC1015
  9
$ACADMAINTVER
 70
    20
  9
$DWGCODEPAGE
  3
ANSI_932
  9
$INSBASE
 10
0.0
 20
0.0
 30
0.0
  9
$EXTMIN
 10
9.999999064246818
 20
9.999999806846743
 30
0.0
  9
$EXTMAX
 10
608.3236299454361
 20
395.7508040857644
 30
0.0
  9
$LIMMIN
 10
0.0000015376081137
 20
-0.0000001931532552
  9
$LIMMAX
 10
645.0000015376082
 20
444.6590907159373
  9
$ORTHOMODE
 70
     0
  9
$REGENMODE
 70
     1
  9
$FILLMODE
 70
     1
  9
$QTEXTMODE
 70
     0
  9
$MIRRTEXT
 70
     1
  9
$LTSCALE
 40
1.0
  9
$ATTMODE
 70
     1
  9
$TEXTSIZE
 40
2.5
  9
$TRACEWID
 40
1.0
  9
$TEXTSTYLE
  7
STANDARD
  9
$CLAYER
  8
0
  9
$CELTYPE
  6
BYLAYER
  9
$CECOLOR
 62
   256
  9
$CELTSCALE
 40
1.0
  9
$DISPSILH
 70
     0
  9
$DIMSCALE
 40
1.0
  9
$DIMASZ
 40
3.0
  9
$DIMEXO
 40
1.0
  9
$DIMDLI
 40
10.0
  9
$DIMRND
 40
0.0
  9
$DIMDLE
 40
0.0
  9
$DIMEXE
 40
1.0
  9
$DIMTP
 40
0.0
  9
$DIMTM
 40
0.0
  9
$DIMTXT
 40
3.2
  9
$DIMCEN
 40
0.0
  9
$DIMTSZ
 40
0.0
  9
$DIMTOL
 70
     0
  9
$DIMLIM
 70
     0
  9
$DIMTIH
 70
     0
  9
$DIMTOH
 70
     0
  9
$DIMSE1
 70
     0
  9
$DIMSE2
 70
     0
  9
$DIMTAD
 70
     3
  9
$DIMZIN
 70
     8
  9
$DIMBLK
  1

  9
$DIMASO
 70
     1
  9
$DIMSHO
 70
     1
  9
$DIMPOST
  1

  9
$DIMAPOST
  1

  9
$DIMALT
 70
     0
  9
$DIMALTD
 70
     2
  9
$DIMALTF
 40
25.4
  9
$DIMLFAC
 40
1.0
  9
$DIMTOFL
 70
     1
  9
$DIMTVP
 40
0.0
  9
$DIMTIX
 70
     0
  9
$DIMSOXD
 70
     0
  9
$DIMSAH
 70
     1
  9
$DIMBLK1
  1
OPEN
  9
$DIMBLK2
  1
OPEN
  9
$DIMSTYLE
  2
STANDARD
  9
$DIMCLRD
 70
     0
  9
$DIMCLRE
 70
     0
  9
$DIMCLRT
 70
     0
  9
$DIMTFAC
 40
1.0
  9
$DIMGAP
 40
1.0
  9
$DIMJUST
 70
     0
  9
$DIMSD1
 70
     0
  9
$DIMSD2
 70
     0
  9
$DIMTOLJ
 70
     1
  9
$DIMTZIN
 70
     0
  9
$DIMALTZ
 70
     0
  9
$DIMALTTZ
 70
     0
  9
$DIMUPT
 70
     0
  9
$DIMDEC
 70
     4
  9
$DIMTDEC
 70
     4
  9
$DIMALTU
 70
     2
  9
$DIMALTTD
 70
     2
  9
$DIMTXSTY
  7
STANDARD
  9
$DIMAUNIT
 70
     0
  9
$DIMADEC
 70
     0
  9
$DIMALTRND
 40
0.0
  9
$DIMAZIN
 70
     0
  9
$DIMDSEP
 70
    46
  9
$DIMATFIT
 70
     3
  9
$DIMFRAC
 70
     0
  9
$DIMLDRBLK
  1
OPEN
  9
$DIMLUNIT
 70
     2
  9
$DIMLWD
 70
    -2
  9
$DIMLWE
 70
    -2
  9
$DIMTMOVE
 70
     0
  9
$LUNITS
 70
     2
  9
$LUPREC
 70
     4
  9
$SKETCHINC
 40
1.0
  9
$FILLETRAD
 40
7.0
  9
$AUNITS
 70
     0
  9
$AUPREC
 70
     0
  9
$MENU
  1
.
  9
$ELEVATION
 40
0.0
  9
$PELEVATION
 40
0.0
  9
$THICKNESS
 40
0.0
  9
$LIMCHECK
 70
     0
  9
$CHAMFERA
 40
10.0
  9
$CHAMFERB
 40
10.0
  9
$CHAMFERC
 40
20.0
  9
$CHAMFERD
 40
0.0
  9
$SKPOLY
 70
     0
  9
$TDCREATE
 40
2453257.593359375
  9
$TDUCREATE
 40
2453257.218359375
  9
$TDUPDATE
 40
2457192.689302095
  9
$TDUUPDATE
 40
2457192.314302095
  9
$TDINDWG
 40
0.1079632292
  9
$TDUSRTIMER
 40
0.1079630324
  9
$USRTIMER
 70
     1
  9
$ANGBASE
 50
0.0
  9
$ANGDIR
 70
     0
  9
$PDMODE
 70
     0
  9
$PDSIZE
 40
0.0
  9
$PLINEWID
 40
0.0
  9
$SPLFRAME
 70
     0
  9
$SPLINETYPE
 70
     6
  9
$SPLINESEGS
 70
     8
  9
$HANDSEED
  5
1085
  9
$SURFTAB1
 70
     6
  9
$SURFTAB2
 70
     6
  9
$SURFTYPE
 70
     6
  9
$SURFU
 70
     6
  9
$SURFV
 70
     6
  9
$UCSBASE
  2

  9
$UCSNAME
  2

  9
$UCSORG
 10
0.0
 20
0.0
 30
0.0
  9
$UCSXDIR
 10
1.0
 20
0.0
 30
0.0
  9
$UCSYDIR
 10
0.0
 20
1.0
 30
0.0
  9
$UCSORTHOREF
  2

  9
$UCSORTHOVIEW
 70
     0
  9
$UCSORGTOP
 10
0.0
 20
0.0
 30
0.0
  9
$UCSORGBOTTOM
 10
0.0
 20
0.0
 30
0.0
  9
$UCSORGLEFT
 10
0.0
 20
0.0
 30
0.0
  9
$UCSORGRIGHT
 10
0.0
 20
0.0
 30
0.0
  9
$UCSORGFRONT
 10
0.0
 20
0.0
 30
0.0
  9
$UCSORGBACK
 10
0.0
 20
0.0
 30
0.0
  9
$PUCSBASE
  2

  9
$PUCSNAME
  2

  9
$PUCSORG
 10
0.0
 20
0.0
 30
0.0
  9
$PUCSXDIR
 10
1.0
 20
0.0
 30
0.0
  9
$PUCSYDIR
 10
0.0
 20
1.0
 30
0.0
  9
$PUCSORTHOREF
  2

  9
$PUCSORTHOVIEW
 70
     0
  9
$PUCSORGTOP
 10
0.0
 20
0.0
 30
0.0
  9
$PUCSORGBOTTOM
 10
0.0
 20
0.0
 30
0.0
  9
$PUCSORGLEFT
 10
0.0
 20
0.0
 30
0.0
  9
$PUCSORGRIGHT
 10
0.0
 20
0.0
 30
0.0
  9
$PUCSORGFRONT
 10
0.0
 20
0.0
 30
0.0
  9
$PUCSORGBACK
 10
0.0
 20
0.0
 30
0.0
  9
$USERI1
 70
     0
  9
$USERI2
 70
     0
  9
$USERI3
 70
     0
  9
$USERI4
 70
     0
  9
$USERI5
 70
     0
  9
$USERR1
 40
0.0
  9
$USERR2
 40
0.0
  9
$USERR3
 40
0.0
  9
$USERR4
 40
0.0
  9
$USERR5
 40
0.0
  9
$WORLDVIEW
 70
     1
  9
$SHADEDGE
 70
     3
  9
$SHADEDIF
 70
    70
  9
$TILEMODE
 70
     1
  9
$MAXACTVP
 70
    48
  9
$PINSBASE
 10
0.0
 20
0.0
 30
0.0
  9
$PLIMCHECK
 70
     0
  9
$PEXTMIN
 10
1.000000000000000E+20
 20
1.000000000000000E+20
 30
1.000000000000000E+20
  9
$PEXTMAX
 10
-1.000000000000000E+20
 20
-1.000000000000000E+20
 30
-1.000000000000000E+20
  9
$PLIMMIN
 10
0.0
 20
0.0
  9
$PLIMMAX
 10
420.0
 20
297.0
  9
$UNITMODE
 70
     0
  9
$VISRETAIN
 70
     1
  9
$PLINEGEN
 70
     0
  9
$PSLTSCALE
 70
     1
  9
$TREEDEPTH
 70
  3020
  9
$CMLSTYLE
  2
STANDARD
  9
$CMLJUST
 70
     0
  9
$CMLSCALE
 40
20.0
  9
$PROXYGRAPHICS
 70
     1
  9
$MEASUREMENT
 70
     0
  9
$CELWEIGHT
370
    -1
  9
$ENDCAPS
280
     0
  9
$JOINSTYLE
280
     0
  9
$LWDISPLAY
290
     0
  9
$INSUNITS
 70
     0
  9
$HYPERLINKBASE
  1

  9
$STYLESHEET
  1

  9
$XEDIT
290
     1
  9
$CEPSNTYPE
380
     0
  9
$PSTYLEMODE
290
     1
  9
$FINGERPRINTGUID
  2
{758E69F7-EC1E-4C3D-BC30-DC4A4F84275E}
  9
$VERSIONGUID
  2
{3CA15B4E-E0E9-466D-8B76-28E8D3C7B4BA}
  9
$EXTNAMES
290
     1
  9
$PSVPSCALE
 40
0.0
  9
$OLESTARTUP
290
     0
  0
ENDSEC
  0
SECTION
  2
CLASSES
  0
CLASS
  1
ACDBDICTIONARYWDFLT
  2
AcDbDictionaryWithDefault
  3
ObjectDBX Classes
 90
        0
280
     0
281
     0
  0
CLASS
  1
ACDBPLACEHOLDER
  2
AcDbPlaceHolder
  3
ObjectDBX Classes
 90
        0
280
     0
281
     0
  0
CLASS
  1
LAYOUT
  2
AcDbLayout
  3
ObjectDBX Classes
 90
        0
280
     0
281
     0
  0
CLASS
  1
DICTIONARYVAR
  2
AcDbDictionaryVar
  3
ObjectDBX Classes
 90
        0
280
     0
281
     0
  0
CLASS
  1
MATERIAL
  2
AcDbMaterial
  3
ObjectDBX Classes
 90
     1153
280
     0
281
     0
  0
CLASS
  1
VISUALSTYLE
  2
AcDbVisualStyle
  3
ObjectDBX Classes
 90
     4095
280
     0
281
     0
  0
CLASS
  1
TABLESTYLE
  2
AcDbTableStyle
  3
ObjectDBX Classes
 90
     4095
280
     0
281
     0
  0
CLASS
  1
SCALE
  2
AcDbScale
  3
ObjectDBX Classes
 90
     1153
280
     0
281
     0
  0
CLASS
  1
MLEADERSTYLE
  2
AcDbMLeaderStyle
  3
ACDB_MLEADERSTYLE_CLASS
 90
     4095
280
     0
281
     0
  0
CLASS
  1
ACDBSECTIONVIEWSTYLE
  2
AcDbSectionViewStyle
  3
ObjectDBX Classes
 90
     1025
280
     0
281
     0
  0
CLASS
  1
ACDBDETAILVIEWSTYLE
  2
AcDbDetailViewStyle
  3
ObjectDBX Classes
 90
     1025
280
     0
281
     0
  0
CLASS
  1
CELLSTYLEMAP
  2
AcDbCellStyleMap
  3
ObjectDBX Classes
 90
     1152
280
     0
281
     0
  0
ENDSEC
  0
SECTION
  2
TABLES
  0
TABLE
  2
VPORT
  5
8
330
0
100
AcDbSymbolTable
 70
     1
  0
VPORT
  5
FD1
330
8
100
AcDbSymbolTableRecord
100
AcDbViewportTableRecord
  2
*ACTIVE
 70
     0
 10
0.0
 20
0.0
 11
1.0
 21
1.0
 12
457.6424097209635
 22
202.8736755589905
 13
0.0
 23
0.0
 14
10.0
 24
10.0
 15
10.0
 25
10.0
 16
0.0
 26
0.0
 36
1.0
 17
0.0
 27
0.0
 37
0.0
 40
388.8043240718488
 41
2.35006605019815
 42
50.0
 43
0.0
 44
0.0
 50
0.0
 51
0.0
 71
     0
 72
   100
 73
     1
 74
     0
 75
     0
 76
     0
 77
     0
 78
     0
281
     0
 65
     1
110
0.0
120
0.0
130
0.0
111
1.0
121
0.0
131
0.0
112
0.0
122
1.0
132
0.0
 79
     0
146
0.0
1001
ACAD_NAV_VCDISPLAY
1070
     3
  0
ENDTAB
  0
TABLE
  2
LTYPE
  5
5
330
0
100
AcDbSymbolTable
 70
     4
  0
LTYPE
  5
12
330
5
100
AcDbSymbolTableRecord
100
AcDbLinetypeTableRecord
  2
BYBLOCK
 70
     0
  3

 72
    65
 73
     0
 40
0.0
  0
LTYPE
  5
13
330
5
100
AcDbSymbolTableRecord
100
AcDbLinetypeTableRecord
  2
BYLAYER
 70
     0
  3

 72
    65
 73
     0
 40
0.0
  0
LTYPE
  5
14
330
5
100
AcDbSymbolTableRecord
100
AcDbLinetypeTableRecord
  2
CONTINUOUS
 70
     0
  3
Solid line
 72
    65
 73
     0
 40
0.0
  0
LTYPE
  5
62
330
5
100
AcDbSymbolTableRecord
100
AcDbLinetypeTableRecord
  2
DASHED
 70
     0
  3
Dashed __ __ __ __ __ __ __ __ __ __ __ __ __ _
 72
    65
 73
     2
 40
19.04999999999998
 49
12.7
 74
     0
 49
-6.349999999999997
 74
     0
  0
LTYPE
  5
63
330
5
100
AcDbSymbolTableRecord
100
AcDbLinetypeTableRecord
  2
CENTER
 70
     0
  3
Center ____ _ ____ _ ____ _ ____ _ ____ _ ____
 72
    65
 73
     4
 40
50.8
 49
31.75
 74
     0
 49
-6.349999999999997
 74
     0
 49
6.349999999999997
 74
     0
 49
-6.349999999999997
 74
     0
  0
LTYPE
  5
64
330
5
100
AcDbSymbolTableRecord
100
AcDbLinetypeTableRecord
  2
PHANTOM
 70
     0
  3
Phantom ______  __  __  ______  __  __  ______
 72
    65
 73
     6
 40
63.5
 49
31.75
 74
     0
 49
-6.349999999999997
 74
     0
 49
6.349999999999997
 74
     0
 49
-6.349999999999997
 74
     0
 49
6.349999999999997
 74
     0
 49
-6.349999999999997
 74
     0
  0
ENDTAB
  0
TABLE
  2
LAYER
  5
2
330
0
100
AcDbSymbolTable
 70
     8
  0
LAYER
  5
E
102
{ACAD_XDICTIONARY
360
1029
102
}
330
2
100
AcDbSymbolTableRecord
100
AcDbLayerTableRecord
  2
0
 70
     0
 62
     7
  6
CONTINUOUS
370
    -3
390
FD8
  0
LAYER
  5
65
102
{ACAD_XDICTIONARY
360
102B
102
}
330
2
100
AcDbSymbolTableRecord
100
AcDbLayerTableRecord
  2
4
 70
     0
 62
     1
  6
CENTER
370
    -3
390
FD8
  0
LAYER
  5
66
102
{ACAD_XDICTIONARY
360
102D
102
}
330
2
100
AcDbSymbolTableRecord
100
AcDbLayerTableRecord
  2
5
 70
     0
 62
     6
  6
PHANTOM
370
    -3
390
FD8
  0
LAYER
  5
67
102
{ACAD_XDICTIONARY
360
102F
102
}
330
2
100
AcDbSymbolTableRecord
100
AcDbLayerTableRecord
  2
1
 70
     0
 62
     7
  6
CONTINUOUS
370
    -3
390
FD8
  0
LAYER
  5
68
102
{ACAD_XDICTIONARY
360
1031
102
}
330
2
100
AcDbSymbolTableRecord
100
AcDbLayerTableRecord
  2
2
 70
     0
 62
     4
  6
CONTINUOUS
370
    -3
390
FD8
  0
LAYER
  5
69
102
{ACAD_XDICTIONARY
360
1033
102
}
330
2
100
AcDbSymbolTableRecord
100
AcDbLayerTableRecord
  2
3
 70
     0
 62
     2
  6
DASHED
370
    -3
390
FD8
  0
LAYER
  5
6A
102
{ACAD_XDICTIONARY
360
1035
102
}
330
2
100
AcDbSymbolTableRecord
100
AcDbLayerTableRecord
  2
6
 70
     0
 62
     5
  6
CONTINUOUS
370
    -3
390
FD8
  0
LAYER
  5
6B
102
{ACAD_XDICTIONARY
360
1037
102
}
330
2
100
AcDbSymbolTableRecord
100
AcDbLayerTableRecord
  2
7
 70
     0
 62
     3
  6
CONTINUOUS
370
    -3
390
FD8
  0
ENDTAB
  0
TABLE
  2
STYLE
  5
3
330
0
100
AcDbSymbolTable
 70
     1
  0
STYLE
  5
F
330
3
100
AcDbSymbolTableRecord
100
AcDbTextStyleTableRecord
  2
STANDARD
 70
     0
 40
0.0
 41
1.0
 50
0.0
 71
     0
 42
2.5
  3
simplex.shx
  4

  0
ENDTAB
  0
TABLE
  2
VIEW
  5
6
330
0
100
AcDbSymbolTable
 70
     0
  0
ENDTAB
  0
TABLE
  2
UCS
  5
7
330
0
100
AcDbSymbolTable
 70
     0
  0
ENDTAB
  0
TABLE
  2
APPID
  5
9
330
0
100
AcDbSymbolTable
 70
     5
  0
APPID
  5
10
330
9
100
AcDbSymbolTableRecord
100
AcDbRegAppTableRecord
  2
ACAD
 70
     0
  0
APPID
  5
3E
330
9
100
AcDbSymbolTableRecord
100
AcDbRegAppTableRecord
  2
CONTENTTABDATA
 70
     0
  0
APPID
  5
3F
330
9
100
AcDbSymbolTableRecord
100
AcDbRegAppTableRecord
  2
CONTENTCURRENTTAB
 70
     0
  0
APPID
  5
1043
330
9
100
AcDbSymbolTableRecord
100
AcDbRegAppTableRecord
  2
ACAD_NAV_VCDISPLAY
 70
     0
  0
APPID
  5
107C
330
9
100
AcDbSymbolTableRecord
100
AcDbRegAppTableRecord
  2
ACAD_MLEADERVER
 70
     0
  0
ENDTAB
  0
TABLE
  2
DIMSTYLE
  5
A
330
0
100
AcDbSymbolTable
 70
     1
100
AcDbDimStyleTable
 71
     0
  0
DIMSTYLE
105
1D
330
A
100
AcDbSymbolTableRecord
100
AcDbDimStyleTableRecord
  2
STANDARD
 70
     0
 41
3.0
 42
1.0
 43
10.0
 44
1.0
 73
     0
 74
     0
 77
     3
 78
     8
140
3.2
141
0.0
147
1.0
172
     1
173
     1
340
F
341
2E
343
2E
344
2E
  0
ENDTAB
  0
TABLE
  2
BLOCK_RECORD
  5
1
330
0
100
AcDbSymbolTable
 70
     1
  0
BLOCK_RECORD
  5
18
102
{ACAD_XDICTIONARY
360
FBB
102
}
330
1
100
AcDbSymbolTableRecord
100
AcDbBlockTableRecord
  2
*MODEL_SPACE
340
1026
  0
BLOCK_RECORD
  5
15
102
{ACAD_XDICTIONARY
360
FB9
102
}
330
1
100
AcDbSymbolTableRecord
100
AcDbBlockTableRecord
  2
*PAPER_SPACE
340
1027
  0
BLOCK_RECORD
  5
2E
330
1
100
AcDbSymbolTableRecord
100
AcDbBlockTableRecord
  2
_OPEN
340
0
  0
ENDTAB
  0
ENDSEC
  0
SECTION
  2
BLOCKS
  0
BLOCK
  5
19
330
18
100
AcDbEntity
  8
0
100
AcDbBlockBegin
  2
*MODEL_SPACE
 70
     0
 10
0.0
 20
0.0
 30
0.0
  3
*MODEL_SPACE
  1

  0
ENDBLK
  5
1A
330
18
100
AcDbEntity
  8
0
100
AcDbBlockEnd
  0
BLOCK
  5
16
330
15
100
AcDbEntity
 67
     1
  8
0
100
AcDbBlockBegin
  2
*PAPER_SPACE
 70
     0
 10
0.0
 20
0.0
 30
0.0
  3
*PAPER_SPACE
  1

  0
ENDBLK
  5
17
330
15
100
AcDbEntity
 67
     1
  8
0
100
AcDbBlockEnd
  0
BLOCK
  5
2F
330
2E
100
AcDbEntity
  8
0
100
AcDbBlockBegin
  2
_OPEN
 70
     0
 10
0.0
 20
0.0
 30
0.0
  3
_OPEN
  1

  0
LINE
  5
30
330
2E
100
AcDbEntity
  8
0
  6
ByBlock
 62
     0
100
AcDbLine
 10
-1.0
 20
0.1666666666666666
 30
0.0
 11
0.0
 21
0.0
 31
0.0
  0
LINE
  5
31
330
2E
100
AcDbEntity
  8
0
  6
ByBlock
 62
     0
100
AcDbLine
 10
0.0
 20
0.0
 30
0.0
 11
-1.0
 21
-0.1666666666666666
 31
0.0
  0
LINE
  5
32
330
2E
100
AcDbEntity
  8
0
  6
ByBlock
 62
     0
100
AcDbLine
 10
0.0
 20
0.0
 30
0.0
 11
-1.0
 21
0.0
 31
0.0
  0
ENDBLK
  5
33
330
2E
100
AcDbEntity
  8
0
100
AcDbBlockEnd
  0
ENDSEC
  0
SECTION
  2
ENTITIES
  0
CIRCLE
  5
150
330
18
100
AcDbEntity
  8
1
  6
Continuous
100
AcDbCircle
 10
214.0590431928165
 20
360.661357356592
 30
0.0
 40
12.25
  0
CIRCLE
  5
151
330
18
100
AcDbEntity
  8
1
  6
Continuous
100
AcDbCircle
 10
214.0590431928165
 20
360.661357356592
 30
0.0
 40
9.5
  0
LINE
  5
152
330
18
100
AcDbEntity
  8
1
  6
Continuous
100
AcDbLine
 10
171.5590431928164
 20
389.661357356592
 30
0.0
 11
256.5590431928165
 21
389.661357356592
 31
0.0
  0
LINE
  5
153
330
18
100
AcDbEntity
  8
1
  6
Continuous
100
AcDbLine
 10
190.8090431928163
 20
268.601275020543
 30
0.0
 11
237.3090431928165
 21
268.601275020543
 31
0.0
  0
LINE
  5
154
330
18
100
AcDbEntity
  8
1
  6
Continuous
100
AcDbLine
 10
192.5590431928164
 20
267.4012760205431
 30
0.0
 11
235.5590431928165
 21
267.4012760205431
 31
0.0
  0
LINE
  5
155
330
18
100
AcDbEntity
  8
1
  6
Continuous
100
AcDbLine
 10
171.5590431928164
 20
331.6613543565919
 30
0.0
 11
256.5590458108104
 21
331.6613573565924
 31
0.0
  0
CIRCLE
  5
156
330
18
100
AcDbEntity
  8
1
  6
Continuous
100
AcDbCircle
 10
214.0590431928165
 20
360.661357356592
 30
0.0
 40
24.0
  0
CIRCLE
  5
157
330
18
100
AcDbEntity
  8
1
  6
Continuous
100
AcDbCircle
 10
214.0590431928165
 20
360.661357356592
 30
0.0
 40
22.5
  0
LINE
  5
158
330
18
100
AcDbEntity
  8
1
  6
Continuous
100
AcDbLine
 10
164.0590431928165
 20
273.801276020543
 30
0.0
 11
264.0590431928164
 21
273.801276020543
 31
0.0
  0
LINE
  5
159
330
18
100
AcDbEntity
  8
1
  6
Continuous
100
AcDbLine
 10
164.0590431928165
 20
275.801276020543
 30
0.0
 11
264.0590431928164
 21
275.801276020543
 31
0.0
  0
LINE
  5
15A
330
18
100
AcDbEntity
  8
1
  6
Continuous
100
AcDbLine
 10
191.2677031928165
 20
198.352362020543
 30
0.0
 11
224.7559231928164
 21
254.9474930205431
 31
0.0
  0
LINE
  5
15C
330
18
100
AcDbEntity
  8
4
  6
CENTER
 48
0.5
100
AcDbLine
 10
128.2200691928165
 20
203.8012760205432
 30
0.0
 11
235.5052131928164
 21
203.8012760205432
 31
0.0
  0
LINE
  5
15E
330
18
100
AcDbEntity
  8
4
  6
CENTER
 48
0.5
100
AcDbLine
 10
127.4311415703968
 20
360.661357356592
 30
0.0
 11
267.9611389084239
 21
360.661357356592
 31
0.0
  0
LINE
  5
15F
330
18
100
AcDbEntity
  8
4
  6
CENTER
 48
0.1
100
AcDbLine
 10
173.0590431928163
 20
279.6457600205431
 30
0.0
 11
173.0590431928163
 21
269.9567920205431
 31
0.0
  0
LINE
  5
160
330
18
100
AcDbEntity
  8
4
  6
CENTER
 48
0.1
100
AcDbLine
 10
64.8462368165068
 20
279.6457600205431
 30
0.0
 11
64.8462368165068
 21
269.9567920205431
 31
0.0
  0
LINE
  5
161
330
18
100
AcDbEntity
  8
4
  6
CENTER
 48
0.1
100
AcDbLine
 10
24.84623681650679
 20
279.6457600205431
 30
0.0
 11
24.84623681650679
 21
269.9567920205431
 31
0.0
  0
LINE
  5
162
330
18
100
AcDbEntity
  8
4
  6
CENTER
 48
0.5
100
AcDbLine
 10
44.84623681650679
 20
281.5418990205431
 30
0.0
 11
44.84623681650679
 21
150.4340270205432
 31
0.0
  0
ARC
  5
163
330
18
100
AcDbEntity
  8
1
  6
Continuous
100
AcDbCircle
 10
66.34623681650669
 20
264.4012760205431
 30
0.0
 40
3.0
100
AcDbArc
 50
1.05591379999993
 51
90.00000300000015
  0
ARC
  5
167
330
18
100
AcDbEntity
  8
1
  6
Continuous
100
AcDbCircle
 10
11.84658781650677
 20
237.5044811205431
 30
0.0
 40
58.0
100
AcDbArc
 50
332.7967899999998
 51
359.79908
  0
LINE
  5
168
330
18
100
AcDbEntity
  8
4
  6
CENTER
 48
0.5
100
AcDbLine
 10
17.58631081650674
 20
203.8012760205432
 30
0.0
 11
69.8462368165068
 21
203.8012760205432
 31
0.0
  0
TEXT
  5
16B
330
18
100
AcDbEntity
  8
1
  6
Continuous
 48
0.25
100
AcDbText
 10
9.99999906424682
 20
10.00000056761564
 30
0.0
 40
1.399999999999999
  1
LAYER
100
AcDbText
  0
TEXT
  5
16C
330
18
100
AcDbEntity
  8
7
  6
Continuous
 48
0.25
100
AcDbText
 10
9.99999906424682
 20
18.00000056761564
 30
0.0
 40
3.0
  1
TYPE No.TCA-320E-N100
100
AcDbText
  0
TEXT
  5
16D
330
18
100
AcDbEntity
  8
7
  6
Continuous
 48
0.25
100
AcDbText
 10
9.99999906424682
 20
26.00000056761564
 30
0.0
 40
3.0
  1
CODE No.19194
100
AcDbText
  0
TEXT
  5
16E
330
18
100
AcDbEntity
  8
7
  6
Continuous
 48
0.25
100
AcDbText
 10
29.97951006424682
 20
9.999999806846743
 30
0.0
 40
1.399999999999999
  1
7
100
AcDbText
  0
TEXT
  5
16F
330
18
100
AcDbEntity
  8
6
  6
Continuous
 48
0.25
100
AcDbText
 10
27.97951006424682
 20
9.999999806846743
 30
0.0
 40
1.399999999999999
  1
6
100
AcDbText
  0
TEXT
  5
170
330
18
100
AcDbEntity
  8
5
  6
PHANTOM
 48
0.25
100
AcDbText
 10
25.97951006424682
 20
9.999999806846743
 30
0.0
 40
1.399999999999999
  1
5
100
AcDbText
  0
TEXT
  5
171
330
18
100
AcDbEntity
  8
1
  6
Continuous
 48
0.25
100
AcDbText
 10
17.97951006424682
 20
9.999999806846743
 30
0.0
 40
1.399999999999999
  1
1
100
AcDbText
  0
TEXT
  5
172
330
18
100
AcDbEntity
  8
3
  6
DASHED
 48
0.25
100
AcDbText
 10
21.97951006424682
 20
9.999999806846743
 30
0.0
 40
1.399999999999999
  1
3
100
AcDbText
  0
TEXT
  5
173
330
18
100
AcDbEntity
  8
2
  6
Continuous
 48
0.25
100
AcDbText
 10
19.97951006424682
 20
9.999999806846743
 30
0.0
 40
1.399999999999999
  1
2
100
AcDbText
  0
TEXT
  5
174
330
18
100
AcDbEntity
  8
4
  6
CENTER
 48
0.25
100
AcDbText
 10
23.97951006424682
 20
9.999999806846743
 30
0.0
 40
1.399999999999999
  1
4
100
AcDbText
  0
ARC
  5
178
330
18
100
AcDbEntity
  8
1
  6
Continuous
100
AcDbCircle
 10
77.84587781650668
 20
237.5044811205431
 30
0.0
 40
58.0
100
AcDbArc
 50
180.20091
 51
207.1733116938252
  0
LINE
  5
179
330
18
100
AcDbEntity
  8
1
  6
Continuous
100
AcDbLine
 10
26.84624481650672
 20
258.2932960205431
 30
0.0
 11
26.84624481650672
 21
193.1012790205431
 31
0.0
  0
LINE
  5
17A
330
18
100
AcDbEntity
  8
1
  6
Continuous
100
AcDbLine
 10
62.84622881650682
 20
258.2932960205431
 30
0.0
 11
62.84622881650682
 21
193.1012790205431
 31
0.0
  0
LINE
  5
17B
330
18
100
AcDbEntity
  8
1
  6
Continuous
100
AcDbLine
 10
28.8462368165068
 20
258.4453570205431
 30
0.0
 11
28.8462368165068
 21
193.1012790205431
 31
0.0
  0
LINE
  5
17C
330
18
100
AcDbEntity
  8
1
  6
Continuous
100
AcDbLine
 10
60.84623681650668
 20
258.4453570205431
 30
0.0
 11
60.84623681650668
 21
193.1012790205431
 31
0.0
  0
LINE
  5
184
330
18
100
AcDbEntity
  8
1
  6
Continuous
100
AcDbLine
 10
26.84624481650672
 20
193.1012790205431
 30
0.0
 11
28.8462368165068
 21
193.1012790205431
 31
0.0
  0
LINE
  5
188
330
18
100
AcDbEntity
  8
1
  6
Continuous
100
AcDbLine
 10
19.84625981650673
 20
200.426276020543
 30
0.0
 11
19.84625981650673
 21
207.1762760205432
 31
0.0
  0
LINE
  5
189
330
18
100
AcDbEntity
  8
1
  6
Continuous
100
AcDbLine
 10
20.47125981650673
 20
199.801276020543
 30
0.0
 11
20.47125981650673
 21
207.8012760205431
 31
0.0
  0
LINE
  5
18B
330
18
100
AcDbEntity
  8
1
  6
Continuous
100
AcDbLine
 10
20.47125981650673
 20
199.8012800205431
 30
0.0
 11
19.84625981650673
 21
200.4262800205431
 31
0.0
  0
LINE
  5
18C
330
18
100
AcDbEntity
  8
1
  6
Continuous
100
AcDbLine
 10
20.47125981650673
 20
199.801276020543
 30
0.0
 11
21.84625981650668
 21
199.801276020543
 31
0.0
  0
LINE
  5
18D
330
18
100
AcDbEntity
  8
2
  6
Continuous
100
AcDbLine
 10
19.84625981650673
 20
200.426276020543
 30
0.0
 11
21.84625981650668
 21
200.426276020543
 31
0.0
  0
LINE
  5
191
330
18
100
AcDbEntity
  8
1
  6
Continuous
100
AcDbLine
 10
20.47125981650673
 20
207.8012760205431
 30
0.0
 11
21.84625981650668
 21
207.8012760205431
 31
0.0
  0
LINE
  5
192
330
18
100
AcDbEntity
  8
2
  6
Continuous
100
AcDbLine
 10
19.84625981650673
 20
207.1762760205432
 30
0.0
 11
21.84625981650668
 21
207.1762760205432
 31
0.0
  0
LINE
  5
194
330
18
100
AcDbEntity
  8
1
  6
Continuous
100
AcDbLine
 10
19.84625981650673
 20
207.1762760205432
 30
0.0
 11
20.47125981650673
 21
207.8012780205432
 31
0.0
  0
LINE
  5
198
330
18
100
AcDbEntity
  8
1
  6
Continuous
100
AcDbLine
 10
66.84621381650678
 20
209.801276020543
 30
0.0
 11
66.84621381650678
 21
197.8012760205429
 31
0.0
  0
ARC
  5
19C
330
18
100
AcDbEntity
  8
1
  6
Continuous
100
AcDbCircle
 10
64.34621381650678
 20
197.8012760205429
 30
0.0
 40
1.5
100
AcDbArc
 50
179.99996
 51
269.9999499999996
  0
LINE
  5
19D
330
18
100
AcDbEntity
  8
1
  6
Continuous
100
AcDbLine
 10
60.84623681650668
 20
193.1012790205431
 30
0.0
 11
62.84622881650682
 21
193.1012790205431
 31
0.0
  0
ARC
  5
19E
330
18
100
AcDbEntity
  8
1
  6
Continuous
100
AcDbCircle
 10
65.34621381650679
 20
197.8012760205429
 30
0.0
 40
1.5
100
AcDbArc
 50
269.9999599999999
 51
0.0
  0
LINE
  5
19F
330
18
100
AcDbEntity
  8
1
  6
Continuous
100
AcDbLine
 10
65.34621381650679
 20
196.3012760205431
 30
0.0
 11
64.34621381650678
 21
196.3012760205431
 31
0.0
  0
ARC
  5
1A1
330
18
100
AcDbEntity
  8
1
  6
Continuous
100
AcDbCircle
 10
64.34621381650678
 20
198.801276020543
 30
0.0
 40
1.5
100
AcDbArc
 50
89.99998199999998
 51
179.99996
  0
ARC
  5
1A2
330
18
100
AcDbEntity
  8
1
  6
Continuous
100
AcDbCircle
 10
64.34621381650678
 20
202.3012760205431
 30
0.0
 40
1.5
100
AcDbArc
 50
179.99996
 51
269.9999499999996
  0
ARC
  5
1A4
330
18
100
AcDbEntity
  8
1
  6
Continuous
100
AcDbCircle
 10
65.34621381650679
 20
198.801276020543
 30
0.0
 40
1.5
100
AcDbArc
 50
0.0
 51
89.99998199999998
  0
LINE
  5
1A5
330
18
100
AcDbEntity
  8
1
  6
Continuous
100
AcDbLine
 10
65.34621381650679
 20
200.801276020543
 30
0.0
 11
64.34621381650678
 21
200.801276020543
 31
0.0
  0
LINE
  5
1A6
330
18
100
AcDbEntity
  8
1
  6
Continuous
100
AcDbLine
 10
65.34621381650679
 20
200.3012760205431
 30
0.0
 11
64.34621381650678
 21
200.3012760205431
 31
0.0
  0
ARC
  5
1A7
330
18
100
AcDbEntity
  8
1
  6
Continuous
100
AcDbCircle
 10
65.34621381650679
 20
202.3012760205431
 30
0.0
 40
1.5
100
AcDbArc
 50
269.9999599999999
 51
0.0
  0
ARC
  5
1A8
330
18
100
AcDbEntity
  8
1
  6
Continuous
100
AcDbCircle
 10
64.34621381650678
 20
209.801276020543
 30
0.0
 40
1.5
100
AcDbArc
 50
89.99998199999998
 51
179.99996
  0
ARC
  5
1A9
330
18
100
AcDbEntity
  8
1
  6
Continuous
100
AcDbCircle
 10
64.34621381650678
 20
205.301276020543
 30
0.0
 40
1.5
100
AcDbArc
 50
89.99998199999998
 51
179.99996
  0
ARC
  5
1AA
330
18
100
AcDbEntity
  8
1
  6
Continuous
100
AcDbCircle
 10
64.34621381650678
 20
208.8012760205431
 30
0.0
 40
1.5
100
AcDbArc
 50
179.99996
 51
269.9999499999996
  0
ARC
  5
1AC
330
18
100
AcDbEntity
  8
1
  6
Continuous
100
AcDbCircle
 10
65.34621381650679
 20
209.801276020543
 30
0.0
 40
1.5
100
AcDbArc
 50
0.0
 51
89.99998199999998
  0
LINE
  5
1AD
330
18
100
AcDbEntity
  8
1
  6
Continuous
100
AcDbLine
 10
65.34621381650679
 20
211.301276020543
 30
0.0
 11
64.34621381650678
 21
211.301276020543
 31
0.0
  0
ARC
  5
1AE
330
18
100
AcDbEntity
  8
1
  6
Continuous
100
AcDbCircle
 10
65.34621381650679
 20
205.301276020543
 30
0.0
 40
1.5
100
AcDbArc
 50
0.0
 51
89.99998199999998
  0
LINE
  5
1AF
330
18
100
AcDbEntity
  8
1
  6
Continuous
100
AcDbLine
 10
65.34621381650679
 20
206.8012760205431
 30
0.0
 11
64.34621381650678
 21
206.8012760205431
 31
0.0
  0
LINE
  5
1B0
330
18
100
AcDbEntity
  8
1
  6
Continuous
100
AcDbLine
 10
65.34621381650679
 20
207.301276020543
 30
0.0
 11
64.34621381650678
 21
207.301276020543
 31
0.0
  0
ARC
  5
1B1
330
18
100
AcDbEntity
  8
1
  6
Continuous
100
AcDbCircle
 10
65.34621381650679
 20
208.8012760205431
 30
0.0
 40
1.5
100
AcDbArc
 50
269.9999599999999
 51
0.0
  0
ARC
  5
1B3
330
18
100
AcDbEntity
  8
1
  6
Continuous
100
AcDbCircle
 10
29.3462368165068
 20
258.4453570205431
 30
0.0
 40
0.5
100
AcDbArc
 50
87.3083070000001
 51
180.0000100000002
  0
ARC
  5
1B4
330
18
100
AcDbEntity
  8
1
  6
Continuous
100
AcDbCircle
 10
29.34624481650678
 20
258.2932960205431
 30
0.0
 40
2.5
100
AcDbArc
 50
88.20752199999956
 51
180.0000100000002
  0
ARC
  5
1B5
330
18
100
AcDbEntity
  8
1
  6
Continuous
100
AcDbCircle
 10
44.84623681650679
 20
388.8665960205431
 30
0.0
 40
125.2653199999999
100
AcDbArc
 50
261.7382799999995
 51
278.2617099999995
  0
LINE
  5
1B6
330
18
100
AcDbEntity
  8
1
  6
Continuous
100
AcDbLine
 10
23.3462368165068
 20
267.4012760205431
 30
0.0
 11
66.34623681650669
 21
267.4012760205431
 31
0.0
  0
LINE
  5
1B7
330
18
100
AcDbEntity
  8
1
  6
Continuous
100
AcDbLine
 10
21.59623681650673
 20
268.601275020543
 30
0.0
 11
68.09623681650669
 21
268.601275020543
 31
0.0
  0
LINE
  5
1B8
330
18
100
AcDbEntity
  8
1
  6
Continuous
100
AcDbLine
 10
15.8462368165068
 20
273.801276020543
 30
0.0
 11
73.8462368165068
 21
273.801276020543
 31
0.0
  0
LINE
  5
1B9
330
18
100
AcDbEntity
  8
1
  6
Continuous
100
AcDbLine
 10
15.8462368165068
 20
275.801276020543
 30
0.0
 11
73.8462368165068
 21
275.801276020543
 31
0.0
  0
LINE
  5
1BA
330
18
100
AcDbEntity
  8
1
  6
Continuous
100
AcDbLine
 10
19.84623681650673
 20
237.3010943205431
 30
0.0
 11
20.34674081650678
 21
264.4565590205431
 31
0.0
  0
ARC
  5
1BB
330
18
100
AcDbEntity
  8
1
  6
Continuous
100
AcDbCircle
 10
23.3462368165068
 20
264.4012760205431
 30
0.0
 40
3.0
100
AcDbArc
 50
90.00000300000015
 51
178.9440899999998
  0
ARC
  5
1BC
330
18
100
AcDbEntity
  8
1
  6
Continuous
100
AcDbCircle
 10
21.59623681650673
 20
271.1012750205432
 30
0.0
 40
2.5
100
AcDbArc
 50
207.15371
 51
270.0
  0
LINE
  5
1BD
330
18
100
AcDbEntity
  8
1
  6
Continuous
100
AcDbLine
 10
19.37177281650678
 20
269.9603280205431
 30
0.0
 11
17.54112981650678
 21
273.5294670205431
 31
0.0
  0
LINE
  5
1BE
330
18
100
AcDbEntity
  8
1
  6
Continuous
100
AcDbLine
 10
15.8462368165068
 20
275.801276020543
 30
0.0
 11
15.8462368165068
 21
273.801276020543
 31
0.0
  0
ARC
  5
1BF
330
18
100
AcDbEntity
  8
1
  6
Continuous
100
AcDbCircle
 10
17.0962368165068
 20
273.301276020543
 30
0.0
 40
0.5
100
AcDbArc
 50
27.15370899999993
 51
90.00000300000015
  0
ARC
  5
1C0
330
18
100
AcDbEntity
  8
1
  6
Continuous
100
AcDbCircle
 10
26.8503108165068
 20
269.2792770205432
 30
0.0
 40
2.778000099999998
100
AcDbArc
 50
194.12632
 51
222.5338600000001
  0
ARC
  5
1C1
330
18
100
AcDbEntity
  8
1
  6
Continuous
100
AcDbCircle
 10
30.42011981650682
 20
269.2792770205432
 30
0.0
 40
2.778000099999998
100
AcDbArc
 50
194.12632
 51
222.5338600000001
  0
ARC
  5
1C2
330
18
100
AcDbEntity
  8
1
  6
Continuous
100
AcDbCircle
 10
27.82432481650677
 20
269.2792770205432
 30
0.0
 40
2.778000099999998
100
AcDbArc
 50
194.12632
 51
222.5338600000001
  0
ARC
  5
1C5
330
18
100
AcDbEntity
  8
1
  6
Continuous
100
AcDbCircle
 10
44.84623681650679
 20
588.1382560205434
 30
0.0
 40
329.5570399999998
100
AcDbArc
 50
267.3083100000003
 51
272.6916899999997
  0
ARC
  5
1C6
330
18
100
AcDbEntity
  8
1
  6
Continuous
100
AcDbCircle
 10
44.84623681650679
 20
753.582286020543
 30
0.0
 40
493.03143
100
AcDbArc
 50
268.2075200000001
 51
271.7924799999999
  0
ARC
  5
1C8
330
18
100
AcDbEntity
  8
1
  6
Continuous
100
AcDbCircle
 10
34.39035781650677
 20
269.2792770205432
 30
0.0
 40
2.778000099999998
100
AcDbArc
 50
194.12632
 51
222.5338600000001
  0
ARC
  5
1C9
330
18
100
AcDbEntity
  8
1
  6
Continuous
100
AcDbCircle
 10
34.39035781650677
 20
269.2792770205432
 30
0.0
 40
2.778000099999998
100
AcDbArc
 50
317.4661300000002
 51
333.3657600000002
  0
ARC
  5
1CA
330
18
100
AcDbEntity
  8
1
  6
Continuous
100
AcDbCircle
 10
39.35679581650668
 20
269.2792770205432
 30
0.0
 40
2.778000099999998
100
AcDbArc
 50
194.12632
 51
222.5338600000001
  0
ARC
  5
1CB
330
18
100
AcDbEntity
  8
1
  6
Continuous
100
AcDbCircle
 10
39.35679581650668
 20
269.2792770205432
 30
0.0
 40
2.778000099999998
100
AcDbArc
 50
317.4661300000002
 51
345.87368
  0
ARC
  5
1CC
330
18
100
AcDbEntity
  8
1
  6
Continuous
100
AcDbCircle
 10
44.84623681650679
 20
269.2792770205432
 30
0.0
 40
2.778000099999998
100
AcDbArc
 50
194.12632
 51
222.5338600000001
  0
ARC
  5
1CD
330
18
100
AcDbEntity
  8
1
  6
Continuous
100
AcDbCircle
 10
50.33567781650678
 20
269.2792770205432
 30
0.0
 40
2.778000099999998
100
AcDbArc
 50
194.12632
 51
222.5338600000001
  0
ARC
  5
1CE
330
18
100
AcDbEntity
  8
1
  6
Continuous
100
AcDbCircle
 10
44.84623681650679
 20
269.2792770205432
 30
0.0
 40
2.778000099999998
100
AcDbArc
 50
317.4661300000002
 51
345.87368
  0
ARC
  5
1CF
330
18
100
AcDbEntity
  8
1
  6
Continuous
100
AcDbCircle
 10
60.34622881650682
 20
258.2932960205431
 30
0.0
 40
2.5
100
AcDbArc
 50
0.0
 51
91.79247600000008
  0
ARC
  5
1D0
330
18
100
AcDbEntity
  8
1
  6
Continuous
100
AcDbCircle
 10
60.34623681650678
 20
258.4453570205431
 30
0.0
 40
0.5
100
AcDbArc
 50
0.0
 51
92.69169100000024
  0
ARC
  5
1D1
330
18
100
AcDbEntity
  8
1
  6
Continuous
100
AcDbCircle
 10
55.30211581650667
 20
269.2792770205432
 30
0.0
 40
2.778000099999998
100
AcDbArc
 50
317.4661300000002
 51
345.87368
  0
ARC
  5
1D2
330
18
100
AcDbEntity
  8
1
  6
Continuous
100
AcDbCircle
 10
55.30211581650667
 20
269.2792770205432
 30
0.0
 40
2.778000099999998
100
AcDbArc
 50
206.6342499999995
 51
222.5338600000001
  0
ARC
  5
1D3
330
18
100
AcDbEntity
  8
1
  6
Continuous
100
AcDbCircle
 10
50.33567781650678
 20
269.2792770205432
 30
0.0
 40
2.778000099999998
100
AcDbArc
 50
317.4661300000002
 51
345.87368
  0
ARC
  5
1D4
330
18
100
AcDbEntity
  8
1
  6
Continuous
100
AcDbCircle
 10
59.27235381650667
 20
269.2792770205432
 30
0.0
 40
2.778000099999998
100
AcDbArc
 50
317.4661300000002
 51
345.87368
  0
ARC
  5
1D5
330
18
100
AcDbEntity
  8
1
  6
Continuous
100
AcDbCircle
 10
61.86814881650679
 20
269.2792770205432
 30
0.0
 40
2.778000099999998
100
AcDbArc
 50
317.4661300000002
 51
345.87368
  0
ARC
  5
1D6
330
18
100
AcDbEntity
  8
1
  6
Continuous
100
AcDbCircle
 10
62.84216281650667
 20
269.2792770205432
 30
0.0
 40
2.778000099999998
100
AcDbArc
 50
317.4661300000002
 51
345.87368
  0
LINE
  5
1D7
330
18
100
AcDbEntity
  8
4
  6
CENTER
 48
0.5
100
AcDbLine
 10
182.0590431928165
 20
263.302262020543
 30
0.0
 11
182.0590431928165
 21
150.4340270205432
 31
0.0
  0
LINE
  5
1D8
330
18
100
AcDbEntity
  8
1
  6
Continuous
100
AcDbLine
 10
69.84624081650668
 20
237.3010935205431
 30
0.0
 11
69.34573281650682
 21
264.4565610205432
 31
0.0
  0
LINE
  5
1D9
330
18
100
AcDbEntity
  8
1
  6
Continuous
100
AcDbLine
 10
70.32069781650682
 20
269.9603300205431
 30
0.0
 11
72.15134381650681
 21
273.5294670205431
 31
0.0
  0
ARC
  5
1DA
330
18
100
AcDbEntity
  8
1
  6
Continuous
100
AcDbCircle
 10
68.09623681650669
 20
271.1012750205432
 30
0.0
 40
2.5
100
AcDbArc
 50
270.0
 51
332.84629
  0
ARC
  5
1DB
330
18
100
AcDbEntity
  8
1
  6
Continuous
100
AcDbCircle
 10
72.59623681650669
 20
273.301276020543
 30
0.0
 40
0.5
100
AcDbArc
 50
90.00000300000015
 51
152.8462899999999
  0
LINE
  5
1DC
330
18
100
AcDbEntity
  8
1
  6
Continuous
100
AcDbLine
 10
73.8462368165068
 20
275.801276020543
 30
0.0
 11
73.8462368165068
 21
273.801276020543
 31
0.0
  0
LINE
  5
1DD
330
18
100
AcDbEntity
  8
1
  6
Continuous
100
AcDbLine
 10
171.3884421928165
 20
204.5939470205431
 30
0.0
 11
175.4036701928163
 21
258.6451310205431
 31
0.0
  0
LINE
  5
1DE
330
18
100
AcDbEntity
  8
1
  6
Continuous
100
AcDbLine
 10
197.4382731928163
 20
262.2861700205431
 30
0.0
 11
197.4382731928163
 21
214.4912750205431
 31
0.0
  0
LINE
  5
1E0
330
18
100
AcDbEntity
  8
1
  6
Continuous
100
AcDbLine
 10
183.2272031928165
 20
196.3928020205431
 30
0.0
 11
187.8908931928163
 21
199.0853830205431
 31
0.0
  0
LINE
  5
1E1
330
18
100
AcDbEntity
  8
1
  6
Continuous
100
AcDbLine
 10
176.2272021928164
 20
199.085387020543
 30
0.0
 11
180.8908931928165
 21
196.3928060205431
 31
0.0
  0
CIRCLE
  5
1E2
330
18
100
AcDbEntity
  8
1
  6
Continuous
100
AcDbCircle
 10
182.0590431928165
 20
203.8012760205432
 30
0.0
 40
6.3000002
  0
ARC
  5
1E3
330
18
100
AcDbEntity
  8
1
  6
Continuous
100
AcDbCircle
 10
182.0590431928165
 20
203.8012760205432
 30
0.0
 40
10.7
100
AcDbArc
 50
175.7515499999999
 51
329.3865299999998
  0
ARC
  5
1E4
330
18
100
AcDbEntity
  8
1
  6
Continuous
100
AcDbCircle
 10
182.0590431928165
 20
203.8012760205432
 30
0.0
 40
7.5
100
AcDbArc
 50
261.0394499999999
 51
278.9605599999999
  0
LINE
  5
1E5
330
18
100
AcDbEntity
  8
1
  6
Continuous
100
AcDbLine
 10
183.2272031928165
 20
211.2097420205432
 30
0.0
 11
187.8908931928163
 21
208.517161020543
 31
0.0
  0
LINE
  5
1E6
330
18
100
AcDbEntity
  8
1
  6
Continuous
100
AcDbLine
 10
176.2271951928165
 20
208.5171550205431
 30
0.0
 11
180.8909031928163
 21
211.2097440205431
 31
0.0
  0
LINE
  5
1E7
330
18
100
AcDbEntity
  8
1
  6
Continuous
100
AcDbLine
 10
175.0590431928164
 20
206.4938570205431
 30
0.0
 11
175.0590431928164
 21
201.1086950205431
 31
0.0
  0
ARC
  5
1E8
330
18
100
AcDbEntity
  8
1
  6
Continuous
100
AcDbCircle
 10
182.0590431928165
 20
203.8012760205432
 30
0.0
 40
7.5
100
AcDbArc
 50
201.0394399999999
 51
218.9605299999999
  0
ARC
  5
1E9
330
18
100
AcDbEntity
  8
1
  6
Continuous
100
AcDbCircle
 10
182.0590431928165
 20
203.8012760205432
 30
0.0
 40
7.5
100
AcDbArc
 50
141.03953
 51
158.96056
  0
CIRCLE
  5
1EA
330
18
100
AcDbEntity
  8
1
  6
Continuous
100
AcDbCircle
 10
182.0590431928165
 20
203.8012760205432
 30
0.0
 40
2.299999999999998
  0
ARC
  5
1EB
330
18
100
AcDbEntity
  8
1
  6
Continuous
100
AcDbCircle
 10
182.0590431928165
 20
203.8012760205432
 30
0.0
 40
7.5
100
AcDbArc
 50
81.03948399999987
 51
98.96051400000031
  0
LINE
  5
1EC
330
18
100
AcDbEntity
  8
1
  6
Continuous
100
AcDbLine
 10
189.0590431928164
 20
206.4938570205431
 30
0.0
 11
189.0590431928164
 21
201.1086950205431
 31
0.0
  0
ARC
  5
1ED
330
18
100
AcDbEntity
  8
1
  6
Continuous
100
AcDbCircle
 10
182.0590431928165
 20
203.8012760205432
 30
0.0
 40
7.5
100
AcDbArc
 50
321.0394400000001
 51
338.9605400000001
  0
ARC
  5
1EE
330
18
100
AcDbEntity
  8
1
  6
Continuous
100
AcDbCircle
 10
182.0590431928165
 20
203.8012760205432
 30
0.0
 40
7.5
100
AcDbArc
 50
21.03945999999992
 51
38.96051599999968
  0
LINE
  5
1EF
330
18
100
AcDbEntity
  8
1
  6
Continuous
100
AcDbLine
 10
164.0590431928165
 20
275.801276020543
 30
0.0
 11
164.0590431928165
 21
273.801276020543
 31
0.0
  0
LINE
  5
1F0
330
18
100
AcDbEntity
  8
1
  6
Continuous
100
AcDbLine
 10
171.8590461928164
 20
260.5508200205432
 30
0.0
 11
196.5317131928163
 21
264.9012760205431
 31
0.0
  0
ARC
  5
1F1
330
18
100
AcDbEntity
  8
1
  6
Continuous
100
AcDbCircle
 10
174.3590461928165
 20
257.945357020543
 30
0.0
 40
1.0
100
AcDbArc
 50
3.894044099999868
 51
100.0000000000001
  0
LINE
  5
1F2
330
18
100
AcDbEntity
  8
1
  6
Continuous
100
AcDbLine
 10
171.8590461928164
 20
260.5508200205432
 30
0.0
 11
172.2063361928166
 21
258.5812040205431
 31
0.0
  0
LINE
  5
1F3
330
18
100
AcDbEntity
  8
1
  6
Continuous
100
AcDbLine
 10
172.2063361928166
 20
258.5812040205431
 30
0.0
 11
174.1853931928163
 21
258.9301630205431
 31
0.0
  0
ARC
  5
1F4
330
18
100
AcDbEntity
  8
1
  6
Continuous
100
AcDbCircle
 10
173.4091711928165
 20
258.7932960205431
 30
0.0
 40
2.0
100
AcDbArc
 50
356.49043
 51
100.0000000000001
  0
LINE
  5
1F5
330
18
100
AcDbEntity
  8
1
  6
Continuous
100
AcDbLine
 10
189.1590431928165
 20
263.601279020543
 30
0.0
 11
189.6989331928164
 21
265.3067120205431
 31
0.0
  0
LINE
  5
1F6
330
18
100
AcDbEntity
  8
1
  6
Continuous
100
AcDbLine
 10
188.5845831928165
 20
269.9603260205431
 30
0.0
 11
186.7539331928164
 21
273.5294640205431
 31
0.0
  0
ARC
  5
1F7
330
18
100
AcDbEntity
  8
1
  6
Continuous
100
AcDbCircle
 10
192.5590431928164
 20
264.4012760205431
 30
0.0
 40
3.0
100
AcDbArc
 50
90.00000300000015
 51
162.4335399999998
  0
ARC
  5
1F8
330
18
100
AcDbEntity
  8
1
  6
Continuous
100
AcDbCircle
 10
190.8090431928163
 20
271.1012750205432
 30
0.0
 40
2.5
100
AcDbArc
 50
207.15371
 51
270.0
  0
ARC
  5
1F9
330
18
100
AcDbEntity
  8
1
  6
Continuous
100
AcDbCircle
 10
196.0631131928165
 20
269.2792770205432
 30
0.0
 40
2.778000099999998
100
AcDbArc
 50
194.12632
 51
222.5338600000001
  0
ARC
  5
1FA
330
18
100
AcDbEntity
  8
1
  6
Continuous
100
AcDbCircle
 10
197.0371331928165
 20
269.2792770205432
 30
0.0
 40
2.778000099999998
100
AcDbArc
 50
194.12632
 51
222.5338600000001
  0
ARC
  5
1FB
330
18
100
AcDbEntity
  8
1
  6
Continuous
100
AcDbCircle
 10
186.3090431928164
 20
273.301276020543
 30
0.0
 40
0.5
100
AcDbArc
 50
27.15370899999993
 51
90.00000300000015
  0
ARC
  5
1FC
330
18
100
AcDbEntity
  8
1
  6
Continuous
100
AcDbCircle
 10
199.6329231928164
 20
269.2792770205432
 30
0.0
 40
2.778000099999998
100
AcDbArc
 50
194.12632
 51
222.5338600000001
  0
ARC
  5
1FD
330
18
100
AcDbEntity
  8
1
  6
Continuous
100
AcDbCircle
 10
203.6031731928164
 20
269.2792770205432
 30
0.0
 40
2.778000099999998
100
AcDbArc
 50
194.12632
 51
222.5338600000001
  0
LINE
  5
1FE
330
18
100
AcDbEntity
  8
4
  6
CENTER
 48
0.5
100
AcDbLine
 10
182.0590431928165
 20
393.161337356592
 30
0.0
 11
182.0590431928165
 21
328.1613543565919
 31
0.0
  0
ARC
  5
200
330
18
100
AcDbEntity
  8
1
  6
Continuous
100
AcDbCircle
 10
81.59238369281657
 20
360.661357356592
 30
0.0
 40
85.0
100
AcDbArc
 50
346.5596799999998
 51
13.44032100000005
  0
ARC
  5
201
330
18
100
AcDbEntity
  8
1
  6
Continuous
100
AcDbCircle
 10
171.5590431928164
 20
339.1613573565919
 30
0.0
 40
7.5
100
AcDbArc
 50
166.55968
 51
269.9999499999996
  0
CIRCLE
  5
204
330
18
100
AcDbEntity
  8
1
  6
Continuous
100
AcDbCircle
 10
173.0590431928163
 20
340.6613573565918
 30
0.0
 40
4.400000099999997
  0
LINE
  5
205
330
18
100
AcDbEntity
  8
4
  6
CENTER
 48
0.2
100
AcDbLine
 10
173.0590431928163
 20
334.6613573565918
 30
0.0
 11
173.0590431928163
 21
346.6613573565918
 31
0.0
  0
LINE
  5
206
330
18
100
AcDbEntity
  8
4
  6
CENTER
 48
0.2
100
AcDbLine
 10
167.0590431928165
 20
340.6613573565918
 30
0.0
 11
179.0590431928164
 21
340.6613573565918
 31
0.0
  0
ARC
  5
207
330
18
100
AcDbEntity
  8
1
  6
Continuous
100
AcDbCircle
 10
171.5590431928164
 20
382.1613573565918
 30
0.0
 40
7.5
100
AcDbArc
 50
89.99998199999998
 51
193.4402899999998
  0
LINE
  5
20A
330
18
100
AcDbEntity
  8
4
  6
CENTER
 48
0.2
100
AcDbLine
 10
173.0590431928163
 20
386.6613573565921
 30
0.0
 11
173.0590431928163
 21
374.661357356592
 31
0.0
  0
CIRCLE
  5
20B
330
18
100
AcDbEntity
  8
1
  6
Continuous
100
AcDbCircle
 10
173.0590431928163
 20
380.661357356592
 30
0.0
 40
4.400000099999997
  0
LINE
  5
20C
330
18
100
AcDbEntity
  8
4
  6
CENTER
 48
0.2
100
AcDbLine
 10
167.0590431928165
 20
380.661357356592
 30
0.0
 11
179.0590431928164
 21
380.661357356592
 31
0.0
  0
LINE
  5
20D
330
18
100
AcDbEntity
  8
4
  6
CENTER
 48
0.1
100
AcDbLine
 10
255.0590431928165
 20
279.6457600205431
 30
0.0
 11
255.0590431928165
 21
269.9567920205431
 31
0.0
  0
LINE
  5
20E
330
18
100
AcDbEntity
  8
4
  6
CENTER
 48
0.5
100
AcDbLine
 10
214.0590431928165
 20
281.5418990205431
 30
0.0
 11
214.0590431928165
 21
221.5346060205432
 31
0.0
  0
ARC
  5
210
330
18
100
AcDbEntity
  8
1
  6
Continuous
100
AcDbCircle
 10
229.0590431928165
 20
252.4012760205431
 30
0.0
 40
5.0
100
AcDbArc
 50
90.00000300000015
 51
149.3865399999996
  0
ARC
  5
211
330
18
100
AcDbEntity
  8
1
  6
Continuous
100
AcDbCircle
 10
203.6031731928164
 20
269.2792770205432
 30
0.0
 40
2.778000099999998
100
AcDbArc
 50
317.4661300000002
 51
333.3657600000002
  0
ARC
  5
212
330
18
100
AcDbEntity
  8
1
  6
Continuous
100
AcDbCircle
 10
208.5696031928164
 20
269.2792770205432
 30
0.0
 40
2.778000099999998
100
AcDbArc
 50
194.12632
 51
222.5338600000001
  0
ARC
  5
213
330
18
100
AcDbEntity
  8
1
  6
Continuous
100
AcDbCircle
 10
214.0590431928165
 20
269.2792770205432
 30
0.0
 40
2.778000099999998
100
AcDbArc
 50
194.12632
 51
222.5338600000001
  0
ARC
  5
214
330
18
100
AcDbEntity
  8
1
  6
Continuous
100
AcDbCircle
 10
208.5696031928164
 20
269.2792770205432
 30
0.0
 40
2.778000099999998
100
AcDbArc
 50
317.4661300000002
 51
345.87368
  0
ARC
  5
215
330
18
100
AcDbEntity
  8
1
  6
Continuous
100
AcDbCircle
 10
219.5484831928165
 20
269.2792770205432
 30
0.0
 40
2.778000099999998
100
AcDbArc
 50
194.12632
 51
222.5338600000001
  0
ARC
  5
216
330
18
100
AcDbEntity
  8
1
  6
Continuous
100
AcDbCircle
 10
214.0590431928165
 20
269.2792770205432
 30
0.0
 40
2.778000099999998
100
AcDbArc
 50
317.4661300000002
 51
345.87368
  0
ARC
  5
217
330
18
100
AcDbEntity
  8
1
  6
Continuous
100
AcDbCircle
 10
224.5149131928164
 20
269.2792770205432
 30
0.0
 40
2.778000099999998
100
AcDbArc
 50
206.6342499999995
 51
222.5338600000001
  0
ARC
  5
218
330
18
100
AcDbEntity
  8
1
  6
Continuous
100
AcDbCircle
 10
219.5484831928165
 20
269.2792770205432
 30
0.0
 40
2.778000099999998
100
AcDbArc
 50
317.4661300000002
 51
345.87368
  0
ARC
  5
219
330
18
100
AcDbEntity
  8
1
  6
Continuous
100
AcDbCircle
 10
235.5590431928165
 20
264.4012760205431
 30
0.0
 40
3.0
100
AcDbArc
 50
0.0
 51
90.00000300000015
  0
LINE
  5
21A
330
18
100
AcDbEntity
  8
1
  6
Continuous
100
AcDbLine
 10
229.0590431928165
 20
257.4012760205431
 30
0.0
 11
238.5590431928165
 21
257.4012760205431
 31
0.0
  0
LINE
  5
21B
330
18
100
AcDbEntity
  8
1
  6
Continuous
100
AcDbLine
 10
238.5590431928165
 20
264.4012760205431
 30
0.0
 11
238.5590431928165
 21
257.4012760205431
 31
0.0
  0
ARC
  5
21C
330
18
100
AcDbEntity
  8
1
  6
Continuous
100
AcDbCircle
 10
232.0549731928164
 20
269.2792770205432
 30
0.0
 40
2.778000099999998
100
AcDbArc
 50
317.4661300000002
 51
345.87368
  0
ARC
  5
21D
330
18
100
AcDbEntity
  8
1
  6
Continuous
100
AcDbCircle
 10
224.5149131928164
 20
269.2792770205432
 30
0.0
 40
2.778000099999998
100
AcDbArc
 50
317.4661300000002
 51
345.87368
  0
ARC
  5
21E
330
18
100
AcDbEntity
  8
1
  6
Continuous
100
AcDbCircle
 10
231.0809531928164
 20
269.2792770205432
 30
0.0
 40
2.778000099999998
100
AcDbArc
 50
317.4661300000002
 51
345.87368
  0
ARC
  5
21F
330
18
100
AcDbEntity
  8
1
  6
Continuous
100
AcDbCircle
 10
228.4851631928165
 20
269.2792770205432
 30
0.0
 40
2.778000099999998
100
AcDbArc
 50
317.4661300000002
 51
345.87368
  0
LINE
  5
220
330
18
100
AcDbEntity
  8
1
  6
Continuous
100
AcDbLine
 10
239.5335031928165
 20
269.9603260205431
 30
0.0
 11
241.3641531928165
 21
273.5294670205431
 31
0.0
  0
ARC
  5
221
330
18
100
AcDbEntity
  8
1
  6
Continuous
100
AcDbCircle
 10
237.3090431928165
 20
271.1012750205432
 30
0.0
 40
2.5
100
AcDbArc
 50
270.0
 51
332.84629
  0
ARC
  5
222
330
18
100
AcDbEntity
  8
1
  6
Continuous
100
AcDbCircle
 10
241.8090431928165
 20
273.301276020543
 30
0.0
 40
0.5
100
AcDbArc
 50
90.00000300000015
 51
152.8462899999999
  0
LINE
  5
223
330
18
100
AcDbEntity
  8
1
  6
Continuous
100
AcDbLine
 10
264.0590431928164
 20
275.801276020543
 30
0.0
 11
264.0590431928164
 21
273.801276020543
 31
0.0
  0
ARC
  5
224
330
18
100
AcDbEntity
  8
1
  6
Continuous
100
AcDbCircle
 10
346.5257131928166
 20
360.661357356592
 30
0.0
 40
85.0
100
AcDbArc
 50
166.55964
 51
193.4402899999998
  0
LINE
  5
225
330
18
100
AcDbEntity
  8
4
  6
CENTER
 48
0.5
100
AcDbLine
 10
214.0590431928165
 20
395.7508040857644
 30
0.0
 11
214.0590431928165
 21
324.0525690989234
 31
0.0
  0
LINE
  5
227
330
18
100
AcDbEntity
  8
4
  6
CENTER
 48
0.2
100
AcDbLine
 10
255.0590431928165
 20
334.6613573565918
 30
0.0
 11
255.0590431928165
 21
346.6613573565918
 31
0.0
  0
CIRCLE
  5
228
330
18
100
AcDbEntity
  8
1
  6
Continuous
100
AcDbCircle
 10
255.0590431928165
 20
340.6613573565918
 30
0.0
 40
4.400000099999997
  0
ARC
  5
229
330
18
100
AcDbEntity
  8
1
  6
Continuous
100
AcDbCircle
 10
256.5590431928165
 20
339.1613573565919
 30
0.0
 40
7.5
100
AcDbArc
 50
270.0000200000004
 51
13.44028200000016
  0
LINE
  5
22A
330
18
100
AcDbEntity
  8
4
  6
CENTER
 48
0.2
100
AcDbLine
 10
261.0590431928164
 20
340.6613573565918
 30
0.0
 11
249.0590431928165
 21
340.6613573565918
 31
0.0
  0
ARC
  5
22C
330
18
100
AcDbEntity
  8
1
  6
Continuous
100
AcDbCircle
 10
256.5590431928165
 20
382.1613573565918
 30
0.0
 40
7.5
100
AcDbArc
 50
346.5596799999998
 51
89.99998199999998
  0
LINE
  5
22D
330
18
100
AcDbEntity
  8
4
  6
CENTER
 48
0.2
100
AcDbLine
 10
255.0590431928165
 20
386.6613573565921
 30
0.0
 11
255.0590431928165
 21
374.661357356592
 31
0.0
  0
CIRCLE
  5
22E
330
18
100
AcDbEntity
  8
1
  6
Continuous
100
AcDbCircle
 10
255.0590431928165
 20
380.661357356592
 30
0.0
 40
4.400000099999997
  0
LINE
  5
22F
330
18
100
AcDbEntity
  8
4
  6
CENTER
 48
0.2
100
AcDbLine
 10
261.0590431928164
 20
380.661357356592
 30
0.0
 11
249.0590431928165
 21
380.661357356592
 31
0.0
  0
LINE
  5
301
330
18
100
AcDbEntity
  8
1
  6
Continuous
100
AcDbLine
 10
175.3590431771084
 20
93.31455070449436
 30
0.0
 11
188.7590431771083
 21
93.31455070449436
 31
0.0
  0
ARC
  5
303
330
18
100
AcDbEntity
  8
1
  6
Continuous
100
AcDbCircle
 10
177.7271931928163
 20
91.81456068449431
 30
0.0
 40
1.5
100
AcDbArc
 50
90.00000299999769
 51
180.0000100000009
  0
ARC
  5
304
330
18
100
AcDbEntity
  8
1
  6
Continuous
100
AcDbCircle
 10
177.7271931928163
 20
90.8145606844941
 30
0.0
 40
1.5
100
AcDbArc
 50
179.9999899999988
 51
270.0
  0
LINE
  5
305
330
18
100
AcDbEntity
  8
1
  6
Continuous
100
AcDbLine
 10
176.2271931928164
 20
90.8145606844941
 30
0.0
 11
176.2271931928164
 21
91.81456068449431
 31
0.0
  0
LINE
  5
306
330
18
100
AcDbEntity
  8
1
  6
Continuous
100
AcDbLine
 10
175.0590431928164
 20
89.61456068449406
 30
0.0
 11
175.0590431928164
 21
93.01455068449415
 31
0.0
  0
ARC
  5
307
330
18
100
AcDbEntity
  8
1
  6
Continuous
100
AcDbCircle
 10
175.3590431928163
 20
89.61456068449406
 30
0.0
 40
0.30000001
100
AcDbArc
 50
179.9999899999988
 51
270.0
  0
ARC
  5
308
330
18
100
AcDbEntity
  8
1
  6
Continuous
100
AcDbCircle
 10
175.3590431928163
 20
93.01455068449415
 30
0.0
 40
0.30000001
100
AcDbArc
 50
90.00000299999769
 51
180.0000100000009
  0
ARC
  5
309
330
18
100
AcDbEntity
  8
1
  6
Continuous
100
AcDbCircle
 10
188.7590431928163
 20
93.01455068449415
 30
0.0
 40
0.30000001
100
AcDbArc
 50
0.0
 51
90.00000299999769
  0
ARC
  5
30A
330
18
100
AcDbEntity
  8
1
  6
Continuous
100
AcDbCircle
 10
186.3908931928165
 20
91.81456068449431
 30
0.0
 40
1.5
100
AcDbArc
 50
0.0
 51
90.00000299999769
  0
ARC
  5
30B
330
18
100
AcDbEntity
  8
1
  6
Continuous
100
AcDbCircle
 10
188.7590431928163
 20
89.61456068449406
 30
0.0
 40
0.30000001
100
AcDbArc
 50
270.0
 51
0.0
  0
ARC
  5
30C
330
18
100
AcDbEntity
  8
1
  6
Continuous
100
AcDbCircle
 10
186.3908931928165
 20
90.8145606844941
 30
0.0
 40
1.5
100
AcDbArc
 50
270.0
 51
0.0
  0
LINE
  5
30D
330
18
100
AcDbEntity
  8
1
  6
Continuous
100
AcDbLine
 10
189.0590431928164
 20
89.61456068449406
 30
0.0
 11
189.0590431928164
 21
93.01455068449415
 31
0.0
  0
LINE
  5
30E
330
18
100
AcDbEntity
  8
1
  6
Continuous
100
AcDbLine
 10
187.8908931928163
 20
90.8145606844941
 30
0.0
 11
187.8908931928163
 21
91.81456068449431
 31
0.0
  0
ARC
  5
30F
330
18
100
AcDbEntity
  8
1
  6
Continuous
100
AcDbCircle
 10
184.7271931928164
 20
91.81456068449431
 30
0.0
 40
1.5
100
AcDbArc
 50
90.00000299999769
 51
180.0000100000009
  0
ARC
  5
310
330
18
100
AcDbEntity
  8
1
  6
Continuous
100
AcDbCircle
 10
179.3908931928164
 20
91.81456068449431
 30
0.0
 40
1.5
100
AcDbArc
 50
0.0
 51
90.00000299999769
  0
ARC
  5
311
330
18
100
AcDbEntity
  8
1
  6
Continuous
100
AcDbCircle
 10
184.7271931928164
 20
90.8145606844941
 30
0.0
 40
1.5
100
AcDbArc
 50
179.9999899999988
 51
270.0
  0
ARC
  5
312
330
18
100
AcDbEntity
  8
1
  6
Continuous
100
AcDbCircle
 10
179.3908931928164
 20
90.8145606844941
 30
0.0
 40
1.5
100
AcDbArc
 50
270.0
 51
0.0
  0
LINE
  5
313
330
18
100
AcDbEntity
  8
1
  6
Continuous
100
AcDbLine
 10
180.8908931928165
 20
90.8145606844941
 30
0.0
 11
180.8908931928165
 21
91.81456068449431
 31
0.0
  0
LINE
  5
314
330
18
100
AcDbEntity
  8
1
  6
Continuous
100
AcDbLine
 10
183.2271931928163
 20
90.8145606844941
 30
0.0
 11
183.2271931928163
 21
91.81456068449431
 31
0.0
  0
LINE
  5
5CF
330
18
100
AcDbEntity
  8
4
  6
CENTER
 48
0.5
100
AcDbLine
 10
127.4311415703968
 20
71.31456868449429
 30
0.0
 11
267.9611389084239
 21
71.31456868449429
 31
0.0
  0
LINE
  5
5D5
330
18
100
AcDbEntity
  8
4
  6
CENTER
 48
0.2
100
AcDbLine
 10
173.0590431928163
 20
97.31456868449436
 30
0.0
 11
173.0590431928163
 21
85.31456868449442
 31
0.0
  0
LINE
  5
5D6
330
18
100
AcDbEntity
  8
4
  6
CENTER
 48
0.5
100
AcDbLine
 10
214.0590431928165
 20
36.22512195532181
 30
0.0
 11
214.0590431928165
 21
107.9233569421627
 31
0.0
  0
LINE
  5
5D7
330
18
100
AcDbEntity
  8
4
  6
CENTER
 48
0.5
100
AcDbLine
 10
182.0590431928165
 20
38.81458868449431
 30
0.0
 11
182.0590431928165
 21
103.8145716844943
 31
0.0
  0
ARC
  5
5D8
330
18
100
AcDbEntity
  8
1
  6
Continuous
100
AcDbCircle
 10
173.0590431928163
 20
91.31456868449442
 30
0.0
 40
4.400000099999997
100
AcDbArc
 50
27.03542826992837
 51
294.6199801702324
  0
ARC
  5
5D9
330
18
100
AcDbEntity
  8
1
  6
Continuous
100
AcDbCircle
 10
81.59238369281657
 20
71.31456868449429
 30
0.0
 40
85.0
100
AcDbArc
 50
346.5596789999998
 51
351.5434806647296
  0
LINE
  5
5DA
330
18
100
AcDbEntity
  8
4
  6
CENTER
 48
0.2
100
AcDbLine
 10
167.0590431928165
 20
91.31456868449442
 30
0.0
 11
179.0590431928164
 21
91.31456868449442
 31
0.0
  0
ARC
  5
5DB
330
18
100
AcDbEntity
  8
1
  6
Continuous
100
AcDbCircle
 10
171.5590431928164
 20
92.8145686844943
 30
0.0
 40
7.5
100
AcDbArc
 50
90.00005000000015
 51
193.4403199999999
  0
LINE
  5
5DD
330
18
100
AcDbEntity
  8
1
  6
Continuous
100
AcDbLine
 10
171.5590431928164
 20
100.3145716844943
 30
0.0
 11
256.5590458108104
 21
100.3145686844937
 31
0.0
  0
LINE
  5
5DF
330
18
100
AcDbEntity
  8
4
  6
CENTER
 48
0.2
100
AcDbLine
 10
167.0590431928165
 20
51.31456868449428
 30
0.0
 11
179.0590431928164
 21
51.31456868449428
 31
0.0
  0
ARC
  5
5E0
330
18
100
AcDbEntity
  8
1
  6
Continuous
100
AcDbCircle
 10
171.5590431928164
 20
49.81456868449441
 30
0.0
 40
7.5
100
AcDbArc
 50
166.5597100000001
 51
270.0000179999999
  0
LINE
  5
5E8
330
18
100
AcDbEntity
  8
4
  6
CENTER
 48
0.2
100
AcDbLine
 10
173.0590431928163
 20
45.3145686844943
 30
0.0
 11
173.0590431928163
 21
57.31456868449431
 31
0.0
  0
ARC
  5
5E9
330
18
100
AcDbEntity
  8
1
  6
Continuous
100
AcDbCircle
 10
173.0590431928163
 20
51.31456868449428
 30
0.0
 40
4.400000099999997
100
AcDbArc
 50
65.38001982976023
 51
317.0146135575814
  0
LINE
  5
5EC
330
18
100
AcDbEntity
  8
1
  6
Continuous
100
AcDbLine
 10
171.5590431928164
 20
42.3145686844943
 30
0.0
 11
256.5590431928165
 21
42.3145686844943
 31
0.0
  0
LINE
  5
5EF
330
18
100
AcDbEntity
  8
4
  6
CENTER
 48
0.2
100
AcDbLine
 10
255.0590431928165
 20
97.31456868449436
 30
0.0
 11
255.0590431928165
 21
85.31456868449442
 31
0.0
  0
CIRCLE
  5
5F0
330
18
100
AcDbEntity
  8
1
  6
Continuous
100
AcDbCircle
 10
255.0590431928165
 20
91.31456868449442
 30
0.0
 40
4.400000099999997
  0
ARC
  5
5F1
330
18
100
AcDbEntity
  8
1
  6
Continuous
100
AcDbCircle
 10
346.5257131928166
 20
71.31456868449429
 30
0.0
 40
85.0
100
AcDbArc
 50
166.5597100000001
 51
193.4403599999999
  0
LINE
  5
5F2
330
18
100
AcDbEntity
  8
4
  6
CENTER
 48
0.2
100
AcDbLine
 10
261.0590431928164
 20
91.31456868449442
 30
0.0
 11
249.0590431928165
 21
91.31456868449442
 31
0.0
  0
ARC
  5
5F3
330
18
100
AcDbEntity
  8
1
  6
Continuous
100
AcDbCircle
 10
256.5590431928165
 20
92.8145686844943
 30
0.0
 40
7.5
100
AcDbArc
 50
346.5597179999999
 51
89.99997999999962
  0
LINE
  5
5F5
330
18
100
AcDbEntity
  8
4
  6
CENTER
 48
0.2
100
AcDbLine
 10
255.0590431928165
 20
45.3145686844943
 30
0.0
 11
255.0590431928165
 21
57.31456868449431
 31
0.0
  0
ARC
  5
5F6
330
18
100
AcDbEntity
  8
1
  6
Continuous
100
AcDbCircle
 10
256.5590431928165
 20
49.81456868449441
 30
0.0
 40
7.5
100
AcDbArc
 50
270.0000179999999
 51
13.44031999999993
  0
LINE
  5
5F7
330
18
100
AcDbEntity
  8
4
  6
CENTER
 48
0.2
100
AcDbLine
 10
261.0590431928164
 20
51.31456868449428
 30
0.0
 11
249.0590431928165
 21
51.31456868449428
 31
0.0
  0
CIRCLE
  5
5F8
330
18
100
AcDbEntity
  8
1
  6
Continuous
100
AcDbCircle
 10
255.0590431928165
 20
51.31456868449428
 30
0.0
 40
4.400000099999997
  0
LINE
  5
6AF
330
18
100
AcDbEntity
  8
4
  6
CENTER
 48
0.5
100
AcDbLine
 10
368.2718495691263
 20
281.5418990205431
 30
0.0
 11
368.2718495691263
 21
150.4340270205432
 31
0.0
  0
LINE
  5
6B0
330
18
100
AcDbEntity
  8
1
  6
Continuous
100
AcDbLine
 10
386.2718415691263
 20
209.8813488965299
 30
0.0
 11
386.2718415691263
 21
193.1012790205431
 31
0.0
  0
LINE
  5
6B1
330
18
100
AcDbEntity
  8
1
  6
Continuous
100
AcDbLine
 10
384.2718495691262
 20
257.4012760205431
 30
0.0
 11
384.2718495691262
 21
193.1012790205431
 31
0.0
  0
LINE
  5
6B2
330
18
100
AcDbEntity
  8
1
  6
Continuous
100
AcDbLine
 10
352.2718495691262
 20
257.4012760205431
 30
0.0
 11
352.2718495691263
 21
193.1012790205431
 31
0.0
  0
LINE
  5
6B3
330
18
100
AcDbEntity
  8
1
  6
Continuous
100
AcDbLine
 10
393.2718495691263
 20
237.3010943205431
 30
0.0
 11
392.7713401356172
 21
264.4565602093539
 31
0.0
  0
LINE
  5
6B4
330
18
100
AcDbEntity
  8
1
  6
Continuous
100
AcDbLine
 10
350.2718575691261
 20
209.8813636666585
 30
0.0
 11
350.2718575691261
 21
193.1012790205431
 31
0.0
  0
LINE
  5
6B5
330
18
100
AcDbEntity
  8
1
  6
Continuous
100
AcDbLine
 10
343.2718455691263
 20
237.3010935205431
 30
0.0
 11
343.7723590063021
 21
264.4565604082876
 31
0.0
  0
LINE
  5
6BF
330
18
100
AcDbEntity
  8
4
  6
CENTER
 48
0.5
100
AcDbLine
 10
395.5317755691262
 20
203.8012760205432
 30
0.0
 11
343.2718495691263
 21
203.8012760205432
 31
0.0
  0
ARC
  5
6C0
330
18
100
AcDbEntity
  8
1
  6
Continuous
100
AcDbCircle
 10
335.2722085691263
 20
237.5044811205431
 30
0.0
 40
58.0
100
AcDbArc
 50
331.5585210818515
 51
359.7990899999999
  0
LINE
  5
6C2
330
18
100
AcDbEntity
  8
1
  6
Continuous
100
AcDbLine
 10
386.2718415691263
 20
193.1012790205431
 30
0.0
 11
384.2718495691262
 21
193.1012790205431
 31
0.0
  0
LINE
  5
6C8
330
18
100
AcDbEntity
  8
1
  6
Continuous
100
AcDbLine
 10
393.2718265691263
 20
200.426276020543
 30
0.0
 11
393.2718265691263
 21
207.1762760205432
 31
0.0
  0
LINE
  5
6C9
330
18
100
AcDbEntity
  8
1
  6
Continuous
100
AcDbLine
 10
392.6468265691262
 20
199.801276020543
 30
0.0
 11
392.6468265691262
 21
207.8012760205431
 31
0.0
  0
LINE
  5
6CB
330
18
100
AcDbEntity
  8
1
  6
Continuous
100
AcDbLine
 10
392.6468265691262
 20
199.801276020543
 30
0.0
 11
391.2718265691263
 21
199.801276020543
 31
0.0
  0
LINE
  5
6CC
330
18
100
AcDbEntity
  8
2
  6
Continuous
100
AcDbLine
 10
393.2718265691263
 20
200.426276020543
 30
0.0
 11
391.2718265691263
 21
200.426276020543
 31
0.0
  0
LINE
  5
6CD
330
18
100
AcDbEntity
  8
1
  6
Continuous
100
AcDbLine
 10
392.6468265691262
 20
199.8012800205431
 30
0.0
 11
393.2718265691263
 21
200.4262800205431
 31
0.0
  0
LINE
  5
6D4
330
18
100
AcDbEntity
  8
1
  6
Continuous
100
AcDbLine
 10
392.6468265691262
 20
207.8012760205431
 30
0.0
 11
391.2718265691263
 21
207.8012760205431
 31
0.0
  0
LINE
  5
6D5
330
18
100
AcDbEntity
  8
2
  6
Continuous
100
AcDbLine
 10
393.2718265691263
 20
207.1762760205432
 30
0.0
 11
391.2718265691263
 21
207.1762760205432
 31
0.0
  0
LINE
  5
6D6
330
18
100
AcDbEntity
  8
1
  6
Continuous
100
AcDbLine
 10
393.2718265691263
 20
207.1762760205432
 30
0.0
 11
392.6468265691262
 21
207.8012780205432
 31
0.0
  0
ARC
  5
6DF
330
18
100
AcDbEntity
  8
1
  6
Continuous
100
AcDbCircle
 10
401.2714985691261
 20
237.5044811205431
 30
0.0
 40
58.0
100
AcDbArc
 50
180.2009199999999
 51
208.4414623245785
  0
LINE
  5
6E2
330
18
100
AcDbEntity
  8
1
  6
Continuous
100
AcDbLine
 10
352.2718495691263
 20
193.1012790205431
 30
0.0
 11
350.2718575691261
 21
193.1012790205431
 31
0.0
  0
LINE
  5
6E5
330
18
100
AcDbEntity
  8
1
  6
Continuous
100
AcDbLine
 10
346.2718725691262
 20
209.801276020543
 30
0.0
 11
346.2718725691262
 21
197.8012760205429
 31
0.0
  0
ARC
  5
6E6
330
18
100
AcDbEntity
  8
1
  6
Continuous
100
AcDbCircle
 10
348.7718725691262
 20
197.8012760205429
 30
0.0
 40
1.5
100
AcDbArc
 50
270.0000500000001
 51
0.0000399999999616
  0
ARC
  5
6E7
330
18
100
AcDbEntity
  8
1
  6
Continuous
100
AcDbCircle
 10
347.7718725691262
 20
197.8012760205429
 30
0.0
 40
1.5
100
AcDbArc
 50
180.0
 51
270.0000399999999
  0
LINE
  5
6E8
330
18
100
AcDbEntity
  8
1
  6
Continuous
100
AcDbLine
 10
347.7718725691262
 20
196.3012760205431
 30
0.0
 11
348.7718725691262
 21
196.3012760205431
 31
0.0
  0
ARC
  5
6E9
330
18
100
AcDbEntity
  8
1
  6
Continuous
100
AcDbCircle
 10
348.7718725691262
 20
202.3012760205431
 30
0.0
 40
1.5
100
AcDbArc
 50
270.0000500000001
 51
0.0000399999999616
  0
LINE
  5
6EA
330
18
100
AcDbEntity
  8
1
  6
Continuous
100
AcDbLine
 10
347.7718725691262
 20
200.801276020543
 30
0.0
 11
348.7718725691262
 21
200.801276020543
 31
0.0
  0
LINE
  5
6EB
330
18
100
AcDbEntity
  8
1
  6
Continuous
100
AcDbLine
 10
347.7718725691262
 20
200.3012760205431
 30
0.0
 11
348.7718725691262
 21
200.3012760205431
 31
0.0
  0
ARC
  5
6EC
330
18
100
AcDbEntity
  8
1
  6
Continuous
100
AcDbCircle
 10
347.7718725691262
 20
202.3012760205431
 30
0.0
 40
1.5
100
AcDbArc
 50
180.0
 51
270.0000399999999
  0
ARC
  5
6ED
330
18
100
AcDbEntity
  8
1
  6
Continuous
100
AcDbCircle
 10
348.7718725691262
 20
198.801276020543
 30
0.0
 40
1.5
100
AcDbArc
 50
0.0000399999999616
 51
90.00001800000005
  0
ARC
  5
6EE
330
18
100
AcDbEntity
  8
1
  6
Continuous
100
AcDbCircle
 10
347.7718725691262
 20
198.801276020543
 30
0.0
 40
1.5
100
AcDbArc
 50
90.00001800000005
 51
180.0
  0
ARC
  5
6EF
330
18
100
AcDbEntity
  8
1
  6
Continuous
100
AcDbCircle
 10
348.7718725691262
 20
208.8012760205431
 30
0.0
 40
1.5
100
AcDbArc
 50
270.0000500000001
 51
0.0000399999999616
  0
ARC
  5
6F0
330
18
100
AcDbEntity
  8
1
  6
Continuous
100
AcDbCircle
 10
347.7718725691262
 20
208.8012760205431
 30
0.0
 40
1.5
100
AcDbArc
 50
180.0
 51
270.0000399999999
  0
ARC
  5
6F1
330
18
100
AcDbEntity
  8
1
  6
Continuous
100
AcDbCircle
 10
348.7718725691262
 20
205.301276020543
 30
0.0
 40
1.5
100
AcDbArc
 50
0.0000399999999616
 51
90.00001800000005
  0
ARC
  5
6F2
330
18
100
AcDbEntity
  8
1
  6
Continuous
100
AcDbCircle
 10
347.7718725691262
 20
205.301276020543
 30
0.0
 40
1.5
100
AcDbArc
 50
90.00001800000005
 51
180.0
  0
LINE
  5
6F3
330
18
100
AcDbEntity
  8
1
  6
Continuous
100
AcDbLine
 10
347.7718725691262
 20
206.8012760205431
 30
0.0
 11
348.7718725691262
 21
206.8012760205431
 31
0.0
  0
LINE
  5
6F4
330
18
100
AcDbEntity
  8
1
  6
Continuous
100
AcDbLine
 10
347.7718725691262
 20
207.301276020543
 30
0.0
 11
348.7718725691262
 21
207.301276020543
 31
0.0
  0
LINE
  5
6F5
330
18
100
AcDbEntity
  8
1
  6
Continuous
100
AcDbLine
 10
347.7718725691262
 20
211.301276020543
 30
0.0
 11
348.7718725691262
 21
211.301276020543
 31
0.0
  0
ARC
  5
6F6
330
18
100
AcDbEntity
  8
1
  6
Continuous
100
AcDbCircle
 10
348.7718725691262
 20
209.801276020543
 30
0.0
 40
1.5
100
AcDbArc
 50
0.0000399999999616
 51
3.227584970089228
  0
ARC
  5
6F7
330
18
100
AcDbEntity
  8
1
  6
Continuous
100
AcDbCircle
 10
347.7718725691262
 20
209.801276020543
 30
0.0
 40
1.5
100
AcDbArc
 50
90.00001800000005
 51
180.0
  0
LINE
  5
700
330
18
100
AcDbEntity
  8
1
  6
Continuous
100
AcDbLine
 10
389.7718495691263
 20
267.4012760205431
 30
0.0
 11
346.7718495691263
 21
267.4012760205431
 31
0.0
  0
LINE
  5
703
330
18
100
AcDbEntity
  8
4
  6
CENTER
 48
0.1
100
AcDbLine
 10
388.2718495691262
 20
279.6457600205431
 30
0.0
 11
388.2718495691262
 21
269.9567920205431
 31
0.0
  0
ARC
  5
706
330
18
100
AcDbEntity
  8
1
  6
Continuous
100
AcDbCircle
 10
391.5218495691263
 20
271.1012750205432
 30
0.0
 40
2.5
100
AcDbArc
 50
270.0
 51
332.84629
  0
ARC
  5
707
330
18
100
AcDbEntity
  8
1
  6
Continuous
100
AcDbCircle
 10
386.2677755691263
 20
269.2792770205432
 30
0.0
 40
2.778000099999998
100
AcDbArc
 50
317.4661399999997
 51
345.87368
  0
ARC
  5
708
330
18
100
AcDbEntity
  8
1
  6
Continuous
100
AcDbCircle
 10
382.6979665691262
 20
269.2792770205432
 30
0.0
 40
2.778000099999998
100
AcDbArc
 50
317.4661399999997
 51
345.87368
  0
ARC
  5
709
330
18
100
AcDbEntity
  8
1
  6
Continuous
100
AcDbCircle
 10
385.2937615691262
 20
269.2792770205432
 30
0.0
 40
2.778000099999998
100
AcDbArc
 50
317.4661399999997
 51
345.87368
  0
ARC
  5
70A
330
18
100
AcDbEntity
  8
1
  6
Continuous
100
AcDbCircle
 10
389.7718495691263
 20
264.4012760205431
 30
0.0
 40
3.0
100
AcDbArc
 50
1.055910000000204
 51
89.99999699999987
  0
LINE
  5
70B
330
18
100
AcDbEntity
  8
1
  6
Continuous
100
AcDbLine
 10
393.7463135691263
 20
269.9603280205431
 30
0.0
 11
395.5769565691263
 21
273.5294670205431
 31
0.0
  0
ARC
  5
70C
330
18
100
AcDbEntity
  8
1
  6
Continuous
100
AcDbCircle
 10
396.0218495691263
 20
273.301276020543
 30
0.0
 40
0.5
100
AcDbArc
 50
89.99999699999987
 51
152.8462909999999
  0
LINE
  5
70D
330
18
100
AcDbEntity
  8
1
  6
Continuous
100
AcDbLine
 10
397.2718495691263
 20
275.801276020543
 30
0.0
 11
397.2718495691263
 21
273.801276020543
 31
0.0
  0
ARC
  5
70E
330
18
100
AcDbEntity
  8
1
  6
Continuous
100
AcDbCircle
 10
378.7277285691262
 20
269.2792770205432
 30
0.0
 40
2.778000099999998
100
AcDbArc
 50
317.4661399999997
 51
345.87368
  0
ARC
  5
70F
330
18
100
AcDbEntity
  8
1
  6
Continuous
100
AcDbCircle
 10
373.7612905691263
 20
269.2792770205432
 30
0.0
 40
2.778000099999998
100
AcDbArc
 50
317.4661399999997
 51
345.87368
  0
ARC
  5
710
330
18
100
AcDbEntity
  8
1
  6
Continuous
100
AcDbCircle
 10
373.7612905691263
 20
269.2792770205432
 30
0.0
 40
2.778000099999998
100
AcDbArc
 50
194.12632
 51
222.5338699999996
  0
ARC
  5
711
330
18
100
AcDbEntity
  8
1
  6
Continuous
100
AcDbCircle
 10
368.2718495691263
 20
269.2792770205432
 30
0.0
 40
2.778000099999998
100
AcDbArc
 50
317.4661399999997
 51
345.87368
  0
ARC
  5
712
330
18
100
AcDbEntity
  8
1
  6
Continuous
100
AcDbCircle
 10
378.7277285691262
 20
269.2792770205432
 30
0.0
 40
2.778000099999998
100
AcDbArc
 50
206.6342399999998
 51
222.5338699999996
  0
LINE
  5
714
330
18
100
AcDbEntity
  8
4
  6
CENTER
 48
0.1
100
AcDbLine
 10
348.2718495691262
 20
279.6457600205431
 30
0.0
 11
348.2718495691262
 21
269.9567920205431
 31
0.0
  0
LINE
  5
715
330
18
100
AcDbEntity
  8
1
  6
Continuous
100
AcDbLine
 10
345.0218495691263
 20
268.601275020543
 30
0.0
 11
391.5218495691263
 21
268.601275020543
 31
0.0
  0
LINE
  5
716
330
18
100
AcDbEntity
  8
1
  6
Continuous
100
AcDbLine
 10
339.2718495691263
 20
275.801276020543
 30
0.0
 11
397.2718495691263
 21
275.801276020543
 31
0.0
  0
LINE
  5
717
330
18
100
AcDbEntity
  8
1
  6
Continuous
100
AcDbLine
 10
339.2718495691263
 20
273.801276020543
 30
0.0
 11
397.2718495691263
 21
273.801276020543
 31
0.0
  0
ARC
  5
718
330
18
100
AcDbEntity
  8
1
  6
Continuous
100
AcDbCircle
 10
362.7824085691262
 20
269.2792770205432
 30
0.0
 40
2.778000099999998
100
AcDbArc
 50
317.4661399999997
 51
345.87368
  0
ARC
  5
719
330
18
100
AcDbEntity
  8
1
  6
Continuous
100
AcDbCircle
 10
368.2718495691263
 20
269.2792770205432
 30
0.0
 40
2.778000099999998
100
AcDbArc
 50
194.12632
 51
222.5338699999996
  0
ARC
  5
71A
330
18
100
AcDbEntity
  8
1
  6
Continuous
100
AcDbCircle
 10
362.7824085691262
 20
269.2792770205432
 30
0.0
 40
2.778000099999998
100
AcDbArc
 50
194.12632
 51
222.5338699999996
  0
ARC
  5
71B
330
18
100
AcDbEntity
  8
1
  6
Continuous
100
AcDbCircle
 10
357.8159705691263
 20
269.2792770205432
 30
0.0
 40
2.778000099999998
100
AcDbArc
 50
194.12632
 51
222.5338699999996
  0
ARC
  5
71C
330
18
100
AcDbEntity
  8
1
  6
Continuous
100
AcDbCircle
 10
357.8159705691263
 20
269.2792770205432
 30
0.0
 40
2.778000099999998
100
AcDbArc
 50
317.4661399999997
 51
333.3657500000003
  0
ARC
  5
71D
330
18
100
AcDbEntity
  8
1
  6
Continuous
100
AcDbCircle
 10
345.0218495691263
 20
271.1012750205432
 30
0.0
 40
2.5
100
AcDbArc
 50
207.15371
 51
270.0
  0
ARC
  5
71E
330
18
100
AcDbEntity
  8
1
  6
Continuous
100
AcDbCircle
 10
351.2499375691263
 20
269.2792770205432
 30
0.0
 40
2.778000099999998
100
AcDbArc
 50
194.12632
 51
222.5338699999996
  0
ARC
  5
71F
330
18
100
AcDbEntity
  8
1
  6
Continuous
100
AcDbCircle
 10
350.2759235691263
 20
269.2792770205432
 30
0.0
 40
2.778000099999998
100
AcDbArc
 50
194.12632
 51
222.5338699999996
  0
ARC
  5
720
330
18
100
AcDbEntity
  8
1
  6
Continuous
100
AcDbCircle
 10
353.8457325691263
 20
269.2792770205432
 30
0.0
 40
2.778000099999998
100
AcDbArc
 50
194.12632
 51
222.5338699999996
  0
ARC
  5
721
330
18
100
AcDbEntity
  8
1
  6
Continuous
100
AcDbCircle
 10
346.7718495691263
 20
264.4012760205431
 30
0.0
 40
3.0
100
AcDbArc
 50
89.99999699999987
 51
178.9440862
  0
LINE
  5
724
330
18
100
AcDbEntity
  8
1
  6
Continuous
100
AcDbLine
 10
342.7973885691262
 20
269.9603300205431
 30
0.0
 11
340.9667425691262
 21
273.5294670205431
 31
0.0
  0
ARC
  5
725
330
18
100
AcDbEntity
  8
1
  6
Continuous
100
AcDbCircle
 10
340.5218495691264
 20
273.301276020543
 30
0.0
 40
0.5
100
AcDbArc
 50
27.15370999999997
 51
89.99999699999987
  0
LINE
  5
726
330
18
100
AcDbEntity
  8
1
  6
Continuous
100
AcDbLine
 10
339.2718495691263
 20
275.801276020543
 30
0.0
 11
339.2718495691263
 21
273.801276020543
 31
0.0
  0
LINE
  5
7FF
330
18
100
AcDbEntity
  8
1
  6
Continuous
100
AcDbLine
 10
497.9846559454361
 20
264.4012760205431
 30
0.0
 11
497.9846559454361
 21
257.4012760205431
 31
0.0
  0
ARC
  5
800
330
18
100
AcDbEntity
  8
1
  6
Continuous
100
AcDbCircle
 10
507.4846559454361
 20
252.4012760205431
 30
0.0
 40
5.0
100
AcDbArc
 50
30.61346000000035
 51
89.99999699999987
  0
LINE
  5
801
330
18
100
AcDbEntity
  8
1
  6
Continuous
100
AcDbLine
 10
565.1552569454357
 20
204.5939470205431
 30
0.0
 11
561.140028945436
 21
258.6451310205431
 31
0.0
  0
LINE
  5
802
330
18
100
AcDbEntity
  8
1
  6
Continuous
100
AcDbLine
 10
539.1054259454358
 20
262.2861700205431
 30
0.0
 11
539.1054259454358
 21
214.4912750205431
 31
0.0
  0
LINE
  5
803
330
18
100
AcDbEntity
  8
4
  6
CENTER
 48
0.5
100
AcDbLine
 10
554.4846559454359
 20
263.302262020543
 30
0.0
 11
554.4846559454359
 21
150.4340270205432
 31
0.0
  0
LINE
  5
804
330
18
100
AcDbEntity
  8
4
  6
CENTER
 48
0.5
100
AcDbLine
 10
522.4846559454361
 20
281.5418990205431
 30
0.0
 11
522.4846559454361
 21
221.5346060205432
 31
0.0
  0
LINE
  5
807
330
18
100
AcDbEntity
  8
1
  6
Continuous
100
AcDbLine
 10
507.4846559454361
 20
257.4012760205431
 30
0.0
 11
497.9846559454361
 21
257.4012760205431
 31
0.0
  0
LINE
  5
808
330
18
100
AcDbEntity
  8
4
  6
CENTER
 48
0.5
100
AcDbLine
 10
608.3236299454361
 20
203.8012760205432
 30
0.0
 11
501.038485945436
 21
203.8012760205432
 31
0.0
  0
LINE
  5
80D
330
18
100
AcDbEntity
  8
1
  6
Continuous
100
AcDbLine
 10
545.2759959454358
 20
198.352362020543
 30
0.0
 11
511.7877759454361
 21
254.9474930205431
 31
0.0
  0
ARC
  5
80E
330
18
100
AcDbEntity
  8
1
  6
Continuous
100
AcDbCircle
 10
554.4846559454359
 20
203.8012760205432
 30
0.0
 40
10.7
100
AcDbArc
 50
210.61347
 51
4.248450000000078
  0
LINE
  5
81D
330
18
100
AcDbEntity
  8
1
  6
Continuous
100
AcDbLine
 10
572.4846559454361
 20
275.801276020543
 30
0.0
 11
472.4846559454361
 21
275.801276020543
 31
0.0
  0
LINE
  5
81E
330
18
100
AcDbEntity
  8
1
  6
Continuous
100
AcDbLine
 10
572.4846559454361
 20
273.801276020543
 30
0.0
 11
472.4846559454361
 21
273.801276020543
 31
0.0
  0
LINE
  5
821
330
18
100
AcDbEntity
  8
1
  6
Continuous
100
AcDbLine
 10
499.234655945436
 20
268.601275020543
 30
0.0
 11
545.7346559454361
 21
268.601275020543
 31
0.0
  0
LINE
  5
822
330
18
100
AcDbEntity
  8
1
  6
Continuous
100
AcDbLine
 10
543.9846559454361
 20
267.4012760205431
 30
0.0
 11
500.984655945436
 21
267.4012760205431
 31
0.0
  0
LINE
  5
823
330
18
100
AcDbEntity
  8
1
  6
Continuous
100
AcDbLine
 10
572.4846559454361
 20
275.801276020543
 30
0.0
 11
572.4846559454361
 21
273.801276020543
 31
0.0
  0
LINE
  5
825
330
18
100
AcDbEntity
  8
4
  6
CENTER
 48
0.1
100
AcDbLine
 10
563.4846559454358
 20
279.6457600205431
 30
0.0
 11
563.4846559454358
 21
269.9567920205431
 31
0.0
  0
LINE
  5
826
330
18
100
AcDbEntity
  8
1
  6
Continuous
100
AcDbLine
 10
564.684652945436
 20
260.5508200205432
 30
0.0
 11
540.0119859454361
 21
264.9012760205431
 31
0.0
  0
ARC
  5
827
330
18
100
AcDbEntity
  8
1
  6
Continuous
100
AcDbCircle
 10
563.134527945436
 20
258.7932960205431
 30
0.0
 40
2.0
100
AcDbArc
 50
79.99999999999983
 51
183.5095699999999
  0
LINE
  5
828
330
18
100
AcDbEntity
  8
1
  6
Continuous
100
AcDbLine
 10
564.337362945436
 20
258.5812040205431
 30
0.0
 11
562.3583059454358
 21
258.9301630205431
 31
0.0
  0
LINE
  5
829
330
18
100
AcDbEntity
  8
1
  6
Continuous
100
AcDbLine
 10
564.684652945436
 20
260.5508200205432
 30
0.0
 11
564.337362945436
 21
258.5812040205431
 31
0.0
  0
ARC
  5
82A
330
18
100
AcDbEntity
  8
1
  6
Continuous
100
AcDbCircle
 10
562.184652945436
 20
257.945357020543
 30
0.0
 40
1.0
100
AcDbArc
 50
79.99999999999983
 51
176.1059559
  0
ARC
  5
82B
330
18
100
AcDbEntity
  8
1
  6
Continuous
100
AcDbCircle
 10
536.910775945436
 20
269.2792770205432
 30
0.0
 40
2.778000099999998
100
AcDbArc
 50
317.4661399999997
 51
345.87368
  0
ARC
  5
82C
330
18
100
AcDbEntity
  8
1
  6
Continuous
100
AcDbCircle
 10
539.506565945436
 20
269.2792770205432
 30
0.0
 40
2.778000099999998
100
AcDbArc
 50
317.4661399999997
 51
345.87368
  0
ARC
  5
82D
330
18
100
AcDbEntity
  8
1
  6
Continuous
100
AcDbCircle
 10
540.480585945436
 20
269.2792770205432
 30
0.0
 40
2.778000099999998
100
AcDbArc
 50
317.4661399999997
 51
345.87368
  0
ARC
  5
82E
330
18
100
AcDbEntity
  8
1
  6
Continuous
100
AcDbCircle
 10
545.7346559454361
 20
271.1012750205432
 30
0.0
 40
2.5
100
AcDbArc
 50
270.0
 51
332.84629
  0
ARC
  5
82F
330
18
100
AcDbEntity
  8
1
  6
Continuous
100
AcDbCircle
 10
543.9846559454361
 20
264.4012760205431
 30
0.0
 40
3.0
100
AcDbArc
 50
17.56646000000018
 51
89.99999699999987
  0
LINE
  5
830
330
18
100
AcDbEntity
  8
1
  6
Continuous
100
AcDbLine
 10
547.3846559454361
 20
263.601279020543
 30
0.0
 11
546.844765945436
 21
265.3067120205431
 31
0.0
  0
ARC
  5
831
330
18
100
AcDbEntity
  8
1
  6
Continuous
100
AcDbCircle
 10
550.2346559454361
 20
273.301276020543
 30
0.0
 40
0.5
100
AcDbArc
 50
89.99999699999987
 51
152.8462909999999
  0
LINE
  5
832
330
18
100
AcDbEntity
  8
1
  6
Continuous
100
AcDbLine
 10
547.959115945436
 20
269.9603260205431
 30
0.0
 11
549.7897659454357
 21
273.5294640205431
 31
0.0
  0
ARC
  5
833
330
18
100
AcDbEntity
  8
1
  6
Continuous
100
AcDbCircle
 10
527.974095945436
 20
269.2792770205432
 30
0.0
 40
2.778000099999998
100
AcDbArc
 50
194.12632
 51
222.5338699999996
  0
ARC
  5
834
330
18
100
AcDbEntity
  8
1
  6
Continuous
100
AcDbCircle
 10
522.4846559454361
 20
269.2792770205432
 30
0.0
 40
2.778000099999998
100
AcDbArc
 50
317.4661399999997
 51
345.87368
  0
ARC
  5
835
330
18
100
AcDbEntity
  8
1
  6
Continuous
100
AcDbCircle
 10
527.974095945436
 20
269.2792770205432
 30
0.0
 40
2.778000099999998
100
AcDbArc
 50
317.4661399999997
 51
345.87368
  0
ARC
  5
836
330
18
100
AcDbEntity
  8
1
  6
Continuous
100
AcDbCircle
 10
532.9405259454358
 20
269.2792770205432
 30
0.0
 40
2.778000099999998
100
AcDbArc
 50
317.4661399999997
 51
345.87368
  0
ARC
  5
837
330
18
100
AcDbEntity
  8
1
  6
Continuous
100
AcDbCircle
 10
532.9405259454358
 20
269.2792770205432
 30
0.0
 40
2.778000099999998
100
AcDbArc
 50
206.6342399999998
 51
222.5338699999996
  0
ARC
  5
838
330
18
100
AcDbEntity
  8
1
  6
Continuous
100
AcDbCircle
 10
512.0287859454361
 20
269.2792770205432
 30
0.0
 40
2.778000099999998
100
AcDbArc
 50
194.12632
 51
222.5338699999996
  0
ARC
  5
839
330
18
100
AcDbEntity
  8
1
  6
Continuous
100
AcDbCircle
 10
522.4846559454361
 20
269.2792770205432
 30
0.0
 40
2.778000099999998
100
AcDbArc
 50
194.12632
 51
222.5338699999996
  0
ARC
  5
83A
330
18
100
AcDbEntity
  8
1
  6
Continuous
100
AcDbCircle
 10
516.995215945436
 20
269.2792770205432
 30
0.0
 40
2.778000099999998
100
AcDbArc
 50
317.4661399999997
 51
345.87368
  0
ARC
  5
83B
330
18
100
AcDbEntity
  8
1
  6
Continuous
100
AcDbCircle
 10
516.995215945436
 20
269.2792770205432
 30
0.0
 40
2.778000099999998
100
AcDbArc
 50
194.12632
 51
222.5338699999996
  0
ARC
  5
83C
330
18
100
AcDbEntity
  8
1
  6
Continuous
100
AcDbCircle
 10
512.0287859454361
 20
269.2792770205432
 30
0.0
 40
2.778000099999998
100
AcDbArc
 50
317.4661399999997
 51
333.3657500000003
  0
LINE
  5
83D
330
18
100
AcDbEntity
  8
4
  6
CENTER
 48
0.1
100
AcDbLine
 10
481.4846559454361
 20
279.6457600205431
 30
0.0
 11
481.4846559454361
 21
269.9567920205431
 31
0.0
  0
ARC
  5
83E
330
18
100
AcDbEntity
  8
1
  6
Continuous
100
AcDbCircle
 10
508.0585359454357
 20
269.2792770205432
 30
0.0
 40
2.778000099999998
100
AcDbArc
 50
194.12632
 51
222.5338699999996
  0
ARC
  5
83F
330
18
100
AcDbEntity
  8
1
  6
Continuous
100
AcDbCircle
 10
505.462745945436
 20
269.2792770205432
 30
0.0
 40
2.778000099999998
100
AcDbArc
 50
194.12632
 51
222.5338699999996
  0
ARC
  5
840
330
18
100
AcDbEntity
  8
1
  6
Continuous
100
AcDbCircle
 10
504.488725945436
 20
269.2792770205432
 30
0.0
 40
2.778000099999998
100
AcDbArc
 50
194.12632
 51
222.5338699999996
  0
ARC
  5
841
330
18
100
AcDbEntity
  8
1
  6
Continuous
100
AcDbCircle
 10
499.234655945436
 20
271.1012750205432
 30
0.0
 40
2.5
100
AcDbArc
 50
207.15371
 51
270.0
  0
ARC
  5
842
330
18
100
AcDbEntity
  8
1
  6
Continuous
100
AcDbCircle
 10
500.984655945436
 20
264.4012760205431
 30
0.0
 40
3.0
100
AcDbArc
 50
89.99999699999987
 51
180.0
  0
ARC
  5
843
330
18
100
AcDbEntity
  8
1
  6
Continuous
100
AcDbCircle
 10
494.734655945436
 20
273.301276020543
 30
0.0
 40
0.5
100
AcDbArc
 50
27.15370999999997
 51
89.99999699999987
  0
LINE
  5
844
330
18
100
AcDbEntity
  8
1
  6
Continuous
100
AcDbLine
 10
497.010195945436
 20
269.9603260205431
 30
0.0
 11
495.179545945436
 21
273.5294670205431
 31
0.0
  0
LINE
  5
846
330
18
100
AcDbEntity
  8
1
  6
Continuous
100
AcDbLine
 10
472.4846559454361
 20
275.801276020543
 30
0.0
 11
472.4846559454361
 21
273.801276020543
 31
0.0
  0
ARC
  5
8D6
330
18
100
AcDbEntity
  8
1
  6
Continuous
100
AcDbCircle
 10
81.59238369281657
 20
71.31456868449429
 30
0.0
 40
85.0
100
AcDbArc
 50
8.456519335270511
 51
13.44031999999993
  0
ARC
  5
8DB
330
18
100
AcDbEntity
  8
1
  6
Continuous
100
AcDbCircle
 10
214.0590431928155
 20
71.31456868449429
 30
0.0
 40
24.50000000000085
100
AcDbArc
 50
231.2295240917255
 51
128.7704759082745
  0
ARC
  5
8DC
330
18
100
AcDbEntity
  8
1
  6
Continuous
100
AcDbCircle
 10
214.0590431928155
 20
71.31456868449429
 30
0.0
 40
22.50000000000085
100
AcDbArc
 50
231.2295489045479
 51
128.7704510954521
  0
LINE
  5
8E7
330
18
100
AcDbEntity
  8
1
  6
Continuous
100
AcDbLine
 10
171.3590431928165
 20
87.31456868449418
 30
0.0
 11
195.5860899909031
 21
87.31456868449418
 31
0.0
  0
LINE
  5
8E8
330
18
100
AcDbEntity
  8
1
  6
Continuous
100
AcDbLine
 10
171.3590431928165
 20
89.31456068449433
 30
0.0
 11
195.5860800303995
 21
89.31456068449433
 31
0.0
  0
LINE
  5
8E9
330
18
100
AcDbEntity
  8
1
  6
Continuous
100
AcDbLine
 10
171.359043192817
 20
55.3145686844943
 30
0.0
 11
195.5860899909033
 21
55.3145686844943
 31
0.0
  0
LINE
  5
8EA
330
18
100
AcDbEntity
  8
1
  6
Continuous
100
AcDbLine
 10
171.359043192817
 20
53.31457668449423
 30
0.0
 11
195.5860800303996
 21
53.31457668449423
 31
0.0
  0
ARC
  5
8EB
330
18
100
AcDbEntity
  8
1
  6
Continuous
100
AcDbCircle
 10
195.5860800303995
 20
94.31456068449431
 30
0.0
 40
5.0
100
AcDbArc
 50
270.0
 51
308.7704759082743
  0
ARC
  5
8EC
330
18
100
AcDbEntity
  8
1
  6
Continuous
100
AcDbCircle
 10
195.5860800303996
 20
48.31457668449423
 30
0.0
 40
5.0
100
AcDbArc
 50
51.22952409172551
 51
90.0
  0
ARC
  5
8EE
330
18
100
AcDbEntity
  8
1
  6
Continuous
100
AcDbCircle
 10
195.5860899909033
 20
48.31456868449429
 30
0.0
 40
7.0
100
AcDbArc
 50
51.22954890454817
 51
90.0
  0
ARC
  5
8EF
330
18
100
AcDbEntity
  8
1
  6
Continuous
100
AcDbCircle
 10
195.5860899909031
 20
94.31456868449421
 30
0.0
 40
7.0
100
AcDbArc
 50
270.0
 51
308.7704510954523
  0
LINE
  5
8F0
330
18
100
AcDbEntity
  8
1
  6
Continuous
100
AcDbLine
 10
171.3590431928165
 20
89.31456068449433
 30
0.0
 11
171.3590431928165
 21
87.31456868449418
 31
0.0
  0
LINE
  5
8F1
330
18
100
AcDbEntity
  8
1
  6
Continuous
100
AcDbLine
 10
171.359043192817
 20
55.3145686844943
 30
0.0
 11
171.359043192817
 21
53.31457668449423
 31
0.0
  0
LINE
  5
904
330
18
100
AcDbEntity
  8
1
  6
Continuous
100
AcDbLine
 10
178.6840431928164
 20
46.3145966844944
 30
0.0
 11
185.4340431928164
 21
46.3145966844944
 31
0.0
  0
LINE
  5
905
330
18
100
AcDbEntity
  8
1
  6
Continuous
100
AcDbLine
 10
178.0590431928164
 20
46.9395966844944
 30
0.0
 11
186.0590431928164
 21
46.9395966844944
 31
0.0
  0
LINE
  5
906
330
18
100
AcDbEntity
  8
2
  6
Continuous
100
AcDbLine
 10
178.6840431928164
 20
46.3145966844944
 30
0.0
 11
178.6840431928164
 21
48.3145966844944
 31
0.0
  0
LINE
  5
907
330
18
100
AcDbEntity
  8
1
  6
Continuous
100
AcDbLine
 10
178.0590431928164
 20
46.9395966844944
 30
0.0
 11
178.0590431928164
 21
48.3145966844944
 31
0.0
  0
LINE
  5
908
330
18
100
AcDbEntity
  8
1
  6
Continuous
100
AcDbLine
 10
178.6840431928164
 20
46.3145966844944
 30
0.0
 11
178.0590431928164
 21
46.9395966844944
 31
0.0
  0
LINE
  5
909
330
18
100
AcDbEntity
  8
1
  6
Continuous
100
AcDbLine
 10
186.0590431928164
 20
46.9395966844944
 30
0.0
 11
186.0590431928164
 21
48.3145966844944
 31
0.0
  0
LINE
  5
90A
330
18
100
AcDbEntity
  8
2
  6
Continuous
100
AcDbLine
 10
185.4340431928164
 20
46.3145966844944
 30
0.0
 11
185.4340431928164
 21
48.3145966844944
 31
0.0
  0
LINE
  5
90B
330
18
100
AcDbEntity
  8
1
  6
Continuous
100
AcDbLine
 10
186.0590231928165
 20
46.9395966844944
 30
0.0
 11
185.4340231928165
 21
46.3145966844944
 31
0.0
  0
ARC
  5
C48
330
18
100
AcDbEntity
  8
1
  6
Continuous
100
AcDbCircle
 10
348.7718725691262
 20
209.801276020543
 30
0.0
 40
1.5
100
AcDbArc
 50
52.41218964084243
 51
90.00001800000005
  0
ARC
  5
C49
330
18
100
AcDbEntity
  8
1
  6
Continuous
100
AcDbCircle
 10
401.2714985691261
 20
237.5044811205431
 30
0.0
 40
56.0
100
AcDbArc
 50
180.2009199999999
 51
208.4414457310006
  0
ARC
  5
C4A
330
18
100
AcDbEntity
  8
1
  6
Continuous
100
AcDbCircle
 10
335.2722085691263
 20
237.5044811205431
 30
0.0
 40
56.0
100
AcDbArc
 50
331.558537675421
 51
359.7990899999999
  0
LINE
  5
C4B
330
18
100
AcDbEntity
  8
1
  6
Continuous
100
AcDbLine
 10
391.2721891865754
 20
237.2642384599948
 30
0.0
 11
391.0276821346704
 21
250.5302715324623
 31
0.0
  0
LINE
  5
C4C
330
18
100
AcDbEntity
  8
1
  6
Continuous
100
AcDbLine
 10
345.2715059463201
 20
237.2642373693437
 30
0.0
 11
345.5160149659519
 21
250.5302725497406
 31
0.0
  0
ARC
  5
C4D
330
18
100
AcDbEntity
  8
1
  6
Continuous
100
AcDbCircle
 10
350.2718495691262
 20
209.8813784367968
 30
0.0
 40
2.0
100
AcDbArc
 50
0.0
 51
28.44144573100072
  0
ARC
  5
C4E
330
18
100
AcDbEntity
  8
1
  6
Continuous
100
AcDbCircle
 10
386.2718495691262
 20
209.8813636666581
 30
0.0
 40
2.0
100
AcDbArc
 50
151.5585376754206
 51
180.0
  0
LINE
  5
C50
330
18
100
AcDbEntity
  8
1
  6
Continuous
100
AcDbLine
 10
350.5144866056423
 20
257.401276020543
 30
0.0
 11
386.0292104708717
 21
257.4012760205429
 31
0.0
  0
ARC
  5
C55
330
18
100
AcDbEntity
  8
1
  6
Continuous
100
AcDbCircle
 10
384.0288707957427
 20
250.401276020543
 30
0.0
 40
7.0
100
AcDbArc
 50
1.055902397693976
 51
90.0
  0
ARC
  5
C56
330
18
100
AcDbEntity
  8
1
  6
Continuous
100
AcDbCircle
 10
386.0292104708717
 20
250.401276020543
 30
0.0
 40
7.0
100
AcDbArc
 50
1.055902397694078
 51
89.99999999999994
  0
ARC
  5
C57
330
18
100
AcDbEntity
  8
1
  6
Continuous
100
AcDbCircle
 10
352.5148262861303
 20
250.401276020543
 30
0.0
 40
7.0
100
AcDbArc
 50
89.99999999999987
 51
178.9440892743541
  0
ARC
  5
C58
330
18
100
AcDbEntity
  8
1
  6
Continuous
100
AcDbCircle
 10
350.5144866056423
 20
250.401276020543
 30
0.0
 40
7.0
100
AcDbArc
 50
89.99999999999991
 51
178.9440892743541
  0
ARC
  5
C65
330
18
100
AcDbEntity
  8
1
  6
Continuous
100
AcDbCircle
 10
214.0590431928156
 20
71.31456868449429
 30
0.0
 40
27.74999997382086
100
AcDbArc
 50
220.4397714348785
 51
139.5602285651216
  0
ARC
  5
C6B
330
18
100
AcDbEntity
  8
1
  6
Continuous
100
AcDbCircle
 10
214.0590431928155
 20
71.31456868449429
 30
0.0
 40
17.50000000000085
100
AcDbArc
 50
225.5846914028043
 51
314.4153085971956
  0
ARC
  5
C6C
330
18
100
AcDbEntity
  8
1
  6
Continuous
100
AcDbCircle
 10
214.0590431928155
 20
71.31456868449429
 30
0.0
 40
17.50000000000085
100
AcDbArc
 50
45.58469140280426
 51
134.4153085971955
  0
LINE
  5
CB1
330
18
100
AcDbEntity
  8
1
  6
Continuous
100
AcDbLine
 10
21.84624481650672
 20
197.9369228205429
 30
0.0
 11
21.84624481650672
 21
209.6656177205431
 31
0.0
  0
ARC
  5
CB2
330
18
100
AcDbEntity
  8
1
  6
Continuous
100
AcDbCircle
 10
26.6095123165067
 20
198.3762768205432
 30
0.0
 40
4.363269299999998
100
AcDbArc
 50
155.2749389999979
 51
204.7250400000016
  0
LINE
  5
CB3
330
18
100
AcDbEntity
  8
1
  6
Continuous
100
AcDbLine
 10
22.64624791650664
 20
196.5512760205431
 30
0.0
 11
26.04624171650657
 21
196.5512760205431
 31
0.0
  0
ARC
  5
CB4
330
18
100
AcDbEntity
  8
1
  6
Continuous
100
AcDbCircle
 10
25.97891331650663
 20
197.5490067205431
 30
0.0
 40
1.0
100
AcDbArc
 50
273.8605100000061
 51
330.1500000000033
  0
LINE
  5
CB5
330
18
100
AcDbEntity
  8
1
  6
Continuous
100
AcDbLine
 10
22.64630411650665
 20
196.5513103205431
 30
0.0
 11
21.84629961650653
 21
197.9369557205431
 31
0.0
  0
LINE
  5
CB6
330
18
100
AcDbEntity
  8
1
  6
Continuous
100
AcDbLine
 10
22.64624791650664
 20
211.051276020543
 30
0.0
 11
26.04624171650657
 21
211.051276020543
 31
0.0
  0
LINE
  5
CB7
330
18
100
AcDbEntity
  8
1
  6
Continuous
100
AcDbLine
 10
22.64624791650664
 20
207.4012745205431
 30
0.0
 11
26.04623411650669
 21
207.4012745205431
 31
0.0
  0
LINE
  5
CB8
330
18
100
AcDbEntity
  8
1
  6
Continuous
100
AcDbLine
 10
22.64624791650664
 20
200.2012775205431
 30
0.0
 11
26.04623411650669
 21
200.2012775205431
 31
0.0
  0
ARC
  5
CBA
330
18
100
AcDbEntity
  8
1
  6
Continuous
100
AcDbCircle
 10
25.97891331650663
 20
210.0535453205431
 30
0.0
 40
1.0
100
AcDbArc
 50
29.84999999999644
 51
86.1394929999985
  0
ARC
  5
CBB
330
18
100
AcDbEntity
  8
1
  6
Continuous
100
AcDbCircle
 10
25.97891331650663
 20
208.3990057205431
 30
0.0
 40
1.0
100
AcDbArc
 50
266.1397700000037
 51
330.1499900000032
  0
ARC
  5
CBC
330
18
100
AcDbEntity
  8
1
  6
Continuous
100
AcDbCircle
 10
25.84644791650663
 20
201.1811166205431
 30
0.0
 40
1.0
100
AcDbArc
 50
281.5245799999999
 51
1.155210000004073
  0
ARC
  5
CBD
330
18
100
AcDbEntity
  8
1
  6
Continuous
100
AcDbCircle
 10
25.97891331650663
 20
199.2035463205431
 30
0.0
 40
1.0
100
AcDbArc
 50
29.85000999999672
 51
93.86022899999934
  0
ARC
  5
CBE
330
18
100
AcDbEntity
  8
1
  6
Continuous
100
AcDbCircle
 10
25.84644791650663
 20
206.421435420543
 30
0.0
 40
1.0
100
AcDbArc
 50
358.8447899999958
 51
78.47542999999574
  0
LINE
  5
CBF
330
18
100
AcDbEntity
  8
1
  6
Continuous
100
AcDbLine
 10
22.64621261650659
 20
211.0512817205431
 30
0.0
 11
21.84621191650653
 21
209.6656349205431
 31
0.0
  0
ARC
  5
CC0
330
18
100
AcDbEntity
  8
1
  6
Continuous
100
AcDbCircle
 10
26.6095123165067
 20
209.2262752205432
 30
0.0
 40
4.363265
100
AcDbArc
 50
155.2749389999979
 51
204.7250299999989
  0
ARC
  5
CC1
330
18
100
AcDbEntity
  8
1
  6
Continuous
100
AcDbCircle
 10
38.64617881650662
 20
203.8012760205432
 30
0.0
 40
16.399935
100
AcDbArc
 50
167.3195809999997
 51
192.6803999999995
  0
LINE
  5
CC3
330
18
100
AcDbEntity
  8
1
  6
Continuous
100
AcDbLine
 10
548.3571569454359
 20
199.8334349205431
 30
0.0
 11
554.112154945436
 21
196.5107858205431
 31
0.0
  0
LINE
  5
CC4
330
18
100
AcDbEntity
  8
1
  6
Continuous
100
AcDbLine
 10
554.8571569454359
 20
196.510786820543
 30
0.0
 11
560.612154945436
 21
199.8334360205431
 31
0.0
  0
CIRCLE
  5
CC5
330
18
100
AcDbEntity
  8
1
  6
Continuous
100
AcDbCircle
 10
554.4846559454359
 20
203.8012760205432
 30
0.0
 40
6.400000099999997
  0
ARC
  5
CC6
330
18
100
AcDbEntity
  8
1
  6
Continuous
100
AcDbCircle
 10
554.4846559454359
 20
203.8012760205432
 30
0.0
 40
7.3000002
100
AcDbArc
 50
267.0750600000002
 51
272.9249299999986
  0
LINE
  5
CC7
330
18
100
AcDbEntity
  8
1
  6
Continuous
100
AcDbLine
 10
551.0642949454359
 20
206.725510920543
 30
0.0
 11
550.8007689454358
 21
207.181953020543
 31
0.0
  0
ARC
  5
CC8
330
18
100
AcDbEntity
  8
1
  6
Continuous
100
AcDbCircle
 10
554.4846559454359
 20
203.8012760205432
 30
0.0
 40
5.0
100
AcDbArc
 50
102.5423900000058
 51
137.4576000000045
  0
LINE
  5
CC9
330
18
100
AcDbEntity
  8
1
  6
Continuous
100
AcDbLine
 10
551.0642949454359
 20
200.8770411205431
 30
0.0
 11
550.8007689454358
 21
200.4205990205431
 31
0.0
  0
LINE
  5
CCA
330
18
100
AcDbEntity
  8
1
  6
Continuous
100
AcDbLine
 10
548.3571569454359
 20
207.769117120543
 30
0.0
 11
554.112154945436
 21
211.0917662205431
 31
0.0
  0
CIRCLE
  5
CCB
330
18
100
AcDbEntity
  8
1
  6
Continuous
100
AcDbCircle
 10
554.4846559454359
 20
203.8012760205432
 30
0.0
 40
4.0
  0
CIRCLE
  5
CCC
330
18
100
AcDbEntity
  8
1
  6
Continuous
100
AcDbCircle
 10
554.4846559454359
 20
203.8012760205432
 30
0.0
 40
4.5
  0
ARC
  5
CCD
330
18
100
AcDbEntity
  8
1
  6
Continuous
100
AcDbCircle
 10
554.4846559454359
 20
203.8012760205432
 30
0.0
 40
5.0
100
AcDbArc
 50
222.5423999999953
 51
257.457609999994
  0
ARC
  5
CCE
330
18
100
AcDbEntity
  8
1
  6
Continuous
100
AcDbCircle
 10
554.4846559454359
 20
203.8012760205432
 30
0.0
 40
7.3000002
100
AcDbArc
 50
147.0750599999981
 51
152.9249300000014
  0
ARC
  5
CCF
330
18
100
AcDbEntity
  8
1
  6
Continuous
100
AcDbCircle
 10
554.4846559454359
 20
203.8012760205432
 30
0.0
 40
7.3000002
100
AcDbArc
 50
207.0750699999984
 51
212.9249400000019
  0
LINE
  5
CD0
330
18
100
AcDbEntity
  8
1
  6
Continuous
100
AcDbLine
 10
547.9846559454357
 20
207.1239255205431
 30
0.0
 11
547.9846559454357
 21
200.4786265205431
 31
0.0
  0
ARC
  5
CD1
330
18
100
AcDbEntity
  8
1
  6
Continuous
100
AcDbCircle
 10
554.4846559454359
 20
203.8012760205432
 30
0.0
 40
7.3000002
100
AcDbArc
 50
27.07506599999929
 51
32.92493400000118
  0
ARC
  5
CD2
330
18
100
AcDbEntity
  8
1
  6
Continuous
100
AcDbCircle
 10
554.4846559454359
 20
203.8012760205432
 30
0.0
 40
7.3000002
100
AcDbArc
 50
87.07507000000139
 51
92.92493499999912
  0
LINE
  5
CD3
330
18
100
AcDbEntity
  8
1
  6
Continuous
100
AcDbLine
 10
554.8571569454359
 20
211.0917652205432
 30
0.0
 11
560.612154945436
 21
207.7691160205431
 31
0.0
  0
ARC
  5
CD4
330
18
100
AcDbEntity
  8
1
  6
Continuous
100
AcDbCircle
 10
554.4846559454359
 20
203.8012760205432
 30
0.0
 40
7.3000002
100
AcDbArc
 50
327.0750699999986
 51
332.9249300000014
  0
ARC
  5
CD5
330
18
100
AcDbEntity
  8
1
  6
Continuous
100
AcDbCircle
 10
554.4846559454359
 20
203.8012760205432
 30
0.0
 40
5.0
100
AcDbArc
 50
342.5423999999988
 51
17.4576030000056
  0
LINE
  5
CD6
330
18
100
AcDbEntity
  8
1
  6
Continuous
100
AcDbLine
 10
558.7272969454359
 20
205.301276020543
 30
0.0
 11
559.254350945436
 21
205.301276020543
 31
0.0
  0
LINE
  5
CD7
330
18
100
AcDbEntity
  8
1
  6
Continuous
100
AcDbLine
 10
558.7272969454359
 20
202.3012760205431
 30
0.0
 11
559.254350945436
 21
202.3012760205431
 31
0.0
  0
LINE
  5
CD8
330
18
100
AcDbEntity
  8
1
  6
Continuous
100
AcDbLine
 10
560.9846559454357
 20
207.1239255205431
 30
0.0
 11
560.9846559454357
 21
200.4786265205431
 31
0.0
  0
LINE
  5
CD9
330
18
100
AcDbEntity
  8
1
  6
Continuous
100
AcDbLine
 10
553.6623709454357
 20
208.2255109205429
 30
0.0
 11
553.398843945436
 21
208.6819527205431
 31
0.0
  0
LINE
  5
CDA
330
18
100
AcDbEntity
  8
1
  6
Continuous
100
AcDbLine
 10
553.6623709454357
 20
199.3770411205431
 30
0.0
 11
553.398843945436
 21
198.920599320543
 31
0.0
  0
CIRCLE
  5
CDB
330
18
100
AcDbEntity
  8
2
  6
Continuous
100
AcDbCircle
 10
554.4846559454359
 20
203.8012760205432
 30
0.0
 40
3.375
  0
LINE
  5
CDC
330
18
100
AcDbEntity
  8
1
  6
Continuous
100
AcDbLine
 10
175.5590431928164
 20
48.68157286632104
 30
0.0
 11
175.5590431928164
 21
52.37991678449497
 31
0.0
  0
LINE
  5
CDD
330
18
100
AcDbEntity
  8
1
  6
Continuous
100
AcDbLine
 10
182.0590460453946
 20
49.11458323882119
 30
0.0
 11
182.0590460453946
 21
52.51456943882124
 31
0.0
  0
LINE
  5
CDF
330
18
100
AcDbEntity
  8
1
  6
Continuous
100
AcDbLine
 10
188.5590431928164
 20
48.68157286632118
 30
0.0
 11
188.5590431928164
 21
52.37991678449316
 31
0.0
  0
ARC
  5
CE0
330
18
100
AcDbEntity
  8
1
  6
Continuous
100
AcDbCircle
 10
178.8079086272155
 20
62.12676043980969
 30
0.0
 40
13.41218555531533
100
AcDbArc
 50
255.9716747596946
 51
284.0283252403052
  0
LINE
  5
CE1
330
18
100
AcDbEntity
  8
1
  6
Continuous
100
AcDbLine
 10
176.1946899928164
 20
48.31457668449434
 30
0.0
 11
187.9233848928165
 21
48.31457668449434
 31
0.0
  0
LINE
  5
CE2
330
18
100
AcDbEntity
  8
1
  6
Continuous
100
AcDbLine
 10
175.5590431928164
 20
48.68157286632104
 30
0.0
 11
176.1947014928163
 21
48.31457668449434
 31
0.0
  0
LINE
  5
CE3
330
18
100
AcDbEntity
  8
1
  6
Continuous
100
AcDbLine
 10
188.5590431928164
 20
48.68157286632118
 30
0.0
 11
187.9233848928165
 21
48.31457668449434
 31
0.0
  0
ARC
  5
CE4
330
18
100
AcDbEntity
  8
1
  6
Continuous
100
AcDbCircle
 10
185.3101777584172
 20
62.12676043980969
 30
0.0
 40
13.41218555531533
100
AcDbArc
 50
255.9716747596946
 51
284.0283252403052
  0
ARC
  5
CE6
330
18
100
AcDbEntity
  8
1
  6
Continuous
100
AcDbCircle
 10
176.5567740616148
 20
52.44724518449425
 30
0.0
 40
1.0
100
AcDbArc
 50
119.8500099999957
 51
183.8605536375327
  0
ARC
  5
CE7
330
18
100
AcDbEntity
  8
1
  6
Continuous
100
AcDbCircle
 10
181.0590403402382
 20
52.44724518449425
 30
0.0
 40
1.0
100
AcDbArc
 50
0.0
 51
60.14999000000429
  0
ARC
  5
CE8
330
18
100
AcDbEntity
  8
1
  6
Continuous
100
AcDbCircle
 10
183.0590460453946
 20
52.44724518449425
 30
0.0
 40
1.0
100
AcDbArc
 50
119.8500099999957
 51
180.0
  0
ARC
  5
CE9
330
18
100
AcDbEntity
  8
1
  6
Continuous
100
AcDbCircle
 10
187.561312324018
 20
52.44724518449425
 30
0.0
 40
1.0
100
AcDbArc
 50
356.1394463623626
 51
60.14999000000429
  0
ARC
  5
CED
330
18
100
AcDbEntity
  8
1
  6
Continuous
100
AcDbCircle
 10
374.4719075691263
 20
203.8012760205432
 30
0.0
 40
16.399935
100
AcDbArc
 50
347.3196000000003
 51
12.6804190000001
  0
LINE
  5
CEE
330
18
100
AcDbEntity
  8
1
  6
Continuous
100
AcDbLine
 10
391.2718415691263
 20
197.9369228205429
 30
0.0
 11
391.2718415691263
 21
209.6656177205431
 31
0.0
  0
LINE
  5
CF0
330
18
100
AcDbEntity
  8
1
  6
Continuous
100
AcDbLine
 10
390.4718384691263
 20
200.2012775205431
 30
0.0
 11
387.0718522691262
 21
200.2012775205431
 31
0.0
  0
LINE
  5
CF1
330
18
100
AcDbEntity
  8
1
  6
Continuous
100
AcDbLine
 10
390.4718384691263
 20
196.5512760205431
 30
0.0
 11
387.0718446691263
 21
196.5512760205431
 31
0.0
  0
ARC
  5
CF2
330
18
100
AcDbEntity
  8
1
  6
Continuous
100
AcDbCircle
 10
387.1391730691263
 20
199.2035463205431
 30
0.0
 40
1.0
100
AcDbArc
 50
86.13977100000067
 51
150.1499900000033
  0
ARC
  5
CF3
330
18
100
AcDbEntity
  8
1
  6
Continuous
100
AcDbCircle
 10
387.2716384691263
 20
201.1811166205431
 30
0.0
 40
1.0
100
AcDbArc
 50
178.8447899999959
 51
258.4754200000001
  0
ARC
  5
CF4
330
18
100
AcDbEntity
  8
1
  6
Continuous
100
AcDbCircle
 10
387.1391730691263
 20
197.5490067205431
 30
0.0
 40
1.0
100
AcDbArc
 50
209.8499999999964
 51
266.1394899999939
  0
LINE
  5
CF5
330
18
100
AcDbEntity
  8
1
  6
Continuous
100
AcDbLine
 10
390.4717822691262
 20
196.5513103205431
 30
0.0
 11
391.2717867691263
 21
197.9369557205431
 31
0.0
  0
ARC
  5
CF6
330
18
100
AcDbEntity
  8
1
  6
Continuous
100
AcDbCircle
 10
386.5085740691262
 20
198.3762768205432
 30
0.0
 40
4.363269299999998
100
AcDbArc
 50
335.2749599999983
 51
24.72506100000203
  0
LINE
  5
CF7
330
18
100
AcDbEntity
  8
1
  6
Continuous
100
AcDbLine
 10
390.4718384691263
 20
207.4012745205431
 30
0.0
 11
387.0718522691262
 21
207.4012745205431
 31
0.0
  0
LINE
  5
CF8
330
18
100
AcDbEntity
  8
1
  6
Continuous
100
AcDbLine
 10
390.4718384691263
 20
211.051276020543
 30
0.0
 11
387.0718446691263
 21
211.051276020543
 31
0.0
  0
ARC
  5
CF9
330
18
100
AcDbEntity
  8
1
  6
Continuous
100
AcDbCircle
 10
387.2716384691263
 20
206.421435420543
 30
0.0
 40
1.0
100
AcDbArc
 50
101.5245700000041
 51
181.155210000004
  0
ARC
  5
CFA
330
18
100
AcDbEntity
  8
1
  6
Continuous
100
AcDbCircle
 10
387.1391730691263
 20
208.3990057205431
 30
0.0
 40
1.0
100
AcDbArc
 50
209.8500099999966
 51
273.8602299999961
  0
ARC
  5
CFB
330
18
100
AcDbEntity
  8
1
  6
Continuous
100
AcDbCircle
 10
387.1391730691263
 20
210.0535453205431
 30
0.0
 40
1.0
100
AcDbArc
 50
93.86050700000151
 51
105.5733227185124
  0
ARC
  5
CFC
330
18
100
AcDbEntity
  8
1
  6
Continuous
100
AcDbCircle
 10
386.5085740691262
 20
209.2262752205432
 30
0.0
 40
4.363265
100
AcDbArc
 50
335.2749700000011
 51
24.72506100000203
  0
LINE
  5
CFD
330
18
100
AcDbEntity
  8
1
  6
Continuous
100
AcDbLine
 10
390.4718737691263
 20
211.0512817205431
 30
0.0
 11
391.2718744691265
 21
209.6656349205431
 31
0.0
  0
LINE
  5
DE5
330
18
100
AcDbEntity
  8
1
  6
Continuous
100
AcDbLine
 10
517.8598769454358
 20
221.482501020543
 30
0.0
 11
538.7137993101296
 21
209.4424820156612
 31
0.0
  0
LINE
  5
DE6
330
18
100
AcDbEntity
  8
1
  6
Continuous
100
AcDbLine
 10
520.8598769454359
 20
226.6786530205431
 30
0.0
 11
532.4870449499456
 21
219.965704173167
 31
0.0
  0
LINE
  5
DE7
330
18
100
AcDbEntity
  8
1
  6
Continuous
100
AcDbLine
 10
520.8598769454359
 20
180.9238980205431
 30
0.0
 11
545.9971639454358
 21
195.4369181205431
 31
0.0
  0
LINE
  5
DE8
330
18
100
AcDbEntity
  8
1
  6
Continuous
100
AcDbLine
 10
517.8598769454358
 20
186.1200526205431
 30
0.0
 11
542.9971639454358
 21
200.633072220543
 31
0.0
  0
ARC
  5
DE9
330
18
100
AcDbEntity
  8
1
  6
Continuous
100
AcDbCircle
 10
554.4846559454359
 20
203.8012760205432
 30
0.0
 40
44.0
100
AcDbArc
 50
134.6878790798563
 51
80.17403798097886
  0
ARC
  5
DEA
330
18
100
AcDbEntity
  8
1
  6
Continuous
100
AcDbCircle
 10
554.4846559454359
 20
203.8012760205432
 30
0.0
 40
50.0
100
AcDbArc
 50
132.9703342901485
 51
81.89158253513403
  0
LINE
  5
DFB
330
18
100
AcDbEntity
  8
1
  6
Continuous
100
AcDbLine
 10
57.34623681650679
 20
155.9174180205431
 30
0.0
 11
57.34623681650679
 21
251.6851340205431
 31
0.0
  0
LINE
  5
DFC
330
18
100
AcDbEntity
  8
1
  6
Continuous
100
AcDbLine
 10
32.3462368165068
 20
155.9174180205431
 30
0.0
 11
32.3462368165068
 21
251.6851350677406
 31
0.0
  0
ARC
  5
DFD
330
18
100
AcDbEntity
  8
1
  6
Continuous
100
AcDbCircle
 10
44.84623681650679
 20
253.8012760205432
 30
0.0
 40
100.0
100
AcDbArc
 50
270.0000199999986
 51
276.4118899999977
  0
ARC
  5
DFE
330
18
100
AcDbEntity
  8
1
  6
Continuous
100
AcDbCircle
 10
44.84623681650679
 20
253.8012760205432
 30
0.0
 40
100.0
100
AcDbArc
 50
263.5881500000002
 51
270.0000199999986
  0
ARC
  5
DFF
330
18
100
AcDbEntity
  8
1
  6
Continuous
100
AcDbCircle
 10
33.8462368165068
 20
155.9174180205431
 30
0.0
 40
1.5
100
AcDbArc
 50
180.0000400000006
 51
263.5881900000018
  0
ARC
  5
E00
330
18
100
AcDbEntity
  8
1
  6
Continuous
100
AcDbCircle
 10
55.84623681650679
 20
155.9174180205431
 30
0.0
 40
1.5
100
AcDbArc
 50
276.4118400000021
 51
0.0
  0
LINE
  5
E06
330
18
100
AcDbEntity
  8
1
  6
Continuous
100
AcDbLine
 10
28.8462368165068
 20
207.8012760205431
 30
0.0
 11
29.84623681650679
 21
207.8012760205431
 31
0.0
  0
LINE
  5
E07
330
18
100
AcDbEntity
  8
1
  6
Continuous
100
AcDbLine
 10
28.8462368165068
 20
199.801276020543
 30
0.0
 11
29.84623681650679
 21
199.801276020543
 31
0.0
  0
LINE
  5
E20
330
18
100
AcDbEntity
  8
1
  6
Continuous
100
AcDbLine
 10
59.84623681650679
 20
194.8012760205431
 30
0.0
 11
59.84623681650679
 21
203.8012760205432
 31
0.0
  0
LINE
  5
E21
330
18
100
AcDbEntity
  8
1
  6
Continuous
100
AcDbLine
 10
29.84623681650679
 20
194.8012760205431
 30
0.0
 11
29.84623681650679
 21
203.8012760205432
 31
0.0
  0
LINE
  5
E23
330
18
100
AcDbEntity
  8
1
  6
Continuous
100
AcDbLine
 10
30.77207181650681
 20
193.8040290624432
 30
0.0
 11
32.3462368165068
 21
193.6869525805431
 31
0.0
  0
ARC
  5
E24
330
18
100
AcDbEntity
  8
1
  6
Continuous
100
AcDbCircle
 10
30.8462368165068
 20
194.8012760205431
 30
0.0
 40
1.0
100
AcDbArc
 50
180.0000400000006
 51
265.7467700000001
  0
LINE
  5
E25
330
18
100
AcDbEntity
  8
1
  6
Continuous
100
AcDbLine
 10
58.92040181650679
 20
193.8040302003431
 30
0.0
 11
57.34623681650679
 21
193.686953720543
 31
0.0
  0
ARC
  5
E28
330
18
100
AcDbEntity
  8
1
  6
Continuous
100
AcDbCircle
 10
58.8462368165068
 20
194.8012760205431
 30
0.0
 40
1.0
100
AcDbArc
 50
274.2532700000002
 51
0.0
  0
LINE
  5
E2B
330
18
100
AcDbEntity
  8
1
  6
Continuous
100
AcDbLine
 10
29.84623681650679
 20
212.8012760205431
 30
0.0
 11
29.84623681650679
 21
203.8012760205432
 31
0.0
  0
LINE
  5
E2C
330
18
100
AcDbEntity
  8
1
  6
Continuous
100
AcDbLine
 10
30.77207181650681
 20
213.7985229786431
 30
0.0
 11
32.3462368165068
 21
213.9155994605431
 31
0.0
  0
ARC
  5
E2D
330
18
100
AcDbEntity
  8
1
  6
Continuous
100
AcDbCircle
 10
30.8462368165068
 20
212.8012760205431
 30
0.0
 40
1.0
100
AcDbArc
 50
94.25322999999977
 51
179.9999599999992
  0
LINE
  5
E2E
330
18
100
AcDbEntity
  8
1
  6
Continuous
100
AcDbLine
 10
59.84623681650679
 20
212.8012760205431
 30
0.0
 11
59.84623681650679
 21
203.8012760205432
 31
0.0
  0
LINE
  5
E31
330
18
100
AcDbEntity
  8
1
  6
Continuous
100
AcDbLine
 10
59.84623681650669
 20
199.801276020543
 30
0.0
 11
60.84624481650667
 21
199.801276020543
 31
0.0
  0
LINE
  5
E39
330
18
100
AcDbEntity
  8
1
  6
Continuous
100
AcDbLine
 10
59.84623681650669
 20
207.8012760205431
 30
0.0
 11
60.84624481650667
 21
207.8012760205431
 31
0.0
  0
LINE
  5
E40
330
18
100
AcDbEntity
  8
1
  6
Continuous
100
AcDbLine
 10
58.92040181650679
 20
213.798521840743
 30
0.0
 11
57.34623681650679
 21
213.9155983205431
 31
0.0
  0
ARC
  5
E41
330
18
100
AcDbEntity
  8
1
  6
Continuous
100
AcDbCircle
 10
58.8462368165068
 20
212.8012760205431
 30
0.0
 40
1.0
100
AcDbArc
 50
0.0
 51
85.74672999999974
  0
ARC
  5
E52
330
18
100
AcDbEntity
  8
1
  6
Continuous
100
AcDbCircle
 10
44.84623681650679
 20
153.8012760205431
 30
0.0
 40
100.0
100
AcDbArc
 50
83.58811000000221
 51
89.99997999999797
  0
ARC
  5
E55
330
18
100
AcDbEntity
  8
1
  6
Continuous
100
AcDbCircle
 10
44.84623681650679
 20
153.8012760205431
 30
0.0
 40
100.0
100
AcDbArc
 50
89.99997999999797
 51
96.41184999999978
  0
ARC
  5
E56
330
18
100
AcDbEntity
  8
1
  6
Continuous
100
AcDbCircle
 10
33.8462368165068
 20
251.6851340205431
 30
0.0
 40
1.5
100
AcDbArc
 50
96.41180999999816
 51
179.9999599999992
  0
ARC
  5
E5E
330
18
100
AcDbEntity
  8
1
  6
Continuous
100
AcDbCircle
 10
55.84623681650679
 20
251.6851340205431
 30
0.0
 40
1.5
100
AcDbArc
 50
0.0
 51
83.58815999999777
  0
LINE
  5
E67
330
18
100
AcDbEntity
  8
1
  6
Continuous
100
AcDbLine
 10
557.4846559454357
 20
163.2426770205431
 30
0.0
 11
557.4846559454357
 21
192.2687134205432
 31
0.0
  0
LINE
  5
E68
330
18
100
AcDbEntity
  8
1
  6
Continuous
100
AcDbLine
 10
551.4846559454357
 20
163.2426770205431
 30
0.0
 11
551.4846559454357
 21
192.2687134205432
 31
0.0
  0
ARC
  5
E6A
330
18
100
AcDbEntity
  8
1
  6
Continuous
100
AcDbCircle
 10
548.4846559454357
 20
163.2426770205431
 30
0.0
 40
3.0
100
AcDbArc
 50
261.5850400000026
 51
0.0000100000010134
  0
ARC
  5
E6B
330
18
100
AcDbEntity
  8
1
  6
Continuous
100
AcDbCircle
 10
560.4846559454357
 20
163.2426770205431
 30
0.0
 40
3.0
100
AcDbArc
 50
180.0
 51
278.4149700000003
  0
LINE
  5
E71
330
18
100
AcDbEntity
  8
1
  6
Continuous
100
AcDbLine
 10
588.1094329454357
 20
226.6786530205431
 30
0.0
 11
564.5261401547677
 21
213.0628328247568
 31
0.0
  0
LINE
  5
E74
330
18
100
AcDbEntity
  8
1
  6
Continuous
100
AcDbLine
 10
591.1094339454357
 20
221.4824990205431
 30
0.0
 11
565.9721479454357
 21
206.969480020543
 31
0.0
  0
LINE
  5
E75
330
18
100
AcDbEntity
  8
1
  6
Continuous
100
AcDbLine
 10
591.1094339454357
 20
186.1200531205431
 30
0.0
 11
565.9721479454357
 21
200.633071220543
 31
0.0
  0
LINE
  5
E76
330
18
100
AcDbEntity
  8
1
  6
Continuous
100
AcDbLine
 10
588.1094329454357
 20
180.9238990205431
 30
0.0
 11
562.9721479454357
 21
195.4369182205431
 31
0.0
  0
ARC
  5
E77
330
18
100
AcDbEntity
  8
1
  6
Continuous
100
AcDbCircle
 10
586.6094329454357
 20
178.3258240205431
 30
0.0
 40
3.0
100
AcDbArc
 50
321.585029999998
 51
60.00000000000024
  0
ARC
  5
E78
330
18
100
AcDbEntity
  8
1
  6
Continuous
100
AcDbCircle
 10
592.6094339454357
 20
188.7181285205431
 30
0.0
 40
3.0
100
AcDbArc
 50
240.0000000000003
 51
338.4149699999984
  0
ARC
  5
E79
330
18
100
AcDbEntity
  8
1
  6
Continuous
100
AcDbCircle
 10
592.6094339454357
 20
218.8844230205432
 30
0.0
 40
3.0
100
AcDbArc
 50
21.58503000000157
 51
119.9999979999986
  0
LINE
  5
E7A
330
18
100
AcDbEntity
  8
1
  6
Continuous
100
AcDbLine
 10
539.7369299454358
 20
197.596073920543
 30
0.0
 11
544.1991029992736
 21
200.172312360126
 31
0.0
  0
LINE
  5
E7B
330
18
100
AcDbEntity
  8
1
  6
Continuous
100
AcDbLine
 10
569.2323819454356
 20
197.5960732205431
 30
0.0
 11
564.5878151930702
 21
200.2776169540416
 31
0.0
  0
LINE
  5
E80
330
18
100
AcDbEntity
  8
1
  6
Continuous
100
AcDbLine
 10
567.2323819454357
 20
194.1319707805431
 30
0.0
 11
562.5878151352187
 21
196.8135144944869
 31
0.0
  0
ARC
  5
E81
330
18
100
AcDbEntity
  8
1
  6
Continuous
100
AcDbCircle
 10
554.4846559454359
 20
203.8012760205432
 30
0.0
 40
16.0
100
AcDbArc
 50
322.8192400000019
 51
337.1807500000002
  0
ARC
  5
E82
330
18
100
AcDbEntity
  8
1
  6
Continuous
100
AcDbCircle
 10
561.4721479454358
 20
192.8388423205431
 30
0.0
 40
3.0
100
AcDbArc
 50
60.00000000000024
 51
87.02494308641908
  0
ARC
  5
E84
330
18
100
AcDbEntity
  8
1
  6
Continuous
100
AcDbCircle
 10
560.4846559454357
 20
192.2687134205432
 30
0.0
 40
3.0
100
AcDbArc
 50
152.9750531598263
 51
180.0
  0
ARC
  5
E85
330
18
100
AcDbEntity
  8
1
  6
Continuous
100
AcDbCircle
 10
548.4846559454357
 20
192.2687134205432
 30
0.0
 40
3.0
100
AcDbArc
 50
359.999989999999
 51
27.02494684017366
  0
ARC
  5
E86
330
18
100
AcDbEntity
  8
1
  6
Continuous
100
AcDbCircle
 10
554.4846559454359
 20
203.8012760205432
 30
0.0
 40
16.0
100
AcDbArc
 50
202.8192400000014
 51
217.1807599999993
  0
LINE
  5
E87
330
18
100
AcDbEntity
  8
1
  6
Continuous
100
AcDbLine
 10
541.7369299454358
 20
194.1319706705431
 30
0.0
 11
546.3814980889731
 21
196.8135129483398
 31
0.0
  0
ARC
  5
E88
330
18
100
AcDbEntity
  8
1
  6
Continuous
100
AcDbCircle
 10
547.4971639454357
 20
192.8388423205431
 30
0.0
 40
3.0
100
AcDbArc
 50
92.97505691358091
 51
119.9999979999986
  0
ARC
  5
E8C
330
18
100
AcDbEntity
  8
1
  6
Continuous
100
AcDbCircle
 10
567.4721479454357
 20
203.2311476205431
 30
0.0
 40
3.0
100
AcDbArc
 50
212.9750606520308
 51
240.0000000000003
  0
ARC
  5
E8E
330
18
100
AcDbEntity
  8
1
  6
Continuous
100
AcDbCircle
 10
567.4721479454357
 20
204.3714040205431
 30
0.0
 40
3.0
100
AcDbArc
 50
119.9999979999986
 51
144.1269326832308
  0
ARC
  5
E94
330
18
100
AcDbEntity
  8
1
  6
Continuous
100
AcDbCircle
 10
541.4971639454356
 20
203.2311476205431
 30
0.0
 40
3.0
100
AcDbArc
 50
299.9999900000003
 51
315.4395303586958
  0
ARC
  5
E96
330
18
100
AcDbEntity
  8
1
  6
Continuous
100
AcDbCircle
 10
586.6094329454357
 20
229.2767280205431
 30
0.0
 40
3.0
100
AcDbArc
 50
299.9999900000003
 51
38.41497000000202
  0
ARC
  5
EA8
330
18
100
AcDbEntity
  8
1
  6
Continuous
100
AcDbCircle
 10
522.3598769454357
 20
178.3258240205431
 30
0.0
 40
3.0
100
AcDbArc
 50
119.9999979999986
 51
218.4149700000019
  0
ARC
  5
EA9
330
18
100
AcDbEntity
  8
1
  6
Continuous
100
AcDbCircle
 10
516.3598769454359
 20
188.7181285205431
 30
0.0
 40
3.0
100
AcDbArc
 50
201.5850300000016
 51
299.9999999999997
  0
ARC
  5
EAA
330
18
100
AcDbEntity
  8
1
  6
Continuous
100
AcDbCircle
 10
516.3598769454359
 20
218.8844230205432
 30
0.0
 40
3.0
100
AcDbArc
 50
60.00000000000024
 51
158.4149679999985
  0
ARC
  5
EAB
330
18
100
AcDbEntity
  8
1
  6
Continuous
100
AcDbCircle
 10
522.3598769454357
 20
229.2767280205431
 30
0.0
 40
3.0
100
AcDbArc
 50
141.5850320000016
 51
240.0000000000003
  0
ARC
  5
EC4
330
18
100
AcDbEntity
  8
1
  6
Continuous
100
AcDbCircle
 10
182.0590431928165
 20
203.8012760205432
 30
0.0
 40
50.0
100
AcDbArc
 50
98.10841746486595
 51
47.02966570985139
  0
ARC
  5
EC5
330
18
100
AcDbEntity
  8
1
  6
Continuous
100
AcDbCircle
 10
182.0590431928165
 20
203.8012760205432
 30
0.0
 40
44.0
100
AcDbArc
 50
99.82596201902115
 51
45.31212092014365
  0
LINE
  5
EC6
330
18
100
AcDbEntity
  8
1
  6
Continuous
100
AcDbLine
 10
145.4342651928165
 20
221.4824990205431
 30
0.0
 11
170.5715511928163
 21
206.969480020543
 31
0.0
  0
LINE
  5
EC7
330
18
100
AcDbEntity
  8
1
  6
Continuous
100
AcDbLine
 10
148.4342661928164
 20
226.6786530205431
 30
0.0
 11
172.0175589834844
 21
213.0628328247568
 31
0.0
  0
ARC
  5
EC8
330
18
100
AcDbEntity
  8
1
  6
Continuous
100
AcDbCircle
 10
149.9342661928164
 20
229.2767280205431
 30
0.0
 40
3.0
100
AcDbArc
 50
141.5850299999979
 51
240.0000099999997
  0
ARC
  5
EC9
330
18
100
AcDbEntity
  8
1
  6
Continuous
100
AcDbCircle
 10
143.9342651928164
 20
218.8844230205432
 30
0.0
 40
3.0
100
AcDbArc
 50
60.0000020000013
 51
158.4149699999984
  0
LINE
  5
ECA
330
18
100
AcDbEntity
  8
1
  6
Continuous
100
AcDbLine
 10
218.6838221928165
 20
221.482501020543
 30
0.0
 11
197.8298998281226
 21
209.4424820156612
 31
0.0
  0
ARC
  5
ECB
330
18
100
AcDbEntity
  8
1
  6
Continuous
100
AcDbCircle
 10
214.1838221928164
 20
229.2767280205431
 30
0.0
 40
3.0
100
AcDbArc
 50
299.9999999999997
 51
38.41496799999833
  0
ARC
  5
ECC
330
18
100
AcDbEntity
  8
1
  6
Continuous
100
AcDbCircle
 10
220.1838221928163
 20
218.8844230205432
 30
0.0
 40
3.0
100
AcDbArc
 50
21.58503200000137
 51
119.9999999999997
  0
LINE
  5
ECD
330
18
100
AcDbEntity
  8
1
  6
Continuous
100
AcDbLine
 10
215.6838221928163
 20
226.6786530205431
 30
0.0
 11
204.0566541883065
 21
219.965704173167
 31
0.0
  0
LINE
  5
ECE
330
18
100
AcDbEntity
  8
1
  6
Continuous
100
AcDbLine
 10
218.6838221928165
 20
186.1200526205431
 30
0.0
 11
193.5465351928165
 21
200.633072220543
 31
0.0
  0
LINE
  5
ECF
330
18
100
AcDbEntity
  8
1
  6
Continuous
100
AcDbLine
 10
215.6838221928163
 20
180.9238980205431
 30
0.0
 11
190.5465351928165
 21
195.4369181205431
 31
0.0
  0
ARC
  5
ED0
330
18
100
AcDbEntity
  8
1
  6
Continuous
100
AcDbCircle
 10
220.1838221928163
 20
188.7181285205431
 30
0.0
 40
3.0
100
AcDbArc
 50
240.0000000000002
 51
338.4149699999984
  0
ARC
  5
ED1
330
18
100
AcDbEntity
  8
1
  6
Continuous
100
AcDbCircle
 10
214.1838221928164
 20
178.3258240205431
 30
0.0
 40
3.0
100
AcDbArc
 50
321.585029999998
 51
60.0000020000013
  0
LINE
  5
ED2
330
18
100
AcDbEntity
  8
1
  6
Continuous
100
AcDbLine
 10
196.8067691928164
 20
197.596073920543
 30
0.0
 11
192.3445961389785
 21
200.172312360126
 31
0.0
  0
ARC
  5
ED3
330
18
100
AcDbEntity
  8
1
  6
Continuous
100
AcDbCircle
 10
182.0590431928165
 20
203.8012760205432
 30
0.0
 40
16.0
100
AcDbArc
 50
322.8192400000005
 51
337.1807599999986
  0
LINE
  5
ED4
330
18
100
AcDbEntity
  8
1
  6
Continuous
100
AcDbLine
 10
194.8067691928164
 20
194.1319706705431
 30
0.0
 11
190.1622010492789
 21
196.8135129483398
 31
0.0
  0
LINE
  5
ED5
330
18
100
AcDbEntity
  8
1
  6
Continuous
100
AcDbLine
 10
185.0590431928164
 20
163.2426770205431
 30
0.0
 11
185.0590431928164
 21
192.2687134205432
 31
0.0
  0
ARC
  5
ED6
330
18
100
AcDbEntity
  8
1
  6
Continuous
100
AcDbCircle
 10
188.0590431928164
 20
163.2426770205431
 30
0.0
 40
3.0
100
AcDbArc
 50
179.9999899999988
 51
278.4149599999973
  0
LINE
  5
ED7
330
18
100
AcDbEntity
  8
1
  6
Continuous
100
AcDbLine
 10
179.0590431928164
 20
163.2426770205431
 30
0.0
 11
179.0590431928164
 21
192.2687134205432
 31
0.0
  0
ARC
  5
ED8
330
18
100
AcDbEntity
  8
1
  6
Continuous
100
AcDbCircle
 10
176.0590431928164
 20
163.2426770205431
 30
0.0
 40
3.0
100
AcDbArc
 50
261.5850299999995
 51
0.0
  0
LINE
  5
ED9
330
18
100
AcDbEntity
  8
1
  6
Continuous
100
AcDbLine
 10
145.4342651928165
 20
186.1200531205431
 30
0.0
 11
170.5715511928163
 21
200.633071220543
 31
0.0
  0
LINE
  5
EDA
330
18
100
AcDbEntity
  8
1
  6
Continuous
100
AcDbLine
 10
148.4342661928164
 20
180.9238990205431
 30
0.0
 11
173.5715511928163
 21
195.4369182205431
 31
0.0
  0
ARC
  5
EDB
330
18
100
AcDbEntity
  8
1
  6
Continuous
100
AcDbCircle
 10
149.9342661928164
 20
178.3258240205431
 30
0.0
 40
3.0
100
AcDbArc
 50
119.9999999999997
 51
218.4149700000019
  0
ARC
  5
EDC
330
18
100
AcDbEntity
  8
1
  6
Continuous
100
AcDbCircle
 10
143.9342651928164
 20
188.7181285205431
 30
0.0
 40
3.0
100
AcDbArc
 50
201.5850300000014
 51
299.9999999999997
  0
ARC
  5
EDD
330
18
100
AcDbEntity
  8
1
  6
Continuous
100
AcDbCircle
 10
182.0590431928165
 20
203.8012760205432
 30
0.0
 40
16.0
100
AcDbArc
 50
202.8192499999998
 51
217.1807599999981
  0
LINE
  5
EDE
330
18
100
AcDbEntity
  8
1
  6
Continuous
100
AcDbLine
 10
169.3113171928164
 20
194.1319707805431
 30
0.0
 11
173.9558840030331
 21
196.8135144944869
 31
0.0
  0
LINE
  5
EDF
330
18
100
AcDbEntity
  8
1
  6
Continuous
100
AcDbLine
 10
167.3113171928164
 20
197.5960732205431
 30
0.0
 11
171.955883945182
 21
200.2776169540416
 31
0.0
  0
ARC
  5
EE0
330
18
100
AcDbEntity
  8
1
  6
Continuous
100
AcDbCircle
 10
169.0715511928164
 20
203.2311476205431
 30
0.0
 40
3.0
100
AcDbArc
 50
299.9999999999997
 51
327.0249393479692
  0
ARC
  5
EE1
330
18
100
AcDbEntity
  8
1
  6
Continuous
100
AcDbCircle
 10
169.0715511928164
 20
204.3714040205431
 30
0.0
 40
3.0
100
AcDbArc
 50
35.87306731676913
 51
60.0000020000013
  0
ARC
  5
EE2
330
18
100
AcDbEntity
  8
1
  6
Continuous
100
AcDbCircle
 10
175.0715511928165
 20
192.8388423205431
 30
0.0
 40
3.0
100
AcDbArc
 50
92.97505691358091
 51
119.9999999999997
  0
ARC
  5
EE3
330
18
100
AcDbEntity
  8
1
  6
Continuous
100
AcDbCircle
 10
176.0590431928164
 20
192.2687134205432
 30
0.0
 40
3.0
100
AcDbArc
 50
0.0
 51
27.02494684017366
  0
ARC
  5
EE4
330
18
100
AcDbEntity
  8
1
  6
Continuous
100
AcDbCircle
 10
188.0590431928164
 20
192.2687134205432
 30
0.0
 40
3.0
100
AcDbArc
 50
152.9750531598263
 51
180.0000100000009
  0
ARC
  5
EE5
330
18
100
AcDbEntity
  8
1
  6
Continuous
100
AcDbCircle
 10
189.0465351928163
 20
192.8388423205431
 30
0.0
 40
3.0
100
AcDbArc
 50
60.0000020000013
 51
87.02494308641908
  0
ARC
  5
EE6
330
18
100
AcDbEntity
  8
1
  6
Continuous
100
AcDbCircle
 10
195.0465351928163
 20
203.2311476205431
 30
0.0
 40
3.0
100
AcDbArc
 50
224.560469641304
 51
240.0000099999997
  0
ARC
  5
EEA
330
18
100
AcDbEntity
  8
1
  6
Continuous
100
AcDbCircle
 10
368.2718495691263
 20
253.8012760205432
 30
0.0
 40
100.0
100
AcDbArc
 50
263.5881500000002
 51
270.0000199999986
  0
ARC
  5
EEB
330
18
100
AcDbEntity
  8
1
  6
Continuous
100
AcDbCircle
 10
357.2718495691262
 20
155.9174180205431
 30
0.0
 40
1.5
100
AcDbArc
 50
180.0000400000006
 51
263.5881900000018
  0
ARC
  5
EEC
330
18
100
AcDbEntity
  8
1
  6
Continuous
100
AcDbCircle
 10
379.2718495691262
 20
155.9174180205431
 30
0.0
 40
1.5
100
AcDbArc
 50
276.4118400000021
 51
0.0
  0
ARC
  5
EED
330
18
100
AcDbEntity
  8
1
  6
Continuous
100
AcDbCircle
 10
368.2718495691263
 20
253.8012760205432
 30
0.0
 40
100.0
100
AcDbArc
 50
270.0000199999986
 51
276.4118899999977
  0
LINE
  5
EEE
330
18
100
AcDbEntity
  8
1
  6
Continuous
100
AcDbLine
 10
380.7718495691263
 20
155.9174180205431
 30
0.0
 11
380.7718495691263
 21
251.6851340205431
 31
0.0
  0
LINE
  5
EEF
330
18
100
AcDbEntity
  8
1
  6
Continuous
100
AcDbLine
 10
355.7718495691263
 20
155.9174180205431
 30
0.0
 11
355.7718495691263
 21
251.6851350677406
 31
0.0
  0
ARC
  5
EF0
330
18
100
AcDbEntity
  8
1
  6
Continuous
100
AcDbCircle
 10
368.2718495691263
 20
153.8012760205431
 30
0.0
 40
100.0
100
AcDbArc
 50
89.99997999999797
 51
96.41184999999978
  0
ARC
  5
EF1
330
18
100
AcDbEntity
  8
1
  6
Continuous
100
AcDbCircle
 10
357.2718495691262
 20
251.6851340205431
 30
0.0
 40
1.5
100
AcDbArc
 50
96.41180999999816
 51
179.9999599999992
  0
ARC
  5
EF2
330
18
100
AcDbEntity
  8
1
  6
Continuous
100
AcDbCircle
 10
368.2718495691263
 20
153.8012760205431
 30
0.0
 40
100.0
100
AcDbArc
 50
83.58811000000221
 51
89.99997999999797
  0
ARC
  5
EF3
330
18
100
AcDbEntity
  8
1
  6
Continuous
100
AcDbCircle
 10
379.2718495691262
 20
251.6851340205431
 30
0.0
 40
1.5
100
AcDbArc
 50
0.0
 51
83.58815999999777
  0
LINE
  5
EF4
330
18
100
AcDbEntity
  8
1
  6
Continuous
100
AcDbLine
 10
353.2718495691263
 20
212.8012760205431
 30
0.0
 11
353.2718495691263
 21
203.8012760205432
 31
0.0
  0
LINE
  5
EF5
330
18
100
AcDbEntity
  8
1
  6
Continuous
100
AcDbLine
 10
352.2718495691262
 20
207.8012760205431
 30
0.0
 11
353.2718495691263
 21
207.8012760205431
 31
0.0
  0
LINE
  5
EF6
330
18
100
AcDbEntity
  8
1
  6
Continuous
100
AcDbLine
 10
354.1976845691261
 20
213.7985229786431
 30
0.0
 11
355.7718495691263
 21
213.9155994605431
 31
0.0
  0
ARC
  5
EF7
330
18
100
AcDbEntity
  8
1
  6
Continuous
100
AcDbCircle
 10
354.2718495691262
 20
212.8012760205431
 30
0.0
 40
1.0
100
AcDbArc
 50
94.25322999999977
 51
179.9999599999992
  0
LINE
  5
EF8
330
18
100
AcDbEntity
  8
1
  6
Continuous
100
AcDbLine
 10
353.2718495691263
 20
194.8012760205431
 30
0.0
 11
353.2718495691263
 21
203.8012760205432
 31
0.0
  0
LINE
  5
EF9
330
18
100
AcDbEntity
  8
1
  6
Continuous
100
AcDbLine
 10
354.1976845691261
 20
193.8040290624432
 30
0.0
 11
355.7718495691263
 21
193.6869525805431
 31
0.0
  0
ARC
  5
EFA
330
18
100
AcDbEntity
  8
1
  6
Continuous
100
AcDbCircle
 10
354.2718495691262
 20
194.8012760205431
 30
0.0
 40
1.0
100
AcDbArc
 50
180.0000400000006
 51
265.7467700000001
  0
LINE
  5
EFB
330
18
100
AcDbEntity
  8
1
  6
Continuous
100
AcDbLine
 10
352.2718495691262
 20
199.801276020543
 30
0.0
 11
353.2718495691263
 21
199.801276020543
 31
0.0
  0
LINE
  5
EFC
330
18
100
AcDbEntity
  8
1
  6
Continuous
100
AcDbLine
 10
382.3460145691262
 20
193.8040302003431
 30
0.0
 11
380.7718495691263
 21
193.686953720543
 31
0.0
  0
ARC
  5
EFD
330
18
100
AcDbEntity
  8
1
  6
Continuous
100
AcDbCircle
 10
382.2718495691262
 20
194.8012760205431
 30
0.0
 40
1.0
100
AcDbArc
 50
274.2532700000002
 51
0.0
  0
LINE
  5
EFE
330
18
100
AcDbEntity
  8
1
  6
Continuous
100
AcDbLine
 10
383.2718495691262
 20
194.8012760205431
 30
0.0
 11
383.2718495691262
 21
203.8012760205432
 31
0.0
  0
LINE
  5
EFF
330
18
100
AcDbEntity
  8
1
  6
Continuous
100
AcDbLine
 10
383.2718495691261
 20
199.801276020543
 30
0.0
 11
384.2718575691262
 21
199.801276020543
 31
0.0
  0
LINE
  5
F00
330
18
100
AcDbEntity
  8
1
  6
Continuous
100
AcDbLine
 10
383.2718495691261
 20
207.8012760205431
 30
0.0
 11
384.2718575691262
 21
207.8012760205431
 31
0.0
  0
LINE
  5
F01
330
18
100
AcDbEntity
  8
1
  6
Continuous
100
AcDbLine
 10
383.2718495691262
 20
212.8012760205431
 30
0.0
 11
383.2718495691262
 21
203.8012760205432
 31
0.0
  0
LINE
  5
F02
330
18
100
AcDbEntity
  8
1
  6
Continuous
100
AcDbLine
 10
382.3460145691262
 20
213.798521840743
 30
0.0
 11
380.7718495691263
 21
213.9155983205431
 31
0.0
  0
ARC
  5
F03
330
18
100
AcDbEntity
  8
1
  6
Continuous
100
AcDbCircle
 10
382.2718495691262
 20
212.8012760205431
 30
0.0
 40
1.0
100
AcDbArc
 50
0.0
 51
85.74672999999974
  0
LINE
  5
F04
330
18
100
AcDbEntity
  8
1
  6
Continuous
100
AcDbLine
 10
229.9429011928165
 20
83.81456868449431
 30
0.0
 11
134.1751851928163
 21
83.81456868449431
 31
0.0
  0
ARC
  5
F05
330
18
100
AcDbEntity
  8
1
  6
Continuous
100
AcDbCircle
 10
232.0590431928164
 20
71.31456868449429
 30
0.0
 40
100.0
100
AcDbArc
 50
173.5881100000021
 51
179.9999799999978
  0
ARC
  5
F06
330
18
100
AcDbEntity
  8
1
  6
Continuous
100
AcDbCircle
 10
134.1751851928163
 20
82.31456868449432
 30
0.0
 40
1.5
100
AcDbArc
 50
90.0
 51
173.5881599999976
  0
ARC
  5
F07
330
18
100
AcDbEntity
  8
1
  6
Continuous
100
AcDbCircle
 10
232.0590431928164
 20
71.31456868449429
 30
0.0
 40
100.0
100
AcDbArc
 50
179.9999799999978
 51
186.4118499999997
  0
LINE
  5
F08
330
18
100
AcDbEntity
  8
1
  6
Continuous
100
AcDbLine
 10
229.9429011928165
 20
58.81456868449428
 30
0.0
 11
134.1751841456189
 21
58.81456868449428
 31
0.0
  0
ARC
  5
F09
330
18
100
AcDbEntity
  8
1
  6
Continuous
100
AcDbCircle
 10
134.1751851928163
 20
60.31456868449431
 30
0.0
 40
1.5
100
AcDbArc
 50
186.4118099999981
 51
269.9999599999991
  0
ARC
  5
F0A
330
18
100
AcDbEntity
  8
1
  6
Continuous
100
AcDbCircle
 10
132.0590431928164
 20
71.31456868449429
 30
0.0
 40
100.0
100
AcDbArc
 50
353.5881500000002
 51
0.0000199999987771
  0
ARC
  5
F0B
330
18
100
AcDbEntity
  8
1
  6
Continuous
100
AcDbCircle
 10
229.9429011928165
 20
60.3145686844943
 30
0.0
 40
1.5
100
AcDbArc
 50
270.0000400000007
 51
353.5881900000018
  0
ARC
  5
F0C
330
18
100
AcDbEntity
  8
1
  6
Continuous
100
AcDbCircle
 10
229.9429011928165
 20
82.31456868449432
 30
0.0
 40
1.5
100
AcDbArc
 50
6.411840000002228
 51
90.0
  0
ARC
  5
F0D
330
18
100
AcDbEntity
  8
1
  6
Continuous
100
AcDbCircle
 10
132.0590431928164
 20
71.31456868449429
 30
0.0
 40
100.0
100
AcDbArc
 50
0.0000199999987771
 51
6.411889999997812
  0
LINE
  5
F0E
330
18
100
AcDbEntity
  8
1
  6
Continuous
100
AcDbLine
 10
173.0590431928163
 20
56.31456868449428
 30
0.0
 11
182.0590431928165
 21
56.31456868449428
 31
0.0
  0
LINE
  5
F0F
330
18
100
AcDbEntity
  8
1
  6
Continuous
100
AcDbLine
 10
178.0590431928164
 20
55.3145686844943
 30
0.0
 11
178.0590431928164
 21
56.31456868449428
 31
0.0
  0
LINE
  5
F10
330
18
100
AcDbEntity
  8
1
  6
Continuous
100
AcDbLine
 10
172.0617962347164
 20
57.24040368449431
 30
0.0
 11
171.9447197528163
 21
58.81456868449428
 31
0.0
  0
ARC
  5
F11
330
18
100
AcDbEntity
  8
1
  6
Continuous
100
AcDbCircle
 10
173.0590431928163
 20
57.31456868449431
 30
0.0
 40
1.0
100
AcDbArc
 50
184.2532299999995
 51
269.9999599999991
  0
LINE
  5
F12
330
18
100
AcDbEntity
  8
1
  6
Continuous
100
AcDbLine
 10
191.0590431928165
 20
56.31456868449428
 30
0.0
 11
182.0590431928165
 21
56.31456868449428
 31
0.0
  0
LINE
  5
F13
330
18
100
AcDbEntity
  8
1
  6
Continuous
100
AcDbLine
 10
192.0562901509164
 20
57.24040368449431
 30
0.0
 11
192.1733666328165
 21
58.81456868449428
 31
0.0
  0
ARC
  5
F14
330
18
100
AcDbEntity
  8
1
  6
Continuous
100
AcDbCircle
 10
191.0590431928165
 20
57.31456868449431
 30
0.0
 40
1.0
100
AcDbArc
 50
270.0000400000007
 51
355.7467700000001
  0
LINE
  5
F15
330
18
100
AcDbEntity
  8
1
  6
Continuous
100
AcDbLine
 10
186.0590431928164
 20
55.3145686844943
 30
0.0
 11
186.0590431928164
 21
56.31456868449428
 31
0.0
  0
LINE
  5
F16
330
18
100
AcDbEntity
  8
1
  6
Continuous
100
AcDbLine
 10
191.0590431928165
 20
86.31456868449431
 30
0.0
 11
182.0590431928165
 21
86.31456868449431
 31
0.0
  0
LINE
  5
F17
330
18
100
AcDbEntity
  8
1
  6
Continuous
100
AcDbLine
 10
192.0562890130165
 20
85.38873368449429
 30
0.0
 11
192.1733654928165
 21
83.81456868449431
 31
0.0
  0
ARC
  5
F18
330
18
100
AcDbEntity
  8
1
  6
Continuous
100
AcDbCircle
 10
191.0590431928165
 20
85.3145686844943
 30
0.0
 40
1.0
100
AcDbArc
 50
4.253270000000322
 51
90.0
  0
LINE
  5
F19
330
18
100
AcDbEntity
  8
1
  6
Continuous
100
AcDbLine
 10
186.0590431928164
 20
86.31456868449419
 30
0.0
 11
186.0590431928164
 21
87.31457668449417
 31
0.0
  0
LINE
  5
F1A
330
18
100
AcDbEntity
  8
1
  6
Continuous
100
AcDbLine
 10
173.0590431928163
 20
86.31456868449431
 30
0.0
 11
182.0590431928165
 21
86.31456868449431
 31
0.0
  0
LINE
  5
F1B
330
18
100
AcDbEntity
  8
1
  6
Continuous
100
AcDbLine
 10
178.0590431928164
 20
86.31456868449419
 30
0.0
 11
178.0590431928164
 21
87.31457668449417
 31
0.0
  0
LINE
  5
F1C
330
18
100
AcDbEntity
  8
1
  6
Continuous
100
AcDbLine
 10
172.0617973726165
 20
85.38873368449429
 30
0.0
 11
171.9447208928163
 21
83.81456868449431
 31
0.0
  0
ARC
  5
F1D
330
18
100
AcDbEntity
  8
1
  6
Continuous
100
AcDbCircle
 10
173.0590431928163
 20
85.3145686844943
 30
0.0
 40
1.0
100
AcDbArc
 50
90.0
 51
175.7467299999995
  0
ARC
  5
F77
330
18
100
AcDbEntity
  8
1
  6
Continuous
100
AcDbCircle
 10
134.1751851928163
 20
349.661357356592
 30
0.0
 40
1.5
100
AcDbArc
 50
186.4118099999981
 51
269.9999599999991
  0
ARC
  5
F78
330
18
100
AcDbEntity
  8
1
  6
Continuous
100
AcDbCircle
 10
232.0590431928164
 20
360.661357356592
 30
0.0
 40
100.0
100
AcDbArc
 50
173.5881100000021
 51
179.9999799999978
  0
ARC
  5
F79
330
18
100
AcDbEntity
  8
1
  6
Continuous
100
AcDbCircle
 10
232.0590431928164
 20
360.661357356592
 30
0.0
 40
100.0
100
AcDbArc
 50
179.9999799999978
 51
186.4118499999997
  0
ARC
  5
F7A
330
18
100
AcDbEntity
  8
1
  6
Continuous
100
AcDbCircle
 10
134.1751851928163
 20
371.661357356592
 30
0.0
 40
1.5
100
AcDbArc
 50
90.0
 51
173.5881599999976
  0
LINE
  5
F7B
330
18
100
AcDbEntity
  8
1
  6
Continuous
100
AcDbLine
 10
165.6682422968176
 20
348.161357356592
 30
0.0
 11
134.1751841456189
 21
348.161357356592
 31
0.0
  0
LINE
  5
F7C
330
18
100
AcDbEntity
  8
1
  6
Continuous
100
AcDbLine
 10
165.6682422968176
 20
373.161357356592
 30
0.0
 11
134.1751851928163
 21
373.161357356592
 31
0.0
  0
ENDSEC
  0
SECTION
  2
OBJECTS
  0
DICTIONARY
  5
C
330
0
100
AcDbDictionary
281
     1
  3
ACAD_CIP_PREVIOUS_PRODUCT_INFO
350
1028
  3
ACAD_COLOR
350
100B
  3
ACAD_DETAILVIEWSTYLE
350
1024
  3
ACAD_GROUP
350
D
  3
ACAD_LAYOUT
350
5D
  3
ACAD_MATERIAL
350
FD9
  3
ACAD_MLEADERSTYLE
350
1020
  3
ACAD_MLINESTYLE
350
1B
  3
ACAD_PLOTSETTINGS
350
5E
  3
ACAD_PLOTSTYLENAME
350
FD7
  3
ACAD_SCALELIST
350
100E
  3
ACAD_SECTIONVIEWSTYLE
350
1022
  3
ACAD_TABLESTYLE
350
100C
  3
ACAD_VISUALSTYLE
350
FF2
  3
ACDB_RECOMPOSE_DATA
350
1046
  3
AcDbVariableDictionary
350
1039
  3
CONTENTDICTIONARY
350
3D
  3
DWGPROPS
350
1047
  0
DICTIONARY
  5
1029
330
E
100
AcDbDictionary
280
     1
281
     1
  3
ADSK_XREC_LAYER_RECONCILED
360
102A
  0
DICTIONARY
  5
102B
330
65
100
AcDbDictionary
280
     1
281
     1
  3
ADSK_XREC_LAYER_RECONCILED
360
102C
  0
DICTIONARY
  5
102D
330
66
100
AcDbDictionary
280
     1
281
     1
  3
ADSK_XREC_LAYER_RECONCILED
360
102E
  0
DICTIONARY
  5
102F
330
67
100
AcDbDictionary
280
     1
281
     1
  3
ADSK_XREC_LAYER_RECONCILED
360
1030
  0
DICTIONARY
  5
1031
330
68
100
AcDbDictionary
280
     1
281
     1
  3
ADSK_XREC_LAYER_RECONCILED
360
1032
  0
DICTIONARY
  5
1033
330
69
100
AcDbDictionary
280
     1
281
     1
  3
ADSK_XREC_LAYER_RECONCILED
360
1034
  0
DICTIONARY
  5
1035
330
6A
100
AcDbDictionary
280
     1
281
     1
  3
ADSK_XREC_LAYER_RECONCILED
360
1036
  0
DICTIONARY
  5
1037
330
6B
100
AcDbDictionary
280
     1
281
     1
  3
ADSK_XREC_LAYER_RECONCILED
360
1038
  0
DICTIONARY
  5
FBB
330
18
100
AcDbDictionary
281
     1
  3
ACAD_LAYOUTSELFREF
350
FD3
  0
DICTIONARY
  5
FB9
330
15
100
AcDbDictionary
281
     1
  3
ACAD_LAYOUTSELFREF
350
FD2
  0
XRECORD
  5
1028
102
{ACAD_REACTORS
330
C
102
}
330
C
100
AcDbXrecord
280
     1
300
ACDLT
300
2014
300
ACDLT_F_S
  0
DICTIONARY
  5
100B
102
{ACAD_REACTORS
330
C
102
}
330
C
100
AcDbDictionary
281
     1
  0
DICTIONARY
  5
1024
102
{ACAD_REACTORS
330
C
102
}
330
C
100
AcDbDictionary
281
     1
  3
Imperial24
350
1025
  0
DICTIONARY
  5
D
102
{ACAD_REACTORS
330
C
102
}
330
C
100
AcDbDictionary
281
     1
  0
DICTIONARY
  5
5D
102
{ACAD_REACTORS
330
C
102
}
330
C
100
AcDbDictionary
281
     1
  3
Model
350
1026
  3
レイアウト1
350
1027
  0
DICTIONARY
  5
FD9
102
{ACAD_REACTORS
330
C
102
}
330
C
100
AcDbDictionary
281
     1
  3
ByBlock
350
FE2
  3
ByLayer
350
FDA
  3
Global
350
FEA
  0
DICTIONARY
  5
1020
102
{ACAD_REACTORS
330
C
102
}
330
C
100
AcDbDictionary
281
     1
  3
Standard
350
1021
  0
DICTIONARY
  5
1B
102
{ACAD_REACTORS
330
C
102
}
330
C
100
AcDbDictionary
281
     1
  3
STANDARD
350
1C
  0
DICTIONARY
  5
5E
102
{ACAD_REACTORS
330
C
102
}
330
C
100
AcDbDictionary
281
     1
  0
ACDBDICTIONARYWDFLT
  5
FD7
102
{ACAD_REACTORS
330
C
102
}
330
C
100
AcDbDictionary
281
     1
  3
Normal
350
FD8
100
AcDbDictionaryWithDefault
340
FD8
  0
DICTIONARY
  5
100E
102
{ACAD_REACTORS
330
C
102
}
330
C
100
AcDbDictionary
281
     1
  3
A0
350
100F
  3
A1
350
1010
  3
A2
350
1011
  3
A3
350
1012
  3
A4
350
1013
  3
A5
350
1014
  3
A6
350
1015
  3
A7
350
1016
  3
A8
350
1017
  3
A9
350
1018
  3
B0
350
1019
  3
B1
350
101A
  3
B2
350
101B
  3
B3
350
101C
  3
B4
350
101D
  3
B5
350
101E
  3
B6
350
101F
  0
DICTIONARY
  5
1022
102
{ACAD_REACTORS
330
C
102
}
330
C
100
AcDbDictionary
281
     1
  3
Imperial24
350
1023
  0
DICTIONARY
  5
100C
102
{ACAD_REACTORS
330
C
102
}
330
C
100
AcDbDictionary
281
     1
  3
Standard
350
100D
  0
DICTIONARY
  5
FF2
102
{ACAD_REACTORS
330
C
102
}
330
C
100
AcDbDictionary
281
     1
  3
2dWireframe
350
FF8
  3
Basic
350
FF7
  3
Brighten
350
FFE
  3
ColorChange
350
1002
  3
Conceptual
350
FFB
  3
Dim
350
FFD
  3
EdgeColorOff
350
100A
  3
Facepattern
350
1001
  3
Flat
350
FF3
  3
FlatWithEdges
350
FF4
  3
Gouraud
350
FF5
  3
GouraudWithEdges
350
FF6
  3
Hidden
350
FFA
  3
JitterOff
350
1008
  3
Linepattern
350
1000
  3
OverhangOff
350
1009
  3
Realistic
350
FFC
  3
Shaded
350
1007
  3
Shaded with edges
350
1006
  3
Shades of Gray
350
1003
  3
Sketchy
350
1004
  3
Thicken
350
FFF
  3
Wireframe
350
FF9
  3
X-Ray
350
1005
  0
XRECORD
  5
1046
102
{ACAD_REACTORS
330
C
102
}
330
C
100
AcDbXrecord
280
     1
 90
        1
330
100D
  0
DICTIONARY
  5
1039
102
{ACAD_REACTORS
330
C
102
}
330
C
100
AcDbDictionary
281
     1
  3
CANNOSCALE
350
103E
  3
CMLEADERSTYLE
350
103B
  3
CTABLESTYLE
350
103A
  3
CVIEWDETAILSTYLE
350
103C
  3
CVIEWSECTIONSTYLE
350
103D
  3
DIMASSOC
350
1041
  3
INDEXCTL
350
1040
  3
SORTENTS
350
103F
  3
XCLIPFRAME
350
1042
  0
DICTIONARY
  5
3D
102
{ACAD_REACTORS
330
C
102
}
330
C
100
AcDbDictionary
281
     1
  0
XRECORD
  5
1047
102
{ACAD_REACTORS
330
C
102
}
330
C
100
AcDbXrecord
280
     1
  1
DWGPROPS COOKIE
  2

  3

  4

  6

  7

  8
Yoshitsune
  9

300
=
301
=
302
=
303
=
304
=
305
=
306
=
307
=
308
=
309
=
 40
0.1079625231481482
 41
2453257.593359375
 42
2457192.689302095
  1

 90
        0
  0
XRECORD
  5
102A
102
{ACAD_REACTORS
330
1029
102
}
330
1029
100
AcDbXrecord
280
     1
290
     1
  0
XRECORD
  5
102C
102
{ACAD_REACTORS
330
102B
102
}
330
102B
100
AcDbXrecord
280
     1
290
     1
  0
XRECORD
  5
102E
102
{ACAD_REACTORS
330
102D
102
}
330
102D
100
AcDbXrecord
280
     1
290
     1
  0
XRECORD
  5
1030
102
{ACAD_REACTORS
330
102F
102
}
330
102F
100
AcDbXrecord
280
     1
290
     1
  0
XRECORD
  5
1032
102
{ACAD_REACTORS
330
1031
102
}
330
1031
100
AcDbXrecord
280
     1
290
     1
  0
XRECORD
  5
1034
102
{ACAD_REACTORS
330
1033
102
}
330
1033
100
AcDbXrecord
280
     1
290
     1
  0
XRECORD
  5
1036
102
{ACAD_REACTORS
330
1035
102
}
330
1035
100
AcDbXrecord
280
     1
290
     1
  0
XRECORD
  5
1038
102
{ACAD_REACTORS
330
1037
102
}
330
1037
100
AcDbXrecord
280
     1
290
     1
  0
XRECORD
  5
FD3
102
{ACAD_REACTORS
330
FBB
102
}
330
FBB
100
AcDbXrecord
280
     1
340
18
  0
XRECORD
  5
FD2
102
{ACAD_REACTORS
330
FB9
102
}
330
FB9
100
AcDbXrecord
280
     1
340
15
  0
ACDBDETAILVIEWSTYLE
  5
1025
102
{ACAD_XDICTIONARY
360
107F
102
}
102
{ACAD_REACTORS
330
1024
102
}
330
1024
100
AcDbModelDocViewStyle
 70
     0
  3
Imperial24
290
     0
100
AcDbDetailViewStyle
 70
     0
 71
     0
 90
        3
 71
     1
340
F
 40
0.24
340
0
 40
0.24
300

 40
0.36
280
     3
 71
     2
340
14
 90
       25
 71
     3
340
F
 40
0.24
 90
        1
 40
0.75
 90
        1
300
%<\AcVar ViewType \f "%tc1">% %<\AcVar ViewDetailId>%\PSCALE %<\AcVar ViewScale \f "%sn">%
 71
     4
340
14
 90
       25
340
14
 90
       25
280
     0
  0
LAYOUT
  5
1026
102
{ACAD_XDICTIONARY
360
1081
102
}
102
{ACAD_REACTORS
330
5D
102
}
330
5D
100
AcDbPlotSettings
  1

  2
Canon LBP9100C
  4

  6

 40
0.0
 41
0.0
 42
0.0
 43
0.0
 44
0.0
 45
0.0
 46
0.0
 47
0.0
 48
0.0
 49
0.0
140
0.0
141
0.0
142
1.0
143
1.0
 70
  1712
 72
     0
 73
     0
 74
     0
  7

 75
     0
147
1.0
148
0.0
149
0.0
100
AcDbLayout
  1
Model
 70
     1
 71
     0
 10
0.0
 20
0.0
 11
12.0
 21
9.0
 12
0.0
 22
0.0
 32
0.0
 14
0.0
 24
0.0
 34
0.0
 15
0.0
 25
0.0
 35
0.0
146
0.0
 13
0.0
 23
0.0
 33
0.0
 16
1.0
 26
0.0
 36
0.0
 17
0.0
 27
1.0
 37
0.0
 76
     0
330
18
331
FD1
  0
LAYOUT
  5
1027
102
{ACAD_XDICTIONARY
360
1083
102
}
102
{ACAD_REACTORS
330
5D
102
}
330
5D
100
AcDbPlotSettings
  1

  2
Canon LBP9100C
  4

  6

 40
0.0
 41
0.0
 42
0.0
 43
0.0
 44
0.0
 45
0.0
 46
0.0
 47
0.0
 48
0.0
 49
0.0
140
0.0
141
0.0
142
1.0
143
1.0
 70
   688
 72
     0
 73
     0
 74
     5
  7

 75
    16
147
1.0
148
0.0
149
0.0
100
AcDbLayout
  1
レイアウト1
 70
     1
 71
     1
 10
0.0
 20
0.0
 11
420.0
 21
297.0
 12
0.0
 22
0.0
 32
0.0
 14
1.000000000000000E+20
 24
1.000000000000000E+20
 34
1.000000000000000E+20
 15
-1.000000000000000E+20
 25
-1.000000000000000E+20
 35
-1.000000000000000E+20
146
0.0
 13
0.0
 23
0.0
 33
0.0
 16
1.0
 26
0.0
 36
0.0
 17
0.0
 27
1.0
 37
0.0
 76
     0
330
15
  0
MATERIAL
  5
FE2
102
{ACAD_XDICTIONARY
360
FE3
102
}
102
{ACAD_REACTORS
330
FD9
102
}
330
FD9
100
AcDbMaterial
  1
ByBlock
 72
     0
 43
0.0208333333333333
 43
0.0
 43
0.0
 43
0.0
 43
0.0
 43
0.0208333333333333
 43
0.0
 43
0.0
 43
0.0
 43
0.0
 43
1.0
 43
0.0
 43
0.0
 43
0.0
 43
0.0
 43
1.0
 77
     0
 47
0.0208333333333333
 47
0.0
 47
0.0
 47
0.0
 47
0.0
 47
0.0208333333333333
 47
0.0
 47
0.0
 47
0.0
 47
0.0
 47
1.0
 47
0.0
 47
0.0
 47
0.0
 47
0.0
 47
1.0
171
     0
 49
0.0208333333333333
 49
0.0
 49
0.0
 49
0.0
 49
0.0
 49
0.0208333333333333
 49
0.0
 49
0.0
 49
0.0
 49
0.0
 49
1.0
 49
0.0
 49
0.0
 49
0.0
 49
0.0
 49
1.0
175
     0
142
0.0208333333333333
142
0.0
142
0.0
142
0.0
142
0.0
142
0.0208333333333333
142
0.0
142
0.0
142
0.0
142
0.0
142
1.0
142
0.0
142
0.0
142
0.0
142
0.0
142
1.0
179
     0
144
0.0208333333333333
144
0.0
144
0.0
144
0.0
144
0.0
144
0.0208333333333333
144
0.0
144
0.0
144
0.0
144
0.0
144
1.0
144
0.0
144
0.0
144
0.0
144
0.0
144
1.0
147
0.0208333333333333
147
0.0
147
0.0
147
0.0
147
0.0
147
0.0208333333333333
147
0.0
147
0.0
147
0.0
147
0.0
147
1.0
147
0.0
147
0.0
147
0.0
147
0.0
147
1.0
  0
MATERIAL
  5
FDA
102
{ACAD_XDICTIONARY
360
FDB
102
}
102
{ACAD_REACTORS
330
FD9
102
}
330
FD9
100
AcDbMaterial
  1
ByLayer
 72
     0
 43
0.0208333333333333
 43
0.0
 43
0.0
 43
0.0
 43
0.0
 43
0.0208333333333333
 43
0.0
 43
0.0
 43
0.0
 43
0.0
 43
1.0
 43
0.0
 43
0.0
 43
0.0
 43
0.0
 43
1.0
 77
     0
 47
0.0208333333333333
 47
0.0
 47
0.0
 47
0.0
 47
0.0
 47
0.0208333333333333
 47
0.0
 47
0.0
 47
0.0
 47
0.0
 47
1.0
 47
0.0
 47
0.0
 47
0.0
 47
0.0
 47
1.0
171
     0
 49
0.0208333333333333
 49
0.0
 49
0.0
 49
0.0
 49
0.0
 49
0.0208333333333333
 49
0.0
 49
0.0
 49
0.0
 49
0.0
 49
1.0
 49
0.0
 49
0.0
 49
0.0
 49
0.0
 49
1.0
175
     0
142
0.0208333333333333
142
0.0
142
0.0
142
0.0
142
0.0
142
0.0208333333333333
142
0.0
142
0.0
142
0.0
142
0.0
142
1.0
142
0.0
142
0.0
142
0.0
142
0.0
142
1.0
179
     0
144
0.0208333333333333
144
0.0
144
0.0
144
0.0
144
0.0
144
0.0208333333333333
144
0.0
144
0.0
144
0.0
144
0.0
144
1.0
144
0.0
144
0.0
144
0.0
144
0.0
144
1.0
147
0.0208333333333333
147
0.0
147
0.0
147
0.0
147
0.0
147
0.0208333333333333
147
0.0
147
0.0
147
0.0
147
0.0
147
1.0
147
0.0
147
0.0
147
0.0
147
0.0
147
1.0
  0
MATERIAL
  5
FEA
102
{ACAD_XDICTIONARY
360
FEB
102
}
102
{ACAD_REACTORS
330
FD9
102
}
330
FD9
100
AcDbMaterial
  1
Global
 72
     0
 43
0.0208333333333333
 43
0.0
 43
0.0
 43
0.0
 43
0.0
 43
0.0208333333333333
 43
0.0
 43
0.0
 43
0.0
 43
0.0
 43
1.0
 43
0.0
 43
0.0
 43
0.0
 43
0.0
 43
1.0
 77
     0
 47
0.0208333333333333
 47
0.0
 47
0.0
 47
0.0
 47
0.0
 47
0.0208333333333333
 47
0.0
 47
0.0
 47
0.0
 47
0.0
 47
1.0
 47
0.0
 47
0.0
 47
0.0
 47
0.0
 47
1.0
171
     0
 49
0.0208333333333333
 49
0.0
 49
0.0
 49
0.0
 49
0.0
 49
0.0208333333333333
 49
0.0
 49
0.0
 49
0.0
 49
0.0
 49
1.0
 49
0.0
 49
0.0
 49
0.0
 49
0.0
 49
1.0
175
     0
142
0.0208333333333333
142
0.0
142
0.0
142
0.0
142
0.0
142
0.0208333333333333
142
0.0
142
0.0
142
0.0
142
0.0
142
1.0
142
0.0
142
0.0
142
0.0
142
0.0
142
1.0
179
     0
144
0.0208333333333333
144
0.0
144
0.0
144
0.0
144
0.0
144
0.0208333333333333
144
0.0
144
0.0
144
0.0
144
0.0
144
1.0
144
0.0
144
0.0
144
0.0
144
0.0
144
1.0
147
0.0208333333333333
147
0.0
147
0.0
147
0.0
147
0.0
147
0.0208333333333333
147
0.0
147
0.0
147
0.0
147
0.0
147
1.0
147
0.0
147
0.0
147
0.0
147
0.0
147
1.0
  0
MLEADERSTYLE
  5
1021
102
{ACAD_REACTORS
330
1020
102
}
330
1020
100
AcDbMLeaderStyle
170
     2
171
     1
172
     0
 90
        2
 40
0.0
 41
0.0
173
     1
 91
-1056964608
340
12
 92
       -2
290
     1
 42
0.09
291
     1
 43
0.36
  3
Standard
 44
0.18
300

342
F
174
     1
178
     6
175
     1
176
     0
 93
-1056964608
 45
0.18
292
     0
297
     0
 46
0.18
 94
-1056964608
 47
1.0
 49
1.0
140
1.0
293
     1
141
0.0
294
     1
177
     0
142
1.0
295
     0
296
     0
143
0.125
1001
ACAD_MLEADERVER
1070
     2
  0
MLINESTYLE
  5
1C
102
{ACAD_REACTORS
330
1B
102
}
330
1B
100
AcDbMlineStyle
  2
STANDARD
 70
     0
  3

 62
   256
 51
90.0
 52
90.0
 71
     2
 49
0.5
 62
   256
  6
BYLAYER
 49
-0.5
 62
   256
  6
BYLAYER
  0
ACDBPLACEHOLDER
  5
FD8
102
{ACAD_REACTORS
330
FD7
102
}
330
FD7
  0
SCALE
  5
100F
102
{ACAD_REACTORS
330
100E
102
}
330
100E
100
AcDbScale
 70
     0
300
1:1
140
1.0
141
1.0
290
     1
  0
SCALE
  5
1010
102
{ACAD_REACTORS
330
100E
102
}
330
100E
100
AcDbScale
 70
     0
300
1/128" = 1'-0"
140
0.0078125
141
12.0
290
     0
  0
SCALE
  5
1011
102
{ACAD_REACTORS
330
100E
102
}
330
100E
100
AcDbScale
 70
     0
300
1/64" = 1'-0"
140
0.015625
141
12.0
290
     0
  0
SCALE
  5
1012
102
{ACAD_REACTORS
330
100E
102
}
330
100E
100
AcDbScale
 70
     0
300
1/32" = 1'-0"
140
0.03125
141
12.0
290
     0
  0
SCALE
  5
1013
102
{ACAD_REACTORS
330
100E
102
}
330
100E
100
AcDbScale
 70
     0
300
1/16" = 1'-0"
140
0.0625
141
12.0
290
     0
  0
SCALE
  5
1014
102
{ACAD_REACTORS
330
100E
102
}
330
100E
100
AcDbScale
 70
     0
300
3/32" = 1'-0"
140
0.09375
141
12.0
290
     0
  0
SCALE
  5
1015
102
{ACAD_REACTORS
330
100E
102
}
330
100E
100
AcDbScale
 70
     0
300
1/8" = 1'-0"
140
0.125
141
12.0
290
     0
  0
SCALE
  5
1016
102
{ACAD_REACTORS
330
100E
102
}
330
100E
100
AcDbScale
 70
     0
300
3/16" = 1'-0"
140
0.1875
141
12.0
290
     0
  0
SCALE
  5
1017
102
{ACAD_REACTORS
330
100E
102
}
330
100E
100
AcDbScale
 70
     0
300
1/4" = 1'-0"
140
0.25
141
12.0
290
     0
  0
SCALE
  5
1018
102
{ACAD_REACTORS
330
100E
102
}
330
100E
100
AcDbScale
 70
     0
300
3/8" = 1'-0"
140
0.375
141
12.0
290
     0
  0
SCALE
  5
1019
102
{ACAD_REACTORS
330
100E
102
}
330
100E
100
AcDbScale
 70
     0
300
1/2" = 1'-0"
140
0.5
141
12.0
290
     0
  0
SCALE
  5
101A
102
{ACAD_REACTORS
330
100E
102
}
330
100E
100
AcDbScale
 70
     0
300
3/4" = 1'-0"
140
0.75
141
12.0
290
     0
  0
SCALE
  5
101B
102
{ACAD_REACTORS
330
100E
102
}
330
100E
100
AcDbScale
 70
     0
300
1" = 1'-0"
140
1.0
141
12.0
290
     0
  0
SCALE
  5
101C
102
{ACAD_REACTORS
330
100E
102
}
330
100E
100
AcDbScale
 70
     0
300
1-1/2" = 1'-0"
140
1.5
141
12.0
290
     0
  0
SCALE
  5
101D
102
{ACAD_REACTORS
330
100E
102
}
330
100E
100
AcDbScale
 70
     0
300
3" = 1'-0"
140
3.0
141
12.0
290
     0
  0
SCALE
  5
101E
102
{ACAD_REACTORS
330
100E
102
}
330
100E
100
AcDbScale
 70
     0
300
6" = 1'-0"
140
6.0
141
12.0
290
     0
  0
SCALE
  5
101F
102
{ACAD_REACTORS
330
100E
102
}
330
100E
100
AcDbScale
 70
     0
300
1'-0" = 1'-0"
140
12.0
141
12.0
290
     0
  0
ACDBSECTIONVIEWSTYLE
  5
1023
102
{ACAD_XDICTIONARY
360
107D
102
}
102
{ACAD_REACTORS
330
1022
102
}
330
1022
100
AcDbModelDocViewStyle
 70
     0
  3
Imperial24
290
     0
100
AcDbSectionViewStyle
 70
     0
 71
     0
 90
       78
 71
     1
340
F
 40
0.24
340
0
340
0
 40
0.24
300
I, O, Q, S, X, Z
 40
0.48
 90
        3
 40
0.18
 90
        1
 71
     2
340
14
 90
       25
340
14
 90
       50
 40
0.24
 40
0.0
 40
0.24
 71
     3
340
F
 40
0.24
 90
        1
 40
0.75
 90
        1
300
%<\AcVar ViewType \f "%tc1">% %<\AcVar ViewSectionStartId>%-%<\AcVar ViewSectionEndId>%\PSCALE %<\AcVar ViewScale \f "%sn">%
 71
     4
300
ANSI31
 40
1.0
 90
        0
290
     0
290
     0
 90
        6
 40
0.0
 40
1.570796326794896
 40
0.2617993877991494
 40
1.308996938995747
 40
-0.2617993877991494
 40
1.832595714594046
  0
TABLESTYLE
  5
100D
102
{ACAD_XDICTIONARY
360
1044
102
}
102
{ACAD_REACTORS
330
100C
102
}
330
100C
100
AcDbTableStyle
  3
Standard
 70
     0
 71
     0
 40
0.06
 41
0.06
280
     0
281
     0
  7
STANDARD
140
0.18
170
     2
 62
     0
 63
     7
283
     0
274
    -2
284
     1
 64
     0
275
    -2
285
     1
 65
     0
276
    -2
286
     1
 66
     0
277
    -2
287
     1
 67
     0
278
    -2
288
     1
 68
     0
279
    -2
289
     1
 69
     0
  7
STANDARD
140
0.25
170
     5
 62
     0
 63
     7
283
     0
274
    -2
284
     1
 64
     0
275
    -2
285
     1
 65
     0
276
    -2
286
     1
 66
     0
277
    -2
287
     1
 67
     0
278
    -2
288
     1
 68
     0
279
    -2
289
     1
 69
     0
  7
STANDARD
140
0.18
170
     5
 62
     0
 63
     7
283
     0
274
    -2
284
     1
 64
     0
275
    -2
285
     1
 65
     0
276
    -2
286
     1
 66
     0
277
    -2
287
     1
 67
     0
278
    -2
288
     1
 68
     0
279
    -2
289
     1
 69
     0
  0
VISUALSTYLE
  5
FF8
102
{ACAD_XDICTIONARY
360
1055
102
}
102
{ACAD_REACTORS
330
FF2
102
}
330
FF2
100
AcDbVisualStyle
  2
2dWireframe
 70
     4
 71
     0
 72
     2
 73
     0
 90
        0
 40
-0.6
 41
-30.0
 62
     5
 63
     7
 74
     1
 91
        4
 64
     7
 65
   257
 75
     1
175
     1
 42
1.0
 92
        0
 66
   257
 43
1.0
 76
     1
 77
     6
 78
     2
 67
     7
 79
     5
170
     0
171
     0
290
     0
174
     0
 93
        1
 44
0.0
173
     0
291
     0
 45
0.0
1001
ACAD
1000
AcDbSavedByObjectVersion
1070
     0
  0
VISUALSTYLE
  5
FF7
102
{ACAD_XDICTIONARY
360
1053
102
}
102
{ACAD_REACTORS
330
FF2
102
}
330
FF2
100
AcDbVisualStyle
  2
Basic
 70
     7
 71
     1
 72
     0
 73
     1
 90
        0
 40
-0.6
 41
-30.0
 62
     5
 63
     7
 74
     0
 91
        4
 64
     7
 65
   257
 75
     1
175
     1
 42
1.0
 92
        8
 66
     7
 43
1.0
 76
     1
 77
     6
 78
     2
 67
     7
 79
     5
170
     0
171
     0
290
     0
174
     0
 93
        1
 44
0.0
173
     0
291
     1
 45
0.0
1001
ACAD
1000
AcDbSavedByObjectVersion
1070
     0
  0
VISUALSTYLE
  5
FFE
102
{ACAD_XDICTIONARY
360
1061
102
}
102
{ACAD_REACTORS
330
FF2
102
}
330
FF2
100
AcDbVisualStyle
  2
Brighten
 70
    12
 71
     2
 72
     2
 73
     0
 90
        0
 40
-0.6
 41
-30.0
 62
     5
 63
     7
 74
     1
 91
        4
 64
     7
 65
   257
 75
     1
175
     1
 42
1.0
 92
        8
 66
     7
 43
1.0
 76
     1
 77
     6
 78
     2
 67
     7
 79
     5
170
     0
171
     0
290
     0
174
     0
 93
        1
 44
50.0
173
     0
291
     1
 45
0.0
1001
ACAD
1000
AcDbSavedByObjectVersion
1070
     0
  0
VISUALSTYLE
  5
1002
102
{ACAD_XDICTIONARY
360
1069
102
}
102
{ACAD_REACTORS
330
FF2
102
}
330
FF2
100
AcDbVisualStyle
  2
ColorChange
 70
    16
 71
     2
 72
     2
 73
     3
 90
        0
 40
-0.6
 41
-30.0
 62
     5
 63
     8
 74
     1
 91
        4
 64
     7
 65
   257
 75
     1
175
     1
 42
1.0
 92
        8
 66
     8
 43
1.0
 76
     1
 77
     6
 78
     2
 67
     7
 79
     5
170
     0
171
     0
290
     0
174
     0
 93
        1
 44
0.0
173
     0
291
     1
 45
0.0
1001
ACAD
1000
AcDbSavedByObjectVersion
1070
     0
  0
VISUALSTYLE
  5
FFB
102
{ACAD_XDICTIONARY
360
105B
102
}
102
{ACAD_REACTORS
330
FF2
102
}
330
FF2
100
AcDbVisualStyle
  2
Conceptual
 70
     9
 71
     3
 72
     2
 73
     0
 90
        0
 40
-0.6
 41
-30.0
 62
     5
 63
     7
 74
     2
 91
        2
 64
     7
 65
   257
 75
     1
175
     1
 42
179.0
 92
        8
 66
     7
 43
1.0
 76
     1
 77
     6
 78
     2
 67
     7
 79
     3
170
     0
171
     0
290
     0
174
     0
 93
        1
 44
0.0
173
     0
291
     0
 45
0.0
1001
ACAD
1000
AcDbSavedByObjectVersion
1070
     0
  0
VISUALSTYLE
  5
FFD
102
{ACAD_XDICTIONARY
360
105F
102
}
102
{ACAD_REACTORS
330
FF2
102
}
330
FF2
100
AcDbVisualStyle
  2
Dim
 70
    11
 71
     2
 72
     2
 73
     0
 90
        0
 40
-0.6
 41
-30.0
 62
     5
 63
     7
 74
     1
 91
        4
 64
     7
 65
   257
 75
     1
175
     1
 42
1.0
 92
        8
 66
     7
 43
1.0
 76
     1
 77
     6
 78
     2
 67
     7
 79
     5
170
     0
171
     0
290
     0
174
     0
 93
        1
 44
-50.0
173
     0
291
     1
 45
0.0
1001
ACAD
1000
AcDbSavedByObjectVersion
1070
     0
  0
VISUALSTYLE
  5
100A
102
{ACAD_XDICTIONARY
360
1079
102
}
102
{ACAD_REACTORS
330
FF2
102
}
330
FF2
100
AcDbVisualStyle
  2
EdgeColorOff
 70
    22
 71
     2
 72
     2
 73
     0
 90
        0
 40
-0.6
 41
-30.0
 62
     5
 63
     7
 74
     1
 91
        4
 64
     7
 65
   257
 75
     1
175
     1
 42
1.0
 92
        8
 66
     7
 43
1.0
 76
     1
 77
     6
 78
     2
 67
     7
 79
     5
170
     0
171
     0
290
     0
174
     0
 93
        1
 44
0.0
173
     0
291
     1
 45
0.0
1001
ACAD
1000
AcDbSavedByObjectVersion
1070
     0
  0
VISUALSTYLE
  5
1001
102
{ACAD_XDICTIONARY
360
1067
102
}
102
{ACAD_REACTORS
330
FF2
102
}
330
FF2
100
AcDbVisualStyle
  2
Facepattern
 70
    15
 71
     2
 72
     2
 73
     0
 90
        0
 40
-0.6
 41
-30.0
 62
     5
 63
     7
 74
     1
 91
        4
 64
     7
 65
   257
 75
     1
175
     1
 42
1.0
 92
        8
 66
     7
 43
1.0
 76
     1
 77
     6
 78
     2
 67
     7
 79
     5
170
     0
171
     0
290
     0
174
     0
 93
        1
 44
0.0
173
     0
291
     1
 45
0.0
1001
ACAD
1000
AcDbSavedByObjectVersion
1070
     0
  0
VISUALSTYLE
  5
FF3
102
{ACAD_XDICTIONARY
360
104B
102
}
102
{ACAD_REACTORS
330
FF2
102
}
330
FF2
100
AcDbVisualStyle
  2
Flat
 70
     0
 71
     2
 72
     1
 73
     1
 90
        2
 40
-0.6
 41
30.0
 62
     5
 63
     7
 74
     0
 91
        0
 64
     7
 65
   257
 75
     1
175
     1
 42
1.0
 92
        8
 66
     7
 43
1.0
 76
     1
 77
     6
 78
     2
 67
     7
 79
     5
170
     0
171
     0
290
     0
174
     0
 93
       13
 44
0.0
173
     0
291
     1
 45
0.0
1001
ACAD
1000
AcDbSavedByObjectVersion
1070
     0
  0
VISUALSTYLE
  5
FF4
102
{ACAD_XDICTIONARY
360
104D
102
}
102
{ACAD_REACTORS
330
FF2
102
}
330
FF2
100
AcDbVisualStyle
  2
FlatWithEdges
 70
     1
 71
     2
 72
     1
 73
     1
 90
        2
 40
-0.6
 41
30.0
 62
     5
 63
     7
 74
     1
 91
        0
 64
     7
 65
   257
 75
     1
175
     1
 42
1.0
 92
        0
 66
   257
 43
1.0
 76
     1
 77
     6
 78
     2
 67
     7
 79
     5
170
     0
171
     0
290
     0
174
     0
 93
       13
 44
0.0
173
     0
291
     1
 45
0.0
1001
ACAD
1000
AcDbSavedByObjectVersion
1070
     0
  0
VISUALSTYLE
  5
FF5
102
{ACAD_XDICTIONARY
360
104F
102
}
102
{ACAD_REACTORS
330
FF2
102
}
330
FF2
100
AcDbVisualStyle
  2
Gouraud
 70
     2
 71
     2
 72
     2
 73
     1
 90
        2
 40
-0.6
 41
30.0
 62
     5
 63
     7
 74
     0
 91
        0
 64
     7
 65
   257
 75
     1
175
     1
 42
1.0
 92
        0
 66
     7
 43
1.0
 76
     1
 77
     6
 78
     2
 67
     7
 79
     5
170
     0
171
     0
290
     0
174
     0
 93
       13
 44
0.0
173
     0
291
     1
 45
0.0
1001
ACAD
1000
AcDbSavedByObjectVersion
1070
     0
  0
VISUALSTYLE
  5
FF6
102
{ACAD_XDICTIONARY
360
1051
102
}
102
{ACAD_REACTORS
330
FF2
102
}
330
FF2
100
AcDbVisualStyle
  2
GouraudWithEdges
 70
     3
 71
     2
 72
     2
 73
     1
 90
        2
 40
-0.6
 41
30.0
 62
     5
 63
     7
 74
     1
 91
        0
 64
     7
 65
   257
 75
     1
175
     1
 42
1.0
 92
        0
 66
   257
 43
1.0
 76
     1
 77
     6
 78
     2
 67
     7
 79
     5
170
     0
171
     0
290
     0
174
     0
 93
       13
 44
0.0
173
     0
291
     1
 45
0.0
1001
ACAD
1000
AcDbSavedByObjectVersion
1070
     0
  0
VISUALSTYLE
  5
FFA
102
{ACAD_XDICTIONARY
360
1059
102
}
102
{ACAD_REACTORS
330
FF2
102
}
330
FF2
100
AcDbVisualStyle
  2
Hidden
 70
     6
 71
     1
 72
     2
 73
     2
 90
        0
 40
-0.6
 41
-30.0
 62
     5
 63
     7
 74
     2
 91
        2
 64
     7
 65
   257
 75
     2
175
     1
 42
40.0
 92
        0
 66
   257
 43
1.0
 76
     1
 77
     6
 78
     2
 67
     7
 79
     3
170
     0
171
     0
290
     0
174
     0
 93
        1
 44
0.0
173
     0
291
     0
 45
0.0
1001
ACAD
1000
AcDbSavedByObjectVersion
1070
     0
  0
VISUALSTYLE
  5
1008
102
{ACAD_XDICTIONARY
360
1075
102
}
102
{ACAD_REACTORS
330
FF2
102
}
330
FF2
100
AcDbVisualStyle
  2
JitterOff
 70
    20
 71
     2
 72
     2
 73
     0
 90
        0
 40
-0.6
 41
-30.0
 62
     5
 63
     7
 74
     1
 91
        4
 64
     7
 65
   257
 75
     1
175
     1
 42
1.0
 92
       10
 66
     7
 43
1.0
 76
     1
 77
     6
 78
     2
 67
     7
 79
     5
170
     0
171
     0
290
     0
174
     0
 93
        1
 44
0.0
173
     0
291
     1
 45
0.0
1001
ACAD
1000
AcDbSavedByObjectVersion
1070
     0
  0
VISUALSTYLE
  5
1000
102
{ACAD_XDICTIONARY
360
1065
102
}
102
{ACAD_REACTORS
330
FF2
102
}
330
FF2
100
AcDbVisualStyle
  2
Linepattern
 70
    14
 71
     2
 72
     2
 73
     0
 90
        0
 40
-0.6
 41
-30.0
 62
     5
 63
     7
 74
     1
 91
        4
 64
     7
 65
   257
 75
     7
175
     7
 42
1.0
 92
        8
 66
     7
 43
1.0
 76
     1
 77
     6
 78
     2
 67
     7
 79
     5
170
     0
171
     0
290
     0
174
     0
 93
        1
 44
0.0
173
     0
291
     1
 45
0.0
1001
ACAD
1000
AcDbSavedByObjectVersion
1070
     0
  0
VISUALSTYLE
  5
1009
102
{ACAD_XDICTIONARY
360
1077
102
}
102
{ACAD_REACTORS
330
FF2
102
}
330
FF2
100
AcDbVisualStyle
  2
OverhangOff
 70
    21
 71
     2
 72
     2
 73
     0
 90
        0
 40
-0.6
 41
-30.0
 62
     5
 63
     7
 74
     1
 91
        4
 64
     7
 65
   257
 75
     1
175
     1
 42
1.0
 92
        9
 66
     7
 43
1.0
 76
     1
 77
     6
 78
     2
 67
     7
 79
     5
170
     0
171
     0
290
     0
174
     0
 93
        1
 44
0.0
173
     0
291
     1
 45
0.0
1001
ACAD
1000
AcDbSavedByObjectVersion
1070
     0
  0
VISUALSTYLE
  5
FFC
102
{ACAD_XDICTIONARY
360
105D
102
}
102
{ACAD_REACTORS
330
FF2
102
}
330
FF2
100
AcDbVisualStyle
  2
Realistic
 70
     8
 71
     2
 72
     3
 73
     0
 90
        2
 40
-0.6
 41
30.0
 62
     5
 63
     7
 74
     0
 91
        0
 64
     7
 65
   257
 75
     1
175
     1
 42
1.0
 92
        8
 66
   257
 43
1.0
 76
     1
 77
     6
 78
     2
 67
     7
 79
     3
170
     0
171
     0
290
     0
174
     0
 93
       13
 44
0.0
173
     0
291
     0
 45
0.0
1001
ACAD
1000
AcDbSavedByObjectVersion
1070
     0
  0
VISUALSTYLE
  5
1007
102
{ACAD_XDICTIONARY
360
1073
102
}
102
{ACAD_REACTORS
330
FF2
102
}
330
FF2
100
AcDbVisualStyle
  2
Shaded
 70
    27
 71
     2
 72
     2
 73
     1
 90
        2
 40
-0.6
 41
30.0
 62
     5
 63
     7
 74
     0
 91
        4
 64
     7
 65
   257
 75
     1
175
     1
 42
1.0
 92
        8
 66
   257
 43
1.0
 76
     1
 77
     6
 78
     2
 67
     8
 79
     3
170
     0
171
     0
290
     0
174
     0
 93
        5
 44
0.0
173
     0
291
     0
 45
0.0
1001
ACAD
1000
AcDbSavedByObjectVersion
1070
     0
  0
VISUALSTYLE
  5
1006
102
{ACAD_XDICTIONARY
360
1071
102
}
102
{ACAD_REACTORS
330
FF2
102
}
330
FF2
100
AcDbVisualStyle
  2
Shaded with edges
 70
    26
 71
     2
 72
     2
 73
     1
 90
        2
 40
-0.6
 41
30.0
 62
     5
 63
     7
 74
     1
 91
       10
 64
     7
 65
   257
 75
     2
175
     1
 42
1.0
 92
        8
 66
   257
 43
1.0
 76
     1
 77
     6
 78
     2
 67
     7
 79
     3
170
     0
171
     0
290
     0
174
     0
 93
        5
 44
0.0
173
     0
291
     0
 45
0.0
1001
ACAD
1000
AcDbSavedByObjectVersion
1070
     0
  0
VISUALSTYLE
  5
1003
102
{ACAD_XDICTIONARY
360
106B
102
}
102
{ACAD_REACTORS
330
FF2
102
}
330
FF2
100
AcDbVisualStyle
  2
Shades of Gray
 70
    23
 71
     2
 72
     2
 73
     3
 90
        0
 40
-0.6
 41
-30.0
 62
     5
 63
     7
 74
     2
 91
        2
 64
     7
 65
     7
 75
     1
175
     1
 42
40.0
 92
        8
 66
     7
 43
1.0
 76
     1
 77
     6
 78
     2
 67
     7
 79
     3
170
     0
171
     0
290
     0
174
     0
 93
        1
 44
0.0
173
     0
291
     0
 45
0.0
1001
ACAD
1000
AcDbSavedByObjectVersion
1070
     0
  0
VISUALSTYLE
  5
1004
102
{ACAD_XDICTIONARY
360
106D
102
}
102
{ACAD_REACTORS
330
FF2
102
}
330
FF2
100
AcDbVisualStyle
  2
Sketchy
 70
    24
 71
     1
 72
     2
 73
     2
 90
        0
 40
-0.6
 41
-30.0
 62
     5
 63
     7
 74
     2
 91
        2
 64
     7
 65
     7
 75
     1
175
     1
 42
40.0
 92
       11
 66
     7
 43
1.0
 76
     1
 77
     6
 78
     2
 67
     7
 79
     6
170
     0
171
     0
290
     0
174
     0
 93
        1
 44
0.0
173
     0
291
     0
 45
0.0
1001
ACAD
1000
AcDbSavedByObjectVersion
1070
     0
  0
VISUALSTYLE
  5
FFF
102
{ACAD_XDICTIONARY
360
1063
102
}
102
{ACAD_REACTORS
330
FF2
102
}
330
FF2
100
AcDbVisualStyle
  2
Thicken
 70
    13
 71
     2
 72
     2
 73
     0
 90
        0
 40
-0.6
 41
-30.0
 62
     5
 63
     7
 74
     1
 91
        4
 64
     7
 65
   257
 75
     1
175
     1
 42
1.0
 92
       12
 66
     7
 43
1.0
 76
     1
 77
     6
 78
     2
 67
     7
 79
     5
170
     0
171
     0
290
     0
174
     0
 93
        1
 44
0.0
173
     0
291
     1
 45
0.0
1001
ACAD
1000
AcDbSavedByObjectVersion
1070
     0
  0
VISUALSTYLE
  5
FF9
102
{ACAD_XDICTIONARY
360
1057
102
}
102
{ACAD_REACTORS
330
FF2
102
}
330
FF2
100
AcDbVisualStyle
  2
Wireframe
 70
     5
 71
     0
 72
     2
 73
     0
 90
        0
 40
-0.6
 41
-30.0
 62
     5
 63
     7
 74
     1
 91
        4
 64
     7
 65
   257
 75
     1
175
     1
 42
1.0
 92
        0
 66
   257
 43
1.0
 76
     1
 77
     6
 78
     2
 67
     7
 79
     3
170
     0
171
     0
290
     0
174
     0
 93
        1
 44
0.0
173
     0
291
     0
 45
0.0
1001
ACAD
1000
AcDbSavedByObjectVersion
1070
     0
  0
VISUALSTYLE
  5
1005
102
{ACAD_XDICTIONARY
360
106F
102
}
102
{ACAD_REACTORS
330
FF2
102
}
330
FF2
100
AcDbVisualStyle
  2
X-Ray
 70
    25
 71
     2
 72
     2
 73
     1
 90
        1
 40
0.5
 41
-30.0
 62
     5
 63
     7
 74
     1
 91
        0
 64
     7
 65
   257
 75
     1
175
     1
 42
1.0
 92
        8
 66
     7
 43
1.0
 76
     1
 77
     6
 78
     2
 67
     7
 79
     3
170
     0
171
     0
290
     0
174
     0
 93
       13
 44
0.0
173
     0
291
     0
 45
0.0
1001
ACAD
1000
AcDbSavedByObjectVersion
1070
     0
  0
DICTIONARYVAR
  5
103E
102
{ACAD_REACTORS
330
1039
102
}
330
1039
100
DictionaryVariables
280
     0
  1
1:1
  0
DICTIONARYVAR
  5
103B
102
{ACAD_REACTORS
330
1039
102
}
330
1039
100
DictionaryVariables
280
     0
  1
STANDARD
  0
DICTIONARYVAR
  5
103A
102
{ACAD_REACTORS
330
1039
102
}
330
1039
100
DictionaryVariables
280
     0
  1
STANDARD
  0
DICTIONARYVAR
  5
103C
102
{ACAD_REACTORS
330
1039
102
}
330
1039
100
DictionaryVariables
280
     0
  1
Imperial24
  0
DICTIONARYVAR
  5
103D
102
{ACAD_REACTORS
330
1039
102
}
330
1039
100
DictionaryVariables
280
     0
  1
Imperial24
  0
DICTIONARYVAR
  5
1041
102
{ACAD_REACTORS
330
1039
102
}
330
1039
100
DictionaryVariables
280
     0
  1
1
  0
DICTIONARYVAR
  5
1040
102
{ACAD_REACTORS
330
1039
102
}
330
1039
100
DictionaryVariables
280
     0
  1
0
  0
DICTIONARYVAR
  5
103F
102
{ACAD_REACTORS
330
1039
102
}
330
1039
100
DictionaryVariables
280
     0
  1
127
  0
DICTIONARYVAR
  5
1042
102
{ACAD_REACTORS
330
1039
102
}
330
1039
100
DictionaryVariables
280
     0
  1
2
  0
DICTIONARY
  5
107F
330
1025
100
AcDbDictionary
280
     1
281
     1
  3
ACAD_XREC_ROUNDTRIP
360
1080
  0
DICTIONARY
  5
1081
330
1026
100
AcDbDictionary
280
     1
281
     1
  3
ACAD_XREC_ROUNDTRIP
360
1082
  0
DICTIONARY
  5
1083
330
1027
100
AcDbDictionary
280
     1
281
     1
  3
ACAD_XREC_ROUNDTRIP
360
1084
  0
DICTIONARY
  5
FE3
330
FE2
100
AcDbDictionary
280
     1
281
     1
  3
ACAD_XREC_ROUNDTRIP
360
1049
  3
BUMPTILE
360
FE5
  3
DIFFUSETILE
360
FE4
  3
OPACITYTILE
360
FE8
  3
REFLECTIONTILE
360
FE7
  3
REFRACTIONTILE
360
FE9
  3
SPECULARTILE
360
FE6
  0
DICTIONARY
  5
FDB
330
FDA
100
AcDbDictionary
280
     1
281
     1
  3
ACAD_XREC_ROUNDTRIP
360
1048
  3
BUMPTILE
360
FDD
  3
DIFFUSETILE
360
FDC
  3
OPACITYTILE
360
FE0
  3
REFLECTIONTILE
360
FDF
  3
REFRACTIONTILE
360
FE1
  3
SPECULARTILE
360
FDE
  0
DICTIONARY
  5
FEB
330
FEA
100
AcDbDictionary
280
     1
281
     1
  3
ACAD_XREC_ROUNDTRIP
360
104A
  3
BUMPTILE
360
FED
  3
DIFFUSETILE
360
FEC
  3
OPACITYTILE
360
FF0
  3
REFLECTIONTILE
360
FEF
  3
REFRACTIONTILE
360
FF1
  3
SPECULARTILE
360
FEE
  0
DICTIONARY
  5
107D
330
1023
100
AcDbDictionary
280
     1
281
     1
  3
ACAD_XREC_ROUNDTRIP
360
107E
  0
DICTIONARY
  5
1044
330
100D
100
AcDbDictionary
280
     1
281
     1
  3
ACAD_ROUNDTRIP_2008_TABLESTYLE_CELLSTYLEMAP
360
1045
  3
ACAD_XREC_ROUNDTRIP
360
107B
  0
DICTIONARY
  5
1055
330
FF8
100
AcDbDictionary
280
     1
281
     1
  3
ACAD_XREC_ROUNDTRIP
360
1056
  0
DICTIONARY
  5
1053
330
FF7
100
AcDbDictionary
280
     1
281
     1
  3
ACAD_XREC_ROUNDTRIP
360
1054
  0
DICTIONARY
  5
1061
330
FFE
100
AcDbDictionary
280
     1
281
     1
  3
ACAD_XREC_ROUNDTRIP
360
1062
  0
DICTIONARY
  5
1069
330
1002
100
AcDbDictionary
280
     1
281
     1
  3
ACAD_XREC_ROUNDTRIP
360
106A
  0
DICTIONARY
  5
105B
330
FFB
100
AcDbDictionary
280
     1
281
     1
  3
ACAD_XREC_ROUNDTRIP
360
105C
  0
DICTIONARY
  5
105F
330
FFD
100
AcDbDictionary
280
     1
281
     1
  3
ACAD_XREC_ROUNDTRIP
360
1060
  0
DICTIONARY
  5
1079
330
100A
100
AcDbDictionary
280
     1
281
     1
  3
ACAD_XREC_ROUNDTRIP
360
107A
  0
DICTIONARY
  5
1067
330
1001
100
AcDbDictionary
280
     1
281
     1
  3
ACAD_XREC_ROUNDTRIP
360
1068
  0
DICTIONARY
  5
104B
330
FF3
100
AcDbDictionary
280
     1
281
     1
  3
ACAD_XREC_ROUNDTRIP
360
104C
  0
DICTIONARY
  5
104D
330
FF4
100
AcDbDictionary
280
     1
281
     1
  3
ACAD_XREC_ROUNDTRIP
360
104E
  0
DICTIONARY
  5
104F
330
FF5
100
AcDbDictionary
280
     1
281
     1
  3
ACAD_XREC_ROUNDTRIP
360
1050
  0
DICTIONARY
  5
1051
330
FF6
100
AcDbDictionary
280
     1
281
     1
  3
ACAD_XREC_ROUNDTRIP
360
1052
  0
DICTIONARY
  5
1059
330
FFA
100
AcDbDictionary
280
     1
281
     1
  3
ACAD_XREC_ROUNDTRIP
360
105A
  0
DICTIONARY
  5
1075
330
1008
100
AcDbDictionary
280
     1
281
     1
  3
ACAD_XREC_ROUNDTRIP
360
1076
  0
DICTIONARY
  5
1065
330
1000
100
AcDbDictionary
280
     1
281
     1
  3
ACAD_XREC_ROUNDTRIP
360
1066
  0
DICTIONARY
  5
1077
330
1009
100
AcDbDictionary
280
     1
281
     1
  3
ACAD_XREC_ROUNDTRIP
360
1078
  0
DICTIONARY
  5
105D
330
FFC
100
AcDbDictionary
280
     1
281
     1
  3
ACAD_XREC_ROUNDTRIP
360
105E
  0
DICTIONARY
  5
1073
330
1007
100
AcDbDictionary
280
     1
281
     1
  3
ACAD_XREC_ROUNDTRIP
360
1074
  0
DICTIONARY
  5
1071
330
1006
100
AcDbDictionary
280
     1
281
     1
  3
ACAD_XREC_ROUNDTRIP
360
1072
  0
DICTIONARY
  5
106B
330
1003
100
AcDbDictionary
280
     1
281
     1
  3
ACAD_XREC_ROUNDTRIP
360
106C
  0
DICTIONARY
  5
106D
330
1004
100
AcDbDictionary
280
     1
281
     1
  3
ACAD_XREC_ROUNDTRIP
360
106E
  0
DICTIONARY
  5
1063
330
FFF
100
AcDbDictionary
280
     1
281
     1
  3
ACAD_XREC_ROUNDTRIP
360
1064
  0
DICTIONARY
  5
1057
330
FF9
100
AcDbDictionary
280
     1
281
     1
  3
ACAD_XREC_ROUNDTRIP
360
1058
  0
DICTIONARY
  5
106F
330
1005
100
AcDbDictionary
280
     1
281
     1
  3
ACAD_XREC_ROUNDTRIP
360
1070
  0
XRECORD
  5
1080
102
{ACAD_REACTORS
330
107F
102
}
330
107F
100
AcDbXrecord
280
     1
102
DISPLAYNAME
  1
Imperial24
102
FLAGS
 90
        0
  0
XRECORD
  5
1082
102
{ACAD_REACTORS
330
1081
102
}
330
1081
100
AcDbXrecord
280
     1
102
SHADEPLOT
 70
     0
102
SHADEPLOTRESLEVEL
 70
     2
102
SHADEPLOTCUSTOMDPI
 70
   300
  0
XRECORD
  5
1084
102
{ACAD_REACTORS
330
1083
102
}
330
1083
100
AcDbXrecord
280
     1
102
SHADEPLOT
 70
     0
102
SHADEPLOTRESLEVEL
 70
     2
102
SHADEPLOTCUSTOMDPI
 70
   300
  0
XRECORD
  5
1049
102
{ACAD_REACTORS
330
FE3
102
}
330
FE3
100
AcDbXrecord
280
     1
102
MATERIAL
148
0.0
149
0.0
149
0.0
 93
        0
 94
      127
282
     0
 72
     0
 77
     0
171
     0
175
     0
179
     0
273
     0
  0
XRECORD
  5
FE5
102
{ACAD_REACTORS
330
FE3
102
}
330
FE3
100
AcDbXrecord
280
     1
270
     1
271
     1
  0
XRECORD
  5
FE4
102
{ACAD_REACTORS
330
FE3
102
}
330
FE3
100
AcDbXrecord
280
     1
270
     1
271
     1
  0
XRECORD
  5
FE8
102
{ACAD_REACTORS
330
FE3
102
}
330
FE3
100
AcDbXrecord
280
     1
270
     1
271
     1
  0
XRECORD
  5
FE7
102
{ACAD_REACTORS
330
FE3
102
}
330
FE3
100
AcDbXrecord
280
     1
270
     1
271
     1
  0
XRECORD
  5
FE9
102
{ACAD_REACTORS
330
FE3
102
}
330
FE3
100
AcDbXrecord
280
     1
270
     1
271
     1
  0
XRECORD
  5
FE6
102
{ACAD_REACTORS
330
FE3
102
}
330
FE3
100
AcDbXrecord
280
     1
270
     1
271
     1
  0
XRECORD
  5
1048
102
{ACAD_REACTORS
330
FDB
102
}
330
FDB
100
AcDbXrecord
280
     1
102
MATERIAL
148
0.0
149
0.0
149
0.0
 93
        0
 94
      127
282
     0
 72
     0
 77
     0
171
     0
175
     0
179
     0
273
     0
  0
XRECORD
  5
FDD
102
{ACAD_REACTORS
330
FDB
102
}
330
FDB
100
AcDbXrecord
280
     1
270
     1
271
     1
  0
XRECORD
  5
FDC
102
{ACAD_REACTORS
330
FDB
102
}
330
FDB
100
AcDbXrecord
280
     1
270
     1
271
     1
  0
XRECORD
  5
FE0
102
{ACAD_REACTORS
330
FDB
102
}
330
FDB
100
AcDbXrecord
280
     1
270
     1
271
     1
  0
XRECORD
  5
FDF
102
{ACAD_REACTORS
330
FDB
102
}
330
FDB
100
AcDbXrecord
280
     1
270
     1
271
     1
  0
XRECORD
  5
FE1
102
{ACAD_REACTORS
330
FDB
102
}
330
FDB
100
AcDbXrecord
280
     1
270
     1
271
     1
  0
XRECORD
  5
FDE
102
{ACAD_REACTORS
330
FDB
102
}
330
FDB
100
AcDbXrecord
280
     1
270
     1
271
     1
  0
XRECORD
  5
104A
102
{ACAD_REACTORS
330
FEB
102
}
330
FEB
100
AcDbXrecord
280
     1
102
MATERIAL
148
0.0
149
0.0
149
0.0
 93
        0
 94
      127
282
     0
 72
     0
 77
     0
171
     0
175
     0
179
     0
273
     0
  0
XRECORD
  5
FED
102
{ACAD_REACTORS
330
FEB
102
}
330
FEB
100
AcDbXrecord
280
     1
270
     1
271
     1
  0
XRECORD
  5
FEC
102
{ACAD_REACTORS
330
FEB
102
}
330
FEB
100
AcDbXrecord
280
     1
270
     1
271
     1
  0
XRECORD
  5
FF0
102
{ACAD_REACTORS
330
FEB
102
}
330
FEB
100
AcDbXrecord
280
     1
270
     1
271
     1
  0
XRECORD
  5
FEF
102
{ACAD_REACTORS
330
FEB
102
}
330
FEB
100
AcDbXrecord
280
     1
270
     1
271
     1
  0
XRECORD
  5
FF1
102
{ACAD_REACTORS
330
FEB
102
}
330
FEB
100
AcDbXrecord
280
     1
270
     1
271
     1
  0
XRECORD
  5
FEE
102
{ACAD_REACTORS
330
FEB
102
}
330
FEB
100
AcDbXrecord
280
     1
270
     1
271
     1
  0
XRECORD
  5
107E
102
{ACAD_REACTORS
330
107D
102
}
330
107D
100
AcDbXrecord
280
     1
102
DISPLAYNAME
  1
Imperial24
102
FLAGS
 90
        0
  0
CELLSTYLEMAP
  5
1045
102
{ACAD_REACTORS
330
1044
102
}
330
1044
100
AcDbCellStyleMap
 90
        3
300
CELLSTYLE
  1
TABLEFORMAT_BEGIN
 90
        5
170
     1
 91
        0
 92
    32768
 62
   257
 93
        1
300
CONTENTFORMAT
  1
CONTENTFORMAT_BEGIN
 90
        0
 91
        0
 92
      512
 93
        0
300

 40
0.0
140
1.0
 94
        5
 62
     0
340
F
144
0.25
309
CONTENTFORMAT_END
171
     0
 94
        0
309
TABLEFORMAT_END
  1
CELLSTYLE_BEGIN
 90
        1
 91
        1
300
_TITLE
309
CELLSTYLE_END
300
CELLSTYLE
  1
TABLEFORMAT_BEGIN
 90
        5
170
     1
 91
        0
 92
        0
 62
   257
 93
        1
300
CONTENTFORMAT
  1
CONTENTFORMAT_BEGIN
 90
        0
 91
        0
 92
      512
 93
        0
300

 40
0.0
140
1.0
 94
        5
 62
     0
340
F
144
0.18
309
CONTENTFORMAT_END
171
     0
 94
        0
309
TABLEFORMAT_END
  1
CELLSTYLE_BEGIN
 90
        2
 91
        1
300
_HEADER
309
CELLSTYLE_END
300
CELLSTYLE
  1
TABLEFORMAT_BEGIN
 90
        5
170
     1
 91
        0
 92
        0
 62
   257
 93
        1
300
CONTENTFORMAT
  1
CONTENTFORMAT_BEGIN
 90
        0
 91
        0
 92
      512
 93
        0
300

 40
0.0
140
1.0
 94
        2
 62
     0
340
F
144
0.18
309
CONTENTFORMAT_END
171
     0
 94
        0
309
TABLEFORMAT_END
  1
CELLSTYLE_BEGIN
 90
        3
 91
        2
300
_DATA
309
CELLSTYLE_END
  0
XRECORD
  5
107B
102
{ACAD_REACTORS
330
1044
102
}
330
1044
100
AcDbXrecord
280
     1
102
ACAD_ROUNDTRIP_PRE2007_TABLESTYLE
 90
      512
 91
        0
  1

 92
      512
 93
        0
  2

 94
      512
 95
        0
  3

  0
XRECORD
  5
1056
102
{ACAD_REACTORS
330
1055
102
}
330
1055
100
AcDbXrecord
280
     1
102
RTVSPost2010Prop28
280
     1
102
RTVSPost2010PropOp28
 70
     1
102
RTVSPost2010Prop29
280
     1
102
RTVSPost2010PropOp29
 70
     1
102
RTVSPost2010Prop30
280
     0
102
RTVSPost2010PropOp30
 70
     1
102
RTVSPost2010Prop31
280
     0
102
RTVSPost2010PropOp31
 70
     1
102
RTVSPost2010Prop32
280
     0
102
RTVSPost2010PropOp32
 70
     1
102
RTVSPost2010Prop33
280
     0
102
RTVSPost2010PropOp33
 70
     1
102
RTVSPost2010Prop34
280
     0
102
RTVSPost2010PropOp34
 70
     1
102
RTVSPost2010Prop35
280
     0
102
RTVSPost2010PropOp35
 70
     1
102
RTVSPost2010Prop36
280
     0
102
RTVSPost2010PropOp36
 70
     1
102
RTVSPost2010Prop37
 90
       50
102
RTVSPost2010PropOp37
 70
     1
102
RTVSPost2010Prop38
140
0.0
102
RTVSPost2010PropOp38
 70
     1
102
RTVSPost2010Prop39
140
1.0
102
RTVSPost2010PropOp39
 70
     1
102
RTVSPost2010Prop40
 90
        0
102
RTVSPost2010PropOp40
 70
     1
102
RTVSPost2010Prop41ColorIndex
 90
       18
102
RTVSPost2010Prop41ColorRGB
 90
        0
102
RTVSPost2010PropOp41
 70
     1
102
RTVSPost2010Prop42
 90
       50
102
RTVSPost2010PropOp42
 70
     1
102
RTVSPost2010Prop43
 90
        3
102
RTVSPost2010PropOp43
 70
     1
102
RTVSPost2010Prop44ColorIndex
 90
        5
102
RTVSPost2010Prop44ColorRGB
 90
      255
102
RTVSPost2010PropOp44
 70
     1
102
RTVSPost2010Prop45
280
     0
102
RTVSPost2010PropOp45
 70
     1
102
RTVSPost2010Prop46
 90
       50
102
RTVSPost2010PropOp46
 70
     1
102
RTVSPost2010Prop47
 90
       50
102
RTVSPost2010PropOp47
 70
     1
102
RTVSPost2010Prop48
 90
       50
102
RTVSPost2010PropOp48
 70
     1
102
RTVSPost2010Prop49
280
     0
102
RTVSPost2010PropOp49
 70
     1
102
RTVSPost2010Prop50
 90
       50
102
RTVSPost2010PropOp50
 70
     1
102
RTVSPost2010Prop51ColorIndex
 90
      256
102
RTVSPost2010Prop51ColorRGB
 90
-16777216
102
RTVSPost2010PropOp51
 70
     0
102
RTVSPost2010Prop52
140
1.0
102
RTVSPost2010PropOp52
 70
     0
102
RTVSPost2010Prop53
 90
        2
102
RTVSPost2010PropOp53
 70
     1
102
RTVSPost2010Prop54
  1
strokes_ogs.tif
102
RTVSPost2010PropOp54
 70
     1
102
RTVSPost2010Prop55
280
     0
102
RTVSPost2010PropOp55
 70
     1
102
RTVSPost2010Prop56
140
1.0
102
RTVSPost2010PropOp56
 70
     1
102
RTVSPost2010Prop57
140
1.0
102
RTVSPost2010PropOp57
 70
     1
102
RTVSPropertyOp0
 70
     1
102
RTVSPropertyOp1
 70
     1
102
RTVSPropertyOp2
 70
     1
102
RTVSPropertyOp3
 70
     1
102
RTVSPropertyOp4
 70
     1
102
RTVSPropertyOp5
 70
     1
102
RTVSPropertyOp6
 70
     1
102
RTVSPropertyOp7
 70
     1
102
RTVSPropertyOp8
 70
     1
102
RTVSPropertyOp9
 70
     1
102
RTVSPropertyOp10
 70
     1
102
RTVSPropertyOp11
 70
     1
102
RTVSPropertyOp12
 70
     1
102
RTVSPropertyOp13
 70
     1
102
RTVSPropertyOp14
 70
     1
102
RTVSPropertyOp15
 70
     1
102
RTVSPropertyOp16
 70
     1
102
RTVSPropertyOp17
 70
     1
102
RTVSPropertyOp18
 70
     1
102
RTVSPropertyOp19
 70
     1
102
RTVSPropertyOp20
 70
     1
102
RTVSPropertyOp21
 70
     1
102
RTVSPropertyOp22
 70
     1
102
RTVSPropertyOp23
 70
     1
102
RTVSPropertyOp24
 70
     1
102
RTVSPropertyOp25
 70
     1
102
RTVSPropertyOp26
 70
     1
102
RTVSPropertyOp27
 70
     1
102
RTVSPropertyOp28
 70
     1
102
RTVSPropertyOp29
 70
     1
102
RTVSPropertyOp30
 70
     1
102
RTVSPropertyOp31
 70
     1
102
RTVSPropertyOp32
 70
     1
102
RTVSPropertyOp33
 70
     1
102
RTVSPropertyOp34
 70
     1
102
RTVSPropertyOp35
 70
     1
102
RTVSPropertyOp36
 70
     1
102
RTVSPropertyOp37
 70
     1
102
RTVSPropertyOp38
 70
     1
102
RTVSPropertyOp39
 70
     1
102
RTVSPropertyOp40
 70
     1
102
RTVSPropertyOp41
 70
     1
102
RTVSPropertyOp42
 70
     1
102
RTVSPropertyOp43
 70
     1
102
RTVSPropertyOp44
 70
     1
102
RTVSPropertyOp45
 70
     1
102
RTVSPropertyOp46
 70
     1
102
RTVSPropertyOp47
 70
     1
102
RTVSPropertyOp48
 70
     1
102
RTVSPropertyOp49
 70
     1
102
RTVSPropertyOp50
 70
     1
102
RTVSPropertyOp51
 70
     0
102
RTVSPropertyOp52
 70
     0
102
RTVSPropertyOp53
 70
     1
102
RTVSPropertyOp54
 70
     1
102
RTVSPropertyOp55
 70
     1
102
RTVSPropertyOp56
 70
     1
102
RTVSPropertyOp57
 70
     1
102
RTVSPropertyOp58
 70
     1
102
RTVSPropertyOp59
 70
     1
102
RTVSPropertyOp60
 70
     1
102
RTVSPropertyOp61
 70
     1
102
RTVSPropertyOp62
 70
     1
  0
XRECORD
  5
1054
102
{ACAD_REACTORS
330
1053
102
}
330
1053
100
AcDbXrecord
280
     1
102
RTVSPost2010Prop28
280
     0
102
RTVSPost2010PropOp28
 70
     1
102
RTVSPost2010Prop29
280
     1
102
RTVSPost2010PropOp29
 70
     1
102
RTVSPost2010Prop30
280
     1
102
RTVSPost2010PropOp30
 70
     1
102
RTVSPost2010Prop31
280
     0
102
RTVSPost2010PropOp31
 70
     1
102
RTVSPost2010Prop32
280
     0
102
RTVSPost2010PropOp32
 70
     1
102
RTVSPost2010Prop33
280
     0
102
RTVSPost2010PropOp33
 70
     1
102
RTVSPost2010Prop34
280
     0
102
RTVSPost2010PropOp34
 70
     1
102
RTVSPost2010Prop35
280
     0
102
RTVSPost2010PropOp35
 70
     1
102
RTVSPost2010Prop36
280
     0
102
RTVSPost2010PropOp36
 70
     1
102
RTVSPost2010Prop37
 90
       50
102
RTVSPost2010PropOp37
 70
     1
102
RTVSPost2010Prop38
140
0.0
102
RTVSPost2010PropOp38
 70
     1
102
RTVSPost2010Prop39
140
1.0
102
RTVSPost2010PropOp39
 70
     1
102
RTVSPost2010Prop40
 90
        0
102
RTVSPost2010PropOp40
 70
     1
102
RTVSPost2010Prop41ColorIndex
 90
       18
102
RTVSPost2010Prop41ColorRGB
 90
        0
102
RTVSPost2010PropOp41
 70
     1
102
RTVSPost2010Prop42
 90
       50
102
RTVSPost2010PropOp42
 70
     1
102
RTVSPost2010Prop43
 90
        3
102
RTVSPost2010PropOp43
 70
     1
102
RTVSPost2010Prop44ColorIndex
 90
        5
102
RTVSPost2010Prop44ColorRGB
 90
      255
102
RTVSPost2010PropOp44
 70
     1
102
RTVSPost2010Prop45
280
     0
102
RTVSPost2010PropOp45
 70
     1
102
RTVSPost2010Prop46
 90
       50
102
RTVSPost2010PropOp46
 70
     1
102
RTVSPost2010Prop47
 90
       50
102
RTVSPost2010PropOp47
 70
     1
102
RTVSPost2010Prop48
 90
       50
102
RTVSPost2010PropOp48
 70
     1
102
RTVSPost2010Prop49
280
     0
102
RTVSPost2010PropOp49
 70
     1
102
RTVSPost2010Prop50
 90
       50
102
RTVSPost2010PropOp50
 70
     1
102
RTVSPost2010Prop51ColorIndex
 90
      256
102
RTVSPost2010Prop51ColorRGB
 90
-16777216
102
RTVSPost2010PropOp51
 70
     0
102
RTVSPost2010Prop52
140
1.0
102
RTVSPost2010PropOp52
 70
     0
102
RTVSPost2010Prop53
 90
        2
102
RTVSPost2010PropOp53
 70
     1
102
RTVSPost2010Prop54
  1
strokes_ogs.tif
102
RTVSPost2010PropOp54
 70
     1
102
RTVSPost2010Prop55
280
     0
102
RTVSPost2010PropOp55
 70
     1
102
RTVSPost2010Prop56
140
1.0
102
RTVSPost2010PropOp56
 70
     1
102
RTVSPost2010Prop57
140
1.0
102
RTVSPost2010PropOp57
 70
     1
102
RTVSPropertyOp0
 70
     1
102
RTVSPropertyOp1
 70
     1
102
RTVSPropertyOp2
 70
     1
102
RTVSPropertyOp3
 70
     1
102
RTVSPropertyOp4
 70
     1
102
RTVSPropertyOp5
 70
     1
102
RTVSPropertyOp6
 70
     1
102
RTVSPropertyOp7
 70
     1
102
RTVSPropertyOp8
 70
     1
102
RTVSPropertyOp9
 70
     1
102
RTVSPropertyOp10
 70
     1
102
RTVSPropertyOp11
 70
     1
102
RTVSPropertyOp12
 70
     1
102
RTVSPropertyOp13
 70
     1
102
RTVSPropertyOp14
 70
     1
102
RTVSPropertyOp15
 70
     1
102
RTVSPropertyOp16
 70
     1
102
RTVSPropertyOp17
 70
     1
102
RTVSPropertyOp18
 70
     1
102
RTVSPropertyOp19
 70
     1
102
RTVSPropertyOp20
 70
     1
102
RTVSPropertyOp21
 70
     1
102
RTVSPropertyOp22
 70
     1
102
RTVSPropertyOp23
 70
     1
102
RTVSPropertyOp24
 70
     1
102
RTVSPropertyOp25
 70
     1
102
RTVSPropertyOp26
 70
     1
102
RTVSPropertyOp27
 70
     1
102
RTVSPropertyOp28
 70
     1
102
RTVSPropertyOp29
 70
     1
102
RTVSPropertyOp30
 70
     1
102
RTVSPropertyOp31
 70
     1
102
RTVSPropertyOp32
 70
     1
102
RTVSPropertyOp33
 70
     1
102
RTVSPropertyOp34
 70
     1
102
RTVSPropertyOp35
 70
     1
102
RTVSPropertyOp36
 70
     1
102
RTVSPropertyOp37
 70
     1
102
RTVSPropertyOp38
 70
     1
102
RTVSPropertyOp39
 70
     1
102
RTVSPropertyOp40
 70
     1
102
RTVSPropertyOp41
 70
     1
102
RTVSPropertyOp42
 70
     1
102
RTVSPropertyOp43
 70
     1
102
RTVSPropertyOp44
 70
     1
102
RTVSPropertyOp45
 70
     1
102
RTVSPropertyOp46
 70
     1
102
RTVSPropertyOp47
 70
     1
102
RTVSPropertyOp48
 70
     1
102
RTVSPropertyOp49
 70
     1
102
RTVSPropertyOp50
 70
     1
102
RTVSPropertyOp51
 70
     0
102
RTVSPropertyOp52
 70
     0
102
RTVSPropertyOp53
 70
     1
102
RTVSPropertyOp54
 70
     1
102
RTVSPropertyOp55
 70
     1
102
RTVSPropertyOp56
 70
     1
102
RTVSPropertyOp57
 70
     1
102
RTVSPropertyOp58
 70
     1
102
RTVSPropertyOp59
 70
     1
102
RTVSPropertyOp60
 70
     1
102
RTVSPropertyOp61
 70
     1
102
RTVSPropertyOp62
 70
     1
  0
XRECORD
  5
1062
102
{ACAD_REACTORS
330
1061
102
}
330
1061
100
AcDbXrecord
280
     1
102
RTVSPost2010Prop28
280
     0
102
RTVSPost2010PropOp28
 70
     1
102
RTVSPost2010Prop29
280
     1
102
RTVSPost2010PropOp29
 70
     1
102
RTVSPost2010Prop30
280
     1
102
RTVSPost2010PropOp30
 70
     1
102
RTVSPost2010Prop31
280
     0
102
RTVSPost2010PropOp31
 70
     1
102
RTVSPost2010Prop32
280
     0
102
RTVSPost2010PropOp32
 70
     1
102
RTVSPost2010Prop33
280
     0
102
RTVSPost2010PropOp33
 70
     1
102
RTVSPost2010Prop34
280
     0
102
RTVSPost2010PropOp34
 70
     1
102
RTVSPost2010Prop35
280
     0
102
RTVSPost2010PropOp35
 70
     1
102
RTVSPost2010Prop36
280
     0
102
RTVSPost2010PropOp36
 70
     1
102
RTVSPost2010Prop37
 90
       50
102
RTVSPost2010PropOp37
 70
     1
102
RTVSPost2010Prop38
140
0.0
102
RTVSPost2010PropOp38
 70
     1
102
RTVSPost2010Prop39
140
1.0
102
RTVSPost2010PropOp39
 70
     1
102
RTVSPost2010Prop40
 90
        0
102
RTVSPost2010PropOp40
 70
     1
102
RTVSPost2010Prop41ColorIndex
 90
       18
102
RTVSPost2010Prop41ColorRGB
 90
        0
102
RTVSPost2010PropOp41
 70
     1
102
RTVSPost2010Prop42
 90
       50
102
RTVSPost2010PropOp42
 70
     1
102
RTVSPost2010Prop43
 90
        3
102
RTVSPost2010PropOp43
 70
     1
102
RTVSPost2010Prop44ColorIndex
 90
        5
102
RTVSPost2010Prop44ColorRGB
 90
      255
102
RTVSPost2010PropOp44
 70
     1
102
RTVSPost2010Prop45
280
     0
102
RTVSPost2010PropOp45
 70
     1
102
RTVSPost2010Prop46
 90
       50
102
RTVSPost2010PropOp46
 70
     1
102
RTVSPost2010Prop47
 90
       50
102
RTVSPost2010PropOp47
 70
     1
102
RTVSPost2010Prop48
 90
       50
102
RTVSPost2010PropOp48
 70
     1
102
RTVSPost2010Prop49
280
     0
102
RTVSPost2010PropOp49
 70
     1
102
RTVSPost2010Prop50
 90
       50
102
RTVSPost2010PropOp50
 70
     1
102
RTVSPost2010Prop51ColorIndex
 90
      256
102
RTVSPost2010Prop51ColorRGB
 90
-16777216
102
RTVSPost2010PropOp51
 70
     0
102
RTVSPost2010Prop52
140
1.0
102
RTVSPost2010PropOp52
 70
     0
102
RTVSPost2010Prop53
 90
        2
102
RTVSPost2010PropOp53
 70
     1
102
RTVSPost2010Prop54
  1
strokes_ogs.tif
102
RTVSPost2010PropOp54
 70
     1
102
RTVSPost2010Prop55
280
     0
102
RTVSPost2010PropOp55
 70
     1
102
RTVSPost2010Prop56
140
1.0
102
RTVSPost2010PropOp56
 70
     1
102
RTVSPost2010Prop57
140
1.0
102
RTVSPost2010PropOp57
 70
     1
102
RTVSPropertyOp0
 70
     1
102
RTVSPropertyOp1
 70
     1
102
RTVSPropertyOp2
 70
     1
102
RTVSPropertyOp3
 70
     1
102
RTVSPropertyOp4
 70
     1
102
RTVSPropertyOp5
 70
     1
102
RTVSPropertyOp6
 70
     1
102
RTVSPropertyOp7
 70
     1
102
RTVSPropertyOp8
 70
     1
102
RTVSPropertyOp9
 70
     1
102
RTVSPropertyOp10
 70
     1
102
RTVSPropertyOp11
 70
     1
102
RTVSPropertyOp12
 70
     1
102
RTVSPropertyOp13
 70
     1
102
RTVSPropertyOp14
 70
     1
102
RTVSPropertyOp15
 70
     1
102
RTVSPropertyOp16
 70
     1
102
RTVSPropertyOp17
 70
     1
102
RTVSPropertyOp18
 70
     1
102
RTVSPropertyOp19
 70
     1
102
RTVSPropertyOp20
 70
     1
102
RTVSPropertyOp21
 70
     1
102
RTVSPropertyOp22
 70
     1
102
RTVSPropertyOp23
 70
     1
102
RTVSPropertyOp24
 70
     1
102
RTVSPropertyOp25
 70
     1
102
RTVSPropertyOp26
 70
     1
102
RTVSPropertyOp27
 70
     1
102
RTVSPropertyOp28
 70
     1
102
RTVSPropertyOp29
 70
     1
102
RTVSPropertyOp30
 70
     1
102
RTVSPropertyOp31
 70
     1
102
RTVSPropertyOp32
 70
     1
102
RTVSPropertyOp33
 70
     1
102
RTVSPropertyOp34
 70
     1
102
RTVSPropertyOp35
 70
     1
102
RTVSPropertyOp36
 70
     1
102
RTVSPropertyOp37
 70
     1
102
RTVSPropertyOp38
 70
     1
102
RTVSPropertyOp39
 70
     1
102
RTVSPropertyOp40
 70
     1
102
RTVSPropertyOp41
 70
     1
102
RTVSPropertyOp42
 70
     1
102
RTVSPropertyOp43
 70
     1
102
RTVSPropertyOp44
 70
     1
102
RTVSPropertyOp45
 70
     1
102
RTVSPropertyOp46
 70
     1
102
RTVSPropertyOp47
 70
     1
102
RTVSPropertyOp48
 70
     1
102
RTVSPropertyOp49
 70
     1
102
RTVSPropertyOp50
 70
     1
102
RTVSPropertyOp51
 70
     0
102
RTVSPropertyOp52
 70
     0
102
RTVSPropertyOp53
 70
     1
102
RTVSPropertyOp54
 70
     1
102
RTVSPropertyOp55
 70
     1
102
RTVSPropertyOp56
 70
     1
102
RTVSPropertyOp57
 70
     1
102
RTVSPropertyOp58
 70
     1
102
RTVSPropertyOp59
 70
     1
102
RTVSPropertyOp60
 70
     1
102
RTVSPropertyOp61
 70
     1
102
RTVSPropertyOp62
 70
     1
  0
XRECORD
  5
106A
102
{ACAD_REACTORS
330
1069
102
}
330
1069
100
AcDbXrecord
280
     1
102
RTVSPost2010Prop28
280
     0
102
RTVSPost2010PropOp28
 70
     1
102
RTVSPost2010Prop29
280
     1
102
RTVSPost2010PropOp29
 70
     1
102
RTVSPost2010Prop30
280
     1
102
RTVSPost2010PropOp30
 70
     1
102
RTVSPost2010Prop31
280
     0
102
RTVSPost2010PropOp31
 70
     1
102
RTVSPost2010Prop32
280
     0
102
RTVSPost2010PropOp32
 70
     1
102
RTVSPost2010Prop33
280
     0
102
RTVSPost2010PropOp33
 70
     1
102
RTVSPost2010Prop34
280
     0
102
RTVSPost2010PropOp34
 70
     1
102
RTVSPost2010Prop35
280
     0
102
RTVSPost2010PropOp35
 70
     1
102
RTVSPost2010Prop36
280
     0
102
RTVSPost2010PropOp36
 70
     1
102
RTVSPost2010Prop37
 90
       50
102
RTVSPost2010PropOp37
 70
     1
102
RTVSPost2010Prop38
140
0.0
102
RTVSPost2010PropOp38
 70
     1
102
RTVSPost2010Prop39
140
1.0
102
RTVSPost2010PropOp39
 70
     1
102
RTVSPost2010Prop40
 90
        0
102
RTVSPost2010PropOp40
 70
     1
102
RTVSPost2010Prop41ColorIndex
 90
       18
102
RTVSPost2010Prop41ColorRGB
 90
        0
102
RTVSPost2010PropOp41
 70
     1
102
RTVSPost2010Prop42
 90
       50
102
RTVSPost2010PropOp42
 70
     1
102
RTVSPost2010Prop43
 90
        3
102
RTVSPost2010PropOp43
 70
     1
102
RTVSPost2010Prop44ColorIndex
 90
        5
102
RTVSPost2010Prop44ColorRGB
 90
      255
102
RTVSPost2010PropOp44
 70
     1
102
RTVSPost2010Prop45
280
     0
102
RTVSPost2010PropOp45
 70
     1
102
RTVSPost2010Prop46
 90
       50
102
RTVSPost2010PropOp46
 70
     1
102
RTVSPost2010Prop47
 90
       50
102
RTVSPost2010PropOp47
 70
     1
102
RTVSPost2010Prop48
 90
       50
102
RTVSPost2010PropOp48
 70
     1
102
RTVSPost2010Prop49
280
     0
102
RTVSPost2010PropOp49
 70
     1
102
RTVSPost2010Prop50
 90
       50
102
RTVSPost2010PropOp50
 70
     1
102
RTVSPost2010Prop51ColorIndex
 90
      256
102
RTVSPost2010Prop51ColorRGB
 90
-16777216
102
RTVSPost2010PropOp51
 70
     0
102
RTVSPost2010Prop52
140
1.0
102
RTVSPost2010PropOp52
 70
     0
102
RTVSPost2010Prop53
 90
        2
102
RTVSPost2010PropOp53
 70
     1
102
RTVSPost2010Prop54
  1
strokes_ogs.tif
102
RTVSPost2010PropOp54
 70
     1
102
RTVSPost2010Prop55
280
     0
102
RTVSPost2010PropOp55
 70
     1
102
RTVSPost2010Prop56
140
1.0
102
RTVSPost2010PropOp56
 70
     1
102
RTVSPost2010Prop57
140
1.0
102
RTVSPost2010PropOp57
 70
     1
102
RTVSPropertyOp0
 70
     1
102
RTVSPropertyOp1
 70
     1
102
RTVSPropertyOp2
 70
     1
102
RTVSPropertyOp3
 70
     1
102
RTVSPropertyOp4
 70
     1
102
RTVSPropertyOp5
 70
     1
102
RTVSPropertyOp6
 70
     1
102
RTVSPropertyOp7
 70
     1
102
RTVSPropertyOp8
 70
     1
102
RTVSPropertyOp9
 70
     1
102
RTVSPropertyOp10
 70
     1
102
RTVSPropertyOp11
 70
     1
102
RTVSPropertyOp12
 70
     1
102
RTVSPropertyOp13
 70
     1
102
RTVSPropertyOp14
 70
     1
102
RTVSPropertyOp15
 70
     1
102
RTVSPropertyOp16
 70
     1
102
RTVSPropertyOp17
 70
     1
102
RTVSPropertyOp18
 70
     1
102
RTVSPropertyOp19
 70
     1
102
RTVSPropertyOp20
 70
     1
102
RTVSPropertyOp21
 70
     1
102
RTVSPropertyOp22
 70
     1
102
RTVSPropertyOp23
 70
     1
102
RTVSPropertyOp24
 70
     1
102
RTVSPropertyOp25
 70
     1
102
RTVSPropertyOp26
 70
     1
102
RTVSPropertyOp27
 70
     1
102
RTVSPropertyOp28
 70
     1
102
RTVSPropertyOp29
 70
     1
102
RTVSPropertyOp30
 70
     1
102
RTVSPropertyOp31
 70
     1
102
RTVSPropertyOp32
 70
     1
102
RTVSPropertyOp33
 70
     1
102
RTVSPropertyOp34
 70
     1
102
RTVSPropertyOp35
 70
     1
102
RTVSPropertyOp36
 70
     1
102
RTVSPropertyOp37
 70
     1
102
RTVSPropertyOp38
 70
     1
102
RTVSPropertyOp39
 70
     1
102
RTVSPropertyOp40
 70
     1
102
RTVSPropertyOp41
 70
     1
102
RTVSPropertyOp42
 70
     1
102
RTVSPropertyOp43
 70
     1
102
RTVSPropertyOp44
 70
     1
102
RTVSPropertyOp45
 70
     1
102
RTVSPropertyOp46
 70
     1
102
RTVSPropertyOp47
 70
     1
102
RTVSPropertyOp48
 70
     1
102
RTVSPropertyOp49
 70
     1
102
RTVSPropertyOp50
 70
     1
102
RTVSPropertyOp51
 70
     0
102
RTVSPropertyOp52
 70
     0
102
RTVSPropertyOp53
 70
     1
102
RTVSPropertyOp54
 70
     1
102
RTVSPropertyOp55
 70
     1
102
RTVSPropertyOp56
 70
     1
102
RTVSPropertyOp57
 70
     1
102
RTVSPropertyOp58
 70
     1
102
RTVSPropertyOp59
 70
     1
102
RTVSPropertyOp60
 70
     1
102
RTVSPropertyOp61
 70
     1
102
RTVSPropertyOp62
 70
     1
  0
XRECORD
  5
105C
102
{ACAD_REACTORS
330
105B
102
}
330
105B
100
AcDbXrecord
280
     1
102
RTVSPost2010Prop28
280
     0
102
RTVSPost2010PropOp28
 70
     1
102
RTVSPost2010Prop29
280
     1
102
RTVSPost2010PropOp29
 70
     1
102
RTVSPost2010Prop30
280
     1
102
RTVSPost2010PropOp30
 70
     1
102
RTVSPost2010Prop31
280
     0
102
RTVSPost2010PropOp31
 70
     1
102
RTVSPost2010Prop32
280
     0
102
RTVSPost2010PropOp32
 70
     1
102
RTVSPost2010Prop33
280
     0
102
RTVSPost2010PropOp33
 70
     1
102
RTVSPost2010Prop34
280
     0
102
RTVSPost2010PropOp34
 70
     1
102
RTVSPost2010Prop35
280
     0
102
RTVSPost2010PropOp35
 70
     1
102
RTVSPost2010Prop36
280
     0
102
RTVSPost2010PropOp36
 70
     1
102
RTVSPost2010Prop37
 90
       50
102
RTVSPost2010PropOp37
 70
     1
102
RTVSPost2010Prop38
140
0.0
102
RTVSPost2010PropOp38
 70
     1
102
RTVSPost2010Prop39
140
1.0
102
RTVSPost2010PropOp39
 70
     1
102
RTVSPost2010Prop40
 90
        0
102
RTVSPost2010PropOp40
 70
     1
102
RTVSPost2010Prop41ColorIndex
 90
       18
102
RTVSPost2010Prop41ColorRGB
 90
        0
102
RTVSPost2010PropOp41
 70
     1
102
RTVSPost2010Prop42
 90
       50
102
RTVSPost2010PropOp42
 70
     1
102
RTVSPost2010Prop43
 90
        3
102
RTVSPost2010PropOp43
 70
     1
102
RTVSPost2010Prop44ColorIndex
 90
        5
102
RTVSPost2010Prop44ColorRGB
 90
      255
102
RTVSPost2010PropOp44
 70
     1
102
RTVSPost2010Prop45
280
     0
102
RTVSPost2010PropOp45
 70
     1
102
RTVSPost2010Prop46
 90
       50
102
RTVSPost2010PropOp46
 70
     1
102
RTVSPost2010Prop47
 90
       50
102
RTVSPost2010PropOp47
 70
     1
102
RTVSPost2010Prop48
 90
       50
102
RTVSPost2010PropOp48
 70
     1
102
RTVSPost2010Prop49
280
     0
102
RTVSPost2010PropOp49
 70
     1
102
RTVSPost2010Prop50
 90
       50
102
RTVSPost2010PropOp50
 70
     1
102
RTVSPost2010Prop51ColorIndex
 90
      256
102
RTVSPost2010Prop51ColorRGB
 90
-16777216
102
RTVSPost2010PropOp51
 70
     0
102
RTVSPost2010Prop52
140
1.0
102
RTVSPost2010PropOp52
 70
     0
102
RTVSPost2010Prop53
 90
        2
102
RTVSPost2010PropOp53
 70
     1
102
RTVSPost2010Prop54
  1
strokes_ogs.tif
102
RTVSPost2010PropOp54
 70
     1
102
RTVSPost2010Prop55
280
     0
102
RTVSPost2010PropOp55
 70
     1
102
RTVSPost2010Prop56
140
1.0
102
RTVSPost2010PropOp56
 70
     1
102
RTVSPost2010Prop57
140
1.0
102
RTVSPost2010PropOp57
 70
     1
102
RTVSPropertyOp0
 70
     1
102
RTVSPropertyOp1
 70
     1
102
RTVSPropertyOp2
 70
     1
102
RTVSPropertyOp3
 70
     1
102
RTVSPropertyOp4
 70
     1
102
RTVSPropertyOp5
 70
     1
102
RTVSPropertyOp6
 70
     1
102
RTVSPropertyOp7
 70
     1
102
RTVSPropertyOp8
 70
     1
102
RTVSPropertyOp9
 70
     1
102
RTVSPropertyOp10
 70
     1
102
RTVSPropertyOp11
 70
     1
102
RTVSPropertyOp12
 70
     1
102
RTVSPropertyOp13
 70
     1
102
RTVSPropertyOp14
 70
     1
102
RTVSPropertyOp15
 70
     1
102
RTVSPropertyOp16
 70
     1
102
RTVSPropertyOp17
 70
     1
102
RTVSPropertyOp18
 70
     1
102
RTVSPropertyOp19
 70
     1
102
RTVSPropertyOp20
 70
     1
102
RTVSPropertyOp21
 70
     1
102
RTVSPropertyOp22
 70
     1
102
RTVSPropertyOp23
 70
     1
102
RTVSPropertyOp24
 70
     1
102
RTVSPropertyOp25
 70
     1
102
RTVSPropertyOp26
 70
     1
102
RTVSPropertyOp27
 70
     1
102
RTVSPropertyOp28
 70
     1
102
RTVSPropertyOp29
 70
     1
102
RTVSPropertyOp30
 70
     1
102
RTVSPropertyOp31
 70
     1
102
RTVSPropertyOp32
 70
     1
102
RTVSPropertyOp33
 70
     1
102
RTVSPropertyOp34
 70
     1
102
RTVSPropertyOp35
 70
     1
102
RTVSPropertyOp36
 70
     1
102
RTVSPropertyOp37
 70
     1
102
RTVSPropertyOp38
 70
     1
102
RTVSPropertyOp39
 70
     1
102
RTVSPropertyOp40
 70
     1
102
RTVSPropertyOp41
 70
     1
102
RTVSPropertyOp42
 70
     1
102
RTVSPropertyOp43
 70
     1
102
RTVSPropertyOp44
 70
     1
102
RTVSPropertyOp45
 70
     1
102
RTVSPropertyOp46
 70
     1
102
RTVSPropertyOp47
 70
     1
102
RTVSPropertyOp48
 70
     1
102
RTVSPropertyOp49
 70
     1
102
RTVSPropertyOp50
 70
     1
102
RTVSPropertyOp51
 70
     0
102
RTVSPropertyOp52
 70
     0
102
RTVSPropertyOp53
 70
     1
102
RTVSPropertyOp54
 70
     1
102
RTVSPropertyOp55
 70
     1
102
RTVSPropertyOp56
 70
     1
102
RTVSPropertyOp57
 70
     1
102
RTVSPropertyOp58
 70
     1
102
RTVSPropertyOp59
 70
     1
102
RTVSPropertyOp60
 70
     1
102
RTVSPropertyOp61
 70
     1
102
RTVSPropertyOp62
 70
     1
  0
XRECORD
  5
1060
102
{ACAD_REACTORS
330
105F
102
}
330
105F
100
AcDbXrecord
280
     1
102
RTVSPost2010Prop28
280
     0
102
RTVSPost2010PropOp28
 70
     1
102
RTVSPost2010Prop29
280
     1
102
RTVSPost2010PropOp29
 70
     1
102
RTVSPost2010Prop30
280
     1
102
RTVSPost2010PropOp30
 70
     1
102
RTVSPost2010Prop31
280
     0
102
RTVSPost2010PropOp31
 70
     1
102
RTVSPost2010Prop32
280
     0
102
RTVSPost2010PropOp32
 70
     1
102
RTVSPost2010Prop33
280
     0
102
RTVSPost2010PropOp33
 70
     1
102
RTVSPost2010Prop34
280
     0
102
RTVSPost2010PropOp34
 70
     1
102
RTVSPost2010Prop35
280
     0
102
RTVSPost2010PropOp35
 70
     1
102
RTVSPost2010Prop36
280
     0
102
RTVSPost2010PropOp36
 70
     1
102
RTVSPost2010Prop37
 90
       50
102
RTVSPost2010PropOp37
 70
     1
102
RTVSPost2010Prop38
140
0.0
102
RTVSPost2010PropOp38
 70
     1
102
RTVSPost2010Prop39
140
1.0
102
RTVSPost2010PropOp39
 70
     1
102
RTVSPost2010Prop40
 90
        0
102
RTVSPost2010PropOp40
 70
     1
102
RTVSPost2010Prop41ColorIndex
 90
       18
102
RTVSPost2010Prop41ColorRGB
 90
        0
102
RTVSPost2010PropOp41
 70
     1
102
RTVSPost2010Prop42
 90
       50
102
RTVSPost2010PropOp42
 70
     1
102
RTVSPost2010Prop43
 90
        3
102
RTVSPost2010PropOp43
 70
     1
102
RTVSPost2010Prop44ColorIndex
 90
        5
102
RTVSPost2010Prop44ColorRGB
 90
      255
102
RTVSPost2010PropOp44
 70
     1
102
RTVSPost2010Prop45
280
     0
102
RTVSPost2010PropOp45
 70
     1
102
RTVSPost2010Prop46
 90
       50
102
RTVSPost2010PropOp46
 70
     1
102
RTVSPost2010Prop47
 90
       50
102
RTVSPost2010PropOp47
 70
     1
102
RTVSPost2010Prop48
 90
       50
102
RTVSPost2010PropOp48
 70
     1
102
RTVSPost2010Prop49
280
     0
102
RTVSPost2010PropOp49
 70
     1
102
RTVSPost2010Prop50
 90
       50
102
RTVSPost2010PropOp50
 70
     1
102
RTVSPost2010Prop51ColorIndex
 90
      256
102
RTVSPost2010Prop51ColorRGB
 90
-16777216
102
RTVSPost2010PropOp51
 70
     0
102
RTVSPost2010Prop52
140
1.0
102
RTVSPost2010PropOp52
 70
     0
102
RTVSPost2010Prop53
 90
        2
102
RTVSPost2010PropOp53
 70
     1
102
RTVSPost2010Prop54
  1
strokes_ogs.tif
102
RTVSPost2010PropOp54
 70
     1
102
RTVSPost2010Prop55
280
     0
102
RTVSPost2010PropOp55
 70
     1
102
RTVSPost2010Prop56
140
1.0
102
RTVSPost2010PropOp56
 70
     1
102
RTVSPost2010Prop57
140
1.0
102
RTVSPost2010PropOp57
 70
     1
102
RTVSPropertyOp0
 70
     1
102
RTVSPropertyOp1
 70
     1
102
RTVSPropertyOp2
 70
     1
102
RTVSPropertyOp3
 70
     1
102
RTVSPropertyOp4
 70
     1
102
RTVSPropertyOp5
 70
     1
102
RTVSPropertyOp6
 70
     1
102
RTVSPropertyOp7
 70
     1
102
RTVSPropertyOp8
 70
     1
102
RTVSPropertyOp9
 70
     1
102
RTVSPropertyOp10
 70
     1
102
RTVSPropertyOp11
 70
     1
102
RTVSPropertyOp12
 70
     1
102
RTVSPropertyOp13
 70
     1
102
RTVSPropertyOp14
 70
     1
102
RTVSPropertyOp15
 70
     1
102
RTVSPropertyOp16
 70
     1
102
RTVSPropertyOp17
 70
     1
102
RTVSPropertyOp18
 70
     1
102
RTVSPropertyOp19
 70
     1
102
RTVSPropertyOp20
 70
     1
102
RTVSPropertyOp21
 70
     1
102
RTVSPropertyOp22
 70
     1
102
RTVSPropertyOp23
 70
     1
102
RTVSPropertyOp24
 70
     1
102
RTVSPropertyOp25
 70
     1
102
RTVSPropertyOp26
 70
     1
102
RTVSPropertyOp27
 70
     1
102
RTVSPropertyOp28
 70
     1
102
RTVSPropertyOp29
 70
     1
102
RTVSPropertyOp30
 70
     1
102
RTVSPropertyOp31
 70
     1
102
RTVSPropertyOp32
 70
     1
102
RTVSPropertyOp33
 70
     1
102
RTVSPropertyOp34
 70
     1
102
RTVSPropertyOp35
 70
     1
102
RTVSPropertyOp36
 70
     1
102
RTVSPropertyOp37
 70
     1
102
RTVSPropertyOp38
 70
     1
102
RTVSPropertyOp39
 70
     1
102
RTVSPropertyOp40
 70
     1
102
RTVSPropertyOp41
 70
     1
102
RTVSPropertyOp42
 70
     1
102
RTVSPropertyOp43
 70
     1
102
RTVSPropertyOp44
 70
     1
102
RTVSPropertyOp45
 70
     1
102
RTVSPropertyOp46
 70
     1
102
RTVSPropertyOp47
 70
     1
102
RTVSPropertyOp48
 70
     1
102
RTVSPropertyOp49
 70
     1
102
RTVSPropertyOp50
 70
     1
102
RTVSPropertyOp51
 70
     0
102
RTVSPropertyOp52
 70
     0
102
RTVSPropertyOp53
 70
     1
102
RTVSPropertyOp54
 70
     1
102
RTVSPropertyOp55
 70
     1
102
RTVSPropertyOp56
 70
     1
102
RTVSPropertyOp57
 70
     1
102
RTVSPropertyOp58
 70
     1
102
RTVSPropertyOp59
 70
     1
102
RTVSPropertyOp60
 70
     1
102
RTVSPropertyOp61
 70
     1
102
RTVSPropertyOp62
 70
     1
  0
XRECORD
  5
107A
102
{ACAD_REACTORS
330
1079
102
}
330
1079
100
AcDbXrecord
280
     1
102
RTVSPost2010Prop28
280
     0
102
RTVSPost2010PropOp28
 70
     1
102
RTVSPost2010Prop29
280
     1
102
RTVSPost2010PropOp29
 70
     1
102
RTVSPost2010Prop30
280
     1
102
RTVSPost2010PropOp30
 70
     1
102
RTVSPost2010Prop31
280
     0
102
RTVSPost2010PropOp31
 70
     1
102
RTVSPost2010Prop32
280
     0
102
RTVSPost2010PropOp32
 70
     1
102
RTVSPost2010Prop33
280
     0
102
RTVSPost2010PropOp33
 70
     1
102
RTVSPost2010Prop34
280
     0
102
RTVSPost2010PropOp34
 70
     1
102
RTVSPost2010Prop35
280
     0
102
RTVSPost2010PropOp35
 70
     1
102
RTVSPost2010Prop36
280
     0
102
RTVSPost2010PropOp36
 70
     1
102
RTVSPost2010Prop37
 90
       50
102
RTVSPost2010PropOp37
 70
     0
102
RTVSPost2010Prop38
140
0.0
102
RTVSPost2010PropOp38
 70
     0
102
RTVSPost2010Prop39
140
1.0
102
RTVSPost2010PropOp39
 70
     0
102
RTVSPost2010Prop40
 90
        0
102
RTVSPost2010PropOp40
 70
     0
102
RTVSPost2010Prop41ColorIndex
 90
       18
102
RTVSPost2010Prop41ColorRGB
 90
        0
102
RTVSPost2010PropOp41
 70
     0
102
RTVSPost2010Prop42
 90
       50
102
RTVSPost2010PropOp42
 70
     0
102
RTVSPost2010Prop43
 90
        3
102
RTVSPost2010PropOp43
 70
     0
102
RTVSPost2010Prop44ColorIndex
 90
        5
102
RTVSPost2010Prop44ColorRGB
 90
      255
102
RTVSPost2010PropOp44
 70
     0
102
RTVSPost2010Prop45
280
     0
102
RTVSPost2010PropOp45
 70
     1
102
RTVSPost2010Prop46
 90
       50
102
RTVSPost2010PropOp46
 70
     0
102
RTVSPost2010Prop47
 90
       50
102
RTVSPost2010PropOp47
 70
     0
102
RTVSPost2010Prop48
 90
       50
102
RTVSPost2010PropOp48
 70
     0
102
RTVSPost2010Prop49
280
     0
102
RTVSPost2010PropOp49
 70
     1
102
RTVSPost2010Prop50
 90
       50
102
RTVSPost2010PropOp50
 70
     0
102
RTVSPost2010Prop51ColorIndex
 90
      256
102
RTVSPost2010Prop51ColorRGB
 90
-16777216
102
RTVSPost2010PropOp51
 70
     0
102
RTVSPost2010Prop52
140
1.0
102
RTVSPost2010PropOp52
 70
     0
102
RTVSPost2010Prop53
 90
        2
102
RTVSPost2010PropOp53
 70
     0
102
RTVSPost2010Prop54
  1
strokes_ogs.tif
102
RTVSPost2010PropOp54
 70
     0
102
RTVSPost2010Prop55
280
     0
102
RTVSPost2010PropOp55
 70
     1
102
RTVSPost2010Prop56
140
1.0
102
RTVSPost2010PropOp56
 70
     0
102
RTVSPost2010Prop57
140
1.0
102
RTVSPost2010PropOp57
 70
     0
102
RTVSPropertyOp0
 70
     0
102
RTVSPropertyOp1
 70
     0
102
RTVSPropertyOp2
 70
     0
102
RTVSPropertyOp3
 70
     0
102
RTVSPropertyOp4
 70
     0
102
RTVSPropertyOp5
 70
     0
102
RTVSPropertyOp6
 70
     0
102
RTVSPropertyOp7
 70
     0
102
RTVSPropertyOp8
 70
     0
102
RTVSPropertyOp9
 70
     0
102
RTVSPropertyOp10
 70
     0
102
RTVSPropertyOp11
 70
     0
102
RTVSPropertyOp12
 70
     0
102
RTVSPropertyOp13
 70
     0
102
RTVSPropertyOp14
 70
     2
102
RTVSPropertyOp15
 70
     0
102
RTVSPropertyOp16
 70
     0
102
RTVSPropertyOp17
 70
     0
102
RTVSPropertyOp18
 70
     0
102
RTVSPropertyOp19
 70
     0
102
RTVSPropertyOp20
 70
     0
102
RTVSPropertyOp21
 70
     0
102
RTVSPropertyOp22
 70
     0
102
RTVSPropertyOp23
 70
     0
102
RTVSPropertyOp24
 70
     0
102
RTVSPropertyOp25
 70
     0
102
RTVSPropertyOp26
 70
     0
102
RTVSPropertyOp27
 70
     0
102
RTVSPropertyOp28
 70
     1
102
RTVSPropertyOp29
 70
     1
102
RTVSPropertyOp30
 70
     1
102
RTVSPropertyOp31
 70
     1
102
RTVSPropertyOp32
 70
     1
102
RTVSPropertyOp33
 70
     1
102
RTVSPropertyOp34
 70
     1
102
RTVSPropertyOp35
 70
     1
102
RTVSPropertyOp36
 70
     1
102
RTVSPropertyOp37
 70
     0
102
RTVSPropertyOp38
 70
     0
102
RTVSPropertyOp39
 70
     0
102
RTVSPropertyOp40
 70
     0
102
RTVSPropertyOp41
 70
     0
102
RTVSPropertyOp42
 70
     0
102
RTVSPropertyOp43
 70
     0
102
RTVSPropertyOp44
 70
     0
102
RTVSPropertyOp45
 70
     1
102
RTVSPropertyOp46
 70
     0
102
RTVSPropertyOp47
 70
     0
102
RTVSPropertyOp48
 70
     0
102
RTVSPropertyOp49
 70
     1
102
RTVSPropertyOp50
 70
     0
102
RTVSPropertyOp51
 70
     0
102
RTVSPropertyOp52
 70
     0
102
RTVSPropertyOp53
 70
     0
102
RTVSPropertyOp54
 70
     0
102
RTVSPropertyOp55
 70
     1
102
RTVSPropertyOp56
 70
     0
102
RTVSPropertyOp57
 70
     0
102
RTVSPropertyOp58
 70
     0
102
RTVSPropertyOp59
 70
     0
102
RTVSPropertyOp60
 70
     0
102
RTVSPropertyOp61
 70
     0
102
RTVSPropertyOp62
 70
     0
  0
XRECORD
  5
1068
102
{ACAD_REACTORS
330
1067
102
}
330
1067
100
AcDbXrecord
280
     1
102
RTVSPost2010Prop28
280
     0
102
RTVSPost2010PropOp28
 70
     1
102
RTVSPost2010Prop29
280
     1
102
RTVSPost2010PropOp29
 70
     1
102
RTVSPost2010Prop30
280
     1
102
RTVSPost2010PropOp30
 70
     1
102
RTVSPost2010Prop31
280
     0
102
RTVSPost2010PropOp31
 70
     1
102
RTVSPost2010Prop32
280
     0
102
RTVSPost2010PropOp32
 70
     1
102
RTVSPost2010Prop33
280
     0
102
RTVSPost2010PropOp33
 70
     1
102
RTVSPost2010Prop34
280
     0
102
RTVSPost2010PropOp34
 70
     1
102
RTVSPost2010Prop35
280
     0
102
RTVSPost2010PropOp35
 70
     1
102
RTVSPost2010Prop36
280
     0
102
RTVSPost2010PropOp36
 70
     1
102
RTVSPost2010Prop37
 90
       50
102
RTVSPost2010PropOp37
 70
     1
102
RTVSPost2010Prop38
140
0.0
102
RTVSPost2010PropOp38
 70
     1
102
RTVSPost2010Prop39
140
1.0
102
RTVSPost2010PropOp39
 70
     1
102
RTVSPost2010Prop40
 90
        0
102
RTVSPost2010PropOp40
 70
     1
102
RTVSPost2010Prop41ColorIndex
 90
       18
102
RTVSPost2010Prop41ColorRGB
 90
        0
102
RTVSPost2010PropOp41
 70
     1
102
RTVSPost2010Prop42
 90
       50
102
RTVSPost2010PropOp42
 70
     1
102
RTVSPost2010Prop43
 90
        3
102
RTVSPost2010PropOp43
 70
     1
102
RTVSPost2010Prop44ColorIndex
 90
        5
102
RTVSPost2010Prop44ColorRGB
 90
      255
102
RTVSPost2010PropOp44
 70
     1
102
RTVSPost2010Prop45
280
     0
102
RTVSPost2010PropOp45
 70
     1
102
RTVSPost2010Prop46
 90
       50
102
RTVSPost2010PropOp46
 70
     1
102
RTVSPost2010Prop47
 90
       50
102
RTVSPost2010PropOp47
 70
     1
102
RTVSPost2010Prop48
 90
       50
102
RTVSPost2010PropOp48
 70
     1
102
RTVSPost2010Prop49
280
     0
102
RTVSPost2010PropOp49
 70
     1
102
RTVSPost2010Prop50
 90
       50
102
RTVSPost2010PropOp50
 70
     1
102
RTVSPost2010Prop51ColorIndex
 90
      256
102
RTVSPost2010Prop51ColorRGB
 90
-16777216
102
RTVSPost2010PropOp51
 70
     0
102
RTVSPost2010Prop52
140
1.0
102
RTVSPost2010PropOp52
 70
     0
102
RTVSPost2010Prop53
 90
        2
102
RTVSPost2010PropOp53
 70
     1
102
RTVSPost2010Prop54
  1
strokes_ogs.tif
102
RTVSPost2010PropOp54
 70
     1
102
RTVSPost2010Prop55
280
     0
102
RTVSPost2010PropOp55
 70
     1
102
RTVSPost2010Prop56
140
1.0
102
RTVSPost2010PropOp56
 70
     1
102
RTVSPost2010Prop57
140
1.0
102
RTVSPost2010PropOp57
 70
     1
102
RTVSPropertyOp0
 70
     1
102
RTVSPropertyOp1
 70
     1
102
RTVSPropertyOp2
 70
     1
102
RTVSPropertyOp3
 70
     1
102
RTVSPropertyOp4
 70
     1
102
RTVSPropertyOp5
 70
     1
102
RTVSPropertyOp6
 70
     1
102
RTVSPropertyOp7
 70
     1
102
RTVSPropertyOp8
 70
     1
102
RTVSPropertyOp9
 70
     1
102
RTVSPropertyOp10
 70
     1
102
RTVSPropertyOp11
 70
     1
102
RTVSPropertyOp12
 70
     1
102
RTVSPropertyOp13
 70
     1
102
RTVSPropertyOp14
 70
     1
102
RTVSPropertyOp15
 70
     1
102
RTVSPropertyOp16
 70
     1
102
RTVSPropertyOp17
 70
     1
102
RTVSPropertyOp18
 70
     1
102
RTVSPropertyOp19
 70
     1
102
RTVSPropertyOp20
 70
     1
102
RTVSPropertyOp21
 70
     1
102
RTVSPropertyOp22
 70
     1
102
RTVSPropertyOp23
 70
     1
102
RTVSPropertyOp24
 70
     1
102
RTVSPropertyOp25
 70
     1
102
RTVSPropertyOp26
 70
     1
102
RTVSPropertyOp27
 70
     1
102
RTVSPropertyOp28
 70
     1
102
RTVSPropertyOp29
 70
     1
102
RTVSPropertyOp30
 70
     1
102
RTVSPropertyOp31
 70
     1
102
RTVSPropertyOp32
 70
     1
102
RTVSPropertyOp33
 70
     1
102
RTVSPropertyOp34
 70
     1
102
RTVSPropertyOp35
 70
     1
102
RTVSPropertyOp36
 70
     1
102
RTVSPropertyOp37
 70
     1
102
RTVSPropertyOp38
 70
     1
102
RTVSPropertyOp39
 70
     1
102
RTVSPropertyOp40
 70
     1
102
RTVSPropertyOp41
 70
     1
102
RTVSPropertyOp42
 70
     1
102
RTVSPropertyOp43
 70
     1
102
RTVSPropertyOp44
 70
     1
102
RTVSPropertyOp45
 70
     1
102
RTVSPropertyOp46
 70
     1
102
RTVSPropertyOp47
 70
     1
102
RTVSPropertyOp48
 70
     1
102
RTVSPropertyOp49
 70
     1
102
RTVSPropertyOp50
 70
     1
102
RTVSPropertyOp51
 70
     0
102
RTVSPropertyOp52
 70
     0
102
RTVSPropertyOp53
 70
     1
102
RTVSPropertyOp54
 70
     1
102
RTVSPropertyOp55
 70
     1
102
RTVSPropertyOp56
 70
     1
102
RTVSPropertyOp57
 70
     1
102
RTVSPropertyOp58
 70
     1
102
RTVSPropertyOp59
 70
     1
102
RTVSPropertyOp60
 70
     1
102
RTVSPropertyOp61
 70
     1
102
RTVSPropertyOp62
 70
     1
  0
XRECORD
  5
104C
102
{ACAD_REACTORS
330
104B
102
}
330
104B
100
AcDbXrecord
280
     1
102
RTVSPost2010Prop28
280
     0
102
RTVSPost2010PropOp28
 70
     1
102
RTVSPost2010Prop29
280
     1
102
RTVSPost2010PropOp29
 70
     1
102
RTVSPost2010Prop30
280
     1
102
RTVSPost2010PropOp30
 70
     1
102
RTVSPost2010Prop31
280
     0
102
RTVSPost2010PropOp31
 70
     1
102
RTVSPost2010Prop32
280
     0
102
RTVSPost2010PropOp32
 70
     1
102
RTVSPost2010Prop33
280
     0
102
RTVSPost2010PropOp33
 70
     1
102
RTVSPost2010Prop34
280
     0
102
RTVSPost2010PropOp34
 70
     1
102
RTVSPost2010Prop35
280
     0
102
RTVSPost2010PropOp35
 70
     1
102
RTVSPost2010Prop36
280
     0
102
RTVSPost2010PropOp36
 70
     1
102
RTVSPost2010Prop37
 90
       50
102
RTVSPost2010PropOp37
 70
     1
102
RTVSPost2010Prop38
140
0.0
102
RTVSPost2010PropOp38
 70
     1
102
RTVSPost2010Prop39
140
1.0
102
RTVSPost2010PropOp39
 70
     1
102
RTVSPost2010Prop40
 90
        0
102
RTVSPost2010PropOp40
 70
     1
102
RTVSPost2010Prop41ColorIndex
 90
       18
102
RTVSPost2010Prop41ColorRGB
 90
        0
102
RTVSPost2010PropOp41
 70
     1
102
RTVSPost2010Prop42
 90
       50
102
RTVSPost2010PropOp42
 70
     1
102
RTVSPost2010Prop43
 90
        3
102
RTVSPost2010PropOp43
 70
     1
102
RTVSPost2010Prop44ColorIndex
 90
        5
102
RTVSPost2010Prop44ColorRGB
 90
      255
102
RTVSPost2010PropOp44
 70
     1
102
RTVSPost2010Prop45
280
     0
102
RTVSPost2010PropOp45
 70
     1
102
RTVSPost2010Prop46
 90
       50
102
RTVSPost2010PropOp46
 70
     1
102
RTVSPost2010Prop47
 90
       50
102
RTVSPost2010PropOp47
 70
     1
102
RTVSPost2010Prop48
 90
       50
102
RTVSPost2010PropOp48
 70
     1
102
RTVSPost2010Prop49
280
     0
102
RTVSPost2010PropOp49
 70
     1
102
RTVSPost2010Prop50
 90
       50
102
RTVSPost2010PropOp50
 70
     1
102
RTVSPost2010Prop51ColorIndex
 90
      256
102
RTVSPost2010Prop51ColorRGB
 90
-16777216
102
RTVSPost2010PropOp51
 70
     0
102
RTVSPost2010Prop52
140
1.0
102
RTVSPost2010PropOp52
 70
     0
102
RTVSPost2010Prop53
 90
        2
102
RTVSPost2010PropOp53
 70
     1
102
RTVSPost2010Prop54
  1
strokes_ogs.tif
102
RTVSPost2010PropOp54
 70
     1
102
RTVSPost2010Prop55
280
     0
102
RTVSPost2010PropOp55
 70
     1
102
RTVSPost2010Prop56
140
1.0
102
RTVSPost2010PropOp56
 70
     1
102
RTVSPost2010Prop57
140
1.0
102
RTVSPost2010PropOp57
 70
     1
102
RTVSPropertyOp0
 70
     1
102
RTVSPropertyOp1
 70
     1
102
RTVSPropertyOp2
 70
     1
102
RTVSPropertyOp3
 70
     1
102
RTVSPropertyOp4
 70
     1
102
RTVSPropertyOp5
 70
     1
102
RTVSPropertyOp6
 70
     1
102
RTVSPropertyOp7
 70
     1
102
RTVSPropertyOp8
 70
     1
102
RTVSPropertyOp9
 70
     1
102
RTVSPropertyOp10
 70
     1
102
RTVSPropertyOp11
 70
     1
102
RTVSPropertyOp12
 70
     1
102
RTVSPropertyOp13
 70
     1
102
RTVSPropertyOp14
 70
     1
102
RTVSPropertyOp15
 70
     1
102
RTVSPropertyOp16
 70
     1
102
RTVSPropertyOp17
 70
     1
102
RTVSPropertyOp18
 70
     1
102
RTVSPropertyOp19
 70
     1
102
RTVSPropertyOp20
 70
     1
102
RTVSPropertyOp21
 70
     1
102
RTVSPropertyOp22
 70
     1
102
RTVSPropertyOp23
 70
     1
102
RTVSPropertyOp24
 70
     1
102
RTVSPropertyOp25
 70
     1
102
RTVSPropertyOp26
 70
     1
102
RTVSPropertyOp27
 70
     1
102
RTVSPropertyOp28
 70
     1
102
RTVSPropertyOp29
 70
     1
102
RTVSPropertyOp30
 70
     1
102
RTVSPropertyOp31
 70
     1
102
RTVSPropertyOp32
 70
     1
102
RTVSPropertyOp33
 70
     1
102
RTVSPropertyOp34
 70
     1
102
RTVSPropertyOp35
 70
     1
102
RTVSPropertyOp36
 70
     1
102
RTVSPropertyOp37
 70
     1
102
RTVSPropertyOp38
 70
     1
102
RTVSPropertyOp39
 70
     1
102
RTVSPropertyOp40
 70
     1
102
RTVSPropertyOp41
 70
     1
102
RTVSPropertyOp42
 70
     1
102
RTVSPropertyOp43
 70
     1
102
RTVSPropertyOp44
 70
     1
102
RTVSPropertyOp45
 70
     1
102
RTVSPropertyOp46
 70
     1
102
RTVSPropertyOp47
 70
     1
102
RTVSPropertyOp48
 70
     1
102
RTVSPropertyOp49
 70
     1
102
RTVSPropertyOp50
 70
     1
102
RTVSPropertyOp51
 70
     0
102
RTVSPropertyOp52
 70
     0
102
RTVSPropertyOp53
 70
     1
102
RTVSPropertyOp54
 70
     1
102
RTVSPropertyOp55
 70
     1
102
RTVSPropertyOp56
 70
     1
102
RTVSPropertyOp57
 70
     1
102
RTVSPropertyOp58
 70
     1
102
RTVSPropertyOp59
 70
     1
102
RTVSPropertyOp60
 70
     1
102
RTVSPropertyOp61
 70
     1
102
RTVSPropertyOp62
 70
     1
  0
XRECORD
  5
104E
102
{ACAD_REACTORS
330
104D
102
}
330
104D
100
AcDbXrecord
280
     1
102
RTVSPost2010Prop28
280
     0
102
RTVSPost2010PropOp28
 70
     1
102
RTVSPost2010Prop29
280
     1
102
RTVSPost2010PropOp29
 70
     1
102
RTVSPost2010Prop30
280
     1
102
RTVSPost2010PropOp30
 70
     1
102
RTVSPost2010Prop31
280
     0
102
RTVSPost2010PropOp31
 70
     1
102
RTVSPost2010Prop32
280
     0
102
RTVSPost2010PropOp32
 70
     1
102
RTVSPost2010Prop33
280
     0
102
RTVSPost2010PropOp33
 70
     1
102
RTVSPost2010Prop34
280
     0
102
RTVSPost2010PropOp34
 70
     1
102
RTVSPost2010Prop35
280
     0
102
RTVSPost2010PropOp35
 70
     1
102
RTVSPost2010Prop36
280
     0
102
RTVSPost2010PropOp36
 70
     1
102
RTVSPost2010Prop37
 90
       50
102
RTVSPost2010PropOp37
 70
     1
102
RTVSPost2010Prop38
140
0.0
102
RTVSPost2010PropOp38
 70
     1
102
RTVSPost2010Prop39
140
1.0
102
RTVSPost2010PropOp39
 70
     1
102
RTVSPost2010Prop40
 90
        0
102
RTVSPost2010PropOp40
 70
     1
102
RTVSPost2010Prop41ColorIndex
 90
       18
102
RTVSPost2010Prop41ColorRGB
 90
        0
102
RTVSPost2010PropOp41
 70
     1
102
RTVSPost2010Prop42
 90
       50
102
RTVSPost2010PropOp42
 70
     1
102
RTVSPost2010Prop43
 90
        3
102
RTVSPost2010PropOp43
 70
     1
102
RTVSPost2010Prop44ColorIndex
 90
        5
102
RTVSPost2010Prop44ColorRGB
 90
      255
102
RTVSPost2010PropOp44
 70
     1
102
RTVSPost2010Prop45
280
     0
102
RTVSPost2010PropOp45
 70
     1
102
RTVSPost2010Prop46
 90
       50
102
RTVSPost2010PropOp46
 70
     1
102
RTVSPost2010Prop47
 90
       50
102
RTVSPost2010PropOp47
 70
     1
102
RTVSPost2010Prop48
 90
       50
102
RTVSPost2010PropOp48
 70
     1
102
RTVSPost2010Prop49
280
     0
102
RTVSPost2010PropOp49
 70
     1
102
RTVSPost2010Prop50
 90
       50
102
RTVSPost2010PropOp50
 70
     1
102
RTVSPost2010Prop51ColorIndex
 90
      256
102
RTVSPost2010Prop51ColorRGB
 90
-16777216
102
RTVSPost2010PropOp51
 70
     0
102
RTVSPost2010Prop52
140
1.0
102
RTVSPost2010PropOp52
 70
     0
102
RTVSPost2010Prop53
 90
        2
102
RTVSPost2010PropOp53
 70
     1
102
RTVSPost2010Prop54
  1
strokes_ogs.tif
102
RTVSPost2010PropOp54
 70
     1
102
RTVSPost2010Prop55
280
     0
102
RTVSPost2010PropOp55
 70
     1
102
RTVSPost2010Prop56
140
1.0
102
RTVSPost2010PropOp56
 70
     1
102
RTVSPost2010Prop57
140
1.0
102
RTVSPost2010PropOp57
 70
     1
102
RTVSPropertyOp0
 70
     1
102
RTVSPropertyOp1
 70
     1
102
RTVSPropertyOp2
 70
     1
102
RTVSPropertyOp3
 70
     1
102
RTVSPropertyOp4
 70
     1
102
RTVSPropertyOp5
 70
     1
102
RTVSPropertyOp6
 70
     1
102
RTVSPropertyOp7
 70
     1
102
RTVSPropertyOp8
 70
     1
102
RTVSPropertyOp9
 70
     1
102
RTVSPropertyOp10
 70
     1
102
RTVSPropertyOp11
 70
     1
102
RTVSPropertyOp12
 70
     1
102
RTVSPropertyOp13
 70
     1
102
RTVSPropertyOp14
 70
     1
102
RTVSPropertyOp15
 70
     1
102
RTVSPropertyOp16
 70
     1
102
RTVSPropertyOp17
 70
     1
102
RTVSPropertyOp18
 70
     1
102
RTVSPropertyOp19
 70
     1
102
RTVSPropertyOp20
 70
     1
102
RTVSPropertyOp21
 70
     1
102
RTVSPropertyOp22
 70
     1
102
RTVSPropertyOp23
 70
     1
102
RTVSPropertyOp24
 70
     1
102
RTVSPropertyOp25
 70
     1
102
RTVSPropertyOp26
 70
     1
102
RTVSPropertyOp27
 70
     1
102
RTVSPropertyOp28
 70
     1
102
RTVSPropertyOp29
 70
     1
102
RTVSPropertyOp30
 70
     1
102
RTVSPropertyOp31
 70
     1
102
RTVSPropertyOp32
 70
     1
102
RTVSPropertyOp33
 70
     1
102
RTVSPropertyOp34
 70
     1
102
RTVSPropertyOp35
 70
     1
102
RTVSPropertyOp36
 70
     1
102
RTVSPropertyOp37
 70
     1
102
RTVSPropertyOp38
 70
     1
102
RTVSPropertyOp39
 70
     1
102
RTVSPropertyOp40
 70
     1
102
RTVSPropertyOp41
 70
     1
102
RTVSPropertyOp42
 70
     1
102
RTVSPropertyOp43
 70
     1
102
RTVSPropertyOp44
 70
     1
102
RTVSPropertyOp45
 70
     1
102
RTVSPropertyOp46
 70
     1
102
RTVSPropertyOp47
 70
     1
102
RTVSPropertyOp48
 70
     1
102
RTVSPropertyOp49
 70
     1
102
RTVSPropertyOp50
 70
     1
102
RTVSPropertyOp51
 70
     0
102
RTVSPropertyOp52
 70
     0
102
RTVSPropertyOp53
 70
     1
102
RTVSPropertyOp54
 70
     1
102
RTVSPropertyOp55
 70
     1
102
RTVSPropertyOp56
 70
     1
102
RTVSPropertyOp57
 70
     1
102
RTVSPropertyOp58
 70
     1
102
RTVSPropertyOp59
 70
     1
102
RTVSPropertyOp60
 70
     1
102
RTVSPropertyOp61
 70
     1
102
RTVSPropertyOp62
 70
     1
  0
XRECORD
  5
1050
102
{ACAD_REACTORS
330
104F
102
}
330
104F
100
AcDbXrecord
280
     1
102
RTVSPost2010Prop28
280
     0
102
RTVSPost2010PropOp28
 70
     1
102
RTVSPost2010Prop29
280
     1
102
RTVSPost2010PropOp29
 70
     1
102
RTVSPost2010Prop30
280
     1
102
RTVSPost2010PropOp30
 70
     1
102
RTVSPost2010Prop31
280
     0
102
RTVSPost2010PropOp31
 70
     1
102
RTVSPost2010Prop32
280
     0
102
RTVSPost2010PropOp32
 70
     1
102
RTVSPost2010Prop33
280
     0
102
RTVSPost2010PropOp33
 70
     1
102
RTVSPost2010Prop34
280
     0
102
RTVSPost2010PropOp34
 70
     1
102
RTVSPost2010Prop35
280
     0
102
RTVSPost2010PropOp35
 70
     1
102
RTVSPost2010Prop36
280
     0
102
RTVSPost2010PropOp36
 70
     1
102
RTVSPost2010Prop37
 90
       50
102
RTVSPost2010PropOp37
 70
     1
102
RTVSPost2010Prop38
140
0.0
102
RTVSPost2010PropOp38
 70
     1
102
RTVSPost2010Prop39
140
1.0
102
RTVSPost2010PropOp39
 70
     1
102
RTVSPost2010Prop40
 90
        0
102
RTVSPost2010PropOp40
 70
     1
102
RTVSPost2010Prop41ColorIndex
 90
       18
102
RTVSPost2010Prop41ColorRGB
 90
        0
102
RTVSPost2010PropOp41
 70
     1
102
RTVSPost2010Prop42
 90
       50
102
RTVSPost2010PropOp42
 70
     1
102
RTVSPost2010Prop43
 90
        3
102
RTVSPost2010PropOp43
 70
     1
102
RTVSPost2010Prop44ColorIndex
 90
        5
102
RTVSPost2010Prop44ColorRGB
 90
      255
102
RTVSPost2010PropOp44
 70
     1
102
RTVSPost2010Prop45
280
     0
102
RTVSPost2010PropOp45
 70
     1
102
RTVSPost2010Prop46
 90
       50
102
RTVSPost2010PropOp46
 70
     1
102
RTVSPost2010Prop47
 90
       50
102
RTVSPost2010PropOp47
 70
     1
102
RTVSPost2010Prop48
 90
       50
102
RTVSPost2010PropOp48
 70
     1
102
RTVSPost2010Prop49
280
     0
102
RTVSPost2010PropOp49
 70
     1
102
RTVSPost2010Prop50
 90
       50
102
RTVSPost2010PropOp50
 70
     1
102
RTVSPost2010Prop51ColorIndex
 90
      256
102
RTVSPost2010Prop51ColorRGB
 90
-16777216
102
RTVSPost2010PropOp51
 70
     0
102
RTVSPost2010Prop52
140
1.0
102
RTVSPost2010PropOp52
 70
     0
102
RTVSPost2010Prop53
 90
        2
102
RTVSPost2010PropOp53
 70
     1
102
RTVSPost2010Prop54
  1
strokes_ogs.tif
102
RTVSPost2010PropOp54
 70
     1
102
RTVSPost2010Prop55
280
     0
102
RTVSPost2010PropOp55
 70
     1
102
RTVSPost2010Prop56
140
1.0
102
RTVSPost2010PropOp56
 70
     1
102
RTVSPost2010Prop57
140
1.0
102
RTVSPost2010PropOp57
 70
     1
102
RTVSPropertyOp0
 70
     1
102
RTVSPropertyOp1
 70
     1
102
RTVSPropertyOp2
 70
     1
102
RTVSPropertyOp3
 70
     1
102
RTVSPropertyOp4
 70
     1
102
RTVSPropertyOp5
 70
     1
102
RTVSPropertyOp6
 70
     1
102
RTVSPropertyOp7
 70
     1
102
RTVSPropertyOp8
 70
     1
102
RTVSPropertyOp9
 70
     1
102
RTVSPropertyOp10
 70
     1
102
RTVSPropertyOp11
 70
     1
102
RTVSPropertyOp12
 70
     1
102
RTVSPropertyOp13
 70
     1
102
RTVSPropertyOp14
 70
     1
102
RTVSPropertyOp15
 70
     1
102
RTVSPropertyOp16
 70
     1
102
RTVSPropertyOp17
 70
     1
102
RTVSPropertyOp18
 70
     1
102
RTVSPropertyOp19
 70
     1
102
RTVSPropertyOp20
 70
     1
102
RTVSPropertyOp21
 70
     1
102
RTVSPropertyOp22
 70
     1
102
RTVSPropertyOp23
 70
     1
102
RTVSPropertyOp24
 70
     1
102
RTVSPropertyOp25
 70
     1
102
RTVSPropertyOp26
 70
     1
102
RTVSPropertyOp27
 70
     1
102
RTVSPropertyOp28
 70
     1
102
RTVSPropertyOp29
 70
     1
102
RTVSPropertyOp30
 70
     1
102
RTVSPropertyOp31
 70
     1
102
RTVSPropertyOp32
 70
     1
102
RTVSPropertyOp33
 70
     1
102
RTVSPropertyOp34
 70
     1
102
RTVSPropertyOp35
 70
     1
102
RTVSPropertyOp36
 70
     1
102
RTVSPropertyOp37
 70
     1
102
RTVSPropertyOp38
 70
     1
102
RTVSPropertyOp39
 70
     1
102
RTVSPropertyOp40
 70
     1
102
RTVSPropertyOp41
 70
     1
102
RTVSPropertyOp42
 70
     1
102
RTVSPropertyOp43
 70
     1
102
RTVSPropertyOp44
 70
     1
102
RTVSPropertyOp45
 70
     1
102
RTVSPropertyOp46
 70
     1
102
RTVSPropertyOp47
 70
     1
102
RTVSPropertyOp48
 70
     1
102
RTVSPropertyOp49
 70
     1
102
RTVSPropertyOp50
 70
     1
102
RTVSPropertyOp51
 70
     0
102
RTVSPropertyOp52
 70
     0
102
RTVSPropertyOp53
 70
     1
102
RTVSPropertyOp54
 70
     1
102
RTVSPropertyOp55
 70
     1
102
RTVSPropertyOp56
 70
     1
102
RTVSPropertyOp57
 70
     1
102
RTVSPropertyOp58
 70
     1
102
RTVSPropertyOp59
 70
     1
102
RTVSPropertyOp60
 70
     1
102
RTVSPropertyOp61
 70
     1
102
RTVSPropertyOp62
 70
     1
  0
XRECORD
  5
1052
102
{ACAD_REACTORS
330
1051
102
}
330
1051
100
AcDbXrecord
280
     1
102
RTVSPost2010Prop28
280
     0
102
RTVSPost2010PropOp28
 70
     1
102
RTVSPost2010Prop29
280
     1
102
RTVSPost2010PropOp29
 70
     1
102
RTVSPost2010Prop30
280
     1
102
RTVSPost2010PropOp30
 70
     1
102
RTVSPost2010Prop31
280
     0
102
RTVSPost2010PropOp31
 70
     1
102
RTVSPost2010Prop32
280
     0
102
RTVSPost2010PropOp32
 70
     1
102
RTVSPost2010Prop33
280
     0
102
RTVSPost2010PropOp33
 70
     1
102
RTVSPost2010Prop34
280
     0
102
RTVSPost2010PropOp34
 70
     1
102
RTVSPost2010Prop35
280
     0
102
RTVSPost2010PropOp35
 70
     1
102
RTVSPost2010Prop36
280
     0
102
RTVSPost2010PropOp36
 70
     1
102
RTVSPost2010Prop37
 90
       50
102
RTVSPost2010PropOp37
 70
     1
102
RTVSPost2010Prop38
140
0.0
102
RTVSPost2010PropOp38
 70
     1
102
RTVSPost2010Prop39
140
1.0
102
RTVSPost2010PropOp39
 70
     1
102
RTVSPost2010Prop40
 90
        0
102
RTVSPost2010PropOp40
 70
     1
102
RTVSPost2010Prop41ColorIndex
 90
       18
102
RTVSPost2010Prop41ColorRGB
 90
        0
102
RTVSPost2010PropOp41
 70
     1
102
RTVSPost2010Prop42
 90
       50
102
RTVSPost2010PropOp42
 70
     1
102
RTVSPost2010Prop43
 90
        3
102
RTVSPost2010PropOp43
 70
     1
102
RTVSPost2010Prop44ColorIndex
 90
        5
102
RTVSPost2010Prop44ColorRGB
 90
      255
102
RTVSPost2010PropOp44
 70
     1
102
RTVSPost2010Prop45
280
     0
102
RTVSPost2010PropOp45
 70
     1
102
RTVSPost2010Prop46
 90
       50
102
RTVSPost2010PropOp46
 70
     1
102
RTVSPost2010Prop47
 90
       50
102
RTVSPost2010PropOp47
 70
     1
102
RTVSPost2010Prop48
 90
       50
102
RTVSPost2010PropOp48
 70
     1
102
RTVSPost2010Prop49
280
     0
102
RTVSPost2010PropOp49
 70
     1
102
RTVSPost2010Prop50
 90
       50
102
RTVSPost2010PropOp50
 70
     1
102
RTVSPost2010Prop51ColorIndex
 90
      256
102
RTVSPost2010Prop51ColorRGB
 90
-16777216
102
RTVSPost2010PropOp51
 70
     0
102
RTVSPost2010Prop52
140
1.0
102
RTVSPost2010PropOp52
 70
     0
102
RTVSPost2010Prop53
 90
        2
102
RTVSPost2010PropOp53
 70
     1
102
RTVSPost2010Prop54
  1
strokes_ogs.tif
102
RTVSPost2010PropOp54
 70
     1
102
RTVSPost2010Prop55
280
     0
102
RTVSPost2010PropOp55
 70
     1
102
RTVSPost2010Prop56
140
1.0
102
RTVSPost2010PropOp56
 70
     1
102
RTVSPost2010Prop57
140
1.0
102
RTVSPost2010PropOp57
 70
     1
102
RTVSPropertyOp0
 70
     1
102
RTVSPropertyOp1
 70
     1
102
RTVSPropertyOp2
 70
     1
102
RTVSPropertyOp3
 70
     1
102
RTVSPropertyOp4
 70
     1
102
RTVSPropertyOp5
 70
     1
102
RTVSPropertyOp6
 70
     1
102
RTVSPropertyOp7
 70
     1
102
RTVSPropertyOp8
 70
     1
102
RTVSPropertyOp9
 70
     1
102
RTVSPropertyOp10
 70
     1
102
RTVSPropertyOp11
 70
     1
102
RTVSPropertyOp12
 70
     1
102
RTVSPropertyOp13
 70
     1
102
RTVSPropertyOp14
 70
     1
102
RTVSPropertyOp15
 70
     1
102
RTVSPropertyOp16
 70
     1
102
RTVSPropertyOp17
 70
     1
102
RTVSPropertyOp18
 70
     1
102
RTVSPropertyOp19
 70
     1
102
RTVSPropertyOp20
 70
     1
102
RTVSPropertyOp21
 70
     1
102
RTVSPropertyOp22
 70
     1
102
RTVSPropertyOp23
 70
     1
102
RTVSPropertyOp24
 70
     1
102
RTVSPropertyOp25
 70
     1
102
RTVSPropertyOp26
 70
     1
102
RTVSPropertyOp27
 70
     1
102
RTVSPropertyOp28
 70
     1
102
RTVSPropertyOp29
 70
     1
102
RTVSPropertyOp30
 70
     1
102
RTVSPropertyOp31
 70
     1
102
RTVSPropertyOp32
 70
     1
102
RTVSPropertyOp33
 70
     1
102
RTVSPropertyOp34
 70
     1
102
RTVSPropertyOp35
 70
     1
102
RTVSPropertyOp36
 70
     1
102
RTVSPropertyOp37
 70
     1
102
RTVSPropertyOp38
 70
     1
102
RTVSPropertyOp39
 70
     1
102
RTVSPropertyOp40
 70
     1
102
RTVSPropertyOp41
 70
     1
102
RTVSPropertyOp42
 70
     1
102
RTVSPropertyOp43
 70
     1
102
RTVSPropertyOp44
 70
     1
102
RTVSPropertyOp45
 70
     1
102
RTVSPropertyOp46
 70
     1
102
RTVSPropertyOp47
 70
     1
102
RTVSPropertyOp48
 70
     1
102
RTVSPropertyOp49
 70
     1
102
RTVSPropertyOp50
 70
     1
102
RTVSPropertyOp51
 70
     0
102
RTVSPropertyOp52
 70
     0
102
RTVSPropertyOp53
 70
     1
102
RTVSPropertyOp54
 70
     1
102
RTVSPropertyOp55
 70
     1
102
RTVSPropertyOp56
 70
     1
102
RTVSPropertyOp57
 70
     1
102
RTVSPropertyOp58
 70
     1
102
RTVSPropertyOp59
 70
     1
102
RTVSPropertyOp60
 70
     1
102
RTVSPropertyOp61
 70
     1
102
RTVSPropertyOp62
 70
     1
  0
XRECORD
  5
105A
102
{ACAD_REACTORS
330
1059
102
}
330
1059
100
AcDbXrecord
280
     1
102
RTVSPost2010Prop28
280
     0
102
RTVSPost2010PropOp28
 70
     1
102
RTVSPost2010Prop29
280
     1
102
RTVSPost2010PropOp29
 70
     1
102
RTVSPost2010Prop30
280
     1
102
RTVSPost2010PropOp30
 70
     1
102
RTVSPost2010Prop31
280
     0
102
RTVSPost2010PropOp31
 70
     1
102
RTVSPost2010Prop32
280
     0
102
RTVSPost2010PropOp32
 70
     1
102
RTVSPost2010Prop33
280
     0
102
RTVSPost2010PropOp33
 70
     1
102
RTVSPost2010Prop34
280
     0
102
RTVSPost2010PropOp34
 70
     1
102
RTVSPost2010Prop35
280
     0
102
RTVSPost2010PropOp35
 70
     1
102
RTVSPost2010Prop36
280
     0
102
RTVSPost2010PropOp36
 70
     1
102
RTVSPost2010Prop37
 90
       50
102
RTVSPost2010PropOp37
 70
     1
102
RTVSPost2010Prop38
140
0.0
102
RTVSPost2010PropOp38
 70
     1
102
RTVSPost2010Prop39
140
1.0
102
RTVSPost2010PropOp39
 70
     1
102
RTVSPost2010Prop40
 90
        0
102
RTVSPost2010PropOp40
 70
     1
102
RTVSPost2010Prop41ColorIndex
 90
       18
102
RTVSPost2010Prop41ColorRGB
 90
        0
102
RTVSPost2010PropOp41
 70
     1
102
RTVSPost2010Prop42
 90
       50
102
RTVSPost2010PropOp42
 70
     1
102
RTVSPost2010Prop43
 90
        3
102
RTVSPost2010PropOp43
 70
     1
102
RTVSPost2010Prop44ColorIndex
 90
        5
102
RTVSPost2010Prop44ColorRGB
 90
      255
102
RTVSPost2010PropOp44
 70
     1
102
RTVSPost2010Prop45
280
     0
102
RTVSPost2010PropOp45
 70
     1
102
RTVSPost2010Prop46
 90
       50
102
RTVSPost2010PropOp46
 70
     1
102
RTVSPost2010Prop47
 90
       50
102
RTVSPost2010PropOp47
 70
     1
102
RTVSPost2010Prop48
 90
       50
102
RTVSPost2010PropOp48
 70
     1
102
RTVSPost2010Prop49
280
     0
102
RTVSPost2010PropOp49
 70
     1
102
RTVSPost2010Prop50
 90
       50
102
RTVSPost2010PropOp50
 70
     1
102
RTVSPost2010Prop51ColorIndex
 90
      256
102
RTVSPost2010Prop51ColorRGB
 90
-16777216
102
RTVSPost2010PropOp51
 70
     0
102
RTVSPost2010Prop52
140
1.0
102
RTVSPost2010PropOp52
 70
     0
102
RTVSPost2010Prop53
 90
        2
102
RTVSPost2010PropOp53
 70
     1
102
RTVSPost2010Prop54
  1
strokes_ogs.tif
102
RTVSPost2010PropOp54
 70
     1
102
RTVSPost2010Prop55
280
     0
102
RTVSPost2010PropOp55
 70
     1
102
RTVSPost2010Prop56
140
1.0
102
RTVSPost2010PropOp56
 70
     1
102
RTVSPost2010Prop57
140
1.0
102
RTVSPost2010PropOp57
 70
     1
102
RTVSPropertyOp0
 70
     1
102
RTVSPropertyOp1
 70
     1
102
RTVSPropertyOp2
 70
     1
102
RTVSPropertyOp3
 70
     1
102
RTVSPropertyOp4
 70
     1
102
RTVSPropertyOp5
 70
     1
102
RTVSPropertyOp6
 70
     1
102
RTVSPropertyOp7
 70
     1
102
RTVSPropertyOp8
 70
     1
102
RTVSPropertyOp9
 70
     1
102
RTVSPropertyOp10
 70
     1
102
RTVSPropertyOp11
 70
     1
102
RTVSPropertyOp12
 70
     1
102
RTVSPropertyOp13
 70
     1
102
RTVSPropertyOp14
 70
     1
102
RTVSPropertyOp15
 70
     1
102
RTVSPropertyOp16
 70
     1
102
RTVSPropertyOp17
 70
     1
102
RTVSPropertyOp18
 70
     1
102
RTVSPropertyOp19
 70
     1
102
RTVSPropertyOp20
 70
     1
102
RTVSPropertyOp21
 70
     1
102
RTVSPropertyOp22
 70
     1
102
RTVSPropertyOp23
 70
     1
102
RTVSPropertyOp24
 70
     1
102
RTVSPropertyOp25
 70
     1
102
RTVSPropertyOp26
 70
     1
102
RTVSPropertyOp27
 70
     1
102
RTVSPropertyOp28
 70
     1
102
RTVSPropertyOp29
 70
     1
102
RTVSPropertyOp30
 70
     1
102
RTVSPropertyOp31
 70
     1
102
RTVSPropertyOp32
 70
     1
102
RTVSPropertyOp33
 70
     1
102
RTVSPropertyOp34
 70
     1
102
RTVSPropertyOp35
 70
     1
102
RTVSPropertyOp36
 70
     1
102
RTVSPropertyOp37
 70
     1
102
RTVSPropertyOp38
 70
     1
102
RTVSPropertyOp39
 70
     1
102
RTVSPropertyOp40
 70
     1
102
RTVSPropertyOp41
 70
     1
102
RTVSPropertyOp42
 70
     1
102
RTVSPropertyOp43
 70
     1
102
RTVSPropertyOp44
 70
     1
102
RTVSPropertyOp45
 70
     1
102
RTVSPropertyOp46
 70
     1
102
RTVSPropertyOp47
 70
     1
102
RTVSPropertyOp48
 70
     1
102
RTVSPropertyOp49
 70
     1
102
RTVSPropertyOp50
 70
     1
102
RTVSPropertyOp51
 70
     0
102
RTVSPropertyOp52
 70
     0
102
RTVSPropertyOp53
 70
     1
102
RTVSPropertyOp54
 70
     1
102
RTVSPropertyOp55
 70
     1
102
RTVSPropertyOp56
 70
     1
102
RTVSPropertyOp57
 70
     1
102
RTVSPropertyOp58
 70
     1
102
RTVSPropertyOp59
 70
     1
102
RTVSPropertyOp60
 70
     1
102
RTVSPropertyOp61
 70
     1
102
RTVSPropertyOp62
 70
     1
  0
XRECORD
  5
1076
102
{ACAD_REACTORS
330
1075
102
}
330
1075
100
AcDbXrecord
280
     1
102
RTVSPost2010Prop28
280
     0
102
RTVSPost2010PropOp28
 70
     1
102
RTVSPost2010Prop29
280
     1
102
RTVSPost2010PropOp29
 70
     1
102
RTVSPost2010Prop30
280
     1
102
RTVSPost2010PropOp30
 70
     1
102
RTVSPost2010Prop31
280
     0
102
RTVSPost2010PropOp31
 70
     1
102
RTVSPost2010Prop32
280
     0
102
RTVSPost2010PropOp32
 70
     1
102
RTVSPost2010Prop33
280
     0
102
RTVSPost2010PropOp33
 70
     1
102
RTVSPost2010Prop34
280
     0
102
RTVSPost2010PropOp34
 70
     1
102
RTVSPost2010Prop35
280
     0
102
RTVSPost2010PropOp35
 70
     1
102
RTVSPost2010Prop36
280
     0
102
RTVSPost2010PropOp36
 70
     1
102
RTVSPost2010Prop37
 90
       50
102
RTVSPost2010PropOp37
 70
     0
102
RTVSPost2010Prop38
140
0.0
102
RTVSPost2010PropOp38
 70
     0
102
RTVSPost2010Prop39
140
1.0
102
RTVSPost2010PropOp39
 70
     0
102
RTVSPost2010Prop40
 90
        0
102
RTVSPost2010PropOp40
 70
     0
102
RTVSPost2010Prop41ColorIndex
 90
       18
102
RTVSPost2010Prop41ColorRGB
 90
        0
102
RTVSPost2010PropOp41
 70
     0
102
RTVSPost2010Prop42
 90
       50
102
RTVSPost2010PropOp42
 70
     0
102
RTVSPost2010Prop43
 90
        3
102
RTVSPost2010PropOp43
 70
     0
102
RTVSPost2010Prop44ColorIndex
 90
        5
102
RTVSPost2010Prop44ColorRGB
 90
      255
102
RTVSPost2010PropOp44
 70
     0
102
RTVSPost2010Prop45
280
     0
102
RTVSPost2010PropOp45
 70
     1
102
RTVSPost2010Prop46
 90
       50
102
RTVSPost2010PropOp46
 70
     0
102
RTVSPost2010Prop47
 90
       50
102
RTVSPost2010PropOp47
 70
     0
102
RTVSPost2010Prop48
 90
       50
102
RTVSPost2010PropOp48
 70
     0
102
RTVSPost2010Prop49
280
     0
102
RTVSPost2010PropOp49
 70
     1
102
RTVSPost2010Prop50
 90
       50
102
RTVSPost2010PropOp50
 70
     0
102
RTVSPost2010Prop51ColorIndex
 90
      256
102
RTVSPost2010Prop51ColorRGB
 90
-16777216
102
RTVSPost2010PropOp51
 70
     0
102
RTVSPost2010Prop52
140
1.0
102
RTVSPost2010PropOp52
 70
     0
102
RTVSPost2010Prop53
 90
        2
102
RTVSPost2010PropOp53
 70
     0
102
RTVSPost2010Prop54
  1
strokes_ogs.tif
102
RTVSPost2010PropOp54
 70
     0
102
RTVSPost2010Prop55
280
     0
102
RTVSPost2010PropOp55
 70
     1
102
RTVSPost2010Prop56
140
1.0
102
RTVSPost2010PropOp56
 70
     0
102
RTVSPost2010Prop57
140
1.0
102
RTVSPost2010PropOp57
 70
     0
102
RTVSPropertyOp0
 70
     0
102
RTVSPropertyOp1
 70
     0
102
RTVSPropertyOp2
 70
     0
102
RTVSPropertyOp3
 70
     0
102
RTVSPropertyOp4
 70
     0
102
RTVSPropertyOp5
 70
     0
102
RTVSPropertyOp6
 70
     0
102
RTVSPropertyOp7
 70
     0
102
RTVSPropertyOp8
 70
     0
102
RTVSPropertyOp9
 70
     0
102
RTVSPropertyOp10
 70
     0
102
RTVSPropertyOp11
 70
     0
102
RTVSPropertyOp12
 70
     0
102
RTVSPropertyOp13
 70
     0
102
RTVSPropertyOp14
 70
     2
102
RTVSPropertyOp15
 70
     0
102
RTVSPropertyOp16
 70
     0
102
RTVSPropertyOp17
 70
     0
102
RTVSPropertyOp18
 70
     0
102
RTVSPropertyOp19
 70
     0
102
RTVSPropertyOp20
 70
     0
102
RTVSPropertyOp21
 70
     0
102
RTVSPropertyOp22
 70
     0
102
RTVSPropertyOp23
 70
     0
102
RTVSPropertyOp24
 70
     0
102
RTVSPropertyOp25
 70
     0
102
RTVSPropertyOp26
 70
     0
102
RTVSPropertyOp27
 70
     0
102
RTVSPropertyOp28
 70
     1
102
RTVSPropertyOp29
 70
     1
102
RTVSPropertyOp30
 70
     1
102
RTVSPropertyOp31
 70
     1
102
RTVSPropertyOp32
 70
     1
102
RTVSPropertyOp33
 70
     1
102
RTVSPropertyOp34
 70
     1
102
RTVSPropertyOp35
 70
     1
102
RTVSPropertyOp36
 70
     1
102
RTVSPropertyOp37
 70
     0
102
RTVSPropertyOp38
 70
     0
102
RTVSPropertyOp39
 70
     0
102
RTVSPropertyOp40
 70
     0
102
RTVSPropertyOp41
 70
     0
102
RTVSPropertyOp42
 70
     0
102
RTVSPropertyOp43
 70
     0
102
RTVSPropertyOp44
 70
     0
102
RTVSPropertyOp45
 70
     1
102
RTVSPropertyOp46
 70
     0
102
RTVSPropertyOp47
 70
     0
102
RTVSPropertyOp48
 70
     0
102
RTVSPropertyOp49
 70
     1
102
RTVSPropertyOp50
 70
     0
102
RTVSPropertyOp51
 70
     0
102
RTVSPropertyOp52
 70
     0
102
RTVSPropertyOp53
 70
     0
102
RTVSPropertyOp54
 70
     0
102
RTVSPropertyOp55
 70
     1
102
RTVSPropertyOp56
 70
     0
102
RTVSPropertyOp57
 70
     0
102
RTVSPropertyOp58
 70
     0
102
RTVSPropertyOp59
 70
     0
102
RTVSPropertyOp60
 70
     0
102
RTVSPropertyOp61
 70
     0
102
RTVSPropertyOp62
 70
     0
  0
XRECORD
  5
1066
102
{ACAD_REACTORS
330
1065
102
}
330
1065
100
AcDbXrecord
280
     1
102
RTVSPost2010Prop28
280
     0
102
RTVSPost2010PropOp28
 70
     1
102
RTVSPost2010Prop29
280
     1
102
RTVSPost2010PropOp29
 70
     1
102
RTVSPost2010Prop30
280
     1
102
RTVSPost2010PropOp30
 70
     1
102
RTVSPost2010Prop31
280
     0
102
RTVSPost2010PropOp31
 70
     1
102
RTVSPost2010Prop32
280
     0
102
RTVSPost2010PropOp32
 70
     1
102
RTVSPost2010Prop33
280
     0
102
RTVSPost2010PropOp33
 70
     1
102
RTVSPost2010Prop34
280
     0
102
RTVSPost2010PropOp34
 70
     1
102
RTVSPost2010Prop35
280
     0
102
RTVSPost2010PropOp35
 70
     1
102
RTVSPost2010Prop36
280
     0
102
RTVSPost2010PropOp36
 70
     1
102
RTVSPost2010Prop37
 90
       50
102
RTVSPost2010PropOp37
 70
     1
102
RTVSPost2010Prop38
140
0.0
102
RTVSPost2010PropOp38
 70
     1
102
RTVSPost2010Prop39
140
1.0
102
RTVSPost2010PropOp39
 70
     1
102
RTVSPost2010Prop40
 90
        0
102
RTVSPost2010PropOp40
 70
     1
102
RTVSPost2010Prop41ColorIndex
 90
       18
102
RTVSPost2010Prop41ColorRGB
 90
        0
102
RTVSPost2010PropOp41
 70
     1
102
RTVSPost2010Prop42
 90
       50
102
RTVSPost2010PropOp42
 70
     1
102
RTVSPost2010Prop43
 90
        3
102
RTVSPost2010PropOp43
 70
     1
102
RTVSPost2010Prop44ColorIndex
 90
        5
102
RTVSPost2010Prop44ColorRGB
 90
      255
102
RTVSPost2010PropOp44
 70
     1
102
RTVSPost2010Prop45
280
     0
102
RTVSPost2010PropOp45
 70
     1
102
RTVSPost2010Prop46
 90
       50
102
RTVSPost2010PropOp46
 70
     1
102
RTVSPost2010Prop47
 90
       50
102
RTVSPost2010PropOp47
 70
     1
102
RTVSPost2010Prop48
 90
       50
102
RTVSPost2010PropOp48
 70
     1
102
RTVSPost2010Prop49
280
     0
102
RTVSPost2010PropOp49
 70
     1
102
RTVSPost2010Prop50
 90
       50
102
RTVSPost2010PropOp50
 70
     1
102
RTVSPost2010Prop51ColorIndex
 90
      256
102
RTVSPost2010Prop51ColorRGB
 90
-16777216
102
RTVSPost2010PropOp51
 70
     0
102
RTVSPost2010Prop52
140
1.0
102
RTVSPost2010PropOp52
 70
     0
102
RTVSPost2010Prop53
 90
        2
102
RTVSPost2010PropOp53
 70
     1
102
RTVSPost2010Prop54
  1
strokes_ogs.tif
102
RTVSPost2010PropOp54
 70
     1
102
RTVSPost2010Prop55
280
     0
102
RTVSPost2010PropOp55
 70
     1
102
RTVSPost2010Prop56
140
1.0
102
RTVSPost2010PropOp56
 70
     1
102
RTVSPost2010Prop57
140
1.0
102
RTVSPost2010PropOp57
 70
     1
102
RTVSPropertyOp0
 70
     1
102
RTVSPropertyOp1
 70
     1
102
RTVSPropertyOp2
 70
     1
102
RTVSPropertyOp3
 70
     1
102
RTVSPropertyOp4
 70
     1
102
RTVSPropertyOp5
 70
     1
102
RTVSPropertyOp6
 70
     1
102
RTVSPropertyOp7
 70
     1
102
RTVSPropertyOp8
 70
     1
102
RTVSPropertyOp9
 70
     1
102
RTVSPropertyOp10
 70
     1
102
RTVSPropertyOp11
 70
     1
102
RTVSPropertyOp12
 70
     1
102
RTVSPropertyOp13
 70
     1
102
RTVSPropertyOp14
 70
     1
102
RTVSPropertyOp15
 70
     1
102
RTVSPropertyOp16
 70
     1
102
RTVSPropertyOp17
 70
     1
102
RTVSPropertyOp18
 70
     1
102
RTVSPropertyOp19
 70
     1
102
RTVSPropertyOp20
 70
     1
102
RTVSPropertyOp21
 70
     1
102
RTVSPropertyOp22
 70
     1
102
RTVSPropertyOp23
 70
     1
102
RTVSPropertyOp24
 70
     1
102
RTVSPropertyOp25
 70
     1
102
RTVSPropertyOp26
 70
     1
102
RTVSPropertyOp27
 70
     1
102
RTVSPropertyOp28
 70
     1
102
RTVSPropertyOp29
 70
     1
102
RTVSPropertyOp30
 70
     1
102
RTVSPropertyOp31
 70
     1
102
RTVSPropertyOp32
 70
     1
102
RTVSPropertyOp33
 70
     1
102
RTVSPropertyOp34
 70
     1
102
RTVSPropertyOp35
 70
     1
102
RTVSPropertyOp36
 70
     1
102
RTVSPropertyOp37
 70
     1
102
RTVSPropertyOp38
 70
     1
102
RTVSPropertyOp39
 70
     1
102
RTVSPropertyOp40
 70
     1
102
RTVSPropertyOp41
 70
     1
102
RTVSPropertyOp42
 70
     1
102
RTVSPropertyOp43
 70
     1
102
RTVSPropertyOp44
 70
     1
102
RTVSPropertyOp45
 70
     1
102
RTVSPropertyOp46
 70
     1
102
RTVSPropertyOp47
 70
     1
102
RTVSPropertyOp48
 70
     1
102
RTVSPropertyOp49
 70
     1
102
RTVSPropertyOp50
 70
     1
102
RTVSPropertyOp51
 70
     0
102
RTVSPropertyOp52
 70
     0
102
RTVSPropertyOp53
 70
     1
102
RTVSPropertyOp54
 70
     1
102
RTVSPropertyOp55
 70
     1
102
RTVSPropertyOp56
 70
     1
102
RTVSPropertyOp57
 70
     1
102
RTVSPropertyOp58
 70
     1
102
RTVSPropertyOp59
 70
     1
102
RTVSPropertyOp60
 70
     1
102
RTVSPropertyOp61
 70
     1
102
RTVSPropertyOp62
 70
     1
  0
XRECORD
  5
1078
102
{ACAD_REACTORS
330
1077
102
}
330
1077
100
AcDbXrecord
280
     1
102
RTVSPost2010Prop28
280
     0
102
RTVSPost2010PropOp28
 70
     1
102
RTVSPost2010Prop29
280
     1
102
RTVSPost2010PropOp29
 70
     1
102
RTVSPost2010Prop30
280
     1
102
RTVSPost2010PropOp30
 70
     1
102
RTVSPost2010Prop31
280
     0
102
RTVSPost2010PropOp31
 70
     1
102
RTVSPost2010Prop32
280
     0
102
RTVSPost2010PropOp32
 70
     1
102
RTVSPost2010Prop33
280
     0
102
RTVSPost2010PropOp33
 70
     1
102
RTVSPost2010Prop34
280
     0
102
RTVSPost2010PropOp34
 70
     1
102
RTVSPost2010Prop35
280
     0
102
RTVSPost2010PropOp35
 70
     1
102
RTVSPost2010Prop36
280
     0
102
RTVSPost2010PropOp36
 70
     1
102
RTVSPost2010Prop37
 90
       50
102
RTVSPost2010PropOp37
 70
     0
102
RTVSPost2010Prop38
140
0.0
102
RTVSPost2010PropOp38
 70
     0
102
RTVSPost2010Prop39
140
1.0
102
RTVSPost2010PropOp39
 70
     0
102
RTVSPost2010Prop40
 90
        0
102
RTVSPost2010PropOp40
 70
     0
102
RTVSPost2010Prop41ColorIndex
 90
       18
102
RTVSPost2010Prop41ColorRGB
 90
        0
102
RTVSPost2010PropOp41
 70
     0
102
RTVSPost2010Prop42
 90
       50
102
RTVSPost2010PropOp42
 70
     0
102
RTVSPost2010Prop43
 90
        3
102
RTVSPost2010PropOp43
 70
     0
102
RTVSPost2010Prop44ColorIndex
 90
        5
102
RTVSPost2010Prop44ColorRGB
 90
      255
102
RTVSPost2010PropOp44
 70
     0
102
RTVSPost2010Prop45
280
     0
102
RTVSPost2010PropOp45
 70
     1
102
RTVSPost2010Prop46
 90
       50
102
RTVSPost2010PropOp46
 70
     0
102
RTVSPost2010Prop47
 90
       50
102
RTVSPost2010PropOp47
 70
     0
102
RTVSPost2010Prop48
 90
       50
102
RTVSPost2010PropOp48
 70
     0
102
RTVSPost2010Prop49
280
     0
102
RTVSPost2010PropOp49
 70
     1
102
RTVSPost2010Prop50
 90
       50
102
RTVSPost2010PropOp50
 70
     0
102
RTVSPost2010Prop51ColorIndex
 90
      256
102
RTVSPost2010Prop51ColorRGB
 90
-16777216
102
RTVSPost2010PropOp51
 70
     0
102
RTVSPost2010Prop52
140
1.0
102
RTVSPost2010PropOp52
 70
     0
102
RTVSPost2010Prop53
 90
        2
102
RTVSPost2010PropOp53
 70
     0
102
RTVSPost2010Prop54
  1
strokes_ogs.tif
102
RTVSPost2010PropOp54
 70
     0
102
RTVSPost2010Prop55
280
     0
102
RTVSPost2010PropOp55
 70
     1
102
RTVSPost2010Prop56
140
1.0
102
RTVSPost2010PropOp56
 70
     0
102
RTVSPost2010Prop57
140
1.0
102
RTVSPost2010PropOp57
 70
     0
102
RTVSPropertyOp0
 70
     0
102
RTVSPropertyOp1
 70
     0
102
RTVSPropertyOp2
 70
     0
102
RTVSPropertyOp3
 70
     0
102
RTVSPropertyOp4
 70
     0
102
RTVSPropertyOp5
 70
     0
102
RTVSPropertyOp6
 70
     0
102
RTVSPropertyOp7
 70
     0
102
RTVSPropertyOp8
 70
     0
102
RTVSPropertyOp9
 70
     0
102
RTVSPropertyOp10
 70
     0
102
RTVSPropertyOp11
 70
     0
102
RTVSPropertyOp12
 70
     0
102
RTVSPropertyOp13
 70
     0
102
RTVSPropertyOp14
 70
     2
102
RTVSPropertyOp15
 70
     0
102
RTVSPropertyOp16
 70
     0
102
RTVSPropertyOp17
 70
     0
102
RTVSPropertyOp18
 70
     0
102
RTVSPropertyOp19
 70
     0
102
RTVSPropertyOp20
 70
     0
102
RTVSPropertyOp21
 70
     0
102
RTVSPropertyOp22
 70
     0
102
RTVSPropertyOp23
 70
     0
102
RTVSPropertyOp24
 70
     0
102
RTVSPropertyOp25
 70
     0
102
RTVSPropertyOp26
 70
     0
102
RTVSPropertyOp27
 70
     0
102
RTVSPropertyOp28
 70
     1
102
RTVSPropertyOp29
 70
     1
102
RTVSPropertyOp30
 70
     1
102
RTVSPropertyOp31
 70
     1
102
RTVSPropertyOp32
 70
     1
102
RTVSPropertyOp33
 70
     1
102
RTVSPropertyOp34
 70
     1
102
RTVSPropertyOp35
 70
     1
102
RTVSPropertyOp36
 70
     1
102
RTVSPropertyOp37
 70
     0
102
RTVSPropertyOp38
 70
     0
102
RTVSPropertyOp39
 70
     0
102
RTVSPropertyOp40
 70
     0
102
RTVSPropertyOp41
 70
     0
102
RTVSPropertyOp42
 70
     0
102
RTVSPropertyOp43
 70
     0
102
RTVSPropertyOp44
 70
     0
102
RTVSPropertyOp45
 70
     1
102
RTVSPropertyOp46
 70
     0
102
RTVSPropertyOp47
 70
     0
102
RTVSPropertyOp48
 70
     0
102
RTVSPropertyOp49
 70
     1
102
RTVSPropertyOp50
 70
     0
102
RTVSPropertyOp51
 70
     0
102
RTVSPropertyOp52
 70
     0
102
RTVSPropertyOp53
 70
     0
102
RTVSPropertyOp54
 70
     0
102
RTVSPropertyOp55
 70
     1
102
RTVSPropertyOp56
 70
     0
102
RTVSPropertyOp57
 70
     0
102
RTVSPropertyOp58
 70
     0
102
RTVSPropertyOp59
 70
     0
102
RTVSPropertyOp60
 70
     0
102
RTVSPropertyOp61
 70
     0
102
RTVSPropertyOp62
 70
     0
  0
XRECORD
  5
105E
102
{ACAD_REACTORS
330
105D
102
}
330
105D
100
AcDbXrecord
280
     1
102
RTVSPost2010Prop28
280
     0
102
RTVSPost2010PropOp28
 70
     1
102
RTVSPost2010Prop29
280
     1
102
RTVSPost2010PropOp29
 70
     1
102
RTVSPost2010Prop30
280
     1
102
RTVSPost2010PropOp30
 70
     1
102
RTVSPost2010Prop31
280
     0
102
RTVSPost2010PropOp31
 70
     1
102
RTVSPost2010Prop32
280
     0
102
RTVSPost2010PropOp32
 70
     1
102
RTVSPost2010Prop33
280
     0
102
RTVSPost2010PropOp33
 70
     1
102
RTVSPost2010Prop34
280
     0
102
RTVSPost2010PropOp34
 70
     1
102
RTVSPost2010Prop35
280
     0
102
RTVSPost2010PropOp35
 70
     1
102
RTVSPost2010Prop36
280
     0
102
RTVSPost2010PropOp36
 70
     1
102
RTVSPost2010Prop37
 90
       50
102
RTVSPost2010PropOp37
 70
     1
102
RTVSPost2010Prop38
140
0.0
102
RTVSPost2010PropOp38
 70
     1
102
RTVSPost2010Prop39
140
1.0
102
RTVSPost2010PropOp39
 70
     1
102
RTVSPost2010Prop40
 90
        0
102
RTVSPost2010PropOp40
 70
     1
102
RTVSPost2010Prop41ColorIndex
 90
       18
102
RTVSPost2010Prop41ColorRGB
 90
        0
102
RTVSPost2010PropOp41
 70
     1
102
RTVSPost2010Prop42
 90
       50
102
RTVSPost2010PropOp42
 70
     1
102
RTVSPost2010Prop43
 90
        3
102
RTVSPost2010PropOp43
 70
     1
102
RTVSPost2010Prop44ColorIndex
 90
        5
102
RTVSPost2010Prop44ColorRGB
 90
      255
102
RTVSPost2010PropOp44
 70
     1
102
RTVSPost2010Prop45
280
     0
102
RTVSPost2010PropOp45
 70
     1
102
RTVSPost2010Prop46
 90
       50
102
RTVSPost2010PropOp46
 70
     1
102
RTVSPost2010Prop47
 90
       50
102
RTVSPost2010PropOp47
 70
     1
102
RTVSPost2010Prop48
 90
       50
102
RTVSPost2010PropOp48
 70
     1
102
RTVSPost2010Prop49
280
     0
102
RTVSPost2010PropOp49
 70
     1
102
RTVSPost2010Prop50
 90
       50
102
RTVSPost2010PropOp50
 70
     1
102
RTVSPost2010Prop51ColorIndex
 90
      256
102
RTVSPost2010Prop51ColorRGB
 90
-16777216
102
RTVSPost2010PropOp51
 70
     0
102
RTVSPost2010Prop52
140
1.0
102
RTVSPost2010PropOp52
 70
     0
102
RTVSPost2010Prop53
 90
        2
102
RTVSPost2010PropOp53
 70
     1
102
RTVSPost2010Prop54
  1
strokes_ogs.tif
102
RTVSPost2010PropOp54
 70
     1
102
RTVSPost2010Prop55
280
     0
102
RTVSPost2010PropOp55
 70
     1
102
RTVSPost2010Prop56
140
1.0
102
RTVSPost2010PropOp56
 70
     1
102
RTVSPost2010Prop57
140
1.0
102
RTVSPost2010PropOp57
 70
     1
102
RTVSPropertyOp0
 70
     1
102
RTVSPropertyOp1
 70
     1
102
RTVSPropertyOp2
 70
     1
102
RTVSPropertyOp3
 70
     1
102
RTVSPropertyOp4
 70
     1
102
RTVSPropertyOp5
 70
     1
102
RTVSPropertyOp6
 70
     1
102
RTVSPropertyOp7
 70
     1
102
RTVSPropertyOp8
 70
     1
102
RTVSPropertyOp9
 70
     1
102
RTVSPropertyOp10
 70
     1
102
RTVSPropertyOp11
 70
     1
102
RTVSPropertyOp12
 70
     1
102
RTVSPropertyOp13
 70
     1
102
RTVSPropertyOp14
 70
     1
102
RTVSPropertyOp15
 70
     1
102
RTVSPropertyOp16
 70
     1
102
RTVSPropertyOp17
 70
     1
102
RTVSPropertyOp18
 70
     1
102
RTVSPropertyOp19
 70
     1
102
RTVSPropertyOp20
 70
     1
102
RTVSPropertyOp21
 70
     1
102
RTVSPropertyOp22
 70
     1
102
RTVSPropertyOp23
 70
     1
102
RTVSPropertyOp24
 70
     1
102
RTVSPropertyOp25
 70
     1
102
RTVSPropertyOp26
 70
     1
102
RTVSPropertyOp27
 70
     1
102
RTVSPropertyOp28
 70
     1
102
RTVSPropertyOp29
 70
     1
102
RTVSPropertyOp30
 70
     1
102
RTVSPropertyOp31
 70
     1
102
RTVSPropertyOp32
 70
     1
102
RTVSPropertyOp33
 70
     1
102
RTVSPropertyOp34
 70
     1
102
RTVSPropertyOp35
 70
     1
102
RTVSPropertyOp36
 70
     1
102
RTVSPropertyOp37
 70
     1
102
RTVSPropertyOp38
 70
     1
102
RTVSPropertyOp39
 70
     1
102
RTVSPropertyOp40
 70
     1
102
RTVSPropertyOp41
 70
     1
102
RTVSPropertyOp42
 70
     1
102
RTVSPropertyOp43
 70
     1
102
RTVSPropertyOp44
 70
     1
102
RTVSPropertyOp45
 70
     1
102
RTVSPropertyOp46
 70
     1
102
RTVSPropertyOp47
 70
     1
102
RTVSPropertyOp48
 70
     1
102
RTVSPropertyOp49
 70
     1
102
RTVSPropertyOp50
 70
     1
102
RTVSPropertyOp51
 70
     0
102
RTVSPropertyOp52
 70
     0
102
RTVSPropertyOp53
 70
     1
102
RTVSPropertyOp54
 70
     1
102
RTVSPropertyOp55
 70
     1
102
RTVSPropertyOp56
 70
     1
102
RTVSPropertyOp57
 70
     1
102
RTVSPropertyOp58
 70
     1
102
RTVSPropertyOp59
 70
     1
102
RTVSPropertyOp60
 70
     1
102
RTVSPropertyOp61
 70
     1
102
RTVSPropertyOp62
 70
     1
  0
XRECORD
  5
1074
102
{ACAD_REACTORS
330
1073
102
}
330
1073
100
AcDbXrecord
280
     1
102
RTVSPost2010Prop28
280
     0
102
RTVSPost2010PropOp28
 70
     1
102
RTVSPost2010Prop29
280
     1
102
RTVSPost2010PropOp29
 70
     1
102
RTVSPost2010Prop30
280
     1
102
RTVSPost2010PropOp30
 70
     1
102
RTVSPost2010Prop31
280
     0
102
RTVSPost2010PropOp31
 70
     1
102
RTVSPost2010Prop32
280
     0
102
RTVSPost2010PropOp32
 70
     1
102
RTVSPost2010Prop33
280
     0
102
RTVSPost2010PropOp33
 70
     1
102
RTVSPost2010Prop34
280
     0
102
RTVSPost2010PropOp34
 70
     1
102
RTVSPost2010Prop35
280
     0
102
RTVSPost2010PropOp35
 70
     1
102
RTVSPost2010Prop36
280
     0
102
RTVSPost2010PropOp36
 70
     1
102
RTVSPost2010Prop37
 90
       50
102
RTVSPost2010PropOp37
 70
     1
102
RTVSPost2010Prop38
140
0.0
102
RTVSPost2010PropOp38
 70
     1
102
RTVSPost2010Prop39
140
1.0
102
RTVSPost2010PropOp39
 70
     1
102
RTVSPost2010Prop40
 90
        0
102
RTVSPost2010PropOp40
 70
     1
102
RTVSPost2010Prop41ColorIndex
 90
       18
102
RTVSPost2010Prop41ColorRGB
 90
        0
102
RTVSPost2010PropOp41
 70
     1
102
RTVSPost2010Prop42
 90
       50
102
RTVSPost2010PropOp42
 70
     1
102
RTVSPost2010Prop43
 90
        3
102
RTVSPost2010PropOp43
 70
     1
102
RTVSPost2010Prop44ColorIndex
 90
        5
102
RTVSPost2010Prop44ColorRGB
 90
      255
102
RTVSPost2010PropOp44
 70
     1
102
RTVSPost2010Prop45
280
     0
102
RTVSPost2010PropOp45
 70
     1
102
RTVSPost2010Prop46
 90
       50
102
RTVSPost2010PropOp46
 70
     1
102
RTVSPost2010Prop47
 90
       50
102
RTVSPost2010PropOp47
 70
     1
102
RTVSPost2010Prop48
 90
       50
102
RTVSPost2010PropOp48
 70
     1
102
RTVSPost2010Prop49
280
     0
102
RTVSPost2010PropOp49
 70
     1
102
RTVSPost2010Prop50
 90
       50
102
RTVSPost2010PropOp50
 70
     1
102
RTVSPost2010Prop51ColorIndex
 90
      256
102
RTVSPost2010Prop51ColorRGB
 90
-16777216
102
RTVSPost2010PropOp51
 70
     0
102
RTVSPost2010Prop52
140
1.0
102
RTVSPost2010PropOp52
 70
     0
102
RTVSPost2010Prop53
 90
        2
102
RTVSPost2010PropOp53
 70
     1
102
RTVSPost2010Prop54
  1
strokes_ogs.tif
102
RTVSPost2010PropOp54
 70
     1
102
RTVSPost2010Prop55
280
     0
102
RTVSPost2010PropOp55
 70
     1
102
RTVSPost2010Prop56
140
1.0
102
RTVSPost2010PropOp56
 70
     1
102
RTVSPost2010Prop57
140
1.0
102
RTVSPost2010PropOp57
 70
     1
102
RTVSPropertyOp0
 70
     1
102
RTVSPropertyOp1
 70
     1
102
RTVSPropertyOp2
 70
     1
102
RTVSPropertyOp3
 70
     1
102
RTVSPropertyOp4
 70
     1
102
RTVSPropertyOp5
 70
     1
102
RTVSPropertyOp6
 70
     1
102
RTVSPropertyOp7
 70
     1
102
RTVSPropertyOp8
 70
     1
102
RTVSPropertyOp9
 70
     1
102
RTVSPropertyOp10
 70
     1
102
RTVSPropertyOp11
 70
     1
102
RTVSPropertyOp12
 70
     1
102
RTVSPropertyOp13
 70
     1
102
RTVSPropertyOp14
 70
     1
102
RTVSPropertyOp15
 70
     1
102
RTVSPropertyOp16
 70
     1
102
RTVSPropertyOp17
 70
     1
102
RTVSPropertyOp18
 70
     1
102
RTVSPropertyOp19
 70
     1
102
RTVSPropertyOp20
 70
     1
102
RTVSPropertyOp21
 70
     1
102
RTVSPropertyOp22
 70
     1
102
RTVSPropertyOp23
 70
     1
102
RTVSPropertyOp24
 70
     1
102
RTVSPropertyOp25
 70
     1
102
RTVSPropertyOp26
 70
     1
102
RTVSPropertyOp27
 70
     1
102
RTVSPropertyOp28
 70
     1
102
RTVSPropertyOp29
 70
     1
102
RTVSPropertyOp30
 70
     1
102
RTVSPropertyOp31
 70
     1
102
RTVSPropertyOp32
 70
     1
102
RTVSPropertyOp33
 70
     1
102
RTVSPropertyOp34
 70
     1
102
RTVSPropertyOp35
 70
     1
102
RTVSPropertyOp36
 70
     1
102
RTVSPropertyOp37
 70
     1
102
RTVSPropertyOp38
 70
     1
102
RTVSPropertyOp39
 70
     1
102
RTVSPropertyOp40
 70
     1
102
RTVSPropertyOp41
 70
     1
102
RTVSPropertyOp42
 70
     1
102
RTVSPropertyOp43
 70
     1
102
RTVSPropertyOp44
 70
     1
102
RTVSPropertyOp45
 70
     1
102
RTVSPropertyOp46
 70
     1
102
RTVSPropertyOp47
 70
     1
102
RTVSPropertyOp48
 70
     1
102
RTVSPropertyOp49
 70
     1
102
RTVSPropertyOp50
 70
     1
102
RTVSPropertyOp51
 70
     0
102
RTVSPropertyOp52
 70
     0
102
RTVSPropertyOp53
 70
     1
102
RTVSPropertyOp54
 70
     1
102
RTVSPropertyOp55
 70
     1
102
RTVSPropertyOp56
 70
     1
102
RTVSPropertyOp57
 70
     1
102
RTVSPropertyOp58
 70
     1
102
RTVSPropertyOp59
 70
     1
102
RTVSPropertyOp60
 70
     1
102
RTVSPropertyOp61
 70
     1
102
RTVSPropertyOp62
 70
     1
  0
XRECORD
  5
1072
102
{ACAD_REACTORS
330
1071
102
}
330
1071
100
AcDbXrecord
280
     1
102
RTVSPost2010Prop28
280
     0
102
RTVSPost2010PropOp28
 70
     1
102
RTVSPost2010Prop29
280
     1
102
RTVSPost2010PropOp29
 70
     1
102
RTVSPost2010Prop30
280
     1
102
RTVSPost2010PropOp30
 70
     1
102
RTVSPost2010Prop31
280
     0
102
RTVSPost2010PropOp31
 70
     1
102
RTVSPost2010Prop32
280
     0
102
RTVSPost2010PropOp32
 70
     1
102
RTVSPost2010Prop33
280
     0
102
RTVSPost2010PropOp33
 70
     1
102
RTVSPost2010Prop34
280
     0
102
RTVSPost2010PropOp34
 70
     1
102
RTVSPost2010Prop35
280
     0
102
RTVSPost2010PropOp35
 70
     1
102
RTVSPost2010Prop36
280
     0
102
RTVSPost2010PropOp36
 70
     1
102
RTVSPost2010Prop37
 90
       50
102
RTVSPost2010PropOp37
 70
     1
102
RTVSPost2010Prop38
140
0.0
102
RTVSPost2010PropOp38
 70
     1
102
RTVSPost2010Prop39
140
1.0
102
RTVSPost2010PropOp39
 70
     1
102
RTVSPost2010Prop40
 90
        0
102
RTVSPost2010PropOp40
 70
     1
102
RTVSPost2010Prop41ColorIndex
 90
       18
102
RTVSPost2010Prop41ColorRGB
 90
        0
102
RTVSPost2010PropOp41
 70
     1
102
RTVSPost2010Prop42
 90
       50
102
RTVSPost2010PropOp42
 70
     1
102
RTVSPost2010Prop43
 90
        3
102
RTVSPost2010PropOp43
 70
     1
102
RTVSPost2010Prop44ColorIndex
 90
        5
102
RTVSPost2010Prop44ColorRGB
 90
      255
102
RTVSPost2010PropOp44
 70
     1
102
RTVSPost2010Prop45
280
     0
102
RTVSPost2010PropOp45
 70
     1
102
RTVSPost2010Prop46
 90
       50
102
RTVSPost2010PropOp46
 70
     1
102
RTVSPost2010Prop47
 90
       50
102
RTVSPost2010PropOp47
 70
     1
102
RTVSPost2010Prop48
 90
       50
102
RTVSPost2010PropOp48
 70
     1
102
RTVSPost2010Prop49
280
     0
102
RTVSPost2010PropOp49
 70
     1
102
RTVSPost2010Prop50
 90
       50
102
RTVSPost2010PropOp50
 70
     1
102
RTVSPost2010Prop51ColorIndex
 90
      256
102
RTVSPost2010Prop51ColorRGB
 90
-16777216
102
RTVSPost2010PropOp51
 70
     0
102
RTVSPost2010Prop52
140
1.0
102
RTVSPost2010PropOp52
 70
     0
102
RTVSPost2010Prop53
 90
        2
102
RTVSPost2010PropOp53
 70
     1
102
RTVSPost2010Prop54
  1
strokes_ogs.tif
102
RTVSPost2010PropOp54
 70
     1
102
RTVSPost2010Prop55
280
     0
102
RTVSPost2010PropOp55
 70
     1
102
RTVSPost2010Prop56
140
1.0
102
RTVSPost2010PropOp56
 70
     1
102
RTVSPost2010Prop57
140
1.0
102
RTVSPost2010PropOp57
 70
     1
102
RTVSPropertyOp0
 70
     1
102
RTVSPropertyOp1
 70
     1
102
RTVSPropertyOp2
 70
     1
102
RTVSPropertyOp3
 70
     1
102
RTVSPropertyOp4
 70
     1
102
RTVSPropertyOp5
 70
     1
102
RTVSPropertyOp6
 70
     1
102
RTVSPropertyOp7
 70
     1
102
RTVSPropertyOp8
 70
     1
102
RTVSPropertyOp9
 70
     1
102
RTVSPropertyOp10
 70
     1
102
RTVSPropertyOp11
 70
     1
102
RTVSPropertyOp12
 70
     1
102
RTVSPropertyOp13
 70
     1
102
RTVSPropertyOp14
 70
     1
102
RTVSPropertyOp15
 70
     1
102
RTVSPropertyOp16
 70
     1
102
RTVSPropertyOp17
 70
     1
102
RTVSPropertyOp18
 70
     1
102
RTVSPropertyOp19
 70
     1
102
RTVSPropertyOp20
 70
     1
102
RTVSPropertyOp21
 70
     1
102
RTVSPropertyOp22
 70
     1
102
RTVSPropertyOp23
 70
     1
102
RTVSPropertyOp24
 70
     1
102
RTVSPropertyOp25
 70
     1
102
RTVSPropertyOp26
 70
     1
102
RTVSPropertyOp27
 70
     1
102
RTVSPropertyOp28
 70
     1
102
RTVSPropertyOp29
 70
     1
102
RTVSPropertyOp30
 70
     1
102
RTVSPropertyOp31
 70
     1
102
RTVSPropertyOp32
 70
     1
102
RTVSPropertyOp33
 70
     1
102
RTVSPropertyOp34
 70
     1
102
RTVSPropertyOp35
 70
     1
102
RTVSPropertyOp36
 70
     1
102
RTVSPropertyOp37
 70
     1
102
RTVSPropertyOp38
 70
     1
102
RTVSPropertyOp39
 70
     1
102
RTVSPropertyOp40
 70
     1
102
RTVSPropertyOp41
 70
     1
102
RTVSPropertyOp42
 70
     1
102
RTVSPropertyOp43
 70
     1
102
RTVSPropertyOp44
 70
     1
102
RTVSPropertyOp45
 70
     1
102
RTVSPropertyOp46
 70
     1
102
RTVSPropertyOp47
 70
     1
102
RTVSPropertyOp48
 70
     1
102
RTVSPropertyOp49
 70
     1
102
RTVSPropertyOp50
 70
     1
102
RTVSPropertyOp51
 70
     0
102
RTVSPropertyOp52
 70
     0
102
RTVSPropertyOp53
 70
     1
102
RTVSPropertyOp54
 70
     1
102
RTVSPropertyOp55
 70
     1
102
RTVSPropertyOp56
 70
     1
102
RTVSPropertyOp57
 70
     1
102
RTVSPropertyOp58
 70
     1
102
RTVSPropertyOp59
 70
     1
102
RTVSPropertyOp60
 70
     1
102
RTVSPropertyOp61
 70
     1
102
RTVSPropertyOp62
 70
     1
  0
XRECORD
  5
106C
102
{ACAD_REACTORS
330
106B
102
}
330
106B
100
AcDbXrecord
280
     1
102
RTVSPost2010Prop28
280
     0
102
RTVSPost2010PropOp28
 70
     1
102
RTVSPost2010Prop29
280
     1
102
RTVSPost2010PropOp29
 70
     1
102
RTVSPost2010Prop30
280
     1
102
RTVSPost2010PropOp30
 70
     1
102
RTVSPost2010Prop31
280
     0
102
RTVSPost2010PropOp31
 70
     1
102
RTVSPost2010Prop32
280
     0
102
RTVSPost2010PropOp32
 70
     1
102
RTVSPost2010Prop33
280
     0
102
RTVSPost2010PropOp33
 70
     1
102
RTVSPost2010Prop34
280
     0
102
RTVSPost2010PropOp34
 70
     1
102
RTVSPost2010Prop35
280
     0
102
RTVSPost2010PropOp35
 70
     1
102
RTVSPost2010Prop36
280
     0
102
RTVSPost2010PropOp36
 70
     1
102
RTVSPost2010Prop37
 90
       50
102
RTVSPost2010PropOp37
 70
     1
102
RTVSPost2010Prop38
140
0.0
102
RTVSPost2010PropOp38
 70
     1
102
RTVSPost2010Prop39
140
1.0
102
RTVSPost2010PropOp39
 70
     1
102
RTVSPost2010Prop40
 90
        0
102
RTVSPost2010PropOp40
 70
     1
102
RTVSPost2010Prop41ColorIndex
 90
       18
102
RTVSPost2010Prop41ColorRGB
 90
        0
102
RTVSPost2010PropOp41
 70
     1
102
RTVSPost2010Prop42
 90
       50
102
RTVSPost2010PropOp42
 70
     1
102
RTVSPost2010Prop43
 90
        3
102
RTVSPost2010PropOp43
 70
     1
102
RTVSPost2010Prop44ColorIndex
 90
        5
102
RTVSPost2010Prop44ColorRGB
 90
      255
102
RTVSPost2010PropOp44
 70
     1
102
RTVSPost2010Prop45
280
     0
102
RTVSPost2010PropOp45
 70
     1
102
RTVSPost2010Prop46
 90
       50
102
RTVSPost2010PropOp46
 70
     1
102
RTVSPost2010Prop47
 90
       50
102
RTVSPost2010PropOp47
 70
     1
102
RTVSPost2010Prop48
 90
       50
102
RTVSPost2010PropOp48
 70
     1
102
RTVSPost2010Prop49
280
     0
102
RTVSPost2010PropOp49
 70
     1
102
RTVSPost2010Prop50
 90
       50
102
RTVSPost2010PropOp50
 70
     1
102
RTVSPost2010Prop51ColorIndex
 90
      256
102
RTVSPost2010Prop51ColorRGB
 90
-16777216
102
RTVSPost2010PropOp51
 70
     0
102
RTVSPost2010Prop52
140
1.0
102
RTVSPost2010PropOp52
 70
     0
102
RTVSPost2010Prop53
 90
        2
102
RTVSPost2010PropOp53
 70
     1
102
RTVSPost2010Prop54
  1
strokes_ogs.tif
102
RTVSPost2010PropOp54
 70
     1
102
RTVSPost2010Prop55
280
     0
102
RTVSPost2010PropOp55
 70
     1
102
RTVSPost2010Prop56
140
1.0
102
RTVSPost2010PropOp56
 70
     1
102
RTVSPost2010Prop57
140
1.0
102
RTVSPost2010PropOp57
 70
     1
102
RTVSPropertyOp0
 70
     1
102
RTVSPropertyOp1
 70
     1
102
RTVSPropertyOp2
 70
     1
102
RTVSPropertyOp3
 70
     1
102
RTVSPropertyOp4
 70
     1
102
RTVSPropertyOp5
 70
     1
102
RTVSPropertyOp6
 70
     1
102
RTVSPropertyOp7
 70
     1
102
RTVSPropertyOp8
 70
     1
102
RTVSPropertyOp9
 70
     1
102
RTVSPropertyOp10
 70
     1
102
RTVSPropertyOp11
 70
     1
102
RTVSPropertyOp12
 70
     1
102
RTVSPropertyOp13
 70
     1
102
RTVSPropertyOp14
 70
     1
102
RTVSPropertyOp15
 70
     1
102
RTVSPropertyOp16
 70
     1
102
RTVSPropertyOp17
 70
     1
102
RTVSPropertyOp18
 70
     1
102
RTVSPropertyOp19
 70
     1
102
RTVSPropertyOp20
 70
     1
102
RTVSPropertyOp21
 70
     1
102
RTVSPropertyOp22
 70
     1
102
RTVSPropertyOp23
 70
     1
102
RTVSPropertyOp24
 70
     1
102
RTVSPropertyOp25
 70
     1
102
RTVSPropertyOp26
 70
     1
102
RTVSPropertyOp27
 70
     1
102
RTVSPropertyOp28
 70
     1
102
RTVSPropertyOp29
 70
     1
102
RTVSPropertyOp30
 70
     1
102
RTVSPropertyOp31
 70
     1
102
RTVSPropertyOp32
 70
     1
102
RTVSPropertyOp33
 70
     1
102
RTVSPropertyOp34
 70
     1
102
RTVSPropertyOp35
 70
     1
102
RTVSPropertyOp36
 70
     1
102
RTVSPropertyOp37
 70
     1
102
RTVSPropertyOp38
 70
     1
102
RTVSPropertyOp39
 70
     1
102
RTVSPropertyOp40
 70
     1
102
RTVSPropertyOp41
 70
     1
102
RTVSPropertyOp42
 70
     1
102
RTVSPropertyOp43
 70
     1
102
RTVSPropertyOp44
 70
     1
102
RTVSPropertyOp45
 70
     1
102
RTVSPropertyOp46
 70
     1
102
RTVSPropertyOp47
 70
     1
102
RTVSPropertyOp48
 70
     1
102
RTVSPropertyOp49
 70
     1
102
RTVSPropertyOp50
 70
     1
102
RTVSPropertyOp51
 70
     0
102
RTVSPropertyOp52
 70
     0
102
RTVSPropertyOp53
 70
     1
102
RTVSPropertyOp54
 70
     1
102
RTVSPropertyOp55
 70
     1
102
RTVSPropertyOp56
 70
     1
102
RTVSPropertyOp57
 70
     1
102
RTVSPropertyOp58
 70
     1
102
RTVSPropertyOp59
 70
     1
102
RTVSPropertyOp60
 70
     1
102
RTVSPropertyOp61
 70
     1
102
RTVSPropertyOp62
 70
     1
  0
XRECORD
  5
106E
102
{ACAD_REACTORS
330
106D
102
}
330
106D
100
AcDbXrecord
280
     1
102
RTVSPost2010Prop28
280
     0
102
RTVSPost2010PropOp28
 70
     1
102
RTVSPost2010Prop29
280
     1
102
RTVSPost2010PropOp29
 70
     1
102
RTVSPost2010Prop30
280
     1
102
RTVSPost2010PropOp30
 70
     1
102
RTVSPost2010Prop31
280
     0
102
RTVSPost2010PropOp31
 70
     1
102
RTVSPost2010Prop32
280
     0
102
RTVSPost2010PropOp32
 70
     1
102
RTVSPost2010Prop33
280
     0
102
RTVSPost2010PropOp33
 70
     1
102
RTVSPost2010Prop34
280
     0
102
RTVSPost2010PropOp34
 70
     1
102
RTVSPost2010Prop35
280
     0
102
RTVSPost2010PropOp35
 70
     1
102
RTVSPost2010Prop36
280
     0
102
RTVSPost2010PropOp36
 70
     1
102
RTVSPost2010Prop37
 90
       50
102
RTVSPost2010PropOp37
 70
     1
102
RTVSPost2010Prop38
140
0.0
102
RTVSPost2010PropOp38
 70
     1
102
RTVSPost2010Prop39
140
1.0
102
RTVSPost2010PropOp39
 70
     1
102
RTVSPost2010Prop40
 90
        0
102
RTVSPost2010PropOp40
 70
     1
102
RTVSPost2010Prop41ColorIndex
 90
       18
102
RTVSPost2010Prop41ColorRGB
 90
        0
102
RTVSPost2010PropOp41
 70
     1
102
RTVSPost2010Prop42
 90
       50
102
RTVSPost2010PropOp42
 70
     1
102
RTVSPost2010Prop43
 90
        3
102
RTVSPost2010PropOp43
 70
     1
102
RTVSPost2010Prop44ColorIndex
 90
        5
102
RTVSPost2010Prop44ColorRGB
 90
      255
102
RTVSPost2010PropOp44
 70
     1
102
RTVSPost2010Prop45
280
     0
102
RTVSPost2010PropOp45
 70
     1
102
RTVSPost2010Prop46
 90
       50
102
RTVSPost2010PropOp46
 70
     1
102
RTVSPost2010Prop47
 90
       50
102
RTVSPost2010PropOp47
 70
     1
102
RTVSPost2010Prop48
 90
       50
102
RTVSPost2010PropOp48
 70
     1
102
RTVSPost2010Prop49
280
     0
102
RTVSPost2010PropOp49
 70
     1
102
RTVSPost2010Prop50
 90
       50
102
RTVSPost2010PropOp50
 70
     1
102
RTVSPost2010Prop51ColorIndex
 90
      256
102
RTVSPost2010Prop51ColorRGB
 90
-16777216
102
RTVSPost2010PropOp51
 70
     0
102
RTVSPost2010Prop52
140
1.0
102
RTVSPost2010PropOp52
 70
     0
102
RTVSPost2010Prop53
 90
        2
102
RTVSPost2010PropOp53
 70
     1
102
RTVSPost2010Prop54
  1
strokes_ogs.tif
102
RTVSPost2010PropOp54
 70
     1
102
RTVSPost2010Prop55
280
     0
102
RTVSPost2010PropOp55
 70
     1
102
RTVSPost2010Prop56
140
1.0
102
RTVSPost2010PropOp56
 70
     1
102
RTVSPost2010Prop57
140
1.0
102
RTVSPost2010PropOp57
 70
     1
102
RTVSPropertyOp0
 70
     1
102
RTVSPropertyOp1
 70
     1
102
RTVSPropertyOp2
 70
     1
102
RTVSPropertyOp3
 70
     1
102
RTVSPropertyOp4
 70
     1
102
RTVSPropertyOp5
 70
     1
102
RTVSPropertyOp6
 70
     1
102
RTVSPropertyOp7
 70
     1
102
RTVSPropertyOp8
 70
     1
102
RTVSPropertyOp9
 70
     1
102
RTVSPropertyOp10
 70
     1
102
RTVSPropertyOp11
 70
     1
102
RTVSPropertyOp12
 70
     1
102
RTVSPropertyOp13
 70
     1
102
RTVSPropertyOp14
 70
     1
102
RTVSPropertyOp15
 70
     1
102
RTVSPropertyOp16
 70
     1
102
RTVSPropertyOp17
 70
     1
102
RTVSPropertyOp18
 70
     1
102
RTVSPropertyOp19
 70
     1
102
RTVSPropertyOp20
 70
     1
102
RTVSPropertyOp21
 70
     1
102
RTVSPropertyOp22
 70
     1
102
RTVSPropertyOp23
 70
     1
102
RTVSPropertyOp24
 70
     1
102
RTVSPropertyOp25
 70
     1
102
RTVSPropertyOp26
 70
     1
102
RTVSPropertyOp27
 70
     1
102
RTVSPropertyOp28
 70
     1
102
RTVSPropertyOp29
 70
     1
102
RTVSPropertyOp30
 70
     1
102
RTVSPropertyOp31
 70
     1
102
RTVSPropertyOp32
 70
     1
102
RTVSPropertyOp33
 70
     1
102
RTVSPropertyOp34
 70
     1
102
RTVSPropertyOp35
 70
     1
102
RTVSPropertyOp36
 70
     1
102
RTVSPropertyOp37
 70
     1
102
RTVSPropertyOp38
 70
     1
102
RTVSPropertyOp39
 70
     1
102
RTVSPropertyOp40
 70
     1
102
RTVSPropertyOp41
 70
     1
102
RTVSPropertyOp42
 70
     1
102
RTVSPropertyOp43
 70
     1
102
RTVSPropertyOp44
 70
     1
102
RTVSPropertyOp45
 70
     1
102
RTVSPropertyOp46
 70
     1
102
RTVSPropertyOp47
 70
     1
102
RTVSPropertyOp48
 70
     1
102
RTVSPropertyOp49
 70
     1
102
RTVSPropertyOp50
 70
     1
102
RTVSPropertyOp51
 70
     0
102
RTVSPropertyOp52
 70
     0
102
RTVSPropertyOp53
 70
     1
102
RTVSPropertyOp54
 70
     1
102
RTVSPropertyOp55
 70
     1
102
RTVSPropertyOp56
 70
     1
102
RTVSPropertyOp57
 70
     1
102
RTVSPropertyOp58
 70
     1
102
RTVSPropertyOp59
 70
     1
102
RTVSPropertyOp60
 70
     1
102
RTVSPropertyOp61
 70
     1
102
RTVSPropertyOp62
 70
     1
  0
XRECORD
  5
1064
102
{ACAD_REACTORS
330
1063
102
}
330
1063
100
AcDbXrecord
280
     1
102
RTVSPost2010Prop28
280
     0
102
RTVSPost2010PropOp28
 70
     1
102
RTVSPost2010Prop29
280
     1
102
RTVSPost2010PropOp29
 70
     1
102
RTVSPost2010Prop30
280
     1
102
RTVSPost2010PropOp30
 70
     1
102
RTVSPost2010Prop31
280
     0
102
RTVSPost2010PropOp31
 70
     1
102
RTVSPost2010Prop32
280
     0
102
RTVSPost2010PropOp32
 70
     1
102
RTVSPost2010Prop33
280
     0
102
RTVSPost2010PropOp33
 70
     1
102
RTVSPost2010Prop34
280
     0
102
RTVSPost2010PropOp34
 70
     1
102
RTVSPost2010Prop35
280
     0
102
RTVSPost2010PropOp35
 70
     1
102
RTVSPost2010Prop36
280
     0
102
RTVSPost2010PropOp36
 70
     1
102
RTVSPost2010Prop37
 90
       50
102
RTVSPost2010PropOp37
 70
     1
102
RTVSPost2010Prop38
140
0.0
102
RTVSPost2010PropOp38
 70
     1
102
RTVSPost2010Prop39
140
1.0
102
RTVSPost2010PropOp39
 70
     1
102
RTVSPost2010Prop40
 90
        0
102
RTVSPost2010PropOp40
 70
     1
102
RTVSPost2010Prop41ColorIndex
 90
       18
102
RTVSPost2010Prop41ColorRGB
 90
        0
102
RTVSPost2010PropOp41
 70
     1
102
RTVSPost2010Prop42
 90
       50
102
RTVSPost2010PropOp42
 70
     1
102
RTVSPost2010Prop43
 90
        3
102
RTVSPost2010PropOp43
 70
     1
102
RTVSPost2010Prop44ColorIndex
 90
        5
102
RTVSPost2010Prop44ColorRGB
 90
      255
102
RTVSPost2010PropOp44
 70
     1
102
RTVSPost2010Prop45
280
     0
102
RTVSPost2010PropOp45
 70
     1
102
RTVSPost2010Prop46
 90
       50
102
RTVSPost2010PropOp46
 70
     1
102
RTVSPost2010Prop47
 90
       50
102
RTVSPost2010PropOp47
 70
     1
102
RTVSPost2010Prop48
 90
       50
102
RTVSPost2010PropOp48
 70
     1
102
RTVSPost2010Prop49
280
     0
102
RTVSPost2010PropOp49
 70
     1
102
RTVSPost2010Prop50
 90
       50
102
RTVSPost2010PropOp50
 70
     1
102
RTVSPost2010Prop51ColorIndex
 90
      256
102
RTVSPost2010Prop51ColorRGB
 90
-16777216
102
RTVSPost2010PropOp51
 70
     0
102
RTVSPost2010Prop52
140
1.0
102
RTVSPost2010PropOp52
 70
     0
102
RTVSPost2010Prop53
 90
        2
102
RTVSPost2010PropOp53
 70
     1
102
RTVSPost2010Prop54
  1
strokes_ogs.tif
102
RTVSPost2010PropOp54
 70
     1
102
RTVSPost2010Prop55
280
     0
102
RTVSPost2010PropOp55
 70
     1
102
RTVSPost2010Prop56
140
1.0
102
RTVSPost2010PropOp56
 70
     1
102
RTVSPost2010Prop57
140
1.0
102
RTVSPost2010PropOp57
 70
     1
102
RTVSPropertyOp0
 70
     1
102
RTVSPropertyOp1
 70
     1
102
RTVSPropertyOp2
 70
     1
102
RTVSPropertyOp3
 70
     1
102
RTVSPropertyOp4
 70
     1
102
RTVSPropertyOp5
 70
     1
102
RTVSPropertyOp6
 70
     1
102
RTVSPropertyOp7
 70
     1
102
RTVSPropertyOp8
 70
     1
102
RTVSPropertyOp9
 70
     1
102
RTVSPropertyOp10
 70
     1
102
RTVSPropertyOp11
 70
     1
102
RTVSPropertyOp12
 70
     1
102
RTVSPropertyOp13
 70
     1
102
RTVSPropertyOp14
 70
     1
102
RTVSPropertyOp15
 70
     1
102
RTVSPropertyOp16
 70
     1
102
RTVSPropertyOp17
 70
     1
102
RTVSPropertyOp18
 70
     1
102
RTVSPropertyOp19
 70
     1
102
RTVSPropertyOp20
 70
     1
102
RTVSPropertyOp21
 70
     1
102
RTVSPropertyOp22
 70
     1
102
RTVSPropertyOp23
 70
     1
102
RTVSPropertyOp24
 70
     1
102
RTVSPropertyOp25
 70
     1
102
RTVSPropertyOp26
 70
     1
102
RTVSPropertyOp27
 70
     1
102
RTVSPropertyOp28
 70
     1
102
RTVSPropertyOp29
 70
     1
102
RTVSPropertyOp30
 70
     1
102
RTVSPropertyOp31
 70
     1
102
RTVSPropertyOp32
 70
     1
102
RTVSPropertyOp33
 70
     1
102
RTVSPropertyOp34
 70
     1
102
RTVSPropertyOp35
 70
     1
102
RTVSPropertyOp36
 70
     1
102
RTVSPropertyOp37
 70
     1
102
RTVSPropertyOp38
 70
     1
102
RTVSPropertyOp39
 70
     1
102
RTVSPropertyOp40
 70
     1
102
RTVSPropertyOp41
 70
     1
102
RTVSPropertyOp42
 70
     1
102
RTVSPropertyOp43
 70
     1
102
RTVSPropertyOp44
 70
     1
102
RTVSPropertyOp45
 70
     1
102
RTVSPropertyOp46
 70
     1
102
RTVSPropertyOp47
 70
     1
102
RTVSPropertyOp48
 70
     1
102
RTVSPropertyOp49
 70
     1
102
RTVSPropertyOp50
 70
     1
102
RTVSPropertyOp51
 70
     0
102
RTVSPropertyOp52
 70
     0
102
RTVSPropertyOp53
 70
     1
102
RTVSPropertyOp54
 70
     1
102
RTVSPropertyOp55
 70
     1
102
RTVSPropertyOp56
 70
     1
102
RTVSPropertyOp57
 70
     1
102
RTVSPropertyOp58
 70
     1
102
RTVSPropertyOp59
 70
     1
102
RTVSPropertyOp60
 70
     1
102
RTVSPropertyOp61
 70
     1
102
RTVSPropertyOp62
 70
     1
  0
XRECORD
  5
1058
102
{ACAD_REACTORS
330
1057
102
}
330
1057
100
AcDbXrecord
280
     1
102
RTVSPost2010Prop28
280
     0
102
RTVSPost2010PropOp28
 70
     1
102
RTVSPost2010Prop29
280
     1
102
RTVSPost2010PropOp29
 70
     1
102
RTVSPost2010Prop30
280
     1
102
RTVSPost2010PropOp30
 70
     1
102
RTVSPost2010Prop31
280
     0
102
RTVSPost2010PropOp31
 70
     1
102
RTVSPost2010Prop32
280
     0
102
RTVSPost2010PropOp32
 70
     1
102
RTVSPost2010Prop33
280
     0
102
RTVSPost2010PropOp33
 70
     1
102
RTVSPost2010Prop34
280
     0
102
RTVSPost2010PropOp34
 70
     1
102
RTVSPost2010Prop35
280
     0
102
RTVSPost2010PropOp35
 70
     1
102
RTVSPost2010Prop36
280
     0
102
RTVSPost2010PropOp36
 70
     1
102
RTVSPost2010Prop37
 90
       50
102
RTVSPost2010PropOp37
 70
     1
102
RTVSPost2010Prop38
140
0.0
102
RTVSPost2010PropOp38
 70
     1
102
RTVSPost2010Prop39
140
1.0
102
RTVSPost2010PropOp39
 70
     1
102
RTVSPost2010Prop40
 90
        0
102
RTVSPost2010PropOp40
 70
     1
102
RTVSPost2010Prop41ColorIndex
 90
       18
102
RTVSPost2010Prop41ColorRGB
 90
        0
102
RTVSPost2010PropOp41
 70
     1
102
RTVSPost2010Prop42
 90
       50
102
RTVSPost2010PropOp42
 70
     1
102
RTVSPost2010Prop43
 90
        3
102
RTVSPost2010PropOp43
 70
     1
102
RTVSPost2010Prop44ColorIndex
 90
        5
102
RTVSPost2010Prop44ColorRGB
 90
      255
102
RTVSPost2010PropOp44
 70
     1
102
RTVSPost2010Prop45
280
     0
102
RTVSPost2010PropOp45
 70
     1
102
RTVSPost2010Prop46
 90
       50
102
RTVSPost2010PropOp46
 70
     1
102
RTVSPost2010Prop47
 90
       50
102
RTVSPost2010PropOp47
 70
     1
102
RTVSPost2010Prop48
 90
       50
102
RTVSPost2010PropOp48
 70
     1
102
RTVSPost2010Prop49
280
     0
102
RTVSPost2010PropOp49
 70
     1
102
RTVSPost2010Prop50
 90
       50
102
RTVSPost2010PropOp50
 70
     1
102
RTVSPost2010Prop51ColorIndex
 90
      256
102
RTVSPost2010Prop51ColorRGB
 90
-16777216
102
RTVSPost2010PropOp51
 70
     0
102
RTVSPost2010Prop52
140
1.0
102
RTVSPost2010PropOp52
 70
     0
102
RTVSPost2010Prop53
 90
        2
102
RTVSPost2010PropOp53
 70
     1
102
RTVSPost2010Prop54
  1
strokes_ogs.tif
102
RTVSPost2010PropOp54
 70
     1
102
RTVSPost2010Prop55
280
     0
102
RTVSPost2010PropOp55
 70
     1
102
RTVSPost2010Prop56
140
1.0
102
RTVSPost2010PropOp56
 70
     1
102
RTVSPost2010Prop57
140
1.0
102
RTVSPost2010PropOp57
 70
     1
102
RTVSPropertyOp0
 70
     1
102
RTVSPropertyOp1
 70
     1
102
RTVSPropertyOp2
 70
     1
102
RTVSPropertyOp3
 70
     1
102
RTVSPropertyOp4
 70
     1
102
RTVSPropertyOp5
 70
     1
102
RTVSPropertyOp6
 70
     1
102
RTVSPropertyOp7
 70
     1
102
RTVSPropertyOp8
 70
     1
102
RTVSPropertyOp9
 70
     1
102
RTVSPropertyOp10
 70
     1
102
RTVSPropertyOp11
 70
     1
102
RTVSPropertyOp12
 70
     1
102
RTVSPropertyOp13
 70
     1
102
RTVSPropertyOp14
 70
     1
102
RTVSPropertyOp15
 70
     1
102
RTVSPropertyOp16
 70
     1
102
RTVSPropertyOp17
 70
     1
102
RTVSPropertyOp18
 70
     1
102
RTVSPropertyOp19
 70
     1
102
RTVSPropertyOp20
 70
     1
102
RTVSPropertyOp21
 70
     1
102
RTVSPropertyOp22
 70
     1
102
RTVSPropertyOp23
 70
     1
102
RTVSPropertyOp24
 70
     1
102
RTVSPropertyOp25
 70
     1
102
RTVSPropertyOp26
 70
     1
102
RTVSPropertyOp27
 70
     1
102
RTVSPropertyOp28
 70
     1
102
RTVSPropertyOp29
 70
     1
102
RTVSPropertyOp30
 70
     1
102
RTVSPropertyOp31
 70
     1
102
RTVSPropertyOp32
 70
     1
102
RTVSPropertyOp33
 70
     1
102
RTVSPropertyOp34
 70
     1
102
RTVSPropertyOp35
 70
     1
102
RTVSPropertyOp36
 70
     1
102
RTVSPropertyOp37
 70
     1
102
RTVSPropertyOp38
 70
     1
102
RTVSPropertyOp39
 70
     1
102
RTVSPropertyOp40
 70
     1
102
RTVSPropertyOp41
 70
     1
102
RTVSPropertyOp42
 70
     1
102
RTVSPropertyOp43
 70
     1
102
RTVSPropertyOp44
 70
     1
102
RTVSPropertyOp45
 70
     1
102
RTVSPropertyOp46
 70
     1
102
RTVSPropertyOp47
 70
     1
102
RTVSPropertyOp48
 70
     1
102
RTVSPropertyOp49
 70
     1
102
RTVSPropertyOp50
 70
     1
102
RTVSPropertyOp51
 70
     0
102
RTVSPropertyOp52
 70
     0
102
RTVSPropertyOp53
 70
     1
102
RTVSPropertyOp54
 70
     1
102
RTVSPropertyOp55
 70
     1
102
RTVSPropertyOp56
 70
     1
102
RTVSPropertyOp57
 70
     1
102
RTVSPropertyOp58
 70
     1
102
RTVSPropertyOp59
 70
     1
102
RTVSPropertyOp60
 70
     1
102
RTVSPropertyOp61
 70
     1
102
RTVSPropertyOp62
 70
     1
  0
XRECORD
  5
1070
102
{ACAD_REACTORS
330
106F
102
}
330
106F
100
AcDbXrecord
280
     1
102
RTVSPost2010Prop28
280
     0
102
RTVSPost2010PropOp28
 70
     1
102
RTVSPost2010Prop29
280
     1
102
RTVSPost2010PropOp29
 70
     1
102
RTVSPost2010Prop30
280
     1
102
RTVSPost2010PropOp30
 70
     1
102
RTVSPost2010Prop31
280
     0
102
RTVSPost2010PropOp31
 70
     1
102
RTVSPost2010Prop32
280
     0
102
RTVSPost2010PropOp32
 70
     1
102
RTVSPost2010Prop33
280
     0
102
RTVSPost2010PropOp33
 70
     1
102
RTVSPost2010Prop34
280
     0
102
RTVSPost2010PropOp34
 70
     1
102
RTVSPost2010Prop35
280
     0
102
RTVSPost2010PropOp35
 70
     1
102
RTVSPost2010Prop36
280
     0
102
RTVSPost2010PropOp36
 70
     1
102
RTVSPost2010Prop37
 90
       50
102
RTVSPost2010PropOp37
 70
     1
102
RTVSPost2010Prop38
140
0.0
102
RTVSPost2010PropOp38
 70
     1
102
RTVSPost2010Prop39
140
1.0
102
RTVSPost2010PropOp39
 70
     1
102
RTVSPost2010Prop40
 90
        0
102
RTVSPost2010PropOp40
 70
     1
102
RTVSPost2010Prop41ColorIndex
 90
       18
102
RTVSPost2010Prop41ColorRGB
 90
        0
102
RTVSPost2010PropOp41
 70
     1
102
RTVSPost2010Prop42
 90
       50
102
RTVSPost2010PropOp42
 70
     1
102
RTVSPost2010Prop43
 90
        3
102
RTVSPost2010PropOp43
 70
     1
102
RTVSPost2010Prop44ColorIndex
 90
        5
102
RTVSPost2010Prop44ColorRGB
 90
      255
102
RTVSPost2010PropOp44
 70
     1
102
RTVSPost2010Prop45
280
     0
102
RTVSPost2010PropOp45
 70
     1
102
RTVSPost2010Prop46
 90
       50
102
RTVSPost2010PropOp46
 70
     1
102
RTVSPost2010Prop47
 90
       50
102
RTVSPost2010PropOp47
 70
     1
102
RTVSPost2010Prop48
 90
       50
102
RTVSPost2010PropOp48
 70
     1
102
RTVSPost2010Prop49
280
     0
102
RTVSPost2010PropOp49
 70
     1
102
RTVSPost2010Prop50
 90
       50
102
RTVSPost2010PropOp50
 70
     1
102
RTVSPost2010Prop51ColorIndex
 90
      256
102
RTVSPost2010Prop51ColorRGB
 90
-16777216
102
RTVSPost2010PropOp51
 70
     0
102
RTVSPost2010Prop52
140
1.0
102
RTVSPost2010PropOp52
 70
     0
102
RTVSPost2010Prop53
 90
        2
102
RTVSPost2010PropOp53
 70
     1
102
RTVSPost2010Prop54
  1
strokes_ogs.tif
102
RTVSPost2010PropOp54
 70
     1
102
RTVSPost2010Prop55
280
     0
102
RTVSPost2010PropOp55
 70
     1
102
RTVSPost2010Prop56
140
1.0
102
RTVSPost2010PropOp56
 70
     1
102
RTVSPost2010Prop57
140
1.0
102
RTVSPost2010PropOp57
 70
     1
102
RTVSPropertyOp0
 70
     1
102
RTVSPropertyOp1
 70
     1
102
RTVSPropertyOp2
 70
     1
102
RTVSPropertyOp3
 70
     1
102
RTVSPropertyOp4
 70
     1
102
RTVSPropertyOp5
 70
     1
102
RTVSPropertyOp6
 70
     1
102
RTVSPropertyOp7
 70
     1
102
RTVSPropertyOp8
 70
     1
102
RTVSPropertyOp9
 70
     1
102
RTVSPropertyOp10
 70
     1
102
RTVSPropertyOp11
 70
     1
102
RTVSPropertyOp12
 70
     1
102
RTVSPropertyOp13
 70
     1
102
RTVSPropertyOp14
 70
     1
102
RTVSPropertyOp15
 70
     1
102
RTVSPropertyOp16
 70
     1
102
RTVSPropertyOp17
 70
     1
102
RTVSPropertyOp18
 70
     1
102
RTVSPropertyOp19
 70
     1
102
RTVSPropertyOp20
 70
     1
102
RTVSPropertyOp21
 70
     1
102
RTVSPropertyOp22
 70
     1
102
RTVSPropertyOp23
 70
     1
102
RTVSPropertyOp24
 70
     1
102
RTVSPropertyOp25
 70
     1
102
RTVSPropertyOp26
 70
     1
102
RTVSPropertyOp27
 70
     1
102
RTVSPropertyOp28
 70
     1
102
RTVSPropertyOp29
 70
     1
102
RTVSPropertyOp30
 70
     1
102
RTVSPropertyOp31
 70
     1
102
RTVSPropertyOp32
 70
     1
102
RTVSPropertyOp33
 70
     1
102
RTVSPropertyOp34
 70
     1
102
RTVSPropertyOp35
 70
     1
102
RTVSPropertyOp36
 70
     1
102
RTVSPropertyOp37
 70
     1
102
RTVSPropertyOp38
 70
     1
102
RTVSPropertyOp39
 70
     1
102
RTVSPropertyOp40
 70
     1
102
RTVSPropertyOp41
 70
     1
102
RTVSPropertyOp42
 70
     1
102
RTVSPropertyOp43
 70
     1
102
RTVSPropertyOp44
 70
     1
102
RTVSPropertyOp45
 70
     1
102
RTVSPropertyOp46
 70
     1
102
RTVSPropertyOp47
 70
     1
102
RTVSPropertyOp48
 70
     1
102
RTVSPropertyOp49
 70
     1
102
RTVSPropertyOp50
 70
     1
102
RTVSPropertyOp51
 70
     0
102
RTVSPropertyOp52
 70
     0
102
RTVSPropertyOp53
 70
     1
102
RTVSPropertyOp54
 70
     1
102
RTVSPropertyOp55
 70
     1
102
RTVSPropertyOp56
 70
     1
102
RTVSPropertyOp57
 70
     1
102
RTVSPropertyOp58
 70
     1
102
RTVSPropertyOp59
 70
     1
102
RTVSPropertyOp60
 70
     1
102
RTVSPropertyOp61
 70
     1
102
RTVSPropertyOp62
 70
     1
  0
ENDSEC
  0
EOF
