  0
SECTION
  2
HEADER
  9
$ACADVER
  1
AC1015
  9
$ACADMAINTVER
 70
    20
  9
$DWGCODEPAGE
  3
ANSI_932
  9
$INSBASE
 10
0.0
 20
0.0
 30
0.0
  9
$EXTMIN
 10
9.999999064246615
 20
9.999999806846743
 30
0.0
  9
$EXTMAX
 10
486.7243281954976
 20
314.3776755191583
 30
0.0
  9
$LIMMIN
 10
0.0000015376081137
 20
-0.0000001931532552
  9
$LIMMAX
 10
495.0000015376081
 20
341.2499998068465
  9
$ORTHOMODE
 70
     0
  9
$REGENMODE
 70
     1
  9
$FILLMODE
 70
     1
  9
$QTEXTMODE
 70
     0
  9
$MIRRTEXT
 70
     1
  9
$LTSCALE
 40
1.0
  9
$ATTMODE
 70
     1
  9
$TEXTSIZE
 40
2.5
  9
$TRACEWID
 40
1.0
  9
$TEXTSTYLE
  7
STANDARD
  9
$CLAYER
  8
0
  9
$CELTYPE
  6
BYLAYER
  9
$CECOLOR
 62
   256
  9
$CELTSCALE
 40
1.0
  9
$DISPSILH
 70
     0
  9
$DIMSCALE
 40
1.0
  9
$DIMASZ
 40
3.0
  9
$DIMEXO
 40
1.0
  9
$DIMDLI
 40
10.0
  9
$DIMRND
 40
0.0
  9
$DIMDLE
 40
0.0
  9
$DIMEXE
 40
1.0
  9
$DIMTP
 40
0.0
  9
$DIMTM
 40
0.0
  9
$DIMTXT
 40
3.2
  9
$DIMCEN
 40
0.0
  9
$DIMTSZ
 40
0.0
  9
$DIMTOL
 70
     0
  9
$DIMLIM
 70
     0
  9
$DIMTIH
 70
     0
  9
$DIMTOH
 70
     0
  9
$DIMSE1
 70
     0
  9
$DIMSE2
 70
     0
  9
$DIMTAD
 70
     3
  9
$DIMZIN
 70
     8
  9
$DIMBLK
  1

  9
$DIMASO
 70
     1
  9
$DIMSHO
 70
     1
  9
$DIMPOST
  1

  9
$DIMAPOST
  1

  9
$DIMALT
 70
     0
  9
$DIMALTD
 70
     2
  9
$DIMALTF
 40
25.4
  9
$DIMLFAC
 40
1.0
  9
$DIMTOFL
 70
     1
  9
$DIMTVP
 40
0.0
  9
$DIMTIX
 70
     0
  9
$DIMSOXD
 70
     0
  9
$DIMSAH
 70
     1
  9
$DIMBLK1
  1
OPEN
  9
$DIMBLK2
  1
OPEN
  9
$DIMSTYLE
  2
STANDARD
  9
$DIMCLRD
 70
     0
  9
$DIMCLRE
 70
     0
  9
$DIMCLRT
 70
     0
  9
$DIMTFAC
 40
1.0
  9
$DIMGAP
 40
1.0
  9
$DIMJUST
 70
     0
  9
$DIMSD1
 70
     0
  9
$DIMSD2
 70
     0
  9
$DIMTOLJ
 70
     1
  9
$DIMTZIN
 70
     0
  9
$DIMALTZ
 70
     0
  9
$DIMALTTZ
 70
     0
  9
$DIMUPT
 70
     0
  9
$DIMDEC
 70
     4
  9
$DIMTDEC
 70
     4
  9
$DIMALTU
 70
     2
  9
$DIMALTTD
 70
     2
  9
$DIMTXSTY
  7
STANDARD
  9
$DIMAUNIT
 70
     0
  9
$DIMADEC
 70
     0
  9
$DIMALTRND
 40
0.0
  9
$DIMAZIN
 70
     0
  9
$DIMDSEP
 70
    46
  9
$DIMATFIT
 70
     3
  9
$DIMFRAC
 70
     0
  9
$DIMLDRBLK
  1
OPEN
  9
$DIMLUNIT
 70
     2
  9
$DIMLWD
 70
    -2
  9
$DIMLWE
 70
    -2
  9
$DIMTMOVE
 70
     0
  9
$LUNITS
 70
     2
  9
$LUPREC
 70
     4
  9
$SKETCHINC
 40
1.0
  9
$FILLETRAD
 40
7.0
  9
$AUNITS
 70
     0
  9
$AUPREC
 70
     0
  9
$MENU
  1
.
  9
$ELEVATION
 40
0.0
  9
$PELEVATION
 40
0.0
  9
$THICKNESS
 40
0.0
  9
$LIMCHECK
 70
     0
  9
$CHAMFERA
 40
10.0
  9
$CHAMFERB
 40
10.0
  9
$CHAMFERC
 40
20.0
  9
$CHAMFERD
 40
0.0
  9
$SKPOLY
 70
     0
  9
$TDCREATE
 40
2453255.690372720
  9
$TDUCREATE
 40
2453255.315372720
  9
$TDUPDATE
 40
2457192.689341018
  9
$TDUUPDATE
 40
2457192.314341019
  9
$TDINDWG
 40
0.1380179630
  9
$TDUSRTIMER
 40
0.1380177662
  9
$USRTIMER
 70
     1
  9
$ANGBASE
 50
0.0
  9
$ANGDIR
 70
     0
  9
$PDMODE
 70
     0
  9
$PDSIZE
 40
0.0
  9
$PLINEWID
 40
0.0
  9
$SPLFRAME
 70
     0
  9
$SPLINETYPE
 70
     6
  9
$SPLINESEGS
 70
     8
  9
$HANDSEED
  5
136F
  9
$SURFTAB1
 70
     6
  9
$SURFTAB2
 70
     6
  9
$SURFTYPE
 70
     6
  9
$SURFU
 70
     6
  9
$SURFV
 70
     6
  9
$UCSBASE
  2

  9
$UCSNAME
  2

  9
$UCSORG
 10
0.0
 20
0.0
 30
0.0
  9
$UCSXDIR
 10
1.0
 20
0.0
 30
0.0
  9
$UCSYDIR
 10
0.0
 20
1.0
 30
0.0
  9
$UCSORTHOREF
  2

  9
$UCSORTHOVIEW
 70
     0
  9
$UCSORGTOP
 10
0.0
 20
0.0
 30
0.0
  9
$UCSORGBOTTOM
 10
0.0
 20
0.0
 30
0.0
  9
$UCSORGLEFT
 10
0.0
 20
0.0
 30
0.0
  9
$UCSORGRIGHT
 10
0.0
 20
0.0
 30
0.0
  9
$UCSORGFRONT
 10
0.0
 20
0.0
 30
0.0
  9
$UCSORGBACK
 10
0.0
 20
0.0
 30
0.0
  9
$PUCSBASE
  2

  9
$PUCSNAME
  2

  9
$PUCSORG
 10
0.0
 20
0.0
 30
0.0
  9
$PUCSXDIR
 10
1.0
 20
0.0
 30
0.0
  9
$PUCSYDIR
 10
0.0
 20
1.0
 30
0.0
  9
$PUCSORTHOREF
  2

  9
$PUCSORTHOVIEW
 70
     0
  9
$PUCSORGTOP
 10
0.0
 20
0.0
 30
0.0
  9
$PUCSORGBOTTOM
 10
0.0
 20
0.0
 30
0.0
  9
$PUCSORGLEFT
 10
0.0
 20
0.0
 30
0.0
  9
$PUCSORGRIGHT
 10
0.0
 20
0.0
 30
0.0
  9
$PUCSORGFRONT
 10
0.0
 20
0.0
 30
0.0
  9
$PUCSORGBACK
 10
0.0
 20
0.0
 30
0.0
  9
$USERI1
 70
     0
  9
$USERI2
 70
     0
  9
$USERI3
 70
     0
  9
$USERI4
 70
     0
  9
$USERI5
 70
     0
  9
$USERR1
 40
0.0
  9
$USERR2
 40
0.0
  9
$USERR3
 40
0.0
  9
$USERR4
 40
0.0
  9
$USERR5
 40
0.0
  9
$WORLDVIEW
 70
     1
  9
$SHADEDGE
 70
     3
  9
$SHADEDIF
 70
    70
  9
$TILEMODE
 70
     1
  9
$MAXACTVP
 70
    48
  9
$PINSBASE
 10
0.0
 20
0.0
 30
0.0
  9
$PLIMCHECK
 70
     0
  9
$PEXTMIN
 10
1.000000000000000E+20
 20
1.000000000000000E+20
 30
1.000000000000000E+20
  9
$PEXTMAX
 10
-1.000000000000000E+20
 20
-1.000000000000000E+20
 30
-1.000000000000000E+20
  9
$PLIMMIN
 10
0.0
 20
0.0
  9
$PLIMMAX
 10
420.0
 20
297.0
  9
$UNITMODE
 70
     0
  9
$VISRETAIN
 70
     1
  9
$PLINEGEN
 70
     0
  9
$PSLTSCALE
 70
     1
  9
$TREEDEPTH
 70
  3020
  9
$CMLSTYLE
  2
STANDARD
  9
$CMLJUST
 70
     0
  9
$CMLSCALE
 40
20.0
  9
$PROXYGRAPHICS
 70
     1
  9
$MEASUREMENT
 70
     0
  9
$CELWEIGHT
370
    -1
  9
$ENDCAPS
280
     0
  9
$JOINSTYLE
280
     0
  9
$LWDISPLAY
290
     0
  9
$INSUNITS
 70
     0
  9
$HYPERLINKBASE
  1

  9
$STYLESHEET
  1

  9
$XEDIT
290
     1
  9
$CEPSNTYPE
380
     0
  9
$PSTYLEMODE
290
     1
  9
$FINGERPRINTGUID
  2
{CC17BB38-24CE-4797-A29E-8CC5FB03FBE7}
  9
$VERSIONGUID
  2
{83B243AB-D999-4769-8251-6D7FFC4A1399}
  9
$EXTNAMES
290
     1
  9
$PSVPSCALE
 40
0.0
  9
$OLESTARTUP
290
     0
  0
ENDSEC
  0
SECTION
  2
CLASSES
  0
CLASS
  1
ACDBDICTIONARYWDFLT
  2
AcDbDictionaryWithDefault
  3
ObjectDBX Classes
 90
        0
280
     0
281
     0
  0
CLASS
  1
ACDBPLACEHOLDER
  2
AcDbPlaceHolder
  3
ObjectDBX Classes
 90
        0
280
     0
281
     0
  0
CLASS
  1
LAYOUT
  2
AcDbLayout
  3
ObjectDBX Classes
 90
        0
280
     0
281
     0
  0
CLASS
  1
DICTIONARYVAR
  2
AcDbDictionaryVar
  3
ObjectDBX Classes
 90
        0
280
     0
281
     0
  0
CLASS
  1
MATERIAL
  2
AcDbMaterial
  3
ObjectDBX Classes
 90
     1153
280
     0
281
     0
  0
CLASS
  1
VISUALSTYLE
  2
AcDbVisualStyle
  3
ObjectDBX Classes
 90
     4095
280
     0
281
     0
  0
CLASS
  1
TABLESTYLE
  2
AcDbTableStyle
  3
ObjectDBX Classes
 90
     4095
280
     0
281
     0
  0
CLASS
  1
SCALE
  2
AcDbScale
  3
ObjectDBX Classes
 90
     1153
280
     0
281
     0
  0
CLASS
  1
MLEADERSTYLE
  2
AcDbMLeaderStyle
  3
ACDB_MLEADERSTYLE_CLASS
 90
     4095
280
     0
281
     0
  0
CLASS
  1
ACDBSECTIONVIEWSTYLE
  2
AcDbSectionViewStyle
  3
ObjectDBX Classes
 90
     1025
280
     0
281
     0
  0
CLASS
  1
ACDBDETAILVIEWSTYLE
  2
AcDbDetailViewStyle
  3
ObjectDBX Classes
 90
     1025
280
     0
281
     0
  0
CLASS
  1
CELLSTYLEMAP
  2
AcDbCellStyleMap
  3
ObjectDBX Classes
 90
     1152
280
     0
281
     0
  0
ENDSEC
  0
SECTION
  2
TABLES
  0
TABLE
  2
VPORT
  5
8
330
0
100
AcDbSymbolTable
 70
     1
  0
VPORT
  5
12BB
330
8
100
AcDbSymbolTableRecord
100
AcDbViewportTableRecord
  2
*ACTIVE
 70
     0
 10
0.0
 20
0.0
 11
1.0
 21
1.0
 12
365.5337302972239
 22
162.1895605280845
 13
0.0
 23
0.0
 14
10.0
 24
10.0
 15
10.0
 25
10.0
 16
0.0
 26
0.0
 36
1.0
 17
0.0
 27
0.0
 37
0.0
 40
306.8080269230633
 41
2.35006605019815
 42
50.0
 43
0.0
 44
0.0
 50
0.0
 51
0.0
 71
     0
 72
   100
 73
     1
 74
     0
 75
     0
 76
     0
 77
     0
 78
     0
281
     0
 65
     1
110
0.0
120
0.0
130
0.0
111
1.0
121
0.0
131
0.0
112
0.0
122
1.0
132
0.0
 79
     0
146
0.0
1001
ACAD_NAV_VCDISPLAY
1070
     3
  0
ENDTAB
  0
TABLE
  2
LTYPE
  5
5
330
0
100
AcDbSymbolTable
 70
     4
  0
LTYPE
  5
12
330
5
100
AcDbSymbolTableRecord
100
AcDbLinetypeTableRecord
  2
BYBLOCK
 70
     0
  3

 72
    65
 73
     0
 40
0.0
  0
LTYPE
  5
13
330
5
100
AcDbSymbolTableRecord
100
AcDbLinetypeTableRecord
  2
BYLAYER
 70
     0
  3

 72
    65
 73
     0
 40
0.0
  0
LTYPE
  5
14
330
5
100
AcDbSymbolTableRecord
100
AcDbLinetypeTableRecord
  2
CONTINUOUS
 70
     0
  3
Solid line
 72
    65
 73
     0
 40
0.0
  0
LTYPE
  5
62
330
5
100
AcDbSymbolTableRecord
100
AcDbLinetypeTableRecord
  2
DASHED
 70
     0
  3
Dashed __ __ __ __ __ __ __ __ __ __ __ __ __ _
 72
    65
 73
     2
 40
19.04999999999998
 49
12.7
 74
     0
 49
-6.349999999999997
 74
     0
  0
LTYPE
  5
63
330
5
100
AcDbSymbolTableRecord
100
AcDbLinetypeTableRecord
  2
CENTER
 70
     0
  3
Center ____ _ ____ _ ____ _ ____ _ ____ _ ____
 72
    65
 73
     4
 40
50.8
 49
31.75
 74
     0
 49
-6.349999999999997
 74
     0
 49
6.349999999999997
 74
     0
 49
-6.349999999999997
 74
     0
  0
LTYPE
  5
64
330
5
100
AcDbSymbolTableRecord
100
AcDbLinetypeTableRecord
  2
PHANTOM
 70
     0
  3
Phantom ______  __  __  ______  __  __  ______
 72
    65
 73
     6
 40
63.5
 49
31.75
 74
     0
 49
-6.349999999999997
 74
     0
 49
6.349999999999997
 74
     0
 49
-6.349999999999997
 74
     0
 49
6.349999999999997
 74
     0
 49
-6.349999999999997
 74
     0
  0
ENDTAB
  0
TABLE
  2
LAYER
  5
2
330
0
100
AcDbSymbolTable
 70
     8
  0
LAYER
  5
E
102
{ACAD_XDICTIONARY
360
1313
102
}
330
2
100
AcDbSymbolTableRecord
100
AcDbLayerTableRecord
  2
0
 70
     0
 62
     7
  6
CONTINUOUS
370
    -3
390
12C2
  0
LAYER
  5
65
102
{ACAD_XDICTIONARY
360
1315
102
}
330
2
100
AcDbSymbolTableRecord
100
AcDbLayerTableRecord
  2
4
 70
     0
 62
     1
  6
CENTER
370
    -3
390
12C2
  0
LAYER
  5
66
102
{ACAD_XDICTIONARY
360
1317
102
}
330
2
100
AcDbSymbolTableRecord
100
AcDbLayerTableRecord
  2
5
 70
     0
 62
     6
  6
PHANTOM
370
    -3
390
12C2
  0
LAYER
  5
67
102
{ACAD_XDICTIONARY
360
1319
102
}
330
2
100
AcDbSymbolTableRecord
100
AcDbLayerTableRecord
  2
1
 70
     0
 62
     7
  6
CONTINUOUS
370
    -3
390
12C2
  0
LAYER
  5
68
102
{ACAD_XDICTIONARY
360
131B
102
}
330
2
100
AcDbSymbolTableRecord
100
AcDbLayerTableRecord
  2
2
 70
     0
 62
     4
  6
CONTINUOUS
370
    -3
390
12C2
  0
LAYER
  5
69
102
{ACAD_XDICTIONARY
360
131D
102
}
330
2
100
AcDbSymbolTableRecord
100
AcDbLayerTableRecord
  2
3
 70
     0
 62
     2
  6
DASHED
370
    -3
390
12C2
  0
LAYER
  5
6A
102
{ACAD_XDICTIONARY
360
131F
102
}
330
2
100
AcDbSymbolTableRecord
100
AcDbLayerTableRecord
  2
6
 70
     0
 62
     5
  6
CONTINUOUS
370
    -3
390
12C2
  0
LAYER
  5
6B
102
{ACAD_XDICTIONARY
360
1321
102
}
330
2
100
AcDbSymbolTableRecord
100
AcDbLayerTableRecord
  2
7
 70
     0
 62
     3
  6
CONTINUOUS
370
    -3
390
12C2
  0
ENDTAB
  0
TABLE
  2
STYLE
  5
3
330
0
100
AcDbSymbolTable
 70
     1
  0
STYLE
  5
F
330
3
100
AcDbSymbolTableRecord
100
AcDbTextStyleTableRecord
  2
STANDARD
 70
     0
 40
0.0
 41
1.0
 50
0.0
 71
     0
 42
2.5
  3
simplex.shx
  4

  0
ENDTAB
  0
TABLE
  2
VIEW
  5
6
330
0
100
AcDbSymbolTable
 70
     0
  0
ENDTAB
  0
TABLE
  2
UCS
  5
7
330
0
100
AcDbSymbolTable
 70
     0
  0
ENDTAB
  0
TABLE
  2
APPID
  5
9
330
0
100
AcDbSymbolTable
 70
     5
  0
APPID
  5
10
330
9
100
AcDbSymbolTableRecord
100
AcDbRegAppTableRecord
  2
ACAD
 70
     0
  0
APPID
  5
3E
330
9
100
AcDbSymbolTableRecord
100
AcDbRegAppTableRecord
  2
CONTENTTABDATA
 70
     0
  0
APPID
  5
3F
330
9
100
AcDbSymbolTableRecord
100
AcDbRegAppTableRecord
  2
CONTENTCURRENTTAB
 70
     0
  0
APPID
  5
132D
330
9
100
AcDbSymbolTableRecord
100
AcDbRegAppTableRecord
  2
ACAD_NAV_VCDISPLAY
 70
     0
  0
APPID
  5
1366
330
9
100
AcDbSymbolTableRecord
100
AcDbRegAppTableRecord
  2
ACAD_MLEADERVER
 70
     0
  0
ENDTAB
  0
TABLE
  2
DIMSTYLE
  5
A
330
0
100
AcDbSymbolTable
 70
     1
100
AcDbDimStyleTable
 71
     0
  0
DIMSTYLE
105
1D
330
A
100
AcDbSymbolTableRecord
100
AcDbDimStyleTableRecord
  2
STANDARD
 70
     0
 41
3.0
 42
1.0
 43
10.0
 44
1.0
 73
     0
 74
     0
 77
     3
 78
     8
140
3.2
141
0.0
147
1.0
172
     1
173
     1
340
F
341
2E
343
2E
344
2E
  0
ENDTAB
  0
TABLE
  2
BLOCK_RECORD
  5
1
330
0
100
AcDbSymbolTable
 70
     1
  0
BLOCK_RECORD
  5
18
102
{ACAD_XDICTIONARY
360
12A5
102
}
330
1
100
AcDbSymbolTableRecord
100
AcDbBlockTableRecord
  2
*MODEL_SPACE
340
1310
  0
BLOCK_RECORD
  5
15
102
{ACAD_XDICTIONARY
360
12A3
102
}
330
1
100
AcDbSymbolTableRecord
100
AcDbBlockTableRecord
  2
*PAPER_SPACE
340
1311
  0
BLOCK_RECORD
  5
2E
330
1
100
AcDbSymbolTableRecord
100
AcDbBlockTableRecord
  2
_OPEN
340
0
  0
ENDTAB
  0
ENDSEC
  0
SECTION
  2
BLOCKS
  0
BLOCK
  5
19
330
18
100
AcDbEntity
  8
0
100
AcDbBlockBegin
  2
*MODEL_SPACE
 70
     0
 10
0.0
 20
0.0
 30
0.0
  3
*MODEL_SPACE
  1

  0
ENDBLK
  5
1A
330
18
100
AcDbEntity
  8
0
100
AcDbBlockEnd
  0
BLOCK
  5
16
330
15
100
AcDbEntity
 67
     1
  8
0
100
AcDbBlockBegin
  2
*PAPER_SPACE
 70
     0
 10
0.0
 20
0.0
 30
0.0
  3
*PAPER_SPACE
  1

  0
ENDBLK
  5
17
330
15
100
AcDbEntity
 67
     1
  8
0
100
AcDbBlockEnd
  0
BLOCK
  5
2F
330
2E
100
AcDbEntity
  8
0
100
AcDbBlockBegin
  2
_OPEN
 70
     0
 10
0.0
 20
0.0
 30
0.0
  3
_OPEN
  1

  0
LINE
  5
30
330
2E
100
AcDbEntity
  8
0
  6
ByBlock
 62
     0
100
AcDbLine
 10
-1.0
 20
0.1666666666666666
 30
0.0
 11
0.0
 21
0.0
 31
0.0
  0
LINE
  5
31
330
2E
100
AcDbEntity
  8
0
  6
ByBlock
 62
     0
100
AcDbLine
 10
0.0
 20
0.0
 30
0.0
 11
-1.0
 21
-0.1666666666666666
 31
0.0
  0
LINE
  5
32
330
2E
100
AcDbEntity
  8
0
  6
ByBlock
 62
     0
100
AcDbLine
 10
0.0
 20
0.0
 30
0.0
 11
-1.0
 21
0.0
 31
0.0
  0
ENDBLK
  5
33
330
2E
100
AcDbEntity
  8
0
100
AcDbBlockEnd
  0
ENDSEC
  0
SECTION
  2
ENTITIES
  0
LINE
  5
13F
330
18
100
AcDbEntity
  8
1
  6
Continuous
100
AcDbLine
 10
135.086231151108
 20
204.8740244697512
 30
0.0
 11
158.201636151108
 21
208.9498935697512
 31
0.0
  0
LINE
  5
140
330
18
100
AcDbEntity
  8
4
  6
CENTER
 48
0.5
100
AcDbLine
 10
184.486706151108
 20
162.6068155697511
 30
0.0
 11
99.48670615110806
 21
162.6068155697511
 31
0.0
  0
LINE
  5
143
330
18
100
AcDbEntity
  8
1
  6
Continuous
100
AcDbLine
 10
155.244276151108
 20
210.7068127697512
 30
0.0
 11
186.729136151108
 21
210.7068127697512
 31
0.0
  0
LINE
  5
144
330
18
100
AcDbEntity
  8
1
  6
Continuous
100
AcDbLine
 10
166.317306151108
 20
183.8009665697512
 30
0.0
 11
148.199756151108
 21
157.0058555697513
 31
0.0
  0
LINE
  5
148
330
18
100
AcDbEntity
  8
1
  6
Continuous
100
AcDbLine
 10
153.9867061511079
 20
211.3068123297511
 30
0.0
 11
187.986706151108
 21
211.3068123697511
 31
0.0
  0
LINE
  5
149
330
18
100
AcDbEntity
  8
4
  6
CENTER
 48
0.5
100
AcDbLine
 10
208.0988372702071
 20
289.6932749382116
 30
0.0
 11
100.0040890302261
 21
289.6932749382116
 31
0.0
  0
CIRCLE
  5
14A
330
18
100
AcDbEntity
  8
1
  6
Continuous
100
AcDbCircle
 10
170.986706151108
 20
289.6932749382116
 30
0.0
 40
16.5
  0
CIRCLE
  5
14B
330
18
100
AcDbEntity
  8
1
  6
Continuous
100
AcDbCircle
 10
170.986706151108
 20
289.6932749382116
 30
0.0
 40
17.5
  0
LINE
  5
14E
330
18
100
AcDbEntity
  8
4
  6
CENTER
 48
0.5
100
AcDbLine
 10
141.986706151108
 20
205.1068144697512
 30
0.0
 11
141.986706151108
 21
120.1068115697512
 31
0.0
  0
LINE
  5
151
330
18
100
AcDbEntity
  8
4
  6
CENTER
 48
0.5
100
AcDbLine
 10
33.86789512891346
 20
221.9881630697511
 30
0.0
 11
33.86789512891346
 21
121.0569385697513
 31
0.0
  0
TEXT
  5
152
330
18
100
AcDbEntity
  8
1
  6
Continuous
 48
0.25
100
AcDbText
 10
9.999999064246617
 20
10.00000056761564
 30
0.0
 40
1.399999999999999
  1
LAYER
100
AcDbText
  0
TEXT
  5
153
330
18
100
AcDbEntity
  8
7
  6
Continuous
 48
0.25
100
AcDbText
 10
9.999999064246617
 20
18.00000056761564
 30
0.0
 40
3.0
  1
TYPE No.TCA-320E-N75
100
AcDbText
  0
TEXT
  5
154
330
18
100
AcDbEntity
  8
7
  6
Continuous
 48
0.25
100
AcDbText
 10
9.999999064246617
 20
26.00000056761564
 30
0.0
 40
3.0
  1
CODE No.19193
100
AcDbText
  0
TEXT
  5
155
330
18
100
AcDbEntity
  8
2
  6
Continuous
 48
0.25
100
AcDbText
 10
19.9795100642466
 20
9.999999806846743
 30
0.0
 40
1.399999999999999
  1
2
100
AcDbText
  0
TEXT
  5
156
330
18
100
AcDbEntity
  8
1
  6
Continuous
 48
0.25
100
AcDbText
 10
17.9795100642466
 20
9.999999806846743
 30
0.0
 40
1.399999999999999
  1
1
100
AcDbText
  0
TEXT
  5
157
330
18
100
AcDbEntity
  8
3
  6
DASHED
 48
0.25
100
AcDbText
 10
21.97951006424661
 20
9.999999806846743
 30
0.0
 40
1.399999999999999
  1
3
100
AcDbText
  0
TEXT
  5
158
330
18
100
AcDbEntity
  8
5
  6
PHANTOM
 48
0.25
100
AcDbText
 10
25.97951006424661
 20
9.999999806846743
 30
0.0
 40
1.399999999999999
  1
5
100
AcDbText
  0
TEXT
  5
159
330
18
100
AcDbEntity
  8
4
  6
CENTER
 48
0.25
100
AcDbText
 10
23.97951006424661
 20
9.999999806846743
 30
0.0
 40
1.399999999999999
  1
4
100
AcDbText
  0
TEXT
  5
15A
330
18
100
AcDbEntity
  8
7
  6
Continuous
 48
0.25
100
AcDbText
 10
29.97951006424661
 20
9.999999806846743
 30
0.0
 40
1.399999999999999
  1
7
100
AcDbText
  0
TEXT
  5
15B
330
18
100
AcDbEntity
  8
6
  6
Continuous
 48
0.25
100
AcDbText
 10
27.97951006424661
 20
9.999999806846743
 30
0.0
 40
1.399999999999999
  1
6
100
AcDbText
  0
ARC
  5
15F
330
18
100
AcDbEntity
  8
1
  6
Continuous
100
AcDbCircle
 10
190.726396151108
 20
289.6932749382116
 30
0.0
 40
55.640163
100
AcDbArc
 50
167.7760000000001
 51
192.2225999999998
  0
LINE
  5
161
330
18
100
AcDbEntity
  8
4
  6
CENTER
 48
0.5
100
AcDbLine
 10
141.986706151108
 20
313.2362165749701
 30
0.0
 11
141.986706151108
 21
265.4376449128245
 31
0.0
  0
ARC
  5
162
330
18
100
AcDbEntity
  8
1
  6
Continuous
100
AcDbCircle
 10
50.86789512891346
 20
213.3068123697511
 30
0.0
 40
2.0
100
AcDbArc
 50
270.0
 51
331.8358699999993
  0
ARC
  5
163
330
18
100
AcDbEntity
  8
1
  6
Continuous
100
AcDbCircle
 10
16.86789512891346
 20
213.3068123697511
 30
0.0
 40
2.0
100
AcDbArc
 50
208.1640999999998
 51
270.0
  0
LINE
  5
166
330
18
100
AcDbEntity
  8
1
  6
Continuous
100
AcDbLine
 10
19.36789512891346
 20
203.9981642697512
 30
0.0
 11
19.36789512891346
 21
153.7068135697513
 31
0.0
  0
LINE
  5
167
330
18
100
AcDbEntity
  8
1
  6
Continuous
100
AcDbLine
 10
48.36789512891346
 20
203.9981642697512
 30
0.0
 11
48.36789512891346
 21
153.7068135697513
 31
0.0
  0
LINE
  5
168
330
18
100
AcDbEntity
  8
1
  6
Continuous
100
AcDbLine
 10
46.86789512891346
 20
204.5668134697511
 30
0.0
 11
46.86789512891346
 21
153.7068135697513
 31
0.0
  0
LINE
  5
169
330
18
100
AcDbEntity
  8
1
  6
Continuous
100
AcDbLine
 10
20.86789512891346
 20
204.5668134697511
 30
0.0
 11
20.86789512891346
 21
153.7068135697513
 31
0.0
  0
LINE
  5
16C
330
18
100
AcDbEntity
  8
4
  6
CENTER
 48
0.5
100
AcDbLine
 10
13.97147912891341
 20
162.6068155697511
 30
0.0
 11
55.39371912891351
 21
162.6068155697511
 31
0.0
  0
ARC
  5
16E
330
18
100
AcDbEntity
  8
1
  6
Continuous
100
AcDbCircle
 10
19.06787712891343
 20
159.1068155697513
 30
0.0
 40
1.199999999999999
100
AcDbArc
 50
179.9999799999995
 51
270.0000299999997
  0
LINE
  5
170
330
18
100
AcDbEntity
  8
1
  6
Continuous
100
AcDbLine
 10
19.36789512891346
 20
153.7068135697513
 30
0.0
 11
20.86789512891346
 21
153.7068135697513
 31
0.0
  0
LINE
  5
171
330
18
100
AcDbEntity
  8
1
  6
Continuous
100
AcDbLine
 10
19.06787712891343
 20
157.9068145697513
 30
0.0
 11
19.36788012891337
 21
157.9068145697513
 31
0.0
  0
LINE
  5
174
330
18
100
AcDbEntity
  8
1
  6
Continuous
100
AcDbLine
 10
17.86788012891337
 20
166.1068155697511
 30
0.0
 11
17.86788012891337
 21
159.1068155697513
 31
0.0
  0
LINE
  5
175
330
18
100
AcDbEntity
  8
1
  6
Continuous
100
AcDbLine
 10
19.06787712891343
 20
167.3068165697513
 30
0.0
 11
19.36788012891337
 21
167.3068165697513
 31
0.0
  0
ARC
  5
176
330
18
100
AcDbEntity
  8
1
  6
Continuous
100
AcDbCircle
 10
19.06787712891343
 20
166.1068155697511
 30
0.0
 40
1.199999999999999
100
AcDbArc
 50
89.99998199999916
 51
179.9999599999992
  0
ARC
  5
17A
330
18
100
AcDbEntity
  8
1
  6
Continuous
100
AcDbCircle
 10
41.49649612891345
 20
162.6068155697511
 30
0.0
 40
9.325191499999997
100
AcDbArc
 50
327.5758699999996
 51
353.8439799999993
  0
LINE
  5
17B
330
18
100
AcDbEntity
  8
1
  6
Continuous
100
AcDbLine
 10
49.36791012891331
 20
167.6068155697511
 30
0.0
 11
49.36791012891331
 21
157.6068155697511
 31
0.0
  0
LINE
  5
17F
330
18
100
AcDbEntity
  8
1
  6
Continuous
100
AcDbLine
 10
46.86789512891346
 20
153.7068135697513
 30
0.0
 11
48.36789512891346
 21
153.7068135697513
 31
0.0
  0
LINE
  5
180
330
18
100
AcDbEntity
  8
1
  6
Continuous
100
AcDbLine
 10
48.36791012891332
 20
157.6068155697511
 30
0.0
 11
49.36791012891331
 21
157.6068155697511
 31
0.0
  0
ARC
  5
181
330
18
100
AcDbEntity
  8
1
  6
Continuous
100
AcDbCircle
 10
41.49649612891345
 20
162.6068155697511
 30
0.0
 40
9.325191499999997
100
AcDbArc
 50
6.156029899999965
 51
32.42413400000057
  0
LINE
  5
184
330
18
100
AcDbEntity
  8
1
  6
Continuous
100
AcDbLine
 10
48.36791012891332
 20
167.6068155697511
 30
0.0
 11
49.36791012891331
 21
167.6068155697511
 31
0.0
  0
LINE
  5
185
330
18
100
AcDbEntity
  8
1
  6
Continuous
100
AcDbLine
 10
50.7679121289134
 20
163.6068385697511
 30
0.0
 11
50.7679121289134
 21
161.6067925697513
 31
0.0
  0
ARC
  5
186
330
18
100
AcDbEntity
  8
1
  6
Continuous
100
AcDbCircle
 10
33.86789512891346
 20
373.3168215697511
 30
0.0
 40
169.25
100
AcDbArc
 50
265.5947900000001
 51
274.40519
  0
ARC
  5
187
330
18
100
AcDbEntity
  8
1
  6
Continuous
100
AcDbCircle
 10
33.86789512891346
 20
176.3674205697512
 30
0.0
 40
27.639395
100
AcDbArc
 50
61.94343000000031
 51
118.0565999999989
  0
ARC
  5
188
330
18
100
AcDbEntity
  8
1
  6
Continuous
100
AcDbCircle
 10
33.86789512891346
 20
278.2919385697512
 30
0.0
 40
70.550117
100
AcDbArc
 50
259.3816499999999
 51
280.61835
  0
LINE
  5
189
330
18
100
AcDbEntity
  8
1
  6
Continuous
100
AcDbLine
 10
18.16789812891352
 20
210.7068128697512
 30
0.0
 11
49.56789612891339
 21
210.7068128697512
 31
0.0
  0
ARC
  5
18A
330
18
100
AcDbEntity
  8
1
  6
Continuous
100
AcDbCircle
 10
33.86789512891346
 20
374.7913515697512
 30
0.0
 40
169.25
100
AcDbArc
 50
265.8140899999998
 51
274.1858999999994
  0
LINE
  5
18C
330
18
100
AcDbEntity
  8
1
  6
Continuous
100
AcDbLine
 10
16.86789512891346
 20
211.3068123297511
 30
0.0
 11
50.86789512891346
 21
211.3068123697511
 31
0.0
  0
LINE
  5
18D
330
18
100
AcDbEntity
  8
1
  6
Continuous
100
AcDbLine
 10
15.11789512891346
 20
189.8398795697512
 30
0.0
 11
15.66901612891341
 21
208.2814910697512
 31
0.0
  0
ARC
  5
18E
330
18
100
AcDbEntity
  8
1
  6
Continuous
100
AcDbCircle
 10
45.10543612891342
 20
188.9753375697512
 30
0.0
 40
30.0
100
AcDbArc
 50
178.2882599999995
 51
210.9163499999993
  0
ARC
  5
192
330
18
100
AcDbEntity
  8
1
  6
Continuous
100
AcDbCircle
 10
21.36789512891346
 20
211.7913132197512
 30
0.0
 40
1.984500099999999
100
AcDbArc
 50
194.1311599999999
 51
213.126229999999
  0
ARC
  5
193
330
18
100
AcDbEntity
  8
1
  6
Continuous
100
AcDbCircle
 10
21.36789512891346
 20
203.9981642697512
 30
0.0
 40
2.0
100
AcDbArc
 50
85.81401200000012
 51
179.9999599999992
  0
ARC
  5
194
330
18
100
AcDbEntity
  8
1
  6
Continuous
100
AcDbCircle
 10
18.16789812891352
 20
208.2068128697512
 30
0.0
 40
2.5
100
AcDbArc
 50
89.99998199999916
 51
178.288279999999
  0
ARC
  5
195
330
18
100
AcDbEntity
  8
1
  6
Continuous
100
AcDbCircle
 10
23.65238012891347
 20
211.7913132197512
 30
0.0
 40
1.984500099999999
100
AcDbArc
 50
194.1311599999999
 51
213.126229999999
  0
ARC
  5
196
330
18
100
AcDbEntity
  8
1
  6
Continuous
100
AcDbCircle
 10
21.9090331289135
 20
211.7913132197512
 30
0.0
 40
1.984500099999999
100
AcDbArc
 50
194.1311599999999
 51
213.126229999999
  0
ARC
  5
197
330
18
100
AcDbEntity
  8
1
  6
Continuous
100
AcDbCircle
 10
26.4256501289135
 20
211.7913132197512
 30
0.0
 40
1.984500099999999
100
AcDbArc
 50
194.1311599999999
 51
213.126229999999
  0
LINE
  5
198
330
18
100
AcDbEntity
  8
1
  6
Continuous
100
AcDbLine
 10
52.61789912891345
 20
189.8398795697512
 30
0.0
 11
52.06678412891347
 21
208.2814903697511
 31
0.0
  0
ARC
  5
199
330
18
100
AcDbEntity
  8
1
  6
Continuous
100
AcDbCircle
 10
22.63035412891349
 20
188.9753375697512
 30
0.0
 40
30.0
100
AcDbArc
 50
329.0836099999996
 51
1.651382199999575
  0
ARC
  5
19E
330
18
100
AcDbEntity
  8
1
  6
Continuous
100
AcDbCircle
 10
26.4256501289135
 20
211.7913132197512
 30
0.0
 40
1.984500099999999
100
AcDbArc
 50
326.873770000001
 51
332.5952099999996
  0
ARC
  5
19F
330
18
100
AcDbEntity
  8
1
  6
Continuous
100
AcDbCircle
 10
29.94923212891342
 20
211.7913132197512
 30
0.0
 40
1.984500099999999
100
AcDbArc
 50
194.1311599999999
 51
213.126229999999
  0
ARC
  5
1A0
330
18
100
AcDbEntity
  8
1
  6
Continuous
100
AcDbCircle
 10
33.86789512891346
 20
211.7913132197512
 30
0.0
 40
1.984500099999999
100
AcDbArc
 50
194.1311599999999
 51
213.126229999999
  0
ARC
  5
1A1
330
18
100
AcDbEntity
  8
1
  6
Continuous
100
AcDbCircle
 10
29.94923212891342
 20
211.7913132197512
 30
0.0
 40
1.984500099999999
100
AcDbArc
 50
326.873770000001
 51
345.8688299999999
  0
ARC
  5
1A2
330
18
100
AcDbEntity
  8
1
  6
Continuous
100
AcDbCircle
 10
37.78655812891339
 20
211.7913132197512
 30
0.0
 40
1.984500099999999
100
AcDbArc
 50
194.1311599999999
 51
213.126229999999
  0
ARC
  5
1A3
330
18
100
AcDbEntity
  8
1
  6
Continuous
100
AcDbCircle
 10
33.86789512891346
 20
211.7913132197512
 30
0.0
 40
1.984500099999999
100
AcDbArc
 50
326.873770000001
 51
345.8688399999999
  0
ARC
  5
1A4
330
18
100
AcDbEntity
  8
1
  6
Continuous
100
AcDbCircle
 10
37.78655812891339
 20
211.7913132197512
 30
0.0
 40
1.984500099999999
100
AcDbArc
 50
326.873770000001
 51
345.8688399999999
  0
ARC
  5
1A5
330
18
100
AcDbEntity
  8
1
  6
Continuous
100
AcDbCircle
 10
41.31014012891339
 20
211.7913132197512
 30
0.0
 40
1.984500099999999
100
AcDbArc
 50
207.4047900000004
 51
213.126229999999
  0
ARC
  5
1A7
330
18
100
AcDbEntity
  8
1
  6
Continuous
100
AcDbCircle
 10
49.56789612891339
 20
208.2068128697512
 30
0.0
 40
2.5
100
AcDbArc
 50
1.711734899999493
 51
89.99998199999916
  0
ARC
  5
1A8
330
18
100
AcDbEntity
  8
1
  6
Continuous
100
AcDbCircle
 10
46.36789512891346
 20
203.9981642697512
 30
0.0
 40
2.0
100
AcDbArc
 50
0.0
 51
94.1858980000012
  0
ARC
  5
1A9
330
18
100
AcDbEntity
  8
1
  6
Continuous
100
AcDbCircle
 10
44.08341012891333
 20
211.7913132197512
 30
0.0
 40
1.984500099999999
100
AcDbArc
 50
326.873770000001
 51
345.8688399999999
  0
ARC
  5
1AA
330
18
100
AcDbEntity
  8
1
  6
Continuous
100
AcDbCircle
 10
41.31014012891339
 20
211.7913132197512
 30
0.0
 40
1.984500099999999
100
AcDbArc
 50
326.873770000001
 51
345.8688399999999
  0
ARC
  5
1AB
330
18
100
AcDbEntity
  8
1
  6
Continuous
100
AcDbCircle
 10
45.82675712891339
 20
211.7913132197512
 30
0.0
 40
1.984500099999999
100
AcDbArc
 50
326.873770000001
 51
345.8688399999999
  0
ARC
  5
1AC
330
18
100
AcDbEntity
  8
1
  6
Continuous
100
AcDbCircle
 10
46.36789512891346
 20
211.7913132197512
 30
0.0
 40
1.984500099999999
100
AcDbArc
 50
326.873770000001
 51
345.8688399999999
  0
LINE
  5
1AF
330
18
100
AcDbEntity
  8
1
  6
Continuous
100
AcDbLine
 10
12.86789512891346
 20
217.1068115697512
 30
0.0
 11
12.86789512891346
 21
215.6068115697512
 31
0.0
  0
ARC
  5
1B0
330
18
100
AcDbEntity
  8
1
  6
Continuous
100
AcDbCircle
 10
13.06844112891349
 20
215.1068115697511
 30
0.0
 40
0.5
100
AcDbArc
 50
28.16415699999986
 51
90.00001599999967
  0
LINE
  5
1B1
330
18
100
AcDbEntity
  8
1
  6
Continuous
100
AcDbLine
 10
13.50923712891346
 20
215.3428111697512
 30
0.0
 11
15.10469612891347
 21
212.3628166197512
 31
0.0
  0
LINE
  5
1B2
330
18
100
AcDbEntity
  8
4
  6
CENTER
 48
0.1
100
AcDbLine
 10
19.86789512891346
 20
219.1074295697512
 30
0.0
 11
19.86789512891346
 21
213.4176254697512
 31
0.0
  0
LINE
  5
1B3
330
18
100
AcDbEntity
  8
1
  6
Continuous
100
AcDbLine
 10
54.86789512891346
 20
217.1068115697512
 30
0.0
 11
12.86789512891346
 21
217.1068115697512
 31
0.0
  0
LINE
  5
1B4
330
18
100
AcDbEntity
  8
1
  6
Continuous
100
AcDbLine
 10
54.86789512891346
 20
215.6068115697512
 30
0.0
 11
12.86789512891346
 21
215.6068115697512
 31
0.0
  0
LINE
  5
1B5
330
18
100
AcDbEntity
  8
4
  6
CENTER
 48
0.1
100
AcDbLine
 10
47.86789512891346
 20
219.1074295697512
 30
0.0
 11
47.86789512891346
 21
213.1326523697512
 31
0.0
  0
LINE
  5
1B6
330
18
100
AcDbEntity
  8
1
  6
Continuous
100
AcDbLine
 10
54.86789512891346
 20
217.1068115697512
 30
0.0
 11
54.86789512891346
 21
215.6068115697512
 31
0.0
  0
ARC
  5
1B7
330
18
100
AcDbEntity
  8
1
  6
Continuous
100
AcDbCircle
 10
54.66734912891343
 20
215.1068115697511
 30
0.0
 40
0.5
100
AcDbArc
 50
89.99996199999875
 51
151.8358299999995
  0
LINE
  5
1B8
330
18
100
AcDbEntity
  8
1
  6
Continuous
100
AcDbLine
 10
54.22654912891346
 20
215.3428063697512
 30
0.0
 11
52.63109012891334
 21
212.3628081497511
 31
0.0
  0
ARC
  5
1B9
330
18
100
AcDbEntity
  8
1
  6
Continuous
100
AcDbCircle
 10
153.9867061511079
 20
213.3068123697511
 30
0.0
 40
2.0
100
AcDbArc
 50
208.1640999999998
 51
270.0
  0
LINE
  5
1BB
330
18
100
AcDbEntity
  8
1
  6
Continuous
100
AcDbLine
 10
136.8867081511079
 20
203.6683569697512
 30
0.0
 11
134.4987761511079
 21
161.6321795697513
 31
0.0
  0
CIRCLE
  5
1BC
330
18
100
AcDbEntity
  8
1
  6
Continuous
100
AcDbCircle
 10
141.986706151108
 20
162.6068155697511
 30
0.0
 40
1.0
  0
CIRCLE
  5
1BD
330
18
100
AcDbEntity
  8
1
  6
Continuous
100
AcDbCircle
 10
141.986706151108
 20
162.6068155697511
 30
0.0
 40
5.0
  0
ARC
  5
1BE
330
18
100
AcDbEntity
  8
1
  6
Continuous
100
AcDbCircle
 10
141.986706151108
 20
161.2068135697513
 30
0.0
 40
7.5
100
AcDbArc
 50
176.7487499999999
 51
325.9353399999994
  0
LINE
  5
1BF
330
18
100
AcDbEntity
  8
1
  6
Continuous
100
AcDbLine
 10
136.8867081511079
 20
203.6683578697512
 30
0.0
 11
136.6262321511079
 21
205.1455693697512
 31
0.0
  0
LINE
  5
1C0
330
18
100
AcDbEntity
  8
1
  6
Continuous
100
AcDbLine
 10
135.3467071511081
 20
203.3968124697512
 30
0.0
 11
135.086231151108
 21
204.8740239697512
 31
0.0
  0
LINE
  5
1C1
330
18
100
AcDbEntity
  8
1
  6
Continuous
100
AcDbLine
 10
135.3467071511081
 20
203.3968124697512
 30
0.0
 11
136.8867081511079
 21
203.6683569697512
 31
0.0
  0
ARC
  5
1C2
330
18
100
AcDbEntity
  8
1
  6
Continuous
100
AcDbCircle
 10
155.244276151108
 20
207.7068128697512
 30
0.0
 40
3.0
100
AcDbArc
 50
90.00000300000095
 51
141.7268599999998
  0
LINE
  5
1C3
330
18
100
AcDbEntity
  8
1
  6
Continuous
100
AcDbLine
 10
151.466766151108
 20
207.7623515697512
 30
0.0
 11
152.8890761511079
 21
209.5650425697511
 31
0.0
  0
ARC
  5
1C4
330
18
100
AcDbEntity
  8
1
  6
Continuous
100
AcDbCircle
 10
158.486706151108
 20
211.7913132197512
 30
0.0
 40
1.984500099999999
100
AcDbArc
 50
194.1311599999999
 51
213.126229999999
  0
LINE
  5
1C5
330
18
100
AcDbEntity
  8
1
  6
Continuous
100
AcDbLine
 10
135.9867061511079
 20
215.6068115697512
 30
0.0
 11
135.9867061511079
 21
217.1068115697512
 31
0.0
  0
LINE
  5
1C6
330
18
100
AcDbEntity
  8
4
  6
CENTER
 48
0.1
100
AcDbLine
 10
142.986706151108
 20
212.5689392597512
 30
0.0
 11
142.986706151108
 21
219.9851455697511
 31
0.0
  0
ARC
  5
1C7
330
18
100
AcDbEntity
  8
1
  6
Continuous
100
AcDbCircle
 10
150.1872561511081
 20
215.1068115697511
 30
0.0
 40
0.5
100
AcDbArc
 50
28.16415699999986
 51
90.00001599999967
  0
LINE
  5
1C8
330
18
100
AcDbEntity
  8
1
  6
Continuous
100
AcDbLine
 10
150.6280461511081
 20
215.3428099697512
 30
0.0
 11
152.223506151108
 21
212.3628154897512
 31
0.0
  0
ARC
  5
1CB
330
18
100
AcDbEntity
  8
1
  6
Continuous
100
AcDbCircle
 10
142.986706151108
 20
275.6932749382116
 30
0.0
 40
7.0
100
AcDbArc
 50
160.8278032737306
 51
269.9999499999996
  0
CIRCLE
  5
1CC
330
18
100
AcDbEntity
  8
1
  6
Continuous
100
AcDbCircle
 10
142.986706151108
 20
275.6932669382116
 30
0.0
 40
3.249999799999998
  0
LINE
  5
1CD
330
18
100
AcDbEntity
  8
4
  6
CENTER
 48
0.1
100
AcDbLine
 10
137.986706151108
 20
275.6932749382116
 30
0.0
 11
147.986706151108
 21
275.6932749382116
 31
0.0
  0
LINE
  5
1D1
330
18
100
AcDbEntity
  8
1
  6
Continuous
100
AcDbLine
 10
134.486706151108
 20
276.6932749382116
 30
0.0
 11
134.486706151108
 21
275.1932749382116
 31
0.0
  0
LINE
  5
1D2
330
18
100
AcDbEntity
  8
1
  6
Continuous
100
AcDbLine
 10
136.004589151108
 20
275.1932749382116
 30
0.0
 11
134.486706151108
 21
275.1932749382116
 31
0.0
  0
LINE
  5
1D3
330
18
100
AcDbEntity
  8
1
  6
Continuous
100
AcDbLine
 10
136.0585061511079
 20
276.6932749382116
 30
0.0
 11
134.486706151108
 21
276.6932749382116
 31
0.0
  0
LINE
  5
1D4
330
18
100
AcDbEntity
  8
4
  6
CENTER
 48
0.1
100
AcDbLine
 10
142.986706151108
 20
270.6932749382116
 30
0.0
 11
142.986706151108
 21
280.6932669382116
 31
0.0
  0
LINE
  5
1D8
330
18
100
AcDbEntity
  8
4
  6
CENTER
 48
0.1
100
AcDbLine
 10
142.986706151108
 20
308.6932749382116
 30
0.0
 11
142.986706151108
 21
298.6932669382117
 31
0.0
  0
LINE
  5
1D9
330
18
100
AcDbEntity
  8
1
  6
Continuous
100
AcDbLine
 10
134.486706151108
 20
304.1932749382116
 30
0.0
 11
134.486706151108
 21
302.6932749382116
 31
0.0
  0
CIRCLE
  5
1DA
330
18
100
AcDbEntity
  8
1
  6
Continuous
100
AcDbCircle
 10
142.986706151108
 20
303.6932749382116
 30
0.0
 40
3.249999799999998
  0
ARC
  5
1DB
330
18
100
AcDbEntity
  8
1
  6
Continuous
100
AcDbCircle
 10
142.986706151108
 20
303.6932649382117
 30
0.0
 40
7.0
100
AcDbArc
 50
89.99998199999916
 51
199.2330099999998
  0
ARC
  5
1DC
330
18
100
AcDbEntity
  8
1
  6
Continuous
100
AcDbCircle
 10
102.858792151108
 20
289.6932669382116
 30
0.0
 40
35.499996
100
AcDbArc
 50
340.7549285137532
 51
19.2330479999991
  0
LINE
  5
1E0
330
18
100
AcDbEntity
  8
1
  6
Continuous
100
AcDbLine
 10
136.058499151108
 20
302.6932749382116
 30
0.0
 11
134.486706151108
 21
302.6932749382116
 31
0.0
  0
LINE
  5
1E1
330
18
100
AcDbEntity
  8
4
  6
CENTER
 48
0.1
100
AcDbLine
 10
137.986706151108
 20
303.6932749382116
 30
0.0
 11
147.986706151108
 21
303.6932749382116
 31
0.0
  0
LINE
  5
1E2
330
18
100
AcDbEntity
  8
1
  6
Continuous
100
AcDbLine
 10
136.004589151108
 20
304.1932749382116
 30
0.0
 11
134.486706151108
 21
304.1932749382116
 31
0.0
  0
LINE
  5
1E3
330
18
100
AcDbEntity
  8
4
  6
CENTER
 48
0.5
100
AcDbLine
 10
170.986706151108
 20
314.3776755191583
 30
0.0
 11
170.986706151108
 21
264.1535041393323
 31
0.0
  0
ARC
  5
1E5
330
18
100
AcDbEntity
  8
1
  6
Continuous
100
AcDbCircle
 10
187.986706151108
 20
213.3068123697511
 30
0.0
 40
2.0
100
AcDbArc
 50
270.0
 51
331.8358699999993
  0
LINE
  5
1E6
330
18
100
AcDbEntity
  8
4
  6
CENTER
 48
0.5
100
AcDbLine
 10
170.986706151108
 20
221.1094990697513
 30
0.0
 11
170.986706151108
 21
183.7662815697512
 31
0.0
  0
ARC
  5
1E7
330
18
100
AcDbEntity
  8
1
  6
Continuous
100
AcDbCircle
 10
186.729136151108
 20
208.2068128697512
 30
0.0
 40
2.5
100
AcDbArc
 50
3.893010200000041
 51
89.99998199999916
  0
ARC
  5
1E9
330
18
100
AcDbEntity
  8
1
  6
Continuous
100
AcDbCircle
 10
216.0216661511081
 20
150.1932865697513
 30
0.0
 40
60.0
100
AcDbArc
 50
116.2474999999997
 51
145.935369999999
  0
LINE
  5
1EA
330
18
100
AcDbEntity
  8
1
  6
Continuous
100
AcDbLine
 10
159.394036151108
 20
208.9498937697512
 30
0.0
 11
159.394036151108
 21
176.0084265697512
 31
0.0
  0
ARC
  5
1EB
330
18
100
AcDbEntity
  8
1
  6
Continuous
100
AcDbCircle
 10
160.771186151108
 20
211.7913132197512
 30
0.0
 40
1.984500099999999
100
AcDbArc
 50
194.1311599999999
 51
213.126229999999
  0
ARC
  5
1EC
330
18
100
AcDbEntity
  8
1
  6
Continuous
100
AcDbCircle
 10
159.027846151108
 20
211.7913132197512
 30
0.0
 40
1.984500099999999
100
AcDbArc
 50
194.1311599999999
 51
213.126229999999
  0
ARC
  5
1ED
330
18
100
AcDbEntity
  8
1
  6
Continuous
100
AcDbCircle
 10
163.5444561511079
 20
211.7913132197512
 30
0.0
 40
1.984500099999999
100
AcDbArc
 50
194.1311599999999
 51
213.126229999999
  0
ARC
  5
1EE
330
18
100
AcDbEntity
  8
1
  6
Continuous
100
AcDbCircle
 10
167.068046151108
 20
211.7913132197512
 30
0.0
 40
1.984500099999999
100
AcDbArc
 50
194.1311599999999
 51
213.126229999999
  0
ARC
  5
1EF
330
18
100
AcDbEntity
  8
1
  6
Continuous
100
AcDbCircle
 10
163.5444561511079
 20
211.7913132197512
 30
0.0
 40
1.984500099999999
100
AcDbArc
 50
326.873770000001
 51
332.5952099999996
  0
ARC
  5
1F0
330
18
100
AcDbEntity
  8
1
  6
Continuous
100
AcDbCircle
 10
170.986706151108
 20
211.7913132197512
 30
0.0
 40
1.984500099999999
100
AcDbArc
 50
194.1311599999999
 51
213.126229999999
  0
ARC
  5
1F1
330
18
100
AcDbEntity
  8
1
  6
Continuous
100
AcDbCircle
 10
167.068046151108
 20
211.7913132197512
 30
0.0
 40
1.984500099999999
100
AcDbArc
 50
326.873770000001
 51
345.8688299999999
  0
ARC
  5
1F2
330
18
100
AcDbEntity
  8
1
  6
Continuous
100
AcDbCircle
 10
170.986706151108
 20
211.7913132197512
 30
0.0
 40
1.984500099999999
100
AcDbArc
 50
326.873770000001
 51
345.8688399999999
  0
ARC
  5
1F3
330
18
100
AcDbEntity
  8
1
  6
Continuous
100
AcDbCircle
 10
174.9053761511081
 20
211.7913132197512
 30
0.0
 40
1.984500099999999
100
AcDbArc
 50
194.1311599999999
 51
213.126229999999
  0
ARC
  5
1F4
330
18
100
AcDbEntity
  8
1
  6
Continuous
100
AcDbCircle
 10
178.428956151108
 20
211.7913132197512
 30
0.0
 40
1.984500099999999
100
AcDbArc
 50
207.4047900000004
 51
213.126229999999
  0
ARC
  5
1F5
330
18
100
AcDbEntity
  8
1
  6
Continuous
100
AcDbCircle
 10
174.9053761511081
 20
211.7913132197512
 30
0.0
 40
1.984500099999999
100
AcDbArc
 50
326.873770000001
 51
345.8688399999999
  0
ARC
  5
1F6
330
18
100
AcDbEntity
  8
1
  6
Continuous
100
AcDbCircle
 10
178.428956151108
 20
211.7913132197512
 30
0.0
 40
1.984500099999999
100
AcDbArc
 50
326.873770000001
 51
345.8688399999999
  0
ARC
  5
1F7
330
18
100
AcDbEntity
  8
1
  6
Continuous
100
AcDbCircle
 10
181.202226151108
 20
211.7913132197512
 30
0.0
 40
1.984500099999999
100
AcDbArc
 50
326.873770000001
 51
345.8688399999999
  0
ARC
  5
1F8
330
18
100
AcDbEntity
  8
1
  6
Continuous
100
AcDbCircle
 10
183.486706151108
 20
211.7913132197512
 30
0.0
 40
1.984500099999999
100
AcDbArc
 50
326.873770000001
 51
345.8688399999999
  0
ARC
  5
1F9
330
18
100
AcDbEntity
  8
1
  6
Continuous
100
AcDbCircle
 10
182.9455661511081
 20
211.7913132197512
 30
0.0
 40
1.984500099999999
100
AcDbArc
 50
326.873770000001
 51
345.8688399999999
  0
LINE
  5
1FA
330
18
100
AcDbEntity
  8
1
  6
Continuous
100
AcDbLine
 10
189.486706151108
 20
204.0068130697512
 30
0.0
 11
189.224606151108
 21
208.3571594697512
 31
0.0
  0
LINE
  5
1FB
330
18
100
AcDbEntity
  8
1
  6
Continuous
100
AcDbLine
 10
205.986706151108
 20
215.6068115697512
 30
0.0
 11
135.9867061511079
 21
215.6068115697512
 31
0.0
  0
LINE
  5
1FC
330
18
100
AcDbEntity
  8
1
  6
Continuous
100
AcDbLine
 10
205.986706151108
 20
217.1068115697512
 30
0.0
 11
135.9867061511079
 21
217.1068115697512
 31
0.0
  0
ARC
  5
1FD
330
18
100
AcDbEntity
  8
1
  6
Continuous
100
AcDbCircle
 10
191.7861561511081
 20
215.1068115697511
 30
0.0
 40
0.5
100
AcDbArc
 50
89.99996199999875
 51
151.8358299999995
  0
LINE
  5
1FE
330
18
100
AcDbEntity
  8
1
  6
Continuous
100
AcDbLine
 10
191.345366151108
 20
215.3428061697512
 30
0.0
 11
189.749906151108
 21
212.3628083897512
 31
0.0
  0
LINE
  5
1FF
330
18
100
AcDbEntity
  8
4
  6
CENTER
 48
0.1
100
AcDbLine
 10
198.986706151108
 20
212.7002640197512
 30
0.0
 11
198.986706151108
 21
219.9851455697511
 31
0.0
  0
LINE
  5
200
330
18
100
AcDbEntity
  8
1
  6
Continuous
100
AcDbLine
 10
205.986706151108
 20
215.6068115697512
 30
0.0
 11
205.986706151108
 21
217.1068077697511
 31
0.0
  0
LINE
  5
201
330
18
100
AcDbEntity
  8
1
  6
Continuous
100
AcDbLine
 10
198.986706151108
 20
268.6932749382116
 30
0.0
 11
142.986706151108
 21
268.6932749382116
 31
0.0
  0
LINE
  5
202
330
18
100
AcDbEntity
  8
4
  6
CENTER
 48
0.1
100
AcDbLine
 10
203.986706151108
 20
275.6932749382116
 30
0.0
 11
193.986706151108
 21
275.6932749382116
 31
0.0
  0
ARC
  5
203
330
18
100
AcDbEntity
  8
1
  6
Continuous
100
AcDbCircle
 10
198.986706151108
 20
275.6932749382116
 30
0.0
 40
7.0
100
AcDbArc
 50
270.0
 51
19.18274178032268
  0
LINE
  5
204
330
18
100
AcDbEntity
  8
4
  6
CENTER
 48
0.1
100
AcDbLine
 10
198.986706151108
 20
270.6932749382116
 30
0.0
 11
198.986706151108
 21
280.6932749382117
 31
0.0
  0
CIRCLE
  5
205
330
18
100
AcDbEntity
  8
1
  6
Continuous
100
AcDbCircle
 10
198.986706151108
 20
275.6932749382116
 30
0.0
 40
3.249999799999998
  0
LINE
  5
206
330
18
100
AcDbEntity
  8
1
  6
Continuous
100
AcDbLine
 10
198.986706151108
 20
310.6932749382116
 30
0.0
 11
142.986708350223
 21
310.6932649382113
 31
0.0
  0
CIRCLE
  5
207
330
18
100
AcDbEntity
  8
1
  6
Continuous
100
AcDbCircle
 10
170.986706151108
 20
289.6932749382116
 30
0.0
 40
6.75
  0
CIRCLE
  5
208
330
18
100
AcDbEntity
  8
1
  6
Continuous
100
AcDbCircle
 10
170.986706151108
 20
289.6932749382116
 30
0.0
 40
7.75
  0
LINE
  5
209
330
18
100
AcDbEntity
  8
4
  6
CENTER
 48
0.1
100
AcDbLine
 10
198.986706151108
 20
308.6932749382116
 30
0.0
 11
198.986706151108
 21
298.6932749382116
 31
0.0
  0
CIRCLE
  5
20A
330
18
100
AcDbEntity
  8
1
  6
Continuous
100
AcDbCircle
 10
198.986706151108
 20
303.6932749382116
 30
0.0
 40
3.249999799999998
  0
ARC
  5
20B
330
18
100
AcDbEntity
  8
1
  6
Continuous
100
AcDbCircle
 10
198.986706151108
 20
303.6932749382116
 30
0.0
 40
7.0
100
AcDbArc
 50
340.7669200000007
 51
89.99996799999903
  0
ARC
  5
20C
330
18
100
AcDbEntity
  8
1
  6
Continuous
100
AcDbCircle
 10
239.114616151108
 20
289.6932829382116
 30
0.0
 40
35.499996
100
AcDbArc
 50
160.7668900000003
 51
199.2430186893132
  0
LINE
  5
20D
330
18
100
AcDbEntity
  8
4
  6
CENTER
 48
0.1
100
AcDbLine
 10
203.986706151108
 20
303.6932749382116
 30
0.0
 11
193.986706151108
 21
303.6932749382116
 31
0.0
  0
LINE
  5
38E
330
18
100
AcDbEntity
  8
4
  6
CENTER
 48
0.5
100
AcDbLine
 10
293.1055171733028
 20
221.9881630697511
 30
0.0
 11
293.1055171733028
 21
121.0569385697513
 31
0.0
  0
LINE
  5
38F
330
18
100
AcDbEntity
  8
1
  6
Continuous
100
AcDbLine
 10
307.6055171733028
 20
173.5617402195761
 30
0.0
 11
307.6055171733028
 21
153.7068135697513
 31
0.0
  0
LINE
  5
390
330
18
100
AcDbEntity
  8
1
  6
Continuous
100
AcDbLine
 10
278.6055171733028
 20
173.5617402195761
 30
0.0
 11
278.6055171733028
 21
153.7068135697513
 31
0.0
  0
LINE
  5
391
330
18
100
AcDbEntity
  8
1
  6
Continuous
100
AcDbLine
 10
280.1055171733028
 20
200.7587336948378
 30
0.0
 11
280.1055171733028
 21
153.7068135697513
 31
0.0
  0
LINE
  5
392
330
18
100
AcDbEntity
  8
1
  6
Continuous
100
AcDbLine
 10
306.1055171733028
 20
200.7587336948378
 30
0.0
 11
306.1055171733028
 21
153.7068135697513
 31
0.0
  0
ARC
  5
395
330
18
100
AcDbEntity
  8
1
  6
Continuous
100
AcDbCircle
 10
281.8679761733029
 20
188.9753375697512
 30
0.0
 40
30.0
100
AcDbArc
 50
329.0836500000005
 51
13.6146355893999
  0
ARC
  5
396
330
18
100
AcDbEntity
  8
1
  6
Continuous
100
AcDbCircle
 10
304.3430581733026
 20
188.9753375697512
 30
0.0
 40
30.0
100
AcDbArc
 50
166.3853644105999
 51
210.9163900000003
  0
LINE
  5
39D
330
18
100
AcDbEntity
  8
4
  6
CENTER
 48
0.5
100
AcDbLine
 10
313.0019331733028
 20
162.6068155697511
 30
0.0
 11
271.5796931733028
 21
162.6068155697511
 31
0.0
  0
LINE
  5
3A0
330
18
100
AcDbEntity
  8
1
  6
Continuous
100
AcDbLine
 10
307.6055171733028
 20
153.7068135697513
 30
0.0
 11
306.1055171733028
 21
153.7068135697513
 31
0.0
  0
ARC
  5
3A2
330
18
100
AcDbEntity
  8
1
  6
Continuous
100
AcDbCircle
 10
307.9055351733027
 20
166.1068155697511
 30
0.0
 40
1.199999999999999
100
AcDbArc
 50
0.0000400000007758
 51
90.00001800000083
  0
ARC
  5
3A5
330
18
100
AcDbEntity
  8
1
  6
Continuous
100
AcDbCircle
 10
307.9055351733027
 20
159.1068155697513
 30
0.0
 40
1.199999999999999
100
AcDbArc
 50
269.9999700000002
 51
0.0000200000003914
  0
LINE
  5
3A6
330
18
100
AcDbEntity
  8
1
  6
Continuous
100
AcDbLine
 10
307.9055351733027
 20
157.9068145697513
 30
0.0
 11
307.6055321733027
 21
157.9068145697513
 31
0.0
  0
LINE
  5
3A7
330
18
100
AcDbEntity
  8
1
  6
Continuous
100
AcDbLine
 10
309.1055321733027
 20
166.1068155697511
 30
0.0
 11
309.1055321733027
 21
159.1068155697513
 31
0.0
  0
LINE
  5
3A9
330
18
100
AcDbEntity
  8
1
  6
Continuous
100
AcDbLine
 10
307.9055351733027
 20
167.3068165697513
 30
0.0
 11
307.6055321733027
 21
167.3068165697513
 31
0.0
  0
LINE
  5
3AE
330
18
100
AcDbEntity
  8
1
  6
Continuous
100
AcDbLine
 10
280.1055171733028
 20
153.7068135697513
 30
0.0
 11
278.6055171733028
 21
153.7068135697513
 31
0.0
  0
LINE
  5
3B1
330
18
100
AcDbEntity
  8
1
  6
Continuous
100
AcDbLine
 10
277.6055021733029
 20
167.6068155697511
 30
0.0
 11
277.6055021733029
 21
157.6068155697511
 31
0.0
  0
ARC
  5
3B2
330
18
100
AcDbEntity
  8
1
  6
Continuous
100
AcDbCircle
 10
285.4769161733027
 20
162.6068155697511
 30
0.0
 40
9.325191499999997
100
AcDbArc
 50
147.5758659999994
 51
173.8439700999999
  0
ARC
  5
3B3
330
18
100
AcDbEntity
  8
1
  6
Continuous
100
AcDbCircle
 10
285.4769161733027
 20
162.6068155697511
 30
0.0
 40
9.325191499999997
100
AcDbArc
 50
186.1560200000006
 51
212.4241300000003
  0
LINE
  5
3B4
330
18
100
AcDbEntity
  8
1
  6
Continuous
100
AcDbLine
 10
278.6055021733029
 20
157.6068155697511
 30
0.0
 11
277.6055021733029
 21
157.6068155697511
 31
0.0
  0
LINE
  5
3B5
330
18
100
AcDbEntity
  8
1
  6
Continuous
100
AcDbLine
 10
276.2055001733028
 20
163.6068385697511
 30
0.0
 11
276.2055001733028
 21
161.6067925697513
 31
0.0
  0
LINE
  5
3B8
330
18
100
AcDbEntity
  8
1
  6
Continuous
100
AcDbLine
 10
278.6055021733029
 20
167.6068155697511
 30
0.0
 11
277.6055021733029
 21
167.6068155697511
 31
0.0
  0
ARC
  5
3BD
330
18
100
AcDbEntity
  8
1
  6
Continuous
100
AcDbCircle
 10
293.1055171733028
 20
176.3674205697512
 30
0.0
 40
27.639395
100
AcDbArc
 50
54.7693242675625
 51
125.2306757324372
  0
LINE
  5
3BF
330
18
100
AcDbEntity
  8
1
  6
Continuous
100
AcDbLine
 10
308.8055141733028
 20
210.7068128697512
 30
0.0
 11
277.4055161733028
 21
210.7068128697512
 31
0.0
  0
LINE
  5
3C2
330
18
100
AcDbEntity
  8
1
  6
Continuous
100
AcDbLine
 10
310.1055171733028
 20
211.3068123297511
 30
0.0
 11
276.1055171733028
 21
211.3068123697511
 31
0.0
  0
LINE
  5
3C3
330
18
100
AcDbEntity
  8
1
  6
Continuous
100
AcDbLine
 10
272.1055171733028
 20
217.1068115697512
 30
0.0
 11
314.1055171733028
 21
217.1068115697512
 31
0.0
  0
LINE
  5
3C4
330
18
100
AcDbEntity
  8
1
  6
Continuous
100
AcDbLine
 10
272.1055171733028
 20
215.6068115697512
 30
0.0
 11
314.1055171733028
 21
215.6068115697512
 31
0.0
  0
LINE
  5
3C5
330
18
100
AcDbEntity
  8
1
  6
Continuous
100
AcDbLine
 10
311.8554941682416
 20
189.8406493651338
 30
0.0
 11
311.3043961733028
 21
208.2814910697512
 31
0.0
  0
LINE
  5
3C7
330
18
100
AcDbEntity
  8
1
  6
Continuous
100
AcDbLine
 10
313.4641751733028
 20
215.3428111697512
 30
0.0
 11
311.8687161733028
 21
212.3628166197512
 31
0.0
  0
LINE
  5
3C8
330
18
100
AcDbEntity
  8
1
  6
Continuous
100
AcDbLine
 10
314.1055171733028
 20
217.1068115697512
 30
0.0
 11
314.1055171733028
 21
215.6068115697512
 31
0.0
  0
ARC
  5
3C9
330
18
100
AcDbEntity
  8
1
  6
Continuous
100
AcDbCircle
 10
313.9049711733028
 20
215.1068115697511
 30
0.0
 40
0.5
100
AcDbArc
 50
89.99998400000034
 51
151.8358430000001
  0
ARC
  5
3CA
330
18
100
AcDbEntity
  8
1
  6
Continuous
100
AcDbCircle
 10
308.8055141733028
 20
208.2068128697512
 30
0.0
 40
2.5
100
AcDbArc
 50
1.711720000000771
 51
90.00001800000083
  0
ARC
  5
3CC
330
18
100
AcDbEntity
  8
1
  6
Continuous
100
AcDbCircle
 10
303.3210321733028
 20
211.7913132197512
 30
0.0
 40
1.984500099999999
100
AcDbArc
 50
326.873770000001
 51
345.8688399999999
  0
ARC
  5
3CD
330
18
100
AcDbEntity
  8
1
  6
Continuous
100
AcDbCircle
 10
305.6055171733028
 20
211.7913132197512
 30
0.0
 40
1.984500099999999
100
AcDbArc
 50
326.873770000001
 51
345.8688399999999
  0
ARC
  5
3CE
330
18
100
AcDbEntity
  8
1
  6
Continuous
100
AcDbCircle
 10
305.0643791733028
 20
211.7913132197512
 30
0.0
 40
1.984500099999999
100
AcDbArc
 50
326.873770000001
 51
345.8688399999999
  0
LINE
  5
3CF
330
18
100
AcDbEntity
  8
4
  6
CENTER
 48
0.1
100
AcDbLine
 10
307.1055171733028
 20
219.1074295697512
 30
0.0
 11
307.1055171733028
 21
213.4176254697512
 31
0.0
  0
ARC
  5
3D0
330
18
100
AcDbEntity
  8
1
  6
Continuous
100
AcDbCircle
 10
310.1055171733028
 20
213.3068123697511
 30
0.0
 40
2.0
100
AcDbArc
 50
270.0
 51
331.8359
  0
ARC
  5
3D1
330
18
100
AcDbEntity
  8
1
  6
Continuous
100
AcDbCircle
 10
300.5477621733029
 20
211.7913132197512
 30
0.0
 40
1.984500099999999
100
AcDbArc
 50
326.873770000001
 51
345.8688399999999
  0
ARC
  5
3D2
330
18
100
AcDbEntity
  8
1
  6
Continuous
100
AcDbCircle
 10
300.5477621733029
 20
211.7913132197512
 30
0.0
 40
1.984500099999999
100
AcDbArc
 50
207.4047900000004
 51
213.126229999999
  0
ARC
  5
3D3
330
18
100
AcDbEntity
  8
1
  6
Continuous
100
AcDbCircle
 10
297.0241801733028
 20
211.7913132197512
 30
0.0
 40
1.984500099999999
100
AcDbArc
 50
326.873770000001
 51
345.8688399999999
  0
ARC
  5
3D6
330
18
100
AcDbEntity
  8
1
  6
Continuous
100
AcDbCircle
 10
293.1055171733028
 20
211.7913132197512
 30
0.0
 40
1.984500099999999
100
AcDbArc
 50
326.873770000001
 51
345.8688399999999
  0
ARC
  5
3D7
330
18
100
AcDbEntity
  8
1
  6
Continuous
100
AcDbCircle
 10
289.1868541733026
 20
211.7913132197512
 30
0.0
 40
1.984500099999999
100
AcDbArc
 50
326.873770000001
 51
345.8688399999999
  0
ARC
  5
3D8
330
18
100
AcDbEntity
  8
1
  6
Continuous
100
AcDbCircle
 10
293.1055171733028
 20
211.7913132197512
 30
0.0
 40
1.984500099999999
100
AcDbArc
 50
194.13116
 51
213.126229999999
  0
ARC
  5
3D9
330
18
100
AcDbEntity
  8
1
  6
Continuous
100
AcDbCircle
 10
297.0241801733028
 20
211.7913132197512
 30
0.0
 40
1.984500099999999
100
AcDbArc
 50
194.13117
 51
213.126229999999
  0
ARC
  5
3DA
330
18
100
AcDbEntity
  8
1
  6
Continuous
100
AcDbCircle
 10
285.6632721733026
 20
211.7913132197512
 30
0.0
 40
1.984500099999999
100
AcDbArc
 50
326.873770000001
 51
332.5952099999996
  0
ARC
  5
3DB
330
18
100
AcDbEntity
  8
1
  6
Continuous
100
AcDbCircle
 10
285.6632721733026
 20
211.7913132197512
 30
0.0
 40
1.984500099999999
100
AcDbArc
 50
194.13116
 51
213.126229999999
  0
ARC
  5
3DC
330
18
100
AcDbEntity
  8
1
  6
Continuous
100
AcDbCircle
 10
289.1868541733026
 20
211.7913132197512
 30
0.0
 40
1.984500099999999
100
AcDbArc
 50
194.13116
 51
213.126229999999
  0
ARC
  5
3DD
330
18
100
AcDbEntity
  8
1
  6
Continuous
100
AcDbCircle
 10
277.4055161733028
 20
208.2068128697512
 30
0.0
 40
2.5
100
AcDbArc
 50
90.00001800000083
 51
178.2882651000005
  0
ARC
  5
3DF
330
18
100
AcDbEntity
  8
1
  6
Continuous
100
AcDbCircle
 10
276.1055171733028
 20
213.3068123697511
 30
0.0
 40
2.0
100
AcDbArc
 50
208.1641300000004
 51
270.0
  0
LINE
  5
3E0
330
18
100
AcDbEntity
  8
1
  6
Continuous
100
AcDbLine
 10
272.7468631733028
 20
215.3428063697512
 30
0.0
 11
274.3423221733029
 21
212.3628081497511
 31
0.0
  0
ARC
  5
3E1
330
18
100
AcDbEntity
  8
1
  6
Continuous
100
AcDbCircle
 10
281.1466551733028
 20
211.7913132197512
 30
0.0
 40
1.984500099999999
100
AcDbArc
 50
194.13116
 51
213.126229999999
  0
ARC
  5
3E2
330
18
100
AcDbEntity
  8
1
  6
Continuous
100
AcDbCircle
 10
280.6055171733028
 20
211.7913132197512
 30
0.0
 40
1.984500099999999
100
AcDbArc
 50
194.13116
 51
213.126229999999
  0
LINE
  5
3E3
330
18
100
AcDbEntity
  8
4
  6
CENTER
 48
0.1
100
AcDbLine
 10
279.1055171733028
 20
219.1074295697512
 30
0.0
 11
279.1055171733028
 21
213.1326523697512
 31
0.0
  0
ARC
  5
3E4
330
18
100
AcDbEntity
  8
1
  6
Continuous
100
AcDbCircle
 10
282.8900021733029
 20
211.7913132197512
 30
0.0
 40
1.984500099999999
100
AcDbArc
 50
194.13116
 51
213.126229999999
  0
LINE
  5
3E5
330
18
100
AcDbEntity
  8
1
  6
Continuous
100
AcDbLine
 10
272.1055171733028
 20
217.1068115697512
 30
0.0
 11
272.1055171733028
 21
215.6068115697512
 31
0.0
  0
ARC
  5
3E6
330
18
100
AcDbEntity
  8
1
  6
Continuous
100
AcDbCircle
 10
272.3060631733029
 20
215.1068115697511
 30
0.0
 40
0.5
100
AcDbArc
 50
28.16417000000035
 51
90.00003800000122
  0
LINE
  5
4A3
330
18
100
AcDbEntity
  8
4
  6
CENTER
 48
0.5
100
AcDbLine
 10
401.7243281954976
 20
162.6068155697511
 30
0.0
 11
486.7243281954976
 21
162.6068155697511
 31
0.0
  0
LINE
  5
4A6
330
18
100
AcDbEntity
  8
1
  6
Continuous
100
AcDbLine
 10
426.8169981954976
 20
208.9498937697512
 30
0.0
 11
426.8169981954976
 21
176.0084265697512
 31
0.0
  0
LINE
  5
4A7
330
18
100
AcDbEntity
  8
1
  6
Continuous
100
AcDbLine
 10
449.3243261954975
 20
203.6683569697512
 30
0.0
 11
451.7122581954976
 21
161.6321795697513
 31
0.0
  0
LINE
  5
4A8
330
18
100
AcDbEntity
  8
4
  6
CENTER
 48
0.5
100
AcDbLine
 10
444.2243281954975
 20
205.1068144697512
 30
0.0
 11
444.2243281954975
 21
120.1068115697512
 31
0.0
  0
LINE
  5
4AA
330
18
100
AcDbEntity
  8
1
  6
Continuous
100
AcDbLine
 10
419.8937281954973
 20
183.8009665697512
 30
0.0
 11
438.0112781954975
 21
157.0058555697513
 31
0.0
  0
ARC
  5
4AC
330
18
100
AcDbEntity
  8
1
  6
Continuous
100
AcDbCircle
 10
444.2243281954975
 20
161.2068135697513
 30
0.0
 40
7.5
100
AcDbArc
 50
214.0646600000005
 51
3.251250000000089
  0
CIRCLE
  5
4AD
330
18
100
AcDbEntity
  8
1
  6
Continuous
100
AcDbCircle
 10
444.2243281954975
 20
162.6068155697511
 30
0.0
 40
4.699999999999846
  0
CIRCLE
  5
4AF
330
18
100
AcDbEntity
  8
1
  6
Continuous
100
AcDbCircle
 10
444.2243281954975
 20
162.6068155697511
 30
0.0
 40
2.499999999999857
  0
LINE
  5
4B2
330
18
100
AcDbEntity
  8
1
  6
Continuous
100
AcDbLine
 10
380.2243281954975
 20
217.1068115697512
 30
0.0
 11
450.2243281954974
 21
217.1068115697512
 31
0.0
  0
LINE
  5
4B3
330
18
100
AcDbEntity
  8
1
  6
Continuous
100
AcDbLine
 10
380.2243281954975
 20
215.6068115697512
 30
0.0
 11
450.2243281954974
 21
215.6068115697512
 31
0.0
  0
ARC
  5
4B4
330
18
100
AcDbEntity
  8
1
  6
Continuous
100
AcDbCircle
 10
415.2243281954975
 20
211.7913132197512
 30
0.0
 40
1.984500099999999
100
AcDbArc
 50
326.873770000001
 51
345.8688399999999
  0
ARC
  5
4B5
330
18
100
AcDbEntity
  8
1
  6
Continuous
100
AcDbCircle
 10
370.1893681954975
 20
150.1932865697513
 30
0.0
 40
60.0
100
AcDbArc
 50
34.06463000000082
 51
63.75250000000023
  0
LINE
  5
4B6
330
18
100
AcDbEntity
  8
1
  6
Continuous
100
AcDbLine
 10
432.2243281954976
 20
211.3068123297511
 30
0.0
 11
398.2243281954973
 21
211.3068123697511
 31
0.0
  0
LINE
  5
4B7
330
18
100
AcDbEntity
  8
1
  6
Continuous
100
AcDbLine
 10
430.9667581954975
 20
210.7068127697512
 30
0.0
 11
399.4818981954976
 21
210.7068127697512
 31
0.0
  0
LINE
  5
4B8
330
18
100
AcDbEntity
  8
1
  6
Continuous
100
AcDbLine
 10
451.1248031954975
 20
204.8740244697512
 30
0.0
 11
428.0093981954975
 21
208.9498935697512
 31
0.0
  0
LINE
  5
4B9
330
18
100
AcDbEntity
  8
1
  6
Continuous
100
AcDbLine
 10
450.8643271954975
 20
203.3968124697512
 30
0.0
 11
449.3243261954975
 21
203.6683569697512
 31
0.0
  0
LINE
  5
4BA
330
18
100
AcDbEntity
  8
1
  6
Continuous
100
AcDbLine
 10
450.8643271954975
 20
203.3968124697512
 30
0.0
 11
451.1248031954975
 21
204.8740239697512
 31
0.0
  0
LINE
  5
4BB
330
18
100
AcDbEntity
  8
1
  6
Continuous
100
AcDbLine
 10
449.3243261954975
 20
203.6683578697512
 30
0.0
 11
449.5848021954976
 21
205.1455693697512
 31
0.0
  0
LINE
  5
4BC
330
18
100
AcDbEntity
  8
1
  6
Continuous
100
AcDbLine
 10
450.2243281954974
 20
215.6068115697512
 30
0.0
 11
450.2243281954974
 21
217.1068115697512
 31
0.0
  0
ARC
  5
4BD
330
18
100
AcDbEntity
  8
1
  6
Continuous
100
AcDbCircle
 10
430.9667581954975
 20
207.7068128697512
 30
0.0
 40
3.0
100
AcDbArc
 50
38.27314000000017
 51
89.99999699999904
  0
ARC
  5
4BE
330
18
100
AcDbEntity
  8
1
  6
Continuous
100
AcDbCircle
 10
432.2243281954976
 20
213.3068123697511
 30
0.0
 40
2.0
100
AcDbArc
 50
270.0
 51
331.8359
  0
LINE
  5
4BF
330
18
100
AcDbEntity
  8
1
  6
Continuous
100
AcDbLine
 10
434.7442681954976
 20
207.7623515697512
 30
0.0
 11
433.3219581954976
 21
209.5650425697511
 31
0.0
  0
LINE
  5
4C0
330
18
100
AcDbEntity
  8
4
  6
CENTER
 48
0.1
100
AcDbLine
 10
443.2243281954976
 20
212.5689392597512
 30
0.0
 11
443.2243281954976
 21
219.9851455697511
 31
0.0
  0
LINE
  5
4C1
330
18
100
AcDbEntity
  8
1
  6
Continuous
100
AcDbLine
 10
435.5829881954973
 20
215.3428099697512
 30
0.0
 11
433.9875281954975
 21
212.3628154897512
 31
0.0
  0
ARC
  5
4C2
330
18
100
AcDbEntity
  8
1
  6
Continuous
100
AcDbCircle
 10
436.0237781954975
 20
215.1068115697511
 30
0.0
 40
0.5
100
AcDbArc
 50
89.99998400000034
 51
151.8358430000001
  0
ARC
  5
4C3
330
18
100
AcDbEntity
  8
1
  6
Continuous
100
AcDbCircle
 10
427.1831881954975
 20
211.7913132197512
 30
0.0
 40
1.984500099999999
100
AcDbArc
 50
326.873770000001
 51
345.8688399999999
  0
ARC
  5
4C4
330
18
100
AcDbEntity
  8
1
  6
Continuous
100
AcDbCircle
 10
425.4398481954972
 20
211.7913132197512
 30
0.0
 40
1.984500099999999
100
AcDbArc
 50
326.873770000001
 51
345.8688399999999
  0
ARC
  5
4C5
330
18
100
AcDbEntity
  8
1
  6
Continuous
100
AcDbCircle
 10
427.7243281954975
 20
211.7913132197512
 30
0.0
 40
1.984500099999999
100
AcDbArc
 50
326.873770000001
 51
345.8688399999999
  0
ARC
  5
4C6
330
18
100
AcDbEntity
  8
1
  6
Continuous
100
AcDbCircle
 10
419.1429881954975
 20
211.7913132197512
 30
0.0
 40
1.984500099999999
100
AcDbArc
 50
194.13117
 51
213.126229999999
  0
ARC
  5
4C7
330
18
100
AcDbEntity
  8
1
  6
Continuous
100
AcDbCircle
 10
422.6665781954975
 20
211.7913132197512
 30
0.0
 40
1.984500099999999
100
AcDbArc
 50
207.4047900000004
 51
213.126229999999
  0
ARC
  5
4C8
330
18
100
AcDbEntity
  8
1
  6
Continuous
100
AcDbCircle
 10
419.1429881954975
 20
211.7913132197512
 30
0.0
 40
1.984500099999999
100
AcDbArc
 50
326.873770000001
 51
345.8688399999999
  0
ARC
  5
4C9
330
18
100
AcDbEntity
  8
1
  6
Continuous
100
AcDbCircle
 10
422.6665781954975
 20
211.7913132197512
 30
0.0
 40
1.984500099999999
100
AcDbArc
 50
326.873770000001
 51
345.8688399999999
  0
LINE
  5
4CB
330
18
100
AcDbEntity
  8
4
  6
CENTER
 48
0.5
100
AcDbLine
 10
415.2243281954975
 20
221.1094990697513
 30
0.0
 11
415.2243281954975
 21
183.7662815697512
 31
0.0
  0
ARC
  5
4CC
330
18
100
AcDbEntity
  8
1
  6
Continuous
100
AcDbCircle
 10
403.2654681954975
 20
211.7913132197512
 30
0.0
 40
1.984500099999999
100
AcDbArc
 50
194.13116
 51
213.126229999999
  0
ARC
  5
4CD
330
18
100
AcDbEntity
  8
1
  6
Continuous
100
AcDbCircle
 10
411.3056581954975
 20
211.7913132197512
 30
0.0
 40
1.984500099999999
100
AcDbArc
 50
194.13116
 51
213.126229999999
  0
ARC
  5
4CE
330
18
100
AcDbEntity
  8
1
  6
Continuous
100
AcDbCircle
 10
407.7820781954976
 20
211.7913132197512
 30
0.0
 40
1.984500099999999
100
AcDbArc
 50
326.873770000001
 51
332.5952099999996
  0
ARC
  5
4CF
330
18
100
AcDbEntity
  8
1
  6
Continuous
100
AcDbCircle
 10
411.3056581954975
 20
211.7913132197512
 30
0.0
 40
1.984500099999999
100
AcDbArc
 50
326.873770000001
 51
345.8688399999999
  0
ARC
  5
4D0
330
18
100
AcDbEntity
  8
1
  6
Continuous
100
AcDbCircle
 10
415.2243281954975
 20
211.7913132197512
 30
0.0
 40
1.984500099999999
100
AcDbArc
 50
194.13116
 51
213.126229999999
  0
ARC
  5
4D1
330
18
100
AcDbEntity
  8
1
  6
Continuous
100
AcDbCircle
 10
405.0088081954973
 20
211.7913132197512
 30
0.0
 40
1.984500099999999
100
AcDbArc
 50
194.13116
 51
213.126229999999
  0
ARC
  5
4D2
330
18
100
AcDbEntity
  8
1
  6
Continuous
100
AcDbCircle
 10
407.7820781954976
 20
211.7913132197512
 30
0.0
 40
1.984500099999999
100
AcDbArc
 50
194.13116
 51
213.126229999999
  0
ARC
  5
4D3
330
18
100
AcDbEntity
  8
1
  6
Continuous
100
AcDbCircle
 10
399.4818981954976
 20
208.2068128697512
 30
0.0
 40
2.5
100
AcDbArc
 50
90.00001800000083
 51
176.1069897999999
  0
LINE
  5
4D4
330
18
100
AcDbEntity
  8
1
  6
Continuous
100
AcDbLine
 10
396.7243281954976
 20
204.0068130697512
 30
0.0
 11
396.9864281954976
 21
208.3571594697512
 31
0.0
  0
LINE
  5
4D5
330
18
100
AcDbEntity
  8
1
  6
Continuous
100
AcDbLine
 10
394.8656681954975
 20
215.3428061697512
 30
0.0
 11
396.4611281954976
 21
212.3628083897512
 31
0.0
  0
ARC
  5
4D6
330
18
100
AcDbEntity
  8
1
  6
Continuous
100
AcDbCircle
 10
394.4248781954975
 20
215.1068115697511
 30
0.0
 40
0.5
100
AcDbArc
 50
28.16417000000035
 51
90.00003800000122
  0
ARC
  5
4D7
330
18
100
AcDbEntity
  8
1
  6
Continuous
100
AcDbCircle
 10
402.7243281954975
 20
211.7913132197512
 30
0.0
 40
1.984500099999999
100
AcDbArc
 50
194.13116
 51
213.126229999999
  0
ARC
  5
4D8
330
18
100
AcDbEntity
  8
1
  6
Continuous
100
AcDbCircle
 10
398.2243281954973
 20
213.3068123697511
 30
0.0
 40
2.0
100
AcDbArc
 50
208.1641300000004
 51
270.0
  0
LINE
  5
4D9
330
18
100
AcDbEntity
  8
4
  6
CENTER
 48
0.1
100
AcDbLine
 10
387.2243281954975
 20
212.7002640197512
 30
0.0
 11
387.2243281954975
 21
219.9851455697511
 31
0.0
  0
LINE
  5
4DA
330
18
100
AcDbEntity
  8
1
  6
Continuous
100
AcDbLine
 10
380.2243281954975
 20
215.6068115697512
 30
0.0
 11
380.2243281954975
 21
217.1068077697511
 31
0.0
  0
LINE
  5
560
330
18
100
AcDbEntity
  8
4
  6
CENTER
 48
0.5
100
AcDbLine
 10
208.0988372702071
 20
53.35182670129086
 30
0.0
 11
100.0040890302261
 21
53.35182670129086
 31
0.0
  0
LINE
  5
56B
330
18
100
AcDbEntity
  8
1
  6
Continuous
100
AcDbLine
 10
198.986706151108
 20
32.35182670129086
 30
0.0
 11
142.986708350223
 21
32.35183670129117
 31
0.0
  0
LINE
  5
56C
330
18
100
AcDbEntity
  8
1
  6
Continuous
100
AcDbLine
 10
198.986706151108
 20
74.35182670129086
 30
0.0
 11
142.986706151108
 21
74.35182670129086
 31
0.0
  0
LINE
  5
570
330
18
100
AcDbEntity
  8
4
  6
CENTER
 48
0.5
100
AcDbLine
 10
141.986706151108
 20
29.80888506453243
 30
0.0
 11
141.986706151108
 21
77.60745672667805
 31
0.0
  0
LINE
  5
572
330
18
100
AcDbEntity
  8
4
  6
CENTER
 48
0.1
100
AcDbLine
 10
137.986706151108
 20
67.35182670129086
 30
0.0
 11
147.986706151108
 21
67.35182670129086
 31
0.0
  0
ARC
  5
573
330
18
100
AcDbEntity
  8
1
  6
Continuous
100
AcDbCircle
 10
142.986706151108
 20
67.35182670129086
 30
0.0
 40
7.0
100
AcDbArc
 50
90.00005000000015
 51
175.9039562418476
  0
LINE
  5
574
330
18
100
AcDbEntity
  8
1
  6
Continuous
100
AcDbLine
 10
157.7202311959945
 20
66.35182670129086
 30
0.0
 11
134.486706151108
 21
66.35182670129086
 31
0.0
  0
LINE
  5
575
330
18
100
AcDbEntity
  8
1
  6
Continuous
100
AcDbLine
 10
157.8718530785349
 20
67.85182670129086
 30
0.0
 11
134.486706151108
 21
67.85182670129086
 31
0.0
  0
LINE
  5
576
330
18
100
AcDbEntity
  8
1
  6
Continuous
100
AcDbLine
 10
134.486706151108
 20
66.35182670129086
 30
0.0
 11
134.486706151108
 21
67.85182670129086
 31
0.0
  0
LINE
  5
57A
330
18
100
AcDbEntity
  8
4
  6
CENTER
 48
0.1
100
AcDbLine
 10
142.986706151108
 20
72.35182670129086
 30
0.0
 11
142.986706151108
 21
62.35183470129086
 31
0.0
  0
ARC
  5
57B
330
18
100
AcDbEntity
  8
1
  6
Continuous
100
AcDbCircle
 10
142.986706151108
 20
67.35183470129084
 30
0.0
 40
3.249999799999998
100
AcDbArc
 50
322.0199458743187
 51
342.0796374934738
  0
LINE
  5
57C
330
18
100
AcDbEntity
  8
4
  6
CENTER
 48
0.1
100
AcDbLine
 10
137.986706151108
 20
39.35182670129086
 30
0.0
 11
147.986706151108
 21
39.35182670129086
 31
0.0
  0
ARC
  5
57D
330
18
100
AcDbEntity
  8
1
  6
Continuous
100
AcDbCircle
 10
142.986706151108
 20
39.35183670129083
 30
0.0
 40
7.0
100
AcDbArc
 50
163.3985358124657
 51
171.7868719975873
  0
LINE
  5
580
330
18
100
AcDbEntity
  8
1
  6
Continuous
100
AcDbLine
 10
157.8718530785355
 20
38.85182670129086
 30
0.0
 11
134.486706151108
 21
38.85182670129086
 31
0.0
  0
LINE
  5
581
330
18
100
AcDbEntity
  8
1
  6
Continuous
100
AcDbLine
 10
157.7202311959953
 20
40.35182670129086
 30
0.0
 11
134.486706151108
 21
40.35182670129086
 31
0.0
  0
LINE
  5
583
330
18
100
AcDbEntity
  8
1
  6
Continuous
100
AcDbLine
 10
134.486706151108
 20
38.85182670129086
 30
0.0
 11
134.486706151108
 21
40.35182670129086
 31
0.0
  0
LINE
  5
585
330
18
100
AcDbEntity
  8
4
  6
CENTER
 48
0.1
100
AcDbLine
 10
142.986706151108
 20
34.35182670129086
 30
0.0
 11
142.986706151108
 21
44.35183470129085
 31
0.0
  0
ARC
  5
587
330
18
100
AcDbEntity
  8
1
  6
Continuous
100
AcDbCircle
 10
239.114616151108
 20
53.35181870129082
 30
0.0
 40
35.499996
100
AcDbArc
 50
160.7569813106866
 51
199.2331099999996
  0
LINE
  5
588
330
18
100
AcDbEntity
  8
4
  6
CENTER
 48
0.5
100
AcDbLine
 10
170.986706151108
 20
28.66742612034419
 30
0.0
 11
170.986706151108
 21
78.89159750017029
 31
0.0
  0
CIRCLE
  5
58A
330
18
100
AcDbEntity
  8
1
  6
Continuous
100
AcDbCircle
 10
198.986706151108
 20
67.35182670129086
 30
0.0
 40
3.249999799999998
  0
ARC
  5
58B
330
18
100
AcDbEntity
  8
1
  6
Continuous
100
AcDbCircle
 10
198.986706151108
 20
67.35182670129086
 30
0.0
 40
7.0
100
AcDbArc
 50
340.8172582196773
 51
90.00000000000005
  0
LINE
  5
58C
330
18
100
AcDbEntity
  8
4
  6
CENTER
 48
0.1
100
AcDbLine
 10
203.986706151108
 20
67.35182670129086
 30
0.0
 11
193.986706151108
 21
67.35182670129086
 31
0.0
  0
LINE
  5
58D
330
18
100
AcDbEntity
  8
4
  6
CENTER
 48
0.1
100
AcDbLine
 10
198.986706151108
 20
72.35182670129086
 30
0.0
 11
198.986706151108
 21
62.35182670129085
 31
0.0
  0
LINE
  5
58E
330
18
100
AcDbEntity
  8
4
  6
CENTER
 48
0.1
100
AcDbLine
 10
203.986706151108
 20
39.35182670129086
 30
0.0
 11
193.986706151108
 21
39.35182670129086
 31
0.0
  0
ARC
  5
58F
330
18
100
AcDbEntity
  8
1
  6
Continuous
100
AcDbCircle
 10
198.986706151108
 20
39.35182670129086
 30
0.0
 40
7.0
100
AcDbArc
 50
270.0000320000009
 51
19.23307999999929
  0
CIRCLE
  5
590
330
18
100
AcDbEntity
  8
1
  6
Continuous
100
AcDbCircle
 10
198.986706151108
 20
39.35182670129086
 30
0.0
 40
3.249999799999998
  0
LINE
  5
591
330
18
100
AcDbEntity
  8
4
  6
CENTER
 48
0.1
100
AcDbLine
 10
198.986706151108
 20
34.35182670129086
 30
0.0
 11
198.986706151108
 21
44.35182670129085
 31
0.0
  0
ARC
  5
64A
330
18
100
AcDbEntity
  8
1
  6
Continuous
100
AcDbCircle
 10
304.3430581733026
 20
188.9753375697512
 30
0.0
 40
28.5
100
AcDbArc
 50
162.4541215619339
 51
210.6556450113821
  0
ARC
  5
64B
330
18
100
AcDbEntity
  8
1
  6
Continuous
100
AcDbCircle
 10
281.8679761733029
 20
188.9753375697512
 30
0.0
 40
28.5
100
AcDbArc
 50
329.3443549886171
 51
17.5458784380659
  0
ARC
  5
64C
330
18
100
AcDbEntity
  8
1
  6
Continuous
100
AcDbCircle
 10
278.1055171733027
 20
173.424085457033
 30
0.0
 40
2.0
100
AcDbArc
 50
0.0
 51
30.65564501138282
  0
ARC
  5
64D
330
18
100
AcDbEntity
  8
1
  6
Continuous
100
AcDbCircle
 10
308.1055171733027
 20
173.4240854570328
 30
0.0
 40
2.0
100
AcDbArc
 50
149.344354988617
 51
180.0
  0
ARC
  5
64E
330
18
100
AcDbEntity
  8
1
  6
Continuous
100
AcDbCircle
 10
304.2746589052238
 20
196.0598678259529
 30
0.0
 40
5.0
100
AcDbArc
 50
17.54587843806598
 51
60.43900482458226
  0
ARC
  5
64F
330
18
100
AcDbEntity
  8
1
  6
Continuous
100
AcDbCircle
 10
306.1654987820702
 20
194.8600971295324
 30
0.0
 40
5.0
100
AcDbArc
 50
13.61463558939987
 51
54.7693242675625
  0
ARC
  5
650
330
18
100
AcDbEntity
  8
1
  6
Continuous
100
AcDbCircle
 10
281.9363754413818
 20
196.0598678259529
 30
0.0
 40
5.0
100
AcDbArc
 50
119.5609951754177
 51
162.4541215619339
  0
ARC
  5
651
330
18
100
AcDbEntity
  8
1
  6
Continuous
100
AcDbCircle
 10
280.0455355645354
 20
194.8600971295324
 30
0.0
 40
5.0
100
AcDbArc
 50
125.2306757324373
 51
166.3853644105999
  0
LINE
  5
652
330
18
100
AcDbEntity
  8
1
  6
Continuous
100
AcDbLine
 10
274.3572534329861
 20
189.898112772933
 30
0.0
 11
274.9066281733028
 21
208.2814903697511
 31
0.0
  0
ARC
  5
65B
330
18
100
AcDbEntity
  8
1
  6
Continuous
100
AcDbCircle
 10
170.9867061511079
 20
53.3518267012911
 30
0.0
 40
18.49998661946789
100
AcDbArc
 50
236.076936503144
 51
123.9230634968579
  0
ARC
  5
65C
330
18
100
AcDbEntity
  8
1
  6
Continuous
100
AcDbCircle
 10
170.9867061511079
 20
53.3518267012911
 30
0.0
 40
16.9999866194679
100
AcDbArc
 50
236.442738395028
 51
123.5572616049739
  0
ARC
  5
65D
330
18
100
AcDbEntity
  8
1
  6
Continuous
100
AcDbCircle
 10
157.8718530785349
 20
72.85182670129086
 30
0.0
 40
5.0
100
AcDbArc
 50
270.0
 51
303.9230634968579
  0
ARC
  5
65E
330
18
100
AcDbEntity
  8
1
  6
Continuous
100
AcDbCircle
 10
157.8718530785355
 20
33.85182670129086
 30
0.0
 40
5.0
100
AcDbArc
 50
56.07693650314399
 51
90.0
  0
ARC
  5
65F
330
18
100
AcDbEntity
  8
1
  6
Continuous
100
AcDbCircle
 10
157.7202311959945
 20
73.35182670129086
 30
0.0
 40
7.0
100
AcDbArc
 50
270.0
 51
303.5572616049738
  0
ARC
  5
660
330
18
100
AcDbEntity
  8
1
  6
Continuous
100
AcDbCircle
 10
157.7202311959953
 20
33.35182670129086
 30
0.0
 40
7.0
100
AcDbArc
 50
56.44273839502801
 51
90.0
  0
ARC
  5
662
330
18
100
AcDbEntity
  8
1
  6
Continuous
100
AcDbCircle
 10
142.986706151108
 20
67.35183470129084
 30
0.0
 40
3.249999799999998
100
AcDbArc
 50
47.1968347838063
 51
116.8349632007836
  0
ARC
  5
664
330
18
100
AcDbEntity
  8
1
  6
Continuous
100
AcDbCircle
 10
142.986706151108
 20
67.35182670129086
 30
0.0
 40
7.0
100
AcDbArc
 50
188.213210701738
 51
196.6015495990203
  0
ARC
  5
665
330
18
100
AcDbEntity
  8
1
  6
Continuous
100
AcDbCircle
 10
142.986706151108
 20
39.35182670129086
 30
0.0
 40
3.249999799999998
100
AcDbArc
 50
17.92021427959888
 51
37.97987519758843
  0
ARC
  5
666
330
18
100
AcDbEntity
  8
1
  6
Continuous
100
AcDbCircle
 10
142.986706151108
 20
39.35182670129086
 30
0.0
 40
3.249999799999998
100
AcDbArc
 50
217.9802106881214
 51
322.0567441919911
  0
ARC
  5
667
330
18
100
AcDbEntity
  8
1
  6
Continuous
100
AcDbCircle
 10
142.986706151108
 20
39.35183670129083
 30
0.0
 40
7.0
100
AcDbArc
 50
184.0961258188761
 51
270.0000180000007
  0
ARC
  5
669
330
18
100
AcDbEntity
  8
1
  6
Continuous
100
AcDbCircle
 10
138.486706151108
 20
38.55180870129082
 30
0.0
 40
1.199999999999999
100
AcDbArc
 50
179.999981999999
 51
269.9999599999991
  0
ARC
  5
66C
330
18
100
AcDbEntity
  8
1
  6
Continuous
100
AcDbCircle
 10
145.486706151108
 20
38.55180870129082
 30
0.0
 40
1.199999999999999
100
AcDbArc
 50
269.9999799999996
 51
0.0000299999997644
  0
LINE
  5
66D
330
18
100
AcDbEntity
  8
1
  6
Continuous
100
AcDbLine
 10
146.6867071511081
 20
38.55180870129085
 30
0.0
 11
146.6867071511081
 21
38.85181170129085
 31
0.0
  0
LINE
  5
66E
330
18
100
AcDbEntity
  8
1
  6
Continuous
100
AcDbLine
 10
138.486706151108
 20
37.35181170129085
 30
0.0
 11
145.486706151108
 21
37.35181170129085
 31
0.0
  0
LINE
  5
66F
330
18
100
AcDbEntity
  8
1
  6
Continuous
100
AcDbLine
 10
137.2867051511081
 20
38.55180870129085
 30
0.0
 11
137.2867051511081
 21
38.85181170129085
 31
0.0
  0
LINE
  5
670
330
18
100
AcDbEntity
  8
1
  6
Continuous
100
AcDbLine
 10
136.986706151108
 20
68.85184170129076
 30
0.0
 11
146.986706151108
 21
68.85184170129076
 31
0.0
  0
ARC
  5
671
330
18
100
AcDbEntity
  8
1
  6
Continuous
100
AcDbCircle
 10
141.986706151108
 20
60.98042770129086
 30
0.0
 40
9.325191499999997
100
AcDbArc
 50
96.15602989999997
 51
122.4241340000004
  0
ARC
  5
672
330
18
100
AcDbEntity
  8
1
  6
Continuous
100
AcDbCircle
 10
141.986706151108
 20
60.98042770129086
 30
0.0
 40
9.325191499999997
100
AcDbArc
 50
57.57586999999976
 51
83.84397999999933
  0
LINE
  5
673
330
18
100
AcDbEntity
  8
1
  6
Continuous
100
AcDbLine
 10
146.986706151108
 20
67.85184170129077
 30
0.0
 11
146.986706151108
 21
68.85184170129076
 31
0.0
  0
LINE
  5
674
330
18
100
AcDbEntity
  8
1
  6
Continuous
100
AcDbLine
 10
140.986683151108
 20
70.25184370129085
 30
0.0
 11
142.986729151108
 21
70.25184370129085
 31
0.0
  0
LINE
  5
677
330
18
100
AcDbEntity
  8
1
  6
Continuous
100
AcDbLine
 10
136.986706151108
 20
67.85184170129077
 30
0.0
 11
136.986706151108
 21
68.85184170129076
 31
0.0
  0
ARC
  5
1066
330
18
100
AcDbEntity
  8
1
  6
Continuous
100
AcDbCircle
 10
170.986706151108
 20
53.35182670129086
 30
0.0
 40
20.79945033161243
100
AcDbArc
 50
224.1974989021906
 51
135.8025010978092
  0
ARC
  5
1067
330
18
100
AcDbEntity
  8
1
  6
Continuous
100
AcDbCircle
 10
170.986706151108
 20
53.35182670129086
 30
0.0
 40
12.5
100
AcDbArc
 50
237.1401196211109
 51
122.8598803788891
  0
LINE
  5
1112
330
18
100
AcDbEntity
  8
1
  6
Continuous
100
AcDbLine
 10
421.3688441954975
 20
147.3904683697511
 30
0.0
 11
434.8181241954972
 21
155.1554169697511
 31
0.0
  0
LINE
  5
1113
330
18
100
AcDbEntity
  8
1
  6
Continuous
100
AcDbLine
 10
419.6188441954975
 20
150.4215564697513
 30
0.0
 11
433.0681161954973
 21
158.1865050697511
 31
0.0
  0
ARC
  5
1114
330
18
100
AcDbEntity
  8
1
  6
Continuous
100
AcDbCircle
 10
444.2243281954975
 20
162.6068155697511
 30
0.0
 40
37.5
100
AcDbArc
 50
137.1995659143484
 51
81.8381120976427
  0
ARC
  5
1115
330
18
100
AcDbEntity
  8
1
  6
Continuous
100
AcDbCircle
 10
444.2243281954975
 20
162.6068155697511
 30
0.0
 40
31.4
100
AcDbArc
 50
139.361937011039
 51
79.58155175435554
  0
LINE
  5
1175
330
18
100
AcDbEntity
  8
1
  6
Continuous
100
AcDbLine
 10
468.8298081954973
 20
150.4215664697513
 30
0.0
 11
455.3805281954975
 21
158.1865088697511
 31
0.0
  0
LINE
  5
1176
330
18
100
AcDbEntity
  8
1
  6
Continuous
100
AcDbLine
 10
467.0798121954972
 20
147.3904769697511
 30
0.0
 11
453.6305281954975
 21
155.1554197697511
 31
0.0
  0
ARC
  5
1177
330
18
100
AcDbEntity
  8
1
  6
Continuous
100
AcDbCircle
 10
470.5798081954974
 20
153.4526550697511
 30
0.0
 40
3.5
100
AcDbArc
 50
240.0000199999984
 51
340.8460600000001
  0
ARC
  5
1178
330
18
100
AcDbEntity
  8
1
  6
Continuous
100
AcDbCircle
 10
465.3298121954973
 20
144.3593885697511
 30
0.0
 40
3.5
100
AcDbArc
 50
319.1538199999993
 51
60.00000000000024
  0
LINE
  5
117B
330
18
100
AcDbEntity
  8
1
  6
Continuous
100
AcDbLine
 10
452.7866301954975
 20
154.1992671697513
 30
0.0
 11
449.6385552719408
 21
156.0168092186254
 31
0.0
  0
ARC
  5
117C
330
18
100
AcDbEntity
  8
1
  6
Continuous
100
AcDbCircle
 10
444.2243281954975
 20
162.6068155697511
 30
0.0
 40
12.0
100
AcDbArc
 50
315.5224600000002
 51
344.4774799999998
  0
LINE
  5
117D
330
18
100
AcDbEntity
  8
1
  6
Continuous
100
AcDbLine
 10
455.7866331954975
 20
159.3954198697511
 30
0.0
 11
451.705469687897
 21
161.751681678596
 31
0.0
  0
ARC
  5
117F
330
18
100
AcDbEntity
  8
1
  6
Continuous
100
AcDbCircle
 10
444.2243281954975
 20
162.6068155697511
 30
0.0
 40
12.0
100
AcDbArc
 50
195.5224499999991
 51
224.4774800000004
  0
LINE
  5
1180
330
18
100
AcDbEntity
  8
1
  6
Continuous
100
AcDbLine
 10
432.6620191954972
 20
159.3954179697511
 30
0.0
 11
435.3473003716358
 21
160.9457691613743
 31
0.0
  0
LINE
  5
1181
330
18
100
AcDbEntity
  8
1
  6
Continuous
100
AcDbLine
 10
435.6620191954973
 20
154.1992644697512
 30
0.0
 11
438.8100978866481
 21
156.0168125906821
 31
0.0
  0
ARC
  5
1192
330
18
100
AcDbEntity
  8
1
  6
Continuous
100
AcDbCircle
 10
423.1188591954975
 20
144.3593771697511
 30
0.0
 40
3.5
100
AcDbArc
 50
120.0000120000017
 51
220.8460599999992
  0
ARC
  5
1193
330
18
100
AcDbEntity
  8
1
  6
Continuous
100
AcDbCircle
 10
417.8688521954972
 20
153.4526388597511
 30
0.0
 40
3.5
100
AcDbArc
 50
199.1538200000005
 51
299.9999800000016
  0
ARC
  5
11AE
330
18
100
AcDbEntity
  8
1
  6
Continuous
100
AcDbCircle
 10
141.986706151108
 20
162.6068155697511
 30
0.0
 40
31.4
100
AcDbArc
 50
100.4184482456444
 51
40.63806298896095
  0
ARC
  5
11AF
330
18
100
AcDbEntity
  8
1
  6
Continuous
100
AcDbCircle
 10
141.986706151108
 20
162.6068155697511
 30
0.0
 40
37.5
100
AcDbArc
 50
98.16188790235727
 51
42.80043408565158
  0
LINE
  5
11B0
330
18
100
AcDbEntity
  8
1
  6
Continuous
100
AcDbLine
 10
119.131222151108
 20
147.3904769697511
 30
0.0
 11
132.5805061511081
 21
155.1554197697511
 31
0.0
  0
LINE
  5
11B1
330
18
100
AcDbEntity
  8
1
  6
Continuous
100
AcDbLine
 10
117.381226151108
 20
150.4215664697513
 30
0.0
 11
130.830506151108
 21
158.1865088697511
 31
0.0
  0
ARC
  5
11B2
330
18
100
AcDbEntity
  8
1
  6
Continuous
100
AcDbCircle
 10
115.6312261511081
 20
153.4526550697511
 30
0.0
 40
3.5
100
AcDbArc
 50
199.1539399999997
 51
299.9999800000016
  0
ARC
  5
11B3
330
18
100
AcDbEntity
  8
1
  6
Continuous
100
AcDbCircle
 10
120.8812221511081
 20
144.3593885697511
 30
0.0
 40
3.5
100
AcDbArc
 50
119.9999999999997
 51
220.8461800000005
  0
LINE
  5
11B4
330
18
100
AcDbEntity
  8
1
  6
Continuous
100
AcDbLine
 10
133.4244041511081
 20
154.1992671697513
 30
0.0
 11
136.5724790746645
 21
156.0168092186254
 31
0.0
  0
ARC
  5
11B5
330
18
100
AcDbEntity
  8
1
  6
Continuous
100
AcDbCircle
 10
141.986706151108
 20
162.6068155697511
 30
0.0
 40
12.0
100
AcDbArc
 50
195.5225199999999
 51
224.4775399999998
  0
LINE
  5
11B6
330
18
100
AcDbEntity
  8
1
  6
Continuous
100
AcDbLine
 10
130.424401151108
 20
159.3954198697511
 30
0.0
 11
134.5055646587084
 21
161.751681678596
 31
0.0
  0
ARC
  5
11B7
330
18
100
AcDbEntity
  8
1
  6
Continuous
100
AcDbCircle
 10
163.092175151108
 20
144.3593771697511
 30
0.0
 40
3.5
100
AcDbArc
 50
319.1539400000006
 51
59.99998799999814
  0
LINE
  5
11B8
330
18
100
AcDbEntity
  8
1
  6
Continuous
100
AcDbLine
 10
166.5921901511081
 20
150.4215564697513
 30
0.0
 11
153.142918151108
 21
158.1865050697511
 31
0.0
  0
LINE
  5
11B9
330
18
100
AcDbEntity
  8
1
  6
Continuous
100
AcDbLine
 10
164.842190151108
 20
147.3904683697511
 30
0.0
 11
151.392910151108
 21
155.1554169697511
 31
0.0
  0
ARC
  5
11BA
330
18
100
AcDbEntity
  8
1
  6
Continuous
100
AcDbCircle
 10
168.342182151108
 20
153.4526388597511
 30
0.0
 40
3.5
100
AcDbArc
 50
240.0000199999984
 51
340.8461799999995
  0
LINE
  5
11BB
330
18
100
AcDbEntity
  8
1
  6
Continuous
100
AcDbLine
 10
153.549015151108
 20
159.3954179697511
 30
0.0
 11
150.8637339749695
 21
160.9457691613743
 31
0.0
  0
ARC
  5
11BC
330
18
100
AcDbEntity
  8
1
  6
Continuous
100
AcDbCircle
 10
141.986706151108
 20
162.6068155697511
 30
0.0
 40
12.0
100
AcDbArc
 50
315.5225199999994
 51
344.4775500000007
  0
LINE
  5
11BD
330
18
100
AcDbEntity
  8
1
  6
Continuous
100
AcDbLine
 10
150.549015151108
 20
154.1992644697512
 30
0.0
 11
147.4009364599573
 21
156.0168125906821
 31
0.0
  0
LINE
  5
11BE
330
18
100
AcDbEntity
  8
1
  6
Continuous
100
AcDbLine
 10
44.36789512891346
 20
198.0130045697512
 30
0.0
 11
44.36789512891346
 21
127.2006265697512
 31
0.0
  0
LINE
  5
11BF
330
18
100
AcDbEntity
  8
1
  6
Continuous
100
AcDbLine
 10
23.36789512891346
 20
197.8847911431215
 30
0.0
 11
23.36789512891346
 21
127.2006265697512
 31
0.0
  0
LINE
  5
11C0
330
18
100
AcDbEntity
  8
1
  6
Continuous
100
AcDbLine
 10
45.86789512891345
 20
165.8568155697511
 30
0.0
 11
46.86789512891346
 21
165.8568155697511
 31
0.0
  0
LINE
  5
11C1
330
18
100
AcDbEntity
  8
1
  6
Continuous
100
AcDbLine
 10
45.86789512891345
 20
159.3568155697511
 30
0.0
 11
46.86789512891346
 21
159.3568155697511
 31
0.0
  0
ARC
  5
11C2
330
18
100
AcDbEntity
  8
1
  6
Continuous
100
AcDbCircle
 10
33.86789512891346
 20
195.1068155697512
 30
0.0
 40
70.0
100
AcDbArc
 50
262.4502399999995
 51
277.5497400000018
  0
ARC
  5
11C3
330
18
100
AcDbEntity
  8
1
  6
Continuous
100
AcDbCircle
 10
24.86789512891346
 20
127.2006265697512
 30
0.0
 40
1.5
100
AcDbArc
 50
179.9999799999995
 51
262.4502099999986
  0
ARC
  5
11C4
330
18
100
AcDbEntity
  8
1
  6
Continuous
100
AcDbCircle
 10
42.86789512891346
 20
127.2006265697512
 30
0.0
 40
1.5
100
AcDbArc
 50
277.5497600000004
 51
0.0
  0
LINE
  5
11C5
330
18
100
AcDbEntity
  8
1
  6
Continuous
100
AcDbLine
 10
45.86789512891345
 20
169.6068155697513
 30
0.0
 11
45.86789512891345
 21
155.6068155697511
 31
0.0
  0
LINE
  5
11C6
330
18
100
AcDbEntity
  8
1
  6
Continuous
100
AcDbLine
 10
21.86789512891345
 20
169.6068155697513
 30
0.0
 11
21.86789512891345
 21
155.6068155697511
 31
0.0
  0
LINE
  5
11C7
330
18
100
AcDbEntity
  8
1
  6
Continuous
100
AcDbLine
 10
23.36788712891348
 20
154.9961216697511
 30
0.0
 11
22.31430612891347
 21
155.1096925697513
 31
0.0
  0
LINE
  5
11C8
330
18
100
AcDbEntity
  8
1
  6
Continuous
100
AcDbLine
 10
20.86789512891346
 20
159.3568155697511
 30
0.0
 11
21.86789512891345
 21
159.3568155697511
 31
0.0
  0
ARC
  5
11C9
330
18
100
AcDbEntity
  8
1
  6
Continuous
100
AcDbCircle
 10
22.36789512891346
 20
155.6068155697511
 30
0.0
 40
0.5
100
AcDbArc
 50
179.9999799999995
 51
263.847499999999
  0
LINE
  5
11CA
330
18
100
AcDbEntity
  8
1
  6
Continuous
100
AcDbLine
 10
44.36790312891344
 20
154.9961225697513
 30
0.0
 11
45.42149112891346
 21
155.1096942697513
 31
0.0
  0
ARC
  5
11CB
330
18
100
AcDbEntity
  8
1
  6
Continuous
100
AcDbCircle
 10
45.36789512891346
 20
155.6068155697511
 30
0.0
 40
0.5
100
AcDbArc
 50
276.1523699999989
 51
359.9999499999999
  0
LINE
  5
11CC
330
18
100
AcDbEntity
  8
1
  6
Continuous
100
AcDbLine
 10
23.36788712891348
 20
170.2175094697511
 30
0.0
 11
22.31430612891347
 21
170.1039385697511
 31
0.0
  0
LINE
  5
11CD
330
18
100
AcDbEntity
  8
1
  6
Continuous
100
AcDbLine
 10
20.86789512891346
 20
165.8568155697511
 30
0.0
 11
21.86789512891345
 21
165.8568155697511
 31
0.0
  0
ARC
  5
11CE
330
18
100
AcDbEntity
  8
1
  6
Continuous
100
AcDbCircle
 10
22.36789512891346
 20
169.6068155697513
 30
0.0
 40
0.5
100
AcDbArc
 50
96.15250000000092
 51
180.0000200000003
  0
LINE
  5
11CF
330
18
100
AcDbEntity
  8
1
  6
Continuous
100
AcDbLine
 10
44.36790312891344
 20
170.2175085697511
 30
0.0
 11
45.42149112891346
 21
170.1039368697511
 31
0.0
  0
ARC
  5
11D0
330
18
100
AcDbEntity
  8
1
  6
Continuous
100
AcDbCircle
 10
45.36789512891346
 20
169.6068155697513
 30
0.0
 40
0.5
100
AcDbArc
 50
0.0000500000001468
 51
83.84763000000097
  0
ARC
  5
11D1
330
18
100
AcDbEntity
  8
1
  6
Continuous
100
AcDbCircle
 10
33.86789512891346
 20
130.1068155697512
 30
0.0
 40
70.0
100
AcDbArc
 50
82.45025999999818
 51
97.54976000000034
  0
ARC
  5
11D2
330
18
100
AcDbEntity
  8
1
  6
Continuous
100
AcDbCircle
 10
24.86789512891346
 20
198.0130045697512
 30
0.0
 40
1.5
100
AcDbArc
 50
97.5497900000014
 51
180.0000200000003
  0
ARC
  5
11D3
330
18
100
AcDbEntity
  8
1
  6
Continuous
100
AcDbCircle
 10
42.86789512891346
 20
198.0130045697512
 30
0.0
 40
1.5
100
AcDbArc
 50
0.0
 51
82.45023999999965
  0
LINE
  5
11D4
330
18
100
AcDbEntity
  8
1
  6
Continuous
100
AcDbLine
 10
303.6055171733028
 20
198.0130045697512
 30
0.0
 11
303.6055171733028
 21
127.2006265697512
 31
0.0
  0
LINE
  5
11D5
330
18
100
AcDbEntity
  8
1
  6
Continuous
100
AcDbLine
 10
282.6055171733028
 20
197.8847911431215
 30
0.0
 11
282.6055171733028
 21
127.2006265697512
 31
0.0
  0
LINE
  5
11D6
330
18
100
AcDbEntity
  8
1
  6
Continuous
100
AcDbLine
 10
305.1055171733028
 20
165.8568155697511
 30
0.0
 11
306.1055171733028
 21
165.8568155697511
 31
0.0
  0
LINE
  5
11D7
330
18
100
AcDbEntity
  8
1
  6
Continuous
100
AcDbLine
 10
305.1055171733028
 20
159.3568155697511
 30
0.0
 11
306.1055171733028
 21
159.3568155697511
 31
0.0
  0
ARC
  5
11D8
330
18
100
AcDbEntity
  8
1
  6
Continuous
100
AcDbCircle
 10
293.1055171733028
 20
195.1068155697512
 30
0.0
 40
70.0
100
AcDbArc
 50
262.4502399999995
 51
277.5497400000018
  0
ARC
  5
11D9
330
18
100
AcDbEntity
  8
1
  6
Continuous
100
AcDbCircle
 10
284.1055171733028
 20
127.2006265697512
 30
0.0
 40
1.5
100
AcDbArc
 50
179.9999799999995
 51
262.4502099999986
  0
ARC
  5
11DA
330
18
100
AcDbEntity
  8
1
  6
Continuous
100
AcDbCircle
 10
302.1055171733028
 20
127.2006265697512
 30
0.0
 40
1.5
100
AcDbArc
 50
277.5497600000004
 51
0.0
  0
LINE
  5
11DB
330
18
100
AcDbEntity
  8
1
  6
Continuous
100
AcDbLine
 10
305.1055171733028
 20
169.6068155697513
 30
0.0
 11
305.1055171733028
 21
155.6068155697511
 31
0.0
  0
LINE
  5
11DC
330
18
100
AcDbEntity
  8
1
  6
Continuous
100
AcDbLine
 10
281.1055171733028
 20
169.6068155697513
 30
0.0
 11
281.1055171733028
 21
155.6068155697511
 31
0.0
  0
LINE
  5
11DD
330
18
100
AcDbEntity
  8
1
  6
Continuous
100
AcDbLine
 10
282.6055091733028
 20
154.9961216697511
 30
0.0
 11
281.5519281733028
 21
155.1096925697513
 31
0.0
  0
LINE
  5
11DE
330
18
100
AcDbEntity
  8
1
  6
Continuous
100
AcDbLine
 10
280.1055171733028
 20
159.3568155697511
 30
0.0
 11
281.1055171733028
 21
159.3568155697511
 31
0.0
  0
ARC
  5
11DF
330
18
100
AcDbEntity
  8
1
  6
Continuous
100
AcDbCircle
 10
281.6055171733028
 20
155.6068155697511
 30
0.0
 40
0.5
100
AcDbArc
 50
179.9999799999995
 51
263.847499999999
  0
LINE
  5
11E0
330
18
100
AcDbEntity
  8
1
  6
Continuous
100
AcDbLine
 10
303.6055251733027
 20
154.9961225697513
 30
0.0
 11
304.6591131733026
 21
155.1096942697513
 31
0.0
  0
ARC
  5
11E1
330
18
100
AcDbEntity
  8
1
  6
Continuous
100
AcDbCircle
 10
304.6055171733028
 20
155.6068155697511
 30
0.0
 40
0.5
100
AcDbArc
 50
276.1523699999989
 51
359.9999499999999
  0
LINE
  5
11E2
330
18
100
AcDbEntity
  8
1
  6
Continuous
100
AcDbLine
 10
282.6055091733028
 20
170.2175094697511
 30
0.0
 11
281.5519281733028
 21
170.1039385697511
 31
0.0
  0
LINE
  5
11E3
330
18
100
AcDbEntity
  8
1
  6
Continuous
100
AcDbLine
 10
280.1055171733028
 20
165.8568155697511
 30
0.0
 11
281.1055171733028
 21
165.8568155697511
 31
0.0
  0
ARC
  5
11E4
330
18
100
AcDbEntity
  8
1
  6
Continuous
100
AcDbCircle
 10
281.6055171733028
 20
169.6068155697513
 30
0.0
 40
0.5
100
AcDbArc
 50
96.15250000000092
 51
180.0000200000003
  0
LINE
  5
11E5
330
18
100
AcDbEntity
  8
1
  6
Continuous
100
AcDbLine
 10
303.6055251733027
 20
170.2175085697511
 30
0.0
 11
304.6591131733026
 21
170.1039368697511
 31
0.0
  0
ARC
  5
11E6
330
18
100
AcDbEntity
  8
1
  6
Continuous
100
AcDbCircle
 10
304.6055171733028
 20
169.6068155697513
 30
0.0
 40
0.5
100
AcDbArc
 50
0.0000500000001468
 51
83.84763000000097
  0
ARC
  5
11E7
330
18
100
AcDbEntity
  8
1
  6
Continuous
100
AcDbCircle
 10
293.1055171733028
 20
130.1068155697512
 30
0.0
 40
70.0
100
AcDbArc
 50
82.45025999999818
 51
97.54976000000034
  0
ARC
  5
11E8
330
18
100
AcDbEntity
  8
1
  6
Continuous
100
AcDbCircle
 10
284.1055171733028
 20
198.0130045697512
 30
0.0
 40
1.5
100
AcDbArc
 50
97.5497900000014
 51
180.0000200000003
  0
ARC
  5
11E9
330
18
100
AcDbEntity
  8
1
  6
Continuous
100
AcDbCircle
 10
302.1055171733028
 20
198.0130045697512
 30
0.0
 40
1.5
100
AcDbArc
 50
0.0
 51
82.45023999999965
  0
LINE
  5
11EA
330
18
100
AcDbEntity
  8
1
  6
Continuous
100
AcDbLine
 10
106.7087305777379
 20
42.85182670129086
 30
0.0
 11
177.3928951511081
 21
42.85182670129086
 31
0.0
  0
LINE
  5
11EB
330
18
100
AcDbEntity
  8
1
  6
Continuous
100
AcDbLine
 10
106.5805171511081
 20
63.8518267012909
 30
0.0
 11
177.3928951511081
 21
63.85182670129085
 31
0.0
  0
ARC
  5
11EC
330
18
100
AcDbEntity
  8
1
  6
Continuous
100
AcDbCircle
 10
174.486706151108
 20
53.35182670129086
 30
0.0
 40
70.0
100
AcDbArc
 50
172.450259999998
 51
187.5497600000002
  0
ARC
  5
11ED
330
18
100
AcDbEntity
  8
1
  6
Continuous
100
AcDbCircle
 10
106.5805171511081
 20
44.3518267012909
 30
0.0
 40
1.5
100
AcDbArc
 50
187.5497900000014
 51
270.0000200000004
  0
ARC
  5
11EE
330
18
100
AcDbEntity
  8
1
  6
Continuous
100
AcDbCircle
 10
106.5805171511081
 20
62.35182670129089
 30
0.0
 40
1.5
100
AcDbArc
 50
90.0
 51
172.4502399999995
  0
ARC
  5
11EF
330
18
100
AcDbEntity
  8
1
  6
Continuous
100
AcDbCircle
 10
109.486706151108
 20
53.35182670129089
 30
0.0
 40
70.0
100
AcDbArc
 50
352.4502399999996
 51
7.54974000000181
  0
ARC
  5
11F0
330
18
100
AcDbEntity
  8
1
  6
Continuous
100
AcDbCircle
 10
134.986706151108
 20
41.85182670129089
 30
0.0
 40
0.5
100
AcDbArc
 50
186.1525000000009
 51
270.0000200000004
  0
ARC
  5
11F1
330
18
100
AcDbEntity
  8
1
  6
Continuous
100
AcDbCircle
 10
148.986706151108
 20
41.85182670129086
 30
0.0
 40
0.5
100
AcDbArc
 50
269.9999799999996
 51
353.8474999999992
  0
LINE
  5
11F2
330
18
100
AcDbEntity
  8
1
  6
Continuous
100
AcDbLine
 10
134.986706151108
 20
41.35182670129085
 30
0.0
 11
148.986706151108
 21
41.35182670129085
 31
0.0
  0
LINE
  5
11F3
330
18
100
AcDbEntity
  8
1
  6
Continuous
100
AcDbLine
 10
138.736706151108
 20
40.35182670129086
 30
0.0
 11
138.736706151108
 21
41.35182670129085
 31
0.0
  0
LINE
  5
11F4
330
18
100
AcDbEntity
  8
1
  6
Continuous
100
AcDbLine
 10
145.236706151108
 20
40.35182670129086
 30
0.0
 11
145.236706151108
 21
41.35182670129085
 31
0.0
  0
LINE
  5
11F5
330
18
100
AcDbEntity
  8
1
  6
Continuous
100
AcDbLine
 10
134.376012251108
 20
42.85181870129088
 30
0.0
 11
134.4895831511081
 21
41.79823770129085
 31
0.0
  0
LINE
  5
11F6
330
18
100
AcDbEntity
  8
1
  6
Continuous
100
AcDbLine
 10
149.597400051108
 20
42.85181870129088
 30
0.0
 11
149.483829151108
 21
41.79823770129085
 31
0.0
  0
ARC
  5
11F7
330
18
100
AcDbEntity
  8
1
  6
Continuous
100
AcDbCircle
 10
177.3928951511081
 20
44.35182670129085
 30
0.0
 40
1.5
100
AcDbArc
 50
269.9999799999996
 51
352.4502099999986
  0
LINE
  5
11F8
330
18
100
AcDbEntity
  8
1
  6
Continuous
100
AcDbLine
 10
134.986706151108
 20
65.35182670129088
 30
0.0
 11
148.986706151108
 21
65.35182670129088
 31
0.0
  0
ARC
  5
11F9
330
18
100
AcDbEntity
  8
1
  6
Continuous
100
AcDbCircle
 10
134.986706151108
 20
64.85182670129089
 30
0.0
 40
0.5
100
AcDbArc
 50
90.00005000000014
 51
173.8476300000009
  0
LINE
  5
11FA
330
18
100
AcDbEntity
  8
1
  6
Continuous
100
AcDbLine
 10
134.376013151108
 20
63.85183470129085
 30
0.0
 11
134.4895848511081
 21
64.90542270129089
 31
0.0
  0
LINE
  5
11FB
330
18
100
AcDbEntity
  8
1
  6
Continuous
100
AcDbLine
 10
138.736706151108
 20
65.35182670129088
 30
0.0
 11
138.736706151108
 21
66.35182670129089
 31
0.0
  0
ARC
  5
11FC
330
18
100
AcDbEntity
  8
1
  6
Continuous
100
AcDbCircle
 10
148.986706151108
 20
64.85182670129086
 30
0.0
 40
0.5
100
AcDbArc
 50
6.152369999998972
 51
89.99994999999989
  0
LINE
  5
11FD
330
18
100
AcDbEntity
  8
1
  6
Continuous
100
AcDbLine
 10
149.5973991511081
 20
63.85183470129085
 30
0.0
 11
149.483827451108
 21
64.90542270129089
 31
0.0
  0
LINE
  5
11FE
330
18
100
AcDbEntity
  8
1
  6
Continuous
100
AcDbLine
 10
145.236706151108
 20
65.35182670129088
 30
0.0
 11
145.236706151108
 21
66.35182670129089
 31
0.0
  0
ARC
  5
11FF
330
18
100
AcDbEntity
  8
1
  6
Continuous
100
AcDbCircle
 10
177.3928951511081
 20
62.35182670129085
 30
0.0
 40
1.5
100
AcDbArc
 50
7.549760000000348
 51
90.0
  0
ARC
  5
1200
330
18
100
AcDbEntity
  8
1
  6
Continuous
100
AcDbCircle
 10
174.486706151108
 20
289.6932749382116
 30
0.0
 40
70.0
100
AcDbArc
 50
172.450259999998
 51
187.5497600000002
  0
ARC
  5
1201
330
18
100
AcDbEntity
  8
1
  6
Continuous
100
AcDbCircle
 10
106.5805171511081
 20
280.6932749382117
 30
0.0
 40
1.5
100
AcDbArc
 50
187.5497900000014
 51
270.0000200000004
  0
ARC
  5
1202
330
18
100
AcDbEntity
  8
1
  6
Continuous
100
AcDbCircle
 10
106.5805171511081
 20
298.6932749382116
 30
0.0
 40
1.5
100
AcDbArc
 50
90.0
 51
172.4502399999995
  0
LINE
  5
1203
330
18
100
AcDbEntity
  8
1
  6
Continuous
100
AcDbLine
 10
106.7087305777379
 20
279.1932749382116
 30
0.0
 11
136.0859556453199
 21
279.1932749382116
 31
0.0
  0
LINE
  5
1204
330
18
100
AcDbEntity
  8
1
  6
Continuous
100
AcDbLine
 10
106.5805171511081
 20
300.1932749382116
 30
0.0
 11
136.0859556453199
 21
300.1932749382116
 31
0.0
  0
LINE
  5
1205
330
18
100
AcDbEntity
  8
1
  6
Continuous
100
AcDbLine
 10
134.986706151108
 20
301.6932749382116
 30
0.0
 11
136.2784992371927
 21
301.6932749382116
 31
0.0
  0
LINE
  5
1206
330
18
100
AcDbEntity
  8
1
  6
Continuous
100
AcDbLine
 10
134.376013151108
 20
300.1932829382116
 30
0.0
 11
134.4895848511081
 21
301.2468709382117
 31
0.0
  0
ARC
  5
1207
330
18
100
AcDbEntity
  8
1
  6
Continuous
100
AcDbCircle
 10
134.986706151108
 20
301.1932749382117
 30
0.0
 40
0.5
100
AcDbArc
 50
90.00005000000014
 51
173.8476300000009
  0
LINE
  5
1208
330
18
100
AcDbEntity
  8
1
  6
Continuous
100
AcDbLine
 10
134.986706151108
 20
277.6932749382116
 30
0.0
 11
136.2785022186085
 21
277.6932749382116
 31
0.0
  0
LINE
  5
1209
330
18
100
AcDbEntity
  8
1
  6
Continuous
100
AcDbLine
 10
134.376012251108
 20
279.1932669382116
 30
0.0
 11
134.4895831511081
 21
278.1396859382116
 31
0.0
  0
ARC
  5
120A
330
18
100
AcDbEntity
  8
1
  6
Continuous
100
AcDbCircle
 10
134.986706151108
 20
278.1932749382117
 30
0.0
 40
0.5
100
AcDbArc
 50
186.1525000000009
 51
270.0000200000004
  0
ENDSEC
  0
SECTION
  2
OBJECTS
  0
DICTIONARY
  5
C
330
0
100
AcDbDictionary
281
     1
  3
ACAD_CIP_PREVIOUS_PRODUCT_INFO
350
1312
  3
ACAD_COLOR
350
12F5
  3
ACAD_DETAILVIEWSTYLE
350
130E
  3
ACAD_GROUP
350
D
  3
ACAD_LAYOUT
350
5D
  3
ACAD_MATERIAL
350
12C3
  3
ACAD_MLEADERSTYLE
350
130A
  3
ACAD_MLINESTYLE
350
1B
  3
ACAD_PLOTSETTINGS
350
5E
  3
ACAD_PLOTSTYLENAME
350
12C1
  3
ACAD_SCALELIST
350
12F8
  3
ACAD_SECTIONVIEWSTYLE
350
130C
  3
ACAD_TABLESTYLE
350
12F6
  3
ACAD_VISUALSTYLE
350
12DC
  3
ACDB_RECOMPOSE_DATA
350
1330
  3
AcDbVariableDictionary
350
1323
  3
CONTENTDICTIONARY
350
3D
  3
DWGPROPS
350
1331
  0
DICTIONARY
  5
1313
330
E
100
AcDbDictionary
280
     1
281
     1
  3
ADSK_XREC_LAYER_RECONCILED
360
1314
  0
DICTIONARY
  5
1315
330
65
100
AcDbDictionary
280
     1
281
     1
  3
ADSK_XREC_LAYER_RECONCILED
360
1316
  0
DICTIONARY
  5
1317
330
66
100
AcDbDictionary
280
     1
281
     1
  3
ADSK_XREC_LAYER_RECONCILED
360
1318
  0
DICTIONARY
  5
1319
330
67
100
AcDbDictionary
280
     1
281
     1
  3
ADSK_XREC_LAYER_RECONCILED
360
131A
  0
DICTIONARY
  5
131B
330
68
100
AcDbDictionary
280
     1
281
     1
  3
ADSK_XREC_LAYER_RECONCILED
360
131C
  0
DICTIONARY
  5
131D
330
69
100
AcDbDictionary
280
     1
281
     1
  3
ADSK_XREC_LAYER_RECONCILED
360
131E
  0
DICTIONARY
  5
131F
330
6A
100
AcDbDictionary
280
     1
281
     1
  3
ADSK_XREC_LAYER_RECONCILED
360
1320
  0
DICTIONARY
  5
1321
330
6B
100
AcDbDictionary
280
     1
281
     1
  3
ADSK_XREC_LAYER_RECONCILED
360
1322
  0
DICTIONARY
  5
12A5
330
18
100
AcDbDictionary
281
     1
  3
ACAD_LAYOUTSELFREF
350
12BD
  0
DICTIONARY
  5
12A3
330
15
100
AcDbDictionary
281
     1
  3
ACAD_LAYOUTSELFREF
350
12BC
  0
XRECORD
  5
1312
102
{ACAD_REACTORS
330
C
102
}
330
C
100
AcDbXrecord
280
     1
300
ACDLT
300
2014
300
ACDLT_F_S
  0
DICTIONARY
  5
12F5
102
{ACAD_REACTORS
330
C
102
}
330
C
100
AcDbDictionary
281
     1
  0
DICTIONARY
  5
130E
102
{ACAD_REACTORS
330
C
102
}
330
C
100
AcDbDictionary
281
     1
  3
Imperial24
350
130F
  0
DICTIONARY
  5
D
102
{ACAD_REACTORS
330
C
102
}
330
C
100
AcDbDictionary
281
     1
  0
DICTIONARY
  5
5D
102
{ACAD_REACTORS
330
C
102
}
330
C
100
AcDbDictionary
281
     1
  3
Model
350
1310
  3
レイアウト1
350
1311
  0
DICTIONARY
  5
12C3
102
{ACAD_REACTORS
330
C
102
}
330
C
100
AcDbDictionary
281
     1
  3
ByBlock
350
12CC
  3
ByLayer
350
12C4
  3
Global
350
12D4
  0
DICTIONARY
  5
130A
102
{ACAD_REACTORS
330
C
102
}
330
C
100
AcDbDictionary
281
     1
  3
Standard
350
130B
  0
DICTIONARY
  5
1B
102
{ACAD_REACTORS
330
C
102
}
330
C
100
AcDbDictionary
281
     1
  3
STANDARD
350
1C
  0
DICTIONARY
  5
5E
102
{ACAD_REACTORS
330
C
102
}
330
C
100
AcDbDictionary
281
     1
  0
ACDBDICTIONARYWDFLT
  5
12C1
102
{ACAD_REACTORS
330
C
102
}
330
C
100
AcDbDictionary
281
     1
  3
Normal
350
12C2
100
AcDbDictionaryWithDefault
340
12C2
  0
DICTIONARY
  5
12F8
102
{ACAD_REACTORS
330
C
102
}
330
C
100
AcDbDictionary
281
     1
  3
A0
350
12F9
  3
A1
350
12FA
  3
A2
350
12FB
  3
A3
350
12FC
  3
A4
350
12FD
  3
A5
350
12FE
  3
A6
350
12FF
  3
A7
350
1300
  3
A8
350
1301
  3
A9
350
1302
  3
B0
350
1303
  3
B1
350
1304
  3
B2
350
1305
  3
B3
350
1306
  3
B4
350
1307
  3
B5
350
1308
  3
B6
350
1309
  0
DICTIONARY
  5
130C
102
{ACAD_REACTORS
330
C
102
}
330
C
100
AcDbDictionary
281
     1
  3
Imperial24
350
130D
  0
DICTIONARY
  5
12F6
102
{ACAD_REACTORS
330
C
102
}
330
C
100
AcDbDictionary
281
     1
  3
Standard
350
12F7
  0
DICTIONARY
  5
12DC
102
{ACAD_REACTORS
330
C
102
}
330
C
100
AcDbDictionary
281
     1
  3
2dWireframe
350
12E2
  3
Basic
350
12E1
  3
Brighten
350
12E8
  3
ColorChange
350
12EC
  3
Conceptual
350
12E5
  3
Dim
350
12E7
  3
EdgeColorOff
350
12F4
  3
Facepattern
350
12EB
  3
Flat
350
12DD
  3
FlatWithEdges
350
12DE
  3
Gouraud
350
12DF
  3
GouraudWithEdges
350
12E0
  3
Hidden
350
12E4
  3
JitterOff
350
12F2
  3
Linepattern
350
12EA
  3
OverhangOff
350
12F3
  3
Realistic
350
12E6
  3
Shaded
350
12F1
  3
Shaded with edges
350
12F0
  3
Shades of Gray
350
12ED
  3
Sketchy
350
12EE
  3
Thicken
350
12E9
  3
Wireframe
350
12E3
  3
X-Ray
350
12EF
  0
XRECORD
  5
1330
102
{ACAD_REACTORS
330
C
102
}
330
C
100
AcDbXrecord
280
     1
 90
        1
330
12F7
  0
DICTIONARY
  5
1323
102
{ACAD_REACTORS
330
C
102
}
330
C
100
AcDbDictionary
281
     1
  3
CANNOSCALE
350
1328
  3
CMLEADERSTYLE
350
1325
  3
CTABLESTYLE
350
1324
  3
CVIEWDETAILSTYLE
350
1326
  3
CVIEWSECTIONSTYLE
350
1327
  3
DIMASSOC
350
132B
  3
INDEXCTL
350
132A
  3
SORTENTS
350
1329
  3
XCLIPFRAME
350
132C
  0
DICTIONARY
  5
3D
102
{ACAD_REACTORS
330
C
102
}
330
C
100
AcDbDictionary
281
     1
  0
XRECORD
  5
1331
102
{ACAD_REACTORS
330
C
102
}
330
C
100
AcDbXrecord
280
     1
  1
DWGPROPS COOKIE
  2

  3

  4

  6

  7

  8
Yoshitsune
  9

300
=
301
=
302
=
303
=
304
=
305
=
306
=
307
=
308
=
309
=
 40
0.1380172916666667
 41
2453255.69037272
 42
2457192.689341018
  1

 90
        0
  0
XRECORD
  5
1314
102
{ACAD_REACTORS
330
1313
102
}
330
1313
100
AcDbXrecord
280
     1
290
     1
  0
XRECORD
  5
1316
102
{ACAD_REACTORS
330
1315
102
}
330
1315
100
AcDbXrecord
280
     1
290
     1
  0
XRECORD
  5
1318
102
{ACAD_REACTORS
330
1317
102
}
330
1317
100
AcDbXrecord
280
     1
290
     1
  0
XRECORD
  5
131A
102
{ACAD_REACTORS
330
1319
102
}
330
1319
100
AcDbXrecord
280
     1
290
     1
  0
XRECORD
  5
131C
102
{ACAD_REACTORS
330
131B
102
}
330
131B
100
AcDbXrecord
280
     1
290
     1
  0
XRECORD
  5
131E
102
{ACAD_REACTORS
330
131D
102
}
330
131D
100
AcDbXrecord
280
     1
290
     1
  0
XRECORD
  5
1320
102
{ACAD_REACTORS
330
131F
102
}
330
131F
100
AcDbXrecord
280
     1
290
     1
  0
XRECORD
  5
1322
102
{ACAD_REACTORS
330
1321
102
}
330
1321
100
AcDbXrecord
280
     1
290
     1
  0
XRECORD
  5
12BD
102
{ACAD_REACTORS
330
12A5
102
}
330
12A5
100
AcDbXrecord
280
     1
340
18
  0
XRECORD
  5
12BC
102
{ACAD_REACTORS
330
12A3
102
}
330
12A3
100
AcDbXrecord
280
     1
340
15
  0
ACDBDETAILVIEWSTYLE
  5
130F
102
{ACAD_XDICTIONARY
360
1369
102
}
102
{ACAD_REACTORS
330
130E
102
}
330
130E
100
AcDbModelDocViewStyle
 70
     0
  3
Imperial24
290
     0
100
AcDbDetailViewStyle
 70
     0
 71
     0
 90
        3
 71
     1
340
F
 40
0.24
340
0
 40
0.24
300

 40
0.36
280
     3
 71
     2
340
14
 90
       25
 71
     3
340
F
 40
0.24
 90
        1
 40
0.75
 90
        1
300
%<\AcVar ViewType \f "%tc1">% %<\AcVar ViewDetailId>%\PSCALE %<\AcVar ViewScale \f "%sn">%
 71
     4
340
14
 90
       25
340
14
 90
       25
280
     0
  0
LAYOUT
  5
1310
102
{ACAD_XDICTIONARY
360
136B
102
}
102
{ACAD_REACTORS
330
5D
102
}
330
5D
100
AcDbPlotSettings
  1

  2
Canon LBP9100C
  4

  6

 40
0.0
 41
0.0
 42
0.0
 43
0.0
 44
0.0
 45
0.0
 46
0.0
 47
0.0
 48
0.0
 49
0.0
140
0.0
141
0.0
142
1.0
143
1.0
 70
  1712
 72
     0
 73
     0
 74
     0
  7

 75
     0
147
1.0
148
0.0
149
0.0
100
AcDbLayout
  1
Model
 70
     1
 71
     0
 10
0.0
 20
0.0
 11
12.0
 21
9.0
 12
0.0
 22
0.0
 32
0.0
 14
0.0
 24
0.0
 34
0.0
 15
0.0
 25
0.0
 35
0.0
146
0.0
 13
0.0
 23
0.0
 33
0.0
 16
1.0
 26
0.0
 36
0.0
 17
0.0
 27
1.0
 37
0.0
 76
     0
330
18
331
12BB
  0
LAYOUT
  5
1311
102
{ACAD_XDICTIONARY
360
136D
102
}
102
{ACAD_REACTORS
330
5D
102
}
330
5D
100
AcDbPlotSettings
  1

  2
Canon LBP9100C
  4

  6

 40
0.0
 41
0.0
 42
0.0
 43
0.0
 44
0.0
 45
0.0
 46
0.0
 47
0.0
 48
0.0
 49
0.0
140
0.0
141
0.0
142
1.0
143
1.0
 70
   688
 72
     0
 73
     0
 74
     5
  7

 75
    16
147
1.0
148
0.0
149
0.0
100
AcDbLayout
  1
レイアウト1
 70
     1
 71
     1
 10
0.0
 20
0.0
 11
420.0
 21
297.0
 12
0.0
 22
0.0
 32
0.0
 14
1.000000000000000E+20
 24
1.000000000000000E+20
 34
1.000000000000000E+20
 15
-1.000000000000000E+20
 25
-1.000000000000000E+20
 35
-1.000000000000000E+20
146
0.0
 13
0.0
 23
0.0
 33
0.0
 16
1.0
 26
0.0
 36
0.0
 17
0.0
 27
1.0
 37
0.0
 76
     0
330
15
  0
MATERIAL
  5
12CC
102
{ACAD_XDICTIONARY
360
12CD
102
}
102
{ACAD_REACTORS
330
12C3
102
}
330
12C3
100
AcDbMaterial
  1
ByBlock
 72
     0
 43
0.0208333333333333
 43
0.0
 43
0.0
 43
0.0
 43
0.0
 43
0.0208333333333333
 43
0.0
 43
0.0
 43
0.0
 43
0.0
 43
1.0
 43
0.0
 43
0.0
 43
0.0
 43
0.0
 43
1.0
 77
     0
 47
0.0208333333333333
 47
0.0
 47
0.0
 47
0.0
 47
0.0
 47
0.0208333333333333
 47
0.0
 47
0.0
 47
0.0
 47
0.0
 47
1.0
 47
0.0
 47
0.0
 47
0.0
 47
0.0
 47
1.0
171
     0
 49
0.0208333333333333
 49
0.0
 49
0.0
 49
0.0
 49
0.0
 49
0.0208333333333333
 49
0.0
 49
0.0
 49
0.0
 49
0.0
 49
1.0
 49
0.0
 49
0.0
 49
0.0
 49
0.0
 49
1.0
175
     0
142
0.0208333333333333
142
0.0
142
0.0
142
0.0
142
0.0
142
0.0208333333333333
142
0.0
142
0.0
142
0.0
142
0.0
142
1.0
142
0.0
142
0.0
142
0.0
142
0.0
142
1.0
179
     0
144
0.0208333333333333
144
0.0
144
0.0
144
0.0
144
0.0
144
0.0208333333333333
144
0.0
144
0.0
144
0.0
144
0.0
144
1.0
144
0.0
144
0.0
144
0.0
144
0.0
144
1.0
147
0.0208333333333333
147
0.0
147
0.0
147
0.0
147
0.0
147
0.0208333333333333
147
0.0
147
0.0
147
0.0
147
0.0
147
1.0
147
0.0
147
0.0
147
0.0
147
0.0
147
1.0
  0
MATERIAL
  5
12C4
102
{ACAD_XDICTIONARY
360
12C5
102
}
102
{ACAD_REACTORS
330
12C3
102
}
330
12C3
100
AcDbMaterial
  1
ByLayer
 72
     0
 43
0.0208333333333333
 43
0.0
 43
0.0
 43
0.0
 43
0.0
 43
0.0208333333333333
 43
0.0
 43
0.0
 43
0.0
 43
0.0
 43
1.0
 43
0.0
 43
0.0
 43
0.0
 43
0.0
 43
1.0
 77
     0
 47
0.0208333333333333
 47
0.0
 47
0.0
 47
0.0
 47
0.0
 47
0.0208333333333333
 47
0.0
 47
0.0
 47
0.0
 47
0.0
 47
1.0
 47
0.0
 47
0.0
 47
0.0
 47
0.0
 47
1.0
171
     0
 49
0.0208333333333333
 49
0.0
 49
0.0
 49
0.0
 49
0.0
 49
0.0208333333333333
 49
0.0
 49
0.0
 49
0.0
 49
0.0
 49
1.0
 49
0.0
 49
0.0
 49
0.0
 49
0.0
 49
1.0
175
     0
142
0.0208333333333333
142
0.0
142
0.0
142
0.0
142
0.0
142
0.0208333333333333
142
0.0
142
0.0
142
0.0
142
0.0
142
1.0
142
0.0
142
0.0
142
0.0
142
0.0
142
1.0
179
     0
144
0.0208333333333333
144
0.0
144
0.0
144
0.0
144
0.0
144
0.0208333333333333
144
0.0
144
0.0
144
0.0
144
0.0
144
1.0
144
0.0
144
0.0
144
0.0
144
0.0
144
1.0
147
0.0208333333333333
147
0.0
147
0.0
147
0.0
147
0.0
147
0.0208333333333333
147
0.0
147
0.0
147
0.0
147
0.0
147
1.0
147
0.0
147
0.0
147
0.0
147
0.0
147
1.0
  0
MATERIAL
  5
12D4
102
{ACAD_XDICTIONARY
360
12D5
102
}
102
{ACAD_REACTORS
330
12C3
102
}
330
12C3
100
AcDbMaterial
  1
Global
 72
     0
 43
0.0208333333333333
 43
0.0
 43
0.0
 43
0.0
 43
0.0
 43
0.0208333333333333
 43
0.0
 43
0.0
 43
0.0
 43
0.0
 43
1.0
 43
0.0
 43
0.0
 43
0.0
 43
0.0
 43
1.0
 77
     0
 47
0.0208333333333333
 47
0.0
 47
0.0
 47
0.0
 47
0.0
 47
0.0208333333333333
 47
0.0
 47
0.0
 47
0.0
 47
0.0
 47
1.0
 47
0.0
 47
0.0
 47
0.0
 47
0.0
 47
1.0
171
     0
 49
0.0208333333333333
 49
0.0
 49
0.0
 49
0.0
 49
0.0
 49
0.0208333333333333
 49
0.0
 49
0.0
 49
0.0
 49
0.0
 49
1.0
 49
0.0
 49
0.0
 49
0.0
 49
0.0
 49
1.0
175
     0
142
0.0208333333333333
142
0.0
142
0.0
142
0.0
142
0.0
142
0.0208333333333333
142
0.0
142
0.0
142
0.0
142
0.0
142
1.0
142
0.0
142
0.0
142
0.0
142
0.0
142
1.0
179
     0
144
0.0208333333333333
144
0.0
144
0.0
144
0.0
144
0.0
144
0.0208333333333333
144
0.0
144
0.0
144
0.0
144
0.0
144
1.0
144
0.0
144
0.0
144
0.0
144
0.0
144
1.0
147
0.0208333333333333
147
0.0
147
0.0
147
0.0
147
0.0
147
0.0208333333333333
147
0.0
147
0.0
147
0.0
147
0.0
147
1.0
147
0.0
147
0.0
147
0.0
147
0.0
147
1.0
  0
MLEADERSTYLE
  5
130B
102
{ACAD_REACTORS
330
130A
102
}
330
130A
100
AcDbMLeaderStyle
170
     2
171
     1
172
     0
 90
        2
 40
0.0
 41
0.0
173
     1
 91
-1056964608
340
12
 92
       -2
290
     1
 42
0.09
291
     1
 43
0.36
  3
Standard
 44
0.18
300

342
F
174
     1
178
     6
175
     1
176
     0
 93
-1056964608
 45
0.18
292
     0
297
     0
 46
0.18
 94
-1056964608
 47
1.0
 49
1.0
140
1.0
293
     1
141
0.0
294
     1
177
     0
142
1.0
295
     0
296
     0
143
0.125
1001
ACAD_MLEADERVER
1070
     2
  0
MLINESTYLE
  5
1C
102
{ACAD_REACTORS
330
1B
102
}
330
1B
100
AcDbMlineStyle
  2
STANDARD
 70
     0
  3

 62
   256
 51
90.0
 52
90.0
 71
     2
 49
0.5
 62
   256
  6
BYLAYER
 49
-0.5
 62
   256
  6
BYLAYER
  0
ACDBPLACEHOLDER
  5
12C2
102
{ACAD_REACTORS
330
12C1
102
}
330
12C1
  0
SCALE
  5
12F9
102
{ACAD_REACTORS
330
12F8
102
}
330
12F8
100
AcDbScale
 70
     0
300
1:1
140
1.0
141
1.0
290
     1
  0
SCALE
  5
12FA
102
{ACAD_REACTORS
330
12F8
102
}
330
12F8
100
AcDbScale
 70
     0
300
1/128" = 1'-0"
140
0.0078125
141
12.0
290
     0
  0
SCALE
  5
12FB
102
{ACAD_REACTORS
330
12F8
102
}
330
12F8
100
AcDbScale
 70
     0
300
1/64" = 1'-0"
140
0.015625
141
12.0
290
     0
  0
SCALE
  5
12FC
102
{ACAD_REACTORS
330
12F8
102
}
330
12F8
100
AcDbScale
 70
     0
300
1/32" = 1'-0"
140
0.03125
141
12.0
290
     0
  0
SCALE
  5
12FD
102
{ACAD_REACTORS
330
12F8
102
}
330
12F8
100
AcDbScale
 70
     0
300
1/16" = 1'-0"
140
0.0625
141
12.0
290
     0
  0
SCALE
  5
12FE
102
{ACAD_REACTORS
330
12F8
102
}
330
12F8
100
AcDbScale
 70
     0
300
3/32" = 1'-0"
140
0.09375
141
12.0
290
     0
  0
SCALE
  5
12FF
102
{ACAD_REACTORS
330
12F8
102
}
330
12F8
100
AcDbScale
 70
     0
300
1/8" = 1'-0"
140
0.125
141
12.0
290
     0
  0
SCALE
  5
1300
102
{ACAD_REACTORS
330
12F8
102
}
330
12F8
100
AcDbScale
 70
     0
300
3/16" = 1'-0"
140
0.1875
141
12.0
290
     0
  0
SCALE
  5
1301
102
{ACAD_REACTORS
330
12F8
102
}
330
12F8
100
AcDbScale
 70
     0
300
1/4" = 1'-0"
140
0.25
141
12.0
290
     0
  0
SCALE
  5
1302
102
{ACAD_REACTORS
330
12F8
102
}
330
12F8
100
AcDbScale
 70
     0
300
3/8" = 1'-0"
140
0.375
141
12.0
290
     0
  0
SCALE
  5
1303
102
{ACAD_REACTORS
330
12F8
102
}
330
12F8
100
AcDbScale
 70
     0
300
1/2" = 1'-0"
140
0.5
141
12.0
290
     0
  0
SCALE
  5
1304
102
{ACAD_REACTORS
330
12F8
102
}
330
12F8
100
AcDbScale
 70
     0
300
3/4" = 1'-0"
140
0.75
141
12.0
290
     0
  0
SCALE
  5
1305
102
{ACAD_REACTORS
330
12F8
102
}
330
12F8
100
AcDbScale
 70
     0
300
1" = 1'-0"
140
1.0
141
12.0
290
     0
  0
SCALE
  5
1306
102
{ACAD_REACTORS
330
12F8
102
}
330
12F8
100
AcDbScale
 70
     0
300
1-1/2" = 1'-0"
140
1.5
141
12.0
290
     0
  0
SCALE
  5
1307
102
{ACAD_REACTORS
330
12F8
102
}
330
12F8
100
AcDbScale
 70
     0
300
3" = 1'-0"
140
3.0
141
12.0
290
     0
  0
SCALE
  5
1308
102
{ACAD_REACTORS
330
12F8
102
}
330
12F8
100
AcDbScale
 70
     0
300
6" = 1'-0"
140
6.0
141
12.0
290
     0
  0
SCALE
  5
1309
102
{ACAD_REACTORS
330
12F8
102
}
330
12F8
100
AcDbScale
 70
     0
300
1'-0" = 1'-0"
140
12.0
141
12.0
290
     0
  0
ACDBSECTIONVIEWSTYLE
  5
130D
102
{ACAD_XDICTIONARY
360
1367
102
}
102
{ACAD_REACTORS
330
130C
102
}
330
130C
100
AcDbModelDocViewStyle
 70
     0
  3
Imperial24
290
     0
100
AcDbSectionViewStyle
 70
     0
 71
     0
 90
       78
 71
     1
340
F
 40
0.24
340
0
340
0
 40
0.24
300
I, O, Q, S, X, Z
 40
0.48
 90
        3
 40
0.18
 90
        1
 71
     2
340
14
 90
       25
340
14
 90
       50
 40
0.24
 40
0.0
 40
0.24
 71
     3
340
F
 40
0.24
 90
        1
 40
0.75
 90
        1
300
%<\AcVar ViewType \f "%tc1">% %<\AcVar ViewSectionStartId>%-%<\AcVar ViewSectionEndId>%\PSCALE %<\AcVar ViewScale \f "%sn">%
 71
     4
300
ANSI31
 40
1.0
 90
        0
290
     0
290
     0
 90
        6
 40
0.0
 40
1.570796326794896
 40
0.2617993877991494
 40
1.308996938995747
 40
-0.2617993877991494
 40
1.832595714594046
  0
TABLESTYLE
  5
12F7
102
{ACAD_XDICTIONARY
360
132E
102
}
102
{ACAD_REACTORS
330
12F6
102
}
330
12F6
100
AcDbTableStyle
  3
Standard
 70
     0
 71
     0
 40
0.06
 41
0.06
280
     0
281
     0
  7
STANDARD
140
0.18
170
     2
 62
     0
 63
     7
283
     0
274
    -2
284
     1
 64
     0
275
    -2
285
     1
 65
     0
276
    -2
286
     1
 66
     0
277
    -2
287
     1
 67
     0
278
    -2
288
     1
 68
     0
279
    -2
289
     1
 69
     0
  7
STANDARD
140
0.25
170
     5
 62
     0
 63
     7
283
     0
274
    -2
284
     1
 64
     0
275
    -2
285
     1
 65
     0
276
    -2
286
     1
 66
     0
277
    -2
287
     1
 67
     0
278
    -2
288
     1
 68
     0
279
    -2
289
     1
 69
     0
  7
STANDARD
140
0.18
170
     5
 62
     0
 63
     7
283
     0
274
    -2
284
     1
 64
     0
275
    -2
285
     1
 65
     0
276
    -2
286
     1
 66
     0
277
    -2
287
     1
 67
     0
278
    -2
288
     1
 68
     0
279
    -2
289
     1
 69
     0
  0
VISUALSTYLE
  5
12E2
102
{ACAD_XDICTIONARY
360
133F
102
}
102
{ACAD_REACTORS
330
12DC
102
}
330
12DC
100
AcDbVisualStyle
  2
2dWireframe
 70
     4
 71
     0
 72
     2
 73
     0
 90
        0
 40
-0.6
 41
-30.0
 62
     5
 63
     7
 74
     1
 91
        4
 64
     7
 65
   257
 75
     1
175
     1
 42
1.0
 92
        0
 66
   257
 43
1.0
 76
     1
 77
     6
 78
     2
 67
     7
 79
     5
170
     0
171
     0
290
     0
174
     0
 93
        1
 44
0.0
173
     0
291
     0
 45
0.0
1001
ACAD
1000
AcDbSavedByObjectVersion
1070
     0
  0
VISUALSTYLE
  5
12E1
102
{ACAD_XDICTIONARY
360
133D
102
}
102
{ACAD_REACTORS
330
12DC
102
}
330
12DC
100
AcDbVisualStyle
  2
Basic
 70
     7
 71
     1
 72
     0
 73
     1
 90
        0
 40
-0.6
 41
-30.0
 62
     5
 63
     7
 74
     0
 91
        4
 64
     7
 65
   257
 75
     1
175
     1
 42
1.0
 92
        8
 66
     7
 43
1.0
 76
     1
 77
     6
 78
     2
 67
     7
 79
     5
170
     0
171
     0
290
     0
174
     0
 93
        1
 44
0.0
173
     0
291
     1
 45
0.0
1001
ACAD
1000
AcDbSavedByObjectVersion
1070
     0
  0
VISUALSTYLE
  5
12E8
102
{ACAD_XDICTIONARY
360
134B
102
}
102
{ACAD_REACTORS
330
12DC
102
}
330
12DC
100
AcDbVisualStyle
  2
Brighten
 70
    12
 71
     2
 72
     2
 73
     0
 90
        0
 40
-0.6
 41
-30.0
 62
     5
 63
     7
 74
     1
 91
        4
 64
     7
 65
   257
 75
     1
175
     1
 42
1.0
 92
        8
 66
     7
 43
1.0
 76
     1
 77
     6
 78
     2
 67
     7
 79
     5
170
     0
171
     0
290
     0
174
     0
 93
        1
 44
50.0
173
     0
291
     1
 45
0.0
1001
ACAD
1000
AcDbSavedByObjectVersion
1070
     0
  0
VISUALSTYLE
  5
12EC
102
{ACAD_XDICTIONARY
360
1353
102
}
102
{ACAD_REACTORS
330
12DC
102
}
330
12DC
100
AcDbVisualStyle
  2
ColorChange
 70
    16
 71
     2
 72
     2
 73
     3
 90
        0
 40
-0.6
 41
-30.0
 62
     5
 63
     8
 74
     1
 91
        4
 64
     7
 65
   257
 75
     1
175
     1
 42
1.0
 92
        8
 66
     8
 43
1.0
 76
     1
 77
     6
 78
     2
 67
     7
 79
     5
170
     0
171
     0
290
     0
174
     0
 93
        1
 44
0.0
173
     0
291
     1
 45
0.0
1001
ACAD
1000
AcDbSavedByObjectVersion
1070
     0
  0
VISUALSTYLE
  5
12E5
102
{ACAD_XDICTIONARY
360
1345
102
}
102
{ACAD_REACTORS
330
12DC
102
}
330
12DC
100
AcDbVisualStyle
  2
Conceptual
 70
     9
 71
     3
 72
     2
 73
     0
 90
        0
 40
-0.6
 41
-30.0
 62
     5
 63
     7
 74
     2
 91
        2
 64
     7
 65
   257
 75
     1
175
     1
 42
179.0
 92
        8
 66
     7
 43
1.0
 76
     1
 77
     6
 78
     2
 67
     7
 79
     3
170
     0
171
     0
290
     0
174
     0
 93
        1
 44
0.0
173
     0
291
     0
 45
0.0
1001
ACAD
1000
AcDbSavedByObjectVersion
1070
     0
  0
VISUALSTYLE
  5
12E7
102
{ACAD_XDICTIONARY
360
1349
102
}
102
{ACAD_REACTORS
330
12DC
102
}
330
12DC
100
AcDbVisualStyle
  2
Dim
 70
    11
 71
     2
 72
     2
 73
     0
 90
        0
 40
-0.6
 41
-30.0
 62
     5
 63
     7
 74
     1
 91
        4
 64
     7
 65
   257
 75
     1
175
     1
 42
1.0
 92
        8
 66
     7
 43
1.0
 76
     1
 77
     6
 78
     2
 67
     7
 79
     5
170
     0
171
     0
290
     0
174
     0
 93
        1
 44
-50.0
173
     0
291
     1
 45
0.0
1001
ACAD
1000
AcDbSavedByObjectVersion
1070
     0
  0
VISUALSTYLE
  5
12F4
102
{ACAD_XDICTIONARY
360
1363
102
}
102
{ACAD_REACTORS
330
12DC
102
}
330
12DC
100
AcDbVisualStyle
  2
EdgeColorOff
 70
    22
 71
     2
 72
     2
 73
     0
 90
        0
 40
-0.6
 41
-30.0
 62
     5
 63
     7
 74
     1
 91
        4
 64
     7
 65
   257
 75
     1
175
     1
 42
1.0
 92
        8
 66
     7
 43
1.0
 76
     1
 77
     6
 78
     2
 67
     7
 79
     5
170
     0
171
     0
290
     0
174
     0
 93
        1
 44
0.0
173
     0
291
     1
 45
0.0
1001
ACAD
1000
AcDbSavedByObjectVersion
1070
     0
  0
VISUALSTYLE
  5
12EB
102
{ACAD_XDICTIONARY
360
1351
102
}
102
{ACAD_REACTORS
330
12DC
102
}
330
12DC
100
AcDbVisualStyle
  2
Facepattern
 70
    15
 71
     2
 72
     2
 73
     0
 90
        0
 40
-0.6
 41
-30.0
 62
     5
 63
     7
 74
     1
 91
        4
 64
     7
 65
   257
 75
     1
175
     1
 42
1.0
 92
        8
 66
     7
 43
1.0
 76
     1
 77
     6
 78
     2
 67
     7
 79
     5
170
     0
171
     0
290
     0
174
     0
 93
        1
 44
0.0
173
     0
291
     1
 45
0.0
1001
ACAD
1000
AcDbSavedByObjectVersion
1070
     0
  0
VISUALSTYLE
  5
12DD
102
{ACAD_XDICTIONARY
360
1335
102
}
102
{ACAD_REACTORS
330
12DC
102
}
330
12DC
100
AcDbVisualStyle
  2
Flat
 70
     0
 71
     2
 72
     1
 73
     1
 90
        2
 40
-0.6
 41
30.0
 62
     5
 63
     7
 74
     0
 91
        0
 64
     7
 65
   257
 75
     1
175
     1
 42
1.0
 92
        8
 66
     7
 43
1.0
 76
     1
 77
     6
 78
     2
 67
     7
 79
     5
170
     0
171
     0
290
     0
174
     0
 93
       13
 44
0.0
173
     0
291
     1
 45
0.0
1001
ACAD
1000
AcDbSavedByObjectVersion
1070
     0
  0
VISUALSTYLE
  5
12DE
102
{ACAD_XDICTIONARY
360
1337
102
}
102
{ACAD_REACTORS
330
12DC
102
}
330
12DC
100
AcDbVisualStyle
  2
FlatWithEdges
 70
     1
 71
     2
 72
     1
 73
     1
 90
        2
 40
-0.6
 41
30.0
 62
     5
 63
     7
 74
     1
 91
        0
 64
     7
 65
   257
 75
     1
175
     1
 42
1.0
 92
        0
 66
   257
 43
1.0
 76
     1
 77
     6
 78
     2
 67
     7
 79
     5
170
     0
171
     0
290
     0
174
     0
 93
       13
 44
0.0
173
     0
291
     1
 45
0.0
1001
ACAD
1000
AcDbSavedByObjectVersion
1070
     0
  0
VISUALSTYLE
  5
12DF
102
{ACAD_XDICTIONARY
360
1339
102
}
102
{ACAD_REACTORS
330
12DC
102
}
330
12DC
100
AcDbVisualStyle
  2
Gouraud
 70
     2
 71
     2
 72
     2
 73
     1
 90
        2
 40
-0.6
 41
30.0
 62
     5
 63
     7
 74
     0
 91
        0
 64
     7
 65
   257
 75
     1
175
     1
 42
1.0
 92
        0
 66
     7
 43
1.0
 76
     1
 77
     6
 78
     2
 67
     7
 79
     5
170
     0
171
     0
290
     0
174
     0
 93
       13
 44
0.0
173
     0
291
     1
 45
0.0
1001
ACAD
1000
AcDbSavedByObjectVersion
1070
     0
  0
VISUALSTYLE
  5
12E0
102
{ACAD_XDICTIONARY
360
133B
102
}
102
{ACAD_REACTORS
330
12DC
102
}
330
12DC
100
AcDbVisualStyle
  2
GouraudWithEdges
 70
     3
 71
     2
 72
     2
 73
     1
 90
        2
 40
-0.6
 41
30.0
 62
     5
 63
     7
 74
     1
 91
        0
 64
     7
 65
   257
 75
     1
175
     1
 42
1.0
 92
        0
 66
   257
 43
1.0
 76
     1
 77
     6
 78
     2
 67
     7
 79
     5
170
     0
171
     0
290
     0
174
     0
 93
       13
 44
0.0
173
     0
291
     1
 45
0.0
1001
ACAD
1000
AcDbSavedByObjectVersion
1070
     0
  0
VISUALSTYLE
  5
12E4
102
{ACAD_XDICTIONARY
360
1343
102
}
102
{ACAD_REACTORS
330
12DC
102
}
330
12DC
100
AcDbVisualStyle
  2
Hidden
 70
     6
 71
     1
 72
     2
 73
     2
 90
        0
 40
-0.6
 41
-30.0
 62
     5
 63
     7
 74
     2
 91
        2
 64
     7
 65
   257
 75
     2
175
     1
 42
40.0
 92
        0
 66
   257
 43
1.0
 76
     1
 77
     6
 78
     2
 67
     7
 79
     3
170
     0
171
     0
290
     0
174
     0
 93
        1
 44
0.0
173
     0
291
     0
 45
0.0
1001
ACAD
1000
AcDbSavedByObjectVersion
1070
     0
  0
VISUALSTYLE
  5
12F2
102
{ACAD_XDICTIONARY
360
135F
102
}
102
{ACAD_REACTORS
330
12DC
102
}
330
12DC
100
AcDbVisualStyle
  2
JitterOff
 70
    20
 71
     2
 72
     2
 73
     0
 90
        0
 40
-0.6
 41
-30.0
 62
     5
 63
     7
 74
     1
 91
        4
 64
     7
 65
   257
 75
     1
175
     1
 42
1.0
 92
       10
 66
     7
 43
1.0
 76
     1
 77
     6
 78
     2
 67
     7
 79
     5
170
     0
171
     0
290
     0
174
     0
 93
        1
 44
0.0
173
     0
291
     1
 45
0.0
1001
ACAD
1000
AcDbSavedByObjectVersion
1070
     0
  0
VISUALSTYLE
  5
12EA
102
{ACAD_XDICTIONARY
360
134F
102
}
102
{ACAD_REACTORS
330
12DC
102
}
330
12DC
100
AcDbVisualStyle
  2
Linepattern
 70
    14
 71
     2
 72
     2
 73
     0
 90
        0
 40
-0.6
 41
-30.0
 62
     5
 63
     7
 74
     1
 91
        4
 64
     7
 65
   257
 75
     7
175
     7
 42
1.0
 92
        8
 66
     7
 43
1.0
 76
     1
 77
     6
 78
     2
 67
     7
 79
     5
170
     0
171
     0
290
     0
174
     0
 93
        1
 44
0.0
173
     0
291
     1
 45
0.0
1001
ACAD
1000
AcDbSavedByObjectVersion
1070
     0
  0
VISUALSTYLE
  5
12F3
102
{ACAD_XDICTIONARY
360
1361
102
}
102
{ACAD_REACTORS
330
12DC
102
}
330
12DC
100
AcDbVisualStyle
  2
OverhangOff
 70
    21
 71
     2
 72
     2
 73
     0
 90
        0
 40
-0.6
 41
-30.0
 62
     5
 63
     7
 74
     1
 91
        4
 64
     7
 65
   257
 75
     1
175
     1
 42
1.0
 92
        9
 66
     7
 43
1.0
 76
     1
 77
     6
 78
     2
 67
     7
 79
     5
170
     0
171
     0
290
     0
174
     0
 93
        1
 44
0.0
173
     0
291
     1
 45
0.0
1001
ACAD
1000
AcDbSavedByObjectVersion
1070
     0
  0
VISUALSTYLE
  5
12E6
102
{ACAD_XDICTIONARY
360
1347
102
}
102
{ACAD_REACTORS
330
12DC
102
}
330
12DC
100
AcDbVisualStyle
  2
Realistic
 70
     8
 71
     2
 72
     3
 73
     0
 90
        2
 40
-0.6
 41
30.0
 62
     5
 63
     7
 74
     0
 91
        0
 64
     7
 65
   257
 75
     1
175
     1
 42
1.0
 92
        8
 66
   257
 43
1.0
 76
     1
 77
     6
 78
     2
 67
     7
 79
     3
170
     0
171
     0
290
     0
174
     0
 93
       13
 44
0.0
173
     0
291
     0
 45
0.0
1001
ACAD
1000
AcDbSavedByObjectVersion
1070
     0
  0
VISUALSTYLE
  5
12F1
102
{ACAD_XDICTIONARY
360
135D
102
}
102
{ACAD_REACTORS
330
12DC
102
}
330
12DC
100
AcDbVisualStyle
  2
Shaded
 70
    27
 71
     2
 72
     2
 73
     1
 90
        2
 40
-0.6
 41
30.0
 62
     5
 63
     7
 74
     0
 91
        4
 64
     7
 65
   257
 75
     1
175
     1
 42
1.0
 92
        8
 66
   257
 43
1.0
 76
     1
 77
     6
 78
     2
 67
     8
 79
     3
170
     0
171
     0
290
     0
174
     0
 93
        5
 44
0.0
173
     0
291
     0
 45
0.0
1001
ACAD
1000
AcDbSavedByObjectVersion
1070
     0
  0
VISUALSTYLE
  5
12F0
102
{ACAD_XDICTIONARY
360
135B
102
}
102
{ACAD_REACTORS
330
12DC
102
}
330
12DC
100
AcDbVisualStyle
  2
Shaded with edges
 70
    26
 71
     2
 72
     2
 73
     1
 90
        2
 40
-0.6
 41
30.0
 62
     5
 63
     7
 74
     1
 91
       10
 64
     7
 65
   257
 75
     2
175
     1
 42
1.0
 92
        8
 66
   257
 43
1.0
 76
     1
 77
     6
 78
     2
 67
     7
 79
     3
170
     0
171
     0
290
     0
174
     0
 93
        5
 44
0.0
173
     0
291
     0
 45
0.0
1001
ACAD
1000
AcDbSavedByObjectVersion
1070
     0
  0
VISUALSTYLE
  5
12ED
102
{ACAD_XDICTIONARY
360
1355
102
}
102
{ACAD_REACTORS
330
12DC
102
}
330
12DC
100
AcDbVisualStyle
  2
Shades of Gray
 70
    23
 71
     2
 72
     2
 73
     3
 90
        0
 40
-0.6
 41
-30.0
 62
     5
 63
     7
 74
     2
 91
        2
 64
     7
 65
     7
 75
     1
175
     1
 42
40.0
 92
        8
 66
     7
 43
1.0
 76
     1
 77
     6
 78
     2
 67
     7
 79
     3
170
     0
171
     0
290
     0
174
     0
 93
        1
 44
0.0
173
     0
291
     0
 45
0.0
1001
ACAD
1000
AcDbSavedByObjectVersion
1070
     0
  0
VISUALSTYLE
  5
12EE
102
{ACAD_XDICTIONARY
360
1357
102
}
102
{ACAD_REACTORS
330
12DC
102
}
330
12DC
100
AcDbVisualStyle
  2
Sketchy
 70
    24
 71
     1
 72
     2
 73
     2
 90
        0
 40
-0.6
 41
-30.0
 62
     5
 63
     7
 74
     2
 91
        2
 64
     7
 65
     7
 75
     1
175
     1
 42
40.0
 92
       11
 66
     7
 43
1.0
 76
     1
 77
     6
 78
     2
 67
     7
 79
     6
170
     0
171
     0
290
     0
174
     0
 93
        1
 44
0.0
173
     0
291
     0
 45
0.0
1001
ACAD
1000
AcDbSavedByObjectVersion
1070
     0
  0
VISUALSTYLE
  5
12E9
102
{ACAD_XDICTIONARY
360
134D
102
}
102
{ACAD_REACTORS
330
12DC
102
}
330
12DC
100
AcDbVisualStyle
  2
Thicken
 70
    13
 71
     2
 72
     2
 73
     0
 90
        0
 40
-0.6
 41
-30.0
 62
     5
 63
     7
 74
     1
 91
        4
 64
     7
 65
   257
 75
     1
175
     1
 42
1.0
 92
       12
 66
     7
 43
1.0
 76
     1
 77
     6
 78
     2
 67
     7
 79
     5
170
     0
171
     0
290
     0
174
     0
 93
        1
 44
0.0
173
     0
291
     1
 45
0.0
1001
ACAD
1000
AcDbSavedByObjectVersion
1070
     0
  0
VISUALSTYLE
  5
12E3
102
{ACAD_XDICTIONARY
360
1341
102
}
102
{ACAD_REACTORS
330
12DC
102
}
330
12DC
100
AcDbVisualStyle
  2
Wireframe
 70
     5
 71
     0
 72
     2
 73
     0
 90
        0
 40
-0.6
 41
-30.0
 62
     5
 63
     7
 74
     1
 91
        4
 64
     7
 65
   257
 75
     1
175
     1
 42
1.0
 92
        0
 66
   257
 43
1.0
 76
     1
 77
     6
 78
     2
 67
     7
 79
     3
170
     0
171
     0
290
     0
174
     0
 93
        1
 44
0.0
173
     0
291
     0
 45
0.0
1001
ACAD
1000
AcDbSavedByObjectVersion
1070
     0
  0
VISUALSTYLE
  5
12EF
102
{ACAD_XDICTIONARY
360
1359
102
}
102
{ACAD_REACTORS
330
12DC
102
}
330
12DC
100
AcDbVisualStyle
  2
X-Ray
 70
    25
 71
     2
 72
     2
 73
     1
 90
        1
 40
0.5
 41
-30.0
 62
     5
 63
     7
 74
     1
 91
        0
 64
     7
 65
   257
 75
     1
175
     1
 42
1.0
 92
        8
 66
     7
 43
1.0
 76
     1
 77
     6
 78
     2
 67
     7
 79
     3
170
     0
171
     0
290
     0
174
     0
 93
       13
 44
0.0
173
     0
291
     0
 45
0.0
1001
ACAD
1000
AcDbSavedByObjectVersion
1070
     0
  0
DICTIONARYVAR
  5
1328
102
{ACAD_REACTORS
330
1323
102
}
330
1323
100
DictionaryVariables
280
     0
  1
1:1
  0
DICTIONARYVAR
  5
1325
102
{ACAD_REACTORS
330
1323
102
}
330
1323
100
DictionaryVariables
280
     0
  1
STANDARD
  0
DICTIONARYVAR
  5
1324
102
{ACAD_REACTORS
330
1323
102
}
330
1323
100
DictionaryVariables
280
     0
  1
STANDARD
  0
DICTIONARYVAR
  5
1326
102
{ACAD_REACTORS
330
1323
102
}
330
1323
100
DictionaryVariables
280
     0
  1
Imperial24
  0
DICTIONARYVAR
  5
1327
102
{ACAD_REACTORS
330
1323
102
}
330
1323
100
DictionaryVariables
280
     0
  1
Imperial24
  0
DICTIONARYVAR
  5
132B
102
{ACAD_REACTORS
330
1323
102
}
330
1323
100
DictionaryVariables
280
     0
  1
1
  0
DICTIONARYVAR
  5
132A
102
{ACAD_REACTORS
330
1323
102
}
330
1323
100
DictionaryVariables
280
     0
  1
0
  0
DICTIONARYVAR
  5
1329
102
{ACAD_REACTORS
330
1323
102
}
330
1323
100
DictionaryVariables
280
     0
  1
127
  0
DICTIONARYVAR
  5
132C
102
{ACAD_REACTORS
330
1323
102
}
330
1323
100
DictionaryVariables
280
     0
  1
2
  0
DICTIONARY
  5
1369
330
130F
100
AcDbDictionary
280
     1
281
     1
  3
ACAD_XREC_ROUNDTRIP
360
136A
  0
DICTIONARY
  5
136B
330
1310
100
AcDbDictionary
280
     1
281
     1
  3
ACAD_XREC_ROUNDTRIP
360
136C
  0
DICTIONARY
  5
136D
330
1311
100
AcDbDictionary
280
     1
281
     1
  3
ACAD_XREC_ROUNDTRIP
360
136E
  0
DICTIONARY
  5
12CD
330
12CC
100
AcDbDictionary
280
     1
281
     1
  3
ACAD_XREC_ROUNDTRIP
360
1333
  3
BUMPTILE
360
12CF
  3
DIFFUSETILE
360
12CE
  3
OPACITYTILE
360
12D2
  3
REFLECTIONTILE
360
12D1
  3
REFRACTIONTILE
360
12D3
  3
SPECULARTILE
360
12D0
  0
DICTIONARY
  5
12C5
330
12C4
100
AcDbDictionary
280
     1
281
     1
  3
ACAD_XREC_ROUNDTRIP
360
1332
  3
BUMPTILE
360
12C7
  3
DIFFUSETILE
360
12C6
  3
OPACITYTILE
360
12CA
  3
REFLECTIONTILE
360
12C9
  3
REFRACTIONTILE
360
12CB
  3
SPECULARTILE
360
12C8
  0
DICTIONARY
  5
12D5
330
12D4
100
AcDbDictionary
280
     1
281
     1
  3
ACAD_XREC_ROUNDTRIP
360
1334
  3
BUMPTILE
360
12D7
  3
DIFFUSETILE
360
12D6
  3
OPACITYTILE
360
12DA
  3
REFLECTIONTILE
360
12D9
  3
REFRACTIONTILE
360
12DB
  3
SPECULARTILE
360
12D8
  0
DICTIONARY
  5
1367
330
130D
100
AcDbDictionary
280
     1
281
     1
  3
ACAD_XREC_ROUNDTRIP
360
1368
  0
DICTIONARY
  5
132E
330
12F7
100
AcDbDictionary
280
     1
281
     1
  3
ACAD_ROUNDTRIP_2008_TABLESTYLE_CELLSTYLEMAP
360
132F
  3
ACAD_XREC_ROUNDTRIP
360
1365
  0
DICTIONARY
  5
133F
330
12E2
100
AcDbDictionary
280
     1
281
     1
  3
ACAD_XREC_ROUNDTRIP
360
1340
  0
DICTIONARY
  5
133D
330
12E1
100
AcDbDictionary
280
     1
281
     1
  3
ACAD_XREC_ROUNDTRIP
360
133E
  0
DICTIONARY
  5
134B
330
12E8
100
AcDbDictionary
280
     1
281
     1
  3
ACAD_XREC_ROUNDTRIP
360
134C
  0
DICTIONARY
  5
1353
330
12EC
100
AcDbDictionary
280
     1
281
     1
  3
ACAD_XREC_ROUNDTRIP
360
1354
  0
DICTIONARY
  5
1345
330
12E5
100
AcDbDictionary
280
     1
281
     1
  3
ACAD_XREC_ROUNDTRIP
360
1346
  0
DICTIONARY
  5
1349
330
12E7
100
AcDbDictionary
280
     1
281
     1
  3
ACAD_XREC_ROUNDTRIP
360
134A
  0
DICTIONARY
  5
1363
330
12F4
100
AcDbDictionary
280
     1
281
     1
  3
ACAD_XREC_ROUNDTRIP
360
1364
  0
DICTIONARY
  5
1351
330
12EB
100
AcDbDictionary
280
     1
281
     1
  3
ACAD_XREC_ROUNDTRIP
360
1352
  0
DICTIONARY
  5
1335
330
12DD
100
AcDbDictionary
280
     1
281
     1
  3
ACAD_XREC_ROUNDTRIP
360
1336
  0
DICTIONARY
  5
1337
330
12DE
100
AcDbDictionary
280
     1
281
     1
  3
ACAD_XREC_ROUNDTRIP
360
1338
  0
DICTIONARY
  5
1339
330
12DF
100
AcDbDictionary
280
     1
281
     1
  3
ACAD_XREC_ROUNDTRIP
360
133A
  0
DICTIONARY
  5
133B
330
12E0
100
AcDbDictionary
280
     1
281
     1
  3
ACAD_XREC_ROUNDTRIP
360
133C
  0
DICTIONARY
  5
1343
330
12E4
100
AcDbDictionary
280
     1
281
     1
  3
ACAD_XREC_ROUNDTRIP
360
1344
  0
DICTIONARY
  5
135F
330
12F2
100
AcDbDictionary
280
     1
281
     1
  3
ACAD_XREC_ROUNDTRIP
360
1360
  0
DICTIONARY
  5
134F
330
12EA
100
AcDbDictionary
280
     1
281
     1
  3
ACAD_XREC_ROUNDTRIP
360
1350
  0
DICTIONARY
  5
1361
330
12F3
100
AcDbDictionary
280
     1
281
     1
  3
ACAD_XREC_ROUNDTRIP
360
1362
  0
DICTIONARY
  5
1347
330
12E6
100
AcDbDictionary
280
     1
281
     1
  3
ACAD_XREC_ROUNDTRIP
360
1348
  0
DICTIONARY
  5
135D
330
12F1
100
AcDbDictionary
280
     1
281
     1
  3
ACAD_XREC_ROUNDTRIP
360
135E
  0
DICTIONARY
  5
135B
330
12F0
100
AcDbDictionary
280
     1
281
     1
  3
ACAD_XREC_ROUNDTRIP
360
135C
  0
DICTIONARY
  5
1355
330
12ED
100
AcDbDictionary
280
     1
281
     1
  3
ACAD_XREC_ROUNDTRIP
360
1356
  0
DICTIONARY
  5
1357
330
12EE
100
AcDbDictionary
280
     1
281
     1
  3
ACAD_XREC_ROUNDTRIP
360
1358
  0
DICTIONARY
  5
134D
330
12E9
100
AcDbDictionary
280
     1
281
     1
  3
ACAD_XREC_ROUNDTRIP
360
134E
  0
DICTIONARY
  5
1341
330
12E3
100
AcDbDictionary
280
     1
281
     1
  3
ACAD_XREC_ROUNDTRIP
360
1342
  0
DICTIONARY
  5
1359
330
12EF
100
AcDbDictionary
280
     1
281
     1
  3
ACAD_XREC_ROUNDTRIP
360
135A
  0
XRECORD
  5
136A
102
{ACAD_REACTORS
330
1369
102
}
330
1369
100
AcDbXrecord
280
     1
102
DISPLAYNAME
  1
Imperial24
102
FLAGS
 90
        0
  0
XRECORD
  5
136C
102
{ACAD_REACTORS
330
136B
102
}
330
136B
100
AcDbXrecord
280
     1
102
SHADEPLOT
 70
     0
102
SHADEPLOTRESLEVEL
 70
     2
102
SHADEPLOTCUSTOMDPI
 70
   300
  0
XRECORD
  5
136E
102
{ACAD_REACTORS
330
136D
102
}
330
136D
100
AcDbXrecord
280
     1
102
SHADEPLOT
 70
     0
102
SHADEPLOTRESLEVEL
 70
     2
102
SHADEPLOTCUSTOMDPI
 70
   300
  0
XRECORD
  5
1333
102
{ACAD_REACTORS
330
12CD
102
}
330
12CD
100
AcDbXrecord
280
     1
102
MATERIAL
148
0.0
149
0.0
149
0.0
 93
        0
 94
      127
282
     0
 72
     0
 77
     0
171
     0
175
     0
179
     0
273
     0
  0
XRECORD
  5
12CF
102
{ACAD_REACTORS
330
12CD
102
}
330
12CD
100
AcDbXrecord
280
     1
270
     1
271
     1
  0
XRECORD
  5
12CE
102
{ACAD_REACTORS
330
12CD
102
}
330
12CD
100
AcDbXrecord
280
     1
270
     1
271
     1
  0
XRECORD
  5
12D2
102
{ACAD_REACTORS
330
12CD
102
}
330
12CD
100
AcDbXrecord
280
     1
270
     1
271
     1
  0
XRECORD
  5
12D1
102
{ACAD_REACTORS
330
12CD
102
}
330
12CD
100
AcDbXrecord
280
     1
270
     1
271
     1
  0
XRECORD
  5
12D3
102
{ACAD_REACTORS
330
12CD
102
}
330
12CD
100
AcDbXrecord
280
     1
270
     1
271
     1
  0
XRECORD
  5
12D0
102
{ACAD_REACTORS
330
12CD
102
}
330
12CD
100
AcDbXrecord
280
     1
270
     1
271
     1
  0
XRECORD
  5
1332
102
{ACAD_REACTORS
330
12C5
102
}
330
12C5
100
AcDbXrecord
280
     1
102
MATERIAL
148
0.0
149
0.0
149
0.0
 93
        0
 94
      127
282
     0
 72
     0
 77
     0
171
     0
175
     0
179
     0
273
     0
  0
XRECORD
  5
12C7
102
{ACAD_REACTORS
330
12C5
102
}
330
12C5
100
AcDbXrecord
280
     1
270
     1
271
     1
  0
XRECORD
  5
12C6
102
{ACAD_REACTORS
330
12C5
102
}
330
12C5
100
AcDbXrecord
280
     1
270
     1
271
     1
  0
XRECORD
  5
12CA
102
{ACAD_REACTORS
330
12C5
102
}
330
12C5
100
AcDbXrecord
280
     1
270
     1
271
     1
  0
XRECORD
  5
12C9
102
{ACAD_REACTORS
330
12C5
102
}
330
12C5
100
AcDbXrecord
280
     1
270
     1
271
     1
  0
XRECORD
  5
12CB
102
{ACAD_REACTORS
330
12C5
102
}
330
12C5
100
AcDbXrecord
280
     1
270
     1
271
     1
  0
XRECORD
  5
12C8
102
{ACAD_REACTORS
330
12C5
102
}
330
12C5
100
AcDbXrecord
280
     1
270
     1
271
     1
  0
XRECORD
  5
1334
102
{ACAD_REACTORS
330
12D5
102
}
330
12D5
100
AcDbXrecord
280
     1
102
MATERIAL
148
0.0
149
0.0
149
0.0
 93
        0
 94
      127
282
     0
 72
     0
 77
     0
171
     0
175
     0
179
     0
273
     0
  0
XRECORD
  5
12D7
102
{ACAD_REACTORS
330
12D5
102
}
330
12D5
100
AcDbXrecord
280
     1
270
     1
271
     1
  0
XRECORD
  5
12D6
102
{ACAD_REACTORS
330
12D5
102
}
330
12D5
100
AcDbXrecord
280
     1
270
     1
271
     1
  0
XRECORD
  5
12DA
102
{ACAD_REACTORS
330
12D5
102
}
330
12D5
100
AcDbXrecord
280
     1
270
     1
271
     1
  0
XRECORD
  5
12D9
102
{ACAD_REACTORS
330
12D5
102
}
330
12D5
100
AcDbXrecord
280
     1
270
     1
271
     1
  0
XRECORD
  5
12DB
102
{ACAD_REACTORS
330
12D5
102
}
330
12D5
100
AcDbXrecord
280
     1
270
     1
271
     1
  0
XRECORD
  5
12D8
102
{ACAD_REACTORS
330
12D5
102
}
330
12D5
100
AcDbXrecord
280
     1
270
     1
271
     1
  0
XRECORD
  5
1368
102
{ACAD_REACTORS
330
1367
102
}
330
1367
100
AcDbXrecord
280
     1
102
DISPLAYNAME
  1
Imperial24
102
FLAGS
 90
        0
  0
CELLSTYLEMAP
  5
132F
102
{ACAD_REACTORS
330
132E
102
}
330
132E
100
AcDbCellStyleMap
 90
        3
300
CELLSTYLE
  1
TABLEFORMAT_BEGIN
 90
        5
170
     1
 91
        0
 92
    32768
 62
   257
 93
        1
300
CONTENTFORMAT
  1
CONTENTFORMAT_BEGIN
 90
        0
 91
        0
 92
      512
 93
        0
300

 40
0.0
140
1.0
 94
        5
 62
     0
340
F
144
0.25
309
CONTENTFORMAT_END
171
     0
 94
        0
309
TABLEFORMAT_END
  1
CELLSTYLE_BEGIN
 90
        1
 91
        1
300
_TITLE
309
CELLSTYLE_END
300
CELLSTYLE
  1
TABLEFORMAT_BEGIN
 90
        5
170
     1
 91
        0
 92
        0
 62
   257
 93
        1
300
CONTENTFORMAT
  1
CONTENTFORMAT_BEGIN
 90
        0
 91
        0
 92
      512
 93
        0
300

 40
0.0
140
1.0
 94
        5
 62
     0
340
F
144
0.18
309
CONTENTFORMAT_END
171
     0
 94
        0
309
TABLEFORMAT_END
  1
CELLSTYLE_BEGIN
 90
        2
 91
        1
300
_HEADER
309
CELLSTYLE_END
300
CELLSTYLE
  1
TABLEFORMAT_BEGIN
 90
        5
170
     1
 91
        0
 92
        0
 62
   257
 93
        1
300
CONTENTFORMAT
  1
CONTENTFORMAT_BEGIN
 90
        0
 91
        0
 92
      512
 93
        0
300

 40
0.0
140
1.0
 94
        2
 62
     0
340
F
144
0.18
309
CONTENTFORMAT_END
171
     0
 94
        0
309
TABLEFORMAT_END
  1
CELLSTYLE_BEGIN
 90
        3
 91
        2
300
_DATA
309
CELLSTYLE_END
  0
XRECORD
  5
1365
102
{ACAD_REACTORS
330
132E
102
}
330
132E
100
AcDbXrecord
280
     1
102
ACAD_ROUNDTRIP_PRE2007_TABLESTYLE
 90
      512
 91
        0
  1

 92
      512
 93
        0
  2

 94
      512
 95
        0
  3

  0
XRECORD
  5
1340
102
{ACAD_REACTORS
330
133F
102
}
330
133F
100
AcDbXrecord
280
     1
102
RTVSPost2010Prop28
280
     1
102
RTVSPost2010PropOp28
 70
     1
102
RTVSPost2010Prop29
280
     1
102
RTVSPost2010PropOp29
 70
     1
102
RTVSPost2010Prop30
280
     0
102
RTVSPost2010PropOp30
 70
     1
102
RTVSPost2010Prop31
280
     0
102
RTVSPost2010PropOp31
 70
     1
102
RTVSPost2010Prop32
280
     0
102
RTVSPost2010PropOp32
 70
     1
102
RTVSPost2010Prop33
280
     0
102
RTVSPost2010PropOp33
 70
     1
102
RTVSPost2010Prop34
280
     0
102
RTVSPost2010PropOp34
 70
     1
102
RTVSPost2010Prop35
280
     0
102
RTVSPost2010PropOp35
 70
     1
102
RTVSPost2010Prop36
280
     0
102
RTVSPost2010PropOp36
 70
     1
102
RTVSPost2010Prop37
 90
       50
102
RTVSPost2010PropOp37
 70
     1
102
RTVSPost2010Prop38
140
0.0
102
RTVSPost2010PropOp38
 70
     1
102
RTVSPost2010Prop39
140
1.0
102
RTVSPost2010PropOp39
 70
     1
102
RTVSPost2010Prop40
 90
        0
102
RTVSPost2010PropOp40
 70
     1
102
RTVSPost2010Prop41ColorIndex
 90
       18
102
RTVSPost2010Prop41ColorRGB
 90
        0
102
RTVSPost2010PropOp41
 70
     1
102
RTVSPost2010Prop42
 90
       50
102
RTVSPost2010PropOp42
 70
     1
102
RTVSPost2010Prop43
 90
        3
102
RTVSPost2010PropOp43
 70
     1
102
RTVSPost2010Prop44ColorIndex
 90
        5
102
RTVSPost2010Prop44ColorRGB
 90
      255
102
RTVSPost2010PropOp44
 70
     1
102
RTVSPost2010Prop45
280
     0
102
RTVSPost2010PropOp45
 70
     1
102
RTVSPost2010Prop46
 90
       50
102
RTVSPost2010PropOp46
 70
     1
102
RTVSPost2010Prop47
 90
       50
102
RTVSPost2010PropOp47
 70
     1
102
RTVSPost2010Prop48
 90
       50
102
RTVSPost2010PropOp48
 70
     1
102
RTVSPost2010Prop49
280
     0
102
RTVSPost2010PropOp49
 70
     1
102
RTVSPost2010Prop50
 90
       50
102
RTVSPost2010PropOp50
 70
     1
102
RTVSPost2010Prop51ColorIndex
 90
      256
102
RTVSPost2010Prop51ColorRGB
 90
-16777216
102
RTVSPost2010PropOp51
 70
     0
102
RTVSPost2010Prop52
140
1.0
102
RTVSPost2010PropOp52
 70
     0
102
RTVSPost2010Prop53
 90
        2
102
RTVSPost2010PropOp53
 70
     1
102
RTVSPost2010Prop54
  1
strokes_ogs.tif
102
RTVSPost2010PropOp54
 70
     1
102
RTVSPost2010Prop55
280
     0
102
RTVSPost2010PropOp55
 70
     1
102
RTVSPost2010Prop56
140
1.0
102
RTVSPost2010PropOp56
 70
     1
102
RTVSPost2010Prop57
140
1.0
102
RTVSPost2010PropOp57
 70
     1
102
RTVSPropertyOp0
 70
     1
102
RTVSPropertyOp1
 70
     1
102
RTVSPropertyOp2
 70
     1
102
RTVSPropertyOp3
 70
     1
102
RTVSPropertyOp4
 70
     1
102
RTVSPropertyOp5
 70
     1
102
RTVSPropertyOp6
 70
     1
102
RTVSPropertyOp7
 70
     1
102
RTVSPropertyOp8
 70
     1
102
RTVSPropertyOp9
 70
     1
102
RTVSPropertyOp10
 70
     1
102
RTVSPropertyOp11
 70
     1
102
RTVSPropertyOp12
 70
     1
102
RTVSPropertyOp13
 70
     1
102
RTVSPropertyOp14
 70
     1
102
RTVSPropertyOp15
 70
     1
102
RTVSPropertyOp16
 70
     1
102
RTVSPropertyOp17
 70
     1
102
RTVSPropertyOp18
 70
     1
102
RTVSPropertyOp19
 70
     1
102
RTVSPropertyOp20
 70
     1
102
RTVSPropertyOp21
 70
     1
102
RTVSPropertyOp22
 70
     1
102
RTVSPropertyOp23
 70
     1
102
RTVSPropertyOp24
 70
     1
102
RTVSPropertyOp25
 70
     1
102
RTVSPropertyOp26
 70
     1
102
RTVSPropertyOp27
 70
     1
102
RTVSPropertyOp28
 70
     1
102
RTVSPropertyOp29
 70
     1
102
RTVSPropertyOp30
 70
     1
102
RTVSPropertyOp31
 70
     1
102
RTVSPropertyOp32
 70
     1
102
RTVSPropertyOp33
 70
     1
102
RTVSPropertyOp34
 70
     1
102
RTVSPropertyOp35
 70
     1
102
RTVSPropertyOp36
 70
     1
102
RTVSPropertyOp37
 70
     1
102
RTVSPropertyOp38
 70
     1
102
RTVSPropertyOp39
 70
     1
102
RTVSPropertyOp40
 70
     1
102
RTVSPropertyOp41
 70
     1
102
RTVSPropertyOp42
 70
     1
102
RTVSPropertyOp43
 70
     1
102
RTVSPropertyOp44
 70
     1
102
RTVSPropertyOp45
 70
     1
102
RTVSPropertyOp46
 70
     1
102
RTVSPropertyOp47
 70
     1
102
RTVSPropertyOp48
 70
     1
102
RTVSPropertyOp49
 70
     1
102
RTVSPropertyOp50
 70
     1
102
RTVSPropertyOp51
 70
     0
102
RTVSPropertyOp52
 70
     0
102
RTVSPropertyOp53
 70
     1
102
RTVSPropertyOp54
 70
     1
102
RTVSPropertyOp55
 70
     1
102
RTVSPropertyOp56
 70
     1
102
RTVSPropertyOp57
 70
     1
102
RTVSPropertyOp58
 70
     1
102
RTVSPropertyOp59
 70
     1
102
RTVSPropertyOp60
 70
     1
102
RTVSPropertyOp61
 70
     1
102
RTVSPropertyOp62
 70
     1
  0
XRECORD
  5
133E
102
{ACAD_REACTORS
330
133D
102
}
330
133D
100
AcDbXrecord
280
     1
102
RTVSPost2010Prop28
280
     0
102
RTVSPost2010PropOp28
 70
     1
102
RTVSPost2010Prop29
280
     1
102
RTVSPost2010PropOp29
 70
     1
102
RTVSPost2010Prop30
280
     1
102
RTVSPost2010PropOp30
 70
     1
102
RTVSPost2010Prop31
280
     0
102
RTVSPost2010PropOp31
 70
     1
102
RTVSPost2010Prop32
280
     0
102
RTVSPost2010PropOp32
 70
     1
102
RTVSPost2010Prop33
280
     0
102
RTVSPost2010PropOp33
 70
     1
102
RTVSPost2010Prop34
280
     0
102
RTVSPost2010PropOp34
 70
     1
102
RTVSPost2010Prop35
280
     0
102
RTVSPost2010PropOp35
 70
     1
102
RTVSPost2010Prop36
280
     0
102
RTVSPost2010PropOp36
 70
     1
102
RTVSPost2010Prop37
 90
       50
102
RTVSPost2010PropOp37
 70
     1
102
RTVSPost2010Prop38
140
0.0
102
RTVSPost2010PropOp38
 70
     1
102
RTVSPost2010Prop39
140
1.0
102
RTVSPost2010PropOp39
 70
     1
102
RTVSPost2010Prop40
 90
        0
102
RTVSPost2010PropOp40
 70
     1
102
RTVSPost2010Prop41ColorIndex
 90
       18
102
RTVSPost2010Prop41ColorRGB
 90
        0
102
RTVSPost2010PropOp41
 70
     1
102
RTVSPost2010Prop42
 90
       50
102
RTVSPost2010PropOp42
 70
     1
102
RTVSPost2010Prop43
 90
        3
102
RTVSPost2010PropOp43
 70
     1
102
RTVSPost2010Prop44ColorIndex
 90
        5
102
RTVSPost2010Prop44ColorRGB
 90
      255
102
RTVSPost2010PropOp44
 70
     1
102
RTVSPost2010Prop45
280
     0
102
RTVSPost2010PropOp45
 70
     1
102
RTVSPost2010Prop46
 90
       50
102
RTVSPost2010PropOp46
 70
     1
102
RTVSPost2010Prop47
 90
       50
102
RTVSPost2010PropOp47
 70
     1
102
RTVSPost2010Prop48
 90
       50
102
RTVSPost2010PropOp48
 70
     1
102
RTVSPost2010Prop49
280
     0
102
RTVSPost2010PropOp49
 70
     1
102
RTVSPost2010Prop50
 90
       50
102
RTVSPost2010PropOp50
 70
     1
102
RTVSPost2010Prop51ColorIndex
 90
      256
102
RTVSPost2010Prop51ColorRGB
 90
-16777216
102
RTVSPost2010PropOp51
 70
     0
102
RTVSPost2010Prop52
140
1.0
102
RTVSPost2010PropOp52
 70
     0
102
RTVSPost2010Prop53
 90
        2
102
RTVSPost2010PropOp53
 70
     1
102
RTVSPost2010Prop54
  1
strokes_ogs.tif
102
RTVSPost2010PropOp54
 70
     1
102
RTVSPost2010Prop55
280
     0
102
RTVSPost2010PropOp55
 70
     1
102
RTVSPost2010Prop56
140
1.0
102
RTVSPost2010PropOp56
 70
     1
102
RTVSPost2010Prop57
140
1.0
102
RTVSPost2010PropOp57
 70
     1
102
RTVSPropertyOp0
 70
     1
102
RTVSPropertyOp1
 70
     1
102
RTVSPropertyOp2
 70
     1
102
RTVSPropertyOp3
 70
     1
102
RTVSPropertyOp4
 70
     1
102
RTVSPropertyOp5
 70
     1
102
RTVSPropertyOp6
 70
     1
102
RTVSPropertyOp7
 70
     1
102
RTVSPropertyOp8
 70
     1
102
RTVSPropertyOp9
 70
     1
102
RTVSPropertyOp10
 70
     1
102
RTVSPropertyOp11
 70
     1
102
RTVSPropertyOp12
 70
     1
102
RTVSPropertyOp13
 70
     1
102
RTVSPropertyOp14
 70
     1
102
RTVSPropertyOp15
 70
     1
102
RTVSPropertyOp16
 70
     1
102
RTVSPropertyOp17
 70
     1
102
RTVSPropertyOp18
 70
     1
102
RTVSPropertyOp19
 70
     1
102
RTVSPropertyOp20
 70
     1
102
RTVSPropertyOp21
 70
     1
102
RTVSPropertyOp22
 70
     1
102
RTVSPropertyOp23
 70
     1
102
RTVSPropertyOp24
 70
     1
102
RTVSPropertyOp25
 70
     1
102
RTVSPropertyOp26
 70
     1
102
RTVSPropertyOp27
 70
     1
102
RTVSPropertyOp28
 70
     1
102
RTVSPropertyOp29
 70
     1
102
RTVSPropertyOp30
 70
     1
102
RTVSPropertyOp31
 70
     1
102
RTVSPropertyOp32
 70
     1
102
RTVSPropertyOp33
 70
     1
102
RTVSPropertyOp34
 70
     1
102
RTVSPropertyOp35
 70
     1
102
RTVSPropertyOp36
 70
     1
102
RTVSPropertyOp37
 70
     1
102
RTVSPropertyOp38
 70
     1
102
RTVSPropertyOp39
 70
     1
102
RTVSPropertyOp40
 70
     1
102
RTVSPropertyOp41
 70
     1
102
RTVSPropertyOp42
 70
     1
102
RTVSPropertyOp43
 70
     1
102
RTVSPropertyOp44
 70
     1
102
RTVSPropertyOp45
 70
     1
102
RTVSPropertyOp46
 70
     1
102
RTVSPropertyOp47
 70
     1
102
RTVSPropertyOp48
 70
     1
102
RTVSPropertyOp49
 70
     1
102
RTVSPropertyOp50
 70
     1
102
RTVSPropertyOp51
 70
     0
102
RTVSPropertyOp52
 70
     0
102
RTVSPropertyOp53
 70
     1
102
RTVSPropertyOp54
 70
     1
102
RTVSPropertyOp55
 70
     1
102
RTVSPropertyOp56
 70
     1
102
RTVSPropertyOp57
 70
     1
102
RTVSPropertyOp58
 70
     1
102
RTVSPropertyOp59
 70
     1
102
RTVSPropertyOp60
 70
     1
102
RTVSPropertyOp61
 70
     1
102
RTVSPropertyOp62
 70
     1
  0
XRECORD
  5
134C
102
{ACAD_REACTORS
330
134B
102
}
330
134B
100
AcDbXrecord
280
     1
102
RTVSPost2010Prop28
280
     0
102
RTVSPost2010PropOp28
 70
     1
102
RTVSPost2010Prop29
280
     1
102
RTVSPost2010PropOp29
 70
     1
102
RTVSPost2010Prop30
280
     1
102
RTVSPost2010PropOp30
 70
     1
102
RTVSPost2010Prop31
280
     0
102
RTVSPost2010PropOp31
 70
     1
102
RTVSPost2010Prop32
280
     0
102
RTVSPost2010PropOp32
 70
     1
102
RTVSPost2010Prop33
280
     0
102
RTVSPost2010PropOp33
 70
     1
102
RTVSPost2010Prop34
280
     0
102
RTVSPost2010PropOp34
 70
     1
102
RTVSPost2010Prop35
280
     0
102
RTVSPost2010PropOp35
 70
     1
102
RTVSPost2010Prop36
280
     0
102
RTVSPost2010PropOp36
 70
     1
102
RTVSPost2010Prop37
 90
       50
102
RTVSPost2010PropOp37
 70
     1
102
RTVSPost2010Prop38
140
0.0
102
RTVSPost2010PropOp38
 70
     1
102
RTVSPost2010Prop39
140
1.0
102
RTVSPost2010PropOp39
 70
     1
102
RTVSPost2010Prop40
 90
        0
102
RTVSPost2010PropOp40
 70
     1
102
RTVSPost2010Prop41ColorIndex
 90
       18
102
RTVSPost2010Prop41ColorRGB
 90
        0
102
RTVSPost2010PropOp41
 70
     1
102
RTVSPost2010Prop42
 90
       50
102
RTVSPost2010PropOp42
 70
     1
102
RTVSPost2010Prop43
 90
        3
102
RTVSPost2010PropOp43
 70
     1
102
RTVSPost2010Prop44ColorIndex
 90
        5
102
RTVSPost2010Prop44ColorRGB
 90
      255
102
RTVSPost2010PropOp44
 70
     1
102
RTVSPost2010Prop45
280
     0
102
RTVSPost2010PropOp45
 70
     1
102
RTVSPost2010Prop46
 90
       50
102
RTVSPost2010PropOp46
 70
     1
102
RTVSPost2010Prop47
 90
       50
102
RTVSPost2010PropOp47
 70
     1
102
RTVSPost2010Prop48
 90
       50
102
RTVSPost2010PropOp48
 70
     1
102
RTVSPost2010Prop49
280
     0
102
RTVSPost2010PropOp49
 70
     1
102
RTVSPost2010Prop50
 90
       50
102
RTVSPost2010PropOp50
 70
     1
102
RTVSPost2010Prop51ColorIndex
 90
      256
102
RTVSPost2010Prop51ColorRGB
 90
-16777216
102
RTVSPost2010PropOp51
 70
     0
102
RTVSPost2010Prop52
140
1.0
102
RTVSPost2010PropOp52
 70
     0
102
RTVSPost2010Prop53
 90
        2
102
RTVSPost2010PropOp53
 70
     1
102
RTVSPost2010Prop54
  1
strokes_ogs.tif
102
RTVSPost2010PropOp54
 70
     1
102
RTVSPost2010Prop55
280
     0
102
RTVSPost2010PropOp55
 70
     1
102
RTVSPost2010Prop56
140
1.0
102
RTVSPost2010PropOp56
 70
     1
102
RTVSPost2010Prop57
140
1.0
102
RTVSPost2010PropOp57
 70
     1
102
RTVSPropertyOp0
 70
     1
102
RTVSPropertyOp1
 70
     1
102
RTVSPropertyOp2
 70
     1
102
RTVSPropertyOp3
 70
     1
102
RTVSPropertyOp4
 70
     1
102
RTVSPropertyOp5
 70
     1
102
RTVSPropertyOp6
 70
     1
102
RTVSPropertyOp7
 70
     1
102
RTVSPropertyOp8
 70
     1
102
RTVSPropertyOp9
 70
     1
102
RTVSPropertyOp10
 70
     1
102
RTVSPropertyOp11
 70
     1
102
RTVSPropertyOp12
 70
     1
102
RTVSPropertyOp13
 70
     1
102
RTVSPropertyOp14
 70
     1
102
RTVSPropertyOp15
 70
     1
102
RTVSPropertyOp16
 70
     1
102
RTVSPropertyOp17
 70
     1
102
RTVSPropertyOp18
 70
     1
102
RTVSPropertyOp19
 70
     1
102
RTVSPropertyOp20
 70
     1
102
RTVSPropertyOp21
 70
     1
102
RTVSPropertyOp22
 70
     1
102
RTVSPropertyOp23
 70
     1
102
RTVSPropertyOp24
 70
     1
102
RTVSPropertyOp25
 70
     1
102
RTVSPropertyOp26
 70
     1
102
RTVSPropertyOp27
 70
     1
102
RTVSPropertyOp28
 70
     1
102
RTVSPropertyOp29
 70
     1
102
RTVSPropertyOp30
 70
     1
102
RTVSPropertyOp31
 70
     1
102
RTVSPropertyOp32
 70
     1
102
RTVSPropertyOp33
 70
     1
102
RTVSPropertyOp34
 70
     1
102
RTVSPropertyOp35
 70
     1
102
RTVSPropertyOp36
 70
     1
102
RTVSPropertyOp37
 70
     1
102
RTVSPropertyOp38
 70
     1
102
RTVSPropertyOp39
 70
     1
102
RTVSPropertyOp40
 70
     1
102
RTVSPropertyOp41
 70
     1
102
RTVSPropertyOp42
 70
     1
102
RTVSPropertyOp43
 70
     1
102
RTVSPropertyOp44
 70
     1
102
RTVSPropertyOp45
 70
     1
102
RTVSPropertyOp46
 70
     1
102
RTVSPropertyOp47
 70
     1
102
RTVSPropertyOp48
 70
     1
102
RTVSPropertyOp49
 70
     1
102
RTVSPropertyOp50
 70
     1
102
RTVSPropertyOp51
 70
     0
102
RTVSPropertyOp52
 70
     0
102
RTVSPropertyOp53
 70
     1
102
RTVSPropertyOp54
 70
     1
102
RTVSPropertyOp55
 70
     1
102
RTVSPropertyOp56
 70
     1
102
RTVSPropertyOp57
 70
     1
102
RTVSPropertyOp58
 70
     1
102
RTVSPropertyOp59
 70
     1
102
RTVSPropertyOp60
 70
     1
102
RTVSPropertyOp61
 70
     1
102
RTVSPropertyOp62
 70
     1
  0
XRECORD
  5
1354
102
{ACAD_REACTORS
330
1353
102
}
330
1353
100
AcDbXrecord
280
     1
102
RTVSPost2010Prop28
280
     0
102
RTVSPost2010PropOp28
 70
     1
102
RTVSPost2010Prop29
280
     1
102
RTVSPost2010PropOp29
 70
     1
102
RTVSPost2010Prop30
280
     1
102
RTVSPost2010PropOp30
 70
     1
102
RTVSPost2010Prop31
280
     0
102
RTVSPost2010PropOp31
 70
     1
102
RTVSPost2010Prop32
280
     0
102
RTVSPost2010PropOp32
 70
     1
102
RTVSPost2010Prop33
280
     0
102
RTVSPost2010PropOp33
 70
     1
102
RTVSPost2010Prop34
280
     0
102
RTVSPost2010PropOp34
 70
     1
102
RTVSPost2010Prop35
280
     0
102
RTVSPost2010PropOp35
 70
     1
102
RTVSPost2010Prop36
280
     0
102
RTVSPost2010PropOp36
 70
     1
102
RTVSPost2010Prop37
 90
       50
102
RTVSPost2010PropOp37
 70
     1
102
RTVSPost2010Prop38
140
0.0
102
RTVSPost2010PropOp38
 70
     1
102
RTVSPost2010Prop39
140
1.0
102
RTVSPost2010PropOp39
 70
     1
102
RTVSPost2010Prop40
 90
        0
102
RTVSPost2010PropOp40
 70
     1
102
RTVSPost2010Prop41ColorIndex
 90
       18
102
RTVSPost2010Prop41ColorRGB
 90
        0
102
RTVSPost2010PropOp41
 70
     1
102
RTVSPost2010Prop42
 90
       50
102
RTVSPost2010PropOp42
 70
     1
102
RTVSPost2010Prop43
 90
        3
102
RTVSPost2010PropOp43
 70
     1
102
RTVSPost2010Prop44ColorIndex
 90
        5
102
RTVSPost2010Prop44ColorRGB
 90
      255
102
RTVSPost2010PropOp44
 70
     1
102
RTVSPost2010Prop45
280
     0
102
RTVSPost2010PropOp45
 70
     1
102
RTVSPost2010Prop46
 90
       50
102
RTVSPost2010PropOp46
 70
     1
102
RTVSPost2010Prop47
 90
       50
102
RTVSPost2010PropOp47
 70
     1
102
RTVSPost2010Prop48
 90
       50
102
RTVSPost2010PropOp48
 70
     1
102
RTVSPost2010Prop49
280
     0
102
RTVSPost2010PropOp49
 70
     1
102
RTVSPost2010Prop50
 90
       50
102
RTVSPost2010PropOp50
 70
     1
102
RTVSPost2010Prop51ColorIndex
 90
      256
102
RTVSPost2010Prop51ColorRGB
 90
-16777216
102
RTVSPost2010PropOp51
 70
     0
102
RTVSPost2010Prop52
140
1.0
102
RTVSPost2010PropOp52
 70
     0
102
RTVSPost2010Prop53
 90
        2
102
RTVSPost2010PropOp53
 70
     1
102
RTVSPost2010Prop54
  1
strokes_ogs.tif
102
RTVSPost2010PropOp54
 70
     1
102
RTVSPost2010Prop55
280
     0
102
RTVSPost2010PropOp55
 70
     1
102
RTVSPost2010Prop56
140
1.0
102
RTVSPost2010PropOp56
 70
     1
102
RTVSPost2010Prop57
140
1.0
102
RTVSPost2010PropOp57
 70
     1
102
RTVSPropertyOp0
 70
     1
102
RTVSPropertyOp1
 70
     1
102
RTVSPropertyOp2
 70
     1
102
RTVSPropertyOp3
 70
     1
102
RTVSPropertyOp4
 70
     1
102
RTVSPropertyOp5
 70
     1
102
RTVSPropertyOp6
 70
     1
102
RTVSPropertyOp7
 70
     1
102
RTVSPropertyOp8
 70
     1
102
RTVSPropertyOp9
 70
     1
102
RTVSPropertyOp10
 70
     1
102
RTVSPropertyOp11
 70
     1
102
RTVSPropertyOp12
 70
     1
102
RTVSPropertyOp13
 70
     1
102
RTVSPropertyOp14
 70
     1
102
RTVSPropertyOp15
 70
     1
102
RTVSPropertyOp16
 70
     1
102
RTVSPropertyOp17
 70
     1
102
RTVSPropertyOp18
 70
     1
102
RTVSPropertyOp19
 70
     1
102
RTVSPropertyOp20
 70
     1
102
RTVSPropertyOp21
 70
     1
102
RTVSPropertyOp22
 70
     1
102
RTVSPropertyOp23
 70
     1
102
RTVSPropertyOp24
 70
     1
102
RTVSPropertyOp25
 70
     1
102
RTVSPropertyOp26
 70
     1
102
RTVSPropertyOp27
 70
     1
102
RTVSPropertyOp28
 70
     1
102
RTVSPropertyOp29
 70
     1
102
RTVSPropertyOp30
 70
     1
102
RTVSPropertyOp31
 70
     1
102
RTVSPropertyOp32
 70
     1
102
RTVSPropertyOp33
 70
     1
102
RTVSPropertyOp34
 70
     1
102
RTVSPropertyOp35
 70
     1
102
RTVSPropertyOp36
 70
     1
102
RTVSPropertyOp37
 70
     1
102
RTVSPropertyOp38
 70
     1
102
RTVSPropertyOp39
 70
     1
102
RTVSPropertyOp40
 70
     1
102
RTVSPropertyOp41
 70
     1
102
RTVSPropertyOp42
 70
     1
102
RTVSPropertyOp43
 70
     1
102
RTVSPropertyOp44
 70
     1
102
RTVSPropertyOp45
 70
     1
102
RTVSPropertyOp46
 70
     1
102
RTVSPropertyOp47
 70
     1
102
RTVSPropertyOp48
 70
     1
102
RTVSPropertyOp49
 70
     1
102
RTVSPropertyOp50
 70
     1
102
RTVSPropertyOp51
 70
     0
102
RTVSPropertyOp52
 70
     0
102
RTVSPropertyOp53
 70
     1
102
RTVSPropertyOp54
 70
     1
102
RTVSPropertyOp55
 70
     1
102
RTVSPropertyOp56
 70
     1
102
RTVSPropertyOp57
 70
     1
102
RTVSPropertyOp58
 70
     1
102
RTVSPropertyOp59
 70
     1
102
RTVSPropertyOp60
 70
     1
102
RTVSPropertyOp61
 70
     1
102
RTVSPropertyOp62
 70
     1
  0
XRECORD
  5
1346
102
{ACAD_REACTORS
330
1345
102
}
330
1345
100
AcDbXrecord
280
     1
102
RTVSPost2010Prop28
280
     0
102
RTVSPost2010PropOp28
 70
     1
102
RTVSPost2010Prop29
280
     1
102
RTVSPost2010PropOp29
 70
     1
102
RTVSPost2010Prop30
280
     1
102
RTVSPost2010PropOp30
 70
     1
102
RTVSPost2010Prop31
280
     0
102
RTVSPost2010PropOp31
 70
     1
102
RTVSPost2010Prop32
280
     0
102
RTVSPost2010PropOp32
 70
     1
102
RTVSPost2010Prop33
280
     0
102
RTVSPost2010PropOp33
 70
     1
102
RTVSPost2010Prop34
280
     0
102
RTVSPost2010PropOp34
 70
     1
102
RTVSPost2010Prop35
280
     0
102
RTVSPost2010PropOp35
 70
     1
102
RTVSPost2010Prop36
280
     0
102
RTVSPost2010PropOp36
 70
     1
102
RTVSPost2010Prop37
 90
       50
102
RTVSPost2010PropOp37
 70
     1
102
RTVSPost2010Prop38
140
0.0
102
RTVSPost2010PropOp38
 70
     1
102
RTVSPost2010Prop39
140
1.0
102
RTVSPost2010PropOp39
 70
     1
102
RTVSPost2010Prop40
 90
        0
102
RTVSPost2010PropOp40
 70
     1
102
RTVSPost2010Prop41ColorIndex
 90
       18
102
RTVSPost2010Prop41ColorRGB
 90
        0
102
RTVSPost2010PropOp41
 70
     1
102
RTVSPost2010Prop42
 90
       50
102
RTVSPost2010PropOp42
 70
     1
102
RTVSPost2010Prop43
 90
        3
102
RTVSPost2010PropOp43
 70
     1
102
RTVSPost2010Prop44ColorIndex
 90
        5
102
RTVSPost2010Prop44ColorRGB
 90
      255
102
RTVSPost2010PropOp44
 70
     1
102
RTVSPost2010Prop45
280
     0
102
RTVSPost2010PropOp45
 70
     1
102
RTVSPost2010Prop46
 90
       50
102
RTVSPost2010PropOp46
 70
     1
102
RTVSPost2010Prop47
 90
       50
102
RTVSPost2010PropOp47
 70
     1
102
RTVSPost2010Prop48
 90
       50
102
RTVSPost2010PropOp48
 70
     1
102
RTVSPost2010Prop49
280
     0
102
RTVSPost2010PropOp49
 70
     1
102
RTVSPost2010Prop50
 90
       50
102
RTVSPost2010PropOp50
 70
     1
102
RTVSPost2010Prop51ColorIndex
 90
      256
102
RTVSPost2010Prop51ColorRGB
 90
-16777216
102
RTVSPost2010PropOp51
 70
     0
102
RTVSPost2010Prop52
140
1.0
102
RTVSPost2010PropOp52
 70
     0
102
RTVSPost2010Prop53
 90
        2
102
RTVSPost2010PropOp53
 70
     1
102
RTVSPost2010Prop54
  1
strokes_ogs.tif
102
RTVSPost2010PropOp54
 70
     1
102
RTVSPost2010Prop55
280
     0
102
RTVSPost2010PropOp55
 70
     1
102
RTVSPost2010Prop56
140
1.0
102
RTVSPost2010PropOp56
 70
     1
102
RTVSPost2010Prop57
140
1.0
102
RTVSPost2010PropOp57
 70
     1
102
RTVSPropertyOp0
 70
     1
102
RTVSPropertyOp1
 70
     1
102
RTVSPropertyOp2
 70
     1
102
RTVSPropertyOp3
 70
     1
102
RTVSPropertyOp4
 70
     1
102
RTVSPropertyOp5
 70
     1
102
RTVSPropertyOp6
 70
     1
102
RTVSPropertyOp7
 70
     1
102
RTVSPropertyOp8
 70
     1
102
RTVSPropertyOp9
 70
     1
102
RTVSPropertyOp10
 70
     1
102
RTVSPropertyOp11
 70
     1
102
RTVSPropertyOp12
 70
     1
102
RTVSPropertyOp13
 70
     1
102
RTVSPropertyOp14
 70
     1
102
RTVSPropertyOp15
 70
     1
102
RTVSPropertyOp16
 70
     1
102
RTVSPropertyOp17
 70
     1
102
RTVSPropertyOp18
 70
     1
102
RTVSPropertyOp19
 70
     1
102
RTVSPropertyOp20
 70
     1
102
RTVSPropertyOp21
 70
     1
102
RTVSPropertyOp22
 70
     1
102
RTVSPropertyOp23
 70
     1
102
RTVSPropertyOp24
 70
     1
102
RTVSPropertyOp25
 70
     1
102
RTVSPropertyOp26
 70
     1
102
RTVSPropertyOp27
 70
     1
102
RTVSPropertyOp28
 70
     1
102
RTVSPropertyOp29
 70
     1
102
RTVSPropertyOp30
 70
     1
102
RTVSPropertyOp31
 70
     1
102
RTVSPropertyOp32
 70
     1
102
RTVSPropertyOp33
 70
     1
102
RTVSPropertyOp34
 70
     1
102
RTVSPropertyOp35
 70
     1
102
RTVSPropertyOp36
 70
     1
102
RTVSPropertyOp37
 70
     1
102
RTVSPropertyOp38
 70
     1
102
RTVSPropertyOp39
 70
     1
102
RTVSPropertyOp40
 70
     1
102
RTVSPropertyOp41
 70
     1
102
RTVSPropertyOp42
 70
     1
102
RTVSPropertyOp43
 70
     1
102
RTVSPropertyOp44
 70
     1
102
RTVSPropertyOp45
 70
     1
102
RTVSPropertyOp46
 70
     1
102
RTVSPropertyOp47
 70
     1
102
RTVSPropertyOp48
 70
     1
102
RTVSPropertyOp49
 70
     1
102
RTVSPropertyOp50
 70
     1
102
RTVSPropertyOp51
 70
     0
102
RTVSPropertyOp52
 70
     0
102
RTVSPropertyOp53
 70
     1
102
RTVSPropertyOp54
 70
     1
102
RTVSPropertyOp55
 70
     1
102
RTVSPropertyOp56
 70
     1
102
RTVSPropertyOp57
 70
     1
102
RTVSPropertyOp58
 70
     1
102
RTVSPropertyOp59
 70
     1
102
RTVSPropertyOp60
 70
     1
102
RTVSPropertyOp61
 70
     1
102
RTVSPropertyOp62
 70
     1
  0
XRECORD
  5
134A
102
{ACAD_REACTORS
330
1349
102
}
330
1349
100
AcDbXrecord
280
     1
102
RTVSPost2010Prop28
280
     0
102
RTVSPost2010PropOp28
 70
     1
102
RTVSPost2010Prop29
280
     1
102
RTVSPost2010PropOp29
 70
     1
102
RTVSPost2010Prop30
280
     1
102
RTVSPost2010PropOp30
 70
     1
102
RTVSPost2010Prop31
280
     0
102
RTVSPost2010PropOp31
 70
     1
102
RTVSPost2010Prop32
280
     0
102
RTVSPost2010PropOp32
 70
     1
102
RTVSPost2010Prop33
280
     0
102
RTVSPost2010PropOp33
 70
     1
102
RTVSPost2010Prop34
280
     0
102
RTVSPost2010PropOp34
 70
     1
102
RTVSPost2010Prop35
280
     0
102
RTVSPost2010PropOp35
 70
     1
102
RTVSPost2010Prop36
280
     0
102
RTVSPost2010PropOp36
 70
     1
102
RTVSPost2010Prop37
 90
       50
102
RTVSPost2010PropOp37
 70
     1
102
RTVSPost2010Prop38
140
0.0
102
RTVSPost2010PropOp38
 70
     1
102
RTVSPost2010Prop39
140
1.0
102
RTVSPost2010PropOp39
 70
     1
102
RTVSPost2010Prop40
 90
        0
102
RTVSPost2010PropOp40
 70
     1
102
RTVSPost2010Prop41ColorIndex
 90
       18
102
RTVSPost2010Prop41ColorRGB
 90
        0
102
RTVSPost2010PropOp41
 70
     1
102
RTVSPost2010Prop42
 90
       50
102
RTVSPost2010PropOp42
 70
     1
102
RTVSPost2010Prop43
 90
        3
102
RTVSPost2010PropOp43
 70
     1
102
RTVSPost2010Prop44ColorIndex
 90
        5
102
RTVSPost2010Prop44ColorRGB
 90
      255
102
RTVSPost2010PropOp44
 70
     1
102
RTVSPost2010Prop45
280
     0
102
RTVSPost2010PropOp45
 70
     1
102
RTVSPost2010Prop46
 90
       50
102
RTVSPost2010PropOp46
 70
     1
102
RTVSPost2010Prop47
 90
       50
102
RTVSPost2010PropOp47
 70
     1
102
RTVSPost2010Prop48
 90
       50
102
RTVSPost2010PropOp48
 70
     1
102
RTVSPost2010Prop49
280
     0
102
RTVSPost2010PropOp49
 70
     1
102
RTVSPost2010Prop50
 90
       50
102
RTVSPost2010PropOp50
 70
     1
102
RTVSPost2010Prop51ColorIndex
 90
      256
102
RTVSPost2010Prop51ColorRGB
 90
-16777216
102
RTVSPost2010PropOp51
 70
     0
102
RTVSPost2010Prop52
140
1.0
102
RTVSPost2010PropOp52
 70
     0
102
RTVSPost2010Prop53
 90
        2
102
RTVSPost2010PropOp53
 70
     1
102
RTVSPost2010Prop54
  1
strokes_ogs.tif
102
RTVSPost2010PropOp54
 70
     1
102
RTVSPost2010Prop55
280
     0
102
RTVSPost2010PropOp55
 70
     1
102
RTVSPost2010Prop56
140
1.0
102
RTVSPost2010PropOp56
 70
     1
102
RTVSPost2010Prop57
140
1.0
102
RTVSPost2010PropOp57
 70
     1
102
RTVSPropertyOp0
 70
     1
102
RTVSPropertyOp1
 70
     1
102
RTVSPropertyOp2
 70
     1
102
RTVSPropertyOp3
 70
     1
102
RTVSPropertyOp4
 70
     1
102
RTVSPropertyOp5
 70
     1
102
RTVSPropertyOp6
 70
     1
102
RTVSPropertyOp7
 70
     1
102
RTVSPropertyOp8
 70
     1
102
RTVSPropertyOp9
 70
     1
102
RTVSPropertyOp10
 70
     1
102
RTVSPropertyOp11
 70
     1
102
RTVSPropertyOp12
 70
     1
102
RTVSPropertyOp13
 70
     1
102
RTVSPropertyOp14
 70
     1
102
RTVSPropertyOp15
 70
     1
102
RTVSPropertyOp16
 70
     1
102
RTVSPropertyOp17
 70
     1
102
RTVSPropertyOp18
 70
     1
102
RTVSPropertyOp19
 70
     1
102
RTVSPropertyOp20
 70
     1
102
RTVSPropertyOp21
 70
     1
102
RTVSPropertyOp22
 70
     1
102
RTVSPropertyOp23
 70
     1
102
RTVSPropertyOp24
 70
     1
102
RTVSPropertyOp25
 70
     1
102
RTVSPropertyOp26
 70
     1
102
RTVSPropertyOp27
 70
     1
102
RTVSPropertyOp28
 70
     1
102
RTVSPropertyOp29
 70
     1
102
RTVSPropertyOp30
 70
     1
102
RTVSPropertyOp31
 70
     1
102
RTVSPropertyOp32
 70
     1
102
RTVSPropertyOp33
 70
     1
102
RTVSPropertyOp34
 70
     1
102
RTVSPropertyOp35
 70
     1
102
RTVSPropertyOp36
 70
     1
102
RTVSPropertyOp37
 70
     1
102
RTVSPropertyOp38
 70
     1
102
RTVSPropertyOp39
 70
     1
102
RTVSPropertyOp40
 70
     1
102
RTVSPropertyOp41
 70
     1
102
RTVSPropertyOp42
 70
     1
102
RTVSPropertyOp43
 70
     1
102
RTVSPropertyOp44
 70
     1
102
RTVSPropertyOp45
 70
     1
102
RTVSPropertyOp46
 70
     1
102
RTVSPropertyOp47
 70
     1
102
RTVSPropertyOp48
 70
     1
102
RTVSPropertyOp49
 70
     1
102
RTVSPropertyOp50
 70
     1
102
RTVSPropertyOp51
 70
     0
102
RTVSPropertyOp52
 70
     0
102
RTVSPropertyOp53
 70
     1
102
RTVSPropertyOp54
 70
     1
102
RTVSPropertyOp55
 70
     1
102
RTVSPropertyOp56
 70
     1
102
RTVSPropertyOp57
 70
     1
102
RTVSPropertyOp58
 70
     1
102
RTVSPropertyOp59
 70
     1
102
RTVSPropertyOp60
 70
     1
102
RTVSPropertyOp61
 70
     1
102
RTVSPropertyOp62
 70
     1
  0
XRECORD
  5
1364
102
{ACAD_REACTORS
330
1363
102
}
330
1363
100
AcDbXrecord
280
     1
102
RTVSPost2010Prop28
280
     0
102
RTVSPost2010PropOp28
 70
     1
102
RTVSPost2010Prop29
280
     1
102
RTVSPost2010PropOp29
 70
     1
102
RTVSPost2010Prop30
280
     1
102
RTVSPost2010PropOp30
 70
     1
102
RTVSPost2010Prop31
280
     0
102
RTVSPost2010PropOp31
 70
     1
102
RTVSPost2010Prop32
280
     0
102
RTVSPost2010PropOp32
 70
     1
102
RTVSPost2010Prop33
280
     0
102
RTVSPost2010PropOp33
 70
     1
102
RTVSPost2010Prop34
280
     0
102
RTVSPost2010PropOp34
 70
     1
102
RTVSPost2010Prop35
280
     0
102
RTVSPost2010PropOp35
 70
     1
102
RTVSPost2010Prop36
280
     0
102
RTVSPost2010PropOp36
 70
     1
102
RTVSPost2010Prop37
 90
       50
102
RTVSPost2010PropOp37
 70
     0
102
RTVSPost2010Prop38
140
0.0
102
RTVSPost2010PropOp38
 70
     0
102
RTVSPost2010Prop39
140
1.0
102
RTVSPost2010PropOp39
 70
     0
102
RTVSPost2010Prop40
 90
        0
102
RTVSPost2010PropOp40
 70
     0
102
RTVSPost2010Prop41ColorIndex
 90
       18
102
RTVSPost2010Prop41ColorRGB
 90
        0
102
RTVSPost2010PropOp41
 70
     0
102
RTVSPost2010Prop42
 90
       50
102
RTVSPost2010PropOp42
 70
     0
102
RTVSPost2010Prop43
 90
        3
102
RTVSPost2010PropOp43
 70
     0
102
RTVSPost2010Prop44ColorIndex
 90
        5
102
RTVSPost2010Prop44ColorRGB
 90
      255
102
RTVSPost2010PropOp44
 70
     0
102
RTVSPost2010Prop45
280
     0
102
RTVSPost2010PropOp45
 70
     1
102
RTVSPost2010Prop46
 90
       50
102
RTVSPost2010PropOp46
 70
     0
102
RTVSPost2010Prop47
 90
       50
102
RTVSPost2010PropOp47
 70
     0
102
RTVSPost2010Prop48
 90
       50
102
RTVSPost2010PropOp48
 70
     0
102
RTVSPost2010Prop49
280
     0
102
RTVSPost2010PropOp49
 70
     1
102
RTVSPost2010Prop50
 90
       50
102
RTVSPost2010PropOp50
 70
     0
102
RTVSPost2010Prop51ColorIndex
 90
      256
102
RTVSPost2010Prop51ColorRGB
 90
-16777216
102
RTVSPost2010PropOp51
 70
     0
102
RTVSPost2010Prop52
140
1.0
102
RTVSPost2010PropOp52
 70
     0
102
RTVSPost2010Prop53
 90
        2
102
RTVSPost2010PropOp53
 70
     0
102
RTVSPost2010Prop54
  1
strokes_ogs.tif
102
RTVSPost2010PropOp54
 70
     0
102
RTVSPost2010Prop55
280
     0
102
RTVSPost2010PropOp55
 70
     1
102
RTVSPost2010Prop56
140
1.0
102
RTVSPost2010PropOp56
 70
     0
102
RTVSPost2010Prop57
140
1.0
102
RTVSPost2010PropOp57
 70
     0
102
RTVSPropertyOp0
 70
     0
102
RTVSPropertyOp1
 70
     0
102
RTVSPropertyOp2
 70
     0
102
RTVSPropertyOp3
 70
     0
102
RTVSPropertyOp4
 70
     0
102
RTVSPropertyOp5
 70
     0
102
RTVSPropertyOp6
 70
     0
102
RTVSPropertyOp7
 70
     0
102
RTVSPropertyOp8
 70
     0
102
RTVSPropertyOp9
 70
     0
102
RTVSPropertyOp10
 70
     0
102
RTVSPropertyOp11
 70
     0
102
RTVSPropertyOp12
 70
     0
102
RTVSPropertyOp13
 70
     0
102
RTVSPropertyOp14
 70
     2
102
RTVSPropertyOp15
 70
     0
102
RTVSPropertyOp16
 70
     0
102
RTVSPropertyOp17
 70
     0
102
RTVSPropertyOp18
 70
     0
102
RTVSPropertyOp19
 70
     0
102
RTVSPropertyOp20
 70
     0
102
RTVSPropertyOp21
 70
     0
102
RTVSPropertyOp22
 70
     0
102
RTVSPropertyOp23
 70
     0
102
RTVSPropertyOp24
 70
     0
102
RTVSPropertyOp25
 70
     0
102
RTVSPropertyOp26
 70
     0
102
RTVSPropertyOp27
 70
     0
102
RTVSPropertyOp28
 70
     1
102
RTVSPropertyOp29
 70
     1
102
RTVSPropertyOp30
 70
     1
102
RTVSPropertyOp31
 70
     1
102
RTVSPropertyOp32
 70
     1
102
RTVSPropertyOp33
 70
     1
102
RTVSPropertyOp34
 70
     1
102
RTVSPropertyOp35
 70
     1
102
RTVSPropertyOp36
 70
     1
102
RTVSPropertyOp37
 70
     0
102
RTVSPropertyOp38
 70
     0
102
RTVSPropertyOp39
 70
     0
102
RTVSPropertyOp40
 70
     0
102
RTVSPropertyOp41
 70
     0
102
RTVSPropertyOp42
 70
     0
102
RTVSPropertyOp43
 70
     0
102
RTVSPropertyOp44
 70
     0
102
RTVSPropertyOp45
 70
     1
102
RTVSPropertyOp46
 70
     0
102
RTVSPropertyOp47
 70
     0
102
RTVSPropertyOp48
 70
     0
102
RTVSPropertyOp49
 70
     1
102
RTVSPropertyOp50
 70
     0
102
RTVSPropertyOp51
 70
     0
102
RTVSPropertyOp52
 70
     0
102
RTVSPropertyOp53
 70
     0
102
RTVSPropertyOp54
 70
     0
102
RTVSPropertyOp55
 70
     1
102
RTVSPropertyOp56
 70
     0
102
RTVSPropertyOp57
 70
     0
102
RTVSPropertyOp58
 70
     0
102
RTVSPropertyOp59
 70
     0
102
RTVSPropertyOp60
 70
     0
102
RTVSPropertyOp61
 70
     0
102
RTVSPropertyOp62
 70
     0
  0
XRECORD
  5
1352
102
{ACAD_REACTORS
330
1351
102
}
330
1351
100
AcDbXrecord
280
     1
102
RTVSPost2010Prop28
280
     0
102
RTVSPost2010PropOp28
 70
     1
102
RTVSPost2010Prop29
280
     1
102
RTVSPost2010PropOp29
 70
     1
102
RTVSPost2010Prop30
280
     1
102
RTVSPost2010PropOp30
 70
     1
102
RTVSPost2010Prop31
280
     0
102
RTVSPost2010PropOp31
 70
     1
102
RTVSPost2010Prop32
280
     0
102
RTVSPost2010PropOp32
 70
     1
102
RTVSPost2010Prop33
280
     0
102
RTVSPost2010PropOp33
 70
     1
102
RTVSPost2010Prop34
280
     0
102
RTVSPost2010PropOp34
 70
     1
102
RTVSPost2010Prop35
280
     0
102
RTVSPost2010PropOp35
 70
     1
102
RTVSPost2010Prop36
280
     0
102
RTVSPost2010PropOp36
 70
     1
102
RTVSPost2010Prop37
 90
       50
102
RTVSPost2010PropOp37
 70
     1
102
RTVSPost2010Prop38
140
0.0
102
RTVSPost2010PropOp38
 70
     1
102
RTVSPost2010Prop39
140
1.0
102
RTVSPost2010PropOp39
 70
     1
102
RTVSPost2010Prop40
 90
        0
102
RTVSPost2010PropOp40
 70
     1
102
RTVSPost2010Prop41ColorIndex
 90
       18
102
RTVSPost2010Prop41ColorRGB
 90
        0
102
RTVSPost2010PropOp41
 70
     1
102
RTVSPost2010Prop42
 90
       50
102
RTVSPost2010PropOp42
 70
     1
102
RTVSPost2010Prop43
 90
        3
102
RTVSPost2010PropOp43
 70
     1
102
RTVSPost2010Prop44ColorIndex
 90
        5
102
RTVSPost2010Prop44ColorRGB
 90
      255
102
RTVSPost2010PropOp44
 70
     1
102
RTVSPost2010Prop45
280
     0
102
RTVSPost2010PropOp45
 70
     1
102
RTVSPost2010Prop46
 90
       50
102
RTVSPost2010PropOp46
 70
     1
102
RTVSPost2010Prop47
 90
       50
102
RTVSPost2010PropOp47
 70
     1
102
RTVSPost2010Prop48
 90
       50
102
RTVSPost2010PropOp48
 70
     1
102
RTVSPost2010Prop49
280
     0
102
RTVSPost2010PropOp49
 70
     1
102
RTVSPost2010Prop50
 90
       50
102
RTVSPost2010PropOp50
 70
     1
102
RTVSPost2010Prop51ColorIndex
 90
      256
102
RTVSPost2010Prop51ColorRGB
 90
-16777216
102
RTVSPost2010PropOp51
 70
     0
102
RTVSPost2010Prop52
140
1.0
102
RTVSPost2010PropOp52
 70
     0
102
RTVSPost2010Prop53
 90
        2
102
RTVSPost2010PropOp53
 70
     1
102
RTVSPost2010Prop54
  1
strokes_ogs.tif
102
RTVSPost2010PropOp54
 70
     1
102
RTVSPost2010Prop55
280
     0
102
RTVSPost2010PropOp55
 70
     1
102
RTVSPost2010Prop56
140
1.0
102
RTVSPost2010PropOp56
 70
     1
102
RTVSPost2010Prop57
140
1.0
102
RTVSPost2010PropOp57
 70
     1
102
RTVSPropertyOp0
 70
     1
102
RTVSPropertyOp1
 70
     1
102
RTVSPropertyOp2
 70
     1
102
RTVSPropertyOp3
 70
     1
102
RTVSPropertyOp4
 70
     1
102
RTVSPropertyOp5
 70
     1
102
RTVSPropertyOp6
 70
     1
102
RTVSPropertyOp7
 70
     1
102
RTVSPropertyOp8
 70
     1
102
RTVSPropertyOp9
 70
     1
102
RTVSPropertyOp10
 70
     1
102
RTVSPropertyOp11
 70
     1
102
RTVSPropertyOp12
 70
     1
102
RTVSPropertyOp13
 70
     1
102
RTVSPropertyOp14
 70
     1
102
RTVSPropertyOp15
 70
     1
102
RTVSPropertyOp16
 70
     1
102
RTVSPropertyOp17
 70
     1
102
RTVSPropertyOp18
 70
     1
102
RTVSPropertyOp19
 70
     1
102
RTVSPropertyOp20
 70
     1
102
RTVSPropertyOp21
 70
     1
102
RTVSPropertyOp22
 70
     1
102
RTVSPropertyOp23
 70
     1
102
RTVSPropertyOp24
 70
     1
102
RTVSPropertyOp25
 70
     1
102
RTVSPropertyOp26
 70
     1
102
RTVSPropertyOp27
 70
     1
102
RTVSPropertyOp28
 70
     1
102
RTVSPropertyOp29
 70
     1
102
RTVSPropertyOp30
 70
     1
102
RTVSPropertyOp31
 70
     1
102
RTVSPropertyOp32
 70
     1
102
RTVSPropertyOp33
 70
     1
102
RTVSPropertyOp34
 70
     1
102
RTVSPropertyOp35
 70
     1
102
RTVSPropertyOp36
 70
     1
102
RTVSPropertyOp37
 70
     1
102
RTVSPropertyOp38
 70
     1
102
RTVSPropertyOp39
 70
     1
102
RTVSPropertyOp40
 70
     1
102
RTVSPropertyOp41
 70
     1
102
RTVSPropertyOp42
 70
     1
102
RTVSPropertyOp43
 70
     1
102
RTVSPropertyOp44
 70
     1
102
RTVSPropertyOp45
 70
     1
102
RTVSPropertyOp46
 70
     1
102
RTVSPropertyOp47
 70
     1
102
RTVSPropertyOp48
 70
     1
102
RTVSPropertyOp49
 70
     1
102
RTVSPropertyOp50
 70
     1
102
RTVSPropertyOp51
 70
     0
102
RTVSPropertyOp52
 70
     0
102
RTVSPropertyOp53
 70
     1
102
RTVSPropertyOp54
 70
     1
102
RTVSPropertyOp55
 70
     1
102
RTVSPropertyOp56
 70
     1
102
RTVSPropertyOp57
 70
     1
102
RTVSPropertyOp58
 70
     1
102
RTVSPropertyOp59
 70
     1
102
RTVSPropertyOp60
 70
     1
102
RTVSPropertyOp61
 70
     1
102
RTVSPropertyOp62
 70
     1
  0
XRECORD
  5
1336
102
{ACAD_REACTORS
330
1335
102
}
330
1335
100
AcDbXrecord
280
     1
102
RTVSPost2010Prop28
280
     0
102
RTVSPost2010PropOp28
 70
     1
102
RTVSPost2010Prop29
280
     1
102
RTVSPost2010PropOp29
 70
     1
102
RTVSPost2010Prop30
280
     1
102
RTVSPost2010PropOp30
 70
     1
102
RTVSPost2010Prop31
280
     0
102
RTVSPost2010PropOp31
 70
     1
102
RTVSPost2010Prop32
280
     0
102
RTVSPost2010PropOp32
 70
     1
102
RTVSPost2010Prop33
280
     0
102
RTVSPost2010PropOp33
 70
     1
102
RTVSPost2010Prop34
280
     0
102
RTVSPost2010PropOp34
 70
     1
102
RTVSPost2010Prop35
280
     0
102
RTVSPost2010PropOp35
 70
     1
102
RTVSPost2010Prop36
280
     0
102
RTVSPost2010PropOp36
 70
     1
102
RTVSPost2010Prop37
 90
       50
102
RTVSPost2010PropOp37
 70
     1
102
RTVSPost2010Prop38
140
0.0
102
RTVSPost2010PropOp38
 70
     1
102
RTVSPost2010Prop39
140
1.0
102
RTVSPost2010PropOp39
 70
     1
102
RTVSPost2010Prop40
 90
        0
102
RTVSPost2010PropOp40
 70
     1
102
RTVSPost2010Prop41ColorIndex
 90
       18
102
RTVSPost2010Prop41ColorRGB
 90
        0
102
RTVSPost2010PropOp41
 70
     1
102
RTVSPost2010Prop42
 90
       50
102
RTVSPost2010PropOp42
 70
     1
102
RTVSPost2010Prop43
 90
        3
102
RTVSPost2010PropOp43
 70
     1
102
RTVSPost2010Prop44ColorIndex
 90
        5
102
RTVSPost2010Prop44ColorRGB
 90
      255
102
RTVSPost2010PropOp44
 70
     1
102
RTVSPost2010Prop45
280
     0
102
RTVSPost2010PropOp45
 70
     1
102
RTVSPost2010Prop46
 90
       50
102
RTVSPost2010PropOp46
 70
     1
102
RTVSPost2010Prop47
 90
       50
102
RTVSPost2010PropOp47
 70
     1
102
RTVSPost2010Prop48
 90
       50
102
RTVSPost2010PropOp48
 70
     1
102
RTVSPost2010Prop49
280
     0
102
RTVSPost2010PropOp49
 70
     1
102
RTVSPost2010Prop50
 90
       50
102
RTVSPost2010PropOp50
 70
     1
102
RTVSPost2010Prop51ColorIndex
 90
      256
102
RTVSPost2010Prop51ColorRGB
 90
-16777216
102
RTVSPost2010PropOp51
 70
     0
102
RTVSPost2010Prop52
140
1.0
102
RTVSPost2010PropOp52
 70
     0
102
RTVSPost2010Prop53
 90
        2
102
RTVSPost2010PropOp53
 70
     1
102
RTVSPost2010Prop54
  1
strokes_ogs.tif
102
RTVSPost2010PropOp54
 70
     1
102
RTVSPost2010Prop55
280
     0
102
RTVSPost2010PropOp55
 70
     1
102
RTVSPost2010Prop56
140
1.0
102
RTVSPost2010PropOp56
 70
     1
102
RTVSPost2010Prop57
140
1.0
102
RTVSPost2010PropOp57
 70
     1
102
RTVSPropertyOp0
 70
     1
102
RTVSPropertyOp1
 70
     1
102
RTVSPropertyOp2
 70
     1
102
RTVSPropertyOp3
 70
     1
102
RTVSPropertyOp4
 70
     1
102
RTVSPropertyOp5
 70
     1
102
RTVSPropertyOp6
 70
     1
102
RTVSPropertyOp7
 70
     1
102
RTVSPropertyOp8
 70
     1
102
RTVSPropertyOp9
 70
     1
102
RTVSPropertyOp10
 70
     1
102
RTVSPropertyOp11
 70
     1
102
RTVSPropertyOp12
 70
     1
102
RTVSPropertyOp13
 70
     1
102
RTVSPropertyOp14
 70
     1
102
RTVSPropertyOp15
 70
     1
102
RTVSPropertyOp16
 70
     1
102
RTVSPropertyOp17
 70
     1
102
RTVSPropertyOp18
 70
     1
102
RTVSPropertyOp19
 70
     1
102
RTVSPropertyOp20
 70
     1
102
RTVSPropertyOp21
 70
     1
102
RTVSPropertyOp22
 70
     1
102
RTVSPropertyOp23
 70
     1
102
RTVSPropertyOp24
 70
     1
102
RTVSPropertyOp25
 70
     1
102
RTVSPropertyOp26
 70
     1
102
RTVSPropertyOp27
 70
     1
102
RTVSPropertyOp28
 70
     1
102
RTVSPropertyOp29
 70
     1
102
RTVSPropertyOp30
 70
     1
102
RTVSPropertyOp31
 70
     1
102
RTVSPropertyOp32
 70
     1
102
RTVSPropertyOp33
 70
     1
102
RTVSPropertyOp34
 70
     1
102
RTVSPropertyOp35
 70
     1
102
RTVSPropertyOp36
 70
     1
102
RTVSPropertyOp37
 70
     1
102
RTVSPropertyOp38
 70
     1
102
RTVSPropertyOp39
 70
     1
102
RTVSPropertyOp40
 70
     1
102
RTVSPropertyOp41
 70
     1
102
RTVSPropertyOp42
 70
     1
102
RTVSPropertyOp43
 70
     1
102
RTVSPropertyOp44
 70
     1
102
RTVSPropertyOp45
 70
     1
102
RTVSPropertyOp46
 70
     1
102
RTVSPropertyOp47
 70
     1
102
RTVSPropertyOp48
 70
     1
102
RTVSPropertyOp49
 70
     1
102
RTVSPropertyOp50
 70
     1
102
RTVSPropertyOp51
 70
     0
102
RTVSPropertyOp52
 70
     0
102
RTVSPropertyOp53
 70
     1
102
RTVSPropertyOp54
 70
     1
102
RTVSPropertyOp55
 70
     1
102
RTVSPropertyOp56
 70
     1
102
RTVSPropertyOp57
 70
     1
102
RTVSPropertyOp58
 70
     1
102
RTVSPropertyOp59
 70
     1
102
RTVSPropertyOp60
 70
     1
102
RTVSPropertyOp61
 70
     1
102
RTVSPropertyOp62
 70
     1
  0
XRECORD
  5
1338
102
{ACAD_REACTORS
330
1337
102
}
330
1337
100
AcDbXrecord
280
     1
102
RTVSPost2010Prop28
280
     0
102
RTVSPost2010PropOp28
 70
     1
102
RTVSPost2010Prop29
280
     1
102
RTVSPost2010PropOp29
 70
     1
102
RTVSPost2010Prop30
280
     1
102
RTVSPost2010PropOp30
 70
     1
102
RTVSPost2010Prop31
280
     0
102
RTVSPost2010PropOp31
 70
     1
102
RTVSPost2010Prop32
280
     0
102
RTVSPost2010PropOp32
 70
     1
102
RTVSPost2010Prop33
280
     0
102
RTVSPost2010PropOp33
 70
     1
102
RTVSPost2010Prop34
280
     0
102
RTVSPost2010PropOp34
 70
     1
102
RTVSPost2010Prop35
280
     0
102
RTVSPost2010PropOp35
 70
     1
102
RTVSPost2010Prop36
280
     0
102
RTVSPost2010PropOp36
 70
     1
102
RTVSPost2010Prop37
 90
       50
102
RTVSPost2010PropOp37
 70
     1
102
RTVSPost2010Prop38
140
0.0
102
RTVSPost2010PropOp38
 70
     1
102
RTVSPost2010Prop39
140
1.0
102
RTVSPost2010PropOp39
 70
     1
102
RTVSPost2010Prop40
 90
        0
102
RTVSPost2010PropOp40
 70
     1
102
RTVSPost2010Prop41ColorIndex
 90
       18
102
RTVSPost2010Prop41ColorRGB
 90
        0
102
RTVSPost2010PropOp41
 70
     1
102
RTVSPost2010Prop42
 90
       50
102
RTVSPost2010PropOp42
 70
     1
102
RTVSPost2010Prop43
 90
        3
102
RTVSPost2010PropOp43
 70
     1
102
RTVSPost2010Prop44ColorIndex
 90
        5
102
RTVSPost2010Prop44ColorRGB
 90
      255
102
RTVSPost2010PropOp44
 70
     1
102
RTVSPost2010Prop45
280
     0
102
RTVSPost2010PropOp45
 70
     1
102
RTVSPost2010Prop46
 90
       50
102
RTVSPost2010PropOp46
 70
     1
102
RTVSPost2010Prop47
 90
       50
102
RTVSPost2010PropOp47
 70
     1
102
RTVSPost2010Prop48
 90
       50
102
RTVSPost2010PropOp48
 70
     1
102
RTVSPost2010Prop49
280
     0
102
RTVSPost2010PropOp49
 70
     1
102
RTVSPost2010Prop50
 90
       50
102
RTVSPost2010PropOp50
 70
     1
102
RTVSPost2010Prop51ColorIndex
 90
      256
102
RTVSPost2010Prop51ColorRGB
 90
-16777216
102
RTVSPost2010PropOp51
 70
     0
102
RTVSPost2010Prop52
140
1.0
102
RTVSPost2010PropOp52
 70
     0
102
RTVSPost2010Prop53
 90
        2
102
RTVSPost2010PropOp53
 70
     1
102
RTVSPost2010Prop54
  1
strokes_ogs.tif
102
RTVSPost2010PropOp54
 70
     1
102
RTVSPost2010Prop55
280
     0
102
RTVSPost2010PropOp55
 70
     1
102
RTVSPost2010Prop56
140
1.0
102
RTVSPost2010PropOp56
 70
     1
102
RTVSPost2010Prop57
140
1.0
102
RTVSPost2010PropOp57
 70
     1
102
RTVSPropertyOp0
 70
     1
102
RTVSPropertyOp1
 70
     1
102
RTVSPropertyOp2
 70
     1
102
RTVSPropertyOp3
 70
     1
102
RTVSPropertyOp4
 70
     1
102
RTVSPropertyOp5
 70
     1
102
RTVSPropertyOp6
 70
     1
102
RTVSPropertyOp7
 70
     1
102
RTVSPropertyOp8
 70
     1
102
RTVSPropertyOp9
 70
     1
102
RTVSPropertyOp10
 70
     1
102
RTVSPropertyOp11
 70
     1
102
RTVSPropertyOp12
 70
     1
102
RTVSPropertyOp13
 70
     1
102
RTVSPropertyOp14
 70
     1
102
RTVSPropertyOp15
 70
     1
102
RTVSPropertyOp16
 70
     1
102
RTVSPropertyOp17
 70
     1
102
RTVSPropertyOp18
 70
     1
102
RTVSPropertyOp19
 70
     1
102
RTVSPropertyOp20
 70
     1
102
RTVSPropertyOp21
 70
     1
102
RTVSPropertyOp22
 70
     1
102
RTVSPropertyOp23
 70
     1
102
RTVSPropertyOp24
 70
     1
102
RTVSPropertyOp25
 70
     1
102
RTVSPropertyOp26
 70
     1
102
RTVSPropertyOp27
 70
     1
102
RTVSPropertyOp28
 70
     1
102
RTVSPropertyOp29
 70
     1
102
RTVSPropertyOp30
 70
     1
102
RTVSPropertyOp31
 70
     1
102
RTVSPropertyOp32
 70
     1
102
RTVSPropertyOp33
 70
     1
102
RTVSPropertyOp34
 70
     1
102
RTVSPropertyOp35
 70
     1
102
RTVSPropertyOp36
 70
     1
102
RTVSPropertyOp37
 70
     1
102
RTVSPropertyOp38
 70
     1
102
RTVSPropertyOp39
 70
     1
102
RTVSPropertyOp40
 70
     1
102
RTVSPropertyOp41
 70
     1
102
RTVSPropertyOp42
 70
     1
102
RTVSPropertyOp43
 70
     1
102
RTVSPropertyOp44
 70
     1
102
RTVSPropertyOp45
 70
     1
102
RTVSPropertyOp46
 70
     1
102
RTVSPropertyOp47
 70
     1
102
RTVSPropertyOp48
 70
     1
102
RTVSPropertyOp49
 70
     1
102
RTVSPropertyOp50
 70
     1
102
RTVSPropertyOp51
 70
     0
102
RTVSPropertyOp52
 70
     0
102
RTVSPropertyOp53
 70
     1
102
RTVSPropertyOp54
 70
     1
102
RTVSPropertyOp55
 70
     1
102
RTVSPropertyOp56
 70
     1
102
RTVSPropertyOp57
 70
     1
102
RTVSPropertyOp58
 70
     1
102
RTVSPropertyOp59
 70
     1
102
RTVSPropertyOp60
 70
     1
102
RTVSPropertyOp61
 70
     1
102
RTVSPropertyOp62
 70
     1
  0
XRECORD
  5
133A
102
{ACAD_REACTORS
330
1339
102
}
330
1339
100
AcDbXrecord
280
     1
102
RTVSPost2010Prop28
280
     0
102
RTVSPost2010PropOp28
 70
     1
102
RTVSPost2010Prop29
280
     1
102
RTVSPost2010PropOp29
 70
     1
102
RTVSPost2010Prop30
280
     1
102
RTVSPost2010PropOp30
 70
     1
102
RTVSPost2010Prop31
280
     0
102
RTVSPost2010PropOp31
 70
     1
102
RTVSPost2010Prop32
280
     0
102
RTVSPost2010PropOp32
 70
     1
102
RTVSPost2010Prop33
280
     0
102
RTVSPost2010PropOp33
 70
     1
102
RTVSPost2010Prop34
280
     0
102
RTVSPost2010PropOp34
 70
     1
102
RTVSPost2010Prop35
280
     0
102
RTVSPost2010PropOp35
 70
     1
102
RTVSPost2010Prop36
280
     0
102
RTVSPost2010PropOp36
 70
     1
102
RTVSPost2010Prop37
 90
       50
102
RTVSPost2010PropOp37
 70
     1
102
RTVSPost2010Prop38
140
0.0
102
RTVSPost2010PropOp38
 70
     1
102
RTVSPost2010Prop39
140
1.0
102
RTVSPost2010PropOp39
 70
     1
102
RTVSPost2010Prop40
 90
        0
102
RTVSPost2010PropOp40
 70
     1
102
RTVSPost2010Prop41ColorIndex
 90
       18
102
RTVSPost2010Prop41ColorRGB
 90
        0
102
RTVSPost2010PropOp41
 70
     1
102
RTVSPost2010Prop42
 90
       50
102
RTVSPost2010PropOp42
 70
     1
102
RTVSPost2010Prop43
 90
        3
102
RTVSPost2010PropOp43
 70
     1
102
RTVSPost2010Prop44ColorIndex
 90
        5
102
RTVSPost2010Prop44ColorRGB
 90
      255
102
RTVSPost2010PropOp44
 70
     1
102
RTVSPost2010Prop45
280
     0
102
RTVSPost2010PropOp45
 70
     1
102
RTVSPost2010Prop46
 90
       50
102
RTVSPost2010PropOp46
 70
     1
102
RTVSPost2010Prop47
 90
       50
102
RTVSPost2010PropOp47
 70
     1
102
RTVSPost2010Prop48
 90
       50
102
RTVSPost2010PropOp48
 70
     1
102
RTVSPost2010Prop49
280
     0
102
RTVSPost2010PropOp49
 70
     1
102
RTVSPost2010Prop50
 90
       50
102
RTVSPost2010PropOp50
 70
     1
102
RTVSPost2010Prop51ColorIndex
 90
      256
102
RTVSPost2010Prop51ColorRGB
 90
-16777216
102
RTVSPost2010PropOp51
 70
     0
102
RTVSPost2010Prop52
140
1.0
102
RTVSPost2010PropOp52
 70
     0
102
RTVSPost2010Prop53
 90
        2
102
RTVSPost2010PropOp53
 70
     1
102
RTVSPost2010Prop54
  1
strokes_ogs.tif
102
RTVSPost2010PropOp54
 70
     1
102
RTVSPost2010Prop55
280
     0
102
RTVSPost2010PropOp55
 70
     1
102
RTVSPost2010Prop56
140
1.0
102
RTVSPost2010PropOp56
 70
     1
102
RTVSPost2010Prop57
140
1.0
102
RTVSPost2010PropOp57
 70
     1
102
RTVSPropertyOp0
 70
     1
102
RTVSPropertyOp1
 70
     1
102
RTVSPropertyOp2
 70
     1
102
RTVSPropertyOp3
 70
     1
102
RTVSPropertyOp4
 70
     1
102
RTVSPropertyOp5
 70
     1
102
RTVSPropertyOp6
 70
     1
102
RTVSPropertyOp7
 70
     1
102
RTVSPropertyOp8
 70
     1
102
RTVSPropertyOp9
 70
     1
102
RTVSPropertyOp10
 70
     1
102
RTVSPropertyOp11
 70
     1
102
RTVSPropertyOp12
 70
     1
102
RTVSPropertyOp13
 70
     1
102
RTVSPropertyOp14
 70
     1
102
RTVSPropertyOp15
 70
     1
102
RTVSPropertyOp16
 70
     1
102
RTVSPropertyOp17
 70
     1
102
RTVSPropertyOp18
 70
     1
102
RTVSPropertyOp19
 70
     1
102
RTVSPropertyOp20
 70
     1
102
RTVSPropertyOp21
 70
     1
102
RTVSPropertyOp22
 70
     1
102
RTVSPropertyOp23
 70
     1
102
RTVSPropertyOp24
 70
     1
102
RTVSPropertyOp25
 70
     1
102
RTVSPropertyOp26
 70
     1
102
RTVSPropertyOp27
 70
     1
102
RTVSPropertyOp28
 70
     1
102
RTVSPropertyOp29
 70
     1
102
RTVSPropertyOp30
 70
     1
102
RTVSPropertyOp31
 70
     1
102
RTVSPropertyOp32
 70
     1
102
RTVSPropertyOp33
 70
     1
102
RTVSPropertyOp34
 70
     1
102
RTVSPropertyOp35
 70
     1
102
RTVSPropertyOp36
 70
     1
102
RTVSPropertyOp37
 70
     1
102
RTVSPropertyOp38
 70
     1
102
RTVSPropertyOp39
 70
     1
102
RTVSPropertyOp40
 70
     1
102
RTVSPropertyOp41
 70
     1
102
RTVSPropertyOp42
 70
     1
102
RTVSPropertyOp43
 70
     1
102
RTVSPropertyOp44
 70
     1
102
RTVSPropertyOp45
 70
     1
102
RTVSPropertyOp46
 70
     1
102
RTVSPropertyOp47
 70
     1
102
RTVSPropertyOp48
 70
     1
102
RTVSPropertyOp49
 70
     1
102
RTVSPropertyOp50
 70
     1
102
RTVSPropertyOp51
 70
     0
102
RTVSPropertyOp52
 70
     0
102
RTVSPropertyOp53
 70
     1
102
RTVSPropertyOp54
 70
     1
102
RTVSPropertyOp55
 70
     1
102
RTVSPropertyOp56
 70
     1
102
RTVSPropertyOp57
 70
     1
102
RTVSPropertyOp58
 70
     1
102
RTVSPropertyOp59
 70
     1
102
RTVSPropertyOp60
 70
     1
102
RTVSPropertyOp61
 70
     1
102
RTVSPropertyOp62
 70
     1
  0
XRECORD
  5
133C
102
{ACAD_REACTORS
330
133B
102
}
330
133B
100
AcDbXrecord
280
     1
102
RTVSPost2010Prop28
280
     0
102
RTVSPost2010PropOp28
 70
     1
102
RTVSPost2010Prop29
280
     1
102
RTVSPost2010PropOp29
 70
     1
102
RTVSPost2010Prop30
280
     1
102
RTVSPost2010PropOp30
 70
     1
102
RTVSPost2010Prop31
280
     0
102
RTVSPost2010PropOp31
 70
     1
102
RTVSPost2010Prop32
280
     0
102
RTVSPost2010PropOp32
 70
     1
102
RTVSPost2010Prop33
280
     0
102
RTVSPost2010PropOp33
 70
     1
102
RTVSPost2010Prop34
280
     0
102
RTVSPost2010PropOp34
 70
     1
102
RTVSPost2010Prop35
280
     0
102
RTVSPost2010PropOp35
 70
     1
102
RTVSPost2010Prop36
280
     0
102
RTVSPost2010PropOp36
 70
     1
102
RTVSPost2010Prop37
 90
       50
102
RTVSPost2010PropOp37
 70
     1
102
RTVSPost2010Prop38
140
0.0
102
RTVSPost2010PropOp38
 70
     1
102
RTVSPost2010Prop39
140
1.0
102
RTVSPost2010PropOp39
 70
     1
102
RTVSPost2010Prop40
 90
        0
102
RTVSPost2010PropOp40
 70
     1
102
RTVSPost2010Prop41ColorIndex
 90
       18
102
RTVSPost2010Prop41ColorRGB
 90
        0
102
RTVSPost2010PropOp41
 70
     1
102
RTVSPost2010Prop42
 90
       50
102
RTVSPost2010PropOp42
 70
     1
102
RTVSPost2010Prop43
 90
        3
102
RTVSPost2010PropOp43
 70
     1
102
RTVSPost2010Prop44ColorIndex
 90
        5
102
RTVSPost2010Prop44ColorRGB
 90
      255
102
RTVSPost2010PropOp44
 70
     1
102
RTVSPost2010Prop45
280
     0
102
RTVSPost2010PropOp45
 70
     1
102
RTVSPost2010Prop46
 90
       50
102
RTVSPost2010PropOp46
 70
     1
102
RTVSPost2010Prop47
 90
       50
102
RTVSPost2010PropOp47
 70
     1
102
RTVSPost2010Prop48
 90
       50
102
RTVSPost2010PropOp48
 70
     1
102
RTVSPost2010Prop49
280
     0
102
RTVSPost2010PropOp49
 70
     1
102
RTVSPost2010Prop50
 90
       50
102
RTVSPost2010PropOp50
 70
     1
102
RTVSPost2010Prop51ColorIndex
 90
      256
102
RTVSPost2010Prop51ColorRGB
 90
-16777216
102
RTVSPost2010PropOp51
 70
     0
102
RTVSPost2010Prop52
140
1.0
102
RTVSPost2010PropOp52
 70
     0
102
RTVSPost2010Prop53
 90
        2
102
RTVSPost2010PropOp53
 70
     1
102
RTVSPost2010Prop54
  1
strokes_ogs.tif
102
RTVSPost2010PropOp54
 70
     1
102
RTVSPost2010Prop55
280
     0
102
RTVSPost2010PropOp55
 70
     1
102
RTVSPost2010Prop56
140
1.0
102
RTVSPost2010PropOp56
 70
     1
102
RTVSPost2010Prop57
140
1.0
102
RTVSPost2010PropOp57
 70
     1
102
RTVSPropertyOp0
 70
     1
102
RTVSPropertyOp1
 70
     1
102
RTVSPropertyOp2
 70
     1
102
RTVSPropertyOp3
 70
     1
102
RTVSPropertyOp4
 70
     1
102
RTVSPropertyOp5
 70
     1
102
RTVSPropertyOp6
 70
     1
102
RTVSPropertyOp7
 70
     1
102
RTVSPropertyOp8
 70
     1
102
RTVSPropertyOp9
 70
     1
102
RTVSPropertyOp10
 70
     1
102
RTVSPropertyOp11
 70
     1
102
RTVSPropertyOp12
 70
     1
102
RTVSPropertyOp13
 70
     1
102
RTVSPropertyOp14
 70
     1
102
RTVSPropertyOp15
 70
     1
102
RTVSPropertyOp16
 70
     1
102
RTVSPropertyOp17
 70
     1
102
RTVSPropertyOp18
 70
     1
102
RTVSPropertyOp19
 70
     1
102
RTVSPropertyOp20
 70
     1
102
RTVSPropertyOp21
 70
     1
102
RTVSPropertyOp22
 70
     1
102
RTVSPropertyOp23
 70
     1
102
RTVSPropertyOp24
 70
     1
102
RTVSPropertyOp25
 70
     1
102
RTVSPropertyOp26
 70
     1
102
RTVSPropertyOp27
 70
     1
102
RTVSPropertyOp28
 70
     1
102
RTVSPropertyOp29
 70
     1
102
RTVSPropertyOp30
 70
     1
102
RTVSPropertyOp31
 70
     1
102
RTVSPropertyOp32
 70
     1
102
RTVSPropertyOp33
 70
     1
102
RTVSPropertyOp34
 70
     1
102
RTVSPropertyOp35
 70
     1
102
RTVSPropertyOp36
 70
     1
102
RTVSPropertyOp37
 70
     1
102
RTVSPropertyOp38
 70
     1
102
RTVSPropertyOp39
 70
     1
102
RTVSPropertyOp40
 70
     1
102
RTVSPropertyOp41
 70
     1
102
RTVSPropertyOp42
 70
     1
102
RTVSPropertyOp43
 70
     1
102
RTVSPropertyOp44
 70
     1
102
RTVSPropertyOp45
 70
     1
102
RTVSPropertyOp46
 70
     1
102
RTVSPropertyOp47
 70
     1
102
RTVSPropertyOp48
 70
     1
102
RTVSPropertyOp49
 70
     1
102
RTVSPropertyOp50
 70
     1
102
RTVSPropertyOp51
 70
     0
102
RTVSPropertyOp52
 70
     0
102
RTVSPropertyOp53
 70
     1
102
RTVSPropertyOp54
 70
     1
102
RTVSPropertyOp55
 70
     1
102
RTVSPropertyOp56
 70
     1
102
RTVSPropertyOp57
 70
     1
102
RTVSPropertyOp58
 70
     1
102
RTVSPropertyOp59
 70
     1
102
RTVSPropertyOp60
 70
     1
102
RTVSPropertyOp61
 70
     1
102
RTVSPropertyOp62
 70
     1
  0
XRECORD
  5
1344
102
{ACAD_REACTORS
330
1343
102
}
330
1343
100
AcDbXrecord
280
     1
102
RTVSPost2010Prop28
280
     0
102
RTVSPost2010PropOp28
 70
     1
102
RTVSPost2010Prop29
280
     1
102
RTVSPost2010PropOp29
 70
     1
102
RTVSPost2010Prop30
280
     1
102
RTVSPost2010PropOp30
 70
     1
102
RTVSPost2010Prop31
280
     0
102
RTVSPost2010PropOp31
 70
     1
102
RTVSPost2010Prop32
280
     0
102
RTVSPost2010PropOp32
 70
     1
102
RTVSPost2010Prop33
280
     0
102
RTVSPost2010PropOp33
 70
     1
102
RTVSPost2010Prop34
280
     0
102
RTVSPost2010PropOp34
 70
     1
102
RTVSPost2010Prop35
280
     0
102
RTVSPost2010PropOp35
 70
     1
102
RTVSPost2010Prop36
280
     0
102
RTVSPost2010PropOp36
 70
     1
102
RTVSPost2010Prop37
 90
       50
102
RTVSPost2010PropOp37
 70
     1
102
RTVSPost2010Prop38
140
0.0
102
RTVSPost2010PropOp38
 70
     1
102
RTVSPost2010Prop39
140
1.0
102
RTVSPost2010PropOp39
 70
     1
102
RTVSPost2010Prop40
 90
        0
102
RTVSPost2010PropOp40
 70
     1
102
RTVSPost2010Prop41ColorIndex
 90
       18
102
RTVSPost2010Prop41ColorRGB
 90
        0
102
RTVSPost2010PropOp41
 70
     1
102
RTVSPost2010Prop42
 90
       50
102
RTVSPost2010PropOp42
 70
     1
102
RTVSPost2010Prop43
 90
        3
102
RTVSPost2010PropOp43
 70
     1
102
RTVSPost2010Prop44ColorIndex
 90
        5
102
RTVSPost2010Prop44ColorRGB
 90
      255
102
RTVSPost2010PropOp44
 70
     1
102
RTVSPost2010Prop45
280
     0
102
RTVSPost2010PropOp45
 70
     1
102
RTVSPost2010Prop46
 90
       50
102
RTVSPost2010PropOp46
 70
     1
102
RTVSPost2010Prop47
 90
       50
102
RTVSPost2010PropOp47
 70
     1
102
RTVSPost2010Prop48
 90
       50
102
RTVSPost2010PropOp48
 70
     1
102
RTVSPost2010Prop49
280
     0
102
RTVSPost2010PropOp49
 70
     1
102
RTVSPost2010Prop50
 90
       50
102
RTVSPost2010PropOp50
 70
     1
102
RTVSPost2010Prop51ColorIndex
 90
      256
102
RTVSPost2010Prop51ColorRGB
 90
-16777216
102
RTVSPost2010PropOp51
 70
     0
102
RTVSPost2010Prop52
140
1.0
102
RTVSPost2010PropOp52
 70
     0
102
RTVSPost2010Prop53
 90
        2
102
RTVSPost2010PropOp53
 70
     1
102
RTVSPost2010Prop54
  1
strokes_ogs.tif
102
RTVSPost2010PropOp54
 70
     1
102
RTVSPost2010Prop55
280
     0
102
RTVSPost2010PropOp55
 70
     1
102
RTVSPost2010Prop56
140
1.0
102
RTVSPost2010PropOp56
 70
     1
102
RTVSPost2010Prop57
140
1.0
102
RTVSPost2010PropOp57
 70
     1
102
RTVSPropertyOp0
 70
     1
102
RTVSPropertyOp1
 70
     1
102
RTVSPropertyOp2
 70
     1
102
RTVSPropertyOp3
 70
     1
102
RTVSPropertyOp4
 70
     1
102
RTVSPropertyOp5
 70
     1
102
RTVSPropertyOp6
 70
     1
102
RTVSPropertyOp7
 70
     1
102
RTVSPropertyOp8
 70
     1
102
RTVSPropertyOp9
 70
     1
102
RTVSPropertyOp10
 70
     1
102
RTVSPropertyOp11
 70
     1
102
RTVSPropertyOp12
 70
     1
102
RTVSPropertyOp13
 70
     1
102
RTVSPropertyOp14
 70
     1
102
RTVSPropertyOp15
 70
     1
102
RTVSPropertyOp16
 70
     1
102
RTVSPropertyOp17
 70
     1
102
RTVSPropertyOp18
 70
     1
102
RTVSPropertyOp19
 70
     1
102
RTVSPropertyOp20
 70
     1
102
RTVSPropertyOp21
 70
     1
102
RTVSPropertyOp22
 70
     1
102
RTVSPropertyOp23
 70
     1
102
RTVSPropertyOp24
 70
     1
102
RTVSPropertyOp25
 70
     1
102
RTVSPropertyOp26
 70
     1
102
RTVSPropertyOp27
 70
     1
102
RTVSPropertyOp28
 70
     1
102
RTVSPropertyOp29
 70
     1
102
RTVSPropertyOp30
 70
     1
102
RTVSPropertyOp31
 70
     1
102
RTVSPropertyOp32
 70
     1
102
RTVSPropertyOp33
 70
     1
102
RTVSPropertyOp34
 70
     1
102
RTVSPropertyOp35
 70
     1
102
RTVSPropertyOp36
 70
     1
102
RTVSPropertyOp37
 70
     1
102
RTVSPropertyOp38
 70
     1
102
RTVSPropertyOp39
 70
     1
102
RTVSPropertyOp40
 70
     1
102
RTVSPropertyOp41
 70
     1
102
RTVSPropertyOp42
 70
     1
102
RTVSPropertyOp43
 70
     1
102
RTVSPropertyOp44
 70
     1
102
RTVSPropertyOp45
 70
     1
102
RTVSPropertyOp46
 70
     1
102
RTVSPropertyOp47
 70
     1
102
RTVSPropertyOp48
 70
     1
102
RTVSPropertyOp49
 70
     1
102
RTVSPropertyOp50
 70
     1
102
RTVSPropertyOp51
 70
     0
102
RTVSPropertyOp52
 70
     0
102
RTVSPropertyOp53
 70
     1
102
RTVSPropertyOp54
 70
     1
102
RTVSPropertyOp55
 70
     1
102
RTVSPropertyOp56
 70
     1
102
RTVSPropertyOp57
 70
     1
102
RTVSPropertyOp58
 70
     1
102
RTVSPropertyOp59
 70
     1
102
RTVSPropertyOp60
 70
     1
102
RTVSPropertyOp61
 70
     1
102
RTVSPropertyOp62
 70
     1
  0
XRECORD
  5
1360
102
{ACAD_REACTORS
330
135F
102
}
330
135F
100
AcDbXrecord
280
     1
102
RTVSPost2010Prop28
280
     0
102
RTVSPost2010PropOp28
 70
     1
102
RTVSPost2010Prop29
280
     1
102
RTVSPost2010PropOp29
 70
     1
102
RTVSPost2010Prop30
280
     1
102
RTVSPost2010PropOp30
 70
     1
102
RTVSPost2010Prop31
280
     0
102
RTVSPost2010PropOp31
 70
     1
102
RTVSPost2010Prop32
280
     0
102
RTVSPost2010PropOp32
 70
     1
102
RTVSPost2010Prop33
280
     0
102
RTVSPost2010PropOp33
 70
     1
102
RTVSPost2010Prop34
280
     0
102
RTVSPost2010PropOp34
 70
     1
102
RTVSPost2010Prop35
280
     0
102
RTVSPost2010PropOp35
 70
     1
102
RTVSPost2010Prop36
280
     0
102
RTVSPost2010PropOp36
 70
     1
102
RTVSPost2010Prop37
 90
       50
102
RTVSPost2010PropOp37
 70
     0
102
RTVSPost2010Prop38
140
0.0
102
RTVSPost2010PropOp38
 70
     0
102
RTVSPost2010Prop39
140
1.0
102
RTVSPost2010PropOp39
 70
     0
102
RTVSPost2010Prop40
 90
        0
102
RTVSPost2010PropOp40
 70
     0
102
RTVSPost2010Prop41ColorIndex
 90
       18
102
RTVSPost2010Prop41ColorRGB
 90
        0
102
RTVSPost2010PropOp41
 70
     0
102
RTVSPost2010Prop42
 90
       50
102
RTVSPost2010PropOp42
 70
     0
102
RTVSPost2010Prop43
 90
        3
102
RTVSPost2010PropOp43
 70
     0
102
RTVSPost2010Prop44ColorIndex
 90
        5
102
RTVSPost2010Prop44ColorRGB
 90
      255
102
RTVSPost2010PropOp44
 70
     0
102
RTVSPost2010Prop45
280
     0
102
RTVSPost2010PropOp45
 70
     1
102
RTVSPost2010Prop46
 90
       50
102
RTVSPost2010PropOp46
 70
     0
102
RTVSPost2010Prop47
 90
       50
102
RTVSPost2010PropOp47
 70
     0
102
RTVSPost2010Prop48
 90
       50
102
RTVSPost2010PropOp48
 70
     0
102
RTVSPost2010Prop49
280
     0
102
RTVSPost2010PropOp49
 70
     1
102
RTVSPost2010Prop50
 90
       50
102
RTVSPost2010PropOp50
 70
     0
102
RTVSPost2010Prop51ColorIndex
 90
      256
102
RTVSPost2010Prop51ColorRGB
 90
-16777216
102
RTVSPost2010PropOp51
 70
     0
102
RTVSPost2010Prop52
140
1.0
102
RTVSPost2010PropOp52
 70
     0
102
RTVSPost2010Prop53
 90
        2
102
RTVSPost2010PropOp53
 70
     0
102
RTVSPost2010Prop54
  1
strokes_ogs.tif
102
RTVSPost2010PropOp54
 70
     0
102
RTVSPost2010Prop55
280
     0
102
RTVSPost2010PropOp55
 70
     1
102
RTVSPost2010Prop56
140
1.0
102
RTVSPost2010PropOp56
 70
     0
102
RTVSPost2010Prop57
140
1.0
102
RTVSPost2010PropOp57
 70
     0
102
RTVSPropertyOp0
 70
     0
102
RTVSPropertyOp1
 70
     0
102
RTVSPropertyOp2
 70
     0
102
RTVSPropertyOp3
 70
     0
102
RTVSPropertyOp4
 70
     0
102
RTVSPropertyOp5
 70
     0
102
RTVSPropertyOp6
 70
     0
102
RTVSPropertyOp7
 70
     0
102
RTVSPropertyOp8
 70
     0
102
RTVSPropertyOp9
 70
     0
102
RTVSPropertyOp10
 70
     0
102
RTVSPropertyOp11
 70
     0
102
RTVSPropertyOp12
 70
     0
102
RTVSPropertyOp13
 70
     0
102
RTVSPropertyOp14
 70
     2
102
RTVSPropertyOp15
 70
     0
102
RTVSPropertyOp16
 70
     0
102
RTVSPropertyOp17
 70
     0
102
RTVSPropertyOp18
 70
     0
102
RTVSPropertyOp19
 70
     0
102
RTVSPropertyOp20
 70
     0
102
RTVSPropertyOp21
 70
     0
102
RTVSPropertyOp22
 70
     0
102
RTVSPropertyOp23
 70
     0
102
RTVSPropertyOp24
 70
     0
102
RTVSPropertyOp25
 70
     0
102
RTVSPropertyOp26
 70
     0
102
RTVSPropertyOp27
 70
     0
102
RTVSPropertyOp28
 70
     1
102
RTVSPropertyOp29
 70
     1
102
RTVSPropertyOp30
 70
     1
102
RTVSPropertyOp31
 70
     1
102
RTVSPropertyOp32
 70
     1
102
RTVSPropertyOp33
 70
     1
102
RTVSPropertyOp34
 70
     1
102
RTVSPropertyOp35
 70
     1
102
RTVSPropertyOp36
 70
     1
102
RTVSPropertyOp37
 70
     0
102
RTVSPropertyOp38
 70
     0
102
RTVSPropertyOp39
 70
     0
102
RTVSPropertyOp40
 70
     0
102
RTVSPropertyOp41
 70
     0
102
RTVSPropertyOp42
 70
     0
102
RTVSPropertyOp43
 70
     0
102
RTVSPropertyOp44
 70
     0
102
RTVSPropertyOp45
 70
     1
102
RTVSPropertyOp46
 70
     0
102
RTVSPropertyOp47
 70
     0
102
RTVSPropertyOp48
 70
     0
102
RTVSPropertyOp49
 70
     1
102
RTVSPropertyOp50
 70
     0
102
RTVSPropertyOp51
 70
     0
102
RTVSPropertyOp52
 70
     0
102
RTVSPropertyOp53
 70
     0
102
RTVSPropertyOp54
 70
     0
102
RTVSPropertyOp55
 70
     1
102
RTVSPropertyOp56
 70
     0
102
RTVSPropertyOp57
 70
     0
102
RTVSPropertyOp58
 70
     0
102
RTVSPropertyOp59
 70
     0
102
RTVSPropertyOp60
 70
     0
102
RTVSPropertyOp61
 70
     0
102
RTVSPropertyOp62
 70
     0
  0
XRECORD
  5
1350
102
{ACAD_REACTORS
330
134F
102
}
330
134F
100
AcDbXrecord
280
     1
102
RTVSPost2010Prop28
280
     0
102
RTVSPost2010PropOp28
 70
     1
102
RTVSPost2010Prop29
280
     1
102
RTVSPost2010PropOp29
 70
     1
102
RTVSPost2010Prop30
280
     1
102
RTVSPost2010PropOp30
 70
     1
102
RTVSPost2010Prop31
280
     0
102
RTVSPost2010PropOp31
 70
     1
102
RTVSPost2010Prop32
280
     0
102
RTVSPost2010PropOp32
 70
     1
102
RTVSPost2010Prop33
280
     0
102
RTVSPost2010PropOp33
 70
     1
102
RTVSPost2010Prop34
280
     0
102
RTVSPost2010PropOp34
 70
     1
102
RTVSPost2010Prop35
280
     0
102
RTVSPost2010PropOp35
 70
     1
102
RTVSPost2010Prop36
280
     0
102
RTVSPost2010PropOp36
 70
     1
102
RTVSPost2010Prop37
 90
       50
102
RTVSPost2010PropOp37
 70
     1
102
RTVSPost2010Prop38
140
0.0
102
RTVSPost2010PropOp38
 70
     1
102
RTVSPost2010Prop39
140
1.0
102
RTVSPost2010PropOp39
 70
     1
102
RTVSPost2010Prop40
 90
        0
102
RTVSPost2010PropOp40
 70
     1
102
RTVSPost2010Prop41ColorIndex
 90
       18
102
RTVSPost2010Prop41ColorRGB
 90
        0
102
RTVSPost2010PropOp41
 70
     1
102
RTVSPost2010Prop42
 90
       50
102
RTVSPost2010PropOp42
 70
     1
102
RTVSPost2010Prop43
 90
        3
102
RTVSPost2010PropOp43
 70
     1
102
RTVSPost2010Prop44ColorIndex
 90
        5
102
RTVSPost2010Prop44ColorRGB
 90
      255
102
RTVSPost2010PropOp44
 70
     1
102
RTVSPost2010Prop45
280
     0
102
RTVSPost2010PropOp45
 70
     1
102
RTVSPost2010Prop46
 90
       50
102
RTVSPost2010PropOp46
 70
     1
102
RTVSPost2010Prop47
 90
       50
102
RTVSPost2010PropOp47
 70
     1
102
RTVSPost2010Prop48
 90
       50
102
RTVSPost2010PropOp48
 70
     1
102
RTVSPost2010Prop49
280
     0
102
RTVSPost2010PropOp49
 70
     1
102
RTVSPost2010Prop50
 90
       50
102
RTVSPost2010PropOp50
 70
     1
102
RTVSPost2010Prop51ColorIndex
 90
      256
102
RTVSPost2010Prop51ColorRGB
 90
-16777216
102
RTVSPost2010PropOp51
 70
     0
102
RTVSPost2010Prop52
140
1.0
102
RTVSPost2010PropOp52
 70
     0
102
RTVSPost2010Prop53
 90
        2
102
RTVSPost2010PropOp53
 70
     1
102
RTVSPost2010Prop54
  1
strokes_ogs.tif
102
RTVSPost2010PropOp54
 70
     1
102
RTVSPost2010Prop55
280
     0
102
RTVSPost2010PropOp55
 70
     1
102
RTVSPost2010Prop56
140
1.0
102
RTVSPost2010PropOp56
 70
     1
102
RTVSPost2010Prop57
140
1.0
102
RTVSPost2010PropOp57
 70
     1
102
RTVSPropertyOp0
 70
     1
102
RTVSPropertyOp1
 70
     1
102
RTVSPropertyOp2
 70
     1
102
RTVSPropertyOp3
 70
     1
102
RTVSPropertyOp4
 70
     1
102
RTVSPropertyOp5
 70
     1
102
RTVSPropertyOp6
 70
     1
102
RTVSPropertyOp7
 70
     1
102
RTVSPropertyOp8
 70
     1
102
RTVSPropertyOp9
 70
     1
102
RTVSPropertyOp10
 70
     1
102
RTVSPropertyOp11
 70
     1
102
RTVSPropertyOp12
 70
     1
102
RTVSPropertyOp13
 70
     1
102
RTVSPropertyOp14
 70
     1
102
RTVSPropertyOp15
 70
     1
102
RTVSPropertyOp16
 70
     1
102
RTVSPropertyOp17
 70
     1
102
RTVSPropertyOp18
 70
     1
102
RTVSPropertyOp19
 70
     1
102
RTVSPropertyOp20
 70
     1
102
RTVSPropertyOp21
 70
     1
102
RTVSPropertyOp22
 70
     1
102
RTVSPropertyOp23
 70
     1
102
RTVSPropertyOp24
 70
     1
102
RTVSPropertyOp25
 70
     1
102
RTVSPropertyOp26
 70
     1
102
RTVSPropertyOp27
 70
     1
102
RTVSPropertyOp28
 70
     1
102
RTVSPropertyOp29
 70
     1
102
RTVSPropertyOp30
 70
     1
102
RTVSPropertyOp31
 70
     1
102
RTVSPropertyOp32
 70
     1
102
RTVSPropertyOp33
 70
     1
102
RTVSPropertyOp34
 70
     1
102
RTVSPropertyOp35
 70
     1
102
RTVSPropertyOp36
 70
     1
102
RTVSPropertyOp37
 70
     1
102
RTVSPropertyOp38
 70
     1
102
RTVSPropertyOp39
 70
     1
102
RTVSPropertyOp40
 70
     1
102
RTVSPropertyOp41
 70
     1
102
RTVSPropertyOp42
 70
     1
102
RTVSPropertyOp43
 70
     1
102
RTVSPropertyOp44
 70
     1
102
RTVSPropertyOp45
 70
     1
102
RTVSPropertyOp46
 70
     1
102
RTVSPropertyOp47
 70
     1
102
RTVSPropertyOp48
 70
     1
102
RTVSPropertyOp49
 70
     1
102
RTVSPropertyOp50
 70
     1
102
RTVSPropertyOp51
 70
     0
102
RTVSPropertyOp52
 70
     0
102
RTVSPropertyOp53
 70
     1
102
RTVSPropertyOp54
 70
     1
102
RTVSPropertyOp55
 70
     1
102
RTVSPropertyOp56
 70
     1
102
RTVSPropertyOp57
 70
     1
102
RTVSPropertyOp58
 70
     1
102
RTVSPropertyOp59
 70
     1
102
RTVSPropertyOp60
 70
     1
102
RTVSPropertyOp61
 70
     1
102
RTVSPropertyOp62
 70
     1
  0
XRECORD
  5
1362
102
{ACAD_REACTORS
330
1361
102
}
330
1361
100
AcDbXrecord
280
     1
102
RTVSPost2010Prop28
280
     0
102
RTVSPost2010PropOp28
 70
     1
102
RTVSPost2010Prop29
280
     1
102
RTVSPost2010PropOp29
 70
     1
102
RTVSPost2010Prop30
280
     1
102
RTVSPost2010PropOp30
 70
     1
102
RTVSPost2010Prop31
280
     0
102
RTVSPost2010PropOp31
 70
     1
102
RTVSPost2010Prop32
280
     0
102
RTVSPost2010PropOp32
 70
     1
102
RTVSPost2010Prop33
280
     0
102
RTVSPost2010PropOp33
 70
     1
102
RTVSPost2010Prop34
280
     0
102
RTVSPost2010PropOp34
 70
     1
102
RTVSPost2010Prop35
280
     0
102
RTVSPost2010PropOp35
 70
     1
102
RTVSPost2010Prop36
280
     0
102
RTVSPost2010PropOp36
 70
     1
102
RTVSPost2010Prop37
 90
       50
102
RTVSPost2010PropOp37
 70
     0
102
RTVSPost2010Prop38
140
0.0
102
RTVSPost2010PropOp38
 70
     0
102
RTVSPost2010Prop39
140
1.0
102
RTVSPost2010PropOp39
 70
     0
102
RTVSPost2010Prop40
 90
        0
102
RTVSPost2010PropOp40
 70
     0
102
RTVSPost2010Prop41ColorIndex
 90
       18
102
RTVSPost2010Prop41ColorRGB
 90
        0
102
RTVSPost2010PropOp41
 70
     0
102
RTVSPost2010Prop42
 90
       50
102
RTVSPost2010PropOp42
 70
     0
102
RTVSPost2010Prop43
 90
        3
102
RTVSPost2010PropOp43
 70
     0
102
RTVSPost2010Prop44ColorIndex
 90
        5
102
RTVSPost2010Prop44ColorRGB
 90
      255
102
RTVSPost2010PropOp44
 70
     0
102
RTVSPost2010Prop45
280
     0
102
RTVSPost2010PropOp45
 70
     1
102
RTVSPost2010Prop46
 90
       50
102
RTVSPost2010PropOp46
 70
     0
102
RTVSPost2010Prop47
 90
       50
102
RTVSPost2010PropOp47
 70
     0
102
RTVSPost2010Prop48
 90
       50
102
RTVSPost2010PropOp48
 70
     0
102
RTVSPost2010Prop49
280
     0
102
RTVSPost2010PropOp49
 70
     1
102
RTVSPost2010Prop50
 90
       50
102
RTVSPost2010PropOp50
 70
     0
102
RTVSPost2010Prop51ColorIndex
 90
      256
102
RTVSPost2010Prop51ColorRGB
 90
-16777216
102
RTVSPost2010PropOp51
 70
     0
102
RTVSPost2010Prop52
140
1.0
102
RTVSPost2010PropOp52
 70
     0
102
RTVSPost2010Prop53
 90
        2
102
RTVSPost2010PropOp53
 70
     0
102
RTVSPost2010Prop54
  1
strokes_ogs.tif
102
RTVSPost2010PropOp54
 70
     0
102
RTVSPost2010Prop55
280
     0
102
RTVSPost2010PropOp55
 70
     1
102
RTVSPost2010Prop56
140
1.0
102
RTVSPost2010PropOp56
 70
     0
102
RTVSPost2010Prop57
140
1.0
102
RTVSPost2010PropOp57
 70
     0
102
RTVSPropertyOp0
 70
     0
102
RTVSPropertyOp1
 70
     0
102
RTVSPropertyOp2
 70
     0
102
RTVSPropertyOp3
 70
     0
102
RTVSPropertyOp4
 70
     0
102
RTVSPropertyOp5
 70
     0
102
RTVSPropertyOp6
 70
     0
102
RTVSPropertyOp7
 70
     0
102
RTVSPropertyOp8
 70
     0
102
RTVSPropertyOp9
 70
     0
102
RTVSPropertyOp10
 70
     0
102
RTVSPropertyOp11
 70
     0
102
RTVSPropertyOp12
 70
     0
102
RTVSPropertyOp13
 70
     0
102
RTVSPropertyOp14
 70
     2
102
RTVSPropertyOp15
 70
     0
102
RTVSPropertyOp16
 70
     0
102
RTVSPropertyOp17
 70
     0
102
RTVSPropertyOp18
 70
     0
102
RTVSPropertyOp19
 70
     0
102
RTVSPropertyOp20
 70
     0
102
RTVSPropertyOp21
 70
     0
102
RTVSPropertyOp22
 70
     0
102
RTVSPropertyOp23
 70
     0
102
RTVSPropertyOp24
 70
     0
102
RTVSPropertyOp25
 70
     0
102
RTVSPropertyOp26
 70
     0
102
RTVSPropertyOp27
 70
     0
102
RTVSPropertyOp28
 70
     1
102
RTVSPropertyOp29
 70
     1
102
RTVSPropertyOp30
 70
     1
102
RTVSPropertyOp31
 70
     1
102
RTVSPropertyOp32
 70
     1
102
RTVSPropertyOp33
 70
     1
102
RTVSPropertyOp34
 70
     1
102
RTVSPropertyOp35
 70
     1
102
RTVSPropertyOp36
 70
     1
102
RTVSPropertyOp37
 70
     0
102
RTVSPropertyOp38
 70
     0
102
RTVSPropertyOp39
 70
     0
102
RTVSPropertyOp40
 70
     0
102
RTVSPropertyOp41
 70
     0
102
RTVSPropertyOp42
 70
     0
102
RTVSPropertyOp43
 70
     0
102
RTVSPropertyOp44
 70
     0
102
RTVSPropertyOp45
 70
     1
102
RTVSPropertyOp46
 70
     0
102
RTVSPropertyOp47
 70
     0
102
RTVSPropertyOp48
 70
     0
102
RTVSPropertyOp49
 70
     1
102
RTVSPropertyOp50
 70
     0
102
RTVSPropertyOp51
 70
     0
102
RTVSPropertyOp52
 70
     0
102
RTVSPropertyOp53
 70
     0
102
RTVSPropertyOp54
 70
     0
102
RTVSPropertyOp55
 70
     1
102
RTVSPropertyOp56
 70
     0
102
RTVSPropertyOp57
 70
     0
102
RTVSPropertyOp58
 70
     0
102
RTVSPropertyOp59
 70
     0
102
RTVSPropertyOp60
 70
     0
102
RTVSPropertyOp61
 70
     0
102
RTVSPropertyOp62
 70
     0
  0
XRECORD
  5
1348
102
{ACAD_REACTORS
330
1347
102
}
330
1347
100
AcDbXrecord
280
     1
102
RTVSPost2010Prop28
280
     0
102
RTVSPost2010PropOp28
 70
     1
102
RTVSPost2010Prop29
280
     1
102
RTVSPost2010PropOp29
 70
     1
102
RTVSPost2010Prop30
280
     1
102
RTVSPost2010PropOp30
 70
     1
102
RTVSPost2010Prop31
280
     0
102
RTVSPost2010PropOp31
 70
     1
102
RTVSPost2010Prop32
280
     0
102
RTVSPost2010PropOp32
 70
     1
102
RTVSPost2010Prop33
280
     0
102
RTVSPost2010PropOp33
 70
     1
102
RTVSPost2010Prop34
280
     0
102
RTVSPost2010PropOp34
 70
     1
102
RTVSPost2010Prop35
280
     0
102
RTVSPost2010PropOp35
 70
     1
102
RTVSPost2010Prop36
280
     0
102
RTVSPost2010PropOp36
 70
     1
102
RTVSPost2010Prop37
 90
       50
102
RTVSPost2010PropOp37
 70
     1
102
RTVSPost2010Prop38
140
0.0
102
RTVSPost2010PropOp38
 70
     1
102
RTVSPost2010Prop39
140
1.0
102
RTVSPost2010PropOp39
 70
     1
102
RTVSPost2010Prop40
 90
        0
102
RTVSPost2010PropOp40
 70
     1
102
RTVSPost2010Prop41ColorIndex
 90
       18
102
RTVSPost2010Prop41ColorRGB
 90
        0
102
RTVSPost2010PropOp41
 70
     1
102
RTVSPost2010Prop42
 90
       50
102
RTVSPost2010PropOp42
 70
     1
102
RTVSPost2010Prop43
 90
        3
102
RTVSPost2010PropOp43
 70
     1
102
RTVSPost2010Prop44ColorIndex
 90
        5
102
RTVSPost2010Prop44ColorRGB
 90
      255
102
RTVSPost2010PropOp44
 70
     1
102
RTVSPost2010Prop45
280
     0
102
RTVSPost2010PropOp45
 70
     1
102
RTVSPost2010Prop46
 90
       50
102
RTVSPost2010PropOp46
 70
     1
102
RTVSPost2010Prop47
 90
       50
102
RTVSPost2010PropOp47
 70
     1
102
RTVSPost2010Prop48
 90
       50
102
RTVSPost2010PropOp48
 70
     1
102
RTVSPost2010Prop49
280
     0
102
RTVSPost2010PropOp49
 70
     1
102
RTVSPost2010Prop50
 90
       50
102
RTVSPost2010PropOp50
 70
     1
102
RTVSPost2010Prop51ColorIndex
 90
      256
102
RTVSPost2010Prop51ColorRGB
 90
-16777216
102
RTVSPost2010PropOp51
 70
     0
102
RTVSPost2010Prop52
140
1.0
102
RTVSPost2010PropOp52
 70
     0
102
RTVSPost2010Prop53
 90
        2
102
RTVSPost2010PropOp53
 70
     1
102
RTVSPost2010Prop54
  1
strokes_ogs.tif
102
RTVSPost2010PropOp54
 70
     1
102
RTVSPost2010Prop55
280
     0
102
RTVSPost2010PropOp55
 70
     1
102
RTVSPost2010Prop56
140
1.0
102
RTVSPost2010PropOp56
 70
     1
102
RTVSPost2010Prop57
140
1.0
102
RTVSPost2010PropOp57
 70
     1
102
RTVSPropertyOp0
 70
     1
102
RTVSPropertyOp1
 70
     1
102
RTVSPropertyOp2
 70
     1
102
RTVSPropertyOp3
 70
     1
102
RTVSPropertyOp4
 70
     1
102
RTVSPropertyOp5
 70
     1
102
RTVSPropertyOp6
 70
     1
102
RTVSPropertyOp7
 70
     1
102
RTVSPropertyOp8
 70
     1
102
RTVSPropertyOp9
 70
     1
102
RTVSPropertyOp10
 70
     1
102
RTVSPropertyOp11
 70
     1
102
RTVSPropertyOp12
 70
     1
102
RTVSPropertyOp13
 70
     1
102
RTVSPropertyOp14
 70
     1
102
RTVSPropertyOp15
 70
     1
102
RTVSPropertyOp16
 70
     1
102
RTVSPropertyOp17
 70
     1
102
RTVSPropertyOp18
 70
     1
102
RTVSPropertyOp19
 70
     1
102
RTVSPropertyOp20
 70
     1
102
RTVSPropertyOp21
 70
     1
102
RTVSPropertyOp22
 70
     1
102
RTVSPropertyOp23
 70
     1
102
RTVSPropertyOp24
 70
     1
102
RTVSPropertyOp25
 70
     1
102
RTVSPropertyOp26
 70
     1
102
RTVSPropertyOp27
 70
     1
102
RTVSPropertyOp28
 70
     1
102
RTVSPropertyOp29
 70
     1
102
RTVSPropertyOp30
 70
     1
102
RTVSPropertyOp31
 70
     1
102
RTVSPropertyOp32
 70
     1
102
RTVSPropertyOp33
 70
     1
102
RTVSPropertyOp34
 70
     1
102
RTVSPropertyOp35
 70
     1
102
RTVSPropertyOp36
 70
     1
102
RTVSPropertyOp37
 70
     1
102
RTVSPropertyOp38
 70
     1
102
RTVSPropertyOp39
 70
     1
102
RTVSPropertyOp40
 70
     1
102
RTVSPropertyOp41
 70
     1
102
RTVSPropertyOp42
 70
     1
102
RTVSPropertyOp43
 70
     1
102
RTVSPropertyOp44
 70
     1
102
RTVSPropertyOp45
 70
     1
102
RTVSPropertyOp46
 70
     1
102
RTVSPropertyOp47
 70
     1
102
RTVSPropertyOp48
 70
     1
102
RTVSPropertyOp49
 70
     1
102
RTVSPropertyOp50
 70
     1
102
RTVSPropertyOp51
 70
     0
102
RTVSPropertyOp52
 70
     0
102
RTVSPropertyOp53
 70
     1
102
RTVSPropertyOp54
 70
     1
102
RTVSPropertyOp55
 70
     1
102
RTVSPropertyOp56
 70
     1
102
RTVSPropertyOp57
 70
     1
102
RTVSPropertyOp58
 70
     1
102
RTVSPropertyOp59
 70
     1
102
RTVSPropertyOp60
 70
     1
102
RTVSPropertyOp61
 70
     1
102
RTVSPropertyOp62
 70
     1
  0
XRECORD
  5
135E
102
{ACAD_REACTORS
330
135D
102
}
330
135D
100
AcDbXrecord
280
     1
102
RTVSPost2010Prop28
280
     0
102
RTVSPost2010PropOp28
 70
     1
102
RTVSPost2010Prop29
280
     1
102
RTVSPost2010PropOp29
 70
     1
102
RTVSPost2010Prop30
280
     1
102
RTVSPost2010PropOp30
 70
     1
102
RTVSPost2010Prop31
280
     0
102
RTVSPost2010PropOp31
 70
     1
102
RTVSPost2010Prop32
280
     0
102
RTVSPost2010PropOp32
 70
     1
102
RTVSPost2010Prop33
280
     0
102
RTVSPost2010PropOp33
 70
     1
102
RTVSPost2010Prop34
280
     0
102
RTVSPost2010PropOp34
 70
     1
102
RTVSPost2010Prop35
280
     0
102
RTVSPost2010PropOp35
 70
     1
102
RTVSPost2010Prop36
280
     0
102
RTVSPost2010PropOp36
 70
     1
102
RTVSPost2010Prop37
 90
       50
102
RTVSPost2010PropOp37
 70
     1
102
RTVSPost2010Prop38
140
0.0
102
RTVSPost2010PropOp38
 70
     1
102
RTVSPost2010Prop39
140
1.0
102
RTVSPost2010PropOp39
 70
     1
102
RTVSPost2010Prop40
 90
        0
102
RTVSPost2010PropOp40
 70
     1
102
RTVSPost2010Prop41ColorIndex
 90
       18
102
RTVSPost2010Prop41ColorRGB
 90
        0
102
RTVSPost2010PropOp41
 70
     1
102
RTVSPost2010Prop42
 90
       50
102
RTVSPost2010PropOp42
 70
     1
102
RTVSPost2010Prop43
 90
        3
102
RTVSPost2010PropOp43
 70
     1
102
RTVSPost2010Prop44ColorIndex
 90
        5
102
RTVSPost2010Prop44ColorRGB
 90
      255
102
RTVSPost2010PropOp44
 70
     1
102
RTVSPost2010Prop45
280
     0
102
RTVSPost2010PropOp45
 70
     1
102
RTVSPost2010Prop46
 90
       50
102
RTVSPost2010PropOp46
 70
     1
102
RTVSPost2010Prop47
 90
       50
102
RTVSPost2010PropOp47
 70
     1
102
RTVSPost2010Prop48
 90
       50
102
RTVSPost2010PropOp48
 70
     1
102
RTVSPost2010Prop49
280
     0
102
RTVSPost2010PropOp49
 70
     1
102
RTVSPost2010Prop50
 90
       50
102
RTVSPost2010PropOp50
 70
     1
102
RTVSPost2010Prop51ColorIndex
 90
      256
102
RTVSPost2010Prop51ColorRGB
 90
-16777216
102
RTVSPost2010PropOp51
 70
     0
102
RTVSPost2010Prop52
140
1.0
102
RTVSPost2010PropOp52
 70
     0
102
RTVSPost2010Prop53
 90
        2
102
RTVSPost2010PropOp53
 70
     1
102
RTVSPost2010Prop54
  1
strokes_ogs.tif
102
RTVSPost2010PropOp54
 70
     1
102
RTVSPost2010Prop55
280
     0
102
RTVSPost2010PropOp55
 70
     1
102
RTVSPost2010Prop56
140
1.0
102
RTVSPost2010PropOp56
 70
     1
102
RTVSPost2010Prop57
140
1.0
102
RTVSPost2010PropOp57
 70
     1
102
RTVSPropertyOp0
 70
     1
102
RTVSPropertyOp1
 70
     1
102
RTVSPropertyOp2
 70
     1
102
RTVSPropertyOp3
 70
     1
102
RTVSPropertyOp4
 70
     1
102
RTVSPropertyOp5
 70
     1
102
RTVSPropertyOp6
 70
     1
102
RTVSPropertyOp7
 70
     1
102
RTVSPropertyOp8
 70
     1
102
RTVSPropertyOp9
 70
     1
102
RTVSPropertyOp10
 70
     1
102
RTVSPropertyOp11
 70
     1
102
RTVSPropertyOp12
 70
     1
102
RTVSPropertyOp13
 70
     1
102
RTVSPropertyOp14
 70
     1
102
RTVSPropertyOp15
 70
     1
102
RTVSPropertyOp16
 70
     1
102
RTVSPropertyOp17
 70
     1
102
RTVSPropertyOp18
 70
     1
102
RTVSPropertyOp19
 70
     1
102
RTVSPropertyOp20
 70
     1
102
RTVSPropertyOp21
 70
     1
102
RTVSPropertyOp22
 70
     1
102
RTVSPropertyOp23
 70
     1
102
RTVSPropertyOp24
 70
     1
102
RTVSPropertyOp25
 70
     1
102
RTVSPropertyOp26
 70
     1
102
RTVSPropertyOp27
 70
     1
102
RTVSPropertyOp28
 70
     1
102
RTVSPropertyOp29
 70
     1
102
RTVSPropertyOp30
 70
     1
102
RTVSPropertyOp31
 70
     1
102
RTVSPropertyOp32
 70
     1
102
RTVSPropertyOp33
 70
     1
102
RTVSPropertyOp34
 70
     1
102
RTVSPropertyOp35
 70
     1
102
RTVSPropertyOp36
 70
     1
102
RTVSPropertyOp37
 70
     1
102
RTVSPropertyOp38
 70
     1
102
RTVSPropertyOp39
 70
     1
102
RTVSPropertyOp40
 70
     1
102
RTVSPropertyOp41
 70
     1
102
RTVSPropertyOp42
 70
     1
102
RTVSPropertyOp43
 70
     1
102
RTVSPropertyOp44
 70
     1
102
RTVSPropertyOp45
 70
     1
102
RTVSPropertyOp46
 70
     1
102
RTVSPropertyOp47
 70
     1
102
RTVSPropertyOp48
 70
     1
102
RTVSPropertyOp49
 70
     1
102
RTVSPropertyOp50
 70
     1
102
RTVSPropertyOp51
 70
     0
102
RTVSPropertyOp52
 70
     0
102
RTVSPropertyOp53
 70
     1
102
RTVSPropertyOp54
 70
     1
102
RTVSPropertyOp55
 70
     1
102
RTVSPropertyOp56
 70
     1
102
RTVSPropertyOp57
 70
     1
102
RTVSPropertyOp58
 70
     1
102
RTVSPropertyOp59
 70
     1
102
RTVSPropertyOp60
 70
     1
102
RTVSPropertyOp61
 70
     1
102
RTVSPropertyOp62
 70
     1
  0
XRECORD
  5
135C
102
{ACAD_REACTORS
330
135B
102
}
330
135B
100
AcDbXrecord
280
     1
102
RTVSPost2010Prop28
280
     0
102
RTVSPost2010PropOp28
 70
     1
102
RTVSPost2010Prop29
280
     1
102
RTVSPost2010PropOp29
 70
     1
102
RTVSPost2010Prop30
280
     1
102
RTVSPost2010PropOp30
 70
     1
102
RTVSPost2010Prop31
280
     0
102
RTVSPost2010PropOp31
 70
     1
102
RTVSPost2010Prop32
280
     0
102
RTVSPost2010PropOp32
 70
     1
102
RTVSPost2010Prop33
280
     0
102
RTVSPost2010PropOp33
 70
     1
102
RTVSPost2010Prop34
280
     0
102
RTVSPost2010PropOp34
 70
     1
102
RTVSPost2010Prop35
280
     0
102
RTVSPost2010PropOp35
 70
     1
102
RTVSPost2010Prop36
280
     0
102
RTVSPost2010PropOp36
 70
     1
102
RTVSPost2010Prop37
 90
       50
102
RTVSPost2010PropOp37
 70
     1
102
RTVSPost2010Prop38
140
0.0
102
RTVSPost2010PropOp38
 70
     1
102
RTVSPost2010Prop39
140
1.0
102
RTVSPost2010PropOp39
 70
     1
102
RTVSPost2010Prop40
 90
        0
102
RTVSPost2010PropOp40
 70
     1
102
RTVSPost2010Prop41ColorIndex
 90
       18
102
RTVSPost2010Prop41ColorRGB
 90
        0
102
RTVSPost2010PropOp41
 70
     1
102
RTVSPost2010Prop42
 90
       50
102
RTVSPost2010PropOp42
 70
     1
102
RTVSPost2010Prop43
 90
        3
102
RTVSPost2010PropOp43
 70
     1
102
RTVSPost2010Prop44ColorIndex
 90
        5
102
RTVSPost2010Prop44ColorRGB
 90
      255
102
RTVSPost2010PropOp44
 70
     1
102
RTVSPost2010Prop45
280
     0
102
RTVSPost2010PropOp45
 70
     1
102
RTVSPost2010Prop46
 90
       50
102
RTVSPost2010PropOp46
 70
     1
102
RTVSPost2010Prop47
 90
       50
102
RTVSPost2010PropOp47
 70
     1
102
RTVSPost2010Prop48
 90
       50
102
RTVSPost2010PropOp48
 70
     1
102
RTVSPost2010Prop49
280
     0
102
RTVSPost2010PropOp49
 70
     1
102
RTVSPost2010Prop50
 90
       50
102
RTVSPost2010PropOp50
 70
     1
102
RTVSPost2010Prop51ColorIndex
 90
      256
102
RTVSPost2010Prop51ColorRGB
 90
-16777216
102
RTVSPost2010PropOp51
 70
     0
102
RTVSPost2010Prop52
140
1.0
102
RTVSPost2010PropOp52
 70
     0
102
RTVSPost2010Prop53
 90
        2
102
RTVSPost2010PropOp53
 70
     1
102
RTVSPost2010Prop54
  1
strokes_ogs.tif
102
RTVSPost2010PropOp54
 70
     1
102
RTVSPost2010Prop55
280
     0
102
RTVSPost2010PropOp55
 70
     1
102
RTVSPost2010Prop56
140
1.0
102
RTVSPost2010PropOp56
 70
     1
102
RTVSPost2010Prop57
140
1.0
102
RTVSPost2010PropOp57
 70
     1
102
RTVSPropertyOp0
 70
     1
102
RTVSPropertyOp1
 70
     1
102
RTVSPropertyOp2
 70
     1
102
RTVSPropertyOp3
 70
     1
102
RTVSPropertyOp4
 70
     1
102
RTVSPropertyOp5
 70
     1
102
RTVSPropertyOp6
 70
     1
102
RTVSPropertyOp7
 70
     1
102
RTVSPropertyOp8
 70
     1
102
RTVSPropertyOp9
 70
     1
102
RTVSPropertyOp10
 70
     1
102
RTVSPropertyOp11
 70
     1
102
RTVSPropertyOp12
 70
     1
102
RTVSPropertyOp13
 70
     1
102
RTVSPropertyOp14
 70
     1
102
RTVSPropertyOp15
 70
     1
102
RTVSPropertyOp16
 70
     1
102
RTVSPropertyOp17
 70
     1
102
RTVSPropertyOp18
 70
     1
102
RTVSPropertyOp19
 70
     1
102
RTVSPropertyOp20
 70
     1
102
RTVSPropertyOp21
 70
     1
102
RTVSPropertyOp22
 70
     1
102
RTVSPropertyOp23
 70
     1
102
RTVSPropertyOp24
 70
     1
102
RTVSPropertyOp25
 70
     1
102
RTVSPropertyOp26
 70
     1
102
RTVSPropertyOp27
 70
     1
102
RTVSPropertyOp28
 70
     1
102
RTVSPropertyOp29
 70
     1
102
RTVSPropertyOp30
 70
     1
102
RTVSPropertyOp31
 70
     1
102
RTVSPropertyOp32
 70
     1
102
RTVSPropertyOp33
 70
     1
102
RTVSPropertyOp34
 70
     1
102
RTVSPropertyOp35
 70
     1
102
RTVSPropertyOp36
 70
     1
102
RTVSPropertyOp37
 70
     1
102
RTVSPropertyOp38
 70
     1
102
RTVSPropertyOp39
 70
     1
102
RTVSPropertyOp40
 70
     1
102
RTVSPropertyOp41
 70
     1
102
RTVSPropertyOp42
 70
     1
102
RTVSPropertyOp43
 70
     1
102
RTVSPropertyOp44
 70
     1
102
RTVSPropertyOp45
 70
     1
102
RTVSPropertyOp46
 70
     1
102
RTVSPropertyOp47
 70
     1
102
RTVSPropertyOp48
 70
     1
102
RTVSPropertyOp49
 70
     1
102
RTVSPropertyOp50
 70
     1
102
RTVSPropertyOp51
 70
     0
102
RTVSPropertyOp52
 70
     0
102
RTVSPropertyOp53
 70
     1
102
RTVSPropertyOp54
 70
     1
102
RTVSPropertyOp55
 70
     1
102
RTVSPropertyOp56
 70
     1
102
RTVSPropertyOp57
 70
     1
102
RTVSPropertyOp58
 70
     1
102
RTVSPropertyOp59
 70
     1
102
RTVSPropertyOp60
 70
     1
102
RTVSPropertyOp61
 70
     1
102
RTVSPropertyOp62
 70
     1
  0
XRECORD
  5
1356
102
{ACAD_REACTORS
330
1355
102
}
330
1355
100
AcDbXrecord
280
     1
102
RTVSPost2010Prop28
280
     0
102
RTVSPost2010PropOp28
 70
     1
102
RTVSPost2010Prop29
280
     1
102
RTVSPost2010PropOp29
 70
     1
102
RTVSPost2010Prop30
280
     1
102
RTVSPost2010PropOp30
 70
     1
102
RTVSPost2010Prop31
280
     0
102
RTVSPost2010PropOp31
 70
     1
102
RTVSPost2010Prop32
280
     0
102
RTVSPost2010PropOp32
 70
     1
102
RTVSPost2010Prop33
280
     0
102
RTVSPost2010PropOp33
 70
     1
102
RTVSPost2010Prop34
280
     0
102
RTVSPost2010PropOp34
 70
     1
102
RTVSPost2010Prop35
280
     0
102
RTVSPost2010PropOp35
 70
     1
102
RTVSPost2010Prop36
280
     0
102
RTVSPost2010PropOp36
 70
     1
102
RTVSPost2010Prop37
 90
       50
102
RTVSPost2010PropOp37
 70
     1
102
RTVSPost2010Prop38
140
0.0
102
RTVSPost2010PropOp38
 70
     1
102
RTVSPost2010Prop39
140
1.0
102
RTVSPost2010PropOp39
 70
     1
102
RTVSPost2010Prop40
 90
        0
102
RTVSPost2010PropOp40
 70
     1
102
RTVSPost2010Prop41ColorIndex
 90
       18
102
RTVSPost2010Prop41ColorRGB
 90
        0
102
RTVSPost2010PropOp41
 70
     1
102
RTVSPost2010Prop42
 90
       50
102
RTVSPost2010PropOp42
 70
     1
102
RTVSPost2010Prop43
 90
        3
102
RTVSPost2010PropOp43
 70
     1
102
RTVSPost2010Prop44ColorIndex
 90
        5
102
RTVSPost2010Prop44ColorRGB
 90
      255
102
RTVSPost2010PropOp44
 70
     1
102
RTVSPost2010Prop45
280
     0
102
RTVSPost2010PropOp45
 70
     1
102
RTVSPost2010Prop46
 90
       50
102
RTVSPost2010PropOp46
 70
     1
102
RTVSPost2010Prop47
 90
       50
102
RTVSPost2010PropOp47
 70
     1
102
RTVSPost2010Prop48
 90
       50
102
RTVSPost2010PropOp48
 70
     1
102
RTVSPost2010Prop49
280
     0
102
RTVSPost2010PropOp49
 70
     1
102
RTVSPost2010Prop50
 90
       50
102
RTVSPost2010PropOp50
 70
     1
102
RTVSPost2010Prop51ColorIndex
 90
      256
102
RTVSPost2010Prop51ColorRGB
 90
-16777216
102
RTVSPost2010PropOp51
 70
     0
102
RTVSPost2010Prop52
140
1.0
102
RTVSPost2010PropOp52
 70
     0
102
RTVSPost2010Prop53
 90
        2
102
RTVSPost2010PropOp53
 70
     1
102
RTVSPost2010Prop54
  1
strokes_ogs.tif
102
RTVSPost2010PropOp54
 70
     1
102
RTVSPost2010Prop55
280
     0
102
RTVSPost2010PropOp55
 70
     1
102
RTVSPost2010Prop56
140
1.0
102
RTVSPost2010PropOp56
 70
     1
102
RTVSPost2010Prop57
140
1.0
102
RTVSPost2010PropOp57
 70
     1
102
RTVSPropertyOp0
 70
     1
102
RTVSPropertyOp1
 70
     1
102
RTVSPropertyOp2
 70
     1
102
RTVSPropertyOp3
 70
     1
102
RTVSPropertyOp4
 70
     1
102
RTVSPropertyOp5
 70
     1
102
RTVSPropertyOp6
 70
     1
102
RTVSPropertyOp7
 70
     1
102
RTVSPropertyOp8
 70
     1
102
RTVSPropertyOp9
 70
     1
102
RTVSPropertyOp10
 70
     1
102
RTVSPropertyOp11
 70
     1
102
RTVSPropertyOp12
 70
     1
102
RTVSPropertyOp13
 70
     1
102
RTVSPropertyOp14
 70
     1
102
RTVSPropertyOp15
 70
     1
102
RTVSPropertyOp16
 70
     1
102
RTVSPropertyOp17
 70
     1
102
RTVSPropertyOp18
 70
     1
102
RTVSPropertyOp19
 70
     1
102
RTVSPropertyOp20
 70
     1
102
RTVSPropertyOp21
 70
     1
102
RTVSPropertyOp22
 70
     1
102
RTVSPropertyOp23
 70
     1
102
RTVSPropertyOp24
 70
     1
102
RTVSPropertyOp25
 70
     1
102
RTVSPropertyOp26
 70
     1
102
RTVSPropertyOp27
 70
     1
102
RTVSPropertyOp28
 70
     1
102
RTVSPropertyOp29
 70
     1
102
RTVSPropertyOp30
 70
     1
102
RTVSPropertyOp31
 70
     1
102
RTVSPropertyOp32
 70
     1
102
RTVSPropertyOp33
 70
     1
102
RTVSPropertyOp34
 70
     1
102
RTVSPropertyOp35
 70
     1
102
RTVSPropertyOp36
 70
     1
102
RTVSPropertyOp37
 70
     1
102
RTVSPropertyOp38
 70
     1
102
RTVSPropertyOp39
 70
     1
102
RTVSPropertyOp40
 70
     1
102
RTVSPropertyOp41
 70
     1
102
RTVSPropertyOp42
 70
     1
102
RTVSPropertyOp43
 70
     1
102
RTVSPropertyOp44
 70
     1
102
RTVSPropertyOp45
 70
     1
102
RTVSPropertyOp46
 70
     1
102
RTVSPropertyOp47
 70
     1
102
RTVSPropertyOp48
 70
     1
102
RTVSPropertyOp49
 70
     1
102
RTVSPropertyOp50
 70
     1
102
RTVSPropertyOp51
 70
     0
102
RTVSPropertyOp52
 70
     0
102
RTVSPropertyOp53
 70
     1
102
RTVSPropertyOp54
 70
     1
102
RTVSPropertyOp55
 70
     1
102
RTVSPropertyOp56
 70
     1
102
RTVSPropertyOp57
 70
     1
102
RTVSPropertyOp58
 70
     1
102
RTVSPropertyOp59
 70
     1
102
RTVSPropertyOp60
 70
     1
102
RTVSPropertyOp61
 70
     1
102
RTVSPropertyOp62
 70
     1
  0
XRECORD
  5
1358
102
{ACAD_REACTORS
330
1357
102
}
330
1357
100
AcDbXrecord
280
     1
102
RTVSPost2010Prop28
280
     0
102
RTVSPost2010PropOp28
 70
     1
102
RTVSPost2010Prop29
280
     1
102
RTVSPost2010PropOp29
 70
     1
102
RTVSPost2010Prop30
280
     1
102
RTVSPost2010PropOp30
 70
     1
102
RTVSPost2010Prop31
280
     0
102
RTVSPost2010PropOp31
 70
     1
102
RTVSPost2010Prop32
280
     0
102
RTVSPost2010PropOp32
 70
     1
102
RTVSPost2010Prop33
280
     0
102
RTVSPost2010PropOp33
 70
     1
102
RTVSPost2010Prop34
280
     0
102
RTVSPost2010PropOp34
 70
     1
102
RTVSPost2010Prop35
280
     0
102
RTVSPost2010PropOp35
 70
     1
102
RTVSPost2010Prop36
280
     0
102
RTVSPost2010PropOp36
 70
     1
102
RTVSPost2010Prop37
 90
       50
102
RTVSPost2010PropOp37
 70
     1
102
RTVSPost2010Prop38
140
0.0
102
RTVSPost2010PropOp38
 70
     1
102
RTVSPost2010Prop39
140
1.0
102
RTVSPost2010PropOp39
 70
     1
102
RTVSPost2010Prop40
 90
        0
102
RTVSPost2010PropOp40
 70
     1
102
RTVSPost2010Prop41ColorIndex
 90
       18
102
RTVSPost2010Prop41ColorRGB
 90
        0
102
RTVSPost2010PropOp41
 70
     1
102
RTVSPost2010Prop42
 90
       50
102
RTVSPost2010PropOp42
 70
     1
102
RTVSPost2010Prop43
 90
        3
102
RTVSPost2010PropOp43
 70
     1
102
RTVSPost2010Prop44ColorIndex
 90
        5
102
RTVSPost2010Prop44ColorRGB
 90
      255
102
RTVSPost2010PropOp44
 70
     1
102
RTVSPost2010Prop45
280
     0
102
RTVSPost2010PropOp45
 70
     1
102
RTVSPost2010Prop46
 90
       50
102
RTVSPost2010PropOp46
 70
     1
102
RTVSPost2010Prop47
 90
       50
102
RTVSPost2010PropOp47
 70
     1
102
RTVSPost2010Prop48
 90
       50
102
RTVSPost2010PropOp48
 70
     1
102
RTVSPost2010Prop49
280
     0
102
RTVSPost2010PropOp49
 70
     1
102
RTVSPost2010Prop50
 90
       50
102
RTVSPost2010PropOp50
 70
     1
102
RTVSPost2010Prop51ColorIndex
 90
      256
102
RTVSPost2010Prop51ColorRGB
 90
-16777216
102
RTVSPost2010PropOp51
 70
     0
102
RTVSPost2010Prop52
140
1.0
102
RTVSPost2010PropOp52
 70
     0
102
RTVSPost2010Prop53
 90
        2
102
RTVSPost2010PropOp53
 70
     1
102
RTVSPost2010Prop54
  1
strokes_ogs.tif
102
RTVSPost2010PropOp54
 70
     1
102
RTVSPost2010Prop55
280
     0
102
RTVSPost2010PropOp55
 70
     1
102
RTVSPost2010Prop56
140
1.0
102
RTVSPost2010PropOp56
 70
     1
102
RTVSPost2010Prop57
140
1.0
102
RTVSPost2010PropOp57
 70
     1
102
RTVSPropertyOp0
 70
     1
102
RTVSPropertyOp1
 70
     1
102
RTVSPropertyOp2
 70
     1
102
RTVSPropertyOp3
 70
     1
102
RTVSPropertyOp4
 70
     1
102
RTVSPropertyOp5
 70
     1
102
RTVSPropertyOp6
 70
     1
102
RTVSPropertyOp7
 70
     1
102
RTVSPropertyOp8
 70
     1
102
RTVSPropertyOp9
 70
     1
102
RTVSPropertyOp10
 70
     1
102
RTVSPropertyOp11
 70
     1
102
RTVSPropertyOp12
 70
     1
102
RTVSPropertyOp13
 70
     1
102
RTVSPropertyOp14
 70
     1
102
RTVSPropertyOp15
 70
     1
102
RTVSPropertyOp16
 70
     1
102
RTVSPropertyOp17
 70
     1
102
RTVSPropertyOp18
 70
     1
102
RTVSPropertyOp19
 70
     1
102
RTVSPropertyOp20
 70
     1
102
RTVSPropertyOp21
 70
     1
102
RTVSPropertyOp22
 70
     1
102
RTVSPropertyOp23
 70
     1
102
RTVSPropertyOp24
 70
     1
102
RTVSPropertyOp25
 70
     1
102
RTVSPropertyOp26
 70
     1
102
RTVSPropertyOp27
 70
     1
102
RTVSPropertyOp28
 70
     1
102
RTVSPropertyOp29
 70
     1
102
RTVSPropertyOp30
 70
     1
102
RTVSPropertyOp31
 70
     1
102
RTVSPropertyOp32
 70
     1
102
RTVSPropertyOp33
 70
     1
102
RTVSPropertyOp34
 70
     1
102
RTVSPropertyOp35
 70
     1
102
RTVSPropertyOp36
 70
     1
102
RTVSPropertyOp37
 70
     1
102
RTVSPropertyOp38
 70
     1
102
RTVSPropertyOp39
 70
     1
102
RTVSPropertyOp40
 70
     1
102
RTVSPropertyOp41
 70
     1
102
RTVSPropertyOp42
 70
     1
102
RTVSPropertyOp43
 70
     1
102
RTVSPropertyOp44
 70
     1
102
RTVSPropertyOp45
 70
     1
102
RTVSPropertyOp46
 70
     1
102
RTVSPropertyOp47
 70
     1
102
RTVSPropertyOp48
 70
     1
102
RTVSPropertyOp49
 70
     1
102
RTVSPropertyOp50
 70
     1
102
RTVSPropertyOp51
 70
     0
102
RTVSPropertyOp52
 70
     0
102
RTVSPropertyOp53
 70
     1
102
RTVSPropertyOp54
 70
     1
102
RTVSPropertyOp55
 70
     1
102
RTVSPropertyOp56
 70
     1
102
RTVSPropertyOp57
 70
     1
102
RTVSPropertyOp58
 70
     1
102
RTVSPropertyOp59
 70
     1
102
RTVSPropertyOp60
 70
     1
102
RTVSPropertyOp61
 70
     1
102
RTVSPropertyOp62
 70
     1
  0
XRECORD
  5
134E
102
{ACAD_REACTORS
330
134D
102
}
330
134D
100
AcDbXrecord
280
     1
102
RTVSPost2010Prop28
280
     0
102
RTVSPost2010PropOp28
 70
     1
102
RTVSPost2010Prop29
280
     1
102
RTVSPost2010PropOp29
 70
     1
102
RTVSPost2010Prop30
280
     1
102
RTVSPost2010PropOp30
 70
     1
102
RTVSPost2010Prop31
280
     0
102
RTVSPost2010PropOp31
 70
     1
102
RTVSPost2010Prop32
280
     0
102
RTVSPost2010PropOp32
 70
     1
102
RTVSPost2010Prop33
280
     0
102
RTVSPost2010PropOp33
 70
     1
102
RTVSPost2010Prop34
280
     0
102
RTVSPost2010PropOp34
 70
     1
102
RTVSPost2010Prop35
280
     0
102
RTVSPost2010PropOp35
 70
     1
102
RTVSPost2010Prop36
280
     0
102
RTVSPost2010PropOp36
 70
     1
102
RTVSPost2010Prop37
 90
       50
102
RTVSPost2010PropOp37
 70
     1
102
RTVSPost2010Prop38
140
0.0
102
RTVSPost2010PropOp38
 70
     1
102
RTVSPost2010Prop39
140
1.0
102
RTVSPost2010PropOp39
 70
     1
102
RTVSPost2010Prop40
 90
        0
102
RTVSPost2010PropOp40
 70
     1
102
RTVSPost2010Prop41ColorIndex
 90
       18
102
RTVSPost2010Prop41ColorRGB
 90
        0
102
RTVSPost2010PropOp41
 70
     1
102
RTVSPost2010Prop42
 90
       50
102
RTVSPost2010PropOp42
 70
     1
102
RTVSPost2010Prop43
 90
        3
102
RTVSPost2010PropOp43
 70
     1
102
RTVSPost2010Prop44ColorIndex
 90
        5
102
RTVSPost2010Prop44ColorRGB
 90
      255
102
RTVSPost2010PropOp44
 70
     1
102
RTVSPost2010Prop45
280
     0
102
RTVSPost2010PropOp45
 70
     1
102
RTVSPost2010Prop46
 90
       50
102
RTVSPost2010PropOp46
 70
     1
102
RTVSPost2010Prop47
 90
       50
102
RTVSPost2010PropOp47
 70
     1
102
RTVSPost2010Prop48
 90
       50
102
RTVSPost2010PropOp48
 70
     1
102
RTVSPost2010Prop49
280
     0
102
RTVSPost2010PropOp49
 70
     1
102
RTVSPost2010Prop50
 90
       50
102
RTVSPost2010PropOp50
 70
     1
102
RTVSPost2010Prop51ColorIndex
 90
      256
102
RTVSPost2010Prop51ColorRGB
 90
-16777216
102
RTVSPost2010PropOp51
 70
     0
102
RTVSPost2010Prop52
140
1.0
102
RTVSPost2010PropOp52
 70
     0
102
RTVSPost2010Prop53
 90
        2
102
RTVSPost2010PropOp53
 70
     1
102
RTVSPost2010Prop54
  1
strokes_ogs.tif
102
RTVSPost2010PropOp54
 70
     1
102
RTVSPost2010Prop55
280
     0
102
RTVSPost2010PropOp55
 70
     1
102
RTVSPost2010Prop56
140
1.0
102
RTVSPost2010PropOp56
 70
     1
102
RTVSPost2010Prop57
140
1.0
102
RTVSPost2010PropOp57
 70
     1
102
RTVSPropertyOp0
 70
     1
102
RTVSPropertyOp1
 70
     1
102
RTVSPropertyOp2
 70
     1
102
RTVSPropertyOp3
 70
     1
102
RTVSPropertyOp4
 70
     1
102
RTVSPropertyOp5
 70
     1
102
RTVSPropertyOp6
 70
     1
102
RTVSPropertyOp7
 70
     1
102
RTVSPropertyOp8
 70
     1
102
RTVSPropertyOp9
 70
     1
102
RTVSPropertyOp10
 70
     1
102
RTVSPropertyOp11
 70
     1
102
RTVSPropertyOp12
 70
     1
102
RTVSPropertyOp13
 70
     1
102
RTVSPropertyOp14
 70
     1
102
RTVSPropertyOp15
 70
     1
102
RTVSPropertyOp16
 70
     1
102
RTVSPropertyOp17
 70
     1
102
RTVSPropertyOp18
 70
     1
102
RTVSPropertyOp19
 70
     1
102
RTVSPropertyOp20
 70
     1
102
RTVSPropertyOp21
 70
     1
102
RTVSPropertyOp22
 70
     1
102
RTVSPropertyOp23
 70
     1
102
RTVSPropertyOp24
 70
     1
102
RTVSPropertyOp25
 70
     1
102
RTVSPropertyOp26
 70
     1
102
RTVSPropertyOp27
 70
     1
102
RTVSPropertyOp28
 70
     1
102
RTVSPropertyOp29
 70
     1
102
RTVSPropertyOp30
 70
     1
102
RTVSPropertyOp31
 70
     1
102
RTVSPropertyOp32
 70
     1
102
RTVSPropertyOp33
 70
     1
102
RTVSPropertyOp34
 70
     1
102
RTVSPropertyOp35
 70
     1
102
RTVSPropertyOp36
 70
     1
102
RTVSPropertyOp37
 70
     1
102
RTVSPropertyOp38
 70
     1
102
RTVSPropertyOp39
 70
     1
102
RTVSPropertyOp40
 70
     1
102
RTVSPropertyOp41
 70
     1
102
RTVSPropertyOp42
 70
     1
102
RTVSPropertyOp43
 70
     1
102
RTVSPropertyOp44
 70
     1
102
RTVSPropertyOp45
 70
     1
102
RTVSPropertyOp46
 70
     1
102
RTVSPropertyOp47
 70
     1
102
RTVSPropertyOp48
 70
     1
102
RTVSPropertyOp49
 70
     1
102
RTVSPropertyOp50
 70
     1
102
RTVSPropertyOp51
 70
     0
102
RTVSPropertyOp52
 70
     0
102
RTVSPropertyOp53
 70
     1
102
RTVSPropertyOp54
 70
     1
102
RTVSPropertyOp55
 70
     1
102
RTVSPropertyOp56
 70
     1
102
RTVSPropertyOp57
 70
     1
102
RTVSPropertyOp58
 70
     1
102
RTVSPropertyOp59
 70
     1
102
RTVSPropertyOp60
 70
     1
102
RTVSPropertyOp61
 70
     1
102
RTVSPropertyOp62
 70
     1
  0
XRECORD
  5
1342
102
{ACAD_REACTORS
330
1341
102
}
330
1341
100
AcDbXrecord
280
     1
102
RTVSPost2010Prop28
280
     0
102
RTVSPost2010PropOp28
 70
     1
102
RTVSPost2010Prop29
280
     1
102
RTVSPost2010PropOp29
 70
     1
102
RTVSPost2010Prop30
280
     1
102
RTVSPost2010PropOp30
 70
     1
102
RTVSPost2010Prop31
280
     0
102
RTVSPost2010PropOp31
 70
     1
102
RTVSPost2010Prop32
280
     0
102
RTVSPost2010PropOp32
 70
     1
102
RTVSPost2010Prop33
280
     0
102
RTVSPost2010PropOp33
 70
     1
102
RTVSPost2010Prop34
280
     0
102
RTVSPost2010PropOp34
 70
     1
102
RTVSPost2010Prop35
280
     0
102
RTVSPost2010PropOp35
 70
     1
102
RTVSPost2010Prop36
280
     0
102
RTVSPost2010PropOp36
 70
     1
102
RTVSPost2010Prop37
 90
       50
102
RTVSPost2010PropOp37
 70
     1
102
RTVSPost2010Prop38
140
0.0
102
RTVSPost2010PropOp38
 70
     1
102
RTVSPost2010Prop39
140
1.0
102
RTVSPost2010PropOp39
 70
     1
102
RTVSPost2010Prop40
 90
        0
102
RTVSPost2010PropOp40
 70
     1
102
RTVSPost2010Prop41ColorIndex
 90
       18
102
RTVSPost2010Prop41ColorRGB
 90
        0
102
RTVSPost2010PropOp41
 70
     1
102
RTVSPost2010Prop42
 90
       50
102
RTVSPost2010PropOp42
 70
     1
102
RTVSPost2010Prop43
 90
        3
102
RTVSPost2010PropOp43
 70
     1
102
RTVSPost2010Prop44ColorIndex
 90
        5
102
RTVSPost2010Prop44ColorRGB
 90
      255
102
RTVSPost2010PropOp44
 70
     1
102
RTVSPost2010Prop45
280
     0
102
RTVSPost2010PropOp45
 70
     1
102
RTVSPost2010Prop46
 90
       50
102
RTVSPost2010PropOp46
 70
     1
102
RTVSPost2010Prop47
 90
       50
102
RTVSPost2010PropOp47
 70
     1
102
RTVSPost2010Prop48
 90
       50
102
RTVSPost2010PropOp48
 70
     1
102
RTVSPost2010Prop49
280
     0
102
RTVSPost2010PropOp49
 70
     1
102
RTVSPost2010Prop50
 90
       50
102
RTVSPost2010PropOp50
 70
     1
102
RTVSPost2010Prop51ColorIndex
 90
      256
102
RTVSPost2010Prop51ColorRGB
 90
-16777216
102
RTVSPost2010PropOp51
 70
     0
102
RTVSPost2010Prop52
140
1.0
102
RTVSPost2010PropOp52
 70
     0
102
RTVSPost2010Prop53
 90
        2
102
RTVSPost2010PropOp53
 70
     1
102
RTVSPost2010Prop54
  1
strokes_ogs.tif
102
RTVSPost2010PropOp54
 70
     1
102
RTVSPost2010Prop55
280
     0
102
RTVSPost2010PropOp55
 70
     1
102
RTVSPost2010Prop56
140
1.0
102
RTVSPost2010PropOp56
 70
     1
102
RTVSPost2010Prop57
140
1.0
102
RTVSPost2010PropOp57
 70
     1
102
RTVSPropertyOp0
 70
     1
102
RTVSPropertyOp1
 70
     1
102
RTVSPropertyOp2
 70
     1
102
RTVSPropertyOp3
 70
     1
102
RTVSPropertyOp4
 70
     1
102
RTVSPropertyOp5
 70
     1
102
RTVSPropertyOp6
 70
     1
102
RTVSPropertyOp7
 70
     1
102
RTVSPropertyOp8
 70
     1
102
RTVSPropertyOp9
 70
     1
102
RTVSPropertyOp10
 70
     1
102
RTVSPropertyOp11
 70
     1
102
RTVSPropertyOp12
 70
     1
102
RTVSPropertyOp13
 70
     1
102
RTVSPropertyOp14
 70
     1
102
RTVSPropertyOp15
 70
     1
102
RTVSPropertyOp16
 70
     1
102
RTVSPropertyOp17
 70
     1
102
RTVSPropertyOp18
 70
     1
102
RTVSPropertyOp19
 70
     1
102
RTVSPropertyOp20
 70
     1
102
RTVSPropertyOp21
 70
     1
102
RTVSPropertyOp22
 70
     1
102
RTVSPropertyOp23
 70
     1
102
RTVSPropertyOp24
 70
     1
102
RTVSPropertyOp25
 70
     1
102
RTVSPropertyOp26
 70
     1
102
RTVSPropertyOp27
 70
     1
102
RTVSPropertyOp28
 70
     1
102
RTVSPropertyOp29
 70
     1
102
RTVSPropertyOp30
 70
     1
102
RTVSPropertyOp31
 70
     1
102
RTVSPropertyOp32
 70
     1
102
RTVSPropertyOp33
 70
     1
102
RTVSPropertyOp34
 70
     1
102
RTVSPropertyOp35
 70
     1
102
RTVSPropertyOp36
 70
     1
102
RTVSPropertyOp37
 70
     1
102
RTVSPropertyOp38
 70
     1
102
RTVSPropertyOp39
 70
     1
102
RTVSPropertyOp40
 70
     1
102
RTVSPropertyOp41
 70
     1
102
RTVSPropertyOp42
 70
     1
102
RTVSPropertyOp43
 70
     1
102
RTVSPropertyOp44
 70
     1
102
RTVSPropertyOp45
 70
     1
102
RTVSPropertyOp46
 70
     1
102
RTVSPropertyOp47
 70
     1
102
RTVSPropertyOp48
 70
     1
102
RTVSPropertyOp49
 70
     1
102
RTVSPropertyOp50
 70
     1
102
RTVSPropertyOp51
 70
     0
102
RTVSPropertyOp52
 70
     0
102
RTVSPropertyOp53
 70
     1
102
RTVSPropertyOp54
 70
     1
102
RTVSPropertyOp55
 70
     1
102
RTVSPropertyOp56
 70
     1
102
RTVSPropertyOp57
 70
     1
102
RTVSPropertyOp58
 70
     1
102
RTVSPropertyOp59
 70
     1
102
RTVSPropertyOp60
 70
     1
102
RTVSPropertyOp61
 70
     1
102
RTVSPropertyOp62
 70
     1
  0
XRECORD
  5
135A
102
{ACAD_REACTORS
330
1359
102
}
330
1359
100
AcDbXrecord
280
     1
102
RTVSPost2010Prop28
280
     0
102
RTVSPost2010PropOp28
 70
     1
102
RTVSPost2010Prop29
280
     1
102
RTVSPost2010PropOp29
 70
     1
102
RTVSPost2010Prop30
280
     1
102
RTVSPost2010PropOp30
 70
     1
102
RTVSPost2010Prop31
280
     0
102
RTVSPost2010PropOp31
 70
     1
102
RTVSPost2010Prop32
280
     0
102
RTVSPost2010PropOp32
 70
     1
102
RTVSPost2010Prop33
280
     0
102
RTVSPost2010PropOp33
 70
     1
102
RTVSPost2010Prop34
280
     0
102
RTVSPost2010PropOp34
 70
     1
102
RTVSPost2010Prop35
280
     0
102
RTVSPost2010PropOp35
 70
     1
102
RTVSPost2010Prop36
280
     0
102
RTVSPost2010PropOp36
 70
     1
102
RTVSPost2010Prop37
 90
       50
102
RTVSPost2010PropOp37
 70
     1
102
RTVSPost2010Prop38
140
0.0
102
RTVSPost2010PropOp38
 70
     1
102
RTVSPost2010Prop39
140
1.0
102
RTVSPost2010PropOp39
 70
     1
102
RTVSPost2010Prop40
 90
        0
102
RTVSPost2010PropOp40
 70
     1
102
RTVSPost2010Prop41ColorIndex
 90
       18
102
RTVSPost2010Prop41ColorRGB
 90
        0
102
RTVSPost2010PropOp41
 70
     1
102
RTVSPost2010Prop42
 90
       50
102
RTVSPost2010PropOp42
 70
     1
102
RTVSPost2010Prop43
 90
        3
102
RTVSPost2010PropOp43
 70
     1
102
RTVSPost2010Prop44ColorIndex
 90
        5
102
RTVSPost2010Prop44ColorRGB
 90
      255
102
RTVSPost2010PropOp44
 70
     1
102
RTVSPost2010Prop45
280
     0
102
RTVSPost2010PropOp45
 70
     1
102
RTVSPost2010Prop46
 90
       50
102
RTVSPost2010PropOp46
 70
     1
102
RTVSPost2010Prop47
 90
       50
102
RTVSPost2010PropOp47
 70
     1
102
RTVSPost2010Prop48
 90
       50
102
RTVSPost2010PropOp48
 70
     1
102
RTVSPost2010Prop49
280
     0
102
RTVSPost2010PropOp49
 70
     1
102
RTVSPost2010Prop50
 90
       50
102
RTVSPost2010PropOp50
 70
     1
102
RTVSPost2010Prop51ColorIndex
 90
      256
102
RTVSPost2010Prop51ColorRGB
 90
-16777216
102
RTVSPost2010PropOp51
 70
     0
102
RTVSPost2010Prop52
140
1.0
102
RTVSPost2010PropOp52
 70
     0
102
RTVSPost2010Prop53
 90
        2
102
RTVSPost2010PropOp53
 70
     1
102
RTVSPost2010Prop54
  1
strokes_ogs.tif
102
RTVSPost2010PropOp54
 70
     1
102
RTVSPost2010Prop55
280
     0
102
RTVSPost2010PropOp55
 70
     1
102
RTVSPost2010Prop56
140
1.0
102
RTVSPost2010PropOp56
 70
     1
102
RTVSPost2010Prop57
140
1.0
102
RTVSPost2010PropOp57
 70
     1
102
RTVSPropertyOp0
 70
     1
102
RTVSPropertyOp1
 70
     1
102
RTVSPropertyOp2
 70
     1
102
RTVSPropertyOp3
 70
     1
102
RTVSPropertyOp4
 70
     1
102
RTVSPropertyOp5
 70
     1
102
RTVSPropertyOp6
 70
     1
102
RTVSPropertyOp7
 70
     1
102
RTVSPropertyOp8
 70
     1
102
RTVSPropertyOp9
 70
     1
102
RTVSPropertyOp10
 70
     1
102
RTVSPropertyOp11
 70
     1
102
RTVSPropertyOp12
 70
     1
102
RTVSPropertyOp13
 70
     1
102
RTVSPropertyOp14
 70
     1
102
RTVSPropertyOp15
 70
     1
102
RTVSPropertyOp16
 70
     1
102
RTVSPropertyOp17
 70
     1
102
RTVSPropertyOp18
 70
     1
102
RTVSPropertyOp19
 70
     1
102
RTVSPropertyOp20
 70
     1
102
RTVSPropertyOp21
 70
     1
102
RTVSPropertyOp22
 70
     1
102
RTVSPropertyOp23
 70
     1
102
RTVSPropertyOp24
 70
     1
102
RTVSPropertyOp25
 70
     1
102
RTVSPropertyOp26
 70
     1
102
RTVSPropertyOp27
 70
     1
102
RTVSPropertyOp28
 70
     1
102
RTVSPropertyOp29
 70
     1
102
RTVSPropertyOp30
 70
     1
102
RTVSPropertyOp31
 70
     1
102
RTVSPropertyOp32
 70
     1
102
RTVSPropertyOp33
 70
     1
102
RTVSPropertyOp34
 70
     1
102
RTVSPropertyOp35
 70
     1
102
RTVSPropertyOp36
 70
     1
102
RTVSPropertyOp37
 70
     1
102
RTVSPropertyOp38
 70
     1
102
RTVSPropertyOp39
 70
     1
102
RTVSPropertyOp40
 70
     1
102
RTVSPropertyOp41
 70
     1
102
RTVSPropertyOp42
 70
     1
102
RTVSPropertyOp43
 70
     1
102
RTVSPropertyOp44
 70
     1
102
RTVSPropertyOp45
 70
     1
102
RTVSPropertyOp46
 70
     1
102
RTVSPropertyOp47
 70
     1
102
RTVSPropertyOp48
 70
     1
102
RTVSPropertyOp49
 70
     1
102
RTVSPropertyOp50
 70
     1
102
RTVSPropertyOp51
 70
     0
102
RTVSPropertyOp52
 70
     0
102
RTVSPropertyOp53
 70
     1
102
RTVSPropertyOp54
 70
     1
102
RTVSPropertyOp55
 70
     1
102
RTVSPropertyOp56
 70
     1
102
RTVSPropertyOp57
 70
     1
102
RTVSPropertyOp58
 70
     1
102
RTVSPropertyOp59
 70
     1
102
RTVSPropertyOp60
 70
     1
102
RTVSPropertyOp61
 70
     1
102
RTVSPropertyOp62
 70
     1
  0
ENDSEC
  0
EOF
