  0
SECTION
  2
HEADER
  9
$ACADVER
  1
AC1015
  9
$ACADMAINTVER
 70
    20
  9
$DWGCODEPAGE
  3
ANSI_932
  9
$INSBASE
 10
0.0
 20
0.0
 30
0.0
  9
$EXTMIN
 10
9.9999975266385
 20
10.0
 30
0.0
  9
$EXTMAX
 10
775.9549865875412
 20
563.3875439195421
 30
0.0
  9
$LIMMIN
 10
0.0000015376081137
 20
-0.0000001931532552
  9
$LIMMAX
 10
892.000001537608
 20
614.9393937462405
  9
$ORTHOMODE
 70
     1
  9
$REGENMODE
 70
     1
  9
$FILLMODE
 70
     1
  9
$QTEXTMODE
 70
     0
  9
$MIRRTEXT
 70
     1
  9
$LTSCALE
 40
1.0
  9
$ATTMODE
 70
     1
  9
$TEXTSIZE
 40
2.5
  9
$TRACEWID
 40
1.0
  9
$TEXTSTYLE
  7
STANDARD
  9
$CLAYER
  8
0
  9
$CELTYPE
  6
BYLAYER
  9
$CECOLOR
 62
   256
  9
$CELTSCALE
 40
1.0
  9
$DISPSILH
 70
     0
  9
$DIMSCALE
 40
1.0
  9
$DIMASZ
 40
3.0
  9
$DIMEXO
 40
1.0
  9
$DIMDLI
 40
10.0
  9
$DIMRND
 40
0.0
  9
$DIMDLE
 40
0.0
  9
$DIMEXE
 40
1.0
  9
$DIMTP
 40
0.0
  9
$DIMTM
 40
0.0
  9
$DIMTXT
 40
3.2
  9
$DIMCEN
 40
0.0
  9
$DIMTSZ
 40
0.0
  9
$DIMTOL
 70
     0
  9
$DIMLIM
 70
     0
  9
$DIMTIH
 70
     0
  9
$DIMTOH
 70
     0
  9
$DIMSE1
 70
     0
  9
$DIMSE2
 70
     0
  9
$DIMTAD
 70
     3
  9
$DIMZIN
 70
     8
  9
$DIMBLK
  1

  9
$DIMASO
 70
     1
  9
$DIMSHO
 70
     1
  9
$DIMPOST
  1

  9
$DIMAPOST
  1

  9
$DIMALT
 70
     0
  9
$DIMALTD
 70
     2
  9
$DIMALTF
 40
25.4
  9
$DIMLFAC
 40
1.0
  9
$DIMTOFL
 70
     1
  9
$DIMTVP
 40
0.0
  9
$DIMTIX
 70
     0
  9
$DIMSOXD
 70
     0
  9
$DIMSAH
 70
     1
  9
$DIMBLK1
  1
OPEN
  9
$DIMBLK2
  1
OPEN
  9
$DIMSTYLE
  2
STANDARD
  9
$DIMCLRD
 70
     0
  9
$DIMCLRE
 70
     0
  9
$DIMCLRT
 70
     0
  9
$DIMTFAC
 40
1.0
  9
$DIMGAP
 40
1.0
  9
$DIMJUST
 70
     0
  9
$DIMSD1
 70
     0
  9
$DIMSD2
 70
     0
  9
$DIMTOLJ
 70
     1
  9
$DIMTZIN
 70
     0
  9
$DIMALTZ
 70
     0
  9
$DIMALTTZ
 70
     0
  9
$DIMUPT
 70
     0
  9
$DIMDEC
 70
     4
  9
$DIMTDEC
 70
     4
  9
$DIMALTU
 70
     2
  9
$DIMALTTD
 70
     2
  9
$DIMTXSTY
  7
STANDARD
  9
$DIMAUNIT
 70
     0
  9
$DIMADEC
 70
     0
  9
$DIMALTRND
 40
0.0
  9
$DIMAZIN
 70
     0
  9
$DIMDSEP
 70
    46
  9
$DIMATFIT
 70
     3
  9
$DIMFRAC
 70
     0
  9
$DIMLDRBLK
  1
OPEN
  9
$DIMLUNIT
 70
     2
  9
$DIMLWD
 70
    -2
  9
$DIMLWE
 70
    -2
  9
$DIMTMOVE
 70
     0
  9
$LUNITS
 70
     2
  9
$LUPREC
 70
     4
  9
$SKETCHINC
 40
1.0
  9
$FILLETRAD
 40
0.0
  9
$AUNITS
 70
     0
  9
$AUPREC
 70
     0
  9
$MENU
  1
.
  9
$ELEVATION
 40
0.0
  9
$PELEVATION
 40
0.0
  9
$THICKNESS
 40
0.0
  9
$LIMCHECK
 70
     0
  9
$CHAMFERA
 40
10.0
  9
$CHAMFERB
 40
10.0
  9
$CHAMFERC
 40
20.0
  9
$CHAMFERD
 40
0.0
  9
$SKPOLY
 70
     0
  9
$TDCREATE
 40
2453811.402924803
  9
$TDUCREATE
 40
2453811.027924803
  9
$TDUPDATE
 40
2457192.689450972
  9
$TDUUPDATE
 40
2457192.314450972
  9
$TDINDWG
 40
0.0686872222
  9
$TDUSRTIMER
 40
0.0686870486
  9
$USRTIMER
 70
     1
  9
$ANGBASE
 50
0.0
  9
$ANGDIR
 70
     0
  9
$PDMODE
 70
     0
  9
$PDSIZE
 40
0.0
  9
$PLINEWID
 40
0.0
  9
$SPLFRAME
 70
     0
  9
$SPLINETYPE
 70
     6
  9
$SPLINESEGS
 70
     8
  9
$HANDSEED
  5
F87
  9
$SURFTAB1
 70
     6
  9
$SURFTAB2
 70
     6
  9
$SURFTYPE
 70
     6
  9
$SURFU
 70
     6
  9
$SURFV
 70
     6
  9
$UCSBASE
  2

  9
$UCSNAME
  2

  9
$UCSORG
 10
0.0
 20
0.0
 30
0.0
  9
$UCSXDIR
 10
1.0
 20
0.0
 30
0.0
  9
$UCSYDIR
 10
0.0
 20
1.0
 30
0.0
  9
$UCSORTHOREF
  2

  9
$UCSORTHOVIEW
 70
     0
  9
$UCSORGTOP
 10
0.0
 20
0.0
 30
0.0
  9
$UCSORGBOTTOM
 10
0.0
 20
0.0
 30
0.0
  9
$UCSORGLEFT
 10
0.0
 20
0.0
 30
0.0
  9
$UCSORGRIGHT
 10
0.0
 20
0.0
 30
0.0
  9
$UCSORGFRONT
 10
0.0
 20
0.0
 30
0.0
  9
$UCSORGBACK
 10
0.0
 20
0.0
 30
0.0
  9
$PUCSBASE
  2

  9
$PUCSNAME
  2

  9
$PUCSORG
 10
0.0
 20
0.0
 30
0.0
  9
$PUCSXDIR
 10
1.0
 20
0.0
 30
0.0
  9
$PUCSYDIR
 10
0.0
 20
1.0
 30
0.0
  9
$PUCSORTHOREF
  2

  9
$PUCSORTHOVIEW
 70
     0
  9
$PUCSORGTOP
 10
0.0
 20
0.0
 30
0.0
  9
$PUCSORGBOTTOM
 10
0.0
 20
0.0
 30
0.0
  9
$PUCSORGLEFT
 10
0.0
 20
0.0
 30
0.0
  9
$PUCSORGRIGHT
 10
0.0
 20
0.0
 30
0.0
  9
$PUCSORGFRONT
 10
0.0
 20
0.0
 30
0.0
  9
$PUCSORGBACK
 10
0.0
 20
0.0
 30
0.0
  9
$USERI1
 70
     0
  9
$USERI2
 70
     0
  9
$USERI3
 70
     0
  9
$USERI4
 70
     0
  9
$USERI5
 70
     0
  9
$USERR1
 40
0.0
  9
$USERR2
 40
0.0
  9
$USERR3
 40
0.0
  9
$USERR4
 40
0.0
  9
$USERR5
 40
0.0
  9
$WORLDVIEW
 70
     1
  9
$SHADEDGE
 70
     3
  9
$SHADEDIF
 70
    70
  9
$TILEMODE
 70
     1
  9
$MAXACTVP
 70
    48
  9
$PINSBASE
 10
0.0
 20
0.0
 30
0.0
  9
$PLIMCHECK
 70
     0
  9
$PEXTMIN
 10
1.000000000000000E+20
 20
1.000000000000000E+20
 30
1.000000000000000E+20
  9
$PEXTMAX
 10
-1.000000000000000E+20
 20
-1.000000000000000E+20
 30
-1.000000000000000E+20
  9
$PLIMMIN
 10
0.0
 20
0.0
  9
$PLIMMAX
 10
420.0
 20
297.0
  9
$UNITMODE
 70
     0
  9
$VISRETAIN
 70
     1
  9
$PLINEGEN
 70
     0
  9
$PSLTSCALE
 70
     1
  9
$TREEDEPTH
 70
  3020
  9
$CMLSTYLE
  2
STANDARD
  9
$CMLJUST
 70
     0
  9
$CMLSCALE
 40
20.0
  9
$PROXYGRAPHICS
 70
     1
  9
$MEASUREMENT
 70
     0
  9
$CELWEIGHT
370
    -1
  9
$ENDCAPS
280
     0
  9
$JOINSTYLE
280
     0
  9
$LWDISPLAY
290
     0
  9
$INSUNITS
 70
     0
  9
$HYPERLINKBASE
  1

  9
$STYLESHEET
  1

  9
$XEDIT
290
     1
  9
$CEPSNTYPE
380
     0
  9
$PSTYLEMODE
290
     1
  9
$FINGERPRINTGUID
  2
{CEBEA05E-1C90-4B95-8F2F-B2F6DFAA9C75}
  9
$VERSIONGUID
  2
{3F6F5718-EF35-436A-BD13-FA4884EE39B6}
  9
$EXTNAMES
290
     1
  9
$PSVPSCALE
 40
0.0
  9
$OLESTARTUP
290
     0
  0
ENDSEC
  0
SECTION
  2
CLASSES
  0
CLASS
  1
ACDBDICTIONARYWDFLT
  2
AcDbDictionaryWithDefault
  3
ObjectDBX Classes
 90
        0
280
     0
281
     0
  0
CLASS
  1
ACDBPLACEHOLDER
  2
AcDbPlaceHolder
  3
ObjectDBX Classes
 90
        0
280
     0
281
     0
  0
CLASS
  1
LAYOUT
  2
AcDbLayout
  3
ObjectDBX Classes
 90
        0
280
     0
281
     0
  0
CLASS
  1
DICTIONARYVAR
  2
AcDbDictionaryVar
  3
ObjectDBX Classes
 90
        0
280
     0
281
     0
  0
CLASS
  1
MATERIAL
  2
AcDbMaterial
  3
ObjectDBX Classes
 90
     1153
280
     0
281
     0
  0
CLASS
  1
VISUALSTYLE
  2
AcDbVisualStyle
  3
ObjectDBX Classes
 90
     4095
280
     0
281
     0
  0
CLASS
  1
TABLESTYLE
  2
AcDbTableStyle
  3
ObjectDBX Classes
 90
     4095
280
     0
281
     0
  0
CLASS
  1
SCALE
  2
AcDbScale
  3
ObjectDBX Classes
 90
     1153
280
     0
281
     0
  0
CLASS
  1
MLEADERSTYLE
  2
AcDbMLeaderStyle
  3
ACDB_MLEADERSTYLE_CLASS
 90
     4095
280
     0
281
     0
  0
CLASS
  1
ACDBSECTIONVIEWSTYLE
  2
AcDbSectionViewStyle
  3
ObjectDBX Classes
 90
     1025
280
     0
281
     0
  0
CLASS
  1
ACDBDETAILVIEWSTYLE
  2
AcDbDetailViewStyle
  3
ObjectDBX Classes
 90
     1025
280
     0
281
     0
  0
CLASS
  1
CELLSTYLEMAP
  2
AcDbCellStyleMap
  3
ObjectDBX Classes
 90
     1152
280
     0
281
     0
  0
ENDSEC
  0
SECTION
  2
TABLES
  0
TABLE
  2
VPORT
  5
8
330
0
100
AcDbSymbolTable
 70
     1
  0
VPORT
  5
ED3
330
8
100
AcDbSymbolTableRecord
100
AcDbViewportTableRecord
  2
*ACTIVE
 70
     0
 10
0.0
 20
0.0
 11
1.0
 21
1.0
 12
605.9977274826409
 22
286.6858426302861
 13
0.0
 23
0.0
 14
10.0
 24
10.0
 15
10.0
 25
10.0
 16
0.0
 26
0.0
 36
1.0
 17
0.0
 27
0.0
 37
0.0
 40
557.792063152649
 41
2.35006605019815
 42
50.0
 43
0.0
 44
0.0
 50
0.0
 51
0.0
 71
     0
 72
   100
 73
     1
 74
     0
 75
     0
 76
     0
 77
     0
 78
     0
281
     0
 65
     1
110
0.0
120
0.0
130
0.0
111
1.0
121
0.0
131
0.0
112
0.0
122
1.0
132
0.0
 79
     0
146
0.0
1001
ACAD_NAV_VCDISPLAY
1070
     3
  0
ENDTAB
  0
TABLE
  2
LTYPE
  5
5
330
0
100
AcDbSymbolTable
 70
     4
  0
LTYPE
  5
12
330
5
100
AcDbSymbolTableRecord
100
AcDbLinetypeTableRecord
  2
BYBLOCK
 70
     0
  3

 72
    65
 73
     0
 40
0.0
  0
LTYPE
  5
13
330
5
100
AcDbSymbolTableRecord
100
AcDbLinetypeTableRecord
  2
BYLAYER
 70
     0
  3

 72
    65
 73
     0
 40
0.0
  0
LTYPE
  5
14
330
5
100
AcDbSymbolTableRecord
100
AcDbLinetypeTableRecord
  2
CONTINUOUS
 70
     0
  3
Solid line
 72
    65
 73
     0
 40
0.0
  0
LTYPE
  5
4B
330
5
100
AcDbSymbolTableRecord
100
AcDbLinetypeTableRecord
  2
DASHED
 70
     0
  3
Dashed __ __ __ __ __ __ __ __ __ __ __ __ __ _
 72
    65
 73
     2
 40
19.04999999999998
 49
12.7
 74
     0
 49
-6.349999999999997
 74
     0
  0
LTYPE
  5
4C
330
5
100
AcDbSymbolTableRecord
100
AcDbLinetypeTableRecord
  2
CENTER
 70
     0
  3
Center ____ _ ____ _ ____ _ ____ _ ____ _ ____
 72
    65
 73
     4
 40
50.8
 49
31.75
 74
     0
 49
-6.349999999999997
 74
     0
 49
6.349999999999997
 74
     0
 49
-6.349999999999997
 74
     0
  0
LTYPE
  5
4D
330
5
100
AcDbSymbolTableRecord
100
AcDbLinetypeTableRecord
  2
PHANTOM
 70
     0
  3
Phantom ______  __  __  ______  __  __  ______
 72
    65
 73
     6
 40
63.5
 49
31.75
 74
     0
 49
-6.349999999999997
 74
     0
 49
6.349999999999997
 74
     0
 49
-6.349999999999997
 74
     0
 49
6.349999999999997
 74
     0
 49
-6.349999999999997
 74
     0
  0
ENDTAB
  0
TABLE
  2
LAYER
  5
2
330
0
100
AcDbSymbolTable
 70
     8
  0
LAYER
  5
E
102
{ACAD_XDICTIONARY
360
F2B
102
}
330
2
100
AcDbSymbolTableRecord
100
AcDbLayerTableRecord
  2
0
 70
     0
 62
     7
  6
CONTINUOUS
370
    -3
390
EDA
  0
LAYER
  5
4E
102
{ACAD_XDICTIONARY
360
F2D
102
}
330
2
100
AcDbSymbolTableRecord
100
AcDbLayerTableRecord
  2
4
 70
     0
 62
     1
  6
CENTER
370
    -3
390
EDA
  0
LAYER
  5
4F
102
{ACAD_XDICTIONARY
360
F2F
102
}
330
2
100
AcDbSymbolTableRecord
100
AcDbLayerTableRecord
  2
5
 70
     0
 62
     6
  6
PHANTOM
370
    -3
390
EDA
  0
LAYER
  5
50
102
{ACAD_XDICTIONARY
360
F31
102
}
330
2
100
AcDbSymbolTableRecord
100
AcDbLayerTableRecord
  2
1
 70
     0
 62
     7
  6
CONTINUOUS
370
    -3
390
EDA
  0
LAYER
  5
51
102
{ACAD_XDICTIONARY
360
F33
102
}
330
2
100
AcDbSymbolTableRecord
100
AcDbLayerTableRecord
  2
2
 70
     0
 62
     4
  6
CONTINUOUS
370
    -3
390
EDA
  0
LAYER
  5
52
102
{ACAD_XDICTIONARY
360
F35
102
}
330
2
100
AcDbSymbolTableRecord
100
AcDbLayerTableRecord
  2
3
 70
     0
 62
     2
  6
DASHED
370
    -3
390
EDA
  0
LAYER
  5
53
102
{ACAD_XDICTIONARY
360
F37
102
}
330
2
100
AcDbSymbolTableRecord
100
AcDbLayerTableRecord
  2
6
 70
     0
 62
     5
  6
CONTINUOUS
370
    -3
390
EDA
  0
LAYER
  5
54
102
{ACAD_XDICTIONARY
360
F39
102
}
330
2
100
AcDbSymbolTableRecord
100
AcDbLayerTableRecord
  2
7
 70
     0
 62
     3
  6
CONTINUOUS
370
    -3
390
EDA
  0
ENDTAB
  0
TABLE
  2
STYLE
  5
3
330
0
100
AcDbSymbolTable
 70
     1
  0
STYLE
  5
F
330
3
100
AcDbSymbolTableRecord
100
AcDbTextStyleTableRecord
  2
STANDARD
 70
     0
 40
0.0
 41
1.0
 50
0.0
 71
     0
 42
2.5
  3
simplex.shx
  4

  0
ENDTAB
  0
TABLE
  2
VIEW
  5
6
330
0
100
AcDbSymbolTable
 70
     0
  0
ENDTAB
  0
TABLE
  2
UCS
  5
7
330
0
100
AcDbSymbolTable
 70
     0
  0
ENDTAB
  0
TABLE
  2
APPID
  5
9
330
0
100
AcDbSymbolTable
 70
     5
  0
APPID
  5
10
330
9
100
AcDbSymbolTableRecord
100
AcDbRegAppTableRecord
  2
ACAD
 70
     0
  0
APPID
  5
3E
330
9
100
AcDbSymbolTableRecord
100
AcDbRegAppTableRecord
  2
CONTENTTABDATA
 70
     0
  0
APPID
  5
3F
330
9
100
AcDbSymbolTableRecord
100
AcDbRegAppTableRecord
  2
CONTENTCURRENTTAB
 70
     0
  0
APPID
  5
F45
330
9
100
AcDbSymbolTableRecord
100
AcDbRegAppTableRecord
  2
ACAD_NAV_VCDISPLAY
 70
     0
  0
APPID
  5
F7E
330
9
100
AcDbSymbolTableRecord
100
AcDbRegAppTableRecord
  2
ACAD_MLEADERVER
 70
     0
  0
ENDTAB
  0
TABLE
  2
DIMSTYLE
  5
A
330
0
100
AcDbSymbolTable
 70
     1
100
AcDbDimStyleTable
 71
     0
  0
DIMSTYLE
105
1D
330
A
100
AcDbSymbolTableRecord
100
AcDbDimStyleTableRecord
  2
STANDARD
 70
     0
 41
3.0
 42
1.0
 43
10.0
 44
1.0
 73
     0
 74
     0
 77
     3
 78
     8
140
3.2
141
0.0
147
1.0
172
     1
173
     1
340
F
341
2E
343
2E
344
2E
  0
ENDTAB
  0
TABLE
  2
BLOCK_RECORD
  5
1
330
0
100
AcDbSymbolTable
 70
     1
  0
BLOCK_RECORD
  5
18
102
{ACAD_XDICTIONARY
360
EB9
102
}
330
1
100
AcDbSymbolTableRecord
100
AcDbBlockTableRecord
  2
*MODEL_SPACE
340
F28
  0
BLOCK_RECORD
  5
15
102
{ACAD_XDICTIONARY
360
EB7
102
}
330
1
100
AcDbSymbolTableRecord
100
AcDbBlockTableRecord
  2
*PAPER_SPACE
340
F29
  0
BLOCK_RECORD
  5
2E
330
1
100
AcDbSymbolTableRecord
100
AcDbBlockTableRecord
  2
_OPEN
340
0
  0
ENDTAB
  0
ENDSEC
  0
SECTION
  2
BLOCKS
  0
BLOCK
  5
19
330
18
100
AcDbEntity
  8
0
100
AcDbBlockBegin
  2
*MODEL_SPACE
 70
     0
 10
0.0
 20
0.0
 30
0.0
  3
*MODEL_SPACE
  1

  0
ENDBLK
  5
1A
330
18
100
AcDbEntity
  8
0
100
AcDbBlockEnd
  0
BLOCK
  5
16
330
15
100
AcDbEntity
 67
     1
  8
0
100
AcDbBlockBegin
  2
*PAPER_SPACE
 70
     0
 10
0.0
 20
0.0
 30
0.0
  3
*PAPER_SPACE
  1

  0
ENDBLK
  5
17
330
15
100
AcDbEntity
 67
     1
  8
0
100
AcDbBlockEnd
  0
BLOCK
  5
2F
330
2E
100
AcDbEntity
  8
0
100
AcDbBlockBegin
  2
_OPEN
 70
     0
 10
0.0
 20
0.0
 30
0.0
  3
_OPEN
  1

  0
LINE
  5
30
330
2E
100
AcDbEntity
  8
0
  6
ByBlock
 62
     0
100
AcDbLine
 10
-1.0
 20
0.1666666666666666
 30
0.0
 11
0.0
 21
0.0
 31
0.0
  0
LINE
  5
31
330
2E
100
AcDbEntity
  8
0
  6
ByBlock
 62
     0
100
AcDbLine
 10
0.0
 20
0.0
 30
0.0
 11
-1.0
 21
-0.1666666666666666
 31
0.0
  0
LINE
  5
32
330
2E
100
AcDbEntity
  8
0
  6
ByBlock
 62
     0
100
AcDbLine
 10
0.0
 20
0.0
 30
0.0
 11
-1.0
 21
0.0
 31
0.0
  0
ENDBLK
  5
33
330
2E
100
AcDbEntity
  8
0
100
AcDbBlockEnd
  0
ENDSEC
  0
SECTION
  2
ENTITIES
  0
TEXT
  5
63
330
18
100
AcDbEntity
  8
4
  6
CENTER
 48
0.25
100
AcDbText
 10
23.97950852663849
 20
10.0
 30
0.0
 40
1.399999999999999
  1
4
100
AcDbText
  0
TEXT
  5
64
330
18
100
AcDbEntity
  8
7
  6
Continuous
 48
0.25
100
AcDbText
 10
9.999997526638502
 20
26.0000007607689
 30
0.0
 40
3.0
  1
CODE No.19258
100
AcDbText
  0
TEXT
  5
65
330
18
100
AcDbEntity
  8
7
  6
Continuous
 48
0.25
100
AcDbText
 10
9.999997526638502
 20
18.00000076076889
 30
0.0
 40
3.0
  1
TYPE No.TCA-320SR-ARB125
100
AcDbText
  0
TEXT
  5
66
330
18
100
AcDbEntity
  8
1
  6
Continuous
 48
0.25
100
AcDbText
 10
9.999997526638502
 20
10.00000076076889
 30
0.0
 40
1.399999999999999
  1
LAYER
100
AcDbText
  0
TEXT
  5
67
330
18
100
AcDbEntity
  8
2
  6
Continuous
 48
0.25
100
AcDbText
 10
19.9795085266385
 20
10.0
 30
0.0
 40
1.399999999999999
  1
2
100
AcDbText
  0
TEXT
  5
68
330
18
100
AcDbEntity
  8
3
  6
DASHED
 48
0.25
100
AcDbText
 10
21.97950852663849
 20
10.0
 30
0.0
 40
1.399999999999999
  1
3
100
AcDbText
  0
TEXT
  5
69
330
18
100
AcDbEntity
  8
1
  6
Continuous
 48
0.25
100
AcDbText
 10
17.9795085266385
 20
10.0
 30
0.0
 40
1.399999999999999
  1
1
100
AcDbText
  0
TEXT
  5
6A
330
18
100
AcDbEntity
  8
5
  6
PHANTOM
 48
0.25
100
AcDbText
 10
25.97950852663849
 20
10.0
 30
0.0
 40
1.399999999999999
  1
5
100
AcDbText
  0
TEXT
  5
6B
330
18
100
AcDbEntity
  8
6
  6
Continuous
 48
0.25
100
AcDbText
 10
27.97950852663849
 20
10.0
 30
0.0
 40
1.399999999999999
  1
6
100
AcDbText
  0
TEXT
  5
6C
330
18
100
AcDbEntity
  8
7
  6
Continuous
 48
0.25
100
AcDbText
 10
29.9795085266385
 20
10.0
 30
0.0
 40
1.399999999999999
  1
7
100
AcDbText
  0
LINE
  5
3BE
330
18
100
AcDbEntity
  8
1
  6
Continuous
100
AcDbLine
 10
36.04530216693069
 20
378.8542169195422
 30
0.0
 11
130.0453021669307
 21
378.8542169195422
 31
0.0
  0
LINE
  5
3BF
330
18
100
AcDbEntity
  8
4
  6
CENTER
 48
0.8
100
AcDbLine
 10
32.54530216693069
 20
276.8542109195422
 30
0.0
 11
123.5452961669305
 21
276.8542109195422
 31
0.0
  0
LINE
  5
3C0
330
18
100
AcDbEntity
  8
1
  6
Continuous
100
AcDbLine
 10
36.04530216693069
 20
382.3542189195422
 30
0.0
 11
130.0453021669307
 21
382.3542189195422
 31
0.0
  0
ARC
  5
3C1
330
18
100
AcDbEntity
  8
1
  6
Continuous
100
AcDbCircle
 10
-143.9455118330693
 20
265.2879729195422
 30
0.0
 40
200.0
100
AcDbArc
 50
6.070044999999887
 51
19.20986299999954
  0
ARC
  5
3C2
330
18
100
AcDbEntity
  8
1
  6
Continuous
100
AcDbCircle
 10
-147.0705428330693
 20
263.704781919542
 30
0.0
 40
200.0
100
AcDbArc
 50
7.316461000000029
 51
17.86918899999944
  0
LINE
  5
3C3
330
18
100
AcDbEntity
  8
1
  6
Continuous
100
AcDbLine
 10
55.04530216693067
 20
377.8542169195422
 30
0.0
 11
55.04530216693067
 21
257.8542109195422
 31
0.0
  0
LINE
  5
3C4
330
18
100
AcDbEntity
  8
4
  6
CENTER
 48
0.8
100
AcDbLine
 10
83.04530216693072
 20
387.354218919542
 30
0.0
 11
83.04530216693072
 21
209.3542109195421
 31
0.0
  0
LINE
  5
3C5
330
18
100
AcDbEntity
  8
1
  6
Continuous
100
AcDbLine
 10
42.79530216693069
 20
287.8238689195421
 30
0.0
 11
47.2953021669307
 21
287.8238689195421
 31
0.0
  0
LINE
  5
3C6
330
18
100
AcDbEntity
  8
1
  6
Continuous
100
AcDbLine
 10
42.79530216693069
 20
282.3390369195422
 30
0.0
 11
47.2953021669307
 21
282.3390369195422
 31
0.0
  0
LINE
  5
3C7
330
18
100
AcDbEntity
  8
1
  6
Continuous
100
AcDbLine
 10
42.79530216693069
 20
265.8845529195421
 30
0.0
 11
47.2953021669307
 21
265.8845529195421
 31
0.0
  0
LINE
  5
3C8
330
18
100
AcDbEntity
  8
1
  6
Continuous
100
AcDbLine
 10
42.79530216693069
 20
271.3693859195422
 30
0.0
 11
47.2953021669307
 21
271.3693859195422
 31
0.0
  0
ARC
  5
3C9
330
18
100
AcDbEntity
  8
1
  6
Continuous
100
AcDbCircle
 10
45.17863316693069
 20
268.626969919542
 30
0.0
 40
3.633332999999998
100
AcDbArc
 50
130.9927279999998
 51
229.0072679999999
  0
LINE
  5
3CA
330
18
100
AcDbEntity
  8
1
  6
Continuous
100
AcDbLine
 10
41.54530216693069
 20
285.0814529195421
 30
0.0
 11
41.54530216693069
 21
268.626969919542
 31
0.0
  0
ARC
  5
3CB
330
18
100
AcDbEntity
  8
1
  6
Continuous
100
AcDbCircle
 10
54.2036421669307
 20
276.8542109195422
 30
0.0
 40
12.65833399999999
100
AcDbArc
 50
154.3229740000002
 51
205.6770219999995
  0
LINE
  5
3CC
330
18
100
AcDbEntity
  8
1
  6
Continuous
100
AcDbLine
 10
37.54530216693069
 20
282.1042109195421
 30
0.0
 11
37.54530216693069
 21
271.604210919542
 31
0.0
  0
LINE
  5
3CD
330
18
100
AcDbEntity
  8
1
  6
Continuous
100
AcDbLine
 10
38.29503316693068
 20
282.8542109195422
 30
0.0
 11
38.29503316693068
 21
270.8542109195422
 31
0.0
  0
LINE
  5
3CE
330
18
100
AcDbEntity
  8
1
  6
Continuous
100
AcDbLine
 10
38.29503316693068
 20
270.8542109195422
 30
0.0
 11
41.54530216693069
 21
270.8542109195422
 31
0.0
  0
LINE
  5
3D0
330
18
100
AcDbEntity
  8
1
  6
Continuous
100
AcDbLine
 10
38.29503316693068
 20
270.8542109195422
 30
0.0
 11
37.54512216693068
 21
271.6041219195421
 31
0.0
  0
LINE
  5
3D1
330
18
100
AcDbEntity
  8
1
  6
Continuous
100
AcDbLine
 10
38.29503316693068
 20
282.8542109195422
 30
0.0
 11
41.54530216693069
 21
282.8542109195422
 31
0.0
  0
LINE
  5
3D2
330
18
100
AcDbEntity
  8
2
  6
Continuous
100
AcDbLine
 10
37.54530216693069
 20
271.8012109195421
 30
0.0
 11
41.54530216693069
 21
271.8012109195421
 31
0.0
  0
LINE
  5
3D3
330
18
100
AcDbEntity
  8
1
  6
Continuous
100
AcDbLine
 10
38.29503316693068
 20
282.8542109195422
 30
0.0
 11
37.54512216693068
 21
282.1042999195422
 31
0.0
  0
ARC
  5
3D4
330
18
100
AcDbEntity
  8
1
  6
Continuous
100
AcDbCircle
 10
45.17863316693069
 20
285.0814529195421
 30
0.0
 40
3.633332999999998
100
AcDbArc
 50
130.9927279999998
 51
229.0072679999999
  0
ARC
  5
3D5
330
18
100
AcDbEntity
  8
1
  6
Continuous
100
AcDbCircle
 10
44.91197116693068
 20
268.626969919542
 30
0.0
 40
3.633332999999998
100
AcDbArc
 50
310.992734
 51
49.00726600000001
  0
LINE
  5
3D6
330
18
100
AcDbEntity
  8
1
  6
Continuous
100
AcDbLine
 10
48.54530216693071
 20
287.3542109195422
 30
0.0
 11
48.54530216693071
 21
266.3542109195422
 31
0.0
  0
LINE
  5
3D7
330
18
100
AcDbEntity
  8
1
  6
Continuous
100
AcDbLine
 10
51.54530216693068
 20
285.3542109195421
 30
0.0
 11
51.54530216693068
 21
257.8542109195422
 31
0.0
  0
LINE
  5
3D8
330
18
100
AcDbEntity
  8
1
  6
Continuous
100
AcDbLine
 10
51.54530216693068
 20
257.8542109195422
 30
0.0
 11
55.04530216693067
 21
257.8542109195422
 31
0.0
  0
LINE
  5
3D9
330
18
100
AcDbEntity
  8
1
  6
Continuous
100
AcDbLine
 10
51.54530216693068
 20
266.3542109195422
 30
0.0
 11
48.54530216693071
 21
266.3542109195422
 31
0.0
  0
LINE
  5
3DA
330
18
100
AcDbEntity
  8
1
  6
Continuous
100
AcDbLine
 10
55.04530216693067
 20
268.3542109195422
 30
0.0
 11
55.5453021669307
 21
268.3542109195422
 31
0.0
  0
ARC
  5
3DB
330
18
100
AcDbEntity
  8
1
  6
Continuous
100
AcDbCircle
 10
35.88697716693071
 20
276.8542109195422
 30
0.0
 40
12.65833399999999
100
AcDbArc
 50
334.3229730000002
 51
25.67702699999975
  0
ARC
  5
3DC
330
18
100
AcDbEntity
  8
1
  6
Continuous
100
AcDbCircle
 10
44.91197116693068
 20
285.0814529195421
 30
0.0
 40
3.633332999999998
100
AcDbArc
 50
310.992734
 51
49.00726600000001
  0
ARC
  5
3DD
330
18
100
AcDbEntity
  8
1
  6
Continuous
100
AcDbCircle
 10
21.54530216693069
 20
285.3542109195421
 30
0.0
 40
30.0
100
AcDbArc
 50
0.0
 51
7.316461000000029
  0
LINE
  5
3DE
330
18
100
AcDbEntity
  8
1
  6
Continuous
100
AcDbLine
 10
51.47856016693069
 20
287.3542109195422
 30
0.0
 11
48.54530216693071
 21
287.3542109195422
 31
0.0
  0
LINE
  5
3DF
330
18
100
AcDbEntity
  8
1
  6
Continuous
100
AcDbLine
 10
55.04530216693067
 20
285.3542109195421
 30
0.0
 11
55.5453021669307
 21
285.3542109195421
 31
0.0
  0
ARC
  5
3E0
330
18
100
AcDbEntity
  8
1
  6
Continuous
100
AcDbCircle
 10
35.04530216693069
 20
284.3219309195422
 30
0.0
 40
20.0
100
AcDbArc
 50
0.0
 51
6.070044999999887
  0
ARC
  5
3E1
330
18
100
AcDbEntity
  8
1
  6
Continuous
100
AcDbCircle
 10
136.0453021669306
 20
362.8451319195422
 30
0.0
 40
96.5
100
AcDbArc
 50
179.999978
 51
199.2098569999996
  0
ARC
  5
3E2
330
18
100
AcDbEntity
  8
1
  6
Continuous
100
AcDbCircle
 10
186.0453021669305
 20
371.1004809195422
 30
0.0
 40
150.0
100
AcDbArc
 50
179.999978
 51
197.8691869999993
  0
LINE
  5
3E3
330
18
100
AcDbEntity
  8
1
  6
Continuous
100
AcDbLine
 10
39.54530216693068
 20
377.8542169195422
 30
0.0
 11
39.54530216693068
 21
362.8451319195422
 31
0.0
  0
ARC
  5
3E4
330
18
100
AcDbEntity
  8
1
  6
Continuous
100
AcDbCircle
 10
33.54530216693069
 20
373.3998609195422
 30
0.0
 40
6.0
100
AcDbArc
 50
0.0
 51
65.37568200000028
  0
LINE
  5
3E5
330
18
100
AcDbEntity
  8
1
  6
Continuous
100
AcDbLine
 10
36.04530216693069
 20
382.3542189195422
 30
0.0
 11
36.04530216693069
 21
371.1004809195422
 31
0.0
  0
ARC
  5
3E6
330
18
100
AcDbEntity
  8
1
  6
Continuous
100
AcDbCircle
 10
40.54530216693069
 20
377.8542169195422
 30
0.0
 40
1.0
100
AcDbArc
 50
89.99998199999998
 51
179.9999639999999
  0
LINE
  5
3E7
330
18
100
AcDbEntity
  8
1
  6
Continuous
100
AcDbLine
 10
63.0453021669307
 20
376.8542169195422
 30
0.0
 11
103.0453021669307
 21
376.8542169195422
 31
0.0
  0
ARC
  5
3E8
330
18
100
AcDbEntity
  8
1
  6
Continuous
100
AcDbCircle
 10
56.04530216693071
 20
377.8542169195422
 30
0.0
 40
1.0
100
AcDbArc
 50
89.99998199999998
 51
179.9999639999999
  0
ARC
  5
3E9
330
18
100
AcDbEntity
  8
1
  6
Continuous
100
AcDbCircle
 10
63.0453021669307
 20
378.8542169195422
 30
0.0
 40
2.0
100
AcDbArc
 50
179.9999809999993
 51
270.0000179999999
  0
ARC
  5
3EA
330
18
100
AcDbEntity
  8
1
  6
Continuous
100
AcDbCircle
 10
73.04530216693071
 20
378.8542169195422
 30
0.0
 40
2.0
100
AcDbArc
 50
179.9999809999993
 51
270.0000179999999
  0
ARC
  5
3EB
330
18
100
AcDbEntity
  8
1
  6
Continuous
100
AcDbCircle
 10
93.0453021669307
 20
378.8542169195422
 30
0.0
 40
2.0
100
AcDbArc
 50
269.9999629999997
 51
0.0
  0
ARC
  5
3EC
330
18
100
AcDbEntity
  8
1
  6
Continuous
100
AcDbCircle
 10
103.0453021669307
 20
378.8542169195422
 30
0.0
 40
2.0
100
AcDbArc
 50
269.9999629999997
 51
0.0
  0
ARC
  5
3ED
330
18
100
AcDbEntity
  8
1
  6
Continuous
100
AcDbCircle
 10
310.0361091669307
 20
265.2879729195422
 30
0.0
 40
200.0
100
AcDbArc
 50
160.7901389999994
 51
173.9299609999997
  0
ARC
  5
3EE
330
18
100
AcDbEntity
  8
1
  6
Continuous
100
AcDbCircle
 10
313.1611451669306
 20
263.704781919542
 30
0.0
 40
200.0
100
AcDbArc
 50
162.1308090000004
 51
172.683534
  0
LINE
  5
3EF
330
18
100
AcDbEntity
  8
1
  6
Continuous
100
AcDbLine
 10
111.0453021669306
 20
377.8542169195422
 30
0.0
 11
111.0453021669306
 21
257.8542109195422
 31
0.0
  0
ARC
  5
3F0
330
18
100
AcDbEntity
  8
1
  6
Continuous
100
AcDbCircle
 10
95.0036301669307
 20
276.8542109195422
 30
0.0
 40
23.541666
100
AcDbArc
 50
330.7582050000001
 51
29.24172000000032
  0
LINE
  5
3F1
330
18
100
AcDbEntity
  8
1
  6
Continuous
100
AcDbLine
 10
114.5453021669307
 20
285.3542109195421
 30
0.0
 11
114.5453021669307
 21
257.8542109195422
 31
0.0
  0
LINE
  5
3F2
330
18
100
AcDbEntity
  8
1
  6
Continuous
100
AcDbLine
 10
115.5453021669307
 20
288.3542109195421
 30
0.0
 11
115.5453021669307
 21
265.354210919542
 31
0.0
  0
LINE
  5
3F3
330
18
100
AcDbEntity
  8
1
  6
Continuous
100
AcDbLine
 10
114.5453021669307
 20
265.354210919542
 30
0.0
 11
115.5453021669307
 21
265.354210919542
 31
0.0
  0
LINE
  5
3F4
330
18
100
AcDbEntity
  8
1
  6
Continuous
100
AcDbLine
 10
110.5453021669307
 20
268.3542109195422
 30
0.0
 11
111.0453021669306
 21
268.3542109195422
 31
0.0
  0
LINE
  5
3F5
330
18
100
AcDbEntity
  8
1
  6
Continuous
100
AcDbLine
 10
114.5453021669307
 20
257.8542109195422
 30
0.0
 11
111.0453021669306
 21
257.8542109195422
 31
0.0
  0
LINE
  5
3F6
330
18
100
AcDbEntity
  8
1
  6
Continuous
100
AcDbLine
 10
114.6956771669305
 20
288.3542109195421
 30
0.0
 11
115.5453021669307
 21
288.3542109195421
 31
0.0
  0
LINE
  5
3F7
330
18
100
AcDbEntity
  8
1
  6
Continuous
100
AcDbLine
 10
110.5453021669307
 20
285.3542109195421
 30
0.0
 11
111.0453021669306
 21
285.3542109195421
 31
0.0
  0
ARC
  5
3F8
330
18
100
AcDbEntity
  8
1
  6
Continuous
100
AcDbCircle
 10
131.0453021669306
 20
284.3219309195422
 30
0.0
 40
20.0
100
AcDbArc
 50
173.9299609999997
 51
180.0000050000005
  0
ARC
  5
3F9
330
18
100
AcDbEntity
  8
1
  6
Continuous
100
AcDbCircle
 10
144.5453021669306
 20
285.3542109195421
 30
0.0
 40
30.0
100
AcDbArc
 50
172.683534
 51
180.0000050000005
  0
ARC
  5
3FA
330
18
100
AcDbEntity
  8
1
  6
Continuous
100
AcDbCircle
 10
-19.9546978330693
 20
371.1004809195422
 30
0.0
 40
150.0
100
AcDbArc
 50
342.1308110000005
 51
0.0000219999999343
  0
LINE
  5
3FB
330
18
100
AcDbEntity
  8
1
  6
Continuous
100
AcDbLine
 10
126.5453021669306
 20
377.8542169195422
 30
0.0
 11
126.5453021669306
 21
362.8451319195422
 31
0.0
  0
ARC
  5
3FC
330
18
100
AcDbEntity
  8
1
  6
Continuous
100
AcDbCircle
 10
30.04530216693069
 20
362.8451319195422
 30
0.0
 40
96.5
100
AcDbArc
 50
340.7901370000004
 51
0.0000219999999343
  0
ARC
  5
3FD
330
18
100
AcDbEntity
  8
1
  6
Continuous
100
AcDbCircle
 10
110.0453021669306
 20
377.8542169195422
 30
0.0
 40
1.0
100
AcDbArc
 50
0.0000360000000406
 51
90.00001600000006
  0
ARC
  5
3FE
330
18
100
AcDbEntity
  8
1
  6
Continuous
100
AcDbCircle
 10
132.5453021669307
 20
373.3998609195422
 30
0.0
 40
6.0
100
AcDbArc
 50
114.6242889999999
 51
179.9999639999999
  0
LINE
  5
3FF
330
18
100
AcDbEntity
  8
1
  6
Continuous
100
AcDbLine
 10
130.0453021669307
 20
382.3542189195422
 30
0.0
 11
130.0453021669307
 21
371.1004809195422
 31
0.0
  0
ARC
  5
400
330
18
100
AcDbEntity
  8
1
  6
Continuous
100
AcDbCircle
 10
125.5453021669306
 20
377.8542169195422
 30
0.0
 40
1.0
100
AcDbArc
 50
0.0
 51
89.99998199999998
  0
LINE
  5
402
330
18
100
AcDbEntity
  8
4
  6
CENTER
 48
0.8
100
AcDbLine
 10
290.6818636404677
 20
563.3875439195421
 30
0.0
 11
290.6818636404677
 21
472.3875499195421
 31
0.0
  0
LINE
  5
403
330
18
100
AcDbEntity
  8
1
  6
Continuous
100
AcDbLine
 10
220.6818636404676
 20
477.8875439195421
 30
0.0
 11
220.6818636404676
 21
547.8875439195421
 31
0.0
  0
LINE
  5
404
330
18
100
AcDbEntity
  8
1
  6
Continuous
100
AcDbLine
 10
360.6818596404676
 20
477.8875439195421
 30
0.0
 11
360.6818596404676
 21
547.8875439195421
 31
0.0
  0
ARC
  5
405
330
18
100
AcDbEntity
  8
1
  6
Continuous
100
AcDbCircle
 10
241.6818636404676
 20
512.8875439195422
 30
0.0
 40
10.0
100
AcDbArc
 50
89.99998199999998
 51
270.0000009999997
  0
ARC
  5
406
330
18
100
AcDbEntity
  8
1
  6
Continuous
100
AcDbCircle
 10
245.6818636404676
 20
484.8875439195421
 30
0.0
 40
18.0
100
AcDbArc
 50
31.58809499999971
 51
89.99992700000012
  0
ARC
  5
407
330
18
100
AcDbEntity
  8
1
  6
Continuous
100
AcDbCircle
 10
339.6818596404676
 20
512.8875439195422
 30
0.0
 40
10.0
100
AcDbArc
 50
269.9999629999997
 51
89.99998199999998
  0
ARC
  5
408
330
18
100
AcDbEntity
  8
1
  6
Continuous
100
AcDbCircle
 10
335.6818596404676
 20
484.8875439195421
 30
0.0
 40
18.0
100
AcDbArc
 50
90.00003699999981
 51
148.4118690000005
  0
LINE
  5
40A
330
18
100
AcDbEntity
  8
1
  6
Continuous
100
AcDbLine
 10
263.5704096404675
 20
492.8875439195421
 30
0.0
 11
317.7933176404676
 21
492.8875439195421
 31
0.0
  0
LINE
  5
40B
330
18
100
AcDbEntity
  8
1
  6
Continuous
100
AcDbLine
 10
311.0630361329429
 20
481.3875439195418
 30
0.0
 11
270.3006911479923
 21
481.3875439195418
 31
0.0
  0
LINE
  5
40C
330
18
100
AcDbEntity
  8
1
  6
Continuous
100
AcDbLine
 10
220.6818636404676
 20
382.3542189195422
 30
0.0
 11
360.6818596404676
 21
382.3542189195422
 31
0.0
  0
CIRCLE
  5
40E
330
18
100
AcDbEntity
  8
1
  6
Continuous
100
AcDbCircle
 10
290.6818636404677
 20
276.854218919542
 30
0.0
 40
11.49997699999999
  0
ARC
  5
40F
330
18
100
AcDbEntity
  8
1
  6
Continuous
100
AcDbCircle
 10
290.6818636404677
 20
276.854218919542
 30
0.0
 40
19.0
100
AcDbArc
 50
269.9999629999997
 51
343.6876229999993
  0
LINE
  5
411
330
18
100
AcDbEntity
  8
1
  6
Continuous
100
AcDbLine
 10
261.6151976404676
 20
308.5439929195421
 30
0.0
 11
261.6151976404676
 21
375.2875519195422
 31
0.0
  0
LINE
  5
412
330
18
100
AcDbEntity
  8
1
  6
Continuous
100
AcDbLine
 10
272.4467137083734
 20
271.5176182267749
 30
0.0
 11
242.4589986404676
 21
364.4655339195422
 31
0.0
  0
ARC
  5
413
330
18
100
AcDbEntity
  8
1
  6
Continuous
100
AcDbCircle
 10
-79.81350135953231
 20
228.092118919542
 30
0.0
 40
350.0
100
AcDbArc
 50
12.70624699999959
 51
23.16246099999961
  0
ARC
  5
414
330
18
100
AcDbEntity
  8
1
  6
Continuous
100
AcDbCircle
 10
290.6818636404677
 20
276.854218919542
 30
0.0
 40
19.0
100
AcDbArc
 50
196.3123579999999
 51
270.0000179999999
  0
ARC
  5
415
330
18
100
AcDbEntity
  8
1
  6
Continuous
100
AcDbCircle
 10
232.6818636404676
 20
477.8875439195421
 30
0.0
 40
12.0
100
AcDbArc
 50
179.9999809999993
 51
269.9999629999997
  0
ARC
  5
416
330
18
100
AcDbEntity
  8
1
  6
Continuous
100
AcDbCircle
 10
234.6818636404676
 20
486.3875439195421
 30
0.0
 40
5.5
100
AcDbArc
 50
75.96366999999997
 51
255.9636339999999
  0
LINE
  5
417
330
18
100
AcDbEntity
  8
1
  6
Continuous
100
AcDbLine
 10
220.6818636404676
 20
378.8542189195422
 30
0.0
 11
232.6818866404677
 21
378.8542189195422
 31
0.0
  0
LINE
  5
418
330
18
100
AcDbEntity
  8
1
  6
Continuous
100
AcDbLine
 10
220.6818636404676
 20
382.3542359195421
 30
0.0
 11
220.6818636404676
 21
378.8542189195422
 31
0.0
  0
ARC
  5
419
330
18
100
AcDbEntity
  8
1
  6
Continuous
100
AcDbCircle
 10
228.1832356404676
 20
359.8608989195422
 30
0.0
 40
15.0
100
AcDbArc
 50
17.87706199999957
 51
63.42957600000036
  0
ARC
  5
41A
330
18
100
AcDbEntity
  8
1
  6
Continuous
100
AcDbCircle
 10
236.6818866404677
 20
376.8542189195422
 30
0.0
 40
4.0
100
AcDbArc
 50
179.9999809999993
 51
243.4295709999998
  0
ARC
  5
41B
330
18
100
AcDbEntity
  8
1
  6
Continuous
100
AcDbCircle
 10
229.1818866404677
 20
378.8542189195422
 30
0.0
 40
3.5
100
AcDbArc
 50
0.0
 51
89.99998199999998
  0
LINE
  5
41C
330
18
100
AcDbEntity
  8
1
  6
Continuous
100
AcDbLine
 10
232.6818866404677
 20
376.8542189195422
 30
0.0
 11
232.6818866404677
 21
378.8542189195422
 31
0.0
  0
LINE
  5
41E
330
18
100
AcDbEntity
  8
1
  6
Continuous
100
AcDbLine
 10
245.6818636404676
 20
502.8875439195421
 30
0.0
 11
241.6818636404676
 21
502.8875439195421
 31
0.0
  0
ARC
  5
420
330
18
100
AcDbEntity
  8
1
  6
Continuous
100
AcDbCircle
 10
240.6818636404675
 20
484.8875439195421
 30
0.0
 40
5.5
100
AcDbArc
 50
255.963665
 51
75.96366999999954
  0
LINE
  5
421
330
18
100
AcDbEntity
  8
1
  6
Continuous
100
AcDbLine
 10
233.3479226404675
 20
481.0517599195422
 30
0.0
 11
239.3479216404676
 21
479.5517609195421
 31
0.0
  0
LINE
  5
422
330
18
100
AcDbEntity
  8
1
  6
Continuous
100
AcDbLine
 10
232.6818636404676
 20
465.8875439195421
 30
0.0
 11
238.6818636404675
 21
465.8875439195421
 31
0.0
  0
LINE
  5
423
330
18
100
AcDbEntity
  8
1
  6
Continuous
100
AcDbLine
 10
236.0158126404676
 20
491.7233279195421
 30
0.0
 11
242.0158136404676
 21
490.2233279195421
 31
0.0
  0
ARC
  5
429
330
18
100
AcDbEntity
  8
1
  6
Continuous
100
AcDbCircle
 10
263.5704096404676
 20
495.8875439195422
 30
0.0
 40
3.0
100
AcDbArc
 50
211.5880079999993
 51
269.9999629999997
  0
LINE
  5
42A
330
18
100
AcDbEntity
  8
1
  6
Continuous
100
AcDbLine
 10
308.917011802877
 20
271.5176121797702
 30
0.0
 11
338.9047306404676
 21
364.4655329195422
 31
0.0
  0
LINE
  5
42B
330
18
100
AcDbEntity
  8
1
  6
Continuous
100
AcDbLine
 10
319.7485256404676
 20
308.5439929195421
 30
0.0
 11
319.7485256404676
 21
375.2875519195422
 31
0.0
  0
ARC
  5
42C
330
18
100
AcDbEntity
  8
1
  6
Continuous
100
AcDbCircle
 10
661.1772206404675
 20
228.092118919542
 30
0.0
 40
350.0
100
AcDbArc
 50
156.8375079999995
 51
167.2937220000006
  0
ARC
  5
42D
330
18
100
AcDbEntity
  8
1
  6
Continuous
100
AcDbCircle
 10
348.6818596404676
 20
477.8875439195421
 30
0.0
 40
12.0
100
AcDbArc
 50
269.9999629999997
 51
359.9999449999992
  0
ARC
  5
42E
330
18
100
AcDbEntity
  8
1
  6
Continuous
100
AcDbCircle
 10
346.6818596404676
 20
486.3875439195421
 30
0.0
 40
5.5
100
AcDbArc
 50
284.0362619999997
 51
104.036239
  0
LINE
  5
42F
330
18
100
AcDbEntity
  8
1
  6
Continuous
100
AcDbLine
 10
360.6818596404675
 20
378.8542189195422
 30
0.0
 11
348.6818446404675
 21
378.8542189195422
 31
0.0
  0
ARC
  5
430
330
18
100
AcDbEntity
  8
1
  6
Continuous
100
AcDbCircle
 10
353.1804866404677
 20
359.8608989195422
 30
0.0
 40
15.0
100
AcDbArc
 50
116.5703880000002
 51
162.1229000000005
  0
ARC
  5
431
330
18
100
AcDbEntity
  8
1
  6
Continuous
100
AcDbCircle
 10
344.6818446404676
 20
376.8542189195422
 30
0.0
 40
4.0
100
AcDbArc
 50
296.57041
 51
0.0
  0
ARC
  5
432
330
18
100
AcDbEntity
  8
1
  6
Continuous
100
AcDbCircle
 10
352.1818446404676
 20
378.8542189195422
 30
0.0
 40
3.5
100
AcDbArc
 50
89.99998199999998
 51
179.9999639999999
  0
LINE
  5
433
330
18
100
AcDbEntity
  8
1
  6
Continuous
100
AcDbLine
 10
348.6818446404676
 20
376.8542189195422
 30
0.0
 11
348.6818446404676
 21
378.8542189195422
 31
0.0
  0
ARC
  5
435
330
18
100
AcDbEntity
  8
1
  6
Continuous
100
AcDbCircle
 10
317.7933176404676
 20
495.8875439195422
 30
0.0
 40
3.0
100
AcDbArc
 50
270.0000179999999
 51
328.4119729999994
  0
LINE
  5
436
330
18
100
AcDbEntity
  8
1
  6
Continuous
100
AcDbLine
 10
335.6818596404676
 20
502.8875439195421
 30
0.0
 11
339.6818596404676
 21
502.8875439195421
 31
0.0
  0
ARC
  5
438
330
18
100
AcDbEntity
  8
1
  6
Continuous
100
AcDbCircle
 10
340.6818596404676
 20
484.8875439195421
 30
0.0
 40
5.5
100
AcDbArc
 50
104.0362389999998
 51
284.036258
  0
LINE
  5
439
330
18
100
AcDbEntity
  8
1
  6
Continuous
100
AcDbLine
 10
348.0158176404676
 20
481.0517449195422
 30
0.0
 11
342.0158286404677
 21
479.5517469195421
 31
0.0
  0
LINE
  5
43A
330
18
100
AcDbEntity
  8
1
  6
Continuous
100
AcDbLine
 10
348.6818596404676
 20
465.8875439195421
 30
0.0
 11
342.6818596404676
 21
465.8875439195421
 31
0.0
  0
LINE
  5
43C
330
18
100
AcDbEntity
  8
1
  6
Continuous
100
AcDbLine
 10
345.3479256404676
 20
491.7233119195421
 30
0.0
 11
339.3479376404677
 21
490.2233149195421
 31
0.0
  0
LINE
  5
440
330
18
100
AcDbEntity
  8
1
  6
Continuous
100
AcDbLine
 10
360.6818596404676
 20
382.3542359195421
 30
0.0
 11
360.6818596404676
 21
378.8542189195422
 31
0.0
  0
LINE
  5
441
330
18
100
AcDbEntity
  8
4
  6
CENTER
 48
0.8
100
AcDbLine
 10
215.6818636404675
 20
512.8875439195422
 30
0.0
 11
365.6818596404676
 21
512.8875439195422
 31
0.0
  0
LINE
  5
442
330
18
100
AcDbEntity
  8
1
  6
Continuous
100
AcDbLine
 10
263.5704096404675
 20
532.887543919542
 30
0.0
 11
317.7933176404676
 21
532.887543919542
 31
0.0
  0
LINE
  5
443
330
18
100
AcDbEntity
  8
1
  6
Continuous
100
AcDbLine
 10
311.0630361329429
 20
544.3875439195421
 30
0.0
 11
270.3006911479923
 21
544.3875439195421
 31
0.0
  0
ARC
  5
444
330
18
100
AcDbEntity
  8
1
  6
Continuous
100
AcDbCircle
 10
232.6818636404676
 20
547.8875439195421
 30
0.0
 40
12.0
100
AcDbArc
 50
89.99998199999998
 51
179.9999639999999
  0
ARC
  5
445
330
18
100
AcDbEntity
  8
1
  6
Continuous
100
AcDbCircle
 10
234.6818636404676
 20
539.3875439195421
 30
0.0
 40
5.5
100
AcDbArc
 50
104.03628
 51
284.036258
  0
ARC
  5
447
330
18
100
AcDbEntity
  8
1
  6
Continuous
100
AcDbCircle
 10
245.6818636404676
 20
540.8875439195421
 30
0.0
 40
18.0
100
AcDbArc
 50
270.0000179999999
 51
328.4118499999992
  0
LINE
  5
449
330
18
100
AcDbEntity
  8
1
  6
Continuous
100
AcDbLine
 10
245.6818636404676
 20
522.8875439195421
 30
0.0
 11
241.6818636404676
 21
522.8875439195421
 31
0.0
  0
ARC
  5
44A
330
18
100
AcDbEntity
  8
1
  6
Continuous
100
AcDbCircle
 10
240.6818636404675
 20
540.8875439195421
 30
0.0
 40
5.5
100
AcDbArc
 50
284.036275
 51
104.0362800000004
  0
LINE
  5
44B
330
18
100
AcDbEntity
  8
1
  6
Continuous
100
AcDbLine
 10
233.3479206404676
 20
544.7233259195421
 30
0.0
 11
239.3479206404677
 21
546.2233249195421
 31
0.0
  0
LINE
  5
44C
330
18
100
AcDbEntity
  8
1
  6
Continuous
100
AcDbLine
 10
236.0158126404676
 20
534.0517579195421
 30
0.0
 11
242.0158126404675
 21
535.5517579195422
 31
0.0
  0
LINE
  5
452
330
18
100
AcDbEntity
  8
1
  6
Continuous
100
AcDbLine
 10
232.6818636404676
 20
559.8875439195421
 30
0.0
 11
238.6818636404675
 21
559.8875439195421
 31
0.0
  0
ARC
  5
454
330
18
100
AcDbEntity
  8
1
  6
Continuous
100
AcDbCircle
 10
263.5704096404676
 20
529.8875439195422
 30
0.0
 40
3.0
100
AcDbArc
 50
89.99998199999998
 51
148.4119369999993
  0
ARC
  5
455
330
18
100
AcDbEntity
  8
1
  6
Continuous
100
AcDbCircle
 10
348.6818596404676
 20
547.8875439195421
 30
0.0
 40
12.0
100
AcDbArc
 50
0.0
 51
89.99998199999998
  0
ARC
  5
456
330
18
100
AcDbEntity
  8
1
  6
Continuous
100
AcDbCircle
 10
346.6818596404676
 20
539.3875439195421
 30
0.0
 40
5.5
100
AcDbArc
 50
255.9637059999999
 51
75.96368400000037
  0
ARC
  5
457
330
18
100
AcDbEntity
  8
1
  6
Continuous
100
AcDbCircle
 10
335.6818596404676
 20
540.8875439195421
 30
0.0
 40
18.0
100
AcDbArc
 50
211.5881309999993
 51
269.9999629999997
  0
ARC
  5
459
330
18
100
AcDbEntity
  8
1
  6
Continuous
100
AcDbCircle
 10
317.7933176404676
 20
529.8875439195422
 30
0.0
 40
3.0
100
AcDbArc
 50
31.5880270000005
 51
89.99998199999998
  0
LINE
  5
45A
330
18
100
AcDbEntity
  8
1
  6
Continuous
100
AcDbLine
 10
335.6818596404676
 20
522.8875439195421
 30
0.0
 11
339.6818596404676
 21
522.8875439195421
 31
0.0
  0
ARC
  5
45B
330
18
100
AcDbEntity
  8
1
  6
Continuous
100
AcDbCircle
 10
340.6818596404676
 20
540.8875439195421
 30
0.0
 40
5.5
100
AcDbArc
 50
75.96368400000037
 51
255.9636889999998
  0
LINE
  5
45C
330
18
100
AcDbEntity
  8
1
  6
Continuous
100
AcDbLine
 10
348.0158066404678
 20
544.7233369195421
 30
0.0
 11
342.0158106404676
 21
546.2233359195421
 31
0.0
  0
LINE
  5
45F
330
18
100
AcDbEntity
  8
1
  6
Continuous
100
AcDbLine
 10
345.3479146404677
 20
534.0517689195421
 30
0.0
 11
339.3479186404677
 21
535.5517679195421
 31
0.0
  0
ARC
  5
462
330
18
100
AcDbEntity
  8
1
  6
Continuous
100
AcDbCircle
 10
342.6818596404676
 20
537.8875439195422
 30
0.0
 40
22.0
100
AcDbArc
 50
89.99998199999998
 51
142.2295104113642
  0
LINE
  5
463
330
18
100
AcDbEntity
  8
1
  6
Continuous
100
AcDbLine
 10
348.6818596404676
 20
559.8875439195421
 30
0.0
 11
342.6818596404676
 21
559.8875439195421
 31
0.0
  0
ARC
  5
46B
330
18
100
AcDbEntity
  8
1
  6
Continuous
100
AcDbCircle
 10
290.6818636404677
 20
276.854218919542
 30
0.0
 40
62.5
100
AcDbArc
 50
125.5750734931252
 51
54.42492437985073
  0
LINE
  5
46C
330
18
100
AcDbEntity
  8
4
  6
CENTER
 48
0.8
100
AcDbLine
 10
223.1818636404676
 20
276.854218919542
 30
0.0
 11
358.1818636404676
 21
276.854218919542
 31
0.0
  0
LINE
  5
46D
330
18
100
AcDbEntity
  8
4
  6
CENTER
 48
0.8
100
AcDbLine
 10
290.6818636404675
 20
387.3542189195422
 30
0.0
 11
290.6818636404677
 21
209.354218919542
 31
0.0
  0
ARC
  5
46E
330
18
100
AcDbEntity
  8
1
  6
Continuous
100
AcDbCircle
 10
290.6818636404677
 20
276.854218919542
 30
0.0
 40
20.75
100
AcDbArc
 50
174.1770673395705
 51
5.822917475665167
  0
ARC
  5
46F
330
18
100
AcDbEntity
  8
1
  6
Continuous
100
AcDbCircle
 10
290.6818636404677
 20
276.854218919542
 30
0.0
 40
46.5
100
AcDbArc
 50
131.9941159712325
 51
48.00588104470104
  0
ARC
  5
470
330
18
100
AcDbEntity
  8
1
  6
Continuous
100
AcDbCircle
 10
272.9283426404677
 20
287.1042189195421
 30
0.0
 40
20.0
100
AcDbArc
 50
128.1219850000005
 51
171.8780150000004
  0
ARC
  5
471
330
18
100
AcDbEntity
  8
1
  6
Continuous
100
AcDbCircle
 10
288.3617876404676
 20
267.4367639195421
 30
0.0
 40
45.0
100
AcDbArc
 50
125.8707018765207
 51
128.1219850000005
  0
ARC
  5
472
330
18
100
AcDbEntity
  8
1
  6
Continuous
100
AcDbCircle
 10
290.6818636404677
 20
276.854218919542
 30
0.0
 40
23.0
100
AcDbArc
 50
163.5759075327956
 51
165.5224879999986
  0
ARC
  5
473
330
18
100
AcDbEntity
  8
1
  6
Continuous
100
AcDbCircle
 10
263.5709806404676
 20
283.8542189195421
 30
0.0
 40
5.0
100
AcDbArc
 50
270.0
 51
345.5224879999986
  0
LINE
  5
474
330
18
100
AcDbEntity
  8
1
  6
Continuous
100
AcDbLine
 10
263.5709806404676
 20
278.854218919542
 30
0.0
 11
258.6986586404676
 21
278.854218919542
 31
0.0
  0
ARC
  5
475
330
18
100
AcDbEntity
  8
1
  6
Continuous
100
AcDbCircle
 10
258.6986586404676
 20
284.8542189195421
 30
0.0
 40
6.0
100
AcDbArc
 50
178.1162050000006
 51
270.0
  0
ARC
  5
476
330
18
100
AcDbEntity
  8
1
  6
Continuous
100
AcDbCircle
 10
297.6775806404676
 20
283.5721909195422
 30
0.0
 40
45.0
100
AcDbArc
 50
171.8780150000004
 51
178.1162050000006
  0
ARC
  5
478
330
18
100
AcDbEntity
  8
1
  6
Continuous
100
AcDbCircle
 10
272.9283426404677
 20
266.6042189195422
 30
0.0
 40
20.0
100
AcDbArc
 50
188.1219849999993
 51
231.8780149999994
  0
ARC
  5
479
330
18
100
AcDbEntity
  8
1
  6
Continuous
100
AcDbCircle
 10
263.5709806404676
 20
269.854218919542
 30
0.0
 40
5.0
100
AcDbArc
 50
14.47751200000133
 51
90.0
  0
ARC
  5
47B
330
18
100
AcDbEntity
  8
1
  6
Continuous
100
AcDbCircle
 10
288.3617876404676
 20
286.2716739195422
 30
0.0
 40
45.0
100
AcDbArc
 50
231.8780149999994
 51
238.1162049999995
  0
ARC
  5
47C
330
18
100
AcDbEntity
  8
1
  6
Continuous
100
AcDbCircle
 10
267.7620576404676
 20
253.1559509195421
 30
0.0
 40
6.0
100
AcDbArc
 50
238.1162049999995
 51
330.0
  0
LINE
  5
47D
330
18
100
AcDbEntity
  8
1
  6
Continuous
100
AcDbLine
 10
275.3943706404677
 20
254.3755049195421
 30
0.0
 11
272.9582096404675
 21
250.155950919542
 31
0.0
  0
ARC
  5
47E
330
18
100
AcDbEntity
  8
1
  6
Continuous
100
AcDbCircle
 10
271.0642436404676
 20
256.8755049195422
 30
0.0
 40
5.0
100
AcDbArc
 50
330.0
 51
45.52248799999968
  0
ARC
  5
47F
330
18
100
AcDbEntity
  8
1
  6
Continuous
100
AcDbCircle
 10
290.6818636404677
 20
276.854218919542
 30
0.0
 40
23.0
100
AcDbArc
 50
194.4775120000013
 51
225.5224879999996
  0
LINE
  5
480
330
18
100
AcDbEntity
  8
1
  6
Continuous
100
AcDbLine
 10
263.5709806404676
 20
274.8542189195422
 30
0.0
 11
258.6986586404676
 21
274.8542189195422
 31
0.0
  0
ARC
  5
481
330
18
100
AcDbEntity
  8
1
  6
Continuous
100
AcDbCircle
 10
258.6986586404676
 20
268.854218919542
 30
0.0
 40
6.0
100
AcDbArc
 50
90.0
 51
181.8837949999991
  0
ARC
  5
482
330
18
100
AcDbEntity
  8
1
  6
Continuous
100
AcDbCircle
 10
297.6775806404676
 20
270.136246919542
 30
0.0
 40
45.0
100
AcDbArc
 50
181.8837949999991
 51
188.1219849999993
  0
ARC
  5
483
330
18
100
AcDbEntity
  8
1
  6
Continuous
100
AcDbCircle
 10
290.6818636404677
 20
256.354218919542
 30
0.0
 40
20.0
100
AcDbArc
 50
248.1219849999993
 51
291.8780150000007
  0
ARC
  5
484
330
18
100
AcDbEntity
  8
1
  6
Continuous
100
AcDbCircle
 10
283.1885996404677
 20
249.8755049195422
 30
0.0
 40
5.0
100
AcDbArc
 50
74.47751200000009
 51
150.0
  0
LINE
  5
485
330
18
100
AcDbEntity
  8
1
  6
Continuous
100
AcDbLine
 10
302.5052546404676
 20
252.3755049195421
 30
0.0
 11
304.9414156404677
 21
248.155950919542
 31
0.0
  0
ARC
  5
486
330
18
100
AcDbEntity
  8
1
  6
Continuous
100
AcDbCircle
 10
281.6184646404677
 20
245.155950919542
 30
0.0
 40
6.0
100
AcDbArc
 50
150.0
 51
241.8837949999991
  0
ARC
  5
487
330
18
100
AcDbEntity
  8
1
  6
Continuous
100
AcDbCircle
 10
299.9976566404677
 20
279.5537019195421
 30
0.0
 40
45.0
100
AcDbArc
 50
241.8837949999991
 51
248.1219849999993
  0
ARC
  5
488
330
18
100
AcDbEntity
  8
1
  6
Continuous
100
AcDbCircle
 10
290.6818636404677
 20
276.854218919542
 30
0.0
 40
23.0
100
AcDbArc
 50
254.477512
 51
285.5224879999998
  0
ARC
  5
489
330
18
100
AcDbEntity
  8
1
  6
Continuous
100
AcDbCircle
 10
298.1751276404676
 20
249.8755049195422
 30
0.0
 40
5.0
100
AcDbArc
 50
29.99999999999993
 51
105.5224879999999
  0
ARC
  5
48B
330
18
100
AcDbEntity
  8
1
  6
Continuous
100
AcDbCircle
 10
281.3660706404677
 20
279.5537019195421
 30
0.0
 40
45.0
100
AcDbArc
 50
291.8780150000007
 51
298.116204999999
  0
ARC
  5
48C
330
18
100
AcDbEntity
  8
1
  6
Continuous
100
AcDbCircle
 10
299.7452626404676
 20
245.155950919542
 30
0.0
 40
6.0
100
AcDbArc
 50
298.116204999999
 51
29.99999999999993
  0
LINE
  5
48D
330
18
100
AcDbEntity
  8
1
  6
Continuous
100
AcDbLine
 10
278.8584726404677
 20
252.3755049195421
 30
0.0
 11
276.4223116404676
 21
248.155950919542
 31
0.0
  0
ARC
  5
48E
330
18
100
AcDbEntity
  8
1
  6
Continuous
100
AcDbCircle
 10
308.4353846404677
 20
266.6042189195422
 30
0.0
 40
20.0
100
AcDbArc
 50
308.1219850000004
 51
351.8780150000005
  0
ARC
  5
48F
330
18
100
AcDbEntity
  8
1
  6
Continuous
100
AcDbCircle
 10
310.2994836404676
 20
256.8755049195422
 30
0.0
 40
5.0
100
AcDbArc
 50
134.4775120000003
 51
209.9999999999999
  0
LINE
  5
490
330
18
100
AcDbEntity
  8
1
  6
Continuous
100
AcDbLine
 10
317.7927466404677
 20
274.8542189195422
 30
0.0
 11
322.6650686404677
 21
274.8542189195422
 31
0.0
  0
ARC
  5
491
330
18
100
AcDbEntity
  8
1
  6
Continuous
100
AcDbCircle
 10
313.6016696404677
 20
253.1559509195421
 30
0.0
 40
6.0
100
AcDbArc
 50
209.9999999999999
 51
301.8837950000003
  0
ARC
  5
492
330
18
100
AcDbEntity
  8
1
  6
Continuous
100
AcDbCircle
 10
293.0019396404677
 20
286.2716739195422
 30
0.0
 40
45.0
100
AcDbArc
 50
301.8837950000003
 51
308.1219850000004
  0
ARC
  5
493
330
18
100
AcDbEntity
  8
1
  6
Continuous
100
AcDbCircle
 10
290.6818636404677
 20
276.854218919542
 30
0.0
 40
23.0
100
AcDbArc
 50
314.4775120000003
 51
345.5224879999986
  0
ARC
  5
494
330
18
100
AcDbEntity
  8
1
  6
Continuous
100
AcDbCircle
 10
317.7927466404677
 20
269.854218919542
 30
0.0
 40
5.0
100
AcDbArc
 50
90.0
 51
165.5224879999986
  0
ARC
  5
496
330
18
100
AcDbEntity
  8
1
  6
Continuous
100
AcDbCircle
 10
283.6861466404677
 20
270.136246919542
 30
0.0
 40
45.0
100
AcDbArc
 50
351.8780150000005
 51
358.1162050000006
  0
ARC
  5
497
330
18
100
AcDbEntity
  8
1
  6
Continuous
100
AcDbCircle
 10
322.6650686404677
 20
268.854218919542
 30
0.0
 40
6.0
100
AcDbArc
 50
358.1162050000006
 51
90.0
  0
LINE
  5
498
330
18
100
AcDbEntity
  8
1
  6
Continuous
100
AcDbLine
 10
305.9693566404677
 20
254.3755049195421
 30
0.0
 11
308.4055176404676
 21
250.155950919542
 31
0.0
  0
ARC
  5
499
330
18
100
AcDbEntity
  8
1
  6
Continuous
100
AcDbCircle
 10
308.4353846404677
 20
287.1042189195421
 30
0.0
 40
20.0
100
AcDbArc
 50
8.121984999999414
 51
51.87801499999943
  0
ARC
  5
49A
330
18
100
AcDbEntity
  8
1
  6
Continuous
100
AcDbCircle
 10
317.7927466404677
 20
283.8542189195421
 30
0.0
 40
5.0
100
AcDbArc
 50
194.4775120000013
 51
270.0
  0
ARC
  5
49B
330
18
100
AcDbEntity
  8
1
  6
Continuous
100
AcDbCircle
 10
322.6650686404677
 20
284.8542189195421
 30
0.0
 40
6.0
100
AcDbArc
 50
270.0
 51
1.88379499999924
  0
ARC
  5
49C
330
18
100
AcDbEntity
  8
1
  6
Continuous
100
AcDbCircle
 10
283.6861466404677
 20
283.5721909195422
 30
0.0
 40
45.0
100
AcDbArc
 50
1.88379499999924
 51
8.121984999999414
  0
ARC
  5
49D
330
18
100
AcDbEntity
  8
1
  6
Continuous
100
AcDbCircle
 10
290.6818636404677
 20
276.854218919542
 30
0.0
 40
23.0
100
AcDbArc
 50
14.47751200000133
 51
16.42408269616185
  0
ARC
  5
49F
330
18
100
AcDbEntity
  8
1
  6
Continuous
100
AcDbCircle
 10
293.0019396404677
 20
267.4367639195421
 30
0.0
 40
45.0
100
AcDbArc
 50
51.87801499999943
 51
54.12929516437126
  0
LINE
  5
4A0
330
18
100
AcDbEntity
  8
1
  6
Continuous
100
AcDbLine
 10
317.7927466404677
 20
278.854218919542
 30
0.0
 11
322.6650686404677
 21
278.854218919542
 31
0.0
  0
ARC
  5
4A1
330
18
100
AcDbEntity
  8
1
  6
Continuous
100
AcDbCircle
 10
110.0453021669306
 20
268.3542109195422
 30
0.0
 40
0.5
100
AcDbArc
 50
270.0
 51
0.0
  0
ARC
  5
4A2
330
18
100
AcDbEntity
  8
1
  6
Continuous
100
AcDbCircle
 10
56.04530216693071
 20
268.3542109195422
 30
0.0
 40
0.5
100
AcDbArc
 50
180.0
 51
270.0
  0
LINE
  5
4A3
330
18
100
AcDbEntity
  8
1
  6
Continuous
100
AcDbLine
 10
110.0453021669306
 20
267.8542109195422
 30
0.0
 11
104.5453021669306
 21
267.8542109195422
 31
0.0
  0
LINE
  5
4A4
330
18
100
AcDbEntity
  8
1
  6
Continuous
100
AcDbLine
 10
56.04530216693071
 20
267.8542109195422
 30
0.0
 11
61.54530216693068
 21
267.8542109195422
 31
0.0
  0
ARC
  5
4A9
330
18
100
AcDbEntity
  8
1
  6
Continuous
100
AcDbCircle
 10
64.68656816693067
 20
228.6542099195421
 30
0.0
 40
1.5
100
AcDbArc
 50
10.56925000000078
 51
90.0
  0
LINE
  5
4AA
330
18
100
AcDbEntity
  8
1
  6
Continuous
100
AcDbLine
 10
64.04530216693071
 20
230.1542099195422
 30
0.0
 11
64.68656816693071
 21
230.1542099195422
 31
0.0
  0
ARC
  5
4AB
330
18
100
AcDbEntity
  8
1
  6
Continuous
100
AcDbCircle
 10
83.04530216693072
 20
284.3542109195421
 30
0.0
 40
70.0
100
AcDbArc
 50
260.4059319999995
 51
279.5940680000005
  0
ARC
  5
4AC
330
18
100
AcDbEntity
  8
1
  6
Continuous
100
AcDbCircle
 10
72.04530216693068
 20
219.2773329195421
 30
0.0
 40
4.0
100
AcDbArc
 50
190.6448210000013
 51
260.4059319999995
  0
LINE
  5
4AD
330
18
100
AcDbEntity
  8
1
  6
Continuous
100
AcDbLine
 10
66.1607551669307
 20
228.9312899195421
 30
0.0
 11
68.11413716693071
 21
218.538452919542
 31
0.0
  0
ARC
  5
4AE
330
18
100
AcDbEntity
  8
1
  6
Continuous
100
AcDbCircle
 10
94.04530216693069
 20
219.2773329195421
 30
0.0
 40
4.0
100
AcDbArc
 50
279.5940680000005
 51
349.3551789999985
  0
LINE
  5
4AF
330
18
100
AcDbEntity
  8
1
  6
Continuous
100
AcDbLine
 10
99.92984916693069
 20
228.9312899195421
 30
0.0
 11
97.97646716693069
 21
218.538452919542
 31
0.0
  0
ARC
  5
4B0
330
18
100
AcDbEntity
  8
1
  6
Continuous
100
AcDbCircle
 10
101.4040361669305
 20
228.6542099195421
 30
0.0
 40
1.5
100
AcDbArc
 50
90.0
 51
169.430749999999
  0
LINE
  5
4B1
330
18
100
AcDbEntity
  8
1
  6
Continuous
100
AcDbLine
 10
102.0453021669307
 20
230.1542099195422
 30
0.0
 11
101.4040361669305
 21
230.1542099195422
 31
0.0
  0
ARC
  5
4B4
330
18
100
AcDbEntity
  8
1
  6
Continuous
100
AcDbCircle
 10
102.5453021669306
 20
255.6042109195422
 30
0.0
 40
0.5
100
AcDbArc
 50
90.0
 51
180.0
  0
ARC
  5
4B5
330
18
100
AcDbEntity
  8
1
  6
Continuous
100
AcDbCircle
 10
103.0453021669307
 20
257.6042109195422
 30
0.0
 40
1.5
100
AcDbArc
 50
270.0
 51
0.0
  0
LINE
  5
4B6
330
18
100
AcDbEntity
  8
1
  6
Continuous
100
AcDbLine
 10
102.5453021669306
 20
256.1042109195422
 30
0.0
 11
103.0453021669307
 21
256.1042109195422
 31
0.0
  0
LINE
  5
4B9
330
18
100
AcDbEntity
  8
1
  6
Continuous
100
AcDbLine
 10
63.54530216693071
 20
256.1042109195422
 30
0.0
 11
63.0453021669307
 21
256.1042109195422
 31
0.0
  0
ARC
  5
4BA
330
18
100
AcDbEntity
  8
1
  6
Continuous
100
AcDbCircle
 10
63.0453021669307
 20
257.6042109195422
 30
0.0
 40
1.5
100
AcDbArc
 50
180.0
 51
270.0
  0
ARC
  5
4BB
330
18
100
AcDbEntity
  8
1
  6
Continuous
100
AcDbCircle
 10
63.54530216693071
 20
255.6042109195422
 30
0.0
 40
0.5
100
AcDbArc
 50
0.0
 51
90.0
  0
ARC
  5
4BE
330
18
100
AcDbEntity
  8
1
  6
Continuous
100
AcDbCircle
 10
110.0453021669306
 20
285.3542109195421
 30
0.0
 40
0.5
100
AcDbArc
 50
0.0
 51
90.0
  0
ARC
  5
4BF
330
18
100
AcDbEntity
  8
1
  6
Continuous
100
AcDbCircle
 10
56.04530216693071
 20
285.3542109195421
 30
0.0
 40
0.5
100
AcDbArc
 50
90.0
 51
180.0
  0
LINE
  5
4C0
330
18
100
AcDbEntity
  8
1
  6
Continuous
100
AcDbLine
 10
110.0453021669306
 20
285.8542109195422
 30
0.0
 11
104.5453021669306
 21
285.8542109195422
 31
0.0
  0
LINE
  5
4C1
330
18
100
AcDbEntity
  8
1
  6
Continuous
100
AcDbLine
 10
56.04530216693071
 20
285.8542109195422
 30
0.0
 11
61.54530216693068
 21
285.8542109195422
 31
0.0
  0
LINE
  5
4C2
330
18
100
AcDbEntity
  8
1
  6
Continuous
100
AcDbLine
 10
66.1865681669307
 20
323.3542109195421
 30
0.0
 11
66.1865681669307
 21
230.1542099195422
 31
0.0
  0
LINE
  5
4C3
330
18
100
AcDbEntity
  8
1
  6
Continuous
100
AcDbLine
 10
99.9040361669307
 20
323.3542109195421
 30
0.0
 11
99.9040361669307
 21
230.1542099195422
 31
0.0
  0
LINE
  5
4C4
330
18
100
AcDbEntity
  8
1
  6
Continuous
100
AcDbLine
 10
104.5453021669306
 20
257.6042109195422
 30
0.0
 11
104.5453021669306
 21
296.1042109195421
 31
0.0
  0
LINE
  5
4C5
330
18
100
AcDbEntity
  8
1
  6
Continuous
100
AcDbLine
 10
110.5453021669307
 20
268.3542109195422
 30
0.0
 11
110.5453021669307
 21
285.3542109195421
 31
0.0
  0
ARC
  5
4C6
330
18
100
AcDbEntity
  8
1
  6
Continuous
100
AcDbCircle
 10
64.68656816693067
 20
325.0542119195421
 30
0.0
 40
1.5
100
AcDbArc
 50
270.0
 51
349.4307499999991
  0
LINE
  5
4C7
330
18
100
AcDbEntity
  8
1
  6
Continuous
100
AcDbLine
 10
64.04530216693071
 20
323.5542119195422
 30
0.0
 11
64.68656816693071
 21
323.5542119195422
 31
0.0
  0
ARC
  5
4C8
330
18
100
AcDbEntity
  8
1
  6
Continuous
100
AcDbCircle
 10
83.04530216693072
 20
269.3542109195421
 30
0.0
 40
70.0
100
AcDbArc
 50
80.40593199999964
 51
99.59406800000037
  0
ARC
  5
4C9
330
18
100
AcDbEntity
  8
1
  6
Continuous
100
AcDbCircle
 10
72.04530216693068
 20
334.431088919542
 30
0.0
 40
4.0
100
AcDbArc
 50
99.59406800000037
 51
169.3551789999984
  0
LINE
  5
4CA
330
18
100
AcDbEntity
  8
1
  6
Continuous
100
AcDbLine
 10
66.1607551669307
 20
324.7771319195421
 30
0.0
 11
68.11413716693071
 21
335.1699689195422
 31
0.0
  0
ARC
  5
4CB
330
18
100
AcDbEntity
  8
1
  6
Continuous
100
AcDbCircle
 10
94.04530216693069
 20
334.431088919542
 30
0.0
 40
4.0
100
AcDbArc
 50
10.64482100000147
 51
80.40593199999964
  0
LINE
  5
4CC
330
18
100
AcDbEntity
  8
1
  6
Continuous
100
AcDbLine
 10
99.92984916693069
 20
324.7771319195421
 30
0.0
 11
97.97646716693069
 21
335.1699689195422
 31
0.0
  0
ARC
  5
4CD
330
18
100
AcDbEntity
  8
1
  6
Continuous
100
AcDbCircle
 10
101.4040361669305
 20
325.0542119195421
 30
0.0
 40
1.5
100
AcDbArc
 50
190.5692500000006
 51
270.0
  0
LINE
  5
4CE
330
18
100
AcDbEntity
  8
1
  6
Continuous
100
AcDbLine
 10
102.0453021669307
 20
323.5542119195422
 30
0.0
 11
101.4040361669305
 21
323.5542119195422
 31
0.0
  0
LINE
  5
4CF
330
18
100
AcDbEntity
  8
1
  6
Continuous
100
AcDbLine
 10
61.54530216693068
 20
257.6042109195422
 30
0.0
 11
61.54530216693068
 21
296.1042109195421
 31
0.0
  0
LINE
  5
4D0
330
18
100
AcDbEntity
  8
1
  6
Continuous
100
AcDbLine
 10
55.5453021669307
 20
268.3542109195422
 30
0.0
 11
55.5453021669307
 21
285.3542109195421
 31
0.0
  0
ARC
  5
4D1
330
18
100
AcDbEntity
  8
1
  6
Continuous
100
AcDbCircle
 10
102.5453021669306
 20
298.1042109195422
 30
0.0
 40
0.5
100
AcDbArc
 50
180.0
 51
270.0
  0
ARC
  5
4D2
330
18
100
AcDbEntity
  8
1
  6
Continuous
100
AcDbCircle
 10
103.0453021669307
 20
296.1042109195421
 30
0.0
 40
1.5
100
AcDbArc
 50
0.0
 51
90.0
  0
LINE
  5
4D3
330
18
100
AcDbEntity
  8
1
  6
Continuous
100
AcDbLine
 10
102.5453021669306
 20
297.6042109195422
 30
0.0
 11
103.0453021669307
 21
297.6042109195422
 31
0.0
  0
LINE
  5
4D4
330
18
100
AcDbEntity
  8
1
  6
Continuous
100
AcDbLine
 10
102.0453021669307
 20
323.5542119195422
 30
0.0
 11
102.0453021669307
 21
230.1542099195422
 31
0.0
  0
LINE
  5
4D5
330
18
100
AcDbEntity
  8
1
  6
Continuous
100
AcDbLine
 10
64.04530216693068
 20
323.5542119195422
 30
0.0
 11
64.04530216693068
 21
230.1542099195422
 31
0.0
  0
LINE
  5
4D6
330
18
100
AcDbEntity
  8
1
  6
Continuous
100
AcDbLine
 10
63.54530216693071
 20
297.6042109195422
 30
0.0
 11
63.0453021669307
 21
297.6042109195422
 31
0.0
  0
ARC
  5
4D7
330
18
100
AcDbEntity
  8
1
  6
Continuous
100
AcDbCircle
 10
63.0453021669307
 20
296.1042109195421
 30
0.0
 40
1.5
100
AcDbArc
 50
90.0
 51
180.0
  0
ARC
  5
4D8
330
18
100
AcDbEntity
  8
1
  6
Continuous
100
AcDbCircle
 10
63.54530216693071
 20
298.1042109195422
 30
0.0
 40
0.5
100
AcDbArc
 50
270.0
 51
0.0
  0
LINE
  5
4E1
330
18
100
AcDbEntity
  8
4
  6
CENTER
 48
0.8
100
AcDbLine
 10
339.1818596404676
 20
539.3875439195421
 30
0.0
 11
354.1818596404676
 21
539.3875439195421
 31
0.0
  0
LINE
  5
4E2
330
18
100
AcDbEntity
  8
4
  6
CENTER
 48
0.8
100
AcDbLine
 10
346.6818596404676
 20
546.8875439195421
 30
0.0
 11
346.6818596404676
 21
531.8875439195421
 31
0.0
  0
LINE
  5
4E4
330
18
100
AcDbEntity
  8
2
  6
Continuous
100
AcDbLine
 10
37.54530216693069
 20
281.9072109195421
 30
0.0
 11
41.54530216693069
 21
281.9072109195421
 31
0.0
  0
LINE
  5
4E5
330
18
100
AcDbEntity
  8
4
  6
CENTER
 48
0.8
100
AcDbLine
 10
333.1818596404676
 20
540.8875439195421
 30
0.0
 11
348.1818596404676
 21
540.8875439195421
 31
0.0
  0
LINE
  5
4E6
330
18
100
AcDbEntity
  8
4
  6
CENTER
 48
0.8
100
AcDbLine
 10
340.6818596404676
 20
548.3875439195421
 30
0.0
 11
340.6818596404676
 21
533.3875439195422
 31
0.0
  0
LINE
  5
4E7
330
18
100
AcDbEntity
  8
4
  6
CENTER
 48
0.8
100
AcDbLine
 10
248.1818676404675
 20
540.8875439195421
 30
0.0
 11
233.1818676404675
 21
540.8875439195421
 31
0.0
  0
LINE
  5
4E8
330
18
100
AcDbEntity
  8
4
  6
CENTER
 48
0.8
100
AcDbLine
 10
242.1818676404675
 20
539.3875439195421
 30
0.0
 11
227.1818676404675
 21
539.3875439195421
 31
0.0
  0
LINE
  5
4E9
330
18
100
AcDbEntity
  8
4
  6
CENTER
 48
0.8
100
AcDbLine
 10
240.6818676404676
 20
548.3875439195421
 30
0.0
 11
240.6818676404676
 21
533.3875439195422
 31
0.0
  0
LINE
  5
4EA
330
18
100
AcDbEntity
  8
4
  6
CENTER
 48
0.8
100
AcDbLine
 10
234.6818676404676
 20
546.8875439195421
 30
0.0
 11
234.6818676404676
 21
531.8875439195421
 31
0.0
  0
LINE
  5
4EB
330
18
100
AcDbEntity
  8
4
  6
CENTER
 48
0.8
100
AcDbLine
 10
333.1818596404676
 20
484.8875439195421
 30
0.0
 11
348.1818596404676
 21
484.8875439195421
 31
0.0
  0
LINE
  5
4EC
330
18
100
AcDbEntity
  8
4
  6
CENTER
 48
0.8
100
AcDbLine
 10
339.1818596404676
 20
486.3875439195421
 30
0.0
 11
354.1818596404676
 21
486.3875439195421
 31
0.0
  0
LINE
  5
4ED
330
18
100
AcDbEntity
  8
4
  6
CENTER
 48
0.8
100
AcDbLine
 10
340.6818596404676
 20
477.3875439195421
 30
0.0
 11
340.6818596404676
 21
492.3875439195422
 31
0.0
  0
LINE
  5
4EE
330
18
100
AcDbEntity
  8
4
  6
CENTER
 48
0.8
100
AcDbLine
 10
346.6818596404676
 20
478.8875439195421
 30
0.0
 11
346.6818596404676
 21
493.8875439195421
 31
0.0
  0
LINE
  5
4EF
330
18
100
AcDbEntity
  8
4
  6
CENTER
 48
0.8
100
AcDbLine
 10
242.1818676404675
 20
486.3875439195421
 30
0.0
 11
227.1818676404675
 21
486.3875439195421
 31
0.0
  0
LINE
  5
4F0
330
18
100
AcDbEntity
  8
4
  6
CENTER
 48
0.8
100
AcDbLine
 10
248.1818676404675
 20
484.8875439195421
 30
0.0
 11
233.1818676404675
 21
484.8875439195421
 31
0.0
  0
LINE
  5
4F1
330
18
100
AcDbEntity
  8
4
  6
CENTER
 48
0.8
100
AcDbLine
 10
234.6818676404676
 20
478.8875439195421
 30
0.0
 11
234.6818676404676
 21
493.8875439195421
 31
0.0
  0
LINE
  5
4F2
330
18
100
AcDbEntity
  8
4
  6
CENTER
 48
0.8
100
AcDbLine
 10
240.6818676404676
 20
477.3875439195421
 30
0.0
 11
240.6818676404676
 21
492.3875439195422
 31
0.0
  0
LINE
  5
4F4
330
18
100
AcDbEntity
  8
1
  6
Continuous
100
AcDbLine
 10
301.1818636404677
 20
547.3875439195421
 30
0.0
 11
280.1818636404676
 21
547.3875439195421
 31
0.0
  0
LINE
  5
4F5
330
18
100
AcDbEntity
  8
1
  6
Continuous
100
AcDbLine
 10
296.6818636404677
 20
557.6378129195421
 30
0.0
 11
284.6818636404677
 21
557.6378129195421
 31
0.0
  0
LINE
  5
4F6
330
18
100
AcDbEntity
  8
1
  6
Continuous
100
AcDbLine
 10
295.9318636404677
 20
558.3875439195422
 30
0.0
 11
285.4318636404677
 21
558.3875439195422
 31
0.0
  0
LINE
  5
4F8
330
18
100
AcDbEntity
  8
1
  6
Continuous
100
AcDbLine
 10
300.1818646029763
 20
554.3875439195422
 30
0.0
 11
281.1818626779589
 21
554.3875439195422
 31
0.0
  0
LINE
  5
4F9
330
18
100
AcDbEntity
  8
1
  6
Continuous
100
AcDbLine
 10
284.6818636404677
 20
557.6378129195421
 30
0.0
 11
284.6818636404677
 21
554.3875439195422
 31
0.0
  0
LINE
  5
4FA
330
18
100
AcDbEntity
  8
2
  6
Continuous
100
AcDbLine
 10
285.6288636404677
 20
558.3875439195422
 30
0.0
 11
285.6288636404677
 21
554.3875439195422
 31
0.0
  0
LINE
  5
4FB
330
18
100
AcDbEntity
  8
1
  6
Continuous
100
AcDbLine
 10
284.6818636404677
 20
557.6378129195421
 30
0.0
 11
285.4317746404677
 21
558.3877239195421
 31
0.0
  0
LINE
  5
4FF
330
18
100
AcDbEntity
  8
1
  6
Continuous
100
AcDbLine
 10
280.1818636404676
 20
544.3875439195421
 30
0.0
 11
280.1818636404676
 21
547.3875439195421
 31
0.0
  0
LINE
  5
501
330
18
100
AcDbEntity
  8
2
  6
Continuous
100
AcDbLine
 10
295.7348636404677
 20
558.3875439195422
 30
0.0
 11
295.7348636404677
 21
554.3875439195422
 31
0.0
  0
LINE
  5
502
330
18
100
AcDbEntity
  8
1
  6
Continuous
100
AcDbLine
 10
296.6818636404677
 20
557.6378129195421
 30
0.0
 11
296.6818636404677
 21
554.3875439195422
 31
0.0
  0
LINE
  5
503
330
18
100
AcDbEntity
  8
1
  6
Continuous
100
AcDbLine
 10
296.6818636404677
 20
557.6378129195421
 30
0.0
 11
295.9319526404676
 21
558.3877239195421
 31
0.0
  0
LINE
  5
508
330
18
100
AcDbEntity
  8
1
  6
Continuous
100
AcDbLine
 10
301.1818636404677
 20
544.4542859195421
 30
0.0
 11
301.1818636404677
 21
547.3875439195421
 31
0.0
  0
LINE
  5
50A
330
18
100
AcDbEntity
  8
1
  6
Continuous
100
AcDbLine
 10
302.1818636404677
 20
480.3875439195421
 30
0.0
 11
279.1818636404676
 21
480.3875439195421
 31
0.0
  0
ARC
  5
50B
330
18
100
AcDbEntity
  8
1
  6
Continuous
100
AcDbCircle
 10
290.6818636404677
 20
500.9292159195421
 30
0.0
 40
23.541666
100
AcDbArc
 50
240.7582050000001
 51
299.2417200000001
  0
LINE
  5
50C
330
18
100
AcDbEntity
  8
1
  6
Continuous
100
AcDbLine
 10
279.1818636404676
 20
481.3875439195421
 30
0.0
 11
279.1818636404676
 21
480.3875439195421
 31
0.0
  0
LINE
  5
50E
330
18
100
AcDbEntity
  8
1
  6
Continuous
100
AcDbLine
 10
302.1818636404677
 20
481.3875439195421
 30
0.0
 11
302.1818636404677
 21
480.3875439195421
 31
0.0
  0
LINE
  5
5E3
330
18
100
AcDbEntity
  8
1
  6
Continuous
100
AcDbLine
 10
290.6818643937345
 20
553.1375383770818
 30
0.0
 11
290.6818636404677
 21
548.6375417612738
 31
0.0
  0
LINE
  5
612
330
18
100
AcDbEntity
  8
1
  6
Continuous
100
AcDbLine
 10
705.9549865875411
 20
287.8238769195421
 30
0.0
 11
715.4549890863685
 21
282.339047919542
 31
0.0
  0
LINE
  5
613
330
18
100
AcDbEntity
  8
1
  6
Continuous
100
AcDbLine
 10
715.4549890863685
 20
282.339047919542
 30
0.0
 11
715.4549890863685
 21
271.369389919542
 31
0.0
  0
LINE
  5
614
330
18
100
AcDbEntity
  8
1
  6
Continuous
100
AcDbLine
 10
715.4549890863685
 20
271.369389919542
 30
0.0
 11
705.9549865875411
 21
265.884560919542
 31
0.0
  0
LINE
  5
615
330
18
100
AcDbEntity
  8
1
  6
Continuous
100
AcDbLine
 10
705.9549865875411
 20
287.8238769195421
 30
0.0
 11
696.4549840887141
 21
282.339047919542
 31
0.0
  0
LINE
  5
616
330
18
100
AcDbEntity
  8
1
  6
Continuous
100
AcDbLine
 10
696.4549840887141
 20
282.339047919542
 30
0.0
 11
696.4549840887141
 21
271.369389919542
 31
0.0
  0
LINE
  5
617
330
18
100
AcDbEntity
  8
1
  6
Continuous
100
AcDbLine
 10
696.4549840887141
 20
271.369389919542
 30
0.0
 11
705.9549865875411
 21
265.884560919542
 31
0.0
  0
LINE
  5
618
330
18
100
AcDbEntity
  8
1
  6
Continuous
100
AcDbLine
 10
300.1818646029763
 20
554.3875439195422
 30
0.0
 11
300.1818634312271
 21
547.3875439195421
 31
0.0
  0
ARC
  5
619
330
18
100
AcDbEntity
  8
1
  6
Continuous
100
AcDbCircle
 10
295.4318643937345
 20
544.7375811646979
 30
0.0
 40
9.649962754844267
100
AcDbArc
 50
60.51274927772549
 51
119.4872507222754
  0
ARC
  5
61A
330
18
100
AcDbEntity
  8
1
  6
Continuous
100
AcDbCircle
 10
285.9318628872006
 20
544.7375811646979
 30
0.0
 40
9.649962754844267
100
AcDbArc
 50
60.51274927772459
 51
119.4872507222745
  0
LINE
  5
61B
330
18
100
AcDbEntity
  8
1
  6
Continuous
100
AcDbLine
 10
281.1818626779589
 20
554.3875439195422
 30
0.0
 11
281.1818638497081
 21
547.3875439195421
 31
0.0
  0
ARC
  5
61C
330
18
100
AcDbEntity
  8
1
  6
Continuous
100
AcDbCircle
 10
295.4318643937345
 20
557.0374989736576
 30
0.0
 40
9.649962754844267
100
AcDbArc
 50
240.5127492777246
 51
299.4872507222743
  0
ARC
  5
61D
330
18
100
AcDbEntity
  8
1
  6
Continuous
100
AcDbCircle
 10
285.9318628872006
 20
557.0374989736576
 30
0.0
 40
9.649962754844267
100
AcDbArc
 50
240.5127492777254
 51
299.4872507222753
  0
LINE
  5
695
330
18
100
AcDbEntity
  8
4
  6
CENTER
 48
0.8
100
AcDbLine
 10
234.6818676404676
 20
374.8542189195422
 30
0.0
 11
234.6818676404676
 21
386.3542189195422
 31
0.0
  0
LINE
  5
697
330
18
100
AcDbEntity
  8
4
  6
CENTER
 48
0.8
100
AcDbLine
 10
240.6818676404676
 20
374.8542189195422
 30
0.0
 11
240.6818676404676
 21
386.3542189195422
 31
0.0
  0
LINE
  5
698
330
18
100
AcDbEntity
  8
4
  6
CENTER
 48
0.8
100
AcDbLine
 10
346.6818596404674
 20
374.8542189195422
 30
0.0
 11
346.6818596404674
 21
386.3542189195422
 31
0.0
  0
LINE
  5
699
330
18
100
AcDbEntity
  8
4
  6
CENTER
 48
0.8
100
AcDbLine
 10
340.6818596404675
 20
374.8542189195422
 30
0.0
 11
340.6818596404675
 21
386.3542189195422
 31
0.0
  0
LINE
  5
69A
330
18
100
AcDbEntity
  8
4
  6
CENTER
 48
0.8
100
AcDbLine
 10
56.54530216693068
 20
374.8542189195422
 30
0.0
 11
56.54530216693068
 21
386.3542189195422
 31
0.0
  0
LINE
  5
69B
330
18
100
AcDbEntity
  8
4
  6
CENTER
 48
0.8
100
AcDbLine
 10
55.04530216693067
 20
374.8542189195422
 30
0.0
 11
55.04530216693067
 21
386.3542189195422
 31
0.0
  0
LINE
  5
69C
330
18
100
AcDbEntity
  8
4
  6
CENTER
 48
0.8
100
AcDbLine
 10
111.0453021669306
 20
374.8542189195422
 30
0.0
 11
111.0453021669306
 21
386.3542189195422
 31
0.0
  0
LINE
  5
69D
330
18
100
AcDbEntity
  8
4
  6
CENTER
 48
0.8
100
AcDbLine
 10
109.5453021669307
 20
374.8542189195422
 30
0.0
 11
109.5453021669307
 21
386.3542189195422
 31
0.0
  0
ARC
  5
717
330
18
100
AcDbEntity
  8
1
  6
Continuous
100
AcDbCircle
 10
311.0630361329429
 20
562.3875439195422
 30
0.0
 40
18.0
100
AcDbArc
 50
270.0
 51
322.2295104113641
  0
ARC
  5
718
330
18
100
AcDbEntity
  8
1
  6
Continuous
100
AcDbCircle
 10
270.3006911479923
 20
562.3875439195422
 30
0.0
 40
18.0
100
AcDbArc
 50
217.7704895886356
 51
270.0
  0
ARC
  5
722
330
18
100
AcDbEntity
  8
1
  6
Continuous
100
AcDbCircle
 10
238.6818676404676
 20
537.8875439195422
 30
0.0
 40
22.0
100
AcDbArc
 50
37.77048958863576
 51
90.00001800000005
  0
ARC
  5
723
330
18
100
AcDbEntity
  8
1
  6
Continuous
100
AcDbCircle
 10
238.6818676404676
 20
487.8875439195422
 30
0.0
 40
22.0
100
AcDbArc
 50
269.9999819999999
 51
322.2295104113641
  0
ARC
  5
724
330
18
100
AcDbEntity
  8
1
  6
Continuous
100
AcDbCircle
 10
270.3006911479923
 20
463.3875439195421
 30
0.0
 40
18.0
100
AcDbArc
 50
90.00000000000005
 51
142.2295104113642
  0
ARC
  5
725
330
18
100
AcDbEntity
  8
1
  6
Continuous
100
AcDbCircle
 10
311.0630361329429
 20
463.3875439195421
 30
0.0
 40
18.0
100
AcDbArc
 50
37.77048958863578
 51
90.00000000000005
  0
ARC
  5
726
330
18
100
AcDbEntity
  8
1
  6
Continuous
100
AcDbCircle
 10
342.6818596404676
 20
487.8875439195422
 30
0.0
 40
22.0
100
AcDbArc
 50
217.7704895886356
 51
270.0000179999999
  0
LINE
  5
733
330
18
100
AcDbEntity
  8
1
  6
Continuous
100
AcDbLine
 10
517.3184251140045
 20
323.5542119195422
 30
0.0
 11
517.3184251140045
 21
230.1542099195422
 31
0.0
  0
LINE
  5
734
330
18
100
AcDbEntity
  8
1
  6
Continuous
100
AcDbLine
 10
479.3184251140045
 20
323.5542119195422
 30
0.0
 11
479.3184251140045
 21
230.1542099195422
 31
0.0
  0
LINE
  5
735
330
18
100
AcDbEntity
  8
1
  6
Continuous
100
AcDbLine
 10
519.8184251140045
 20
257.6042109195422
 30
0.0
 11
519.8184251140045
 21
296.1042109195421
 31
0.0
  0
LINE
  5
736
330
18
100
AcDbEntity
  8
1
  6
Continuous
100
AcDbLine
 10
476.8184251140045
 20
257.6042109195422
 30
0.0
 11
476.8184251140045
 21
296.1042109195421
 31
0.0
  0
LINE
  5
737
330
18
100
AcDbEntity
  8
1
  6
Continuous
100
AcDbLine
 10
481.4596911140045
 20
323.3542109195421
 30
0.0
 11
481.4596911140045
 21
230.1542099195422
 31
0.0
  0
LINE
  5
738
330
18
100
AcDbEntity
  8
1
  6
Continuous
100
AcDbLine
 10
515.1771591140045
 20
323.3542109195421
 30
0.0
 11
515.1771591140045
 21
230.1542099195422
 31
0.0
  0
LINE
  5
739
330
18
100
AcDbEntity
  8
1
  6
Continuous
100
AcDbLine
 10
470.3184251140045
 20
377.8542169195422
 30
0.0
 11
470.3184251140045
 21
257.8542109195422
 31
0.0
  0
ARC
  5
73A
330
18
100
AcDbEntity
  8
1
  6
Continuous
100
AcDbCircle
 10
268.2025821140044
 20
263.704781919542
 30
0.0
 40
200.0
100
AcDbArc
 50
7.316465999999977
 51
17.86919099999948
  0
ARC
  5
73B
330
18
100
AcDbEntity
  8
1
  6
Continuous
100
AcDbCircle
 10
271.3276181140045
 20
265.2879729195422
 30
0.0
 40
200.0
100
AcDbArc
 50
6.070039000000241
 51
19.2098610000005
  0
LINE
  5
73C
330
18
100
AcDbEntity
  8
4
  6
CENTER
 48
0.8
100
AcDbLine
 10
498.3184251140045
 20
387.354218919542
 30
0.0
 11
498.3184251140045
 21
209.3542109195421
 31
0.0
  0
LINE
  5
73D
330
18
100
AcDbEntity
  8
1
  6
Continuous
100
AcDbLine
 10
526.3184251140045
 20
377.8542169195422
 30
0.0
 11
526.3184251140045
 21
257.8542109195422
 31
0.0
  0
ARC
  5
73E
330
18
100
AcDbEntity
  8
1
  6
Continuous
100
AcDbCircle
 10
728.4342701140047
 20
263.704781919542
 30
0.0
 40
200.0
100
AcDbArc
 50
162.1308110000005
 51
172.6835389999999
  0
ARC
  5
73F
330
18
100
AcDbEntity
  8
1
  6
Continuous
100
AcDbCircle
 10
725.3092391140045
 20
265.2879729195422
 30
0.0
 40
200.0
100
AcDbArc
 50
160.7901370000004
 51
173.929955
  0
ARC
  5
741
330
18
100
AcDbEntity
  8
1
  6
Continuous
100
AcDbCircle
 10
478.8184251140044
 20
255.6042109195422
 30
0.0
 40
0.5
100
AcDbArc
 50
0.000000000000007
 51
90.0
  0
LINE
  5
742
330
18
100
AcDbEntity
  8
4
  6
CENTER
 48
0.8
100
AcDbLine
 10
548.8184251140045
 20
276.8542109195422
 30
0.0
 11
457.8184311140045
 21
276.8542109195422
 31
0.0
  0
LINE
  5
745
330
18
100
AcDbEntity
  8
2
  6
Continuous
100
AcDbLine
 10
543.8184251140045
 20
281.9072109195421
 30
0.0
 11
539.8184251140045
 21
281.9072109195421
 31
0.0
  0
LINE
  5
746
330
18
100
AcDbEntity
  8
2
  6
Continuous
100
AcDbLine
 10
543.8184251140045
 20
271.8012109195421
 30
0.0
 11
539.8184251140045
 21
271.8012109195421
 31
0.0
  0
LINE
  5
747
330
18
100
AcDbEntity
  8
1
  6
Continuous
100
AcDbLine
 10
543.0686941140045
 20
282.8542109195422
 30
0.0
 11
539.8184251140045
 21
282.8542109195422
 31
0.0
  0
LINE
  5
748
330
18
100
AcDbEntity
  8
1
  6
Continuous
100
AcDbLine
 10
543.0686941140045
 20
270.8542109195422
 30
0.0
 11
539.8184251140045
 21
270.8542109195422
 31
0.0
  0
LINE
  5
74A
330
18
100
AcDbEntity
  8
1
  6
Continuous
100
AcDbLine
 10
543.0686941140045
 20
270.8542109195422
 30
0.0
 11
543.8186051140045
 21
271.6041219195421
 31
0.0
  0
LINE
  5
74B
330
18
100
AcDbEntity
  8
1
  6
Continuous
100
AcDbLine
 10
543.0686941140045
 20
282.8542109195422
 30
0.0
 11
543.0686941140045
 21
270.8542109195422
 31
0.0
  0
LINE
  5
74C
330
18
100
AcDbEntity
  8
1
  6
Continuous
100
AcDbLine
 10
543.0686941140045
 20
282.8542109195422
 30
0.0
 11
543.8186051140045
 21
282.1042999195422
 31
0.0
  0
LINE
  5
74D
330
18
100
AcDbEntity
  8
1
  6
Continuous
100
AcDbLine
 10
543.8184251140045
 20
282.1042109195421
 30
0.0
 11
543.8184251140045
 21
271.604210919542
 31
0.0
  0
ARC
  5
74E
330
18
100
AcDbEntity
  8
1
  6
Continuous
100
AcDbCircle
 10
509.3184251140045
 20
219.2773329195421
 30
0.0
 40
4.0
100
AcDbArc
 50
279.5940680000005
 51
349.3551789999985
  0
LINE
  5
74F
330
18
100
AcDbEntity
  8
1
  6
Continuous
100
AcDbLine
 10
515.2029721140045
 20
228.9312899195421
 30
0.0
 11
513.2495901140043
 21
218.538452919542
 31
0.0
  0
LINE
  5
750
330
18
100
AcDbEntity
  8
1
  6
Continuous
100
AcDbLine
 10
517.3184251140045
 20
230.1542099195422
 30
0.0
 11
516.6771591140046
 21
230.1542099195422
 31
0.0
  0
ARC
  5
751
330
18
100
AcDbEntity
  8
1
  6
Continuous
100
AcDbCircle
 10
516.6771591140046
 20
228.6542099195421
 30
0.0
 40
1.5
100
AcDbArc
 50
90.0
 51
169.430749999999
  0
LINE
  5
752
330
18
100
AcDbEntity
  8
1
  6
Continuous
100
AcDbLine
 10
481.4338781140045
 20
228.9312899195421
 30
0.0
 11
483.3872601140043
 21
218.538452919542
 31
0.0
  0
ARC
  5
753
330
18
100
AcDbEntity
  8
1
  6
Continuous
100
AcDbCircle
 10
498.3184251140045
 20
284.3542109195421
 30
0.0
 40
70.0
100
AcDbArc
 50
260.4059319999995
 51
279.5940680000005
  0
ARC
  5
754
330
18
100
AcDbEntity
  8
1
  6
Continuous
100
AcDbCircle
 10
487.3184251140044
 20
219.2773329195421
 30
0.0
 40
4.0
100
AcDbArc
 50
190.6448210000013
 51
260.4059319999995
  0
LINE
  5
755
330
18
100
AcDbEntity
  8
1
  6
Continuous
100
AcDbLine
 10
479.3184251140045
 20
230.1542099195422
 30
0.0
 11
479.9596911140045
 21
230.1542099195422
 31
0.0
  0
ARC
  5
756
330
18
100
AcDbEntity
  8
1
  6
Continuous
100
AcDbCircle
 10
479.9596911140045
 20
228.6542099195421
 30
0.0
 40
1.5
100
AcDbArc
 50
10.56925000000078
 51
90.0
  0
LINE
  5
757
330
18
100
AcDbEntity
  8
1
  6
Continuous
100
AcDbLine
 10
525.8184251140045
 20
268.3542109195422
 30
0.0
 11
525.8184251140045
 21
285.3542109195421
 31
0.0
  0
LINE
  5
758
330
18
100
AcDbEntity
  8
1
  6
Continuous
100
AcDbLine
 10
529.8184251140045
 20
285.3542109195421
 30
0.0
 11
529.8184251140045
 21
257.8542109195422
 31
0.0
  0
LINE
  5
759
330
18
100
AcDbEntity
  8
1
  6
Continuous
100
AcDbLine
 10
532.8184251140045
 20
287.3542109195422
 30
0.0
 11
532.8184251140045
 21
266.3542109195422
 31
0.0
  0
ARC
  5
75A
330
18
100
AcDbEntity
  8
1
  6
Continuous
100
AcDbCircle
 10
536.4517561140045
 20
268.626969919542
 30
0.0
 40
3.633332999999998
100
AcDbArc
 50
130.9927339999999
 51
229.007266
  0
LINE
  5
75B
330
18
100
AcDbEntity
  8
1
  6
Continuous
100
AcDbLine
 10
539.8184251140045
 20
285.0814529195421
 30
0.0
 11
539.8184251140045
 21
268.626969919542
 31
0.0
  0
ARC
  5
75C
330
18
100
AcDbEntity
  8
1
  6
Continuous
100
AcDbCircle
 10
536.1850941140045
 20
268.626969919542
 30
0.0
 40
3.633332999999998
100
AcDbArc
 50
310.992732
 51
49.00727200000019
  0
LINE
  5
75D
330
18
100
AcDbEntity
  8
1
  6
Continuous
100
AcDbLine
 10
526.3184251140045
 20
268.3542109195422
 30
0.0
 11
525.8184251140045
 21
268.3542109195422
 31
0.0
  0
LINE
  5
75E
330
18
100
AcDbEntity
  8
1
  6
Continuous
100
AcDbLine
 10
529.8184251140045
 20
257.8542109195422
 30
0.0
 11
526.3184251140045
 21
257.8542109195422
 31
0.0
  0
LINE
  5
75F
330
18
100
AcDbEntity
  8
1
  6
Continuous
100
AcDbLine
 10
538.5684251140045
 20
265.8845529195421
 30
0.0
 11
534.0684251140045
 21
265.8845529195421
 31
0.0
  0
LINE
  5
760
330
18
100
AcDbEntity
  8
1
  6
Continuous
100
AcDbLine
 10
529.8184251140045
 20
266.3542109195422
 30
0.0
 11
532.8184251140045
 21
266.3542109195422
 31
0.0
  0
ARC
  5
761
330
18
100
AcDbEntity
  8
1
  6
Continuous
100
AcDbCircle
 10
518.3184251140045
 20
257.6042109195422
 30
0.0
 40
1.5
100
AcDbArc
 50
270.0
 51
0.000000000000007
  0
ARC
  5
762
330
18
100
AcDbEntity
  8
1
  6
Continuous
100
AcDbCircle
 10
517.8184251140045
 20
255.6042109195422
 30
0.0
 40
0.5
100
AcDbArc
 50
90.0
 51
180.0
  0
LINE
  5
763
330
18
100
AcDbEntity
  8
1
  6
Continuous
100
AcDbLine
 10
517.8184251140045
 20
256.1042109195422
 30
0.0
 11
518.3184251140045
 21
256.1042109195422
 31
0.0
  0
LINE
  5
764
330
18
100
AcDbEntity
  8
1
  6
Continuous
100
AcDbLine
 10
525.3184251140045
 20
267.8542109195422
 30
0.0
 11
519.8184251140045
 21
267.8542109195422
 31
0.0
  0
ARC
  5
765
330
18
100
AcDbEntity
  8
1
  6
Continuous
100
AcDbCircle
 10
525.3184251140045
 20
268.3542109195422
 30
0.0
 40
0.5
100
AcDbArc
 50
270.0
 51
0.000000000000007
  0
LINE
  5
766
330
18
100
AcDbEntity
  8
1
  6
Continuous
100
AcDbLine
 10
526.3184251140045
 20
285.3542109195421
 30
0.0
 11
525.8184251140045
 21
285.3542109195421
 31
0.0
  0
ARC
  5
767
330
18
100
AcDbEntity
  8
1
  6
Continuous
100
AcDbCircle
 10
536.4517561140045
 20
285.0814529195421
 30
0.0
 40
3.633332999999998
100
AcDbArc
 50
130.9927339999999
 51
229.007266
  0
ARC
  5
768
330
18
100
AcDbEntity
  8
1
  6
Continuous
100
AcDbCircle
 10
536.1850941140045
 20
285.0814529195421
 30
0.0
 40
3.633332999999998
100
AcDbArc
 50
310.992732
 51
49.00727200000019
  0
LINE
  5
769
330
18
100
AcDbEntity
  8
1
  6
Continuous
100
AcDbLine
 10
538.5684251140045
 20
271.3693859195422
 30
0.0
 11
534.0684251140045
 21
271.3693859195422
 31
0.0
  0
LINE
  5
76A
330
18
100
AcDbEntity
  8
1
  6
Continuous
100
AcDbLine
 10
538.5684251140045
 20
282.3390369195422
 30
0.0
 11
534.0684251140045
 21
282.3390369195422
 31
0.0
  0
ARC
  5
76B
330
18
100
AcDbEntity
  8
1
  6
Continuous
100
AcDbCircle
 10
527.1600851140042
 20
276.8542109195422
 30
0.0
 40
12.65833399999999
100
AcDbArc
 50
334.3229780000005
 51
25.67702599999968
  0
ARC
  5
76C
330
18
100
AcDbEntity
  8
1
  6
Continuous
100
AcDbCircle
 10
545.4767501140045
 20
276.8542109195422
 30
0.0
 40
12.65833399999999
100
AcDbArc
 50
154.3229730000001
 51
205.6770269999996
  0
LINE
  5
76D
330
18
100
AcDbEntity
  8
1
  6
Continuous
100
AcDbLine
 10
538.5684251140045
 20
287.8238689195421
 30
0.0
 11
534.0684251140045
 21
287.8238689195421
 31
0.0
  0
ARC
  5
76E
330
18
100
AcDbEntity
  8
1
  6
Continuous
100
AcDbCircle
 10
546.3184251140045
 20
284.3219309195422
 30
0.0
 40
20.0
100
AcDbArc
 50
173.929955
 51
180.0
  0
LINE
  5
76F
330
18
100
AcDbEntity
  8
1
  6
Continuous
100
AcDbLine
 10
529.8851671140043
 20
287.3542109195422
 30
0.0
 11
532.8184251140045
 21
287.3542109195422
 31
0.0
  0
ARC
  5
770
330
18
100
AcDbEntity
  8
1
  6
Continuous
100
AcDbCircle
 10
559.8184251140045
 20
285.3542109195421
 30
0.0
 40
30.0
100
AcDbArc
 50
172.6835389999999
 51
180.0
  0
LINE
  5
771
330
18
100
AcDbEntity
  8
1
  6
Continuous
100
AcDbLine
 10
525.3184251140045
 20
285.8542109195422
 30
0.0
 11
519.8184251140045
 21
285.8542109195422
 31
0.0
  0
ARC
  5
772
330
18
100
AcDbEntity
  8
1
  6
Continuous
100
AcDbCircle
 10
525.3184251140045
 20
285.3542109195421
 30
0.0
 40
0.5
100
AcDbArc
 50
0.000000000000007
 51
90.0
  0
LINE
  5
773
330
18
100
AcDbEntity
  8
1
  6
Continuous
100
AcDbLine
 10
470.8184251140045
 20
268.3542109195422
 30
0.0
 11
470.8184251140045
 21
285.3542109195421
 31
0.0
  0
LINE
  5
774
330
18
100
AcDbEntity
  8
1
  6
Continuous
100
AcDbLine
 10
465.8184251140045
 20
288.3542109195421
 30
0.0
 11
465.8184251140045
 21
265.354210919542
 31
0.0
  0
LINE
  5
775
330
18
100
AcDbEntity
  8
1
  6
Continuous
100
AcDbLine
 10
466.8184251140045
 20
285.3542109195421
 30
0.0
 11
466.8184251140045
 21
257.8542109195422
 31
0.0
  0
ARC
  5
776
330
18
100
AcDbEntity
  8
1
  6
Continuous
100
AcDbCircle
 10
486.3600971140042
 20
276.8542109195422
 30
0.0
 40
23.541666
100
AcDbArc
 50
150.7582799999996
 51
209.2417949999999
  0
LINE
  5
777
330
18
100
AcDbEntity
  8
1
  6
Continuous
100
AcDbLine
 10
478.8184251140044
 20
256.1042109195422
 30
0.0
 11
478.3184251140045
 21
256.1042109195422
 31
0.0
  0
ARC
  5
778
330
18
100
AcDbEntity
  8
1
  6
Continuous
100
AcDbCircle
 10
478.3184251140045
 20
257.6042109195422
 30
0.0
 40
1.5
100
AcDbArc
 50
180.0
 51
270.0
  0
LINE
  5
779
330
18
100
AcDbEntity
  8
1
  6
Continuous
100
AcDbLine
 10
466.8184251140045
 20
257.8542109195422
 30
0.0
 11
470.3184251140045
 21
257.8542109195422
 31
0.0
  0
LINE
  5
77A
330
18
100
AcDbEntity
  8
1
  6
Continuous
100
AcDbLine
 10
471.3184251140045
 20
267.8542109195422
 30
0.0
 11
476.8184251140045
 21
267.8542109195422
 31
0.0
  0
ARC
  5
77B
330
18
100
AcDbEntity
  8
1
  6
Continuous
100
AcDbCircle
 10
471.3184251140045
 20
268.3542109195422
 30
0.0
 40
0.5
100
AcDbArc
 50
180.0
 51
270.0
  0
LINE
  5
77C
330
18
100
AcDbEntity
  8
1
  6
Continuous
100
AcDbLine
 10
470.8184251140045
 20
268.3542109195422
 30
0.0
 11
470.3184251140045
 21
268.3542109195422
 31
0.0
  0
LINE
  5
77D
330
18
100
AcDbEntity
  8
1
  6
Continuous
100
AcDbLine
 10
466.8184251140045
 20
265.354210919542
 30
0.0
 11
465.8184251140045
 21
265.354210919542
 31
0.0
  0
LINE
  5
77E
330
18
100
AcDbEntity
  8
1
  6
Continuous
100
AcDbLine
 10
471.3184251140045
 20
285.8542109195422
 30
0.0
 11
476.8184251140045
 21
285.8542109195422
 31
0.0
  0
ARC
  5
77F
330
18
100
AcDbEntity
  8
1
  6
Continuous
100
AcDbCircle
 10
471.3184251140045
 20
285.3542109195421
 30
0.0
 40
0.5
100
AcDbArc
 50
90.0
 51
180.0
  0
ARC
  5
780
330
18
100
AcDbEntity
  8
1
  6
Continuous
100
AcDbCircle
 10
436.8184251140045
 20
285.3542109195421
 30
0.0
 40
30.0
100
AcDbArc
 50
359.9999949999994
 51
7.316465999999977
  0
ARC
  5
781
330
18
100
AcDbEntity
  8
1
  6
Continuous
100
AcDbCircle
 10
450.3184251140045
 20
284.3219309195422
 30
0.0
 40
20.0
100
AcDbArc
 50
359.9999949999994
 51
6.070039000000241
  0
LINE
  5
782
330
18
100
AcDbEntity
  8
1
  6
Continuous
100
AcDbLine
 10
470.8184251140045
 20
285.3542109195421
 30
0.0
 11
470.3184251140045
 21
285.3542109195421
 31
0.0
  0
LINE
  5
783
330
18
100
AcDbEntity
  8
1
  6
Continuous
100
AcDbLine
 10
466.6680501140045
 20
288.3542109195421
 30
0.0
 11
465.8184251140045
 21
288.3542109195421
 31
0.0
  0
ARC
  5
787
330
18
100
AcDbEntity
  8
1
  6
Continuous
100
AcDbCircle
 10
478.8184251140044
 20
298.1042109195422
 30
0.0
 40
0.5
100
AcDbArc
 50
270.0
 51
0.000000000000007
  0
LINE
  5
788
330
18
100
AcDbEntity
  8
1
  6
Continuous
100
AcDbLine
 10
518.3184251140045
 20
376.8542169195422
 30
0.0
 11
478.3184251140045
 21
376.8542169195422
 31
0.0
  0
LINE
  5
789
330
18
100
AcDbEntity
  8
1
  6
Continuous
100
AcDbLine
 10
545.3184251140045
 20
382.3542189195422
 30
0.0
 11
451.3184251140045
 21
382.3542189195422
 31
0.0
  0
LINE
  5
78A
330
18
100
AcDbEntity
  8
1
  6
Continuous
100
AcDbLine
 10
545.3184251140045
 20
378.8542169195422
 30
0.0
 11
451.3184251140045
 21
378.8542169195422
 31
0.0
  0
LINE
  5
78B
330
18
100
AcDbEntity
  8
4
  6
CENTER
 48
0.8
100
AcDbLine
 10
526.3184251140045
 20
374.8542189195422
 30
0.0
 11
526.3184251140045
 21
386.3542189195422
 31
0.0
  0
LINE
  5
78C
330
18
100
AcDbEntity
  8
4
  6
CENTER
 48
0.8
100
AcDbLine
 10
524.8184251140044
 20
374.8542189195422
 30
0.0
 11
524.8184251140044
 21
386.3542189195422
 31
0.0
  0
ARC
  5
78D
330
18
100
AcDbEntity
  8
1
  6
Continuous
100
AcDbCircle
 10
540.8184251140045
 20
377.8542169195422
 30
0.0
 40
1.0
100
AcDbArc
 50
0.0000360000000476
 51
90.00001800000005
  0
ARC
  5
78E
330
18
100
AcDbEntity
  8
1
  6
Continuous
100
AcDbCircle
 10
547.8184251140045
 20
373.3998609195422
 30
0.0
 40
6.0
100
AcDbArc
 50
114.6243179999997
 51
180.0
  0
ARC
  5
78F
330
18
100
AcDbEntity
  8
1
  6
Continuous
100
AcDbCircle
 10
395.3184251140045
 20
371.1004809195422
 30
0.0
 40
150.0
100
AcDbArc
 50
342.1308130000005
 51
0.0000219999999413
  0
ARC
  5
790
330
18
100
AcDbEntity
  8
1
  6
Continuous
100
AcDbCircle
 10
445.3184251140045
 20
362.8451319195422
 30
0.0
 40
96.5
100
AcDbArc
 50
340.7901430000003
 51
0.0000219999999413
  0
LINE
  5
791
330
18
100
AcDbEntity
  8
1
  6
Continuous
100
AcDbLine
 10
545.3184251140045
 20
382.3542189195422
 30
0.0
 11
545.3184251140045
 21
371.1004809195422
 31
0.0
  0
ARC
  5
792
330
18
100
AcDbEntity
  8
1
  6
Continuous
100
AcDbCircle
 10
509.3184251140045
 20
334.431088919542
 30
0.0
 40
4.0
100
AcDbArc
 50
10.64482100000148
 51
80.40593199999966
  0
ARC
  5
793
330
18
100
AcDbEntity
  8
1
  6
Continuous
100
AcDbCircle
 10
518.3184251140045
 20
296.1042109195421
 30
0.0
 40
1.5
100
AcDbArc
 50
0.000000000000007
 51
90.0
  0
ARC
  5
794
330
18
100
AcDbEntity
  8
1
  6
Continuous
100
AcDbCircle
 10
517.8184251140045
 20
298.1042109195422
 30
0.0
 40
0.5
100
AcDbArc
 50
180.0
 51
270.0
  0
LINE
  5
795
330
18
100
AcDbEntity
  8
1
  6
Continuous
100
AcDbLine
 10
517.8184251140045
 20
297.6042109195422
 30
0.0
 11
518.3184251140045
 21
297.6042109195422
 31
0.0
  0
LINE
  5
796
330
18
100
AcDbEntity
  8
1
  6
Continuous
100
AcDbLine
 10
515.2029721140045
 20
324.7771319195421
 30
0.0
 11
513.2495901140043
 21
335.1699689195422
 31
0.0
  0
LINE
  5
797
330
18
100
AcDbEntity
  8
1
  6
Continuous
100
AcDbLine
 10
517.3184251140045
 20
323.5542119195422
 30
0.0
 11
516.6771591140046
 21
323.5542119195422
 31
0.0
  0
ARC
  5
798
330
18
100
AcDbEntity
  8
1
  6
Continuous
100
AcDbCircle
 10
516.6771591140046
 20
325.0542119195421
 30
0.0
 40
1.5
100
AcDbArc
 50
190.5692500000007
 51
270.0
  0
ARC
  5
799
330
18
100
AcDbEntity
  8
1
  6
Continuous
100
AcDbCircle
 10
498.3184251140045
 20
269.3542109195421
 30
0.0
 40
70.0
100
AcDbArc
 50
80.40593199999966
 51
99.59406800000037
  0
LINE
  5
79A
330
18
100
AcDbEntity
  8
1
  6
Continuous
100
AcDbLine
 10
481.4338781140045
 20
324.7771319195421
 30
0.0
 11
483.3872601140043
 21
335.1699689195422
 31
0.0
  0
LINE
  5
79B
330
18
100
AcDbEntity
  8
1
  6
Continuous
100
AcDbLine
 10
479.3184251140045
 20
323.5542119195422
 30
0.0
 11
479.9596911140045
 21
323.5542119195422
 31
0.0
  0
ARC
  5
79C
330
18
100
AcDbEntity
  8
1
  6
Continuous
100
AcDbCircle
 10
479.9596911140045
 20
325.0542119195421
 30
0.0
 40
1.5
100
AcDbArc
 50
270.0
 51
349.4307499999991
  0
ARC
  5
79D
330
18
100
AcDbEntity
  8
1
  6
Continuous
100
AcDbCircle
 10
487.3184251140044
 20
334.431088919542
 30
0.0
 40
4.0
100
AcDbArc
 50
99.59406800000037
 51
169.3551789999984
  0
ARC
  5
79E
330
18
100
AcDbEntity
  8
1
  6
Continuous
100
AcDbCircle
 10
508.3184251140045
 20
378.8542169195422
 30
0.0
 40
2.0
100
AcDbArc
 50
269.9999819999999
 51
0.0000190000006165
  0
ARC
  5
79F
330
18
100
AcDbEntity
  8
1
  6
Continuous
100
AcDbCircle
 10
525.3184251140045
 20
377.8542169195422
 30
0.0
 40
1.0
100
AcDbArc
 50
0.0000360000000476
 51
90.00001800000005
  0
LINE
  5
7A0
330
18
100
AcDbEntity
  8
1
  6
Continuous
100
AcDbLine
 10
541.8184251140045
 20
377.8542169195422
 30
0.0
 11
541.8184251140045
 21
362.8451319195422
 31
0.0
  0
ARC
  5
7A1
330
18
100
AcDbEntity
  8
1
  6
Continuous
100
AcDbCircle
 10
518.3184251140045
 20
378.8542169195422
 30
0.0
 40
2.0
100
AcDbArc
 50
269.9999819999999
 51
0.0000190000006165
  0
ARC
  5
7A2
330
18
100
AcDbEntity
  8
1
  6
Continuous
100
AcDbCircle
 10
488.3184251140045
 20
378.8542169195422
 30
0.0
 40
2.0
100
AcDbArc
 50
180.0
 51
270.0000370000001
  0
LINE
  5
7A3
330
18
100
AcDbEntity
  8
4
  6
CENTER
 48
0.8
100
AcDbLine
 10
471.8184251140045
 20
374.8542189195422
 30
0.0
 11
471.8184251140045
 21
386.3542189195422
 31
0.0
  0
LINE
  5
7A4
330
18
100
AcDbEntity
  8
4
  6
CENTER
 48
0.8
100
AcDbLine
 10
470.3184251140045
 20
374.8542189195422
 30
0.0
 11
470.3184251140045
 21
386.3542189195422
 31
0.0
  0
ARC
  5
7A6
330
18
100
AcDbEntity
  8
1
  6
Continuous
100
AcDbCircle
 10
551.3184251140045
 20
362.8451319195422
 30
0.0
 40
96.5
100
AcDbArc
 50
179.999978
 51
199.2098629999994
  0
ARC
  5
7A7
330
18
100
AcDbEntity
  8
1
  6
Continuous
100
AcDbCircle
 10
601.3184251140045
 20
371.1004809195422
 30
0.0
 40
150.0
100
AcDbArc
 50
179.999978
 51
197.8691889999995
  0
LINE
  5
7A8
330
18
100
AcDbEntity
  8
1
  6
Continuous
100
AcDbLine
 10
478.8184251140044
 20
297.6042109195422
 30
0.0
 11
478.3184251140045
 21
297.6042109195422
 31
0.0
  0
ARC
  5
7A9
330
18
100
AcDbEntity
  8
1
  6
Continuous
100
AcDbCircle
 10
478.3184251140045
 20
296.1042109195421
 30
0.0
 40
1.5
100
AcDbArc
 50
90.0
 51
180.0
  0
ARC
  5
7AA
330
18
100
AcDbEntity
  8
1
  6
Continuous
100
AcDbCircle
 10
478.3184251140045
 20
378.8542169195422
 30
0.0
 40
2.0
100
AcDbArc
 50
180.0
 51
270.0000370000001
  0
ARC
  5
7AB
330
18
100
AcDbEntity
  8
1
  6
Continuous
100
AcDbCircle
 10
471.3184251140045
 20
377.8542169195422
 30
0.0
 40
1.0
100
AcDbArc
 50
89.99998399999995
 51
179.9999639999999
  0
LINE
  5
7AC
330
18
100
AcDbEntity
  8
1
  6
Continuous
100
AcDbLine
 10
451.3184251140045
 20
382.3542189195422
 30
0.0
 11
451.3184251140045
 21
371.1004809195422
 31
0.0
  0
ARC
  5
7AD
330
18
100
AcDbEntity
  8
1
  6
Continuous
100
AcDbCircle
 10
448.8184251140045
 20
373.3998609195422
 30
0.0
 40
6.0
100
AcDbArc
 50
0.0000360000000476
 51
65.37571100000009
  0
LINE
  5
7AE
330
18
100
AcDbEntity
  8
1
  6
Continuous
100
AcDbLine
 10
454.8184251140045
 20
377.8542169195422
 30
0.0
 11
454.8184251140045
 21
362.8451319195422
 31
0.0
  0
ARC
  5
7AF
330
18
100
AcDbEntity
  8
1
  6
Continuous
100
AcDbCircle
 10
455.8184251140045
 20
377.8542169195422
 30
0.0
 40
1.0
100
AcDbArc
 50
90.00001800000005
 51
180.0
  0
LINE
  5
88B
330
18
100
AcDbEntity
  8
4
  6
CENTER
 48
0.8
100
AcDbLine
 10
339.1818596404676
 20
110.320893919542
 30
0.0
 11
354.1818596404676
 21
110.320893919542
 31
0.0
  0
LINE
  5
88C
330
18
100
AcDbEntity
  8
4
  6
CENTER
 48
0.8
100
AcDbLine
 10
339.1818596404676
 20
57.32089391954218
 30
0.0
 11
354.1818596404676
 21
57.32089391954218
 31
0.0
  0
ARC
  5
88D
330
18
100
AcDbEntity
  8
1
  6
Continuous
100
AcDbCircle
 10
346.6818596404676
 20
57.32089391954218
 30
0.0
 40
5.5
100
AcDbArc
 50
284.0363159999995
 51
104.036294
  0
ARC
  5
88E
330
18
100
AcDbEntity
  8
1
  6
Continuous
100
AcDbCircle
 10
348.6818596404676
 20
48.82089391954218
 30
0.0
 40
12.0
100
AcDbArc
 50
270.0000179999999
 51
0.0
  0
LINE
  5
88F
330
18
100
AcDbEntity
  8
4
  6
CENTER
 48
0.8
100
AcDbLine
 10
215.6818636404675
 20
83.82089391954218
 30
0.0
 11
365.6818596404676
 21
83.82089391954218
 31
0.0
  0
ARC
  5
890
330
18
100
AcDbEntity
  8
1
  6
Continuous
100
AcDbCircle
 10
346.6818596404676
 20
110.320893919542
 30
0.0
 40
5.5
100
AcDbArc
 50
255.9637609999998
 51
75.96373800000015
  0
ARC
  5
891
330
18
100
AcDbEntity
  8
1
  6
Continuous
100
AcDbCircle
 10
348.6818596404676
 20
118.8208939195421
 30
0.0
 40
12.0
100
AcDbArc
 50
0.0000550000006641
 51
90.00003700000025
  0
ARC
  5
892
330
18
100
AcDbEntity
  8
1
  6
Continuous
100
AcDbCircle
 10
311.0630361329429
 20
133.320893919542
 30
0.0
 40
18.0
100
AcDbArc
 50
270.0
 51
322.2295104113641
  0
ARC
  5
893
330
18
100
AcDbEntity
  8
1
  6
Continuous
100
AcDbCircle
 10
270.3006911479923
 20
133.320893919542
 30
0.0
 40
18.0
100
AcDbArc
 50
217.7704895886356
 51
270.0
  0
ARC
  5
895
330
18
100
AcDbEntity
  8
1
  6
Continuous
100
AcDbCircle
 10
290.6818636404677
 20
95.77922191954213
 30
0.0
 40
23.541666
100
AcDbArc
 50
60.75827999999972
 51
119.2417949999999
  0
LINE
  5
896
330
18
100
AcDbEntity
  8
4
  6
CENTER
 48
0.8
100
AcDbLine
 10
240.6818676404676
 20
119.3208939195421
 30
0.0
 11
240.6818676404676
 21
104.3208939195421
 31
0.0
  0
LINE
  5
897
330
18
100
AcDbEntity
  8
4
  6
CENTER
 48
0.8
100
AcDbLine
 10
340.6818596404676
 20
119.3208939195421
 30
0.0
 11
340.6818596404676
 21
104.3208939195421
 31
0.0
  0
ARC
  5
898
330
18
100
AcDbEntity
  8
1
  6
Continuous
100
AcDbCircle
 10
232.6818636404676
 20
118.8208939195421
 30
0.0
 40
12.0
100
AcDbArc
 50
90.00003700000025
 51
180.0000190000005
  0
LINE
  5
899
330
18
100
AcDbEntity
  8
4
  6
CENTER
 48
0.8
100
AcDbLine
 10
290.6818636404677
 20
33.32089391954218
 30
0.0
 11
290.6818636404677
 21
124.3208879195421
 31
0.0
  0
ARC
  5
89B
330
18
100
AcDbEntity
  8
1
  6
Continuous
100
AcDbCircle
 10
238.6818676404676
 20
108.8208939195421
 30
0.0
 40
22.0
100
AcDbArc
 50
37.77048958863578
 51
90.00001800000005
  0
LINE
  5
89C
330
18
100
AcDbEntity
  8
1
  6
Continuous
100
AcDbLine
 10
232.6818636404676
 20
130.8208939195421
 30
0.0
 11
238.6818636404675
 21
130.8208939195421
 31
0.0
  0
ARC
  5
89D
330
18
100
AcDbEntity
  8
1
  6
Continuous
100
AcDbCircle
 10
342.6818596404676
 20
108.8208939195421
 30
0.0
 40
22.0
100
AcDbArc
 50
89.99998199999998
 51
142.2295104113642
  0
LINE
  5
89E
330
18
100
AcDbEntity
  8
1
  6
Continuous
100
AcDbLine
 10
348.6818596404676
 20
130.8208939195421
 30
0.0
 11
342.6818596404676
 21
130.8208939195421
 31
0.0
  0
LINE
  5
8A1
330
18
100
AcDbEntity
  8
4
  6
CENTER
 48
0.8
100
AcDbLine
 10
242.1818676404675
 20
110.320893919542
 30
0.0
 11
227.1818676404675
 21
110.320893919542
 31
0.0
  0
LINE
  5
8A2
330
18
100
AcDbEntity
  8
4
  6
CENTER
 48
0.8
100
AcDbLine
 10
242.1818676404675
 20
57.32089391954218
 30
0.0
 11
227.1818676404675
 21
57.32089391954218
 31
0.0
  0
ARC
  5
8A3
330
18
100
AcDbEntity
  8
1
  6
Continuous
100
AcDbCircle
 10
232.6818636404676
 20
48.82089391954218
 30
0.0
 40
12.0
100
AcDbArc
 50
180.000036
 51
270.0000179999999
  0
LINE
  5
8A4
330
18
100
AcDbEntity
  8
1
  6
Continuous
100
AcDbLine
 10
220.6818636404676
 20
118.8208939195421
 30
0.0
 11
220.6818636404676
 21
48.82089391954218
 31
0.0
  0
LINE
  5
8A8
330
18
100
AcDbEntity
  8
1
  6
Continuous
100
AcDbLine
 10
311.0630361329429
 20
52.32089391954218
 30
0.0
 11
270.3006911479923
 21
52.32089391954218
 31
0.0
  0
LINE
  5
8A9
330
18
100
AcDbEntity
  8
1
  6
Continuous
100
AcDbLine
 10
311.0630361329427
 20
115.3208939195422
 30
0.0
 11
270.3006911479923
 21
115.3208939195422
 31
0.0
  0
ARC
  5
8AA
330
18
100
AcDbEntity
  8
1
  6
Continuous
100
AcDbCircle
 10
285.9318628872006
 20
39.67093886542659
 30
0.0
 40
9.649962754844267
100
AcDbArc
 50
60.51274927772463
 51
119.4872507222743
  0
ARC
  5
8AB
330
18
100
AcDbEntity
  8
1
  6
Continuous
100
AcDbCircle
 10
285.9318628872006
 20
51.97085667438647
 30
0.0
 40
9.649962754844267
100
AcDbArc
 50
240.5127492777254
 51
299.4872507222753
  0
LINE
  5
8AC
330
18
100
AcDbEntity
  8
1
  6
Continuous
100
AcDbLine
 10
302.1818636404677
 20
116.3208939195421
 30
0.0
 11
279.1818636404676
 21
116.3208939195421
 31
0.0
  0
LINE
  5
8AD
330
18
100
AcDbEntity
  8
1
  6
Continuous
100
AcDbLine
 10
300.1818646029763
 20
42.32089391954217
 30
0.0
 11
281.1818626779589
 21
42.32089391954217
 31
0.0
  0
LINE
  5
8AE
330
18
100
AcDbEntity
  8
1
  6
Continuous
100
AcDbLine
 10
295.9318636404677
 20
38.32089391954218
 30
0.0
 11
285.4318636404677
 21
38.32089391954218
 31
0.0
  0
LINE
  5
8AF
330
18
100
AcDbEntity
  8
1
  6
Continuous
100
AcDbLine
 10
296.6818636404677
 20
39.07062491954217
 30
0.0
 11
284.6818636404677
 21
39.07062491954217
 31
0.0
  0
LINE
  5
8B0
330
18
100
AcDbEntity
  8
1
  6
Continuous
100
AcDbLine
 10
301.1818636404677
 20
49.32089391954217
 30
0.0
 11
280.1818636404676
 21
49.32089391954217
 31
0.0
  0
LINE
  5
8B5
330
18
100
AcDbEntity
  8
4
  6
CENTER
 48
0.8
100
AcDbLine
 10
248.1818676404675
 20
111.8208939195421
 30
0.0
 11
233.1818676404675
 21
111.8208939195421
 31
0.0
  0
ARC
  5
8B6
330
18
100
AcDbEntity
  8
1
  6
Continuous
100
AcDbCircle
 10
240.6818636404675
 20
111.8208939195421
 30
0.0
 40
5.5
100
AcDbArc
 50
284.0363300000003
 51
104.0363349999999
  0
LINE
  5
8B7
330
18
100
AcDbEntity
  8
4
  6
CENTER
 48
0.8
100
AcDbLine
 10
234.6818676404676
 20
117.8208939195421
 30
0.0
 11
234.6818676404676
 21
102.8208939195421
 31
0.0
  0
ARC
  5
8B8
330
18
100
AcDbEntity
  8
1
  6
Continuous
100
AcDbCircle
 10
234.6818636404676
 20
110.320893919542
 30
0.0
 40
5.5
100
AcDbArc
 50
104.0363659999999
 51
284.0363299999999
  0
LINE
  5
8B9
330
18
100
AcDbEntity
  8
1
  6
Continuous
100
AcDbLine
 10
233.3479226404675
 20
115.6566779195421
 30
0.0
 11
239.3479216404676
 21
117.1566769195421
 31
0.0
  0
LINE
  5
8BA
330
18
100
AcDbEntity
  8
1
  6
Continuous
100
AcDbLine
 10
236.0158126404676
 20
104.9851099195421
 30
0.0
 11
242.0158136404676
 21
106.4851099195422
 31
0.0
  0
LINE
  5
8BF
330
18
100
AcDbEntity
  8
1
  6
Continuous
100
AcDbLine
 10
279.1818636404676
 20
115.3208939195421
 30
0.0
 11
279.1818636404676
 21
116.3208939195421
 31
0.0
  0
ARC
  5
8C0
330
18
100
AcDbEntity
  8
1
  6
Continuous
100
AcDbCircle
 10
270.3006911479923
 20
34.32089391954217
 30
0.0
 40
18.0
100
AcDbArc
 50
90.00000000000005
 51
142.2295104113642
  0
LINE
  5
8C1
330
18
100
AcDbEntity
  8
4
  6
CENTER
 48
0.8
100
AcDbLine
 10
234.6818676404676
 20
49.82089391954218
 30
0.0
 11
234.6818676404676
 21
64.82089391954217
 31
0.0
  0
LINE
  5
8C2
330
18
100
AcDbEntity
  8
4
  6
CENTER
 48
0.8
100
AcDbLine
 10
240.6818676404676
 20
48.32089391954219
 30
0.0
 11
240.6818676404676
 21
63.32089391954219
 31
0.0
  0
LINE
  5
8C3
330
18
100
AcDbEntity
  8
4
  6
CENTER
 48
0.8
100
AcDbLine
 10
248.1818676404675
 20
55.82089391954219
 30
0.0
 11
233.1818676404675
 21
55.82089391954219
 31
0.0
  0
ARC
  5
8C4
330
18
100
AcDbEntity
  8
1
  6
Continuous
100
AcDbCircle
 10
240.6818636404675
 20
55.82089391954219
 30
0.0
 40
5.5
100
AcDbArc
 50
255.9637199999995
 51
75.96372499999985
  0
LINE
  5
8C5
330
18
100
AcDbEntity
  8
1
  6
Continuous
100
AcDbLine
 10
236.0158126404676
 20
62.65667991954217
 30
0.0
 11
242.0158126404675
 21
61.15667991954217
 31
0.0
  0
ARC
  5
8C6
330
18
100
AcDbEntity
  8
1
  6
Continuous
100
AcDbCircle
 10
234.6818636404676
 20
57.32089391954218
 30
0.0
 40
5.5
100
AcDbArc
 50
75.96374199999992
 51
255.96372
  0
LINE
  5
8C7
330
18
100
AcDbEntity
  8
1
  6
Continuous
100
AcDbLine
 10
233.3479206404676
 20
51.98511191954219
 30
0.0
 11
239.3479206404677
 21
50.48511291954219
 31
0.0
  0
ARC
  5
8C8
330
18
100
AcDbEntity
  8
1
  6
Continuous
100
AcDbCircle
 10
238.6818676404676
 20
58.82089391954218
 30
0.0
 40
22.0
100
AcDbArc
 50
269.9999819999999
 51
322.2295104113641
  0
LINE
  5
8C9
330
18
100
AcDbEntity
  8
1
  6
Continuous
100
AcDbLine
 10
232.6818636404676
 20
36.82089391954217
 30
0.0
 11
238.6818636404675
 21
36.82089391954217
 31
0.0
  0
LINE
  5
8CA
330
18
100
AcDbEntity
  8
1
  6
Continuous
100
AcDbLine
 10
280.1818636404676
 20
52.32089391954218
 30
0.0
 11
280.1818636404676
 21
49.32089391954217
 31
0.0
  0
LINE
  5
8CC
330
18
100
AcDbEntity
  8
1
  6
Continuous
100
AcDbLine
 10
284.6818636404677
 20
39.07062491954217
 30
0.0
 11
285.4317746404677
 21
38.32071391954217
 31
0.0
  0
LINE
  5
8CD
330
18
100
AcDbEntity
  8
2
  6
Continuous
100
AcDbLine
 10
285.6288636404677
 20
38.32089391954218
 30
0.0
 11
285.6288636404677
 21
42.32089391954217
 31
0.0
  0
LINE
  5
8CE
330
18
100
AcDbEntity
  8
1
  6
Continuous
100
AcDbLine
 10
281.1818626779589
 20
42.32089391954217
 30
0.0
 11
281.1818638497081
 21
49.32089391954217
 31
0.0
  0
LINE
  5
8CF
330
18
100
AcDbEntity
  8
1
  6
Continuous
100
AcDbLine
 10
284.6818636404677
 20
39.07062491954217
 30
0.0
 11
284.6818636404677
 21
42.32089391954217
 31
0.0
  0
LINE
  5
8D2
330
18
100
AcDbEntity
  8
1
  6
Continuous
100
AcDbLine
 10
302.1818636404677
 20
115.3208939195422
 30
0.0
 11
302.1818636404677
 21
116.3208939195421
 31
0.0
  0
LINE
  5
8D4
330
18
100
AcDbEntity
  8
4
  6
CENTER
 48
0.8
100
AcDbLine
 10
333.1818596404676
 20
111.8208939195421
 30
0.0
 11
348.1818596404676
 21
111.8208939195421
 31
0.0
  0
ARC
  5
8D5
330
18
100
AcDbEntity
  8
1
  6
Continuous
100
AcDbCircle
 10
340.6818596404676
 20
111.8208939195421
 30
0.0
 40
5.5
100
AcDbArc
 50
75.96374199999992
 51
255.9637610000002
  0
LINE
  5
8D6
330
18
100
AcDbEntity
  8
4
  6
CENTER
 48
0.8
100
AcDbLine
 10
346.6818596404676
 20
117.8208939195421
 30
0.0
 11
346.6818596404676
 21
102.8208939195421
 31
0.0
  0
LINE
  5
8D7
330
18
100
AcDbEntity
  8
1
  6
Continuous
100
AcDbLine
 10
348.0158176404676
 20
115.6566929195421
 30
0.0
 11
342.0158286404677
 21
117.1566909195421
 31
0.0
  0
LINE
  5
8D8
330
18
100
AcDbEntity
  8
1
  6
Continuous
100
AcDbLine
 10
345.3479256404676
 20
104.985125919542
 30
0.0
 11
339.3479376404677
 21
106.4851229195421
 31
0.0
  0
ARC
  5
8DC
330
18
100
AcDbEntity
  8
1
  6
Continuous
100
AcDbCircle
 10
311.0630361329429
 20
34.32089391954217
 30
0.0
 40
18.0
100
AcDbArc
 50
37.77048958863578
 51
90.00000000000005
  0
LINE
  5
8DD
330
18
100
AcDbEntity
  8
1
  6
Continuous
100
AcDbLine
 10
301.1818636404677
 20
52.25415191954221
 30
0.0
 11
301.1818636404677
 21
49.32089391954217
 31
0.0
  0
LINE
  5
8DF
330
18
100
AcDbEntity
  8
1
  6
Continuous
100
AcDbLine
 10
296.6818636404677
 20
39.07062491954217
 30
0.0
 11
295.9319526404676
 21
38.32071391954217
 31
0.0
  0
LINE
  5
8E0
330
18
100
AcDbEntity
  8
2
  6
Continuous
100
AcDbLine
 10
295.7348636404677
 20
38.32089391954218
 30
0.0
 11
295.7348636404677
 21
42.32089391954217
 31
0.0
  0
ARC
  5
8E1
330
18
100
AcDbEntity
  8
1
  6
Continuous
100
AcDbCircle
 10
295.4318643937345
 20
39.67093886542659
 30
0.0
 40
9.649962754844267
100
AcDbArc
 50
60.51274927772555
 51
119.4872507222753
  0
ARC
  5
8E2
330
18
100
AcDbEntity
  8
1
  6
Continuous
100
AcDbCircle
 10
295.4318643937345
 20
51.97085667438647
 30
0.0
 40
9.649962754844267
100
AcDbArc
 50
240.5127492777246
 51
299.4872507222743
  0
LINE
  5
8E3
330
18
100
AcDbEntity
  8
1
  6
Continuous
100
AcDbLine
 10
290.6818643937345
 20
43.57089946200257
 30
0.0
 11
290.6818636404677
 21
48.07089607781051
 31
0.0
  0
LINE
  5
8E4
330
18
100
AcDbEntity
  8
1
  6
Continuous
100
AcDbLine
 10
296.6818636404677
 20
39.07062491954217
 30
0.0
 11
296.6818636404677
 21
42.32089391954217
 31
0.0
  0
LINE
  5
8E5
330
18
100
AcDbEntity
  8
1
  6
Continuous
100
AcDbLine
 10
300.1818646029763
 20
42.32089391954217
 30
0.0
 11
300.1818634312271
 21
49.32089391954217
 31
0.0
  0
LINE
  5
8E6
330
18
100
AcDbEntity
  8
4
  6
CENTER
 48
0.8
100
AcDbLine
 10
340.6818596404676
 20
48.32089391954219
 30
0.0
 11
340.6818596404676
 21
63.32089391954219
 31
0.0
  0
LINE
  5
8E7
330
18
100
AcDbEntity
  8
4
  6
CENTER
 48
0.8
100
AcDbLine
 10
346.6818596404676
 20
49.82089391954218
 30
0.0
 11
346.6818596404676
 21
64.82089391954217
 31
0.0
  0
LINE
  5
8E8
330
18
100
AcDbEntity
  8
4
  6
CENTER
 48
0.8
100
AcDbLine
 10
333.1818596404676
 20
55.82089391954219
 30
0.0
 11
348.1818596404676
 21
55.82089391954219
 31
0.0
  0
ARC
  5
8E9
330
18
100
AcDbEntity
  8
1
  6
Continuous
100
AcDbCircle
 10
340.6818596404676
 20
55.82089391954219
 30
0.0
 40
5.5
100
AcDbArc
 50
104.0363110000001
 51
284.0363159999995
  0
LINE
  5
8EA
330
18
100
AcDbEntity
  8
1
  6
Continuous
100
AcDbLine
 10
345.3479146404677
 20
62.65666891954221
 30
0.0
 11
339.3479186404677
 21
61.15666991954221
 31
0.0
  0
LINE
  5
8EB
330
18
100
AcDbEntity
  8
1
  6
Continuous
100
AcDbLine
 10
348.0158066404678
 20
51.98510091954222
 30
0.0
 11
342.0158106404676
 21
50.48510191954221
 31
0.0
  0
ARC
  5
8EC
330
18
100
AcDbEntity
  8
1
  6
Continuous
100
AcDbCircle
 10
342.6818596404676
 20
58.82089391954218
 30
0.0
 40
22.0
100
AcDbArc
 50
217.7704895886356
 51
270.0000179999999
  0
LINE
  5
8ED
330
18
100
AcDbEntity
  8
1
  6
Continuous
100
AcDbLine
 10
348.6818596404676
 20
36.82089391954217
 30
0.0
 11
342.6818596404676
 21
36.82089391954217
 31
0.0
  0
LINE
  5
8EF
330
18
100
AcDbEntity
  8
1
  6
Continuous
100
AcDbLine
 10
360.6818596404676
 20
118.8208939195421
 30
0.0
 11
360.6818596404676
 21
48.82089391954218
 31
0.0
  0
LINE
  5
9DB
330
18
100
AcDbEntity
  8
4
  6
CENTER
 48
0.8
100
AcDbLine
 10
773.4549865875414
 20
276.854218919542
 30
0.0
 11
638.4549865875412
 21
276.854218919542
 31
0.0
  0
LINE
  5
9DC
330
18
100
AcDbEntity
  8
1
  6
Continuous
100
AcDbLine
 10
635.9549905875415
 20
378.8542189195422
 30
0.0
 11
647.9550055875413
 21
378.8542189195422
 31
0.0
  0
LINE
  5
9DD
330
18
100
AcDbEntity
  8
1
  6
Continuous
100
AcDbLine
 10
775.9549865875412
 20
382.3542189195422
 30
0.0
 11
635.9549905875414
 21
382.3542189195422
 31
0.0
  0
ARC
  5
9DF
330
18
100
AcDbEntity
  8
1
  6
Continuous
100
AcDbCircle
 10
688.2014655875414
 20
287.1042189195421
 30
0.0
 40
20.0
100
AcDbArc
 50
128.1219850000005
 51
171.8780150000004
  0
ARC
  5
9E0
330
18
100
AcDbEntity
  8
1
  6
Continuous
100
AcDbCircle
 10
723.7085075875413
 20
287.1042189195421
 30
0.0
 40
20.0
100
AcDbArc
 50
8.121984999999412
 51
51.87801499999943
  0
ARC
  5
9E1
330
18
100
AcDbEntity
  8
1
  6
Continuous
100
AcDbCircle
 10
705.9549865875411
 20
276.854218919542
 30
0.0
 40
46.5
100
AcDbArc
 50
131.9941189552988
 51
48.00588402876732
  0
ARC
  5
9E2
330
18
100
AcDbEntity
  8
1
  6
Continuous
100
AcDbCircle
 10
705.9549865875411
 20
276.854218919542
 30
0.0
 40
20.75
100
AcDbArc
 50
174.1770825243348
 51
5.822932660429374
  0
LINE
  5
9E3
330
18
100
AcDbEntity
  8
4
  6
CENTER
 48
0.8
100
AcDbLine
 10
705.9549865875415
 20
387.3542189195422
 30
0.0
 11
705.9549865875411
 21
209.354218919542
 31
0.0
  0
ARC
  5
9E4
330
18
100
AcDbEntity
  8
1
  6
Continuous
100
AcDbCircle
 10
705.9549865875411
 20
276.854218919542
 30
0.0
 40
62.5
100
AcDbArc
 50
125.5750756201492
 51
54.42492650687462
  0
LINE
  5
9E5
330
18
100
AcDbEntity
  8
1
  6
Continuous
100
AcDbLine
 10
687.719838425132
 20
271.5176121797702
 30
0.0
 11
657.7321195875413
 21
364.4655329195422
 31
0.0
  0
LINE
  5
9E6
330
18
100
AcDbEntity
  8
1
  6
Continuous
100
AcDbLine
 10
724.1901365196356
 20
271.5176182267748
 30
0.0
 11
754.1778515875412
 21
364.4655339195422
 31
0.0
  0
ARC
  5
9E7
330
18
100
AcDbEntity
  8
1
  6
Continuous
100
AcDbCircle
 10
705.9549865875411
 20
276.854218919542
 30
0.0
 40
23.0
100
AcDbArc
 50
254.477512
 51
285.5224879999998
  0
ARC
  5
9E8
330
18
100
AcDbEntity
  8
1
  6
Continuous
100
AcDbCircle
 10
705.9549865875411
 20
256.354218919542
 30
0.0
 40
20.0
100
AcDbArc
 50
248.1219849999993
 51
291.8780150000007
  0
ARC
  5
9E9
330
18
100
AcDbEntity
  8
1
  6
Continuous
100
AcDbCircle
 10
705.9549865875411
 20
276.854218919542
 30
0.0
 40
19.0
100
AcDbArc
 50
269.9999819999999
 51
343.6876419999999
  0
ARC
  5
9EB
330
18
100
AcDbEntity
  8
1
  6
Continuous
100
AcDbCircle
 10
715.0183855875414
 20
245.155950919542
 30
0.0
 40
6.0
100
AcDbArc
 50
298.1162050000008
 51
29.99999999999994
  0
ARC
  5
9EC
330
18
100
AcDbEntity
  8
1
  6
Continuous
100
AcDbCircle
 10
728.8747925875411
 20
253.1559509195421
 30
0.0
 40
6.0
100
AcDbArc
 50
209.9999999999999
 51
301.8837950000003
  0
ARC
  5
9ED
330
18
100
AcDbEntity
  8
1
  6
Continuous
100
AcDbCircle
 10
696.6391935875411
 20
279.5537019195421
 30
0.0
 40
45.0
100
AcDbArc
 50
291.8780150000007
 51
298.1162050000008
  0
LINE
  5
9EE
330
18
100
AcDbEntity
  8
1
  6
Continuous
100
AcDbLine
 10
733.0658695875412
 20
274.8542189195422
 30
0.0
 11
737.9381915875414
 21
274.8542189195422
 31
0.0
  0
ARC
  5
9EF
330
18
100
AcDbEntity
  8
1
  6
Continuous
100
AcDbCircle
 10
723.7085075875413
 20
266.6042189195422
 30
0.0
 40
20.0
100
AcDbArc
 50
308.1219850000004
 51
351.8780150000006
  0
LINE
  5
9F0
330
18
100
AcDbEntity
  8
1
  6
Continuous
100
AcDbLine
 10
733.0658695875412
 20
278.854218919542
 30
0.0
 11
737.9381915875414
 21
278.854218919542
 31
0.0
  0
ARC
  5
9F1
330
18
100
AcDbEntity
  8
1
  6
Continuous
100
AcDbCircle
 10
737.9381915875414
 20
268.854218919542
 30
0.0
 40
6.0
100
AcDbArc
 50
358.1162050000006
 51
90.0
  0
ARC
  5
9F2
330
18
100
AcDbEntity
  8
1
  6
Continuous
100
AcDbCircle
 10
698.9592695875414
 20
270.136246919542
 30
0.0
 40
45.0
100
AcDbArc
 50
351.8780150000006
 51
358.1162050000006
  0
ARC
  5
9F3
330
18
100
AcDbEntity
  8
1
  6
Continuous
100
AcDbCircle
 10
737.9381915875414
 20
284.8542189195421
 30
0.0
 40
6.0
100
AcDbArc
 50
270.0
 51
1.883794999999245
  0
ARC
  5
9F4
330
18
100
AcDbEntity
  8
1
  6
Continuous
100
AcDbCircle
 10
698.9592695875414
 20
283.5721909195422
 30
0.0
 40
45.0
100
AcDbArc
 50
1.883794999999245
 51
8.121984999999412
  0
ARC
  5
9F5
330
18
100
AcDbEntity
  8
1
  6
Continuous
100
AcDbCircle
 10
705.9549865875411
 20
276.854218919542
 30
0.0
 40
23.0
100
AcDbArc
 50
314.4775120000003
 51
345.5224879999986
  0
ARC
  5
9F6
330
18
100
AcDbEntity
  8
1
  6
Continuous
100
AcDbCircle
 10
725.5726065875411
 20
256.8755049195422
 30
0.0
 40
5.0
100
AcDbArc
 50
134.4775120000003
 51
209.9999999999999
  0
LINE
  5
9F7
330
18
100
AcDbEntity
  8
1
  6
Continuous
100
AcDbLine
 10
721.2424795875412
 20
254.3755049195421
 30
0.0
 11
723.6786405875411
 21
250.155950919542
 31
0.0
  0
ARC
  5
9F8
330
18
100
AcDbEntity
  8
1
  6
Continuous
100
AcDbCircle
 10
708.2750625875412
 20
286.2716739195422
 30
0.0
 40
45.0
100
AcDbArc
 50
301.8837950000003
 51
308.1219850000004
  0
ARC
  5
9F9
330
18
100
AcDbEntity
  8
1
  6
Continuous
100
AcDbCircle
 10
713.4482505875411
 20
249.8755049195422
 30
0.0
 40
5.0
100
AcDbArc
 50
29.99999999999994
 51
105.5224879999999
  0
LINE
  5
9FA
330
18
100
AcDbEntity
  8
1
  6
Continuous
100
AcDbLine
 10
717.7783775875414
 20
252.3755049195421
 30
0.0
 11
720.2145385875414
 21
248.155950919542
 31
0.0
  0
ARC
  5
9FB
330
18
100
AcDbEntity
  8
1
  6
Continuous
100
AcDbCircle
 10
733.0658695875412
 20
283.8542189195421
 30
0.0
 40
5.0
100
AcDbArc
 50
194.4775120000013
 51
270.0
  0
ARC
  5
9FC
330
18
100
AcDbEntity
  8
1
  6
Continuous
100
AcDbCircle
 10
733.0658695875412
 20
269.854218919542
 30
0.0
 40
5.0
100
AcDbArc
 50
90.0
 51
165.5224879999986
  0
ARC
  5
9FD
330
18
100
AcDbEntity
  8
1
  6
Continuous
100
AcDbCircle
 10
705.9549865875411
 20
276.854218919542
 30
0.0
 40
23.0
100
AcDbArc
 50
14.47751200000133
 51
16.42409246720424
  0
ARC
  5
9FE
330
18
100
AcDbEntity
  8
1
  6
Continuous
100
AcDbCircle
 10
683.0351805875412
 20
253.1559509195421
 30
0.0
 40
6.0
100
AcDbArc
 50
238.1162049999995
 51
330.0
  0
ARC
  5
9FF
330
18
100
AcDbEntity
  8
1
  6
Continuous
100
AcDbCircle
 10
696.8915875875411
 20
245.155950919542
 30
0.0
 40
6.0
100
AcDbArc
 50
150.0
 51
241.883795000001
  0
ARC
  5
A00
330
18
100
AcDbEntity
  8
1
  6
Continuous
100
AcDbCircle
 10
715.2707795875411
 20
279.5537019195421
 30
0.0
 40
45.0
100
AcDbArc
 50
241.883795000001
 51
248.1219849999993
  0
LINE
  5
A01
330
18
100
AcDbEntity
  8
1
  6
Continuous
100
AcDbLine
 10
678.8441035875413
 20
278.854218919542
 30
0.0
 11
673.9717815875414
 21
278.854218919542
 31
0.0
  0
LINE
  5
A02
330
18
100
AcDbEntity
  8
1
  6
Continuous
100
AcDbLine
 10
678.8441035875413
 20
274.8542189195422
 30
0.0
 11
673.9717815875414
 21
274.8542189195422
 31
0.0
  0
ARC
  5
A03
330
18
100
AcDbEntity
  8
1
  6
Continuous
100
AcDbCircle
 10
688.2014655875414
 20
266.6042189195422
 30
0.0
 40
20.0
100
AcDbArc
 50
188.1219849999993
 51
231.8780149999994
  0
ARC
  5
A04
330
18
100
AcDbEntity
  8
1
  6
Continuous
100
AcDbCircle
 10
705.9549865875411
 20
276.854218919542
 30
0.0
 40
23.0
100
AcDbArc
 50
194.4775120000013
 51
225.5224879999996
  0
ARC
  5
A05
330
18
100
AcDbEntity
  8
1
  6
Continuous
100
AcDbCircle
 10
705.9549865875411
 20
276.854218919542
 30
0.0
 40
19.0
100
AcDbArc
 50
196.3123770000006
 51
270.0000370000001
  0
LINE
  5
A06
330
18
100
AcDbEntity
  8
1
  6
Continuous
100
AcDbLine
 10
690.6674935875412
 20
254.3755049195421
 30
0.0
 11
688.2313325875411
 21
250.155950919542
 31
0.0
  0
ARC
  5
A07
330
18
100
AcDbEntity
  8
1
  6
Continuous
100
AcDbCircle
 10
686.3373665875412
 20
256.8755049195422
 30
0.0
 40
5.0
100
AcDbArc
 50
330.0
 51
45.52248799999968
  0
ARC
  5
A08
330
18
100
AcDbEntity
  8
1
  6
Continuous
100
AcDbCircle
 10
698.4617225875411
 20
249.8755049195422
 30
0.0
 40
5.0
100
AcDbArc
 50
74.47751200000009
 51
150.0
  0
LINE
  5
A09
330
18
100
AcDbEntity
  8
1
  6
Continuous
100
AcDbLine
 10
694.1315955875412
 20
252.3755049195421
 30
0.0
 11
691.6954345875411
 21
248.155950919542
 31
0.0
  0
ARC
  5
A0A
330
18
100
AcDbEntity
  8
1
  6
Continuous
100
AcDbCircle
 10
703.6349105875411
 20
286.2716739195422
 30
0.0
 40
45.0
100
AcDbArc
 50
231.8780149999994
 51
238.1162049999995
  0
ARC
  5
A0B
330
18
100
AcDbEntity
  8
1
  6
Continuous
100
AcDbCircle
 10
678.8441035875413
 20
283.8542189195421
 30
0.0
 40
5.0
100
AcDbArc
 50
270.0
 51
345.5224879999986
  0
ARC
  5
A0C
330
18
100
AcDbEntity
  8
1
  6
Continuous
100
AcDbCircle
 10
678.8441035875413
 20
269.854218919542
 30
0.0
 40
5.0
100
AcDbArc
 50
14.47751200000133
 51
90.0
  0
ARC
  5
A0D
330
18
100
AcDbEntity
  8
1
  6
Continuous
100
AcDbCircle
 10
705.9549865875411
 20
276.854218919542
 30
0.0
 40
23.0
100
AcDbArc
 50
163.5759173038381
 51
165.5224879999986
  0
ARC
  5
A0E
330
18
100
AcDbEntity
  8
1
  6
Continuous
100
AcDbCircle
 10
673.9717815875414
 20
268.854218919542
 30
0.0
 40
6.0
100
AcDbArc
 50
90.0
 51
181.8837949999991
  0
ARC
  5
A0F
330
18
100
AcDbEntity
  8
1
  6
Continuous
100
AcDbCircle
 10
712.9507035875412
 20
270.136246919542
 30
0.0
 40
45.0
100
AcDbArc
 50
181.8837949999991
 51
188.1219849999993
  0
ARC
  5
A10
330
18
100
AcDbEntity
  8
1
  6
Continuous
100
AcDbCircle
 10
673.9717815875414
 20
284.8542189195421
 30
0.0
 40
6.0
100
AcDbArc
 50
178.1162050000006
 51
270.0
  0
ARC
  5
A11
330
18
100
AcDbEntity
  8
1
  6
Continuous
100
AcDbCircle
 10
712.9507035875412
 20
283.5721909195422
 30
0.0
 40
45.0
100
AcDbArc
 50
171.8780150000004
 51
178.1162050000006
  0
LINE
  5
A12
330
18
100
AcDbEntity
  8
1
  6
Continuous
100
AcDbLine
 10
775.9549865875412
 20
378.8542189195422
 30
0.0
 11
763.9549635875412
 21
378.8542189195422
 31
0.0
  0
LINE
  5
A13
330
18
100
AcDbEntity
  8
1
  6
Continuous
100
AcDbLine
 10
775.9549865875412
 20
382.3542359195421
 30
0.0
 11
775.9549865875412
 21
378.8542189195422
 31
0.0
  0
LINE
  5
A14
330
18
100
AcDbEntity
  8
4
  6
CENTER
 48
0.8
100
AcDbLine
 10
655.9549905875415
 20
374.8542189195422
 30
0.0
 11
655.9549905875415
 21
386.3542189195422
 31
0.0
  0
LINE
  5
A15
330
18
100
AcDbEntity
  8
4
  6
CENTER
 48
0.8
100
AcDbLine
 10
649.9549905875412
 20
374.8542189195422
 30
0.0
 11
649.9549905875412
 21
386.3542189195422
 31
0.0
  0
LINE
  5
A16
330
18
100
AcDbEntity
  8
4
  6
CENTER
 48
0.8
100
AcDbLine
 10
755.9549825875412
 20
374.8542189195422
 30
0.0
 11
755.9549825875412
 21
386.3542189195422
 31
0.0
  0
LINE
  5
A17
330
18
100
AcDbEntity
  8
4
  6
CENTER
 48
0.8
100
AcDbLine
 10
761.9549825875414
 20
374.8542189195422
 30
0.0
 11
761.9549825875414
 21
386.3542189195422
 31
0.0
  0
ARC
  5
A18
330
18
100
AcDbEntity
  8
1
  6
Continuous
100
AcDbCircle
 10
1076.450351587541
 20
228.092118919542
 30
0.0
 40
350.0
100
AcDbArc
 50
156.8375390000003
 51
167.2937530000004
  0
LINE
  5
A19
330
18
100
AcDbEntity
  8
1
  6
Continuous
100
AcDbLine
 10
735.0216525875412
 20
308.5439929195421
 30
0.0
 11
735.0216525875412
 21
375.2875519195422
 31
0.0
  0
ARC
  5
A1A
330
18
100
AcDbEntity
  8
1
  6
Continuous
100
AcDbCircle
 10
708.2750625875412
 20
267.4367639195421
 30
0.0
 40
45.0
100
AcDbArc
 50
51.87801499999943
 51
54.12929812347929
  0
ARC
  5
A1B
330
18
100
AcDbEntity
  8
1
  6
Continuous
100
AcDbCircle
 10
759.9549635875412
 20
376.8542189195422
 30
0.0
 40
4.0
100
AcDbArc
 50
296.5704290000001
 51
0.0000190000006165
  0
ARC
  5
A1C
330
18
100
AcDbEntity
  8
1
  6
Continuous
100
AcDbCircle
 10
768.4536145875412
 20
359.8608989195422
 30
0.0
 40
15.0
100
AcDbArc
 50
116.5704239999996
 51
162.1229380000004
  0
LINE
  5
A1D
330
18
100
AcDbEntity
  8
1
  6
Continuous
100
AcDbLine
 10
763.9549635875412
 20
376.8542189195422
 30
0.0
 11
763.9549635875412
 21
378.8542189195422
 31
0.0
  0
ARC
  5
A1E
330
18
100
AcDbEntity
  8
1
  6
Continuous
100
AcDbCircle
 10
767.4549635875412
 20
378.8542189195422
 30
0.0
 40
3.5
100
AcDbArc
 50
90.00001800000005
 51
180.0
  0
ARC
  5
A1F
330
18
100
AcDbEntity
  8
1
  6
Continuous
100
AcDbCircle
 10
335.4596295875413
 20
228.092118919542
 30
0.0
 40
350.0
100
AcDbArc
 50
12.70627799999928
 51
23.16249200000043
  0
LINE
  5
A20
330
18
100
AcDbEntity
  8
1
  6
Continuous
100
AcDbLine
 10
676.8883245875413
 20
308.5439929195421
 30
0.0
 11
676.8883245875413
 21
375.2875519195422
 31
0.0
  0
ARC
  5
A21
330
18
100
AcDbEntity
  8
1
  6
Continuous
100
AcDbCircle
 10
703.6349105875411
 20
267.4367639195421
 30
0.0
 40
45.0
100
AcDbArc
 50
125.8707048356285
 51
128.1219850000005
  0
ARC
  5
A22
330
18
100
AcDbEntity
  8
1
  6
Continuous
100
AcDbCircle
 10
651.9550055875412
 20
376.8542189195422
 30
0.0
 40
4.0
100
AcDbArc
 50
180.0
 51
243.4295899999998
  0
ARC
  5
A23
330
18
100
AcDbEntity
  8
1
  6
Continuous
100
AcDbCircle
 10
643.4563635875413
 20
359.8608989195422
 30
0.0
 40
15.0
100
AcDbArc
 50
17.87709999999931
 51
63.42961199999979
  0
LINE
  5
A24
330
18
100
AcDbEntity
  8
1
  6
Continuous
100
AcDbLine
 10
647.9550055875412
 20
376.8542189195422
 30
0.0
 11
647.9550055875412
 21
378.8542189195422
 31
0.0
  0
ARC
  5
A25
330
18
100
AcDbEntity
  8
1
  6
Continuous
100
AcDbCircle
 10
644.4550055875412
 20
378.8542189195422
 30
0.0
 40
3.5
100
AcDbArc
 50
0.0000360000000476
 51
90.00001800000005
  0
LINE
  5
A29
330
18
100
AcDbEntity
  8
1
  6
Continuous
100
AcDbLine
 10
635.9549905875414
 20
382.3542359195421
 30
0.0
 11
635.9549905875414
 21
378.8542189195422
 31
0.0
  0
CIRCLE
  5
AAD
330
18
100
AcDbEntity
  8
2
  6
Continuous
100
AcDbCircle
 10
705.9549865875411
 20
276.854218919542
 30
0.0
 40
5.052992000000016
  0
CIRCLE
  5
AAE
330
18
100
AcDbEntity
  8
1
  6
Continuous
100
AcDbCircle
 10
705.9549865875411
 20
276.854218919542
 30
0.0
 40
5.999992000000019
  0
ARC
  5
AAF
330
18
100
AcDbEntity
  8
1
  6
Continuous
100
AcDbCircle
 10
705.9549865875411
 20
276.854218919542
 30
0.0
 40
10.49999200000002
100
AcDbArc
 50
34.79135945040514
 51
85.20864054959465
  0
CIRCLE
  5
AB0
330
18
100
AcDbEntity
  8
1
  6
Continuous
100
AcDbCircle
 10
705.9549865875411
 20
276.854218919542
 30
0.0
 40
9.500002498827255
  0
ARC
  5
AB1
330
18
100
AcDbEntity
  8
1
  6
Continuous
100
AcDbCircle
 10
705.9549865875411
 20
276.854218919542
 30
0.0
 40
10.49999200000002
100
AcDbArc
 50
94.79135945040473
 51
145.208640549595
  0
ARC
  5
AB2
330
18
100
AcDbEntity
  8
1
  6
Continuous
100
AcDbCircle
 10
705.9549865875411
 20
276.854218919542
 30
0.0
 40
10.49999200000002
100
AcDbArc
 50
154.7913594504061
 51
205.2086405495938
  0
ARC
  5
AB3
330
18
100
AcDbEntity
  8
1
  6
Continuous
100
AcDbCircle
 10
705.9549865875411
 20
276.854218919542
 30
0.0
 40
10.49999200000002
100
AcDbArc
 50
214.7913594504067
 51
265.2086405495933
  0
ARC
  5
AB4
330
18
100
AcDbEntity
  8
1
  6
Continuous
100
AcDbCircle
 10
705.9549865875411
 20
276.854218919542
 30
0.0
 40
10.49999200000002
100
AcDbArc
 50
274.7913594504059
 51
325.2086405495937
  0
ARC
  5
AB5
330
18
100
AcDbEntity
  8
1
  6
Continuous
100
AcDbCircle
 10
705.9549865875411
 20
276.854218919542
 30
0.0
 40
10.49999200000002
100
AcDbArc
 50
334.7913594504061
 51
25.20864054959389
  0
LINE
  5
AE2
330
18
100
AcDbEntity
  8
1
  6
Continuous
100
AcDbLine
 10
337.1818636404677
 20
66.96215991954216
 30
0.0
 11
243.9818626404678
 21
66.96215991954216
 31
0.0
  0
LINE
  5
AE3
330
18
100
AcDbEntity
  8
1
  6
Continuous
100
AcDbLine
 10
337.1818636404677
 20
100.6796279195421
 30
0.0
 11
243.9818626404678
 21
100.6796279195421
 31
0.0
  0
LINE
  5
AE4
330
18
100
AcDbEntity
  8
1
  6
Continuous
100
AcDbLine
 10
271.4318636404676
 20
105.3208939195421
 30
0.0
 11
309.9318636404677
 21
105.3208939195421
 31
0.0
  0
LINE
  5
AE5
330
18
100
AcDbEntity
  8
1
  6
Continuous
100
AcDbLine
 10
271.4318636404676
 20
62.32089391954218
 30
0.0
 11
309.9318636404677
 21
62.32089391954218
 31
0.0
  0
LINE
  5
AE6
330
18
100
AcDbEntity
  8
1
  6
Continuous
100
AcDbLine
 10
337.3818646404676
 20
102.8208939195421
 30
0.0
 11
243.9818626404678
 21
102.8208939195421
 31
0.0
  0
LINE
  5
AE7
330
18
100
AcDbEntity
  8
1
  6
Continuous
100
AcDbLine
 10
337.3818646404676
 20
64.82089391954217
 30
0.0
 11
243.9818626404678
 21
64.82089391954217
 31
0.0
  0
ARC
  5
AEB
330
18
100
AcDbEntity
  8
1
  6
Continuous
100
AcDbCircle
 10
269.4318636404676
 20
103.3208939195421
 30
0.0
 40
0.5
100
AcDbArc
 50
270.0
 51
0.0
  0
LINE
  5
AF0
330
18
100
AcDbEntity
  8
1
  6
Continuous
100
AcDbLine
 10
282.1818636404677
 20
111.320893919542
 30
0.0
 11
299.1818636404677
 21
111.320893919542
 31
0.0
  0
ARC
  5
AF2
330
18
100
AcDbEntity
  8
1
  6
Continuous
100
AcDbCircle
 10
271.4318636404676
 20
103.8208939195421
 30
0.0
 40
1.5
100
AcDbArc
 50
89.99999999999998
 51
180.0
  0
LINE
  5
AF3
330
18
100
AcDbEntity
  8
1
  6
Continuous
100
AcDbLine
 10
269.9318636404676
 20
103.3208939195421
 30
0.0
 11
269.9318636404676
 21
103.8208939195421
 31
0.0
  0
ARC
  5
AF4
330
18
100
AcDbEntity
  8
1
  6
Continuous
100
AcDbCircle
 10
282.1818636404677
 20
110.8208939195421
 30
0.0
 40
0.5
100
AcDbArc
 50
89.99999999999998
 51
180.0
  0
LINE
  5
AF6
330
18
100
AcDbEntity
  8
1
  6
Continuous
100
AcDbLine
 10
282.1818636404677
 20
111.320893919542
 30
0.0
 11
282.1818636404677
 21
111.8208939195421
 31
0.0
  0
LINE
  5
AF7
330
18
100
AcDbEntity
  8
1
  6
Continuous
100
AcDbLine
 10
281.6818636404677
 20
110.8208939195421
 30
0.0
 11
281.6818636404677
 21
105.3208939195421
 31
0.0
  0
ARC
  5
AF8
330
18
100
AcDbEntity
  8
1
  6
Continuous
100
AcDbCircle
 10
299.1818636404677
 20
110.8208939195421
 30
0.0
 40
0.5
100
AcDbArc
 50
0.0
 51
89.99999999999998
  0
LINE
  5
AFA
330
18
100
AcDbEntity
  8
1
  6
Continuous
100
AcDbLine
 10
299.1818636404677
 20
111.320893919542
 30
0.0
 11
299.1818636404677
 21
111.8208939195421
 31
0.0
  0
LINE
  5
AFD
330
18
100
AcDbEntity
  8
1
  6
Continuous
100
AcDbLine
 10
299.6818636404677
 20
110.8208939195421
 30
0.0
 11
299.6818636404677
 21
105.3208939195421
 31
0.0
  0
ARC
  5
B03
330
18
100
AcDbEntity
  8
1
  6
Continuous
100
AcDbCircle
 10
233.1049856404676
 20
72.82089391954222
 30
0.0
 40
4.0
100
AcDbArc
 50
189.5940680000003
 51
259.3551789999984
  0
LINE
  5
B04
330
18
100
AcDbEntity
  8
1
  6
Continuous
100
AcDbLine
 10
242.7589426404677
 20
100.705440919542
 30
0.0
 11
232.3661056404676
 21
98.75205891954216
 31
0.0
  0
ARC
  5
B05
330
18
100
AcDbEntity
  8
1
  6
Continuous
100
AcDbCircle
 10
298.1818636404677
 20
83.82089391954222
 30
0.0
 40
70.0
100
AcDbArc
 50
170.4059319999996
 51
189.5940680000003
  0
ARC
  5
B06
330
18
100
AcDbEntity
  8
1
  6
Continuous
100
AcDbCircle
 10
233.1049856404676
 20
94.82089391954222
 30
0.0
 40
4.0
100
AcDbArc
 50
100.6448210000014
 51
170.4059319999996
  0
ARC
  5
B07
330
18
100
AcDbEntity
  8
1
  6
Continuous
100
AcDbCircle
 10
242.4818626404675
 20
102.1796279195422
 30
0.0
 40
1.5
100
AcDbArc
 50
280.5692500000006
 51
0.0
  0
LINE
  5
B08
330
18
100
AcDbEntity
  8
1
  6
Continuous
100
AcDbLine
 10
243.9818626404678
 20
102.8208939195421
 30
0.0
 11
243.9818626404678
 21
102.1796279195422
 31
0.0
  0
LINE
  5
B09
330
18
100
AcDbEntity
  8
1
  6
Continuous
100
AcDbLine
 10
242.7589426404677
 20
66.93634691954219
 30
0.0
 11
232.3661056404676
 21
68.88972891954222
 31
0.0
  0
ARC
  5
B0A
330
18
100
AcDbEntity
  8
1
  6
Continuous
100
AcDbCircle
 10
242.4818626404675
 20
65.46215991954219
 30
0.0
 40
1.5
100
AcDbArc
 50
0.0
 51
79.43074999999919
  0
LINE
  5
B0B
330
18
100
AcDbEntity
  8
1
  6
Continuous
100
AcDbLine
 10
243.9818626404678
 20
64.82089391954217
 30
0.0
 11
243.9818626404678
 21
65.46215991954216
 31
0.0
  0
LINE
  5
B11
330
18
100
AcDbEntity
  8
1
  6
Continuous
100
AcDbLine
 10
282.1818636404677
 20
56.32089391954218
 30
0.0
 11
299.1818636404677
 21
56.32089391954218
 31
0.0
  0
LINE
  5
B12
330
18
100
AcDbEntity
  8
1
  6
Continuous
100
AcDbLine
 10
282.1818636404677
 20
55.82089391954219
 30
0.0
 11
282.1818636404677
 21
56.32089391954218
 31
0.0
  0
LINE
  5
B13
330
18
100
AcDbEntity
  8
1
  6
Continuous
100
AcDbLine
 10
269.9318636404676
 20
64.32089391954217
 30
0.0
 11
269.9318636404676
 21
63.82089391954218
 31
0.0
  0
ARC
  5
B14
330
18
100
AcDbEntity
  8
1
  6
Continuous
100
AcDbCircle
 10
269.4318636404676
 20
64.32089391954221
 30
0.0
 40
0.5
100
AcDbArc
 50
0.0
 51
89.99999999999998
  0
ARC
  5
B15
330
18
100
AcDbEntity
  8
1
  6
Continuous
100
AcDbCircle
 10
271.4318636404676
 20
63.8208939195422
 30
0.0
 40
1.5
100
AcDbArc
 50
180.0
 51
270.0
  0
ARC
  5
B16
330
18
100
AcDbEntity
  8
1
  6
Continuous
100
AcDbCircle
 10
282.1818636404677
 20
56.82089391954221
 30
0.0
 40
0.5
100
AcDbArc
 50
180.0
 51
270.0
  0
LINE
  5
B17
330
18
100
AcDbEntity
  8
1
  6
Continuous
100
AcDbLine
 10
281.6818636404677
 20
56.82089391954217
 30
0.0
 11
281.6818636404677
 21
62.32089391954218
 31
0.0
  0
LINE
  5
B1B
330
18
100
AcDbEntity
  8
1
  6
Continuous
100
AcDbLine
 10
299.1818636404677
 20
55.82089391954219
 30
0.0
 11
299.1818636404677
 21
56.32089391954218
 31
0.0
  0
ARC
  5
B1C
330
18
100
AcDbEntity
  8
1
  6
Continuous
100
AcDbCircle
 10
299.1818636404677
 20
56.82089391954221
 30
0.0
 40
0.5
100
AcDbArc
 50
270.0
 51
0.0
  0
LINE
  5
B1D
330
18
100
AcDbEntity
  8
1
  6
Continuous
100
AcDbLine
 10
299.6818636404677
 20
56.82089391954217
 30
0.0
 11
299.6818636404677
 21
62.32089391954218
 31
0.0
  0
ARC
  5
B30
330
18
100
AcDbEntity
  8
1
  6
Continuous
100
AcDbCircle
 10
311.9318636404677
 20
103.3208939195421
 30
0.0
 40
0.5
100
AcDbArc
 50
180.0
 51
270.0
  0
ARC
  5
B39
330
18
100
AcDbEntity
  8
1
  6
Continuous
100
AcDbCircle
 10
309.9318636404677
 20
103.8208939195421
 30
0.0
 40
1.5
100
AcDbArc
 50
0.0
 51
89.99999999999998
  0
LINE
  5
B3A
330
18
100
AcDbEntity
  8
1
  6
Continuous
100
AcDbLine
 10
311.4318636404677
 20
103.3208939195421
 30
0.0
 11
311.4318636404677
 21
103.8208939195421
 31
0.0
  0
ARC
  5
B47
330
18
100
AcDbEntity
  8
1
  6
Continuous
100
AcDbCircle
 10
348.2587416404677
 20
72.82089391954219
 30
0.0
 40
4.0
100
AcDbArc
 50
280.6448210000013
 51
350.4059319999996
  0
ARC
  5
B48
330
18
100
AcDbEntity
  8
1
  6
Continuous
100
AcDbCircle
 10
283.1818636404677
 20
83.82089391954222
 30
0.0
 40
70.0
100
AcDbArc
 50
350.4059319999996
 51
9.594068000000335
  0
LINE
  5
B49
330
18
100
AcDbEntity
  8
1
  6
Continuous
100
AcDbLine
 10
338.6047846404677
 20
100.705440919542
 30
0.0
 11
348.9976216404679
 21
98.75205891954216
 31
0.0
  0
ARC
  5
B4A
330
18
100
AcDbEntity
  8
1
  6
Continuous
100
AcDbCircle
 10
338.8818646404677
 20
102.1796279195422
 30
0.0
 40
1.5
100
AcDbArc
 50
180.0
 51
259.430749999999
  0
LINE
  5
B4B
330
18
100
AcDbEntity
  8
1
  6
Continuous
100
AcDbLine
 10
337.3818646404676
 20
102.8208939195421
 30
0.0
 11
337.3818646404676
 21
102.1796279195422
 31
0.0
  0
ARC
  5
B4C
330
18
100
AcDbEntity
  8
1
  6
Continuous
100
AcDbCircle
 10
348.2587416404677
 20
94.82089391954216
 30
0.0
 40
4.0
100
AcDbArc
 50
9.594068000000335
 51
79.3551789999985
  0
LINE
  5
B4D
330
18
100
AcDbEntity
  8
1
  6
Continuous
100
AcDbLine
 10
311.4318636404677
 20
64.32089391954217
 30
0.0
 11
311.4318636404677
 21
63.82089391954218
 31
0.0
  0
ARC
  5
B4E
330
18
100
AcDbEntity
  8
1
  6
Continuous
100
AcDbCircle
 10
311.9318636404677
 20
64.32089391954221
 30
0.0
 40
0.5
100
AcDbArc
 50
89.99999999999998
 51
180.0
  0
ARC
  5
B4F
330
18
100
AcDbEntity
  8
1
  6
Continuous
100
AcDbCircle
 10
309.9318636404677
 20
63.8208939195422
 30
0.0
 40
1.5
100
AcDbArc
 50
270.0
 51
0.0
  0
LINE
  5
B50
330
18
100
AcDbEntity
  8
1
  6
Continuous
100
AcDbLine
 10
338.6047846404677
 20
66.93634691954219
 30
0.0
 11
348.9976216404679
 21
68.88972891954222
 31
0.0
  0
ARC
  5
B51
330
18
100
AcDbEntity
  8
1
  6
Continuous
100
AcDbCircle
 10
338.8818646404677
 20
65.46215991954216
 30
0.0
 40
1.5
100
AcDbArc
 50
100.5692500000008
 51
180.0
  0
LINE
  5
B52
330
18
100
AcDbEntity
  8
1
  6
Continuous
100
AcDbLine
 10
337.3818646404676
 20
64.82089391954217
 30
0.0
 11
337.3818646404676
 21
65.46215991954216
 31
0.0
  0
LINE
  5
C55
330
18
100
AcDbEntity
  8
1
  6
Continuous
100
AcDbLine
 10
311.0630361329429
 20
111.8208939195421
 30
0.0
 11
270.3006911479923
 21
111.8208939195421
 31
0.0
  0
ARC
  5
C69
330
18
100
AcDbEntity
  8
1
  6
Continuous
100
AcDbCircle
 10
311.0630361329429
 20
133.320893919542
 30
0.0
 40
21.49999999999999
100
AcDbArc
 50
270.0
 51
322.2295104113641
  0
ARC
  5
C6A
330
18
100
AcDbEntity
  8
1
  6
Continuous
100
AcDbCircle
 10
342.6818596404676
 20
108.8208939195421
 30
0.0
 40
18.5
100
AcDbArc
 50
89.99998199999998
 51
142.2295104113642
  0
LINE
  5
C6C
330
18
100
AcDbEntity
  8
1
  6
Continuous
100
AcDbLine
 10
348.6818446404676
 20
127.3208939195421
 30
0.0
 11
342.6818596404676
 21
127.3208939195421
 31
0.0
  0
ARC
  5
C6E
330
18
100
AcDbEntity
  8
1
  6
Continuous
100
AcDbCircle
 10
348.6818441696427
 20
130.866597301562
 30
0.0
 40
3.545703382019834
100
AcDbArc
 50
270.000007608159
 51
350.7907139999569
  0
ARC
  5
C6F
330
18
100
AcDbEntity
  8
1
  6
Continuous
100
AcDbCircle
 10
270.3006911479923
 20
133.320893919542
 30
0.0
 40
21.49999999999999
100
AcDbArc
 50
217.7704895886356
 51
270.0
  0
ARC
  5
C70
330
18
100
AcDbEntity
  8
1
  6
Continuous
100
AcDbCircle
 10
238.6818676404676
 20
108.8208939195421
 30
0.0
 40
18.5
100
AcDbArc
 50
37.77048958863576
 51
90.00001800000005
  0
LINE
  5
C71
330
18
100
AcDbEntity
  8
1
  6
Continuous
100
AcDbLine
 10
232.6818826404676
 20
127.3208939195421
 30
0.0
 11
238.6818676404676
 21
127.3208939195421
 31
0.0
  0
ARC
  5
C72
330
18
100
AcDbEntity
  8
1
  6
Continuous
100
AcDbCircle
 10
232.6818831112924
 20
130.866597301562
 30
0.0
 40
3.545703382019834
100
AcDbArc
 50
189.2092860000431
 51
269.9999923918408
  0
ARC
  5
C73
330
18
100
AcDbEntity
  8
1
  6
Continuous
100
AcDbCircle
 10
232.6818831112924
 20
36.77519053752237
 30
0.0
 40
3.545703382019834
100
AcDbArc
 50
90.00000760815916
 51
170.7907139999569
  0
LINE
  5
C74
330
18
100
AcDbEntity
  8
1
  6
Continuous
100
AcDbLine
 10
232.6818826404676
 20
40.3208939195422
 30
0.0
 11
238.6818676404676
 21
40.32089391954218
 31
0.0
  0
ARC
  5
C75
330
18
100
AcDbEntity
  8
1
  6
Continuous
100
AcDbCircle
 10
238.6818676404676
 20
58.82089391954218
 30
0.0
 40
18.5
100
AcDbArc
 50
269.9999819999999
 51
322.2295104113641
  0
ARC
  5
C76
330
18
100
AcDbEntity
  8
1
  6
Continuous
100
AcDbCircle
 10
270.3006911479923
 20
34.32089391954217
 30
0.0
 40
21.49999999999999
100
AcDbArc
 50
90.00000000000005
 51
142.2295104113642
  0
LINE
  5
C77
330
18
100
AcDbEntity
  8
1
  6
Continuous
100
AcDbLine
 10
311.0630361329429
 20
55.82089391954219
 30
0.0
 11
270.3006911479923
 21
55.82089391954219
 31
0.0
  0
ARC
  5
C78
330
18
100
AcDbEntity
  8
1
  6
Continuous
100
AcDbCircle
 10
311.0630361329429
 20
34.32089391954217
 30
0.0
 40
21.49999999999999
100
AcDbArc
 50
37.77048958863578
 51
90.00000000000005
  0
ARC
  5
C79
330
18
100
AcDbEntity
  8
1
  6
Continuous
100
AcDbCircle
 10
342.6818596404676
 20
58.82089391954218
 30
0.0
 40
18.5
100
AcDbArc
 50
217.7704895886356
 51
270.0000179999999
  0
LINE
  5
C7A
330
18
100
AcDbEntity
  8
1
  6
Continuous
100
AcDbLine
 10
348.6818446404676
 20
40.3208939195422
 30
0.0
 11
342.6818596404676
 21
40.32089391954218
 31
0.0
  0
ARC
  5
C7B
330
18
100
AcDbEntity
  8
1
  6
Continuous
100
AcDbCircle
 10
348.6818441696427
 20
36.77519053752237
 30
0.0
 40
3.545703382019834
100
AcDbArc
 50
9.209286000043078
 51
89.99999239184086
  0
ENDSEC
  0
SECTION
  2
OBJECTS
  0
DICTIONARY
  5
C
330
0
100
AcDbDictionary
281
     1
  3
ACAD_CIP_PREVIOUS_PRODUCT_INFO
350
F2A
  3
ACAD_COLOR
350
F0D
  3
ACAD_DETAILVIEWSTYLE
350
F26
  3
ACAD_GROUP
350
D
  3
ACAD_LAYOUT
350
94
  3
ACAD_MATERIAL
350
EDB
  3
ACAD_MLEADERSTYLE
350
F22
  3
ACAD_MLINESTYLE
350
1B
  3
ACAD_PLOTSETTINGS
350
95
  3
ACAD_PLOTSTYLENAME
350
ED9
  3
ACAD_SCALELIST
350
F10
  3
ACAD_SECTIONVIEWSTYLE
350
F24
  3
ACAD_TABLESTYLE
350
F0E
  3
ACAD_VISUALSTYLE
350
EF4
  3
ACDB_RECOMPOSE_DATA
350
F48
  3
AcDbVariableDictionary
350
F3B
  3
CONTENTDICTIONARY
350
3D
  3
DWGPROPS
350
F49
  0
DICTIONARY
  5
F2B
330
E
100
AcDbDictionary
280
     1
281
     1
  3
ADSK_XREC_LAYER_RECONCILED
360
F2C
  0
DICTIONARY
  5
F2D
330
4E
100
AcDbDictionary
280
     1
281
     1
  3
ADSK_XREC_LAYER_RECONCILED
360
F2E
  0
DICTIONARY
  5
F2F
330
4F
100
AcDbDictionary
280
     1
281
     1
  3
ADSK_XREC_LAYER_RECONCILED
360
F30
  0
DICTIONARY
  5
F31
330
50
100
AcDbDictionary
280
     1
281
     1
  3
ADSK_XREC_LAYER_RECONCILED
360
F32
  0
DICTIONARY
  5
F33
330
51
100
AcDbDictionary
280
     1
281
     1
  3
ADSK_XREC_LAYER_RECONCILED
360
F34
  0
DICTIONARY
  5
F35
330
52
100
AcDbDictionary
280
     1
281
     1
  3
ADSK_XREC_LAYER_RECONCILED
360
F36
  0
DICTIONARY
  5
F37
330
53
100
AcDbDictionary
280
     1
281
     1
  3
ADSK_XREC_LAYER_RECONCILED
360
F38
  0
DICTIONARY
  5
F39
330
54
100
AcDbDictionary
280
     1
281
     1
  3
ADSK_XREC_LAYER_RECONCILED
360
F3A
  0
DICTIONARY
  5
EB9
330
18
100
AcDbDictionary
281
     1
  3
ACAD_LAYOUTSELFREF
350
ED5
  0
DICTIONARY
  5
EB7
330
15
100
AcDbDictionary
281
     1
  3
ACAD_LAYOUTSELFREF
350
ED4
  0
XRECORD
  5
F2A
102
{ACAD_REACTORS
330
C
102
}
330
C
100
AcDbXrecord
280
     1
300
ACDLT
300
2014
300
ACDLT_F_S
  0
DICTIONARY
  5
F0D
102
{ACAD_REACTORS
330
C
102
}
330
C
100
AcDbDictionary
281
     1
  0
DICTIONARY
  5
F26
102
{ACAD_REACTORS
330
C
102
}
330
C
100
AcDbDictionary
281
     1
  3
Imperial24
350
F27
  0
DICTIONARY
  5
D
102
{ACAD_REACTORS
330
C
102
}
330
C
100
AcDbDictionary
281
     1
  0
DICTIONARY
  5
94
102
{ACAD_REACTORS
330
C
102
}
330
C
100
AcDbDictionary
281
     1
  3
Model
350
F28
  3
レイアウト1
350
F29
  0
DICTIONARY
  5
EDB
102
{ACAD_REACTORS
330
C
102
}
330
C
100
AcDbDictionary
281
     1
  3
ByBlock
350
EE4
  3
ByLayer
350
EDC
  3
Global
350
EEC
  0
DICTIONARY
  5
F22
102
{ACAD_REACTORS
330
C
102
}
330
C
100
AcDbDictionary
281
     1
  3
Standard
350
F23
  0
DICTIONARY
  5
1B
102
{ACAD_REACTORS
330
C
102
}
330
C
100
AcDbDictionary
281
     1
  3
STANDARD
350
1C
  0
DICTIONARY
  5
95
102
{ACAD_REACTORS
330
C
102
}
330
C
100
AcDbDictionary
281
     1
  0
ACDBDICTIONARYWDFLT
  5
ED9
102
{ACAD_REACTORS
330
C
102
}
330
C
100
AcDbDictionary
281
     1
  3
Normal
350
EDA
100
AcDbDictionaryWithDefault
340
EDA
  0
DICTIONARY
  5
F10
102
{ACAD_REACTORS
330
C
102
}
330
C
100
AcDbDictionary
281
     1
  3
A0
350
F11
  3
A1
350
F12
  3
A2
350
F13
  3
A3
350
F14
  3
A4
350
F15
  3
A5
350
F16
  3
A6
350
F17
  3
A7
350
F18
  3
A8
350
F19
  3
A9
350
F1A
  3
B0
350
F1B
  3
B1
350
F1C
  3
B2
350
F1D
  3
B3
350
F1E
  3
B4
350
F1F
  3
B5
350
F20
  3
B6
350
F21
  0
DICTIONARY
  5
F24
102
{ACAD_REACTORS
330
C
102
}
330
C
100
AcDbDictionary
281
     1
  3
Imperial24
350
F25
  0
DICTIONARY
  5
F0E
102
{ACAD_REACTORS
330
C
102
}
330
C
100
AcDbDictionary
281
     1
  3
Standard
350
F0F
  0
DICTIONARY
  5
EF4
102
{ACAD_REACTORS
330
C
102
}
330
C
100
AcDbDictionary
281
     1
  3
2dWireframe
350
EFA
  3
Basic
350
EF9
  3
Brighten
350
F00
  3
ColorChange
350
F04
  3
Conceptual
350
EFD
  3
Dim
350
EFF
  3
EdgeColorOff
350
F0C
  3
Facepattern
350
F03
  3
Flat
350
EF5
  3
FlatWithEdges
350
EF6
  3
Gouraud
350
EF7
  3
GouraudWithEdges
350
EF8
  3
Hidden
350
EFC
  3
JitterOff
350
F0A
  3
Linepattern
350
F02
  3
OverhangOff
350
F0B
  3
Realistic
350
EFE
  3
Shaded
350
F09
  3
Shaded with edges
350
F08
  3
Shades of Gray
350
F05
  3
Sketchy
350
F06
  3
Thicken
350
F01
  3
Wireframe
350
EFB
  3
X-Ray
350
F07
  0
XRECORD
  5
F48
102
{ACAD_REACTORS
330
C
102
}
330
C
100
AcDbXrecord
280
     1
 90
        1
330
F0F
  0
DICTIONARY
  5
F3B
102
{ACAD_REACTORS
330
C
102
}
330
C
100
AcDbDictionary
281
     1
  3
CANNOSCALE
350
F40
  3
CMLEADERSTYLE
350
F3D
  3
CTABLESTYLE
350
F3C
  3
CVIEWDETAILSTYLE
350
F3E
  3
CVIEWSECTIONSTYLE
350
F3F
  3
DIMASSOC
350
F43
  3
INDEXCTL
350
F42
  3
SORTENTS
350
F41
  3
XCLIPFRAME
350
F44
  0
DICTIONARY
  5
3D
102
{ACAD_REACTORS
330
C
102
}
330
C
100
AcDbDictionary
281
     1
  0
XRECORD
  5
F49
102
{ACAD_REACTORS
330
C
102
}
330
C
100
AcDbXrecord
280
     1
  1
DWGPROPS COOKIE
  2

  3

  4

  6

  7

  8
Yoshitsune
  9

300
=
301
=
302
=
303
=
304
=
305
=
306
=
307
=
308
=
309
=
 40
0.0686865393518519
 41
2453811.402924803
 42
2457192.689450972
  1

 90
        0
  0
XRECORD
  5
F2C
102
{ACAD_REACTORS
330
F2B
102
}
330
F2B
100
AcDbXrecord
280
     1
290
     1
  0
XRECORD
  5
F2E
102
{ACAD_REACTORS
330
F2D
102
}
330
F2D
100
AcDbXrecord
280
     1
290
     1
  0
XRECORD
  5
F30
102
{ACAD_REACTORS
330
F2F
102
}
330
F2F
100
AcDbXrecord
280
     1
290
     1
  0
XRECORD
  5
F32
102
{ACAD_REACTORS
330
F31
102
}
330
F31
100
AcDbXrecord
280
     1
290
     1
  0
XRECORD
  5
F34
102
{ACAD_REACTORS
330
F33
102
}
330
F33
100
AcDbXrecord
280
     1
290
     1
  0
XRECORD
  5
F36
102
{ACAD_REACTORS
330
F35
102
}
330
F35
100
AcDbXrecord
280
     1
290
     1
  0
XRECORD
  5
F38
102
{ACAD_REACTORS
330
F37
102
}
330
F37
100
AcDbXrecord
280
     1
290
     1
  0
XRECORD
  5
F3A
102
{ACAD_REACTORS
330
F39
102
}
330
F39
100
AcDbXrecord
280
     1
290
     1
  0
XRECORD
  5
ED5
102
{ACAD_REACTORS
330
EB9
102
}
330
EB9
100
AcDbXrecord
280
     1
340
18
  0
XRECORD
  5
ED4
102
{ACAD_REACTORS
330
EB7
102
}
330
EB7
100
AcDbXrecord
280
     1
340
15
  0
ACDBDETAILVIEWSTYLE
  5
F27
102
{ACAD_XDICTIONARY
360
F81
102
}
102
{ACAD_REACTORS
330
F26
102
}
330
F26
100
AcDbModelDocViewStyle
 70
     0
  3
Imperial24
290
     0
100
AcDbDetailViewStyle
 70
     0
 71
     0
 90
        3
 71
     1
340
F
 40
0.24
340
0
 40
0.24
300

 40
0.36
280
     3
 71
     2
340
14
 90
       25
 71
     3
340
F
 40
0.24
 90
        1
 40
0.75
 90
        1
300
%<\AcVar ViewType \f "%tc1">% %<\AcVar ViewDetailId>%\PSCALE %<\AcVar ViewScale \f "%sn">%
 71
     4
340
14
 90
       25
340
14
 90
       25
280
     0
  0
LAYOUT
  5
F28
102
{ACAD_XDICTIONARY
360
F83
102
}
102
{ACAD_REACTORS
330
94
102
}
330
94
100
AcDbPlotSettings
  1

  2
Canon LBP9100C
  4

  6

 40
0.0
 41
0.0
 42
0.0
 43
0.0
 44
0.0
 45
0.0
 46
0.0
 47
0.0
 48
0.0
 49
0.0
140
0.0
141
0.0
142
1.0
143
1.0
 70
  1712
 72
     0
 73
     0
 74
     0
  7

 75
     0
147
1.0
148
0.0
149
0.0
100
AcDbLayout
  1
Model
 70
     1
 71
     0
 10
0.0
 20
0.0
 11
12.0
 21
9.0
 12
0.0
 22
0.0
 32
0.0
 14
0.0
 24
0.0
 34
0.0
 15
0.0
 25
0.0
 35
0.0
146
0.0
 13
0.0
 23
0.0
 33
0.0
 16
1.0
 26
0.0
 36
0.0
 17
0.0
 27
1.0
 37
0.0
 76
     0
330
18
331
ED3
  0
LAYOUT
  5
F29
102
{ACAD_XDICTIONARY
360
F85
102
}
102
{ACAD_REACTORS
330
94
102
}
330
94
100
AcDbPlotSettings
  1

  2
Canon LBP9100C
  4

  6

 40
0.0
 41
0.0
 42
0.0
 43
0.0
 44
0.0
 45
0.0
 46
0.0
 47
0.0
 48
0.0
 49
0.0
140
0.0
141
0.0
142
1.0
143
1.0
 70
   688
 72
     0
 73
     0
 74
     5
  7

 75
    16
147
1.0
148
0.0
149
0.0
100
AcDbLayout
  1
レイアウト1
 70
     1
 71
     1
 10
0.0
 20
0.0
 11
420.0
 21
297.0
 12
0.0
 22
0.0
 32
0.0
 14
1.000000000000000E+20
 24
1.000000000000000E+20
 34
1.000000000000000E+20
 15
-1.000000000000000E+20
 25
-1.000000000000000E+20
 35
-1.000000000000000E+20
146
0.0
 13
0.0
 23
0.0
 33
0.0
 16
1.0
 26
0.0
 36
0.0
 17
0.0
 27
1.0
 37
0.0
 76
     0
330
15
  0
MATERIAL
  5
EE4
102
{ACAD_XDICTIONARY
360
EE5
102
}
102
{ACAD_REACTORS
330
EDB
102
}
330
EDB
100
AcDbMaterial
  1
ByBlock
 72
     0
 43
0.0208333333333333
 43
0.0
 43
0.0
 43
0.0
 43
0.0
 43
0.0208333333333333
 43
0.0
 43
0.0
 43
0.0
 43
0.0
 43
1.0
 43
0.0
 43
0.0
 43
0.0
 43
0.0
 43
1.0
 77
     0
 47
0.0208333333333333
 47
0.0
 47
0.0
 47
0.0
 47
0.0
 47
0.0208333333333333
 47
0.0
 47
0.0
 47
0.0
 47
0.0
 47
1.0
 47
0.0
 47
0.0
 47
0.0
 47
0.0
 47
1.0
171
     0
 49
0.0208333333333333
 49
0.0
 49
0.0
 49
0.0
 49
0.0
 49
0.0208333333333333
 49
0.0
 49
0.0
 49
0.0
 49
0.0
 49
1.0
 49
0.0
 49
0.0
 49
0.0
 49
0.0
 49
1.0
175
     0
142
0.0208333333333333
142
0.0
142
0.0
142
0.0
142
0.0
142
0.0208333333333333
142
0.0
142
0.0
142
0.0
142
0.0
142
1.0
142
0.0
142
0.0
142
0.0
142
0.0
142
1.0
179
     0
144
0.0208333333333333
144
0.0
144
0.0
144
0.0
144
0.0
144
0.0208333333333333
144
0.0
144
0.0
144
0.0
144
0.0
144
1.0
144
0.0
144
0.0
144
0.0
144
0.0
144
1.0
147
0.0208333333333333
147
0.0
147
0.0
147
0.0
147
0.0
147
0.0208333333333333
147
0.0
147
0.0
147
0.0
147
0.0
147
1.0
147
0.0
147
0.0
147
0.0
147
0.0
147
1.0
  0
MATERIAL
  5
EDC
102
{ACAD_XDICTIONARY
360
EDD
102
}
102
{ACAD_REACTORS
330
EDB
102
}
330
EDB
100
AcDbMaterial
  1
ByLayer
 72
     0
 43
0.0208333333333333
 43
0.0
 43
0.0
 43
0.0
 43
0.0
 43
0.0208333333333333
 43
0.0
 43
0.0
 43
0.0
 43
0.0
 43
1.0
 43
0.0
 43
0.0
 43
0.0
 43
0.0
 43
1.0
 77
     0
 47
0.0208333333333333
 47
0.0
 47
0.0
 47
0.0
 47
0.0
 47
0.0208333333333333
 47
0.0
 47
0.0
 47
0.0
 47
0.0
 47
1.0
 47
0.0
 47
0.0
 47
0.0
 47
0.0
 47
1.0
171
     0
 49
0.0208333333333333
 49
0.0
 49
0.0
 49
0.0
 49
0.0
 49
0.0208333333333333
 49
0.0
 49
0.0
 49
0.0
 49
0.0
 49
1.0
 49
0.0
 49
0.0
 49
0.0
 49
0.0
 49
1.0
175
     0
142
0.0208333333333333
142
0.0
142
0.0
142
0.0
142
0.0
142
0.0208333333333333
142
0.0
142
0.0
142
0.0
142
0.0
142
1.0
142
0.0
142
0.0
142
0.0
142
0.0
142
1.0
179
     0
144
0.0208333333333333
144
0.0
144
0.0
144
0.0
144
0.0
144
0.0208333333333333
144
0.0
144
0.0
144
0.0
144
0.0
144
1.0
144
0.0
144
0.0
144
0.0
144
0.0
144
1.0
147
0.0208333333333333
147
0.0
147
0.0
147
0.0
147
0.0
147
0.0208333333333333
147
0.0
147
0.0
147
0.0
147
0.0
147
1.0
147
0.0
147
0.0
147
0.0
147
0.0
147
1.0
  0
MATERIAL
  5
EEC
102
{ACAD_XDICTIONARY
360
EED
102
}
102
{ACAD_REACTORS
330
EDB
102
}
330
EDB
100
AcDbMaterial
  1
Global
 72
     0
 43
0.0208333333333333
 43
0.0
 43
0.0
 43
0.0
 43
0.0
 43
0.0208333333333333
 43
0.0
 43
0.0
 43
0.0
 43
0.0
 43
1.0
 43
0.0
 43
0.0
 43
0.0
 43
0.0
 43
1.0
 77
     0
 47
0.0208333333333333
 47
0.0
 47
0.0
 47
0.0
 47
0.0
 47
0.0208333333333333
 47
0.0
 47
0.0
 47
0.0
 47
0.0
 47
1.0
 47
0.0
 47
0.0
 47
0.0
 47
0.0
 47
1.0
171
     0
 49
0.0208333333333333
 49
0.0
 49
0.0
 49
0.0
 49
0.0
 49
0.0208333333333333
 49
0.0
 49
0.0
 49
0.0
 49
0.0
 49
1.0
 49
0.0
 49
0.0
 49
0.0
 49
0.0
 49
1.0
175
     0
142
0.0208333333333333
142
0.0
142
0.0
142
0.0
142
0.0
142
0.0208333333333333
142
0.0
142
0.0
142
0.0
142
0.0
142
1.0
142
0.0
142
0.0
142
0.0
142
0.0
142
1.0
179
     0
144
0.0208333333333333
144
0.0
144
0.0
144
0.0
144
0.0
144
0.0208333333333333
144
0.0
144
0.0
144
0.0
144
0.0
144
1.0
144
0.0
144
0.0
144
0.0
144
0.0
144
1.0
147
0.0208333333333333
147
0.0
147
0.0
147
0.0
147
0.0
147
0.0208333333333333
147
0.0
147
0.0
147
0.0
147
0.0
147
1.0
147
0.0
147
0.0
147
0.0
147
0.0
147
1.0
  0
MLEADERSTYLE
  5
F23
102
{ACAD_REACTORS
330
F22
102
}
330
F22
100
AcDbMLeaderStyle
170
     2
171
     1
172
     0
 90
        2
 40
0.0
 41
0.0
173
     1
 91
-1056964608
340
12
 92
       -2
290
     1
 42
0.09
291
     1
 43
0.36
  3
Standard
 44
0.18
300

342
F
174
     1
178
     6
175
     1
176
     0
 93
-1056964608
 45
0.18
292
     0
297
     0
 46
0.18
 94
-1056964608
 47
1.0
 49
1.0
140
1.0
293
     1
141
0.0
294
     1
177
     0
142
1.0
295
     0
296
     0
143
0.125
1001
ACAD_MLEADERVER
1070
     2
  0
MLINESTYLE
  5
1C
102
{ACAD_REACTORS
330
1B
102
}
330
1B
100
AcDbMlineStyle
  2
STANDARD
 70
     0
  3

 62
   256
 51
90.0
 52
90.0
 71
     2
 49
0.5
 62
   256
  6
BYLAYER
 49
-0.5
 62
   256
  6
BYLAYER
  0
ACDBPLACEHOLDER
  5
EDA
102
{ACAD_REACTORS
330
ED9
102
}
330
ED9
  0
SCALE
  5
F11
102
{ACAD_REACTORS
330
F10
102
}
330
F10
100
AcDbScale
 70
     0
300
1:1
140
1.0
141
1.0
290
     1
  0
SCALE
  5
F12
102
{ACAD_REACTORS
330
F10
102
}
330
F10
100
AcDbScale
 70
     0
300
1/128" = 1'-0"
140
0.0078125
141
12.0
290
     0
  0
SCALE
  5
F13
102
{ACAD_REACTORS
330
F10
102
}
330
F10
100
AcDbScale
 70
     0
300
1/64" = 1'-0"
140
0.015625
141
12.0
290
     0
  0
SCALE
  5
F14
102
{ACAD_REACTORS
330
F10
102
}
330
F10
100
AcDbScale
 70
     0
300
1/32" = 1'-0"
140
0.03125
141
12.0
290
     0
  0
SCALE
  5
F15
102
{ACAD_REACTORS
330
F10
102
}
330
F10
100
AcDbScale
 70
     0
300
1/16" = 1'-0"
140
0.0625
141
12.0
290
     0
  0
SCALE
  5
F16
102
{ACAD_REACTORS
330
F10
102
}
330
F10
100
AcDbScale
 70
     0
300
3/32" = 1'-0"
140
0.09375
141
12.0
290
     0
  0
SCALE
  5
F17
102
{ACAD_REACTORS
330
F10
102
}
330
F10
100
AcDbScale
 70
     0
300
1/8" = 1'-0"
140
0.125
141
12.0
290
     0
  0
SCALE
  5
F18
102
{ACAD_REACTORS
330
F10
102
}
330
F10
100
AcDbScale
 70
     0
300
3/16" = 1'-0"
140
0.1875
141
12.0
290
     0
  0
SCALE
  5
F19
102
{ACAD_REACTORS
330
F10
102
}
330
F10
100
AcDbScale
 70
     0
300
1/4" = 1'-0"
140
0.25
141
12.0
290
     0
  0
SCALE
  5
F1A
102
{ACAD_REACTORS
330
F10
102
}
330
F10
100
AcDbScale
 70
     0
300
3/8" = 1'-0"
140
0.375
141
12.0
290
     0
  0
SCALE
  5
F1B
102
{ACAD_REACTORS
330
F10
102
}
330
F10
100
AcDbScale
 70
     0
300
1/2" = 1'-0"
140
0.5
141
12.0
290
     0
  0
SCALE
  5
F1C
102
{ACAD_REACTORS
330
F10
102
}
330
F10
100
AcDbScale
 70
     0
300
3/4" = 1'-0"
140
0.75
141
12.0
290
     0
  0
SCALE
  5
F1D
102
{ACAD_REACTORS
330
F10
102
}
330
F10
100
AcDbScale
 70
     0
300
1" = 1'-0"
140
1.0
141
12.0
290
     0
  0
SCALE
  5
F1E
102
{ACAD_REACTORS
330
F10
102
}
330
F10
100
AcDbScale
 70
     0
300
1-1/2" = 1'-0"
140
1.5
141
12.0
290
     0
  0
SCALE
  5
F1F
102
{ACAD_REACTORS
330
F10
102
}
330
F10
100
AcDbScale
 70
     0
300
3" = 1'-0"
140
3.0
141
12.0
290
     0
  0
SCALE
  5
F20
102
{ACAD_REACTORS
330
F10
102
}
330
F10
100
AcDbScale
 70
     0
300
6" = 1'-0"
140
6.0
141
12.0
290
     0
  0
SCALE
  5
F21
102
{ACAD_REACTORS
330
F10
102
}
330
F10
100
AcDbScale
 70
     0
300
1'-0" = 1'-0"
140
12.0
141
12.0
290
     0
  0
ACDBSECTIONVIEWSTYLE
  5
F25
102
{ACAD_XDICTIONARY
360
F7F
102
}
102
{ACAD_REACTORS
330
F24
102
}
330
F24
100
AcDbModelDocViewStyle
 70
     0
  3
Imperial24
290
     0
100
AcDbSectionViewStyle
 70
     0
 71
     0
 90
       78
 71
     1
340
F
 40
0.24
340
0
340
0
 40
0.24
300
I, O, Q, S, X, Z
 40
0.48
 90
        3
 40
0.18
 90
        1
 71
     2
340
14
 90
       25
340
14
 90
       50
 40
0.24
 40
0.0
 40
0.24
 71
     3
340
F
 40
0.24
 90
        1
 40
0.75
 90
        1
300
%<\AcVar ViewType \f "%tc1">% %<\AcVar ViewSectionStartId>%-%<\AcVar ViewSectionEndId>%\PSCALE %<\AcVar ViewScale \f "%sn">%
 71
     4
300
ANSI31
 40
1.0
 90
        0
290
     0
290
     0
 90
        6
 40
0.0
 40
1.570796326794896
 40
0.2617993877991494
 40
1.308996938995747
 40
-0.2617993877991494
 40
1.832595714594046
  0
TABLESTYLE
  5
F0F
102
{ACAD_XDICTIONARY
360
F46
102
}
102
{ACAD_REACTORS
330
F0E
102
}
330
F0E
100
AcDbTableStyle
  3
Standard
 70
     0
 71
     0
 40
0.06
 41
0.06
280
     0
281
     0
  7
STANDARD
140
0.18
170
     2
 62
     0
 63
     7
283
     0
274
    -2
284
     1
 64
     0
275
    -2
285
     1
 65
     0
276
    -2
286
     1
 66
     0
277
    -2
287
     1
 67
     0
278
    -2
288
     1
 68
     0
279
    -2
289
     1
 69
     0
  7
STANDARD
140
0.25
170
     5
 62
     0
 63
     7
283
     0
274
    -2
284
     1
 64
     0
275
    -2
285
     1
 65
     0
276
    -2
286
     1
 66
     0
277
    -2
287
     1
 67
     0
278
    -2
288
     1
 68
     0
279
    -2
289
     1
 69
     0
  7
STANDARD
140
0.18
170
     5
 62
     0
 63
     7
283
     0
274
    -2
284
     1
 64
     0
275
    -2
285
     1
 65
     0
276
    -2
286
     1
 66
     0
277
    -2
287
     1
 67
     0
278
    -2
288
     1
 68
     0
279
    -2
289
     1
 69
     0
  0
VISUALSTYLE
  5
EFA
102
{ACAD_XDICTIONARY
360
F57
102
}
102
{ACAD_REACTORS
330
EF4
102
}
330
EF4
100
AcDbVisualStyle
  2
2dWireframe
 70
     4
 71
     0
 72
     2
 73
     0
 90
        0
 40
-0.6
 41
-30.0
 62
     5
 63
     7
 74
     1
 91
        4
 64
     7
 65
   257
 75
     1
175
     1
 42
1.0
 92
        0
 66
   257
 43
1.0
 76
     1
 77
     6
 78
     2
 67
     7
 79
     5
170
     0
171
     0
290
     0
174
     0
 93
        1
 44
0.0
173
     0
291
     0
 45
0.0
1001
ACAD
1000
AcDbSavedByObjectVersion
1070
     0
  0
VISUALSTYLE
  5
EF9
102
{ACAD_XDICTIONARY
360
F55
102
}
102
{ACAD_REACTORS
330
EF4
102
}
330
EF4
100
AcDbVisualStyle
  2
Basic
 70
     7
 71
     1
 72
     0
 73
     1
 90
        0
 40
-0.6
 41
-30.0
 62
     5
 63
     7
 74
     0
 91
        4
 64
     7
 65
   257
 75
     1
175
     1
 42
1.0
 92
        8
 66
     7
 43
1.0
 76
     1
 77
     6
 78
     2
 67
     7
 79
     5
170
     0
171
     0
290
     0
174
     0
 93
        1
 44
0.0
173
     0
291
     1
 45
0.0
1001
ACAD
1000
AcDbSavedByObjectVersion
1070
     0
  0
VISUALSTYLE
  5
F00
102
{ACAD_XDICTIONARY
360
F63
102
}
102
{ACAD_REACTORS
330
EF4
102
}
330
EF4
100
AcDbVisualStyle
  2
Brighten
 70
    12
 71
     2
 72
     2
 73
     0
 90
        0
 40
-0.6
 41
-30.0
 62
     5
 63
     7
 74
     1
 91
        4
 64
     7
 65
   257
 75
     1
175
     1
 42
1.0
 92
        8
 66
     7
 43
1.0
 76
     1
 77
     6
 78
     2
 67
     7
 79
     5
170
     0
171
     0
290
     0
174
     0
 93
        1
 44
50.0
173
     0
291
     1
 45
0.0
1001
ACAD
1000
AcDbSavedByObjectVersion
1070
     0
  0
VISUALSTYLE
  5
F04
102
{ACAD_XDICTIONARY
360
F6B
102
}
102
{ACAD_REACTORS
330
EF4
102
}
330
EF4
100
AcDbVisualStyle
  2
ColorChange
 70
    16
 71
     2
 72
     2
 73
     3
 90
        0
 40
-0.6
 41
-30.0
 62
     5
 63
     8
 74
     1
 91
        4
 64
     7
 65
   257
 75
     1
175
     1
 42
1.0
 92
        8
 66
     8
 43
1.0
 76
     1
 77
     6
 78
     2
 67
     7
 79
     5
170
     0
171
     0
290
     0
174
     0
 93
        1
 44
0.0
173
     0
291
     1
 45
0.0
1001
ACAD
1000
AcDbSavedByObjectVersion
1070
     0
  0
VISUALSTYLE
  5
EFD
102
{ACAD_XDICTIONARY
360
F5D
102
}
102
{ACAD_REACTORS
330
EF4
102
}
330
EF4
100
AcDbVisualStyle
  2
Conceptual
 70
     9
 71
     3
 72
     2
 73
     0
 90
        0
 40
-0.6
 41
-30.0
 62
     5
 63
     7
 74
     2
 91
        2
 64
     7
 65
   257
 75
     1
175
     1
 42
179.0
 92
        8
 66
     7
 43
1.0
 76
     1
 77
     6
 78
     2
 67
     7
 79
     3
170
     0
171
     0
290
     0
174
     0
 93
        1
 44
0.0
173
     0
291
     0
 45
0.0
1001
ACAD
1000
AcDbSavedByObjectVersion
1070
     0
  0
VISUALSTYLE
  5
EFF
102
{ACAD_XDICTIONARY
360
F61
102
}
102
{ACAD_REACTORS
330
EF4
102
}
330
EF4
100
AcDbVisualStyle
  2
Dim
 70
    11
 71
     2
 72
     2
 73
     0
 90
        0
 40
-0.6
 41
-30.0
 62
     5
 63
     7
 74
     1
 91
        4
 64
     7
 65
   257
 75
     1
175
     1
 42
1.0
 92
        8
 66
     7
 43
1.0
 76
     1
 77
     6
 78
     2
 67
     7
 79
     5
170
     0
171
     0
290
     0
174
     0
 93
        1
 44
-50.0
173
     0
291
     1
 45
0.0
1001
ACAD
1000
AcDbSavedByObjectVersion
1070
     0
  0
VISUALSTYLE
  5
F0C
102
{ACAD_XDICTIONARY
360
F7B
102
}
102
{ACAD_REACTORS
330
EF4
102
}
330
EF4
100
AcDbVisualStyle
  2
EdgeColorOff
 70
    22
 71
     2
 72
     2
 73
     0
 90
        0
 40
-0.6
 41
-30.0
 62
     5
 63
     7
 74
     1
 91
        4
 64
     7
 65
   257
 75
     1
175
     1
 42
1.0
 92
        8
 66
     7
 43
1.0
 76
     1
 77
     6
 78
     2
 67
     7
 79
     5
170
     0
171
     0
290
     0
174
     0
 93
        1
 44
0.0
173
     0
291
     1
 45
0.0
1001
ACAD
1000
AcDbSavedByObjectVersion
1070
     0
  0
VISUALSTYLE
  5
F03
102
{ACAD_XDICTIONARY
360
F69
102
}
102
{ACAD_REACTORS
330
EF4
102
}
330
EF4
100
AcDbVisualStyle
  2
Facepattern
 70
    15
 71
     2
 72
     2
 73
     0
 90
        0
 40
-0.6
 41
-30.0
 62
     5
 63
     7
 74
     1
 91
        4
 64
     7
 65
   257
 75
     1
175
     1
 42
1.0
 92
        8
 66
     7
 43
1.0
 76
     1
 77
     6
 78
     2
 67
     7
 79
     5
170
     0
171
     0
290
     0
174
     0
 93
        1
 44
0.0
173
     0
291
     1
 45
0.0
1001
ACAD
1000
AcDbSavedByObjectVersion
1070
     0
  0
VISUALSTYLE
  5
EF5
102
{ACAD_XDICTIONARY
360
F4D
102
}
102
{ACAD_REACTORS
330
EF4
102
}
330
EF4
100
AcDbVisualStyle
  2
Flat
 70
     0
 71
     2
 72
     1
 73
     1
 90
        2
 40
-0.6
 41
30.0
 62
     5
 63
     7
 74
     0
 91
        0
 64
     7
 65
   257
 75
     1
175
     1
 42
1.0
 92
        8
 66
     7
 43
1.0
 76
     1
 77
     6
 78
     2
 67
     7
 79
     5
170
     0
171
     0
290
     0
174
     0
 93
       13
 44
0.0
173
     0
291
     1
 45
0.0
1001
ACAD
1000
AcDbSavedByObjectVersion
1070
     0
  0
VISUALSTYLE
  5
EF6
102
{ACAD_XDICTIONARY
360
F4F
102
}
102
{ACAD_REACTORS
330
EF4
102
}
330
EF4
100
AcDbVisualStyle
  2
FlatWithEdges
 70
     1
 71
     2
 72
     1
 73
     1
 90
        2
 40
-0.6
 41
30.0
 62
     5
 63
     7
 74
     1
 91
        0
 64
     7
 65
   257
 75
     1
175
     1
 42
1.0
 92
        0
 66
   257
 43
1.0
 76
     1
 77
     6
 78
     2
 67
     7
 79
     5
170
     0
171
     0
290
     0
174
     0
 93
       13
 44
0.0
173
     0
291
     1
 45
0.0
1001
ACAD
1000
AcDbSavedByObjectVersion
1070
     0
  0
VISUALSTYLE
  5
EF7
102
{ACAD_XDICTIONARY
360
F51
102
}
102
{ACAD_REACTORS
330
EF4
102
}
330
EF4
100
AcDbVisualStyle
  2
Gouraud
 70
     2
 71
     2
 72
     2
 73
     1
 90
        2
 40
-0.6
 41
30.0
 62
     5
 63
     7
 74
     0
 91
        0
 64
     7
 65
   257
 75
     1
175
     1
 42
1.0
 92
        0
 66
     7
 43
1.0
 76
     1
 77
     6
 78
     2
 67
     7
 79
     5
170
     0
171
     0
290
     0
174
     0
 93
       13
 44
0.0
173
     0
291
     1
 45
0.0
1001
ACAD
1000
AcDbSavedByObjectVersion
1070
     0
  0
VISUALSTYLE
  5
EF8
102
{ACAD_XDICTIONARY
360
F53
102
}
102
{ACAD_REACTORS
330
EF4
102
}
330
EF4
100
AcDbVisualStyle
  2
GouraudWithEdges
 70
     3
 71
     2
 72
     2
 73
     1
 90
        2
 40
-0.6
 41
30.0
 62
     5
 63
     7
 74
     1
 91
        0
 64
     7
 65
   257
 75
     1
175
     1
 42
1.0
 92
        0
 66
   257
 43
1.0
 76
     1
 77
     6
 78
     2
 67
     7
 79
     5
170
     0
171
     0
290
     0
174
     0
 93
       13
 44
0.0
173
     0
291
     1
 45
0.0
1001
ACAD
1000
AcDbSavedByObjectVersion
1070
     0
  0
VISUALSTYLE
  5
EFC
102
{ACAD_XDICTIONARY
360
F5B
102
}
102
{ACAD_REACTORS
330
EF4
102
}
330
EF4
100
AcDbVisualStyle
  2
Hidden
 70
     6
 71
     1
 72
     2
 73
     2
 90
        0
 40
-0.6
 41
-30.0
 62
     5
 63
     7
 74
     2
 91
        2
 64
     7
 65
   257
 75
     2
175
     1
 42
40.0
 92
        0
 66
   257
 43
1.0
 76
     1
 77
     6
 78
     2
 67
     7
 79
     3
170
     0
171
     0
290
     0
174
     0
 93
        1
 44
0.0
173
     0
291
     0
 45
0.0
1001
ACAD
1000
AcDbSavedByObjectVersion
1070
     0
  0
VISUALSTYLE
  5
F0A
102
{ACAD_XDICTIONARY
360
F77
102
}
102
{ACAD_REACTORS
330
EF4
102
}
330
EF4
100
AcDbVisualStyle
  2
JitterOff
 70
    20
 71
     2
 72
     2
 73
     0
 90
        0
 40
-0.6
 41
-30.0
 62
     5
 63
     7
 74
     1
 91
        4
 64
     7
 65
   257
 75
     1
175
     1
 42
1.0
 92
       10
 66
     7
 43
1.0
 76
     1
 77
     6
 78
     2
 67
     7
 79
     5
170
     0
171
     0
290
     0
174
     0
 93
        1
 44
0.0
173
     0
291
     1
 45
0.0
1001
ACAD
1000
AcDbSavedByObjectVersion
1070
     0
  0
VISUALSTYLE
  5
F02
102
{ACAD_XDICTIONARY
360
F67
102
}
102
{ACAD_REACTORS
330
EF4
102
}
330
EF4
100
AcDbVisualStyle
  2
Linepattern
 70
    14
 71
     2
 72
     2
 73
     0
 90
        0
 40
-0.6
 41
-30.0
 62
     5
 63
     7
 74
     1
 91
        4
 64
     7
 65
   257
 75
     7
175
     7
 42
1.0
 92
        8
 66
     7
 43
1.0
 76
     1
 77
     6
 78
     2
 67
     7
 79
     5
170
     0
171
     0
290
     0
174
     0
 93
        1
 44
0.0
173
     0
291
     1
 45
0.0
1001
ACAD
1000
AcDbSavedByObjectVersion
1070
     0
  0
VISUALSTYLE
  5
F0B
102
{ACAD_XDICTIONARY
360
F79
102
}
102
{ACAD_REACTORS
330
EF4
102
}
330
EF4
100
AcDbVisualStyle
  2
OverhangOff
 70
    21
 71
     2
 72
     2
 73
     0
 90
        0
 40
-0.6
 41
-30.0
 62
     5
 63
     7
 74
     1
 91
        4
 64
     7
 65
   257
 75
     1
175
     1
 42
1.0
 92
        9
 66
     7
 43
1.0
 76
     1
 77
     6
 78
     2
 67
     7
 79
     5
170
     0
171
     0
290
     0
174
     0
 93
        1
 44
0.0
173
     0
291
     1
 45
0.0
1001
ACAD
1000
AcDbSavedByObjectVersion
1070
     0
  0
VISUALSTYLE
  5
EFE
102
{ACAD_XDICTIONARY
360
F5F
102
}
102
{ACAD_REACTORS
330
EF4
102
}
330
EF4
100
AcDbVisualStyle
  2
Realistic
 70
     8
 71
     2
 72
     3
 73
     0
 90
        2
 40
-0.6
 41
30.0
 62
     5
 63
     7
 74
     0
 91
        0
 64
     7
 65
   257
 75
     1
175
     1
 42
1.0
 92
        8
 66
   257
 43
1.0
 76
     1
 77
     6
 78
     2
 67
     7
 79
     3
170
     0
171
     0
290
     0
174
     0
 93
       13
 44
0.0
173
     0
291
     0
 45
0.0
1001
ACAD
1000
AcDbSavedByObjectVersion
1070
     0
  0
VISUALSTYLE
  5
F09
102
{ACAD_XDICTIONARY
360
F75
102
}
102
{ACAD_REACTORS
330
EF4
102
}
330
EF4
100
AcDbVisualStyle
  2
Shaded
 70
    27
 71
     2
 72
     2
 73
     1
 90
        2
 40
-0.6
 41
30.0
 62
     5
 63
     7
 74
     0
 91
        4
 64
     7
 65
   257
 75
     1
175
     1
 42
1.0
 92
        8
 66
   257
 43
1.0
 76
     1
 77
     6
 78
     2
 67
     8
 79
     3
170
     0
171
     0
290
     0
174
     0
 93
        5
 44
0.0
173
     0
291
     0
 45
0.0
1001
ACAD
1000
AcDbSavedByObjectVersion
1070
     0
  0
VISUALSTYLE
  5
F08
102
{ACAD_XDICTIONARY
360
F73
102
}
102
{ACAD_REACTORS
330
EF4
102
}
330
EF4
100
AcDbVisualStyle
  2
Shaded with edges
 70
    26
 71
     2
 72
     2
 73
     1
 90
        2
 40
-0.6
 41
30.0
 62
     5
 63
     7
 74
     1
 91
       10
 64
     7
 65
   257
 75
     2
175
     1
 42
1.0
 92
        8
 66
   257
 43
1.0
 76
     1
 77
     6
 78
     2
 67
     7
 79
     3
170
     0
171
     0
290
     0
174
     0
 93
        5
 44
0.0
173
     0
291
     0
 45
0.0
1001
ACAD
1000
AcDbSavedByObjectVersion
1070
     0
  0
VISUALSTYLE
  5
F05
102
{ACAD_XDICTIONARY
360
F6D
102
}
102
{ACAD_REACTORS
330
EF4
102
}
330
EF4
100
AcDbVisualStyle
  2
Shades of Gray
 70
    23
 71
     2
 72
     2
 73
     3
 90
        0
 40
-0.6
 41
-30.0
 62
     5
 63
     7
 74
     2
 91
        2
 64
     7
 65
     7
 75
     1
175
     1
 42
40.0
 92
        8
 66
     7
 43
1.0
 76
     1
 77
     6
 78
     2
 67
     7
 79
     3
170
     0
171
     0
290
     0
174
     0
 93
        1
 44
0.0
173
     0
291
     0
 45
0.0
1001
ACAD
1000
AcDbSavedByObjectVersion
1070
     0
  0
VISUALSTYLE
  5
F06
102
{ACAD_XDICTIONARY
360
F6F
102
}
102
{ACAD_REACTORS
330
EF4
102
}
330
EF4
100
AcDbVisualStyle
  2
Sketchy
 70
    24
 71
     1
 72
     2
 73
     2
 90
        0
 40
-0.6
 41
-30.0
 62
     5
 63
     7
 74
     2
 91
        2
 64
     7
 65
     7
 75
     1
175
     1
 42
40.0
 92
       11
 66
     7
 43
1.0
 76
     1
 77
     6
 78
     2
 67
     7
 79
     6
170
     0
171
     0
290
     0
174
     0
 93
        1
 44
0.0
173
     0
291
     0
 45
0.0
1001
ACAD
1000
AcDbSavedByObjectVersion
1070
     0
  0
VISUALSTYLE
  5
F01
102
{ACAD_XDICTIONARY
360
F65
102
}
102
{ACAD_REACTORS
330
EF4
102
}
330
EF4
100
AcDbVisualStyle
  2
Thicken
 70
    13
 71
     2
 72
     2
 73
     0
 90
        0
 40
-0.6
 41
-30.0
 62
     5
 63
     7
 74
     1
 91
        4
 64
     7
 65
   257
 75
     1
175
     1
 42
1.0
 92
       12
 66
     7
 43
1.0
 76
     1
 77
     6
 78
     2
 67
     7
 79
     5
170
     0
171
     0
290
     0
174
     0
 93
        1
 44
0.0
173
     0
291
     1
 45
0.0
1001
ACAD
1000
AcDbSavedByObjectVersion
1070
     0
  0
VISUALSTYLE
  5
EFB
102
{ACAD_XDICTIONARY
360
F59
102
}
102
{ACAD_REACTORS
330
EF4
102
}
330
EF4
100
AcDbVisualStyle
  2
Wireframe
 70
     5
 71
     0
 72
     2
 73
     0
 90
        0
 40
-0.6
 41
-30.0
 62
     5
 63
     7
 74
     1
 91
        4
 64
     7
 65
   257
 75
     1
175
     1
 42
1.0
 92
        0
 66
   257
 43
1.0
 76
     1
 77
     6
 78
     2
 67
     7
 79
     3
170
     0
171
     0
290
     0
174
     0
 93
        1
 44
0.0
173
     0
291
     0
 45
0.0
1001
ACAD
1000
AcDbSavedByObjectVersion
1070
     0
  0
VISUALSTYLE
  5
F07
102
{ACAD_XDICTIONARY
360
F71
102
}
102
{ACAD_REACTORS
330
EF4
102
}
330
EF4
100
AcDbVisualStyle
  2
X-Ray
 70
    25
 71
     2
 72
     2
 73
     1
 90
        1
 40
0.5
 41
-30.0
 62
     5
 63
     7
 74
     1
 91
        0
 64
     7
 65
   257
 75
     1
175
     1
 42
1.0
 92
        8
 66
     7
 43
1.0
 76
     1
 77
     6
 78
     2
 67
     7
 79
     3
170
     0
171
     0
290
     0
174
     0
 93
       13
 44
0.0
173
     0
291
     0
 45
0.0
1001
ACAD
1000
AcDbSavedByObjectVersion
1070
     0
  0
DICTIONARYVAR
  5
F40
102
{ACAD_REACTORS
330
F3B
102
}
330
F3B
100
DictionaryVariables
280
     0
  1
1:1
  0
DICTIONARYVAR
  5
F3D
102
{ACAD_REACTORS
330
F3B
102
}
330
F3B
100
DictionaryVariables
280
     0
  1
STANDARD
  0
DICTIONARYVAR
  5
F3C
102
{ACAD_REACTORS
330
F3B
102
}
330
F3B
100
DictionaryVariables
280
     0
  1
STANDARD
  0
DICTIONARYVAR
  5
F3E
102
{ACAD_REACTORS
330
F3B
102
}
330
F3B
100
DictionaryVariables
280
     0
  1
Imperial24
  0
DICTIONARYVAR
  5
F3F
102
{ACAD_REACTORS
330
F3B
102
}
330
F3B
100
DictionaryVariables
280
     0
  1
Imperial24
  0
DICTIONARYVAR
  5
F43
102
{ACAD_REACTORS
330
F3B
102
}
330
F3B
100
DictionaryVariables
280
     0
  1
1
  0
DICTIONARYVAR
  5
F42
102
{ACAD_REACTORS
330
F3B
102
}
330
F3B
100
DictionaryVariables
280
     0
  1
0
  0
DICTIONARYVAR
  5
F41
102
{ACAD_REACTORS
330
F3B
102
}
330
F3B
100
DictionaryVariables
280
     0
  1
127
  0
DICTIONARYVAR
  5
F44
102
{ACAD_REACTORS
330
F3B
102
}
330
F3B
100
DictionaryVariables
280
     0
  1
2
  0
DICTIONARY
  5
F81
330
F27
100
AcDbDictionary
280
     1
281
     1
  3
ACAD_XREC_ROUNDTRIP
360
F82
  0
DICTIONARY
  5
F83
330
F28
100
AcDbDictionary
280
     1
281
     1
  3
ACAD_XREC_ROUNDTRIP
360
F84
  0
DICTIONARY
  5
F85
330
F29
100
AcDbDictionary
280
     1
281
     1
  3
ACAD_XREC_ROUNDTRIP
360
F86
  0
DICTIONARY
  5
EE5
330
EE4
100
AcDbDictionary
280
     1
281
     1
  3
ACAD_XREC_ROUNDTRIP
360
F4B
  3
BUMPTILE
360
EE7
  3
DIFFUSETILE
360
EE6
  3
OPACITYTILE
360
EEA
  3
REFLECTIONTILE
360
EE9
  3
REFRACTIONTILE
360
EEB
  3
SPECULARTILE
360
EE8
  0
DICTIONARY
  5
EDD
330
EDC
100
AcDbDictionary
280
     1
281
     1
  3
ACAD_XREC_ROUNDTRIP
360
F4A
  3
BUMPTILE
360
EDF
  3
DIFFUSETILE
360
EDE
  3
OPACITYTILE
360
EE2
  3
REFLECTIONTILE
360
EE1
  3
REFRACTIONTILE
360
EE3
  3
SPECULARTILE
360
EE0
  0
DICTIONARY
  5
EED
330
EEC
100
AcDbDictionary
280
     1
281
     1
  3
ACAD_XREC_ROUNDTRIP
360
F4C
  3
BUMPTILE
360
EEF
  3
DIFFUSETILE
360
EEE
  3
OPACITYTILE
360
EF2
  3
REFLECTIONTILE
360
EF1
  3
REFRACTIONTILE
360
EF3
  3
SPECULARTILE
360
EF0
  0
DICTIONARY
  5
F7F
330
F25
100
AcDbDictionary
280
     1
281
     1
  3
ACAD_XREC_ROUNDTRIP
360
F80
  0
DICTIONARY
  5
F46
330
F0F
100
AcDbDictionary
280
     1
281
     1
  3
ACAD_ROUNDTRIP_2008_TABLESTYLE_CELLSTYLEMAP
360
F47
  3
ACAD_XREC_ROUNDTRIP
360
F7D
  0
DICTIONARY
  5
F57
330
EFA
100
AcDbDictionary
280
     1
281
     1
  3
ACAD_XREC_ROUNDTRIP
360
F58
  0
DICTIONARY
  5
F55
330
EF9
100
AcDbDictionary
280
     1
281
     1
  3
ACAD_XREC_ROUNDTRIP
360
F56
  0
DICTIONARY
  5
F63
330
F00
100
AcDbDictionary
280
     1
281
     1
  3
ACAD_XREC_ROUNDTRIP
360
F64
  0
DICTIONARY
  5
F6B
330
F04
100
AcDbDictionary
280
     1
281
     1
  3
ACAD_XREC_ROUNDTRIP
360
F6C
  0
DICTIONARY
  5
F5D
330
EFD
100
AcDbDictionary
280
     1
281
     1
  3
ACAD_XREC_ROUNDTRIP
360
F5E
  0
DICTIONARY
  5
F61
330
EFF
100
AcDbDictionary
280
     1
281
     1
  3
ACAD_XREC_ROUNDTRIP
360
F62
  0
DICTIONARY
  5
F7B
330
F0C
100
AcDbDictionary
280
     1
281
     1
  3
ACAD_XREC_ROUNDTRIP
360
F7C
  0
DICTIONARY
  5
F69
330
F03
100
AcDbDictionary
280
     1
281
     1
  3
ACAD_XREC_ROUNDTRIP
360
F6A
  0
DICTIONARY
  5
F4D
330
EF5
100
AcDbDictionary
280
     1
281
     1
  3
ACAD_XREC_ROUNDTRIP
360
F4E
  0
DICTIONARY
  5
F4F
330
EF6
100
AcDbDictionary
280
     1
281
     1
  3
ACAD_XREC_ROUNDTRIP
360
F50
  0
DICTIONARY
  5
F51
330
EF7
100
AcDbDictionary
280
     1
281
     1
  3
ACAD_XREC_ROUNDTRIP
360
F52
  0
DICTIONARY
  5
F53
330
EF8
100
AcDbDictionary
280
     1
281
     1
  3
ACAD_XREC_ROUNDTRIP
360
F54
  0
DICTIONARY
  5
F5B
330
EFC
100
AcDbDictionary
280
     1
281
     1
  3
ACAD_XREC_ROUNDTRIP
360
F5C
  0
DICTIONARY
  5
F77
330
F0A
100
AcDbDictionary
280
     1
281
     1
  3
ACAD_XREC_ROUNDTRIP
360
F78
  0
DICTIONARY
  5
F67
330
F02
100
AcDbDictionary
280
     1
281
     1
  3
ACAD_XREC_ROUNDTRIP
360
F68
  0
DICTIONARY
  5
F79
330
F0B
100
AcDbDictionary
280
     1
281
     1
  3
ACAD_XREC_ROUNDTRIP
360
F7A
  0
DICTIONARY
  5
F5F
330
EFE
100
AcDbDictionary
280
     1
281
     1
  3
ACAD_XREC_ROUNDTRIP
360
F60
  0
DICTIONARY
  5
F75
330
F09
100
AcDbDictionary
280
     1
281
     1
  3
ACAD_XREC_ROUNDTRIP
360
F76
  0
DICTIONARY
  5
F73
330
F08
100
AcDbDictionary
280
     1
281
     1
  3
ACAD_XREC_ROUNDTRIP
360
F74
  0
DICTIONARY
  5
F6D
330
F05
100
AcDbDictionary
280
     1
281
     1
  3
ACAD_XREC_ROUNDTRIP
360
F6E
  0
DICTIONARY
  5
F6F
330
F06
100
AcDbDictionary
280
     1
281
     1
  3
ACAD_XREC_ROUNDTRIP
360
F70
  0
DICTIONARY
  5
F65
330
F01
100
AcDbDictionary
280
     1
281
     1
  3
ACAD_XREC_ROUNDTRIP
360
F66
  0
DICTIONARY
  5
F59
330
EFB
100
AcDbDictionary
280
     1
281
     1
  3
ACAD_XREC_ROUNDTRIP
360
F5A
  0
DICTIONARY
  5
F71
330
F07
100
AcDbDictionary
280
     1
281
     1
  3
ACAD_XREC_ROUNDTRIP
360
F72
  0
XRECORD
  5
F82
102
{ACAD_REACTORS
330
F81
102
}
330
F81
100
AcDbXrecord
280
     1
102
DISPLAYNAME
  1
Imperial24
102
FLAGS
 90
        0
  0
XRECORD
  5
F84
102
{ACAD_REACTORS
330
F83
102
}
330
F83
100
AcDbXrecord
280
     1
102
SHADEPLOT
 70
     0
102
SHADEPLOTRESLEVEL
 70
     2
102
SHADEPLOTCUSTOMDPI
 70
   300
  0
XRECORD
  5
F86
102
{ACAD_REACTORS
330
F85
102
}
330
F85
100
AcDbXrecord
280
     1
102
SHADEPLOT
 70
     0
102
SHADEPLOTRESLEVEL
 70
     2
102
SHADEPLOTCUSTOMDPI
 70
   300
  0
XRECORD
  5
F4B
102
{ACAD_REACTORS
330
EE5
102
}
330
EE5
100
AcDbXrecord
280
     1
102
MATERIAL
148
0.0
149
0.0
149
0.0
 93
        0
 94
      127
282
     0
 72
     0
 77
     0
171
     0
175
     0
179
     0
273
     0
  0
XRECORD
  5
EE7
102
{ACAD_REACTORS
330
EE5
102
}
330
EE5
100
AcDbXrecord
280
     1
270
     1
271
     1
  0
XRECORD
  5
EE6
102
{ACAD_REACTORS
330
EE5
102
}
330
EE5
100
AcDbXrecord
280
     1
270
     1
271
     1
  0
XRECORD
  5
EEA
102
{ACAD_REACTORS
330
EE5
102
}
330
EE5
100
AcDbXrecord
280
     1
270
     1
271
     1
  0
XRECORD
  5
EE9
102
{ACAD_REACTORS
330
EE5
102
}
330
EE5
100
AcDbXrecord
280
     1
270
     1
271
     1
  0
XRECORD
  5
EEB
102
{ACAD_REACTORS
330
EE5
102
}
330
EE5
100
AcDbXrecord
280
     1
270
     1
271
     1
  0
XRECORD
  5
EE8
102
{ACAD_REACTORS
330
EE5
102
}
330
EE5
100
AcDbXrecord
280
     1
270
     1
271
     1
  0
XRECORD
  5
F4A
102
{ACAD_REACTORS
330
EDD
102
}
330
EDD
100
AcDbXrecord
280
     1
102
MATERIAL
148
0.0
149
0.0
149
0.0
 93
        0
 94
      127
282
     0
 72
     0
 77
     0
171
     0
175
     0
179
     0
273
     0
  0
XRECORD
  5
EDF
102
{ACAD_REACTORS
330
EDD
102
}
330
EDD
100
AcDbXrecord
280
     1
270
     1
271
     1
  0
XRECORD
  5
EDE
102
{ACAD_REACTORS
330
EDD
102
}
330
EDD
100
AcDbXrecord
280
     1
270
     1
271
     1
  0
XRECORD
  5
EE2
102
{ACAD_REACTORS
330
EDD
102
}
330
EDD
100
AcDbXrecord
280
     1
270
     1
271
     1
  0
XRECORD
  5
EE1
102
{ACAD_REACTORS
330
EDD
102
}
330
EDD
100
AcDbXrecord
280
     1
270
     1
271
     1
  0
XRECORD
  5
EE3
102
{ACAD_REACTORS
330
EDD
102
}
330
EDD
100
AcDbXrecord
280
     1
270
     1
271
     1
  0
XRECORD
  5
EE0
102
{ACAD_REACTORS
330
EDD
102
}
330
EDD
100
AcDbXrecord
280
     1
270
     1
271
     1
  0
XRECORD
  5
F4C
102
{ACAD_REACTORS
330
EED
102
}
330
EED
100
AcDbXrecord
280
     1
102
MATERIAL
148
0.0
149
0.0
149
0.0
 93
        0
 94
      127
282
     0
 72
     0
 77
     0
171
     0
175
     0
179
     0
273
     0
  0
XRECORD
  5
EEF
102
{ACAD_REACTORS
330
EED
102
}
330
EED
100
AcDbXrecord
280
     1
270
     1
271
     1
  0
XRECORD
  5
EEE
102
{ACAD_REACTORS
330
EED
102
}
330
EED
100
AcDbXrecord
280
     1
270
     1
271
     1
  0
XRECORD
  5
EF2
102
{ACAD_REACTORS
330
EED
102
}
330
EED
100
AcDbXrecord
280
     1
270
     1
271
     1
  0
XRECORD
  5
EF1
102
{ACAD_REACTORS
330
EED
102
}
330
EED
100
AcDbXrecord
280
     1
270
     1
271
     1
  0
XRECORD
  5
EF3
102
{ACAD_REACTORS
330
EED
102
}
330
EED
100
AcDbXrecord
280
     1
270
     1
271
     1
  0
XRECORD
  5
EF0
102
{ACAD_REACTORS
330
EED
102
}
330
EED
100
AcDbXrecord
280
     1
270
     1
271
     1
  0
XRECORD
  5
F80
102
{ACAD_REACTORS
330
F7F
102
}
330
F7F
100
AcDbXrecord
280
     1
102
DISPLAYNAME
  1
Imperial24
102
FLAGS
 90
        0
  0
CELLSTYLEMAP
  5
F47
102
{ACAD_REACTORS
330
F46
102
}
330
F46
100
AcDbCellStyleMap
 90
        3
300
CELLSTYLE
  1
TABLEFORMAT_BEGIN
 90
        5
170
     1
 91
        0
 92
    32768
 62
   257
 93
        1
300
CONTENTFORMAT
  1
CONTENTFORMAT_BEGIN
 90
        0
 91
        0
 92
      512
 93
        0
300

 40
0.0
140
1.0
 94
        5
 62
     0
340
F
144
0.25
309
CONTENTFORMAT_END
171
     0
 94
        0
309
TABLEFORMAT_END
  1
CELLSTYLE_BEGIN
 90
        1
 91
        1
300
_TITLE
309
CELLSTYLE_END
300
CELLSTYLE
  1
TABLEFORMAT_BEGIN
 90
        5
170
     1
 91
        0
 92
        0
 62
   257
 93
        1
300
CONTENTFORMAT
  1
CONTENTFORMAT_BEGIN
 90
        0
 91
        0
 92
      512
 93
        0
300

 40
0.0
140
1.0
 94
        5
 62
     0
340
F
144
0.18
309
CONTENTFORMAT_END
171
     0
 94
        0
309
TABLEFORMAT_END
  1
CELLSTYLE_BEGIN
 90
        2
 91
        1
300
_HEADER
309
CELLSTYLE_END
300
CELLSTYLE
  1
TABLEFORMAT_BEGIN
 90
        5
170
     1
 91
        0
 92
        0
 62
   257
 93
        1
300
CONTENTFORMAT
  1
CONTENTFORMAT_BEGIN
 90
        0
 91
        0
 92
      512
 93
        0
300

 40
0.0
140
1.0
 94
        2
 62
     0
340
F
144
0.18
309
CONTENTFORMAT_END
171
     0
 94
        0
309
TABLEFORMAT_END
  1
CELLSTYLE_BEGIN
 90
        3
 91
        2
300
_DATA
309
CELLSTYLE_END
  0
XRECORD
  5
F7D
102
{ACAD_REACTORS
330
F46
102
}
330
F46
100
AcDbXrecord
280
     1
102
ACAD_ROUNDTRIP_PRE2007_TABLESTYLE
 90
      512
 91
        0
  1

 92
      512
 93
        0
  2

 94
      512
 95
        0
  3

  0
XRECORD
  5
F58
102
{ACAD_REACTORS
330
F57
102
}
330
F57
100
AcDbXrecord
280
     1
102
RTVSPost2010Prop28
280
     1
102
RTVSPost2010PropOp28
 70
     1
102
RTVSPost2010Prop29
280
     1
102
RTVSPost2010PropOp29
 70
     1
102
RTVSPost2010Prop30
280
     0
102
RTVSPost2010PropOp30
 70
     1
102
RTVSPost2010Prop31
280
     0
102
RTVSPost2010PropOp31
 70
     1
102
RTVSPost2010Prop32
280
     0
102
RTVSPost2010PropOp32
 70
     1
102
RTVSPost2010Prop33
280
     0
102
RTVSPost2010PropOp33
 70
     1
102
RTVSPost2010Prop34
280
     0
102
RTVSPost2010PropOp34
 70
     1
102
RTVSPost2010Prop35
280
     0
102
RTVSPost2010PropOp35
 70
     1
102
RTVSPost2010Prop36
280
     0
102
RTVSPost2010PropOp36
 70
     1
102
RTVSPost2010Prop37
 90
       50
102
RTVSPost2010PropOp37
 70
     1
102
RTVSPost2010Prop38
140
0.0
102
RTVSPost2010PropOp38
 70
     1
102
RTVSPost2010Prop39
140
1.0
102
RTVSPost2010PropOp39
 70
     1
102
RTVSPost2010Prop40
 90
        0
102
RTVSPost2010PropOp40
 70
     1
102
RTVSPost2010Prop41ColorIndex
 90
       18
102
RTVSPost2010Prop41ColorRGB
 90
        0
102
RTVSPost2010PropOp41
 70
     1
102
RTVSPost2010Prop42
 90
       50
102
RTVSPost2010PropOp42
 70
     1
102
RTVSPost2010Prop43
 90
        3
102
RTVSPost2010PropOp43
 70
     1
102
RTVSPost2010Prop44ColorIndex
 90
        5
102
RTVSPost2010Prop44ColorRGB
 90
      255
102
RTVSPost2010PropOp44
 70
     1
102
RTVSPost2010Prop45
280
     0
102
RTVSPost2010PropOp45
 70
     1
102
RTVSPost2010Prop46
 90
       50
102
RTVSPost2010PropOp46
 70
     1
102
RTVSPost2010Prop47
 90
       50
102
RTVSPost2010PropOp47
 70
     1
102
RTVSPost2010Prop48
 90
       50
102
RTVSPost2010PropOp48
 70
     1
102
RTVSPost2010Prop49
280
     0
102
RTVSPost2010PropOp49
 70
     1
102
RTVSPost2010Prop50
 90
       50
102
RTVSPost2010PropOp50
 70
     1
102
RTVSPost2010Prop51ColorIndex
 90
      256
102
RTVSPost2010Prop51ColorRGB
 90
-16777216
102
RTVSPost2010PropOp51
 70
     0
102
RTVSPost2010Prop52
140
1.0
102
RTVSPost2010PropOp52
 70
     0
102
RTVSPost2010Prop53
 90
        2
102
RTVSPost2010PropOp53
 70
     1
102
RTVSPost2010Prop54
  1
strokes_ogs.tif
102
RTVSPost2010PropOp54
 70
     1
102
RTVSPost2010Prop55
280
     0
102
RTVSPost2010PropOp55
 70
     1
102
RTVSPost2010Prop56
140
1.0
102
RTVSPost2010PropOp56
 70
     1
102
RTVSPost2010Prop57
140
1.0
102
RTVSPost2010PropOp57
 70
     1
102
RTVSPropertyOp0
 70
     1
102
RTVSPropertyOp1
 70
     1
102
RTVSPropertyOp2
 70
     1
102
RTVSPropertyOp3
 70
     1
102
RTVSPropertyOp4
 70
     1
102
RTVSPropertyOp5
 70
     1
102
RTVSPropertyOp6
 70
     1
102
RTVSPropertyOp7
 70
     1
102
RTVSPropertyOp8
 70
     1
102
RTVSPropertyOp9
 70
     1
102
RTVSPropertyOp10
 70
     1
102
RTVSPropertyOp11
 70
     1
102
RTVSPropertyOp12
 70
     1
102
RTVSPropertyOp13
 70
     1
102
RTVSPropertyOp14
 70
     1
102
RTVSPropertyOp15
 70
     1
102
RTVSPropertyOp16
 70
     1
102
RTVSPropertyOp17
 70
     1
102
RTVSPropertyOp18
 70
     1
102
RTVSPropertyOp19
 70
     1
102
RTVSPropertyOp20
 70
     1
102
RTVSPropertyOp21
 70
     1
102
RTVSPropertyOp22
 70
     1
102
RTVSPropertyOp23
 70
     1
102
RTVSPropertyOp24
 70
     1
102
RTVSPropertyOp25
 70
     1
102
RTVSPropertyOp26
 70
     1
102
RTVSPropertyOp27
 70
     1
102
RTVSPropertyOp28
 70
     1
102
RTVSPropertyOp29
 70
     1
102
RTVSPropertyOp30
 70
     1
102
RTVSPropertyOp31
 70
     1
102
RTVSPropertyOp32
 70
     1
102
RTVSPropertyOp33
 70
     1
102
RTVSPropertyOp34
 70
     1
102
RTVSPropertyOp35
 70
     1
102
RTVSPropertyOp36
 70
     1
102
RTVSPropertyOp37
 70
     1
102
RTVSPropertyOp38
 70
     1
102
RTVSPropertyOp39
 70
     1
102
RTVSPropertyOp40
 70
     1
102
RTVSPropertyOp41
 70
     1
102
RTVSPropertyOp42
 70
     1
102
RTVSPropertyOp43
 70
     1
102
RTVSPropertyOp44
 70
     1
102
RTVSPropertyOp45
 70
     1
102
RTVSPropertyOp46
 70
     1
102
RTVSPropertyOp47
 70
     1
102
RTVSPropertyOp48
 70
     1
102
RTVSPropertyOp49
 70
     1
102
RTVSPropertyOp50
 70
     1
102
RTVSPropertyOp51
 70
     0
102
RTVSPropertyOp52
 70
     0
102
RTVSPropertyOp53
 70
     1
102
RTVSPropertyOp54
 70
     1
102
RTVSPropertyOp55
 70
     1
102
RTVSPropertyOp56
 70
     1
102
RTVSPropertyOp57
 70
     1
102
RTVSPropertyOp58
 70
     1
102
RTVSPropertyOp59
 70
     1
102
RTVSPropertyOp60
 70
     1
102
RTVSPropertyOp61
 70
     1
102
RTVSPropertyOp62
 70
     1
  0
XRECORD
  5
F56
102
{ACAD_REACTORS
330
F55
102
}
330
F55
100
AcDbXrecord
280
     1
102
RTVSPost2010Prop28
280
     0
102
RTVSPost2010PropOp28
 70
     1
102
RTVSPost2010Prop29
280
     1
102
RTVSPost2010PropOp29
 70
     1
102
RTVSPost2010Prop30
280
     1
102
RTVSPost2010PropOp30
 70
     1
102
RTVSPost2010Prop31
280
     0
102
RTVSPost2010PropOp31
 70
     1
102
RTVSPost2010Prop32
280
     0
102
RTVSPost2010PropOp32
 70
     1
102
RTVSPost2010Prop33
280
     0
102
RTVSPost2010PropOp33
 70
     1
102
RTVSPost2010Prop34
280
     0
102
RTVSPost2010PropOp34
 70
     1
102
RTVSPost2010Prop35
280
     0
102
RTVSPost2010PropOp35
 70
     1
102
RTVSPost2010Prop36
280
     0
102
RTVSPost2010PropOp36
 70
     1
102
RTVSPost2010Prop37
 90
       50
102
RTVSPost2010PropOp37
 70
     1
102
RTVSPost2010Prop38
140
0.0
102
RTVSPost2010PropOp38
 70
     1
102
RTVSPost2010Prop39
140
1.0
102
RTVSPost2010PropOp39
 70
     1
102
RTVSPost2010Prop40
 90
        0
102
RTVSPost2010PropOp40
 70
     1
102
RTVSPost2010Prop41ColorIndex
 90
       18
102
RTVSPost2010Prop41ColorRGB
 90
        0
102
RTVSPost2010PropOp41
 70
     1
102
RTVSPost2010Prop42
 90
       50
102
RTVSPost2010PropOp42
 70
     1
102
RTVSPost2010Prop43
 90
        3
102
RTVSPost2010PropOp43
 70
     1
102
RTVSPost2010Prop44ColorIndex
 90
        5
102
RTVSPost2010Prop44ColorRGB
 90
      255
102
RTVSPost2010PropOp44
 70
     1
102
RTVSPost2010Prop45
280
     0
102
RTVSPost2010PropOp45
 70
     1
102
RTVSPost2010Prop46
 90
       50
102
RTVSPost2010PropOp46
 70
     1
102
RTVSPost2010Prop47
 90
       50
102
RTVSPost2010PropOp47
 70
     1
102
RTVSPost2010Prop48
 90
       50
102
RTVSPost2010PropOp48
 70
     1
102
RTVSPost2010Prop49
280
     0
102
RTVSPost2010PropOp49
 70
     1
102
RTVSPost2010Prop50
 90
       50
102
RTVSPost2010PropOp50
 70
     1
102
RTVSPost2010Prop51ColorIndex
 90
      256
102
RTVSPost2010Prop51ColorRGB
 90
-16777216
102
RTVSPost2010PropOp51
 70
     0
102
RTVSPost2010Prop52
140
1.0
102
RTVSPost2010PropOp52
 70
     0
102
RTVSPost2010Prop53
 90
        2
102
RTVSPost2010PropOp53
 70
     1
102
RTVSPost2010Prop54
  1
strokes_ogs.tif
102
RTVSPost2010PropOp54
 70
     1
102
RTVSPost2010Prop55
280
     0
102
RTVSPost2010PropOp55
 70
     1
102
RTVSPost2010Prop56
140
1.0
102
RTVSPost2010PropOp56
 70
     1
102
RTVSPost2010Prop57
140
1.0
102
RTVSPost2010PropOp57
 70
     1
102
RTVSPropertyOp0
 70
     1
102
RTVSPropertyOp1
 70
     1
102
RTVSPropertyOp2
 70
     1
102
RTVSPropertyOp3
 70
     1
102
RTVSPropertyOp4
 70
     1
102
RTVSPropertyOp5
 70
     1
102
RTVSPropertyOp6
 70
     1
102
RTVSPropertyOp7
 70
     1
102
RTVSPropertyOp8
 70
     1
102
RTVSPropertyOp9
 70
     1
102
RTVSPropertyOp10
 70
     1
102
RTVSPropertyOp11
 70
     1
102
RTVSPropertyOp12
 70
     1
102
RTVSPropertyOp13
 70
     1
102
RTVSPropertyOp14
 70
     1
102
RTVSPropertyOp15
 70
     1
102
RTVSPropertyOp16
 70
     1
102
RTVSPropertyOp17
 70
     1
102
RTVSPropertyOp18
 70
     1
102
RTVSPropertyOp19
 70
     1
102
RTVSPropertyOp20
 70
     1
102
RTVSPropertyOp21
 70
     1
102
RTVSPropertyOp22
 70
     1
102
RTVSPropertyOp23
 70
     1
102
RTVSPropertyOp24
 70
     1
102
RTVSPropertyOp25
 70
     1
102
RTVSPropertyOp26
 70
     1
102
RTVSPropertyOp27
 70
     1
102
RTVSPropertyOp28
 70
     1
102
RTVSPropertyOp29
 70
     1
102
RTVSPropertyOp30
 70
     1
102
RTVSPropertyOp31
 70
     1
102
RTVSPropertyOp32
 70
     1
102
RTVSPropertyOp33
 70
     1
102
RTVSPropertyOp34
 70
     1
102
RTVSPropertyOp35
 70
     1
102
RTVSPropertyOp36
 70
     1
102
RTVSPropertyOp37
 70
     1
102
RTVSPropertyOp38
 70
     1
102
RTVSPropertyOp39
 70
     1
102
RTVSPropertyOp40
 70
     1
102
RTVSPropertyOp41
 70
     1
102
RTVSPropertyOp42
 70
     1
102
RTVSPropertyOp43
 70
     1
102
RTVSPropertyOp44
 70
     1
102
RTVSPropertyOp45
 70
     1
102
RTVSPropertyOp46
 70
     1
102
RTVSPropertyOp47
 70
     1
102
RTVSPropertyOp48
 70
     1
102
RTVSPropertyOp49
 70
     1
102
RTVSPropertyOp50
 70
     1
102
RTVSPropertyOp51
 70
     0
102
RTVSPropertyOp52
 70
     0
102
RTVSPropertyOp53
 70
     1
102
RTVSPropertyOp54
 70
     1
102
RTVSPropertyOp55
 70
     1
102
RTVSPropertyOp56
 70
     1
102
RTVSPropertyOp57
 70
     1
102
RTVSPropertyOp58
 70
     1
102
RTVSPropertyOp59
 70
     1
102
RTVSPropertyOp60
 70
     1
102
RTVSPropertyOp61
 70
     1
102
RTVSPropertyOp62
 70
     1
  0
XRECORD
  5
F64
102
{ACAD_REACTORS
330
F63
102
}
330
F63
100
AcDbXrecord
280
     1
102
RTVSPost2010Prop28
280
     0
102
RTVSPost2010PropOp28
 70
     1
102
RTVSPost2010Prop29
280
     1
102
RTVSPost2010PropOp29
 70
     1
102
RTVSPost2010Prop30
280
     1
102
RTVSPost2010PropOp30
 70
     1
102
RTVSPost2010Prop31
280
     0
102
RTVSPost2010PropOp31
 70
     1
102
RTVSPost2010Prop32
280
     0
102
RTVSPost2010PropOp32
 70
     1
102
RTVSPost2010Prop33
280
     0
102
RTVSPost2010PropOp33
 70
     1
102
RTVSPost2010Prop34
280
     0
102
RTVSPost2010PropOp34
 70
     1
102
RTVSPost2010Prop35
280
     0
102
RTVSPost2010PropOp35
 70
     1
102
RTVSPost2010Prop36
280
     0
102
RTVSPost2010PropOp36
 70
     1
102
RTVSPost2010Prop37
 90
       50
102
RTVSPost2010PropOp37
 70
     1
102
RTVSPost2010Prop38
140
0.0
102
RTVSPost2010PropOp38
 70
     1
102
RTVSPost2010Prop39
140
1.0
102
RTVSPost2010PropOp39
 70
     1
102
RTVSPost2010Prop40
 90
        0
102
RTVSPost2010PropOp40
 70
     1
102
RTVSPost2010Prop41ColorIndex
 90
       18
102
RTVSPost2010Prop41ColorRGB
 90
        0
102
RTVSPost2010PropOp41
 70
     1
102
RTVSPost2010Prop42
 90
       50
102
RTVSPost2010PropOp42
 70
     1
102
RTVSPost2010Prop43
 90
        3
102
RTVSPost2010PropOp43
 70
     1
102
RTVSPost2010Prop44ColorIndex
 90
        5
102
RTVSPost2010Prop44ColorRGB
 90
      255
102
RTVSPost2010PropOp44
 70
     1
102
RTVSPost2010Prop45
280
     0
102
RTVSPost2010PropOp45
 70
     1
102
RTVSPost2010Prop46
 90
       50
102
RTVSPost2010PropOp46
 70
     1
102
RTVSPost2010Prop47
 90
       50
102
RTVSPost2010PropOp47
 70
     1
102
RTVSPost2010Prop48
 90
       50
102
RTVSPost2010PropOp48
 70
     1
102
RTVSPost2010Prop49
280
     0
102
RTVSPost2010PropOp49
 70
     1
102
RTVSPost2010Prop50
 90
       50
102
RTVSPost2010PropOp50
 70
     1
102
RTVSPost2010Prop51ColorIndex
 90
      256
102
RTVSPost2010Prop51ColorRGB
 90
-16777216
102
RTVSPost2010PropOp51
 70
     0
102
RTVSPost2010Prop52
140
1.0
102
RTVSPost2010PropOp52
 70
     0
102
RTVSPost2010Prop53
 90
        2
102
RTVSPost2010PropOp53
 70
     1
102
RTVSPost2010Prop54
  1
strokes_ogs.tif
102
RTVSPost2010PropOp54
 70
     1
102
RTVSPost2010Prop55
280
     0
102
RTVSPost2010PropOp55
 70
     1
102
RTVSPost2010Prop56
140
1.0
102
RTVSPost2010PropOp56
 70
     1
102
RTVSPost2010Prop57
140
1.0
102
RTVSPost2010PropOp57
 70
     1
102
RTVSPropertyOp0
 70
     1
102
RTVSPropertyOp1
 70
     1
102
RTVSPropertyOp2
 70
     1
102
RTVSPropertyOp3
 70
     1
102
RTVSPropertyOp4
 70
     1
102
RTVSPropertyOp5
 70
     1
102
RTVSPropertyOp6
 70
     1
102
RTVSPropertyOp7
 70
     1
102
RTVSPropertyOp8
 70
     1
102
RTVSPropertyOp9
 70
     1
102
RTVSPropertyOp10
 70
     1
102
RTVSPropertyOp11
 70
     1
102
RTVSPropertyOp12
 70
     1
102
RTVSPropertyOp13
 70
     1
102
RTVSPropertyOp14
 70
     1
102
RTVSPropertyOp15
 70
     1
102
RTVSPropertyOp16
 70
     1
102
RTVSPropertyOp17
 70
     1
102
RTVSPropertyOp18
 70
     1
102
RTVSPropertyOp19
 70
     1
102
RTVSPropertyOp20
 70
     1
102
RTVSPropertyOp21
 70
     1
102
RTVSPropertyOp22
 70
     1
102
RTVSPropertyOp23
 70
     1
102
RTVSPropertyOp24
 70
     1
102
RTVSPropertyOp25
 70
     1
102
RTVSPropertyOp26
 70
     1
102
RTVSPropertyOp27
 70
     1
102
RTVSPropertyOp28
 70
     1
102
RTVSPropertyOp29
 70
     1
102
RTVSPropertyOp30
 70
     1
102
RTVSPropertyOp31
 70
     1
102
RTVSPropertyOp32
 70
     1
102
RTVSPropertyOp33
 70
     1
102
RTVSPropertyOp34
 70
     1
102
RTVSPropertyOp35
 70
     1
102
RTVSPropertyOp36
 70
     1
102
RTVSPropertyOp37
 70
     1
102
RTVSPropertyOp38
 70
     1
102
RTVSPropertyOp39
 70
     1
102
RTVSPropertyOp40
 70
     1
102
RTVSPropertyOp41
 70
     1
102
RTVSPropertyOp42
 70
     1
102
RTVSPropertyOp43
 70
     1
102
RTVSPropertyOp44
 70
     1
102
RTVSPropertyOp45
 70
     1
102
RTVSPropertyOp46
 70
     1
102
RTVSPropertyOp47
 70
     1
102
RTVSPropertyOp48
 70
     1
102
RTVSPropertyOp49
 70
     1
102
RTVSPropertyOp50
 70
     1
102
RTVSPropertyOp51
 70
     0
102
RTVSPropertyOp52
 70
     0
102
RTVSPropertyOp53
 70
     1
102
RTVSPropertyOp54
 70
     1
102
RTVSPropertyOp55
 70
     1
102
RTVSPropertyOp56
 70
     1
102
RTVSPropertyOp57
 70
     1
102
RTVSPropertyOp58
 70
     1
102
RTVSPropertyOp59
 70
     1
102
RTVSPropertyOp60
 70
     1
102
RTVSPropertyOp61
 70
     1
102
RTVSPropertyOp62
 70
     1
  0
XRECORD
  5
F6C
102
{ACAD_REACTORS
330
F6B
102
}
330
F6B
100
AcDbXrecord
280
     1
102
RTVSPost2010Prop28
280
     0
102
RTVSPost2010PropOp28
 70
     1
102
RTVSPost2010Prop29
280
     1
102
RTVSPost2010PropOp29
 70
     1
102
RTVSPost2010Prop30
280
     1
102
RTVSPost2010PropOp30
 70
     1
102
RTVSPost2010Prop31
280
     0
102
RTVSPost2010PropOp31
 70
     1
102
RTVSPost2010Prop32
280
     0
102
RTVSPost2010PropOp32
 70
     1
102
RTVSPost2010Prop33
280
     0
102
RTVSPost2010PropOp33
 70
     1
102
RTVSPost2010Prop34
280
     0
102
RTVSPost2010PropOp34
 70
     1
102
RTVSPost2010Prop35
280
     0
102
RTVSPost2010PropOp35
 70
     1
102
RTVSPost2010Prop36
280
     0
102
RTVSPost2010PropOp36
 70
     1
102
RTVSPost2010Prop37
 90
       50
102
RTVSPost2010PropOp37
 70
     1
102
RTVSPost2010Prop38
140
0.0
102
RTVSPost2010PropOp38
 70
     1
102
RTVSPost2010Prop39
140
1.0
102
RTVSPost2010PropOp39
 70
     1
102
RTVSPost2010Prop40
 90
        0
102
RTVSPost2010PropOp40
 70
     1
102
RTVSPost2010Prop41ColorIndex
 90
       18
102
RTVSPost2010Prop41ColorRGB
 90
        0
102
RTVSPost2010PropOp41
 70
     1
102
RTVSPost2010Prop42
 90
       50
102
RTVSPost2010PropOp42
 70
     1
102
RTVSPost2010Prop43
 90
        3
102
RTVSPost2010PropOp43
 70
     1
102
RTVSPost2010Prop44ColorIndex
 90
        5
102
RTVSPost2010Prop44ColorRGB
 90
      255
102
RTVSPost2010PropOp44
 70
     1
102
RTVSPost2010Prop45
280
     0
102
RTVSPost2010PropOp45
 70
     1
102
RTVSPost2010Prop46
 90
       50
102
RTVSPost2010PropOp46
 70
     1
102
RTVSPost2010Prop47
 90
       50
102
RTVSPost2010PropOp47
 70
     1
102
RTVSPost2010Prop48
 90
       50
102
RTVSPost2010PropOp48
 70
     1
102
RTVSPost2010Prop49
280
     0
102
RTVSPost2010PropOp49
 70
     1
102
RTVSPost2010Prop50
 90
       50
102
RTVSPost2010PropOp50
 70
     1
102
RTVSPost2010Prop51ColorIndex
 90
      256
102
RTVSPost2010Prop51ColorRGB
 90
-16777216
102
RTVSPost2010PropOp51
 70
     0
102
RTVSPost2010Prop52
140
1.0
102
RTVSPost2010PropOp52
 70
     0
102
RTVSPost2010Prop53
 90
        2
102
RTVSPost2010PropOp53
 70
     1
102
RTVSPost2010Prop54
  1
strokes_ogs.tif
102
RTVSPost2010PropOp54
 70
     1
102
RTVSPost2010Prop55
280
     0
102
RTVSPost2010PropOp55
 70
     1
102
RTVSPost2010Prop56
140
1.0
102
RTVSPost2010PropOp56
 70
     1
102
RTVSPost2010Prop57
140
1.0
102
RTVSPost2010PropOp57
 70
     1
102
RTVSPropertyOp0
 70
     1
102
RTVSPropertyOp1
 70
     1
102
RTVSPropertyOp2
 70
     1
102
RTVSPropertyOp3
 70
     1
102
RTVSPropertyOp4
 70
     1
102
RTVSPropertyOp5
 70
     1
102
RTVSPropertyOp6
 70
     1
102
RTVSPropertyOp7
 70
     1
102
RTVSPropertyOp8
 70
     1
102
RTVSPropertyOp9
 70
     1
102
RTVSPropertyOp10
 70
     1
102
RTVSPropertyOp11
 70
     1
102
RTVSPropertyOp12
 70
     1
102
RTVSPropertyOp13
 70
     1
102
RTVSPropertyOp14
 70
     1
102
RTVSPropertyOp15
 70
     1
102
RTVSPropertyOp16
 70
     1
102
RTVSPropertyOp17
 70
     1
102
RTVSPropertyOp18
 70
     1
102
RTVSPropertyOp19
 70
     1
102
RTVSPropertyOp20
 70
     1
102
RTVSPropertyOp21
 70
     1
102
RTVSPropertyOp22
 70
     1
102
RTVSPropertyOp23
 70
     1
102
RTVSPropertyOp24
 70
     1
102
RTVSPropertyOp25
 70
     1
102
RTVSPropertyOp26
 70
     1
102
RTVSPropertyOp27
 70
     1
102
RTVSPropertyOp28
 70
     1
102
RTVSPropertyOp29
 70
     1
102
RTVSPropertyOp30
 70
     1
102
RTVSPropertyOp31
 70
     1
102
RTVSPropertyOp32
 70
     1
102
RTVSPropertyOp33
 70
     1
102
RTVSPropertyOp34
 70
     1
102
RTVSPropertyOp35
 70
     1
102
RTVSPropertyOp36
 70
     1
102
RTVSPropertyOp37
 70
     1
102
RTVSPropertyOp38
 70
     1
102
RTVSPropertyOp39
 70
     1
102
RTVSPropertyOp40
 70
     1
102
RTVSPropertyOp41
 70
     1
102
RTVSPropertyOp42
 70
     1
102
RTVSPropertyOp43
 70
     1
102
RTVSPropertyOp44
 70
     1
102
RTVSPropertyOp45
 70
     1
102
RTVSPropertyOp46
 70
     1
102
RTVSPropertyOp47
 70
     1
102
RTVSPropertyOp48
 70
     1
102
RTVSPropertyOp49
 70
     1
102
RTVSPropertyOp50
 70
     1
102
RTVSPropertyOp51
 70
     0
102
RTVSPropertyOp52
 70
     0
102
RTVSPropertyOp53
 70
     1
102
RTVSPropertyOp54
 70
     1
102
RTVSPropertyOp55
 70
     1
102
RTVSPropertyOp56
 70
     1
102
RTVSPropertyOp57
 70
     1
102
RTVSPropertyOp58
 70
     1
102
RTVSPropertyOp59
 70
     1
102
RTVSPropertyOp60
 70
     1
102
RTVSPropertyOp61
 70
     1
102
RTVSPropertyOp62
 70
     1
  0
XRECORD
  5
F5E
102
{ACAD_REACTORS
330
F5D
102
}
330
F5D
100
AcDbXrecord
280
     1
102
RTVSPost2010Prop28
280
     0
102
RTVSPost2010PropOp28
 70
     1
102
RTVSPost2010Prop29
280
     1
102
RTVSPost2010PropOp29
 70
     1
102
RTVSPost2010Prop30
280
     1
102
RTVSPost2010PropOp30
 70
     1
102
RTVSPost2010Prop31
280
     0
102
RTVSPost2010PropOp31
 70
     1
102
RTVSPost2010Prop32
280
     0
102
RTVSPost2010PropOp32
 70
     1
102
RTVSPost2010Prop33
280
     0
102
RTVSPost2010PropOp33
 70
     1
102
RTVSPost2010Prop34
280
     0
102
RTVSPost2010PropOp34
 70
     1
102
RTVSPost2010Prop35
280
     0
102
RTVSPost2010PropOp35
 70
     1
102
RTVSPost2010Prop36
280
     0
102
RTVSPost2010PropOp36
 70
     1
102
RTVSPost2010Prop37
 90
       50
102
RTVSPost2010PropOp37
 70
     1
102
RTVSPost2010Prop38
140
0.0
102
RTVSPost2010PropOp38
 70
     1
102
RTVSPost2010Prop39
140
1.0
102
RTVSPost2010PropOp39
 70
     1
102
RTVSPost2010Prop40
 90
        0
102
RTVSPost2010PropOp40
 70
     1
102
RTVSPost2010Prop41ColorIndex
 90
       18
102
RTVSPost2010Prop41ColorRGB
 90
        0
102
RTVSPost2010PropOp41
 70
     1
102
RTVSPost2010Prop42
 90
       50
102
RTVSPost2010PropOp42
 70
     1
102
RTVSPost2010Prop43
 90
        3
102
RTVSPost2010PropOp43
 70
     1
102
RTVSPost2010Prop44ColorIndex
 90
        5
102
RTVSPost2010Prop44ColorRGB
 90
      255
102
RTVSPost2010PropOp44
 70
     1
102
RTVSPost2010Prop45
280
     0
102
RTVSPost2010PropOp45
 70
     1
102
RTVSPost2010Prop46
 90
       50
102
RTVSPost2010PropOp46
 70
     1
102
RTVSPost2010Prop47
 90
       50
102
RTVSPost2010PropOp47
 70
     1
102
RTVSPost2010Prop48
 90
       50
102
RTVSPost2010PropOp48
 70
     1
102
RTVSPost2010Prop49
280
     0
102
RTVSPost2010PropOp49
 70
     1
102
RTVSPost2010Prop50
 90
       50
102
RTVSPost2010PropOp50
 70
     1
102
RTVSPost2010Prop51ColorIndex
 90
      256
102
RTVSPost2010Prop51ColorRGB
 90
-16777216
102
RTVSPost2010PropOp51
 70
     0
102
RTVSPost2010Prop52
140
1.0
102
RTVSPost2010PropOp52
 70
     0
102
RTVSPost2010Prop53
 90
        2
102
RTVSPost2010PropOp53
 70
     1
102
RTVSPost2010Prop54
  1
strokes_ogs.tif
102
RTVSPost2010PropOp54
 70
     1
102
RTVSPost2010Prop55
280
     0
102
RTVSPost2010PropOp55
 70
     1
102
RTVSPost2010Prop56
140
1.0
102
RTVSPost2010PropOp56
 70
     1
102
RTVSPost2010Prop57
140
1.0
102
RTVSPost2010PropOp57
 70
     1
102
RTVSPropertyOp0
 70
     1
102
RTVSPropertyOp1
 70
     1
102
RTVSPropertyOp2
 70
     1
102
RTVSPropertyOp3
 70
     1
102
RTVSPropertyOp4
 70
     1
102
RTVSPropertyOp5
 70
     1
102
RTVSPropertyOp6
 70
     1
102
RTVSPropertyOp7
 70
     1
102
RTVSPropertyOp8
 70
     1
102
RTVSPropertyOp9
 70
     1
102
RTVSPropertyOp10
 70
     1
102
RTVSPropertyOp11
 70
     1
102
RTVSPropertyOp12
 70
     1
102
RTVSPropertyOp13
 70
     1
102
RTVSPropertyOp14
 70
     1
102
RTVSPropertyOp15
 70
     1
102
RTVSPropertyOp16
 70
     1
102
RTVSPropertyOp17
 70
     1
102
RTVSPropertyOp18
 70
     1
102
RTVSPropertyOp19
 70
     1
102
RTVSPropertyOp20
 70
     1
102
RTVSPropertyOp21
 70
     1
102
RTVSPropertyOp22
 70
     1
102
RTVSPropertyOp23
 70
     1
102
RTVSPropertyOp24
 70
     1
102
RTVSPropertyOp25
 70
     1
102
RTVSPropertyOp26
 70
     1
102
RTVSPropertyOp27
 70
     1
102
RTVSPropertyOp28
 70
     1
102
RTVSPropertyOp29
 70
     1
102
RTVSPropertyOp30
 70
     1
102
RTVSPropertyOp31
 70
     1
102
RTVSPropertyOp32
 70
     1
102
RTVSPropertyOp33
 70
     1
102
RTVSPropertyOp34
 70
     1
102
RTVSPropertyOp35
 70
     1
102
RTVSPropertyOp36
 70
     1
102
RTVSPropertyOp37
 70
     1
102
RTVSPropertyOp38
 70
     1
102
RTVSPropertyOp39
 70
     1
102
RTVSPropertyOp40
 70
     1
102
RTVSPropertyOp41
 70
     1
102
RTVSPropertyOp42
 70
     1
102
RTVSPropertyOp43
 70
     1
102
RTVSPropertyOp44
 70
     1
102
RTVSPropertyOp45
 70
     1
102
RTVSPropertyOp46
 70
     1
102
RTVSPropertyOp47
 70
     1
102
RTVSPropertyOp48
 70
     1
102
RTVSPropertyOp49
 70
     1
102
RTVSPropertyOp50
 70
     1
102
RTVSPropertyOp51
 70
     0
102
RTVSPropertyOp52
 70
     0
102
RTVSPropertyOp53
 70
     1
102
RTVSPropertyOp54
 70
     1
102
RTVSPropertyOp55
 70
     1
102
RTVSPropertyOp56
 70
     1
102
RTVSPropertyOp57
 70
     1
102
RTVSPropertyOp58
 70
     1
102
RTVSPropertyOp59
 70
     1
102
RTVSPropertyOp60
 70
     1
102
RTVSPropertyOp61
 70
     1
102
RTVSPropertyOp62
 70
     1
  0
XRECORD
  5
F62
102
{ACAD_REACTORS
330
F61
102
}
330
F61
100
AcDbXrecord
280
     1
102
RTVSPost2010Prop28
280
     0
102
RTVSPost2010PropOp28
 70
     1
102
RTVSPost2010Prop29
280
     1
102
RTVSPost2010PropOp29
 70
     1
102
RTVSPost2010Prop30
280
     1
102
RTVSPost2010PropOp30
 70
     1
102
RTVSPost2010Prop31
280
     0
102
RTVSPost2010PropOp31
 70
     1
102
RTVSPost2010Prop32
280
     0
102
RTVSPost2010PropOp32
 70
     1
102
RTVSPost2010Prop33
280
     0
102
RTVSPost2010PropOp33
 70
     1
102
RTVSPost2010Prop34
280
     0
102
RTVSPost2010PropOp34
 70
     1
102
RTVSPost2010Prop35
280
     0
102
RTVSPost2010PropOp35
 70
     1
102
RTVSPost2010Prop36
280
     0
102
RTVSPost2010PropOp36
 70
     1
102
RTVSPost2010Prop37
 90
       50
102
RTVSPost2010PropOp37
 70
     1
102
RTVSPost2010Prop38
140
0.0
102
RTVSPost2010PropOp38
 70
     1
102
RTVSPost2010Prop39
140
1.0
102
RTVSPost2010PropOp39
 70
     1
102
RTVSPost2010Prop40
 90
        0
102
RTVSPost2010PropOp40
 70
     1
102
RTVSPost2010Prop41ColorIndex
 90
       18
102
RTVSPost2010Prop41ColorRGB
 90
        0
102
RTVSPost2010PropOp41
 70
     1
102
RTVSPost2010Prop42
 90
       50
102
RTVSPost2010PropOp42
 70
     1
102
RTVSPost2010Prop43
 90
        3
102
RTVSPost2010PropOp43
 70
     1
102
RTVSPost2010Prop44ColorIndex
 90
        5
102
RTVSPost2010Prop44ColorRGB
 90
      255
102
RTVSPost2010PropOp44
 70
     1
102
RTVSPost2010Prop45
280
     0
102
RTVSPost2010PropOp45
 70
     1
102
RTVSPost2010Prop46
 90
       50
102
RTVSPost2010PropOp46
 70
     1
102
RTVSPost2010Prop47
 90
       50
102
RTVSPost2010PropOp47
 70
     1
102
RTVSPost2010Prop48
 90
       50
102
RTVSPost2010PropOp48
 70
     1
102
RTVSPost2010Prop49
280
     0
102
RTVSPost2010PropOp49
 70
     1
102
RTVSPost2010Prop50
 90
       50
102
RTVSPost2010PropOp50
 70
     1
102
RTVSPost2010Prop51ColorIndex
 90
      256
102
RTVSPost2010Prop51ColorRGB
 90
-16777216
102
RTVSPost2010PropOp51
 70
     0
102
RTVSPost2010Prop52
140
1.0
102
RTVSPost2010PropOp52
 70
     0
102
RTVSPost2010Prop53
 90
        2
102
RTVSPost2010PropOp53
 70
     1
102
RTVSPost2010Prop54
  1
strokes_ogs.tif
102
RTVSPost2010PropOp54
 70
     1
102
RTVSPost2010Prop55
280
     0
102
RTVSPost2010PropOp55
 70
     1
102
RTVSPost2010Prop56
140
1.0
102
RTVSPost2010PropOp56
 70
     1
102
RTVSPost2010Prop57
140
1.0
102
RTVSPost2010PropOp57
 70
     1
102
RTVSPropertyOp0
 70
     1
102
RTVSPropertyOp1
 70
     1
102
RTVSPropertyOp2
 70
     1
102
RTVSPropertyOp3
 70
     1
102
RTVSPropertyOp4
 70
     1
102
RTVSPropertyOp5
 70
     1
102
RTVSPropertyOp6
 70
     1
102
RTVSPropertyOp7
 70
     1
102
RTVSPropertyOp8
 70
     1
102
RTVSPropertyOp9
 70
     1
102
RTVSPropertyOp10
 70
     1
102
RTVSPropertyOp11
 70
     1
102
RTVSPropertyOp12
 70
     1
102
RTVSPropertyOp13
 70
     1
102
RTVSPropertyOp14
 70
     1
102
RTVSPropertyOp15
 70
     1
102
RTVSPropertyOp16
 70
     1
102
RTVSPropertyOp17
 70
     1
102
RTVSPropertyOp18
 70
     1
102
RTVSPropertyOp19
 70
     1
102
RTVSPropertyOp20
 70
     1
102
RTVSPropertyOp21
 70
     1
102
RTVSPropertyOp22
 70
     1
102
RTVSPropertyOp23
 70
     1
102
RTVSPropertyOp24
 70
     1
102
RTVSPropertyOp25
 70
     1
102
RTVSPropertyOp26
 70
     1
102
RTVSPropertyOp27
 70
     1
102
RTVSPropertyOp28
 70
     1
102
RTVSPropertyOp29
 70
     1
102
RTVSPropertyOp30
 70
     1
102
RTVSPropertyOp31
 70
     1
102
RTVSPropertyOp32
 70
     1
102
RTVSPropertyOp33
 70
     1
102
RTVSPropertyOp34
 70
     1
102
RTVSPropertyOp35
 70
     1
102
RTVSPropertyOp36
 70
     1
102
RTVSPropertyOp37
 70
     1
102
RTVSPropertyOp38
 70
     1
102
RTVSPropertyOp39
 70
     1
102
RTVSPropertyOp40
 70
     1
102
RTVSPropertyOp41
 70
     1
102
RTVSPropertyOp42
 70
     1
102
RTVSPropertyOp43
 70
     1
102
RTVSPropertyOp44
 70
     1
102
RTVSPropertyOp45
 70
     1
102
RTVSPropertyOp46
 70
     1
102
RTVSPropertyOp47
 70
     1
102
RTVSPropertyOp48
 70
     1
102
RTVSPropertyOp49
 70
     1
102
RTVSPropertyOp50
 70
     1
102
RTVSPropertyOp51
 70
     0
102
RTVSPropertyOp52
 70
     0
102
RTVSPropertyOp53
 70
     1
102
RTVSPropertyOp54
 70
     1
102
RTVSPropertyOp55
 70
     1
102
RTVSPropertyOp56
 70
     1
102
RTVSPropertyOp57
 70
     1
102
RTVSPropertyOp58
 70
     1
102
RTVSPropertyOp59
 70
     1
102
RTVSPropertyOp60
 70
     1
102
RTVSPropertyOp61
 70
     1
102
RTVSPropertyOp62
 70
     1
  0
XRECORD
  5
F7C
102
{ACAD_REACTORS
330
F7B
102
}
330
F7B
100
AcDbXrecord
280
     1
102
RTVSPost2010Prop28
280
     0
102
RTVSPost2010PropOp28
 70
     1
102
RTVSPost2010Prop29
280
     1
102
RTVSPost2010PropOp29
 70
     1
102
RTVSPost2010Prop30
280
     1
102
RTVSPost2010PropOp30
 70
     1
102
RTVSPost2010Prop31
280
     0
102
RTVSPost2010PropOp31
 70
     1
102
RTVSPost2010Prop32
280
     0
102
RTVSPost2010PropOp32
 70
     1
102
RTVSPost2010Prop33
280
     0
102
RTVSPost2010PropOp33
 70
     1
102
RTVSPost2010Prop34
280
     0
102
RTVSPost2010PropOp34
 70
     1
102
RTVSPost2010Prop35
280
     0
102
RTVSPost2010PropOp35
 70
     1
102
RTVSPost2010Prop36
280
     0
102
RTVSPost2010PropOp36
 70
     1
102
RTVSPost2010Prop37
 90
       50
102
RTVSPost2010PropOp37
 70
     0
102
RTVSPost2010Prop38
140
0.0
102
RTVSPost2010PropOp38
 70
     0
102
RTVSPost2010Prop39
140
1.0
102
RTVSPost2010PropOp39
 70
     0
102
RTVSPost2010Prop40
 90
        0
102
RTVSPost2010PropOp40
 70
     0
102
RTVSPost2010Prop41ColorIndex
 90
       18
102
RTVSPost2010Prop41ColorRGB
 90
        0
102
RTVSPost2010PropOp41
 70
     0
102
RTVSPost2010Prop42
 90
       50
102
RTVSPost2010PropOp42
 70
     0
102
RTVSPost2010Prop43
 90
        3
102
RTVSPost2010PropOp43
 70
     0
102
RTVSPost2010Prop44ColorIndex
 90
        5
102
RTVSPost2010Prop44ColorRGB
 90
      255
102
RTVSPost2010PropOp44
 70
     0
102
RTVSPost2010Prop45
280
     0
102
RTVSPost2010PropOp45
 70
     1
102
RTVSPost2010Prop46
 90
       50
102
RTVSPost2010PropOp46
 70
     0
102
RTVSPost2010Prop47
 90
       50
102
RTVSPost2010PropOp47
 70
     0
102
RTVSPost2010Prop48
 90
       50
102
RTVSPost2010PropOp48
 70
     0
102
RTVSPost2010Prop49
280
     0
102
RTVSPost2010PropOp49
 70
     1
102
RTVSPost2010Prop50
 90
       50
102
RTVSPost2010PropOp50
 70
     0
102
RTVSPost2010Prop51ColorIndex
 90
      256
102
RTVSPost2010Prop51ColorRGB
 90
-16777216
102
RTVSPost2010PropOp51
 70
     0
102
RTVSPost2010Prop52
140
1.0
102
RTVSPost2010PropOp52
 70
     0
102
RTVSPost2010Prop53
 90
        2
102
RTVSPost2010PropOp53
 70
     0
102
RTVSPost2010Prop54
  1
strokes_ogs.tif
102
RTVSPost2010PropOp54
 70
     0
102
RTVSPost2010Prop55
280
     0
102
RTVSPost2010PropOp55
 70
     1
102
RTVSPost2010Prop56
140
1.0
102
RTVSPost2010PropOp56
 70
     0
102
RTVSPost2010Prop57
140
1.0
102
RTVSPost2010PropOp57
 70
     0
102
RTVSPropertyOp0
 70
     0
102
RTVSPropertyOp1
 70
     0
102
RTVSPropertyOp2
 70
     0
102
RTVSPropertyOp3
 70
     0
102
RTVSPropertyOp4
 70
     0
102
RTVSPropertyOp5
 70
     0
102
RTVSPropertyOp6
 70
     0
102
RTVSPropertyOp7
 70
     0
102
RTVSPropertyOp8
 70
     0
102
RTVSPropertyOp9
 70
     0
102
RTVSPropertyOp10
 70
     0
102
RTVSPropertyOp11
 70
     0
102
RTVSPropertyOp12
 70
     0
102
RTVSPropertyOp13
 70
     0
102
RTVSPropertyOp14
 70
     2
102
RTVSPropertyOp15
 70
     0
102
RTVSPropertyOp16
 70
     0
102
RTVSPropertyOp17
 70
     0
102
RTVSPropertyOp18
 70
     0
102
RTVSPropertyOp19
 70
     0
102
RTVSPropertyOp20
 70
     0
102
RTVSPropertyOp21
 70
     0
102
RTVSPropertyOp22
 70
     0
102
RTVSPropertyOp23
 70
     0
102
RTVSPropertyOp24
 70
     0
102
RTVSPropertyOp25
 70
     0
102
RTVSPropertyOp26
 70
     0
102
RTVSPropertyOp27
 70
     0
102
RTVSPropertyOp28
 70
     1
102
RTVSPropertyOp29
 70
     1
102
RTVSPropertyOp30
 70
     1
102
RTVSPropertyOp31
 70
     1
102
RTVSPropertyOp32
 70
     1
102
RTVSPropertyOp33
 70
     1
102
RTVSPropertyOp34
 70
     1
102
RTVSPropertyOp35
 70
     1
102
RTVSPropertyOp36
 70
     1
102
RTVSPropertyOp37
 70
     0
102
RTVSPropertyOp38
 70
     0
102
RTVSPropertyOp39
 70
     0
102
RTVSPropertyOp40
 70
     0
102
RTVSPropertyOp41
 70
     0
102
RTVSPropertyOp42
 70
     0
102
RTVSPropertyOp43
 70
     0
102
RTVSPropertyOp44
 70
     0
102
RTVSPropertyOp45
 70
     1
102
RTVSPropertyOp46
 70
     0
102
RTVSPropertyOp47
 70
     0
102
RTVSPropertyOp48
 70
     0
102
RTVSPropertyOp49
 70
     1
102
RTVSPropertyOp50
 70
     0
102
RTVSPropertyOp51
 70
     0
102
RTVSPropertyOp52
 70
     0
102
RTVSPropertyOp53
 70
     0
102
RTVSPropertyOp54
 70
     0
102
RTVSPropertyOp55
 70
     1
102
RTVSPropertyOp56
 70
     0
102
RTVSPropertyOp57
 70
     0
102
RTVSPropertyOp58
 70
     0
102
RTVSPropertyOp59
 70
     0
102
RTVSPropertyOp60
 70
     0
102
RTVSPropertyOp61
 70
     0
102
RTVSPropertyOp62
 70
     0
  0
XRECORD
  5
F6A
102
{ACAD_REACTORS
330
F69
102
}
330
F69
100
AcDbXrecord
280
     1
102
RTVSPost2010Prop28
280
     0
102
RTVSPost2010PropOp28
 70
     1
102
RTVSPost2010Prop29
280
     1
102
RTVSPost2010PropOp29
 70
     1
102
RTVSPost2010Prop30
280
     1
102
RTVSPost2010PropOp30
 70
     1
102
RTVSPost2010Prop31
280
     0
102
RTVSPost2010PropOp31
 70
     1
102
RTVSPost2010Prop32
280
     0
102
RTVSPost2010PropOp32
 70
     1
102
RTVSPost2010Prop33
280
     0
102
RTVSPost2010PropOp33
 70
     1
102
RTVSPost2010Prop34
280
     0
102
RTVSPost2010PropOp34
 70
     1
102
RTVSPost2010Prop35
280
     0
102
RTVSPost2010PropOp35
 70
     1
102
RTVSPost2010Prop36
280
     0
102
RTVSPost2010PropOp36
 70
     1
102
RTVSPost2010Prop37
 90
       50
102
RTVSPost2010PropOp37
 70
     1
102
RTVSPost2010Prop38
140
0.0
102
RTVSPost2010PropOp38
 70
     1
102
RTVSPost2010Prop39
140
1.0
102
RTVSPost2010PropOp39
 70
     1
102
RTVSPost2010Prop40
 90
        0
102
RTVSPost2010PropOp40
 70
     1
102
RTVSPost2010Prop41ColorIndex
 90
       18
102
RTVSPost2010Prop41ColorRGB
 90
        0
102
RTVSPost2010PropOp41
 70
     1
102
RTVSPost2010Prop42
 90
       50
102
RTVSPost2010PropOp42
 70
     1
102
RTVSPost2010Prop43
 90
        3
102
RTVSPost2010PropOp43
 70
     1
102
RTVSPost2010Prop44ColorIndex
 90
        5
102
RTVSPost2010Prop44ColorRGB
 90
      255
102
RTVSPost2010PropOp44
 70
     1
102
RTVSPost2010Prop45
280
     0
102
RTVSPost2010PropOp45
 70
     1
102
RTVSPost2010Prop46
 90
       50
102
RTVSPost2010PropOp46
 70
     1
102
RTVSPost2010Prop47
 90
       50
102
RTVSPost2010PropOp47
 70
     1
102
RTVSPost2010Prop48
 90
       50
102
RTVSPost2010PropOp48
 70
     1
102
RTVSPost2010Prop49
280
     0
102
RTVSPost2010PropOp49
 70
     1
102
RTVSPost2010Prop50
 90
       50
102
RTVSPost2010PropOp50
 70
     1
102
RTVSPost2010Prop51ColorIndex
 90
      256
102
RTVSPost2010Prop51ColorRGB
 90
-16777216
102
RTVSPost2010PropOp51
 70
     0
102
RTVSPost2010Prop52
140
1.0
102
RTVSPost2010PropOp52
 70
     0
102
RTVSPost2010Prop53
 90
        2
102
RTVSPost2010PropOp53
 70
     1
102
RTVSPost2010Prop54
  1
strokes_ogs.tif
102
RTVSPost2010PropOp54
 70
     1
102
RTVSPost2010Prop55
280
     0
102
RTVSPost2010PropOp55
 70
     1
102
RTVSPost2010Prop56
140
1.0
102
RTVSPost2010PropOp56
 70
     1
102
RTVSPost2010Prop57
140
1.0
102
RTVSPost2010PropOp57
 70
     1
102
RTVSPropertyOp0
 70
     1
102
RTVSPropertyOp1
 70
     1
102
RTVSPropertyOp2
 70
     1
102
RTVSPropertyOp3
 70
     1
102
RTVSPropertyOp4
 70
     1
102
RTVSPropertyOp5
 70
     1
102
RTVSPropertyOp6
 70
     1
102
RTVSPropertyOp7
 70
     1
102
RTVSPropertyOp8
 70
     1
102
RTVSPropertyOp9
 70
     1
102
RTVSPropertyOp10
 70
     1
102
RTVSPropertyOp11
 70
     1
102
RTVSPropertyOp12
 70
     1
102
RTVSPropertyOp13
 70
     1
102
RTVSPropertyOp14
 70
     1
102
RTVSPropertyOp15
 70
     1
102
RTVSPropertyOp16
 70
     1
102
RTVSPropertyOp17
 70
     1
102
RTVSPropertyOp18
 70
     1
102
RTVSPropertyOp19
 70
     1
102
RTVSPropertyOp20
 70
     1
102
RTVSPropertyOp21
 70
     1
102
RTVSPropertyOp22
 70
     1
102
RTVSPropertyOp23
 70
     1
102
RTVSPropertyOp24
 70
     1
102
RTVSPropertyOp25
 70
     1
102
RTVSPropertyOp26
 70
     1
102
RTVSPropertyOp27
 70
     1
102
RTVSPropertyOp28
 70
     1
102
RTVSPropertyOp29
 70
     1
102
RTVSPropertyOp30
 70
     1
102
RTVSPropertyOp31
 70
     1
102
RTVSPropertyOp32
 70
     1
102
RTVSPropertyOp33
 70
     1
102
RTVSPropertyOp34
 70
     1
102
RTVSPropertyOp35
 70
     1
102
RTVSPropertyOp36
 70
     1
102
RTVSPropertyOp37
 70
     1
102
RTVSPropertyOp38
 70
     1
102
RTVSPropertyOp39
 70
     1
102
RTVSPropertyOp40
 70
     1
102
RTVSPropertyOp41
 70
     1
102
RTVSPropertyOp42
 70
     1
102
RTVSPropertyOp43
 70
     1
102
RTVSPropertyOp44
 70
     1
102
RTVSPropertyOp45
 70
     1
102
RTVSPropertyOp46
 70
     1
102
RTVSPropertyOp47
 70
     1
102
RTVSPropertyOp48
 70
     1
102
RTVSPropertyOp49
 70
     1
102
RTVSPropertyOp50
 70
     1
102
RTVSPropertyOp51
 70
     0
102
RTVSPropertyOp52
 70
     0
102
RTVSPropertyOp53
 70
     1
102
RTVSPropertyOp54
 70
     1
102
RTVSPropertyOp55
 70
     1
102
RTVSPropertyOp56
 70
     1
102
RTVSPropertyOp57
 70
     1
102
RTVSPropertyOp58
 70
     1
102
RTVSPropertyOp59
 70
     1
102
RTVSPropertyOp60
 70
     1
102
RTVSPropertyOp61
 70
     1
102
RTVSPropertyOp62
 70
     1
  0
XRECORD
  5
F4E
102
{ACAD_REACTORS
330
F4D
102
}
330
F4D
100
AcDbXrecord
280
     1
102
RTVSPost2010Prop28
280
     0
102
RTVSPost2010PropOp28
 70
     1
102
RTVSPost2010Prop29
280
     1
102
RTVSPost2010PropOp29
 70
     1
102
RTVSPost2010Prop30
280
     1
102
RTVSPost2010PropOp30
 70
     1
102
RTVSPost2010Prop31
280
     0
102
RTVSPost2010PropOp31
 70
     1
102
RTVSPost2010Prop32
280
     0
102
RTVSPost2010PropOp32
 70
     1
102
RTVSPost2010Prop33
280
     0
102
RTVSPost2010PropOp33
 70
     1
102
RTVSPost2010Prop34
280
     0
102
RTVSPost2010PropOp34
 70
     1
102
RTVSPost2010Prop35
280
     0
102
RTVSPost2010PropOp35
 70
     1
102
RTVSPost2010Prop36
280
     0
102
RTVSPost2010PropOp36
 70
     1
102
RTVSPost2010Prop37
 90
       50
102
RTVSPost2010PropOp37
 70
     1
102
RTVSPost2010Prop38
140
0.0
102
RTVSPost2010PropOp38
 70
     1
102
RTVSPost2010Prop39
140
1.0
102
RTVSPost2010PropOp39
 70
     1
102
RTVSPost2010Prop40
 90
        0
102
RTVSPost2010PropOp40
 70
     1
102
RTVSPost2010Prop41ColorIndex
 90
       18
102
RTVSPost2010Prop41ColorRGB
 90
        0
102
RTVSPost2010PropOp41
 70
     1
102
RTVSPost2010Prop42
 90
       50
102
RTVSPost2010PropOp42
 70
     1
102
RTVSPost2010Prop43
 90
        3
102
RTVSPost2010PropOp43
 70
     1
102
RTVSPost2010Prop44ColorIndex
 90
        5
102
RTVSPost2010Prop44ColorRGB
 90
      255
102
RTVSPost2010PropOp44
 70
     1
102
RTVSPost2010Prop45
280
     0
102
RTVSPost2010PropOp45
 70
     1
102
RTVSPost2010Prop46
 90
       50
102
RTVSPost2010PropOp46
 70
     1
102
RTVSPost2010Prop47
 90
       50
102
RTVSPost2010PropOp47
 70
     1
102
RTVSPost2010Prop48
 90
       50
102
RTVSPost2010PropOp48
 70
     1
102
RTVSPost2010Prop49
280
     0
102
RTVSPost2010PropOp49
 70
     1
102
RTVSPost2010Prop50
 90
       50
102
RTVSPost2010PropOp50
 70
     1
102
RTVSPost2010Prop51ColorIndex
 90
      256
102
RTVSPost2010Prop51ColorRGB
 90
-16777216
102
RTVSPost2010PropOp51
 70
     0
102
RTVSPost2010Prop52
140
1.0
102
RTVSPost2010PropOp52
 70
     0
102
RTVSPost2010Prop53
 90
        2
102
RTVSPost2010PropOp53
 70
     1
102
RTVSPost2010Prop54
  1
strokes_ogs.tif
102
RTVSPost2010PropOp54
 70
     1
102
RTVSPost2010Prop55
280
     0
102
RTVSPost2010PropOp55
 70
     1
102
RTVSPost2010Prop56
140
1.0
102
RTVSPost2010PropOp56
 70
     1
102
RTVSPost2010Prop57
140
1.0
102
RTVSPost2010PropOp57
 70
     1
102
RTVSPropertyOp0
 70
     1
102
RTVSPropertyOp1
 70
     1
102
RTVSPropertyOp2
 70
     1
102
RTVSPropertyOp3
 70
     1
102
RTVSPropertyOp4
 70
     1
102
RTVSPropertyOp5
 70
     1
102
RTVSPropertyOp6
 70
     1
102
RTVSPropertyOp7
 70
     1
102
RTVSPropertyOp8
 70
     1
102
RTVSPropertyOp9
 70
     1
102
RTVSPropertyOp10
 70
     1
102
RTVSPropertyOp11
 70
     1
102
RTVSPropertyOp12
 70
     1
102
RTVSPropertyOp13
 70
     1
102
RTVSPropertyOp14
 70
     1
102
RTVSPropertyOp15
 70
     1
102
RTVSPropertyOp16
 70
     1
102
RTVSPropertyOp17
 70
     1
102
RTVSPropertyOp18
 70
     1
102
RTVSPropertyOp19
 70
     1
102
RTVSPropertyOp20
 70
     1
102
RTVSPropertyOp21
 70
     1
102
RTVSPropertyOp22
 70
     1
102
RTVSPropertyOp23
 70
     1
102
RTVSPropertyOp24
 70
     1
102
RTVSPropertyOp25
 70
     1
102
RTVSPropertyOp26
 70
     1
102
RTVSPropertyOp27
 70
     1
102
RTVSPropertyOp28
 70
     1
102
RTVSPropertyOp29
 70
     1
102
RTVSPropertyOp30
 70
     1
102
RTVSPropertyOp31
 70
     1
102
RTVSPropertyOp32
 70
     1
102
RTVSPropertyOp33
 70
     1
102
RTVSPropertyOp34
 70
     1
102
RTVSPropertyOp35
 70
     1
102
RTVSPropertyOp36
 70
     1
102
RTVSPropertyOp37
 70
     1
102
RTVSPropertyOp38
 70
     1
102
RTVSPropertyOp39
 70
     1
102
RTVSPropertyOp40
 70
     1
102
RTVSPropertyOp41
 70
     1
102
RTVSPropertyOp42
 70
     1
102
RTVSPropertyOp43
 70
     1
102
RTVSPropertyOp44
 70
     1
102
RTVSPropertyOp45
 70
     1
102
RTVSPropertyOp46
 70
     1
102
RTVSPropertyOp47
 70
     1
102
RTVSPropertyOp48
 70
     1
102
RTVSPropertyOp49
 70
     1
102
RTVSPropertyOp50
 70
     1
102
RTVSPropertyOp51
 70
     0
102
RTVSPropertyOp52
 70
     0
102
RTVSPropertyOp53
 70
     1
102
RTVSPropertyOp54
 70
     1
102
RTVSPropertyOp55
 70
     1
102
RTVSPropertyOp56
 70
     1
102
RTVSPropertyOp57
 70
     1
102
RTVSPropertyOp58
 70
     1
102
RTVSPropertyOp59
 70
     1
102
RTVSPropertyOp60
 70
     1
102
RTVSPropertyOp61
 70
     1
102
RTVSPropertyOp62
 70
     1
  0
XRECORD
  5
F50
102
{ACAD_REACTORS
330
F4F
102
}
330
F4F
100
AcDbXrecord
280
     1
102
RTVSPost2010Prop28
280
     0
102
RTVSPost2010PropOp28
 70
     1
102
RTVSPost2010Prop29
280
     1
102
RTVSPost2010PropOp29
 70
     1
102
RTVSPost2010Prop30
280
     1
102
RTVSPost2010PropOp30
 70
     1
102
RTVSPost2010Prop31
280
     0
102
RTVSPost2010PropOp31
 70
     1
102
RTVSPost2010Prop32
280
     0
102
RTVSPost2010PropOp32
 70
     1
102
RTVSPost2010Prop33
280
     0
102
RTVSPost2010PropOp33
 70
     1
102
RTVSPost2010Prop34
280
     0
102
RTVSPost2010PropOp34
 70
     1
102
RTVSPost2010Prop35
280
     0
102
RTVSPost2010PropOp35
 70
     1
102
RTVSPost2010Prop36
280
     0
102
RTVSPost2010PropOp36
 70
     1
102
RTVSPost2010Prop37
 90
       50
102
RTVSPost2010PropOp37
 70
     1
102
RTVSPost2010Prop38
140
0.0
102
RTVSPost2010PropOp38
 70
     1
102
RTVSPost2010Prop39
140
1.0
102
RTVSPost2010PropOp39
 70
     1
102
RTVSPost2010Prop40
 90
        0
102
RTVSPost2010PropOp40
 70
     1
102
RTVSPost2010Prop41ColorIndex
 90
       18
102
RTVSPost2010Prop41ColorRGB
 90
        0
102
RTVSPost2010PropOp41
 70
     1
102
RTVSPost2010Prop42
 90
       50
102
RTVSPost2010PropOp42
 70
     1
102
RTVSPost2010Prop43
 90
        3
102
RTVSPost2010PropOp43
 70
     1
102
RTVSPost2010Prop44ColorIndex
 90
        5
102
RTVSPost2010Prop44ColorRGB
 90
      255
102
RTVSPost2010PropOp44
 70
     1
102
RTVSPost2010Prop45
280
     0
102
RTVSPost2010PropOp45
 70
     1
102
RTVSPost2010Prop46
 90
       50
102
RTVSPost2010PropOp46
 70
     1
102
RTVSPost2010Prop47
 90
       50
102
RTVSPost2010PropOp47
 70
     1
102
RTVSPost2010Prop48
 90
       50
102
RTVSPost2010PropOp48
 70
     1
102
RTVSPost2010Prop49
280
     0
102
RTVSPost2010PropOp49
 70
     1
102
RTVSPost2010Prop50
 90
       50
102
RTVSPost2010PropOp50
 70
     1
102
RTVSPost2010Prop51ColorIndex
 90
      256
102
RTVSPost2010Prop51ColorRGB
 90
-16777216
102
RTVSPost2010PropOp51
 70
     0
102
RTVSPost2010Prop52
140
1.0
102
RTVSPost2010PropOp52
 70
     0
102
RTVSPost2010Prop53
 90
        2
102
RTVSPost2010PropOp53
 70
     1
102
RTVSPost2010Prop54
  1
strokes_ogs.tif
102
RTVSPost2010PropOp54
 70
     1
102
RTVSPost2010Prop55
280
     0
102
RTVSPost2010PropOp55
 70
     1
102
RTVSPost2010Prop56
140
1.0
102
RTVSPost2010PropOp56
 70
     1
102
RTVSPost2010Prop57
140
1.0
102
RTVSPost2010PropOp57
 70
     1
102
RTVSPropertyOp0
 70
     1
102
RTVSPropertyOp1
 70
     1
102
RTVSPropertyOp2
 70
     1
102
RTVSPropertyOp3
 70
     1
102
RTVSPropertyOp4
 70
     1
102
RTVSPropertyOp5
 70
     1
102
RTVSPropertyOp6
 70
     1
102
RTVSPropertyOp7
 70
     1
102
RTVSPropertyOp8
 70
     1
102
RTVSPropertyOp9
 70
     1
102
RTVSPropertyOp10
 70
     1
102
RTVSPropertyOp11
 70
     1
102
RTVSPropertyOp12
 70
     1
102
RTVSPropertyOp13
 70
     1
102
RTVSPropertyOp14
 70
     1
102
RTVSPropertyOp15
 70
     1
102
RTVSPropertyOp16
 70
     1
102
RTVSPropertyOp17
 70
     1
102
RTVSPropertyOp18
 70
     1
102
RTVSPropertyOp19
 70
     1
102
RTVSPropertyOp20
 70
     1
102
RTVSPropertyOp21
 70
     1
102
RTVSPropertyOp22
 70
     1
102
RTVSPropertyOp23
 70
     1
102
RTVSPropertyOp24
 70
     1
102
RTVSPropertyOp25
 70
     1
102
RTVSPropertyOp26
 70
     1
102
RTVSPropertyOp27
 70
     1
102
RTVSPropertyOp28
 70
     1
102
RTVSPropertyOp29
 70
     1
102
RTVSPropertyOp30
 70
     1
102
RTVSPropertyOp31
 70
     1
102
RTVSPropertyOp32
 70
     1
102
RTVSPropertyOp33
 70
     1
102
RTVSPropertyOp34
 70
     1
102
RTVSPropertyOp35
 70
     1
102
RTVSPropertyOp36
 70
     1
102
RTVSPropertyOp37
 70
     1
102
RTVSPropertyOp38
 70
     1
102
RTVSPropertyOp39
 70
     1
102
RTVSPropertyOp40
 70
     1
102
RTVSPropertyOp41
 70
     1
102
RTVSPropertyOp42
 70
     1
102
RTVSPropertyOp43
 70
     1
102
RTVSPropertyOp44
 70
     1
102
RTVSPropertyOp45
 70
     1
102
RTVSPropertyOp46
 70
     1
102
RTVSPropertyOp47
 70
     1
102
RTVSPropertyOp48
 70
     1
102
RTVSPropertyOp49
 70
     1
102
RTVSPropertyOp50
 70
     1
102
RTVSPropertyOp51
 70
     0
102
RTVSPropertyOp52
 70
     0
102
RTVSPropertyOp53
 70
     1
102
RTVSPropertyOp54
 70
     1
102
RTVSPropertyOp55
 70
     1
102
RTVSPropertyOp56
 70
     1
102
RTVSPropertyOp57
 70
     1
102
RTVSPropertyOp58
 70
     1
102
RTVSPropertyOp59
 70
     1
102
RTVSPropertyOp60
 70
     1
102
RTVSPropertyOp61
 70
     1
102
RTVSPropertyOp62
 70
     1
  0
XRECORD
  5
F52
102
{ACAD_REACTORS
330
F51
102
}
330
F51
100
AcDbXrecord
280
     1
102
RTVSPost2010Prop28
280
     0
102
RTVSPost2010PropOp28
 70
     1
102
RTVSPost2010Prop29
280
     1
102
RTVSPost2010PropOp29
 70
     1
102
RTVSPost2010Prop30
280
     1
102
RTVSPost2010PropOp30
 70
     1
102
RTVSPost2010Prop31
280
     0
102
RTVSPost2010PropOp31
 70
     1
102
RTVSPost2010Prop32
280
     0
102
RTVSPost2010PropOp32
 70
     1
102
RTVSPost2010Prop33
280
     0
102
RTVSPost2010PropOp33
 70
     1
102
RTVSPost2010Prop34
280
     0
102
RTVSPost2010PropOp34
 70
     1
102
RTVSPost2010Prop35
280
     0
102
RTVSPost2010PropOp35
 70
     1
102
RTVSPost2010Prop36
280
     0
102
RTVSPost2010PropOp36
 70
     1
102
RTVSPost2010Prop37
 90
       50
102
RTVSPost2010PropOp37
 70
     1
102
RTVSPost2010Prop38
140
0.0
102
RTVSPost2010PropOp38
 70
     1
102
RTVSPost2010Prop39
140
1.0
102
RTVSPost2010PropOp39
 70
     1
102
RTVSPost2010Prop40
 90
        0
102
RTVSPost2010PropOp40
 70
     1
102
RTVSPost2010Prop41ColorIndex
 90
       18
102
RTVSPost2010Prop41ColorRGB
 90
        0
102
RTVSPost2010PropOp41
 70
     1
102
RTVSPost2010Prop42
 90
       50
102
RTVSPost2010PropOp42
 70
     1
102
RTVSPost2010Prop43
 90
        3
102
RTVSPost2010PropOp43
 70
     1
102
RTVSPost2010Prop44ColorIndex
 90
        5
102
RTVSPost2010Prop44ColorRGB
 90
      255
102
RTVSPost2010PropOp44
 70
     1
102
RTVSPost2010Prop45
280
     0
102
RTVSPost2010PropOp45
 70
     1
102
RTVSPost2010Prop46
 90
       50
102
RTVSPost2010PropOp46
 70
     1
102
RTVSPost2010Prop47
 90
       50
102
RTVSPost2010PropOp47
 70
     1
102
RTVSPost2010Prop48
 90
       50
102
RTVSPost2010PropOp48
 70
     1
102
RTVSPost2010Prop49
280
     0
102
RTVSPost2010PropOp49
 70
     1
102
RTVSPost2010Prop50
 90
       50
102
RTVSPost2010PropOp50
 70
     1
102
RTVSPost2010Prop51ColorIndex
 90
      256
102
RTVSPost2010Prop51ColorRGB
 90
-16777216
102
RTVSPost2010PropOp51
 70
     0
102
RTVSPost2010Prop52
140
1.0
102
RTVSPost2010PropOp52
 70
     0
102
RTVSPost2010Prop53
 90
        2
102
RTVSPost2010PropOp53
 70
     1
102
RTVSPost2010Prop54
  1
strokes_ogs.tif
102
RTVSPost2010PropOp54
 70
     1
102
RTVSPost2010Prop55
280
     0
102
RTVSPost2010PropOp55
 70
     1
102
RTVSPost2010Prop56
140
1.0
102
RTVSPost2010PropOp56
 70
     1
102
RTVSPost2010Prop57
140
1.0
102
RTVSPost2010PropOp57
 70
     1
102
RTVSPropertyOp0
 70
     1
102
RTVSPropertyOp1
 70
     1
102
RTVSPropertyOp2
 70
     1
102
RTVSPropertyOp3
 70
     1
102
RTVSPropertyOp4
 70
     1
102
RTVSPropertyOp5
 70
     1
102
RTVSPropertyOp6
 70
     1
102
RTVSPropertyOp7
 70
     1
102
RTVSPropertyOp8
 70
     1
102
RTVSPropertyOp9
 70
     1
102
RTVSPropertyOp10
 70
     1
102
RTVSPropertyOp11
 70
     1
102
RTVSPropertyOp12
 70
     1
102
RTVSPropertyOp13
 70
     1
102
RTVSPropertyOp14
 70
     1
102
RTVSPropertyOp15
 70
     1
102
RTVSPropertyOp16
 70
     1
102
RTVSPropertyOp17
 70
     1
102
RTVSPropertyOp18
 70
     1
102
RTVSPropertyOp19
 70
     1
102
RTVSPropertyOp20
 70
     1
102
RTVSPropertyOp21
 70
     1
102
RTVSPropertyOp22
 70
     1
102
RTVSPropertyOp23
 70
     1
102
RTVSPropertyOp24
 70
     1
102
RTVSPropertyOp25
 70
     1
102
RTVSPropertyOp26
 70
     1
102
RTVSPropertyOp27
 70
     1
102
RTVSPropertyOp28
 70
     1
102
RTVSPropertyOp29
 70
     1
102
RTVSPropertyOp30
 70
     1
102
RTVSPropertyOp31
 70
     1
102
RTVSPropertyOp32
 70
     1
102
RTVSPropertyOp33
 70
     1
102
RTVSPropertyOp34
 70
     1
102
RTVSPropertyOp35
 70
     1
102
RTVSPropertyOp36
 70
     1
102
RTVSPropertyOp37
 70
     1
102
RTVSPropertyOp38
 70
     1
102
RTVSPropertyOp39
 70
     1
102
RTVSPropertyOp40
 70
     1
102
RTVSPropertyOp41
 70
     1
102
RTVSPropertyOp42
 70
     1
102
RTVSPropertyOp43
 70
     1
102
RTVSPropertyOp44
 70
     1
102
RTVSPropertyOp45
 70
     1
102
RTVSPropertyOp46
 70
     1
102
RTVSPropertyOp47
 70
     1
102
RTVSPropertyOp48
 70
     1
102
RTVSPropertyOp49
 70
     1
102
RTVSPropertyOp50
 70
     1
102
RTVSPropertyOp51
 70
     0
102
RTVSPropertyOp52
 70
     0
102
RTVSPropertyOp53
 70
     1
102
RTVSPropertyOp54
 70
     1
102
RTVSPropertyOp55
 70
     1
102
RTVSPropertyOp56
 70
     1
102
RTVSPropertyOp57
 70
     1
102
RTVSPropertyOp58
 70
     1
102
RTVSPropertyOp59
 70
     1
102
RTVSPropertyOp60
 70
     1
102
RTVSPropertyOp61
 70
     1
102
RTVSPropertyOp62
 70
     1
  0
XRECORD
  5
F54
102
{ACAD_REACTORS
330
F53
102
}
330
F53
100
AcDbXrecord
280
     1
102
RTVSPost2010Prop28
280
     0
102
RTVSPost2010PropOp28
 70
     1
102
RTVSPost2010Prop29
280
     1
102
RTVSPost2010PropOp29
 70
     1
102
RTVSPost2010Prop30
280
     1
102
RTVSPost2010PropOp30
 70
     1
102
RTVSPost2010Prop31
280
     0
102
RTVSPost2010PropOp31
 70
     1
102
RTVSPost2010Prop32
280
     0
102
RTVSPost2010PropOp32
 70
     1
102
RTVSPost2010Prop33
280
     0
102
RTVSPost2010PropOp33
 70
     1
102
RTVSPost2010Prop34
280
     0
102
RTVSPost2010PropOp34
 70
     1
102
RTVSPost2010Prop35
280
     0
102
RTVSPost2010PropOp35
 70
     1
102
RTVSPost2010Prop36
280
     0
102
RTVSPost2010PropOp36
 70
     1
102
RTVSPost2010Prop37
 90
       50
102
RTVSPost2010PropOp37
 70
     1
102
RTVSPost2010Prop38
140
0.0
102
RTVSPost2010PropOp38
 70
     1
102
RTVSPost2010Prop39
140
1.0
102
RTVSPost2010PropOp39
 70
     1
102
RTVSPost2010Prop40
 90
        0
102
RTVSPost2010PropOp40
 70
     1
102
RTVSPost2010Prop41ColorIndex
 90
       18
102
RTVSPost2010Prop41ColorRGB
 90
        0
102
RTVSPost2010PropOp41
 70
     1
102
RTVSPost2010Prop42
 90
       50
102
RTVSPost2010PropOp42
 70
     1
102
RTVSPost2010Prop43
 90
        3
102
RTVSPost2010PropOp43
 70
     1
102
RTVSPost2010Prop44ColorIndex
 90
        5
102
RTVSPost2010Prop44ColorRGB
 90
      255
102
RTVSPost2010PropOp44
 70
     1
102
RTVSPost2010Prop45
280
     0
102
RTVSPost2010PropOp45
 70
     1
102
RTVSPost2010Prop46
 90
       50
102
RTVSPost2010PropOp46
 70
     1
102
RTVSPost2010Prop47
 90
       50
102
RTVSPost2010PropOp47
 70
     1
102
RTVSPost2010Prop48
 90
       50
102
RTVSPost2010PropOp48
 70
     1
102
RTVSPost2010Prop49
280
     0
102
RTVSPost2010PropOp49
 70
     1
102
RTVSPost2010Prop50
 90
       50
102
RTVSPost2010PropOp50
 70
     1
102
RTVSPost2010Prop51ColorIndex
 90
      256
102
RTVSPost2010Prop51ColorRGB
 90
-16777216
102
RTVSPost2010PropOp51
 70
     0
102
RTVSPost2010Prop52
140
1.0
102
RTVSPost2010PropOp52
 70
     0
102
RTVSPost2010Prop53
 90
        2
102
RTVSPost2010PropOp53
 70
     1
102
RTVSPost2010Prop54
  1
strokes_ogs.tif
102
RTVSPost2010PropOp54
 70
     1
102
RTVSPost2010Prop55
280
     0
102
RTVSPost2010PropOp55
 70
     1
102
RTVSPost2010Prop56
140
1.0
102
RTVSPost2010PropOp56
 70
     1
102
RTVSPost2010Prop57
140
1.0
102
RTVSPost2010PropOp57
 70
     1
102
RTVSPropertyOp0
 70
     1
102
RTVSPropertyOp1
 70
     1
102
RTVSPropertyOp2
 70
     1
102
RTVSPropertyOp3
 70
     1
102
RTVSPropertyOp4
 70
     1
102
RTVSPropertyOp5
 70
     1
102
RTVSPropertyOp6
 70
     1
102
RTVSPropertyOp7
 70
     1
102
RTVSPropertyOp8
 70
     1
102
RTVSPropertyOp9
 70
     1
102
RTVSPropertyOp10
 70
     1
102
RTVSPropertyOp11
 70
     1
102
RTVSPropertyOp12
 70
     1
102
RTVSPropertyOp13
 70
     1
102
RTVSPropertyOp14
 70
     1
102
RTVSPropertyOp15
 70
     1
102
RTVSPropertyOp16
 70
     1
102
RTVSPropertyOp17
 70
     1
102
RTVSPropertyOp18
 70
     1
102
RTVSPropertyOp19
 70
     1
102
RTVSPropertyOp20
 70
     1
102
RTVSPropertyOp21
 70
     1
102
RTVSPropertyOp22
 70
     1
102
RTVSPropertyOp23
 70
     1
102
RTVSPropertyOp24
 70
     1
102
RTVSPropertyOp25
 70
     1
102
RTVSPropertyOp26
 70
     1
102
RTVSPropertyOp27
 70
     1
102
RTVSPropertyOp28
 70
     1
102
RTVSPropertyOp29
 70
     1
102
RTVSPropertyOp30
 70
     1
102
RTVSPropertyOp31
 70
     1
102
RTVSPropertyOp32
 70
     1
102
RTVSPropertyOp33
 70
     1
102
RTVSPropertyOp34
 70
     1
102
RTVSPropertyOp35
 70
     1
102
RTVSPropertyOp36
 70
     1
102
RTVSPropertyOp37
 70
     1
102
RTVSPropertyOp38
 70
     1
102
RTVSPropertyOp39
 70
     1
102
RTVSPropertyOp40
 70
     1
102
RTVSPropertyOp41
 70
     1
102
RTVSPropertyOp42
 70
     1
102
RTVSPropertyOp43
 70
     1
102
RTVSPropertyOp44
 70
     1
102
RTVSPropertyOp45
 70
     1
102
RTVSPropertyOp46
 70
     1
102
RTVSPropertyOp47
 70
     1
102
RTVSPropertyOp48
 70
     1
102
RTVSPropertyOp49
 70
     1
102
RTVSPropertyOp50
 70
     1
102
RTVSPropertyOp51
 70
     0
102
RTVSPropertyOp52
 70
     0
102
RTVSPropertyOp53
 70
     1
102
RTVSPropertyOp54
 70
     1
102
RTVSPropertyOp55
 70
     1
102
RTVSPropertyOp56
 70
     1
102
RTVSPropertyOp57
 70
     1
102
RTVSPropertyOp58
 70
     1
102
RTVSPropertyOp59
 70
     1
102
RTVSPropertyOp60
 70
     1
102
RTVSPropertyOp61
 70
     1
102
RTVSPropertyOp62
 70
     1
  0
XRECORD
  5
F5C
102
{ACAD_REACTORS
330
F5B
102
}
330
F5B
100
AcDbXrecord
280
     1
102
RTVSPost2010Prop28
280
     0
102
RTVSPost2010PropOp28
 70
     1
102
RTVSPost2010Prop29
280
     1
102
RTVSPost2010PropOp29
 70
     1
102
RTVSPost2010Prop30
280
     1
102
RTVSPost2010PropOp30
 70
     1
102
RTVSPost2010Prop31
280
     0
102
RTVSPost2010PropOp31
 70
     1
102
RTVSPost2010Prop32
280
     0
102
RTVSPost2010PropOp32
 70
     1
102
RTVSPost2010Prop33
280
     0
102
RTVSPost2010PropOp33
 70
     1
102
RTVSPost2010Prop34
280
     0
102
RTVSPost2010PropOp34
 70
     1
102
RTVSPost2010Prop35
280
     0
102
RTVSPost2010PropOp35
 70
     1
102
RTVSPost2010Prop36
280
     0
102
RTVSPost2010PropOp36
 70
     1
102
RTVSPost2010Prop37
 90
       50
102
RTVSPost2010PropOp37
 70
     1
102
RTVSPost2010Prop38
140
0.0
102
RTVSPost2010PropOp38
 70
     1
102
RTVSPost2010Prop39
140
1.0
102
RTVSPost2010PropOp39
 70
     1
102
RTVSPost2010Prop40
 90
        0
102
RTVSPost2010PropOp40
 70
     1
102
RTVSPost2010Prop41ColorIndex
 90
       18
102
RTVSPost2010Prop41ColorRGB
 90
        0
102
RTVSPost2010PropOp41
 70
     1
102
RTVSPost2010Prop42
 90
       50
102
RTVSPost2010PropOp42
 70
     1
102
RTVSPost2010Prop43
 90
        3
102
RTVSPost2010PropOp43
 70
     1
102
RTVSPost2010Prop44ColorIndex
 90
        5
102
RTVSPost2010Prop44ColorRGB
 90
      255
102
RTVSPost2010PropOp44
 70
     1
102
RTVSPost2010Prop45
280
     0
102
RTVSPost2010PropOp45
 70
     1
102
RTVSPost2010Prop46
 90
       50
102
RTVSPost2010PropOp46
 70
     1
102
RTVSPost2010Prop47
 90
       50
102
RTVSPost2010PropOp47
 70
     1
102
RTVSPost2010Prop48
 90
       50
102
RTVSPost2010PropOp48
 70
     1
102
RTVSPost2010Prop49
280
     0
102
RTVSPost2010PropOp49
 70
     1
102
RTVSPost2010Prop50
 90
       50
102
RTVSPost2010PropOp50
 70
     1
102
RTVSPost2010Prop51ColorIndex
 90
      256
102
RTVSPost2010Prop51ColorRGB
 90
-16777216
102
RTVSPost2010PropOp51
 70
     0
102
RTVSPost2010Prop52
140
1.0
102
RTVSPost2010PropOp52
 70
     0
102
RTVSPost2010Prop53
 90
        2
102
RTVSPost2010PropOp53
 70
     1
102
RTVSPost2010Prop54
  1
strokes_ogs.tif
102
RTVSPost2010PropOp54
 70
     1
102
RTVSPost2010Prop55
280
     0
102
RTVSPost2010PropOp55
 70
     1
102
RTVSPost2010Prop56
140
1.0
102
RTVSPost2010PropOp56
 70
     1
102
RTVSPost2010Prop57
140
1.0
102
RTVSPost2010PropOp57
 70
     1
102
RTVSPropertyOp0
 70
     1
102
RTVSPropertyOp1
 70
     1
102
RTVSPropertyOp2
 70
     1
102
RTVSPropertyOp3
 70
     1
102
RTVSPropertyOp4
 70
     1
102
RTVSPropertyOp5
 70
     1
102
RTVSPropertyOp6
 70
     1
102
RTVSPropertyOp7
 70
     1
102
RTVSPropertyOp8
 70
     1
102
RTVSPropertyOp9
 70
     1
102
RTVSPropertyOp10
 70
     1
102
RTVSPropertyOp11
 70
     1
102
RTVSPropertyOp12
 70
     1
102
RTVSPropertyOp13
 70
     1
102
RTVSPropertyOp14
 70
     1
102
RTVSPropertyOp15
 70
     1
102
RTVSPropertyOp16
 70
     1
102
RTVSPropertyOp17
 70
     1
102
RTVSPropertyOp18
 70
     1
102
RTVSPropertyOp19
 70
     1
102
RTVSPropertyOp20
 70
     1
102
RTVSPropertyOp21
 70
     1
102
RTVSPropertyOp22
 70
     1
102
RTVSPropertyOp23
 70
     1
102
RTVSPropertyOp24
 70
     1
102
RTVSPropertyOp25
 70
     1
102
RTVSPropertyOp26
 70
     1
102
RTVSPropertyOp27
 70
     1
102
RTVSPropertyOp28
 70
     1
102
RTVSPropertyOp29
 70
     1
102
RTVSPropertyOp30
 70
     1
102
RTVSPropertyOp31
 70
     1
102
RTVSPropertyOp32
 70
     1
102
RTVSPropertyOp33
 70
     1
102
RTVSPropertyOp34
 70
     1
102
RTVSPropertyOp35
 70
     1
102
RTVSPropertyOp36
 70
     1
102
RTVSPropertyOp37
 70
     1
102
RTVSPropertyOp38
 70
     1
102
RTVSPropertyOp39
 70
     1
102
RTVSPropertyOp40
 70
     1
102
RTVSPropertyOp41
 70
     1
102
RTVSPropertyOp42
 70
     1
102
RTVSPropertyOp43
 70
     1
102
RTVSPropertyOp44
 70
     1
102
RTVSPropertyOp45
 70
     1
102
RTVSPropertyOp46
 70
     1
102
RTVSPropertyOp47
 70
     1
102
RTVSPropertyOp48
 70
     1
102
RTVSPropertyOp49
 70
     1
102
RTVSPropertyOp50
 70
     1
102
RTVSPropertyOp51
 70
     0
102
RTVSPropertyOp52
 70
     0
102
RTVSPropertyOp53
 70
     1
102
RTVSPropertyOp54
 70
     1
102
RTVSPropertyOp55
 70
     1
102
RTVSPropertyOp56
 70
     1
102
RTVSPropertyOp57
 70
     1
102
RTVSPropertyOp58
 70
     1
102
RTVSPropertyOp59
 70
     1
102
RTVSPropertyOp60
 70
     1
102
RTVSPropertyOp61
 70
     1
102
RTVSPropertyOp62
 70
     1
  0
XRECORD
  5
F78
102
{ACAD_REACTORS
330
F77
102
}
330
F77
100
AcDbXrecord
280
     1
102
RTVSPost2010Prop28
280
     0
102
RTVSPost2010PropOp28
 70
     1
102
RTVSPost2010Prop29
280
     1
102
RTVSPost2010PropOp29
 70
     1
102
RTVSPost2010Prop30
280
     1
102
RTVSPost2010PropOp30
 70
     1
102
RTVSPost2010Prop31
280
     0
102
RTVSPost2010PropOp31
 70
     1
102
RTVSPost2010Prop32
280
     0
102
RTVSPost2010PropOp32
 70
     1
102
RTVSPost2010Prop33
280
     0
102
RTVSPost2010PropOp33
 70
     1
102
RTVSPost2010Prop34
280
     0
102
RTVSPost2010PropOp34
 70
     1
102
RTVSPost2010Prop35
280
     0
102
RTVSPost2010PropOp35
 70
     1
102
RTVSPost2010Prop36
280
     0
102
RTVSPost2010PropOp36
 70
     1
102
RTVSPost2010Prop37
 90
       50
102
RTVSPost2010PropOp37
 70
     0
102
RTVSPost2010Prop38
140
0.0
102
RTVSPost2010PropOp38
 70
     0
102
RTVSPost2010Prop39
140
1.0
102
RTVSPost2010PropOp39
 70
     0
102
RTVSPost2010Prop40
 90
        0
102
RTVSPost2010PropOp40
 70
     0
102
RTVSPost2010Prop41ColorIndex
 90
       18
102
RTVSPost2010Prop41ColorRGB
 90
        0
102
RTVSPost2010PropOp41
 70
     0
102
RTVSPost2010Prop42
 90
       50
102
RTVSPost2010PropOp42
 70
     0
102
RTVSPost2010Prop43
 90
        3
102
RTVSPost2010PropOp43
 70
     0
102
RTVSPost2010Prop44ColorIndex
 90
        5
102
RTVSPost2010Prop44ColorRGB
 90
      255
102
RTVSPost2010PropOp44
 70
     0
102
RTVSPost2010Prop45
280
     0
102
RTVSPost2010PropOp45
 70
     1
102
RTVSPost2010Prop46
 90
       50
102
RTVSPost2010PropOp46
 70
     0
102
RTVSPost2010Prop47
 90
       50
102
RTVSPost2010PropOp47
 70
     0
102
RTVSPost2010Prop48
 90
       50
102
RTVSPost2010PropOp48
 70
     0
102
RTVSPost2010Prop49
280
     0
102
RTVSPost2010PropOp49
 70
     1
102
RTVSPost2010Prop50
 90
       50
102
RTVSPost2010PropOp50
 70
     0
102
RTVSPost2010Prop51ColorIndex
 90
      256
102
RTVSPost2010Prop51ColorRGB
 90
-16777216
102
RTVSPost2010PropOp51
 70
     0
102
RTVSPost2010Prop52
140
1.0
102
RTVSPost2010PropOp52
 70
     0
102
RTVSPost2010Prop53
 90
        2
102
RTVSPost2010PropOp53
 70
     0
102
RTVSPost2010Prop54
  1
strokes_ogs.tif
102
RTVSPost2010PropOp54
 70
     0
102
RTVSPost2010Prop55
280
     0
102
RTVSPost2010PropOp55
 70
     1
102
RTVSPost2010Prop56
140
1.0
102
RTVSPost2010PropOp56
 70
     0
102
RTVSPost2010Prop57
140
1.0
102
RTVSPost2010PropOp57
 70
     0
102
RTVSPropertyOp0
 70
     0
102
RTVSPropertyOp1
 70
     0
102
RTVSPropertyOp2
 70
     0
102
RTVSPropertyOp3
 70
     0
102
RTVSPropertyOp4
 70
     0
102
RTVSPropertyOp5
 70
     0
102
RTVSPropertyOp6
 70
     0
102
RTVSPropertyOp7
 70
     0
102
RTVSPropertyOp8
 70
     0
102
RTVSPropertyOp9
 70
     0
102
RTVSPropertyOp10
 70
     0
102
RTVSPropertyOp11
 70
     0
102
RTVSPropertyOp12
 70
     0
102
RTVSPropertyOp13
 70
     0
102
RTVSPropertyOp14
 70
     2
102
RTVSPropertyOp15
 70
     0
102
RTVSPropertyOp16
 70
     0
102
RTVSPropertyOp17
 70
     0
102
RTVSPropertyOp18
 70
     0
102
RTVSPropertyOp19
 70
     0
102
RTVSPropertyOp20
 70
     0
102
RTVSPropertyOp21
 70
     0
102
RTVSPropertyOp22
 70
     0
102
RTVSPropertyOp23
 70
     0
102
RTVSPropertyOp24
 70
     0
102
RTVSPropertyOp25
 70
     0
102
RTVSPropertyOp26
 70
     0
102
RTVSPropertyOp27
 70
     0
102
RTVSPropertyOp28
 70
     1
102
RTVSPropertyOp29
 70
     1
102
RTVSPropertyOp30
 70
     1
102
RTVSPropertyOp31
 70
     1
102
RTVSPropertyOp32
 70
     1
102
RTVSPropertyOp33
 70
     1
102
RTVSPropertyOp34
 70
     1
102
RTVSPropertyOp35
 70
     1
102
RTVSPropertyOp36
 70
     1
102
RTVSPropertyOp37
 70
     0
102
RTVSPropertyOp38
 70
     0
102
RTVSPropertyOp39
 70
     0
102
RTVSPropertyOp40
 70
     0
102
RTVSPropertyOp41
 70
     0
102
RTVSPropertyOp42
 70
     0
102
RTVSPropertyOp43
 70
     0
102
RTVSPropertyOp44
 70
     0
102
RTVSPropertyOp45
 70
     1
102
RTVSPropertyOp46
 70
     0
102
RTVSPropertyOp47
 70
     0
102
RTVSPropertyOp48
 70
     0
102
RTVSPropertyOp49
 70
     1
102
RTVSPropertyOp50
 70
     0
102
RTVSPropertyOp51
 70
     0
102
RTVSPropertyOp52
 70
     0
102
RTVSPropertyOp53
 70
     0
102
RTVSPropertyOp54
 70
     0
102
RTVSPropertyOp55
 70
     1
102
RTVSPropertyOp56
 70
     0
102
RTVSPropertyOp57
 70
     0
102
RTVSPropertyOp58
 70
     0
102
RTVSPropertyOp59
 70
     0
102
RTVSPropertyOp60
 70
     0
102
RTVSPropertyOp61
 70
     0
102
RTVSPropertyOp62
 70
     0
  0
XRECORD
  5
F68
102
{ACAD_REACTORS
330
F67
102
}
330
F67
100
AcDbXrecord
280
     1
102
RTVSPost2010Prop28
280
     0
102
RTVSPost2010PropOp28
 70
     1
102
RTVSPost2010Prop29
280
     1
102
RTVSPost2010PropOp29
 70
     1
102
RTVSPost2010Prop30
280
     1
102
RTVSPost2010PropOp30
 70
     1
102
RTVSPost2010Prop31
280
     0
102
RTVSPost2010PropOp31
 70
     1
102
RTVSPost2010Prop32
280
     0
102
RTVSPost2010PropOp32
 70
     1
102
RTVSPost2010Prop33
280
     0
102
RTVSPost2010PropOp33
 70
     1
102
RTVSPost2010Prop34
280
     0
102
RTVSPost2010PropOp34
 70
     1
102
RTVSPost2010Prop35
280
     0
102
RTVSPost2010PropOp35
 70
     1
102
RTVSPost2010Prop36
280
     0
102
RTVSPost2010PropOp36
 70
     1
102
RTVSPost2010Prop37
 90
       50
102
RTVSPost2010PropOp37
 70
     1
102
RTVSPost2010Prop38
140
0.0
102
RTVSPost2010PropOp38
 70
     1
102
RTVSPost2010Prop39
140
1.0
102
RTVSPost2010PropOp39
 70
     1
102
RTVSPost2010Prop40
 90
        0
102
RTVSPost2010PropOp40
 70
     1
102
RTVSPost2010Prop41ColorIndex
 90
       18
102
RTVSPost2010Prop41ColorRGB
 90
        0
102
RTVSPost2010PropOp41
 70
     1
102
RTVSPost2010Prop42
 90
       50
102
RTVSPost2010PropOp42
 70
     1
102
RTVSPost2010Prop43
 90
        3
102
RTVSPost2010PropOp43
 70
     1
102
RTVSPost2010Prop44ColorIndex
 90
        5
102
RTVSPost2010Prop44ColorRGB
 90
      255
102
RTVSPost2010PropOp44
 70
     1
102
RTVSPost2010Prop45
280
     0
102
RTVSPost2010PropOp45
 70
     1
102
RTVSPost2010Prop46
 90
       50
102
RTVSPost2010PropOp46
 70
     1
102
RTVSPost2010Prop47
 90
       50
102
RTVSPost2010PropOp47
 70
     1
102
RTVSPost2010Prop48
 90
       50
102
RTVSPost2010PropOp48
 70
     1
102
RTVSPost2010Prop49
280
     0
102
RTVSPost2010PropOp49
 70
     1
102
RTVSPost2010Prop50
 90
       50
102
RTVSPost2010PropOp50
 70
     1
102
RTVSPost2010Prop51ColorIndex
 90
      256
102
RTVSPost2010Prop51ColorRGB
 90
-16777216
102
RTVSPost2010PropOp51
 70
     0
102
RTVSPost2010Prop52
140
1.0
102
RTVSPost2010PropOp52
 70
     0
102
RTVSPost2010Prop53
 90
        2
102
RTVSPost2010PropOp53
 70
     1
102
RTVSPost2010Prop54
  1
strokes_ogs.tif
102
RTVSPost2010PropOp54
 70
     1
102
RTVSPost2010Prop55
280
     0
102
RTVSPost2010PropOp55
 70
     1
102
RTVSPost2010Prop56
140
1.0
102
RTVSPost2010PropOp56
 70
     1
102
RTVSPost2010Prop57
140
1.0
102
RTVSPost2010PropOp57
 70
     1
102
RTVSPropertyOp0
 70
     1
102
RTVSPropertyOp1
 70
     1
102
RTVSPropertyOp2
 70
     1
102
RTVSPropertyOp3
 70
     1
102
RTVSPropertyOp4
 70
     1
102
RTVSPropertyOp5
 70
     1
102
RTVSPropertyOp6
 70
     1
102
RTVSPropertyOp7
 70
     1
102
RTVSPropertyOp8
 70
     1
102
RTVSPropertyOp9
 70
     1
102
RTVSPropertyOp10
 70
     1
102
RTVSPropertyOp11
 70
     1
102
RTVSPropertyOp12
 70
     1
102
RTVSPropertyOp13
 70
     1
102
RTVSPropertyOp14
 70
     1
102
RTVSPropertyOp15
 70
     1
102
RTVSPropertyOp16
 70
     1
102
RTVSPropertyOp17
 70
     1
102
RTVSPropertyOp18
 70
     1
102
RTVSPropertyOp19
 70
     1
102
RTVSPropertyOp20
 70
     1
102
RTVSPropertyOp21
 70
     1
102
RTVSPropertyOp22
 70
     1
102
RTVSPropertyOp23
 70
     1
102
RTVSPropertyOp24
 70
     1
102
RTVSPropertyOp25
 70
     1
102
RTVSPropertyOp26
 70
     1
102
RTVSPropertyOp27
 70
     1
102
RTVSPropertyOp28
 70
     1
102
RTVSPropertyOp29
 70
     1
102
RTVSPropertyOp30
 70
     1
102
RTVSPropertyOp31
 70
     1
102
RTVSPropertyOp32
 70
     1
102
RTVSPropertyOp33
 70
     1
102
RTVSPropertyOp34
 70
     1
102
RTVSPropertyOp35
 70
     1
102
RTVSPropertyOp36
 70
     1
102
RTVSPropertyOp37
 70
     1
102
RTVSPropertyOp38
 70
     1
102
RTVSPropertyOp39
 70
     1
102
RTVSPropertyOp40
 70
     1
102
RTVSPropertyOp41
 70
     1
102
RTVSPropertyOp42
 70
     1
102
RTVSPropertyOp43
 70
     1
102
RTVSPropertyOp44
 70
     1
102
RTVSPropertyOp45
 70
     1
102
RTVSPropertyOp46
 70
     1
102
RTVSPropertyOp47
 70
     1
102
RTVSPropertyOp48
 70
     1
102
RTVSPropertyOp49
 70
     1
102
RTVSPropertyOp50
 70
     1
102
RTVSPropertyOp51
 70
     0
102
RTVSPropertyOp52
 70
     0
102
RTVSPropertyOp53
 70
     1
102
RTVSPropertyOp54
 70
     1
102
RTVSPropertyOp55
 70
     1
102
RTVSPropertyOp56
 70
     1
102
RTVSPropertyOp57
 70
     1
102
RTVSPropertyOp58
 70
     1
102
RTVSPropertyOp59
 70
     1
102
RTVSPropertyOp60
 70
     1
102
RTVSPropertyOp61
 70
     1
102
RTVSPropertyOp62
 70
     1
  0
XRECORD
  5
F7A
102
{ACAD_REACTORS
330
F79
102
}
330
F79
100
AcDbXrecord
280
     1
102
RTVSPost2010Prop28
280
     0
102
RTVSPost2010PropOp28
 70
     1
102
RTVSPost2010Prop29
280
     1
102
RTVSPost2010PropOp29
 70
     1
102
RTVSPost2010Prop30
280
     1
102
RTVSPost2010PropOp30
 70
     1
102
RTVSPost2010Prop31
280
     0
102
RTVSPost2010PropOp31
 70
     1
102
RTVSPost2010Prop32
280
     0
102
RTVSPost2010PropOp32
 70
     1
102
RTVSPost2010Prop33
280
     0
102
RTVSPost2010PropOp33
 70
     1
102
RTVSPost2010Prop34
280
     0
102
RTVSPost2010PropOp34
 70
     1
102
RTVSPost2010Prop35
280
     0
102
RTVSPost2010PropOp35
 70
     1
102
RTVSPost2010Prop36
280
     0
102
RTVSPost2010PropOp36
 70
     1
102
RTVSPost2010Prop37
 90
       50
102
RTVSPost2010PropOp37
 70
     0
102
RTVSPost2010Prop38
140
0.0
102
RTVSPost2010PropOp38
 70
     0
102
RTVSPost2010Prop39
140
1.0
102
RTVSPost2010PropOp39
 70
     0
102
RTVSPost2010Prop40
 90
        0
102
RTVSPost2010PropOp40
 70
     0
102
RTVSPost2010Prop41ColorIndex
 90
       18
102
RTVSPost2010Prop41ColorRGB
 90
        0
102
RTVSPost2010PropOp41
 70
     0
102
RTVSPost2010Prop42
 90
       50
102
RTVSPost2010PropOp42
 70
     0
102
RTVSPost2010Prop43
 90
        3
102
RTVSPost2010PropOp43
 70
     0
102
RTVSPost2010Prop44ColorIndex
 90
        5
102
RTVSPost2010Prop44ColorRGB
 90
      255
102
RTVSPost2010PropOp44
 70
     0
102
RTVSPost2010Prop45
280
     0
102
RTVSPost2010PropOp45
 70
     1
102
RTVSPost2010Prop46
 90
       50
102
RTVSPost2010PropOp46
 70
     0
102
RTVSPost2010Prop47
 90
       50
102
RTVSPost2010PropOp47
 70
     0
102
RTVSPost2010Prop48
 90
       50
102
RTVSPost2010PropOp48
 70
     0
102
RTVSPost2010Prop49
280
     0
102
RTVSPost2010PropOp49
 70
     1
102
RTVSPost2010Prop50
 90
       50
102
RTVSPost2010PropOp50
 70
     0
102
RTVSPost2010Prop51ColorIndex
 90
      256
102
RTVSPost2010Prop51ColorRGB
 90
-16777216
102
RTVSPost2010PropOp51
 70
     0
102
RTVSPost2010Prop52
140
1.0
102
RTVSPost2010PropOp52
 70
     0
102
RTVSPost2010Prop53
 90
        2
102
RTVSPost2010PropOp53
 70
     0
102
RTVSPost2010Prop54
  1
strokes_ogs.tif
102
RTVSPost2010PropOp54
 70
     0
102
RTVSPost2010Prop55
280
     0
102
RTVSPost2010PropOp55
 70
     1
102
RTVSPost2010Prop56
140
1.0
102
RTVSPost2010PropOp56
 70
     0
102
RTVSPost2010Prop57
140
1.0
102
RTVSPost2010PropOp57
 70
     0
102
RTVSPropertyOp0
 70
     0
102
RTVSPropertyOp1
 70
     0
102
RTVSPropertyOp2
 70
     0
102
RTVSPropertyOp3
 70
     0
102
RTVSPropertyOp4
 70
     0
102
RTVSPropertyOp5
 70
     0
102
RTVSPropertyOp6
 70
     0
102
RTVSPropertyOp7
 70
     0
102
RTVSPropertyOp8
 70
     0
102
RTVSPropertyOp9
 70
     0
102
RTVSPropertyOp10
 70
     0
102
RTVSPropertyOp11
 70
     0
102
RTVSPropertyOp12
 70
     0
102
RTVSPropertyOp13
 70
     0
102
RTVSPropertyOp14
 70
     2
102
RTVSPropertyOp15
 70
     0
102
RTVSPropertyOp16
 70
     0
102
RTVSPropertyOp17
 70
     0
102
RTVSPropertyOp18
 70
     0
102
RTVSPropertyOp19
 70
     0
102
RTVSPropertyOp20
 70
     0
102
RTVSPropertyOp21
 70
     0
102
RTVSPropertyOp22
 70
     0
102
RTVSPropertyOp23
 70
     0
102
RTVSPropertyOp24
 70
     0
102
RTVSPropertyOp25
 70
     0
102
RTVSPropertyOp26
 70
     0
102
RTVSPropertyOp27
 70
     0
102
RTVSPropertyOp28
 70
     1
102
RTVSPropertyOp29
 70
     1
102
RTVSPropertyOp30
 70
     1
102
RTVSPropertyOp31
 70
     1
102
RTVSPropertyOp32
 70
     1
102
RTVSPropertyOp33
 70
     1
102
RTVSPropertyOp34
 70
     1
102
RTVSPropertyOp35
 70
     1
102
RTVSPropertyOp36
 70
     1
102
RTVSPropertyOp37
 70
     0
102
RTVSPropertyOp38
 70
     0
102
RTVSPropertyOp39
 70
     0
102
RTVSPropertyOp40
 70
     0
102
RTVSPropertyOp41
 70
     0
102
RTVSPropertyOp42
 70
     0
102
RTVSPropertyOp43
 70
     0
102
RTVSPropertyOp44
 70
     0
102
RTVSPropertyOp45
 70
     1
102
RTVSPropertyOp46
 70
     0
102
RTVSPropertyOp47
 70
     0
102
RTVSPropertyOp48
 70
     0
102
RTVSPropertyOp49
 70
     1
102
RTVSPropertyOp50
 70
     0
102
RTVSPropertyOp51
 70
     0
102
RTVSPropertyOp52
 70
     0
102
RTVSPropertyOp53
 70
     0
102
RTVSPropertyOp54
 70
     0
102
RTVSPropertyOp55
 70
     1
102
RTVSPropertyOp56
 70
     0
102
RTVSPropertyOp57
 70
     0
102
RTVSPropertyOp58
 70
     0
102
RTVSPropertyOp59
 70
     0
102
RTVSPropertyOp60
 70
     0
102
RTVSPropertyOp61
 70
     0
102
RTVSPropertyOp62
 70
     0
  0
XRECORD
  5
F60
102
{ACAD_REACTORS
330
F5F
102
}
330
F5F
100
AcDbXrecord
280
     1
102
RTVSPost2010Prop28
280
     0
102
RTVSPost2010PropOp28
 70
     1
102
RTVSPost2010Prop29
280
     1
102
RTVSPost2010PropOp29
 70
     1
102
RTVSPost2010Prop30
280
     1
102
RTVSPost2010PropOp30
 70
     1
102
RTVSPost2010Prop31
280
     0
102
RTVSPost2010PropOp31
 70
     1
102
RTVSPost2010Prop32
280
     0
102
RTVSPost2010PropOp32
 70
     1
102
RTVSPost2010Prop33
280
     0
102
RTVSPost2010PropOp33
 70
     1
102
RTVSPost2010Prop34
280
     0
102
RTVSPost2010PropOp34
 70
     1
102
RTVSPost2010Prop35
280
     0
102
RTVSPost2010PropOp35
 70
     1
102
RTVSPost2010Prop36
280
     0
102
RTVSPost2010PropOp36
 70
     1
102
RTVSPost2010Prop37
 90
       50
102
RTVSPost2010PropOp37
 70
     1
102
RTVSPost2010Prop38
140
0.0
102
RTVSPost2010PropOp38
 70
     1
102
RTVSPost2010Prop39
140
1.0
102
RTVSPost2010PropOp39
 70
     1
102
RTVSPost2010Prop40
 90
        0
102
RTVSPost2010PropOp40
 70
     1
102
RTVSPost2010Prop41ColorIndex
 90
       18
102
RTVSPost2010Prop41ColorRGB
 90
        0
102
RTVSPost2010PropOp41
 70
     1
102
RTVSPost2010Prop42
 90
       50
102
RTVSPost2010PropOp42
 70
     1
102
RTVSPost2010Prop43
 90
        3
102
RTVSPost2010PropOp43
 70
     1
102
RTVSPost2010Prop44ColorIndex
 90
        5
102
RTVSPost2010Prop44ColorRGB
 90
      255
102
RTVSPost2010PropOp44
 70
     1
102
RTVSPost2010Prop45
280
     0
102
RTVSPost2010PropOp45
 70
     1
102
RTVSPost2010Prop46
 90
       50
102
RTVSPost2010PropOp46
 70
     1
102
RTVSPost2010Prop47
 90
       50
102
RTVSPost2010PropOp47
 70
     1
102
RTVSPost2010Prop48
 90
       50
102
RTVSPost2010PropOp48
 70
     1
102
RTVSPost2010Prop49
280
     0
102
RTVSPost2010PropOp49
 70
     1
102
RTVSPost2010Prop50
 90
       50
102
RTVSPost2010PropOp50
 70
     1
102
RTVSPost2010Prop51ColorIndex
 90
      256
102
RTVSPost2010Prop51ColorRGB
 90
-16777216
102
RTVSPost2010PropOp51
 70
     0
102
RTVSPost2010Prop52
140
1.0
102
RTVSPost2010PropOp52
 70
     0
102
RTVSPost2010Prop53
 90
        2
102
RTVSPost2010PropOp53
 70
     1
102
RTVSPost2010Prop54
  1
strokes_ogs.tif
102
RTVSPost2010PropOp54
 70
     1
102
RTVSPost2010Prop55
280
     0
102
RTVSPost2010PropOp55
 70
     1
102
RTVSPost2010Prop56
140
1.0
102
RTVSPost2010PropOp56
 70
     1
102
RTVSPost2010Prop57
140
1.0
102
RTVSPost2010PropOp57
 70
     1
102
RTVSPropertyOp0
 70
     1
102
RTVSPropertyOp1
 70
     1
102
RTVSPropertyOp2
 70
     1
102
RTVSPropertyOp3
 70
     1
102
RTVSPropertyOp4
 70
     1
102
RTVSPropertyOp5
 70
     1
102
RTVSPropertyOp6
 70
     1
102
RTVSPropertyOp7
 70
     1
102
RTVSPropertyOp8
 70
     1
102
RTVSPropertyOp9
 70
     1
102
RTVSPropertyOp10
 70
     1
102
RTVSPropertyOp11
 70
     1
102
RTVSPropertyOp12
 70
     1
102
RTVSPropertyOp13
 70
     1
102
RTVSPropertyOp14
 70
     1
102
RTVSPropertyOp15
 70
     1
102
RTVSPropertyOp16
 70
     1
102
RTVSPropertyOp17
 70
     1
102
RTVSPropertyOp18
 70
     1
102
RTVSPropertyOp19
 70
     1
102
RTVSPropertyOp20
 70
     1
102
RTVSPropertyOp21
 70
     1
102
RTVSPropertyOp22
 70
     1
102
RTVSPropertyOp23
 70
     1
102
RTVSPropertyOp24
 70
     1
102
RTVSPropertyOp25
 70
     1
102
RTVSPropertyOp26
 70
     1
102
RTVSPropertyOp27
 70
     1
102
RTVSPropertyOp28
 70
     1
102
RTVSPropertyOp29
 70
     1
102
RTVSPropertyOp30
 70
     1
102
RTVSPropertyOp31
 70
     1
102
RTVSPropertyOp32
 70
     1
102
RTVSPropertyOp33
 70
     1
102
RTVSPropertyOp34
 70
     1
102
RTVSPropertyOp35
 70
     1
102
RTVSPropertyOp36
 70
     1
102
RTVSPropertyOp37
 70
     1
102
RTVSPropertyOp38
 70
     1
102
RTVSPropertyOp39
 70
     1
102
RTVSPropertyOp40
 70
     1
102
RTVSPropertyOp41
 70
     1
102
RTVSPropertyOp42
 70
     1
102
RTVSPropertyOp43
 70
     1
102
RTVSPropertyOp44
 70
     1
102
RTVSPropertyOp45
 70
     1
102
RTVSPropertyOp46
 70
     1
102
RTVSPropertyOp47
 70
     1
102
RTVSPropertyOp48
 70
     1
102
RTVSPropertyOp49
 70
     1
102
RTVSPropertyOp50
 70
     1
102
RTVSPropertyOp51
 70
     0
102
RTVSPropertyOp52
 70
     0
102
RTVSPropertyOp53
 70
     1
102
RTVSPropertyOp54
 70
     1
102
RTVSPropertyOp55
 70
     1
102
RTVSPropertyOp56
 70
     1
102
RTVSPropertyOp57
 70
     1
102
RTVSPropertyOp58
 70
     1
102
RTVSPropertyOp59
 70
     1
102
RTVSPropertyOp60
 70
     1
102
RTVSPropertyOp61
 70
     1
102
RTVSPropertyOp62
 70
     1
  0
XRECORD
  5
F76
102
{ACAD_REACTORS
330
F75
102
}
330
F75
100
AcDbXrecord
280
     1
102
RTVSPost2010Prop28
280
     0
102
RTVSPost2010PropOp28
 70
     1
102
RTVSPost2010Prop29
280
     1
102
RTVSPost2010PropOp29
 70
     1
102
RTVSPost2010Prop30
280
     1
102
RTVSPost2010PropOp30
 70
     1
102
RTVSPost2010Prop31
280
     0
102
RTVSPost2010PropOp31
 70
     1
102
RTVSPost2010Prop32
280
     0
102
RTVSPost2010PropOp32
 70
     1
102
RTVSPost2010Prop33
280
     0
102
RTVSPost2010PropOp33
 70
     1
102
RTVSPost2010Prop34
280
     0
102
RTVSPost2010PropOp34
 70
     1
102
RTVSPost2010Prop35
280
     0
102
RTVSPost2010PropOp35
 70
     1
102
RTVSPost2010Prop36
280
     0
102
RTVSPost2010PropOp36
 70
     1
102
RTVSPost2010Prop37
 90
       50
102
RTVSPost2010PropOp37
 70
     1
102
RTVSPost2010Prop38
140
0.0
102
RTVSPost2010PropOp38
 70
     1
102
RTVSPost2010Prop39
140
1.0
102
RTVSPost2010PropOp39
 70
     1
102
RTVSPost2010Prop40
 90
        0
102
RTVSPost2010PropOp40
 70
     1
102
RTVSPost2010Prop41ColorIndex
 90
       18
102
RTVSPost2010Prop41ColorRGB
 90
        0
102
RTVSPost2010PropOp41
 70
     1
102
RTVSPost2010Prop42
 90
       50
102
RTVSPost2010PropOp42
 70
     1
102
RTVSPost2010Prop43
 90
        3
102
RTVSPost2010PropOp43
 70
     1
102
RTVSPost2010Prop44ColorIndex
 90
        5
102
RTVSPost2010Prop44ColorRGB
 90
      255
102
RTVSPost2010PropOp44
 70
     1
102
RTVSPost2010Prop45
280
     0
102
RTVSPost2010PropOp45
 70
     1
102
RTVSPost2010Prop46
 90
       50
102
RTVSPost2010PropOp46
 70
     1
102
RTVSPost2010Prop47
 90
       50
102
RTVSPost2010PropOp47
 70
     1
102
RTVSPost2010Prop48
 90
       50
102
RTVSPost2010PropOp48
 70
     1
102
RTVSPost2010Prop49
280
     0
102
RTVSPost2010PropOp49
 70
     1
102
RTVSPost2010Prop50
 90
       50
102
RTVSPost2010PropOp50
 70
     1
102
RTVSPost2010Prop51ColorIndex
 90
      256
102
RTVSPost2010Prop51ColorRGB
 90
-16777216
102
RTVSPost2010PropOp51
 70
     0
102
RTVSPost2010Prop52
140
1.0
102
RTVSPost2010PropOp52
 70
     0
102
RTVSPost2010Prop53
 90
        2
102
RTVSPost2010PropOp53
 70
     1
102
RTVSPost2010Prop54
  1
strokes_ogs.tif
102
RTVSPost2010PropOp54
 70
     1
102
RTVSPost2010Prop55
280
     0
102
RTVSPost2010PropOp55
 70
     1
102
RTVSPost2010Prop56
140
1.0
102
RTVSPost2010PropOp56
 70
     1
102
RTVSPost2010Prop57
140
1.0
102
RTVSPost2010PropOp57
 70
     1
102
RTVSPropertyOp0
 70
     1
102
RTVSPropertyOp1
 70
     1
102
RTVSPropertyOp2
 70
     1
102
RTVSPropertyOp3
 70
     1
102
RTVSPropertyOp4
 70
     1
102
RTVSPropertyOp5
 70
     1
102
RTVSPropertyOp6
 70
     1
102
RTVSPropertyOp7
 70
     1
102
RTVSPropertyOp8
 70
     1
102
RTVSPropertyOp9
 70
     1
102
RTVSPropertyOp10
 70
     1
102
RTVSPropertyOp11
 70
     1
102
RTVSPropertyOp12
 70
     1
102
RTVSPropertyOp13
 70
     1
102
RTVSPropertyOp14
 70
     1
102
RTVSPropertyOp15
 70
     1
102
RTVSPropertyOp16
 70
     1
102
RTVSPropertyOp17
 70
     1
102
RTVSPropertyOp18
 70
     1
102
RTVSPropertyOp19
 70
     1
102
RTVSPropertyOp20
 70
     1
102
RTVSPropertyOp21
 70
     1
102
RTVSPropertyOp22
 70
     1
102
RTVSPropertyOp23
 70
     1
102
RTVSPropertyOp24
 70
     1
102
RTVSPropertyOp25
 70
     1
102
RTVSPropertyOp26
 70
     1
102
RTVSPropertyOp27
 70
     1
102
RTVSPropertyOp28
 70
     1
102
RTVSPropertyOp29
 70
     1
102
RTVSPropertyOp30
 70
     1
102
RTVSPropertyOp31
 70
     1
102
RTVSPropertyOp32
 70
     1
102
RTVSPropertyOp33
 70
     1
102
RTVSPropertyOp34
 70
     1
102
RTVSPropertyOp35
 70
     1
102
RTVSPropertyOp36
 70
     1
102
RTVSPropertyOp37
 70
     1
102
RTVSPropertyOp38
 70
     1
102
RTVSPropertyOp39
 70
     1
102
RTVSPropertyOp40
 70
     1
102
RTVSPropertyOp41
 70
     1
102
RTVSPropertyOp42
 70
     1
102
RTVSPropertyOp43
 70
     1
102
RTVSPropertyOp44
 70
     1
102
RTVSPropertyOp45
 70
     1
102
RTVSPropertyOp46
 70
     1
102
RTVSPropertyOp47
 70
     1
102
RTVSPropertyOp48
 70
     1
102
RTVSPropertyOp49
 70
     1
102
RTVSPropertyOp50
 70
     1
102
RTVSPropertyOp51
 70
     0
102
RTVSPropertyOp52
 70
     0
102
RTVSPropertyOp53
 70
     1
102
RTVSPropertyOp54
 70
     1
102
RTVSPropertyOp55
 70
     1
102
RTVSPropertyOp56
 70
     1
102
RTVSPropertyOp57
 70
     1
102
RTVSPropertyOp58
 70
     1
102
RTVSPropertyOp59
 70
     1
102
RTVSPropertyOp60
 70
     1
102
RTVSPropertyOp61
 70
     1
102
RTVSPropertyOp62
 70
     1
  0
XRECORD
  5
F74
102
{ACAD_REACTORS
330
F73
102
}
330
F73
100
AcDbXrecord
280
     1
102
RTVSPost2010Prop28
280
     0
102
RTVSPost2010PropOp28
 70
     1
102
RTVSPost2010Prop29
280
     1
102
RTVSPost2010PropOp29
 70
     1
102
RTVSPost2010Prop30
280
     1
102
RTVSPost2010PropOp30
 70
     1
102
RTVSPost2010Prop31
280
     0
102
RTVSPost2010PropOp31
 70
     1
102
RTVSPost2010Prop32
280
     0
102
RTVSPost2010PropOp32
 70
     1
102
RTVSPost2010Prop33
280
     0
102
RTVSPost2010PropOp33
 70
     1
102
RTVSPost2010Prop34
280
     0
102
RTVSPost2010PropOp34
 70
     1
102
RTVSPost2010Prop35
280
     0
102
RTVSPost2010PropOp35
 70
     1
102
RTVSPost2010Prop36
280
     0
102
RTVSPost2010PropOp36
 70
     1
102
RTVSPost2010Prop37
 90
       50
102
RTVSPost2010PropOp37
 70
     1
102
RTVSPost2010Prop38
140
0.0
102
RTVSPost2010PropOp38
 70
     1
102
RTVSPost2010Prop39
140
1.0
102
RTVSPost2010PropOp39
 70
     1
102
RTVSPost2010Prop40
 90
        0
102
RTVSPost2010PropOp40
 70
     1
102
RTVSPost2010Prop41ColorIndex
 90
       18
102
RTVSPost2010Prop41ColorRGB
 90
        0
102
RTVSPost2010PropOp41
 70
     1
102
RTVSPost2010Prop42
 90
       50
102
RTVSPost2010PropOp42
 70
     1
102
RTVSPost2010Prop43
 90
        3
102
RTVSPost2010PropOp43
 70
     1
102
RTVSPost2010Prop44ColorIndex
 90
        5
102
RTVSPost2010Prop44ColorRGB
 90
      255
102
RTVSPost2010PropOp44
 70
     1
102
RTVSPost2010Prop45
280
     0
102
RTVSPost2010PropOp45
 70
     1
102
RTVSPost2010Prop46
 90
       50
102
RTVSPost2010PropOp46
 70
     1
102
RTVSPost2010Prop47
 90
       50
102
RTVSPost2010PropOp47
 70
     1
102
RTVSPost2010Prop48
 90
       50
102
RTVSPost2010PropOp48
 70
     1
102
RTVSPost2010Prop49
280
     0
102
RTVSPost2010PropOp49
 70
     1
102
RTVSPost2010Prop50
 90
       50
102
RTVSPost2010PropOp50
 70
     1
102
RTVSPost2010Prop51ColorIndex
 90
      256
102
RTVSPost2010Prop51ColorRGB
 90
-16777216
102
RTVSPost2010PropOp51
 70
     0
102
RTVSPost2010Prop52
140
1.0
102
RTVSPost2010PropOp52
 70
     0
102
RTVSPost2010Prop53
 90
        2
102
RTVSPost2010PropOp53
 70
     1
102
RTVSPost2010Prop54
  1
strokes_ogs.tif
102
RTVSPost2010PropOp54
 70
     1
102
RTVSPost2010Prop55
280
     0
102
RTVSPost2010PropOp55
 70
     1
102
RTVSPost2010Prop56
140
1.0
102
RTVSPost2010PropOp56
 70
     1
102
RTVSPost2010Prop57
140
1.0
102
RTVSPost2010PropOp57
 70
     1
102
RTVSPropertyOp0
 70
     1
102
RTVSPropertyOp1
 70
     1
102
RTVSPropertyOp2
 70
     1
102
RTVSPropertyOp3
 70
     1
102
RTVSPropertyOp4
 70
     1
102
RTVSPropertyOp5
 70
     1
102
RTVSPropertyOp6
 70
     1
102
RTVSPropertyOp7
 70
     1
102
RTVSPropertyOp8
 70
     1
102
RTVSPropertyOp9
 70
     1
102
RTVSPropertyOp10
 70
     1
102
RTVSPropertyOp11
 70
     1
102
RTVSPropertyOp12
 70
     1
102
RTVSPropertyOp13
 70
     1
102
RTVSPropertyOp14
 70
     1
102
RTVSPropertyOp15
 70
     1
102
RTVSPropertyOp16
 70
     1
102
RTVSPropertyOp17
 70
     1
102
RTVSPropertyOp18
 70
     1
102
RTVSPropertyOp19
 70
     1
102
RTVSPropertyOp20
 70
     1
102
RTVSPropertyOp21
 70
     1
102
RTVSPropertyOp22
 70
     1
102
RTVSPropertyOp23
 70
     1
102
RTVSPropertyOp24
 70
     1
102
RTVSPropertyOp25
 70
     1
102
RTVSPropertyOp26
 70
     1
102
RTVSPropertyOp27
 70
     1
102
RTVSPropertyOp28
 70
     1
102
RTVSPropertyOp29
 70
     1
102
RTVSPropertyOp30
 70
     1
102
RTVSPropertyOp31
 70
     1
102
RTVSPropertyOp32
 70
     1
102
RTVSPropertyOp33
 70
     1
102
RTVSPropertyOp34
 70
     1
102
RTVSPropertyOp35
 70
     1
102
RTVSPropertyOp36
 70
     1
102
RTVSPropertyOp37
 70
     1
102
RTVSPropertyOp38
 70
     1
102
RTVSPropertyOp39
 70
     1
102
RTVSPropertyOp40
 70
     1
102
RTVSPropertyOp41
 70
     1
102
RTVSPropertyOp42
 70
     1
102
RTVSPropertyOp43
 70
     1
102
RTVSPropertyOp44
 70
     1
102
RTVSPropertyOp45
 70
     1
102
RTVSPropertyOp46
 70
     1
102
RTVSPropertyOp47
 70
     1
102
RTVSPropertyOp48
 70
     1
102
RTVSPropertyOp49
 70
     1
102
RTVSPropertyOp50
 70
     1
102
RTVSPropertyOp51
 70
     0
102
RTVSPropertyOp52
 70
     0
102
RTVSPropertyOp53
 70
     1
102
RTVSPropertyOp54
 70
     1
102
RTVSPropertyOp55
 70
     1
102
RTVSPropertyOp56
 70
     1
102
RTVSPropertyOp57
 70
     1
102
RTVSPropertyOp58
 70
     1
102
RTVSPropertyOp59
 70
     1
102
RTVSPropertyOp60
 70
     1
102
RTVSPropertyOp61
 70
     1
102
RTVSPropertyOp62
 70
     1
  0
XRECORD
  5
F6E
102
{ACAD_REACTORS
330
F6D
102
}
330
F6D
100
AcDbXrecord
280
     1
102
RTVSPost2010Prop28
280
     0
102
RTVSPost2010PropOp28
 70
     1
102
RTVSPost2010Prop29
280
     1
102
RTVSPost2010PropOp29
 70
     1
102
RTVSPost2010Prop30
280
     1
102
RTVSPost2010PropOp30
 70
     1
102
RTVSPost2010Prop31
280
     0
102
RTVSPost2010PropOp31
 70
     1
102
RTVSPost2010Prop32
280
     0
102
RTVSPost2010PropOp32
 70
     1
102
RTVSPost2010Prop33
280
     0
102
RTVSPost2010PropOp33
 70
     1
102
RTVSPost2010Prop34
280
     0
102
RTVSPost2010PropOp34
 70
     1
102
RTVSPost2010Prop35
280
     0
102
RTVSPost2010PropOp35
 70
     1
102
RTVSPost2010Prop36
280
     0
102
RTVSPost2010PropOp36
 70
     1
102
RTVSPost2010Prop37
 90
       50
102
RTVSPost2010PropOp37
 70
     1
102
RTVSPost2010Prop38
140
0.0
102
RTVSPost2010PropOp38
 70
     1
102
RTVSPost2010Prop39
140
1.0
102
RTVSPost2010PropOp39
 70
     1
102
RTVSPost2010Prop40
 90
        0
102
RTVSPost2010PropOp40
 70
     1
102
RTVSPost2010Prop41ColorIndex
 90
       18
102
RTVSPost2010Prop41ColorRGB
 90
        0
102
RTVSPost2010PropOp41
 70
     1
102
RTVSPost2010Prop42
 90
       50
102
RTVSPost2010PropOp42
 70
     1
102
RTVSPost2010Prop43
 90
        3
102
RTVSPost2010PropOp43
 70
     1
102
RTVSPost2010Prop44ColorIndex
 90
        5
102
RTVSPost2010Prop44ColorRGB
 90
      255
102
RTVSPost2010PropOp44
 70
     1
102
RTVSPost2010Prop45
280
     0
102
RTVSPost2010PropOp45
 70
     1
102
RTVSPost2010Prop46
 90
       50
102
RTVSPost2010PropOp46
 70
     1
102
RTVSPost2010Prop47
 90
       50
102
RTVSPost2010PropOp47
 70
     1
102
RTVSPost2010Prop48
 90
       50
102
RTVSPost2010PropOp48
 70
     1
102
RTVSPost2010Prop49
280
     0
102
RTVSPost2010PropOp49
 70
     1
102
RTVSPost2010Prop50
 90
       50
102
RTVSPost2010PropOp50
 70
     1
102
RTVSPost2010Prop51ColorIndex
 90
      256
102
RTVSPost2010Prop51ColorRGB
 90
-16777216
102
RTVSPost2010PropOp51
 70
     0
102
RTVSPost2010Prop52
140
1.0
102
RTVSPost2010PropOp52
 70
     0
102
RTVSPost2010Prop53
 90
        2
102
RTVSPost2010PropOp53
 70
     1
102
RTVSPost2010Prop54
  1
strokes_ogs.tif
102
RTVSPost2010PropOp54
 70
     1
102
RTVSPost2010Prop55
280
     0
102
RTVSPost2010PropOp55
 70
     1
102
RTVSPost2010Prop56
140
1.0
102
RTVSPost2010PropOp56
 70
     1
102
RTVSPost2010Prop57
140
1.0
102
RTVSPost2010PropOp57
 70
     1
102
RTVSPropertyOp0
 70
     1
102
RTVSPropertyOp1
 70
     1
102
RTVSPropertyOp2
 70
     1
102
RTVSPropertyOp3
 70
     1
102
RTVSPropertyOp4
 70
     1
102
RTVSPropertyOp5
 70
     1
102
RTVSPropertyOp6
 70
     1
102
RTVSPropertyOp7
 70
     1
102
RTVSPropertyOp8
 70
     1
102
RTVSPropertyOp9
 70
     1
102
RTVSPropertyOp10
 70
     1
102
RTVSPropertyOp11
 70
     1
102
RTVSPropertyOp12
 70
     1
102
RTVSPropertyOp13
 70
     1
102
RTVSPropertyOp14
 70
     1
102
RTVSPropertyOp15
 70
     1
102
RTVSPropertyOp16
 70
     1
102
RTVSPropertyOp17
 70
     1
102
RTVSPropertyOp18
 70
     1
102
RTVSPropertyOp19
 70
     1
102
RTVSPropertyOp20
 70
     1
102
RTVSPropertyOp21
 70
     1
102
RTVSPropertyOp22
 70
     1
102
RTVSPropertyOp23
 70
     1
102
RTVSPropertyOp24
 70
     1
102
RTVSPropertyOp25
 70
     1
102
RTVSPropertyOp26
 70
     1
102
RTVSPropertyOp27
 70
     1
102
RTVSPropertyOp28
 70
     1
102
RTVSPropertyOp29
 70
     1
102
RTVSPropertyOp30
 70
     1
102
RTVSPropertyOp31
 70
     1
102
RTVSPropertyOp32
 70
     1
102
RTVSPropertyOp33
 70
     1
102
RTVSPropertyOp34
 70
     1
102
RTVSPropertyOp35
 70
     1
102
RTVSPropertyOp36
 70
     1
102
RTVSPropertyOp37
 70
     1
102
RTVSPropertyOp38
 70
     1
102
RTVSPropertyOp39
 70
     1
102
RTVSPropertyOp40
 70
     1
102
RTVSPropertyOp41
 70
     1
102
RTVSPropertyOp42
 70
     1
102
RTVSPropertyOp43
 70
     1
102
RTVSPropertyOp44
 70
     1
102
RTVSPropertyOp45
 70
     1
102
RTVSPropertyOp46
 70
     1
102
RTVSPropertyOp47
 70
     1
102
RTVSPropertyOp48
 70
     1
102
RTVSPropertyOp49
 70
     1
102
RTVSPropertyOp50
 70
     1
102
RTVSPropertyOp51
 70
     0
102
RTVSPropertyOp52
 70
     0
102
RTVSPropertyOp53
 70
     1
102
RTVSPropertyOp54
 70
     1
102
RTVSPropertyOp55
 70
     1
102
RTVSPropertyOp56
 70
     1
102
RTVSPropertyOp57
 70
     1
102
RTVSPropertyOp58
 70
     1
102
RTVSPropertyOp59
 70
     1
102
RTVSPropertyOp60
 70
     1
102
RTVSPropertyOp61
 70
     1
102
RTVSPropertyOp62
 70
     1
  0
XRECORD
  5
F70
102
{ACAD_REACTORS
330
F6F
102
}
330
F6F
100
AcDbXrecord
280
     1
102
RTVSPost2010Prop28
280
     0
102
RTVSPost2010PropOp28
 70
     1
102
RTVSPost2010Prop29
280
     1
102
RTVSPost2010PropOp29
 70
     1
102
RTVSPost2010Prop30
280
     1
102
RTVSPost2010PropOp30
 70
     1
102
RTVSPost2010Prop31
280
     0
102
RTVSPost2010PropOp31
 70
     1
102
RTVSPost2010Prop32
280
     0
102
RTVSPost2010PropOp32
 70
     1
102
RTVSPost2010Prop33
280
     0
102
RTVSPost2010PropOp33
 70
     1
102
RTVSPost2010Prop34
280
     0
102
RTVSPost2010PropOp34
 70
     1
102
RTVSPost2010Prop35
280
     0
102
RTVSPost2010PropOp35
 70
     1
102
RTVSPost2010Prop36
280
     0
102
RTVSPost2010PropOp36
 70
     1
102
RTVSPost2010Prop37
 90
       50
102
RTVSPost2010PropOp37
 70
     1
102
RTVSPost2010Prop38
140
0.0
102
RTVSPost2010PropOp38
 70
     1
102
RTVSPost2010Prop39
140
1.0
102
RTVSPost2010PropOp39
 70
     1
102
RTVSPost2010Prop40
 90
        0
102
RTVSPost2010PropOp40
 70
     1
102
RTVSPost2010Prop41ColorIndex
 90
       18
102
RTVSPost2010Prop41ColorRGB
 90
        0
102
RTVSPost2010PropOp41
 70
     1
102
RTVSPost2010Prop42
 90
       50
102
RTVSPost2010PropOp42
 70
     1
102
RTVSPost2010Prop43
 90
        3
102
RTVSPost2010PropOp43
 70
     1
102
RTVSPost2010Prop44ColorIndex
 90
        5
102
RTVSPost2010Prop44ColorRGB
 90
      255
102
RTVSPost2010PropOp44
 70
     1
102
RTVSPost2010Prop45
280
     0
102
RTVSPost2010PropOp45
 70
     1
102
RTVSPost2010Prop46
 90
       50
102
RTVSPost2010PropOp46
 70
     1
102
RTVSPost2010Prop47
 90
       50
102
RTVSPost2010PropOp47
 70
     1
102
RTVSPost2010Prop48
 90
       50
102
RTVSPost2010PropOp48
 70
     1
102
RTVSPost2010Prop49
280
     0
102
RTVSPost2010PropOp49
 70
     1
102
RTVSPost2010Prop50
 90
       50
102
RTVSPost2010PropOp50
 70
     1
102
RTVSPost2010Prop51ColorIndex
 90
      256
102
RTVSPost2010Prop51ColorRGB
 90
-16777216
102
RTVSPost2010PropOp51
 70
     0
102
RTVSPost2010Prop52
140
1.0
102
RTVSPost2010PropOp52
 70
     0
102
RTVSPost2010Prop53
 90
        2
102
RTVSPost2010PropOp53
 70
     1
102
RTVSPost2010Prop54
  1
strokes_ogs.tif
102
RTVSPost2010PropOp54
 70
     1
102
RTVSPost2010Prop55
280
     0
102
RTVSPost2010PropOp55
 70
     1
102
RTVSPost2010Prop56
140
1.0
102
RTVSPost2010PropOp56
 70
     1
102
RTVSPost2010Prop57
140
1.0
102
RTVSPost2010PropOp57
 70
     1
102
RTVSPropertyOp0
 70
     1
102
RTVSPropertyOp1
 70
     1
102
RTVSPropertyOp2
 70
     1
102
RTVSPropertyOp3
 70
     1
102
RTVSPropertyOp4
 70
     1
102
RTVSPropertyOp5
 70
     1
102
RTVSPropertyOp6
 70
     1
102
RTVSPropertyOp7
 70
     1
102
RTVSPropertyOp8
 70
     1
102
RTVSPropertyOp9
 70
     1
102
RTVSPropertyOp10
 70
     1
102
RTVSPropertyOp11
 70
     1
102
RTVSPropertyOp12
 70
     1
102
RTVSPropertyOp13
 70
     1
102
RTVSPropertyOp14
 70
     1
102
RTVSPropertyOp15
 70
     1
102
RTVSPropertyOp16
 70
     1
102
RTVSPropertyOp17
 70
     1
102
RTVSPropertyOp18
 70
     1
102
RTVSPropertyOp19
 70
     1
102
RTVSPropertyOp20
 70
     1
102
RTVSPropertyOp21
 70
     1
102
RTVSPropertyOp22
 70
     1
102
RTVSPropertyOp23
 70
     1
102
RTVSPropertyOp24
 70
     1
102
RTVSPropertyOp25
 70
     1
102
RTVSPropertyOp26
 70
     1
102
RTVSPropertyOp27
 70
     1
102
RTVSPropertyOp28
 70
     1
102
RTVSPropertyOp29
 70
     1
102
RTVSPropertyOp30
 70
     1
102
RTVSPropertyOp31
 70
     1
102
RTVSPropertyOp32
 70
     1
102
RTVSPropertyOp33
 70
     1
102
RTVSPropertyOp34
 70
     1
102
RTVSPropertyOp35
 70
     1
102
RTVSPropertyOp36
 70
     1
102
RTVSPropertyOp37
 70
     1
102
RTVSPropertyOp38
 70
     1
102
RTVSPropertyOp39
 70
     1
102
RTVSPropertyOp40
 70
     1
102
RTVSPropertyOp41
 70
     1
102
RTVSPropertyOp42
 70
     1
102
RTVSPropertyOp43
 70
     1
102
RTVSPropertyOp44
 70
     1
102
RTVSPropertyOp45
 70
     1
102
RTVSPropertyOp46
 70
     1
102
RTVSPropertyOp47
 70
     1
102
RTVSPropertyOp48
 70
     1
102
RTVSPropertyOp49
 70
     1
102
RTVSPropertyOp50
 70
     1
102
RTVSPropertyOp51
 70
     0
102
RTVSPropertyOp52
 70
     0
102
RTVSPropertyOp53
 70
     1
102
RTVSPropertyOp54
 70
     1
102
RTVSPropertyOp55
 70
     1
102
RTVSPropertyOp56
 70
     1
102
RTVSPropertyOp57
 70
     1
102
RTVSPropertyOp58
 70
     1
102
RTVSPropertyOp59
 70
     1
102
RTVSPropertyOp60
 70
     1
102
RTVSPropertyOp61
 70
     1
102
RTVSPropertyOp62
 70
     1
  0
XRECORD
  5
F66
102
{ACAD_REACTORS
330
F65
102
}
330
F65
100
AcDbXrecord
280
     1
102
RTVSPost2010Prop28
280
     0
102
RTVSPost2010PropOp28
 70
     1
102
RTVSPost2010Prop29
280
     1
102
RTVSPost2010PropOp29
 70
     1
102
RTVSPost2010Prop30
280
     1
102
RTVSPost2010PropOp30
 70
     1
102
RTVSPost2010Prop31
280
     0
102
RTVSPost2010PropOp31
 70
     1
102
RTVSPost2010Prop32
280
     0
102
RTVSPost2010PropOp32
 70
     1
102
RTVSPost2010Prop33
280
     0
102
RTVSPost2010PropOp33
 70
     1
102
RTVSPost2010Prop34
280
     0
102
RTVSPost2010PropOp34
 70
     1
102
RTVSPost2010Prop35
280
     0
102
RTVSPost2010PropOp35
 70
     1
102
RTVSPost2010Prop36
280
     0
102
RTVSPost2010PropOp36
 70
     1
102
RTVSPost2010Prop37
 90
       50
102
RTVSPost2010PropOp37
 70
     1
102
RTVSPost2010Prop38
140
0.0
102
RTVSPost2010PropOp38
 70
     1
102
RTVSPost2010Prop39
140
1.0
102
RTVSPost2010PropOp39
 70
     1
102
RTVSPost2010Prop40
 90
        0
102
RTVSPost2010PropOp40
 70
     1
102
RTVSPost2010Prop41ColorIndex
 90
       18
102
RTVSPost2010Prop41ColorRGB
 90
        0
102
RTVSPost2010PropOp41
 70
     1
102
RTVSPost2010Prop42
 90
       50
102
RTVSPost2010PropOp42
 70
     1
102
RTVSPost2010Prop43
 90
        3
102
RTVSPost2010PropOp43
 70
     1
102
RTVSPost2010Prop44ColorIndex
 90
        5
102
RTVSPost2010Prop44ColorRGB
 90
      255
102
RTVSPost2010PropOp44
 70
     1
102
RTVSPost2010Prop45
280
     0
102
RTVSPost2010PropOp45
 70
     1
102
RTVSPost2010Prop46
 90
       50
102
RTVSPost2010PropOp46
 70
     1
102
RTVSPost2010Prop47
 90
       50
102
RTVSPost2010PropOp47
 70
     1
102
RTVSPost2010Prop48
 90
       50
102
RTVSPost2010PropOp48
 70
     1
102
RTVSPost2010Prop49
280
     0
102
RTVSPost2010PropOp49
 70
     1
102
RTVSPost2010Prop50
 90
       50
102
RTVSPost2010PropOp50
 70
     1
102
RTVSPost2010Prop51ColorIndex
 90
      256
102
RTVSPost2010Prop51ColorRGB
 90
-16777216
102
RTVSPost2010PropOp51
 70
     0
102
RTVSPost2010Prop52
140
1.0
102
RTVSPost2010PropOp52
 70
     0
102
RTVSPost2010Prop53
 90
        2
102
RTVSPost2010PropOp53
 70
     1
102
RTVSPost2010Prop54
  1
strokes_ogs.tif
102
RTVSPost2010PropOp54
 70
     1
102
RTVSPost2010Prop55
280
     0
102
RTVSPost2010PropOp55
 70
     1
102
RTVSPost2010Prop56
140
1.0
102
RTVSPost2010PropOp56
 70
     1
102
RTVSPost2010Prop57
140
1.0
102
RTVSPost2010PropOp57
 70
     1
102
RTVSPropertyOp0
 70
     1
102
RTVSPropertyOp1
 70
     1
102
RTVSPropertyOp2
 70
     1
102
RTVSPropertyOp3
 70
     1
102
RTVSPropertyOp4
 70
     1
102
RTVSPropertyOp5
 70
     1
102
RTVSPropertyOp6
 70
     1
102
RTVSPropertyOp7
 70
     1
102
RTVSPropertyOp8
 70
     1
102
RTVSPropertyOp9
 70
     1
102
RTVSPropertyOp10
 70
     1
102
RTVSPropertyOp11
 70
     1
102
RTVSPropertyOp12
 70
     1
102
RTVSPropertyOp13
 70
     1
102
RTVSPropertyOp14
 70
     1
102
RTVSPropertyOp15
 70
     1
102
RTVSPropertyOp16
 70
     1
102
RTVSPropertyOp17
 70
     1
102
RTVSPropertyOp18
 70
     1
102
RTVSPropertyOp19
 70
     1
102
RTVSPropertyOp20
 70
     1
102
RTVSPropertyOp21
 70
     1
102
RTVSPropertyOp22
 70
     1
102
RTVSPropertyOp23
 70
     1
102
RTVSPropertyOp24
 70
     1
102
RTVSPropertyOp25
 70
     1
102
RTVSPropertyOp26
 70
     1
102
RTVSPropertyOp27
 70
     1
102
RTVSPropertyOp28
 70
     1
102
RTVSPropertyOp29
 70
     1
102
RTVSPropertyOp30
 70
     1
102
RTVSPropertyOp31
 70
     1
102
RTVSPropertyOp32
 70
     1
102
RTVSPropertyOp33
 70
     1
102
RTVSPropertyOp34
 70
     1
102
RTVSPropertyOp35
 70
     1
102
RTVSPropertyOp36
 70
     1
102
RTVSPropertyOp37
 70
     1
102
RTVSPropertyOp38
 70
     1
102
RTVSPropertyOp39
 70
     1
102
RTVSPropertyOp40
 70
     1
102
RTVSPropertyOp41
 70
     1
102
RTVSPropertyOp42
 70
     1
102
RTVSPropertyOp43
 70
     1
102
RTVSPropertyOp44
 70
     1
102
RTVSPropertyOp45
 70
     1
102
RTVSPropertyOp46
 70
     1
102
RTVSPropertyOp47
 70
     1
102
RTVSPropertyOp48
 70
     1
102
RTVSPropertyOp49
 70
     1
102
RTVSPropertyOp50
 70
     1
102
RTVSPropertyOp51
 70
     0
102
RTVSPropertyOp52
 70
     0
102
RTVSPropertyOp53
 70
     1
102
RTVSPropertyOp54
 70
     1
102
RTVSPropertyOp55
 70
     1
102
RTVSPropertyOp56
 70
     1
102
RTVSPropertyOp57
 70
     1
102
RTVSPropertyOp58
 70
     1
102
RTVSPropertyOp59
 70
     1
102
RTVSPropertyOp60
 70
     1
102
RTVSPropertyOp61
 70
     1
102
RTVSPropertyOp62
 70
     1
  0
XRECORD
  5
F5A
102
{ACAD_REACTORS
330
F59
102
}
330
F59
100
AcDbXrecord
280
     1
102
RTVSPost2010Prop28
280
     0
102
RTVSPost2010PropOp28
 70
     1
102
RTVSPost2010Prop29
280
     1
102
RTVSPost2010PropOp29
 70
     1
102
RTVSPost2010Prop30
280
     1
102
RTVSPost2010PropOp30
 70
     1
102
RTVSPost2010Prop31
280
     0
102
RTVSPost2010PropOp31
 70
     1
102
RTVSPost2010Prop32
280
     0
102
RTVSPost2010PropOp32
 70
     1
102
RTVSPost2010Prop33
280
     0
102
RTVSPost2010PropOp33
 70
     1
102
RTVSPost2010Prop34
280
     0
102
RTVSPost2010PropOp34
 70
     1
102
RTVSPost2010Prop35
280
     0
102
RTVSPost2010PropOp35
 70
     1
102
RTVSPost2010Prop36
280
     0
102
RTVSPost2010PropOp36
 70
     1
102
RTVSPost2010Prop37
 90
       50
102
RTVSPost2010PropOp37
 70
     1
102
RTVSPost2010Prop38
140
0.0
102
RTVSPost2010PropOp38
 70
     1
102
RTVSPost2010Prop39
140
1.0
102
RTVSPost2010PropOp39
 70
     1
102
RTVSPost2010Prop40
 90
        0
102
RTVSPost2010PropOp40
 70
     1
102
RTVSPost2010Prop41ColorIndex
 90
       18
102
RTVSPost2010Prop41ColorRGB
 90
        0
102
RTVSPost2010PropOp41
 70
     1
102
RTVSPost2010Prop42
 90
       50
102
RTVSPost2010PropOp42
 70
     1
102
RTVSPost2010Prop43
 90
        3
102
RTVSPost2010PropOp43
 70
     1
102
RTVSPost2010Prop44ColorIndex
 90
        5
102
RTVSPost2010Prop44ColorRGB
 90
      255
102
RTVSPost2010PropOp44
 70
     1
102
RTVSPost2010Prop45
280
     0
102
RTVSPost2010PropOp45
 70
     1
102
RTVSPost2010Prop46
 90
       50
102
RTVSPost2010PropOp46
 70
     1
102
RTVSPost2010Prop47
 90
       50
102
RTVSPost2010PropOp47
 70
     1
102
RTVSPost2010Prop48
 90
       50
102
RTVSPost2010PropOp48
 70
     1
102
RTVSPost2010Prop49
280
     0
102
RTVSPost2010PropOp49
 70
     1
102
RTVSPost2010Prop50
 90
       50
102
RTVSPost2010PropOp50
 70
     1
102
RTVSPost2010Prop51ColorIndex
 90
      256
102
RTVSPost2010Prop51ColorRGB
 90
-16777216
102
RTVSPost2010PropOp51
 70
     0
102
RTVSPost2010Prop52
140
1.0
102
RTVSPost2010PropOp52
 70
     0
102
RTVSPost2010Prop53
 90
        2
102
RTVSPost2010PropOp53
 70
     1
102
RTVSPost2010Prop54
  1
strokes_ogs.tif
102
RTVSPost2010PropOp54
 70
     1
102
RTVSPost2010Prop55
280
     0
102
RTVSPost2010PropOp55
 70
     1
102
RTVSPost2010Prop56
140
1.0
102
RTVSPost2010PropOp56
 70
     1
102
RTVSPost2010Prop57
140
1.0
102
RTVSPost2010PropOp57
 70
     1
102
RTVSPropertyOp0
 70
     1
102
RTVSPropertyOp1
 70
     1
102
RTVSPropertyOp2
 70
     1
102
RTVSPropertyOp3
 70
     1
102
RTVSPropertyOp4
 70
     1
102
RTVSPropertyOp5
 70
     1
102
RTVSPropertyOp6
 70
     1
102
RTVSPropertyOp7
 70
     1
102
RTVSPropertyOp8
 70
     1
102
RTVSPropertyOp9
 70
     1
102
RTVSPropertyOp10
 70
     1
102
RTVSPropertyOp11
 70
     1
102
RTVSPropertyOp12
 70
     1
102
RTVSPropertyOp13
 70
     1
102
RTVSPropertyOp14
 70
     1
102
RTVSPropertyOp15
 70
     1
102
RTVSPropertyOp16
 70
     1
102
RTVSPropertyOp17
 70
     1
102
RTVSPropertyOp18
 70
     1
102
RTVSPropertyOp19
 70
     1
102
RTVSPropertyOp20
 70
     1
102
RTVSPropertyOp21
 70
     1
102
RTVSPropertyOp22
 70
     1
102
RTVSPropertyOp23
 70
     1
102
RTVSPropertyOp24
 70
     1
102
RTVSPropertyOp25
 70
     1
102
RTVSPropertyOp26
 70
     1
102
RTVSPropertyOp27
 70
     1
102
RTVSPropertyOp28
 70
     1
102
RTVSPropertyOp29
 70
     1
102
RTVSPropertyOp30
 70
     1
102
RTVSPropertyOp31
 70
     1
102
RTVSPropertyOp32
 70
     1
102
RTVSPropertyOp33
 70
     1
102
RTVSPropertyOp34
 70
     1
102
RTVSPropertyOp35
 70
     1
102
RTVSPropertyOp36
 70
     1
102
RTVSPropertyOp37
 70
     1
102
RTVSPropertyOp38
 70
     1
102
RTVSPropertyOp39
 70
     1
102
RTVSPropertyOp40
 70
     1
102
RTVSPropertyOp41
 70
     1
102
RTVSPropertyOp42
 70
     1
102
RTVSPropertyOp43
 70
     1
102
RTVSPropertyOp44
 70
     1
102
RTVSPropertyOp45
 70
     1
102
RTVSPropertyOp46
 70
     1
102
RTVSPropertyOp47
 70
     1
102
RTVSPropertyOp48
 70
     1
102
RTVSPropertyOp49
 70
     1
102
RTVSPropertyOp50
 70
     1
102
RTVSPropertyOp51
 70
     0
102
RTVSPropertyOp52
 70
     0
102
RTVSPropertyOp53
 70
     1
102
RTVSPropertyOp54
 70
     1
102
RTVSPropertyOp55
 70
     1
102
RTVSPropertyOp56
 70
     1
102
RTVSPropertyOp57
 70
     1
102
RTVSPropertyOp58
 70
     1
102
RTVSPropertyOp59
 70
     1
102
RTVSPropertyOp60
 70
     1
102
RTVSPropertyOp61
 70
     1
102
RTVSPropertyOp62
 70
     1
  0
XRECORD
  5
F72
102
{ACAD_REACTORS
330
F71
102
}
330
F71
100
AcDbXrecord
280
     1
102
RTVSPost2010Prop28
280
     0
102
RTVSPost2010PropOp28
 70
     1
102
RTVSPost2010Prop29
280
     1
102
RTVSPost2010PropOp29
 70
     1
102
RTVSPost2010Prop30
280
     1
102
RTVSPost2010PropOp30
 70
     1
102
RTVSPost2010Prop31
280
     0
102
RTVSPost2010PropOp31
 70
     1
102
RTVSPost2010Prop32
280
     0
102
RTVSPost2010PropOp32
 70
     1
102
RTVSPost2010Prop33
280
     0
102
RTVSPost2010PropOp33
 70
     1
102
RTVSPost2010Prop34
280
     0
102
RTVSPost2010PropOp34
 70
     1
102
RTVSPost2010Prop35
280
     0
102
RTVSPost2010PropOp35
 70
     1
102
RTVSPost2010Prop36
280
     0
102
RTVSPost2010PropOp36
 70
     1
102
RTVSPost2010Prop37
 90
       50
102
RTVSPost2010PropOp37
 70
     1
102
RTVSPost2010Prop38
140
0.0
102
RTVSPost2010PropOp38
 70
     1
102
RTVSPost2010Prop39
140
1.0
102
RTVSPost2010PropOp39
 70
     1
102
RTVSPost2010Prop40
 90
        0
102
RTVSPost2010PropOp40
 70
     1
102
RTVSPost2010Prop41ColorIndex
 90
       18
102
RTVSPost2010Prop41ColorRGB
 90
        0
102
RTVSPost2010PropOp41
 70
     1
102
RTVSPost2010Prop42
 90
       50
102
RTVSPost2010PropOp42
 70
     1
102
RTVSPost2010Prop43
 90
        3
102
RTVSPost2010PropOp43
 70
     1
102
RTVSPost2010Prop44ColorIndex
 90
        5
102
RTVSPost2010Prop44ColorRGB
 90
      255
102
RTVSPost2010PropOp44
 70
     1
102
RTVSPost2010Prop45
280
     0
102
RTVSPost2010PropOp45
 70
     1
102
RTVSPost2010Prop46
 90
       50
102
RTVSPost2010PropOp46
 70
     1
102
RTVSPost2010Prop47
 90
       50
102
RTVSPost2010PropOp47
 70
     1
102
RTVSPost2010Prop48
 90
       50
102
RTVSPost2010PropOp48
 70
     1
102
RTVSPost2010Prop49
280
     0
102
RTVSPost2010PropOp49
 70
     1
102
RTVSPost2010Prop50
 90
       50
102
RTVSPost2010PropOp50
 70
     1
102
RTVSPost2010Prop51ColorIndex
 90
      256
102
RTVSPost2010Prop51ColorRGB
 90
-16777216
102
RTVSPost2010PropOp51
 70
     0
102
RTVSPost2010Prop52
140
1.0
102
RTVSPost2010PropOp52
 70
     0
102
RTVSPost2010Prop53
 90
        2
102
RTVSPost2010PropOp53
 70
     1
102
RTVSPost2010Prop54
  1
strokes_ogs.tif
102
RTVSPost2010PropOp54
 70
     1
102
RTVSPost2010Prop55
280
     0
102
RTVSPost2010PropOp55
 70
     1
102
RTVSPost2010Prop56
140
1.0
102
RTVSPost2010PropOp56
 70
     1
102
RTVSPost2010Prop57
140
1.0
102
RTVSPost2010PropOp57
 70
     1
102
RTVSPropertyOp0
 70
     1
102
RTVSPropertyOp1
 70
     1
102
RTVSPropertyOp2
 70
     1
102
RTVSPropertyOp3
 70
     1
102
RTVSPropertyOp4
 70
     1
102
RTVSPropertyOp5
 70
     1
102
RTVSPropertyOp6
 70
     1
102
RTVSPropertyOp7
 70
     1
102
RTVSPropertyOp8
 70
     1
102
RTVSPropertyOp9
 70
     1
102
RTVSPropertyOp10
 70
     1
102
RTVSPropertyOp11
 70
     1
102
RTVSPropertyOp12
 70
     1
102
RTVSPropertyOp13
 70
     1
102
RTVSPropertyOp14
 70
     1
102
RTVSPropertyOp15
 70
     1
102
RTVSPropertyOp16
 70
     1
102
RTVSPropertyOp17
 70
     1
102
RTVSPropertyOp18
 70
     1
102
RTVSPropertyOp19
 70
     1
102
RTVSPropertyOp20
 70
     1
102
RTVSPropertyOp21
 70
     1
102
RTVSPropertyOp22
 70
     1
102
RTVSPropertyOp23
 70
     1
102
RTVSPropertyOp24
 70
     1
102
RTVSPropertyOp25
 70
     1
102
RTVSPropertyOp26
 70
     1
102
RTVSPropertyOp27
 70
     1
102
RTVSPropertyOp28
 70
     1
102
RTVSPropertyOp29
 70
     1
102
RTVSPropertyOp30
 70
     1
102
RTVSPropertyOp31
 70
     1
102
RTVSPropertyOp32
 70
     1
102
RTVSPropertyOp33
 70
     1
102
RTVSPropertyOp34
 70
     1
102
RTVSPropertyOp35
 70
     1
102
RTVSPropertyOp36
 70
     1
102
RTVSPropertyOp37
 70
     1
102
RTVSPropertyOp38
 70
     1
102
RTVSPropertyOp39
 70
     1
102
RTVSPropertyOp40
 70
     1
102
RTVSPropertyOp41
 70
     1
102
RTVSPropertyOp42
 70
     1
102
RTVSPropertyOp43
 70
     1
102
RTVSPropertyOp44
 70
     1
102
RTVSPropertyOp45
 70
     1
102
RTVSPropertyOp46
 70
     1
102
RTVSPropertyOp47
 70
     1
102
RTVSPropertyOp48
 70
     1
102
RTVSPropertyOp49
 70
     1
102
RTVSPropertyOp50
 70
     1
102
RTVSPropertyOp51
 70
     0
102
RTVSPropertyOp52
 70
     0
102
RTVSPropertyOp53
 70
     1
102
RTVSPropertyOp54
 70
     1
102
RTVSPropertyOp55
 70
     1
102
RTVSPropertyOp56
 70
     1
102
RTVSPropertyOp57
 70
     1
102
RTVSPropertyOp58
 70
     1
102
RTVSPropertyOp59
 70
     1
102
RTVSPropertyOp60
 70
     1
102
RTVSPropertyOp61
 70
     1
102
RTVSPropertyOp62
 70
     1
  0
ENDSEC
  0
EOF
