  0
SECTION
  2
HEADER
  9
$ACADVER
  1
AC1015
  9
$ACADMAINTVER
 70
    20
  9
$DWGCODEPAGE
  3
ANSI_932
  9
$INSBASE
 10
0.0
 20
0.0
 30
0.0
  9
$EXTMIN
 10
9.9999975266385
 20
10.0
 30
0.0
  9
$EXTMAX
 10
781.6355943985143
 20
584.4331762846302
 30
0.0
  9
$LIMMIN
 10
0.0000015376081137
 20
-0.0000001931532552
  9
$LIMMAX
 10
892.000001537608
 20
614.9393937462405
  9
$ORTHOMODE
 70
     1
  9
$REGENMODE
 70
     1
  9
$FILLMODE
 70
     1
  9
$QTEXTMODE
 70
     0
  9
$MIRRTEXT
 70
     1
  9
$LTSCALE
 40
1.0
  9
$ATTMODE
 70
     1
  9
$TEXTSIZE
 40
2.5
  9
$TRACEWID
 40
1.0
  9
$TEXTSTYLE
  7
STANDARD
  9
$CLAYER
  8
0
  9
$CELTYPE
  6
BYLAYER
  9
$CECOLOR
 62
   256
  9
$CELTSCALE
 40
1.0
  9
$DISPSILH
 70
     0
  9
$DIMSCALE
 40
1.0
  9
$DIMASZ
 40
3.0
  9
$DIMEXO
 40
1.0
  9
$DIMDLI
 40
10.0
  9
$DIMRND
 40
0.0
  9
$DIMDLE
 40
0.0
  9
$DIMEXE
 40
1.0
  9
$DIMTP
 40
0.0
  9
$DIMTM
 40
0.0
  9
$DIMTXT
 40
3.2
  9
$DIMCEN
 40
0.0
  9
$DIMTSZ
 40
0.0
  9
$DIMTOL
 70
     0
  9
$DIMLIM
 70
     0
  9
$DIMTIH
 70
     0
  9
$DIMTOH
 70
     0
  9
$DIMSE1
 70
     0
  9
$DIMSE2
 70
     0
  9
$DIMTAD
 70
     3
  9
$DIMZIN
 70
     8
  9
$DIMBLK
  1

  9
$DIMASO
 70
     1
  9
$DIMSHO
 70
     1
  9
$DIMPOST
  1

  9
$DIMAPOST
  1

  9
$DIMALT
 70
     0
  9
$DIMALTD
 70
     2
  9
$DIMALTF
 40
25.4
  9
$DIMLFAC
 40
1.0
  9
$DIMTOFL
 70
     1
  9
$DIMTVP
 40
0.0
  9
$DIMTIX
 70
     0
  9
$DIMSOXD
 70
     0
  9
$DIMSAH
 70
     1
  9
$DIMBLK1
  1
OPEN
  9
$DIMBLK2
  1
OPEN
  9
$DIMSTYLE
  2
STANDARD
  9
$DIMCLRD
 70
     0
  9
$DIMCLRE
 70
     0
  9
$DIMCLRT
 70
     0
  9
$DIMTFAC
 40
1.0
  9
$DIMGAP
 40
1.0
  9
$DIMJUST
 70
     0
  9
$DIMSD1
 70
     0
  9
$DIMSD2
 70
     0
  9
$DIMTOLJ
 70
     1
  9
$DIMTZIN
 70
     0
  9
$DIMALTZ
 70
     0
  9
$DIMALTTZ
 70
     0
  9
$DIMUPT
 70
     0
  9
$DIMDEC
 70
     4
  9
$DIMTDEC
 70
     4
  9
$DIMALTU
 70
     2
  9
$DIMALTTD
 70
     2
  9
$DIMTXSTY
  7
STANDARD
  9
$DIMAUNIT
 70
     0
  9
$DIMADEC
 70
     0
  9
$DIMALTRND
 40
0.0
  9
$DIMAZIN
 70
     0
  9
$DIMDSEP
 70
    46
  9
$DIMATFIT
 70
     3
  9
$DIMFRAC
 70
     0
  9
$DIMLDRBLK
  1
OPEN
  9
$DIMLUNIT
 70
     2
  9
$DIMLWD
 70
    -2
  9
$DIMLWE
 70
    -2
  9
$DIMTMOVE
 70
     0
  9
$LUNITS
 70
     2
  9
$LUPREC
 70
     4
  9
$SKETCHINC
 40
1.0
  9
$FILLETRAD
 40
0.0
  9
$AUNITS
 70
     0
  9
$AUPREC
 70
     0
  9
$MENU
  1
.
  9
$ELEVATION
 40
0.0
  9
$PELEVATION
 40
0.0
  9
$THICKNESS
 40
0.0
  9
$LIMCHECK
 70
     0
  9
$CHAMFERA
 40
10.0
  9
$CHAMFERB
 40
10.0
  9
$CHAMFERC
 40
20.0
  9
$CHAMFERD
 40
0.0
  9
$SKPOLY
 70
     0
  9
$TDCREATE
 40
2453811.402924803
  9
$TDUCREATE
 40
2453811.027924803
  9
$TDUPDATE
 40
2457192.689459502
  9
$TDUUPDATE
 40
2457192.314459502
  9
$TDINDWG
 40
0.0491179282
  9
$TDUSRTIMER
 40
0.0491179167
  9
$USRTIMER
 70
     1
  9
$ANGBASE
 50
0.0
  9
$ANGDIR
 70
     0
  9
$PDMODE
 70
     0
  9
$PDSIZE
 40
0.0
  9
$PLINEWID
 40
0.0
  9
$SPLFRAME
 70
     0
  9
$SPLINETYPE
 70
     6
  9
$SPLINESEGS
 70
     8
  9
$HANDSEED
  5
19BF
  9
$SURFTAB1
 70
     6
  9
$SURFTAB2
 70
     6
  9
$SURFTYPE
 70
     6
  9
$SURFU
 70
     6
  9
$SURFV
 70
     6
  9
$UCSBASE
  2

  9
$UCSNAME
  2

  9
$UCSORG
 10
0.0
 20
0.0
 30
0.0
  9
$UCSXDIR
 10
1.0
 20
0.0
 30
0.0
  9
$UCSYDIR
 10
0.0
 20
1.0
 30
0.0
  9
$UCSORTHOREF
  2

  9
$UCSORTHOVIEW
 70
     0
  9
$UCSORGTOP
 10
0.0
 20
0.0
 30
0.0
  9
$UCSORGBOTTOM
 10
0.0
 20
0.0
 30
0.0
  9
$UCSORGLEFT
 10
0.0
 20
0.0
 30
0.0
  9
$UCSORGRIGHT
 10
0.0
 20
0.0
 30
0.0
  9
$UCSORGFRONT
 10
0.0
 20
0.0
 30
0.0
  9
$UCSORGBACK
 10
0.0
 20
0.0
 30
0.0
  9
$PUCSBASE
  2

  9
$PUCSNAME
  2

  9
$PUCSORG
 10
0.0
 20
0.0
 30
0.0
  9
$PUCSXDIR
 10
1.0
 20
0.0
 30
0.0
  9
$PUCSYDIR
 10
0.0
 20
1.0
 30
0.0
  9
$PUCSORTHOREF
  2

  9
$PUCSORTHOVIEW
 70
     0
  9
$PUCSORGTOP
 10
0.0
 20
0.0
 30
0.0
  9
$PUCSORGBOTTOM
 10
0.0
 20
0.0
 30
0.0
  9
$PUCSORGLEFT
 10
0.0
 20
0.0
 30
0.0
  9
$PUCSORGRIGHT
 10
0.0
 20
0.0
 30
0.0
  9
$PUCSORGFRONT
 10
0.0
 20
0.0
 30
0.0
  9
$PUCSORGBACK
 10
0.0
 20
0.0
 30
0.0
  9
$USERI1
 70
     0
  9
$USERI2
 70
     0
  9
$USERI3
 70
     0
  9
$USERI4
 70
     0
  9
$USERI5
 70
     0
  9
$USERR1
 40
0.0
  9
$USERR2
 40
0.0
  9
$USERR3
 40
0.0
  9
$USERR4
 40
0.0
  9
$USERR5
 40
0.0
  9
$WORLDVIEW
 70
     1
  9
$SHADEDGE
 70
     3
  9
$SHADEDIF
 70
    70
  9
$TILEMODE
 70
     1
  9
$MAXACTVP
 70
    48
  9
$PINSBASE
 10
0.0
 20
0.0
 30
0.0
  9
$PLIMCHECK
 70
     0
  9
$PEXTMIN
 10
1.000000000000000E+20
 20
1.000000000000000E+20
 30
1.000000000000000E+20
  9
$PEXTMAX
 10
-1.000000000000000E+20
 20
-1.000000000000000E+20
 30
-1.000000000000000E+20
  9
$PLIMMIN
 10
0.0
 20
0.0
  9
$PLIMMAX
 10
420.0
 20
297.0
  9
$UNITMODE
 70
     0
  9
$VISRETAIN
 70
     1
  9
$PLINEGEN
 70
     0
  9
$PSLTSCALE
 70
     1
  9
$TREEDEPTH
 70
  3020
  9
$CMLSTYLE
  2
STANDARD
  9
$CMLJUST
 70
     0
  9
$CMLSCALE
 40
20.0
  9
$PROXYGRAPHICS
 70
     1
  9
$MEASUREMENT
 70
     0
  9
$CELWEIGHT
370
    -1
  9
$ENDCAPS
280
     0
  9
$JOINSTYLE
280
     0
  9
$LWDISPLAY
290
     0
  9
$INSUNITS
 70
     0
  9
$HYPERLINKBASE
  1

  9
$STYLESHEET
  1

  9
$XEDIT
290
     1
  9
$CEPSNTYPE
380
     0
  9
$PSTYLEMODE
290
     1
  9
$FINGERPRINTGUID
  2
{E8CDA604-1A9C-4A2E-81A7-EEF615D1F48B}
  9
$VERSIONGUID
  2
{F5823C2B-3629-4842-A9D2-28B57F0C04D7}
  9
$EXTNAMES
290
     1
  9
$PSVPSCALE
 40
0.0
  9
$OLESTARTUP
290
     0
  0
ENDSEC
  0
SECTION
  2
CLASSES
  0
CLASS
  1
ACDBDICTIONARYWDFLT
  2
AcDbDictionaryWithDefault
  3
ObjectDBX Classes
 90
        0
280
     0
281
     0
  0
CLASS
  1
ACDBPLACEHOLDER
  2
AcDbPlaceHolder
  3
ObjectDBX Classes
 90
        0
280
     0
281
     0
  0
CLASS
  1
LAYOUT
  2
AcDbLayout
  3
ObjectDBX Classes
 90
        0
280
     0
281
     0
  0
CLASS
  1
DICTIONARYVAR
  2
AcDbDictionaryVar
  3
ObjectDBX Classes
 90
        0
280
     0
281
     0
  0
CLASS
  1
MATERIAL
  2
AcDbMaterial
  3
ObjectDBX Classes
 90
     1153
280
     0
281
     0
  0
CLASS
  1
VISUALSTYLE
  2
AcDbVisualStyle
  3
ObjectDBX Classes
 90
     4095
280
     0
281
     0
  0
CLASS
  1
TABLESTYLE
  2
AcDbTableStyle
  3
ObjectDBX Classes
 90
     4095
280
     0
281
     0
  0
CLASS
  1
SCALE
  2
AcDbScale
  3
ObjectDBX Classes
 90
     1153
280
     0
281
     0
  0
CLASS
  1
MLEADERSTYLE
  2
AcDbMLeaderStyle
  3
ACDB_MLEADERSTYLE_CLASS
 90
     4095
280
     0
281
     0
  0
CLASS
  1
ACDBSECTIONVIEWSTYLE
  2
AcDbSectionViewStyle
  3
ObjectDBX Classes
 90
     1025
280
     0
281
     0
  0
CLASS
  1
ACDBDETAILVIEWSTYLE
  2
AcDbDetailViewStyle
  3
ObjectDBX Classes
 90
     1025
280
     0
281
     0
  0
CLASS
  1
CELLSTYLEMAP
  2
AcDbCellStyleMap
  3
ObjectDBX Classes
 90
     1152
280
     0
281
     0
  0
ENDSEC
  0
SECTION
  2
TABLES
  0
TABLE
  2
VPORT
  5
8
330
0
100
AcDbSymbolTable
 70
     1
  0
VPORT
  5
190B
330
8
100
AcDbSymbolTableRecord
100
AcDbViewportTableRecord
  2
*ACTIVE
 70
     0
 10
0.0
 20
0.0
 11
1.0
 21
1.0
 12
616.9300102803958
 22
297.2185188769373
 13
0.0
 23
0.0
 14
10.0
 24
10.0
 15
10.0
 25
10.0
 16
0.0
 26
0.0
 36
1.0
 17
0.0
 27
0.0
 37
0.0
 40
579.0237210603724
 41
2.35006605019815
 42
50.0
 43
0.0
 44
0.0
 50
0.0
 51
0.0
 71
     0
 72
   100
 73
     1
 74
     0
 75
     0
 76
     0
 77
     0
 78
     0
281
     0
 65
     1
110
0.0
120
0.0
130
0.0
111
1.0
121
0.0
131
0.0
112
0.0
122
1.0
132
0.0
 79
     0
146
0.0
1001
ACAD_NAV_VCDISPLAY
1070
     3
  0
ENDTAB
  0
TABLE
  2
LTYPE
  5
5
330
0
100
AcDbSymbolTable
 70
     4
  0
LTYPE
  5
12
330
5
100
AcDbSymbolTableRecord
100
AcDbLinetypeTableRecord
  2
BYBLOCK
 70
     0
  3

 72
    65
 73
     0
 40
0.0
  0
LTYPE
  5
13
330
5
100
AcDbSymbolTableRecord
100
AcDbLinetypeTableRecord
  2
BYLAYER
 70
     0
  3

 72
    65
 73
     0
 40
0.0
  0
LTYPE
  5
14
330
5
100
AcDbSymbolTableRecord
100
AcDbLinetypeTableRecord
  2
CONTINUOUS
 70
     0
  3
Solid line
 72
    65
 73
     0
 40
0.0
  0
LTYPE
  5
4B
330
5
100
AcDbSymbolTableRecord
100
AcDbLinetypeTableRecord
  2
DASHED
 70
     0
  3
Dashed __ __ __ __ __ __ __ __ __ __ __ __ __ _
 72
    65
 73
     2
 40
19.04999999999998
 49
12.7
 74
     0
 49
-6.349999999999997
 74
     0
  0
LTYPE
  5
4C
330
5
100
AcDbSymbolTableRecord
100
AcDbLinetypeTableRecord
  2
CENTER
 70
     0
  3
Center ____ _ ____ _ ____ _ ____ _ ____ _ ____
 72
    65
 73
     4
 40
50.8
 49
31.75
 74
     0
 49
-6.349999999999997
 74
     0
 49
6.349999999999997
 74
     0
 49
-6.349999999999997
 74
     0
  0
LTYPE
  5
4D
330
5
100
AcDbSymbolTableRecord
100
AcDbLinetypeTableRecord
  2
PHANTOM
 70
     0
  3
Phantom ______  __  __  ______  __  __  ______
 72
    65
 73
     6
 40
63.5
 49
31.75
 74
     0
 49
-6.349999999999997
 74
     0
 49
6.349999999999997
 74
     0
 49
-6.349999999999997
 74
     0
 49
6.349999999999997
 74
     0
 49
-6.349999999999997
 74
     0
  0
ENDTAB
  0
TABLE
  2
LAYER
  5
2
330
0
100
AcDbSymbolTable
 70
     8
  0
LAYER
  5
E
102
{ACAD_XDICTIONARY
360
1963
102
}
330
2
100
AcDbSymbolTableRecord
100
AcDbLayerTableRecord
  2
0
 70
     0
 62
     7
  6
CONTINUOUS
370
    -3
390
1912
  0
LAYER
  5
4E
102
{ACAD_XDICTIONARY
360
1965
102
}
330
2
100
AcDbSymbolTableRecord
100
AcDbLayerTableRecord
  2
4
 70
     0
 62
     1
  6
CENTER
370
    -3
390
1912
  0
LAYER
  5
4F
102
{ACAD_XDICTIONARY
360
1967
102
}
330
2
100
AcDbSymbolTableRecord
100
AcDbLayerTableRecord
  2
5
 70
     0
 62
     6
  6
PHANTOM
370
    -3
390
1912
  0
LAYER
  5
50
102
{ACAD_XDICTIONARY
360
1969
102
}
330
2
100
AcDbSymbolTableRecord
100
AcDbLayerTableRecord
  2
1
 70
     0
 62
     7
  6
CONTINUOUS
370
    -3
390
1912
  0
LAYER
  5
51
102
{ACAD_XDICTIONARY
360
196B
102
}
330
2
100
AcDbSymbolTableRecord
100
AcDbLayerTableRecord
  2
2
 70
     0
 62
     4
  6
CONTINUOUS
370
    -3
390
1912
  0
LAYER
  5
52
102
{ACAD_XDICTIONARY
360
196D
102
}
330
2
100
AcDbSymbolTableRecord
100
AcDbLayerTableRecord
  2
3
 70
     0
 62
     2
  6
DASHED
370
    -3
390
1912
  0
LAYER
  5
53
102
{ACAD_XDICTIONARY
360
196F
102
}
330
2
100
AcDbSymbolTableRecord
100
AcDbLayerTableRecord
  2
6
 70
     0
 62
     5
  6
CONTINUOUS
370
    -3
390
1912
  0
LAYER
  5
54
102
{ACAD_XDICTIONARY
360
1971
102
}
330
2
100
AcDbSymbolTableRecord
100
AcDbLayerTableRecord
  2
7
 70
     0
 62
     3
  6
CONTINUOUS
370
    -3
390
1912
  0
ENDTAB
  0
TABLE
  2
STYLE
  5
3
330
0
100
AcDbSymbolTable
 70
     1
  0
STYLE
  5
F
330
3
100
AcDbSymbolTableRecord
100
AcDbTextStyleTableRecord
  2
STANDARD
 70
     0
 40
0.0
 41
1.0
 50
0.0
 71
     0
 42
2.5
  3
simplex.shx
  4

  0
ENDTAB
  0
TABLE
  2
VIEW
  5
6
330
0
100
AcDbSymbolTable
 70
     0
  0
ENDTAB
  0
TABLE
  2
UCS
  5
7
330
0
100
AcDbSymbolTable
 70
     0
  0
ENDTAB
  0
TABLE
  2
APPID
  5
9
330
0
100
AcDbSymbolTable
 70
     5
  0
APPID
  5
10
330
9
100
AcDbSymbolTableRecord
100
AcDbRegAppTableRecord
  2
ACAD
 70
     0
  0
APPID
  5
3E
330
9
100
AcDbSymbolTableRecord
100
AcDbRegAppTableRecord
  2
CONTENTTABDATA
 70
     0
  0
APPID
  5
3F
330
9
100
AcDbSymbolTableRecord
100
AcDbRegAppTableRecord
  2
CONTENTCURRENTTAB
 70
     0
  0
APPID
  5
197D
330
9
100
AcDbSymbolTableRecord
100
AcDbRegAppTableRecord
  2
ACAD_NAV_VCDISPLAY
 70
     0
  0
APPID
  5
19B6
330
9
100
AcDbSymbolTableRecord
100
AcDbRegAppTableRecord
  2
ACAD_MLEADERVER
 70
     0
  0
ENDTAB
  0
TABLE
  2
DIMSTYLE
  5
A
330
0
100
AcDbSymbolTable
 70
     1
100
AcDbDimStyleTable
 71
     0
  0
DIMSTYLE
105
1D
330
A
100
AcDbSymbolTableRecord
100
AcDbDimStyleTableRecord
  2
STANDARD
 70
     0
 41
3.0
 42
1.0
 43
10.0
 44
1.0
 73
     0
 74
     0
 77
     3
 78
     8
140
3.2
141
0.0
147
1.0
172
     1
173
     1
340
F
341
2E
343
2E
344
2E
  0
ENDTAB
  0
TABLE
  2
BLOCK_RECORD
  5
1
330
0
100
AcDbSymbolTable
 70
     1
  0
BLOCK_RECORD
  5
18
102
{ACAD_XDICTIONARY
360
18EF
102
}
330
1
100
AcDbSymbolTableRecord
100
AcDbBlockTableRecord
  2
*MODEL_SPACE
340
1960
  0
BLOCK_RECORD
  5
15
102
{ACAD_XDICTIONARY
360
18ED
102
}
330
1
100
AcDbSymbolTableRecord
100
AcDbBlockTableRecord
  2
*PAPER_SPACE
340
1961
  0
BLOCK_RECORD
  5
2E
330
1
100
AcDbSymbolTableRecord
100
AcDbBlockTableRecord
  2
_OPEN
340
0
  0
ENDTAB
  0
ENDSEC
  0
SECTION
  2
BLOCKS
  0
BLOCK
  5
19
330
18
100
AcDbEntity
  8
0
100
AcDbBlockBegin
  2
*MODEL_SPACE
 70
     0
 10
0.0
 20
0.0
 30
0.0
  3
*MODEL_SPACE
  1

  0
ENDBLK
  5
1A
330
18
100
AcDbEntity
  8
0
100
AcDbBlockEnd
  0
BLOCK
  5
16
330
15
100
AcDbEntity
 67
     1
  8
0
100
AcDbBlockBegin
  2
*PAPER_SPACE
 70
     0
 10
0.0
 20
0.0
 30
0.0
  3
*PAPER_SPACE
  1

  0
ENDBLK
  5
17
330
15
100
AcDbEntity
 67
     1
  8
0
100
AcDbBlockEnd
  0
BLOCK
  5
2F
330
2E
100
AcDbEntity
  8
0
100
AcDbBlockBegin
  2
_OPEN
 70
     0
 10
0.0
 20
0.0
 30
0.0
  3
_OPEN
  1

  0
LINE
  5
30
330
2E
100
AcDbEntity
  8
0
  6
ByBlock
 62
     0
100
AcDbLine
 10
-1.0
 20
0.1666666666666666
 30
0.0
 11
0.0
 21
0.0
 31
0.0
  0
LINE
  5
31
330
2E
100
AcDbEntity
  8
0
  6
ByBlock
 62
     0
100
AcDbLine
 10
0.0
 20
0.0
 30
0.0
 11
-1.0
 21
-0.1666666666666666
 31
0.0
  0
LINE
  5
32
330
2E
100
AcDbEntity
  8
0
  6
ByBlock
 62
     0
100
AcDbLine
 10
0.0
 20
0.0
 30
0.0
 11
-1.0
 21
0.0
 31
0.0
  0
ENDBLK
  5
33
330
2E
100
AcDbEntity
  8
0
100
AcDbBlockEnd
  0
ENDSEC
  0
SECTION
  2
ENTITIES
  0
TEXT
  5
63
330
18
100
AcDbEntity
  8
4
  6
CENTER
 48
0.25
100
AcDbText
 10
23.97950852663849
 20
10.0
 30
0.0
 40
1.399999999999999
  1
4
100
AcDbText
  0
TEXT
  5
64
330
18
100
AcDbEntity
  8
7
  6
Continuous
 48
0.25
100
AcDbText
 10
9.999997526638502
 20
26.0000007607689
 30
0.0
 40
3.0
  1
CODE No.19259
100
AcDbText
  0
TEXT
  5
65
330
18
100
AcDbEntity
  8
7
  6
Continuous
 48
0.25
100
AcDbText
 10
9.999997526638502
 20
18.00000076076889
 30
0.0
 40
3.0
  1
TYPE No.TCA-320SR-ARB150
100
AcDbText
  0
TEXT
  5
66
330
18
100
AcDbEntity
  8
1
  6
Continuous
 48
0.25
100
AcDbText
 10
9.999997526638502
 20
10.00000076076889
 30
0.0
 40
1.399999999999999
  1
LAYER
100
AcDbText
  0
TEXT
  5
67
330
18
100
AcDbEntity
  8
2
  6
Continuous
 48
0.25
100
AcDbText
 10
19.9795085266385
 20
10.0
 30
0.0
 40
1.399999999999999
  1
2
100
AcDbText
  0
TEXT
  5
68
330
18
100
AcDbEntity
  8
3
  6
DASHED
 48
0.25
100
AcDbText
 10
21.97950852663849
 20
10.0
 30
0.0
 40
1.399999999999999
  1
3
100
AcDbText
  0
TEXT
  5
69
330
18
100
AcDbEntity
  8
1
  6
Continuous
 48
0.25
100
AcDbText
 10
17.9795085266385
 20
10.0
 30
0.0
 40
1.399999999999999
  1
1
100
AcDbText
  0
TEXT
  5
6A
330
18
100
AcDbEntity
  8
5
  6
PHANTOM
 48
0.25
100
AcDbText
 10
25.97950852663849
 20
10.0
 30
0.0
 40
1.399999999999999
  1
5
100
AcDbText
  0
TEXT
  5
6B
330
18
100
AcDbEntity
  8
6
  6
Continuous
 48
0.25
100
AcDbText
 10
27.97950852663849
 20
10.0
 30
0.0
 40
1.399999999999999
  1
6
100
AcDbText
  0
TEXT
  5
6C
330
18
100
AcDbEntity
  8
7
  6
Continuous
 48
0.25
100
AcDbText
 10
29.9795085266385
 20
10.0
 30
0.0
 40
1.399999999999999
  1
7
100
AcDbText
  0
LINE
  5
3D5
330
18
100
AcDbEntity
  8
1
  6
Continuous
100
AcDbLine
 10
25.60912987047231
 20
399.8998492846301
 30
0.0
 11
119.6091298704722
 21
399.8998492846301
 31
0.0
  0
LINE
  5
3D6
330
18
100
AcDbEntity
  8
4
  6
CENTER
 48
0.8
100
AcDbLine
 10
22.10912987047231
 20
288.3998362846302
 30
0.0
 11
113.1091238704722
 21
288.3998362846302
 31
0.0
  0
LINE
  5
3D7
330
18
100
AcDbEntity
  8
1
  6
Continuous
100
AcDbLine
 10
25.60912987047231
 20
403.39985128463
 30
0.0
 11
119.6091298704722
 21
403.39985128463
 31
0.0
  0
ARC
  5
3D8
330
18
100
AcDbEntity
  8
1
  6
Continuous
100
AcDbCircle
 10
-157.1681221295275
 20
283.7058052846302
 30
0.0
 40
203.5
100
AcDbArc
 50
8.592139000000358
 51
19.5086919999998
  0
ARC
  5
3D9
330
18
100
AcDbEntity
  8
1
  6
Continuous
100
AcDbCircle
 10
-157.1681221295275
 20
283.7058052846302
 30
0.0
 40
200.0
100
AcDbArc
 50
8.163783999999902
 51
18.04895199999932
  0
LINE
  5
3DA
330
18
100
AcDbEntity
  8
1
  6
Continuous
100
AcDbLine
 10
44.60912987047231
 20
398.8998492846302
 30
0.0
 11
44.60912987047231
 21
269.3998362846302
 31
0.0
  0
LINE
  5
3DB
330
18
100
AcDbEntity
  8
4
  6
CENTER
 48
0.8
100
AcDbLine
 10
72.60912987047231
 20
408.3998512846301
 30
0.0
 11
72.60912987047231
 21
208.3998362846302
 31
0.0
  0
LINE
  5
3DC
330
18
100
AcDbEntity
  8
1
  6
Continuous
100
AcDbLine
 10
32.3591298704723
 20
299.3694942846301
 30
0.0
 11
36.85912987047231
 21
299.3694942846301
 31
0.0
  0
LINE
  5
3DD
330
18
100
AcDbEntity
  8
1
  6
Continuous
100
AcDbLine
 10
32.3591298704723
 20
293.8846612846302
 30
0.0
 11
36.85912987047231
 21
293.8846612846302
 31
0.0
  0
LINE
  5
3DE
330
18
100
AcDbEntity
  8
1
  6
Continuous
100
AcDbLine
 10
32.3591298704723
 20
277.4301782846301
 30
0.0
 11
36.85912987047231
 21
277.4301782846301
 31
0.0
  0
LINE
  5
3DF
330
18
100
AcDbEntity
  8
1
  6
Continuous
100
AcDbLine
 10
32.3591298704723
 20
282.9150112846302
 30
0.0
 11
36.85912987047231
 21
282.9150112846302
 31
0.0
  0
ARC
  5
3E0
330
18
100
AcDbEntity
  8
1
  6
Continuous
100
AcDbCircle
 10
34.7424608704723
 20
296.6270772846302
 30
0.0
 40
3.633332999999998
100
AcDbArc
 50
130.9927279999998
 51
229.0072679999999
  0
ARC
  5
3E1
330
18
100
AcDbEntity
  8
1
  6
Continuous
100
AcDbCircle
 10
43.76746987047233
 20
288.3998362846302
 30
0.0
 40
12.65833399999999
100
AcDbArc
 50
154.3229740000002
 51
205.6770219999995
  0
LINE
  5
3E2
330
18
100
AcDbEntity
  8
1
  6
Continuous
100
AcDbLine
 10
27.10912987047231
 20
293.6498362846302
 30
0.0
 11
27.10912987047231
 21
283.1498362846302
 31
0.0
  0
LINE
  5
3E3
330
18
100
AcDbEntity
  8
1
  6
Continuous
100
AcDbLine
 10
31.1091298704723
 20
296.6270772846302
 30
0.0
 11
31.1091298704723
 21
280.1725942846301
 31
0.0
  0
LINE
  5
3E4
330
18
100
AcDbEntity
  8
1
  6
Continuous
100
AcDbLine
 10
27.8588638704723
 20
294.3998362846302
 30
0.0
 11
27.8588638704723
 21
282.3998362846302
 31
0.0
  0
LINE
  5
3E5
330
18
100
AcDbEntity
  8
1
  6
Continuous
100
AcDbLine
 10
27.8588638704723
 20
282.3998362846302
 30
0.0
 11
31.1091298704723
 21
282.3998362846302
 31
0.0
  0
LINE
  5
3E7
330
18
100
AcDbEntity
  8
1
  6
Continuous
100
AcDbLine
 10
27.8588638704723
 20
282.3998362846301
 30
0.0
 11
27.10895587047231
 21
283.1497442846302
 31
0.0
  0
ARC
  5
3E8
330
18
100
AcDbEntity
  8
1
  6
Continuous
100
AcDbCircle
 10
34.7424608704723
 20
280.1725942846301
 30
0.0
 40
3.633332999999998
100
AcDbArc
 50
130.9927279999998
 51
229.0072679999999
  0
LINE
  5
3E9
330
18
100
AcDbEntity
  8
1
  6
Continuous
100
AcDbLine
 10
27.8588638704723
 20
294.3998362846302
 30
0.0
 11
31.1091298704723
 21
294.3998362846302
 31
0.0
  0
LINE
  5
3EA
330
18
100
AcDbEntity
  8
2
  6
Continuous
100
AcDbLine
 10
27.10912987047231
 20
293.4528362846302
 30
0.0
 11
31.1091298704723
 21
293.4528362846302
 31
0.0
  0
LINE
  5
3EB
330
18
100
AcDbEntity
  8
1
  6
Continuous
100
AcDbLine
 10
27.8588638704723
 20
294.3998362846302
 30
0.0
 11
27.10895587047231
 21
293.6499282846302
 31
0.0
  0
LINE
  5
3EC
330
18
100
AcDbEntity
  8
1
  6
Continuous
100
AcDbLine
 10
41.10912987047231
 20
307.8463612846301
 30
0.0
 11
41.10912987047231
 21
269.3998362846302
 31
0.0
  0
LINE
  5
3ED
330
18
100
AcDbEntity
  8
1
  6
Continuous
100
AcDbLine
 10
41.10912987047231
 20
269.3998362846302
 30
0.0
 11
44.60912987047231
 21
269.3998362846302
 31
0.0
  0
ARC
  5
3EE
330
18
100
AcDbEntity
  8
1
  6
Continuous
100
AcDbCircle
 10
34.47579887047231
 20
296.6270772846302
 30
0.0
 40
3.633332999999998
100
AcDbArc
 50
310.992734
 51
49.00726600000002
  0
LINE
  5
3EF
330
18
100
AcDbEntity
  8
1
  6
Continuous
100
AcDbLine
 10
38.10912987047231
 20
298.8998362846302
 30
0.0
 11
38.10912987047231
 21
277.8998362846302
 31
0.0
  0
ARC
  5
3F0
330
18
100
AcDbEntity
  8
1
  6
Continuous
100
AcDbCircle
 10
25.45080487047232
 20
288.3998362846302
 30
0.0
 40
12.65833399999999
100
AcDbArc
 50
334.3229730000002
 51
25.67702699999975
  0
LINE
  5
3F1
330
18
100
AcDbEntity
  8
1
  6
Continuous
100
AcDbLine
 10
41.10912987047231
 20
277.8998362846302
 30
0.0
 11
38.10912987047231
 21
277.8998362846302
 31
0.0
  0
ARC
  5
3F2
330
18
100
AcDbEntity
  8
1
  6
Continuous
100
AcDbCircle
 10
34.47579887047231
 20
280.1725942846301
 30
0.0
 40
3.633332999999998
100
AcDbArc
 50
310.992734
 51
49.00726600000002
  0
LINE
  5
3F3
330
18
100
AcDbEntity
  8
1
  6
Continuous
100
AcDbLine
 10
44.60912987047231
 20
279.8998362846302
 30
0.0
 11
45.10912987047231
 21
279.8998362846302
 31
0.0
  0
LINE
  5
3F4
330
18
100
AcDbEntity
  8
1
  6
Continuous
100
AcDbLine
 10
44.60912987047231
 20
296.8998362846302
 30
0.0
 11
45.10912987047231
 21
296.8998362846302
 31
0.0
  0
ARC
  5
3F5
330
18
100
AcDbEntity
  8
1
  6
Continuous
100
AcDbCircle
 10
11.1091298704723
 20
307.8463612846301
 30
0.0
 40
30.0
100
AcDbArc
 50
0.0
 51
8.163783999999902
  0
LINE
  5
3F6
330
18
100
AcDbEntity
  8
1
  6
Continuous
100
AcDbLine
 10
41.10912987047231
 20
298.8998362846302
 30
0.0
 11
38.10912987047231
 21
298.8998362846302
 31
0.0
  0
ARC
  5
3F7
330
18
100
AcDbEntity
  8
1
  6
Continuous
100
AcDbCircle
 10
-5.390870129527683
 20
306.6386592846301
 30
0.0
 40
50.0
100
AcDbArc
 50
0.0
 51
8.592139000000358
  0
ARC
  5
3F8
330
18
100
AcDbEntity
  8
1
  6
Continuous
100
AcDbCircle
 10
125.6091298704723
 20
383.8907642846302
 30
0.0
 40
96.5
100
AcDbArc
 50
179.999978
 51
199.5086919999998
  0
ARC
  5
3F9
330
18
100
AcDbEntity
  8
1
  6
Continuous
100
AcDbCircle
 10
175.6091298704721
 20
392.1461132846301
 30
0.0
 40
150.0
100
AcDbArc
 50
179.999978
 51
198.048956999999
  0
ARC
  5
3FA
330
18
100
AcDbEntity
  8
1
  6
Continuous
100
AcDbCircle
 10
23.10912987047231
 20
394.4454932846302
 30
0.0
 40
6.0
100
AcDbArc
 50
0.0
 51
65.37568200000028
  0
LINE
  5
3FB
330
18
100
AcDbEntity
  8
1
  6
Continuous
100
AcDbLine
 10
29.10912987047231
 20
398.8998492846302
 30
0.0
 11
29.10912987047231
 21
383.8907642846302
 31
0.0
  0
LINE
  5
3FC
330
18
100
AcDbEntity
  8
1
  6
Continuous
100
AcDbLine
 10
25.60912987047231
 20
403.39985128463
 30
0.0
 11
25.60912987047231
 21
392.1461132846301
 31
0.0
  0
ARC
  5
3FD
330
18
100
AcDbEntity
  8
1
  6
Continuous
100
AcDbCircle
 10
30.1091298704723
 20
398.8998492846302
 30
0.0
 40
1.0
100
AcDbArc
 50
89.99998199999998
 51
179.9999639999999
  0
LINE
  5
3FE
330
18
100
AcDbEntity
  8
1
  6
Continuous
100
AcDbLine
 10
52.60912987047231
 20
397.8998492846301
 30
0.0
 11
92.60912987047232
 21
397.8998492846301
 31
0.0
  0
ARC
  5
3FF
330
18
100
AcDbEntity
  8
1
  6
Continuous
100
AcDbCircle
 10
45.60912987047231
 20
398.8998492846302
 30
0.0
 40
1.0
100
AcDbArc
 50
89.99998199999998
 51
179.9999639999999
  0
ARC
  5
400
330
18
100
AcDbEntity
  8
1
  6
Continuous
100
AcDbCircle
 10
52.60912987047231
 20
399.8998492846301
 30
0.0
 40
2.0
100
AcDbArc
 50
179.9999809999993
 51
270.0000179999999
  0
ARC
  5
401
330
18
100
AcDbEntity
  8
1
  6
Continuous
100
AcDbCircle
 10
62.60912987047231
 20
399.8998492846301
 30
0.0
 40
2.0
100
AcDbArc
 50
179.9999809999993
 51
270.0000179999999
  0
ARC
  5
403
330
18
100
AcDbEntity
  8
1
  6
Continuous
100
AcDbCircle
 10
82.60912987047232
 20
399.8998492846301
 30
0.0
 40
2.0
100
AcDbArc
 50
269.9999629999997
 51
0.0
  0
ARC
  5
404
330
18
100
AcDbEntity
  8
1
  6
Continuous
100
AcDbCircle
 10
92.60912987047232
 20
399.8998492846301
 30
0.0
 40
2.0
100
AcDbArc
 50
269.9999629999997
 51
0.0
  0
ARC
  5
405
330
18
100
AcDbEntity
  8
1
  6
Continuous
100
AcDbCircle
 10
302.3863818704723
 20
283.7058052846302
 30
0.0
 40
200.0
100
AcDbArc
 50
161.9510530000003
 51
171.8362210000005
  0
ARC
  5
406
330
18
100
AcDbEntity
  8
1
  6
Continuous
100
AcDbCircle
 10
302.3863818704723
 20
283.7058052846302
 30
0.0
 40
203.5
100
AcDbArc
 50
160.491304999999
 51
171.4078590000003
  0
LINE
  5
407
330
18
100
AcDbEntity
  8
1
  6
Continuous
100
AcDbLine
 10
100.6091298704723
 20
398.8998492846302
 30
0.0
 11
100.6091298704723
 21
269.3998362846302
 31
0.0
  0
LINE
  5
408
330
18
100
AcDbEntity
  8
1
  6
Continuous
100
AcDbLine
 10
104.1091298704722
 20
307.8463612846301
 30
0.0
 11
104.1091298704722
 21
269.3998362846302
 31
0.0
  0
LINE
  5
409
330
18
100
AcDbEntity
  8
1
  6
Continuous
100
AcDbLine
 10
104.1091298704722
 20
269.3998362846302
 30
0.0
 11
100.6091298704723
 21
269.3998362846302
 31
0.0
  0
ARC
  5
40A
330
18
100
AcDbEntity
  8
1
  6
Continuous
100
AcDbCircle
 10
84.5674578704723
 20
288.3998362846302
 30
0.0
 40
23.541666
100
AcDbArc
 50
330.7582050000001
 51
29.24172000000032
  0
LINE
  5
40B
330
18
100
AcDbEntity
  8
1
  6
Continuous
100
AcDbLine
 10
105.1091298704722
 20
299.8998362846302
 30
0.0
 11
105.1091298704722
 21
276.8998362846302
 31
0.0
  0
LINE
  5
40C
330
18
100
AcDbEntity
  8
1
  6
Continuous
100
AcDbLine
 10
100.1091298704723
 20
279.8998362846302
 30
0.0
 11
100.6091298704723
 21
279.8998362846302
 31
0.0
  0
LINE
  5
40D
330
18
100
AcDbEntity
  8
1
  6
Continuous
100
AcDbLine
 10
104.1091298704722
 20
276.8998362846302
 30
0.0
 11
105.1091298704722
 21
276.8998362846302
 31
0.0
  0
LINE
  5
40E
330
18
100
AcDbEntity
  8
1
  6
Continuous
100
AcDbLine
 10
100.1091298704723
 20
296.8998362846302
 30
0.0
 11
100.6091298704723
 21
296.8998362846302
 31
0.0
  0
ARC
  5
40F
330
18
100
AcDbEntity
  8
1
  6
Continuous
100
AcDbCircle
 10
134.1091298704722
 20
307.8463612846301
 30
0.0
 40
30.0
100
AcDbArc
 50
171.8362210000005
 51
180.0000050000005
  0
ARC
  5
410
330
18
100
AcDbEntity
  8
1
  6
Continuous
100
AcDbCircle
 10
150.6091298704723
 20
306.6386592846301
 30
0.0
 40
50.0
100
AcDbArc
 50
171.4078590000003
 51
180.0000050000005
  0
LINE
  5
411
330
18
100
AcDbEntity
  8
1
  6
Continuous
100
AcDbLine
 10
104.1091298704722
 20
299.8998362846302
 30
0.0
 11
105.1091298704722
 21
299.8998362846302
 31
0.0
  0
ARC
  5
412
330
18
100
AcDbEntity
  8
1
  6
Continuous
100
AcDbCircle
 10
-30.39087012952768
 20
392.1461132846301
 30
0.0
 40
150.0
100
AcDbArc
 50
341.9510480000007
 51
0.0000219999999343
  0
ARC
  5
413
330
18
100
AcDbEntity
  8
1
  6
Continuous
100
AcDbCircle
 10
19.60912987047231
 20
383.8907642846302
 30
0.0
 40
96.5
100
AcDbArc
 50
340.4913080000001
 51
0.0000219999999343
  0
ARC
  5
414
330
18
100
AcDbEntity
  8
1
  6
Continuous
100
AcDbCircle
 10
99.60912987047231
 20
398.8998492846302
 30
0.0
 40
1.0
100
AcDbArc
 50
0.0000360000000406
 51
90.00001600000006
  0
ARC
  5
415
330
18
100
AcDbEntity
  8
1
  6
Continuous
100
AcDbCircle
 10
122.1091298704723
 20
394.4454932846302
 30
0.0
 40
6.0
100
AcDbArc
 50
114.6242889999999
 51
179.9999639999999
  0
LINE
  5
416
330
18
100
AcDbEntity
  8
1
  6
Continuous
100
AcDbLine
 10
116.1091298704723
 20
398.8998492846302
 30
0.0
 11
116.1091298704723
 21
383.8907642846302
 31
0.0
  0
LINE
  5
417
330
18
100
AcDbEntity
  8
1
  6
Continuous
100
AcDbLine
 10
119.6091298704722
 20
403.39985128463
 30
0.0
 11
119.6091298704722
 21
392.1461132846301
 31
0.0
  0
ARC
  5
418
330
18
100
AcDbEntity
  8
1
  6
Continuous
100
AcDbCircle
 10
115.1091298704723
 20
398.8998492846302
 30
0.0
 40
1.0
100
AcDbArc
 50
0.0
 51
89.99998199999998
  0
ARC
  5
41B
330
18
100
AcDbEntity
  8
1
  6
Continuous
100
AcDbCircle
 10
309.3960720464863
 20
516.9331762846302
 30
0.0
 40
3.0
100
AcDbArc
 50
270.0000179999999
 51
328.4119729999994
  0
ARC
  5
41C
330
18
100
AcDbEntity
  8
1
  6
Continuous
100
AcDbCircle
 10
255.1731640464864
 20
516.9331762846302
 30
0.0
 40
3.0
100
AcDbArc
 50
211.5880079999993
 51
269.9999629999997
  0
LINE
  5
41D
330
18
100
AcDbEntity
  8
1
  6
Continuous
100
AcDbLine
 10
352.2846140464863
 20
498.9331762846301
 30
0.0
 11
352.2846140464863
 21
568.9331762846302
 31
0.0
  0
LINE
  5
41E
330
18
100
AcDbEntity
  8
1
  6
Continuous
100
AcDbLine
 10
212.2846180464863
 20
498.9331762846301
 30
0.0
 11
212.2846180464863
 21
568.9331762846302
 31
0.0
  0
LINE
  5
422
330
18
100
AcDbEntity
  8
1
  6
Continuous
100
AcDbLine
 10
255.1731640464861
 20
513.9331762846302
 30
0.0
 11
309.3960720464862
 21
513.9331762846302
 31
0.0
  0
LINE
  5
423
330
18
100
AcDbEntity
  8
1
  6
Continuous
100
AcDbLine
 10
352.2846140464863
 20
403.39985128463
 30
0.0
 11
212.2846180464863
 21
403.39985128463
 31
0.0
  0
ARC
  5
425
330
18
100
AcDbEntity
  8
1
  6
Continuous
100
AcDbCircle
 10
282.2846180464864
 20
288.3998512846302
 30
0.0
 40
19.0
100
AcDbArc
 50
269.9999629999997
 51
343.6876229999993
  0
CIRCLE
  5
426
330
18
100
AcDbEntity
  8
1
  6
Continuous
100
AcDbCircle
 10
282.2846180464864
 20
288.3998512846302
 30
0.0
 40
11.49997699999999
  0
LINE
  5
428
330
18
100
AcDbEntity
  8
1
  6
Continuous
100
AcDbLine
 10
234.1821600464863
 20
385.1196402846301
 30
0.0
 11
264.0494690464862
 21
283.0632452846302
 31
0.0
  0
ARC
  5
429
330
18
100
AcDbEntity
  8
1
  6
Continuous
100
AcDbCircle
 10
-90.70201895351365
 20
255.1202182846302
 30
0.0
 40
350.0
100
AcDbArc
 50
10.69519899999942
 51
21.80835700000038
  0
ARC
  5
42A
330
18
100
AcDbEntity
  8
1
  6
Continuous
100
AcDbCircle
 10
282.2846180464864
 20
288.3998512846302
 30
0.0
 40
19.0
100
AcDbArc
 50
196.3123579999999
 51
270.0000179999999
  0
ARC
  5
42B
330
18
100
AcDbEntity
  8
1
  6
Continuous
100
AcDbCircle
 10
226.2846180464863
 20
507.4331762846301
 30
0.0
 40
5.5
100
AcDbArc
 50
75.96366999999997
 51
255.9636339999999
  0
ARC
  5
42C
330
18
100
AcDbEntity
  8
1
  6
Continuous
100
AcDbCircle
 10
224.2846180464863
 20
498.9331762846301
 30
0.0
 40
12.0
100
AcDbArc
 50
179.9999809999993
 51
269.9999629999997
  0
LINE
  5
42E
330
18
100
AcDbEntity
  8
1
  6
Continuous
100
AcDbLine
 10
212.2846180464863
 20
399.8998512846302
 30
0.0
 11
224.2846410464863
 21
399.8998512846302
 31
0.0
  0
ARC
  5
42F
330
18
100
AcDbEntity
  8
1
  6
Continuous
100
AcDbCircle
 10
220.7846410464863
 20
399.8998512846302
 30
0.0
 40
3.5
100
AcDbArc
 50
0.0
 51
89.99998199999998
  0
LINE
  5
430
330
18
100
AcDbEntity
  8
1
  6
Continuous
100
AcDbLine
 10
212.2846180464863
 20
403.3998682846301
 30
0.0
 11
212.2846180464863
 21
399.8998512846302
 31
0.0
  0
LINE
  5
431
330
18
100
AcDbEntity
  8
1
  6
Continuous
100
AcDbLine
 10
253.2179520464864
 20
325.9331842846302
 30
0.0
 11
253.2179520464864
 21
396.3331842846301
 31
0.0
  0
ARC
  5
432
330
18
100
AcDbEntity
  8
1
  6
Continuous
100
AcDbCircle
 10
228.2846410464864
 20
397.8998512846302
 30
0.0
 40
4.0
100
AcDbArc
 50
179.9999809999993
 51
243.4295709999998
  0
ARC
  5
433
330
18
100
AcDbEntity
  8
1
  6
Continuous
100
AcDbCircle
 10
219.7859900464863
 20
380.9065312846302
 30
0.0
 40
15.0
100
AcDbArc
 50
16.31237300000077
 51
63.42957600000036
  0
LINE
  5
434
330
18
100
AcDbEntity
  8
1
  6
Continuous
100
AcDbLine
 10
224.2846410464863
 20
397.8998512846302
 30
0.0
 11
224.2846410464863
 21
399.8998512846302
 31
0.0
  0
LINE
  5
437
330
18
100
AcDbEntity
  8
1
  6
Continuous
100
AcDbLine
 10
224.2846180464863
 20
486.9331762846301
 30
0.0
 11
230.2846180464863
 21
486.9331762846301
 31
0.0
  0
ARC
  5
438
330
18
100
AcDbEntity
  8
1
  6
Continuous
100
AcDbCircle
 10
232.2846180464863
 20
505.9331762846301
 30
0.0
 40
5.5
100
AcDbArc
 50
255.963665
 51
75.96366999999954
  0
LINE
  5
43A
330
18
100
AcDbEntity
  8
1
  6
Continuous
100
AcDbLine
 10
227.6185670464863
 20
512.7689602846301
 30
0.0
 11
233.6185680464863
 21
511.2689602846302
 31
0.0
  0
LINE
  5
43B
330
18
100
AcDbEntity
  8
1
  6
Continuous
100
AcDbLine
 10
224.9506770464862
 20
502.0973922846303
 30
0.0
 11
230.9506760464862
 21
500.5973932846301
 31
0.0
  0
LINE
  5
440
330
18
100
AcDbEntity
  8
1
  6
Continuous
100
AcDbLine
 10
330.3870780464861
 20
385.1196372846302
 30
0.0
 11
300.5197650464862
 21
283.0632292846302
 31
0.0
  0
ARC
  5
441
330
18
100
AcDbEntity
  8
1
  6
Continuous
100
AcDbCircle
 10
655.2712470464863
 20
255.1202182846302
 30
0.0
 40
350.0
100
AcDbArc
 50
158.1916070000003
 51
169.3047620000005
  0
ARC
  5
442
330
18
100
AcDbEntity
  8
1
  6
Continuous
100
AcDbCircle
 10
340.2846140464863
 20
498.9331762846301
 30
0.0
 40
12.0
100
AcDbArc
 50
269.9999629999997
 51
359.9999449999992
  0
LINE
  5
443
330
18
100
AcDbEntity
  8
1
  6
Continuous
100
AcDbLine
 10
352.2846140464861
 20
399.8998512846302
 30
0.0
 11
340.2845990464862
 21
399.8998512846302
 31
0.0
  0
LINE
  5
444
330
18
100
AcDbEntity
  8
1
  6
Continuous
100
AcDbLine
 10
311.3512800464862
 20
325.9331842846302
 30
0.0
 11
311.3512800464862
 21
396.3331842846301
 31
0.0
  0
ARC
  5
445
330
18
100
AcDbEntity
  8
1
  6
Continuous
100
AcDbCircle
 10
344.7832410464862
 20
380.9065312846302
 30
0.0
 40
15.0
100
AcDbArc
 50
116.5703880000002
 51
163.6875869999993
  0
ARC
  5
446
330
18
100
AcDbEntity
  8
1
  6
Continuous
100
AcDbCircle
 10
336.2845990464863
 20
397.8998512846302
 30
0.0
 40
4.0
100
AcDbArc
 50
296.57041
 51
0.0
  0
ARC
  5
447
330
18
100
AcDbEntity
  8
1
  6
Continuous
100
AcDbCircle
 10
343.7845990464862
 20
399.8998512846302
 30
0.0
 40
3.5
100
AcDbArc
 50
89.99998199999998
 51
179.9999639999999
  0
LINE
  5
448
330
18
100
AcDbEntity
  8
1
  6
Continuous
100
AcDbLine
 10
340.2845990464864
 20
397.8998512846302
 30
0.0
 11
340.2845990464864
 21
399.8998512846302
 31
0.0
  0
ARC
  5
44B
330
18
100
AcDbEntity
  8
1
  6
Continuous
100
AcDbCircle
 10
332.2846140464863
 20
505.9331762846301
 30
0.0
 40
5.5
100
AcDbArc
 50
104.0362389999998
 51
284.036258
  0
LINE
  5
44D
330
18
100
AcDbEntity
  8
1
  6
Continuous
100
AcDbLine
 10
336.9506800464863
 20
512.7689442846302
 30
0.0
 11
330.9506920464863
 21
511.2689472846303
 31
0.0
  0
LINE
  5
44E
330
18
100
AcDbEntity
  8
1
  6
Continuous
100
AcDbLine
 10
339.6185720464862
 20
502.0973772846302
 30
0.0
 11
333.6185830464863
 21
500.5973792846303
 31
0.0
  0
LINE
  5
450
330
18
100
AcDbEntity
  8
1
  6
Continuous
100
AcDbLine
 10
340.2846140464863
 20
486.9331762846301
 30
0.0
 11
334.2846140464863
 21
486.9331762846301
 31
0.0
  0
ARC
  5
451
330
18
100
AcDbEntity
  8
1
  6
Continuous
100
AcDbCircle
 10
338.2846140464863
 20
507.4331762846301
 30
0.0
 40
5.5
100
AcDbArc
 50
284.0362619999997
 51
104.036239
  0
LINE
  5
454
330
18
100
AcDbEntity
  8
1
  6
Continuous
100
AcDbLine
 10
352.2846140464863
 20
403.3998682846301
 30
0.0
 11
352.2846140464863
 21
399.8998512846302
 31
0.0
  0
LINE
  5
456
330
18
100
AcDbEntity
  8
1
  6
Continuous
100
AcDbLine
 10
255.1731640464861
 20
553.9331762846301
 30
0.0
 11
309.3960720464862
 21
553.9331762846301
 31
0.0
  0
ARC
  5
458
330
18
100
AcDbEntity
  8
1
  6
Continuous
100
AcDbCircle
 10
226.2846180464863
 20
560.4331762846302
 30
0.0
 40
5.5
100
AcDbArc
 50
104.03628
 51
284.036258
  0
ARC
  5
459
330
18
100
AcDbEntity
  8
1
  6
Continuous
100
AcDbCircle
 10
224.2846180464863
 20
568.9331762846302
 30
0.0
 40
12.0
100
AcDbArc
 50
89.99998199999998
 51
179.9999639999999
  0
ARC
  5
45C
330
18
100
AcDbEntity
  8
1
  6
Continuous
100
AcDbCircle
 10
255.1731640464864
 20
550.9331762846302
 30
0.0
 40
3.0
100
AcDbArc
 50
89.99998199999998
 51
148.4119369999993
  0
ARC
  5
45D
330
18
100
AcDbEntity
  8
1
  6
Continuous
100
AcDbCircle
 10
232.2846180464863
 20
561.9331762846302
 30
0.0
 40
5.5
100
AcDbArc
 50
284.036275
 51
104.0362800000004
  0
ARC
  5
460
330
18
100
AcDbEntity
  8
1
  6
Continuous
100
AcDbCircle
 10
237.2846180464863
 20
505.9331762846301
 30
0.0
 40
18.0
100
AcDbArc
 50
31.58809499999971
 51
89.99992700000012
  0
ARC
  5
461
330
18
100
AcDbEntity
  8
1
  6
Continuous
100
AcDbCircle
 10
237.2846180464863
 20
561.9331762846302
 30
0.0
 40
18.0
100
AcDbArc
 50
270.0000179999999
 51
328.4118499999992
  0
ARC
  5
462
330
18
100
AcDbEntity
  8
1
  6
Continuous
100
AcDbCircle
 10
233.2846180464863
 20
533.9331762846302
 30
0.0
 40
10.0
100
AcDbArc
 50
89.99998199999998
 51
270.0000009999997
  0
LINE
  5
463
330
18
100
AcDbEntity
  8
1
  6
Continuous
100
AcDbLine
 10
237.2846180464863
 20
523.9331762846302
 30
0.0
 11
233.2846180464863
 21
523.9331762846302
 31
0.0
  0
LINE
  5
465
330
18
100
AcDbEntity
  8
1
  6
Continuous
100
AcDbLine
 10
227.6185670464863
 20
555.0973902846302
 30
0.0
 11
233.6185670464864
 21
556.5973902846302
 31
0.0
  0
LINE
  5
467
330
18
100
AcDbEntity
  8
1
  6
Continuous
100
AcDbLine
 10
237.2846180464863
 20
543.9331762846302
 30
0.0
 11
233.2846180464863
 21
543.9331762846302
 31
0.0
  0
LINE
  5
469
330
18
100
AcDbEntity
  8
1
  6
Continuous
100
AcDbLine
 10
224.9506750464863
 20
565.7689582846302
 30
0.0
 11
230.9506750464862
 21
567.2689572846302
 31
0.0
  0
LINE
  5
46A
330
18
100
AcDbEntity
  8
1
  6
Continuous
100
AcDbLine
 10
224.2846180464863
 20
580.9331762846302
 30
0.0
 11
230.2846180464863
 21
580.9331762846302
 31
0.0
  0
ARC
  5
46C
330
18
100
AcDbEntity
  8
1
  6
Continuous
100
AcDbCircle
 10
340.2846140464863
 20
568.9331762846302
 30
0.0
 40
12.0
100
AcDbArc
 50
0.0
 51
89.99998199999998
  0
ARC
  5
46E
330
18
100
AcDbEntity
  8
1
  6
Continuous
100
AcDbCircle
 10
327.2846140464863
 20
505.9331762846301
 30
0.0
 40
18.0
100
AcDbArc
 50
90.00003699999981
 51
148.4118690000005
  0
ARC
  5
46F
330
18
100
AcDbEntity
  8
1
  6
Continuous
100
AcDbCircle
 10
327.2846140464863
 20
561.9331762846302
 30
0.0
 40
18.0
100
AcDbArc
 50
211.5881309999993
 51
269.9999629999997
  0
ARC
  5
471
330
18
100
AcDbEntity
  8
1
  6
Continuous
100
AcDbCircle
 10
309.3960720464863
 20
550.9331762846302
 30
0.0
 40
3.0
100
AcDbArc
 50
31.58802700000048
 51
89.99998199999998
  0
ARC
  5
472
330
18
100
AcDbEntity
  8
1
  6
Continuous
100
AcDbCircle
 10
332.2846140464863
 20
561.9331762846302
 30
0.0
 40
5.5
100
AcDbArc
 50
75.96368400000037
 51
255.9636889999998
  0
ARC
  5
473
330
18
100
AcDbEntity
  8
1
  6
Continuous
100
AcDbCircle
 10
338.2846140464863
 20
560.4331762846302
 30
0.0
 40
5.5
100
AcDbArc
 50
255.9637059999999
 51
75.96368400000037
  0
ARC
  5
476
330
18
100
AcDbEntity
  8
1
  6
Continuous
100
AcDbCircle
 10
331.2846140464863
 20
533.9331762846302
 30
0.0
 40
10.0
100
AcDbArc
 50
269.9999629999997
 51
89.99998199999998
  0
LINE
  5
478
330
18
100
AcDbEntity
  8
1
  6
Continuous
100
AcDbLine
 10
336.9506690464863
 20
555.0974012846302
 30
0.0
 11
330.9506730464863
 21
556.5974002846302
 31
0.0
  0
LINE
  5
479
330
18
100
AcDbEntity
  8
1
  6
Continuous
100
AcDbLine
 10
327.2846140464863
 20
523.9331762846302
 30
0.0
 11
331.2846140464863
 21
523.9331762846302
 31
0.0
  0
LINE
  5
47A
330
18
100
AcDbEntity
  8
1
  6
Continuous
100
AcDbLine
 10
327.2846140464863
 20
543.9331762846302
 30
0.0
 11
331.2846140464863
 21
543.9331762846302
 31
0.0
  0
LINE
  5
47C
330
18
100
AcDbEntity
  8
1
  6
Continuous
100
AcDbLine
 10
339.6185610464864
 20
565.7689692846303
 30
0.0
 11
333.6185650464863
 21
567.2689682846303
 31
0.0
  0
LINE
  5
47D
330
18
100
AcDbEntity
  8
1
  6
Continuous
100
AcDbLine
 10
340.2846140464863
 20
580.9331762846302
 30
0.0
 11
334.2846140464863
 21
580.9331762846302
 31
0.0
  0
LINE
  5
485
330
18
100
AcDbEntity
  8
4
  6
CENTER
 48
0.8
100
AcDbLine
 10
202.2846180464862
 20
288.3998512846302
 30
0.0
 11
362.2846180464863
 21
288.3998512846302
 31
0.0
  0
LINE
  5
486
330
18
100
AcDbEntity
  8
4
  6
CENTER
 48
0.8
100
AcDbLine
 10
282.2846180464864
 20
408.3998512846301
 30
0.0
 11
282.2846180464864
 21
208.3998512846302
 31
0.0
  0
ARC
  5
487
330
18
100
AcDbEntity
  8
1
  6
Continuous
100
AcDbCircle
 10
282.2846180464864
 20
288.3998512846302
 30
0.0
 40
75.0
100
AcDbArc
 50
120.9872260631944
 51
59.01277180262478
  0
ARC
  5
489
330
18
100
AcDbEntity
  8
1
  6
Continuous
100
AcDbCircle
 10
309.3955010464862
 20
281.3998512846302
 30
0.0
 40
5.0
100
AcDbArc
 50
90.0
 51
165.5224879999986
  0
LINE
  5
48A
330
18
100
AcDbEntity
  8
1
  6
Continuous
100
AcDbLine
 10
309.3955010464862
 20
286.3998512846301
 30
0.0
 11
321.5471680464863
 21
286.3998512846301
 31
0.0
  0
ARC
  5
48B
330
18
100
AcDbEntity
  8
1
  6
Continuous
100
AcDbCircle
 10
321.5471680464863
 20
277.3998512846302
 30
0.0
 40
9.0
100
AcDbArc
 50
353.2507169999992
 51
90.0
  0
ARC
  5
48C
330
18
100
AcDbEntity
  8
1
  6
Continuous
100
AcDbCircle
 10
285.7966500464863
 20
281.6307502846303
 30
0.0
 40
45.0
100
AcDbArc
 50
341.8476380000008
 51
353.2507169999992
  0
ARC
  5
48D
330
18
100
AcDbEntity
  8
1
  6
Continuous
100
AcDbCircle
 10
301.9022380464863
 20
268.4211372846302
 30
0.0
 40
5.0
100
AcDbArc
 50
134.4775120000003
 51
209.9999999999999
  0
ARC
  5
48E
330
18
100
AcDbEntity
  8
1
  6
Continuous
100
AcDbCircle
 10
311.4421720464863
 20
259.8974862846302
 30
0.0
 40
9.0
100
AcDbArc
 50
209.9999999999999
 51
306.7492829999998
  0
ARC
  5
490
330
18
100
AcDbEntity
  8
1
  6
Continuous
100
AcDbCircle
 10
282.2846180464864
 20
288.3998512846302
 30
0.0
 40
23.0
100
AcDbArc
 50
314.4775120000003
 51
345.5224879999986
  0
LINE
  5
491
330
18
100
AcDbEntity
  8
1
  6
Continuous
100
AcDbLine
 10
297.5721100464864
 20
265.9211372846302
 30
0.0
 11
303.6479440464863
 21
255.3974862846302
 31
0.0
  0
ARC
  5
492
330
18
100
AcDbEntity
  8
1
  6
Continuous
100
AcDbCircle
 10
304.8012780464863
 20
275.3998512846302
 30
0.0
 40
25.0
100
AcDbArc
 50
318.152362000001
 51
341.8476380000008
  0
ARC
  5
493
330
18
100
AcDbEntity
  8
1
  6
Continuous
100
AcDbCircle
 10
289.9028470464863
 20
288.7428922846302
 30
0.0
 40
45.0
100
AcDbArc
 50
306.7492829999998
 51
318.152362000001
  0
ARC
  5
494
330
18
100
AcDbEntity
  8
1
  6
Continuous
100
AcDbCircle
 10
289.7778820464862
 20
261.4211372846302
 30
0.0
 40
5.0
100
AcDbArc
 50
29.99999999999999
 51
105.5224879999997
  0
LINE
  5
495
330
18
100
AcDbEntity
  8
1
  6
Continuous
100
AcDbLine
 10
294.1080090464861
 20
263.9211372846302
 30
0.0
 11
300.1838420464864
 21
253.3974862846302
 31
0.0
  0
ARC
  5
496
330
18
100
AcDbEntity
  8
1
  6
Continuous
100
AcDbCircle
 10
292.3896130464863
 20
248.8974862846301
 30
0.0
 40
9.0
100
AcDbArc
 50
293.2507169999995
 51
29.99999999999999
  0
ARC
  5
497
330
18
100
AcDbEntity
  8
1
  6
Continuous
100
AcDbCircle
 10
278.1784210464863
 20
281.9737912846301
 30
0.0
 40
45.0
100
AcDbArc
 50
281.8476379999998
 51
293.2507169999995
  0
ARC
  5
498
330
18
100
AcDbEntity
  8
1
  6
Continuous
100
AcDbCircle
 10
274.7913540464864
 20
261.4211372846302
 30
0.0
 40
5.0
100
AcDbArc
 50
74.47751200000019
 51
150.0
  0
ARC
  5
499
330
18
100
AcDbEntity
  8
1
  6
Continuous
100
AcDbCircle
 10
272.1796230464863
 20
248.8974862846301
 30
0.0
 40
9.0
100
AcDbArc
 50
150.0
 51
246.7492830000004
  0
ARC
  5
49A
330
18
100
AcDbEntity
  8
1
  6
Continuous
100
AcDbCircle
 10
282.2846180464864
 20
288.3998512846302
 30
0.0
 40
23.0
100
AcDbArc
 50
254.477512
 51
285.5224879999998
  0
LINE
  5
49B
330
18
100
AcDbEntity
  8
1
  6
Continuous
100
AcDbLine
 10
270.4612270464863
 20
263.9211372846302
 30
0.0
 11
264.3853940464863
 21
253.3974862846302
 31
0.0
  0
ARC
  5
49C
330
18
100
AcDbEntity
  8
1
  6
Continuous
100
AcDbCircle
 10
282.2846180464864
 20
262.3998512846302
 30
0.0
 40
25.0
100
AcDbArc
 50
258.1523620000002
 51
281.8476379999998
  0
ARC
  5
49D
330
18
100
AcDbEntity
  8
1
  6
Continuous
100
AcDbCircle
 10
286.3908150464863
 20
281.9737912846301
 30
0.0
 40
45.0
100
AcDbArc
 50
246.7492830000004
 51
258.1523620000002
  0
ARC
  5
49E
330
18
100
AcDbEntity
  8
1
  6
Continuous
100
AcDbCircle
 10
262.6669980464863
 20
268.4211372846302
 30
0.0
 40
5.0
100
AcDbArc
 50
330.0
 51
45.52248799999961
  0
LINE
  5
49F
330
18
100
AcDbEntity
  8
1
  6
Continuous
100
AcDbLine
 10
266.9971260464864
 20
265.9211372846302
 30
0.0
 11
260.9212920464863
 21
255.3974862846302
 31
0.0
  0
ARC
  5
4A0
330
18
100
AcDbEntity
  8
1
  6
Continuous
100
AcDbCircle
 10
253.1270640464863
 20
259.8974862846302
 30
0.0
 40
9.0
100
AcDbArc
 50
233.250717
 51
330.0
  0
ARC
  5
4A1
330
18
100
AcDbEntity
  8
1
  6
Continuous
100
AcDbCircle
 10
274.6663890464863
 20
288.7428922846302
 30
0.0
 40
45.0
100
AcDbArc
 50
221.847637999999
 51
233.250717
  0
ARC
  5
4A2
330
18
100
AcDbEntity
  8
1
  6
Continuous
100
AcDbCircle
 10
255.1737350464863
 20
281.3998512846302
 30
0.0
 40
5.0
100
AcDbArc
 50
14.47751200000134
 51
90.0
  0
ARC
  5
4A3
330
18
100
AcDbEntity
  8
1
  6
Continuous
100
AcDbCircle
 10
243.0220680464862
 20
277.3998512846302
 30
0.0
 40
9.0
100
AcDbArc
 50
90.0
 51
186.7492830000009
  0
ARC
  5
4A5
330
18
100
AcDbEntity
  8
1
  6
Continuous
100
AcDbCircle
 10
282.2846180464864
 20
288.3998512846302
 30
0.0
 40
23.0
100
AcDbArc
 50
194.4775120000013
 51
225.5224879999996
  0
LINE
  5
4A6
330
18
100
AcDbEntity
  8
1
  6
Continuous
100
AcDbLine
 10
255.1737350464863
 20
286.3998512846301
 30
0.0
 11
243.0220680464862
 21
286.3998512846301
 31
0.0
  0
ARC
  5
4A7
330
18
100
AcDbEntity
  8
1
  6
Continuous
100
AcDbCircle
 10
259.7679570464864
 20
275.3998512846302
 30
0.0
 40
25.0
100
AcDbArc
 50
198.152361999999
 51
221.847637999999
  0
ARC
  5
4A8
330
18
100
AcDbEntity
  8
1
  6
Continuous
100
AcDbCircle
 10
278.7725860464863
 20
281.6307502846303
 30
0.0
 40
45.0
100
AcDbArc
 50
186.7492830000009
 51
198.152361999999
  0
ARC
  5
4AA
330
18
100
AcDbEntity
  8
1
  6
Continuous
100
AcDbCircle
 10
243.0220680464862
 20
299.3998512846301
 30
0.0
 40
9.0
100
AcDbArc
 50
173.250716999999
 51
270.0
  0
LINE
  5
4AB
330
18
100
AcDbEntity
  8
1
  6
Continuous
100
AcDbLine
 10
255.1737350464863
 20
290.3998512846301
 30
0.0
 11
243.0220680464862
 21
290.3998512846301
 31
0.0
  0
ARC
  5
4AC
330
18
100
AcDbEntity
  8
1
  6
Continuous
100
AcDbCircle
 10
255.1737350464863
 20
295.3998512846301
 30
0.0
 40
5.0
100
AcDbArc
 50
270.0
 51
345.5224879999986
  0
ARC
  5
4AD
330
18
100
AcDbEntity
  8
1
  6
Continuous
100
AcDbCircle
 10
282.2846180464864
 20
288.3998512846302
 30
0.0
 40
23.0
100
AcDbArc
 50
162.0112257278016
 51
165.5224879999986
  0
ARC
  5
4AE
330
18
100
AcDbEntity
  8
1
  6
Continuous
100
AcDbCircle
 10
253.1270640464863
 20
316.9022162846301
 30
0.0
 40
9.0
100
AcDbArc
 50
100.0724302026419
 51
126.7492829999999
  0
ARC
  5
4AF
330
18
100
AcDbEntity
  8
1
  6
Continuous
100
AcDbCircle
 10
259.7679580464864
 20
301.3998512846301
 30
0.0
 40
25.0
100
AcDbArc
 50
138.152362000001
 51
161.8476380000008
  0
ARC
  5
4B0
330
18
100
AcDbEntity
  8
1
  6
Continuous
100
AcDbCircle
 10
274.6663890464863
 20
288.0568102846302
 30
0.0
 40
45.0
100
AcDbArc
 50
126.7492829999997
 51
138.152362000001
  0
ARC
  5
4B1
330
18
100
AcDbEntity
  8
1
  6
Continuous
100
AcDbCircle
 10
278.7725860464863
 20
295.1689522846302
 30
0.0
 40
45.0
100
AcDbArc
 50
161.8476380000008
 51
173.250716999999
  0
ARC
  5
4B2
330
18
100
AcDbEntity
  8
1
  6
Continuous
100
AcDbCircle
 10
282.2846180464864
 20
288.3998512846302
 30
0.0
 40
57.0
100
AcDbArc
 50
125.7835971196161
 51
54.21640003445975
  0
ARC
  5
4B3
330
18
100
AcDbEntity
  8
1
  6
Continuous
100
AcDbCircle
 10
282.2846180464864
 20
288.3998512846302
 30
0.0
 40
20.75
100
AcDbArc
 50
172.6123881070862
 51
7.387594105916168
  0
ARC
  5
4B4
330
18
100
AcDbEntity
  8
1
  6
Continuous
100
AcDbCircle
 10
289.9028470464865
 20
288.0568102846302
 30
0.0
 40
45.0
100
AcDbArc
 50
41.847637999999
 51
53.25071700000009
  0
ARC
  5
4B5
330
18
100
AcDbEntity
  8
1
  6
Continuous
100
AcDbCircle
 10
311.4421720464863
 20
316.9022162846301
 30
0.0
 40
9.0
100
AcDbArc
 50
53.25071700000009
 51
79.92755280721944
  0
ARC
  5
4B6
330
18
100
AcDbEntity
  8
1
  6
Continuous
100
AcDbCircle
 10
304.8012780464863
 20
301.3998512846301
 30
0.0
 40
25.0
100
AcDbArc
 50
18.15236199999914
 51
41.847637999999
  0
ARC
  5
4B7
330
18
100
AcDbEntity
  8
1
  6
Continuous
100
AcDbCircle
 10
285.7966500464863
 20
295.1689522846302
 30
0.0
 40
45.0
100
AcDbArc
 50
6.749283000000888
 51
18.15236199999914
  0
ARC
  5
4B8
330
18
100
AcDbEntity
  8
1
  6
Continuous
100
AcDbCircle
 10
321.5471680464863
 20
299.3998512846301
 30
0.0
 40
9.0
100
AcDbArc
 50
270.0
 51
6.749283000000888
  0
LINE
  5
4B9
330
18
100
AcDbEntity
  8
1
  6
Continuous
100
AcDbLine
 10
309.3955010464863
 20
290.3998512846301
 30
0.0
 11
321.5471680464863
 21
290.3998512846301
 31
0.0
  0
ARC
  5
4BA
330
18
100
AcDbEntity
  8
1
  6
Continuous
100
AcDbCircle
 10
309.3955010464863
 20
295.3998512846301
 30
0.0
 40
5.0
100
AcDbArc
 50
194.4775120000013
 51
270.0
  0
ARC
  5
4BB
330
18
100
AcDbEntity
  8
1
  6
Continuous
100
AcDbCircle
 10
282.2846180464864
 20
288.3998512846302
 30
0.0
 40
23.0
100
AcDbArc
 50
14.47751200000134
 51
17.98876279063972
  0
ARC
  5
4BC
330
18
100
AcDbEntity
  8
1
  6
Continuous
100
AcDbCircle
 10
99.60912987047231
 20
279.8998362846302
 30
0.0
 40
0.5
100
AcDbArc
 50
270.0
 51
0.0
  0
ARC
  5
4BD
330
18
100
AcDbEntity
  8
1
  6
Continuous
100
AcDbCircle
 10
45.60912987047231
 20
279.8998362846302
 30
0.0
 40
0.5
100
AcDbArc
 50
180.0
 51
270.0
  0
LINE
  5
4BE
330
18
100
AcDbEntity
  8
1
  6
Continuous
100
AcDbLine
 10
55.72494687047232
 20
229.9749712846302
 30
0.0
 11
57.65687887047231
 21
217.58389428463
 31
0.0
  0
ARC
  5
4BF
330
18
100
AcDbEntity
  8
1
  6
Continuous
100
AcDbCircle
 10
61.60912987047232
 20
218.2001022846301
 30
0.0
 40
4.0
100
AcDbArc
 50
188.8618200000009
 51
261.6779590000001
  0
ARC
  5
4C0
330
18
100
AcDbEntity
  8
1
  6
Continuous
100
AcDbCircle
 10
72.60912987047231
 20
293.3998362846302
 30
0.0
 40
80.0
100
AcDbArc
 50
261.6779590000001
 51
278.3220409999997
  0
ARC
  5
4C1
330
18
100
AcDbEntity
  8
1
  6
Continuous
100
AcDbCircle
 10
83.60912987047232
 20
218.2001022846301
 30
0.0
 40
4.0
100
AcDbArc
 50
278.3220409999997
 51
351.138179999999
  0
LINE
  5
4C2
330
18
100
AcDbEntity
  8
1
  6
Continuous
100
AcDbLine
 10
89.49331287047234
 20
229.9749712846302
 30
0.0
 11
87.56138087047231
 21
217.58389428463
 31
0.0
  0
ARC
  5
4C3
330
18
100
AcDbEntity
  8
1
  6
Continuous
100
AcDbCircle
 10
90.96786387047231
 20
229.6998352846302
 30
0.0
 40
1.5
100
AcDbArc
 50
90.0
 51
172.845611
  0
LINE
  5
4C4
330
18
100
AcDbEntity
  8
1
  6
Continuous
100
AcDbLine
 10
91.60912987047231
 20
231.1998352846303
 30
0.0
 11
90.96786387047231
 21
231.1998352846303
 31
0.0
  0
LINE
  5
4C5
330
18
100
AcDbEntity
  8
1
  6
Continuous
100
AcDbLine
 10
53.60912987047232
 20
231.1998352846303
 30
0.0
 11
54.25039587047234
 21
231.1998352846303
 31
0.0
  0
ARC
  5
4C6
330
18
100
AcDbEntity
  8
1
  6
Continuous
100
AcDbCircle
 10
54.25039587047232
 20
229.6998352846302
 30
0.0
 40
1.5
100
AcDbArc
 50
7.154388999999899
 51
90.0
  0
LINE
  5
4C7
330
18
100
AcDbEntity
  8
1
  6
Continuous
100
AcDbLine
 10
99.60912987047231
 20
279.3998362846302
 30
0.0
 11
94.10912987047231
 21
279.3998362846302
 31
0.0
  0
LINE
  5
4C8
330
18
100
AcDbEntity
  8
1
  6
Continuous
100
AcDbLine
 10
45.60912987047231
 20
279.3998362846302
 30
0.0
 11
51.10912987047232
 21
279.3998362846302
 31
0.0
  0
ARC
  5
4CF
330
18
100
AcDbEntity
  8
1
  6
Continuous
100
AcDbCircle
 10
92.10912987047231
 20
267.1498362846302
 30
0.0
 40
0.5
100
AcDbArc
 50
90.0
 51
180.0
  0
ARC
  5
4D0
330
18
100
AcDbEntity
  8
1
  6
Continuous
100
AcDbCircle
 10
92.60912987047232
 20
269.1498362846302
 30
0.0
 40
1.5
100
AcDbArc
 50
270.0
 51
0.0
  0
LINE
  5
4D1
330
18
100
AcDbEntity
  8
1
  6
Continuous
100
AcDbLine
 10
92.10912987047231
 20
267.6498362846302
 30
0.0
 11
92.60912987047232
 21
267.6498362846302
 31
0.0
  0
LINE
  5
4D4
330
18
100
AcDbEntity
  8
1
  6
Continuous
100
AcDbLine
 10
53.10912987047231
 20
267.6498362846302
 30
0.0
 11
52.60912987047231
 21
267.6498362846302
 31
0.0
  0
ARC
  5
4D5
330
18
100
AcDbEntity
  8
1
  6
Continuous
100
AcDbCircle
 10
52.60912987047231
 20
269.1498362846302
 30
0.0
 40
1.5
100
AcDbArc
 50
180.0
 51
270.0
  0
ARC
  5
4D6
330
18
100
AcDbEntity
  8
1
  6
Continuous
100
AcDbCircle
 10
53.10912987047231
 20
267.1498362846302
 30
0.0
 40
0.5
100
AcDbArc
 50
0.0
 51
90.0
  0
ARC
  5
4D9
330
18
100
AcDbEntity
  8
1
  6
Continuous
100
AcDbCircle
 10
99.60912987047231
 20
296.8998362846302
 30
0.0
 40
0.5
100
AcDbArc
 50
0.0
 51
90.0
  0
ARC
  5
4DA
330
18
100
AcDbEntity
  8
1
  6
Continuous
100
AcDbCircle
 10
45.60912987047231
 20
296.8998362846302
 30
0.0
 40
0.5
100
AcDbArc
 50
90.0
 51
180.0
  0
LINE
  5
4DB
330
18
100
AcDbEntity
  8
1
  6
Continuous
100
AcDbLine
 10
55.72494687047232
 20
346.8247012846301
 30
0.0
 11
57.65687887047231
 21
359.2157782846301
 31
0.0
  0
ARC
  5
4DC
330
18
100
AcDbEntity
  8
1
  6
Continuous
100
AcDbCircle
 10
61.60912987047232
 20
358.5995702846302
 30
0.0
 40
4.0
100
AcDbArc
 50
98.32204099999993
 51
171.138179999999
  0
ARC
  5
4DD
330
18
100
AcDbEntity
  8
1
  6
Continuous
100
AcDbCircle
 10
72.60912987047231
 20
283.3998362846302
 30
0.0
 40
80.0
100
AcDbArc
 50
81.67795900000006
 51
98.32204099999993
  0
ARC
  5
4DE
330
18
100
AcDbEntity
  8
1
  6
Continuous
100
AcDbCircle
 10
83.60912987047232
 20
358.5995702846302
 30
0.0
 40
4.0
100
AcDbArc
 50
8.861820000000969
 51
81.67795900000006
  0
LINE
  5
4DF
330
18
100
AcDbEntity
  8
1
  6
Continuous
100
AcDbLine
 10
89.49331287047234
 20
346.8247012846301
 30
0.0
 11
87.56138087047231
 21
359.2157782846301
 31
0.0
  0
ARC
  5
4E0
330
18
100
AcDbEntity
  8
1
  6
Continuous
100
AcDbCircle
 10
90.96786387047231
 20
347.0998372846302
 30
0.0
 40
1.5
100
AcDbArc
 50
187.1543889999999
 51
270.0
  0
LINE
  5
4E1
330
18
100
AcDbEntity
  8
1
  6
Continuous
100
AcDbLine
 10
91.60912987047231
 20
345.5998372846302
 30
0.0
 11
90.96786387047231
 21
345.5998372846302
 31
0.0
  0
LINE
  5
4E2
330
18
100
AcDbEntity
  8
1
  6
Continuous
100
AcDbLine
 10
53.60912987047232
 20
345.5998372846302
 30
0.0
 11
54.25039587047234
 21
345.5998372846302
 31
0.0
  0
ARC
  5
4E3
330
18
100
AcDbEntity
  8
1
  6
Continuous
100
AcDbCircle
 10
54.25039587047232
 20
347.0998372846302
 30
0.0
 40
1.5
100
AcDbArc
 50
270.0
 51
352.8456110000001
  0
LINE
  5
4E4
330
18
100
AcDbEntity
  8
1
  6
Continuous
100
AcDbLine
 10
99.60912987047231
 20
297.3998362846302
 30
0.0
 11
94.10912987047231
 21
297.3998362846302
 31
0.0
  0
LINE
  5
4E5
330
18
100
AcDbEntity
  8
1
  6
Continuous
100
AcDbLine
 10
45.60912987047231
 20
297.3998362846302
 30
0.0
 11
51.10912987047232
 21
297.3998362846302
 31
0.0
  0
LINE
  5
4E6
330
18
100
AcDbEntity
  8
1
  6
Continuous
100
AcDbLine
 10
55.75039587047232
 20
345.5998372846302
 30
0.0
 11
55.75039587047232
 21
231.1998352846301
 31
0.0
  0
LINE
  5
4E7
330
18
100
AcDbEntity
  8
1
  6
Continuous
100
AcDbLine
 10
89.46786387047231
 20
345.5998372846302
 30
0.0
 11
89.46786387047231
 21
231.1998352846301
 31
0.0
  0
LINE
  5
4E8
330
18
100
AcDbEntity
  8
1
  6
Continuous
100
AcDbLine
 10
94.10912987047231
 20
269.1498362846302
 30
0.0
 11
94.10912987047231
 21
307.6498362846302
 31
0.0
  0
LINE
  5
4E9
330
18
100
AcDbEntity
  8
1
  6
Continuous
100
AcDbLine
 10
100.1091298704723
 20
279.8998362846302
 30
0.0
 11
100.1091298704723
 21
296.8998362846302
 31
0.0
  0
LINE
  5
4EA
330
18
100
AcDbEntity
  8
1
  6
Continuous
100
AcDbLine
 10
51.10912987047232
 20
269.1498362846302
 30
0.0
 11
51.10912987047232
 21
307.6498362846302
 31
0.0
  0
LINE
  5
4EB
330
18
100
AcDbEntity
  8
1
  6
Continuous
100
AcDbLine
 10
45.10912987047231
 20
279.8998362846302
 30
0.0
 11
45.10912987047231
 21
296.8998362846302
 31
0.0
  0
ARC
  5
4EC
330
18
100
AcDbEntity
  8
1
  6
Continuous
100
AcDbCircle
 10
92.10912987047231
 20
309.6498362846302
 30
0.0
 40
0.5
100
AcDbArc
 50
180.0
 51
270.0
  0
ARC
  5
4ED
330
18
100
AcDbEntity
  8
1
  6
Continuous
100
AcDbCircle
 10
92.60912987047232
 20
307.6498362846302
 30
0.0
 40
1.5
100
AcDbArc
 50
0.0
 51
90.0
  0
LINE
  5
4EE
330
18
100
AcDbEntity
  8
1
  6
Continuous
100
AcDbLine
 10
92.10912987047231
 20
309.1498362846302
 30
0.0
 11
92.60912987047232
 21
309.1498362846302
 31
0.0
  0
LINE
  5
4EF
330
18
100
AcDbEntity
  8
1
  6
Continuous
100
AcDbLine
 10
91.60912987047231
 20
345.5998372846302
 30
0.0
 11
91.60912987047231
 21
231.1998352846301
 31
0.0
  0
LINE
  5
4F0
330
18
100
AcDbEntity
  8
1
  6
Continuous
100
AcDbLine
 10
53.60912987047232
 20
345.5998372846302
 30
0.0
 11
53.60912987047232
 21
231.1998352846301
 31
0.0
  0
LINE
  5
4F1
330
18
100
AcDbEntity
  8
1
  6
Continuous
100
AcDbLine
 10
53.10912987047231
 20
309.1498362846302
 30
0.0
 11
52.60912987047231
 21
309.1498362846302
 31
0.0
  0
ARC
  5
4F2
330
18
100
AcDbEntity
  8
1
  6
Continuous
100
AcDbCircle
 10
52.60912987047231
 20
307.6498362846302
 30
0.0
 40
1.5
100
AcDbArc
 50
90.0
 51
180.0
  0
ARC
  5
4F3
330
18
100
AcDbEntity
  8
1
  6
Continuous
100
AcDbCircle
 10
53.10912987047231
 20
309.6498362846302
 30
0.0
 40
0.5
100
AcDbArc
 50
270.0
 51
0.0
  0
LINE
  5
4F6
330
18
100
AcDbEntity
  8
1
  6
Continuous
100
AcDbLine
 10
352.2846140464861
 20
518.8537085634628
 30
0.0
 11
353.1005600464865
 21
518.9809252846299
 31
0.0
  0
ARC
  5
4F7
330
18
100
AcDbEntity
  8
1
  6
Continuous
100
AcDbCircle
 10
352.4843520464862
 20
522.93317628463
 30
0.0
 40
4.0
100
AcDbArc
 50
278.8618200000001
 51
351.6779589999984
  0
ARC
  5
4F8
330
18
100
AcDbEntity
  8
1
  6
Continuous
100
AcDbCircle
 10
277.2846180464863
 20
533.9331762846302
 30
0.0
 40
80.0
100
AcDbArc
 50
351.6779589999984
 51
8.322040999998442
  0
ARC
  5
4F9
330
18
100
AcDbEntity
  8
1
  6
Continuous
100
AcDbCircle
 10
352.4843520464862
 20
544.9331762846301
 30
0.0
 40
4.0
100
AcDbArc
 50
8.322040999998442
 51
81.13817999999964
  0
LINE
  5
4FA
330
18
100
AcDbEntity
  8
1
  6
Continuous
100
AcDbLine
 10
352.2846140464865
 20
549.0126440057975
 30
0.0
 11
353.1005600464865
 21
548.8854272846301
 31
0.0
  0
LINE
  5
4FD
330
18
100
AcDbEntity
  8
1
  6
Continuous
100
AcDbLine
 10
212.2846180464863
 20
518.8537091871157
 30
0.0
 11
211.4686760464863
 21
518.9809252846303
 31
0.0
  0
ARC
  5
4FE
330
18
100
AcDbEntity
  8
1
  6
Continuous
100
AcDbCircle
 10
212.0848840464863
 20
522.9331762846302
 30
0.0
 40
4.0
100
AcDbArc
 50
188.3220409999983
 51
261.1381799999995
  0
ARC
  5
4FF
330
18
100
AcDbEntity
  8
1
  6
Continuous
100
AcDbCircle
 10
287.2846180464863
 20
533.9331762846302
 30
0.0
 40
80.0
100
AcDbArc
 50
171.6779589999983
 51
188.3220409999983
  0
ARC
  5
500
330
18
100
AcDbEntity
  8
1
  6
Continuous
100
AcDbCircle
 10
212.0848840464863
 20
544.9331762846302
 30
0.0
 40
4.0
100
AcDbArc
 50
98.86182000000015
 51
171.6779589999983
  0
LINE
  5
501
330
18
100
AcDbEntity
  8
1
  6
Continuous
100
AcDbLine
 10
212.2846180464863
 20
549.012643382145
 30
0.0
 11
211.4686760464862
 21
548.8854272846301
 31
0.0
  0
LINE
  5
502
330
18
100
AcDbEntity
  8
4
  6
CENTER
 48
0.8
100
AcDbLine
 10
362.2846180464863
 20
533.9331762846301
 30
0.0
 11
202.2846180464862
 21
533.9331762846302
 31
0.0
  0
LINE
  5
503
330
18
100
AcDbEntity
  8
4
  6
CENTER
 48
0.8
100
AcDbLine
 10
282.2846180464864
 20
584.4331762846302
 30
0.0
 11
282.2846180464862
 21
493.4331822846302
 31
0.0
  0
LINE
  5
504
330
18
100
AcDbEntity
  8
2
  6
Continuous
100
AcDbLine
 10
27.10912987047231
 20
283.3468362846303
 30
0.0
 11
31.1091298704723
 21
283.3468362846303
 31
0.0
  0
LINE
  5
51A
330
18
100
AcDbEntity
  8
4
  6
CENTER
 48
0.8
100
AcDbLine
 10
324.7846140464861
 20
561.9331762846302
 30
0.0
 11
339.7846140464863
 21
561.9331762846302
 31
0.0
  0
LINE
  5
51B
330
18
100
AcDbEntity
  8
4
  6
CENTER
 48
0.8
100
AcDbLine
 10
332.2846140464863
 20
554.4331762846301
 30
0.0
 11
332.2846140464863
 21
569.4331762846302
 31
0.0
  0
LINE
  5
51C
330
18
100
AcDbEntity
  8
4
  6
CENTER
 48
0.8
100
AcDbLine
 10
330.7846140464862
 20
560.4331762846302
 30
0.0
 11
345.7846140464863
 21
560.4331762846302
 31
0.0
  0
LINE
  5
51D
330
18
100
AcDbEntity
  8
4
  6
CENTER
 48
0.8
100
AcDbLine
 10
338.2846140464863
 20
552.9331762846301
 30
0.0
 11
338.2846140464863
 21
567.9331762846302
 31
0.0
  0
LINE
  5
51E
330
18
100
AcDbEntity
  8
4
  6
CENTER
 48
0.8
100
AcDbLine
 10
233.7846220464864
 20
560.4331762846302
 30
0.0
 11
218.7846220464862
 21
560.4331762846302
 31
0.0
  0
LINE
  5
51F
330
18
100
AcDbEntity
  8
4
  6
CENTER
 48
0.8
100
AcDbLine
 10
239.7846220464864
 20
561.9331762846302
 30
0.0
 11
224.7846220464862
 21
561.9331762846302
 31
0.0
  0
LINE
  5
520
330
18
100
AcDbEntity
  8
4
  6
CENTER
 48
0.8
100
AcDbLine
 10
232.2846220464863
 20
554.4331762846301
 30
0.0
 11
232.2846220464863
 21
569.4331762846302
 31
0.0
  0
LINE
  5
521
330
18
100
AcDbEntity
  8
4
  6
CENTER
 48
0.8
100
AcDbLine
 10
226.2846220464863
 20
552.9331762846301
 30
0.0
 11
226.2846220464863
 21
567.9331762846302
 31
0.0
  0
LINE
  5
522
330
18
100
AcDbEntity
  8
4
  6
CENTER
 48
0.8
100
AcDbLine
 10
239.7846220464864
 20
505.9331762846301
 30
0.0
 11
224.7846220464862
 21
505.9331762846301
 31
0.0
  0
LINE
  5
523
330
18
100
AcDbEntity
  8
4
  6
CENTER
 48
0.8
100
AcDbLine
 10
233.7846220464864
 20
507.4331762846301
 30
0.0
 11
218.7846220464862
 21
507.4331762846301
 31
0.0
  0
LINE
  5
524
330
18
100
AcDbEntity
  8
4
  6
CENTER
 48
0.8
100
AcDbLine
 10
226.2846220464863
 20
514.9331762846302
 30
0.0
 11
226.2846220464863
 21
499.9331762846301
 31
0.0
  0
LINE
  5
525
330
18
100
AcDbEntity
  8
4
  6
CENTER
 48
0.8
100
AcDbLine
 10
232.2846220464863
 20
513.4331762846302
 30
0.0
 11
232.2846220464863
 21
498.4331762846301
 31
0.0
  0
LINE
  5
526
330
18
100
AcDbEntity
  8
4
  6
CENTER
 48
0.8
100
AcDbLine
 10
330.7846140464862
 20
507.4331762846301
 30
0.0
 11
345.7846140464863
 21
507.4331762846301
 31
0.0
  0
LINE
  5
527
330
18
100
AcDbEntity
  8
4
  6
CENTER
 48
0.8
100
AcDbLine
 10
324.7846140464861
 20
505.9331762846301
 30
0.0
 11
339.7846140464863
 21
505.9331762846301
 31
0.0
  0
LINE
  5
528
330
18
100
AcDbEntity
  8
4
  6
CENTER
 48
0.8
100
AcDbLine
 10
332.2846140464863
 20
513.4331762846302
 30
0.0
 11
332.2846140464863
 21
498.4331762846301
 31
0.0
  0
LINE
  5
529
330
18
100
AcDbEntity
  8
4
  6
CENTER
 48
0.8
100
AcDbLine
 10
338.2846140464863
 20
514.9331762846302
 30
0.0
 11
338.2846140464863
 21
499.9331762846301
 31
0.0
  0
LINE
  5
597
330
18
100
AcDbEntity
  8
4
  6
CENTER
 48
0.8
100
AcDbLine
 10
44.60912987047231
 20
395.8998512846302
 30
0.0
 11
44.60912987047231
 21
407.39985128463
 31
0.0
  0
LINE
  5
598
330
18
100
AcDbEntity
  8
4
  6
CENTER
 48
0.8
100
AcDbLine
 10
46.10912987047231
 20
395.8998512846302
 30
0.0
 11
46.10912987047231
 21
407.39985128463
 31
0.0
  0
LINE
  5
599
330
18
100
AcDbEntity
  8
4
  6
CENTER
 48
0.8
100
AcDbLine
 10
99.10912987047233
 20
395.8998512846302
 30
0.0
 11
99.10912987047233
 21
407.39985128463
 31
0.0
  0
LINE
  5
59A
330
18
100
AcDbEntity
  8
4
  6
CENTER
 48
0.8
100
AcDbLine
 10
100.6091298704723
 20
395.8998512846302
 30
0.0
 11
100.6091298704723
 21
407.39985128463
 31
0.0
  0
LINE
  5
59B
330
18
100
AcDbEntity
  8
4
  6
CENTER
 48
0.8
100
AcDbLine
 10
232.2846220464863
 20
395.8998512846302
 30
0.0
 11
232.2846220464863
 21
407.39985128463
 31
0.0
  0
LINE
  5
59C
330
18
100
AcDbEntity
  8
4
  6
CENTER
 48
0.8
100
AcDbLine
 10
226.2846220464863
 20
395.8998512846302
 30
0.0
 11
226.2846220464863
 21
407.39985128463
 31
0.0
  0
LINE
  5
59F
330
18
100
AcDbEntity
  8
4
  6
CENTER
 48
0.8
100
AcDbLine
 10
338.2846140464863
 20
395.8998512846302
 30
0.0
 11
338.2846140464863
 21
407.39985128463
 31
0.0
  0
LINE
  5
5A0
330
18
100
AcDbEntity
  8
4
  6
CENTER
 48
0.8
100
AcDbLine
 10
332.2846140464863
 20
395.8998512846302
 30
0.0
 11
332.2846140464863
 21
407.39985128463
 31
0.0
  0
LINE
  5
747
330
18
100
AcDbEntity
  8
1
  6
Continuous
100
AcDbLine
 10
302.6657905389614
 20
502.43317628463
 30
0.0
 11
261.903445554011
 21
502.43317628463
 31
0.0
  0
ARC
  5
752
330
18
100
AcDbEntity
  8
1
  6
Continuous
100
AcDbCircle
 10
261.903445554011
 20
484.4331762846302
 30
0.0
 40
18.0
100
AcDbArc
 50
90.0
 51
142.2295104113631
  0
ARC
  5
753
330
18
100
AcDbEntity
  8
1
  6
Continuous
100
AcDbCircle
 10
230.2846220464863
 20
508.9331762846302
 30
0.0
 40
22.0
100
AcDbArc
 50
269.9999819999975
 51
322.2295104113632
  0
ARC
  5
756
330
18
100
AcDbEntity
  8
1
  6
Continuous
100
AcDbCircle
 10
282.2846180464864
 20
521.9748482846303
 30
0.0
 40
23.541666
100
AcDbArc
 50
240.7582049999987
 51
299.2417199999989
  0
LINE
  5
757
330
18
100
AcDbEntity
  8
1
  6
Continuous
100
AcDbLine
 10
293.7846180464863
 20
501.4331762846301
 30
0.0
 11
270.7846180464863
 21
501.4331762846301
 31
0.0
  0
LINE
  5
758
330
18
100
AcDbEntity
  8
1
  6
Continuous
100
AcDbLine
 10
270.7846180464863
 20
502.43317628463
 30
0.0
 11
270.7846180464863
 21
501.4331762846301
 31
0.0
  0
LINE
  5
759
330
18
100
AcDbEntity
  8
1
  6
Continuous
100
AcDbLine
 10
293.7846180464863
 20
502.4331762846301
 30
0.0
 11
293.7846180464863
 21
501.4331762846301
 31
0.0
  0
ARC
  5
75A
330
18
100
AcDbEntity
  8
1
  6
Continuous
100
AcDbCircle
 10
334.2846140464863
 20
508.9331762846302
 30
0.0
 40
22.0
100
AcDbArc
 50
217.7704895886368
 51
270.0000179999992
  0
ARC
  5
75F
330
18
100
AcDbEntity
  8
1
  6
Continuous
100
AcDbCircle
 10
302.6657905389614
 20
484.4331762846302
 30
0.0
 40
18.0
100
AcDbArc
 50
37.77048958863678
 51
90.0
  0
LINE
  5
768
330
18
100
AcDbEntity
  8
1
  6
Continuous
100
AcDbLine
 10
302.6657905389614
 20
565.4331762846302
 30
0.0
 11
261.903445554011
 21
565.4331762846302
 31
0.0
  0
ARC
  5
776
330
18
100
AcDbEntity
  8
1
  6
Continuous
100
AcDbCircle
 10
261.903445554011
 20
583.4331762846302
 30
0.0
 40
18.0
100
AcDbArc
 50
217.7704895886368
 51
270.0
  0
ARC
  5
777
330
18
100
AcDbEntity
  8
1
  6
Continuous
100
AcDbCircle
 10
277.5346172932194
 20
578.0831313387457
 30
0.0
 40
9.649962754844267
100
AcDbArc
 50
240.5127492777278
 51
299.487250722275
  0
ARC
  5
778
330
18
100
AcDbEntity
  8
1
  6
Continuous
100
AcDbCircle
 10
287.0346187997531
 20
578.0831313387457
 30
0.0
 40
9.649962754844267
100
AcDbArc
 50
240.5127492777249
 51
299.4872507222721
  0
LINE
  5
779
330
18
100
AcDbEntity
  8
1
  6
Continuous
100
AcDbLine
 10
272.7846170839776
 20
575.4331762846302
 30
0.0
 11
272.7846182557267
 21
568.4331762846302
 31
0.0
  0
LINE
  5
77A
330
18
100
AcDbEntity
  8
1
  6
Continuous
100
AcDbLine
 10
291.784619008995
 20
575.4331762846302
 30
0.0
 11
291.7846178372457
 21
568.4331762846302
 31
0.0
  0
LINE
  5
780
330
18
100
AcDbEntity
  8
1
  6
Continuous
100
AcDbLine
 10
292.7846180464864
 20
568.4331762846302
 30
0.0
 11
271.7846180464864
 21
568.4331762846302
 31
0.0
  0
LINE
  5
781
330
18
100
AcDbEntity
  8
1
  6
Continuous
100
AcDbLine
 10
271.7846180464864
 20
565.4331762846302
 30
0.0
 11
271.7846180464864
 21
568.4331762846302
 31
0.0
  0
LINE
  5
782
330
18
100
AcDbEntity
  8
1
  6
Continuous
100
AcDbLine
 10
292.7846180464864
 20
565.4999182846303
 30
0.0
 11
292.7846180464864
 21
568.4331762846302
 31
0.0
  0
ARC
  5
783
330
18
100
AcDbEntity
  8
1
  6
Continuous
100
AcDbCircle
 10
230.2846220464863
 20
558.9331762846302
 30
0.0
 40
22.0
100
AcDbArc
 50
37.77048958863678
 51
90.00001799999918
  0
ARC
  5
784
330
18
100
AcDbEntity
  8
1
  6
Continuous
100
AcDbCircle
 10
277.5346172932194
 20
565.7832135297857
 30
0.0
 40
9.649962754844267
100
AcDbArc
 50
60.51274927772499
 51
119.487250722272
  0
LINE
  5
785
330
18
100
AcDbEntity
  8
1
  6
Continuous
100
AcDbLine
 10
291.784619008995
 20
575.4331762846302
 30
0.0
 11
272.7846170839776
 21
575.4331762846302
 31
0.0
  0
LINE
  5
786
330
18
100
AcDbEntity
  8
1
  6
Continuous
100
AcDbLine
 10
287.5346180464863
 20
579.4331762846302
 30
0.0
 11
277.0346180464863
 21
579.4331762846302
 31
0.0
  0
LINE
  5
787
330
18
100
AcDbEntity
  8
1
  6
Continuous
100
AcDbLine
 10
288.2846180464863
 20
578.6834452846302
 30
0.0
 11
276.2846180464864
 21
578.6834452846302
 31
0.0
  0
LINE
  5
788
330
18
100
AcDbEntity
  8
1
  6
Continuous
100
AcDbLine
 10
276.2846180464864
 20
578.6834452846302
 30
0.0
 11
277.0345290464863
 21
579.4333562846302
 31
0.0
  0
LINE
  5
789
330
18
100
AcDbEntity
  8
2
  6
Continuous
100
AcDbLine
 10
277.2316180464863
 20
579.4331762846302
 30
0.0
 11
277.2316180464863
 21
575.4331762846302
 31
0.0
  0
LINE
  5
78A
330
18
100
AcDbEntity
  8
1
  6
Continuous
100
AcDbLine
 10
276.2846180464864
 20
578.6834452846302
 30
0.0
 11
276.2846180464864
 21
575.4331762846302
 31
0.0
  0
ARC
  5
78B
330
18
100
AcDbEntity
  8
1
  6
Continuous
100
AcDbCircle
 10
287.0346187997531
 20
565.7832135297857
 30
0.0
 40
9.649962754844267
100
AcDbArc
 50
60.51274927772782
 51
119.487250722275
  0
LINE
  5
78C
330
18
100
AcDbEntity
  8
1
  6
Continuous
100
AcDbLine
 10
282.2846187997531
 20
574.1831707421697
 30
0.0
 11
282.2846180464864
 21
569.6831741263618
 31
0.0
  0
LINE
  5
78D
330
18
100
AcDbEntity
  8
1
  6
Continuous
100
AcDbLine
 10
288.2846180464863
 20
578.6834452846302
 30
0.0
 11
287.5347070464863
 21
579.4333562846302
 31
0.0
  0
LINE
  5
78E
330
18
100
AcDbEntity
  8
1
  6
Continuous
100
AcDbLine
 10
288.2846180464863
 20
578.6834452846302
 30
0.0
 11
288.2846180464863
 21
575.4331762846302
 31
0.0
  0
LINE
  5
78F
330
18
100
AcDbEntity
  8
2
  6
Continuous
100
AcDbLine
 10
287.3376180464863
 20
579.4331762846302
 30
0.0
 11
287.3376180464863
 21
575.4331762846302
 31
0.0
  0
ARC
  5
790
330
18
100
AcDbEntity
  8
1
  6
Continuous
100
AcDbCircle
 10
302.6657905389614
 20
583.4331762846302
 30
0.0
 40
18.0
100
AcDbArc
 50
270.0
 51
322.2295104113632
  0
ARC
  5
79E
330
18
100
AcDbEntity
  8
1
  6
Continuous
100
AcDbCircle
 10
334.2846140464863
 20
558.9331762846302
 30
0.0
 40
22.0
100
AcDbArc
 50
89.99998199999755
 51
142.2295104113631
  0
LINE
  5
891
330
18
100
AcDbEntity
  8
4
  6
CENTER
 48
0.8
100
AcDbLine
 10
282.2846180464864
 20
42.36652628463025
 30
0.0
 11
282.2846180464862
 21
133.3665202846302
 31
0.0
  0
ARC
  5
892
330
18
100
AcDbEntity
  8
1
  6
Continuous
100
AcDbCircle
 10
334.2846140464863
 20
117.8665262846301
 30
0.0
 40
22.0
100
AcDbArc
 50
89.99998200000083
 51
142.2295104113631
  0
ARC
  5
893
330
18
100
AcDbEntity
  8
1
  6
Continuous
100
AcDbCircle
 10
230.2846220464863
 20
117.8665262846301
 30
0.0
 40
22.0
100
AcDbArc
 50
37.77048958863678
 51
90.00001800000246
  0
ARC
  5
898
330
18
100
AcDbEntity
  8
1
  6
Continuous
100
AcDbCircle
 10
340.2846140464863
 20
127.8665262846301
 30
0.0
 40
12.0
100
AcDbArc
 50
0.0000550000006641
 51
90.00003700000025
  0
ARC
  5
899
330
18
100
AcDbEntity
  8
1
  6
Continuous
100
AcDbCircle
 10
224.2846180464863
 20
127.8665262846301
 30
0.0
 40
12.0
100
AcDbArc
 50
90.00003700000025
 51
180.0000190000005
  0
LINE
  5
89A
330
18
100
AcDbEntity
  8
1
  6
Continuous
100
AcDbLine
 10
224.2846180464863
 20
139.8665262846302
 30
0.0
 11
230.2846180464863
 21
139.8665262846302
 31
0.0
  0
LINE
  5
89B
330
18
100
AcDbEntity
  8
1
  6
Continuous
100
AcDbLine
 10
340.2846140464863
 20
139.8665262846302
 30
0.0
 11
334.2846140464863
 21
139.8665262846302
 31
0.0
  0
LINE
  5
8A0
330
18
100
AcDbEntity
  8
1
  6
Continuous
100
AcDbLine
 10
302.6657905389614
 20
124.3665262846302
 30
0.0
 11
261.903445554011
 21
124.3665262846302
 31
0.0
  0
LINE
  5
8A1
330
18
100
AcDbEntity
  8
1
  6
Continuous
100
AcDbLine
 10
302.6657905389614
 20
61.36652628463025
 30
0.0
 11
261.903445554011
 21
61.36652628463025
 31
0.0
  0
LINE
  5
8A2
330
18
100
AcDbEntity
  8
1
  6
Continuous
100
AcDbLine
 10
287.5346180464863
 20
47.36652628463025
 30
0.0
 11
277.0346180464863
 21
47.36652628463025
 31
0.0
  0
LINE
  5
8A3
330
18
100
AcDbEntity
  8
1
  6
Continuous
100
AcDbLine
 10
288.2846180464863
 20
48.11625728463025
 30
0.0
 11
276.2846180464864
 21
48.11625728463025
 31
0.0
  0
ARC
  5
8A4
330
18
100
AcDbEntity
  8
1
  6
Continuous
100
AcDbCircle
 10
287.0346187997531
 20
48.71657123051466
 30
0.0
 40
9.649962754844267
100
AcDbArc
 50
60.51274927772785
 51
119.4872507222749
  0
ARC
  5
8A5
330
18
100
AcDbEntity
  8
1
  6
Continuous
100
AcDbCircle
 10
287.0346187997531
 20
61.01648903947453
 30
0.0
 40
9.649962754844267
100
AcDbArc
 50
240.5127492777249
 51
299.4872507222721
  0
LINE
  5
8A6
330
18
100
AcDbEntity
  8
1
  6
Continuous
100
AcDbLine
 10
292.7846180464864
 20
58.36652628463025
 30
0.0
 11
271.7846180464864
 21
58.36652628463025
 31
0.0
  0
LINE
  5
8A7
330
18
100
AcDbEntity
  8
1
  6
Continuous
100
AcDbLine
 10
291.784619008995
 20
51.36652628463025
 30
0.0
 11
272.7846170839776
 21
51.36652628463025
 31
0.0
  0
ARC
  5
8A8
330
18
100
AcDbEntity
  8
1
  6
Continuous
100
AcDbCircle
 10
282.2846180464864
 20
104.82485428463
 30
0.0
 40
23.541666
100
AcDbArc
 50
60.75828000000107
 51
119.2417950000012
  0
LINE
  5
8A9
330
18
100
AcDbEntity
  8
1
  6
Continuous
100
AcDbLine
 10
293.7846180464863
 20
125.3665262846302
 30
0.0
 11
270.7846180464863
 21
125.3665262846302
 31
0.0
  0
LINE
  5
8AA
330
18
100
AcDbEntity
  8
4
  6
CENTER
 48
0.8
100
AcDbLine
 10
362.2846180464863
 20
92.86652628463036
 30
0.0
 11
202.2846180464862
 21
92.86652628463016
 31
0.0
  0
LINE
  5
8AF
330
18
100
AcDbEntity
  8
4
  6
CENTER
 48
0.8
100
AcDbLine
 10
233.7846220464864
 20
119.3665262846302
 30
0.0
 11
218.7846220464862
 21
119.3665262846302
 31
0.0
  0
LINE
  5
8B0
330
18
100
AcDbEntity
  8
4
  6
CENTER
 48
0.8
100
AcDbLine
 10
233.7846220464864
 20
66.36652628463025
 30
0.0
 11
218.7846220464862
 21
66.36652628463025
 31
0.0
  0
ARC
  5
8B1
330
18
100
AcDbEntity
  8
1
  6
Continuous
100
AcDbCircle
 10
224.2846180464863
 20
57.86652628463025
 30
0.0
 40
12.0
100
AcDbArc
 50
180.000036
 51
270.0000179999999
  0
LINE
  5
8B3
330
18
100
AcDbEntity
  8
1
  6
Continuous
100
AcDbLine
 10
212.2846180464863
 20
127.8665262846301
 30
0.0
 11
212.2846180464863
 21
107.9459933821449
 31
0.0
  0
ARC
  5
8B9
330
18
100
AcDbEntity
  8
1
  6
Continuous
100
AcDbCircle
 10
261.903445554011
 20
142.3665262846301
 30
0.0
 40
18.0
100
AcDbArc
 50
217.7704895886368
 51
270.0
  0
LINE
  5
8BB
330
18
100
AcDbEntity
  8
4
  6
CENTER
 48
0.8
100
AcDbLine
 10
239.7846220464864
 20
120.8665262846301
 30
0.0
 11
224.7846220464862
 21
120.8665262846301
 31
0.0
  0
ARC
  5
8BC
330
18
100
AcDbEntity
  8
1
  6
Continuous
100
AcDbCircle
 10
232.2846180464863
 20
120.8665262846301
 30
0.0
 40
5.5
100
AcDbArc
 50
284.0363300000003
 51
104.0363349999999
  0
LINE
  5
8BD
330
18
100
AcDbEntity
  8
4
  6
CENTER
 48
0.8
100
AcDbLine
 10
232.2846220464863
 20
113.36652628463
 30
0.0
 11
232.2846220464863
 21
128.3665262846303
 31
0.0
  0
LINE
  5
8BE
330
18
100
AcDbEntity
  8
4
  6
CENTER
 48
0.8
100
AcDbLine
 10
226.2846220464863
 20
111.86652628463
 30
0.0
 11
226.2846220464863
 21
126.8665262846303
 31
0.0
  0
ARC
  5
8BF
330
18
100
AcDbEntity
  8
1
  6
Continuous
100
AcDbCircle
 10
226.2846180464863
 20
119.3665262846302
 30
0.0
 40
5.5
100
AcDbArc
 50
104.0363659999999
 51
284.0363299999999
  0
LINE
  5
8C0
330
18
100
AcDbEntity
  8
1
  6
Continuous
100
AcDbLine
 10
224.9506770464862
 20
124.70231028463
 30
0.0
 11
230.9506760464862
 21
126.2023092846302
 31
0.0
  0
LINE
  5
8C1
330
18
100
AcDbEntity
  8
1
  6
Continuous
100
AcDbLine
 10
227.6185670464863
 20
114.0307422846302
 30
0.0
 11
233.6185680464863
 21
115.5307422846302
 31
0.0
  0
LINE
  5
8C4
330
18
100
AcDbEntity
  8
1
  6
Continuous
100
AcDbLine
 10
270.7846180464863
 20
124.3665262846302
 30
0.0
 11
270.7846180464863
 21
125.3665262846302
 31
0.0
  0
ARC
  5
8C5
330
18
100
AcDbEntity
  8
1
  6
Continuous
100
AcDbCircle
 10
261.903445554011
 20
43.36652628463025
 30
0.0
 40
18.0
100
AcDbArc
 50
90.00000000000005
 51
142.2295104113631
  0
LINE
  5
8C7
330
18
100
AcDbEntity
  8
4
  6
CENTER
 48
0.8
100
AcDbLine
 10
226.2846220464863
 20
73.86652628463036
 30
0.0
 11
226.2846220464863
 21
58.86652628463013
 31
0.0
  0
LINE
  5
8C8
330
18
100
AcDbEntity
  8
4
  6
CENTER
 48
0.8
100
AcDbLine
 10
232.2846220464863
 20
72.36652628463038
 30
0.0
 11
232.2846220464863
 21
57.36652628463013
 31
0.0
  0
ARC
  5
8C9
330
18
100
AcDbEntity
  8
1
  6
Continuous
100
AcDbCircle
 10
232.2846180464863
 20
64.86652628463025
 30
0.0
 40
5.5
100
AcDbArc
 50
255.9637199999995
 51
75.96372499999985
  0
ARC
  5
8CA
330
18
100
AcDbEntity
  8
1
  6
Continuous
100
AcDbCircle
 10
226.2846180464863
 20
66.36652628463025
 30
0.0
 40
5.5
100
AcDbArc
 50
75.96374199999992
 51
255.96372
  0
LINE
  5
8CB
330
18
100
AcDbEntity
  8
4
  6
CENTER
 48
0.8
100
AcDbLine
 10
239.7846220464864
 20
64.86652628463025
 30
0.0
 11
224.7846220464862
 21
64.86652628463025
 31
0.0
  0
LINE
  5
8CD
330
18
100
AcDbEntity
  8
1
  6
Continuous
100
AcDbLine
 10
227.6185670464863
 20
71.70231228463023
 30
0.0
 11
233.6185670464864
 21
70.20231228463024
 31
0.0
  0
ARC
  5
8CE
330
18
100
AcDbEntity
  8
1
  6
Continuous
100
AcDbCircle
 10
230.2846220464863
 20
67.86652628463025
 30
0.0
 40
22.0
100
AcDbArc
 50
269.9999820000006
 51
322.2295104113632
  0
LINE
  5
8CF
330
18
100
AcDbEntity
  8
1
  6
Continuous
100
AcDbLine
 10
224.9506750464863
 20
61.03074428463026
 30
0.0
 11
230.9506750464862
 21
59.53074528463027
 31
0.0
  0
LINE
  5
8D0
330
18
100
AcDbEntity
  8
1
  6
Continuous
100
AcDbLine
 10
224.2846180464863
 20
45.86652628463025
 30
0.0
 11
230.2846180464863
 21
45.86652628463025
 31
0.0
  0
LINE
  5
8D2
330
18
100
AcDbEntity
  8
2
  6
Continuous
100
AcDbLine
 10
277.2316180464863
 20
47.36652628463025
 30
0.0
 11
277.2316180464863
 21
51.36652628463025
 31
0.0
  0
LINE
  5
8D3
330
18
100
AcDbEntity
  8
1
  6
Continuous
100
AcDbLine
 10
276.2846180464864
 20
48.11625728463025
 30
0.0
 11
276.2846180464864
 21
51.36652628463025
 31
0.0
  0
ARC
  5
8D4
330
18
100
AcDbEntity
  8
1
  6
Continuous
100
AcDbCircle
 10
277.5346172932194
 20
48.71657123051466
 30
0.0
 40
9.649962754844267
100
AcDbArc
 50
60.51274927772499
 51
119.487250722272
  0
ARC
  5
8D5
330
18
100
AcDbEntity
  8
1
  6
Continuous
100
AcDbCircle
 10
277.5346172932194
 20
61.01648903947453
 30
0.0
 40
9.649962754844267
100
AcDbArc
 50
240.5127492777278
 51
299.487250722275
  0
LINE
  5
8D6
330
18
100
AcDbEntity
  8
1
  6
Continuous
100
AcDbLine
 10
271.7846180464864
 20
61.36652628463025
 30
0.0
 11
271.7846180464864
 21
58.36652628463025
 31
0.0
  0
LINE
  5
8D7
330
18
100
AcDbEntity
  8
1
  6
Continuous
100
AcDbLine
 10
272.7846170839776
 20
51.36652628463025
 30
0.0
 11
272.7846182557267
 21
58.36652628463025
 31
0.0
  0
LINE
  5
8D8
330
18
100
AcDbEntity
  8
1
  6
Continuous
100
AcDbLine
 10
282.2846187997531
 20
52.61653182709062
 30
0.0
 11
282.2846180464864
 21
57.11652844289858
 31
0.0
  0
LINE
  5
8D9
330
18
100
AcDbEntity
  8
1
  6
Continuous
100
AcDbLine
 10
276.2846180464864
 20
48.11625728463025
 30
0.0
 11
277.0345290464863
 21
47.36634628463025
 31
0.0
  0
LINE
  5
8DB
330
18
100
AcDbEntity
  8
4
  6
CENTER
 48
0.8
100
AcDbLine
 10
330.7846140464862
 20
119.3665262846302
 30
0.0
 11
345.7846140464863
 21
119.3665262846302
 31
0.0
  0
LINE
  5
8DC
330
18
100
AcDbEntity
  8
4
  6
CENTER
 48
0.8
100
AcDbLine
 10
330.7846140464862
 20
66.36652628463025
 30
0.0
 11
345.7846140464863
 21
66.36652628463025
 31
0.0
  0
ARC
  5
8DD
330
18
100
AcDbEntity
  8
1
  6
Continuous
100
AcDbCircle
 10
340.2846140464863
 20
57.86652628463025
 30
0.0
 40
12.0
100
AcDbArc
 50
270.0000179999999
 51
0.0
  0
ARC
  5
8DF
330
18
100
AcDbEntity
  8
1
  6
Continuous
100
AcDbCircle
 10
302.6657905389614
 20
142.3665262846301
 30
0.0
 40
18.0
100
AcDbArc
 50
270.0
 51
322.2295104113632
  0
LINE
  5
8E1
330
18
100
AcDbEntity
  8
1
  6
Continuous
100
AcDbLine
 10
293.7846180464863
 20
124.36652628463
 30
0.0
 11
293.7846180464863
 21
125.3665262846302
 31
0.0
  0
LINE
  5
8E3
330
18
100
AcDbEntity
  8
4
  6
CENTER
 48
0.8
100
AcDbLine
 10
324.7846140464861
 20
120.8665262846301
 30
0.0
 11
339.7846140464863
 21
120.8665262846301
 31
0.0
  0
ARC
  5
8E4
330
18
100
AcDbEntity
  8
1
  6
Continuous
100
AcDbCircle
 10
332.2846140464863
 20
120.8665262846301
 30
0.0
 40
5.5
100
AcDbArc
 50
75.96374199999992
 51
255.9637610000002
  0
LINE
  5
8E5
330
18
100
AcDbEntity
  8
4
  6
CENTER
 48
0.8
100
AcDbLine
 10
338.2846140464863
 20
111.86652628463
 30
0.0
 11
338.2846140464863
 21
126.8665262846303
 31
0.0
  0
LINE
  5
8E6
330
18
100
AcDbEntity
  8
4
  6
CENTER
 48
0.8
100
AcDbLine
 10
332.2846140464863
 20
113.36652628463
 30
0.0
 11
332.2846140464863
 21
128.3665262846303
 31
0.0
  0
ARC
  5
8E7
330
18
100
AcDbEntity
  8
1
  6
Continuous
100
AcDbCircle
 10
338.2846140464863
 20
119.3665262846302
 30
0.0
 40
5.5
100
AcDbArc
 50
255.9637609999998
 51
75.96373800000015
  0
LINE
  5
8E8
330
18
100
AcDbEntity
  8
1
  6
Continuous
100
AcDbLine
 10
339.6185720464862
 20
124.7023252846302
 30
0.0
 11
333.6185830464863
 21
126.2023232846301
 31
0.0
  0
LINE
  5
8E9
330
18
100
AcDbEntity
  8
1
  6
Continuous
100
AcDbLine
 10
336.9506800464863
 20
114.0307582846302
 30
0.0
 11
330.9506920464863
 21
115.5307552846302
 31
0.0
  0
ARC
  5
8EB
330
18
100
AcDbEntity
  8
1
  6
Continuous
100
AcDbCircle
 10
302.6657905389614
 20
43.36652628463025
 30
0.0
 40
18.0
100
AcDbArc
 50
37.77048958863678
 51
90.00000000000005
  0
LINE
  5
8EE
330
18
100
AcDbEntity
  8
1
  6
Continuous
100
AcDbLine
 10
288.2846180464863
 20
48.11625728463025
 30
0.0
 11
288.2846180464863
 21
51.36652628463025
 31
0.0
  0
LINE
  5
8EF
330
18
100
AcDbEntity
  8
2
  6
Continuous
100
AcDbLine
 10
287.3376180464863
 20
47.36652628463025
 30
0.0
 11
287.3376180464863
 21
51.36652628463025
 31
0.0
  0
LINE
  5
8F0
330
18
100
AcDbEntity
  8
1
  6
Continuous
100
AcDbLine
 10
292.7846180464864
 20
61.29978428463028
 30
0.0
 11
292.7846180464864
 21
58.36652628463025
 31
0.0
  0
LINE
  5
8F1
330
18
100
AcDbEntity
  8
1
  6
Continuous
100
AcDbLine
 10
291.784619008995
 20
51.36652628463025
 30
0.0
 11
291.7846178372457
 21
58.36652628463025
 31
0.0
  0
LINE
  5
8F2
330
18
100
AcDbEntity
  8
1
  6
Continuous
100
AcDbLine
 10
288.2846180464863
 20
48.11625728463025
 30
0.0
 11
287.5347070464863
 21
47.36634628463025
 31
0.0
  0
LINE
  5
8F3
330
18
100
AcDbEntity
  8
4
  6
CENTER
 48
0.8
100
AcDbLine
 10
338.2846140464863
 20
73.86652628463036
 30
0.0
 11
338.2846140464863
 21
58.86652628463013
 31
0.0
  0
LINE
  5
8F4
330
18
100
AcDbEntity
  8
4
  6
CENTER
 48
0.8
100
AcDbLine
 10
332.2846140464863
 20
72.36652628463038
 30
0.0
 11
332.2846140464863
 21
57.36652628463013
 31
0.0
  0
ARC
  5
8F5
330
18
100
AcDbEntity
  8
1
  6
Continuous
100
AcDbCircle
 10
338.2846140464863
 20
66.36652628463025
 30
0.0
 40
5.5
100
AcDbArc
 50
284.0363159999995
 51
104.036294
  0
ARC
  5
8F6
330
18
100
AcDbEntity
  8
1
  6
Continuous
100
AcDbCircle
 10
332.2846140464863
 20
64.86652628463025
 30
0.0
 40
5.5
100
AcDbArc
 50
104.0363110000001
 51
284.0363159999995
  0
LINE
  5
8F7
330
18
100
AcDbEntity
  8
4
  6
CENTER
 48
0.8
100
AcDbLine
 10
324.7846140464861
 20
64.86652628463025
 30
0.0
 11
339.7846140464863
 21
64.86652628463025
 31
0.0
  0
LINE
  5
8F9
330
18
100
AcDbEntity
  8
1
  6
Continuous
100
AcDbLine
 10
336.9506690464863
 20
71.70230128463026
 30
0.0
 11
330.9506730464863
 21
70.20230228463026
 31
0.0
  0
ARC
  5
8FA
330
18
100
AcDbEntity
  8
1
  6
Continuous
100
AcDbCircle
 10
334.2846140464863
 20
67.86652628463025
 30
0.0
 40
22.0
100
AcDbArc
 50
217.7704895886368
 51
270.0000180000023
  0
LINE
  5
8FB
330
18
100
AcDbEntity
  8
1
  6
Continuous
100
AcDbLine
 10
339.6185610464864
 20
61.03073328463029
 30
0.0
 11
333.6185650464863
 21
59.53073428463028
 31
0.0
  0
LINE
  5
8FC
330
18
100
AcDbEntity
  8
1
  6
Continuous
100
AcDbLine
 10
340.2846140464863
 20
45.86652628463025
 30
0.0
 11
334.2846140464863
 21
45.86652628463025
 31
0.0
  0
LINE
  5
8FF
330
18
100
AcDbEntity
  8
1
  6
Continuous
100
AcDbLine
 10
352.2846140464863
 20
127.8665262846301
 30
0.0
 11
352.2846140464863
 21
107.9459940057976
 31
0.0
  0
LINE
  5
A04
330
18
100
AcDbEntity
  8
1
  6
Continuous
100
AcDbLine
 10
510.9601062225005
 20
345.5998372846302
 30
0.0
 11
510.9601062225005
 21
231.1998352846301
 31
0.0
  0
LINE
  5
A05
330
18
100
AcDbEntity
  8
1
  6
Continuous
100
AcDbLine
 10
472.9601062225005
 20
345.5998372846302
 30
0.0
 11
472.9601062225005
 21
231.1998352846301
 31
0.0
  0
LINE
  5
A06
330
18
100
AcDbEntity
  8
1
  6
Continuous
100
AcDbLine
 10
513.4601062225002
 20
269.1498362846302
 30
0.0
 11
513.4601062225002
 21
307.6498362846302
 31
0.0
  0
LINE
  5
A07
330
18
100
AcDbEntity
  8
1
  6
Continuous
100
AcDbLine
 10
470.4601062225004
 20
269.1498362846302
 30
0.0
 11
470.4601062225004
 21
307.6498362846302
 31
0.0
  0
LINE
  5
A08
330
18
100
AcDbEntity
  8
1
  6
Continuous
100
AcDbLine
 10
475.1013722225002
 20
345.5998372846302
 30
0.0
 11
475.1013722225002
 21
231.1998352846301
 31
0.0
  0
LINE
  5
A09
330
18
100
AcDbEntity
  8
1
  6
Continuous
100
AcDbLine
 10
508.8188402225005
 20
345.5998372846302
 30
0.0
 11
508.8188402225005
 21
231.1998352846301
 31
0.0
  0
LINE
  5
A0A
330
18
100
AcDbEntity
  8
1
  6
Continuous
100
AcDbLine
 10
460.4601062225005
 20
307.8463612846301
 30
0.0
 11
460.4601062225005
 21
269.3998362846302
 31
0.0
  0
LINE
  5
A0B
330
18
100
AcDbEntity
  8
1
  6
Continuous
100
AcDbLine
 10
463.9601062225003
 20
398.8998492846302
 30
0.0
 11
463.9601062225003
 21
269.3998362846302
 31
0.0
  0
LINE
  5
A0C
330
18
100
AcDbEntity
  8
1
  6
Continuous
100
AcDbLine
 10
523.4601062225005
 20
307.8463612846301
 30
0.0
 11
523.4601062225005
 21
269.3998362846302
 31
0.0
  0
LINE
  5
A0D
330
18
100
AcDbEntity
  8
4
  6
CENTER
 48
0.8
100
AcDbLine
 10
491.9601062225003
 20
408.3998512846301
 30
0.0
 11
491.9601062225003
 21
208.3998362846302
 31
0.0
  0
LINE
  5
A0E
330
18
100
AcDbEntity
  8
1
  6
Continuous
100
AcDbLine
 10
519.9601062225005
 20
398.8998492846302
 30
0.0
 11
519.9601062225005
 21
269.3998362846302
 31
0.0
  0
ARC
  5
A0F
330
18
100
AcDbEntity
  8
1
  6
Continuous
100
AcDbCircle
 10
529.8267752225005
 20
280.1725942846301
 30
0.0
 40
3.633332999999998
100
AcDbArc
 50
310.992732
 51
49.00727200000019
  0
ARC
  5
A10
330
18
100
AcDbEntity
  8
1
  6
Continuous
100
AcDbCircle
 10
520.8017662225004
 20
288.3998362846302
 30
0.0
 40
12.65833399999999
100
AcDbArc
 50
334.3229780000005
 51
25.67702599999968
  0
ARC
  5
A11
330
18
100
AcDbEntity
  8
1
  6
Continuous
100
AcDbCircle
 10
529.8267752225005
 20
296.6270772846302
 30
0.0
 40
3.633332999999998
100
AcDbArc
 50
310.992732
 51
49.00727200000019
  0
LINE
  5
A12
330
18
100
AcDbEntity
  8
4
  6
CENTER
 48
0.8
100
AcDbLine
 10
542.4601062225002
 20
288.3998362846302
 30
0.0
 11
451.4601122225005
 21
288.3998362846302
 31
0.0
  0
LINE
  5
A15
330
18
100
AcDbEntity
  8
1
  6
Continuous
100
AcDbLine
 10
536.7103722225005
 20
294.3998362846302
 30
0.0
 11
536.7103722225005
 21
282.3998362846302
 31
0.0
  0
LINE
  5
A16
330
18
100
AcDbEntity
  8
1
  6
Continuous
100
AcDbLine
 10
533.4601062225003
 20
296.6270772846302
 30
0.0
 11
533.4601062225003
 21
280.1725942846301
 31
0.0
  0
LINE
  5
A17
330
18
100
AcDbEntity
  8
1
  6
Continuous
100
AcDbLine
 10
537.4601062225004
 20
293.6498362846302
 30
0.0
 11
537.4601062225004
 21
283.1498362846302
 31
0.0
  0
LINE
  5
A18
330
18
100
AcDbEntity
  8
2
  6
Continuous
100
AcDbLine
 10
537.4601062225004
 20
283.3468362846303
 30
0.0
 11
533.4601062225003
 21
283.3468362846303
 31
0.0
  0
LINE
  5
A19
330
18
100
AcDbEntity
  8
1
  6
Continuous
100
AcDbLine
 10
536.7103722225005
 20
282.3998362846301
 30
0.0
 11
537.4602802225004
 21
283.1497442846302
 31
0.0
  0
LINE
  5
A1A
330
18
100
AcDbEntity
  8
1
  6
Continuous
100
AcDbLine
 10
536.7103722225005
 20
282.3998362846302
 30
0.0
 11
533.4601062225003
 21
282.3998362846302
 31
0.0
  0
LINE
  5
A1B
330
18
100
AcDbEntity
  8
1
  6
Continuous
100
AcDbLine
 10
536.7103722225005
 20
294.3998362846302
 30
0.0
 11
537.4602802225004
 21
293.6499282846302
 31
0.0
  0
LINE
  5
A1C
330
18
100
AcDbEntity
  8
2
  6
Continuous
100
AcDbLine
 10
537.4601062225004
 20
293.4528362846302
 30
0.0
 11
533.4601062225003
 21
293.4528362846302
 31
0.0
  0
LINE
  5
A1D
330
18
100
AcDbEntity
  8
1
  6
Continuous
100
AcDbLine
 10
536.7103722225005
 20
294.3998362846302
 30
0.0
 11
533.4601062225003
 21
294.3998362846302
 31
0.0
  0
ARC
  5
A20
330
18
100
AcDbEntity
  8
1
  6
Continuous
100
AcDbCircle
 10
471.9601062225002
 20
269.1498362846302
 30
0.0
 40
1.5
100
AcDbArc
 50
180.0
 51
270.0
  0
ARC
  5
A21
330
18
100
AcDbEntity
  8
1
  6
Continuous
100
AcDbCircle
 10
491.9601062225003
 20
293.3998362846302
 30
0.0
 40
80.0
100
AcDbArc
 50
261.6779590000001
 51
278.3220409999997
  0
LINE
  5
A22
330
18
100
AcDbEntity
  8
1
  6
Continuous
100
AcDbLine
 10
508.8442892225002
 20
229.9749712846302
 30
0.0
 11
506.9123572225005
 21
217.58389428463
 31
0.0
  0
ARC
  5
A23
330
18
100
AcDbEntity
  8
1
  6
Continuous
100
AcDbCircle
 10
502.9601062225005
 20
218.2001022846301
 30
0.0
 40
4.0
100
AcDbArc
 50
278.3220409999997
 51
351.138179999999
  0
ARC
  5
A24
330
18
100
AcDbEntity
  8
1
  6
Continuous
100
AcDbCircle
 10
510.3188402225005
 20
229.6998352846302
 30
0.0
 40
1.5
100
AcDbArc
 50
90.0
 51
172.845611
  0
LINE
  5
A25
330
18
100
AcDbEntity
  8
1
  6
Continuous
100
AcDbLine
 10
510.9601062225005
 20
231.1998352846303
 30
0.0
 11
510.3188402225005
 21
231.1998352846303
 31
0.0
  0
LINE
  5
A26
330
18
100
AcDbEntity
  8
1
  6
Continuous
100
AcDbLine
 10
475.0759232225004
 20
229.9749712846302
 30
0.0
 11
477.0078552225004
 21
217.58389428463
 31
0.0
  0
ARC
  5
A27
330
18
100
AcDbEntity
  8
1
  6
Continuous
100
AcDbCircle
 10
480.9601062225005
 20
218.2001022846301
 30
0.0
 40
4.0
100
AcDbArc
 50
188.8618200000009
 51
261.6779590000001
  0
LINE
  5
A28
330
18
100
AcDbEntity
  8
1
  6
Continuous
100
AcDbLine
 10
472.9601062225005
 20
231.1998352846303
 30
0.0
 11
473.6013722225004
 21
231.1998352846303
 31
0.0
  0
ARC
  5
A29
330
18
100
AcDbEntity
  8
1
  6
Continuous
100
AcDbCircle
 10
473.6013722225004
 20
229.6998352846302
 30
0.0
 40
1.5
100
AcDbArc
 50
7.154388999999919
 51
90.0
  0
LINE
  5
A2A
330
18
100
AcDbEntity
  8
1
  6
Continuous
100
AcDbLine
 10
519.4601062225005
 20
279.8998362846302
 30
0.0
 11
519.4601062225005
 21
296.8998362846302
 31
0.0
  0
ARC
  5
A2B
330
18
100
AcDbEntity
  8
1
  6
Continuous
100
AcDbCircle
 10
530.0934372225005
 20
280.1725942846301
 30
0.0
 40
3.633332999999998
100
AcDbArc
 50
130.9927339999999
 51
229.007266
  0
LINE
  5
A2C
330
18
100
AcDbEntity
  8
1
  6
Continuous
100
AcDbLine
 10
526.4601062225002
 20
298.8998362846302
 30
0.0
 11
526.4601062225002
 21
277.8998362846302
 31
0.0
  0
LINE
  5
A2D
330
18
100
AcDbEntity
  8
1
  6
Continuous
100
AcDbLine
 10
518.9601062225005
 20
279.3998362846302
 30
0.0
 11
513.4601062225002
 21
279.3998362846302
 31
0.0
  0
LINE
  5
A2E
330
18
100
AcDbEntity
  8
1
  6
Continuous
100
AcDbLine
 10
523.4601062225005
 20
277.8998362846302
 30
0.0
 11
526.4601062225002
 21
277.8998362846302
 31
0.0
  0
LINE
  5
A2F
330
18
100
AcDbEntity
  8
1
  6
Continuous
100
AcDbLine
 10
532.2101062225002
 20
277.4301782846301
 30
0.0
 11
527.7101062225002
 21
277.4301782846301
 31
0.0
  0
ARC
  5
A30
330
18
100
AcDbEntity
  8
1
  6
Continuous
100
AcDbCircle
 10
518.9601062225005
 20
279.8998362846302
 30
0.0
 40
0.5
100
AcDbArc
 50
270.0
 51
0.000000000000007
  0
LINE
  5
A31
330
18
100
AcDbEntity
  8
1
  6
Continuous
100
AcDbLine
 10
519.9601062225005
 20
279.8998362846302
 30
0.0
 11
519.4601062225005
 21
279.8998362846302
 31
0.0
  0
LINE
  5
A32
330
18
100
AcDbEntity
  8
1
  6
Continuous
100
AcDbLine
 10
523.4601062225005
 20
269.3998362846302
 30
0.0
 11
519.9601062225005
 21
269.3998362846302
 31
0.0
  0
ARC
  5
A33
330
18
100
AcDbEntity
  8
1
  6
Continuous
100
AcDbCircle
 10
511.9601062225004
 20
269.1498362846302
 30
0.0
 40
1.5
100
AcDbArc
 50
270.0
 51
0.000000000000007
  0
ARC
  5
A34
330
18
100
AcDbEntity
  8
1
  6
Continuous
100
AcDbCircle
 10
511.4601062225005
 20
267.1498362846302
 30
0.0
 40
0.5
100
AcDbArc
 50
90.0
 51
180.0
  0
LINE
  5
A35
330
18
100
AcDbEntity
  8
1
  6
Continuous
100
AcDbLine
 10
511.4601062225005
 20
267.6498362846302
 30
0.0
 11
511.9601062225004
 21
267.6498362846302
 31
0.0
  0
LINE
  5
A36
330
18
100
AcDbEntity
  8
1
  6
Continuous
100
AcDbLine
 10
518.9601062225005
 20
297.3998362846302
 30
0.0
 11
513.4601062225002
 21
297.3998362846302
 31
0.0
  0
ARC
  5
A37
330
18
100
AcDbEntity
  8
1
  6
Continuous
100
AcDbCircle
 10
539.1184312225004
 20
288.3998362846302
 30
0.0
 40
12.65833399999999
100
AcDbArc
 50
154.3229730000001
 51
205.6770269999998
  0
LINE
  5
A38
330
18
100
AcDbEntity
  8
1
  6
Continuous
100
AcDbLine
 10
532.2101062225002
 20
282.9150112846302
 30
0.0
 11
527.7101062225002
 21
282.9150112846302
 31
0.0
  0
LINE
  5
A39
330
18
100
AcDbEntity
  8
1
  6
Continuous
100
AcDbLine
 10
523.4601062225005
 20
298.8998362846302
 30
0.0
 11
526.4601062225002
 21
298.8998362846302
 31
0.0
  0
ARC
  5
A3A
330
18
100
AcDbEntity
  8
1
  6
Continuous
100
AcDbCircle
 10
530.0934372225005
 20
296.6270772846302
 30
0.0
 40
3.633332999999998
100
AcDbArc
 50
130.9927339999999
 51
229.007266
  0
LINE
  5
A3B
330
18
100
AcDbEntity
  8
1
  6
Continuous
100
AcDbLine
 10
532.2101062225002
 20
293.8846612846302
 30
0.0
 11
527.7101062225002
 21
293.8846612846302
 31
0.0
  0
LINE
  5
A3C
330
18
100
AcDbEntity
  8
1
  6
Continuous
100
AcDbLine
 10
532.2101062225002
 20
299.3694942846301
 30
0.0
 11
527.7101062225002
 21
299.3694942846301
 31
0.0
  0
ARC
  5
A3D
330
18
100
AcDbEntity
  8
1
  6
Continuous
100
AcDbCircle
 10
518.9601062225005
 20
296.8998362846302
 30
0.0
 40
0.5
100
AcDbArc
 50
0.000000000000007
 51
90.0
  0
LINE
  5
A3E
330
18
100
AcDbEntity
  8
1
  6
Continuous
100
AcDbLine
 10
519.9601062225005
 20
296.8998362846302
 30
0.0
 11
519.4601062225005
 21
296.8998362846302
 31
0.0
  0
LINE
  5
A3F
330
18
100
AcDbEntity
  8
1
  6
Continuous
100
AcDbLine
 10
472.4601062225003
 20
267.6498362846302
 30
0.0
 11
471.9601062225002
 21
267.6498362846302
 31
0.0
  0
ARC
  5
A40
330
18
100
AcDbEntity
  8
1
  6
Continuous
100
AcDbCircle
 10
472.4601062225003
 20
267.1498362846302
 30
0.0
 40
0.5
100
AcDbArc
 50
0.000000000000007
 51
90.0
  0
LINE
  5
A41
330
18
100
AcDbEntity
  8
1
  6
Continuous
100
AcDbLine
 10
464.4601062225005
 20
279.8998362846302
 30
0.0
 11
464.4601062225005
 21
296.8998362846302
 31
0.0
  0
LINE
  5
A42
330
18
100
AcDbEntity
  8
1
  6
Continuous
100
AcDbLine
 10
459.4601062225002
 20
299.8998362846302
 30
0.0
 11
459.4601062225002
 21
276.8998362846302
 31
0.0
  0
ARC
  5
A43
330
18
100
AcDbEntity
  8
1
  6
Continuous
100
AcDbCircle
 10
480.0017782225004
 20
288.3998362846302
 30
0.0
 40
23.541666
100
AcDbArc
 50
150.7582799999996
 51
209.2417949999999
  0
LINE
  5
A44
330
18
100
AcDbEntity
  8
1
  6
Continuous
100
AcDbLine
 10
460.4601062225005
 20
269.3998362846302
 30
0.0
 11
463.9601062225003
 21
269.3998362846302
 31
0.0
  0
LINE
  5
A45
330
18
100
AcDbEntity
  8
1
  6
Continuous
100
AcDbLine
 10
464.9601062225005
 20
279.3998362846302
 30
0.0
 11
470.4601062225004
 21
279.3998362846302
 31
0.0
  0
ARC
  5
A46
330
18
100
AcDbEntity
  8
1
  6
Continuous
100
AcDbCircle
 10
464.9601062225005
 20
279.8998362846302
 30
0.0
 40
0.5
100
AcDbArc
 50
180.0
 51
270.0
  0
LINE
  5
A47
330
18
100
AcDbEntity
  8
1
  6
Continuous
100
AcDbLine
 10
464.4601062225005
 20
279.8998362846302
 30
0.0
 11
463.9601062225003
 21
279.8998362846302
 31
0.0
  0
LINE
  5
A48
330
18
100
AcDbEntity
  8
1
  6
Continuous
100
AcDbLine
 10
460.4601062225005
 20
276.8998362846302
 30
0.0
 11
459.4601062225002
 21
276.8998362846302
 31
0.0
  0
LINE
  5
A49
330
18
100
AcDbEntity
  8
1
  6
Continuous
100
AcDbLine
 10
464.9601062225005
 20
297.3998362846302
 30
0.0
 11
470.4601062225004
 21
297.3998362846302
 31
0.0
  0
ARC
  5
A4A
330
18
100
AcDbEntity
  8
1
  6
Continuous
100
AcDbCircle
 10
464.9601062225005
 20
296.8998362846302
 30
0.0
 40
0.5
100
AcDbArc
 50
90.0
 51
180.0
  0
LINE
  5
A4B
330
18
100
AcDbEntity
  8
1
  6
Continuous
100
AcDbLine
 10
464.4601062225005
 20
296.8998362846302
 30
0.0
 11
463.9601062225003
 21
296.8998362846302
 31
0.0
  0
LINE
  5
A4C
330
18
100
AcDbEntity
  8
1
  6
Continuous
100
AcDbLine
 10
460.4601062225005
 20
299.8998362846302
 30
0.0
 11
459.4601062225002
 21
299.8998362846302
 31
0.0
  0
ARC
  5
A4E
330
18
100
AcDbEntity
  8
1
  6
Continuous
100
AcDbCircle
 10
388.9601062225003
 20
392.1461132846301
 30
0.0
 40
150.0
100
AcDbArc
 50
341.9510430000008
 51
0.0000219999999413
  0
ARC
  5
A4F
330
18
100
AcDbEntity
  8
1
  6
Continuous
100
AcDbCircle
 10
438.9601062225003
 20
383.8907642846302
 30
0.0
 40
96.5
100
AcDbArc
 50
340.4913080000001
 51
0.0000219999999413
  0
LINE
  5
A50
330
18
100
AcDbEntity
  8
1
  6
Continuous
100
AcDbLine
 10
538.9601062225002
 20
403.39985128463
 30
0.0
 11
444.9601062225005
 21
403.39985128463
 31
0.0
  0
LINE
  5
A51
330
18
100
AcDbEntity
  8
1
  6
Continuous
100
AcDbLine
 10
538.9601062225002
 20
399.8998492846301
 30
0.0
 11
444.9601062225005
 21
399.8998492846301
 31
0.0
  0
LINE
  5
A52
330
18
100
AcDbEntity
  8
1
  6
Continuous
100
AcDbLine
 10
538.9601062225002
 20
403.39985128463
 30
0.0
 11
538.9601062225002
 21
392.1461132846301
 31
0.0
  0
LINE
  5
A53
330
18
100
AcDbEntity
  8
1
  6
Continuous
100
AcDbLine
 10
535.4601062225005
 20
398.8998492846302
 30
0.0
 11
535.4601062225005
 21
383.8907642846302
 31
0.0
  0
ARC
  5
A54
330
18
100
AcDbEntity
  8
1
  6
Continuous
100
AcDbCircle
 10
541.4601062225004
 20
394.4454932846302
 30
0.0
 40
6.0
100
AcDbArc
 50
114.6243179999997
 51
180.0
  0
ARC
  5
A55
330
18
100
AcDbEntity
  8
1
  6
Continuous
100
AcDbCircle
 10
534.4601062225002
 20
398.8998492846302
 30
0.0
 40
1.0
100
AcDbArc
 50
0.0000360000000476
 51
90.00001800000005
  0
LINE
  5
A57
330
18
100
AcDbEntity
  8
4
  6
CENTER
 48
0.8
100
AcDbLine
 10
463.9601062225003
 20
395.8998512846302
 30
0.0
 11
463.9601062225003
 21
407.39985128463
 31
0.0
  0
LINE
  5
A58
330
18
100
AcDbEntity
  8
4
  6
CENTER
 48
0.8
100
AcDbLine
 10
465.4601062225005
 20
395.8998512846302
 30
0.0
 11
465.4601062225005
 21
407.39985128463
 31
0.0
  0
LINE
  5
A59
330
18
100
AcDbEntity
  8
4
  6
CENTER
 48
0.8
100
AcDbLine
 10
518.4601062225005
 20
395.8998512846302
 30
0.0
 11
518.4601062225005
 21
407.39985128463
 31
0.0
  0
LINE
  5
A5A
330
18
100
AcDbEntity
  8
4
  6
CENTER
 48
0.8
100
AcDbLine
 10
519.9601062225005
 20
395.8998512846302
 30
0.0
 11
519.9601062225005
 21
407.39985128463
 31
0.0
  0
LINE
  5
A5B
330
18
100
AcDbEntity
  8
1
  6
Continuous
100
AcDbLine
 10
444.9601062225005
 20
403.39985128463
 30
0.0
 11
444.9601062225005
 21
392.1461132846301
 31
0.0
  0
LINE
  5
A5C
330
18
100
AcDbEntity
  8
1
  6
Continuous
100
AcDbLine
 10
448.4601062225005
 20
398.8998492846302
 30
0.0
 11
448.4601062225005
 21
383.8907642846302
 31
0.0
  0
ARC
  5
A5D
330
18
100
AcDbEntity
  8
1
  6
Continuous
100
AcDbCircle
 10
442.4601062225002
 20
394.4454932846302
 30
0.0
 40
6.0
100
AcDbArc
 50
0.0000360000000476
 51
65.37571100000009
  0
ARC
  5
A5E
330
18
100
AcDbEntity
  8
1
  6
Continuous
100
AcDbCircle
 10
471.9601062225002
 20
399.8998492846301
 30
0.0
 40
2.0
100
AcDbArc
 50
180.0
 51
270.0000370000001
  0
ARC
  5
A5F
330
18
100
AcDbEntity
  8
1
  6
Continuous
100
AcDbCircle
 10
481.9601062225005
 20
399.8998492846301
 30
0.0
 40
2.0
100
AcDbArc
 50
180.0
 51
270.0000370000001
  0
ARC
  5
A60
330
18
100
AcDbEntity
  8
1
  6
Continuous
100
AcDbCircle
 10
501.9601062225005
 20
399.8998492846301
 30
0.0
 40
2.0
100
AcDbArc
 50
269.9999819999999
 51
0.0000190000006165
  0
ARC
  5
A61
330
18
100
AcDbEntity
  8
1
  6
Continuous
100
AcDbCircle
 10
511.9601062225004
 20
399.8998492846301
 30
0.0
 40
2.0
100
AcDbArc
 50
269.9999819999999
 51
0.0000190000006165
  0
ARC
  5
A62
330
18
100
AcDbEntity
  8
1
  6
Continuous
100
AcDbCircle
 10
471.9601062225002
 20
307.6498362846302
 30
0.0
 40
1.5
100
AcDbArc
 50
90.0
 51
180.0
  0
LINE
  5
A63
330
18
100
AcDbEntity
  8
1
  6
Continuous
100
AcDbLine
 10
475.0759232225004
 20
346.8247012846301
 30
0.0
 11
477.0078552225004
 21
359.2157782846301
 31
0.0
  0
LINE
  5
A64
330
18
100
AcDbEntity
  8
1
  6
Continuous
100
AcDbLine
 10
508.8442892225002
 20
346.8247012846301
 30
0.0
 11
506.9123572225005
 21
359.2157782846301
 31
0.0
  0
ARC
  5
A65
330
18
100
AcDbEntity
  8
1
  6
Continuous
100
AcDbCircle
 10
721.7373582225003
 20
283.7058052846302
 30
0.0
 40
203.5
100
AcDbArc
 50
160.491308
 51
171.4078609999996
  0
ARC
  5
A66
330
18
100
AcDbEntity
  8
1
  6
Continuous
100
AcDbCircle
 10
721.7373582225003
 20
283.7058052846302
 30
0.0
 40
200.0
100
AcDbArc
 50
161.9510480000007
 51
171.8362159999999
  0
ARC
  5
A67
330
18
100
AcDbEntity
  8
1
  6
Continuous
100
AcDbCircle
 10
569.9601062225005
 20
306.6386592846301
 30
0.0
 40
50.0
100
AcDbArc
 50
171.4078609999996
 51
180.0
  0
ARC
  5
A68
330
18
100
AcDbEntity
  8
1
  6
Continuous
100
AcDbCircle
 10
553.4601062225005
 20
307.8463612846301
 30
0.0
 40
30.0
100
AcDbArc
 50
171.8362159999999
 51
180.0
  0
ARC
  5
A69
330
18
100
AcDbEntity
  8
1
  6
Continuous
100
AcDbCircle
 10
511.4601062225005
 20
309.6498362846302
 30
0.0
 40
0.5
100
AcDbArc
 50
180.0
 51
270.0
  0
ARC
  5
A6A
330
18
100
AcDbEntity
  8
1
  6
Continuous
100
AcDbCircle
 10
511.9601062225004
 20
307.6498362846302
 30
0.0
 40
1.5
100
AcDbArc
 50
0.000000000000007
 51
90.0
  0
LINE
  5
A6B
330
18
100
AcDbEntity
  8
1
  6
Continuous
100
AcDbLine
 10
511.4601062225005
 20
309.1498362846302
 30
0.0
 11
511.9601062225004
 21
309.1498362846302
 31
0.0
  0
ARC
  5
A6C
330
18
100
AcDbEntity
  8
1
  6
Continuous
100
AcDbCircle
 10
510.3188402225005
 20
347.0998372846302
 30
0.0
 40
1.5
100
AcDbArc
 50
187.1543889999999
 51
270.0
  0
LINE
  5
A6D
330
18
100
AcDbEntity
  8
1
  6
Continuous
100
AcDbLine
 10
510.9601062225005
 20
345.5998372846302
 30
0.0
 11
510.3188402225005
 21
345.5998372846302
 31
0.0
  0
LINE
  5
A6E
330
18
100
AcDbEntity
  8
1
  6
Continuous
100
AcDbLine
 10
472.4601062225003
 20
309.1498362846302
 30
0.0
 11
471.9601062225002
 21
309.1498362846302
 31
0.0
  0
ARC
  5
A6F
330
18
100
AcDbEntity
  8
1
  6
Continuous
100
AcDbCircle
 10
472.4601062225003
 20
309.6498362846302
 30
0.0
 40
0.5
100
AcDbArc
 50
270.0
 51
0.000000000000007
  0
LINE
  5
A70
330
18
100
AcDbEntity
  8
1
  6
Continuous
100
AcDbLine
 10
472.9601062225005
 20
345.5998372846302
 30
0.0
 11
473.6013722225004
 21
345.5998372846302
 31
0.0
  0
ARC
  5
A71
330
18
100
AcDbEntity
  8
1
  6
Continuous
100
AcDbCircle
 10
473.6013722225004
 20
347.0998372846302
 30
0.0
 40
1.5
100
AcDbArc
 50
270.0
 51
352.8456110000001
  0
ARC
  5
A72
330
18
100
AcDbEntity
  8
1
  6
Continuous
100
AcDbCircle
 10
491.9601062225003
 20
283.3998362846302
 30
0.0
 40
80.0
100
AcDbArc
 50
81.67795900000013
 51
98.32204099999993
  0
LINE
  5
A73
330
18
100
AcDbEntity
  8
1
  6
Continuous
100
AcDbLine
 10
511.9601062225004
 20
397.8998492846301
 30
0.0
 11
471.9601062225002
 21
397.8998492846301
 31
0.0
  0
ARC
  5
A74
330
18
100
AcDbEntity
  8
1
  6
Continuous
100
AcDbCircle
 10
502.9601062225005
 20
358.5995702846302
 30
0.0
 40
4.0
100
AcDbArc
 50
8.861820000000976
 51
81.67795900000013
  0
ARC
  5
A75
330
18
100
AcDbEntity
  8
1
  6
Continuous
100
AcDbCircle
 10
480.9601062225005
 20
358.5995702846302
 30
0.0
 40
4.0
100
AcDbArc
 50
98.32204099999993
 51
171.138179999999
  0
ARC
  5
A76
330
18
100
AcDbEntity
  8
1
  6
Continuous
100
AcDbCircle
 10
594.9601062225005
 20
392.1461132846301
 30
0.0
 40
150.0
100
AcDbArc
 50
179.999978
 51
198.0489519999991
  0
ARC
  5
A77
330
18
100
AcDbEntity
  8
1
  6
Continuous
100
AcDbCircle
 10
262.1828542225005
 20
283.7058052846302
 30
0.0
 40
203.5
100
AcDbArc
 50
8.592140999999669
 51
19.50869500000082
  0
ARC
  5
A78
330
18
100
AcDbEntity
  8
1
  6
Continuous
100
AcDbCircle
 10
262.1828542225005
 20
283.7058052846302
 30
0.0
 40
200.0
100
AcDbArc
 50
8.163778999999403
 51
18.04894699999965
  0
ARC
  5
A79
330
18
100
AcDbEntity
  8
1
  6
Continuous
100
AcDbCircle
 10
413.9601062225002
 20
306.6386592846301
 30
0.0
 40
50.0
100
AcDbArc
 50
359.9999949999994
 51
8.592140999999669
  0
ARC
  5
A7A
330
18
100
AcDbEntity
  8
1
  6
Continuous
100
AcDbCircle
 10
430.4601062225002
 20
307.8463612846301
 30
0.0
 40
30.0
100
AcDbArc
 50
359.9999949999994
 51
8.163778999999403
  0
ARC
  5
A7B
330
18
100
AcDbEntity
  8
1
  6
Continuous
100
AcDbCircle
 10
544.9601062225005
 20
383.8907642846302
 30
0.0
 40
96.5
100
AcDbArc
 50
179.999978
 51
199.5086919999998
  0
ARC
  5
A7E
330
18
100
AcDbEntity
  8
1
  6
Continuous
100
AcDbCircle
 10
518.9601062225005
 20
398.8998492846302
 30
0.0
 40
1.0
100
AcDbArc
 50
0.0000360000000476
 51
90.00001800000005
  0
ARC
  5
A7F
330
18
100
AcDbEntity
  8
1
  6
Continuous
100
AcDbCircle
 10
464.9601062225005
 20
398.8998492846302
 30
0.0
 40
1.0
100
AcDbArc
 50
89.99998399999995
 51
179.9999639999999
  0
ARC
  5
A80
330
18
100
AcDbEntity
  8
1
  6
Continuous
100
AcDbCircle
 10
449.4601062225004
 20
398.8998492846302
 30
0.0
 40
1.0
100
AcDbArc
 50
90.00001800000005
 51
180.0
  0
ARC
  5
B5B
330
18
100
AcDbEntity
  8
1
  6
Continuous
100
AcDbCircle
 10
698.1235623985145
 20
295.1689522846302
 30
0.0
 40
45.0
100
AcDbArc
 50
161.8476380000008
 51
173.250716999999
  0
ARC
  5
B5C
330
18
100
AcDbEntity
  8
1
  6
Continuous
100
AcDbCircle
 10
701.6355943985145
 20
288.3998512846302
 30
0.0
 40
20.75
100
AcDbArc
 50
172.6124058940838
 51
7.387611892913627
  0
ARC
  5
B5D
330
18
100
AcDbEntity
  8
1
  6
Continuous
100
AcDbCircle
 10
701.6355943985145
 20
288.3998512846302
 30
0.0
 40
57.0
100
AcDbArc
 50
125.7835999655402
 51
54.21640288038376
  0
ARC
  5
B5E
330
18
100
AcDbEntity
  8
1
  6
Continuous
100
AcDbCircle
 10
705.1476263985145
 20
295.1689522846302
 30
0.0
 40
45.0
100
AcDbArc
 50
6.749283000000897
 51
18.15236199999914
  0
ARC
  5
B5F
330
18
100
AcDbEntity
  8
1
  6
Continuous
100
AcDbCircle
 10
701.6355943985145
 20
288.3998512846302
 30
0.0
 40
75.0
100
AcDbArc
 50
120.9872281973752
 51
59.01277393680547
  0
LINE
  5
B60
330
18
100
AcDbEntity
  8
4
  6
CENTER
 48
0.8
100
AcDbLine
 10
701.6355943985145
 20
408.3998512846301
 30
0.0
 11
701.6355943985145
 21
208.3998512846302
 31
0.0
  0
LINE
  5
B61
330
18
100
AcDbEntity
  8
1
  6
Continuous
100
AcDbLine
 10
653.5331343985148
 20
385.1196372846302
 30
0.0
 11
683.4004473985146
 21
283.0632292846302
 31
0.0
  0
LINE
  5
B62
330
18
100
AcDbEntity
  8
1
  6
Continuous
100
AcDbLine
 10
749.7380523985145
 20
385.1196402846301
 30
0.0
 11
719.8707433985146
 21
283.0632452846302
 31
0.0
  0
ARC
  5
B63
330
18
100
AcDbEntity
  8
1
  6
Continuous
100
AcDbCircle
 10
701.6355943985145
 20
262.3998512846302
 30
0.0
 40
25.0
100
AcDbArc
 50
258.1523620000002
 51
281.8476379999998
  0
ARC
  5
B64
330
18
100
AcDbEntity
  8
1
  6
Continuous
100
AcDbCircle
 10
701.6355943985145
 20
288.3998512846302
 30
0.0
 40
23.0
100
AcDbArc
 50
254.477512
 51
285.5224879999998
  0
LINE
  5
B65
330
18
100
AcDbEntity
  8
4
  6
CENTER
 48
0.8
100
AcDbLine
 10
781.6355943985143
 20
288.3998512846302
 30
0.0
 11
621.6355943985146
 21
288.3998512846302
 31
0.0
  0
ARC
  5
B67
330
18
100
AcDbEntity
  8
1
  6
Continuous
100
AcDbCircle
 10
701.6355943985145
 20
288.3998512846302
 30
0.0
 40
19.0
100
AcDbArc
 50
196.3123770000006
 51
270.0000370000001
  0
ARC
  5
B68
330
18
100
AcDbEntity
  8
1
  6
Continuous
100
AcDbCircle
 10
709.2538233985147
 20
288.7428922846302
 30
0.0
 40
45.0
100
AcDbArc
 50
306.7492829999998
 51
318.152362000001
  0
LINE
  5
B69
330
18
100
AcDbEntity
  8
1
  6
Continuous
100
AcDbLine
 10
716.9230863985145
 20
265.9211372846302
 30
0.0
 11
722.9989203985145
 21
255.3974862846302
 31
0.0
  0
LINE
  5
B6A
330
18
100
AcDbEntity
  8
1
  6
Continuous
100
AcDbLine
 10
713.4589853985145
 20
263.9211372846302
 30
0.0
 11
719.5348183985145
 21
253.3974862846302
 31
0.0
  0
ARC
  5
B6B
330
18
100
AcDbEntity
  8
1
  6
Continuous
100
AcDbCircle
 10
730.7931483985145
 20
259.8974862846302
 30
0.0
 40
9.0
100
AcDbArc
 50
210.0
 51
306.7492829999998
  0
ARC
  5
B6C
330
18
100
AcDbEntity
  8
1
  6
Continuous
100
AcDbCircle
 10
711.7405893985147
 20
248.8974862846301
 30
0.0
 40
9.0
100
AcDbArc
 50
293.2507169999995
 51
30.0
  0
ARC
  5
B6D
330
18
100
AcDbEntity
  8
1
  6
Continuous
100
AcDbCircle
 10
697.5293973985145
 20
281.9737912846301
 30
0.0
 40
45.0
100
AcDbArc
 50
281.8476379999998
 51
293.2507169999995
  0
LINE
  5
B6E
330
18
100
AcDbEntity
  8
1
  6
Continuous
100
AcDbLine
 10
728.7464773985146
 20
290.3998512846301
 30
0.0
 11
740.8981443985147
 21
290.3998512846301
 31
0.0
  0
LINE
  5
B6F
330
18
100
AcDbEntity
  8
1
  6
Continuous
100
AcDbLine
 10
728.7464773985146
 20
286.3998512846301
 30
0.0
 11
740.8981443985147
 21
286.3998512846301
 31
0.0
  0
ARC
  5
B70
330
18
100
AcDbEntity
  8
1
  6
Continuous
100
AcDbCircle
 10
740.8981443985147
 20
277.3998512846302
 30
0.0
 40
9.0
100
AcDbArc
 50
353.2507169999992
 51
90.0
  0
ARC
  5
B71
330
18
100
AcDbEntity
  8
1
  6
Continuous
100
AcDbCircle
 10
705.1476263985145
 20
281.6307502846303
 30
0.0
 40
45.0
100
AcDbArc
 50
341.8476380000008
 51
353.2507169999992
  0
ARC
  5
B72
330
18
100
AcDbEntity
  8
1
  6
Continuous
100
AcDbCircle
 10
724.1522553985145
 20
275.3998512846302
 30
0.0
 40
25.0
100
AcDbArc
 50
318.152362000001
 51
341.8476380000008
  0
ARC
  5
B73
330
18
100
AcDbEntity
  8
1
  6
Continuous
100
AcDbCircle
 10
740.8981443985147
 20
299.3998512846301
 30
0.0
 40
9.0
100
AcDbArc
 50
270.0
 51
6.749283000000897
  0
ARC
  5
B74
330
18
100
AcDbEntity
  8
1
  6
Continuous
100
AcDbCircle
 10
701.6355943985145
 20
288.3998512846302
 30
0.0
 40
23.0
100
AcDbArc
 50
314.4775120000003
 51
345.5224879999986
  0
ARC
  5
B75
330
18
100
AcDbEntity
  8
1
  6
Continuous
100
AcDbCircle
 10
701.6355943985145
 20
288.3998512846302
 30
0.0
 40
19.0
100
AcDbArc
 50
269.9999819999999
 51
343.6876419999999
  0
ARC
  5
B76
330
18
100
AcDbEntity
  8
1
  6
Continuous
100
AcDbCircle
 10
721.2532143985145
 20
268.4211372846302
 30
0.0
 40
5.0
100
AcDbArc
 50
134.4775120000003
 51
210.0
  0
ARC
  5
B77
330
18
100
AcDbEntity
  8
1
  6
Continuous
100
AcDbCircle
 10
709.1288583985146
 20
261.4211372846302
 30
0.0
 40
5.0
100
AcDbArc
 50
30.0
 51
105.5224879999997
  0
ARC
  5
B78
330
18
100
AcDbEntity
  8
1
  6
Continuous
100
AcDbCircle
 10
728.7464773985146
 20
295.3998512846301
 30
0.0
 40
5.0
100
AcDbArc
 50
194.4775120000014
 51
270.0
  0
ARC
  5
B79
330
18
100
AcDbEntity
  8
1
  6
Continuous
100
AcDbCircle
 10
728.7464773985146
 20
281.3998512846302
 30
0.0
 40
5.0
100
AcDbArc
 50
90.0
 51
165.5224879999986
  0
ARC
  5
B7A
330
18
100
AcDbEntity
  8
1
  6
Continuous
100
AcDbCircle
 10
701.6355943985145
 20
288.3998512846302
 30
0.0
 40
23.0
100
AcDbArc
 50
14.47751200000134
 51
17.98877427219824
  0
LINE
  5
B7B
330
18
100
AcDbEntity
  8
1
  6
Continuous
100
AcDbLine
 10
689.8122033985147
 20
263.9211372846302
 30
0.0
 11
683.7363703985146
 21
253.3974862846302
 31
0.0
  0
ARC
  5
B7C
330
18
100
AcDbEntity
  8
1
  6
Continuous
100
AcDbCircle
 10
694.0173653985145
 20
288.7428922846302
 30
0.0
 40
45.0
100
AcDbArc
 50
221.847637999999
 51
233.250717
  0
LINE
  5
B7D
330
18
100
AcDbEntity
  8
1
  6
Continuous
100
AcDbLine
 10
686.3481023985143
 20
265.9211372846302
 30
0.0
 11
680.2722683985146
 21
255.3974862846302
 31
0.0
  0
ARC
  5
B7E
330
18
100
AcDbEntity
  8
1
  6
Continuous
100
AcDbCircle
 10
672.4780403985146
 20
259.8974862846302
 30
0.0
 40
9.0
100
AcDbArc
 50
233.250717
 51
330.0
  0
ARC
  5
B7F
330
18
100
AcDbEntity
  8
1
  6
Continuous
100
AcDbCircle
 10
691.5305993985145
 20
248.8974862846301
 30
0.0
 40
9.0
100
AcDbArc
 50
150.0
 51
246.7492830000002
  0
ARC
  5
B80
330
18
100
AcDbEntity
  8
1
  6
Continuous
100
AcDbCircle
 10
705.7417913985146
 20
281.9737912846301
 30
0.0
 40
45.0
100
AcDbArc
 50
246.7492830000002
 51
258.1523620000002
  0
LINE
  5
B81
330
18
100
AcDbEntity
  8
1
  6
Continuous
100
AcDbLine
 10
674.5247113985144
 20
290.3998512846301
 30
0.0
 11
662.3730443985142
 21
290.3998512846301
 31
0.0
  0
LINE
  5
B82
330
18
100
AcDbEntity
  8
1
  6
Continuous
100
AcDbLine
 10
674.5247113985146
 20
286.3998512846301
 30
0.0
 11
662.3730443985143
 21
286.3998512846301
 31
0.0
  0
ARC
  5
B83
330
18
100
AcDbEntity
  8
1
  6
Continuous
100
AcDbCircle
 10
701.6355943985145
 20
288.3998512846302
 30
0.0
 40
23.0
100
AcDbArc
 50
194.4775120000014
 51
225.5224879999996
  0
ARC
  5
B84
330
18
100
AcDbEntity
  8
1
  6
Continuous
100
AcDbCircle
 10
682.0179743985145
 20
268.4211372846302
 30
0.0
 40
5.0
100
AcDbArc
 50
330.0
 51
45.52248799999961
  0
ARC
  5
B85
330
18
100
AcDbEntity
  8
1
  6
Continuous
100
AcDbCircle
 10
694.1423303985145
 20
261.4211372846302
 30
0.0
 40
5.0
100
AcDbArc
 50
74.47751200000026
 51
150.0
  0
ARC
  5
B86
330
18
100
AcDbEntity
  8
1
  6
Continuous
100
AcDbCircle
 10
674.5247113985144
 20
295.3998512846301
 30
0.0
 40
5.0
100
AcDbArc
 50
270.0
 51
345.5224879999986
  0
ARC
  5
B87
330
18
100
AcDbEntity
  8
1
  6
Continuous
100
AcDbCircle
 10
674.5247113985146
 20
281.3998512846302
 30
0.0
 40
5.0
100
AcDbArc
 50
14.47751200000134
 51
90.0
  0
ARC
  5
B88
330
18
100
AcDbEntity
  8
1
  6
Continuous
100
AcDbCircle
 10
701.6355943985145
 20
288.3998512846302
 30
0.0
 40
23.0
100
AcDbArc
 50
162.0112372093601
 51
165.5224879999986
  0
ARC
  5
B89
330
18
100
AcDbEntity
  8
1
  6
Continuous
100
AcDbCircle
 10
662.3730443985143
 20
277.3998512846302
 30
0.0
 40
9.0
100
AcDbArc
 50
90.0
 51
186.7492830000009
  0
ARC
  5
B8A
330
18
100
AcDbEntity
  8
1
  6
Continuous
100
AcDbCircle
 10
698.1235623985145
 20
281.6307502846303
 30
0.0
 40
45.0
100
AcDbArc
 50
186.7492830000009
 51
198.152361999999
  0
ARC
  5
B8B
330
18
100
AcDbEntity
  8
1
  6
Continuous
100
AcDbCircle
 10
679.1189343985146
 20
275.3998512846302
 30
0.0
 40
25.0
100
AcDbArc
 50
198.152361999999
 51
221.847637999999
  0
ARC
  5
B8C
330
18
100
AcDbEntity
  8
1
  6
Continuous
100
AcDbCircle
 10
662.3730443985142
 20
299.3998512846301
 30
0.0
 40
9.0
100
AcDbArc
 50
173.250716999999
 51
270.0
  0
LINE
  5
B90
330
18
100
AcDbEntity
  8
1
  6
Continuous
100
AcDbLine
 10
631.6355983985146
 20
403.39985128463
 30
0.0
 11
771.6355943985145
 21
403.39985128463
 31
0.0
  0
LINE
  5
B91
330
18
100
AcDbEntity
  8
4
  6
CENTER
 48
0.8
100
AcDbLine
 10
757.6355903985145
 20
395.8998512846302
 30
0.0
 11
757.6355903985145
 21
407.39985128463
 31
0.0
  0
LINE
  5
B92
330
18
100
AcDbEntity
  8
4
  6
CENTER
 48
0.8
100
AcDbLine
 10
751.6355903985145
 20
395.8998512846302
 30
0.0
 11
751.6355903985145
 21
407.39985128463
 31
0.0
  0
LINE
  5
B93
330
18
100
AcDbEntity
  8
1
  6
Continuous
100
AcDbLine
 10
759.6355713985145
 20
397.8998512846302
 30
0.0
 11
759.6355713985145
 21
399.8998512846302
 31
0.0
  0
LINE
  5
B94
330
18
100
AcDbEntity
  8
1
  6
Continuous
100
AcDbLine
 10
730.7022603985146
 20
325.9331842846302
 30
0.0
 11
730.7022603985146
 21
396.3331842846301
 31
0.0
  0
ARC
  5
B95
330
18
100
AcDbEntity
  8
1
  6
Continuous
100
AcDbCircle
 10
1074.622231398514
 20
255.1202182846302
 30
0.0
 40
350.0
100
AcDbArc
 50
158.1916429999996
 51
169.3048010000005
  0
ARC
  5
B96
330
18
100
AcDbEntity
  8
1
  6
Continuous
100
AcDbCircle
 10
730.7931483985145
 20
316.9022162846301
 30
0.0
 40
9.0
100
AcDbArc
 50
53.25071700000009
 51
79.92756979735808
  0
ARC
  5
B97
330
18
100
AcDbEntity
  8
1
  6
Continuous
100
AcDbCircle
 10
724.1522543985145
 20
301.3998512846301
 30
0.0
 40
25.0
100
AcDbArc
 50
18.15236199999914
 51
41.84763799999901
  0
ARC
  5
B98
330
18
100
AcDbEntity
  8
1
  6
Continuous
100
AcDbCircle
 10
709.2538233985147
 20
288.0568102846302
 30
0.0
 40
45.0
100
AcDbArc
 50
41.84763799999901
 51
53.2507170000002
  0
ARC
  5
B99
330
18
100
AcDbEntity
  8
1
  6
Continuous
100
AcDbCircle
 10
764.1342223985145
 20
380.9065312846302
 30
0.0
 40
15.0
100
AcDbArc
 50
116.5704239999996
 51
163.6876269999991
  0
ARC
  5
B9A
330
18
100
AcDbEntity
  8
1
  6
Continuous
100
AcDbCircle
 10
755.6355713985145
 20
397.8998512846302
 30
0.0
 40
4.0
100
AcDbArc
 50
296.5704290000001
 51
0.0000190000006165
  0
LINE
  5
B9B
330
18
100
AcDbEntity
  8
1
  6
Continuous
100
AcDbLine
 10
771.6355943985145
 20
399.8998512846302
 30
0.0
 11
759.6355713985145
 21
399.8998512846302
 31
0.0
  0
LINE
  5
B9C
330
18
100
AcDbEntity
  8
1
  6
Continuous
100
AcDbLine
 10
771.6355943985145
 20
403.3998682846301
 30
0.0
 11
771.6355943985145
 21
399.8998512846302
 31
0.0
  0
ARC
  5
B9D
330
18
100
AcDbEntity
  8
1
  6
Continuous
100
AcDbCircle
 10
763.1355713985145
 20
399.8998512846302
 30
0.0
 40
3.5
100
AcDbArc
 50
90.00001800000005
 51
180.0
  0
LINE
  5
B9F
330
18
100
AcDbEntity
  8
4
  6
CENTER
 48
0.8
100
AcDbLine
 10
651.6355983985146
 20
395.8998512846302
 30
0.0
 11
651.6355983985146
 21
407.39985128463
 31
0.0
  0
LINE
  5
BA0
330
18
100
AcDbEntity
  8
4
  6
CENTER
 48
0.8
100
AcDbLine
 10
645.6355983985146
 20
395.8998512846302
 30
0.0
 11
645.6355983985146
 21
407.39985128463
 31
0.0
  0
LINE
  5
BA1
330
18
100
AcDbEntity
  8
1
  6
Continuous
100
AcDbLine
 10
643.6356133985143
 20
397.8998512846302
 30
0.0
 11
643.6356133985143
 21
399.8998512846302
 31
0.0
  0
LINE
  5
BA2
330
18
100
AcDbEntity
  8
1
  6
Continuous
100
AcDbLine
 10
672.5689323985144
 20
325.9331842846302
 30
0.0
 11
672.5689323985144
 21
396.3331842846301
 31
0.0
  0
ARC
  5
BA3
330
18
100
AcDbEntity
  8
1
  6
Continuous
100
AcDbCircle
 10
328.6489653985146
 20
255.1202182846302
 30
0.0
 40
350.0
100
AcDbArc
 50
10.69523799999936
 51
21.80839299999969
  0
ARC
  5
BA4
330
18
100
AcDbEntity
  8
1
  6
Continuous
100
AcDbCircle
 10
672.4780403985143
 20
316.9022162846301
 30
0.0
 40
9.0
100
AcDbArc
 50
100.0724471927805
 51
126.7492829999999
  0
ARC
  5
BA5
330
18
100
AcDbEntity
  8
1
  6
Continuous
100
AcDbCircle
 10
679.1189343985145
 20
301.3998512846301
 30
0.0
 40
25.0
100
AcDbArc
 50
138.152362000001
 51
161.8476380000008
  0
ARC
  5
BA6
330
18
100
AcDbEntity
  8
1
  6
Continuous
100
AcDbCircle
 10
694.0173653985142
 20
288.0568102846302
 30
0.0
 40
45.0
100
AcDbArc
 50
126.7492829999999
 51
138.152362000001
  0
ARC
  5
BA7
330
18
100
AcDbEntity
  8
1
  6
Continuous
100
AcDbCircle
 10
639.1369713985144
 20
380.9065312846302
 30
0.0
 40
15.0
100
AcDbArc
 50
16.31241300000062
 51
63.42961199999979
  0
ARC
  5
BA8
330
18
100
AcDbEntity
  8
1
  6
Continuous
100
AcDbCircle
 10
647.6356133985143
 20
397.8998512846302
 30
0.0
 40
4.0
100
AcDbArc
 50
180.0
 51
243.4295899999998
  0
LINE
  5
BA9
330
18
100
AcDbEntity
  8
1
  6
Continuous
100
AcDbLine
 10
631.6355983985147
 20
399.8998512846302
 30
0.0
 11
643.6356133985148
 21
399.8998512846302
 31
0.0
  0
ARC
  5
BAA
330
18
100
AcDbEntity
  8
1
  6
Continuous
100
AcDbCircle
 10
640.1356133985146
 20
399.8998512846302
 30
0.0
 40
3.5
100
AcDbArc
 50
0.0000360000000476
 51
90.00001800000005
  0
LINE
  5
BAB
330
18
100
AcDbEntity
  8
1
  6
Continuous
100
AcDbLine
 10
631.6355983985146
 20
403.3998682846301
 30
0.0
 11
631.6355983985146
 21
399.8998512846302
 31
0.0
  0
ARC
  5
E67
330
18
100
AcDbEntity
  8
1
  6
Continuous
100
AcDbCircle
 10
701.6355943985144
 20
288.3998512846302
 30
0.0
 40
10.49999200000002
100
AcDbArc
 50
94.7913594504053
 51
145.2086405495954
  0
CIRCLE
  5
E68
330
18
100
AcDbEntity
  8
1
  6
Continuous
100
AcDbCircle
 10
701.6355943985144
 20
288.3998512846302
 30
0.0
 40
9.500002498827255
  0
ARC
  5
E69
330
18
100
AcDbEntity
  8
1
  6
Continuous
100
AcDbCircle
 10
701.6355943985144
 20
288.3998512846302
 30
0.0
 40
10.49999200000002
100
AcDbArc
 50
34.7913594504045
 51
85.20864054959469
  0
LINE
  5
E6A
330
18
100
AcDbEntity
  8
1
  6
Continuous
100
AcDbLine
 10
701.6355943985144
 20
299.3695092846302
 30
0.0
 11
692.1355918996871
 21
293.8846802846301
 31
0.0
  0
LINE
  5
E6B
330
18
100
AcDbEntity
  8
1
  6
Continuous
100
AcDbLine
 10
701.6355943985144
 20
299.3695092846302
 30
0.0
 11
711.1355968973416
 21
293.8846802846301
 31
0.0
  0
ARC
  5
E6C
330
18
100
AcDbEntity
  8
1
  6
Continuous
100
AcDbCircle
 10
701.6355943985144
 20
288.3998512846302
 30
0.0
 40
10.49999200000002
100
AcDbArc
 50
274.7913594504051
 51
325.2086405495928
  0
CIRCLE
  5
E6D
330
18
100
AcDbEntity
  8
1
  6
Continuous
100
AcDbCircle
 10
701.6355943985144
 20
288.3998512846302
 30
0.0
 40
5.999992000000019
  0
CIRCLE
  5
E6E
330
18
100
AcDbEntity
  8
2
  6
Continuous
100
AcDbCircle
 10
701.6355943985144
 20
288.3998512846302
 30
0.0
 40
5.052992000000016
  0
LINE
  5
E6F
330
18
100
AcDbEntity
  8
1
  6
Continuous
100
AcDbLine
 10
711.1355968973416
 20
282.9150222846302
 30
0.0
 11
701.6355943985144
 21
277.4301932846302
 31
0.0
  0
LINE
  5
E70
330
18
100
AcDbEntity
  8
1
  6
Continuous
100
AcDbLine
 10
692.1355918996871
 20
293.8846802846301
 30
0.0
 11
692.1355918996871
 21
282.9150222846302
 31
0.0
  0
ARC
  5
E71
330
18
100
AcDbEntity
  8
1
  6
Continuous
100
AcDbCircle
 10
701.6355943985144
 20
288.3998512846302
 30
0.0
 40
10.49999200000002
100
AcDbArc
 50
214.7913594504073
 51
265.2086405495946
  0
LINE
  5
E72
330
18
100
AcDbEntity
  8
1
  6
Continuous
100
AcDbLine
 10
692.1355918996871
 20
282.9150222846302
 30
0.0
 11
701.6355943985144
 21
277.4301932846302
 31
0.0
  0
ARC
  5
E73
330
18
100
AcDbEntity
  8
1
  6
Continuous
100
AcDbCircle
 10
701.6355943985144
 20
288.3998512846302
 30
0.0
 40
10.49999200000002
100
AcDbArc
 50
154.7913594504061
 51
205.2086405495938
  0
LINE
  5
E74
330
18
100
AcDbEntity
  8
1
  6
Continuous
100
AcDbLine
 10
711.1355968973416
 20
293.8846802846301
 30
0.0
 11
711.1355968973416
 21
282.9150222846302
 31
0.0
  0
ARC
  5
E75
330
18
100
AcDbEntity
  8
1
  6
Continuous
100
AcDbCircle
 10
701.6355943985144
 20
288.3998512846302
 30
0.0
 40
10.49999200000002
100
AcDbArc
 50
334.7913594504061
 51
25.20864054959384
  0
ARC
  5
E9A
330
18
100
AcDbEntity
  8
1
  6
Continuous
100
AcDbCircle
 10
261.903445554011
 20
142.3665262846301
 30
0.0
 40
21.49999999999999
100
AcDbArc
 50
217.7704895886364
 51
270.0
  0
ARC
  5
E9B
330
18
100
AcDbEntity
  8
1
  6
Continuous
100
AcDbCircle
 10
302.6657905389614
 20
142.3665262846301
 30
0.0
 40
21.49999999999999
100
AcDbArc
 50
270.0
 51
322.2295104113634
  0
LINE
  5
EAC
330
18
100
AcDbEntity
  8
1
  6
Continuous
100
AcDbLine
 10
302.6657905389614
 20
64.86652628463025
 30
0.0
 11
261.903445554011
 21
64.86652628463025
 31
0.0
  0
LINE
  5
EAD
330
18
100
AcDbEntity
  8
1
  6
Continuous
100
AcDbLine
 10
302.6657905389614
 20
120.8665262846301
 30
0.0
 11
261.903445554011
 21
120.8665262846301
 31
0.0
  0
LINE
  5
EB9
330
18
100
AcDbEntity
  8
1
  6
Continuous
100
AcDbLine
 10
224.2846370464862
 20
49.36652628463026
 30
0.0
 11
230.2846220464862
 21
49.36652628463026
 31
0.0
  0
ARC
  5
EC7
330
18
100
AcDbEntity
  8
1
  6
Continuous
100
AcDbCircle
 10
224.284637517311
 20
45.82082290261039
 30
0.0
 40
3.545703382019834
100
AcDbArc
 50
90.00000760815876
 51
170.7907139999569
  0
ARC
  5
ECD
330
18
100
AcDbEntity
  8
1
  6
Continuous
100
AcDbCircle
 10
230.2846220464862
 20
67.86652628463025
 30
0.0
 40
18.5
100
AcDbArc
 50
269.9999819999975
 51
322.2295104113634
  0
ARC
  5
ECF
330
18
100
AcDbEntity
  8
1
  6
Continuous
100
AcDbCircle
 10
261.903445554011
 20
43.36652628463025
 30
0.0
 40
21.49999999999999
100
AcDbArc
 50
90.0
 51
142.2295104113635
  0
ARC
  5
F01
330
18
100
AcDbEntity
  8
1
  6
Continuous
100
AcDbCircle
 10
334.2846140464863
 20
67.86652628463025
 30
0.0
 40
18.5
100
AcDbArc
 50
217.7704895886364
 51
270.0000179999992
  0
ARC
  5
F07
330
18
100
AcDbEntity
  8
1
  6
Continuous
100
AcDbCircle
 10
302.6657905389614
 20
43.36652628463025
 30
0.0
 40
21.49999999999999
100
AcDbArc
 50
37.77048958863645
 51
90.0
  0
ARC
  5
F10
330
18
100
AcDbEntity
  8
1
  6
Continuous
100
AcDbCircle
 10
340.2845985756613
 20
45.82082290261039
 30
0.0
 40
3.545703382019834
100
AcDbArc
 50
9.209286000043023
 51
89.99999239184125
  0
LINE
  5
F11
330
18
100
AcDbEntity
  8
1
  6
Continuous
100
AcDbLine
 10
340.2845990464864
 20
49.36652628463026
 30
0.0
 11
334.2846140464863
 21
49.36652628463026
 31
0.0
  0
LINE
  5
F26
330
18
100
AcDbEntity
  8
1
  6
Continuous
100
AcDbLine
 10
224.2846370464862
 20
136.3665262846301
 30
0.0
 11
230.2846220464862
 21
136.3665262846301
 31
0.0
  0
ARC
  5
F2A
330
18
100
AcDbEntity
  8
1
  6
Continuous
100
AcDbCircle
 10
224.284637517311
 20
139.91222966665
 30
0.0
 40
3.545703382019834
100
AcDbArc
 50
189.2092860000429
 51
269.9999923918412
  0
ARC
  5
F2C
330
18
100
AcDbEntity
  8
1
  6
Continuous
100
AcDbCircle
 10
230.2846220464862
 20
117.8665262846301
 30
0.0
 40
18.5
100
AcDbArc
 50
37.77048958863645
 51
90.00001799999918
  0
ARC
  5
F31
330
18
100
AcDbEntity
  8
1
  6
Continuous
100
AcDbCircle
 10
334.2846140464863
 20
117.8665262846301
 30
0.0
 40
18.5
100
AcDbArc
 50
89.99998200000083
 51
142.2295104113635
  0
ARC
  5
F34
330
18
100
AcDbEntity
  8
1
  6
Continuous
100
AcDbCircle
 10
340.2845985756613
 20
139.91222966665
 30
0.0
 40
3.545703382019834
100
AcDbArc
 50
270.0000076081586
 51
350.7907139999569
  0
LINE
  5
F36
330
18
100
AcDbEntity
  8
1
  6
Continuous
100
AcDbLine
 10
340.2845990464864
 20
136.3665262846301
 30
0.0
 11
334.2846140464863
 21
136.3665262846301
 31
0.0
  0
LINE
  5
1137
330
18
100
AcDbEntity
  8
1
  6
Continuous
100
AcDbLine
 10
225.0846170464862
 20
73.86652628463025
 30
0.0
 11
339.4846190464863
 21
73.86652628463025
 31
0.0
  0
LINE
  5
1138
330
18
100
AcDbEntity
  8
1
  6
Continuous
100
AcDbLine
 10
225.0846170464863
 20
111.8665262846302
 30
0.0
 11
339.4846190464863
 21
111.8665262846302
 31
0.0
  0
LINE
  5
1139
330
18
100
AcDbEntity
  8
1
  6
Continuous
100
AcDbLine
 10
301.5346180464864
 20
71.36652628463025
 30
0.0
 11
263.0346180464862
 21
71.36652628463025
 31
0.0
  0
LINE
  5
113A
330
18
100
AcDbEntity
  8
1
  6
Continuous
100
AcDbLine
 10
301.5346180464864
 20
114.3665262846301
 30
0.0
 11
263.0346180464862
 21
114.3665262846301
 31
0.0
  0
LINE
  5
113B
330
18
100
AcDbEntity
  8
1
  6
Continuous
100
AcDbLine
 10
225.0846170464863
 20
109.7252602846302
 30
0.0
 11
339.4846190464863
 21
109.7252602846302
 31
0.0
  0
LINE
  5
113C
330
18
100
AcDbEntity
  8
1
  6
Continuous
100
AcDbLine
 10
225.0846170464862
 20
76.00779228463022
 30
0.0
 11
339.4846190464863
 21
76.00779228463022
 31
0.0
  0
ARC
  5
114E
330
18
100
AcDbEntity
  8
1
  6
Continuous
100
AcDbCircle
 10
301.5346180464864
 20
112.8665262846302
 30
0.0
 40
1.5
100
AcDbArc
 50
0.0
 51
90.0
  0
ARC
  5
114F
330
18
100
AcDbEntity
  8
1
  6
Continuous
100
AcDbCircle
 10
277.2846180464862
 20
92.86652628463023
 30
0.0
 40
80.0
100
AcDbArc
 50
351.677959
 51
8.322040999999877
  0
LINE
  5
1150
330
18
100
AcDbEntity
  8
1
  6
Continuous
100
AcDbLine
 10
340.7094830464862
 20
75.98234328463025
 30
0.0
 11
353.1005600464863
 21
77.91427528463021
 31
0.0
  0
ARC
  5
1151
330
18
100
AcDbEntity
  8
1
  6
Continuous
100
AcDbCircle
 10
352.4843520464862
 20
81.86652628463027
 30
0.0
 40
4.0
100
AcDbArc
 50
278.8618200000009
 51
351.677959
  0
ARC
  5
1152
330
18
100
AcDbEntity
  8
1
  6
Continuous
100
AcDbCircle
 10
340.9846190464863
 20
74.50779228463023
 30
0.0
 40
1.5
100
AcDbArc
 50
97.15438899999988
 51
180.0
  0
LINE
  5
1153
330
18
100
AcDbEntity
  8
1
  6
Continuous
100
AcDbLine
 10
339.4846190464862
 20
73.86652628463025
 30
0.0
 11
339.4846190464862
 21
74.50779228463023
 31
0.0
  0
LINE
  5
1154
330
18
100
AcDbEntity
  8
1
  6
Continuous
100
AcDbLine
 10
340.7094830464862
 20
109.7507092846301
 30
0.0
 11
353.1005600464863
 21
107.8187772846302
 31
0.0
  0
ARC
  5
1155
330
18
100
AcDbEntity
  8
1
  6
Continuous
100
AcDbCircle
 10
352.4843520464862
 20
103.8665262846302
 30
0.0
 40
4.0
100
AcDbArc
 50
8.322040999999877
 51
81.13817999999907
  0
LINE
  5
1156
330
18
100
AcDbEntity
  8
1
  6
Continuous
100
AcDbLine
 10
339.4846190464862
 20
111.8665262846302
 30
0.0
 11
339.4846190464862
 21
111.2252602846302
 31
0.0
  0
ARC
  5
1157
330
18
100
AcDbEntity
  8
1
  6
Continuous
100
AcDbCircle
 10
340.9846190464863
 20
111.2252602846302
 30
0.0
 40
1.5
100
AcDbArc
 50
180.0
 51
262.8456110000001
  0
LINE
  5
1158
330
18
100
AcDbEntity
  8
1
  6
Continuous
100
AcDbLine
 10
290.7846180464862
 20
65.36652628463025
 30
0.0
 11
273.7846180464862
 21
65.36652628463025
 31
0.0
  0
LINE
  5
115B
330
18
100
AcDbEntity
  8
1
  6
Continuous
100
AcDbLine
 10
291.2846180464864
 20
65.86652628463025
 30
0.0
 11
291.2846180464864
 21
71.36652628463025
 31
0.0
  0
ARC
  5
115E
330
18
100
AcDbEntity
  8
1
  6
Continuous
100
AcDbCircle
 10
290.7846180464862
 20
65.86652628463025
 30
0.0
 40
0.5
100
AcDbArc
 50
270.0
 51
0.0
  0
LINE
  5
115F
330
18
100
AcDbEntity
  8
1
  6
Continuous
100
AcDbLine
 10
290.7846180464862
 20
64.86652628463025
 30
0.0
 11
290.7846180464862
 21
65.36652628463025
 31
0.0
  0
ARC
  5
1161
330
18
100
AcDbEntity
  8
1
  6
Continuous
100
AcDbCircle
 10
301.5346180464864
 20
72.86652628463025
 30
0.0
 40
1.5
100
AcDbArc
 50
270.0
 51
0.0
  0
ARC
  5
1162
330
18
100
AcDbEntity
  8
1
  6
Continuous
100
AcDbCircle
 10
303.5346180464864
 20
73.36652628463025
 30
0.0
 40
0.5
100
AcDbArc
 50
90.0
 51
180.0
  0
LINE
  5
1163
330
18
100
AcDbEntity
  8
1
  6
Continuous
100
AcDbLine
 10
303.0346180464862
 20
73.36652628463025
 30
0.0
 11
303.0346180464862
 21
72.86652628463025
 31
0.0
  0
LINE
  5
1164
330
18
100
AcDbEntity
  8
1
  6
Continuous
100
AcDbLine
 10
273.2846180464862
 20
65.86652628463025
 30
0.0
 11
273.2846180464862
 21
71.36652628463025
 31
0.0
  0
ARC
  5
116B
330
18
100
AcDbEntity
  8
1
  6
Continuous
100
AcDbCircle
 10
273.7846180464862
 20
65.86652628463025
 30
0.0
 40
0.5
100
AcDbArc
 50
180.0
 51
270.0
  0
LINE
  5
116C
330
18
100
AcDbEntity
  8
1
  6
Continuous
100
AcDbLine
 10
273.7846180464862
 20
64.86652628463025
 30
0.0
 11
273.7846180464862
 21
65.36652628463025
 31
0.0
  0
LINE
  5
116D
330
18
100
AcDbEntity
  8
1
  6
Continuous
100
AcDbLine
 10
303.0346180464862
 20
112.3665262846301
 30
0.0
 11
303.0346180464862
 21
112.8665262846302
 31
0.0
  0
ARC
  5
116E
330
18
100
AcDbEntity
  8
1
  6
Continuous
100
AcDbCircle
 10
303.5346180464864
 20
112.3665262846301
 30
0.0
 40
0.5
100
AcDbArc
 50
180.0
 51
270.0
  0
LINE
  5
116F
330
18
100
AcDbEntity
  8
1
  6
Continuous
100
AcDbLine
 10
290.7846180464862
 20
120.3665262846302
 30
0.0
 11
273.7846180464862
 21
120.3665262846302
 31
0.0
  0
LINE
  5
1173
330
18
100
AcDbEntity
  8
1
  6
Continuous
100
AcDbLine
 10
291.2846180464864
 20
119.8665262846301
 30
0.0
 11
291.2846180464864
 21
114.3665262846301
 31
0.0
  0
ARC
  5
1174
330
18
100
AcDbEntity
  8
1
  6
Continuous
100
AcDbCircle
 10
290.7846180464862
 20
119.8665262846301
 30
0.0
 40
0.5
100
AcDbArc
 50
0.0
 51
90.0
  0
LINE
  5
1175
330
18
100
AcDbEntity
  8
1
  6
Continuous
100
AcDbLine
 10
290.7846180464862
 20
120.3665262846302
 30
0.0
 11
290.7846180464862
 21
120.8665262846301
 31
0.0
  0
LINE
  5
1177
330
18
100
AcDbEntity
  8
1
  6
Continuous
100
AcDbLine
 10
273.2846180464862
 20
119.8665262846301
 30
0.0
 11
273.2846180464862
 21
114.3665262846301
 31
0.0
  0
ARC
  5
1178
330
18
100
AcDbEntity
  8
1
  6
Continuous
100
AcDbCircle
 10
273.7846180464862
 20
119.8665262846301
 30
0.0
 40
0.5
100
AcDbArc
 50
90.0
 51
180.0
  0
LINE
  5
1179
330
18
100
AcDbEntity
  8
1
  6
Continuous
100
AcDbLine
 10
273.7846180464862
 20
120.3665262846302
 30
0.0
 11
273.7846180464862
 21
120.8665262846301
 31
0.0
  0
ARC
  5
117B
330
18
100
AcDbEntity
  8
1
  6
Continuous
100
AcDbCircle
 10
263.0346180464862
 20
112.8665262846302
 30
0.0
 40
1.5
100
AcDbArc
 50
90.0
 51
180.0
  0
LINE
  5
117C
330
18
100
AcDbEntity
  8
1
  6
Continuous
100
AcDbLine
 10
223.8597530464862
 20
109.7507092846301
 30
0.0
 11
211.4686760464862
 21
107.8187772846302
 31
0.0
  0
LINE
  5
117D
330
18
100
AcDbEntity
  8
1
  6
Continuous
100
AcDbLine
 10
223.8597530464862
 20
75.98234328463025
 30
0.0
 11
211.4686760464862
 21
77.91427528463026
 31
0.0
  0
ARC
  5
1182
330
18
100
AcDbEntity
  8
1
  6
Continuous
100
AcDbCircle
 10
261.0346180464862
 20
73.36652628463025
 30
0.0
 40
0.5
100
AcDbArc
 50
0.0
 51
90.0
  0
ARC
  5
1183
330
18
100
AcDbEntity
  8
1
  6
Continuous
100
AcDbCircle
 10
263.0346180464862
 20
72.86652628463025
 30
0.0
 40
1.5
100
AcDbArc
 50
180.0
 51
270.0
  0
LINE
  5
1184
330
18
100
AcDbEntity
  8
1
  6
Continuous
100
AcDbLine
 10
261.5346180464862
 20
73.36652628463025
 30
0.0
 11
261.5346180464862
 21
72.86652628463025
 31
0.0
  0
ARC
  5
1185
330
18
100
AcDbEntity
  8
1
  6
Continuous
100
AcDbCircle
 10
223.5846170464862
 20
74.50779228463023
 30
0.0
 40
1.5
100
AcDbArc
 50
0.0
 51
82.8456110000001
  0
LINE
  5
1186
330
18
100
AcDbEntity
  8
1
  6
Continuous
100
AcDbLine
 10
225.0846170464862
 20
73.86652628463025
 30
0.0
 11
225.0846170464862
 21
74.50779228463028
 31
0.0
  0
LINE
  5
1187
330
18
100
AcDbEntity
  8
1
  6
Continuous
100
AcDbLine
 10
261.5346180464862
 20
112.3665262846301
 30
0.0
 11
261.5346180464862
 21
112.8665262846302
 31
0.0
  0
ARC
  5
1188
330
18
100
AcDbEntity
  8
1
  6
Continuous
100
AcDbCircle
 10
261.0346180464862
 20
112.3665262846301
 30
0.0
 40
0.5
100
AcDbArc
 50
270.0
 51
0.0
  0
LINE
  5
1189
330
18
100
AcDbEntity
  8
1
  6
Continuous
100
AcDbLine
 10
225.0846170464863
 20
111.8665262846302
 30
0.0
 11
225.0846170464863
 21
111.2252602846302
 31
0.0
  0
ARC
  5
118A
330
18
100
AcDbEntity
  8
1
  6
Continuous
100
AcDbCircle
 10
223.5846170464864
 20
111.2252602846302
 30
0.0
 40
1.5
100
AcDbArc
 50
277.1543889999999
 51
0.0
  0
ARC
  5
1190
330
18
100
AcDbEntity
  8
1
  6
Continuous
100
AcDbCircle
 10
287.2846180464863
 20
92.86652628463023
 30
0.0
 40
80.0
100
AcDbArc
 50
171.6779590000001
 51
188.3220409999998
  0
ARC
  5
1191
330
18
100
AcDbEntity
  8
1
  6
Continuous
100
AcDbCircle
 10
212.0848840464861
 20
81.86652628463027
 30
0.0
 40
4.0
100
AcDbArc
 50
188.3220409999998
 51
261.1381799999989
  0
ARC
  5
1192
330
18
100
AcDbEntity
  8
1
  6
Continuous
100
AcDbCircle
 10
212.0848840464863
 20
103.8665262846302
 30
0.0
 40
4.0
100
AcDbArc
 50
98.86182000000095
 51
171.6779590000001
  0
LINE
  5
11D2
330
18
100
AcDbEntity
  8
1
  6
Continuous
100
AcDbLine
 10
212.2846180464863
 20
77.78705918711556
 30
0.0
 11
212.2846180464863
 21
57.86652628463025
 31
0.0
  0
LINE
  5
11D3
330
18
100
AcDbEntity
  8
1
  6
Continuous
100
AcDbLine
 10
352.2846140464863
 20
77.78705856346289
 30
0.0
 11
352.2846140464863
 21
57.86652628463025
 31
0.0
  0
ENDSEC
  0
SECTION
  2
OBJECTS
  0
DICTIONARY
  5
C
330
0
100
AcDbDictionary
281
     1
  3
ACAD_CIP_PREVIOUS_PRODUCT_INFO
350
1962
  3
ACAD_COLOR
350
1945
  3
ACAD_DETAILVIEWSTYLE
350
195E
  3
ACAD_GROUP
350
D
  3
ACAD_LAYOUT
350
94
  3
ACAD_MATERIAL
350
1913
  3
ACAD_MLEADERSTYLE
350
195A
  3
ACAD_MLINESTYLE
350
1B
  3
ACAD_PLOTSETTINGS
350
95
  3
ACAD_PLOTSTYLENAME
350
1911
  3
ACAD_SCALELIST
350
1948
  3
ACAD_SECTIONVIEWSTYLE
350
195C
  3
ACAD_TABLESTYLE
350
1946
  3
ACAD_VISUALSTYLE
350
192C
  3
ACDB_RECOMPOSE_DATA
350
1980
  3
AcDbVariableDictionary
350
1973
  3
CONTENTDICTIONARY
350
3D
  3
DWGPROPS
350
1981
  0
DICTIONARY
  5
1963
330
E
100
AcDbDictionary
280
     1
281
     1
  3
ADSK_XREC_LAYER_RECONCILED
360
1964
  0
DICTIONARY
  5
1965
330
4E
100
AcDbDictionary
280
     1
281
     1
  3
ADSK_XREC_LAYER_RECONCILED
360
1966
  0
DICTIONARY
  5
1967
330
4F
100
AcDbDictionary
280
     1
281
     1
  3
ADSK_XREC_LAYER_RECONCILED
360
1968
  0
DICTIONARY
  5
1969
330
50
100
AcDbDictionary
280
     1
281
     1
  3
ADSK_XREC_LAYER_RECONCILED
360
196A
  0
DICTIONARY
  5
196B
330
51
100
AcDbDictionary
280
     1
281
     1
  3
ADSK_XREC_LAYER_RECONCILED
360
196C
  0
DICTIONARY
  5
196D
330
52
100
AcDbDictionary
280
     1
281
     1
  3
ADSK_XREC_LAYER_RECONCILED
360
196E
  0
DICTIONARY
  5
196F
330
53
100
AcDbDictionary
280
     1
281
     1
  3
ADSK_XREC_LAYER_RECONCILED
360
1970
  0
DICTIONARY
  5
1971
330
54
100
AcDbDictionary
280
     1
281
     1
  3
ADSK_XREC_LAYER_RECONCILED
360
1972
  0
DICTIONARY
  5
18EF
330
18
100
AcDbDictionary
281
     1
  3
ACAD_LAYOUTSELFREF
350
190D
  0
DICTIONARY
  5
18ED
330
15
100
AcDbDictionary
281
     1
  3
ACAD_LAYOUTSELFREF
350
190C
  0
XRECORD
  5
1962
102
{ACAD_REACTORS
330
C
102
}
330
C
100
AcDbXrecord
280
     1
300
ACDLT
300
2014
300
ACDLT_F_S
  0
DICTIONARY
  5
1945
102
{ACAD_REACTORS
330
C
102
}
330
C
100
AcDbDictionary
281
     1
  0
DICTIONARY
  5
195E
102
{ACAD_REACTORS
330
C
102
}
330
C
100
AcDbDictionary
281
     1
  3
Imperial24
350
195F
  0
DICTIONARY
  5
D
102
{ACAD_REACTORS
330
C
102
}
330
C
100
AcDbDictionary
281
     1
  0
DICTIONARY
  5
94
102
{ACAD_REACTORS
330
C
102
}
330
C
100
AcDbDictionary
281
     1
  3
Model
350
1960
  3
レイアウト1
350
1961
  0
DICTIONARY
  5
1913
102
{ACAD_REACTORS
330
C
102
}
330
C
100
AcDbDictionary
281
     1
  3
ByBlock
350
191C
  3
ByLayer
350
1914
  3
Global
350
1924
  0
DICTIONARY
  5
195A
102
{ACAD_REACTORS
330
C
102
}
330
C
100
AcDbDictionary
281
     1
  3
Standard
350
195B
  0
DICTIONARY
  5
1B
102
{ACAD_REACTORS
330
C
102
}
330
C
100
AcDbDictionary
281
     1
  3
STANDARD
350
1C
  0
DICTIONARY
  5
95
102
{ACAD_REACTORS
330
C
102
}
330
C
100
AcDbDictionary
281
     1
  0
ACDBDICTIONARYWDFLT
  5
1911
102
{ACAD_REACTORS
330
C
102
}
330
C
100
AcDbDictionary
281
     1
  3
Normal
350
1912
100
AcDbDictionaryWithDefault
340
1912
  0
DICTIONARY
  5
1948
102
{ACAD_REACTORS
330
C
102
}
330
C
100
AcDbDictionary
281
     1
  3
A0
350
1949
  3
A1
350
194A
  3
A2
350
194B
  3
A3
350
194C
  3
A4
350
194D
  3
A5
350
194E
  3
A6
350
194F
  3
A7
350
1950
  3
A8
350
1951
  3
A9
350
1952
  3
B0
350
1953
  3
B1
350
1954
  3
B2
350
1955
  3
B3
350
1956
  3
B4
350
1957
  3
B5
350
1958
  3
B6
350
1959
  0
DICTIONARY
  5
195C
102
{ACAD_REACTORS
330
C
102
}
330
C
100
AcDbDictionary
281
     1
  3
Imperial24
350
195D
  0
DICTIONARY
  5
1946
102
{ACAD_REACTORS
330
C
102
}
330
C
100
AcDbDictionary
281
     1
  3
Standard
350
1947
  0
DICTIONARY
  5
192C
102
{ACAD_REACTORS
330
C
102
}
330
C
100
AcDbDictionary
281
     1
  3
2dWireframe
350
1932
  3
Basic
350
1931
  3
Brighten
350
1938
  3
ColorChange
350
193C
  3
Conceptual
350
1935
  3
Dim
350
1937
  3
EdgeColorOff
350
1944
  3
Facepattern
350
193B
  3
Flat
350
192D
  3
FlatWithEdges
350
192E
  3
Gouraud
350
192F
  3
GouraudWithEdges
350
1930
  3
Hidden
350
1934
  3
JitterOff
350
1942
  3
Linepattern
350
193A
  3
OverhangOff
350
1943
  3
Realistic
350
1936
  3
Shaded
350
1941
  3
Shaded with edges
350
1940
  3
Shades of Gray
350
193D
  3
Sketchy
350
193E
  3
Thicken
350
1939
  3
Wireframe
350
1933
  3
X-Ray
350
193F
  0
XRECORD
  5
1980
102
{ACAD_REACTORS
330
C
102
}
330
C
100
AcDbXrecord
280
     1
 90
        1
330
1947
  0
DICTIONARY
  5
1973
102
{ACAD_REACTORS
330
C
102
}
330
C
100
AcDbDictionary
281
     1
  3
CANNOSCALE
350
1978
  3
CMLEADERSTYLE
350
1975
  3
CTABLESTYLE
350
1974
  3
CVIEWDETAILSTYLE
350
1976
  3
CVIEWSECTIONSTYLE
350
1977
  3
DIMASSOC
350
197B
  3
INDEXCTL
350
197A
  3
SORTENTS
350
1979
  3
XCLIPFRAME
350
197C
  0
DICTIONARY
  5
3D
102
{ACAD_REACTORS
330
C
102
}
330
C
100
AcDbDictionary
281
     1
  0
XRECORD
  5
1981
102
{ACAD_REACTORS
330
C
102
}
330
C
100
AcDbXrecord
280
     1
  1
DWGPROPS COOKIE
  2

  3

  4

  6

  7

  8
Yoshitsune
  9

300
=
301
=
302
=
303
=
304
=
305
=
306
=
307
=
308
=
309
=
 40
0.0491172569444445
 41
2453811.402924803
 42
2457192.689459502
  1

 90
        0
  0
XRECORD
  5
1964
102
{ACAD_REACTORS
330
1963
102
}
330
1963
100
AcDbXrecord
280
     1
290
     1
  0
XRECORD
  5
1966
102
{ACAD_REACTORS
330
1965
102
}
330
1965
100
AcDbXrecord
280
     1
290
     1
  0
XRECORD
  5
1968
102
{ACAD_REACTORS
330
1967
102
}
330
1967
100
AcDbXrecord
280
     1
290
     1
  0
XRECORD
  5
196A
102
{ACAD_REACTORS
330
1969
102
}
330
1969
100
AcDbXrecord
280
     1
290
     1
  0
XRECORD
  5
196C
102
{ACAD_REACTORS
330
196B
102
}
330
196B
100
AcDbXrecord
280
     1
290
     1
  0
XRECORD
  5
196E
102
{ACAD_REACTORS
330
196D
102
}
330
196D
100
AcDbXrecord
280
     1
290
     1
  0
XRECORD
  5
1970
102
{ACAD_REACTORS
330
196F
102
}
330
196F
100
AcDbXrecord
280
     1
290
     1
  0
XRECORD
  5
1972
102
{ACAD_REACTORS
330
1971
102
}
330
1971
100
AcDbXrecord
280
     1
290
     1
  0
XRECORD
  5
190D
102
{ACAD_REACTORS
330
18EF
102
}
330
18EF
100
AcDbXrecord
280
     1
340
18
  0
XRECORD
  5
190C
102
{ACAD_REACTORS
330
18ED
102
}
330
18ED
100
AcDbXrecord
280
     1
340
15
  0
ACDBDETAILVIEWSTYLE
  5
195F
102
{ACAD_XDICTIONARY
360
19B9
102
}
102
{ACAD_REACTORS
330
195E
102
}
330
195E
100
AcDbModelDocViewStyle
 70
     0
  3
Imperial24
290
     0
100
AcDbDetailViewStyle
 70
     0
 71
     0
 90
        3
 71
     1
340
F
 40
0.24
340
0
 40
0.24
300

 40
0.36
280
     3
 71
     2
340
14
 90
       25
 71
     3
340
F
 40
0.24
 90
        1
 40
0.75
 90
        1
300
%<\AcVar ViewType \f "%tc1">% %<\AcVar ViewDetailId>%\PSCALE %<\AcVar ViewScale \f "%sn">%
 71
     4
340
14
 90
       25
340
14
 90
       25
280
     0
  0
LAYOUT
  5
1960
102
{ACAD_XDICTIONARY
360
19BB
102
}
102
{ACAD_REACTORS
330
94
102
}
330
94
100
AcDbPlotSettings
  1

  2
Canon LBP9100C
  4

  6

 40
0.0
 41
0.0
 42
0.0
 43
0.0
 44
0.0
 45
0.0
 46
0.0
 47
0.0
 48
0.0
 49
0.0
140
0.0
141
0.0
142
1.0
143
1.0
 70
  1712
 72
     0
 73
     0
 74
     0
  7

 75
     0
147
1.0
148
0.0
149
0.0
100
AcDbLayout
  1
Model
 70
     1
 71
     0
 10
0.0
 20
0.0
 11
12.0
 21
9.0
 12
0.0
 22
0.0
 32
0.0
 14
0.0
 24
0.0
 34
0.0
 15
0.0
 25
0.0
 35
0.0
146
0.0
 13
0.0
 23
0.0
 33
0.0
 16
1.0
 26
0.0
 36
0.0
 17
0.0
 27
1.0
 37
0.0
 76
     0
330
18
331
190B
  0
LAYOUT
  5
1961
102
{ACAD_XDICTIONARY
360
19BD
102
}
102
{ACAD_REACTORS
330
94
102
}
330
94
100
AcDbPlotSettings
  1

  2
Canon LBP9100C
  4

  6

 40
0.0
 41
0.0
 42
0.0
 43
0.0
 44
0.0
 45
0.0
 46
0.0
 47
0.0
 48
0.0
 49
0.0
140
0.0
141
0.0
142
1.0
143
1.0
 70
   688
 72
     0
 73
     0
 74
     5
  7

 75
    16
147
1.0
148
0.0
149
0.0
100
AcDbLayout
  1
レイアウト1
 70
     1
 71
     1
 10
0.0
 20
0.0
 11
420.0
 21
297.0
 12
0.0
 22
0.0
 32
0.0
 14
1.000000000000000E+20
 24
1.000000000000000E+20
 34
1.000000000000000E+20
 15
-1.000000000000000E+20
 25
-1.000000000000000E+20
 35
-1.000000000000000E+20
146
0.0
 13
0.0
 23
0.0
 33
0.0
 16
1.0
 26
0.0
 36
0.0
 17
0.0
 27
1.0
 37
0.0
 76
     0
330
15
  0
MATERIAL
  5
191C
102
{ACAD_XDICTIONARY
360
191D
102
}
102
{ACAD_REACTORS
330
1913
102
}
330
1913
100
AcDbMaterial
  1
ByBlock
 72
     0
 43
0.0208333333333333
 43
0.0
 43
0.0
 43
0.0
 43
0.0
 43
0.0208333333333333
 43
0.0
 43
0.0
 43
0.0
 43
0.0
 43
1.0
 43
0.0
 43
0.0
 43
0.0
 43
0.0
 43
1.0
 77
     0
 47
0.0208333333333333
 47
0.0
 47
0.0
 47
0.0
 47
0.0
 47
0.0208333333333333
 47
0.0
 47
0.0
 47
0.0
 47
0.0
 47
1.0
 47
0.0
 47
0.0
 47
0.0
 47
0.0
 47
1.0
171
     0
 49
0.0208333333333333
 49
0.0
 49
0.0
 49
0.0
 49
0.0
 49
0.0208333333333333
 49
0.0
 49
0.0
 49
0.0
 49
0.0
 49
1.0
 49
0.0
 49
0.0
 49
0.0
 49
0.0
 49
1.0
175
     0
142
0.0208333333333333
142
0.0
142
0.0
142
0.0
142
0.0
142
0.0208333333333333
142
0.0
142
0.0
142
0.0
142
0.0
142
1.0
142
0.0
142
0.0
142
0.0
142
0.0
142
1.0
179
     0
144
0.0208333333333333
144
0.0
144
0.0
144
0.0
144
0.0
144
0.0208333333333333
144
0.0
144
0.0
144
0.0
144
0.0
144
1.0
144
0.0
144
0.0
144
0.0
144
0.0
144
1.0
147
0.0208333333333333
147
0.0
147
0.0
147
0.0
147
0.0
147
0.0208333333333333
147
0.0
147
0.0
147
0.0
147
0.0
147
1.0
147
0.0
147
0.0
147
0.0
147
0.0
147
1.0
  0
MATERIAL
  5
1914
102
{ACAD_XDICTIONARY
360
1915
102
}
102
{ACAD_REACTORS
330
1913
102
}
330
1913
100
AcDbMaterial
  1
ByLayer
 72
     0
 43
0.0208333333333333
 43
0.0
 43
0.0
 43
0.0
 43
0.0
 43
0.0208333333333333
 43
0.0
 43
0.0
 43
0.0
 43
0.0
 43
1.0
 43
0.0
 43
0.0
 43
0.0
 43
0.0
 43
1.0
 77
     0
 47
0.0208333333333333
 47
0.0
 47
0.0
 47
0.0
 47
0.0
 47
0.0208333333333333
 47
0.0
 47
0.0
 47
0.0
 47
0.0
 47
1.0
 47
0.0
 47
0.0
 47
0.0
 47
0.0
 47
1.0
171
     0
 49
0.0208333333333333
 49
0.0
 49
0.0
 49
0.0
 49
0.0
 49
0.0208333333333333
 49
0.0
 49
0.0
 49
0.0
 49
0.0
 49
1.0
 49
0.0
 49
0.0
 49
0.0
 49
0.0
 49
1.0
175
     0
142
0.0208333333333333
142
0.0
142
0.0
142
0.0
142
0.0
142
0.0208333333333333
142
0.0
142
0.0
142
0.0
142
0.0
142
1.0
142
0.0
142
0.0
142
0.0
142
0.0
142
1.0
179
     0
144
0.0208333333333333
144
0.0
144
0.0
144
0.0
144
0.0
144
0.0208333333333333
144
0.0
144
0.0
144
0.0
144
0.0
144
1.0
144
0.0
144
0.0
144
0.0
144
0.0
144
1.0
147
0.0208333333333333
147
0.0
147
0.0
147
0.0
147
0.0
147
0.0208333333333333
147
0.0
147
0.0
147
0.0
147
0.0
147
1.0
147
0.0
147
0.0
147
0.0
147
0.0
147
1.0
  0
MATERIAL
  5
1924
102
{ACAD_XDICTIONARY
360
1925
102
}
102
{ACAD_REACTORS
330
1913
102
}
330
1913
100
AcDbMaterial
  1
Global
 72
     0
 43
0.0208333333333333
 43
0.0
 43
0.0
 43
0.0
 43
0.0
 43
0.0208333333333333
 43
0.0
 43
0.0
 43
0.0
 43
0.0
 43
1.0
 43
0.0
 43
0.0
 43
0.0
 43
0.0
 43
1.0
 77
     0
 47
0.0208333333333333
 47
0.0
 47
0.0
 47
0.0
 47
0.0
 47
0.0208333333333333
 47
0.0
 47
0.0
 47
0.0
 47
0.0
 47
1.0
 47
0.0
 47
0.0
 47
0.0
 47
0.0
 47
1.0
171
     0
 49
0.0208333333333333
 49
0.0
 49
0.0
 49
0.0
 49
0.0
 49
0.0208333333333333
 49
0.0
 49
0.0
 49
0.0
 49
0.0
 49
1.0
 49
0.0
 49
0.0
 49
0.0
 49
0.0
 49
1.0
175
     0
142
0.0208333333333333
142
0.0
142
0.0
142
0.0
142
0.0
142
0.0208333333333333
142
0.0
142
0.0
142
0.0
142
0.0
142
1.0
142
0.0
142
0.0
142
0.0
142
0.0
142
1.0
179
     0
144
0.0208333333333333
144
0.0
144
0.0
144
0.0
144
0.0
144
0.0208333333333333
144
0.0
144
0.0
144
0.0
144
0.0
144
1.0
144
0.0
144
0.0
144
0.0
144
0.0
144
1.0
147
0.0208333333333333
147
0.0
147
0.0
147
0.0
147
0.0
147
0.0208333333333333
147
0.0
147
0.0
147
0.0
147
0.0
147
1.0
147
0.0
147
0.0
147
0.0
147
0.0
147
1.0
  0
MLEADERSTYLE
  5
195B
102
{ACAD_REACTORS
330
195A
102
}
330
195A
100
AcDbMLeaderStyle
170
     2
171
     1
172
     0
 90
        2
 40
0.0
 41
0.0
173
     1
 91
-1056964608
340
12
 92
       -2
290
     1
 42
0.09
291
     1
 43
0.36
  3
Standard
 44
0.18
300

342
F
174
     1
178
     6
175
     1
176
     0
 93
-1056964608
 45
0.18
292
     0
297
     0
 46
0.18
 94
-1056964608
 47
1.0
 49
1.0
140
1.0
293
     1
141
0.0
294
     1
177
     0
142
1.0
295
     0
296
     0
143
0.125
1001
ACAD_MLEADERVER
1070
     2
  0
MLINESTYLE
  5
1C
102
{ACAD_REACTORS
330
1B
102
}
330
1B
100
AcDbMlineStyle
  2
STANDARD
 70
     0
  3

 62
   256
 51
90.0
 52
90.0
 71
     2
 49
0.5
 62
   256
  6
BYLAYER
 49
-0.5
 62
   256
  6
BYLAYER
  0
ACDBPLACEHOLDER
  5
1912
102
{ACAD_REACTORS
330
1911
102
}
330
1911
  0
SCALE
  5
1949
102
{ACAD_REACTORS
330
1948
102
}
330
1948
100
AcDbScale
 70
     0
300
1:1
140
1.0
141
1.0
290
     1
  0
SCALE
  5
194A
102
{ACAD_REACTORS
330
1948
102
}
330
1948
100
AcDbScale
 70
     0
300
1/128" = 1'-0"
140
0.0078125
141
12.0
290
     0
  0
SCALE
  5
194B
102
{ACAD_REACTORS
330
1948
102
}
330
1948
100
AcDbScale
 70
     0
300
1/64" = 1'-0"
140
0.015625
141
12.0
290
     0
  0
SCALE
  5
194C
102
{ACAD_REACTORS
330
1948
102
}
330
1948
100
AcDbScale
 70
     0
300
1/32" = 1'-0"
140
0.03125
141
12.0
290
     0
  0
SCALE
  5
194D
102
{ACAD_REACTORS
330
1948
102
}
330
1948
100
AcDbScale
 70
     0
300
1/16" = 1'-0"
140
0.0625
141
12.0
290
     0
  0
SCALE
  5
194E
102
{ACAD_REACTORS
330
1948
102
}
330
1948
100
AcDbScale
 70
     0
300
3/32" = 1'-0"
140
0.09375
141
12.0
290
     0
  0
SCALE
  5
194F
102
{ACAD_REACTORS
330
1948
102
}
330
1948
100
AcDbScale
 70
     0
300
1/8" = 1'-0"
140
0.125
141
12.0
290
     0
  0
SCALE
  5
1950
102
{ACAD_REACTORS
330
1948
102
}
330
1948
100
AcDbScale
 70
     0
300
3/16" = 1'-0"
140
0.1875
141
12.0
290
     0
  0
SCALE
  5
1951
102
{ACAD_REACTORS
330
1948
102
}
330
1948
100
AcDbScale
 70
     0
300
1/4" = 1'-0"
140
0.25
141
12.0
290
     0
  0
SCALE
  5
1952
102
{ACAD_REACTORS
330
1948
102
}
330
1948
100
AcDbScale
 70
     0
300
3/8" = 1'-0"
140
0.375
141
12.0
290
     0
  0
SCALE
  5
1953
102
{ACAD_REACTORS
330
1948
102
}
330
1948
100
AcDbScale
 70
     0
300
1/2" = 1'-0"
140
0.5
141
12.0
290
     0
  0
SCALE
  5
1954
102
{ACAD_REACTORS
330
1948
102
}
330
1948
100
AcDbScale
 70
     0
300
3/4" = 1'-0"
140
0.75
141
12.0
290
     0
  0
SCALE
  5
1955
102
{ACAD_REACTORS
330
1948
102
}
330
1948
100
AcDbScale
 70
     0
300
1" = 1'-0"
140
1.0
141
12.0
290
     0
  0
SCALE
  5
1956
102
{ACAD_REACTORS
330
1948
102
}
330
1948
100
AcDbScale
 70
     0
300
1-1/2" = 1'-0"
140
1.5
141
12.0
290
     0
  0
SCALE
  5
1957
102
{ACAD_REACTORS
330
1948
102
}
330
1948
100
AcDbScale
 70
     0
300
3" = 1'-0"
140
3.0
141
12.0
290
     0
  0
SCALE
  5
1958
102
{ACAD_REACTORS
330
1948
102
}
330
1948
100
AcDbScale
 70
     0
300
6" = 1'-0"
140
6.0
141
12.0
290
     0
  0
SCALE
  5
1959
102
{ACAD_REACTORS
330
1948
102
}
330
1948
100
AcDbScale
 70
     0
300
1'-0" = 1'-0"
140
12.0
141
12.0
290
     0
  0
ACDBSECTIONVIEWSTYLE
  5
195D
102
{ACAD_XDICTIONARY
360
19B7
102
}
102
{ACAD_REACTORS
330
195C
102
}
330
195C
100
AcDbModelDocViewStyle
 70
     0
  3
Imperial24
290
     0
100
AcDbSectionViewStyle
 70
     0
 71
     0
 90
       78
 71
     1
340
F
 40
0.24
340
0
340
0
 40
0.24
300
I, O, Q, S, X, Z
 40
0.48
 90
        3
 40
0.18
 90
        1
 71
     2
340
14
 90
       25
340
14
 90
       50
 40
0.24
 40
0.0
 40
0.24
 71
     3
340
F
 40
0.24
 90
        1
 40
0.75
 90
        1
300
%<\AcVar ViewType \f "%tc1">% %<\AcVar ViewSectionStartId>%-%<\AcVar ViewSectionEndId>%\PSCALE %<\AcVar ViewScale \f "%sn">%
 71
     4
300
ANSI31
 40
1.0
 90
        0
290
     0
290
     0
 90
        6
 40
0.0
 40
1.570796326794896
 40
0.2617993877991494
 40
1.308996938995747
 40
-0.2617993877991494
 40
1.832595714594046
  0
TABLESTYLE
  5
1947
102
{ACAD_XDICTIONARY
360
197E
102
}
102
{ACAD_REACTORS
330
1946
102
}
330
1946
100
AcDbTableStyle
  3
Standard
 70
     0
 71
     0
 40
0.06
 41
0.06
280
     0
281
     0
  7
STANDARD
140
0.18
170
     2
 62
     0
 63
     7
283
     0
274
    -2
284
     1
 64
     0
275
    -2
285
     1
 65
     0
276
    -2
286
     1
 66
     0
277
    -2
287
     1
 67
     0
278
    -2
288
     1
 68
     0
279
    -2
289
     1
 69
     0
  7
STANDARD
140
0.25
170
     5
 62
     0
 63
     7
283
     0
274
    -2
284
     1
 64
     0
275
    -2
285
     1
 65
     0
276
    -2
286
     1
 66
     0
277
    -2
287
     1
 67
     0
278
    -2
288
     1
 68
     0
279
    -2
289
     1
 69
     0
  7
STANDARD
140
0.18
170
     5
 62
     0
 63
     7
283
     0
274
    -2
284
     1
 64
     0
275
    -2
285
     1
 65
     0
276
    -2
286
     1
 66
     0
277
    -2
287
     1
 67
     0
278
    -2
288
     1
 68
     0
279
    -2
289
     1
 69
     0
  0
VISUALSTYLE
  5
1932
102
{ACAD_XDICTIONARY
360
198F
102
}
102
{ACAD_REACTORS
330
192C
102
}
330
192C
100
AcDbVisualStyle
  2
2dWireframe
 70
     4
 71
     0
 72
     2
 73
     0
 90
        0
 40
-0.6
 41
-30.0
 62
     5
 63
     7
 74
     1
 91
        4
 64
     7
 65
   257
 75
     1
175
     1
 42
1.0
 92
        0
 66
   257
 43
1.0
 76
     1
 77
     6
 78
     2
 67
     7
 79
     5
170
     0
171
     0
290
     0
174
     0
 93
        1
 44
0.0
173
     0
291
     0
 45
0.0
1001
ACAD
1000
AcDbSavedByObjectVersion
1070
     0
  0
VISUALSTYLE
  5
1931
102
{ACAD_XDICTIONARY
360
198D
102
}
102
{ACAD_REACTORS
330
192C
102
}
330
192C
100
AcDbVisualStyle
  2
Basic
 70
     7
 71
     1
 72
     0
 73
     1
 90
        0
 40
-0.6
 41
-30.0
 62
     5
 63
     7
 74
     0
 91
        4
 64
     7
 65
   257
 75
     1
175
     1
 42
1.0
 92
        8
 66
     7
 43
1.0
 76
     1
 77
     6
 78
     2
 67
     7
 79
     5
170
     0
171
     0
290
     0
174
     0
 93
        1
 44
0.0
173
     0
291
     1
 45
0.0
1001
ACAD
1000
AcDbSavedByObjectVersion
1070
     0
  0
VISUALSTYLE
  5
1938
102
{ACAD_XDICTIONARY
360
199B
102
}
102
{ACAD_REACTORS
330
192C
102
}
330
192C
100
AcDbVisualStyle
  2
Brighten
 70
    12
 71
     2
 72
     2
 73
     0
 90
        0
 40
-0.6
 41
-30.0
 62
     5
 63
     7
 74
     1
 91
        4
 64
     7
 65
   257
 75
     1
175
     1
 42
1.0
 92
        8
 66
     7
 43
1.0
 76
     1
 77
     6
 78
     2
 67
     7
 79
     5
170
     0
171
     0
290
     0
174
     0
 93
        1
 44
50.0
173
     0
291
     1
 45
0.0
1001
ACAD
1000
AcDbSavedByObjectVersion
1070
     0
  0
VISUALSTYLE
  5
193C
102
{ACAD_XDICTIONARY
360
19A3
102
}
102
{ACAD_REACTORS
330
192C
102
}
330
192C
100
AcDbVisualStyle
  2
ColorChange
 70
    16
 71
     2
 72
     2
 73
     3
 90
        0
 40
-0.6
 41
-30.0
 62
     5
 63
     8
 74
     1
 91
        4
 64
     7
 65
   257
 75
     1
175
     1
 42
1.0
 92
        8
 66
     8
 43
1.0
 76
     1
 77
     6
 78
     2
 67
     7
 79
     5
170
     0
171
     0
290
     0
174
     0
 93
        1
 44
0.0
173
     0
291
     1
 45
0.0
1001
ACAD
1000
AcDbSavedByObjectVersion
1070
     0
  0
VISUALSTYLE
  5
1935
102
{ACAD_XDICTIONARY
360
1995
102
}
102
{ACAD_REACTORS
330
192C
102
}
330
192C
100
AcDbVisualStyle
  2
Conceptual
 70
     9
 71
     3
 72
     2
 73
     0
 90
        0
 40
-0.6
 41
-30.0
 62
     5
 63
     7
 74
     2
 91
        2
 64
     7
 65
   257
 75
     1
175
     1
 42
179.0
 92
        8
 66
     7
 43
1.0
 76
     1
 77
     6
 78
     2
 67
     7
 79
     3
170
     0
171
     0
290
     0
174
     0
 93
        1
 44
0.0
173
     0
291
     0
 45
0.0
1001
ACAD
1000
AcDbSavedByObjectVersion
1070
     0
  0
VISUALSTYLE
  5
1937
102
{ACAD_XDICTIONARY
360
1999
102
}
102
{ACAD_REACTORS
330
192C
102
}
330
192C
100
AcDbVisualStyle
  2
Dim
 70
    11
 71
     2
 72
     2
 73
     0
 90
        0
 40
-0.6
 41
-30.0
 62
     5
 63
     7
 74
     1
 91
        4
 64
     7
 65
   257
 75
     1
175
     1
 42
1.0
 92
        8
 66
     7
 43
1.0
 76
     1
 77
     6
 78
     2
 67
     7
 79
     5
170
     0
171
     0
290
     0
174
     0
 93
        1
 44
-50.0
173
     0
291
     1
 45
0.0
1001
ACAD
1000
AcDbSavedByObjectVersion
1070
     0
  0
VISUALSTYLE
  5
1944
102
{ACAD_XDICTIONARY
360
19B3
102
}
102
{ACAD_REACTORS
330
192C
102
}
330
192C
100
AcDbVisualStyle
  2
EdgeColorOff
 70
    22
 71
     2
 72
     2
 73
     0
 90
        0
 40
-0.6
 41
-30.0
 62
     5
 63
     7
 74
     1
 91
        4
 64
     7
 65
   257
 75
     1
175
     1
 42
1.0
 92
        8
 66
     7
 43
1.0
 76
     1
 77
     6
 78
     2
 67
     7
 79
     5
170
     0
171
     0
290
     0
174
     0
 93
        1
 44
0.0
173
     0
291
     1
 45
0.0
1001
ACAD
1000
AcDbSavedByObjectVersion
1070
     0
  0
VISUALSTYLE
  5
193B
102
{ACAD_XDICTIONARY
360
19A1
102
}
102
{ACAD_REACTORS
330
192C
102
}
330
192C
100
AcDbVisualStyle
  2
Facepattern
 70
    15
 71
     2
 72
     2
 73
     0
 90
        0
 40
-0.6
 41
-30.0
 62
     5
 63
     7
 74
     1
 91
        4
 64
     7
 65
   257
 75
     1
175
     1
 42
1.0
 92
        8
 66
     7
 43
1.0
 76
     1
 77
     6
 78
     2
 67
     7
 79
     5
170
     0
171
     0
290
     0
174
     0
 93
        1
 44
0.0
173
     0
291
     1
 45
0.0
1001
ACAD
1000
AcDbSavedByObjectVersion
1070
     0
  0
VISUALSTYLE
  5
192D
102
{ACAD_XDICTIONARY
360
1985
102
}
102
{ACAD_REACTORS
330
192C
102
}
330
192C
100
AcDbVisualStyle
  2
Flat
 70
     0
 71
     2
 72
     1
 73
     1
 90
        2
 40
-0.6
 41
30.0
 62
     5
 63
     7
 74
     0
 91
        0
 64
     7
 65
   257
 75
     1
175
     1
 42
1.0
 92
        8
 66
     7
 43
1.0
 76
     1
 77
     6
 78
     2
 67
     7
 79
     5
170
     0
171
     0
290
     0
174
     0
 93
       13
 44
0.0
173
     0
291
     1
 45
0.0
1001
ACAD
1000
AcDbSavedByObjectVersion
1070
     0
  0
VISUALSTYLE
  5
192E
102
{ACAD_XDICTIONARY
360
1987
102
}
102
{ACAD_REACTORS
330
192C
102
}
330
192C
100
AcDbVisualStyle
  2
FlatWithEdges
 70
     1
 71
     2
 72
     1
 73
     1
 90
        2
 40
-0.6
 41
30.0
 62
     5
 63
     7
 74
     1
 91
        0
 64
     7
 65
   257
 75
     1
175
     1
 42
1.0
 92
        0
 66
   257
 43
1.0
 76
     1
 77
     6
 78
     2
 67
     7
 79
     5
170
     0
171
     0
290
     0
174
     0
 93
       13
 44
0.0
173
     0
291
     1
 45
0.0
1001
ACAD
1000
AcDbSavedByObjectVersion
1070
     0
  0
VISUALSTYLE
  5
192F
102
{ACAD_XDICTIONARY
360
1989
102
}
102
{ACAD_REACTORS
330
192C
102
}
330
192C
100
AcDbVisualStyle
  2
Gouraud
 70
     2
 71
     2
 72
     2
 73
     1
 90
        2
 40
-0.6
 41
30.0
 62
     5
 63
     7
 74
     0
 91
        0
 64
     7
 65
   257
 75
     1
175
     1
 42
1.0
 92
        0
 66
     7
 43
1.0
 76
     1
 77
     6
 78
     2
 67
     7
 79
     5
170
     0
171
     0
290
     0
174
     0
 93
       13
 44
0.0
173
     0
291
     1
 45
0.0
1001
ACAD
1000
AcDbSavedByObjectVersion
1070
     0
  0
VISUALSTYLE
  5
1930
102
{ACAD_XDICTIONARY
360
198B
102
}
102
{ACAD_REACTORS
330
192C
102
}
330
192C
100
AcDbVisualStyle
  2
GouraudWithEdges
 70
     3
 71
     2
 72
     2
 73
     1
 90
        2
 40
-0.6
 41
30.0
 62
     5
 63
     7
 74
     1
 91
        0
 64
     7
 65
   257
 75
     1
175
     1
 42
1.0
 92
        0
 66
   257
 43
1.0
 76
     1
 77
     6
 78
     2
 67
     7
 79
     5
170
     0
171
     0
290
     0
174
     0
 93
       13
 44
0.0
173
     0
291
     1
 45
0.0
1001
ACAD
1000
AcDbSavedByObjectVersion
1070
     0
  0
VISUALSTYLE
  5
1934
102
{ACAD_XDICTIONARY
360
1993
102
}
102
{ACAD_REACTORS
330
192C
102
}
330
192C
100
AcDbVisualStyle
  2
Hidden
 70
     6
 71
     1
 72
     2
 73
     2
 90
        0
 40
-0.6
 41
-30.0
 62
     5
 63
     7
 74
     2
 91
        2
 64
     7
 65
   257
 75
     2
175
     1
 42
40.0
 92
        0
 66
   257
 43
1.0
 76
     1
 77
     6
 78
     2
 67
     7
 79
     3
170
     0
171
     0
290
     0
174
     0
 93
        1
 44
0.0
173
     0
291
     0
 45
0.0
1001
ACAD
1000
AcDbSavedByObjectVersion
1070
     0
  0
VISUALSTYLE
  5
1942
102
{ACAD_XDICTIONARY
360
19AF
102
}
102
{ACAD_REACTORS
330
192C
102
}
330
192C
100
AcDbVisualStyle
  2
JitterOff
 70
    20
 71
     2
 72
     2
 73
     0
 90
        0
 40
-0.6
 41
-30.0
 62
     5
 63
     7
 74
     1
 91
        4
 64
     7
 65
   257
 75
     1
175
     1
 42
1.0
 92
       10
 66
     7
 43
1.0
 76
     1
 77
     6
 78
     2
 67
     7
 79
     5
170
     0
171
     0
290
     0
174
     0
 93
        1
 44
0.0
173
     0
291
     1
 45
0.0
1001
ACAD
1000
AcDbSavedByObjectVersion
1070
     0
  0
VISUALSTYLE
  5
193A
102
{ACAD_XDICTIONARY
360
199F
102
}
102
{ACAD_REACTORS
330
192C
102
}
330
192C
100
AcDbVisualStyle
  2
Linepattern
 70
    14
 71
     2
 72
     2
 73
     0
 90
        0
 40
-0.6
 41
-30.0
 62
     5
 63
     7
 74
     1
 91
        4
 64
     7
 65
   257
 75
     7
175
     7
 42
1.0
 92
        8
 66
     7
 43
1.0
 76
     1
 77
     6
 78
     2
 67
     7
 79
     5
170
     0
171
     0
290
     0
174
     0
 93
        1
 44
0.0
173
     0
291
     1
 45
0.0
1001
ACAD
1000
AcDbSavedByObjectVersion
1070
     0
  0
VISUALSTYLE
  5
1943
102
{ACAD_XDICTIONARY
360
19B1
102
}
102
{ACAD_REACTORS
330
192C
102
}
330
192C
100
AcDbVisualStyle
  2
OverhangOff
 70
    21
 71
     2
 72
     2
 73
     0
 90
        0
 40
-0.6
 41
-30.0
 62
     5
 63
     7
 74
     1
 91
        4
 64
     7
 65
   257
 75
     1
175
     1
 42
1.0
 92
        9
 66
     7
 43
1.0
 76
     1
 77
     6
 78
     2
 67
     7
 79
     5
170
     0
171
     0
290
     0
174
     0
 93
        1
 44
0.0
173
     0
291
     1
 45
0.0
1001
ACAD
1000
AcDbSavedByObjectVersion
1070
     0
  0
VISUALSTYLE
  5
1936
102
{ACAD_XDICTIONARY
360
1997
102
}
102
{ACAD_REACTORS
330
192C
102
}
330
192C
100
AcDbVisualStyle
  2
Realistic
 70
     8
 71
     2
 72
     3
 73
     0
 90
        2
 40
-0.6
 41
30.0
 62
     5
 63
     7
 74
     0
 91
        0
 64
     7
 65
   257
 75
     1
175
     1
 42
1.0
 92
        8
 66
   257
 43
1.0
 76
     1
 77
     6
 78
     2
 67
     7
 79
     3
170
     0
171
     0
290
     0
174
     0
 93
       13
 44
0.0
173
     0
291
     0
 45
0.0
1001
ACAD
1000
AcDbSavedByObjectVersion
1070
     0
  0
VISUALSTYLE
  5
1941
102
{ACAD_XDICTIONARY
360
19AD
102
}
102
{ACAD_REACTORS
330
192C
102
}
330
192C
100
AcDbVisualStyle
  2
Shaded
 70
    27
 71
     2
 72
     2
 73
     1
 90
        2
 40
-0.6
 41
30.0
 62
     5
 63
     7
 74
     0
 91
        4
 64
     7
 65
   257
 75
     1
175
     1
 42
1.0
 92
        8
 66
   257
 43
1.0
 76
     1
 77
     6
 78
     2
 67
     8
 79
     3
170
     0
171
     0
290
     0
174
     0
 93
        5
 44
0.0
173
     0
291
     0
 45
0.0
1001
ACAD
1000
AcDbSavedByObjectVersion
1070
     0
  0
VISUALSTYLE
  5
1940
102
{ACAD_XDICTIONARY
360
19AB
102
}
102
{ACAD_REACTORS
330
192C
102
}
330
192C
100
AcDbVisualStyle
  2
Shaded with edges
 70
    26
 71
     2
 72
     2
 73
     1
 90
        2
 40
-0.6
 41
30.0
 62
     5
 63
     7
 74
     1
 91
       10
 64
     7
 65
   257
 75
     2
175
     1
 42
1.0
 92
        8
 66
   257
 43
1.0
 76
     1
 77
     6
 78
     2
 67
     7
 79
     3
170
     0
171
     0
290
     0
174
     0
 93
        5
 44
0.0
173
     0
291
     0
 45
0.0
1001
ACAD
1000
AcDbSavedByObjectVersion
1070
     0
  0
VISUALSTYLE
  5
193D
102
{ACAD_XDICTIONARY
360
19A5
102
}
102
{ACAD_REACTORS
330
192C
102
}
330
192C
100
AcDbVisualStyle
  2
Shades of Gray
 70
    23
 71
     2
 72
     2
 73
     3
 90
        0
 40
-0.6
 41
-30.0
 62
     5
 63
     7
 74
     2
 91
        2
 64
     7
 65
     7
 75
     1
175
     1
 42
40.0
 92
        8
 66
     7
 43
1.0
 76
     1
 77
     6
 78
     2
 67
     7
 79
     3
170
     0
171
     0
290
     0
174
     0
 93
        1
 44
0.0
173
     0
291
     0
 45
0.0
1001
ACAD
1000
AcDbSavedByObjectVersion
1070
     0
  0
VISUALSTYLE
  5
193E
102
{ACAD_XDICTIONARY
360
19A7
102
}
102
{ACAD_REACTORS
330
192C
102
}
330
192C
100
AcDbVisualStyle
  2
Sketchy
 70
    24
 71
     1
 72
     2
 73
     2
 90
        0
 40
-0.6
 41
-30.0
 62
     5
 63
     7
 74
     2
 91
        2
 64
     7
 65
     7
 75
     1
175
     1
 42
40.0
 92
       11
 66
     7
 43
1.0
 76
     1
 77
     6
 78
     2
 67
     7
 79
     6
170
     0
171
     0
290
     0
174
     0
 93
        1
 44
0.0
173
     0
291
     0
 45
0.0
1001
ACAD
1000
AcDbSavedByObjectVersion
1070
     0
  0
VISUALSTYLE
  5
1939
102
{ACAD_XDICTIONARY
360
199D
102
}
102
{ACAD_REACTORS
330
192C
102
}
330
192C
100
AcDbVisualStyle
  2
Thicken
 70
    13
 71
     2
 72
     2
 73
     0
 90
        0
 40
-0.6
 41
-30.0
 62
     5
 63
     7
 74
     1
 91
        4
 64
     7
 65
   257
 75
     1
175
     1
 42
1.0
 92
       12
 66
     7
 43
1.0
 76
     1
 77
     6
 78
     2
 67
     7
 79
     5
170
     0
171
     0
290
     0
174
     0
 93
        1
 44
0.0
173
     0
291
     1
 45
0.0
1001
ACAD
1000
AcDbSavedByObjectVersion
1070
     0
  0
VISUALSTYLE
  5
1933
102
{ACAD_XDICTIONARY
360
1991
102
}
102
{ACAD_REACTORS
330
192C
102
}
330
192C
100
AcDbVisualStyle
  2
Wireframe
 70
     5
 71
     0
 72
     2
 73
     0
 90
        0
 40
-0.6
 41
-30.0
 62
     5
 63
     7
 74
     1
 91
        4
 64
     7
 65
   257
 75
     1
175
     1
 42
1.0
 92
        0
 66
   257
 43
1.0
 76
     1
 77
     6
 78
     2
 67
     7
 79
     3
170
     0
171
     0
290
     0
174
     0
 93
        1
 44
0.0
173
     0
291
     0
 45
0.0
1001
ACAD
1000
AcDbSavedByObjectVersion
1070
     0
  0
VISUALSTYLE
  5
193F
102
{ACAD_XDICTIONARY
360
19A9
102
}
102
{ACAD_REACTORS
330
192C
102
}
330
192C
100
AcDbVisualStyle
  2
X-Ray
 70
    25
 71
     2
 72
     2
 73
     1
 90
        1
 40
0.5
 41
-30.0
 62
     5
 63
     7
 74
     1
 91
        0
 64
     7
 65
   257
 75
     1
175
     1
 42
1.0
 92
        8
 66
     7
 43
1.0
 76
     1
 77
     6
 78
     2
 67
     7
 79
     3
170
     0
171
     0
290
     0
174
     0
 93
       13
 44
0.0
173
     0
291
     0
 45
0.0
1001
ACAD
1000
AcDbSavedByObjectVersion
1070
     0
  0
DICTIONARYVAR
  5
1978
102
{ACAD_REACTORS
330
1973
102
}
330
1973
100
DictionaryVariables
280
     0
  1
1:1
  0
DICTIONARYVAR
  5
1975
102
{ACAD_REACTORS
330
1973
102
}
330
1973
100
DictionaryVariables
280
     0
  1
STANDARD
  0
DICTIONARYVAR
  5
1974
102
{ACAD_REACTORS
330
1973
102
}
330
1973
100
DictionaryVariables
280
     0
  1
STANDARD
  0
DICTIONARYVAR
  5
1976
102
{ACAD_REACTORS
330
1973
102
}
330
1973
100
DictionaryVariables
280
     0
  1
Imperial24
  0
DICTIONARYVAR
  5
1977
102
{ACAD_REACTORS
330
1973
102
}
330
1973
100
DictionaryVariables
280
     0
  1
Imperial24
  0
DICTIONARYVAR
  5
197B
102
{ACAD_REACTORS
330
1973
102
}
330
1973
100
DictionaryVariables
280
     0
  1
1
  0
DICTIONARYVAR
  5
197A
102
{ACAD_REACTORS
330
1973
102
}
330
1973
100
DictionaryVariables
280
     0
  1
0
  0
DICTIONARYVAR
  5
1979
102
{ACAD_REACTORS
330
1973
102
}
330
1973
100
DictionaryVariables
280
     0
  1
127
  0
DICTIONARYVAR
  5
197C
102
{ACAD_REACTORS
330
1973
102
}
330
1973
100
DictionaryVariables
280
     0
  1
2
  0
DICTIONARY
  5
19B9
330
195F
100
AcDbDictionary
280
     1
281
     1
  3
ACAD_XREC_ROUNDTRIP
360
19BA
  0
DICTIONARY
  5
19BB
330
1960
100
AcDbDictionary
280
     1
281
     1
  3
ACAD_XREC_ROUNDTRIP
360
19BC
  0
DICTIONARY
  5
19BD
330
1961
100
AcDbDictionary
280
     1
281
     1
  3
ACAD_XREC_ROUNDTRIP
360
19BE
  0
DICTIONARY
  5
191D
330
191C
100
AcDbDictionary
280
     1
281
     1
  3
ACAD_XREC_ROUNDTRIP
360
1983
  3
BUMPTILE
360
191F
  3
DIFFUSETILE
360
191E
  3
OPACITYTILE
360
1922
  3
REFLECTIONTILE
360
1921
  3
REFRACTIONTILE
360
1923
  3
SPECULARTILE
360
1920
  0
DICTIONARY
  5
1915
330
1914
100
AcDbDictionary
280
     1
281
     1
  3
ACAD_XREC_ROUNDTRIP
360
1982
  3
BUMPTILE
360
1917
  3
DIFFUSETILE
360
1916
  3
OPACITYTILE
360
191A
  3
REFLECTIONTILE
360
1919
  3
REFRACTIONTILE
360
191B
  3
SPECULARTILE
360
1918
  0
DICTIONARY
  5
1925
330
1924
100
AcDbDictionary
280
     1
281
     1
  3
ACAD_XREC_ROUNDTRIP
360
1984
  3
BUMPTILE
360
1927
  3
DIFFUSETILE
360
1926
  3
OPACITYTILE
360
192A
  3
REFLECTIONTILE
360
1929
  3
REFRACTIONTILE
360
192B
  3
SPECULARTILE
360
1928
  0
DICTIONARY
  5
19B7
330
195D
100
AcDbDictionary
280
     1
281
     1
  3
ACAD_XREC_ROUNDTRIP
360
19B8
  0
DICTIONARY
  5
197E
330
1947
100
AcDbDictionary
280
     1
281
     1
  3
ACAD_ROUNDTRIP_2008_TABLESTYLE_CELLSTYLEMAP
360
197F
  3
ACAD_XREC_ROUNDTRIP
360
19B5
  0
DICTIONARY
  5
198F
330
1932
100
AcDbDictionary
280
     1
281
     1
  3
ACAD_XREC_ROUNDTRIP
360
1990
  0
DICTIONARY
  5
198D
330
1931
100
AcDbDictionary
280
     1
281
     1
  3
ACAD_XREC_ROUNDTRIP
360
198E
  0
DICTIONARY
  5
199B
330
1938
100
AcDbDictionary
280
     1
281
     1
  3
ACAD_XREC_ROUNDTRIP
360
199C
  0
DICTIONARY
  5
19A3
330
193C
100
AcDbDictionary
280
     1
281
     1
  3
ACAD_XREC_ROUNDTRIP
360
19A4
  0
DICTIONARY
  5
1995
330
1935
100
AcDbDictionary
280
     1
281
     1
  3
ACAD_XREC_ROUNDTRIP
360
1996
  0
DICTIONARY
  5
1999
330
1937
100
AcDbDictionary
280
     1
281
     1
  3
ACAD_XREC_ROUNDTRIP
360
199A
  0
DICTIONARY
  5
19B3
330
1944
100
AcDbDictionary
280
     1
281
     1
  3
ACAD_XREC_ROUNDTRIP
360
19B4
  0
DICTIONARY
  5
19A1
330
193B
100
AcDbDictionary
280
     1
281
     1
  3
ACAD_XREC_ROUNDTRIP
360
19A2
  0
DICTIONARY
  5
1985
330
192D
100
AcDbDictionary
280
     1
281
     1
  3
ACAD_XREC_ROUNDTRIP
360
1986
  0
DICTIONARY
  5
1987
330
192E
100
AcDbDictionary
280
     1
281
     1
  3
ACAD_XREC_ROUNDTRIP
360
1988
  0
DICTIONARY
  5
1989
330
192F
100
AcDbDictionary
280
     1
281
     1
  3
ACAD_XREC_ROUNDTRIP
360
198A
  0
DICTIONARY
  5
198B
330
1930
100
AcDbDictionary
280
     1
281
     1
  3
ACAD_XREC_ROUNDTRIP
360
198C
  0
DICTIONARY
  5
1993
330
1934
100
AcDbDictionary
280
     1
281
     1
  3
ACAD_XREC_ROUNDTRIP
360
1994
  0
DICTIONARY
  5
19AF
330
1942
100
AcDbDictionary
280
     1
281
     1
  3
ACAD_XREC_ROUNDTRIP
360
19B0
  0
DICTIONARY
  5
199F
330
193A
100
AcDbDictionary
280
     1
281
     1
  3
ACAD_XREC_ROUNDTRIP
360
19A0
  0
DICTIONARY
  5
19B1
330
1943
100
AcDbDictionary
280
     1
281
     1
  3
ACAD_XREC_ROUNDTRIP
360
19B2
  0
DICTIONARY
  5
1997
330
1936
100
AcDbDictionary
280
     1
281
     1
  3
ACAD_XREC_ROUNDTRIP
360
1998
  0
DICTIONARY
  5
19AD
330
1941
100
AcDbDictionary
280
     1
281
     1
  3
ACAD_XREC_ROUNDTRIP
360
19AE
  0
DICTIONARY
  5
19AB
330
1940
100
AcDbDictionary
280
     1
281
     1
  3
ACAD_XREC_ROUNDTRIP
360
19AC
  0
DICTIONARY
  5
19A5
330
193D
100
AcDbDictionary
280
     1
281
     1
  3
ACAD_XREC_ROUNDTRIP
360
19A6
  0
DICTIONARY
  5
19A7
330
193E
100
AcDbDictionary
280
     1
281
     1
  3
ACAD_XREC_ROUNDTRIP
360
19A8
  0
DICTIONARY
  5
199D
330
1939
100
AcDbDictionary
280
     1
281
     1
  3
ACAD_XREC_ROUNDTRIP
360
199E
  0
DICTIONARY
  5
1991
330
1933
100
AcDbDictionary
280
     1
281
     1
  3
ACAD_XREC_ROUNDTRIP
360
1992
  0
DICTIONARY
  5
19A9
330
193F
100
AcDbDictionary
280
     1
281
     1
  3
ACAD_XREC_ROUNDTRIP
360
19AA
  0
XRECORD
  5
19BA
102
{ACAD_REACTORS
330
19B9
102
}
330
19B9
100
AcDbXrecord
280
     1
102
DISPLAYNAME
  1
Imperial24
102
FLAGS
 90
        0
  0
XRECORD
  5
19BC
102
{ACAD_REACTORS
330
19BB
102
}
330
19BB
100
AcDbXrecord
280
     1
102
SHADEPLOT
 70
     0
102
SHADEPLOTRESLEVEL
 70
     2
102
SHADEPLOTCUSTOMDPI
 70
   300
  0
XRECORD
  5
19BE
102
{ACAD_REACTORS
330
19BD
102
}
330
19BD
100
AcDbXrecord
280
     1
102
SHADEPLOT
 70
     0
102
SHADEPLOTRESLEVEL
 70
     2
102
SHADEPLOTCUSTOMDPI
 70
   300
  0
XRECORD
  5
1983
102
{ACAD_REACTORS
330
191D
102
}
330
191D
100
AcDbXrecord
280
     1
102
MATERIAL
148
0.0
149
0.0
149
0.0
 93
        0
 94
      127
282
     0
 72
     0
 77
     0
171
     0
175
     0
179
     0
273
     0
  0
XRECORD
  5
191F
102
{ACAD_REACTORS
330
191D
102
}
330
191D
100
AcDbXrecord
280
     1
270
     1
271
     1
  0
XRECORD
  5
191E
102
{ACAD_REACTORS
330
191D
102
}
330
191D
100
AcDbXrecord
280
     1
270
     1
271
     1
  0
XRECORD
  5
1922
102
{ACAD_REACTORS
330
191D
102
}
330
191D
100
AcDbXrecord
280
     1
270
     1
271
     1
  0
XRECORD
  5
1921
102
{ACAD_REACTORS
330
191D
102
}
330
191D
100
AcDbXrecord
280
     1
270
     1
271
     1
  0
XRECORD
  5
1923
102
{ACAD_REACTORS
330
191D
102
}
330
191D
100
AcDbXrecord
280
     1
270
     1
271
     1
  0
XRECORD
  5
1920
102
{ACAD_REACTORS
330
191D
102
}
330
191D
100
AcDbXrecord
280
     1
270
     1
271
     1
  0
XRECORD
  5
1982
102
{ACAD_REACTORS
330
1915
102
}
330
1915
100
AcDbXrecord
280
     1
102
MATERIAL
148
0.0
149
0.0
149
0.0
 93
        0
 94
      127
282
     0
 72
     0
 77
     0
171
     0
175
     0
179
     0
273
     0
  0
XRECORD
  5
1917
102
{ACAD_REACTORS
330
1915
102
}
330
1915
100
AcDbXrecord
280
     1
270
     1
271
     1
  0
XRECORD
  5
1916
102
{ACAD_REACTORS
330
1915
102
}
330
1915
100
AcDbXrecord
280
     1
270
     1
271
     1
  0
XRECORD
  5
191A
102
{ACAD_REACTORS
330
1915
102
}
330
1915
100
AcDbXrecord
280
     1
270
     1
271
     1
  0
XRECORD
  5
1919
102
{ACAD_REACTORS
330
1915
102
}
330
1915
100
AcDbXrecord
280
     1
270
     1
271
     1
  0
XRECORD
  5
191B
102
{ACAD_REACTORS
330
1915
102
}
330
1915
100
AcDbXrecord
280
     1
270
     1
271
     1
  0
XRECORD
  5
1918
102
{ACAD_REACTORS
330
1915
102
}
330
1915
100
AcDbXrecord
280
     1
270
     1
271
     1
  0
XRECORD
  5
1984
102
{ACAD_REACTORS
330
1925
102
}
330
1925
100
AcDbXrecord
280
     1
102
MATERIAL
148
0.0
149
0.0
149
0.0
 93
        0
 94
      127
282
     0
 72
     0
 77
     0
171
     0
175
     0
179
     0
273
     0
  0
XRECORD
  5
1927
102
{ACAD_REACTORS
330
1925
102
}
330
1925
100
AcDbXrecord
280
     1
270
     1
271
     1
  0
XRECORD
  5
1926
102
{ACAD_REACTORS
330
1925
102
}
330
1925
100
AcDbXrecord
280
     1
270
     1
271
     1
  0
XRECORD
  5
192A
102
{ACAD_REACTORS
330
1925
102
}
330
1925
100
AcDbXrecord
280
     1
270
     1
271
     1
  0
XRECORD
  5
1929
102
{ACAD_REACTORS
330
1925
102
}
330
1925
100
AcDbXrecord
280
     1
270
     1
271
     1
  0
XRECORD
  5
192B
102
{ACAD_REACTORS
330
1925
102
}
330
1925
100
AcDbXrecord
280
     1
270
     1
271
     1
  0
XRECORD
  5
1928
102
{ACAD_REACTORS
330
1925
102
}
330
1925
100
AcDbXrecord
280
     1
270
     1
271
     1
  0
XRECORD
  5
19B8
102
{ACAD_REACTORS
330
19B7
102
}
330
19B7
100
AcDbXrecord
280
     1
102
DISPLAYNAME
  1
Imperial24
102
FLAGS
 90
        0
  0
CELLSTYLEMAP
  5
197F
102
{ACAD_REACTORS
330
197E
102
}
330
197E
100
AcDbCellStyleMap
 90
        3
300
CELLSTYLE
  1
TABLEFORMAT_BEGIN
 90
        5
170
     1
 91
        0
 92
    32768
 62
   257
 93
        1
300
CONTENTFORMAT
  1
CONTENTFORMAT_BEGIN
 90
        0
 91
        0
 92
      512
 93
        0
300

 40
0.0
140
1.0
 94
        5
 62
     0
340
F
144
0.25
309
CONTENTFORMAT_END
171
     0
 94
        0
309
TABLEFORMAT_END
  1
CELLSTYLE_BEGIN
 90
        1
 91
        1
300
_TITLE
309
CELLSTYLE_END
300
CELLSTYLE
  1
TABLEFORMAT_BEGIN
 90
        5
170
     1
 91
        0
 92
        0
 62
   257
 93
        1
300
CONTENTFORMAT
  1
CONTENTFORMAT_BEGIN
 90
        0
 91
        0
 92
      512
 93
        0
300

 40
0.0
140
1.0
 94
        5
 62
     0
340
F
144
0.18
309
CONTENTFORMAT_END
171
     0
 94
        0
309
TABLEFORMAT_END
  1
CELLSTYLE_BEGIN
 90
        2
 91
        1
300
_HEADER
309
CELLSTYLE_END
300
CELLSTYLE
  1
TABLEFORMAT_BEGIN
 90
        5
170
     1
 91
        0
 92
        0
 62
   257
 93
        1
300
CONTENTFORMAT
  1
CONTENTFORMAT_BEGIN
 90
        0
 91
        0
 92
      512
 93
        0
300

 40
0.0
140
1.0
 94
        2
 62
     0
340
F
144
0.18
309
CONTENTFORMAT_END
171
     0
 94
        0
309
TABLEFORMAT_END
  1
CELLSTYLE_BEGIN
 90
        3
 91
        2
300
_DATA
309
CELLSTYLE_END
  0
XRECORD
  5
19B5
102
{ACAD_REACTORS
330
197E
102
}
330
197E
100
AcDbXrecord
280
     1
102
ACAD_ROUNDTRIP_PRE2007_TABLESTYLE
 90
      512
 91
        0
  1

 92
      512
 93
        0
  2

 94
      512
 95
        0
  3

  0
XRECORD
  5
1990
102
{ACAD_REACTORS
330
198F
102
}
330
198F
100
AcDbXrecord
280
     1
102
RTVSPost2010Prop28
280
     1
102
RTVSPost2010PropOp28
 70
     1
102
RTVSPost2010Prop29
280
     1
102
RTVSPost2010PropOp29
 70
     1
102
RTVSPost2010Prop30
280
     0
102
RTVSPost2010PropOp30
 70
     1
102
RTVSPost2010Prop31
280
     0
102
RTVSPost2010PropOp31
 70
     1
102
RTVSPost2010Prop32
280
     0
102
RTVSPost2010PropOp32
 70
     1
102
RTVSPost2010Prop33
280
     0
102
RTVSPost2010PropOp33
 70
     1
102
RTVSPost2010Prop34
280
     0
102
RTVSPost2010PropOp34
 70
     1
102
RTVSPost2010Prop35
280
     0
102
RTVSPost2010PropOp35
 70
     1
102
RTVSPost2010Prop36
280
     0
102
RTVSPost2010PropOp36
 70
     1
102
RTVSPost2010Prop37
 90
       50
102
RTVSPost2010PropOp37
 70
     1
102
RTVSPost2010Prop38
140
0.0
102
RTVSPost2010PropOp38
 70
     1
102
RTVSPost2010Prop39
140
1.0
102
RTVSPost2010PropOp39
 70
     1
102
RTVSPost2010Prop40
 90
        0
102
RTVSPost2010PropOp40
 70
     1
102
RTVSPost2010Prop41ColorIndex
 90
       18
102
RTVSPost2010Prop41ColorRGB
 90
        0
102
RTVSPost2010PropOp41
 70
     1
102
RTVSPost2010Prop42
 90
       50
102
RTVSPost2010PropOp42
 70
     1
102
RTVSPost2010Prop43
 90
        3
102
RTVSPost2010PropOp43
 70
     1
102
RTVSPost2010Prop44ColorIndex
 90
        5
102
RTVSPost2010Prop44ColorRGB
 90
      255
102
RTVSPost2010PropOp44
 70
     1
102
RTVSPost2010Prop45
280
     0
102
RTVSPost2010PropOp45
 70
     1
102
RTVSPost2010Prop46
 90
       50
102
RTVSPost2010PropOp46
 70
     1
102
RTVSPost2010Prop47
 90
       50
102
RTVSPost2010PropOp47
 70
     1
102
RTVSPost2010Prop48
 90
       50
102
RTVSPost2010PropOp48
 70
     1
102
RTVSPost2010Prop49
280
     0
102
RTVSPost2010PropOp49
 70
     1
102
RTVSPost2010Prop50
 90
       50
102
RTVSPost2010PropOp50
 70
     1
102
RTVSPost2010Prop51ColorIndex
 90
      256
102
RTVSPost2010Prop51ColorRGB
 90
-16777216
102
RTVSPost2010PropOp51
 70
     0
102
RTVSPost2010Prop52
140
1.0
102
RTVSPost2010PropOp52
 70
     0
102
RTVSPost2010Prop53
 90
        2
102
RTVSPost2010PropOp53
 70
     1
102
RTVSPost2010Prop54
  1
strokes_ogs.tif
102
RTVSPost2010PropOp54
 70
     1
102
RTVSPost2010Prop55
280
     0
102
RTVSPost2010PropOp55
 70
     1
102
RTVSPost2010Prop56
140
1.0
102
RTVSPost2010PropOp56
 70
     1
102
RTVSPost2010Prop57
140
1.0
102
RTVSPost2010PropOp57
 70
     1
102
RTVSPropertyOp0
 70
     1
102
RTVSPropertyOp1
 70
     1
102
RTVSPropertyOp2
 70
     1
102
RTVSPropertyOp3
 70
     1
102
RTVSPropertyOp4
 70
     1
102
RTVSPropertyOp5
 70
     1
102
RTVSPropertyOp6
 70
     1
102
RTVSPropertyOp7
 70
     1
102
RTVSPropertyOp8
 70
     1
102
RTVSPropertyOp9
 70
     1
102
RTVSPropertyOp10
 70
     1
102
RTVSPropertyOp11
 70
     1
102
RTVSPropertyOp12
 70
     1
102
RTVSPropertyOp13
 70
     1
102
RTVSPropertyOp14
 70
     1
102
RTVSPropertyOp15
 70
     1
102
RTVSPropertyOp16
 70
     1
102
RTVSPropertyOp17
 70
     1
102
RTVSPropertyOp18
 70
     1
102
RTVSPropertyOp19
 70
     1
102
RTVSPropertyOp20
 70
     1
102
RTVSPropertyOp21
 70
     1
102
RTVSPropertyOp22
 70
     1
102
RTVSPropertyOp23
 70
     1
102
RTVSPropertyOp24
 70
     1
102
RTVSPropertyOp25
 70
     1
102
RTVSPropertyOp26
 70
     1
102
RTVSPropertyOp27
 70
     1
102
RTVSPropertyOp28
 70
     1
102
RTVSPropertyOp29
 70
     1
102
RTVSPropertyOp30
 70
     1
102
RTVSPropertyOp31
 70
     1
102
RTVSPropertyOp32
 70
     1
102
RTVSPropertyOp33
 70
     1
102
RTVSPropertyOp34
 70
     1
102
RTVSPropertyOp35
 70
     1
102
RTVSPropertyOp36
 70
     1
102
RTVSPropertyOp37
 70
     1
102
RTVSPropertyOp38
 70
     1
102
RTVSPropertyOp39
 70
     1
102
RTVSPropertyOp40
 70
     1
102
RTVSPropertyOp41
 70
     1
102
RTVSPropertyOp42
 70
     1
102
RTVSPropertyOp43
 70
     1
102
RTVSPropertyOp44
 70
     1
102
RTVSPropertyOp45
 70
     1
102
RTVSPropertyOp46
 70
     1
102
RTVSPropertyOp47
 70
     1
102
RTVSPropertyOp48
 70
     1
102
RTVSPropertyOp49
 70
     1
102
RTVSPropertyOp50
 70
     1
102
RTVSPropertyOp51
 70
     0
102
RTVSPropertyOp52
 70
     0
102
RTVSPropertyOp53
 70
     1
102
RTVSPropertyOp54
 70
     1
102
RTVSPropertyOp55
 70
     1
102
RTVSPropertyOp56
 70
     1
102
RTVSPropertyOp57
 70
     1
102
RTVSPropertyOp58
 70
     1
102
RTVSPropertyOp59
 70
     1
102
RTVSPropertyOp60
 70
     1
102
RTVSPropertyOp61
 70
     1
102
RTVSPropertyOp62
 70
     1
  0
XRECORD
  5
198E
102
{ACAD_REACTORS
330
198D
102
}
330
198D
100
AcDbXrecord
280
     1
102
RTVSPost2010Prop28
280
     0
102
RTVSPost2010PropOp28
 70
     1
102
RTVSPost2010Prop29
280
     1
102
RTVSPost2010PropOp29
 70
     1
102
RTVSPost2010Prop30
280
     1
102
RTVSPost2010PropOp30
 70
     1
102
RTVSPost2010Prop31
280
     0
102
RTVSPost2010PropOp31
 70
     1
102
RTVSPost2010Prop32
280
     0
102
RTVSPost2010PropOp32
 70
     1
102
RTVSPost2010Prop33
280
     0
102
RTVSPost2010PropOp33
 70
     1
102
RTVSPost2010Prop34
280
     0
102
RTVSPost2010PropOp34
 70
     1
102
RTVSPost2010Prop35
280
     0
102
RTVSPost2010PropOp35
 70
     1
102
RTVSPost2010Prop36
280
     0
102
RTVSPost2010PropOp36
 70
     1
102
RTVSPost2010Prop37
 90
       50
102
RTVSPost2010PropOp37
 70
     1
102
RTVSPost2010Prop38
140
0.0
102
RTVSPost2010PropOp38
 70
     1
102
RTVSPost2010Prop39
140
1.0
102
RTVSPost2010PropOp39
 70
     1
102
RTVSPost2010Prop40
 90
        0
102
RTVSPost2010PropOp40
 70
     1
102
RTVSPost2010Prop41ColorIndex
 90
       18
102
RTVSPost2010Prop41ColorRGB
 90
        0
102
RTVSPost2010PropOp41
 70
     1
102
RTVSPost2010Prop42
 90
       50
102
RTVSPost2010PropOp42
 70
     1
102
RTVSPost2010Prop43
 90
        3
102
RTVSPost2010PropOp43
 70
     1
102
RTVSPost2010Prop44ColorIndex
 90
        5
102
RTVSPost2010Prop44ColorRGB
 90
      255
102
RTVSPost2010PropOp44
 70
     1
102
RTVSPost2010Prop45
280
     0
102
RTVSPost2010PropOp45
 70
     1
102
RTVSPost2010Prop46
 90
       50
102
RTVSPost2010PropOp46
 70
     1
102
RTVSPost2010Prop47
 90
       50
102
RTVSPost2010PropOp47
 70
     1
102
RTVSPost2010Prop48
 90
       50
102
RTVSPost2010PropOp48
 70
     1
102
RTVSPost2010Prop49
280
     0
102
RTVSPost2010PropOp49
 70
     1
102
RTVSPost2010Prop50
 90
       50
102
RTVSPost2010PropOp50
 70
     1
102
RTVSPost2010Prop51ColorIndex
 90
      256
102
RTVSPost2010Prop51ColorRGB
 90
-16777216
102
RTVSPost2010PropOp51
 70
     0
102
RTVSPost2010Prop52
140
1.0
102
RTVSPost2010PropOp52
 70
     0
102
RTVSPost2010Prop53
 90
        2
102
RTVSPost2010PropOp53
 70
     1
102
RTVSPost2010Prop54
  1
strokes_ogs.tif
102
RTVSPost2010PropOp54
 70
     1
102
RTVSPost2010Prop55
280
     0
102
RTVSPost2010PropOp55
 70
     1
102
RTVSPost2010Prop56
140
1.0
102
RTVSPost2010PropOp56
 70
     1
102
RTVSPost2010Prop57
140
1.0
102
RTVSPost2010PropOp57
 70
     1
102
RTVSPropertyOp0
 70
     1
102
RTVSPropertyOp1
 70
     1
102
RTVSPropertyOp2
 70
     1
102
RTVSPropertyOp3
 70
     1
102
RTVSPropertyOp4
 70
     1
102
RTVSPropertyOp5
 70
     1
102
RTVSPropertyOp6
 70
     1
102
RTVSPropertyOp7
 70
     1
102
RTVSPropertyOp8
 70
     1
102
RTVSPropertyOp9
 70
     1
102
RTVSPropertyOp10
 70
     1
102
RTVSPropertyOp11
 70
     1
102
RTVSPropertyOp12
 70
     1
102
RTVSPropertyOp13
 70
     1
102
RTVSPropertyOp14
 70
     1
102
RTVSPropertyOp15
 70
     1
102
RTVSPropertyOp16
 70
     1
102
RTVSPropertyOp17
 70
     1
102
RTVSPropertyOp18
 70
     1
102
RTVSPropertyOp19
 70
     1
102
RTVSPropertyOp20
 70
     1
102
RTVSPropertyOp21
 70
     1
102
RTVSPropertyOp22
 70
     1
102
RTVSPropertyOp23
 70
     1
102
RTVSPropertyOp24
 70
     1
102
RTVSPropertyOp25
 70
     1
102
RTVSPropertyOp26
 70
     1
102
RTVSPropertyOp27
 70
     1
102
RTVSPropertyOp28
 70
     1
102
RTVSPropertyOp29
 70
     1
102
RTVSPropertyOp30
 70
     1
102
RTVSPropertyOp31
 70
     1
102
RTVSPropertyOp32
 70
     1
102
RTVSPropertyOp33
 70
     1
102
RTVSPropertyOp34
 70
     1
102
RTVSPropertyOp35
 70
     1
102
RTVSPropertyOp36
 70
     1
102
RTVSPropertyOp37
 70
     1
102
RTVSPropertyOp38
 70
     1
102
RTVSPropertyOp39
 70
     1
102
RTVSPropertyOp40
 70
     1
102
RTVSPropertyOp41
 70
     1
102
RTVSPropertyOp42
 70
     1
102
RTVSPropertyOp43
 70
     1
102
RTVSPropertyOp44
 70
     1
102
RTVSPropertyOp45
 70
     1
102
RTVSPropertyOp46
 70
     1
102
RTVSPropertyOp47
 70
     1
102
RTVSPropertyOp48
 70
     1
102
RTVSPropertyOp49
 70
     1
102
RTVSPropertyOp50
 70
     1
102
RTVSPropertyOp51
 70
     0
102
RTVSPropertyOp52
 70
     0
102
RTVSPropertyOp53
 70
     1
102
RTVSPropertyOp54
 70
     1
102
RTVSPropertyOp55
 70
     1
102
RTVSPropertyOp56
 70
     1
102
RTVSPropertyOp57
 70
     1
102
RTVSPropertyOp58
 70
     1
102
RTVSPropertyOp59
 70
     1
102
RTVSPropertyOp60
 70
     1
102
RTVSPropertyOp61
 70
     1
102
RTVSPropertyOp62
 70
     1
  0
XRECORD
  5
199C
102
{ACAD_REACTORS
330
199B
102
}
330
199B
100
AcDbXrecord
280
     1
102
RTVSPost2010Prop28
280
     0
102
RTVSPost2010PropOp28
 70
     1
102
RTVSPost2010Prop29
280
     1
102
RTVSPost2010PropOp29
 70
     1
102
RTVSPost2010Prop30
280
     1
102
RTVSPost2010PropOp30
 70
     1
102
RTVSPost2010Prop31
280
     0
102
RTVSPost2010PropOp31
 70
     1
102
RTVSPost2010Prop32
280
     0
102
RTVSPost2010PropOp32
 70
     1
102
RTVSPost2010Prop33
280
     0
102
RTVSPost2010PropOp33
 70
     1
102
RTVSPost2010Prop34
280
     0
102
RTVSPost2010PropOp34
 70
     1
102
RTVSPost2010Prop35
280
     0
102
RTVSPost2010PropOp35
 70
     1
102
RTVSPost2010Prop36
280
     0
102
RTVSPost2010PropOp36
 70
     1
102
RTVSPost2010Prop37
 90
       50
102
RTVSPost2010PropOp37
 70
     1
102
RTVSPost2010Prop38
140
0.0
102
RTVSPost2010PropOp38
 70
     1
102
RTVSPost2010Prop39
140
1.0
102
RTVSPost2010PropOp39
 70
     1
102
RTVSPost2010Prop40
 90
        0
102
RTVSPost2010PropOp40
 70
     1
102
RTVSPost2010Prop41ColorIndex
 90
       18
102
RTVSPost2010Prop41ColorRGB
 90
        0
102
RTVSPost2010PropOp41
 70
     1
102
RTVSPost2010Prop42
 90
       50
102
RTVSPost2010PropOp42
 70
     1
102
RTVSPost2010Prop43
 90
        3
102
RTVSPost2010PropOp43
 70
     1
102
RTVSPost2010Prop44ColorIndex
 90
        5
102
RTVSPost2010Prop44ColorRGB
 90
      255
102
RTVSPost2010PropOp44
 70
     1
102
RTVSPost2010Prop45
280
     0
102
RTVSPost2010PropOp45
 70
     1
102
RTVSPost2010Prop46
 90
       50
102
RTVSPost2010PropOp46
 70
     1
102
RTVSPost2010Prop47
 90
       50
102
RTVSPost2010PropOp47
 70
     1
102
RTVSPost2010Prop48
 90
       50
102
RTVSPost2010PropOp48
 70
     1
102
RTVSPost2010Prop49
280
     0
102
RTVSPost2010PropOp49
 70
     1
102
RTVSPost2010Prop50
 90
       50
102
RTVSPost2010PropOp50
 70
     1
102
RTVSPost2010Prop51ColorIndex
 90
      256
102
RTVSPost2010Prop51ColorRGB
 90
-16777216
102
RTVSPost2010PropOp51
 70
     0
102
RTVSPost2010Prop52
140
1.0
102
RTVSPost2010PropOp52
 70
     0
102
RTVSPost2010Prop53
 90
        2
102
RTVSPost2010PropOp53
 70
     1
102
RTVSPost2010Prop54
  1
strokes_ogs.tif
102
RTVSPost2010PropOp54
 70
     1
102
RTVSPost2010Prop55
280
     0
102
RTVSPost2010PropOp55
 70
     1
102
RTVSPost2010Prop56
140
1.0
102
RTVSPost2010PropOp56
 70
     1
102
RTVSPost2010Prop57
140
1.0
102
RTVSPost2010PropOp57
 70
     1
102
RTVSPropertyOp0
 70
     1
102
RTVSPropertyOp1
 70
     1
102
RTVSPropertyOp2
 70
     1
102
RTVSPropertyOp3
 70
     1
102
RTVSPropertyOp4
 70
     1
102
RTVSPropertyOp5
 70
     1
102
RTVSPropertyOp6
 70
     1
102
RTVSPropertyOp7
 70
     1
102
RTVSPropertyOp8
 70
     1
102
RTVSPropertyOp9
 70
     1
102
RTVSPropertyOp10
 70
     1
102
RTVSPropertyOp11
 70
     1
102
RTVSPropertyOp12
 70
     1
102
RTVSPropertyOp13
 70
     1
102
RTVSPropertyOp14
 70
     1
102
RTVSPropertyOp15
 70
     1
102
RTVSPropertyOp16
 70
     1
102
RTVSPropertyOp17
 70
     1
102
RTVSPropertyOp18
 70
     1
102
RTVSPropertyOp19
 70
     1
102
RTVSPropertyOp20
 70
     1
102
RTVSPropertyOp21
 70
     1
102
RTVSPropertyOp22
 70
     1
102
RTVSPropertyOp23
 70
     1
102
RTVSPropertyOp24
 70
     1
102
RTVSPropertyOp25
 70
     1
102
RTVSPropertyOp26
 70
     1
102
RTVSPropertyOp27
 70
     1
102
RTVSPropertyOp28
 70
     1
102
RTVSPropertyOp29
 70
     1
102
RTVSPropertyOp30
 70
     1
102
RTVSPropertyOp31
 70
     1
102
RTVSPropertyOp32
 70
     1
102
RTVSPropertyOp33
 70
     1
102
RTVSPropertyOp34
 70
     1
102
RTVSPropertyOp35
 70
     1
102
RTVSPropertyOp36
 70
     1
102
RTVSPropertyOp37
 70
     1
102
RTVSPropertyOp38
 70
     1
102
RTVSPropertyOp39
 70
     1
102
RTVSPropertyOp40
 70
     1
102
RTVSPropertyOp41
 70
     1
102
RTVSPropertyOp42
 70
     1
102
RTVSPropertyOp43
 70
     1
102
RTVSPropertyOp44
 70
     1
102
RTVSPropertyOp45
 70
     1
102
RTVSPropertyOp46
 70
     1
102
RTVSPropertyOp47
 70
     1
102
RTVSPropertyOp48
 70
     1
102
RTVSPropertyOp49
 70
     1
102
RTVSPropertyOp50
 70
     1
102
RTVSPropertyOp51
 70
     0
102
RTVSPropertyOp52
 70
     0
102
RTVSPropertyOp53
 70
     1
102
RTVSPropertyOp54
 70
     1
102
RTVSPropertyOp55
 70
     1
102
RTVSPropertyOp56
 70
     1
102
RTVSPropertyOp57
 70
     1
102
RTVSPropertyOp58
 70
     1
102
RTVSPropertyOp59
 70
     1
102
RTVSPropertyOp60
 70
     1
102
RTVSPropertyOp61
 70
     1
102
RTVSPropertyOp62
 70
     1
  0
XRECORD
  5
19A4
102
{ACAD_REACTORS
330
19A3
102
}
330
19A3
100
AcDbXrecord
280
     1
102
RTVSPost2010Prop28
280
     0
102
RTVSPost2010PropOp28
 70
     1
102
RTVSPost2010Prop29
280
     1
102
RTVSPost2010PropOp29
 70
     1
102
RTVSPost2010Prop30
280
     1
102
RTVSPost2010PropOp30
 70
     1
102
RTVSPost2010Prop31
280
     0
102
RTVSPost2010PropOp31
 70
     1
102
RTVSPost2010Prop32
280
     0
102
RTVSPost2010PropOp32
 70
     1
102
RTVSPost2010Prop33
280
     0
102
RTVSPost2010PropOp33
 70
     1
102
RTVSPost2010Prop34
280
     0
102
RTVSPost2010PropOp34
 70
     1
102
RTVSPost2010Prop35
280
     0
102
RTVSPost2010PropOp35
 70
     1
102
RTVSPost2010Prop36
280
     0
102
RTVSPost2010PropOp36
 70
     1
102
RTVSPost2010Prop37
 90
       50
102
RTVSPost2010PropOp37
 70
     1
102
RTVSPost2010Prop38
140
0.0
102
RTVSPost2010PropOp38
 70
     1
102
RTVSPost2010Prop39
140
1.0
102
RTVSPost2010PropOp39
 70
     1
102
RTVSPost2010Prop40
 90
        0
102
RTVSPost2010PropOp40
 70
     1
102
RTVSPost2010Prop41ColorIndex
 90
       18
102
RTVSPost2010Prop41ColorRGB
 90
        0
102
RTVSPost2010PropOp41
 70
     1
102
RTVSPost2010Prop42
 90
       50
102
RTVSPost2010PropOp42
 70
     1
102
RTVSPost2010Prop43
 90
        3
102
RTVSPost2010PropOp43
 70
     1
102
RTVSPost2010Prop44ColorIndex
 90
        5
102
RTVSPost2010Prop44ColorRGB
 90
      255
102
RTVSPost2010PropOp44
 70
     1
102
RTVSPost2010Prop45
280
     0
102
RTVSPost2010PropOp45
 70
     1
102
RTVSPost2010Prop46
 90
       50
102
RTVSPost2010PropOp46
 70
     1
102
RTVSPost2010Prop47
 90
       50
102
RTVSPost2010PropOp47
 70
     1
102
RTVSPost2010Prop48
 90
       50
102
RTVSPost2010PropOp48
 70
     1
102
RTVSPost2010Prop49
280
     0
102
RTVSPost2010PropOp49
 70
     1
102
RTVSPost2010Prop50
 90
       50
102
RTVSPost2010PropOp50
 70
     1
102
RTVSPost2010Prop51ColorIndex
 90
      256
102
RTVSPost2010Prop51ColorRGB
 90
-16777216
102
RTVSPost2010PropOp51
 70
     0
102
RTVSPost2010Prop52
140
1.0
102
RTVSPost2010PropOp52
 70
     0
102
RTVSPost2010Prop53
 90
        2
102
RTVSPost2010PropOp53
 70
     1
102
RTVSPost2010Prop54
  1
strokes_ogs.tif
102
RTVSPost2010PropOp54
 70
     1
102
RTVSPost2010Prop55
280
     0
102
RTVSPost2010PropOp55
 70
     1
102
RTVSPost2010Prop56
140
1.0
102
RTVSPost2010PropOp56
 70
     1
102
RTVSPost2010Prop57
140
1.0
102
RTVSPost2010PropOp57
 70
     1
102
RTVSPropertyOp0
 70
     1
102
RTVSPropertyOp1
 70
     1
102
RTVSPropertyOp2
 70
     1
102
RTVSPropertyOp3
 70
     1
102
RTVSPropertyOp4
 70
     1
102
RTVSPropertyOp5
 70
     1
102
RTVSPropertyOp6
 70
     1
102
RTVSPropertyOp7
 70
     1
102
RTVSPropertyOp8
 70
     1
102
RTVSPropertyOp9
 70
     1
102
RTVSPropertyOp10
 70
     1
102
RTVSPropertyOp11
 70
     1
102
RTVSPropertyOp12
 70
     1
102
RTVSPropertyOp13
 70
     1
102
RTVSPropertyOp14
 70
     1
102
RTVSPropertyOp15
 70
     1
102
RTVSPropertyOp16
 70
     1
102
RTVSPropertyOp17
 70
     1
102
RTVSPropertyOp18
 70
     1
102
RTVSPropertyOp19
 70
     1
102
RTVSPropertyOp20
 70
     1
102
RTVSPropertyOp21
 70
     1
102
RTVSPropertyOp22
 70
     1
102
RTVSPropertyOp23
 70
     1
102
RTVSPropertyOp24
 70
     1
102
RTVSPropertyOp25
 70
     1
102
RTVSPropertyOp26
 70
     1
102
RTVSPropertyOp27
 70
     1
102
RTVSPropertyOp28
 70
     1
102
RTVSPropertyOp29
 70
     1
102
RTVSPropertyOp30
 70
     1
102
RTVSPropertyOp31
 70
     1
102
RTVSPropertyOp32
 70
     1
102
RTVSPropertyOp33
 70
     1
102
RTVSPropertyOp34
 70
     1
102
RTVSPropertyOp35
 70
     1
102
RTVSPropertyOp36
 70
     1
102
RTVSPropertyOp37
 70
     1
102
RTVSPropertyOp38
 70
     1
102
RTVSPropertyOp39
 70
     1
102
RTVSPropertyOp40
 70
     1
102
RTVSPropertyOp41
 70
     1
102
RTVSPropertyOp42
 70
     1
102
RTVSPropertyOp43
 70
     1
102
RTVSPropertyOp44
 70
     1
102
RTVSPropertyOp45
 70
     1
102
RTVSPropertyOp46
 70
     1
102
RTVSPropertyOp47
 70
     1
102
RTVSPropertyOp48
 70
     1
102
RTVSPropertyOp49
 70
     1
102
RTVSPropertyOp50
 70
     1
102
RTVSPropertyOp51
 70
     0
102
RTVSPropertyOp52
 70
     0
102
RTVSPropertyOp53
 70
     1
102
RTVSPropertyOp54
 70
     1
102
RTVSPropertyOp55
 70
     1
102
RTVSPropertyOp56
 70
     1
102
RTVSPropertyOp57
 70
     1
102
RTVSPropertyOp58
 70
     1
102
RTVSPropertyOp59
 70
     1
102
RTVSPropertyOp60
 70
     1
102
RTVSPropertyOp61
 70
     1
102
RTVSPropertyOp62
 70
     1
  0
XRECORD
  5
1996
102
{ACAD_REACTORS
330
1995
102
}
330
1995
100
AcDbXrecord
280
     1
102
RTVSPost2010Prop28
280
     0
102
RTVSPost2010PropOp28
 70
     1
102
RTVSPost2010Prop29
280
     1
102
RTVSPost2010PropOp29
 70
     1
102
RTVSPost2010Prop30
280
     1
102
RTVSPost2010PropOp30
 70
     1
102
RTVSPost2010Prop31
280
     0
102
RTVSPost2010PropOp31
 70
     1
102
RTVSPost2010Prop32
280
     0
102
RTVSPost2010PropOp32
 70
     1
102
RTVSPost2010Prop33
280
     0
102
RTVSPost2010PropOp33
 70
     1
102
RTVSPost2010Prop34
280
     0
102
RTVSPost2010PropOp34
 70
     1
102
RTVSPost2010Prop35
280
     0
102
RTVSPost2010PropOp35
 70
     1
102
RTVSPost2010Prop36
280
     0
102
RTVSPost2010PropOp36
 70
     1
102
RTVSPost2010Prop37
 90
       50
102
RTVSPost2010PropOp37
 70
     1
102
RTVSPost2010Prop38
140
0.0
102
RTVSPost2010PropOp38
 70
     1
102
RTVSPost2010Prop39
140
1.0
102
RTVSPost2010PropOp39
 70
     1
102
RTVSPost2010Prop40
 90
        0
102
RTVSPost2010PropOp40
 70
     1
102
RTVSPost2010Prop41ColorIndex
 90
       18
102
RTVSPost2010Prop41ColorRGB
 90
        0
102
RTVSPost2010PropOp41
 70
     1
102
RTVSPost2010Prop42
 90
       50
102
RTVSPost2010PropOp42
 70
     1
102
RTVSPost2010Prop43
 90
        3
102
RTVSPost2010PropOp43
 70
     1
102
RTVSPost2010Prop44ColorIndex
 90
        5
102
RTVSPost2010Prop44ColorRGB
 90
      255
102
RTVSPost2010PropOp44
 70
     1
102
RTVSPost2010Prop45
280
     0
102
RTVSPost2010PropOp45
 70
     1
102
RTVSPost2010Prop46
 90
       50
102
RTVSPost2010PropOp46
 70
     1
102
RTVSPost2010Prop47
 90
       50
102
RTVSPost2010PropOp47
 70
     1
102
RTVSPost2010Prop48
 90
       50
102
RTVSPost2010PropOp48
 70
     1
102
RTVSPost2010Prop49
280
     0
102
RTVSPost2010PropOp49
 70
     1
102
RTVSPost2010Prop50
 90
       50
102
RTVSPost2010PropOp50
 70
     1
102
RTVSPost2010Prop51ColorIndex
 90
      256
102
RTVSPost2010Prop51ColorRGB
 90
-16777216
102
RTVSPost2010PropOp51
 70
     0
102
RTVSPost2010Prop52
140
1.0
102
RTVSPost2010PropOp52
 70
     0
102
RTVSPost2010Prop53
 90
        2
102
RTVSPost2010PropOp53
 70
     1
102
RTVSPost2010Prop54
  1
strokes_ogs.tif
102
RTVSPost2010PropOp54
 70
     1
102
RTVSPost2010Prop55
280
     0
102
RTVSPost2010PropOp55
 70
     1
102
RTVSPost2010Prop56
140
1.0
102
RTVSPost2010PropOp56
 70
     1
102
RTVSPost2010Prop57
140
1.0
102
RTVSPost2010PropOp57
 70
     1
102
RTVSPropertyOp0
 70
     1
102
RTVSPropertyOp1
 70
     1
102
RTVSPropertyOp2
 70
     1
102
RTVSPropertyOp3
 70
     1
102
RTVSPropertyOp4
 70
     1
102
RTVSPropertyOp5
 70
     1
102
RTVSPropertyOp6
 70
     1
102
RTVSPropertyOp7
 70
     1
102
RTVSPropertyOp8
 70
     1
102
RTVSPropertyOp9
 70
     1
102
RTVSPropertyOp10
 70
     1
102
RTVSPropertyOp11
 70
     1
102
RTVSPropertyOp12
 70
     1
102
RTVSPropertyOp13
 70
     1
102
RTVSPropertyOp14
 70
     1
102
RTVSPropertyOp15
 70
     1
102
RTVSPropertyOp16
 70
     1
102
RTVSPropertyOp17
 70
     1
102
RTVSPropertyOp18
 70
     1
102
RTVSPropertyOp19
 70
     1
102
RTVSPropertyOp20
 70
     1
102
RTVSPropertyOp21
 70
     1
102
RTVSPropertyOp22
 70
     1
102
RTVSPropertyOp23
 70
     1
102
RTVSPropertyOp24
 70
     1
102
RTVSPropertyOp25
 70
     1
102
RTVSPropertyOp26
 70
     1
102
RTVSPropertyOp27
 70
     1
102
RTVSPropertyOp28
 70
     1
102
RTVSPropertyOp29
 70
     1
102
RTVSPropertyOp30
 70
     1
102
RTVSPropertyOp31
 70
     1
102
RTVSPropertyOp32
 70
     1
102
RTVSPropertyOp33
 70
     1
102
RTVSPropertyOp34
 70
     1
102
RTVSPropertyOp35
 70
     1
102
RTVSPropertyOp36
 70
     1
102
RTVSPropertyOp37
 70
     1
102
RTVSPropertyOp38
 70
     1
102
RTVSPropertyOp39
 70
     1
102
RTVSPropertyOp40
 70
     1
102
RTVSPropertyOp41
 70
     1
102
RTVSPropertyOp42
 70
     1
102
RTVSPropertyOp43
 70
     1
102
RTVSPropertyOp44
 70
     1
102
RTVSPropertyOp45
 70
     1
102
RTVSPropertyOp46
 70
     1
102
RTVSPropertyOp47
 70
     1
102
RTVSPropertyOp48
 70
     1
102
RTVSPropertyOp49
 70
     1
102
RTVSPropertyOp50
 70
     1
102
RTVSPropertyOp51
 70
     0
102
RTVSPropertyOp52
 70
     0
102
RTVSPropertyOp53
 70
     1
102
RTVSPropertyOp54
 70
     1
102
RTVSPropertyOp55
 70
     1
102
RTVSPropertyOp56
 70
     1
102
RTVSPropertyOp57
 70
     1
102
RTVSPropertyOp58
 70
     1
102
RTVSPropertyOp59
 70
     1
102
RTVSPropertyOp60
 70
     1
102
RTVSPropertyOp61
 70
     1
102
RTVSPropertyOp62
 70
     1
  0
XRECORD
  5
199A
102
{ACAD_REACTORS
330
1999
102
}
330
1999
100
AcDbXrecord
280
     1
102
RTVSPost2010Prop28
280
     0
102
RTVSPost2010PropOp28
 70
     1
102
RTVSPost2010Prop29
280
     1
102
RTVSPost2010PropOp29
 70
     1
102
RTVSPost2010Prop30
280
     1
102
RTVSPost2010PropOp30
 70
     1
102
RTVSPost2010Prop31
280
     0
102
RTVSPost2010PropOp31
 70
     1
102
RTVSPost2010Prop32
280
     0
102
RTVSPost2010PropOp32
 70
     1
102
RTVSPost2010Prop33
280
     0
102
RTVSPost2010PropOp33
 70
     1
102
RTVSPost2010Prop34
280
     0
102
RTVSPost2010PropOp34
 70
     1
102
RTVSPost2010Prop35
280
     0
102
RTVSPost2010PropOp35
 70
     1
102
RTVSPost2010Prop36
280
     0
102
RTVSPost2010PropOp36
 70
     1
102
RTVSPost2010Prop37
 90
       50
102
RTVSPost2010PropOp37
 70
     1
102
RTVSPost2010Prop38
140
0.0
102
RTVSPost2010PropOp38
 70
     1
102
RTVSPost2010Prop39
140
1.0
102
RTVSPost2010PropOp39
 70
     1
102
RTVSPost2010Prop40
 90
        0
102
RTVSPost2010PropOp40
 70
     1
102
RTVSPost2010Prop41ColorIndex
 90
       18
102
RTVSPost2010Prop41ColorRGB
 90
        0
102
RTVSPost2010PropOp41
 70
     1
102
RTVSPost2010Prop42
 90
       50
102
RTVSPost2010PropOp42
 70
     1
102
RTVSPost2010Prop43
 90
        3
102
RTVSPost2010PropOp43
 70
     1
102
RTVSPost2010Prop44ColorIndex
 90
        5
102
RTVSPost2010Prop44ColorRGB
 90
      255
102
RTVSPost2010PropOp44
 70
     1
102
RTVSPost2010Prop45
280
     0
102
RTVSPost2010PropOp45
 70
     1
102
RTVSPost2010Prop46
 90
       50
102
RTVSPost2010PropOp46
 70
     1
102
RTVSPost2010Prop47
 90
       50
102
RTVSPost2010PropOp47
 70
     1
102
RTVSPost2010Prop48
 90
       50
102
RTVSPost2010PropOp48
 70
     1
102
RTVSPost2010Prop49
280
     0
102
RTVSPost2010PropOp49
 70
     1
102
RTVSPost2010Prop50
 90
       50
102
RTVSPost2010PropOp50
 70
     1
102
RTVSPost2010Prop51ColorIndex
 90
      256
102
RTVSPost2010Prop51ColorRGB
 90
-16777216
102
RTVSPost2010PropOp51
 70
     0
102
RTVSPost2010Prop52
140
1.0
102
RTVSPost2010PropOp52
 70
     0
102
RTVSPost2010Prop53
 90
        2
102
RTVSPost2010PropOp53
 70
     1
102
RTVSPost2010Prop54
  1
strokes_ogs.tif
102
RTVSPost2010PropOp54
 70
     1
102
RTVSPost2010Prop55
280
     0
102
RTVSPost2010PropOp55
 70
     1
102
RTVSPost2010Prop56
140
1.0
102
RTVSPost2010PropOp56
 70
     1
102
RTVSPost2010Prop57
140
1.0
102
RTVSPost2010PropOp57
 70
     1
102
RTVSPropertyOp0
 70
     1
102
RTVSPropertyOp1
 70
     1
102
RTVSPropertyOp2
 70
     1
102
RTVSPropertyOp3
 70
     1
102
RTVSPropertyOp4
 70
     1
102
RTVSPropertyOp5
 70
     1
102
RTVSPropertyOp6
 70
     1
102
RTVSPropertyOp7
 70
     1
102
RTVSPropertyOp8
 70
     1
102
RTVSPropertyOp9
 70
     1
102
RTVSPropertyOp10
 70
     1
102
RTVSPropertyOp11
 70
     1
102
RTVSPropertyOp12
 70
     1
102
RTVSPropertyOp13
 70
     1
102
RTVSPropertyOp14
 70
     1
102
RTVSPropertyOp15
 70
     1
102
RTVSPropertyOp16
 70
     1
102
RTVSPropertyOp17
 70
     1
102
RTVSPropertyOp18
 70
     1
102
RTVSPropertyOp19
 70
     1
102
RTVSPropertyOp20
 70
     1
102
RTVSPropertyOp21
 70
     1
102
RTVSPropertyOp22
 70
     1
102
RTVSPropertyOp23
 70
     1
102
RTVSPropertyOp24
 70
     1
102
RTVSPropertyOp25
 70
     1
102
RTVSPropertyOp26
 70
     1
102
RTVSPropertyOp27
 70
     1
102
RTVSPropertyOp28
 70
     1
102
RTVSPropertyOp29
 70
     1
102
RTVSPropertyOp30
 70
     1
102
RTVSPropertyOp31
 70
     1
102
RTVSPropertyOp32
 70
     1
102
RTVSPropertyOp33
 70
     1
102
RTVSPropertyOp34
 70
     1
102
RTVSPropertyOp35
 70
     1
102
RTVSPropertyOp36
 70
     1
102
RTVSPropertyOp37
 70
     1
102
RTVSPropertyOp38
 70
     1
102
RTVSPropertyOp39
 70
     1
102
RTVSPropertyOp40
 70
     1
102
RTVSPropertyOp41
 70
     1
102
RTVSPropertyOp42
 70
     1
102
RTVSPropertyOp43
 70
     1
102
RTVSPropertyOp44
 70
     1
102
RTVSPropertyOp45
 70
     1
102
RTVSPropertyOp46
 70
     1
102
RTVSPropertyOp47
 70
     1
102
RTVSPropertyOp48
 70
     1
102
RTVSPropertyOp49
 70
     1
102
RTVSPropertyOp50
 70
     1
102
RTVSPropertyOp51
 70
     0
102
RTVSPropertyOp52
 70
     0
102
RTVSPropertyOp53
 70
     1
102
RTVSPropertyOp54
 70
     1
102
RTVSPropertyOp55
 70
     1
102
RTVSPropertyOp56
 70
     1
102
RTVSPropertyOp57
 70
     1
102
RTVSPropertyOp58
 70
     1
102
RTVSPropertyOp59
 70
     1
102
RTVSPropertyOp60
 70
     1
102
RTVSPropertyOp61
 70
     1
102
RTVSPropertyOp62
 70
     1
  0
XRECORD
  5
19B4
102
{ACAD_REACTORS
330
19B3
102
}
330
19B3
100
AcDbXrecord
280
     1
102
RTVSPost2010Prop28
280
     0
102
RTVSPost2010PropOp28
 70
     1
102
RTVSPost2010Prop29
280
     1
102
RTVSPost2010PropOp29
 70
     1
102
RTVSPost2010Prop30
280
     1
102
RTVSPost2010PropOp30
 70
     1
102
RTVSPost2010Prop31
280
     0
102
RTVSPost2010PropOp31
 70
     1
102
RTVSPost2010Prop32
280
     0
102
RTVSPost2010PropOp32
 70
     1
102
RTVSPost2010Prop33
280
     0
102
RTVSPost2010PropOp33
 70
     1
102
RTVSPost2010Prop34
280
     0
102
RTVSPost2010PropOp34
 70
     1
102
RTVSPost2010Prop35
280
     0
102
RTVSPost2010PropOp35
 70
     1
102
RTVSPost2010Prop36
280
     0
102
RTVSPost2010PropOp36
 70
     1
102
RTVSPost2010Prop37
 90
       50
102
RTVSPost2010PropOp37
 70
     0
102
RTVSPost2010Prop38
140
0.0
102
RTVSPost2010PropOp38
 70
     0
102
RTVSPost2010Prop39
140
1.0
102
RTVSPost2010PropOp39
 70
     0
102
RTVSPost2010Prop40
 90
        0
102
RTVSPost2010PropOp40
 70
     0
102
RTVSPost2010Prop41ColorIndex
 90
       18
102
RTVSPost2010Prop41ColorRGB
 90
        0
102
RTVSPost2010PropOp41
 70
     0
102
RTVSPost2010Prop42
 90
       50
102
RTVSPost2010PropOp42
 70
     0
102
RTVSPost2010Prop43
 90
        3
102
RTVSPost2010PropOp43
 70
     0
102
RTVSPost2010Prop44ColorIndex
 90
        5
102
RTVSPost2010Prop44ColorRGB
 90
      255
102
RTVSPost2010PropOp44
 70
     0
102
RTVSPost2010Prop45
280
     0
102
RTVSPost2010PropOp45
 70
     1
102
RTVSPost2010Prop46
 90
       50
102
RTVSPost2010PropOp46
 70
     0
102
RTVSPost2010Prop47
 90
       50
102
RTVSPost2010PropOp47
 70
     0
102
RTVSPost2010Prop48
 90
       50
102
RTVSPost2010PropOp48
 70
     0
102
RTVSPost2010Prop49
280
     0
102
RTVSPost2010PropOp49
 70
     1
102
RTVSPost2010Prop50
 90
       50
102
RTVSPost2010PropOp50
 70
     0
102
RTVSPost2010Prop51ColorIndex
 90
      256
102
RTVSPost2010Prop51ColorRGB
 90
-16777216
102
RTVSPost2010PropOp51
 70
     0
102
RTVSPost2010Prop52
140
1.0
102
RTVSPost2010PropOp52
 70
     0
102
RTVSPost2010Prop53
 90
        2
102
RTVSPost2010PropOp53
 70
     0
102
RTVSPost2010Prop54
  1
strokes_ogs.tif
102
RTVSPost2010PropOp54
 70
     0
102
RTVSPost2010Prop55
280
     0
102
RTVSPost2010PropOp55
 70
     1
102
RTVSPost2010Prop56
140
1.0
102
RTVSPost2010PropOp56
 70
     0
102
RTVSPost2010Prop57
140
1.0
102
RTVSPost2010PropOp57
 70
     0
102
RTVSPropertyOp0
 70
     0
102
RTVSPropertyOp1
 70
     0
102
RTVSPropertyOp2
 70
     0
102
RTVSPropertyOp3
 70
     0
102
RTVSPropertyOp4
 70
     0
102
RTVSPropertyOp5
 70
     0
102
RTVSPropertyOp6
 70
     0
102
RTVSPropertyOp7
 70
     0
102
RTVSPropertyOp8
 70
     0
102
RTVSPropertyOp9
 70
     0
102
RTVSPropertyOp10
 70
     0
102
RTVSPropertyOp11
 70
     0
102
RTVSPropertyOp12
 70
     0
102
RTVSPropertyOp13
 70
     0
102
RTVSPropertyOp14
 70
     2
102
RTVSPropertyOp15
 70
     0
102
RTVSPropertyOp16
 70
     0
102
RTVSPropertyOp17
 70
     0
102
RTVSPropertyOp18
 70
     0
102
RTVSPropertyOp19
 70
     0
102
RTVSPropertyOp20
 70
     0
102
RTVSPropertyOp21
 70
     0
102
RTVSPropertyOp22
 70
     0
102
RTVSPropertyOp23
 70
     0
102
RTVSPropertyOp24
 70
     0
102
RTVSPropertyOp25
 70
     0
102
RTVSPropertyOp26
 70
     0
102
RTVSPropertyOp27
 70
     0
102
RTVSPropertyOp28
 70
     1
102
RTVSPropertyOp29
 70
     1
102
RTVSPropertyOp30
 70
     1
102
RTVSPropertyOp31
 70
     1
102
RTVSPropertyOp32
 70
     1
102
RTVSPropertyOp33
 70
     1
102
RTVSPropertyOp34
 70
     1
102
RTVSPropertyOp35
 70
     1
102
RTVSPropertyOp36
 70
     1
102
RTVSPropertyOp37
 70
     0
102
RTVSPropertyOp38
 70
     0
102
RTVSPropertyOp39
 70
     0
102
RTVSPropertyOp40
 70
     0
102
RTVSPropertyOp41
 70
     0
102
RTVSPropertyOp42
 70
     0
102
RTVSPropertyOp43
 70
     0
102
RTVSPropertyOp44
 70
     0
102
RTVSPropertyOp45
 70
     1
102
RTVSPropertyOp46
 70
     0
102
RTVSPropertyOp47
 70
     0
102
RTVSPropertyOp48
 70
     0
102
RTVSPropertyOp49
 70
     1
102
RTVSPropertyOp50
 70
     0
102
RTVSPropertyOp51
 70
     0
102
RTVSPropertyOp52
 70
     0
102
RTVSPropertyOp53
 70
     0
102
RTVSPropertyOp54
 70
     0
102
RTVSPropertyOp55
 70
     1
102
RTVSPropertyOp56
 70
     0
102
RTVSPropertyOp57
 70
     0
102
RTVSPropertyOp58
 70
     0
102
RTVSPropertyOp59
 70
     0
102
RTVSPropertyOp60
 70
     0
102
RTVSPropertyOp61
 70
     0
102
RTVSPropertyOp62
 70
     0
  0
XRECORD
  5
19A2
102
{ACAD_REACTORS
330
19A1
102
}
330
19A1
100
AcDbXrecord
280
     1
102
RTVSPost2010Prop28
280
     0
102
RTVSPost2010PropOp28
 70
     1
102
RTVSPost2010Prop29
280
     1
102
RTVSPost2010PropOp29
 70
     1
102
RTVSPost2010Prop30
280
     1
102
RTVSPost2010PropOp30
 70
     1
102
RTVSPost2010Prop31
280
     0
102
RTVSPost2010PropOp31
 70
     1
102
RTVSPost2010Prop32
280
     0
102
RTVSPost2010PropOp32
 70
     1
102
RTVSPost2010Prop33
280
     0
102
RTVSPost2010PropOp33
 70
     1
102
RTVSPost2010Prop34
280
     0
102
RTVSPost2010PropOp34
 70
     1
102
RTVSPost2010Prop35
280
     0
102
RTVSPost2010PropOp35
 70
     1
102
RTVSPost2010Prop36
280
     0
102
RTVSPost2010PropOp36
 70
     1
102
RTVSPost2010Prop37
 90
       50
102
RTVSPost2010PropOp37
 70
     1
102
RTVSPost2010Prop38
140
0.0
102
RTVSPost2010PropOp38
 70
     1
102
RTVSPost2010Prop39
140
1.0
102
RTVSPost2010PropOp39
 70
     1
102
RTVSPost2010Prop40
 90
        0
102
RTVSPost2010PropOp40
 70
     1
102
RTVSPost2010Prop41ColorIndex
 90
       18
102
RTVSPost2010Prop41ColorRGB
 90
        0
102
RTVSPost2010PropOp41
 70
     1
102
RTVSPost2010Prop42
 90
       50
102
RTVSPost2010PropOp42
 70
     1
102
RTVSPost2010Prop43
 90
        3
102
RTVSPost2010PropOp43
 70
     1
102
RTVSPost2010Prop44ColorIndex
 90
        5
102
RTVSPost2010Prop44ColorRGB
 90
      255
102
RTVSPost2010PropOp44
 70
     1
102
RTVSPost2010Prop45
280
     0
102
RTVSPost2010PropOp45
 70
     1
102
RTVSPost2010Prop46
 90
       50
102
RTVSPost2010PropOp46
 70
     1
102
RTVSPost2010Prop47
 90
       50
102
RTVSPost2010PropOp47
 70
     1
102
RTVSPost2010Prop48
 90
       50
102
RTVSPost2010PropOp48
 70
     1
102
RTVSPost2010Prop49
280
     0
102
RTVSPost2010PropOp49
 70
     1
102
RTVSPost2010Prop50
 90
       50
102
RTVSPost2010PropOp50
 70
     1
102
RTVSPost2010Prop51ColorIndex
 90
      256
102
RTVSPost2010Prop51ColorRGB
 90
-16777216
102
RTVSPost2010PropOp51
 70
     0
102
RTVSPost2010Prop52
140
1.0
102
RTVSPost2010PropOp52
 70
     0
102
RTVSPost2010Prop53
 90
        2
102
RTVSPost2010PropOp53
 70
     1
102
RTVSPost2010Prop54
  1
strokes_ogs.tif
102
RTVSPost2010PropOp54
 70
     1
102
RTVSPost2010Prop55
280
     0
102
RTVSPost2010PropOp55
 70
     1
102
RTVSPost2010Prop56
140
1.0
102
RTVSPost2010PropOp56
 70
     1
102
RTVSPost2010Prop57
140
1.0
102
RTVSPost2010PropOp57
 70
     1
102
RTVSPropertyOp0
 70
     1
102
RTVSPropertyOp1
 70
     1
102
RTVSPropertyOp2
 70
     1
102
RTVSPropertyOp3
 70
     1
102
RTVSPropertyOp4
 70
     1
102
RTVSPropertyOp5
 70
     1
102
RTVSPropertyOp6
 70
     1
102
RTVSPropertyOp7
 70
     1
102
RTVSPropertyOp8
 70
     1
102
RTVSPropertyOp9
 70
     1
102
RTVSPropertyOp10
 70
     1
102
RTVSPropertyOp11
 70
     1
102
RTVSPropertyOp12
 70
     1
102
RTVSPropertyOp13
 70
     1
102
RTVSPropertyOp14
 70
     1
102
RTVSPropertyOp15
 70
     1
102
RTVSPropertyOp16
 70
     1
102
RTVSPropertyOp17
 70
     1
102
RTVSPropertyOp18
 70
     1
102
RTVSPropertyOp19
 70
     1
102
RTVSPropertyOp20
 70
     1
102
RTVSPropertyOp21
 70
     1
102
RTVSPropertyOp22
 70
     1
102
RTVSPropertyOp23
 70
     1
102
RTVSPropertyOp24
 70
     1
102
RTVSPropertyOp25
 70
     1
102
RTVSPropertyOp26
 70
     1
102
RTVSPropertyOp27
 70
     1
102
RTVSPropertyOp28
 70
     1
102
RTVSPropertyOp29
 70
     1
102
RTVSPropertyOp30
 70
     1
102
RTVSPropertyOp31
 70
     1
102
RTVSPropertyOp32
 70
     1
102
RTVSPropertyOp33
 70
     1
102
RTVSPropertyOp34
 70
     1
102
RTVSPropertyOp35
 70
     1
102
RTVSPropertyOp36
 70
     1
102
RTVSPropertyOp37
 70
     1
102
RTVSPropertyOp38
 70
     1
102
RTVSPropertyOp39
 70
     1
102
RTVSPropertyOp40
 70
     1
102
RTVSPropertyOp41
 70
     1
102
RTVSPropertyOp42
 70
     1
102
RTVSPropertyOp43
 70
     1
102
RTVSPropertyOp44
 70
     1
102
RTVSPropertyOp45
 70
     1
102
RTVSPropertyOp46
 70
     1
102
RTVSPropertyOp47
 70
     1
102
RTVSPropertyOp48
 70
     1
102
RTVSPropertyOp49
 70
     1
102
RTVSPropertyOp50
 70
     1
102
RTVSPropertyOp51
 70
     0
102
RTVSPropertyOp52
 70
     0
102
RTVSPropertyOp53
 70
     1
102
RTVSPropertyOp54
 70
     1
102
RTVSPropertyOp55
 70
     1
102
RTVSPropertyOp56
 70
     1
102
RTVSPropertyOp57
 70
     1
102
RTVSPropertyOp58
 70
     1
102
RTVSPropertyOp59
 70
     1
102
RTVSPropertyOp60
 70
     1
102
RTVSPropertyOp61
 70
     1
102
RTVSPropertyOp62
 70
     1
  0
XRECORD
  5
1986
102
{ACAD_REACTORS
330
1985
102
}
330
1985
100
AcDbXrecord
280
     1
102
RTVSPost2010Prop28
280
     0
102
RTVSPost2010PropOp28
 70
     1
102
RTVSPost2010Prop29
280
     1
102
RTVSPost2010PropOp29
 70
     1
102
RTVSPost2010Prop30
280
     1
102
RTVSPost2010PropOp30
 70
     1
102
RTVSPost2010Prop31
280
     0
102
RTVSPost2010PropOp31
 70
     1
102
RTVSPost2010Prop32
280
     0
102
RTVSPost2010PropOp32
 70
     1
102
RTVSPost2010Prop33
280
     0
102
RTVSPost2010PropOp33
 70
     1
102
RTVSPost2010Prop34
280
     0
102
RTVSPost2010PropOp34
 70
     1
102
RTVSPost2010Prop35
280
     0
102
RTVSPost2010PropOp35
 70
     1
102
RTVSPost2010Prop36
280
     0
102
RTVSPost2010PropOp36
 70
     1
102
RTVSPost2010Prop37
 90
       50
102
RTVSPost2010PropOp37
 70
     1
102
RTVSPost2010Prop38
140
0.0
102
RTVSPost2010PropOp38
 70
     1
102
RTVSPost2010Prop39
140
1.0
102
RTVSPost2010PropOp39
 70
     1
102
RTVSPost2010Prop40
 90
        0
102
RTVSPost2010PropOp40
 70
     1
102
RTVSPost2010Prop41ColorIndex
 90
       18
102
RTVSPost2010Prop41ColorRGB
 90
        0
102
RTVSPost2010PropOp41
 70
     1
102
RTVSPost2010Prop42
 90
       50
102
RTVSPost2010PropOp42
 70
     1
102
RTVSPost2010Prop43
 90
        3
102
RTVSPost2010PropOp43
 70
     1
102
RTVSPost2010Prop44ColorIndex
 90
        5
102
RTVSPost2010Prop44ColorRGB
 90
      255
102
RTVSPost2010PropOp44
 70
     1
102
RTVSPost2010Prop45
280
     0
102
RTVSPost2010PropOp45
 70
     1
102
RTVSPost2010Prop46
 90
       50
102
RTVSPost2010PropOp46
 70
     1
102
RTVSPost2010Prop47
 90
       50
102
RTVSPost2010PropOp47
 70
     1
102
RTVSPost2010Prop48
 90
       50
102
RTVSPost2010PropOp48
 70
     1
102
RTVSPost2010Prop49
280
     0
102
RTVSPost2010PropOp49
 70
     1
102
RTVSPost2010Prop50
 90
       50
102
RTVSPost2010PropOp50
 70
     1
102
RTVSPost2010Prop51ColorIndex
 90
      256
102
RTVSPost2010Prop51ColorRGB
 90
-16777216
102
RTVSPost2010PropOp51
 70
     0
102
RTVSPost2010Prop52
140
1.0
102
RTVSPost2010PropOp52
 70
     0
102
RTVSPost2010Prop53
 90
        2
102
RTVSPost2010PropOp53
 70
     1
102
RTVSPost2010Prop54
  1
strokes_ogs.tif
102
RTVSPost2010PropOp54
 70
     1
102
RTVSPost2010Prop55
280
     0
102
RTVSPost2010PropOp55
 70
     1
102
RTVSPost2010Prop56
140
1.0
102
RTVSPost2010PropOp56
 70
     1
102
RTVSPost2010Prop57
140
1.0
102
RTVSPost2010PropOp57
 70
     1
102
RTVSPropertyOp0
 70
     1
102
RTVSPropertyOp1
 70
     1
102
RTVSPropertyOp2
 70
     1
102
RTVSPropertyOp3
 70
     1
102
RTVSPropertyOp4
 70
     1
102
RTVSPropertyOp5
 70
     1
102
RTVSPropertyOp6
 70
     1
102
RTVSPropertyOp7
 70
     1
102
RTVSPropertyOp8
 70
     1
102
RTVSPropertyOp9
 70
     1
102
RTVSPropertyOp10
 70
     1
102
RTVSPropertyOp11
 70
     1
102
RTVSPropertyOp12
 70
     1
102
RTVSPropertyOp13
 70
     1
102
RTVSPropertyOp14
 70
     1
102
RTVSPropertyOp15
 70
     1
102
RTVSPropertyOp16
 70
     1
102
RTVSPropertyOp17
 70
     1
102
RTVSPropertyOp18
 70
     1
102
RTVSPropertyOp19
 70
     1
102
RTVSPropertyOp20
 70
     1
102
RTVSPropertyOp21
 70
     1
102
RTVSPropertyOp22
 70
     1
102
RTVSPropertyOp23
 70
     1
102
RTVSPropertyOp24
 70
     1
102
RTVSPropertyOp25
 70
     1
102
RTVSPropertyOp26
 70
     1
102
RTVSPropertyOp27
 70
     1
102
RTVSPropertyOp28
 70
     1
102
RTVSPropertyOp29
 70
     1
102
RTVSPropertyOp30
 70
     1
102
RTVSPropertyOp31
 70
     1
102
RTVSPropertyOp32
 70
     1
102
RTVSPropertyOp33
 70
     1
102
RTVSPropertyOp34
 70
     1
102
RTVSPropertyOp35
 70
     1
102
RTVSPropertyOp36
 70
     1
102
RTVSPropertyOp37
 70
     1
102
RTVSPropertyOp38
 70
     1
102
RTVSPropertyOp39
 70
     1
102
RTVSPropertyOp40
 70
     1
102
RTVSPropertyOp41
 70
     1
102
RTVSPropertyOp42
 70
     1
102
RTVSPropertyOp43
 70
     1
102
RTVSPropertyOp44
 70
     1
102
RTVSPropertyOp45
 70
     1
102
RTVSPropertyOp46
 70
     1
102
RTVSPropertyOp47
 70
     1
102
RTVSPropertyOp48
 70
     1
102
RTVSPropertyOp49
 70
     1
102
RTVSPropertyOp50
 70
     1
102
RTVSPropertyOp51
 70
     0
102
RTVSPropertyOp52
 70
     0
102
RTVSPropertyOp53
 70
     1
102
RTVSPropertyOp54
 70
     1
102
RTVSPropertyOp55
 70
     1
102
RTVSPropertyOp56
 70
     1
102
RTVSPropertyOp57
 70
     1
102
RTVSPropertyOp58
 70
     1
102
RTVSPropertyOp59
 70
     1
102
RTVSPropertyOp60
 70
     1
102
RTVSPropertyOp61
 70
     1
102
RTVSPropertyOp62
 70
     1
  0
XRECORD
  5
1988
102
{ACAD_REACTORS
330
1987
102
}
330
1987
100
AcDbXrecord
280
     1
102
RTVSPost2010Prop28
280
     0
102
RTVSPost2010PropOp28
 70
     1
102
RTVSPost2010Prop29
280
     1
102
RTVSPost2010PropOp29
 70
     1
102
RTVSPost2010Prop30
280
     1
102
RTVSPost2010PropOp30
 70
     1
102
RTVSPost2010Prop31
280
     0
102
RTVSPost2010PropOp31
 70
     1
102
RTVSPost2010Prop32
280
     0
102
RTVSPost2010PropOp32
 70
     1
102
RTVSPost2010Prop33
280
     0
102
RTVSPost2010PropOp33
 70
     1
102
RTVSPost2010Prop34
280
     0
102
RTVSPost2010PropOp34
 70
     1
102
RTVSPost2010Prop35
280
     0
102
RTVSPost2010PropOp35
 70
     1
102
RTVSPost2010Prop36
280
     0
102
RTVSPost2010PropOp36
 70
     1
102
RTVSPost2010Prop37
 90
       50
102
RTVSPost2010PropOp37
 70
     1
102
RTVSPost2010Prop38
140
0.0
102
RTVSPost2010PropOp38
 70
     1
102
RTVSPost2010Prop39
140
1.0
102
RTVSPost2010PropOp39
 70
     1
102
RTVSPost2010Prop40
 90
        0
102
RTVSPost2010PropOp40
 70
     1
102
RTVSPost2010Prop41ColorIndex
 90
       18
102
RTVSPost2010Prop41ColorRGB
 90
        0
102
RTVSPost2010PropOp41
 70
     1
102
RTVSPost2010Prop42
 90
       50
102
RTVSPost2010PropOp42
 70
     1
102
RTVSPost2010Prop43
 90
        3
102
RTVSPost2010PropOp43
 70
     1
102
RTVSPost2010Prop44ColorIndex
 90
        5
102
RTVSPost2010Prop44ColorRGB
 90
      255
102
RTVSPost2010PropOp44
 70
     1
102
RTVSPost2010Prop45
280
     0
102
RTVSPost2010PropOp45
 70
     1
102
RTVSPost2010Prop46
 90
       50
102
RTVSPost2010PropOp46
 70
     1
102
RTVSPost2010Prop47
 90
       50
102
RTVSPost2010PropOp47
 70
     1
102
RTVSPost2010Prop48
 90
       50
102
RTVSPost2010PropOp48
 70
     1
102
RTVSPost2010Prop49
280
     0
102
RTVSPost2010PropOp49
 70
     1
102
RTVSPost2010Prop50
 90
       50
102
RTVSPost2010PropOp50
 70
     1
102
RTVSPost2010Prop51ColorIndex
 90
      256
102
RTVSPost2010Prop51ColorRGB
 90
-16777216
102
RTVSPost2010PropOp51
 70
     0
102
RTVSPost2010Prop52
140
1.0
102
RTVSPost2010PropOp52
 70
     0
102
RTVSPost2010Prop53
 90
        2
102
RTVSPost2010PropOp53
 70
     1
102
RTVSPost2010Prop54
  1
strokes_ogs.tif
102
RTVSPost2010PropOp54
 70
     1
102
RTVSPost2010Prop55
280
     0
102
RTVSPost2010PropOp55
 70
     1
102
RTVSPost2010Prop56
140
1.0
102
RTVSPost2010PropOp56
 70
     1
102
RTVSPost2010Prop57
140
1.0
102
RTVSPost2010PropOp57
 70
     1
102
RTVSPropertyOp0
 70
     1
102
RTVSPropertyOp1
 70
     1
102
RTVSPropertyOp2
 70
     1
102
RTVSPropertyOp3
 70
     1
102
RTVSPropertyOp4
 70
     1
102
RTVSPropertyOp5
 70
     1
102
RTVSPropertyOp6
 70
     1
102
RTVSPropertyOp7
 70
     1
102
RTVSPropertyOp8
 70
     1
102
RTVSPropertyOp9
 70
     1
102
RTVSPropertyOp10
 70
     1
102
RTVSPropertyOp11
 70
     1
102
RTVSPropertyOp12
 70
     1
102
RTVSPropertyOp13
 70
     1
102
RTVSPropertyOp14
 70
     1
102
RTVSPropertyOp15
 70
     1
102
RTVSPropertyOp16
 70
     1
102
RTVSPropertyOp17
 70
     1
102
RTVSPropertyOp18
 70
     1
102
RTVSPropertyOp19
 70
     1
102
RTVSPropertyOp20
 70
     1
102
RTVSPropertyOp21
 70
     1
102
RTVSPropertyOp22
 70
     1
102
RTVSPropertyOp23
 70
     1
102
RTVSPropertyOp24
 70
     1
102
RTVSPropertyOp25
 70
     1
102
RTVSPropertyOp26
 70
     1
102
RTVSPropertyOp27
 70
     1
102
RTVSPropertyOp28
 70
     1
102
RTVSPropertyOp29
 70
     1
102
RTVSPropertyOp30
 70
     1
102
RTVSPropertyOp31
 70
     1
102
RTVSPropertyOp32
 70
     1
102
RTVSPropertyOp33
 70
     1
102
RTVSPropertyOp34
 70
     1
102
RTVSPropertyOp35
 70
     1
102
RTVSPropertyOp36
 70
     1
102
RTVSPropertyOp37
 70
     1
102
RTVSPropertyOp38
 70
     1
102
RTVSPropertyOp39
 70
     1
102
RTVSPropertyOp40
 70
     1
102
RTVSPropertyOp41
 70
     1
102
RTVSPropertyOp42
 70
     1
102
RTVSPropertyOp43
 70
     1
102
RTVSPropertyOp44
 70
     1
102
RTVSPropertyOp45
 70
     1
102
RTVSPropertyOp46
 70
     1
102
RTVSPropertyOp47
 70
     1
102
RTVSPropertyOp48
 70
     1
102
RTVSPropertyOp49
 70
     1
102
RTVSPropertyOp50
 70
     1
102
RTVSPropertyOp51
 70
     0
102
RTVSPropertyOp52
 70
     0
102
RTVSPropertyOp53
 70
     1
102
RTVSPropertyOp54
 70
     1
102
RTVSPropertyOp55
 70
     1
102
RTVSPropertyOp56
 70
     1
102
RTVSPropertyOp57
 70
     1
102
RTVSPropertyOp58
 70
     1
102
RTVSPropertyOp59
 70
     1
102
RTVSPropertyOp60
 70
     1
102
RTVSPropertyOp61
 70
     1
102
RTVSPropertyOp62
 70
     1
  0
XRECORD
  5
198A
102
{ACAD_REACTORS
330
1989
102
}
330
1989
100
AcDbXrecord
280
     1
102
RTVSPost2010Prop28
280
     0
102
RTVSPost2010PropOp28
 70
     1
102
RTVSPost2010Prop29
280
     1
102
RTVSPost2010PropOp29
 70
     1
102
RTVSPost2010Prop30
280
     1
102
RTVSPost2010PropOp30
 70
     1
102
RTVSPost2010Prop31
280
     0
102
RTVSPost2010PropOp31
 70
     1
102
RTVSPost2010Prop32
280
     0
102
RTVSPost2010PropOp32
 70
     1
102
RTVSPost2010Prop33
280
     0
102
RTVSPost2010PropOp33
 70
     1
102
RTVSPost2010Prop34
280
     0
102
RTVSPost2010PropOp34
 70
     1
102
RTVSPost2010Prop35
280
     0
102
RTVSPost2010PropOp35
 70
     1
102
RTVSPost2010Prop36
280
     0
102
RTVSPost2010PropOp36
 70
     1
102
RTVSPost2010Prop37
 90
       50
102
RTVSPost2010PropOp37
 70
     1
102
RTVSPost2010Prop38
140
0.0
102
RTVSPost2010PropOp38
 70
     1
102
RTVSPost2010Prop39
140
1.0
102
RTVSPost2010PropOp39
 70
     1
102
RTVSPost2010Prop40
 90
        0
102
RTVSPost2010PropOp40
 70
     1
102
RTVSPost2010Prop41ColorIndex
 90
       18
102
RTVSPost2010Prop41ColorRGB
 90
        0
102
RTVSPost2010PropOp41
 70
     1
102
RTVSPost2010Prop42
 90
       50
102
RTVSPost2010PropOp42
 70
     1
102
RTVSPost2010Prop43
 90
        3
102
RTVSPost2010PropOp43
 70
     1
102
RTVSPost2010Prop44ColorIndex
 90
        5
102
RTVSPost2010Prop44ColorRGB
 90
      255
102
RTVSPost2010PropOp44
 70
     1
102
RTVSPost2010Prop45
280
     0
102
RTVSPost2010PropOp45
 70
     1
102
RTVSPost2010Prop46
 90
       50
102
RTVSPost2010PropOp46
 70
     1
102
RTVSPost2010Prop47
 90
       50
102
RTVSPost2010PropOp47
 70
     1
102
RTVSPost2010Prop48
 90
       50
102
RTVSPost2010PropOp48
 70
     1
102
RTVSPost2010Prop49
280
     0
102
RTVSPost2010PropOp49
 70
     1
102
RTVSPost2010Prop50
 90
       50
102
RTVSPost2010PropOp50
 70
     1
102
RTVSPost2010Prop51ColorIndex
 90
      256
102
RTVSPost2010Prop51ColorRGB
 90
-16777216
102
RTVSPost2010PropOp51
 70
     0
102
RTVSPost2010Prop52
140
1.0
102
RTVSPost2010PropOp52
 70
     0
102
RTVSPost2010Prop53
 90
        2
102
RTVSPost2010PropOp53
 70
     1
102
RTVSPost2010Prop54
  1
strokes_ogs.tif
102
RTVSPost2010PropOp54
 70
     1
102
RTVSPost2010Prop55
280
     0
102
RTVSPost2010PropOp55
 70
     1
102
RTVSPost2010Prop56
140
1.0
102
RTVSPost2010PropOp56
 70
     1
102
RTVSPost2010Prop57
140
1.0
102
RTVSPost2010PropOp57
 70
     1
102
RTVSPropertyOp0
 70
     1
102
RTVSPropertyOp1
 70
     1
102
RTVSPropertyOp2
 70
     1
102
RTVSPropertyOp3
 70
     1
102
RTVSPropertyOp4
 70
     1
102
RTVSPropertyOp5
 70
     1
102
RTVSPropertyOp6
 70
     1
102
RTVSPropertyOp7
 70
     1
102
RTVSPropertyOp8
 70
     1
102
RTVSPropertyOp9
 70
     1
102
RTVSPropertyOp10
 70
     1
102
RTVSPropertyOp11
 70
     1
102
RTVSPropertyOp12
 70
     1
102
RTVSPropertyOp13
 70
     1
102
RTVSPropertyOp14
 70
     1
102
RTVSPropertyOp15
 70
     1
102
RTVSPropertyOp16
 70
     1
102
RTVSPropertyOp17
 70
     1
102
RTVSPropertyOp18
 70
     1
102
RTVSPropertyOp19
 70
     1
102
RTVSPropertyOp20
 70
     1
102
RTVSPropertyOp21
 70
     1
102
RTVSPropertyOp22
 70
     1
102
RTVSPropertyOp23
 70
     1
102
RTVSPropertyOp24
 70
     1
102
RTVSPropertyOp25
 70
     1
102
RTVSPropertyOp26
 70
     1
102
RTVSPropertyOp27
 70
     1
102
RTVSPropertyOp28
 70
     1
102
RTVSPropertyOp29
 70
     1
102
RTVSPropertyOp30
 70
     1
102
RTVSPropertyOp31
 70
     1
102
RTVSPropertyOp32
 70
     1
102
RTVSPropertyOp33
 70
     1
102
RTVSPropertyOp34
 70
     1
102
RTVSPropertyOp35
 70
     1
102
RTVSPropertyOp36
 70
     1
102
RTVSPropertyOp37
 70
     1
102
RTVSPropertyOp38
 70
     1
102
RTVSPropertyOp39
 70
     1
102
RTVSPropertyOp40
 70
     1
102
RTVSPropertyOp41
 70
     1
102
RTVSPropertyOp42
 70
     1
102
RTVSPropertyOp43
 70
     1
102
RTVSPropertyOp44
 70
     1
102
RTVSPropertyOp45
 70
     1
102
RTVSPropertyOp46
 70
     1
102
RTVSPropertyOp47
 70
     1
102
RTVSPropertyOp48
 70
     1
102
RTVSPropertyOp49
 70
     1
102
RTVSPropertyOp50
 70
     1
102
RTVSPropertyOp51
 70
     0
102
RTVSPropertyOp52
 70
     0
102
RTVSPropertyOp53
 70
     1
102
RTVSPropertyOp54
 70
     1
102
RTVSPropertyOp55
 70
     1
102
RTVSPropertyOp56
 70
     1
102
RTVSPropertyOp57
 70
     1
102
RTVSPropertyOp58
 70
     1
102
RTVSPropertyOp59
 70
     1
102
RTVSPropertyOp60
 70
     1
102
RTVSPropertyOp61
 70
     1
102
RTVSPropertyOp62
 70
     1
  0
XRECORD
  5
198C
102
{ACAD_REACTORS
330
198B
102
}
330
198B
100
AcDbXrecord
280
     1
102
RTVSPost2010Prop28
280
     0
102
RTVSPost2010PropOp28
 70
     1
102
RTVSPost2010Prop29
280
     1
102
RTVSPost2010PropOp29
 70
     1
102
RTVSPost2010Prop30
280
     1
102
RTVSPost2010PropOp30
 70
     1
102
RTVSPost2010Prop31
280
     0
102
RTVSPost2010PropOp31
 70
     1
102
RTVSPost2010Prop32
280
     0
102
RTVSPost2010PropOp32
 70
     1
102
RTVSPost2010Prop33
280
     0
102
RTVSPost2010PropOp33
 70
     1
102
RTVSPost2010Prop34
280
     0
102
RTVSPost2010PropOp34
 70
     1
102
RTVSPost2010Prop35
280
     0
102
RTVSPost2010PropOp35
 70
     1
102
RTVSPost2010Prop36
280
     0
102
RTVSPost2010PropOp36
 70
     1
102
RTVSPost2010Prop37
 90
       50
102
RTVSPost2010PropOp37
 70
     1
102
RTVSPost2010Prop38
140
0.0
102
RTVSPost2010PropOp38
 70
     1
102
RTVSPost2010Prop39
140
1.0
102
RTVSPost2010PropOp39
 70
     1
102
RTVSPost2010Prop40
 90
        0
102
RTVSPost2010PropOp40
 70
     1
102
RTVSPost2010Prop41ColorIndex
 90
       18
102
RTVSPost2010Prop41ColorRGB
 90
        0
102
RTVSPost2010PropOp41
 70
     1
102
RTVSPost2010Prop42
 90
       50
102
RTVSPost2010PropOp42
 70
     1
102
RTVSPost2010Prop43
 90
        3
102
RTVSPost2010PropOp43
 70
     1
102
RTVSPost2010Prop44ColorIndex
 90
        5
102
RTVSPost2010Prop44ColorRGB
 90
      255
102
RTVSPost2010PropOp44
 70
     1
102
RTVSPost2010Prop45
280
     0
102
RTVSPost2010PropOp45
 70
     1
102
RTVSPost2010Prop46
 90
       50
102
RTVSPost2010PropOp46
 70
     1
102
RTVSPost2010Prop47
 90
       50
102
RTVSPost2010PropOp47
 70
     1
102
RTVSPost2010Prop48
 90
       50
102
RTVSPost2010PropOp48
 70
     1
102
RTVSPost2010Prop49
280
     0
102
RTVSPost2010PropOp49
 70
     1
102
RTVSPost2010Prop50
 90
       50
102
RTVSPost2010PropOp50
 70
     1
102
RTVSPost2010Prop51ColorIndex
 90
      256
102
RTVSPost2010Prop51ColorRGB
 90
-16777216
102
RTVSPost2010PropOp51
 70
     0
102
RTVSPost2010Prop52
140
1.0
102
RTVSPost2010PropOp52
 70
     0
102
RTVSPost2010Prop53
 90
        2
102
RTVSPost2010PropOp53
 70
     1
102
RTVSPost2010Prop54
  1
strokes_ogs.tif
102
RTVSPost2010PropOp54
 70
     1
102
RTVSPost2010Prop55
280
     0
102
RTVSPost2010PropOp55
 70
     1
102
RTVSPost2010Prop56
140
1.0
102
RTVSPost2010PropOp56
 70
     1
102
RTVSPost2010Prop57
140
1.0
102
RTVSPost2010PropOp57
 70
     1
102
RTVSPropertyOp0
 70
     1
102
RTVSPropertyOp1
 70
     1
102
RTVSPropertyOp2
 70
     1
102
RTVSPropertyOp3
 70
     1
102
RTVSPropertyOp4
 70
     1
102
RTVSPropertyOp5
 70
     1
102
RTVSPropertyOp6
 70
     1
102
RTVSPropertyOp7
 70
     1
102
RTVSPropertyOp8
 70
     1
102
RTVSPropertyOp9
 70
     1
102
RTVSPropertyOp10
 70
     1
102
RTVSPropertyOp11
 70
     1
102
RTVSPropertyOp12
 70
     1
102
RTVSPropertyOp13
 70
     1
102
RTVSPropertyOp14
 70
     1
102
RTVSPropertyOp15
 70
     1
102
RTVSPropertyOp16
 70
     1
102
RTVSPropertyOp17
 70
     1
102
RTVSPropertyOp18
 70
     1
102
RTVSPropertyOp19
 70
     1
102
RTVSPropertyOp20
 70
     1
102
RTVSPropertyOp21
 70
     1
102
RTVSPropertyOp22
 70
     1
102
RTVSPropertyOp23
 70
     1
102
RTVSPropertyOp24
 70
     1
102
RTVSPropertyOp25
 70
     1
102
RTVSPropertyOp26
 70
     1
102
RTVSPropertyOp27
 70
     1
102
RTVSPropertyOp28
 70
     1
102
RTVSPropertyOp29
 70
     1
102
RTVSPropertyOp30
 70
     1
102
RTVSPropertyOp31
 70
     1
102
RTVSPropertyOp32
 70
     1
102
RTVSPropertyOp33
 70
     1
102
RTVSPropertyOp34
 70
     1
102
RTVSPropertyOp35
 70
     1
102
RTVSPropertyOp36
 70
     1
102
RTVSPropertyOp37
 70
     1
102
RTVSPropertyOp38
 70
     1
102
RTVSPropertyOp39
 70
     1
102
RTVSPropertyOp40
 70
     1
102
RTVSPropertyOp41
 70
     1
102
RTVSPropertyOp42
 70
     1
102
RTVSPropertyOp43
 70
     1
102
RTVSPropertyOp44
 70
     1
102
RTVSPropertyOp45
 70
     1
102
RTVSPropertyOp46
 70
     1
102
RTVSPropertyOp47
 70
     1
102
RTVSPropertyOp48
 70
     1
102
RTVSPropertyOp49
 70
     1
102
RTVSPropertyOp50
 70
     1
102
RTVSPropertyOp51
 70
     0
102
RTVSPropertyOp52
 70
     0
102
RTVSPropertyOp53
 70
     1
102
RTVSPropertyOp54
 70
     1
102
RTVSPropertyOp55
 70
     1
102
RTVSPropertyOp56
 70
     1
102
RTVSPropertyOp57
 70
     1
102
RTVSPropertyOp58
 70
     1
102
RTVSPropertyOp59
 70
     1
102
RTVSPropertyOp60
 70
     1
102
RTVSPropertyOp61
 70
     1
102
RTVSPropertyOp62
 70
     1
  0
XRECORD
  5
1994
102
{ACAD_REACTORS
330
1993
102
}
330
1993
100
AcDbXrecord
280
     1
102
RTVSPost2010Prop28
280
     0
102
RTVSPost2010PropOp28
 70
     1
102
RTVSPost2010Prop29
280
     1
102
RTVSPost2010PropOp29
 70
     1
102
RTVSPost2010Prop30
280
     1
102
RTVSPost2010PropOp30
 70
     1
102
RTVSPost2010Prop31
280
     0
102
RTVSPost2010PropOp31
 70
     1
102
RTVSPost2010Prop32
280
     0
102
RTVSPost2010PropOp32
 70
     1
102
RTVSPost2010Prop33
280
     0
102
RTVSPost2010PropOp33
 70
     1
102
RTVSPost2010Prop34
280
     0
102
RTVSPost2010PropOp34
 70
     1
102
RTVSPost2010Prop35
280
     0
102
RTVSPost2010PropOp35
 70
     1
102
RTVSPost2010Prop36
280
     0
102
RTVSPost2010PropOp36
 70
     1
102
RTVSPost2010Prop37
 90
       50
102
RTVSPost2010PropOp37
 70
     1
102
RTVSPost2010Prop38
140
0.0
102
RTVSPost2010PropOp38
 70
     1
102
RTVSPost2010Prop39
140
1.0
102
RTVSPost2010PropOp39
 70
     1
102
RTVSPost2010Prop40
 90
        0
102
RTVSPost2010PropOp40
 70
     1
102
RTVSPost2010Prop41ColorIndex
 90
       18
102
RTVSPost2010Prop41ColorRGB
 90
        0
102
RTVSPost2010PropOp41
 70
     1
102
RTVSPost2010Prop42
 90
       50
102
RTVSPost2010PropOp42
 70
     1
102
RTVSPost2010Prop43
 90
        3
102
RTVSPost2010PropOp43
 70
     1
102
RTVSPost2010Prop44ColorIndex
 90
        5
102
RTVSPost2010Prop44ColorRGB
 90
      255
102
RTVSPost2010PropOp44
 70
     1
102
RTVSPost2010Prop45
280
     0
102
RTVSPost2010PropOp45
 70
     1
102
RTVSPost2010Prop46
 90
       50
102
RTVSPost2010PropOp46
 70
     1
102
RTVSPost2010Prop47
 90
       50
102
RTVSPost2010PropOp47
 70
     1
102
RTVSPost2010Prop48
 90
       50
102
RTVSPost2010PropOp48
 70
     1
102
RTVSPost2010Prop49
280
     0
102
RTVSPost2010PropOp49
 70
     1
102
RTVSPost2010Prop50
 90
       50
102
RTVSPost2010PropOp50
 70
     1
102
RTVSPost2010Prop51ColorIndex
 90
      256
102
RTVSPost2010Prop51ColorRGB
 90
-16777216
102
RTVSPost2010PropOp51
 70
     0
102
RTVSPost2010Prop52
140
1.0
102
RTVSPost2010PropOp52
 70
     0
102
RTVSPost2010Prop53
 90
        2
102
RTVSPost2010PropOp53
 70
     1
102
RTVSPost2010Prop54
  1
strokes_ogs.tif
102
RTVSPost2010PropOp54
 70
     1
102
RTVSPost2010Prop55
280
     0
102
RTVSPost2010PropOp55
 70
     1
102
RTVSPost2010Prop56
140
1.0
102
RTVSPost2010PropOp56
 70
     1
102
RTVSPost2010Prop57
140
1.0
102
RTVSPost2010PropOp57
 70
     1
102
RTVSPropertyOp0
 70
     1
102
RTVSPropertyOp1
 70
     1
102
RTVSPropertyOp2
 70
     1
102
RTVSPropertyOp3
 70
     1
102
RTVSPropertyOp4
 70
     1
102
RTVSPropertyOp5
 70
     1
102
RTVSPropertyOp6
 70
     1
102
RTVSPropertyOp7
 70
     1
102
RTVSPropertyOp8
 70
     1
102
RTVSPropertyOp9
 70
     1
102
RTVSPropertyOp10
 70
     1
102
RTVSPropertyOp11
 70
     1
102
RTVSPropertyOp12
 70
     1
102
RTVSPropertyOp13
 70
     1
102
RTVSPropertyOp14
 70
     1
102
RTVSPropertyOp15
 70
     1
102
RTVSPropertyOp16
 70
     1
102
RTVSPropertyOp17
 70
     1
102
RTVSPropertyOp18
 70
     1
102
RTVSPropertyOp19
 70
     1
102
RTVSPropertyOp20
 70
     1
102
RTVSPropertyOp21
 70
     1
102
RTVSPropertyOp22
 70
     1
102
RTVSPropertyOp23
 70
     1
102
RTVSPropertyOp24
 70
     1
102
RTVSPropertyOp25
 70
     1
102
RTVSPropertyOp26
 70
     1
102
RTVSPropertyOp27
 70
     1
102
RTVSPropertyOp28
 70
     1
102
RTVSPropertyOp29
 70
     1
102
RTVSPropertyOp30
 70
     1
102
RTVSPropertyOp31
 70
     1
102
RTVSPropertyOp32
 70
     1
102
RTVSPropertyOp33
 70
     1
102
RTVSPropertyOp34
 70
     1
102
RTVSPropertyOp35
 70
     1
102
RTVSPropertyOp36
 70
     1
102
RTVSPropertyOp37
 70
     1
102
RTVSPropertyOp38
 70
     1
102
RTVSPropertyOp39
 70
     1
102
RTVSPropertyOp40
 70
     1
102
RTVSPropertyOp41
 70
     1
102
RTVSPropertyOp42
 70
     1
102
RTVSPropertyOp43
 70
     1
102
RTVSPropertyOp44
 70
     1
102
RTVSPropertyOp45
 70
     1
102
RTVSPropertyOp46
 70
     1
102
RTVSPropertyOp47
 70
     1
102
RTVSPropertyOp48
 70
     1
102
RTVSPropertyOp49
 70
     1
102
RTVSPropertyOp50
 70
     1
102
RTVSPropertyOp51
 70
     0
102
RTVSPropertyOp52
 70
     0
102
RTVSPropertyOp53
 70
     1
102
RTVSPropertyOp54
 70
     1
102
RTVSPropertyOp55
 70
     1
102
RTVSPropertyOp56
 70
     1
102
RTVSPropertyOp57
 70
     1
102
RTVSPropertyOp58
 70
     1
102
RTVSPropertyOp59
 70
     1
102
RTVSPropertyOp60
 70
     1
102
RTVSPropertyOp61
 70
     1
102
RTVSPropertyOp62
 70
     1
  0
XRECORD
  5
19B0
102
{ACAD_REACTORS
330
19AF
102
}
330
19AF
100
AcDbXrecord
280
     1
102
RTVSPost2010Prop28
280
     0
102
RTVSPost2010PropOp28
 70
     1
102
RTVSPost2010Prop29
280
     1
102
RTVSPost2010PropOp29
 70
     1
102
RTVSPost2010Prop30
280
     1
102
RTVSPost2010PropOp30
 70
     1
102
RTVSPost2010Prop31
280
     0
102
RTVSPost2010PropOp31
 70
     1
102
RTVSPost2010Prop32
280
     0
102
RTVSPost2010PropOp32
 70
     1
102
RTVSPost2010Prop33
280
     0
102
RTVSPost2010PropOp33
 70
     1
102
RTVSPost2010Prop34
280
     0
102
RTVSPost2010PropOp34
 70
     1
102
RTVSPost2010Prop35
280
     0
102
RTVSPost2010PropOp35
 70
     1
102
RTVSPost2010Prop36
280
     0
102
RTVSPost2010PropOp36
 70
     1
102
RTVSPost2010Prop37
 90
       50
102
RTVSPost2010PropOp37
 70
     0
102
RTVSPost2010Prop38
140
0.0
102
RTVSPost2010PropOp38
 70
     0
102
RTVSPost2010Prop39
140
1.0
102
RTVSPost2010PropOp39
 70
     0
102
RTVSPost2010Prop40
 90
        0
102
RTVSPost2010PropOp40
 70
     0
102
RTVSPost2010Prop41ColorIndex
 90
       18
102
RTVSPost2010Prop41ColorRGB
 90
        0
102
RTVSPost2010PropOp41
 70
     0
102
RTVSPost2010Prop42
 90
       50
102
RTVSPost2010PropOp42
 70
     0
102
RTVSPost2010Prop43
 90
        3
102
RTVSPost2010PropOp43
 70
     0
102
RTVSPost2010Prop44ColorIndex
 90
        5
102
RTVSPost2010Prop44ColorRGB
 90
      255
102
RTVSPost2010PropOp44
 70
     0
102
RTVSPost2010Prop45
280
     0
102
RTVSPost2010PropOp45
 70
     1
102
RTVSPost2010Prop46
 90
       50
102
RTVSPost2010PropOp46
 70
     0
102
RTVSPost2010Prop47
 90
       50
102
RTVSPost2010PropOp47
 70
     0
102
RTVSPost2010Prop48
 90
       50
102
RTVSPost2010PropOp48
 70
     0
102
RTVSPost2010Prop49
280
     0
102
RTVSPost2010PropOp49
 70
     1
102
RTVSPost2010Prop50
 90
       50
102
RTVSPost2010PropOp50
 70
     0
102
RTVSPost2010Prop51ColorIndex
 90
      256
102
RTVSPost2010Prop51ColorRGB
 90
-16777216
102
RTVSPost2010PropOp51
 70
     0
102
RTVSPost2010Prop52
140
1.0
102
RTVSPost2010PropOp52
 70
     0
102
RTVSPost2010Prop53
 90
        2
102
RTVSPost2010PropOp53
 70
     0
102
RTVSPost2010Prop54
  1
strokes_ogs.tif
102
RTVSPost2010PropOp54
 70
     0
102
RTVSPost2010Prop55
280
     0
102
RTVSPost2010PropOp55
 70
     1
102
RTVSPost2010Prop56
140
1.0
102
RTVSPost2010PropOp56
 70
     0
102
RTVSPost2010Prop57
140
1.0
102
RTVSPost2010PropOp57
 70
     0
102
RTVSPropertyOp0
 70
     0
102
RTVSPropertyOp1
 70
     0
102
RTVSPropertyOp2
 70
     0
102
RTVSPropertyOp3
 70
     0
102
RTVSPropertyOp4
 70
     0
102
RTVSPropertyOp5
 70
     0
102
RTVSPropertyOp6
 70
     0
102
RTVSPropertyOp7
 70
     0
102
RTVSPropertyOp8
 70
     0
102
RTVSPropertyOp9
 70
     0
102
RTVSPropertyOp10
 70
     0
102
RTVSPropertyOp11
 70
     0
102
RTVSPropertyOp12
 70
     0
102
RTVSPropertyOp13
 70
     0
102
RTVSPropertyOp14
 70
     2
102
RTVSPropertyOp15
 70
     0
102
RTVSPropertyOp16
 70
     0
102
RTVSPropertyOp17
 70
     0
102
RTVSPropertyOp18
 70
     0
102
RTVSPropertyOp19
 70
     0
102
RTVSPropertyOp20
 70
     0
102
RTVSPropertyOp21
 70
     0
102
RTVSPropertyOp22
 70
     0
102
RTVSPropertyOp23
 70
     0
102
RTVSPropertyOp24
 70
     0
102
RTVSPropertyOp25
 70
     0
102
RTVSPropertyOp26
 70
     0
102
RTVSPropertyOp27
 70
     0
102
RTVSPropertyOp28
 70
     1
102
RTVSPropertyOp29
 70
     1
102
RTVSPropertyOp30
 70
     1
102
RTVSPropertyOp31
 70
     1
102
RTVSPropertyOp32
 70
     1
102
RTVSPropertyOp33
 70
     1
102
RTVSPropertyOp34
 70
     1
102
RTVSPropertyOp35
 70
     1
102
RTVSPropertyOp36
 70
     1
102
RTVSPropertyOp37
 70
     0
102
RTVSPropertyOp38
 70
     0
102
RTVSPropertyOp39
 70
     0
102
RTVSPropertyOp40
 70
     0
102
RTVSPropertyOp41
 70
     0
102
RTVSPropertyOp42
 70
     0
102
RTVSPropertyOp43
 70
     0
102
RTVSPropertyOp44
 70
     0
102
RTVSPropertyOp45
 70
     1
102
RTVSPropertyOp46
 70
     0
102
RTVSPropertyOp47
 70
     0
102
RTVSPropertyOp48
 70
     0
102
RTVSPropertyOp49
 70
     1
102
RTVSPropertyOp50
 70
     0
102
RTVSPropertyOp51
 70
     0
102
RTVSPropertyOp52
 70
     0
102
RTVSPropertyOp53
 70
     0
102
RTVSPropertyOp54
 70
     0
102
RTVSPropertyOp55
 70
     1
102
RTVSPropertyOp56
 70
     0
102
RTVSPropertyOp57
 70
     0
102
RTVSPropertyOp58
 70
     0
102
RTVSPropertyOp59
 70
     0
102
RTVSPropertyOp60
 70
     0
102
RTVSPropertyOp61
 70
     0
102
RTVSPropertyOp62
 70
     0
  0
XRECORD
  5
19A0
102
{ACAD_REACTORS
330
199F
102
}
330
199F
100
AcDbXrecord
280
     1
102
RTVSPost2010Prop28
280
     0
102
RTVSPost2010PropOp28
 70
     1
102
RTVSPost2010Prop29
280
     1
102
RTVSPost2010PropOp29
 70
     1
102
RTVSPost2010Prop30
280
     1
102
RTVSPost2010PropOp30
 70
     1
102
RTVSPost2010Prop31
280
     0
102
RTVSPost2010PropOp31
 70
     1
102
RTVSPost2010Prop32
280
     0
102
RTVSPost2010PropOp32
 70
     1
102
RTVSPost2010Prop33
280
     0
102
RTVSPost2010PropOp33
 70
     1
102
RTVSPost2010Prop34
280
     0
102
RTVSPost2010PropOp34
 70
     1
102
RTVSPost2010Prop35
280
     0
102
RTVSPost2010PropOp35
 70
     1
102
RTVSPost2010Prop36
280
     0
102
RTVSPost2010PropOp36
 70
     1
102
RTVSPost2010Prop37
 90
       50
102
RTVSPost2010PropOp37
 70
     1
102
RTVSPost2010Prop38
140
0.0
102
RTVSPost2010PropOp38
 70
     1
102
RTVSPost2010Prop39
140
1.0
102
RTVSPost2010PropOp39
 70
     1
102
RTVSPost2010Prop40
 90
        0
102
RTVSPost2010PropOp40
 70
     1
102
RTVSPost2010Prop41ColorIndex
 90
       18
102
RTVSPost2010Prop41ColorRGB
 90
        0
102
RTVSPost2010PropOp41
 70
     1
102
RTVSPost2010Prop42
 90
       50
102
RTVSPost2010PropOp42
 70
     1
102
RTVSPost2010Prop43
 90
        3
102
RTVSPost2010PropOp43
 70
     1
102
RTVSPost2010Prop44ColorIndex
 90
        5
102
RTVSPost2010Prop44ColorRGB
 90
      255
102
RTVSPost2010PropOp44
 70
     1
102
RTVSPost2010Prop45
280
     0
102
RTVSPost2010PropOp45
 70
     1
102
RTVSPost2010Prop46
 90
       50
102
RTVSPost2010PropOp46
 70
     1
102
RTVSPost2010Prop47
 90
       50
102
RTVSPost2010PropOp47
 70
     1
102
RTVSPost2010Prop48
 90
       50
102
RTVSPost2010PropOp48
 70
     1
102
RTVSPost2010Prop49
280
     0
102
RTVSPost2010PropOp49
 70
     1
102
RTVSPost2010Prop50
 90
       50
102
RTVSPost2010PropOp50
 70
     1
102
RTVSPost2010Prop51ColorIndex
 90
      256
102
RTVSPost2010Prop51ColorRGB
 90
-16777216
102
RTVSPost2010PropOp51
 70
     0
102
RTVSPost2010Prop52
140
1.0
102
RTVSPost2010PropOp52
 70
     0
102
RTVSPost2010Prop53
 90
        2
102
RTVSPost2010PropOp53
 70
     1
102
RTVSPost2010Prop54
  1
strokes_ogs.tif
102
RTVSPost2010PropOp54
 70
     1
102
RTVSPost2010Prop55
280
     0
102
RTVSPost2010PropOp55
 70
     1
102
RTVSPost2010Prop56
140
1.0
102
RTVSPost2010PropOp56
 70
     1
102
RTVSPost2010Prop57
140
1.0
102
RTVSPost2010PropOp57
 70
     1
102
RTVSPropertyOp0
 70
     1
102
RTVSPropertyOp1
 70
     1
102
RTVSPropertyOp2
 70
     1
102
RTVSPropertyOp3
 70
     1
102
RTVSPropertyOp4
 70
     1
102
RTVSPropertyOp5
 70
     1
102
RTVSPropertyOp6
 70
     1
102
RTVSPropertyOp7
 70
     1
102
RTVSPropertyOp8
 70
     1
102
RTVSPropertyOp9
 70
     1
102
RTVSPropertyOp10
 70
     1
102
RTVSPropertyOp11
 70
     1
102
RTVSPropertyOp12
 70
     1
102
RTVSPropertyOp13
 70
     1
102
RTVSPropertyOp14
 70
     1
102
RTVSPropertyOp15
 70
     1
102
RTVSPropertyOp16
 70
     1
102
RTVSPropertyOp17
 70
     1
102
RTVSPropertyOp18
 70
     1
102
RTVSPropertyOp19
 70
     1
102
RTVSPropertyOp20
 70
     1
102
RTVSPropertyOp21
 70
     1
102
RTVSPropertyOp22
 70
     1
102
RTVSPropertyOp23
 70
     1
102
RTVSPropertyOp24
 70
     1
102
RTVSPropertyOp25
 70
     1
102
RTVSPropertyOp26
 70
     1
102
RTVSPropertyOp27
 70
     1
102
RTVSPropertyOp28
 70
     1
102
RTVSPropertyOp29
 70
     1
102
RTVSPropertyOp30
 70
     1
102
RTVSPropertyOp31
 70
     1
102
RTVSPropertyOp32
 70
     1
102
RTVSPropertyOp33
 70
     1
102
RTVSPropertyOp34
 70
     1
102
RTVSPropertyOp35
 70
     1
102
RTVSPropertyOp36
 70
     1
102
RTVSPropertyOp37
 70
     1
102
RTVSPropertyOp38
 70
     1
102
RTVSPropertyOp39
 70
     1
102
RTVSPropertyOp40
 70
     1
102
RTVSPropertyOp41
 70
     1
102
RTVSPropertyOp42
 70
     1
102
RTVSPropertyOp43
 70
     1
102
RTVSPropertyOp44
 70
     1
102
RTVSPropertyOp45
 70
     1
102
RTVSPropertyOp46
 70
     1
102
RTVSPropertyOp47
 70
     1
102
RTVSPropertyOp48
 70
     1
102
RTVSPropertyOp49
 70
     1
102
RTVSPropertyOp50
 70
     1
102
RTVSPropertyOp51
 70
     0
102
RTVSPropertyOp52
 70
     0
102
RTVSPropertyOp53
 70
     1
102
RTVSPropertyOp54
 70
     1
102
RTVSPropertyOp55
 70
     1
102
RTVSPropertyOp56
 70
     1
102
RTVSPropertyOp57
 70
     1
102
RTVSPropertyOp58
 70
     1
102
RTVSPropertyOp59
 70
     1
102
RTVSPropertyOp60
 70
     1
102
RTVSPropertyOp61
 70
     1
102
RTVSPropertyOp62
 70
     1
  0
XRECORD
  5
19B2
102
{ACAD_REACTORS
330
19B1
102
}
330
19B1
100
AcDbXrecord
280
     1
102
RTVSPost2010Prop28
280
     0
102
RTVSPost2010PropOp28
 70
     1
102
RTVSPost2010Prop29
280
     1
102
RTVSPost2010PropOp29
 70
     1
102
RTVSPost2010Prop30
280
     1
102
RTVSPost2010PropOp30
 70
     1
102
RTVSPost2010Prop31
280
     0
102
RTVSPost2010PropOp31
 70
     1
102
RTVSPost2010Prop32
280
     0
102
RTVSPost2010PropOp32
 70
     1
102
RTVSPost2010Prop33
280
     0
102
RTVSPost2010PropOp33
 70
     1
102
RTVSPost2010Prop34
280
     0
102
RTVSPost2010PropOp34
 70
     1
102
RTVSPost2010Prop35
280
     0
102
RTVSPost2010PropOp35
 70
     1
102
RTVSPost2010Prop36
280
     0
102
RTVSPost2010PropOp36
 70
     1
102
RTVSPost2010Prop37
 90
       50
102
RTVSPost2010PropOp37
 70
     0
102
RTVSPost2010Prop38
140
0.0
102
RTVSPost2010PropOp38
 70
     0
102
RTVSPost2010Prop39
140
1.0
102
RTVSPost2010PropOp39
 70
     0
102
RTVSPost2010Prop40
 90
        0
102
RTVSPost2010PropOp40
 70
     0
102
RTVSPost2010Prop41ColorIndex
 90
       18
102
RTVSPost2010Prop41ColorRGB
 90
        0
102
RTVSPost2010PropOp41
 70
     0
102
RTVSPost2010Prop42
 90
       50
102
RTVSPost2010PropOp42
 70
     0
102
RTVSPost2010Prop43
 90
        3
102
RTVSPost2010PropOp43
 70
     0
102
RTVSPost2010Prop44ColorIndex
 90
        5
102
RTVSPost2010Prop44ColorRGB
 90
      255
102
RTVSPost2010PropOp44
 70
     0
102
RTVSPost2010Prop45
280
     0
102
RTVSPost2010PropOp45
 70
     1
102
RTVSPost2010Prop46
 90
       50
102
RTVSPost2010PropOp46
 70
     0
102
RTVSPost2010Prop47
 90
       50
102
RTVSPost2010PropOp47
 70
     0
102
RTVSPost2010Prop48
 90
       50
102
RTVSPost2010PropOp48
 70
     0
102
RTVSPost2010Prop49
280
     0
102
RTVSPost2010PropOp49
 70
     1
102
RTVSPost2010Prop50
 90
       50
102
RTVSPost2010PropOp50
 70
     0
102
RTVSPost2010Prop51ColorIndex
 90
      256
102
RTVSPost2010Prop51ColorRGB
 90
-16777216
102
RTVSPost2010PropOp51
 70
     0
102
RTVSPost2010Prop52
140
1.0
102
RTVSPost2010PropOp52
 70
     0
102
RTVSPost2010Prop53
 90
        2
102
RTVSPost2010PropOp53
 70
     0
102
RTVSPost2010Prop54
  1
strokes_ogs.tif
102
RTVSPost2010PropOp54
 70
     0
102
RTVSPost2010Prop55
280
     0
102
RTVSPost2010PropOp55
 70
     1
102
RTVSPost2010Prop56
140
1.0
102
RTVSPost2010PropOp56
 70
     0
102
RTVSPost2010Prop57
140
1.0
102
RTVSPost2010PropOp57
 70
     0
102
RTVSPropertyOp0
 70
     0
102
RTVSPropertyOp1
 70
     0
102
RTVSPropertyOp2
 70
     0
102
RTVSPropertyOp3
 70
     0
102
RTVSPropertyOp4
 70
     0
102
RTVSPropertyOp5
 70
     0
102
RTVSPropertyOp6
 70
     0
102
RTVSPropertyOp7
 70
     0
102
RTVSPropertyOp8
 70
     0
102
RTVSPropertyOp9
 70
     0
102
RTVSPropertyOp10
 70
     0
102
RTVSPropertyOp11
 70
     0
102
RTVSPropertyOp12
 70
     0
102
RTVSPropertyOp13
 70
     0
102
RTVSPropertyOp14
 70
     2
102
RTVSPropertyOp15
 70
     0
102
RTVSPropertyOp16
 70
     0
102
RTVSPropertyOp17
 70
     0
102
RTVSPropertyOp18
 70
     0
102
RTVSPropertyOp19
 70
     0
102
RTVSPropertyOp20
 70
     0
102
RTVSPropertyOp21
 70
     0
102
RTVSPropertyOp22
 70
     0
102
RTVSPropertyOp23
 70
     0
102
RTVSPropertyOp24
 70
     0
102
RTVSPropertyOp25
 70
     0
102
RTVSPropertyOp26
 70
     0
102
RTVSPropertyOp27
 70
     0
102
RTVSPropertyOp28
 70
     1
102
RTVSPropertyOp29
 70
     1
102
RTVSPropertyOp30
 70
     1
102
RTVSPropertyOp31
 70
     1
102
RTVSPropertyOp32
 70
     1
102
RTVSPropertyOp33
 70
     1
102
RTVSPropertyOp34
 70
     1
102
RTVSPropertyOp35
 70
     1
102
RTVSPropertyOp36
 70
     1
102
RTVSPropertyOp37
 70
     0
102
RTVSPropertyOp38
 70
     0
102
RTVSPropertyOp39
 70
     0
102
RTVSPropertyOp40
 70
     0
102
RTVSPropertyOp41
 70
     0
102
RTVSPropertyOp42
 70
     0
102
RTVSPropertyOp43
 70
     0
102
RTVSPropertyOp44
 70
     0
102
RTVSPropertyOp45
 70
     1
102
RTVSPropertyOp46
 70
     0
102
RTVSPropertyOp47
 70
     0
102
RTVSPropertyOp48
 70
     0
102
RTVSPropertyOp49
 70
     1
102
RTVSPropertyOp50
 70
     0
102
RTVSPropertyOp51
 70
     0
102
RTVSPropertyOp52
 70
     0
102
RTVSPropertyOp53
 70
     0
102
RTVSPropertyOp54
 70
     0
102
RTVSPropertyOp55
 70
     1
102
RTVSPropertyOp56
 70
     0
102
RTVSPropertyOp57
 70
     0
102
RTVSPropertyOp58
 70
     0
102
RTVSPropertyOp59
 70
     0
102
RTVSPropertyOp60
 70
     0
102
RTVSPropertyOp61
 70
     0
102
RTVSPropertyOp62
 70
     0
  0
XRECORD
  5
1998
102
{ACAD_REACTORS
330
1997
102
}
330
1997
100
AcDbXrecord
280
     1
102
RTVSPost2010Prop28
280
     0
102
RTVSPost2010PropOp28
 70
     1
102
RTVSPost2010Prop29
280
     1
102
RTVSPost2010PropOp29
 70
     1
102
RTVSPost2010Prop30
280
     1
102
RTVSPost2010PropOp30
 70
     1
102
RTVSPost2010Prop31
280
     0
102
RTVSPost2010PropOp31
 70
     1
102
RTVSPost2010Prop32
280
     0
102
RTVSPost2010PropOp32
 70
     1
102
RTVSPost2010Prop33
280
     0
102
RTVSPost2010PropOp33
 70
     1
102
RTVSPost2010Prop34
280
     0
102
RTVSPost2010PropOp34
 70
     1
102
RTVSPost2010Prop35
280
     0
102
RTVSPost2010PropOp35
 70
     1
102
RTVSPost2010Prop36
280
     0
102
RTVSPost2010PropOp36
 70
     1
102
RTVSPost2010Prop37
 90
       50
102
RTVSPost2010PropOp37
 70
     1
102
RTVSPost2010Prop38
140
0.0
102
RTVSPost2010PropOp38
 70
     1
102
RTVSPost2010Prop39
140
1.0
102
RTVSPost2010PropOp39
 70
     1
102
RTVSPost2010Prop40
 90
        0
102
RTVSPost2010PropOp40
 70
     1
102
RTVSPost2010Prop41ColorIndex
 90
       18
102
RTVSPost2010Prop41ColorRGB
 90
        0
102
RTVSPost2010PropOp41
 70
     1
102
RTVSPost2010Prop42
 90
       50
102
RTVSPost2010PropOp42
 70
     1
102
RTVSPost2010Prop43
 90
        3
102
RTVSPost2010PropOp43
 70
     1
102
RTVSPost2010Prop44ColorIndex
 90
        5
102
RTVSPost2010Prop44ColorRGB
 90
      255
102
RTVSPost2010PropOp44
 70
     1
102
RTVSPost2010Prop45
280
     0
102
RTVSPost2010PropOp45
 70
     1
102
RTVSPost2010Prop46
 90
       50
102
RTVSPost2010PropOp46
 70
     1
102
RTVSPost2010Prop47
 90
       50
102
RTVSPost2010PropOp47
 70
     1
102
RTVSPost2010Prop48
 90
       50
102
RTVSPost2010PropOp48
 70
     1
102
RTVSPost2010Prop49
280
     0
102
RTVSPost2010PropOp49
 70
     1
102
RTVSPost2010Prop50
 90
       50
102
RTVSPost2010PropOp50
 70
     1
102
RTVSPost2010Prop51ColorIndex
 90
      256
102
RTVSPost2010Prop51ColorRGB
 90
-16777216
102
RTVSPost2010PropOp51
 70
     0
102
RTVSPost2010Prop52
140
1.0
102
RTVSPost2010PropOp52
 70
     0
102
RTVSPost2010Prop53
 90
        2
102
RTVSPost2010PropOp53
 70
     1
102
RTVSPost2010Prop54
  1
strokes_ogs.tif
102
RTVSPost2010PropOp54
 70
     1
102
RTVSPost2010Prop55
280
     0
102
RTVSPost2010PropOp55
 70
     1
102
RTVSPost2010Prop56
140
1.0
102
RTVSPost2010PropOp56
 70
     1
102
RTVSPost2010Prop57
140
1.0
102
RTVSPost2010PropOp57
 70
     1
102
RTVSPropertyOp0
 70
     1
102
RTVSPropertyOp1
 70
     1
102
RTVSPropertyOp2
 70
     1
102
RTVSPropertyOp3
 70
     1
102
RTVSPropertyOp4
 70
     1
102
RTVSPropertyOp5
 70
     1
102
RTVSPropertyOp6
 70
     1
102
RTVSPropertyOp7
 70
     1
102
RTVSPropertyOp8
 70
     1
102
RTVSPropertyOp9
 70
     1
102
RTVSPropertyOp10
 70
     1
102
RTVSPropertyOp11
 70
     1
102
RTVSPropertyOp12
 70
     1
102
RTVSPropertyOp13
 70
     1
102
RTVSPropertyOp14
 70
     1
102
RTVSPropertyOp15
 70
     1
102
RTVSPropertyOp16
 70
     1
102
RTVSPropertyOp17
 70
     1
102
RTVSPropertyOp18
 70
     1
102
RTVSPropertyOp19
 70
     1
102
RTVSPropertyOp20
 70
     1
102
RTVSPropertyOp21
 70
     1
102
RTVSPropertyOp22
 70
     1
102
RTVSPropertyOp23
 70
     1
102
RTVSPropertyOp24
 70
     1
102
RTVSPropertyOp25
 70
     1
102
RTVSPropertyOp26
 70
     1
102
RTVSPropertyOp27
 70
     1
102
RTVSPropertyOp28
 70
     1
102
RTVSPropertyOp29
 70
     1
102
RTVSPropertyOp30
 70
     1
102
RTVSPropertyOp31
 70
     1
102
RTVSPropertyOp32
 70
     1
102
RTVSPropertyOp33
 70
     1
102
RTVSPropertyOp34
 70
     1
102
RTVSPropertyOp35
 70
     1
102
RTVSPropertyOp36
 70
     1
102
RTVSPropertyOp37
 70
     1
102
RTVSPropertyOp38
 70
     1
102
RTVSPropertyOp39
 70
     1
102
RTVSPropertyOp40
 70
     1
102
RTVSPropertyOp41
 70
     1
102
RTVSPropertyOp42
 70
     1
102
RTVSPropertyOp43
 70
     1
102
RTVSPropertyOp44
 70
     1
102
RTVSPropertyOp45
 70
     1
102
RTVSPropertyOp46
 70
     1
102
RTVSPropertyOp47
 70
     1
102
RTVSPropertyOp48
 70
     1
102
RTVSPropertyOp49
 70
     1
102
RTVSPropertyOp50
 70
     1
102
RTVSPropertyOp51
 70
     0
102
RTVSPropertyOp52
 70
     0
102
RTVSPropertyOp53
 70
     1
102
RTVSPropertyOp54
 70
     1
102
RTVSPropertyOp55
 70
     1
102
RTVSPropertyOp56
 70
     1
102
RTVSPropertyOp57
 70
     1
102
RTVSPropertyOp58
 70
     1
102
RTVSPropertyOp59
 70
     1
102
RTVSPropertyOp60
 70
     1
102
RTVSPropertyOp61
 70
     1
102
RTVSPropertyOp62
 70
     1
  0
XRECORD
  5
19AE
102
{ACAD_REACTORS
330
19AD
102
}
330
19AD
100
AcDbXrecord
280
     1
102
RTVSPost2010Prop28
280
     0
102
RTVSPost2010PropOp28
 70
     1
102
RTVSPost2010Prop29
280
     1
102
RTVSPost2010PropOp29
 70
     1
102
RTVSPost2010Prop30
280
     1
102
RTVSPost2010PropOp30
 70
     1
102
RTVSPost2010Prop31
280
     0
102
RTVSPost2010PropOp31
 70
     1
102
RTVSPost2010Prop32
280
     0
102
RTVSPost2010PropOp32
 70
     1
102
RTVSPost2010Prop33
280
     0
102
RTVSPost2010PropOp33
 70
     1
102
RTVSPost2010Prop34
280
     0
102
RTVSPost2010PropOp34
 70
     1
102
RTVSPost2010Prop35
280
     0
102
RTVSPost2010PropOp35
 70
     1
102
RTVSPost2010Prop36
280
     0
102
RTVSPost2010PropOp36
 70
     1
102
RTVSPost2010Prop37
 90
       50
102
RTVSPost2010PropOp37
 70
     1
102
RTVSPost2010Prop38
140
0.0
102
RTVSPost2010PropOp38
 70
     1
102
RTVSPost2010Prop39
140
1.0
102
RTVSPost2010PropOp39
 70
     1
102
RTVSPost2010Prop40
 90
        0
102
RTVSPost2010PropOp40
 70
     1
102
RTVSPost2010Prop41ColorIndex
 90
       18
102
RTVSPost2010Prop41ColorRGB
 90
        0
102
RTVSPost2010PropOp41
 70
     1
102
RTVSPost2010Prop42
 90
       50
102
RTVSPost2010PropOp42
 70
     1
102
RTVSPost2010Prop43
 90
        3
102
RTVSPost2010PropOp43
 70
     1
102
RTVSPost2010Prop44ColorIndex
 90
        5
102
RTVSPost2010Prop44ColorRGB
 90
      255
102
RTVSPost2010PropOp44
 70
     1
102
RTVSPost2010Prop45
280
     0
102
RTVSPost2010PropOp45
 70
     1
102
RTVSPost2010Prop46
 90
       50
102
RTVSPost2010PropOp46
 70
     1
102
RTVSPost2010Prop47
 90
       50
102
RTVSPost2010PropOp47
 70
     1
102
RTVSPost2010Prop48
 90
       50
102
RTVSPost2010PropOp48
 70
     1
102
RTVSPost2010Prop49
280
     0
102
RTVSPost2010PropOp49
 70
     1
102
RTVSPost2010Prop50
 90
       50
102
RTVSPost2010PropOp50
 70
     1
102
RTVSPost2010Prop51ColorIndex
 90
      256
102
RTVSPost2010Prop51ColorRGB
 90
-16777216
102
RTVSPost2010PropOp51
 70
     0
102
RTVSPost2010Prop52
140
1.0
102
RTVSPost2010PropOp52
 70
     0
102
RTVSPost2010Prop53
 90
        2
102
RTVSPost2010PropOp53
 70
     1
102
RTVSPost2010Prop54
  1
strokes_ogs.tif
102
RTVSPost2010PropOp54
 70
     1
102
RTVSPost2010Prop55
280
     0
102
RTVSPost2010PropOp55
 70
     1
102
RTVSPost2010Prop56
140
1.0
102
RTVSPost2010PropOp56
 70
     1
102
RTVSPost2010Prop57
140
1.0
102
RTVSPost2010PropOp57
 70
     1
102
RTVSPropertyOp0
 70
     1
102
RTVSPropertyOp1
 70
     1
102
RTVSPropertyOp2
 70
     1
102
RTVSPropertyOp3
 70
     1
102
RTVSPropertyOp4
 70
     1
102
RTVSPropertyOp5
 70
     1
102
RTVSPropertyOp6
 70
     1
102
RTVSPropertyOp7
 70
     1
102
RTVSPropertyOp8
 70
     1
102
RTVSPropertyOp9
 70
     1
102
RTVSPropertyOp10
 70
     1
102
RTVSPropertyOp11
 70
     1
102
RTVSPropertyOp12
 70
     1
102
RTVSPropertyOp13
 70
     1
102
RTVSPropertyOp14
 70
     1
102
RTVSPropertyOp15
 70
     1
102
RTVSPropertyOp16
 70
     1
102
RTVSPropertyOp17
 70
     1
102
RTVSPropertyOp18
 70
     1
102
RTVSPropertyOp19
 70
     1
102
RTVSPropertyOp20
 70
     1
102
RTVSPropertyOp21
 70
     1
102
RTVSPropertyOp22
 70
     1
102
RTVSPropertyOp23
 70
     1
102
RTVSPropertyOp24
 70
     1
102
RTVSPropertyOp25
 70
     1
102
RTVSPropertyOp26
 70
     1
102
RTVSPropertyOp27
 70
     1
102
RTVSPropertyOp28
 70
     1
102
RTVSPropertyOp29
 70
     1
102
RTVSPropertyOp30
 70
     1
102
RTVSPropertyOp31
 70
     1
102
RTVSPropertyOp32
 70
     1
102
RTVSPropertyOp33
 70
     1
102
RTVSPropertyOp34
 70
     1
102
RTVSPropertyOp35
 70
     1
102
RTVSPropertyOp36
 70
     1
102
RTVSPropertyOp37
 70
     1
102
RTVSPropertyOp38
 70
     1
102
RTVSPropertyOp39
 70
     1
102
RTVSPropertyOp40
 70
     1
102
RTVSPropertyOp41
 70
     1
102
RTVSPropertyOp42
 70
     1
102
RTVSPropertyOp43
 70
     1
102
RTVSPropertyOp44
 70
     1
102
RTVSPropertyOp45
 70
     1
102
RTVSPropertyOp46
 70
     1
102
RTVSPropertyOp47
 70
     1
102
RTVSPropertyOp48
 70
     1
102
RTVSPropertyOp49
 70
     1
102
RTVSPropertyOp50
 70
     1
102
RTVSPropertyOp51
 70
     0
102
RTVSPropertyOp52
 70
     0
102
RTVSPropertyOp53
 70
     1
102
RTVSPropertyOp54
 70
     1
102
RTVSPropertyOp55
 70
     1
102
RTVSPropertyOp56
 70
     1
102
RTVSPropertyOp57
 70
     1
102
RTVSPropertyOp58
 70
     1
102
RTVSPropertyOp59
 70
     1
102
RTVSPropertyOp60
 70
     1
102
RTVSPropertyOp61
 70
     1
102
RTVSPropertyOp62
 70
     1
  0
XRECORD
  5
19AC
102
{ACAD_REACTORS
330
19AB
102
}
330
19AB
100
AcDbXrecord
280
     1
102
RTVSPost2010Prop28
280
     0
102
RTVSPost2010PropOp28
 70
     1
102
RTVSPost2010Prop29
280
     1
102
RTVSPost2010PropOp29
 70
     1
102
RTVSPost2010Prop30
280
     1
102
RTVSPost2010PropOp30
 70
     1
102
RTVSPost2010Prop31
280
     0
102
RTVSPost2010PropOp31
 70
     1
102
RTVSPost2010Prop32
280
     0
102
RTVSPost2010PropOp32
 70
     1
102
RTVSPost2010Prop33
280
     0
102
RTVSPost2010PropOp33
 70
     1
102
RTVSPost2010Prop34
280
     0
102
RTVSPost2010PropOp34
 70
     1
102
RTVSPost2010Prop35
280
     0
102
RTVSPost2010PropOp35
 70
     1
102
RTVSPost2010Prop36
280
     0
102
RTVSPost2010PropOp36
 70
     1
102
RTVSPost2010Prop37
 90
       50
102
RTVSPost2010PropOp37
 70
     1
102
RTVSPost2010Prop38
140
0.0
102
RTVSPost2010PropOp38
 70
     1
102
RTVSPost2010Prop39
140
1.0
102
RTVSPost2010PropOp39
 70
     1
102
RTVSPost2010Prop40
 90
        0
102
RTVSPost2010PropOp40
 70
     1
102
RTVSPost2010Prop41ColorIndex
 90
       18
102
RTVSPost2010Prop41ColorRGB
 90
        0
102
RTVSPost2010PropOp41
 70
     1
102
RTVSPost2010Prop42
 90
       50
102
RTVSPost2010PropOp42
 70
     1
102
RTVSPost2010Prop43
 90
        3
102
RTVSPost2010PropOp43
 70
     1
102
RTVSPost2010Prop44ColorIndex
 90
        5
102
RTVSPost2010Prop44ColorRGB
 90
      255
102
RTVSPost2010PropOp44
 70
     1
102
RTVSPost2010Prop45
280
     0
102
RTVSPost2010PropOp45
 70
     1
102
RTVSPost2010Prop46
 90
       50
102
RTVSPost2010PropOp46
 70
     1
102
RTVSPost2010Prop47
 90
       50
102
RTVSPost2010PropOp47
 70
     1
102
RTVSPost2010Prop48
 90
       50
102
RTVSPost2010PropOp48
 70
     1
102
RTVSPost2010Prop49
280
     0
102
RTVSPost2010PropOp49
 70
     1
102
RTVSPost2010Prop50
 90
       50
102
RTVSPost2010PropOp50
 70
     1
102
RTVSPost2010Prop51ColorIndex
 90
      256
102
RTVSPost2010Prop51ColorRGB
 90
-16777216
102
RTVSPost2010PropOp51
 70
     0
102
RTVSPost2010Prop52
140
1.0
102
RTVSPost2010PropOp52
 70
     0
102
RTVSPost2010Prop53
 90
        2
102
RTVSPost2010PropOp53
 70
     1
102
RTVSPost2010Prop54
  1
strokes_ogs.tif
102
RTVSPost2010PropOp54
 70
     1
102
RTVSPost2010Prop55
280
     0
102
RTVSPost2010PropOp55
 70
     1
102
RTVSPost2010Prop56
140
1.0
102
RTVSPost2010PropOp56
 70
     1
102
RTVSPost2010Prop57
140
1.0
102
RTVSPost2010PropOp57
 70
     1
102
RTVSPropertyOp0
 70
     1
102
RTVSPropertyOp1
 70
     1
102
RTVSPropertyOp2
 70
     1
102
RTVSPropertyOp3
 70
     1
102
RTVSPropertyOp4
 70
     1
102
RTVSPropertyOp5
 70
     1
102
RTVSPropertyOp6
 70
     1
102
RTVSPropertyOp7
 70
     1
102
RTVSPropertyOp8
 70
     1
102
RTVSPropertyOp9
 70
     1
102
RTVSPropertyOp10
 70
     1
102
RTVSPropertyOp11
 70
     1
102
RTVSPropertyOp12
 70
     1
102
RTVSPropertyOp13
 70
     1
102
RTVSPropertyOp14
 70
     1
102
RTVSPropertyOp15
 70
     1
102
RTVSPropertyOp16
 70
     1
102
RTVSPropertyOp17
 70
     1
102
RTVSPropertyOp18
 70
     1
102
RTVSPropertyOp19
 70
     1
102
RTVSPropertyOp20
 70
     1
102
RTVSPropertyOp21
 70
     1
102
RTVSPropertyOp22
 70
     1
102
RTVSPropertyOp23
 70
     1
102
RTVSPropertyOp24
 70
     1
102
RTVSPropertyOp25
 70
     1
102
RTVSPropertyOp26
 70
     1
102
RTVSPropertyOp27
 70
     1
102
RTVSPropertyOp28
 70
     1
102
RTVSPropertyOp29
 70
     1
102
RTVSPropertyOp30
 70
     1
102
RTVSPropertyOp31
 70
     1
102
RTVSPropertyOp32
 70
     1
102
RTVSPropertyOp33
 70
     1
102
RTVSPropertyOp34
 70
     1
102
RTVSPropertyOp35
 70
     1
102
RTVSPropertyOp36
 70
     1
102
RTVSPropertyOp37
 70
     1
102
RTVSPropertyOp38
 70
     1
102
RTVSPropertyOp39
 70
     1
102
RTVSPropertyOp40
 70
     1
102
RTVSPropertyOp41
 70
     1
102
RTVSPropertyOp42
 70
     1
102
RTVSPropertyOp43
 70
     1
102
RTVSPropertyOp44
 70
     1
102
RTVSPropertyOp45
 70
     1
102
RTVSPropertyOp46
 70
     1
102
RTVSPropertyOp47
 70
     1
102
RTVSPropertyOp48
 70
     1
102
RTVSPropertyOp49
 70
     1
102
RTVSPropertyOp50
 70
     1
102
RTVSPropertyOp51
 70
     0
102
RTVSPropertyOp52
 70
     0
102
RTVSPropertyOp53
 70
     1
102
RTVSPropertyOp54
 70
     1
102
RTVSPropertyOp55
 70
     1
102
RTVSPropertyOp56
 70
     1
102
RTVSPropertyOp57
 70
     1
102
RTVSPropertyOp58
 70
     1
102
RTVSPropertyOp59
 70
     1
102
RTVSPropertyOp60
 70
     1
102
RTVSPropertyOp61
 70
     1
102
RTVSPropertyOp62
 70
     1
  0
XRECORD
  5
19A6
102
{ACAD_REACTORS
330
19A5
102
}
330
19A5
100
AcDbXrecord
280
     1
102
RTVSPost2010Prop28
280
     0
102
RTVSPost2010PropOp28
 70
     1
102
RTVSPost2010Prop29
280
     1
102
RTVSPost2010PropOp29
 70
     1
102
RTVSPost2010Prop30
280
     1
102
RTVSPost2010PropOp30
 70
     1
102
RTVSPost2010Prop31
280
     0
102
RTVSPost2010PropOp31
 70
     1
102
RTVSPost2010Prop32
280
     0
102
RTVSPost2010PropOp32
 70
     1
102
RTVSPost2010Prop33
280
     0
102
RTVSPost2010PropOp33
 70
     1
102
RTVSPost2010Prop34
280
     0
102
RTVSPost2010PropOp34
 70
     1
102
RTVSPost2010Prop35
280
     0
102
RTVSPost2010PropOp35
 70
     1
102
RTVSPost2010Prop36
280
     0
102
RTVSPost2010PropOp36
 70
     1
102
RTVSPost2010Prop37
 90
       50
102
RTVSPost2010PropOp37
 70
     1
102
RTVSPost2010Prop38
140
0.0
102
RTVSPost2010PropOp38
 70
     1
102
RTVSPost2010Prop39
140
1.0
102
RTVSPost2010PropOp39
 70
     1
102
RTVSPost2010Prop40
 90
        0
102
RTVSPost2010PropOp40
 70
     1
102
RTVSPost2010Prop41ColorIndex
 90
       18
102
RTVSPost2010Prop41ColorRGB
 90
        0
102
RTVSPost2010PropOp41
 70
     1
102
RTVSPost2010Prop42
 90
       50
102
RTVSPost2010PropOp42
 70
     1
102
RTVSPost2010Prop43
 90
        3
102
RTVSPost2010PropOp43
 70
     1
102
RTVSPost2010Prop44ColorIndex
 90
        5
102
RTVSPost2010Prop44ColorRGB
 90
      255
102
RTVSPost2010PropOp44
 70
     1
102
RTVSPost2010Prop45
280
     0
102
RTVSPost2010PropOp45
 70
     1
102
RTVSPost2010Prop46
 90
       50
102
RTVSPost2010PropOp46
 70
     1
102
RTVSPost2010Prop47
 90
       50
102
RTVSPost2010PropOp47
 70
     1
102
RTVSPost2010Prop48
 90
       50
102
RTVSPost2010PropOp48
 70
     1
102
RTVSPost2010Prop49
280
     0
102
RTVSPost2010PropOp49
 70
     1
102
RTVSPost2010Prop50
 90
       50
102
RTVSPost2010PropOp50
 70
     1
102
RTVSPost2010Prop51ColorIndex
 90
      256
102
RTVSPost2010Prop51ColorRGB
 90
-16777216
102
RTVSPost2010PropOp51
 70
     0
102
RTVSPost2010Prop52
140
1.0
102
RTVSPost2010PropOp52
 70
     0
102
RTVSPost2010Prop53
 90
        2
102
RTVSPost2010PropOp53
 70
     1
102
RTVSPost2010Prop54
  1
strokes_ogs.tif
102
RTVSPost2010PropOp54
 70
     1
102
RTVSPost2010Prop55
280
     0
102
RTVSPost2010PropOp55
 70
     1
102
RTVSPost2010Prop56
140
1.0
102
RTVSPost2010PropOp56
 70
     1
102
RTVSPost2010Prop57
140
1.0
102
RTVSPost2010PropOp57
 70
     1
102
RTVSPropertyOp0
 70
     1
102
RTVSPropertyOp1
 70
     1
102
RTVSPropertyOp2
 70
     1
102
RTVSPropertyOp3
 70
     1
102
RTVSPropertyOp4
 70
     1
102
RTVSPropertyOp5
 70
     1
102
RTVSPropertyOp6
 70
     1
102
RTVSPropertyOp7
 70
     1
102
RTVSPropertyOp8
 70
     1
102
RTVSPropertyOp9
 70
     1
102
RTVSPropertyOp10
 70
     1
102
RTVSPropertyOp11
 70
     1
102
RTVSPropertyOp12
 70
     1
102
RTVSPropertyOp13
 70
     1
102
RTVSPropertyOp14
 70
     1
102
RTVSPropertyOp15
 70
     1
102
RTVSPropertyOp16
 70
     1
102
RTVSPropertyOp17
 70
     1
102
RTVSPropertyOp18
 70
     1
102
RTVSPropertyOp19
 70
     1
102
RTVSPropertyOp20
 70
     1
102
RTVSPropertyOp21
 70
     1
102
RTVSPropertyOp22
 70
     1
102
RTVSPropertyOp23
 70
     1
102
RTVSPropertyOp24
 70
     1
102
RTVSPropertyOp25
 70
     1
102
RTVSPropertyOp26
 70
     1
102
RTVSPropertyOp27
 70
     1
102
RTVSPropertyOp28
 70
     1
102
RTVSPropertyOp29
 70
     1
102
RTVSPropertyOp30
 70
     1
102
RTVSPropertyOp31
 70
     1
102
RTVSPropertyOp32
 70
     1
102
RTVSPropertyOp33
 70
     1
102
RTVSPropertyOp34
 70
     1
102
RTVSPropertyOp35
 70
     1
102
RTVSPropertyOp36
 70
     1
102
RTVSPropertyOp37
 70
     1
102
RTVSPropertyOp38
 70
     1
102
RTVSPropertyOp39
 70
     1
102
RTVSPropertyOp40
 70
     1
102
RTVSPropertyOp41
 70
     1
102
RTVSPropertyOp42
 70
     1
102
RTVSPropertyOp43
 70
     1
102
RTVSPropertyOp44
 70
     1
102
RTVSPropertyOp45
 70
     1
102
RTVSPropertyOp46
 70
     1
102
RTVSPropertyOp47
 70
     1
102
RTVSPropertyOp48
 70
     1
102
RTVSPropertyOp49
 70
     1
102
RTVSPropertyOp50
 70
     1
102
RTVSPropertyOp51
 70
     0
102
RTVSPropertyOp52
 70
     0
102
RTVSPropertyOp53
 70
     1
102
RTVSPropertyOp54
 70
     1
102
RTVSPropertyOp55
 70
     1
102
RTVSPropertyOp56
 70
     1
102
RTVSPropertyOp57
 70
     1
102
RTVSPropertyOp58
 70
     1
102
RTVSPropertyOp59
 70
     1
102
RTVSPropertyOp60
 70
     1
102
RTVSPropertyOp61
 70
     1
102
RTVSPropertyOp62
 70
     1
  0
XRECORD
  5
19A8
102
{ACAD_REACTORS
330
19A7
102
}
330
19A7
100
AcDbXrecord
280
     1
102
RTVSPost2010Prop28
280
     0
102
RTVSPost2010PropOp28
 70
     1
102
RTVSPost2010Prop29
280
     1
102
RTVSPost2010PropOp29
 70
     1
102
RTVSPost2010Prop30
280
     1
102
RTVSPost2010PropOp30
 70
     1
102
RTVSPost2010Prop31
280
     0
102
RTVSPost2010PropOp31
 70
     1
102
RTVSPost2010Prop32
280
     0
102
RTVSPost2010PropOp32
 70
     1
102
RTVSPost2010Prop33
280
     0
102
RTVSPost2010PropOp33
 70
     1
102
RTVSPost2010Prop34
280
     0
102
RTVSPost2010PropOp34
 70
     1
102
RTVSPost2010Prop35
280
     0
102
RTVSPost2010PropOp35
 70
     1
102
RTVSPost2010Prop36
280
     0
102
RTVSPost2010PropOp36
 70
     1
102
RTVSPost2010Prop37
 90
       50
102
RTVSPost2010PropOp37
 70
     1
102
RTVSPost2010Prop38
140
0.0
102
RTVSPost2010PropOp38
 70
     1
102
RTVSPost2010Prop39
140
1.0
102
RTVSPost2010PropOp39
 70
     1
102
RTVSPost2010Prop40
 90
        0
102
RTVSPost2010PropOp40
 70
     1
102
RTVSPost2010Prop41ColorIndex
 90
       18
102
RTVSPost2010Prop41ColorRGB
 90
        0
102
RTVSPost2010PropOp41
 70
     1
102
RTVSPost2010Prop42
 90
       50
102
RTVSPost2010PropOp42
 70
     1
102
RTVSPost2010Prop43
 90
        3
102
RTVSPost2010PropOp43
 70
     1
102
RTVSPost2010Prop44ColorIndex
 90
        5
102
RTVSPost2010Prop44ColorRGB
 90
      255
102
RTVSPost2010PropOp44
 70
     1
102
RTVSPost2010Prop45
280
     0
102
RTVSPost2010PropOp45
 70
     1
102
RTVSPost2010Prop46
 90
       50
102
RTVSPost2010PropOp46
 70
     1
102
RTVSPost2010Prop47
 90
       50
102
RTVSPost2010PropOp47
 70
     1
102
RTVSPost2010Prop48
 90
       50
102
RTVSPost2010PropOp48
 70
     1
102
RTVSPost2010Prop49
280
     0
102
RTVSPost2010PropOp49
 70
     1
102
RTVSPost2010Prop50
 90
       50
102
RTVSPost2010PropOp50
 70
     1
102
RTVSPost2010Prop51ColorIndex
 90
      256
102
RTVSPost2010Prop51ColorRGB
 90
-16777216
102
RTVSPost2010PropOp51
 70
     0
102
RTVSPost2010Prop52
140
1.0
102
RTVSPost2010PropOp52
 70
     0
102
RTVSPost2010Prop53
 90
        2
102
RTVSPost2010PropOp53
 70
     1
102
RTVSPost2010Prop54
  1
strokes_ogs.tif
102
RTVSPost2010PropOp54
 70
     1
102
RTVSPost2010Prop55
280
     0
102
RTVSPost2010PropOp55
 70
     1
102
RTVSPost2010Prop56
140
1.0
102
RTVSPost2010PropOp56
 70
     1
102
RTVSPost2010Prop57
140
1.0
102
RTVSPost2010PropOp57
 70
     1
102
RTVSPropertyOp0
 70
     1
102
RTVSPropertyOp1
 70
     1
102
RTVSPropertyOp2
 70
     1
102
RTVSPropertyOp3
 70
     1
102
RTVSPropertyOp4
 70
     1
102
RTVSPropertyOp5
 70
     1
102
RTVSPropertyOp6
 70
     1
102
RTVSPropertyOp7
 70
     1
102
RTVSPropertyOp8
 70
     1
102
RTVSPropertyOp9
 70
     1
102
RTVSPropertyOp10
 70
     1
102
RTVSPropertyOp11
 70
     1
102
RTVSPropertyOp12
 70
     1
102
RTVSPropertyOp13
 70
     1
102
RTVSPropertyOp14
 70
     1
102
RTVSPropertyOp15
 70
     1
102
RTVSPropertyOp16
 70
     1
102
RTVSPropertyOp17
 70
     1
102
RTVSPropertyOp18
 70
     1
102
RTVSPropertyOp19
 70
     1
102
RTVSPropertyOp20
 70
     1
102
RTVSPropertyOp21
 70
     1
102
RTVSPropertyOp22
 70
     1
102
RTVSPropertyOp23
 70
     1
102
RTVSPropertyOp24
 70
     1
102
RTVSPropertyOp25
 70
     1
102
RTVSPropertyOp26
 70
     1
102
RTVSPropertyOp27
 70
     1
102
RTVSPropertyOp28
 70
     1
102
RTVSPropertyOp29
 70
     1
102
RTVSPropertyOp30
 70
     1
102
RTVSPropertyOp31
 70
     1
102
RTVSPropertyOp32
 70
     1
102
RTVSPropertyOp33
 70
     1
102
RTVSPropertyOp34
 70
     1
102
RTVSPropertyOp35
 70
     1
102
RTVSPropertyOp36
 70
     1
102
RTVSPropertyOp37
 70
     1
102
RTVSPropertyOp38
 70
     1
102
RTVSPropertyOp39
 70
     1
102
RTVSPropertyOp40
 70
     1
102
RTVSPropertyOp41
 70
     1
102
RTVSPropertyOp42
 70
     1
102
RTVSPropertyOp43
 70
     1
102
RTVSPropertyOp44
 70
     1
102
RTVSPropertyOp45
 70
     1
102
RTVSPropertyOp46
 70
     1
102
RTVSPropertyOp47
 70
     1
102
RTVSPropertyOp48
 70
     1
102
RTVSPropertyOp49
 70
     1
102
RTVSPropertyOp50
 70
     1
102
RTVSPropertyOp51
 70
     0
102
RTVSPropertyOp52
 70
     0
102
RTVSPropertyOp53
 70
     1
102
RTVSPropertyOp54
 70
     1
102
RTVSPropertyOp55
 70
     1
102
RTVSPropertyOp56
 70
     1
102
RTVSPropertyOp57
 70
     1
102
RTVSPropertyOp58
 70
     1
102
RTVSPropertyOp59
 70
     1
102
RTVSPropertyOp60
 70
     1
102
RTVSPropertyOp61
 70
     1
102
RTVSPropertyOp62
 70
     1
  0
XRECORD
  5
199E
102
{ACAD_REACTORS
330
199D
102
}
330
199D
100
AcDbXrecord
280
     1
102
RTVSPost2010Prop28
280
     0
102
RTVSPost2010PropOp28
 70
     1
102
RTVSPost2010Prop29
280
     1
102
RTVSPost2010PropOp29
 70
     1
102
RTVSPost2010Prop30
280
     1
102
RTVSPost2010PropOp30
 70
     1
102
RTVSPost2010Prop31
280
     0
102
RTVSPost2010PropOp31
 70
     1
102
RTVSPost2010Prop32
280
     0
102
RTVSPost2010PropOp32
 70
     1
102
RTVSPost2010Prop33
280
     0
102
RTVSPost2010PropOp33
 70
     1
102
RTVSPost2010Prop34
280
     0
102
RTVSPost2010PropOp34
 70
     1
102
RTVSPost2010Prop35
280
     0
102
RTVSPost2010PropOp35
 70
     1
102
RTVSPost2010Prop36
280
     0
102
RTVSPost2010PropOp36
 70
     1
102
RTVSPost2010Prop37
 90
       50
102
RTVSPost2010PropOp37
 70
     1
102
RTVSPost2010Prop38
140
0.0
102
RTVSPost2010PropOp38
 70
     1
102
RTVSPost2010Prop39
140
1.0
102
RTVSPost2010PropOp39
 70
     1
102
RTVSPost2010Prop40
 90
        0
102
RTVSPost2010PropOp40
 70
     1
102
RTVSPost2010Prop41ColorIndex
 90
       18
102
RTVSPost2010Prop41ColorRGB
 90
        0
102
RTVSPost2010PropOp41
 70
     1
102
RTVSPost2010Prop42
 90
       50
102
RTVSPost2010PropOp42
 70
     1
102
RTVSPost2010Prop43
 90
        3
102
RTVSPost2010PropOp43
 70
     1
102
RTVSPost2010Prop44ColorIndex
 90
        5
102
RTVSPost2010Prop44ColorRGB
 90
      255
102
RTVSPost2010PropOp44
 70
     1
102
RTVSPost2010Prop45
280
     0
102
RTVSPost2010PropOp45
 70
     1
102
RTVSPost2010Prop46
 90
       50
102
RTVSPost2010PropOp46
 70
     1
102
RTVSPost2010Prop47
 90
       50
102
RTVSPost2010PropOp47
 70
     1
102
RTVSPost2010Prop48
 90
       50
102
RTVSPost2010PropOp48
 70
     1
102
RTVSPost2010Prop49
280
     0
102
RTVSPost2010PropOp49
 70
     1
102
RTVSPost2010Prop50
 90
       50
102
RTVSPost2010PropOp50
 70
     1
102
RTVSPost2010Prop51ColorIndex
 90
      256
102
RTVSPost2010Prop51ColorRGB
 90
-16777216
102
RTVSPost2010PropOp51
 70
     0
102
RTVSPost2010Prop52
140
1.0
102
RTVSPost2010PropOp52
 70
     0
102
RTVSPost2010Prop53
 90
        2
102
RTVSPost2010PropOp53
 70
     1
102
RTVSPost2010Prop54
  1
strokes_ogs.tif
102
RTVSPost2010PropOp54
 70
     1
102
RTVSPost2010Prop55
280
     0
102
RTVSPost2010PropOp55
 70
     1
102
RTVSPost2010Prop56
140
1.0
102
RTVSPost2010PropOp56
 70
     1
102
RTVSPost2010Prop57
140
1.0
102
RTVSPost2010PropOp57
 70
     1
102
RTVSPropertyOp0
 70
     1
102
RTVSPropertyOp1
 70
     1
102
RTVSPropertyOp2
 70
     1
102
RTVSPropertyOp3
 70
     1
102
RTVSPropertyOp4
 70
     1
102
RTVSPropertyOp5
 70
     1
102
RTVSPropertyOp6
 70
     1
102
RTVSPropertyOp7
 70
     1
102
RTVSPropertyOp8
 70
     1
102
RTVSPropertyOp9
 70
     1
102
RTVSPropertyOp10
 70
     1
102
RTVSPropertyOp11
 70
     1
102
RTVSPropertyOp12
 70
     1
102
RTVSPropertyOp13
 70
     1
102
RTVSPropertyOp14
 70
     1
102
RTVSPropertyOp15
 70
     1
102
RTVSPropertyOp16
 70
     1
102
RTVSPropertyOp17
 70
     1
102
RTVSPropertyOp18
 70
     1
102
RTVSPropertyOp19
 70
     1
102
RTVSPropertyOp20
 70
     1
102
RTVSPropertyOp21
 70
     1
102
RTVSPropertyOp22
 70
     1
102
RTVSPropertyOp23
 70
     1
102
RTVSPropertyOp24
 70
     1
102
RTVSPropertyOp25
 70
     1
102
RTVSPropertyOp26
 70
     1
102
RTVSPropertyOp27
 70
     1
102
RTVSPropertyOp28
 70
     1
102
RTVSPropertyOp29
 70
     1
102
RTVSPropertyOp30
 70
     1
102
RTVSPropertyOp31
 70
     1
102
RTVSPropertyOp32
 70
     1
102
RTVSPropertyOp33
 70
     1
102
RTVSPropertyOp34
 70
     1
102
RTVSPropertyOp35
 70
     1
102
RTVSPropertyOp36
 70
     1
102
RTVSPropertyOp37
 70
     1
102
RTVSPropertyOp38
 70
     1
102
RTVSPropertyOp39
 70
     1
102
RTVSPropertyOp40
 70
     1
102
RTVSPropertyOp41
 70
     1
102
RTVSPropertyOp42
 70
     1
102
RTVSPropertyOp43
 70
     1
102
RTVSPropertyOp44
 70
     1
102
RTVSPropertyOp45
 70
     1
102
RTVSPropertyOp46
 70
     1
102
RTVSPropertyOp47
 70
     1
102
RTVSPropertyOp48
 70
     1
102
RTVSPropertyOp49
 70
     1
102
RTVSPropertyOp50
 70
     1
102
RTVSPropertyOp51
 70
     0
102
RTVSPropertyOp52
 70
     0
102
RTVSPropertyOp53
 70
     1
102
RTVSPropertyOp54
 70
     1
102
RTVSPropertyOp55
 70
     1
102
RTVSPropertyOp56
 70
     1
102
RTVSPropertyOp57
 70
     1
102
RTVSPropertyOp58
 70
     1
102
RTVSPropertyOp59
 70
     1
102
RTVSPropertyOp60
 70
     1
102
RTVSPropertyOp61
 70
     1
102
RTVSPropertyOp62
 70
     1
  0
XRECORD
  5
1992
102
{ACAD_REACTORS
330
1991
102
}
330
1991
100
AcDbXrecord
280
     1
102
RTVSPost2010Prop28
280
     0
102
RTVSPost2010PropOp28
 70
     1
102
RTVSPost2010Prop29
280
     1
102
RTVSPost2010PropOp29
 70
     1
102
RTVSPost2010Prop30
280
     1
102
RTVSPost2010PropOp30
 70
     1
102
RTVSPost2010Prop31
280
     0
102
RTVSPost2010PropOp31
 70
     1
102
RTVSPost2010Prop32
280
     0
102
RTVSPost2010PropOp32
 70
     1
102
RTVSPost2010Prop33
280
     0
102
RTVSPost2010PropOp33
 70
     1
102
RTVSPost2010Prop34
280
     0
102
RTVSPost2010PropOp34
 70
     1
102
RTVSPost2010Prop35
280
     0
102
RTVSPost2010PropOp35
 70
     1
102
RTVSPost2010Prop36
280
     0
102
RTVSPost2010PropOp36
 70
     1
102
RTVSPost2010Prop37
 90
       50
102
RTVSPost2010PropOp37
 70
     1
102
RTVSPost2010Prop38
140
0.0
102
RTVSPost2010PropOp38
 70
     1
102
RTVSPost2010Prop39
140
1.0
102
RTVSPost2010PropOp39
 70
     1
102
RTVSPost2010Prop40
 90
        0
102
RTVSPost2010PropOp40
 70
     1
102
RTVSPost2010Prop41ColorIndex
 90
       18
102
RTVSPost2010Prop41ColorRGB
 90
        0
102
RTVSPost2010PropOp41
 70
     1
102
RTVSPost2010Prop42
 90
       50
102
RTVSPost2010PropOp42
 70
     1
102
RTVSPost2010Prop43
 90
        3
102
RTVSPost2010PropOp43
 70
     1
102
RTVSPost2010Prop44ColorIndex
 90
        5
102
RTVSPost2010Prop44ColorRGB
 90
      255
102
RTVSPost2010PropOp44
 70
     1
102
RTVSPost2010Prop45
280
     0
102
RTVSPost2010PropOp45
 70
     1
102
RTVSPost2010Prop46
 90
       50
102
RTVSPost2010PropOp46
 70
     1
102
RTVSPost2010Prop47
 90
       50
102
RTVSPost2010PropOp47
 70
     1
102
RTVSPost2010Prop48
 90
       50
102
RTVSPost2010PropOp48
 70
     1
102
RTVSPost2010Prop49
280
     0
102
RTVSPost2010PropOp49
 70
     1
102
RTVSPost2010Prop50
 90
       50
102
RTVSPost2010PropOp50
 70
     1
102
RTVSPost2010Prop51ColorIndex
 90
      256
102
RTVSPost2010Prop51ColorRGB
 90
-16777216
102
RTVSPost2010PropOp51
 70
     0
102
RTVSPost2010Prop52
140
1.0
102
RTVSPost2010PropOp52
 70
     0
102
RTVSPost2010Prop53
 90
        2
102
RTVSPost2010PropOp53
 70
     1
102
RTVSPost2010Prop54
  1
strokes_ogs.tif
102
RTVSPost2010PropOp54
 70
     1
102
RTVSPost2010Prop55
280
     0
102
RTVSPost2010PropOp55
 70
     1
102
RTVSPost2010Prop56
140
1.0
102
RTVSPost2010PropOp56
 70
     1
102
RTVSPost2010Prop57
140
1.0
102
RTVSPost2010PropOp57
 70
     1
102
RTVSPropertyOp0
 70
     1
102
RTVSPropertyOp1
 70
     1
102
RTVSPropertyOp2
 70
     1
102
RTVSPropertyOp3
 70
     1
102
RTVSPropertyOp4
 70
     1
102
RTVSPropertyOp5
 70
     1
102
RTVSPropertyOp6
 70
     1
102
RTVSPropertyOp7
 70
     1
102
RTVSPropertyOp8
 70
     1
102
RTVSPropertyOp9
 70
     1
102
RTVSPropertyOp10
 70
     1
102
RTVSPropertyOp11
 70
     1
102
RTVSPropertyOp12
 70
     1
102
RTVSPropertyOp13
 70
     1
102
RTVSPropertyOp14
 70
     1
102
RTVSPropertyOp15
 70
     1
102
RTVSPropertyOp16
 70
     1
102
RTVSPropertyOp17
 70
     1
102
RTVSPropertyOp18
 70
     1
102
RTVSPropertyOp19
 70
     1
102
RTVSPropertyOp20
 70
     1
102
RTVSPropertyOp21
 70
     1
102
RTVSPropertyOp22
 70
     1
102
RTVSPropertyOp23
 70
     1
102
RTVSPropertyOp24
 70
     1
102
RTVSPropertyOp25
 70
     1
102
RTVSPropertyOp26
 70
     1
102
RTVSPropertyOp27
 70
     1
102
RTVSPropertyOp28
 70
     1
102
RTVSPropertyOp29
 70
     1
102
RTVSPropertyOp30
 70
     1
102
RTVSPropertyOp31
 70
     1
102
RTVSPropertyOp32
 70
     1
102
RTVSPropertyOp33
 70
     1
102
RTVSPropertyOp34
 70
     1
102
RTVSPropertyOp35
 70
     1
102
RTVSPropertyOp36
 70
     1
102
RTVSPropertyOp37
 70
     1
102
RTVSPropertyOp38
 70
     1
102
RTVSPropertyOp39
 70
     1
102
RTVSPropertyOp40
 70
     1
102
RTVSPropertyOp41
 70
     1
102
RTVSPropertyOp42
 70
     1
102
RTVSPropertyOp43
 70
     1
102
RTVSPropertyOp44
 70
     1
102
RTVSPropertyOp45
 70
     1
102
RTVSPropertyOp46
 70
     1
102
RTVSPropertyOp47
 70
     1
102
RTVSPropertyOp48
 70
     1
102
RTVSPropertyOp49
 70
     1
102
RTVSPropertyOp50
 70
     1
102
RTVSPropertyOp51
 70
     0
102
RTVSPropertyOp52
 70
     0
102
RTVSPropertyOp53
 70
     1
102
RTVSPropertyOp54
 70
     1
102
RTVSPropertyOp55
 70
     1
102
RTVSPropertyOp56
 70
     1
102
RTVSPropertyOp57
 70
     1
102
RTVSPropertyOp58
 70
     1
102
RTVSPropertyOp59
 70
     1
102
RTVSPropertyOp60
 70
     1
102
RTVSPropertyOp61
 70
     1
102
RTVSPropertyOp62
 70
     1
  0
XRECORD
  5
19AA
102
{ACAD_REACTORS
330
19A9
102
}
330
19A9
100
AcDbXrecord
280
     1
102
RTVSPost2010Prop28
280
     0
102
RTVSPost2010PropOp28
 70
     1
102
RTVSPost2010Prop29
280
     1
102
RTVSPost2010PropOp29
 70
     1
102
RTVSPost2010Prop30
280
     1
102
RTVSPost2010PropOp30
 70
     1
102
RTVSPost2010Prop31
280
     0
102
RTVSPost2010PropOp31
 70
     1
102
RTVSPost2010Prop32
280
     0
102
RTVSPost2010PropOp32
 70
     1
102
RTVSPost2010Prop33
280
     0
102
RTVSPost2010PropOp33
 70
     1
102
RTVSPost2010Prop34
280
     0
102
RTVSPost2010PropOp34
 70
     1
102
RTVSPost2010Prop35
280
     0
102
RTVSPost2010PropOp35
 70
     1
102
RTVSPost2010Prop36
280
     0
102
RTVSPost2010PropOp36
 70
     1
102
RTVSPost2010Prop37
 90
       50
102
RTVSPost2010PropOp37
 70
     1
102
RTVSPost2010Prop38
140
0.0
102
RTVSPost2010PropOp38
 70
     1
102
RTVSPost2010Prop39
140
1.0
102
RTVSPost2010PropOp39
 70
     1
102
RTVSPost2010Prop40
 90
        0
102
RTVSPost2010PropOp40
 70
     1
102
RTVSPost2010Prop41ColorIndex
 90
       18
102
RTVSPost2010Prop41ColorRGB
 90
        0
102
RTVSPost2010PropOp41
 70
     1
102
RTVSPost2010Prop42
 90
       50
102
RTVSPost2010PropOp42
 70
     1
102
RTVSPost2010Prop43
 90
        3
102
RTVSPost2010PropOp43
 70
     1
102
RTVSPost2010Prop44ColorIndex
 90
        5
102
RTVSPost2010Prop44ColorRGB
 90
      255
102
RTVSPost2010PropOp44
 70
     1
102
RTVSPost2010Prop45
280
     0
102
RTVSPost2010PropOp45
 70
     1
102
RTVSPost2010Prop46
 90
       50
102
RTVSPost2010PropOp46
 70
     1
102
RTVSPost2010Prop47
 90
       50
102
RTVSPost2010PropOp47
 70
     1
102
RTVSPost2010Prop48
 90
       50
102
RTVSPost2010PropOp48
 70
     1
102
RTVSPost2010Prop49
280
     0
102
RTVSPost2010PropOp49
 70
     1
102
RTVSPost2010Prop50
 90
       50
102
RTVSPost2010PropOp50
 70
     1
102
RTVSPost2010Prop51ColorIndex
 90
      256
102
RTVSPost2010Prop51ColorRGB
 90
-16777216
102
RTVSPost2010PropOp51
 70
     0
102
RTVSPost2010Prop52
140
1.0
102
RTVSPost2010PropOp52
 70
     0
102
RTVSPost2010Prop53
 90
        2
102
RTVSPost2010PropOp53
 70
     1
102
RTVSPost2010Prop54
  1
strokes_ogs.tif
102
RTVSPost2010PropOp54
 70
     1
102
RTVSPost2010Prop55
280
     0
102
RTVSPost2010PropOp55
 70
     1
102
RTVSPost2010Prop56
140
1.0
102
RTVSPost2010PropOp56
 70
     1
102
RTVSPost2010Prop57
140
1.0
102
RTVSPost2010PropOp57
 70
     1
102
RTVSPropertyOp0
 70
     1
102
RTVSPropertyOp1
 70
     1
102
RTVSPropertyOp2
 70
     1
102
RTVSPropertyOp3
 70
     1
102
RTVSPropertyOp4
 70
     1
102
RTVSPropertyOp5
 70
     1
102
RTVSPropertyOp6
 70
     1
102
RTVSPropertyOp7
 70
     1
102
RTVSPropertyOp8
 70
     1
102
RTVSPropertyOp9
 70
     1
102
RTVSPropertyOp10
 70
     1
102
RTVSPropertyOp11
 70
     1
102
RTVSPropertyOp12
 70
     1
102
RTVSPropertyOp13
 70
     1
102
RTVSPropertyOp14
 70
     1
102
RTVSPropertyOp15
 70
     1
102
RTVSPropertyOp16
 70
     1
102
RTVSPropertyOp17
 70
     1
102
RTVSPropertyOp18
 70
     1
102
RTVSPropertyOp19
 70
     1
102
RTVSPropertyOp20
 70
     1
102
RTVSPropertyOp21
 70
     1
102
RTVSPropertyOp22
 70
     1
102
RTVSPropertyOp23
 70
     1
102
RTVSPropertyOp24
 70
     1
102
RTVSPropertyOp25
 70
     1
102
RTVSPropertyOp26
 70
     1
102
RTVSPropertyOp27
 70
     1
102
RTVSPropertyOp28
 70
     1
102
RTVSPropertyOp29
 70
     1
102
RTVSPropertyOp30
 70
     1
102
RTVSPropertyOp31
 70
     1
102
RTVSPropertyOp32
 70
     1
102
RTVSPropertyOp33
 70
     1
102
RTVSPropertyOp34
 70
     1
102
RTVSPropertyOp35
 70
     1
102
RTVSPropertyOp36
 70
     1
102
RTVSPropertyOp37
 70
     1
102
RTVSPropertyOp38
 70
     1
102
RTVSPropertyOp39
 70
     1
102
RTVSPropertyOp40
 70
     1
102
RTVSPropertyOp41
 70
     1
102
RTVSPropertyOp42
 70
     1
102
RTVSPropertyOp43
 70
     1
102
RTVSPropertyOp44
 70
     1
102
RTVSPropertyOp45
 70
     1
102
RTVSPropertyOp46
 70
     1
102
RTVSPropertyOp47
 70
     1
102
RTVSPropertyOp48
 70
     1
102
RTVSPropertyOp49
 70
     1
102
RTVSPropertyOp50
 70
     1
102
RTVSPropertyOp51
 70
     0
102
RTVSPropertyOp52
 70
     0
102
RTVSPropertyOp53
 70
     1
102
RTVSPropertyOp54
 70
     1
102
RTVSPropertyOp55
 70
     1
102
RTVSPropertyOp56
 70
     1
102
RTVSPropertyOp57
 70
     1
102
RTVSPropertyOp58
 70
     1
102
RTVSPropertyOp59
 70
     1
102
RTVSPropertyOp60
 70
     1
102
RTVSPropertyOp61
 70
     1
102
RTVSPropertyOp62
 70
     1
  0
ENDSEC
  0
EOF
