  0
SECTION
  2
HEADER
  9
$ACADVER
  1
AC1015
  9
$ACADMAINTVER
 70
    20
  9
$DWGCODEPAGE
  3
ANSI_932
  9
$INSBASE
 10
0.0
 20
0.0
 30
0.0
  9
$EXTMIN
 10
9.999999064246818
 20
9.999999806846743
 30
0.0
  9
$EXTMAX
 10
848.1465371049296
 20
579.3448184689747
 30
0.0
  9
$LIMMIN
 10
0.0000015376081137
 20
-0.0000001931532552
  9
$LIMMAX
 10
892.000001537608
 20
614.9393937462405
  9
$ORTHOMODE
 70
     0
  9
$REGENMODE
 70
     1
  9
$FILLMODE
 70
     1
  9
$QTEXTMODE
 70
     0
  9
$MIRRTEXT
 70
     1
  9
$LTSCALE
 40
1.0
  9
$ATTMODE
 70
     1
  9
$TEXTSIZE
 40
2.5
  9
$TRACEWID
 40
1.0
  9
$TEXTSTYLE
  7
STANDARD
  9
$CLAYER
  8
0
  9
$CELTYPE
  6
BYLAYER
  9
$CECOLOR
 62
   256
  9
$CELTSCALE
 40
1.0
  9
$DISPSILH
 70
     0
  9
$DIMSCALE
 40
1.0
  9
$DIMASZ
 40
3.0
  9
$DIMEXO
 40
1.0
  9
$DIMDLI
 40
10.0
  9
$DIMRND
 40
0.0
  9
$DIMDLE
 40
0.0
  9
$DIMEXE
 40
1.0
  9
$DIMTP
 40
0.0
  9
$DIMTM
 40
0.0
  9
$DIMTXT
 40
3.2
  9
$DIMCEN
 40
0.0
  9
$DIMTSZ
 40
0.0
  9
$DIMTOL
 70
     0
  9
$DIMLIM
 70
     0
  9
$DIMTIH
 70
     0
  9
$DIMTOH
 70
     0
  9
$DIMSE1
 70
     0
  9
$DIMSE2
 70
     0
  9
$DIMTAD
 70
     3
  9
$DIMZIN
 70
     8
  9
$DIMBLK
  1

  9
$DIMASO
 70
     1
  9
$DIMSHO
 70
     1
  9
$DIMPOST
  1

  9
$DIMAPOST
  1

  9
$DIMALT
 70
     0
  9
$DIMALTD
 70
     2
  9
$DIMALTF
 40
25.4
  9
$DIMLFAC
 40
1.0
  9
$DIMTOFL
 70
     1
  9
$DIMTVP
 40
0.0
  9
$DIMTIX
 70
     0
  9
$DIMSOXD
 70
     0
  9
$DIMSAH
 70
     1
  9
$DIMBLK1
  1
OPEN
  9
$DIMBLK2
  1
OPEN
  9
$DIMSTYLE
  2
STANDARD
  9
$DIMCLRD
 70
     0
  9
$DIMCLRE
 70
     0
  9
$DIMCLRT
 70
     0
  9
$DIMTFAC
 40
1.0
  9
$DIMGAP
 40
1.0
  9
$DIMJUST
 70
     0
  9
$DIMSD1
 70
     0
  9
$DIMSD2
 70
     0
  9
$DIMTOLJ
 70
     1
  9
$DIMTZIN
 70
     0
  9
$DIMALTZ
 70
     0
  9
$DIMALTTZ
 70
     0
  9
$DIMUPT
 70
     0
  9
$DIMDEC
 70
     4
  9
$DIMTDEC
 70
     4
  9
$DIMALTU
 70
     2
  9
$DIMALTTD
 70
     2
  9
$DIMTXSTY
  7
STANDARD
  9
$DIMAUNIT
 70
     0
  9
$DIMADEC
 70
     0
  9
$DIMALTRND
 40
0.0
  9
$DIMAZIN
 70
     0
  9
$DIMDSEP
 70
    46
  9
$DIMATFIT
 70
     3
  9
$DIMFRAC
 70
     0
  9
$DIMLDRBLK
  1
OPEN
  9
$DIMLUNIT
 70
     2
  9
$DIMLWD
 70
    -2
  9
$DIMLWE
 70
    -2
  9
$DIMTMOVE
 70
     0
  9
$LUNITS
 70
     2
  9
$LUPREC
 70
     4
  9
$SKETCHINC
 40
1.0
  9
$FILLETRAD
 40
0.0
  9
$AUNITS
 70
     0
  9
$AUPREC
 70
     0
  9
$MENU
  1
.
  9
$ELEVATION
 40
0.0
  9
$PELEVATION
 40
0.0
  9
$THICKNESS
 40
0.0
  9
$LIMCHECK
 70
     0
  9
$CHAMFERA
 40
10.0
  9
$CHAMFERB
 40
10.0
  9
$CHAMFERC
 40
20.0
  9
$CHAMFERD
 40
0.0
  9
$SKPOLY
 70
     0
  9
$TDCREATE
 40
2453249.476028276
  9
$TDUCREATE
 40
2453249.101028276
  9
$TDUPDATE
 40
2457192.689555544
  9
$TDUUPDATE
 40
2457192.314555544
  9
$TDINDWG
 40
0.2753545718
  9
$TDUSRTIMER
 40
0.2753543866
  9
$USRTIMER
 70
     1
  9
$ANGBASE
 50
0.0
  9
$ANGDIR
 70
     0
  9
$PDMODE
 70
     0
  9
$PDSIZE
 40
0.0
  9
$PLINEWID
 40
0.0
  9
$SPLFRAME
 70
     0
  9
$SPLINETYPE
 70
     6
  9
$SPLINESEGS
 70
     8
  9
$HANDSEED
  5
11EC
  9
$SURFTAB1
 70
     6
  9
$SURFTAB2
 70
     6
  9
$SURFTYPE
 70
     6
  9
$SURFU
 70
     6
  9
$SURFV
 70
     6
  9
$UCSBASE
  2

  9
$UCSNAME
  2

  9
$UCSORG
 10
0.0
 20
0.0
 30
0.0
  9
$UCSXDIR
 10
1.0
 20
0.0
 30
0.0
  9
$UCSYDIR
 10
0.0
 20
1.0
 30
0.0
  9
$UCSORTHOREF
  2

  9
$UCSORTHOVIEW
 70
     0
  9
$UCSORGTOP
 10
0.0
 20
0.0
 30
0.0
  9
$UCSORGBOTTOM
 10
0.0
 20
0.0
 30
0.0
  9
$UCSORGLEFT
 10
0.0
 20
0.0
 30
0.0
  9
$UCSORGRIGHT
 10
0.0
 20
0.0
 30
0.0
  9
$UCSORGFRONT
 10
0.0
 20
0.0
 30
0.0
  9
$UCSORGBACK
 10
0.0
 20
0.0
 30
0.0
  9
$PUCSBASE
  2

  9
$PUCSNAME
  2

  9
$PUCSORG
 10
0.0
 20
0.0
 30
0.0
  9
$PUCSXDIR
 10
1.0
 20
0.0
 30
0.0
  9
$PUCSYDIR
 10
0.0
 20
1.0
 30
0.0
  9
$PUCSORTHOREF
  2

  9
$PUCSORTHOVIEW
 70
     0
  9
$PUCSORGTOP
 10
0.0
 20
0.0
 30
0.0
  9
$PUCSORGBOTTOM
 10
0.0
 20
0.0
 30
0.0
  9
$PUCSORGLEFT
 10
0.0
 20
0.0
 30
0.0
  9
$PUCSORGRIGHT
 10
0.0
 20
0.0
 30
0.0
  9
$PUCSORGFRONT
 10
0.0
 20
0.0
 30
0.0
  9
$PUCSORGBACK
 10
0.0
 20
0.0
 30
0.0
  9
$USERI1
 70
     0
  9
$USERI2
 70
     0
  9
$USERI3
 70
     0
  9
$USERI4
 70
     0
  9
$USERI5
 70
     0
  9
$USERR1
 40
0.0
  9
$USERR2
 40
0.0
  9
$USERR3
 40
0.0
  9
$USERR4
 40
0.0
  9
$USERR5
 40
0.0
  9
$WORLDVIEW
 70
     1
  9
$SHADEDGE
 70
     3
  9
$SHADEDIF
 70
    70
  9
$TILEMODE
 70
     1
  9
$MAXACTVP
 70
    48
  9
$PINSBASE
 10
0.0
 20
0.0
 30
0.0
  9
$PLIMCHECK
 70
     0
  9
$PEXTMIN
 10
1.000000000000000E+20
 20
1.000000000000000E+20
 30
1.000000000000000E+20
  9
$PEXTMAX
 10
-1.000000000000000E+20
 20
-1.000000000000000E+20
 30
-1.000000000000000E+20
  9
$PLIMMIN
 10
0.0
 20
0.0
  9
$PLIMMAX
 10
420.0
 20
297.0
  9
$UNITMODE
 70
     0
  9
$VISRETAIN
 70
     1
  9
$PLINEGEN
 70
     0
  9
$PSLTSCALE
 70
     1
  9
$TREEDEPTH
 70
  3020
  9
$CMLSTYLE
  2
STANDARD
  9
$CMLJUST
 70
     0
  9
$CMLSCALE
 40
20.0
  9
$PROXYGRAPHICS
 70
     1
  9
$MEASUREMENT
 70
     0
  9
$CELWEIGHT
370
    -1
  9
$ENDCAPS
280
     0
  9
$JOINSTYLE
280
     0
  9
$LWDISPLAY
290
     0
  9
$INSUNITS
 70
     0
  9
$HYPERLINKBASE
  1

  9
$STYLESHEET
  1

  9
$XEDIT
290
     1
  9
$CEPSNTYPE
380
     0
  9
$PSTYLEMODE
290
     1
  9
$FINGERPRINTGUID
  2
{8A53254D-132F-4222-8C9D-C87DD5D5A74F}
  9
$VERSIONGUID
  2
{6B1FDBC2-7762-4E8B-A96E-738B35AA9B09}
  9
$EXTNAMES
290
     1
  9
$PSVPSCALE
 40
0.0
  9
$OLESTARTUP
290
     0
  0
ENDSEC
  0
SECTION
  2
CLASSES
  0
CLASS
  1
ACDBDICTIONARYWDFLT
  2
AcDbDictionaryWithDefault
  3
ObjectDBX Classes
 90
        0
280
     0
281
     0
  0
CLASS
  1
ACDBPLACEHOLDER
  2
AcDbPlaceHolder
  3
ObjectDBX Classes
 90
        0
280
     0
281
     0
  0
CLASS
  1
LAYOUT
  2
AcDbLayout
  3
ObjectDBX Classes
 90
        0
280
     0
281
     0
  0
CLASS
  1
DICTIONARYVAR
  2
AcDbDictionaryVar
  3
ObjectDBX Classes
 90
        0
280
     0
281
     0
  0
CLASS
  1
MATERIAL
  2
AcDbMaterial
  3
ObjectDBX Classes
 90
     1153
280
     0
281
     0
  0
CLASS
  1
VISUALSTYLE
  2
AcDbVisualStyle
  3
ObjectDBX Classes
 90
     4095
280
     0
281
     0
  0
CLASS
  1
TABLESTYLE
  2
AcDbTableStyle
  3
ObjectDBX Classes
 90
     4095
280
     0
281
     0
  0
CLASS
  1
SCALE
  2
AcDbScale
  3
ObjectDBX Classes
 90
     1153
280
     0
281
     0
  0
CLASS
  1
MLEADERSTYLE
  2
AcDbMLeaderStyle
  3
ACDB_MLEADERSTYLE_CLASS
 90
     4095
280
     0
281
     0
  0
CLASS
  1
ACDBSECTIONVIEWSTYLE
  2
AcDbSectionViewStyle
  3
ObjectDBX Classes
 90
     1025
280
     0
281
     0
  0
CLASS
  1
ACDBDETAILVIEWSTYLE
  2
AcDbDetailViewStyle
  3
ObjectDBX Classes
 90
     1025
280
     0
281
     0
  0
CLASS
  1
CELLSTYLEMAP
  2
AcDbCellStyleMap
  3
ObjectDBX Classes
 90
     1152
280
     0
281
     0
  0
ENDSEC
  0
SECTION
  2
TABLES
  0
TABLE
  2
VPORT
  5
8
330
0
100
AcDbSymbolTable
 70
     1
  0
VPORT
  5
1138
330
8
100
AcDbSymbolTableRecord
100
AcDbViewportTableRecord
  2
*ACTIVE
 70
     0
 10
0.0
 20
0.0
 11
1.0
 21
1.0
 12
648.2401937940527
 22
294.6615885631624
 13
0.0
 23
0.0
 14
10.0
 24
10.0
 15
10.0
 25
10.0
 16
0.0
 26
0.0
 36
1.0
 17
0.0
 27
0.0
 37
0.0
 40
573.8694878489207
 41
2.35006605019815
 42
50.0
 43
0.0
 44
0.0
 50
0.0
 51
0.0
 71
     0
 72
   100
 73
     1
 74
     0
 75
     0
 76
     0
 77
     0
 78
     0
281
     0
 65
     1
110
0.0
120
0.0
130
0.0
111
1.0
121
0.0
131
0.0
112
0.0
122
1.0
132
0.0
 79
     0
146
0.0
1001
ACAD_NAV_VCDISPLAY
1070
     3
  0
ENDTAB
  0
TABLE
  2
LTYPE
  5
5
330
0
100
AcDbSymbolTable
 70
     4
  0
LTYPE
  5
12
330
5
100
AcDbSymbolTableRecord
100
AcDbLinetypeTableRecord
  2
BYBLOCK
 70
     0
  3

 72
    65
 73
     0
 40
0.0
  0
LTYPE
  5
13
330
5
100
AcDbSymbolTableRecord
100
AcDbLinetypeTableRecord
  2
BYLAYER
 70
     0
  3

 72
    65
 73
     0
 40
0.0
  0
LTYPE
  5
14
330
5
100
AcDbSymbolTableRecord
100
AcDbLinetypeTableRecord
  2
CONTINUOUS
 70
     0
  3
Solid line
 72
    65
 73
     0
 40
0.0
  0
LTYPE
  5
62
330
5
100
AcDbSymbolTableRecord
100
AcDbLinetypeTableRecord
  2
DASHED
 70
     0
  3
Dashed __ __ __ __ __ __ __ __ __ __ __ __ __ _
 72
    65
 73
     2
 40
19.04999999999998
 49
12.7
 74
     0
 49
-6.349999999999997
 74
     0
  0
LTYPE
  5
63
330
5
100
AcDbSymbolTableRecord
100
AcDbLinetypeTableRecord
  2
CENTER
 70
     0
  3
Center ____ _ ____ _ ____ _ ____ _ ____ _ ____
 72
    65
 73
     4
 40
50.8
 49
31.75
 74
     0
 49
-6.349999999999997
 74
     0
 49
6.349999999999997
 74
     0
 49
-6.349999999999997
 74
     0
  0
LTYPE
  5
64
330
5
100
AcDbSymbolTableRecord
100
AcDbLinetypeTableRecord
  2
PHANTOM
 70
     0
  3
Phantom ______  __  __  ______  __  __  ______
 72
    65
 73
     6
 40
63.5
 49
31.75
 74
     0
 49
-6.349999999999997
 74
     0
 49
6.349999999999997
 74
     0
 49
-6.349999999999997
 74
     0
 49
6.349999999999997
 74
     0
 49
-6.349999999999997
 74
     0
  0
ENDTAB
  0
TABLE
  2
LAYER
  5
2
330
0
100
AcDbSymbolTable
 70
     8
  0
LAYER
  5
E
102
{ACAD_XDICTIONARY
360
1190
102
}
330
2
100
AcDbSymbolTableRecord
100
AcDbLayerTableRecord
  2
0
 70
     0
 62
     7
  6
CONTINUOUS
370
    -3
390
113F
  0
LAYER
  5
65
102
{ACAD_XDICTIONARY
360
1192
102
}
330
2
100
AcDbSymbolTableRecord
100
AcDbLayerTableRecord
  2
4
 70
     0
 62
     1
  6
CENTER
370
    -3
390
113F
  0
LAYER
  5
66
102
{ACAD_XDICTIONARY
360
1194
102
}
330
2
100
AcDbSymbolTableRecord
100
AcDbLayerTableRecord
  2
5
 70
     0
 62
     6
  6
PHANTOM
370
    -3
390
113F
  0
LAYER
  5
67
102
{ACAD_XDICTIONARY
360
1196
102
}
330
2
100
AcDbSymbolTableRecord
100
AcDbLayerTableRecord
  2
1
 70
     0
 62
     7
  6
CONTINUOUS
370
    -3
390
113F
  0
LAYER
  5
68
102
{ACAD_XDICTIONARY
360
1198
102
}
330
2
100
AcDbSymbolTableRecord
100
AcDbLayerTableRecord
  2
2
 70
     0
 62
     4
  6
CONTINUOUS
370
    -3
390
113F
  0
LAYER
  5
69
102
{ACAD_XDICTIONARY
360
119A
102
}
330
2
100
AcDbSymbolTableRecord
100
AcDbLayerTableRecord
  2
3
 70
     0
 62
     2
  6
DASHED
370
    -3
390
113F
  0
LAYER
  5
6A
102
{ACAD_XDICTIONARY
360
119C
102
}
330
2
100
AcDbSymbolTableRecord
100
AcDbLayerTableRecord
  2
6
 70
     0
 62
     5
  6
CONTINUOUS
370
    -3
390
113F
  0
LAYER
  5
6B
102
{ACAD_XDICTIONARY
360
119E
102
}
330
2
100
AcDbSymbolTableRecord
100
AcDbLayerTableRecord
  2
7
 70
     0
 62
     3
  6
CONTINUOUS
370
    -3
390
113F
  0
ENDTAB
  0
TABLE
  2
STYLE
  5
3
330
0
100
AcDbSymbolTable
 70
     1
  0
STYLE
  5
F
330
3
100
AcDbSymbolTableRecord
100
AcDbTextStyleTableRecord
  2
STANDARD
 70
     0
 40
0.0
 41
1.0
 50
0.0
 71
     0
 42
2.5
  3
simplex.shx
  4

  0
ENDTAB
  0
TABLE
  2
VIEW
  5
6
330
0
100
AcDbSymbolTable
 70
     0
  0
ENDTAB
  0
TABLE
  2
UCS
  5
7
330
0
100
AcDbSymbolTable
 70
     0
  0
ENDTAB
  0
TABLE
  2
APPID
  5
9
330
0
100
AcDbSymbolTable
 70
     5
  0
APPID
  5
10
330
9
100
AcDbSymbolTableRecord
100
AcDbRegAppTableRecord
  2
ACAD
 70
     0
  0
APPID
  5
3E
330
9
100
AcDbSymbolTableRecord
100
AcDbRegAppTableRecord
  2
CONTENTTABDATA
 70
     0
  0
APPID
  5
3F
330
9
100
AcDbSymbolTableRecord
100
AcDbRegAppTableRecord
  2
CONTENTCURRENTTAB
 70
     0
  0
APPID
  5
11AA
330
9
100
AcDbSymbolTableRecord
100
AcDbRegAppTableRecord
  2
ACAD_NAV_VCDISPLAY
 70
     0
  0
APPID
  5
11E3
330
9
100
AcDbSymbolTableRecord
100
AcDbRegAppTableRecord
  2
ACAD_MLEADERVER
 70
     0
  0
ENDTAB
  0
TABLE
  2
DIMSTYLE
  5
A
330
0
100
AcDbSymbolTable
 70
     1
100
AcDbDimStyleTable
 71
     0
  0
DIMSTYLE
105
1D
330
A
100
AcDbSymbolTableRecord
100
AcDbDimStyleTableRecord
  2
STANDARD
 70
     0
 41
3.0
 42
1.0
 43
10.0
 44
1.0
 73
     0
 74
     0
 77
     3
 78
     8
140
3.2
141
0.0
147
1.0
172
     1
173
     1
340
F
341
2E
343
2E
344
2E
  0
ENDTAB
  0
TABLE
  2
BLOCK_RECORD
  5
1
330
0
100
AcDbSymbolTable
 70
     1
  0
BLOCK_RECORD
  5
18
102
{ACAD_XDICTIONARY
360
1122
102
}
330
1
100
AcDbSymbolTableRecord
100
AcDbBlockTableRecord
  2
*MODEL_SPACE
340
118D
  0
BLOCK_RECORD
  5
15
102
{ACAD_XDICTIONARY
360
1120
102
}
330
1
100
AcDbSymbolTableRecord
100
AcDbBlockTableRecord
  2
*PAPER_SPACE
340
118E
  0
BLOCK_RECORD
  5
2E
330
1
100
AcDbSymbolTableRecord
100
AcDbBlockTableRecord
  2
_OPEN
340
0
  0
ENDTAB
  0
ENDSEC
  0
SECTION
  2
BLOCKS
  0
BLOCK
  5
19
330
18
100
AcDbEntity
  8
0
100
AcDbBlockBegin
  2
*MODEL_SPACE
 70
     0
 10
0.0
 20
0.0
 30
0.0
  3
*MODEL_SPACE
  1

  0
ENDBLK
  5
1A
330
18
100
AcDbEntity
  8
0
100
AcDbBlockEnd
  0
BLOCK
  5
16
330
15
100
AcDbEntity
 67
     1
  8
0
100
AcDbBlockBegin
  2
*PAPER_SPACE
 70
     0
 10
0.0
 20
0.0
 30
0.0
  3
*PAPER_SPACE
  1

  0
ENDBLK
  5
17
330
15
100
AcDbEntity
 67
     1
  8
0
100
AcDbBlockEnd
  0
BLOCK
  5
2F
330
2E
100
AcDbEntity
  8
0
100
AcDbBlockBegin
  2
_OPEN
 70
     0
 10
0.0
 20
0.0
 30
0.0
  3
_OPEN
  1

  0
LINE
  5
30
330
2E
100
AcDbEntity
  8
0
  6
ByBlock
 62
     0
100
AcDbLine
 10
-1.0
 20
0.1666666666666666
 30
0.0
 11
0.0
 21
0.0
 31
0.0
  0
LINE
  5
31
330
2E
100
AcDbEntity
  8
0
  6
ByBlock
 62
     0
100
AcDbLine
 10
0.0
 20
0.0
 30
0.0
 11
-1.0
 21
-0.1666666666666666
 31
0.0
  0
LINE
  5
32
330
2E
100
AcDbEntity
  8
0
  6
ByBlock
 62
     0
100
AcDbLine
 10
0.0
 20
0.0
 30
0.0
 11
-1.0
 21
0.0
 31
0.0
  0
ENDBLK
  5
33
330
2E
100
AcDbEntity
  8
0
100
AcDbBlockEnd
  0
ENDSEC
  0
SECTION
  2
ENTITIES
  0
LINE
  5
19E
330
18
100
AcDbEntity
  8
1
  6
Continuous
100
AcDbLine
 10
293.9682983397828
 20
548.3448184689746
 30
0.0
 11
348.1912063397828
 21
548.3448184689746
 31
0.0
  0
LINE
  5
19F
330
18
100
AcDbEntity
  8
1
  6
Continuous
100
AcDbLine
 10
293.9682983397828
 20
508.3448184689748
 30
0.0
 11
348.1912063397828
 21
508.3448184689748
 31
0.0
  0
LINE
  5
1A0
330
18
100
AcDbEntity
  8
4
  6
CENTER
100
AcDbLine
 10
241.0797523397829
 20
528.3448184689748
 30
0.0
 11
401.079748339783
 21
528.3448184689748
 31
0.0
  0
LINE
  5
1A1
330
18
100
AcDbEntity
  8
1
  6
Continuous
100
AcDbLine
 10
341.4609248322581
 20
559.8448184689748
 30
0.0
 11
300.6985758473076
 21
559.8448184689748
 31
0.0
  0
LINE
  5
1A2
330
18
100
AcDbEntity
  8
1
  6
Continuous
100
AcDbLine
 10
341.4609248322581
 20
496.8448184689748
 30
0.0
 11
300.6985758473076
 21
496.8448184689748
 31
0.0
  0
LINE
  5
1A3
330
18
100
AcDbEntity
  8
1
  6
Continuous
100
AcDbLine
 10
251.0797523397829
 20
393.7612495004097
 30
0.0
 11
391.079748339783
 21
393.7612675004102
 31
0.0
  0
ARC
  5
1A4
330
18
100
AcDbEntity
  8
1
  6
Continuous
100
AcDbCircle
 10
321.0797523397828
 20
278.7612495004101
 30
0.0
 40
19.0
100
AcDbArc
 50
196.3123579999999
 51
270.0000179999999
  0
ARC
  5
1A5
330
18
100
AcDbEntity
  8
1
  6
Continuous
100
AcDbCircle
 10
321.0797523397828
 20
278.7612495004101
 30
0.0
 40
75.0
100
AcDbArc
 50
120.9872260000004
 51
59.01277100000022
  0
ARC
  5
1A6
330
18
100
AcDbEntity
  8
1
  6
Continuous
100
AcDbCircle
 10
321.0797523397828
 20
278.7612495004101
 30
0.0
 40
57.0
100
AcDbArc
 50
125.7835960000002
 51
54.21640000000017
  0
ARC
  5
1A7
330
18
100
AcDbEntity
  8
1
  6
Continuous
100
AcDbCircle
 10
321.0797523397828
 20
278.7612495004101
 30
0.0
 40
48.0
100
AcDbArc
 50
129.6303329999997
 51
50.36966199999993
  0
LINE
  5
1A8
330
18
100
AcDbEntity
  8
4
  6
CENTER
100
AcDbLine
 10
241.0797523397829
 20
278.7612495004101
 30
0.0
 11
401.079748339783
 21
278.7612495004101
 31
0.0
  0
LINE
  5
1A9
330
18
100
AcDbEntity
  8
1
  6
Continuous
100
AcDbLine
 10
272.9772943397831
 20
375.4810395004101
 30
0.0
 11
302.8446043397829
 21
273.42464350041
 31
0.0
  0
ARC
  5
1AA
330
18
100
AcDbEntity
  8
1
  6
Continuous
100
AcDbCircle
 10
267.079775339783
 20
388.26124950041
 30
0.0
 40
4.0
100
AcDbArc
 50
179.999981
 51
243.4295710000005
  0
LINE
  5
1AB
330
18
100
AcDbEntity
  8
4
  6
CENTER
100
AcDbLine
 10
265.079752339783
 20
399.3941463760475
 30
0.0
 11
265.079752339783
 21
384.3941536234452
 31
0.0
  0
LINE
  5
1AC
330
18
100
AcDbEntity
  8
4
  6
CENTER
100
AcDbLine
 10
271.0797523397828
 20
399.3941463760475
 30
0.0
 11
271.0797523397828
 21
384.3941536234452
 31
0.0
  0
LINE
  5
1AD
330
18
100
AcDbEntity
  8
1
  6
Continuous
100
AcDbLine
 10
292.0130863397829
 20
316.2945825004101
 30
0.0
 11
292.0130863397829
 21
386.6945835004099
 31
0.0
  0
LINE
  5
1AE
330
18
100
AcDbEntity
  8
1
  6
Continuous
100
AcDbLine
 10
141.0463599572094
 20
389.2612485004099
 30
0.0
 11
141.0463599572094
 21
374.2521635004102
 31
0.0
  0
ARC
  5
1AF
330
18
100
AcDbEntity
  8
1
  6
Continuous
100
AcDbCircle
 10
147.0463599572094
 20
384.8068915004101
 30
0.0
 40
6.0
100
AcDbArc
 50
114.6242889999998
 51
179.9999639999999
  0
LINE
  5
1B0
330
18
100
AcDbEntity
  8
1
  6
Continuous
100
AcDbLine
 10
144.5463599572095
 20
393.7612495004097
 30
0.0
 11
144.5463599572095
 21
382.50751150041
 31
0.0
  0
LINE
  5
1B1
330
18
100
AcDbEntity
  8
4
  6
CENTER
100
AcDbLine
 10
125.5463599572094
 20
399.3941438046189
 30
0.0
 11
125.5463599572094
 21
384.3941510520167
 31
0.0
  0
LINE
  5
1B2
330
18
100
AcDbEntity
  8
4
  6
CENTER
100
AcDbLine
 10
124.0463599572095
 20
399.3941438046189
 30
0.0
 11
124.0463599572095
 21
384.3941510520167
 31
0.0
  0
LINE
  5
1B3
330
18
100
AcDbEntity
  8
4
  6
CENTER
100
AcDbLine
 10
71.04635995720958
 20
399.3941438046189
 30
0.0
 11
71.04635995720958
 21
384.3941510520167
 31
0.0
  0
LINE
  5
1B4
330
18
100
AcDbEntity
  8
4
  6
CENTER
100
AcDbLine
 10
69.54635995720957
 20
399.3941438046189
 30
0.0
 11
69.54635995720957
 21
384.3941510520167
 31
0.0
  0
LINE
  5
1B5
330
18
100
AcDbEntity
  8
1
  6
Continuous
100
AcDbLine
 10
54.04635995720957
 20
389.2612485004099
 30
0.0
 11
54.04635995720957
 21
374.2521635004102
 31
0.0
  0
ARC
  5
1B6
330
18
100
AcDbEntity
  8
1
  6
Continuous
100
AcDbCircle
 10
48.04635995720957
 20
384.8068915004101
 30
0.0
 40
6.0
100
AcDbArc
 50
0.0
 51
65.3756819999999
  0
LINE
  5
1B7
330
18
100
AcDbEntity
  8
1
  6
Continuous
100
AcDbLine
 10
50.54635995720957
 20
393.7612495004097
 30
0.0
 11
50.54635995720957
 21
382.50751150041
 31
0.0
  0
LINE
  5
1B8
330
18
100
AcDbEntity
  8
1
  6
Continuous
100
AcDbLine
 10
125.5463599572094
 20
389.2612485004099
 30
0.0
 11
125.5463599572094
 21
259.76123450041
 31
0.0
  0
LINE
  5
1B9
330
18
100
AcDbEntity
  8
1
  6
Continuous
100
AcDbLine
 10
69.54635995720957
 20
389.2612485004099
 30
0.0
 11
69.54635995720957
 21
259.76123450041
 31
0.0
  0
LINE
  5
1BA
330
18
100
AcDbEntity
  8
4
  6
CENTER
100
AcDbLine
 10
97.5463599572096
 20
403.76124950041
 30
0.0
 11
97.5463599572096
 21
197.49458750041
 31
0.0
  0
LINE
  5
1BB
330
18
100
AcDbEntity
  8
1
  6
Continuous
100
AcDbLine
 10
117.5463599572095
 20
298.1130745004098
 30
0.0
 11
123.1098399572095
 21
297.75921650041
 31
0.0
  0
LINE
  5
1BC
330
18
100
AcDbEntity
  8
1
  6
Continuous
100
AcDbLine
 10
117.5463599572095
 20
259.4093955004101
 30
0.0
 11
123.1098399572095
 21
259.7632525004098
 31
0.0
  0
LINE
  5
1BD
330
18
100
AcDbEntity
  8
4
  6
CENTER
100
AcDbLine
 10
46.54635995720968
 20
278.76123450041
 30
0.0
 11
140.0463599572094
 21
278.76123450041
 31
0.0
  0
LINE
  5
1BE
330
18
100
AcDbEntity
  8
1
  6
Continuous
100
AcDbLine
 10
110.7460519572095
 20
205.53501550041
 30
0.0
 11
110.7460519572095
 21
351.98745250041
 31
0.0
  0
LINE
  5
1BF
330
18
100
AcDbEntity
  8
1
  6
Continuous
100
AcDbLine
 10
107.8657569572095
 20
204.83772650041
 30
0.0
 11
107.8657569572095
 21
352.6847505004101
 31
0.0
  0
LINE
  5
1C0
330
18
100
AcDbEntity
  8
1
  6
Continuous
100
AcDbLine
 10
103.9207799572095
 20
204.16923150041
 30
0.0
 11
103.9207799572095
 21
353.3532375004102
 31
0.0
  0
LINE
  5
1C1
330
18
100
AcDbEntity
  8
1
  6
Continuous
100
AcDbLine
 10
100.9715609572094
 20
203.8786965004101
 30
0.0
 11
100.9715609572094
 21
353.64378050041
 31
0.0
  0
LINE
  5
1C2
330
18
100
AcDbEntity
  8
1
  6
Continuous
100
AcDbLine
 10
94.12116595720958
 20
203.87868950041
 30
0.0
 11
94.12116595720958
 21
353.64377950041
 31
0.0
  0
LINE
  5
1C3
330
18
100
AcDbEntity
  8
1
  6
Continuous
100
AcDbLine
 10
91.17194695720957
 20
204.16923150041
 30
0.0
 11
91.17194695720957
 21
353.3532375004102
 31
0.0
  0
LINE
  5
1C4
330
18
100
AcDbEntity
  8
1
  6
Continuous
100
AcDbLine
 10
87.22697795720955
 20
204.83771950041
 30
0.0
 11
87.22697795720955
 21
352.6847505004101
 31
0.0
  0
LINE
  5
1C5
330
18
100
AcDbEntity
  8
1
  6
Continuous
100
AcDbLine
 10
84.34668295720962
 20
205.53501550041
 30
0.0
 11
84.34668295720962
 21
351.98745750041
 31
0.0
  0
LINE
  5
1C6
330
18
100
AcDbEntity
  8
1
  6
Continuous
100
AcDbLine
 10
117.5463599572095
 20
346.18764150041
 30
0.0
 11
117.5463599572095
 21
211.3348275004101
 31
0.0
  0
LINE
  5
1C7
330
18
100
AcDbEntity
  8
1
  6
Continuous
100
AcDbLine
 10
77.54635995720956
 20
346.18764150041
 30
0.0
 11
77.54635995720956
 21
211.3348275004101
 31
0.0
  0
TEXT
  5
1C8
330
18
100
AcDbEntity
  8
2
  6
Continuous
 48
0.25
100
AcDbText
 10
19.97951006424682
 20
9.999999806846743
 30
0.0
 40
1.399999999999999
  1
2
100
AcDbText
  0
TEXT
  5
1C9
330
18
100
AcDbEntity
  8
7
  6
Continuous
 48
0.25
100
AcDbText
 10
9.99999906424682
 20
18.00000056761564
 30
0.0
 40
3.0
  1
TYPE No.TCA-320SR-RU150
100
AcDbText
  0
TEXT
  5
1CA
330
18
100
AcDbEntity
  8
7
  6
Continuous
 48
0.25
100
AcDbText
 10
9.99999906424682
 20
26.00000056761564
 30
0.0
 40
3.0
  1
CODE No.19175
100
AcDbText
  0
TEXT
  5
1CB
330
18
100
AcDbEntity
  8
1
  6
Continuous
 48
0.25
100
AcDbText
 10
9.99999906424682
 20
10.00000056761564
 30
0.0
 40
1.399999999999999
  1
LAYER
100
AcDbText
  0
TEXT
  5
1CC
330
18
100
AcDbEntity
  8
1
  6
Continuous
 48
0.25
100
AcDbText
 10
17.97951006424682
 20
9.999999806846743
 30
0.0
 40
1.399999999999999
  1
1
100
AcDbText
  0
TEXT
  5
1CD
330
18
100
AcDbEntity
  8
5
  6
PHANTOM
 48
0.25
100
AcDbText
 10
25.97951006424682
 20
9.999999806846743
 30
0.0
 40
1.399999999999999
  1
5
100
AcDbText
  0
TEXT
  5
1CE
330
18
100
AcDbEntity
  8
3
  6
DASHED
 48
0.25
100
AcDbText
 10
21.97951006424682
 20
9.999999806846743
 30
0.0
 40
1.399999999999999
  1
3
100
AcDbText
  0
TEXT
  5
1CF
330
18
100
AcDbEntity
  8
4
  6
CENTER
 48
0.25
100
AcDbText
 10
23.97951006424682
 20
9.999999806846743
 30
0.0
 40
1.399999999999999
  1
4
100
AcDbText
  0
TEXT
  5
1D0
330
18
100
AcDbEntity
  8
7
  6
Continuous
 48
0.25
100
AcDbText
 10
29.97951006424682
 20
9.999999806846743
 30
0.0
 40
1.399999999999999
  1
7
100
AcDbText
  0
TEXT
  5
1D1
330
18
100
AcDbEntity
  8
6
  6
Continuous
 48
0.25
100
AcDbText
 10
27.97951006424682
 20
9.999999806846743
 30
0.0
 40
1.399999999999999
  1
6
100
AcDbText
  0
ARC
  5
1D2
330
18
100
AcDbEntity
  8
1
  6
Continuous
100
AcDbCircle
 10
85.54635995720955
 20
204.19310450041
 30
0.0
 40
1.8
100
AcDbArc
 50
20.98475599999996
 51
131.7973790000001
  0
ARC
  5
1D3
330
18
100
AcDbEntity
  8
1
  6
Continuous
100
AcDbCircle
 10
109.5463599572094
 20
204.19310450041
 30
0.0
 40
1.8
100
AcDbArc
 50
48.20264600000006
 51
159.0152600000001
  0
ARC
  5
1D4
330
18
100
AcDbEntity
  8
1
  6
Continuous
100
AcDbCircle
 10
97.5463599572096
 20
253.76123450041
 30
0.0
 40
50.0
100
AcDbArc
 50
266.0719080000002
 51
273.9280729999995
  0
ARC
  5
1D5
330
18
100
AcDbEntity
  8
1
  6
Continuous
100
AcDbCircle
 10
97.5463599572096
 20
253.76123450041
 30
0.0
 40
50.0
100
AcDbArc
 50
258.0892200000003
 51
262.675514
  0
ARC
  5
1D6
330
18
100
AcDbEntity
  8
1
  6
Continuous
100
AcDbCircle
 10
92.54635995720958
 20
203.0069245004101
 30
0.0
 40
1.8
100
AcDbArc
 50
28.96755600000009
 51
139.7798489999999
  0
ARC
  5
1D7
330
18
100
AcDbEntity
  8
1
  6
Continuous
100
AcDbCircle
 10
102.5463599572094
 20
203.0069245004101
 30
0.0
 40
1.8
100
AcDbArc
 50
40.22016300000011
 51
151.032462
  0
ARC
  5
1D8
330
18
100
AcDbEntity
  8
1
  6
Continuous
100
AcDbCircle
 10
97.5463599572096
 20
253.76123450041
 30
0.0
 40
50.0
100
AcDbArc
 50
277.3244669999998
 51
281.9107609999996
  0
ARC
  5
1D9
330
18
100
AcDbEntity
  8
1
  6
Continuous
100
AcDbCircle
 10
97.5463599572096
 20
253.76123450041
 30
0.0
 40
50.0
100
AcDbArc
 50
250.5287609999998
 51
254.6928199999999
  0
ARC
  5
1DA
330
18
100
AcDbEntity
  8
1
  6
Continuous
100
AcDbCircle
 10
82.54635995720958
 20
211.3348275004101
 30
0.0
 40
5.0
100
AcDbArc
 50
179.999981
 51
250.5287669999998
  0
ARC
  5
1DB
330
18
100
AcDbEntity
  8
1
  6
Continuous
100
AcDbCircle
 10
112.5463599572094
 20
211.3348275004101
 30
0.0
 40
5.0
100
AcDbArc
 50
289.4712139999997
 51
0.0
  0
ARC
  5
1DC
330
18
100
AcDbEntity
  8
1
  6
Continuous
100
AcDbCircle
 10
97.5463599572096
 20
253.76123450041
 30
0.0
 40
50.0
100
AcDbArc
 50
285.307162
 51
289.4712209999998
  0
ARC
  5
1DD
330
18
100
AcDbEntity
  8
1
  6
Continuous
100
AcDbCircle
 10
-132.2308920427902
 20
274.06720350041
 30
0.0
 40
200.0
100
AcDbArc
 50
8.163783999999878
 51
18.04895200000014
  0
ARC
  5
1DE
330
18
100
AcDbEntity
  8
1
  6
Continuous
100
AcDbCircle
 10
-132.2308920427902
 20
274.06720350041
 30
0.0
 40
203.5
100
AcDbArc
 50
8.592138999999978
 51
19.50869199999982
  0
LINE
  5
1DF
330
18
100
AcDbEntity
  8
1
  6
Continuous
100
AcDbLine
 10
69.54635995720957
 20
287.2612345004101
 30
0.0
 11
70.54635995720956
 21
287.2612345004101
 31
0.0
  0
LINE
  5
1E0
330
18
100
AcDbEntity
  8
1
  6
Continuous
100
AcDbLine
 10
69.54635995720957
 20
270.26123450041
 30
0.0
 11
70.54635995720956
 21
270.26123450041
 31
0.0
  0
ARC
  5
1E1
330
18
100
AcDbEntity
  8
1
  6
Continuous
100
AcDbCircle
 10
19.54635995720968
 20
297.0000575004099
 30
0.0
 40
50.0
100
AcDbArc
 50
0.0
 51
8.592138999999978
  0
ARC
  5
1E2
330
18
100
AcDbEntity
  8
1
  6
Continuous
100
AcDbCircle
 10
50.38803495720959
 20
278.76123450041
 30
0.0
 40
12.65833399999999
100
AcDbArc
 50
334.3229729999997
 51
25.67702700000014
  0
LINE
  5
1E3
330
18
100
AcDbEntity
  8
1
  6
Continuous
100
AcDbLine
 10
52.04635995720956
 20
284.0112345004101
 30
0.0
 11
52.04635995720956
 21
273.51123450041
 31
0.0
  0
ARC
  5
1E4
330
18
100
AcDbEntity
  8
1
  6
Continuous
100
AcDbCircle
 10
68.70469995720952
 20
278.76123450041
 30
0.0
 40
12.65833399999999
100
AcDbArc
 50
154.3229739999998
 51
205.6770219999995
  0
LINE
  5
1E5
330
18
100
AcDbEntity
  8
1
  6
Continuous
100
AcDbLine
 10
63.04635995720957
 20
289.2612345004101
 30
0.0
 11
63.04635995720957
 21
268.26123450041
 31
0.0
  0
LINE
  5
1E6
330
18
100
AcDbEntity
  8
1
  6
Continuous
100
AcDbLine
 10
56.04635995720958
 20
286.9884765004101
 30
0.0
 11
56.04635995720958
 21
270.53399350041
 31
0.0
  0
LINE
  5
1E7
330
18
100
AcDbEntity
  8
1
  6
Continuous
100
AcDbLine
 10
52.79635995720957
 20
284.76123450041
 30
0.0
 11
52.79635995720957
 21
272.76123450041
 31
0.0
  0
LINE
  5
1E8
330
18
100
AcDbEntity
  8
1
  6
Continuous
100
AcDbLine
 10
66.04635995720958
 20
298.2077605004101
 30
0.0
 11
66.04635995720958
 21
259.76123450041
 31
0.0
  0
ARC
  5
1E9
330
18
100
AcDbEntity
  8
1
  6
Continuous
100
AcDbCircle
 10
59.67969095720956
 20
270.53399350041
 30
0.0
 40
3.633333
100
AcDbArc
 50
130.9927280000001
 51
229.0072679999999
  0
LINE
  5
1EA
330
18
100
AcDbEntity
  8
1
  6
Continuous
100
AcDbLine
 10
52.79635995720957
 20
272.76123450041
 30
0.0
 11
56.04635995720958
 21
272.76123450041
 31
0.0
  0
LINE
  5
1EB
330
18
100
AcDbEntity
  8
1
  6
Continuous
100
AcDbLine
 10
52.04635995720956
 20
273.51123450041
 30
0.0
 11
52.79635995720957
 21
272.76123450041
 31
0.0
  0
LINE
  5
1EC
330
18
100
AcDbEntity
  8
2
  6
Continuous
100
AcDbLine
 10
52.04635995720956
 20
273.51123450041
 30
0.0
 11
56.04635995720958
 21
273.51123450041
 31
0.0
  0
ARC
  5
1ED
330
18
100
AcDbEntity
  8
1
  6
Continuous
100
AcDbCircle
 10
59.41302895720958
 20
270.53399350041
 30
0.0
 40
3.633333
100
AcDbArc
 50
310.992734
 51
49.00726599999998
  0
LINE
  5
1EE
330
18
100
AcDbEntity
  8
1
  6
Continuous
100
AcDbLine
 10
66.04635995720958
 20
268.26123450041
 30
0.0
 11
63.04635995720957
 21
268.26123450041
 31
0.0
  0
LINE
  5
1EF
330
18
100
AcDbEntity
  8
1
  6
Continuous
100
AcDbLine
 10
57.29635995720958
 20
267.7915765004099
 30
0.0
 11
61.79635995720957
 21
267.7915765004099
 31
0.0
  0
LINE
  5
1F0
330
18
100
AcDbEntity
  8
1
  6
Continuous
100
AcDbLine
 10
66.04635995720958
 20
259.76123450041
 30
0.0
 11
69.54635995720957
 21
259.76123450041
 31
0.0
  0
LINE
  5
1F1
330
18
100
AcDbEntity
  8
1
  6
Continuous
100
AcDbLine
 10
57.29635995720958
 20
273.27640950041
 30
0.0
 11
61.79635995720957
 21
273.27640950041
 31
0.0
  0
ARC
  5
1F2
330
18
100
AcDbEntity
  8
1
  6
Continuous
100
AcDbCircle
 10
59.67969095720956
 20
286.9884765004101
 30
0.0
 40
3.633333
100
AcDbArc
 50
130.9927280000001
 51
229.0072679999999
  0
LINE
  5
1F3
330
18
100
AcDbEntity
  8
1
  6
Continuous
100
AcDbLine
 10
52.79635995720957
 20
284.76123450041
 30
0.0
 11
56.04635995720958
 21
284.76123450041
 31
0.0
  0
LINE
  5
1F4
330
18
100
AcDbEntity
  8
2
  6
Continuous
100
AcDbLine
 10
52.04635995720956
 20
284.0112345004101
 30
0.0
 11
56.04635995720958
 21
284.0112345004101
 31
0.0
  0
LINE
  5
1F5
330
18
100
AcDbEntity
  8
1
  6
Continuous
100
AcDbLine
 10
52.04635995720956
 20
284.0112345004101
 30
0.0
 11
52.79635995720957
 21
284.76123450041
 31
0.0
  0
ARC
  5
1F6
330
18
100
AcDbEntity
  8
1
  6
Continuous
100
AcDbCircle
 10
59.41302895720958
 20
286.9884765004101
 30
0.0
 40
3.633333
100
AcDbArc
 50
310.992734
 51
49.00726599999998
  0
LINE
  5
1F7
330
18
100
AcDbEntity
  8
1
  6
Continuous
100
AcDbLine
 10
57.29635995720958
 20
284.24605950041
 30
0.0
 11
61.79635995720957
 21
284.24605950041
 31
0.0
  0
LINE
  5
1F8
330
18
100
AcDbEntity
  8
1
  6
Continuous
100
AcDbLine
 10
66.04635995720958
 20
289.2612345004101
 30
0.0
 11
63.04635995720957
 21
289.2612345004101
 31
0.0
  0
LINE
  5
1F9
330
18
100
AcDbEntity
  8
1
  6
Continuous
100
AcDbLine
 10
57.29635995720958
 20
289.73089250041
 30
0.0
 11
61.79635995720957
 21
289.73089250041
 31
0.0
  0
ARC
  5
1FA
330
18
100
AcDbEntity
  8
1
  6
Continuous
100
AcDbCircle
 10
36.04635995720956
 20
298.2077605004101
 30
0.0
 40
30.0
100
AcDbArc
 50
0.0
 51
8.163783999999878
  0
LINE
  5
1FB
330
18
100
AcDbEntity
  8
1
  6
Continuous
100
AcDbLine
 10
70.54635995720956
 20
291.7612345004101
 30
0.0
 11
70.54635995720956
 21
265.76123450041
 31
0.0
  0
LINE
  5
1FC
330
18
100
AcDbEntity
  8
1
  6
Continuous
100
AcDbLine
 10
71.04635995720958
 20
296.76123550041
 30
0.0
 11
71.04635995720958
 21
260.7612345004099
 31
0.0
  0
LINE
  5
1FD
330
18
100
AcDbEntity
  8
1
  6
Continuous
100
AcDbLine
 10
77.54635995720956
 20
259.4093955004101
 30
0.0
 11
71.98288695720953
 21
259.7632525004098
 31
0.0
  0
ARC
  5
1FE
330
18
100
AcDbEntity
  8
1
  6
Continuous
100
AcDbCircle
 10
72.04635995720956
 20
260.7612345004099
 30
0.0
 40
1.0
100
AcDbArc
 50
179.999981
 51
266.3605989999997
  0
ARC
  5
1FF
330
18
100
AcDbEntity
  8
1
  6
Continuous
100
AcDbCircle
 10
71.54635995720956
 20
265.76123450041
 30
0.0
 40
1.0
100
AcDbArc
 50
179.999981
 51
239.9999689999998
  0
ARC
  5
200
330
18
100
AcDbEntity
  8
1
  6
Continuous
100
AcDbCircle
 10
71.54635995720956
 20
291.7612345004101
 30
0.0
 40
1.0
100
AcDbArc
 50
120.000031
 51
180.0
  0
LINE
  5
201
330
18
100
AcDbEntity
  8
1
  6
Continuous
100
AcDbLine
 10
71.98288695720953
 20
297.7592175004101
 30
0.0
 11
77.54635995720956
 21
298.1130745004098
 31
0.0
  0
ARC
  5
202
330
18
100
AcDbEntity
  8
1
  6
Continuous
100
AcDbCircle
 10
72.04635995720956
 20
296.7612345004102
 30
0.0
 40
1.0
100
AcDbArc
 50
93.63940100000013
 51
179.9999639999999
  0
ARC
  5
203
330
18
100
AcDbEntity
  8
1
  6
Continuous
100
AcDbCircle
 10
200.5463599572097
 20
382.50751150041
 30
0.0
 40
150.0
100
AcDbArc
 50
179.999978
 51
198.0489569999999
  0
ARC
  5
204
330
18
100
AcDbEntity
  8
1
  6
Continuous
100
AcDbCircle
 10
150.5463599572094
 20
374.2521635004102
 30
0.0
 40
96.5
100
AcDbArc
 50
179.999978
 51
199.5086919999998
  0
ARC
  5
205
330
18
100
AcDbEntity
  8
1
  6
Continuous
100
AcDbCircle
 10
112.5463599572094
 20
346.18764150041
 30
0.0
 40
5.0
100
AcDbArc
 50
0.0
 51
70.52878600000015
  0
ARC
  5
206
330
18
100
AcDbEntity
  8
1
  6
Continuous
100
AcDbCircle
 10
82.54635995720958
 20
346.18764150041
 30
0.0
 40
5.0
100
AcDbArc
 50
109.4712330000001
 51
179.9999639999999
  0
ARC
  5
207
330
18
100
AcDbEntity
  8
1
  6
Continuous
100
AcDbCircle
 10
97.5463599572096
 20
303.7612345004101
 30
0.0
 40
50.0
100
AcDbArc
 50
86.0719270000003
 51
93.92809199999986
  0
ARC
  5
208
330
18
100
AcDbEntity
  8
1
  6
Continuous
100
AcDbCircle
 10
97.5463599572096
 20
303.7612345004101
 30
0.0
 40
50.0
100
AcDbArc
 50
105.3071800000001
 51
109.4712389999999
  0
ARC
  5
209
330
18
100
AcDbEntity
  8
1
  6
Continuous
100
AcDbCircle
 10
97.5463599572096
 20
303.7612345004101
 30
0.0
 40
50.0
100
AcDbArc
 50
97.32448599999985
 51
101.9107799999996
  0
ARC
  5
20A
330
18
100
AcDbEntity
  8
1
  6
Continuous
100
AcDbCircle
 10
85.54635995720955
 20
353.3293655004102
 30
0.0
 40
1.8
100
AcDbArc
 50
228.2026209999998
 51
339.015244
  0
ARC
  5
20B
330
18
100
AcDbEntity
  8
1
  6
Continuous
100
AcDbCircle
 10
92.54635995720958
 20
354.51554550041
 30
0.0
 40
1.8
100
AcDbArc
 50
220.220151
 51
331.0324439999998
  0
ARC
  5
20C
330
18
100
AcDbEntity
  8
1
  6
Continuous
100
AcDbCircle
 10
109.5463599572094
 20
353.3293655004102
 30
0.0
 40
1.8
100
AcDbArc
 50
200.9847399999999
 51
311.7973539999996
  0
ARC
  5
20D
330
18
100
AcDbEntity
  8
1
  6
Continuous
100
AcDbCircle
 10
102.5463599572094
 20
354.51554550041
 30
0.0
 40
1.8
100
AcDbArc
 50
208.9675379999999
 51
319.7798369999998
  0
ARC
  5
20E
330
18
100
AcDbEntity
  8
1
  6
Continuous
100
AcDbCircle
 10
97.5463599572096
 20
303.7612345004101
 30
0.0
 40
50.0
100
AcDbArc
 50
78.08923900000023
 51
82.67553300000017
  0
ARC
  5
20F
330
18
100
AcDbEntity
  8
1
  6
Continuous
100
AcDbCircle
 10
97.5463599572096
 20
303.7612345004101
 30
0.0
 40
50.0
100
AcDbArc
 50
70.52877900000016
 51
74.69283799999992
  0
ARC
  5
210
330
18
100
AcDbEntity
  8
1
  6
Continuous
100
AcDbCircle
 10
327.3236119572093
 20
274.06720350041
 30
0.0
 40
200.0
100
AcDbArc
 50
161.9510529999999
 51
171.836221
  0
ARC
  5
211
330
18
100
AcDbEntity
  8
1
  6
Continuous
100
AcDbCircle
 10
327.3236119572093
 20
274.06720350041
 30
0.0
 40
203.5
100
AcDbArc
 50
160.491305
 51
171.4078589999999
  0
LINE
  5
212
330
18
100
AcDbEntity
  8
1
  6
Continuous
100
AcDbLine
 10
130.0463599572095
 20
290.2612345004101
 30
0.0
 11
130.0463599572095
 21
267.26123450041
 31
0.0
  0
ARC
  5
213
330
18
100
AcDbEntity
  8
1
  6
Continuous
100
AcDbCircle
 10
109.5046879572095
 20
278.76123450041
 30
0.0
 40
23.541666
100
AcDbArc
 50
330.7582049999997
 51
29.24172
  0
LINE
  5
214
330
18
100
AcDbEntity
  8
1
  6
Continuous
100
AcDbLine
 10
129.0463599572095
 20
298.2077605004101
 30
0.0
 11
129.0463599572095
 21
259.76123450041
 31
0.0
  0
LINE
  5
215
330
18
100
AcDbEntity
  8
1
  6
Continuous
100
AcDbLine
 10
124.0463599572094
 20
296.7612345004102
 30
0.0
 11
124.0463599572094
 21
260.7612345004099
 31
0.0
  0
LINE
  5
216
330
18
100
AcDbEntity
  8
1
  6
Continuous
100
AcDbLine
 10
124.5463599572094
 20
291.7612345004101
 30
0.0
 11
124.5463599572094
 21
265.76123450041
 31
0.0
  0
LINE
  5
217
330
18
100
AcDbEntity
  8
1
  6
Continuous
100
AcDbLine
 10
129.0463599572095
 20
259.76123450041
 30
0.0
 11
125.5463599572094
 21
259.76123450041
 31
0.0
  0
ARC
  5
218
330
18
100
AcDbEntity
  8
1
  6
Continuous
100
AcDbCircle
 10
123.0463599572094
 20
260.7612345004099
 30
0.0
 40
1.0
100
AcDbArc
 50
273.6393889999997
 51
0.0
  0
ARC
  5
219
330
18
100
AcDbEntity
  8
1
  6
Continuous
100
AcDbCircle
 10
123.5463599572094
 20
265.76123450041
 30
0.0
 40
1.0
100
AcDbArc
 50
300.0000120000003
 51
0.0
  0
LINE
  5
21A
330
18
100
AcDbEntity
  8
1
  6
Continuous
100
AcDbLine
 10
129.0463599572095
 20
267.26123450041
 30
0.0
 11
130.0463599572095
 21
267.26123450041
 31
0.0
  0
LINE
  5
21B
330
18
100
AcDbEntity
  8
1
  6
Continuous
100
AcDbLine
 10
124.5463599572094
 20
270.26123450041
 30
0.0
 11
125.5463599572094
 21
270.26123450041
 31
0.0
  0
LINE
  5
21C
330
18
100
AcDbEntity
  8
1
  6
Continuous
100
AcDbLine
 10
125.5463599572094
 20
287.2612345004101
 30
0.0
 11
124.5463599572094
 21
287.2612345004101
 31
0.0
  0
ARC
  5
21D
330
18
100
AcDbEntity
  8
1
  6
Continuous
100
AcDbCircle
 10
123.5463599572094
 20
291.7612345004101
 30
0.0
 40
1.0
100
AcDbArc
 50
0.0
 51
59.99998799999957
  0
LINE
  5
21E
330
18
100
AcDbEntity
  8
1
  6
Continuous
100
AcDbLine
 10
129.0463599572095
 20
290.2612345004101
 30
0.0
 11
130.0463599572095
 21
290.2612345004101
 31
0.0
  0
ARC
  5
21F
330
18
100
AcDbEntity
  8
1
  6
Continuous
100
AcDbCircle
 10
175.5463599572095
 20
297.0000575004099
 30
0.0
 40
50.0
100
AcDbArc
 50
171.4078589999999
 51
180.000005
  0
ARC
  5
220
330
18
100
AcDbEntity
  8
1
  6
Continuous
100
AcDbCircle
 10
123.0463599572094
 20
296.7612345004102
 30
0.0
 40
1.0
100
AcDbArc
 50
0.0
 51
86.3606110000002
  0
ARC
  5
221
330
18
100
AcDbEntity
  8
1
  6
Continuous
100
AcDbCircle
 10
159.0463599572094
 20
298.2077605004101
 30
0.0
 40
30.0
100
AcDbArc
 50
171.836221
 51
180.000005
  0
ARC
  5
222
330
18
100
AcDbEntity
  8
1
  6
Continuous
100
AcDbCircle
 10
-5.453640042790311
 20
382.50751150041
 30
0.0
 40
150.0
100
AcDbArc
 50
341.9510479999997
 51
0.0000219999999343
  0
ARC
  5
223
330
18
100
AcDbEntity
  8
1
  6
Continuous
100
AcDbCircle
 10
44.54635995720969
 20
374.2521635004102
 30
0.0
 40
96.5
100
AcDbArc
 50
340.4913080000001
 51
0.0000219999999343
  0
ARC
  5
224
330
18
100
AcDbEntity
  8
1
  6
Continuous
100
AcDbCircle
 10
-51.90688466021676
 20
245.48161750041
 30
0.0
 40
350.0
100
AcDbArc
 50
10.69519899999984
 51
21.80835699999983
  0
ARC
  5
225
330
18
100
AcDbEntity
  8
1
  6
Continuous
100
AcDbCircle
 10
258.5811243397829
 20
371.2679295004102
 30
0.0
 40
15.0
100
AcDbArc
 50
16.31237299999997
 51
63.42957599999968
  0
LINE
  5
226
330
18
100
AcDbEntity
  8
1
  6
Continuous
100
AcDbLine
 10
144.5463599572095
 20
390.26124850041
 30
0.0
 11
97.5463599572096
 21
390.26124850041
 31
0.0
  0
LINE
  5
227
330
18
100
AcDbEntity
  8
1
  6
Continuous
100
AcDbLine
 10
50.54635995720957
 20
390.26124850041
 30
0.0
 11
144.5463599572095
 21
390.26124850041
 31
0.0
  0
LINE
  5
228
330
18
100
AcDbEntity
  8
1
  6
Continuous
100
AcDbLine
 10
50.54635995720957
 20
393.7612495004097
 30
0.0
 11
144.5463599572095
 21
393.7612495004097
 31
0.0
  0
ARC
  5
229
330
18
100
AcDbEntity
  8
1
  6
Continuous
100
AcDbCircle
 10
70.54635995720956
 20
389.2612485004099
 30
0.0
 40
1.0
100
AcDbArc
 50
89.99998199999998
 51
179.9999639999999
  0
ARC
  5
22A
330
18
100
AcDbEntity
  8
1
  6
Continuous
100
AcDbCircle
 10
55.04635995720956
 20
389.2612485004099
 30
0.0
 40
1.0
100
AcDbArc
 50
89.99998199999998
 51
179.9999639999999
  0
LINE
  5
22B
330
18
100
AcDbEntity
  8
1
  6
Continuous
100
AcDbLine
 10
77.54635995720956
 20
388.2612485004099
 30
0.0
 11
97.5463599572096
 21
388.2612485004099
 31
0.0
  0
ARC
  5
22C
330
18
100
AcDbEntity
  8
1
  6
Continuous
100
AcDbCircle
 10
77.54635995720956
 20
390.26124850041
 30
0.0
 40
2.0
100
AcDbArc
 50
179.999981
 51
270.0000179999999
  0
ARC
  5
22D
330
18
100
AcDbEntity
  8
1
  6
Continuous
100
AcDbCircle
 10
87.54635995720958
 20
390.26124850041
 30
0.0
 40
2.0
100
AcDbArc
 50
179.999981
 51
270.0000179999999
  0
ARC
  5
22E
330
18
100
AcDbEntity
  8
1
  6
Continuous
100
AcDbCircle
 10
107.5463599572094
 20
390.26124850041
 30
0.0
 40
2.0
100
AcDbArc
 50
269.9999630000001
 51
0.0
  0
LINE
  5
22F
330
18
100
AcDbEntity
  8
1
  6
Continuous
100
AcDbLine
 10
117.5463599572095
 20
388.2612485004099
 30
0.0
 11
97.5463599572096
 21
388.2612485004099
 31
0.0
  0
ARC
  5
230
330
18
100
AcDbEntity
  8
1
  6
Continuous
100
AcDbCircle
 10
117.5463599572095
 20
390.26124850041
 30
0.0
 40
2.0
100
AcDbArc
 50
269.9999630000001
 51
0.0
  0
ARC
  5
231
330
18
100
AcDbEntity
  8
1
  6
Continuous
100
AcDbCircle
 10
276.079752339783
 20
500.3448184689748
 30
0.0
 40
18.0
100
AcDbArc
 50
31.58809499999984
 51
89.99992700000012
  0
ARC
  5
232
330
18
100
AcDbEntity
  8
1
  6
Continuous
100
AcDbCircle
 10
296.0797523397829
 20
528.3448184689748
 30
0.0
 40
50.0
100
AcDbArc
 50
195.307162
 51
199.4712209999998
  0
LINE
  5
233
330
18
100
AcDbEntity
  8
1
  6
Continuous
100
AcDbLine
 10
251.0797523397829
 20
563.3448184689747
 30
0.0
 11
251.0797523397829
 21
493.3448184689748
 31
0.0
  0
ARC
  5
234
330
18
100
AcDbEntity
  8
1
  6
Continuous
100
AcDbCircle
 10
124.5463599572094
 20
389.2612485004099
 30
0.0
 40
1.0
100
AcDbArc
 50
0.0000360000000406
 51
90.00001599999967
  0
ARC
  5
235
330
18
100
AcDbEntity
  8
1
  6
Continuous
100
AcDbCircle
 10
140.0463599572094
 20
389.2612485004099
 30
0.0
 40
1.0
100
AcDbArc
 50
0.0
 51
89.99998199999998
  0
ARC
  5
236
330
18
100
AcDbEntity
  8
1
  6
Continuous
100
AcDbCircle
 10
259.579775339783
 20
390.26124950041
 30
0.0
 40
3.5
100
AcDbArc
 50
0.0
 51
89.99998199999998
  0
LINE
  5
237
330
18
100
AcDbEntity
  8
1
  6
Continuous
100
AcDbLine
 10
251.0797523397829
 20
390.26124950041
 30
0.0
 11
263.079775339783
 21
390.26124950041
 31
0.0
  0
LINE
  5
238
330
18
100
AcDbEntity
  8
1
  6
Continuous
100
AcDbLine
 10
251.0797523397829
 20
393.7612675004102
 30
0.0
 11
251.0797523397829
 21
390.26124950041
 31
0.0
  0
LINE
  5
239
330
18
100
AcDbEntity
  8
1
  6
Continuous
100
AcDbLine
 10
263.079775339783
 20
388.26124950041
 30
0.0
 11
263.079775339783
 21
390.26124950041
 31
0.0
  0
ARC
  5
23A
330
18
100
AcDbEntity
  8
1
  6
Continuous
100
AcDbCircle
 10
253.6533453397828
 20
513.3448184689748
 30
0.0
 40
5.0
100
AcDbArc
 50
199.4712139999998
 51
239.021352325561
  0
ARC
  5
23B
330
18
100
AcDbEntity
  8
1
  6
Continuous
100
AcDbCircle
 10
263.079752339783
 20
493.3448184689748
 30
0.0
 40
12.0
100
AcDbArc
 50
179.999981
 51
269.9999630000001
  0
LINE
  5
23C
330
18
100
AcDbEntity
  8
4
  6
CENTER
100
AcDbLine
 10
278.5797487160841
 20
500.3448184689745
 30
0.0
 11
263.5797559634818
 21
500.3448184689745
 31
0.0
  0
ARC
  5
23D
330
18
100
AcDbEntity
  8
1
  6
Continuous
100
AcDbCircle
 10
269.0797523397828
 20
503.3448184689748
 30
0.0
 40
22.0
100
AcDbArc
 50
269.9999630000001
 51
322.229510411364
  0
ARC
  5
23E
330
18
100
AcDbEntity
  8
1
  6
Continuous
100
AcDbCircle
 10
271.0797523397828
 20
500.3448184689748
 30
0.0
 40
5.5
100
AcDbArc
 50
255.9636649999998
 51
75.96366999999976
  0
LINE
  5
23F
330
18
100
AcDbEntity
  8
4
  6
CENTER
100
AcDbLine
 10
271.0797523397828
 20
507.8448148452756
 30
0.0
 11
271.0797523397828
 21
492.8448220926736
 31
0.0
  0
LINE
  5
240
330
18
100
AcDbEntity
  8
4
  6
CENTER
100
AcDbLine
 10
265.079752339783
 20
509.3448148452758
 30
0.0
 11
265.079752339783
 21
494.3448220926736
 31
0.0
  0
LINE
  5
241
330
18
100
AcDbEntity
  8
1
  6
Continuous
100
AcDbLine
 10
263.079752339783
 20
481.3448184689748
 30
0.0
 11
269.0797523397828
 21
481.3448184689748
 31
0.0
  0
ARC
  5
242
330
18
100
AcDbEntity
  8
1
  6
Continuous
100
AcDbCircle
 10
265.079752339783
 20
501.8448184689748
 30
0.0
 40
5.5
100
AcDbArc
 50
75.96366999999976
 51
255.9636339999999
  0
LINE
  5
243
330
18
100
AcDbEntity
  8
4
  6
CENTER
100
AcDbLine
 10
272.5797487160841
 20
501.8448184689746
 30
0.0
 11
257.5797559634818
 21
501.8448184689746
 31
0.0
  0
LINE
  5
244
330
18
100
AcDbEntity
  8
1
  6
Continuous
100
AcDbLine
 10
263.7458113397828
 20
496.5090344689746
 30
0.0
 11
269.7458103397829
 21
495.0090344689746
 31
0.0
  0
LINE
  5
245
330
18
100
AcDbEntity
  8
1
  6
Continuous
100
AcDbLine
 10
266.4137013397829
 20
507.1806024689747
 30
0.0
 11
272.4137023397829
 21
505.6806024689747
 31
0.0
  0
ARC
  5
246
330
18
100
AcDbEntity
  8
1
  6
Continuous
100
AcDbCircle
 10
300.6985758473076
 20
478.8448184689748
 30
0.0
 40
18.0
100
AcDbArc
 50
90.0
 51
142.2295104113643
  0
ARC
  5
247
330
18
100
AcDbEntity
  8
1
  6
Continuous
100
AcDbCircle
 10
293.9682983397828
 20
511.3448184689748
 30
0.0
 40
3.0
100
AcDbArc
 50
211.5880080000001
 51
269.9999630000001
  0
ARC
  5
248
330
18
100
AcDbEntity
  8
1
  6
Continuous
100
AcDbCircle
 10
263.079752339783
 20
563.3448184689747
 30
0.0
 40
12.0
100
AcDbArc
 50
89.99998199999998
 51
179.9999639999999
  0
LINE
  5
249
330
18
100
AcDbEntity
  8
1
  6
Continuous
100
AcDbLine
 10
247.8535333397831
 20
515.1451264689747
 30
0.0
 11
251.0797523397829
 21
515.1451264689747
 31
0.0
  0
LINE
  5
24A
330
18
100
AcDbEntity
  8
1
  6
Continuous
100
AcDbLine
 10
247.8535333397831
 20
541.5444954689746
 30
0.0
 11
251.0797523397829
 21
541.5444954689745
 31
0.0
  0
LINE
  5
24B
330
18
100
AcDbEntity
  8
1
  6
Continuous
100
AcDbLine
 10
247.156237339783
 20
538.6642004689747
 30
0.0
 11
251.0797523397829
 21
538.6642004689748
 31
0.0
  0
LINE
  5
24C
330
18
100
AcDbEntity
  8
1
  6
Continuous
100
AcDbLine
 10
246.487749339783
 20
534.7192314689748
 30
0.0
 11
251.0797523397829
 21
534.7192314689748
 31
0.0
  0
LINE
  5
24D
330
18
100
AcDbEntity
  8
1
  6
Continuous
100
AcDbLine
 10
246.1972073397828
 20
531.7700124689745
 30
0.0
 11
251.0797523397829
 21
531.7700124689745
 31
0.0
  0
LINE
  5
24E
330
18
100
AcDbEntity
  8
1
  6
Continuous
100
AcDbLine
 10
246.1972143397831
 20
524.9196174689748
 30
0.0
 11
251.0797523397829
 21
524.9196174689743
 31
0.0
  0
LINE
  5
24F
330
18
100
AcDbEntity
  8
1
  6
Continuous
100
AcDbLine
 10
246.487749339783
 20
521.9703984689746
 30
0.0
 11
251.0797523397829
 21
521.9703984689746
 31
0.0
  0
LINE
  5
250
330
18
100
AcDbEntity
  8
1
  6
Continuous
100
AcDbLine
 10
247.1562443397829
 20
518.0254214689746
 30
0.0
 11
251.0797523397829
 21
518.0254214689746
 31
0.0
  0
ARC
  5
251
330
18
100
AcDbEntity
  8
1
  6
Continuous
100
AcDbCircle
 10
253.6533453397828
 20
543.3448184689748
 30
0.0
 40
5.0
100
AcDbArc
 50
120.9786476744389
 51
160.5287669999998
  0
ARC
  5
252
330
18
100
AcDbEntity
  8
1
  6
Continuous
100
AcDbCircle
 10
296.0797523397829
 20
528.3448184689748
 30
0.0
 40
50.0
100
AcDbArc
 50
176.071908
 51
183.928073
  0
ARC
  5
253
330
18
100
AcDbEntity
  8
1
  6
Continuous
100
AcDbCircle
 10
296.0797523397829
 20
528.3448184689748
 30
0.0
 40
50.0
100
AcDbArc
 50
187.3244669999998
 51
191.910761
  0
ARC
  5
254
330
18
100
AcDbEntity
  8
1
  6
Continuous
100
AcDbCircle
 10
246.5116223397828
 20
516.3448184689748
 30
0.0
 40
1.8
100
AcDbArc
 50
318.2026459999998
 51
69.01525999999972
  0
ARC
  5
255
330
18
100
AcDbEntity
  8
1
  6
Continuous
100
AcDbCircle
 10
245.3254423397829
 20
523.3448184689748
 30
0.0
 40
1.8
100
AcDbArc
 50
310.2201630000001
 51
61.03246200000008
  0
ARC
  5
256
330
18
100
AcDbEntity
  8
1
  6
Continuous
100
AcDbCircle
 10
246.5116223397828
 20
540.3448184689746
 30
0.0
 40
1.8
100
AcDbArc
 50
290.9847559999996
 51
41.79737899999986
  0
ARC
  5
257
330
18
100
AcDbEntity
  8
1
  6
Continuous
100
AcDbCircle
 10
296.0797523397829
 20
528.3448184689748
 30
0.0
 40
50.0
100
AcDbArc
 50
168.0892199999998
 51
172.6755139999997
  0
ARC
  5
258
330
18
100
AcDbEntity
  8
1
  6
Continuous
100
AcDbCircle
 10
245.3254423397829
 20
533.3448184689748
 30
0.0
 40
1.8
100
AcDbArc
 50
298.9675559999996
 51
49.77984899999992
  0
ARC
  5
259
330
18
100
AcDbEntity
  8
1
  6
Continuous
100
AcDbCircle
 10
296.0797523397829
 20
528.3448184689748
 30
0.0
 40
50.0
100
AcDbArc
 50
160.5287609999996
 51
164.6928199999998
  0
ARC
  5
25A
330
18
100
AcDbEntity
  8
1
  6
Continuous
100
AcDbCircle
 10
265.079752339783
 20
554.8448184689748
 30
0.0
 40
5.5
100
AcDbArc
 50
104.0362800000003
 51
284.036258
  0
LINE
  5
25B
330
18
100
AcDbEntity
  8
4
  6
CENTER
100
AcDbLine
 10
265.079752339783
 20
547.3448220926736
 30
0.0
 11
265.079752339783
 21
562.3448148452758
 31
0.0
  0
ARC
  5
25C
330
18
100
AcDbEntity
  8
1
  6
Continuous
100
AcDbCircle
 10
293.9682983397828
 20
545.3448184689748
 30
0.0
 40
3.0
100
AcDbArc
 50
89.99998199999998
 51
148.4119370000001
  0
ARC
  5
25D
330
18
100
AcDbEntity
  8
1
  6
Continuous
100
AcDbCircle
 10
276.079752339783
 20
556.3448184689748
 30
0.0
 40
18.0
100
AcDbArc
 50
270.0000179999999
 51
328.4118499999999
  0
ARC
  5
25E
330
18
100
AcDbEntity
  8
1
  6
Continuous
100
AcDbCircle
 10
272.079752339783
 20
528.3448184689748
 30
0.0
 40
10.0
100
AcDbArc
 50
89.99998199999998
 51
270.0000009999997
  0
LINE
  5
25F
330
18
100
AcDbEntity
  8
1
  6
Continuous
100
AcDbLine
 10
276.079752339783
 20
518.3448184689748
 30
0.0
 11
272.079752339783
 21
518.3448184689748
 31
0.0
  0
LINE
  5
260
330
18
100
AcDbEntity
  8
1
  6
Continuous
100
AcDbLine
 10
276.079752339783
 20
538.3448184689748
 30
0.0
 11
272.079752339783
 21
538.3448184689748
 31
0.0
  0
ARC
  5
261
330
18
100
AcDbEntity
  8
1
  6
Continuous
100
AcDbCircle
 10
269.0797523397828
 20
553.3448184689748
 30
0.0
 40
22.0
100
AcDbArc
 50
37.77048958863594
 51
89.99998199999998
  0
ARC
  5
262
330
18
100
AcDbEntity
  8
1
  6
Continuous
100
AcDbCircle
 10
271.0797523397828
 20
556.3448184689748
 30
0.0
 40
5.5
100
AcDbArc
 50
284.036275
 51
104.0362800000003
  0
LINE
  5
263
330
18
100
AcDbEntity
  8
4
  6
CENTER
100
AcDbLine
 10
278.5797487160841
 20
556.3448184689748
 30
0.0
 11
263.5797559634818
 21
556.3448184689748
 31
0.0
  0
LINE
  5
264
330
18
100
AcDbEntity
  8
4
  6
CENTER
100
AcDbLine
 10
272.5797487160841
 20
554.8448184689748
 30
0.0
 11
257.5797559634818
 21
554.8448184689748
 31
0.0
  0
LINE
  5
265
330
18
100
AcDbEntity
  8
4
  6
CENTER
100
AcDbLine
 10
271.0797523397828
 20
548.8448220926738
 30
0.0
 11
271.0797523397828
 21
563.8448148452757
 31
0.0
  0
LINE
  5
266
330
18
100
AcDbEntity
  8
1
  6
Continuous
100
AcDbLine
 10
266.4137013397829
 20
549.5090324689747
 30
0.0
 11
272.4137013397829
 21
551.0090324689746
 31
0.0
  0
LINE
  5
267
330
18
100
AcDbEntity
  8
1
  6
Continuous
100
AcDbLine
 10
263.7458103397829
 20
560.1805994689746
 30
0.0
 11
269.7458093397829
 21
561.6805994689748
 31
0.0
  0
LINE
  5
268
330
18
100
AcDbEntity
  8
1
  6
Continuous
100
AcDbLine
 10
263.079752339783
 20
575.3448184689747
 30
0.0
 11
269.0797523397828
 21
575.3448184689747
 31
0.0
  0
ARC
  5
269
330
18
100
AcDbEntity
  8
1
  6
Continuous
100
AcDbCircle
 10
300.6985758473076
 20
577.8448184689747
 30
0.0
 40
18.0
100
AcDbArc
 50
217.7704895886359
 51
270.0
  0
LINE
  5
26A
330
18
100
AcDbEntity
  8
4
  6
CENTER
100
AcDbLine
 10
377.0797523397829
 20
399.3941463760475
 30
0.0
 11
377.0797523397829
 21
384.3941536234452
 31
0.0
  0
LINE
  5
26B
330
18
100
AcDbEntity
  8
4
  6
CENTER
100
AcDbLine
 10
371.0797523397828
 20
399.3941463760475
 30
0.0
 11
371.0797523397828
 21
384.3941536234452
 31
0.0
  0
ARC
  5
26C
330
18
100
AcDbEntity
  8
1
  6
Continuous
100
AcDbCircle
 10
375.0797333397831
 20
388.26124950041
 30
0.0
 40
4.0
100
AcDbArc
 50
296.5704099999996
 51
0.0
  0
LINE
  5
26D
330
18
100
AcDbEntity
  8
1
  6
Continuous
100
AcDbLine
 10
350.1464143397829
 20
316.2945825004101
 30
0.0
 11
350.1464143397829
 21
386.6945835004099
 31
0.0
  0
LINE
  5
26E
330
18
100
AcDbEntity
  8
4
  6
CENTER
100
AcDbLine
 10
321.0797523397828
 20
403.76124950041
 30
0.0
 11
321.0797523397828
 21
198.7612495004101
 31
0.0
  0
LINE
  5
26F
330
18
100
AcDbEntity
  8
1
  6
Continuous
100
AcDbLine
 10
369.182212339783
 20
375.48103650041
 30
0.0
 11
339.3148993397832
 21
273.42462750041
 31
0.0
  0
ARC
  5
270
330
18
100
AcDbEntity
  8
1
  6
Continuous
100
AcDbCircle
 10
694.0663813397833
 20
245.48161750041
 30
0.0
 40
350.0
100
AcDbArc
 50
158.1916069999999
 51
169.3047619999997
  0
CIRCLE
  5
271
330
18
100
AcDbEntity
  8
1
  6
Continuous
100
AcDbCircle
 10
321.0797523397828
 20
278.7612495004101
 30
0.0
 40
11.499977
  0
ARC
  5
272
330
18
100
AcDbEntity
  8
1
  6
Continuous
100
AcDbCircle
 10
321.0797523397828
 20
278.7612495004101
 30
0.0
 40
19.0
100
AcDbArc
 50
269.9999630000001
 51
343.6876229999997
  0
LINE
  5
273
330
18
100
AcDbEntity
  8
1
  6
Continuous
100
AcDbLine
 10
326.079752339783
 20
260.4309465004102
 30
0.0
 11
326.079752339783
 21
253.07078450041
 31
0.0
  0
LINE
  5
274
330
18
100
AcDbEntity
  8
1
  6
Continuous
100
AcDbLine
 10
316.079752339783
 20
260.4309465004102
 30
0.0
 11
316.079752339783
 21
253.07078450041
 31
0.0
  0
ARC
  5
275
330
18
100
AcDbEntity
  8
1
  6
Continuous
100
AcDbCircle
 10
321.0797523397828
 20
252.6947354572328
 30
0.0
 40
3.866516043177313
100
AcDbArc
 50
58.39247193375371
 51
121.6075280662461
  0
ARC
  5
276
330
18
100
AcDbEntity
  8
1
  6
Continuous
100
AcDbCircle
 10
321.0797523397828
 20
257.2277655435871
 30
0.0
 40
3.866516043177313
100
AcDbArc
 50
238.3924719337537
 51
301.6075280662461
  0
ARC
  5
277
330
18
100
AcDbEntity
  8
1
  6
Continuous
100
AcDbCircle
 10
321.0797523397828
 20
278.7612495004101
 30
0.0
 40
27.0
100
AcDbArc
 50
261.1501009999997
 51
278.8498669999995
  0
ARC
  5
278
330
18
100
AcDbEntity
  8
1
  6
Continuous
100
AcDbCircle
 10
317.079752339783
 20
253.07078450041
 30
0.0
 40
1.0
100
AcDbArc
 50
179.999981
 51
261.15008
  0
ARC
  5
279
330
18
100
AcDbEntity
  8
1
  6
Continuous
100
AcDbCircle
 10
319.684972443483
 20
254.96125050041
 30
0.0
 40
1.205219103700017
100
AcDbArc
 50
121.6075280662461
 51
238.3924719337537
  0
ARC
  5
27A
330
18
100
AcDbEntity
  8
1
  6
Continuous
100
AcDbCircle
 10
325.0797523397829
 20
253.07078450041
 30
0.0
 40
1.0
100
AcDbArc
 50
278.8499009999999
 51
0.0
  0
ARC
  5
27B
330
18
100
AcDbEntity
  8
1
  6
Continuous
100
AcDbCircle
 10
322.4745322360829
 20
254.96125050041
 30
0.0
 40
1.205219103700017
100
AcDbArc
 50
301.6075280662461
 51
58.39247193375371
  0
ARC
  5
27C
330
18
100
AcDbEntity
  8
1
  6
Continuous
100
AcDbCircle
 10
383.5783753397829
 20
371.2679295004102
 30
0.0
 40
15.0
100
AcDbArc
 50
116.5703880000003
 51
163.687587
  0
ARC
  5
27D
330
18
100
AcDbEntity
  8
1
  6
Continuous
100
AcDbCircle
 10
346.0797523397828
 20
528.3448184689746
 30
0.0
 40
50.0
100
AcDbArc
 50
340.528779
 51
344.6928379999998
  0
ARC
  5
27E
330
18
100
AcDbEntity
  8
1
  6
Continuous
100
AcDbCircle
 10
366.079748339783
 20
500.3448184689748
 30
0.0
 40
18.0
100
AcDbArc
 50
90.00003699999981
 51
148.4118689999999
  0
LINE
  5
27F
330
18
100
AcDbEntity
  8
1
  6
Continuous
100
AcDbLine
 10
391.079748339783
 20
563.3448184689747
 30
0.0
 11
391.079748339783
 21
493.3448184689748
 31
0.0
  0
LINE
  5
280
330
18
100
AcDbEntity
  8
4
  6
CENTER
100
AcDbLine
 10
321.0797523397828
 20
579.3448184689747
 30
0.0
 11
321.0797523397828
 21
485.8448184689748
 31
0.0
  0
ARC
  5
281
330
18
100
AcDbEntity
  8
1
  6
Continuous
100
AcDbCircle
 10
382.5797333397829
 20
390.26124950041
 30
0.0
 40
3.5
100
AcDbArc
 50
89.99998199999998
 51
179.9999639999999
  0
LINE
  5
282
330
18
100
AcDbEntity
  8
1
  6
Continuous
100
AcDbLine
 10
391.079748339783
 20
390.26124950041
 30
0.0
 11
379.0797333397831
 21
390.26124950041
 31
0.0
  0
LINE
  5
283
330
18
100
AcDbEntity
  8
1
  6
Continuous
100
AcDbLine
 10
379.0797333397831
 20
388.26124950041
 30
0.0
 11
379.0797333397831
 21
390.26124950041
 31
0.0
  0
LINE
  5
284
330
18
100
AcDbEntity
  8
1
  6
Continuous
100
AcDbLine
 10
391.079748339783
 20
393.7612675004102
 30
0.0
 11
391.079748339783
 21
390.26124950041
 31
0.0
  0
ARC
  5
285
330
18
100
AcDbEntity
  8
1
  6
Continuous
100
AcDbCircle
 10
341.4609248322581
 20
478.8448184689748
 30
0.0
 40
18.0
100
AcDbArc
 50
37.77048958863562
 51
90.0
  0
LINE
  5
286
330
18
100
AcDbEntity
  8
1
  6
Continuous
100
AcDbLine
 10
332.579752339783
 20
495.8448184689748
 30
0.0
 11
309.579752339783
 21
495.8448184689748
 31
0.0
  0
ARC
  5
287
330
18
100
AcDbEntity
  8
1
  6
Continuous
100
AcDbCircle
 10
321.0797523397828
 20
516.3864904689748
 30
0.0
 40
23.541666
100
AcDbArc
 50
240.7582050000005
 51
299.2417199999997
  0
LINE
  5
288
330
18
100
AcDbEntity
  8
1
  6
Continuous
100
AcDbLine
 10
309.579752339783
 20
496.8448184689748
 30
0.0
 11
309.579752339783
 21
495.8448184689748
 31
0.0
  0
LINE
  5
289
330
18
100
AcDbEntity
  8
1
  6
Continuous
100
AcDbLine
 10
332.579752339783
 20
496.8448184689748
 30
0.0
 11
332.579752339783
 21
495.8448184689748
 31
0.0
  0
ARC
  5
28A
330
18
100
AcDbEntity
  8
1
  6
Continuous
100
AcDbCircle
 10
348.1912063397828
 20
511.3448184689748
 30
0.0
 40
3.0
100
AcDbArc
 50
270.0000179999999
 51
328.4119730000002
  0
ARC
  5
28B
330
18
100
AcDbEntity
  8
1
  6
Continuous
100
AcDbCircle
 10
377.079748339783
 20
501.8448184689748
 30
0.0
 40
5.5
100
AcDbArc
 50
284.0362620000001
 51
104.0362390000002
  0
LINE
  5
28C
330
18
100
AcDbEntity
  8
4
  6
CENTER
100
AcDbLine
 10
369.5797559634818
 20
501.8448184689746
 30
0.0
 11
384.5797487160841
 21
501.8448184689746
 31
0.0
  0
ARC
  5
28D
330
18
100
AcDbEntity
  8
1
  6
Continuous
100
AcDbCircle
 10
379.079748339783
 20
493.3448184689748
 30
0.0
 40
12.0
100
AcDbArc
 50
269.9999630000001
 51
359.9999450000002
  0
LINE
  5
28E
330
18
100
AcDbEntity
  8
4
  6
CENTER
100
AcDbLine
 10
377.0797523397829
 20
509.3448148452758
 30
0.0
 11
377.0797523397829
 21
494.3448220926736
 31
0.0
  0
LINE
  5
28F
330
18
100
AcDbEntity
  8
4
  6
CENTER
100
AcDbLine
 10
371.0797523397828
 20
507.8448148452756
 30
0.0
 11
371.0797523397828
 21
492.8448220926736
 31
0.0
  0
ARC
  5
290
330
18
100
AcDbEntity
  8
1
  6
Continuous
100
AcDbCircle
 10
373.079748339783
 20
503.3448184689748
 30
0.0
 40
22.0
100
AcDbArc
 50
217.7704895886356
 51
269.9999630000001
  0
LINE
  5
291
330
18
100
AcDbEntity
  8
1
  6
Continuous
100
AcDbLine
 10
379.079748339783
 20
481.3448184689748
 30
0.0
 11
373.079748339783
 21
481.3448184689748
 31
0.0
  0
LINE
  5
292
330
18
100
AcDbEntity
  8
4
  6
CENTER
100
AcDbLine
 10
363.5797559634818
 20
500.3448184689745
 30
0.0
 11
378.5797487160841
 21
500.3448184689745
 31
0.0
  0
ARC
  5
293
330
18
100
AcDbEntity
  8
1
  6
Continuous
100
AcDbCircle
 10
371.079748339783
 20
500.3448184689748
 30
0.0
 40
5.5
100
AcDbArc
 50
104.0362390000002
 51
284.036258
  0
LINE
  5
294
330
18
100
AcDbEntity
  8
1
  6
Continuous
100
AcDbLine
 10
378.4137063397829
 20
496.5090184689747
 30
0.0
 11
372.413718339783
 21
495.0090214689748
 31
0.0
  0
LINE
  5
295
330
18
100
AcDbEntity
  8
1
  6
Continuous
100
AcDbLine
 10
375.745814339783
 20
507.1805864689745
 30
0.0
 11
369.745826339783
 21
505.6805884689746
 31
0.0
  0
ARC
  5
296
330
18
100
AcDbEntity
  8
1
  6
Continuous
100
AcDbCircle
 10
388.5061593397828
 20
513.3448184689746
 30
0.0
 40
5.0
100
AcDbArc
 50
300.9785942118881
 51
340.5287860000001
  0
ARC
  5
297
330
18
100
AcDbEntity
  8
1
  6
Continuous
100
AcDbCircle
 10
366.079748339783
 20
556.3448184689748
 30
0.0
 40
18.0
100
AcDbArc
 50
211.5881310000001
 51
269.9999630000001
  0
ARC
  5
298
330
18
100
AcDbEntity
  8
1
  6
Continuous
100
AcDbCircle
 10
341.4609248322581
 20
577.8448184689747
 30
0.0
 40
18.0
100
AcDbArc
 50
270.0
 51
322.2295104113643
  0
ARC
  5
299
330
18
100
AcDbEntity
  8
1
  6
Continuous
100
AcDbCircle
 10
348.1912063397828
 20
545.3448184689748
 30
0.0
 40
3.0
100
AcDbArc
 50
31.58802699999976
 51
89.99998199999998
  0
ARC
  5
29A
330
18
100
AcDbEntity
  8
1
  6
Continuous
100
AcDbCircle
 10
325.8297501250948
 20
560.1948660133285
 30
0.0
 40
9.649952699615059
100
AcDbArc
 50
60.51273062376427
 51
119.4872693762337
  0
LINE
  5
29B
330
18
100
AcDbEntity
  8
1
  6
Continuous
100
AcDbLine
 10
330.5797479104068
 20
569.8448184689747
 30
0.0
 11
311.5797567691592
 21
569.8448184689747
 31
0.0
  0
ARC
  5
29C
330
18
100
AcDbEntity
  8
1
  6
Continuous
100
AcDbCircle
 10
325.8297501250948
 20
572.4947583310989
 30
0.0
 40
9.649952699615059
100
AcDbArc
 50
240.5127306237661
 51
299.4872693762356
  0
LINE
  5
29D
330
18
100
AcDbEntity
  8
1
  6
Continuous
100
AcDbLine
 10
331.5797523397831
 20
562.8448184689748
 30
0.0
 11
310.5797523397831
 21
562.8448184689748
 31
0.0
  0
LINE
  5
29E
330
18
100
AcDbEntity
  8
1
  6
Continuous
100
AcDbLine
 10
321.0797523397828
 20
568.5948184689747
 30
0.0
 11
321.0797523397828
 21
564.0948184689746
 31
0.0
  0
LINE
  5
29F
330
18
100
AcDbEntity
  8
1
  6
Continuous
100
AcDbLine
 10
311.5797567691592
 20
569.8448184689747
 30
0.0
 11
311.5797567691592
 21
562.8448184689748
 31
0.0
  0
ARC
  5
2A0
330
18
100
AcDbEntity
  8
1
  6
Continuous
100
AcDbCircle
 10
316.3297545544712
 20
572.4947583310949
 30
0.0
 40
9.649952699611626
100
AcDbArc
 50
240.512730623754
 51
299.487269376245
  0
LINE
  5
2A1
330
18
100
AcDbEntity
  8
1
  6
Continuous
100
AcDbLine
 10
310.5797523397831
 20
559.8448184689748
 30
0.0
 11
310.5797523397831
 21
562.8448184689748
 31
0.0
  0
LINE
  5
2A2
330
18
100
AcDbEntity
  8
1
  6
Continuous
100
AcDbLine
 10
315.829752339783
 20
573.8448184689747
 30
0.0
 11
315.0797523397831
 21
573.0948184689747
 31
0.0
  0
LINE
  5
2A3
330
18
100
AcDbEntity
  8
1
  6
Continuous
100
AcDbLine
 10
327.0797523397831
 20
573.0948184689747
 30
0.0
 11
315.0797523397831
 21
573.0948184689747
 31
0.0
  0
ARC
  5
2A4
330
18
100
AcDbEntity
  8
1
  6
Continuous
100
AcDbCircle
 10
316.3297545544712
 20
560.1948660133323
 30
0.0
 40
9.649952699611626
100
AcDbArc
 50
60.51273062375497
 51
119.487269376245
  0
LINE
  5
2A5
330
18
100
AcDbEntity
  8
1
  6
Continuous
100
AcDbLine
 10
315.0797523397831
 20
573.0948184689747
 30
0.0
 11
315.0797523397831
 21
569.8448184689747
 31
0.0
  0
LINE
  5
2A6
330
18
100
AcDbEntity
  8
1
  6
Continuous
100
AcDbLine
 10
326.329752339783
 20
573.8448184689747
 30
0.0
 11
315.829752339783
 21
573.8448184689747
 31
0.0
  0
LINE
  5
2A7
330
18
100
AcDbEntity
  8
2
  6
Continuous
100
AcDbLine
 10
315.829752339783
 20
573.8448184689747
 30
0.0
 11
315.829752339783
 21
569.8448184689747
 31
0.0
  0
LINE
  5
2A8
330
18
100
AcDbEntity
  8
2
  6
Continuous
100
AcDbLine
 10
326.329752339783
 20
573.8448184689747
 30
0.0
 11
326.329752339783
 21
569.8448184689747
 31
0.0
  0
LINE
  5
2A9
330
18
100
AcDbEntity
  8
1
  6
Continuous
100
AcDbLine
 10
327.0797523397831
 20
573.0948184689747
 30
0.0
 11
327.0797523397831
 21
569.8448184689747
 31
0.0
  0
LINE
  5
2AA
330
18
100
AcDbEntity
  8
1
  6
Continuous
100
AcDbLine
 10
326.329752339783
 20
573.8448184689747
 30
0.0
 11
327.0797523397831
 21
573.0948184689747
 31
0.0
  0
LINE
  5
2AB
330
18
100
AcDbEntity
  8
1
  6
Continuous
100
AcDbLine
 10
330.5797479104068
 20
569.8448184689747
 30
0.0
 11
330.5797479104068
 21
562.8448184689748
 31
0.0
  0
LINE
  5
2AC
330
18
100
AcDbEntity
  8
1
  6
Continuous
100
AcDbLine
 10
331.5797523397831
 20
559.8448184689748
 30
0.0
 11
331.5797523397831
 21
562.8448184689748
 31
0.0
  0
LINE
  5
2AD
330
18
100
AcDbEntity
  8
4
  6
CENTER
100
AcDbLine
 10
377.0797523397829
 20
547.3448220926736
 30
0.0
 11
377.0797523397829
 21
562.3448148452758
 31
0.0
  0
ARC
  5
2AE
330
18
100
AcDbEntity
  8
1
  6
Continuous
100
AcDbCircle
 10
377.079748339783
 20
554.8448184689748
 30
0.0
 40
5.5
100
AcDbArc
 50
255.9637059999996
 51
75.96368400000017
  0
ARC
  5
2AF
330
18
100
AcDbEntity
  8
1
  6
Continuous
100
AcDbCircle
 10
370.079748339783
 20
528.3448184689748
 30
0.0
 40
10.0
100
AcDbArc
 50
269.9999630000001
 51
89.99998199999998
  0
LINE
  5
2B0
330
18
100
AcDbEntity
  8
1
  6
Continuous
100
AcDbLine
 10
366.079748339783
 20
518.3448184689748
 30
0.0
 11
370.079748339783
 21
518.3448184689748
 31
0.0
  0
LINE
  5
2B1
330
18
100
AcDbEntity
  8
1
  6
Continuous
100
AcDbLine
 10
366.079748339783
 20
538.3448184689748
 30
0.0
 11
370.079748339783
 21
538.3448184689748
 31
0.0
  0
ARC
  5
2B2
330
18
100
AcDbEntity
  8
1
  6
Continuous
100
AcDbCircle
 10
346.0797523397828
 20
528.3448184689746
 30
0.0
 40
50.0
100
AcDbArc
 50
356.0719269999998
 51
3.928091999999846
  0
LINE
  5
2B3
330
18
100
AcDbEntity
  8
1
  6
Continuous
100
AcDbLine
 10
391.079748339783
 20
524.9196174689743
 30
0.0
 11
395.9622983397831
 21
524.9196174689748
 31
0.0
  0
LINE
  5
2B4
330
18
100
AcDbEntity
  8
1
  6
Continuous
100
AcDbLine
 10
391.0797483397832
 20
521.9703984689746
 30
0.0
 11
395.671755339783
 21
521.9703984689746
 31
0.0
  0
ARC
  5
2B5
330
18
100
AcDbEntity
  8
1
  6
Continuous
100
AcDbCircle
 10
395.6478833397828
 20
516.3448184689745
 30
0.0
 40
1.8
100
AcDbArc
 50
110.9847400000002
 51
221.7973540000001
  0
LINE
  5
2B6
330
18
100
AcDbEntity
  8
1
  6
Continuous
100
AcDbLine
 10
391.079748339783
 20
518.0254214689746
 30
0.0
 11
395.0032683397829
 21
518.0254214689746
 31
0.0
  0
LINE
  5
2B7
330
18
100
AcDbEntity
  8
1
  6
Continuous
100
AcDbLine
 10
391.0797483397832
 20
515.1451264689747
 30
0.0
 11
394.3059703397828
 21
515.1451264689747
 31
0.0
  0
ARC
  5
2B8
330
18
100
AcDbEntity
  8
1
  6
Continuous
100
AcDbCircle
 10
346.0797523397828
 20
528.3448184689746
 30
0.0
 40
50.0
100
AcDbArc
 50
348.0892389999998
 51
352.6755329999996
  0
ARC
  5
2B9
330
18
100
AcDbEntity
  8
1
  6
Continuous
100
AcDbCircle
 10
396.8340633397828
 20
523.3448184689746
 30
0.0
 40
1.8
100
AcDbArc
 50
118.9675379999999
 51
229.7798369999997
  0
ARC
  5
2BA
330
18
100
AcDbEntity
  8
1
  6
Continuous
100
AcDbCircle
 10
346.0797523397828
 20
528.3448184689746
 30
0.0
 40
50.0
100
AcDbArc
 50
15.30718000000014
 51
19.47123900000023
  0
LINE
  5
2BB
330
18
100
AcDbEntity
  8
1
  6
Continuous
100
AcDbLine
 10
391.0797483397832
 20
541.5444954689745
 30
0.0
 11
394.3059753397827
 21
541.5444954689745
 31
0.0
  0
LINE
  5
2BC
330
18
100
AcDbEntity
  8
1
  6
Continuous
100
AcDbLine
 10
391.079748339783
 20
538.6642004689748
 30
0.0
 11
395.0032683397829
 21
538.6642004689747
 31
0.0
  0
LINE
  5
2BD
330
18
100
AcDbEntity
  8
1
  6
Continuous
100
AcDbLine
 10
391.0797483397832
 20
534.7192314689748
 30
0.0
 11
395.671755339783
 21
534.7192314689748
 31
0.0
  0
LINE
  5
2BE
330
18
100
AcDbEntity
  8
1
  6
Continuous
100
AcDbLine
 10
391.0797483397832
 20
531.7700124689745
 30
0.0
 11
395.9622973397831
 21
531.7700124689745
 31
0.0
  0
ARC
  5
2BF
330
18
100
AcDbEntity
  8
1
  6
Continuous
100
AcDbCircle
 10
395.6478833397828
 20
540.3448184689746
 30
0.0
 40
1.8
100
AcDbArc
 50
138.2026210000001
 51
249.0152439999993
  0
ARC
  5
2C0
330
18
100
AcDbEntity
  8
1
  6
Continuous
100
AcDbCircle
 10
388.5061593397828
 20
543.3448184689748
 30
0.0
 40
5.0
100
AcDbArc
 50
19.47123300000017
 51
59.02140578811184
  0
ARC
  5
2C1
330
18
100
AcDbEntity
  8
1
  6
Continuous
100
AcDbCircle
 10
346.0797523397828
 20
528.3448184689746
 30
0.0
 40
50.0
100
AcDbArc
 50
7.32448599999984
 51
11.91078000000014
  0
ARC
  5
2C2
330
18
100
AcDbEntity
  8
1
  6
Continuous
100
AcDbCircle
 10
396.8340633397828
 20
533.3448184689745
 30
0.0
 40
1.8
100
AcDbArc
 50
130.2201509999999
 51
241.0324440000004
  0
LINE
  5
2C3
330
18
100
AcDbEntity
  8
4
  6
CENTER
100
AcDbLine
 10
369.5797559634818
 20
554.8448184689748
 30
0.0
 11
384.5797487160841
 21
554.8448184689748
 31
0.0
  0
ARC
  5
2C4
330
18
100
AcDbEntity
  8
1
  6
Continuous
100
AcDbCircle
 10
379.079748339783
 20
563.3448184689747
 30
0.0
 40
12.0
100
AcDbArc
 50
0.0
 51
89.99998199999998
  0
ARC
  5
2C5
330
18
100
AcDbEntity
  8
1
  6
Continuous
100
AcDbCircle
 10
371.079748339783
 20
556.3448184689748
 30
0.0
 40
5.5
100
AcDbArc
 50
75.96368400000017
 51
255.9636889999996
  0
LINE
  5
2C6
330
18
100
AcDbEntity
  8
4
  6
CENTER
100
AcDbLine
 10
363.5797559634818
 20
556.3448184689748
 30
0.0
 11
378.5797487160841
 21
556.3448184689748
 31
0.0
  0
LINE
  5
2C7
330
18
100
AcDbEntity
  8
4
  6
CENTER
100
AcDbLine
 10
371.0797523397828
 20
548.8448220926738
 30
0.0
 11
371.0797523397828
 21
563.8448148452757
 31
0.0
  0
LINE
  5
2C8
330
18
100
AcDbEntity
  8
1
  6
Continuous
100
AcDbLine
 10
375.745803339783
 20
549.5090434689748
 30
0.0
 11
369.7458073397828
 21
551.0090424689747
 31
0.0
  0
LINE
  5
2C9
330
18
100
AcDbEntity
  8
1
  6
Continuous
100
AcDbLine
 10
378.4136953397831
 20
560.1806104689747
 30
0.0
 11
372.4136993397828
 21
561.6806094689746
 31
0.0
  0
ARC
  5
2CA
330
18
100
AcDbEntity
  8
1
  6
Continuous
100
AcDbCircle
 10
373.079748339783
 20
553.3448184689748
 30
0.0
 40
22.0
100
AcDbArc
 50
89.99998199999998
 51
142.229510411364
  0
LINE
  5
2CB
330
18
100
AcDbEntity
  8
1
  6
Continuous
100
AcDbLine
 10
379.079748339783
 20
575.3448184689747
 30
0.0
 11
373.079748339783
 21
575.3448184689747
 31
0.0
  0
ARC
  5
4CC
330
18
100
AcDbEntity
  8
1
  6
Continuous
100
AcDbCircle
 10
314.8358927223564
 20
274.06720350041
 30
0.0
 40
200.0
100
AcDbArc
 50
8.163778999999838
 51
18.04894700000008
  0
ARC
  5
4CD
330
18
100
AcDbEntity
  8
1
  6
Continuous
100
AcDbCircle
 10
466.6131447223563
 20
297.0000575004099
 30
0.0
 40
50.0
100
AcDbArc
 50
359.9999949999999
 51
8.592141000000076
  0
ARC
  5
4CE
330
18
100
AcDbEntity
  8
1
  6
Continuous
100
AcDbCircle
 10
774.3903967223563
 20
274.06720350041
 30
0.0
 40
200.0
100
AcDbArc
 50
161.9510479999998
 51
171.836216
  0
ARC
  5
4CF
330
18
100
AcDbEntity
  8
1
  6
Continuous
100
AcDbCircle
 10
622.613144722356
 20
297.0000575004099
 30
0.0
 40
50.0
100
AcDbArc
 50
171.407861
 51
180.0
  0
LINE
  5
4D0
330
18
100
AcDbEntity
  8
1
  6
Continuous
100
AcDbLine
 10
516.6131447223563
 20
389.2612485004099
 30
0.0
 11
516.6131447223563
 21
259.76123450041
 31
0.0
  0
LINE
  5
4D1
330
18
100
AcDbEntity
  8
1
  6
Continuous
100
AcDbLine
 10
572.6131447223563
 20
389.2612485004099
 30
0.0
 11
572.6131447223563
 21
259.76123450041
 31
0.0
  0
LINE
  5
4D2
330
18
100
AcDbEntity
  8
4
  6
CENTER
100
AcDbLine
 10
544.6131447223563
 20
403.76124950041
 30
0.0
 11
544.6131447223563
 21
197.49458750041
 31
0.0
  0
LINE
  5
4D3
330
18
100
AcDbEntity
  8
1
  6
Continuous
100
AcDbLine
 10
531.413452722356
 20
205.53501550041
 30
0.0
 11
531.413452722356
 21
351.98745250041
 31
0.0
  0
LINE
  5
4D4
330
18
100
AcDbEntity
  8
1
  6
Continuous
100
AcDbLine
 10
534.2937477223563
 20
204.83772650041
 30
0.0
 11
534.2937477223563
 21
352.6847505004101
 31
0.0
  0
LINE
  5
4D5
330
18
100
AcDbEntity
  8
1
  6
Continuous
100
AcDbLine
 10
538.2387247223562
 20
204.16923150041
 30
0.0
 11
538.2387247223562
 21
353.3532375004102
 31
0.0
  0
LINE
  5
4D6
330
18
100
AcDbEntity
  8
1
  6
Continuous
100
AcDbLine
 10
541.1879437223563
 20
203.8786965004101
 30
0.0
 11
541.1879437223563
 21
353.64378050041
 31
0.0
  0
LINE
  5
4D7
330
18
100
AcDbEntity
  8
1
  6
Continuous
100
AcDbLine
 10
548.0383387223562
 20
203.87868950041
 30
0.0
 11
548.0383387223562
 21
353.64377950041
 31
0.0
  0
LINE
  5
4D8
330
18
100
AcDbEntity
  8
1
  6
Continuous
100
AcDbLine
 10
550.9875577223563
 20
204.16923150041
 30
0.0
 11
550.9875577223563
 21
353.3532375004102
 31
0.0
  0
LINE
  5
4D9
330
18
100
AcDbEntity
  8
1
  6
Continuous
100
AcDbLine
 10
554.9325267223563
 20
204.83771950041
 30
0.0
 11
554.9325267223563
 21
352.6847505004101
 31
0.0
  0
LINE
  5
4DA
330
18
100
AcDbEntity
  8
1
  6
Continuous
100
AcDbLine
 10
557.8128217223564
 20
205.53501550041
 30
0.0
 11
557.8128217223564
 21
351.98745750041
 31
0.0
  0
LINE
  5
4DB
330
18
100
AcDbEntity
  8
1
  6
Continuous
100
AcDbLine
 10
524.6131447223563
 20
346.18764150041
 30
0.0
 11
524.6131447223563
 21
211.3348275004101
 31
0.0
  0
LINE
  5
4DC
330
18
100
AcDbEntity
  8
1
  6
Continuous
100
AcDbLine
 10
564.6131447223563
 20
346.18764150041
 30
0.0
 11
564.6131447223563
 21
211.3348275004101
 31
0.0
  0
ARC
  5
4DE
330
18
100
AcDbEntity
  8
1
  6
Continuous
100
AcDbCircle
 10
544.6131447223563
 20
253.76123450041
 30
0.0
 40
50.0
100
AcDbArc
 50
285.3071800000001
 51
289.4712390000001
  0
ARC
  5
4DF
330
18
100
AcDbEntity
  8
1
  6
Continuous
100
AcDbCircle
 10
559.6131447223561
 20
211.3348275004101
 30
0.0
 40
5.0
100
AcDbArc
 50
289.4712330000001
 51
0.0000189999998023
  0
ARC
  5
4E0
330
18
100
AcDbEntity
  8
1
  6
Continuous
100
AcDbCircle
 10
544.6131447223563
 20
253.76123450041
 30
0.0
 40
50.0
100
AcDbArc
 50
250.528779
 51
254.692838
  0
ARC
  5
4E1
330
18
100
AcDbEntity
  8
1
  6
Continuous
100
AcDbCircle
 10
544.6131447223563
 20
253.76123450041
 30
0.0
 40
50.0
100
AcDbArc
 50
266.0719270000003
 51
273.9280919999998
  0
ARC
  5
4E2
330
18
100
AcDbEntity
  8
1
  6
Continuous
100
AcDbCircle
 10
544.6131447223563
 20
253.76123450041
 30
0.0
 40
50.0
100
AcDbArc
 50
277.3244859999997
 51
281.9107799999995
  0
ARC
  5
4E3
330
18
100
AcDbEntity
  8
1
  6
Continuous
100
AcDbCircle
 10
556.6131447223563
 20
204.19310450041
 30
0.0
 40
1.8
100
AcDbArc
 50
48.2026209999999
 51
159.0152439999999
  0
ARC
  5
4E4
330
18
100
AcDbEntity
  8
1
  6
Continuous
100
AcDbCircle
 10
549.6131447223563
 20
203.0069245004101
 30
0.0
 40
1.8
100
AcDbArc
 50
40.22015100000007
 51
151.0324439999997
  0
ARC
  5
4E5
330
18
100
AcDbEntity
  8
1
  6
Continuous
100
AcDbCircle
 10
544.6131447223563
 20
253.76123450041
 30
0.0
 40
50.0
100
AcDbArc
 50
258.0892390000002
 51
262.675533
  0
ARC
  5
4E6
330
18
100
AcDbEntity
  8
1
  6
Continuous
100
AcDbCircle
 10
539.6131447223563
 20
203.0069245004101
 30
0.0
 40
1.8
100
AcDbArc
 50
28.9675379999999
 51
139.7798369999997
  0
ARC
  5
4E7
330
18
100
AcDbEntity
  8
1
  6
Continuous
100
AcDbCircle
 10
532.6131447223563
 20
204.19310450041
 30
0.0
 40
1.8
100
AcDbArc
 50
20.98473999999991
 51
131.7973539999999
  0
ARC
  5
4E8
330
18
100
AcDbEntity
  8
1
  6
Continuous
100
AcDbCircle
 10
529.6131447223562
 20
211.3348275004101
 30
0.0
 40
5.0
100
AcDbArc
 50
180.0
 51
250.5287860000001
  0
LINE
  5
4EA
330
18
100
AcDbEntity
  8
4
  6
CENTER
100
AcDbLine
 10
595.6131447223563
 20
278.76123450041
 30
0.0
 11
502.1131447223563
 21
278.76123450041
 31
0.0
  0
LINE
  5
4EB
330
18
100
AcDbEntity
  8
1
  6
Continuous
100
AcDbLine
 10
576.1131447223562
 20
298.2077605004101
 30
0.0
 11
576.1131447223562
 21
259.76123450041
 31
0.0
  0
LINE
  5
4EC
330
18
100
AcDbEntity
  8
1
  6
Continuous
100
AcDbLine
 10
571.1131447223563
 20
296.76123550041
 30
0.0
 11
571.1131447223563
 21
260.7612345004099
 31
0.0
  0
LINE
  5
4ED
330
18
100
AcDbEntity
  8
1
  6
Continuous
100
AcDbLine
 10
576.1131447223562
 20
259.76123450041
 30
0.0
 11
572.6131447223563
 21
259.76123450041
 31
0.0
  0
LINE
  5
4EE
330
18
100
AcDbEntity
  8
1
  6
Continuous
100
AcDbLine
 10
564.6131447223563
 20
259.4093955004101
 30
0.0
 11
570.1766177223562
 21
259.7632525004098
 31
0.0
  0
ARC
  5
4EF
330
18
100
AcDbEntity
  8
1
  6
Continuous
100
AcDbCircle
 10
570.1131447223563
 20
260.7612345004099
 30
0.0
 40
1.0
100
AcDbArc
 50
273.6394010000001
 51
0.0000189999998023
  0
LINE
  5
4F0
330
18
100
AcDbEntity
  8
1
  6
Continuous
100
AcDbLine
 10
590.1131447223563
 20
273.51123450041
 30
0.0
 11
589.3631447223563
 21
272.76123450041
 31
0.0
  0
LINE
  5
4F1
330
18
100
AcDbEntity
  8
2
  6
Continuous
100
AcDbLine
 10
590.1131447223563
 20
273.51123450041
 30
0.0
 11
586.1131447223563
 21
273.51123450041
 31
0.0
  0
LINE
  5
4F2
330
18
100
AcDbEntity
  8
2
  6
Continuous
100
AcDbLine
 10
590.1131447223563
 20
284.0112345004101
 30
0.0
 11
586.1131447223563
 21
284.0112345004101
 31
0.0
  0
LINE
  5
4F3
330
18
100
AcDbEntity
  8
1
  6
Continuous
100
AcDbLine
 10
590.1131447223563
 20
284.0112345004101
 30
0.0
 11
589.3631447223563
 21
284.76123450041
 31
0.0
  0
LINE
  5
4F4
330
18
100
AcDbEntity
  8
1
  6
Continuous
100
AcDbLine
 10
590.1131447223563
 20
284.0112345004101
 30
0.0
 11
590.1131447223563
 21
273.51123450041
 31
0.0
  0
ARC
  5
4F5
330
18
100
AcDbEntity
  8
1
  6
Continuous
100
AcDbCircle
 10
591.7714697223563
 20
278.76123450041
 30
0.0
 40
12.65833399999999
100
AcDbArc
 50
154.3229729999998
 51
205.6770270000003
  0
ARC
  5
4F6
330
18
100
AcDbEntity
  8
1
  6
Continuous
100
AcDbCircle
 10
573.4548047223562
 20
278.76123450041
 30
0.0
 40
12.65833399999999
100
AcDbArc
 50
334.3229780000003
 51
25.67702600000014
  0
LINE
  5
4F7
330
18
100
AcDbEntity
  8
1
  6
Continuous
100
AcDbLine
 10
579.1131447223563
 20
289.2612345004101
 30
0.0
 11
579.1131447223563
 21
268.26123450041
 31
0.0
  0
LINE
  5
4F8
330
18
100
AcDbEntity
  8
1
  6
Continuous
100
AcDbLine
 10
586.1131447223563
 20
286.9884765004101
 30
0.0
 11
586.1131447223563
 21
270.53399350041
 31
0.0
  0
LINE
  5
4F9
330
18
100
AcDbEntity
  8
1
  6
Continuous
100
AcDbLine
 10
589.3631447223563
 20
284.76123450041
 30
0.0
 11
589.3631447223563
 21
272.76123450041
 31
0.0
  0
LINE
  5
4FA
330
18
100
AcDbEntity
  8
1
  6
Continuous
100
AcDbLine
 10
571.6131447223562
 20
291.7612345004101
 30
0.0
 11
571.6131447223562
 21
265.76123450041
 31
0.0
  0
ARC
  5
4FB
330
18
100
AcDbEntity
  8
1
  6
Continuous
100
AcDbCircle
 10
582.4798137223563
 20
270.53399350041
 30
0.0
 40
3.633333
100
AcDbArc
 50
310.9927320000001
 51
49.00727199999979
  0
ARC
  5
4FC
330
18
100
AcDbEntity
  8
1
  6
Continuous
100
AcDbCircle
 10
582.7464757223562
 20
270.53399350041
 30
0.0
 40
3.633333
100
AcDbArc
 50
130.992734
 51
229.007266
  0
LINE
  5
4FD
330
18
100
AcDbEntity
  8
1
  6
Continuous
100
AcDbLine
 10
584.8631447223563
 20
267.7915765004099
 30
0.0
 11
580.3631447223563
 21
267.7915765004099
 31
0.0
  0
LINE
  5
4FE
330
18
100
AcDbEntity
  8
1
  6
Continuous
100
AcDbLine
 10
576.1131447223562
 20
268.26123450041
 30
0.0
 11
579.1131447223563
 21
268.26123450041
 31
0.0
  0
LINE
  5
4FF
330
18
100
AcDbEntity
  8
1
  6
Continuous
100
AcDbLine
 10
584.8631447223563
 20
273.27640950041
 30
0.0
 11
580.3631447223563
 21
273.27640950041
 31
0.0
  0
LINE
  5
500
330
18
100
AcDbEntity
  8
1
  6
Continuous
100
AcDbLine
 10
589.3631447223563
 20
272.76123450041
 30
0.0
 11
586.1131447223563
 21
272.76123450041
 31
0.0
  0
LINE
  5
501
330
18
100
AcDbEntity
  8
1
  6
Continuous
100
AcDbLine
 10
572.6131447223563
 20
270.26123450041
 30
0.0
 11
571.6131447223562
 21
270.26123450041
 31
0.0
  0
ARC
  5
502
330
18
100
AcDbEntity
  8
1
  6
Continuous
100
AcDbCircle
 10
570.6131447223563
 20
265.76123450041
 30
0.0
 40
1.0
100
AcDbArc
 50
300.0000309999999
 51
0.0000189999998023
  0
LINE
  5
503
330
18
100
AcDbEntity
  8
1
  6
Continuous
100
AcDbLine
 10
584.8631447223563
 20
289.73089250041
 30
0.0
 11
580.3631447223563
 21
289.73089250041
 31
0.0
  0
LINE
  5
504
330
18
100
AcDbEntity
  8
1
  6
Continuous
100
AcDbLine
 10
584.8631447223563
 20
284.24605950041
 30
0.0
 11
580.3631447223563
 21
284.24605950041
 31
0.0
  0
LINE
  5
505
330
18
100
AcDbEntity
  8
1
  6
Continuous
100
AcDbLine
 10
589.3631447223563
 20
284.76123450041
 30
0.0
 11
586.1131447223563
 21
284.76123450041
 31
0.0
  0
ARC
  5
506
330
18
100
AcDbEntity
  8
1
  6
Continuous
100
AcDbCircle
 10
582.4798137223563
 20
286.9884765004101
 30
0.0
 40
3.633333
100
AcDbArc
 50
310.9927320000001
 51
49.00727199999979
  0
LINE
  5
507
330
18
100
AcDbEntity
  8
1
  6
Continuous
100
AcDbLine
 10
576.1131447223562
 20
289.2612345004101
 30
0.0
 11
579.1131447223563
 21
289.2612345004101
 31
0.0
  0
ARC
  5
508
330
18
100
AcDbEntity
  8
1
  6
Continuous
100
AcDbCircle
 10
582.7464757223562
 20
286.9884765004101
 30
0.0
 40
3.633333
100
AcDbArc
 50
130.992734
 51
229.007266
  0
ARC
  5
509
330
18
100
AcDbEntity
  8
1
  6
Continuous
100
AcDbCircle
 10
606.1131447223563
 20
298.2077605004101
 30
0.0
 40
30.0
100
AcDbArc
 50
171.836216
 51
180.0
  0
ARC
  5
50A
330
18
100
AcDbEntity
  8
1
  6
Continuous
100
AcDbCircle
 10
570.6131447223563
 20
291.7612345004101
 30
0.0
 40
1.0
100
AcDbArc
 50
0.000000000000007
 51
59.9999689999999
  0
LINE
  5
50B
330
18
100
AcDbEntity
  8
1
  6
Continuous
100
AcDbLine
 10
572.6131447223563
 20
287.2612345004101
 30
0.0
 11
571.6131447223562
 21
287.2612345004101
 31
0.0
  0
LINE
  5
50C
330
18
100
AcDbEntity
  8
1
  6
Continuous
100
AcDbLine
 10
570.1766177223562
 20
297.7592175004101
 30
0.0
 11
564.6131447223563
 21
298.1130745004098
 31
0.0
  0
ARC
  5
50D
330
18
100
AcDbEntity
  8
1
  6
Continuous
100
AcDbCircle
 10
570.1131447223563
 20
296.7612345004102
 30
0.0
 40
1.0
100
AcDbArc
 50
0.0000360000000476
 51
86.36059899999986
  0
LINE
  5
50E
330
18
100
AcDbEntity
  8
1
  6
Continuous
100
AcDbLine
 10
513.1131447223562
 20
298.2077605004101
 30
0.0
 11
513.1131447223562
 21
259.76123450041
 31
0.0
  0
LINE
  5
50F
330
18
100
AcDbEntity
  8
1
  6
Continuous
100
AcDbLine
 10
518.1131447223561
 20
296.7612345004102
 30
0.0
 11
518.1131447223561
 21
260.7612345004099
 31
0.0
  0
LINE
  5
510
330
18
100
AcDbEntity
  8
1
  6
Continuous
100
AcDbLine
 10
524.6131447223563
 20
259.4093955004101
 30
0.0
 11
519.0496647223563
 21
259.7632525004098
 31
0.0
  0
LINE
  5
511
330
18
100
AcDbEntity
  8
1
  6
Continuous
100
AcDbLine
 10
513.1131447223562
 20
259.76123450041
 30
0.0
 11
516.6131447223563
 21
259.76123450041
 31
0.0
  0
ARC
  5
512
330
18
100
AcDbEntity
  8
1
  6
Continuous
100
AcDbCircle
 10
519.1131447223563
 20
260.7612345004099
 30
0.0
 40
1.0
100
AcDbArc
 50
180.0
 51
266.3606110000001
  0
LINE
  5
513
330
18
100
AcDbEntity
  8
1
  6
Continuous
100
AcDbLine
 10
512.1131447223563
 20
290.2612345004101
 30
0.0
 11
512.1131447223563
 21
267.26123450041
 31
0.0
  0
ARC
  5
514
330
18
100
AcDbEntity
  8
1
  6
Continuous
100
AcDbCircle
 10
532.6548167223563
 20
278.76123450041
 30
0.0
 40
23.541666
100
AcDbArc
 50
150.7582799999999
 51
209.2417950000001
  0
LINE
  5
515
330
18
100
AcDbEntity
  8
1
  6
Continuous
100
AcDbLine
 10
517.6131447223561
 20
291.7612345004101
 30
0.0
 11
517.6131447223561
 21
265.76123450041
 31
0.0
  0
LINE
  5
516
330
18
100
AcDbEntity
  8
1
  6
Continuous
100
AcDbLine
 10
513.1131447223562
 20
267.26123450041
 30
0.0
 11
512.1131447223563
 21
267.26123450041
 31
0.0
  0
LINE
  5
517
330
18
100
AcDbEntity
  8
1
  6
Continuous
100
AcDbLine
 10
517.6131447223561
 20
270.26123450041
 30
0.0
 11
516.6131447223563
 21
270.26123450041
 31
0.0
  0
ARC
  5
518
330
18
100
AcDbEntity
  8
1
  6
Continuous
100
AcDbCircle
 10
518.6131447223563
 20
265.76123450041
 30
0.0
 40
1.0
100
AcDbArc
 50
180.0
 51
239.9999879999994
  0
LINE
  5
519
330
18
100
AcDbEntity
  8
1
  6
Continuous
100
AcDbLine
 10
513.1131447223562
 20
290.2612345004101
 30
0.0
 11
512.1131447223563
 21
290.2612345004101
 31
0.0
  0
ARC
  5
51A
330
18
100
AcDbEntity
  8
1
  6
Continuous
100
AcDbCircle
 10
518.6131447223563
 20
291.7612345004101
 30
0.0
 40
1.0
100
AcDbArc
 50
120.0000120000003
 51
180.0
  0
LINE
  5
51B
330
18
100
AcDbEntity
  8
1
  6
Continuous
100
AcDbLine
 10
516.6131447223563
 20
287.2612345004101
 30
0.0
 11
517.6131447223561
 21
287.2612345004101
 31
0.0
  0
LINE
  5
51C
330
18
100
AcDbEntity
  8
1
  6
Continuous
100
AcDbLine
 10
524.6131447223563
 20
298.1130745004098
 30
0.0
 11
519.0496647223563
 21
297.75921650041
 31
0.0
  0
ARC
  5
51D
330
18
100
AcDbEntity
  8
1
  6
Continuous
100
AcDbCircle
 10
519.1131447223563
 20
296.7612345004102
 30
0.0
 40
1.0
100
AcDbArc
 50
93.63938899999977
 51
180.0
  0
ARC
  5
51E
330
18
100
AcDbEntity
  8
1
  6
Continuous
100
AcDbCircle
 10
483.1131447223564
 20
298.2077605004101
 30
0.0
 40
30.0
100
AcDbArc
 50
359.9999949999999
 51
8.163778999999838
  0
ARC
  5
520
330
18
100
AcDbEntity
  8
1
  6
Continuous
100
AcDbCircle
 10
647.613144722356
 20
382.50751150041
 30
0.0
 40
150.0
100
AcDbArc
 50
179.999978
 51
198.048952
  0
ARC
  5
521
330
18
100
AcDbEntity
  8
1
  6
Continuous
100
AcDbCircle
 10
502.1131447223563
 20
389.2612485004099
 30
0.0
 40
1.0
100
AcDbArc
 50
90.00001800000005
 51
180.0
  0
ARC
  5
522
330
18
100
AcDbEntity
  8
1
  6
Continuous
100
AcDbCircle
 10
517.6131447223561
 20
389.2612485004099
 30
0.0
 40
1.0
100
AcDbArc
 50
89.99998400000034
 51
179.9999639999999
  0
ARC
  5
523
330
18
100
AcDbEntity
  8
1
  6
Continuous
100
AcDbCircle
 10
524.6131447223563
 20
390.26124850041
 30
0.0
 40
2.0
100
AcDbArc
 50
180.0
 51
270.0000369999997
  0
ARC
  5
524
330
18
100
AcDbEntity
  8
1
  6
Continuous
100
AcDbCircle
 10
534.6131447223561
 20
390.26124850041
 30
0.0
 40
2.0
100
AcDbArc
 50
180.0
 51
270.0000369999997
  0
ARC
  5
525
330
18
100
AcDbEntity
  8
1
  6
Continuous
100
AcDbCircle
 10
554.6131447223562
 20
390.26124850041
 30
0.0
 40
2.0
100
AcDbArc
 50
269.9999819999999
 51
0.0000189999998023
  0
ARC
  5
526
330
18
100
AcDbEntity
  8
1
  6
Continuous
100
AcDbCircle
 10
495.1131447223564
 20
384.8068915004101
 30
0.0
 40
6.0
100
AcDbArc
 50
0.0000360000000476
 51
65.37571100000011
  0
LINE
  5
527
330
18
100
AcDbEntity
  8
1
  6
Continuous
100
AcDbLine
 10
497.6131447223563
 20
393.7612495004097
 30
0.0
 11
497.6131447223563
 21
382.50751150041
 31
0.0
  0
LINE
  5
528
330
18
100
AcDbEntity
  8
4
  6
CENTER
100
AcDbLine
 10
516.6131447223563
 20
399.3941438046189
 30
0.0
 11
516.6131447223563
 21
384.3941510520167
 31
0.0
  0
LINE
  5
529
330
18
100
AcDbEntity
  8
4
  6
CENTER
100
AcDbLine
 10
518.1131447223561
 20
399.3941438046189
 30
0.0
 11
518.1131447223561
 21
384.3941510520167
 31
0.0
  0
ARC
  5
52A
330
18
100
AcDbEntity
  8
1
  6
Continuous
100
AcDbCircle
 10
571.6131447223562
 20
389.2612485004099
 30
0.0
 40
1.0
100
AcDbArc
 50
0.0000360000000476
 51
90.00001800000005
  0
ARC
  5
52B
330
18
100
AcDbEntity
  8
1
  6
Continuous
100
AcDbCircle
 10
564.6131447223563
 20
390.26124850041
 30
0.0
 40
2.0
100
AcDbArc
 50
269.9999819999999
 51
0.0000189999998023
  0
ARC
  5
52C
330
18
100
AcDbEntity
  8
1
  6
Continuous
100
AcDbCircle
 10
587.1131447223563
 20
389.2612485004099
 30
0.0
 40
1.0
100
AcDbArc
 50
0.0000360000000476
 51
90.00001800000005
  0
LINE
  5
52D
330
18
100
AcDbEntity
  8
4
  6
CENTER
100
AcDbLine
 10
571.1131447223563
 20
399.3941438046189
 30
0.0
 11
571.1131447223563
 21
384.3941510520167
 31
0.0
  0
LINE
  5
52E
330
18
100
AcDbEntity
  8
4
  6
CENTER
100
AcDbLine
 10
572.6131447223563
 20
399.3941438046189
 30
0.0
 11
572.6131447223563
 21
384.3941510520167
 31
0.0
  0
ARC
  5
52F
330
18
100
AcDbEntity
  8
1
  6
Continuous
100
AcDbCircle
 10
594.1131447223563
 20
384.8068915004101
 30
0.0
 40
6.0
100
AcDbArc
 50
114.6243180000001
 51
180.0
  0
LINE
  5
530
330
18
100
AcDbEntity
  8
1
  6
Continuous
100
AcDbLine
 10
591.6131447223563
 20
393.7612495004097
 30
0.0
 11
591.6131447223563
 21
382.50751150041
 31
0.0
  0
ARC
  5
531
330
18
100
AcDbEntity
  8
1
  6
Continuous
100
AcDbCircle
 10
544.6131447223563
 20
303.7612345004101
 30
0.0
 40
50.0
100
AcDbArc
 50
70.52876099999993
 51
74.69281999999984
  0
LINE
  5
532
330
18
100
AcDbEntity
  8
1
  6
Continuous
100
AcDbLine
 10
564.6131447223563
 20
388.2612485004099
 30
0.0
 11
544.6131447223563
 21
388.2612485004099
 31
0.0
  0
ARC
  5
533
330
18
100
AcDbEntity
  8
1
  6
Continuous
100
AcDbCircle
 10
559.6131447223561
 20
346.18764150041
 30
0.0
 40
5.0
100
AcDbArc
 50
0.0000360000000476
 51
70.52876699999983
  0
ARC
  5
534
330
18
100
AcDbEntity
  8
1
  6
Continuous
100
AcDbCircle
 10
441.6131447223562
 20
382.50751150041
 30
0.0
 40
150.0
100
AcDbArc
 50
341.951043
 51
0.0000219999999413
  0
ARC
  5
535
330
18
100
AcDbEntity
  8
1
  6
Continuous
100
AcDbCircle
 10
491.6131447223563
 20
374.2521635004102
 30
0.0
 40
96.5
100
AcDbArc
 50
340.4913080000001
 51
0.0000219999999413
  0
ARC
  5
536
330
18
100
AcDbEntity
  8
1
  6
Continuous
100
AcDbCircle
 10
774.3903967223563
 20
274.06720350041
 30
0.0
 40
203.5
100
AcDbArc
 50
160.491308
 51
171.407861
  0
LINE
  5
537
330
18
100
AcDbEntity
  8
1
  6
Continuous
100
AcDbLine
 10
588.1131447223562
 20
389.2612485004099
 30
0.0
 11
588.1131447223562
 21
374.2521635004102
 31
0.0
  0
ARC
  5
538
330
18
100
AcDbEntity
  8
1
  6
Continuous
100
AcDbCircle
 10
529.6131447223562
 20
346.18764150041
 30
0.0
 40
5.0
100
AcDbArc
 50
109.4712139999998
 51
180.0
  0
ARC
  5
539
330
18
100
AcDbEntity
  8
1
  6
Continuous
100
AcDbCircle
 10
597.613144722356
 20
374.2521635004102
 30
0.0
 40
96.5
100
AcDbArc
 50
179.999978
 51
199.5086919999998
  0
ARC
  5
53A
330
18
100
AcDbEntity
  8
1
  6
Continuous
100
AcDbCircle
 10
314.8358927223564
 20
274.06720350041
 30
0.0
 40
203.5
100
AcDbArc
 50
8.592141000000076
 51
19.50869499999998
  0
LINE
  5
53B
330
18
100
AcDbEntity
  8
1
  6
Continuous
100
AcDbLine
 10
524.6131447223563
 20
388.2612485004099
 30
0.0
 11
544.6131447223563
 21
388.2612485004099
 31
0.0
  0
ARC
  5
53C
330
18
100
AcDbEntity
  8
1
  6
Continuous
100
AcDbCircle
 10
544.6131447223563
 20
303.7612345004101
 30
0.0
 40
50.0
100
AcDbArc
 50
105.307162
 51
109.4712209999997
  0
ARC
  5
53D
330
18
100
AcDbEntity
  8
1
  6
Continuous
100
AcDbCircle
 10
544.6131447223563
 20
303.7612345004101
 30
0.0
 40
50.0
100
AcDbArc
 50
86.07190800000015
 51
93.9280729999997
  0
ARC
  5
53E
330
18
100
AcDbEntity
  8
1
  6
Continuous
100
AcDbCircle
 10
544.6131447223563
 20
303.7612345004101
 30
0.0
 40
50.0
100
AcDbArc
 50
78.08922000000034
 51
82.67551400000019
  0
ARC
  5
53F
330
18
100
AcDbEntity
  8
1
  6
Continuous
100
AcDbCircle
 10
556.6131447223563
 20
353.3293655004102
 30
0.0
 40
1.8
100
AcDbArc
 50
200.9847559999999
 51
311.7973790000001
  0
ARC
  5
540
330
18
100
AcDbEntity
  8
1
  6
Continuous
100
AcDbCircle
 10
549.6131447223563
 20
354.51554550041
 30
0.0
 40
1.8
100
AcDbArc
 50
208.9675559999999
 51
319.7798489999998
  0
ARC
  5
541
330
18
100
AcDbEntity
  8
1
  6
Continuous
100
AcDbCircle
 10
544.6131447223563
 20
303.7612345004101
 30
0.0
 40
50.0
100
AcDbArc
 50
97.32446699999982
 51
101.9107609999996
  0
ARC
  5
542
330
18
100
AcDbEntity
  8
1
  6
Continuous
100
AcDbCircle
 10
539.6131447223563
 20
354.51554550041
 30
0.0
 40
1.8
100
AcDbArc
 50
220.220163
 51
331.032462
  0
ARC
  5
543
330
18
100
AcDbEntity
  8
1
  6
Continuous
100
AcDbCircle
 10
532.6131447223563
 20
353.3293655004102
 30
0.0
 40
1.8
100
AcDbArc
 50
228.2026460000003
 51
339.0152600000001
  0
LINE
  5
544
330
18
100
AcDbEntity
  8
1
  6
Continuous
100
AcDbLine
 10
501.1131447223561
 20
389.2612485004099
 30
0.0
 11
501.1131447223561
 21
374.2521635004102
 31
0.0
  0
LINE
  5
548
330
18
100
AcDbEntity
  8
1
  6
Continuous
100
AcDbLine
 10
591.6131447223563
 20
390.26124850041
 30
0.0
 11
497.6131447223563
 21
390.26124850041
 31
0.0
  0
LINE
  5
549
330
18
100
AcDbEntity
  8
1
  6
Continuous
100
AcDbLine
 10
591.6131447223563
 20
393.7612495004097
 30
0.0
 11
497.6131447223563
 21
393.7612495004097
 31
0.0
  0
LINE
  5
54A
330
18
100
AcDbEntity
  8
1
  6
Continuous
100
AcDbLine
 10
497.6131447223563
 20
390.26124850041
 30
0.0
 11
544.6131447223563
 21
390.26124850041
 31
0.0
  0
LINE
  5
5F8
330
18
100
AcDbEntity
  8
4
  6
CENTER
100
AcDbLine
 10
848.1465371049296
 20
278.7612495004101
 30
0.0
 11
688.1465411049296
 21
278.7612495004101
 31
0.0
  0
ARC
  5
5F9
330
18
100
AcDbEntity
  8
1
  6
Continuous
100
AcDbCircle
 10
768.1465371049296
 20
278.7612495004101
 30
0.0
 40
75.0
100
AcDbArc
 50
120.9872289999997
 51
59.01277399999957
  0
LINE
  5
5FB
330
18
100
AcDbEntity
  8
4
  6
CENTER
100
AcDbLine
 10
768.1465371049296
 20
403.76124950041
 30
0.0
 11
768.1465371049296
 21
198.7612495004101
 31
0.0
  0
LINE
  5
5FC
330
18
100
AcDbEntity
  8
1
  6
Continuous
100
AcDbLine
 10
816.2489951049295
 20
375.4810395004101
 30
0.0
 11
786.3816851049294
 21
273.42464350041
 31
0.0
  0
LINE
  5
5FD
330
18
100
AcDbEntity
  8
1
  6
Continuous
100
AcDbLine
 10
720.0440771049295
 20
375.48103650041
 30
0.0
 11
749.9113901049295
 21
273.42462750041
 31
0.0
  0
ARC
  5
5FE
330
18
100
AcDbEntity
  8
1
  6
Continuous
100
AcDbCircle
 10
768.1465371049296
 20
278.7612495004101
 30
0.0
 40
48.0
100
AcDbArc
 50
129.6303379999999
 51
50.36966700000014
  0
ARC
  5
5FF
330
18
100
AcDbEntity
  8
1
  6
Continuous
100
AcDbCircle
 10
768.1465371049296
 20
278.7612495004101
 30
0.0
 40
57.0
100
AcDbArc
 50
125.7835999999997
 51
54.21640399999972
  0
ARC
  5
602
330
18
100
AcDbEntity
  8
1
  6
Continuous
100
AcDbCircle
 10
768.1465371049296
 20
278.7612495004101
 30
0.0
 40
19.0
100
AcDbArc
 50
196.3123770000001
 51
270.0000369999997
  0
ARC
  5
603
330
18
100
AcDbEntity
  8
1
  6
Continuous
100
AcDbCircle
 10
768.1465371049296
 20
278.7612495004101
 30
0.0
 40
19.0
100
AcDbArc
 50
269.9999819999999
 51
343.6876419999999
  0
ARC
  5
60D
330
18
100
AcDbEntity
  8
1
  6
Continuous
100
AcDbCircle
 10
830.6451651049297
 20
371.2679295004102
 30
0.0
 40
15.0
100
AcDbArc
 50
116.5704240000003
 51
163.6876269999999
  0
LINE
  5
60E
330
18
100
AcDbEntity
  8
1
  6
Continuous
100
AcDbLine
 10
838.1465371049296
 20
393.7612495004097
 30
0.0
 11
698.1465411049295
 21
393.7612675004102
 31
0.0
  0
LINE
  5
611
330
18
100
AcDbEntity
  8
4
  6
CENTER
100
AcDbLine
 10
824.1465371049295
 20
399.3941463760475
 30
0.0
 11
824.1465371049295
 21
384.3941536234452
 31
0.0
  0
LINE
  5
612
330
18
100
AcDbEntity
  8
1
  6
Continuous
100
AcDbLine
 10
826.1465141049296
 20
388.26124950041
 30
0.0
 11
826.1465141049296
 21
390.26124950041
 31
0.0
  0
ARC
  5
613
330
18
100
AcDbEntity
  8
1
  6
Continuous
100
AcDbCircle
 10
822.1465141049295
 20
388.26124950041
 30
0.0
 40
4.0
100
AcDbArc
 50
296.5704289999994
 51
0.0000189999998023
  0
LINE
  5
614
330
18
100
AcDbEntity
  8
1
  6
Continuous
100
AcDbLine
 10
838.1465371049296
 20
390.26124950041
 30
0.0
 11
826.1465141049296
 21
390.26124950041
 31
0.0
  0
LINE
  5
615
330
18
100
AcDbEntity
  8
1
  6
Continuous
100
AcDbLine
 10
838.1465371049296
 20
393.7612675004102
 30
0.0
 11
838.1465371049296
 21
390.26124950041
 31
0.0
  0
ARC
  5
616
330
18
100
AcDbEntity
  8
1
  6
Continuous
100
AcDbCircle
 10
829.6465141049296
 20
390.26124950041
 30
0.0
 40
3.5
100
AcDbArc
 50
90.00001800000005
 51
180.0
  0
LINE
  5
617
330
18
100
AcDbEntity
  8
4
  6
CENTER
100
AcDbLine
 10
718.1465371049296
 20
399.3941463760475
 30
0.0
 11
718.1465371049296
 21
384.3941536234452
 31
0.0
  0
LINE
  5
618
330
18
100
AcDbEntity
  8
4
  6
CENTER
100
AcDbLine
 10
712.1465371049296
 20
399.3941463760475
 30
0.0
 11
712.1465371049296
 21
384.3941536234452
 31
0.0
  0
LINE
  5
619
330
18
100
AcDbEntity
  8
1
  6
Continuous
100
AcDbLine
 10
710.1465561049295
 20
388.26124950041
 30
0.0
 11
710.1465561049295
 21
390.26124950041
 31
0.0
  0
LINE
  5
61A
330
18
100
AcDbEntity
  8
4
  6
CENTER
100
AcDbLine
 10
818.1465371049295
 20
399.3941463760475
 30
0.0
 11
818.1465371049295
 21
384.3941536234452
 31
0.0
  0
ARC
  5
61B
330
18
100
AcDbEntity
  8
1
  6
Continuous
100
AcDbCircle
 10
1141.133174104929
 20
245.48161750041
 30
0.0
 40
350.0
100
AcDbArc
 50
158.191643
 51
169.304801
  0
LINE
  5
61C
330
18
100
AcDbEntity
  8
1
  6
Continuous
100
AcDbLine
 10
797.2132031049296
 20
316.2945825004101
 30
0.0
 11
797.2132031049296
 21
386.6945835004099
 31
0.0
  0
LINE
  5
61D
330
18
100
AcDbEntity
  8
1
  6
Continuous
100
AcDbLine
 10
739.0798751049296
 20
316.2945825004101
 30
0.0
 11
739.0798751049296
 21
386.6945835004099
 31
0.0
  0
ARC
  5
61E
330
18
100
AcDbEntity
  8
1
  6
Continuous
100
AcDbCircle
 10
395.1599081049295
 20
245.48161750041
 30
0.0
 40
350.0
100
AcDbArc
 50
10.69523800000023
 51
21.8083930000001
  0
ARC
  5
61F
330
18
100
AcDbEntity
  8
1
  6
Continuous
100
AcDbCircle
 10
714.1465561049292
 20
388.26124950041
 30
0.0
 40
4.0
100
AcDbArc
 50
180.0
 51
243.4295900000002
  0
ARC
  5
620
330
18
100
AcDbEntity
  8
1
  6
Continuous
100
AcDbCircle
 10
705.6479141049297
 20
371.2679295004102
 30
0.0
 40
15.0
100
AcDbArc
 50
16.31241299999983
 51
63.42961199999961
  0
LINE
  5
622
330
18
100
AcDbEntity
  8
1
  6
Continuous
100
AcDbLine
 10
698.1465411049295
 20
390.26124950041
 30
0.0
 11
710.1465561049295
 21
390.26124950041
 31
0.0
  0
ARC
  5
623
330
18
100
AcDbEntity
  8
1
  6
Continuous
100
AcDbCircle
 10
706.6465561049296
 20
390.26124950041
 30
0.0
 40
3.5
100
AcDbArc
 50
0.0000360000000476
 51
90.00001800000005
  0
LINE
  5
624
330
18
100
AcDbEntity
  8
1
  6
Continuous
100
AcDbLine
 10
698.1465411049295
 20
393.7612675004102
 30
0.0
 11
698.1465411049295
 21
390.26124950041
 31
0.0
  0
ARC
  5
6A5
330
18
100
AcDbEntity
  8
1
  6
Continuous
100
AcDbCircle
 10
379.079748339783
 20
50.33594697439706
 30
0.0
 40
12.0
100
AcDbArc
 50
270.0000179999999
 51
0.0
  0
LINE
  5
6A6
330
18
100
AcDbEntity
  8
1
  6
Continuous
100
AcDbLine
 10
247.853551956299
 20
72.13626997440229
 30
0.0
 11
394.3059753397828
 21
72.13626997439712
 31
0.0
  0
LINE
  5
6A8
330
18
100
AcDbEntity
  8
1
  6
Continuous
100
AcDbLine
 10
247.8535385462338
 20
98.53563897439716
 30
0.0
 11
394.3059703397828
 21
98.53563897439716
 31
0.0
  0
LINE
  5
6A9
330
18
100
AcDbEntity
  8
1
  6
Continuous
100
AcDbLine
 10
247.1562369802138
 20
75.01656497439288
 30
0.0
 11
395.0032683397829
 21
75.01656497439717
 31
0.0
  0
LINE
  5
6AA
330
18
100
AcDbEntity
  8
1
  6
Continuous
100
AcDbLine
 10
246.1972267796621
 20
88.76114797440237
 30
0.0
 11
395.9622983397831
 21
88.76114797439717
 31
0.0
  0
LINE
  5
6AB
330
18
100
AcDbEntity
  8
1
  6
Continuous
100
AcDbLine
 10
246.4877545455173
 20
91.71036697439728
 30
0.0
 11
395.671755339783
 21
91.71036697439728
 31
0.0
  0
LINE
  5
6AC
330
18
100
AcDbEntity
  8
1
  6
Continuous
100
AcDbLine
 10
247.1562722885081
 20
95.65534397439728
 30
0.0
 11
395.0032683397829
 21
95.65534397439728
 31
0.0
  0
LINE
  5
6AD
330
18
100
AcDbEntity
  8
1
  6
Continuous
100
AcDbLine
 10
246.4877628228816
 20
78.96153397439706
 30
0.0
 11
395.671755339783
 21
78.96153397439706
 31
0.0
  0
LINE
  5
6AE
330
18
100
AcDbEntity
  8
1
  6
Continuous
100
AcDbLine
 10
246.1972141346713
 20
81.91075297439736
 30
0.0
 11
395.9622973397831
 21
81.91075297439736
 31
0.0
  0
ARC
  5
6B0
330
18
100
AcDbEntity
  8
1
  6
Continuous
100
AcDbCircle
 10
379.079748339783
 20
120.335946974397
 30
0.0
 40
12.0
100
AcDbArc
 50
0.0000549999998498
 51
90.0
  0
LINE
  5
6B5
330
18
100
AcDbEntity
  8
4
  6
CENTER
100
AcDbLine
 10
241.0797523397829
 20
85.33594697439708
 30
0.0
 11
401.0797483397827
 21
85.33594697439708
 31
0.0
  0
LINE
  5
6B9
330
18
100
AcDbEntity
  8
1
  6
Continuous
100
AcDbLine
 10
263.0797523397828
 20
38.33594697439707
 30
0.0
 11
269.0797523397828
 21
38.33594697439707
 31
0.0
  0
LINE
  5
6BA
330
18
100
AcDbEntity
  8
1
  6
Continuous
100
AcDbLine
 10
263.7458103397829
 20
53.50016597439729
 30
0.0
 11
269.7458093397829
 21
52.00016597439708
 31
0.0
  0
LINE
  5
6BC
330
18
100
AcDbEntity
  8
4
  6
CENTER
100
AcDbLine
 10
278.5797487160841
 20
57.33594697439706
 30
0.0
 11
263.5797559634819
 21
57.33594697439706
 31
0.0
  0
LINE
  5
6BD
330
18
100
AcDbEntity
  8
4
  6
CENTER
100
AcDbLine
 10
272.5797487160841
 20
58.83594697439708
 30
0.0
 11
257.5797559634819
 21
58.83594697439708
 31
0.0
  0
LINE
  5
6BE
330
18
100
AcDbEntity
  8
1
  6
Continuous
100
AcDbLine
 10
266.4137013397829
 20
64.17173297439717
 30
0.0
 11
272.4137013397829
 21
62.67173297439729
 31
0.0
  0
LINE
  5
6BF
330
18
100
AcDbEntity
  8
1
  6
Continuous
100
AcDbLine
 10
263.7458113397828
 20
117.1717309743973
 30
0.0
 11
269.7458103397829
 21
118.6717309743972
 31
0.0
  0
LINE
  5
6C0
330
18
100
AcDbEntity
  8
1
  6
Continuous
100
AcDbLine
 10
263.0797523397828
 20
132.335946974397
 30
0.0
 11
269.0797523397828
 21
132.335946974397
 31
0.0
  0
ARC
  5
6C1
330
18
100
AcDbEntity
  8
1
  6
Continuous
100
AcDbCircle
 10
271.0797523397828
 20
113.335946974397
 30
0.0
 40
5.5
100
AcDbArc
 50
284.0363300000002
 51
104.036335
  0
LINE
  5
6C2
330
18
100
AcDbEntity
  8
4
  6
CENTER
100
AcDbLine
 10
278.5797487160841
 20
113.3359469743973
 30
0.0
 11
263.5797559634819
 21
113.3359469743973
 31
0.0
  0
LINE
  5
6C3
330
18
100
AcDbEntity
  8
4
  6
CENTER
100
AcDbLine
 10
272.5797487160841
 20
111.8359469743973
 30
0.0
 11
257.5797559634819
 21
111.8359469743973
 31
0.0
  0
LINE
  5
6C4
330
18
100
AcDbEntity
  8
1
  6
Continuous
100
AcDbLine
 10
266.4137013397829
 20
106.500162974397
 30
0.0
 11
272.4137023397829
 21
108.000162974397
 31
0.0
  0
ARC
  5
6C5
330
18
100
AcDbEntity
  8
1
  6
Continuous
100
AcDbCircle
 10
271.0797523397828
 20
57.33594697439706
 30
0.0
 40
5.5
100
AcDbArc
 50
255.9637199999995
 51
75.96372499999997
  0
LINE
  5
6C6
330
18
100
AcDbEntity
  8
1
  6
Continuous
100
AcDbLine
 10
251.0797523397829
 20
50.33594697439706
 30
0.0
 11
251.0797523397829
 21
66.04915107648563
 31
0.0
  0
ARC
  5
6C7
330
18
100
AcDbEntity
  8
1
  6
Continuous
100
AcDbCircle
 10
265.0797523397828
 20
58.83594697439708
 30
0.0
 40
5.5
100
AcDbArc
 50
75.96374199999992
 51
255.9637199999995
  0
LINE
  5
6C8
330
18
100
AcDbEntity
  8
4
  6
CENTER
100
AcDbLine
 10
265.0797523397828
 20
66.33594335069813
 30
0.0
 11
265.0797523397828
 21
51.33595059809613
 31
0.0
  0
ARC
  5
6C9
330
18
100
AcDbEntity
  8
1
  6
Continuous
100
AcDbCircle
 10
296.0797523397829
 20
85.33594697439708
 30
0.0
 40
50.0
100
AcDbArc
 50
160.5287790000001
 51
164.6928379999999
  0
ARC
  5
6CA
330
18
100
AcDbEntity
  8
1
  6
Continuous
100
AcDbCircle
 10
263.0797523397828
 20
120.335946974397
 30
0.0
 40
12.0
100
AcDbArc
 50
90.00003699999981
 51
180.0000189999998
  0
ARC
  5
6CB
330
18
100
AcDbEntity
  8
1
  6
Continuous
100
AcDbCircle
 10
253.6533453397828
 20
100.335946974397
 30
0.0
 40
5.0
100
AcDbArc
 50
90.0
 51
160.528786
  0
ARC
  5
6CC
330
18
100
AcDbEntity
  8
1
  6
Continuous
100
AcDbCircle
 10
265.0797523397828
 20
111.835946974397
 30
0.0
 40
5.5
100
AcDbArc
 50
104.0363659999999
 51
284.0363300000002
  0
LINE
  5
6CD
330
18
100
AcDbEntity
  8
4
  6
CENTER
100
AcDbLine
 10
265.0797523397828
 20
104.335950598096
 30
0.0
 11
265.0797523397828
 21
119.3359433506982
 31
0.0
  0
ARC
  5
6CE
330
18
100
AcDbEntity
  8
1
  6
Continuous
100
AcDbCircle
 10
296.0797523397829
 20
85.33594697439708
 30
0.0
 40
50.0
100
AcDbArc
 50
187.324486
 51
191.91078
  0
ARC
  5
6CF
330
18
100
AcDbEntity
  8
1
  6
Continuous
100
AcDbCircle
 10
245.3254423397829
 20
90.33594697439713
 30
0.0
 40
1.8
100
AcDbArc
 50
298.9675379999998
 51
49.77983699999989
  0
ARC
  5
6D1
330
18
100
AcDbEntity
  8
1
  6
Continuous
100
AcDbCircle
 10
296.0797523397829
 20
85.33594697439708
 30
0.0
 40
50.0
100
AcDbArc
 50
168.0892389999998
 51
172.6755330000002
  0
ARC
  5
6D3
330
18
100
AcDbEntity
  8
1
  6
Continuous
100
AcDbCircle
 10
246.5116223397829
 20
97.33594697439713
 30
0.0
 40
1.8
100
AcDbArc
 50
290.9847400000002
 51
41.79735400000022
  0
ARC
  5
6D5
330
18
100
AcDbEntity
  8
1
  6
Continuous
100
AcDbCircle
 10
245.3254423397829
 20
80.33594697439708
 30
0.0
 40
1.8
100
AcDbArc
 50
310.2201509999999
 51
61.03244400000043
  0
ARC
  5
6D6
330
18
100
AcDbEntity
  8
1
  6
Continuous
100
AcDbCircle
 10
296.0797523397829
 20
85.33594697439708
 30
0.0
 40
50.0
100
AcDbArc
 50
176.0719269999998
 51
183.9280919999998
  0
ARC
  5
6DB
330
18
100
AcDbEntity
  8
1
  6
Continuous
100
AcDbCircle
 10
296.0797523397829
 20
85.33594697439708
 30
0.0
 40
50.0
100
AcDbArc
 50
195.30718
 51
199.4712390000002
  0
ARC
  5
6DE
330
18
100
AcDbEntity
  8
1
  6
Continuous
100
AcDbCircle
 10
246.5116223397829
 20
73.3359469743973
 30
0.0
 40
1.8
100
AcDbArc
 50
318.2026210000001
 51
69.01524400000042
  0
ARC
  5
6DF
330
18
100
AcDbEntity
  8
1
  6
Continuous
100
AcDbCircle
 10
263.0797523397828
 20
50.33594697439706
 30
0.0
 40
12.0
100
AcDbArc
 50
180.000036
 51
270.0000179999999
  0
LINE
  5
6E0
330
18
100
AcDbEntity
  8
1
  6
Continuous
100
AcDbLine
 10
391.079748339783
 20
50.33594697439706
 30
0.0
 11
391.079748339783
 21
66.049148675074
 31
0.0
  0
ARC
  5
6E1
330
18
100
AcDbEntity
  8
1
  6
Continuous
100
AcDbCircle
 10
377.0797483397828
 20
58.83594697439708
 30
0.0
 40
5.5
100
AcDbArc
 50
284.0363159999998
 51
104.0362940000003
  0
LINE
  5
6E2
330
18
100
AcDbEntity
  8
4
  6
CENTER
100
AcDbLine
 10
377.0797523397829
 20
66.33594335069813
 30
0.0
 11
377.0797523397829
 21
51.33595059809613
 31
0.0
  0
ARC
  5
6E3
330
18
100
AcDbEntity
  8
1
  6
Continuous
100
AcDbCircle
 10
371.0797483397829
 20
57.33594697439706
 30
0.0
 40
5.5
100
AcDbArc
 50
104.0363110000003
 51
284.0363159999998
  0
LINE
  5
6E4
330
18
100
AcDbEntity
  8
4
  6
CENTER
100
AcDbLine
 10
371.0797523397828
 20
64.83594335069813
 30
0.0
 11
371.0797523397828
 21
49.83595059809625
 31
0.0
  0
LINE
  5
6E6
330
18
100
AcDbEntity
  8
4
  6
CENTER
100
AcDbLine
 10
321.0797523397828
 20
34.33594697439707
 30
0.0
 11
321.0797523397828
 21
127.835946974397
 31
0.0
  0
LINE
  5
6E7
330
18
100
AcDbEntity
  8
4
  6
CENTER
100
AcDbLine
 10
271.0797523397828
 20
64.83594335069813
 30
0.0
 11
271.0797523397828
 21
49.83595059809625
 31
0.0
  0
LINE
  5
6E8
330
18
100
AcDbEntity
  8
1
  6
Continuous
100
AcDbLine
 10
332.5797523397828
 20
117.835946974397
 30
0.0
 11
309.5797523397828
 21
117.835946974397
 31
0.0
  0
ARC
  5
6E9
330
18
100
AcDbEntity
  8
1
  6
Continuous
100
AcDbCircle
 10
321.0797523397828
 20
97.29427497439713
 30
0.0
 40
23.541666
100
AcDbArc
 50
60.75828000000037
 51
119.2417949999996
  0
LINE
  5
6EB
330
18
100
AcDbEntity
  8
1
  6
Continuous
100
AcDbLine
 10
341.4609248322581
 20
116.835946974397
 30
0.0
 11
300.6985758473077
 21
116.835946974397
 31
0.0
  0
ARC
  5
6EE
330
18
100
AcDbEntity
  8
1
  6
Continuous
100
AcDbCircle
 10
300.6985758473077
 20
134.835946974397
 30
0.0
 40
18.0
100
AcDbArc
 50
217.7704895886356
 51
270.0
  0
ARC
  5
6EF
330
18
100
AcDbEntity
  8
1
  6
Continuous
100
AcDbCircle
 10
269.0797523397828
 20
110.335946974397
 30
0.0
 40
22.0
100
AcDbArc
 50
37.77048958863597
 51
90.00003699999981
  0
LINE
  5
6F0
330
18
100
AcDbEntity
  8
4
  6
CENTER
100
AcDbLine
 10
271.0797523397828
 20
105.835950598096
 30
0.0
 11
271.0797523397828
 21
120.8359433506982
 31
0.0
  0
LINE
  5
6F2
330
18
100
AcDbEntity
  8
1
  6
Continuous
100
AcDbLine
 10
309.5797523397828
 20
116.835946974397
 30
0.0
 11
309.5797523397828
 21
117.835946974397
 31
0.0
  0
ARC
  5
6F8
330
18
100
AcDbEntity
  8
1
  6
Continuous
100
AcDbCircle
 10
373.0797483397829
 20
110.335946974397
 30
0.0
 40
22.0
100
AcDbArc
 50
90.00003699999981
 51
142.2295104113643
  0
ARC
  5
6F9
330
18
100
AcDbEntity
  8
1
  6
Continuous
100
AcDbCircle
 10
341.4609248322581
 20
134.835946974397
 30
0.0
 40
18.0
100
AcDbArc
 50
270.0
 51
322.2295104113643
  0
LINE
  5
6FA
330
18
100
AcDbEntity
  8
1
  6
Continuous
100
AcDbLine
 10
332.5797523397828
 20
116.835946974397
 30
0.0
 11
332.5797523397828
 21
117.835946974397
 31
0.0
  0
LINE
  5
6FC
330
18
100
AcDbEntity
  8
1
  6
Continuous
100
AcDbLine
 10
379.079748339783
 20
132.335946974397
 30
0.0
 11
373.0797483397829
 21
132.335946974397
 31
0.0
  0
LINE
  5
6FD
330
18
100
AcDbEntity
  8
1
  6
Continuous
100
AcDbLine
 10
378.4137063397829
 20
117.171746974397
 30
0.0
 11
372.413718339783
 21
118.671743974397
 31
0.0
  0
ARC
  5
6FE
330
18
100
AcDbEntity
  8
1
  6
Continuous
100
AcDbCircle
 10
377.0797483397828
 20
111.835946974397
 30
0.0
 40
5.5
100
AcDbArc
 50
255.9637609999997
 51
75.96373799999985
  0
LINE
  5
6FF
330
18
100
AcDbEntity
  8
4
  6
CENTER
100
AcDbLine
 10
369.5797559634819
 20
111.8359469743973
 30
0.0
 11
384.5797487160842
 21
111.8359469743973
 31
0.0
  0
LINE
  5
700
330
18
100
AcDbEntity
  8
4
  6
CENTER
100
AcDbLine
 10
363.5797559634819
 20
113.3359469743973
 30
0.0
 11
378.5797487160841
 21
113.3359469743973
 31
0.0
  0
LINE
  5
701
330
18
100
AcDbEntity
  8
4
  6
CENTER
100
AcDbLine
 10
371.0797523397828
 20
105.835950598096
 30
0.0
 11
371.0797523397828
 21
120.8359433506982
 31
0.0
  0
ARC
  5
702
330
18
100
AcDbEntity
  8
1
  6
Continuous
100
AcDbCircle
 10
371.0797483397829
 20
113.335946974397
 30
0.0
 40
5.5
100
AcDbArc
 50
75.96374199999992
 51
255.9637609999997
  0
LINE
  5
703
330
18
100
AcDbEntity
  8
1
  6
Continuous
100
AcDbLine
 10
375.7458143397828
 20
106.500178974397
 30
0.0
 11
369.745826339783
 21
108.0001769743972
 31
0.0
  0
LINE
  5
704
330
18
100
AcDbEntity
  8
4
  6
CENTER
100
AcDbLine
 10
377.0797523397829
 20
104.335950598096
 30
0.0
 11
377.0797523397829
 21
119.3359433506982
 31
0.0
  0
LINE
  5
709
330
18
100
AcDbEntity
  8
4
  6
CENTER
100
AcDbLine
 10
369.5797559634819
 20
58.83594697439708
 30
0.0
 11
384.5797487160842
 21
58.83594697439708
 31
0.0
  0
LINE
  5
70A
330
18
100
AcDbEntity
  8
4
  6
CENTER
100
AcDbLine
 10
363.5797559634819
 20
57.33594697439706
 30
0.0
 11
378.5797487160841
 21
57.33594697439706
 31
0.0
  0
LINE
  5
70C
330
18
100
AcDbEntity
  8
1
  6
Continuous
100
AcDbLine
 10
375.745803339783
 20
64.17172197439708
 30
0.0
 11
369.7458073397828
 21
62.6717229743972
 31
0.0
  0
LINE
  5
70D
330
18
100
AcDbEntity
  8
1
  6
Continuous
100
AcDbLine
 10
331.5797523397831
 20
50.83594697439707
 30
0.0
 11
310.5797523397831
 21
50.83594697439707
 31
0.0
  0
LINE
  5
70E
330
18
100
AcDbEntity
  8
1
  6
Continuous
100
AcDbLine
 10
341.4609248322581
 20
53.83594697439708
 30
0.0
 11
300.6985758473077
 21
53.83594697439708
 31
0.0
  0
ARC
  5
70F
330
18
100
AcDbEntity
  8
1
  6
Continuous
100
AcDbCircle
 10
300.6985758473077
 20
35.83594697439707
 30
0.0
 40
18.0
100
AcDbArc
 50
90.00000000000005
 51
142.229510411364
  0
ARC
  5
710
330
18
100
AcDbEntity
  8
1
  6
Continuous
100
AcDbCircle
 10
269.0797523397828
 20
60.33594697439706
 30
0.0
 40
22.0
100
AcDbArc
 50
270.0000179999999
 51
322.229510411364
  0
LINE
  5
711
330
18
100
AcDbEntity
  8
1
  6
Continuous
100
AcDbLine
 10
315.8297523397828
 20
39.83594697439706
 30
0.0
 11
315.0797523397831
 21
40.58594697439708
 31
0.0
  0
ARC
  5
712
330
18
100
AcDbEntity
  8
1
  6
Continuous
100
AcDbCircle
 10
316.3297545544712
 20
41.18600711227689
 30
0.0
 40
9.649952699611626
100
AcDbArc
 50
60.51273062375497
 51
119.4872693762458
  0
LINE
  5
713
330
18
100
AcDbEntity
  8
1
  6
Continuous
100
AcDbLine
 10
330.5797479104068
 20
43.83594697439707
 30
0.0
 11
311.5797567691592
 21
43.83594697439707
 31
0.0
  0
LINE
  5
714
330
18
100
AcDbEntity
  8
1
  6
Continuous
100
AcDbLine
 10
327.0797523397831
 20
40.58594697439708
 30
0.0
 11
315.0797523397831
 21
40.58594697439708
 31
0.0
  0
ARC
  5
715
330
18
100
AcDbEntity
  8
1
  6
Continuous
100
AcDbCircle
 10
316.3297545544712
 20
53.48589943003958
 30
0.0
 40
9.649952699611626
100
AcDbArc
 50
240.512730623755
 51
299.487269376245
  0
LINE
  5
716
330
18
100
AcDbEntity
  8
1
  6
Continuous
100
AcDbLine
 10
311.5797567691592
 20
43.83594697439707
 30
0.0
 11
311.5797567691592
 21
50.83594697439707
 31
0.0
  0
LINE
  5
717
330
18
100
AcDbEntity
  8
1
  6
Continuous
100
AcDbLine
 10
310.5797523397831
 20
53.83594697439708
 30
0.0
 11
310.5797523397831
 21
50.83594697439707
 31
0.0
  0
LINE
  5
718
330
18
100
AcDbEntity
  8
1
  6
Continuous
100
AcDbLine
 10
315.0797523397831
 20
40.58594697439708
 30
0.0
 11
315.0797523397831
 21
43.83594697439707
 31
0.0
  0
LINE
  5
719
330
18
100
AcDbEntity
  8
1
  6
Continuous
100
AcDbLine
 10
330.5797479104068
 20
43.83594697439707
 30
0.0
 11
330.5797479104068
 21
50.83594697439707
 31
0.0
  0
LINE
  5
71A
330
18
100
AcDbEntity
  8
1
  6
Continuous
100
AcDbLine
 10
321.0797523397828
 20
45.08594697439707
 30
0.0
 11
321.0797523397828
 21
49.58594697439707
 31
0.0
  0
ARC
  5
71B
330
18
100
AcDbEntity
  8
1
  6
Continuous
100
AcDbCircle
 10
325.8297501250948
 20
41.18600711227304
 30
0.0
 40
9.649952699615059
100
AcDbArc
 50
60.5127306237643
 51
119.4872693762337
  0
ARC
  5
71C
330
18
100
AcDbEntity
  8
1
  6
Continuous
100
AcDbCircle
 10
325.8297501250948
 20
53.4858994300431
 30
0.0
 40
9.649952699615059
100
AcDbArc
 50
240.5127306237663
 51
299.4872693762356
  0
LINE
  5
71D
330
18
100
AcDbEntity
  8
1
  6
Continuous
100
AcDbLine
 10
326.3297523397828
 20
39.83594697439706
 30
0.0
 11
315.8297523397828
 21
39.83594697439706
 31
0.0
  0
LINE
  5
71E
330
18
100
AcDbEntity
  8
2
  6
Continuous
100
AcDbLine
 10
315.8297523397828
 20
39.83594697439706
 30
0.0
 11
315.8297523397828
 21
43.83594697439707
 31
0.0
  0
LINE
  5
71F
330
18
100
AcDbEntity
  8
1
  6
Continuous
100
AcDbLine
 10
326.3297523397828
 20
39.83594697439706
 30
0.0
 11
327.0797523397831
 21
40.58594697439708
 31
0.0
  0
LINE
  5
720
330
18
100
AcDbEntity
  8
2
  6
Continuous
100
AcDbLine
 10
326.3297523397828
 20
39.83594697439706
 30
0.0
 11
326.3297523397828
 21
43.83594697439707
 31
0.0
  0
LINE
  5
721
330
18
100
AcDbEntity
  8
1
  6
Continuous
100
AcDbLine
 10
327.0797523397831
 20
40.58594697439708
 30
0.0
 11
327.0797523397831
 21
43.83594697439707
 31
0.0
  0
ARC
  5
722
330
18
100
AcDbEntity
  8
1
  6
Continuous
100
AcDbCircle
 10
373.0797483397829
 20
60.33594697439706
 30
0.0
 40
22.0
100
AcDbArc
 50
217.7704895886359
 51
270.0000179999999
  0
ARC
  5
723
330
18
100
AcDbEntity
  8
1
  6
Continuous
100
AcDbCircle
 10
341.4609248322581
 20
35.83594697439707
 30
0.0
 40
18.0
100
AcDbArc
 50
37.77048958863562
 51
90.00000000000005
  0
LINE
  5
724
330
18
100
AcDbEntity
  8
1
  6
Continuous
100
AcDbLine
 10
331.5797523397831
 20
53.83594697439708
 30
0.0
 11
331.5797523397831
 21
50.83594697439707
 31
0.0
  0
LINE
  5
725
330
18
100
AcDbEntity
  8
1
  6
Continuous
100
AcDbLine
 10
379.079748339783
 20
38.33594697439707
 30
0.0
 11
373.0797483397829
 21
38.33594697439707
 31
0.0
  0
LINE
  5
726
330
18
100
AcDbEntity
  8
1
  6
Continuous
100
AcDbLine
 10
378.4136953397831
 20
53.50015497439722
 30
0.0
 11
372.4136993397828
 21
52.00015597439731
 31
0.0
  0
ARC
  5
727
330
18
100
AcDbEntity
  8
1
  6
Continuous
100
AcDbCircle
 10
346.0797523397828
 20
85.33594697439729
 30
0.0
 40
50.0
100
AcDbArc
 50
15.3071620000001
 51
19.47122099999984
  0
ARC
  5
728
330
18
100
AcDbEntity
  8
1
  6
Continuous
100
AcDbCircle
 10
346.0797523397828
 20
85.33594697439729
 30
0.0
 40
50.0
100
AcDbArc
 50
348.0892199999999
 51
352.6755140000001
  0
ARC
  5
729
330
18
100
AcDbEntity
  8
1
  6
Continuous
100
AcDbCircle
 10
396.8340633397828
 20
90.33594697439728
 30
0.0
 40
1.8
100
AcDbArc
 50
130.220163
 51
241.032462
  0
ARC
  5
72A
330
18
100
AcDbEntity
  8
1
  6
Continuous
100
AcDbCircle
 10
346.0797523397828
 20
85.33594697439729
 30
0.0
 40
50.0
100
AcDbArc
 50
7.324467000000247
 51
11.91076100000016
  0
ARC
  5
72B
330
18
100
AcDbEntity
  8
1
  6
Continuous
100
AcDbCircle
 10
395.6478833397828
 20
97.3359469743973
 30
0.0
 40
1.8
100
AcDbArc
 50
138.2026459999996
 51
249.0152599999996
  0
ARC
  5
72C
330
18
100
AcDbEntity
  8
1
  6
Continuous
100
AcDbCircle
 10
396.8340633397828
 20
80.33594697439729
 30
0.0
 40
1.8
100
AcDbArc
 50
118.9675559999995
 51
229.7798489999999
  0
ARC
  5
72D
330
18
100
AcDbEntity
  8
1
  6
Continuous
100
AcDbCircle
 10
346.0797523397828
 20
85.33594697439729
 30
0.0
 40
50.0
100
AcDbArc
 50
356.0719080000002
 51
3.928073000000113
  0
ARC
  5
72E
330
18
100
AcDbEntity
  8
1
  6
Continuous
100
AcDbCircle
 10
346.0797523397828
 20
85.33594697439729
 30
0.0
 40
50.0
100
AcDbArc
 50
340.5287609999997
 51
344.6928199999998
  0
ARC
  5
72F
330
18
100
AcDbEntity
  8
1
  6
Continuous
100
AcDbCircle
 10
395.6478833397828
 20
73.3359469743973
 30
0.0
 40
1.8
100
AcDbArc
 50
110.9847560000005
 51
221.7973789999998
  0
ARC
  5
7EC
330
18
100
AcDbEntity
  8
1
  6
Continuous
100
AcDbCircle
 10
768.1465371049299
 20
278.7612495004101
 30
0.0
 40
10.49999999999976
100
AcDbArc
 50
34.79117795535063
 51
85.20882204464752
  0
ARC
  5
7ED
330
18
100
AcDbEntity
  8
1
  6
Continuous
100
AcDbCircle
 10
768.1465371049299
 20
278.7612495004101
 30
0.0
 40
10.49999999999976
100
AcDbArc
 50
94.7911779553525
 51
145.2088220446493
  0
CIRCLE
  5
7EE
330
18
100
AcDbEntity
  8
1
  6
Continuous
100
AcDbCircle
 10
768.1465371049299
 20
278.7612495004101
 30
0.0
 40
9.499995570623923
  0
LINE
  5
7EF
330
18
100
AcDbEntity
  8
1
  6
Continuous
100
AcDbLine
 10
758.6465415343057
 20
284.2460745004096
 30
0.0
 11
768.1465371049299
 21
289.7308995004098
 31
0.0
  0
LINE
  5
7F0
330
18
100
AcDbEntity
  8
1
  6
Continuous
100
AcDbLine
 10
777.6465326755534
 20
284.2460745004096
 30
0.0
 11
768.1465371049295
 21
289.7308995004098
 31
0.0
  0
ARC
  5
7F1
330
18
100
AcDbEntity
  8
1
  6
Continuous
100
AcDbCircle
 10
768.1465371049299
 20
278.7612495004101
 30
0.0
 40
10.49999999999976
100
AcDbArc
 50
274.7911779553525
 51
325.2088220446493
  0
ARC
  5
7F2
330
18
100
AcDbEntity
  8
1
  6
Continuous
100
AcDbCircle
 10
768.1465371049299
 20
278.7612495004101
 30
0.0
 40
10.49999999999976
100
AcDbArc
 50
214.7911779553506
 51
265.2088220446474
  0
LINE
  5
7F3
330
18
100
AcDbEntity
  8
1
  6
Continuous
100
AcDbLine
 10
777.6465326755534
 20
273.2764245004103
 30
0.0
 11
768.1465371049295
 21
267.79159950041
 31
0.0
  0
LINE
  5
7F4
330
18
100
AcDbEntity
  8
1
  6
Continuous
100
AcDbLine
 10
758.6465415343057
 20
273.2764245004103
 30
0.0
 11
768.1465371049299
 21
267.79159950041
 31
0.0
  0
CIRCLE
  5
7F5
330
18
100
AcDbEntity
  8
1
  6
Continuous
100
AcDbCircle
 10
768.1465371049299
 20
278.7612495004101
 30
0.0
 40
5.999999999999772
  0
CIRCLE
  5
7F6
330
18
100
AcDbEntity
  8
2
  6
Continuous
100
AcDbCircle
 10
768.1465371049299
 20
278.7612495004101
 30
0.0
 40
5.25
  0
ARC
  5
7F7
330
18
100
AcDbEntity
  8
1
  6
Continuous
100
AcDbCircle
 10
768.1465371049299
 20
278.7612495004101
 30
0.0
 40
10.49999999999976
100
AcDbArc
 50
154.79117795535
 51
205.2088220446499
  0
LINE
  5
7F8
330
18
100
AcDbEntity
  8
1
  6
Continuous
100
AcDbLine
 10
758.6465415343057
 20
284.2460745004101
 30
0.0
 11
758.6465415343057
 21
273.2764245004099
 31
0.0
  0
ARC
  5
7F9
330
18
100
AcDbEntity
  8
1
  6
Continuous
100
AcDbCircle
 10
768.1465371049299
 20
278.7612495004101
 30
0.0
 40
10.49999999999976
100
AcDbArc
 50
334.7911779553501
 51
25.20882204464991
  0
LINE
  5
7FA
330
18
100
AcDbEntity
  8
1
  6
Continuous
100
AcDbLine
 10
777.6465326755534
 20
284.2460745004101
 30
0.0
 11
777.6465326755534
 21
273.2764245004099
 31
0.0
  0
LINE
  5
808
330
18
100
AcDbEntity
  8
1
  6
Continuous
100
AcDbLine
 10
253.6533453397831
 20
105.3359469743969
 30
0.0
 11
388.5061593397828
 21
105.3359469743969
 31
0.0
  0
LINE
  5
809
330
18
100
AcDbEntity
  8
1
  6
Continuous
100
AcDbLine
 10
253.6533453397831
 20
65.33594697439707
 30
0.0
 11
388.5061593397828
 21
65.33594697439707
 31
0.0
  0
ARC
  5
80C
330
18
100
AcDbEntity
  8
1
  6
Continuous
100
AcDbCircle
 10
388.5061593397828
 20
70.33594697439702
 30
0.0
 40
5.0
100
AcDbArc
 50
269.9999810000002
 51
340.5287669999998
  0
ARC
  5
815
330
18
100
AcDbEntity
  8
1
  6
Continuous
100
AcDbCircle
 10
388.5061593397828
 20
100.3359469743969
 30
0.0
 40
5.0
100
AcDbArc
 50
19.47121399999985
 51
90.0
  0
LINE
  5
819
330
18
100
AcDbEntity
  8
1
  6
Continuous
100
AcDbLine
 10
303.079751339783
 20
58.83594697439708
 30
0.0
 11
339.079752339783
 21
58.83594697439708
 31
0.0
  0
LINE
  5
81B
330
18
100
AcDbEntity
  8
1
  6
Continuous
100
AcDbLine
 10
340.4315913397832
 20
65.33594697439707
 30
0.0
 11
340.0777343397832
 21
59.77247397439703
 31
0.0
  0
ARC
  5
81C
330
18
100
AcDbEntity
  8
1
  6
Continuous
100
AcDbCircle
 10
339.079752339783
 20
59.83594697439702
 30
0.0
 40
1.0
100
AcDbArc
 50
269.9999810000002
 51
356.3605989999999
  0
LINE
  5
827
330
18
100
AcDbEntity
  8
1
  6
Continuous
100
AcDbLine
 10
308.0797523397829
 20
58.33594697439707
 30
0.0
 11
334.079752339783
 21
58.33594697439707
 31
0.0
  0
LINE
  5
82E
330
18
100
AcDbEntity
  8
1
  6
Continuous
100
AcDbLine
 10
329.579752339783
 20
57.33594697439706
 30
0.0
 11
329.579752339783
 21
58.33594697439707
 31
0.0
  0
ARC
  5
82F
330
18
100
AcDbEntity
  8
1
  6
Continuous
100
AcDbCircle
 10
334.079752339783
 20
59.33594697439701
 30
0.0
 40
1.0
100
AcDbArc
 50
269.9999810000002
 51
329.9999689999999
  0
ARC
  5
837
330
18
100
AcDbEntity
  8
1
  6
Continuous
100
AcDbCircle
 10
308.0797523397829
 20
59.33594697439705
 30
0.0
 40
1.0
100
AcDbArc
 50
210.0000309999999
 51
270.0
  0
LINE
  5
838
330
18
100
AcDbEntity
  8
1
  6
Continuous
100
AcDbLine
 10
312.5797523397829
 20
57.33594697439706
 30
0.0
 11
312.5797523397829
 21
58.33594697439707
 31
0.0
  0
LINE
  5
839
330
18
100
AcDbEntity
  8
1
  6
Continuous
100
AcDbLine
 10
302.0817693397829
 20
59.77247397439703
 30
0.0
 11
301.7279123397831
 21
65.33594697439707
 31
0.0
  0
ARC
  5
83A
330
18
100
AcDbEntity
  8
1
  6
Continuous
100
AcDbCircle
 10
303.0797523397828
 20
59.83594697439705
 30
0.0
 40
1.0
100
AcDbArc
 50
183.6394010000002
 51
269.9999639999999
  0
LINE
  5
83C
330
18
100
AcDbEntity
  8
1
  6
Continuous
100
AcDbLine
 10
303.0797523397828
 20
111.8359469743969
 30
0.0
 11
339.079752339783
 21
111.8359469743969
 31
0.0
  0
LINE
  5
83D
330
18
100
AcDbEntity
  8
1
  6
Continuous
100
AcDbLine
 10
340.4315913397832
 20
105.3359469743969
 30
0.0
 11
340.0777343397832
 21
110.8994269743969
 31
0.0
  0
ARC
  5
83F
330
18
100
AcDbEntity
  8
1
  6
Continuous
100
AcDbCircle
 10
339.079752339783
 20
110.8359469743969
 30
0.0
 40
1.0
100
AcDbArc
 50
3.63938899999975
 51
90.0
  0
LINE
  5
842
330
18
100
AcDbEntity
  8
1
  6
Continuous
100
AcDbLine
 10
308.0797523397829
 20
112.3359469743969
 30
0.0
 11
334.079752339783
 21
112.3359469743969
 31
0.0
  0
LINE
  5
844
330
18
100
AcDbEntity
  8
1
  6
Continuous
100
AcDbLine
 10
329.579752339783
 20
112.3359469743969
 30
0.0
 11
329.579752339783
 21
113.3359469743969
 31
0.0
  0
ARC
  5
845
330
18
100
AcDbEntity
  8
1
  6
Continuous
100
AcDbCircle
 10
334.079752339783
 20
111.3359469743969
 30
0.0
 40
1.0
100
AcDbArc
 50
30.00001200000041
 51
90.0
  0
ARC
  5
847
330
18
100
AcDbEntity
  8
1
  6
Continuous
100
AcDbCircle
 10
308.0797523397829
 20
111.3359469743969
 30
0.0
 40
1.0
100
AcDbArc
 50
90.0
 51
149.9999879999994
  0
LINE
  5
848
330
18
100
AcDbEntity
  8
1
  6
Continuous
100
AcDbLine
 10
312.5797523397829
 20
113.3359469743969
 30
0.0
 11
312.5797523397829
 21
112.3359469743969
 31
0.0
  0
LINE
  5
849
330
18
100
AcDbEntity
  8
1
  6
Continuous
100
AcDbLine
 10
301.7279123397831
 20
105.3359469743969
 30
0.0
 11
302.0817703397828
 21
110.8994269743969
 31
0.0
  0
ARC
  5
84A
330
18
100
AcDbEntity
  8
1
  6
Continuous
100
AcDbCircle
 10
303.0797523397828
 20
110.8359469743969
 30
0.0
 40
1.0
100
AcDbArc
 50
90.0
 51
176.3606110000002
  0
ARC
  5
84D
330
18
100
AcDbEntity
  8
1
  6
Continuous
100
AcDbCircle
 10
253.6533453397831
 20
70.33594697439705
 30
0.0
 40
5.0
100
AcDbArc
 50
199.471233
 51
269.9999639999999
  0
LINE
  5
899
330
18
100
AcDbEntity
  8
1
  6
Continuous
100
AcDbLine
 10
251.0797523397829
 20
104.6227428723085
 30
0.0
 11
251.0797523397829
 21
120.335946974397
 31
0.0
  0
LINE
  5
89A
330
18
100
AcDbEntity
  8
1
  6
Continuous
100
AcDbLine
 10
391.079748339783
 20
104.6227452737199
 30
0.0
 11
391.079748339783
 21
120.335946974397
 31
0.0
  0
LINE
  5
8AD
330
18
100
AcDbEntity
  8
1
  6
Continuous
100
AcDbLine
 10
341.4609248322581
 20
113.335946974397
 30
0.0
 11
300.6985758473077
 21
113.335946974397
 31
0.0
  0
ARC
  5
8AE
330
18
100
AcDbEntity
  8
1
  6
Continuous
100
AcDbCircle
 10
341.4609248322581
 20
134.835946974397
 30
0.0
 40
21.49999999999999
100
AcDbArc
 50
270.0
 51
322.2295104113643
  0
ARC
  5
8AF
330
18
100
AcDbEntity
  8
1
  6
Continuous
100
AcDbCircle
 10
373.0797483397829
 20
110.335946974397
 30
0.0
 40
18.5
100
AcDbArc
 50
90.00003699999981
 51
142.2295104113643
  0
LINE
  5
8B0
330
18
100
AcDbEntity
  8
1
  6
Continuous
100
AcDbLine
 10
376.0797483397841
 20
128.835946974397
 30
0.0
 11
373.0797483397829
 21
128.835946974397
 31
0.0
  0
ARC
  5
8B1
330
18
100
AcDbEntity
  8
1
  6
Continuous
100
AcDbCircle
 10
300.6985758473077
 20
134.835946974397
 30
0.0
 40
21.49999999999999
100
AcDbArc
 50
217.7704895886356
 51
270.0
  0
ARC
  5
8B2
330
18
100
AcDbEntity
  8
1
  6
Continuous
100
AcDbCircle
 10
269.0797523397828
 20
110.335946974397
 30
0.0
 40
18.5
100
AcDbArc
 50
37.77048958863597
 51
90.00003699999981
  0
ARC
  5
8B8
330
18
100
AcDbEntity
  8
1
  6
Continuous
100
AcDbCircle
 10
376.6512073372039
 20
136.170940512806
 30
0.0
 40
7.357220643302369
100
AcDbArc
 50
265.5451653573984
 51
323.688621589491
  0
ARC
  5
8BA
330
18
100
AcDbEntity
  8
1
  6
Continuous
100
AcDbCircle
 10
265.5082973423619
 20
136.170940512806
 30
0.0
 40
7.357220643302369
100
AcDbArc
 50
216.3113687807368
 51
274.4548346426014
  0
LINE
  5
8BB
330
18
100
AcDbEntity
  8
1
  6
Continuous
100
AcDbLine
 10
266.0797563397817
 20
128.835946974397
 30
0.0
 11
269.0797563397829
 21
128.835946974397
 31
0.0
  0
ARC
  5
8BE
330
18
100
AcDbEntity
  8
1
  6
Continuous
100
AcDbCircle
 10
265.5082973423619
 20
34.50095343598798
 30
0.0
 40
7.357220643302369
100
AcDbArc
 50
85.5451653573986
 51
143.6886312192628
  0
LINE
  5
8BF
330
18
100
AcDbEntity
  8
1
  6
Continuous
100
AcDbLine
 10
266.0797563397817
 20
41.835946974397
 30
0.0
 11
269.0797563397829
 21
41.835946974397
 31
0.0
  0
ARC
  5
8C0
330
18
100
AcDbEntity
  8
1
  6
Continuous
100
AcDbCircle
 10
269.0797523397828
 20
60.33594697439702
 30
0.0
 40
18.5
100
AcDbArc
 50
269.9999630000001
 51
322.229510411364
  0
ARC
  5
8C1
330
18
100
AcDbEntity
  8
1
  6
Continuous
100
AcDbCircle
 10
300.6985758473077
 20
35.83594697439703
 30
0.0
 40
21.49999999999999
100
AcDbArc
 50
90.00000000000005
 51
142.2295104113643
  0
LINE
  5
8C2
330
18
100
AcDbEntity
  8
1
  6
Continuous
100
AcDbLine
 10
341.4609248322581
 20
57.33594697439702
 30
0.0
 11
300.6985758473077
 21
57.33594697439702
 31
0.0
  0
ARC
  5
8C3
330
18
100
AcDbEntity
  8
1
  6
Continuous
100
AcDbCircle
 10
341.4609248322581
 20
35.83594697439703
 30
0.0
 40
21.49999999999999
100
AcDbArc
 50
37.77048958863562
 51
90.00000000000005
  0
ARC
  5
8C4
330
18
100
AcDbEntity
  8
1
  6
Continuous
100
AcDbCircle
 10
373.0797483397829
 20
60.33594697439702
 30
0.0
 40
18.5
100
AcDbArc
 50
217.7704895886356
 51
269.9999630000001
  0
LINE
  5
8C5
330
18
100
AcDbEntity
  8
1
  6
Continuous
100
AcDbLine
 10
376.0797483397841
 20
41.835946974397
 30
0.0
 11
373.0797483397829
 21
41.835946974397
 31
0.0
  0
ARC
  5
8C6
330
18
100
AcDbEntity
  8
1
  6
Continuous
100
AcDbCircle
 10
376.6512073372039
 20
34.50095343598798
 30
0.0
 40
7.357220643302369
100
AcDbArc
 50
36.3113784105096
 51
94.4548346426014
  0
ENDSEC
  0
SECTION
  2
OBJECTS
  0
DICTIONARY
  5
C
330
0
100
AcDbDictionary
281
     1
  3
ACAD_CIP_PREVIOUS_PRODUCT_INFO
350
118F
  3
ACAD_COLOR
350
1172
  3
ACAD_DETAILVIEWSTYLE
350
118B
  3
ACAD_GROUP
350
D
  3
ACAD_LAYOUT
350
5D
  3
ACAD_MATERIAL
350
1140
  3
ACAD_MLEADERSTYLE
350
1187
  3
ACAD_MLINESTYLE
350
1B
  3
ACAD_PLOTSETTINGS
350
5E
  3
ACAD_PLOTSTYLENAME
350
113E
  3
ACAD_SCALELIST
350
1175
  3
ACAD_SECTIONVIEWSTYLE
350
1189
  3
ACAD_TABLESTYLE
350
1173
  3
ACAD_VISUALSTYLE
350
1159
  3
ACDB_RECOMPOSE_DATA
350
11AD
  3
AcDbVariableDictionary
350
11A0
  3
CONTENTDICTIONARY
350
3D
  3
DWGPROPS
350
11AE
  0
DICTIONARY
  5
1190
330
E
100
AcDbDictionary
280
     1
281
     1
  3
ADSK_XREC_LAYER_RECONCILED
360
1191
  0
DICTIONARY
  5
1192
330
65
100
AcDbDictionary
280
     1
281
     1
  3
ADSK_XREC_LAYER_RECONCILED
360
1193
  0
DICTIONARY
  5
1194
330
66
100
AcDbDictionary
280
     1
281
     1
  3
ADSK_XREC_LAYER_RECONCILED
360
1195
  0
DICTIONARY
  5
1196
330
67
100
AcDbDictionary
280
     1
281
     1
  3
ADSK_XREC_LAYER_RECONCILED
360
1197
  0
DICTIONARY
  5
1198
330
68
100
AcDbDictionary
280
     1
281
     1
  3
ADSK_XREC_LAYER_RECONCILED
360
1199
  0
DICTIONARY
  5
119A
330
69
100
AcDbDictionary
280
     1
281
     1
  3
ADSK_XREC_LAYER_RECONCILED
360
119B
  0
DICTIONARY
  5
119C
330
6A
100
AcDbDictionary
280
     1
281
     1
  3
ADSK_XREC_LAYER_RECONCILED
360
119D
  0
DICTIONARY
  5
119E
330
6B
100
AcDbDictionary
280
     1
281
     1
  3
ADSK_XREC_LAYER_RECONCILED
360
119F
  0
DICTIONARY
  5
1122
330
18
100
AcDbDictionary
281
     1
  3
ACAD_LAYOUTSELFREF
350
113A
  0
DICTIONARY
  5
1120
330
15
100
AcDbDictionary
281
     1
  3
ACAD_LAYOUTSELFREF
350
1139
  0
XRECORD
  5
118F
102
{ACAD_REACTORS
330
C
102
}
330
C
100
AcDbXrecord
280
     1
300
ACDLT
300
2014
300
ACDLT_F_S
  0
DICTIONARY
  5
1172
102
{ACAD_REACTORS
330
C
102
}
330
C
100
AcDbDictionary
281
     1
  0
DICTIONARY
  5
118B
102
{ACAD_REACTORS
330
C
102
}
330
C
100
AcDbDictionary
281
     1
  3
Imperial24
350
118C
  0
DICTIONARY
  5
D
102
{ACAD_REACTORS
330
C
102
}
330
C
100
AcDbDictionary
281
     1
  0
DICTIONARY
  5
5D
102
{ACAD_REACTORS
330
C
102
}
330
C
100
AcDbDictionary
281
     1
  3
Model
350
118D
  3
レイアウト1
350
118E
  0
DICTIONARY
  5
1140
102
{ACAD_REACTORS
330
C
102
}
330
C
100
AcDbDictionary
281
     1
  3
ByBlock
350
1149
  3
ByLayer
350
1141
  3
Global
350
1151
  0
DICTIONARY
  5
1187
102
{ACAD_REACTORS
330
C
102
}
330
C
100
AcDbDictionary
281
     1
  3
Standard
350
1188
  0
DICTIONARY
  5
1B
102
{ACAD_REACTORS
330
C
102
}
330
C
100
AcDbDictionary
281
     1
  3
STANDARD
350
1C
  0
DICTIONARY
  5
5E
102
{ACAD_REACTORS
330
C
102
}
330
C
100
AcDbDictionary
281
     1
  0
ACDBDICTIONARYWDFLT
  5
113E
102
{ACAD_REACTORS
330
C
102
}
330
C
100
AcDbDictionary
281
     1
  3
Normal
350
113F
100
AcDbDictionaryWithDefault
340
113F
  0
DICTIONARY
  5
1175
102
{ACAD_REACTORS
330
C
102
}
330
C
100
AcDbDictionary
281
     1
  3
A0
350
1176
  3
A1
350
1177
  3
A2
350
1178
  3
A3
350
1179
  3
A4
350
117A
  3
A5
350
117B
  3
A6
350
117C
  3
A7
350
117D
  3
A8
350
117E
  3
A9
350
117F
  3
B0
350
1180
  3
B1
350
1181
  3
B2
350
1182
  3
B3
350
1183
  3
B4
350
1184
  3
B5
350
1185
  3
B6
350
1186
  0
DICTIONARY
  5
1189
102
{ACAD_REACTORS
330
C
102
}
330
C
100
AcDbDictionary
281
     1
  3
Imperial24
350
118A
  0
DICTIONARY
  5
1173
102
{ACAD_REACTORS
330
C
102
}
330
C
100
AcDbDictionary
281
     1
  3
Standard
350
1174
  0
DICTIONARY
  5
1159
102
{ACAD_REACTORS
330
C
102
}
330
C
100
AcDbDictionary
281
     1
  3
2dWireframe
350
115F
  3
Basic
350
115E
  3
Brighten
350
1165
  3
ColorChange
350
1169
  3
Conceptual
350
1162
  3
Dim
350
1164
  3
EdgeColorOff
350
1171
  3
Facepattern
350
1168
  3
Flat
350
115A
  3
FlatWithEdges
350
115B
  3
Gouraud
350
115C
  3
GouraudWithEdges
350
115D
  3
Hidden
350
1161
  3
JitterOff
350
116F
  3
Linepattern
350
1167
  3
OverhangOff
350
1170
  3
Realistic
350
1163
  3
Shaded
350
116E
  3
Shaded with edges
350
116D
  3
Shades of Gray
350
116A
  3
Sketchy
350
116B
  3
Thicken
350
1166
  3
Wireframe
350
1160
  3
X-Ray
350
116C
  0
XRECORD
  5
11AD
102
{ACAD_REACTORS
330
C
102
}
330
C
100
AcDbXrecord
280
     1
 90
        1
330
1174
  0
DICTIONARY
  5
11A0
102
{ACAD_REACTORS
330
C
102
}
330
C
100
AcDbDictionary
281
     1
  3
CANNOSCALE
350
11A5
  3
CMLEADERSTYLE
350
11A2
  3
CTABLESTYLE
350
11A1
  3
CVIEWDETAILSTYLE
350
11A3
  3
CVIEWSECTIONSTYLE
350
11A4
  3
DIMASSOC
350
11A8
  3
INDEXCTL
350
11A7
  3
SORTENTS
350
11A6
  3
XCLIPFRAME
350
11A9
  0
DICTIONARY
  5
3D
102
{ACAD_REACTORS
330
C
102
}
330
C
100
AcDbDictionary
281
     1
  0
XRECORD
  5
11AE
102
{ACAD_REACTORS
330
C
102
}
330
C
100
AcDbXrecord
280
     1
  1
DWGPROPS COOKIE
  2

  3

  4

  6

  7

  8
Yoshitsune
  9

300
=
301
=
302
=
303
=
304
=
305
=
306
=
307
=
308
=
309
=
 40
0.2753538888888889
 41
2453249.476028276
 42
2457192.689555544
  1

 90
        0
  0
XRECORD
  5
1191
102
{ACAD_REACTORS
330
1190
102
}
330
1190
100
AcDbXrecord
280
     1
290
     1
  0
XRECORD
  5
1193
102
{ACAD_REACTORS
330
1192
102
}
330
1192
100
AcDbXrecord
280
     1
290
     1
  0
XRECORD
  5
1195
102
{ACAD_REACTORS
330
1194
102
}
330
1194
100
AcDbXrecord
280
     1
290
     1
  0
XRECORD
  5
1197
102
{ACAD_REACTORS
330
1196
102
}
330
1196
100
AcDbXrecord
280
     1
290
     1
  0
XRECORD
  5
1199
102
{ACAD_REACTORS
330
1198
102
}
330
1198
100
AcDbXrecord
280
     1
290
     1
  0
XRECORD
  5
119B
102
{ACAD_REACTORS
330
119A
102
}
330
119A
100
AcDbXrecord
280
     1
290
     1
  0
XRECORD
  5
119D
102
{ACAD_REACTORS
330
119C
102
}
330
119C
100
AcDbXrecord
280
     1
290
     1
  0
XRECORD
  5
119F
102
{ACAD_REACTORS
330
119E
102
}
330
119E
100
AcDbXrecord
280
     1
290
     1
  0
XRECORD
  5
113A
102
{ACAD_REACTORS
330
1122
102
}
330
1122
100
AcDbXrecord
280
     1
340
18
  0
XRECORD
  5
1139
102
{ACAD_REACTORS
330
1120
102
}
330
1120
100
AcDbXrecord
280
     1
340
15
  0
ACDBDETAILVIEWSTYLE
  5
118C
102
{ACAD_XDICTIONARY
360
11E6
102
}
102
{ACAD_REACTORS
330
118B
102
}
330
118B
100
AcDbModelDocViewStyle
 70
     0
  3
Imperial24
290
     0
100
AcDbDetailViewStyle
 70
     0
 71
     0
 90
        3
 71
     1
340
F
 40
0.24
340
0
 40
0.24
300

 40
0.36
280
     3
 71
     2
340
14
 90
       25
 71
     3
340
F
 40
0.24
 90
        1
 40
0.75
 90
        1
300
%<\AcVar ViewType \f "%tc1">% %<\AcVar ViewDetailId>%\PSCALE %<\AcVar ViewScale \f "%sn">%
 71
     4
340
14
 90
       25
340
14
 90
       25
280
     0
  0
LAYOUT
  5
118D
102
{ACAD_XDICTIONARY
360
11E8
102
}
102
{ACAD_REACTORS
330
5D
102
}
330
5D
100
AcDbPlotSettings
  1

  2
Canon LBP9100C
  4

  6

 40
0.0
 41
0.0
 42
0.0
 43
0.0
 44
0.0
 45
0.0
 46
0.0
 47
0.0
 48
0.0
 49
0.0
140
0.0
141
0.0
142
1.0
143
1.0
 70
  1712
 72
     0
 73
     0
 74
     0
  7

 75
     0
147
1.0
148
0.0
149
0.0
100
AcDbLayout
  1
Model
 70
     1
 71
     0
 10
0.0
 20
0.0
 11
12.0
 21
9.0
 12
0.0
 22
0.0
 32
0.0
 14
0.0
 24
0.0
 34
0.0
 15
0.0
 25
0.0
 35
0.0
146
0.0
 13
0.0
 23
0.0
 33
0.0
 16
1.0
 26
0.0
 36
0.0
 17
0.0
 27
1.0
 37
0.0
 76
     0
330
18
331
1138
  0
LAYOUT
  5
118E
102
{ACAD_XDICTIONARY
360
11EA
102
}
102
{ACAD_REACTORS
330
5D
102
}
330
5D
100
AcDbPlotSettings
  1

  2
Canon LBP9100C
  4

  6

 40
0.0
 41
0.0
 42
0.0
 43
0.0
 44
0.0
 45
0.0
 46
0.0
 47
0.0
 48
0.0
 49
0.0
140
0.0
141
0.0
142
1.0
143
1.0
 70
   688
 72
     0
 73
     0
 74
     5
  7

 75
    16
147
1.0
148
0.0
149
0.0
100
AcDbLayout
  1
レイアウト1
 70
     1
 71
     1
 10
0.0
 20
0.0
 11
420.0
 21
297.0
 12
0.0
 22
0.0
 32
0.0
 14
1.000000000000000E+20
 24
1.000000000000000E+20
 34
1.000000000000000E+20
 15
-1.000000000000000E+20
 25
-1.000000000000000E+20
 35
-1.000000000000000E+20
146
0.0
 13
0.0
 23
0.0
 33
0.0
 16
1.0
 26
0.0
 36
0.0
 17
0.0
 27
1.0
 37
0.0
 76
     0
330
15
  0
MATERIAL
  5
1149
102
{ACAD_XDICTIONARY
360
114A
102
}
102
{ACAD_REACTORS
330
1140
102
}
330
1140
100
AcDbMaterial
  1
ByBlock
 72
     0
 43
0.0208333333333333
 43
0.0
 43
0.0
 43
0.0
 43
0.0
 43
0.0208333333333333
 43
0.0
 43
0.0
 43
0.0
 43
0.0
 43
1.0
 43
0.0
 43
0.0
 43
0.0
 43
0.0
 43
1.0
 77
     0
 47
0.0208333333333333
 47
0.0
 47
0.0
 47
0.0
 47
0.0
 47
0.0208333333333333
 47
0.0
 47
0.0
 47
0.0
 47
0.0
 47
1.0
 47
0.0
 47
0.0
 47
0.0
 47
0.0
 47
1.0
171
     0
 49
0.0208333333333333
 49
0.0
 49
0.0
 49
0.0
 49
0.0
 49
0.0208333333333333
 49
0.0
 49
0.0
 49
0.0
 49
0.0
 49
1.0
 49
0.0
 49
0.0
 49
0.0
 49
0.0
 49
1.0
175
     0
142
0.0208333333333333
142
0.0
142
0.0
142
0.0
142
0.0
142
0.0208333333333333
142
0.0
142
0.0
142
0.0
142
0.0
142
1.0
142
0.0
142
0.0
142
0.0
142
0.0
142
1.0
179
     0
144
0.0208333333333333
144
0.0
144
0.0
144
0.0
144
0.0
144
0.0208333333333333
144
0.0
144
0.0
144
0.0
144
0.0
144
1.0
144
0.0
144
0.0
144
0.0
144
0.0
144
1.0
147
0.0208333333333333
147
0.0
147
0.0
147
0.0
147
0.0
147
0.0208333333333333
147
0.0
147
0.0
147
0.0
147
0.0
147
1.0
147
0.0
147
0.0
147
0.0
147
0.0
147
1.0
  0
MATERIAL
  5
1141
102
{ACAD_XDICTIONARY
360
1142
102
}
102
{ACAD_REACTORS
330
1140
102
}
330
1140
100
AcDbMaterial
  1
ByLayer
 72
     0
 43
0.0208333333333333
 43
0.0
 43
0.0
 43
0.0
 43
0.0
 43
0.0208333333333333
 43
0.0
 43
0.0
 43
0.0
 43
0.0
 43
1.0
 43
0.0
 43
0.0
 43
0.0
 43
0.0
 43
1.0
 77
     0
 47
0.0208333333333333
 47
0.0
 47
0.0
 47
0.0
 47
0.0
 47
0.0208333333333333
 47
0.0
 47
0.0
 47
0.0
 47
0.0
 47
1.0
 47
0.0
 47
0.0
 47
0.0
 47
0.0
 47
1.0
171
     0
 49
0.0208333333333333
 49
0.0
 49
0.0
 49
0.0
 49
0.0
 49
0.0208333333333333
 49
0.0
 49
0.0
 49
0.0
 49
0.0
 49
1.0
 49
0.0
 49
0.0
 49
0.0
 49
0.0
 49
1.0
175
     0
142
0.0208333333333333
142
0.0
142
0.0
142
0.0
142
0.0
142
0.0208333333333333
142
0.0
142
0.0
142
0.0
142
0.0
142
1.0
142
0.0
142
0.0
142
0.0
142
0.0
142
1.0
179
     0
144
0.0208333333333333
144
0.0
144
0.0
144
0.0
144
0.0
144
0.0208333333333333
144
0.0
144
0.0
144
0.0
144
0.0
144
1.0
144
0.0
144
0.0
144
0.0
144
0.0
144
1.0
147
0.0208333333333333
147
0.0
147
0.0
147
0.0
147
0.0
147
0.0208333333333333
147
0.0
147
0.0
147
0.0
147
0.0
147
1.0
147
0.0
147
0.0
147
0.0
147
0.0
147
1.0
  0
MATERIAL
  5
1151
102
{ACAD_XDICTIONARY
360
1152
102
}
102
{ACAD_REACTORS
330
1140
102
}
330
1140
100
AcDbMaterial
  1
Global
 72
     0
 43
0.0208333333333333
 43
0.0
 43
0.0
 43
0.0
 43
0.0
 43
0.0208333333333333
 43
0.0
 43
0.0
 43
0.0
 43
0.0
 43
1.0
 43
0.0
 43
0.0
 43
0.0
 43
0.0
 43
1.0
 77
     0
 47
0.0208333333333333
 47
0.0
 47
0.0
 47
0.0
 47
0.0
 47
0.0208333333333333
 47
0.0
 47
0.0
 47
0.0
 47
0.0
 47
1.0
 47
0.0
 47
0.0
 47
0.0
 47
0.0
 47
1.0
171
     0
 49
0.0208333333333333
 49
0.0
 49
0.0
 49
0.0
 49
0.0
 49
0.0208333333333333
 49
0.0
 49
0.0
 49
0.0
 49
0.0
 49
1.0
 49
0.0
 49
0.0
 49
0.0
 49
0.0
 49
1.0
175
     0
142
0.0208333333333333
142
0.0
142
0.0
142
0.0
142
0.0
142
0.0208333333333333
142
0.0
142
0.0
142
0.0
142
0.0
142
1.0
142
0.0
142
0.0
142
0.0
142
0.0
142
1.0
179
     0
144
0.0208333333333333
144
0.0
144
0.0
144
0.0
144
0.0
144
0.0208333333333333
144
0.0
144
0.0
144
0.0
144
0.0
144
1.0
144
0.0
144
0.0
144
0.0
144
0.0
144
1.0
147
0.0208333333333333
147
0.0
147
0.0
147
0.0
147
0.0
147
0.0208333333333333
147
0.0
147
0.0
147
0.0
147
0.0
147
1.0
147
0.0
147
0.0
147
0.0
147
0.0
147
1.0
  0
MLEADERSTYLE
  5
1188
102
{ACAD_REACTORS
330
1187
102
}
330
1187
100
AcDbMLeaderStyle
170
     2
171
     1
172
     0
 90
        2
 40
0.0
 41
0.0
173
     1
 91
-1056964608
340
12
 92
       -2
290
     1
 42
0.09
291
     1
 43
0.36
  3
Standard
 44
0.18
300

342
F
174
     1
178
     6
175
     1
176
     0
 93
-1056964608
 45
0.18
292
     0
297
     0
 46
0.18
 94
-1056964608
 47
1.0
 49
1.0
140
1.0
293
     1
141
0.0
294
     1
177
     0
142
1.0
295
     0
296
     0
143
0.125
1001
ACAD_MLEADERVER
1070
     2
  0
MLINESTYLE
  5
1C
102
{ACAD_REACTORS
330
1B
102
}
330
1B
100
AcDbMlineStyle
  2
STANDARD
 70
     0
  3

 62
   256
 51
90.0
 52
90.0
 71
     2
 49
0.5
 62
   256
  6
BYLAYER
 49
-0.5
 62
   256
  6
BYLAYER
  0
ACDBPLACEHOLDER
  5
113F
102
{ACAD_REACTORS
330
113E
102
}
330
113E
  0
SCALE
  5
1176
102
{ACAD_REACTORS
330
1175
102
}
330
1175
100
AcDbScale
 70
     0
300
1:1
140
1.0
141
1.0
290
     1
  0
SCALE
  5
1177
102
{ACAD_REACTORS
330
1175
102
}
330
1175
100
AcDbScale
 70
     0
300
1/128" = 1'-0"
140
0.0078125
141
12.0
290
     0
  0
SCALE
  5
1178
102
{ACAD_REACTORS
330
1175
102
}
330
1175
100
AcDbScale
 70
     0
300
1/64" = 1'-0"
140
0.015625
141
12.0
290
     0
  0
SCALE
  5
1179
102
{ACAD_REACTORS
330
1175
102
}
330
1175
100
AcDbScale
 70
     0
300
1/32" = 1'-0"
140
0.03125
141
12.0
290
     0
  0
SCALE
  5
117A
102
{ACAD_REACTORS
330
1175
102
}
330
1175
100
AcDbScale
 70
     0
300
1/16" = 1'-0"
140
0.0625
141
12.0
290
     0
  0
SCALE
  5
117B
102
{ACAD_REACTORS
330
1175
102
}
330
1175
100
AcDbScale
 70
     0
300
3/32" = 1'-0"
140
0.09375
141
12.0
290
     0
  0
SCALE
  5
117C
102
{ACAD_REACTORS
330
1175
102
}
330
1175
100
AcDbScale
 70
     0
300
1/8" = 1'-0"
140
0.125
141
12.0
290
     0
  0
SCALE
  5
117D
102
{ACAD_REACTORS
330
1175
102
}
330
1175
100
AcDbScale
 70
     0
300
3/16" = 1'-0"
140
0.1875
141
12.0
290
     0
  0
SCALE
  5
117E
102
{ACAD_REACTORS
330
1175
102
}
330
1175
100
AcDbScale
 70
     0
300
1/4" = 1'-0"
140
0.25
141
12.0
290
     0
  0
SCALE
  5
117F
102
{ACAD_REACTORS
330
1175
102
}
330
1175
100
AcDbScale
 70
     0
300
3/8" = 1'-0"
140
0.375
141
12.0
290
     0
  0
SCALE
  5
1180
102
{ACAD_REACTORS
330
1175
102
}
330
1175
100
AcDbScale
 70
     0
300
1/2" = 1'-0"
140
0.5
141
12.0
290
     0
  0
SCALE
  5
1181
102
{ACAD_REACTORS
330
1175
102
}
330
1175
100
AcDbScale
 70
     0
300
3/4" = 1'-0"
140
0.75
141
12.0
290
     0
  0
SCALE
  5
1182
102
{ACAD_REACTORS
330
1175
102
}
330
1175
100
AcDbScale
 70
     0
300
1" = 1'-0"
140
1.0
141
12.0
290
     0
  0
SCALE
  5
1183
102
{ACAD_REACTORS
330
1175
102
}
330
1175
100
AcDbScale
 70
     0
300
1-1/2" = 1'-0"
140
1.5
141
12.0
290
     0
  0
SCALE
  5
1184
102
{ACAD_REACTORS
330
1175
102
}
330
1175
100
AcDbScale
 70
     0
300
3" = 1'-0"
140
3.0
141
12.0
290
     0
  0
SCALE
  5
1185
102
{ACAD_REACTORS
330
1175
102
}
330
1175
100
AcDbScale
 70
     0
300
6" = 1'-0"
140
6.0
141
12.0
290
     0
  0
SCALE
  5
1186
102
{ACAD_REACTORS
330
1175
102
}
330
1175
100
AcDbScale
 70
     0
300
1'-0" = 1'-0"
140
12.0
141
12.0
290
     0
  0
ACDBSECTIONVIEWSTYLE
  5
118A
102
{ACAD_XDICTIONARY
360
11E4
102
}
102
{ACAD_REACTORS
330
1189
102
}
330
1189
100
AcDbModelDocViewStyle
 70
     0
  3
Imperial24
290
     0
100
AcDbSectionViewStyle
 70
     0
 71
     0
 90
       78
 71
     1
340
F
 40
0.24
340
0
340
0
 40
0.24
300
I, O, Q, S, X, Z
 40
0.48
 90
        3
 40
0.18
 90
        1
 71
     2
340
14
 90
       25
340
14
 90
       50
 40
0.24
 40
0.0
 40
0.24
 71
     3
340
F
 40
0.24
 90
        1
 40
0.75
 90
        1
300
%<\AcVar ViewType \f "%tc1">% %<\AcVar ViewSectionStartId>%-%<\AcVar ViewSectionEndId>%\PSCALE %<\AcVar ViewScale \f "%sn">%
 71
     4
300
ANSI31
 40
1.0
 90
        0
290
     0
290
     0
 90
        6
 40
0.0
 40
1.570796326794896
 40
0.2617993877991494
 40
1.308996938995747
 40
-0.2617993877991494
 40
1.832595714594046
  0
TABLESTYLE
  5
1174
102
{ACAD_XDICTIONARY
360
11AB
102
}
102
{ACAD_REACTORS
330
1173
102
}
330
1173
100
AcDbTableStyle
  3
Standard
 70
     0
 71
     0
 40
0.06
 41
0.06
280
     0
281
     0
  7
STANDARD
140
0.18
170
     2
 62
     0
 63
     7
283
     0
274
    -2
284
     1
 64
     0
275
    -2
285
     1
 65
     0
276
    -2
286
     1
 66
     0
277
    -2
287
     1
 67
     0
278
    -2
288
     1
 68
     0
279
    -2
289
     1
 69
     0
  7
STANDARD
140
0.25
170
     5
 62
     0
 63
     7
283
     0
274
    -2
284
     1
 64
     0
275
    -2
285
     1
 65
     0
276
    -2
286
     1
 66
     0
277
    -2
287
     1
 67
     0
278
    -2
288
     1
 68
     0
279
    -2
289
     1
 69
     0
  7
STANDARD
140
0.18
170
     5
 62
     0
 63
     7
283
     0
274
    -2
284
     1
 64
     0
275
    -2
285
     1
 65
     0
276
    -2
286
     1
 66
     0
277
    -2
287
     1
 67
     0
278
    -2
288
     1
 68
     0
279
    -2
289
     1
 69
     0
  0
VISUALSTYLE
  5
115F
102
{ACAD_XDICTIONARY
360
11BC
102
}
102
{ACAD_REACTORS
330
1159
102
}
330
1159
100
AcDbVisualStyle
  2
2dWireframe
 70
     4
 71
     0
 72
     2
 73
     0
 90
        0
 40
-0.6
 41
-30.0
 62
     5
 63
     7
 74
     1
 91
        4
 64
     7
 65
   257
 75
     1
175
     1
 42
1.0
 92
        0
 66
   257
 43
1.0
 76
     1
 77
     6
 78
     2
 67
     7
 79
     5
170
     0
171
     0
290
     0
174
     0
 93
        1
 44
0.0
173
     0
291
     0
 45
0.0
1001
ACAD
1000
AcDbSavedByObjectVersion
1070
     0
  0
VISUALSTYLE
  5
115E
102
{ACAD_XDICTIONARY
360
11BA
102
}
102
{ACAD_REACTORS
330
1159
102
}
330
1159
100
AcDbVisualStyle
  2
Basic
 70
     7
 71
     1
 72
     0
 73
     1
 90
        0
 40
-0.6
 41
-30.0
 62
     5
 63
     7
 74
     0
 91
        4
 64
     7
 65
   257
 75
     1
175
     1
 42
1.0
 92
        8
 66
     7
 43
1.0
 76
     1
 77
     6
 78
     2
 67
     7
 79
     5
170
     0
171
     0
290
     0
174
     0
 93
        1
 44
0.0
173
     0
291
     1
 45
0.0
1001
ACAD
1000
AcDbSavedByObjectVersion
1070
     0
  0
VISUALSTYLE
  5
1165
102
{ACAD_XDICTIONARY
360
11C8
102
}
102
{ACAD_REACTORS
330
1159
102
}
330
1159
100
AcDbVisualStyle
  2
Brighten
 70
    12
 71
     2
 72
     2
 73
     0
 90
        0
 40
-0.6
 41
-30.0
 62
     5
 63
     7
 74
     1
 91
        4
 64
     7
 65
   257
 75
     1
175
     1
 42
1.0
 92
        8
 66
     7
 43
1.0
 76
     1
 77
     6
 78
     2
 67
     7
 79
     5
170
     0
171
     0
290
     0
174
     0
 93
        1
 44
50.0
173
     0
291
     1
 45
0.0
1001
ACAD
1000
AcDbSavedByObjectVersion
1070
     0
  0
VISUALSTYLE
  5
1169
102
{ACAD_XDICTIONARY
360
11D0
102
}
102
{ACAD_REACTORS
330
1159
102
}
330
1159
100
AcDbVisualStyle
  2
ColorChange
 70
    16
 71
     2
 72
     2
 73
     3
 90
        0
 40
-0.6
 41
-30.0
 62
     5
 63
     8
 74
     1
 91
        4
 64
     7
 65
   257
 75
     1
175
     1
 42
1.0
 92
        8
 66
     8
 43
1.0
 76
     1
 77
     6
 78
     2
 67
     7
 79
     5
170
     0
171
     0
290
     0
174
     0
 93
        1
 44
0.0
173
     0
291
     1
 45
0.0
1001
ACAD
1000
AcDbSavedByObjectVersion
1070
     0
  0
VISUALSTYLE
  5
1162
102
{ACAD_XDICTIONARY
360
11C2
102
}
102
{ACAD_REACTORS
330
1159
102
}
330
1159
100
AcDbVisualStyle
  2
Conceptual
 70
     9
 71
     3
 72
     2
 73
     0
 90
        0
 40
-0.6
 41
-30.0
 62
     5
 63
     7
 74
     2
 91
        2
 64
     7
 65
   257
 75
     1
175
     1
 42
179.0
 92
        8
 66
     7
 43
1.0
 76
     1
 77
     6
 78
     2
 67
     7
 79
     3
170
     0
171
     0
290
     0
174
     0
 93
        1
 44
0.0
173
     0
291
     0
 45
0.0
1001
ACAD
1000
AcDbSavedByObjectVersion
1070
     0
  0
VISUALSTYLE
  5
1164
102
{ACAD_XDICTIONARY
360
11C6
102
}
102
{ACAD_REACTORS
330
1159
102
}
330
1159
100
AcDbVisualStyle
  2
Dim
 70
    11
 71
     2
 72
     2
 73
     0
 90
        0
 40
-0.6
 41
-30.0
 62
     5
 63
     7
 74
     1
 91
        4
 64
     7
 65
   257
 75
     1
175
     1
 42
1.0
 92
        8
 66
     7
 43
1.0
 76
     1
 77
     6
 78
     2
 67
     7
 79
     5
170
     0
171
     0
290
     0
174
     0
 93
        1
 44
-50.0
173
     0
291
     1
 45
0.0
1001
ACAD
1000
AcDbSavedByObjectVersion
1070
     0
  0
VISUALSTYLE
  5
1171
102
{ACAD_XDICTIONARY
360
11E0
102
}
102
{ACAD_REACTORS
330
1159
102
}
330
1159
100
AcDbVisualStyle
  2
EdgeColorOff
 70
    22
 71
     2
 72
     2
 73
     0
 90
        0
 40
-0.6
 41
-30.0
 62
     5
 63
     7
 74
     1
 91
        4
 64
     7
 65
   257
 75
     1
175
     1
 42
1.0
 92
        8
 66
     7
 43
1.0
 76
     1
 77
     6
 78
     2
 67
     7
 79
     5
170
     0
171
     0
290
     0
174
     0
 93
        1
 44
0.0
173
     0
291
     1
 45
0.0
1001
ACAD
1000
AcDbSavedByObjectVersion
1070
     0
  0
VISUALSTYLE
  5
1168
102
{ACAD_XDICTIONARY
360
11CE
102
}
102
{ACAD_REACTORS
330
1159
102
}
330
1159
100
AcDbVisualStyle
  2
Facepattern
 70
    15
 71
     2
 72
     2
 73
     0
 90
        0
 40
-0.6
 41
-30.0
 62
     5
 63
     7
 74
     1
 91
        4
 64
     7
 65
   257
 75
     1
175
     1
 42
1.0
 92
        8
 66
     7
 43
1.0
 76
     1
 77
     6
 78
     2
 67
     7
 79
     5
170
     0
171
     0
290
     0
174
     0
 93
        1
 44
0.0
173
     0
291
     1
 45
0.0
1001
ACAD
1000
AcDbSavedByObjectVersion
1070
     0
  0
VISUALSTYLE
  5
115A
102
{ACAD_XDICTIONARY
360
11B2
102
}
102
{ACAD_REACTORS
330
1159
102
}
330
1159
100
AcDbVisualStyle
  2
Flat
 70
     0
 71
     2
 72
     1
 73
     1
 90
        2
 40
-0.6
 41
30.0
 62
     5
 63
     7
 74
     0
 91
        0
 64
     7
 65
   257
 75
     1
175
     1
 42
1.0
 92
        8
 66
     7
 43
1.0
 76
     1
 77
     6
 78
     2
 67
     7
 79
     5
170
     0
171
     0
290
     0
174
     0
 93
       13
 44
0.0
173
     0
291
     1
 45
0.0
1001
ACAD
1000
AcDbSavedByObjectVersion
1070
     0
  0
VISUALSTYLE
  5
115B
102
{ACAD_XDICTIONARY
360
11B4
102
}
102
{ACAD_REACTORS
330
1159
102
}
330
1159
100
AcDbVisualStyle
  2
FlatWithEdges
 70
     1
 71
     2
 72
     1
 73
     1
 90
        2
 40
-0.6
 41
30.0
 62
     5
 63
     7
 74
     1
 91
        0
 64
     7
 65
   257
 75
     1
175
     1
 42
1.0
 92
        0
 66
   257
 43
1.0
 76
     1
 77
     6
 78
     2
 67
     7
 79
     5
170
     0
171
     0
290
     0
174
     0
 93
       13
 44
0.0
173
     0
291
     1
 45
0.0
1001
ACAD
1000
AcDbSavedByObjectVersion
1070
     0
  0
VISUALSTYLE
  5
115C
102
{ACAD_XDICTIONARY
360
11B6
102
}
102
{ACAD_REACTORS
330
1159
102
}
330
1159
100
AcDbVisualStyle
  2
Gouraud
 70
     2
 71
     2
 72
     2
 73
     1
 90
        2
 40
-0.6
 41
30.0
 62
     5
 63
     7
 74
     0
 91
        0
 64
     7
 65
   257
 75
     1
175
     1
 42
1.0
 92
        0
 66
     7
 43
1.0
 76
     1
 77
     6
 78
     2
 67
     7
 79
     5
170
     0
171
     0
290
     0
174
     0
 93
       13
 44
0.0
173
     0
291
     1
 45
0.0
1001
ACAD
1000
AcDbSavedByObjectVersion
1070
     0
  0
VISUALSTYLE
  5
115D
102
{ACAD_XDICTIONARY
360
11B8
102
}
102
{ACAD_REACTORS
330
1159
102
}
330
1159
100
AcDbVisualStyle
  2
GouraudWithEdges
 70
     3
 71
     2
 72
     2
 73
     1
 90
        2
 40
-0.6
 41
30.0
 62
     5
 63
     7
 74
     1
 91
        0
 64
     7
 65
   257
 75
     1
175
     1
 42
1.0
 92
        0
 66
   257
 43
1.0
 76
     1
 77
     6
 78
     2
 67
     7
 79
     5
170
     0
171
     0
290
     0
174
     0
 93
       13
 44
0.0
173
     0
291
     1
 45
0.0
1001
ACAD
1000
AcDbSavedByObjectVersion
1070
     0
  0
VISUALSTYLE
  5
1161
102
{ACAD_XDICTIONARY
360
11C0
102
}
102
{ACAD_REACTORS
330
1159
102
}
330
1159
100
AcDbVisualStyle
  2
Hidden
 70
     6
 71
     1
 72
     2
 73
     2
 90
        0
 40
-0.6
 41
-30.0
 62
     5
 63
     7
 74
     2
 91
        2
 64
     7
 65
   257
 75
     2
175
     1
 42
40.0
 92
        0
 66
   257
 43
1.0
 76
     1
 77
     6
 78
     2
 67
     7
 79
     3
170
     0
171
     0
290
     0
174
     0
 93
        1
 44
0.0
173
     0
291
     0
 45
0.0
1001
ACAD
1000
AcDbSavedByObjectVersion
1070
     0
  0
VISUALSTYLE
  5
116F
102
{ACAD_XDICTIONARY
360
11DC
102
}
102
{ACAD_REACTORS
330
1159
102
}
330
1159
100
AcDbVisualStyle
  2
JitterOff
 70
    20
 71
     2
 72
     2
 73
     0
 90
        0
 40
-0.6
 41
-30.0
 62
     5
 63
     7
 74
     1
 91
        4
 64
     7
 65
   257
 75
     1
175
     1
 42
1.0
 92
       10
 66
     7
 43
1.0
 76
     1
 77
     6
 78
     2
 67
     7
 79
     5
170
     0
171
     0
290
     0
174
     0
 93
        1
 44
0.0
173
     0
291
     1
 45
0.0
1001
ACAD
1000
AcDbSavedByObjectVersion
1070
     0
  0
VISUALSTYLE
  5
1167
102
{ACAD_XDICTIONARY
360
11CC
102
}
102
{ACAD_REACTORS
330
1159
102
}
330
1159
100
AcDbVisualStyle
  2
Linepattern
 70
    14
 71
     2
 72
     2
 73
     0
 90
        0
 40
-0.6
 41
-30.0
 62
     5
 63
     7
 74
     1
 91
        4
 64
     7
 65
   257
 75
     7
175
     7
 42
1.0
 92
        8
 66
     7
 43
1.0
 76
     1
 77
     6
 78
     2
 67
     7
 79
     5
170
     0
171
     0
290
     0
174
     0
 93
        1
 44
0.0
173
     0
291
     1
 45
0.0
1001
ACAD
1000
AcDbSavedByObjectVersion
1070
     0
  0
VISUALSTYLE
  5
1170
102
{ACAD_XDICTIONARY
360
11DE
102
}
102
{ACAD_REACTORS
330
1159
102
}
330
1159
100
AcDbVisualStyle
  2
OverhangOff
 70
    21
 71
     2
 72
     2
 73
     0
 90
        0
 40
-0.6
 41
-30.0
 62
     5
 63
     7
 74
     1
 91
        4
 64
     7
 65
   257
 75
     1
175
     1
 42
1.0
 92
        9
 66
     7
 43
1.0
 76
     1
 77
     6
 78
     2
 67
     7
 79
     5
170
     0
171
     0
290
     0
174
     0
 93
        1
 44
0.0
173
     0
291
     1
 45
0.0
1001
ACAD
1000
AcDbSavedByObjectVersion
1070
     0
  0
VISUALSTYLE
  5
1163
102
{ACAD_XDICTIONARY
360
11C4
102
}
102
{ACAD_REACTORS
330
1159
102
}
330
1159
100
AcDbVisualStyle
  2
Realistic
 70
     8
 71
     2
 72
     3
 73
     0
 90
        2
 40
-0.6
 41
30.0
 62
     5
 63
     7
 74
     0
 91
        0
 64
     7
 65
   257
 75
     1
175
     1
 42
1.0
 92
        8
 66
   257
 43
1.0
 76
     1
 77
     6
 78
     2
 67
     7
 79
     3
170
     0
171
     0
290
     0
174
     0
 93
       13
 44
0.0
173
     0
291
     0
 45
0.0
1001
ACAD
1000
AcDbSavedByObjectVersion
1070
     0
  0
VISUALSTYLE
  5
116E
102
{ACAD_XDICTIONARY
360
11DA
102
}
102
{ACAD_REACTORS
330
1159
102
}
330
1159
100
AcDbVisualStyle
  2
Shaded
 70
    27
 71
     2
 72
     2
 73
     1
 90
        2
 40
-0.6
 41
30.0
 62
     5
 63
     7
 74
     0
 91
        4
 64
     7
 65
   257
 75
     1
175
     1
 42
1.0
 92
        8
 66
   257
 43
1.0
 76
     1
 77
     6
 78
     2
 67
     8
 79
     3
170
     0
171
     0
290
     0
174
     0
 93
        5
 44
0.0
173
     0
291
     0
 45
0.0
1001
ACAD
1000
AcDbSavedByObjectVersion
1070
     0
  0
VISUALSTYLE
  5
116D
102
{ACAD_XDICTIONARY
360
11D8
102
}
102
{ACAD_REACTORS
330
1159
102
}
330
1159
100
AcDbVisualStyle
  2
Shaded with edges
 70
    26
 71
     2
 72
     2
 73
     1
 90
        2
 40
-0.6
 41
30.0
 62
     5
 63
     7
 74
     1
 91
       10
 64
     7
 65
   257
 75
     2
175
     1
 42
1.0
 92
        8
 66
   257
 43
1.0
 76
     1
 77
     6
 78
     2
 67
     7
 79
     3
170
     0
171
     0
290
     0
174
     0
 93
        5
 44
0.0
173
     0
291
     0
 45
0.0
1001
ACAD
1000
AcDbSavedByObjectVersion
1070
     0
  0
VISUALSTYLE
  5
116A
102
{ACAD_XDICTIONARY
360
11D2
102
}
102
{ACAD_REACTORS
330
1159
102
}
330
1159
100
AcDbVisualStyle
  2
Shades of Gray
 70
    23
 71
     2
 72
     2
 73
     3
 90
        0
 40
-0.6
 41
-30.0
 62
     5
 63
     7
 74
     2
 91
        2
 64
     7
 65
     7
 75
     1
175
     1
 42
40.0
 92
        8
 66
     7
 43
1.0
 76
     1
 77
     6
 78
     2
 67
     7
 79
     3
170
     0
171
     0
290
     0
174
     0
 93
        1
 44
0.0
173
     0
291
     0
 45
0.0
1001
ACAD
1000
AcDbSavedByObjectVersion
1070
     0
  0
VISUALSTYLE
  5
116B
102
{ACAD_XDICTIONARY
360
11D4
102
}
102
{ACAD_REACTORS
330
1159
102
}
330
1159
100
AcDbVisualStyle
  2
Sketchy
 70
    24
 71
     1
 72
     2
 73
     2
 90
        0
 40
-0.6
 41
-30.0
 62
     5
 63
     7
 74
     2
 91
        2
 64
     7
 65
     7
 75
     1
175
     1
 42
40.0
 92
       11
 66
     7
 43
1.0
 76
     1
 77
     6
 78
     2
 67
     7
 79
     6
170
     0
171
     0
290
     0
174
     0
 93
        1
 44
0.0
173
     0
291
     0
 45
0.0
1001
ACAD
1000
AcDbSavedByObjectVersion
1070
     0
  0
VISUALSTYLE
  5
1166
102
{ACAD_XDICTIONARY
360
11CA
102
}
102
{ACAD_REACTORS
330
1159
102
}
330
1159
100
AcDbVisualStyle
  2
Thicken
 70
    13
 71
     2
 72
     2
 73
     0
 90
        0
 40
-0.6
 41
-30.0
 62
     5
 63
     7
 74
     1
 91
        4
 64
     7
 65
   257
 75
     1
175
     1
 42
1.0
 92
       12
 66
     7
 43
1.0
 76
     1
 77
     6
 78
     2
 67
     7
 79
     5
170
     0
171
     0
290
     0
174
     0
 93
        1
 44
0.0
173
     0
291
     1
 45
0.0
1001
ACAD
1000
AcDbSavedByObjectVersion
1070
     0
  0
VISUALSTYLE
  5
1160
102
{ACAD_XDICTIONARY
360
11BE
102
}
102
{ACAD_REACTORS
330
1159
102
}
330
1159
100
AcDbVisualStyle
  2
Wireframe
 70
     5
 71
     0
 72
     2
 73
     0
 90
        0
 40
-0.6
 41
-30.0
 62
     5
 63
     7
 74
     1
 91
        4
 64
     7
 65
   257
 75
     1
175
     1
 42
1.0
 92
        0
 66
   257
 43
1.0
 76
     1
 77
     6
 78
     2
 67
     7
 79
     3
170
     0
171
     0
290
     0
174
     0
 93
        1
 44
0.0
173
     0
291
     0
 45
0.0
1001
ACAD
1000
AcDbSavedByObjectVersion
1070
     0
  0
VISUALSTYLE
  5
116C
102
{ACAD_XDICTIONARY
360
11D6
102
}
102
{ACAD_REACTORS
330
1159
102
}
330
1159
100
AcDbVisualStyle
  2
X-Ray
 70
    25
 71
     2
 72
     2
 73
     1
 90
        1
 40
0.5
 41
-30.0
 62
     5
 63
     7
 74
     1
 91
        0
 64
     7
 65
   257
 75
     1
175
     1
 42
1.0
 92
        8
 66
     7
 43
1.0
 76
     1
 77
     6
 78
     2
 67
     7
 79
     3
170
     0
171
     0
290
     0
174
     0
 93
       13
 44
0.0
173
     0
291
     0
 45
0.0
1001
ACAD
1000
AcDbSavedByObjectVersion
1070
     0
  0
DICTIONARYVAR
  5
11A5
102
{ACAD_REACTORS
330
11A0
102
}
330
11A0
100
DictionaryVariables
280
     0
  1
1:1
  0
DICTIONARYVAR
  5
11A2
102
{ACAD_REACTORS
330
11A0
102
}
330
11A0
100
DictionaryVariables
280
     0
  1
STANDARD
  0
DICTIONARYVAR
  5
11A1
102
{ACAD_REACTORS
330
11A0
102
}
330
11A0
100
DictionaryVariables
280
     0
  1
STANDARD
  0
DICTIONARYVAR
  5
11A3
102
{ACAD_REACTORS
330
11A0
102
}
330
11A0
100
DictionaryVariables
280
     0
  1
Imperial24
  0
DICTIONARYVAR
  5
11A4
102
{ACAD_REACTORS
330
11A0
102
}
330
11A0
100
DictionaryVariables
280
     0
  1
Imperial24
  0
DICTIONARYVAR
  5
11A8
102
{ACAD_REACTORS
330
11A0
102
}
330
11A0
100
DictionaryVariables
280
     0
  1
1
  0
DICTIONARYVAR
  5
11A7
102
{ACAD_REACTORS
330
11A0
102
}
330
11A0
100
DictionaryVariables
280
     0
  1
0
  0
DICTIONARYVAR
  5
11A6
102
{ACAD_REACTORS
330
11A0
102
}
330
11A0
100
DictionaryVariables
280
     0
  1
127
  0
DICTIONARYVAR
  5
11A9
102
{ACAD_REACTORS
330
11A0
102
}
330
11A0
100
DictionaryVariables
280
     0
  1
2
  0
DICTIONARY
  5
11E6
330
118C
100
AcDbDictionary
280
     1
281
     1
  3
ACAD_XREC_ROUNDTRIP
360
11E7
  0
DICTIONARY
  5
11E8
330
118D
100
AcDbDictionary
280
     1
281
     1
  3
ACAD_XREC_ROUNDTRIP
360
11E9
  0
DICTIONARY
  5
11EA
330
118E
100
AcDbDictionary
280
     1
281
     1
  3
ACAD_XREC_ROUNDTRIP
360
11EB
  0
DICTIONARY
  5
114A
330
1149
100
AcDbDictionary
280
     1
281
     1
  3
ACAD_XREC_ROUNDTRIP
360
11B0
  3
BUMPTILE
360
114C
  3
DIFFUSETILE
360
114B
  3
OPACITYTILE
360
114F
  3
REFLECTIONTILE
360
114E
  3
REFRACTIONTILE
360
1150
  3
SPECULARTILE
360
114D
  0
DICTIONARY
  5
1142
330
1141
100
AcDbDictionary
280
     1
281
     1
  3
ACAD_XREC_ROUNDTRIP
360
11AF
  3
BUMPTILE
360
1144
  3
DIFFUSETILE
360
1143
  3
OPACITYTILE
360
1147
  3
REFLECTIONTILE
360
1146
  3
REFRACTIONTILE
360
1148
  3
SPECULARTILE
360
1145
  0
DICTIONARY
  5
1152
330
1151
100
AcDbDictionary
280
     1
281
     1
  3
ACAD_XREC_ROUNDTRIP
360
11B1
  3
BUMPTILE
360
1154
  3
DIFFUSETILE
360
1153
  3
OPACITYTILE
360
1157
  3
REFLECTIONTILE
360
1156
  3
REFRACTIONTILE
360
1158
  3
SPECULARTILE
360
1155
  0
DICTIONARY
  5
11E4
330
118A
100
AcDbDictionary
280
     1
281
     1
  3
ACAD_XREC_ROUNDTRIP
360
11E5
  0
DICTIONARY
  5
11AB
330
1174
100
AcDbDictionary
280
     1
281
     1
  3
ACAD_ROUNDTRIP_2008_TABLESTYLE_CELLSTYLEMAP
360
11AC
  3
ACAD_XREC_ROUNDTRIP
360
11E2
  0
DICTIONARY
  5
11BC
330
115F
100
AcDbDictionary
280
     1
281
     1
  3
ACAD_XREC_ROUNDTRIP
360
11BD
  0
DICTIONARY
  5
11BA
330
115E
100
AcDbDictionary
280
     1
281
     1
  3
ACAD_XREC_ROUNDTRIP
360
11BB
  0
DICTIONARY
  5
11C8
330
1165
100
AcDbDictionary
280
     1
281
     1
  3
ACAD_XREC_ROUNDTRIP
360
11C9
  0
DICTIONARY
  5
11D0
330
1169
100
AcDbDictionary
280
     1
281
     1
  3
ACAD_XREC_ROUNDTRIP
360
11D1
  0
DICTIONARY
  5
11C2
330
1162
100
AcDbDictionary
280
     1
281
     1
  3
ACAD_XREC_ROUNDTRIP
360
11C3
  0
DICTIONARY
  5
11C6
330
1164
100
AcDbDictionary
280
     1
281
     1
  3
ACAD_XREC_ROUNDTRIP
360
11C7
  0
DICTIONARY
  5
11E0
330
1171
100
AcDbDictionary
280
     1
281
     1
  3
ACAD_XREC_ROUNDTRIP
360
11E1
  0
DICTIONARY
  5
11CE
330
1168
100
AcDbDictionary
280
     1
281
     1
  3
ACAD_XREC_ROUNDTRIP
360
11CF
  0
DICTIONARY
  5
11B2
330
115A
100
AcDbDictionary
280
     1
281
     1
  3
ACAD_XREC_ROUNDTRIP
360
11B3
  0
DICTIONARY
  5
11B4
330
115B
100
AcDbDictionary
280
     1
281
     1
  3
ACAD_XREC_ROUNDTRIP
360
11B5
  0
DICTIONARY
  5
11B6
330
115C
100
AcDbDictionary
280
     1
281
     1
  3
ACAD_XREC_ROUNDTRIP
360
11B7
  0
DICTIONARY
  5
11B8
330
115D
100
AcDbDictionary
280
     1
281
     1
  3
ACAD_XREC_ROUNDTRIP
360
11B9
  0
DICTIONARY
  5
11C0
330
1161
100
AcDbDictionary
280
     1
281
     1
  3
ACAD_XREC_ROUNDTRIP
360
11C1
  0
DICTIONARY
  5
11DC
330
116F
100
AcDbDictionary
280
     1
281
     1
  3
ACAD_XREC_ROUNDTRIP
360
11DD
  0
DICTIONARY
  5
11CC
330
1167
100
AcDbDictionary
280
     1
281
     1
  3
ACAD_XREC_ROUNDTRIP
360
11CD
  0
DICTIONARY
  5
11DE
330
1170
100
AcDbDictionary
280
     1
281
     1
  3
ACAD_XREC_ROUNDTRIP
360
11DF
  0
DICTIONARY
  5
11C4
330
1163
100
AcDbDictionary
280
     1
281
     1
  3
ACAD_XREC_ROUNDTRIP
360
11C5
  0
DICTIONARY
  5
11DA
330
116E
100
AcDbDictionary
280
     1
281
     1
  3
ACAD_XREC_ROUNDTRIP
360
11DB
  0
DICTIONARY
  5
11D8
330
116D
100
AcDbDictionary
280
     1
281
     1
  3
ACAD_XREC_ROUNDTRIP
360
11D9
  0
DICTIONARY
  5
11D2
330
116A
100
AcDbDictionary
280
     1
281
     1
  3
ACAD_XREC_ROUNDTRIP
360
11D3
  0
DICTIONARY
  5
11D4
330
116B
100
AcDbDictionary
280
     1
281
     1
  3
ACAD_XREC_ROUNDTRIP
360
11D5
  0
DICTIONARY
  5
11CA
330
1166
100
AcDbDictionary
280
     1
281
     1
  3
ACAD_XREC_ROUNDTRIP
360
11CB
  0
DICTIONARY
  5
11BE
330
1160
100
AcDbDictionary
280
     1
281
     1
  3
ACAD_XREC_ROUNDTRIP
360
11BF
  0
DICTIONARY
  5
11D6
330
116C
100
AcDbDictionary
280
     1
281
     1
  3
ACAD_XREC_ROUNDTRIP
360
11D7
  0
XRECORD
  5
11E7
102
{ACAD_REACTORS
330
11E6
102
}
330
11E6
100
AcDbXrecord
280
     1
102
DISPLAYNAME
  1
Imperial24
102
FLAGS
 90
        0
  0
XRECORD
  5
11E9
102
{ACAD_REACTORS
330
11E8
102
}
330
11E8
100
AcDbXrecord
280
     1
102
SHADEPLOT
 70
     0
102
SHADEPLOTRESLEVEL
 70
     2
102
SHADEPLOTCUSTOMDPI
 70
   300
  0
XRECORD
  5
11EB
102
{ACAD_REACTORS
330
11EA
102
}
330
11EA
100
AcDbXrecord
280
     1
102
SHADEPLOT
 70
     0
102
SHADEPLOTRESLEVEL
 70
     2
102
SHADEPLOTCUSTOMDPI
 70
   300
  0
XRECORD
  5
11B0
102
{ACAD_REACTORS
330
114A
102
}
330
114A
100
AcDbXrecord
280
     1
102
MATERIAL
148
0.0
149
0.0
149
0.0
 93
        0
 94
      127
282
     0
 72
     0
 77
     0
171
     0
175
     0
179
     0
273
     0
  0
XRECORD
  5
114C
102
{ACAD_REACTORS
330
114A
102
}
330
114A
100
AcDbXrecord
280
     1
270
     1
271
     1
  0
XRECORD
  5
114B
102
{ACAD_REACTORS
330
114A
102
}
330
114A
100
AcDbXrecord
280
     1
270
     1
271
     1
  0
XRECORD
  5
114F
102
{ACAD_REACTORS
330
114A
102
}
330
114A
100
AcDbXrecord
280
     1
270
     1
271
     1
  0
XRECORD
  5
114E
102
{ACAD_REACTORS
330
114A
102
}
330
114A
100
AcDbXrecord
280
     1
270
     1
271
     1
  0
XRECORD
  5
1150
102
{ACAD_REACTORS
330
114A
102
}
330
114A
100
AcDbXrecord
280
     1
270
     1
271
     1
  0
XRECORD
  5
114D
102
{ACAD_REACTORS
330
114A
102
}
330
114A
100
AcDbXrecord
280
     1
270
     1
271
     1
  0
XRECORD
  5
11AF
102
{ACAD_REACTORS
330
1142
102
}
330
1142
100
AcDbXrecord
280
     1
102
MATERIAL
148
0.0
149
0.0
149
0.0
 93
        0
 94
      127
282
     0
 72
     0
 77
     0
171
     0
175
     0
179
     0
273
     0
  0
XRECORD
  5
1144
102
{ACAD_REACTORS
330
1142
102
}
330
1142
100
AcDbXrecord
280
     1
270
     1
271
     1
  0
XRECORD
  5
1143
102
{ACAD_REACTORS
330
1142
102
}
330
1142
100
AcDbXrecord
280
     1
270
     1
271
     1
  0
XRECORD
  5
1147
102
{ACAD_REACTORS
330
1142
102
}
330
1142
100
AcDbXrecord
280
     1
270
     1
271
     1
  0
XRECORD
  5
1146
102
{ACAD_REACTORS
330
1142
102
}
330
1142
100
AcDbXrecord
280
     1
270
     1
271
     1
  0
XRECORD
  5
1148
102
{ACAD_REACTORS
330
1142
102
}
330
1142
100
AcDbXrecord
280
     1
270
     1
271
     1
  0
XRECORD
  5
1145
102
{ACAD_REACTORS
330
1142
102
}
330
1142
100
AcDbXrecord
280
     1
270
     1
271
     1
  0
XRECORD
  5
11B1
102
{ACAD_REACTORS
330
1152
102
}
330
1152
100
AcDbXrecord
280
     1
102
MATERIAL
148
0.0
149
0.0
149
0.0
 93
        0
 94
      127
282
     0
 72
     0
 77
     0
171
     0
175
     0
179
     0
273
     0
  0
XRECORD
  5
1154
102
{ACAD_REACTORS
330
1152
102
}
330
1152
100
AcDbXrecord
280
     1
270
     1
271
     1
  0
XRECORD
  5
1153
102
{ACAD_REACTORS
330
1152
102
}
330
1152
100
AcDbXrecord
280
     1
270
     1
271
     1
  0
XRECORD
  5
1157
102
{ACAD_REACTORS
330
1152
102
}
330
1152
100
AcDbXrecord
280
     1
270
     1
271
     1
  0
XRECORD
  5
1156
102
{ACAD_REACTORS
330
1152
102
}
330
1152
100
AcDbXrecord
280
     1
270
     1
271
     1
  0
XRECORD
  5
1158
102
{ACAD_REACTORS
330
1152
102
}
330
1152
100
AcDbXrecord
280
     1
270
     1
271
     1
  0
XRECORD
  5
1155
102
{ACAD_REACTORS
330
1152
102
}
330
1152
100
AcDbXrecord
280
     1
270
     1
271
     1
  0
XRECORD
  5
11E5
102
{ACAD_REACTORS
330
11E4
102
}
330
11E4
100
AcDbXrecord
280
     1
102
DISPLAYNAME
  1
Imperial24
102
FLAGS
 90
        0
  0
CELLSTYLEMAP
  5
11AC
102
{ACAD_REACTORS
330
11AB
102
}
330
11AB
100
AcDbCellStyleMap
 90
        3
300
CELLSTYLE
  1
TABLEFORMAT_BEGIN
 90
        5
170
     1
 91
        0
 92
    32768
 62
   257
 93
        1
300
CONTENTFORMAT
  1
CONTENTFORMAT_BEGIN
 90
        0
 91
        0
 92
      512
 93
        0
300

 40
0.0
140
1.0
 94
        5
 62
     0
340
F
144
0.25
309
CONTENTFORMAT_END
171
     0
 94
        0
309
TABLEFORMAT_END
  1
CELLSTYLE_BEGIN
 90
        1
 91
        1
300
_TITLE
309
CELLSTYLE_END
300
CELLSTYLE
  1
TABLEFORMAT_BEGIN
 90
        5
170
     1
 91
        0
 92
        0
 62
   257
 93
        1
300
CONTENTFORMAT
  1
CONTENTFORMAT_BEGIN
 90
        0
 91
        0
 92
      512
 93
        0
300

 40
0.0
140
1.0
 94
        5
 62
     0
340
F
144
0.18
309
CONTENTFORMAT_END
171
     0
 94
        0
309
TABLEFORMAT_END
  1
CELLSTYLE_BEGIN
 90
        2
 91
        1
300
_HEADER
309
CELLSTYLE_END
300
CELLSTYLE
  1
TABLEFORMAT_BEGIN
 90
        5
170
     1
 91
        0
 92
        0
 62
   257
 93
        1
300
CONTENTFORMAT
  1
CONTENTFORMAT_BEGIN
 90
        0
 91
        0
 92
      512
 93
        0
300

 40
0.0
140
1.0
 94
        2
 62
     0
340
F
144
0.18
309
CONTENTFORMAT_END
171
     0
 94
        0
309
TABLEFORMAT_END
  1
CELLSTYLE_BEGIN
 90
        3
 91
        2
300
_DATA
309
CELLSTYLE_END
  0
XRECORD
  5
11E2
102
{ACAD_REACTORS
330
11AB
102
}
330
11AB
100
AcDbXrecord
280
     1
102
ACAD_ROUNDTRIP_PRE2007_TABLESTYLE
 90
      512
 91
        0
  1

 92
      512
 93
        0
  2

 94
      512
 95
        0
  3

  0
XRECORD
  5
11BD
102
{ACAD_REACTORS
330
11BC
102
}
330
11BC
100
AcDbXrecord
280
     1
102
RTVSPost2010Prop28
280
     1
102
RTVSPost2010PropOp28
 70
     1
102
RTVSPost2010Prop29
280
     1
102
RTVSPost2010PropOp29
 70
     1
102
RTVSPost2010Prop30
280
     0
102
RTVSPost2010PropOp30
 70
     1
102
RTVSPost2010Prop31
280
     0
102
RTVSPost2010PropOp31
 70
     1
102
RTVSPost2010Prop32
280
     0
102
RTVSPost2010PropOp32
 70
     1
102
RTVSPost2010Prop33
280
     0
102
RTVSPost2010PropOp33
 70
     1
102
RTVSPost2010Prop34
280
     0
102
RTVSPost2010PropOp34
 70
     1
102
RTVSPost2010Prop35
280
     0
102
RTVSPost2010PropOp35
 70
     1
102
RTVSPost2010Prop36
280
     0
102
RTVSPost2010PropOp36
 70
     1
102
RTVSPost2010Prop37
 90
       50
102
RTVSPost2010PropOp37
 70
     1
102
RTVSPost2010Prop38
140
0.0
102
RTVSPost2010PropOp38
 70
     1
102
RTVSPost2010Prop39
140
1.0
102
RTVSPost2010PropOp39
 70
     1
102
RTVSPost2010Prop40
 90
        0
102
RTVSPost2010PropOp40
 70
     1
102
RTVSPost2010Prop41ColorIndex
 90
       18
102
RTVSPost2010Prop41ColorRGB
 90
        0
102
RTVSPost2010PropOp41
 70
     1
102
RTVSPost2010Prop42
 90
       50
102
RTVSPost2010PropOp42
 70
     1
102
RTVSPost2010Prop43
 90
        3
102
RTVSPost2010PropOp43
 70
     1
102
RTVSPost2010Prop44ColorIndex
 90
        5
102
RTVSPost2010Prop44ColorRGB
 90
      255
102
RTVSPost2010PropOp44
 70
     1
102
RTVSPost2010Prop45
280
     0
102
RTVSPost2010PropOp45
 70
     1
102
RTVSPost2010Prop46
 90
       50
102
RTVSPost2010PropOp46
 70
     1
102
RTVSPost2010Prop47
 90
       50
102
RTVSPost2010PropOp47
 70
     1
102
RTVSPost2010Prop48
 90
       50
102
RTVSPost2010PropOp48
 70
     1
102
RTVSPost2010Prop49
280
     0
102
RTVSPost2010PropOp49
 70
     1
102
RTVSPost2010Prop50
 90
       50
102
RTVSPost2010PropOp50
 70
     1
102
RTVSPost2010Prop51ColorIndex
 90
      256
102
RTVSPost2010Prop51ColorRGB
 90
-16777216
102
RTVSPost2010PropOp51
 70
     0
102
RTVSPost2010Prop52
140
1.0
102
RTVSPost2010PropOp52
 70
     0
102
RTVSPost2010Prop53
 90
        2
102
RTVSPost2010PropOp53
 70
     1
102
RTVSPost2010Prop54
  1
strokes_ogs.tif
102
RTVSPost2010PropOp54
 70
     1
102
RTVSPost2010Prop55
280
     0
102
RTVSPost2010PropOp55
 70
     1
102
RTVSPost2010Prop56
140
1.0
102
RTVSPost2010PropOp56
 70
     1
102
RTVSPost2010Prop57
140
1.0
102
RTVSPost2010PropOp57
 70
     1
102
RTVSPropertyOp0
 70
     1
102
RTVSPropertyOp1
 70
     1
102
RTVSPropertyOp2
 70
     1
102
RTVSPropertyOp3
 70
     1
102
RTVSPropertyOp4
 70
     1
102
RTVSPropertyOp5
 70
     1
102
RTVSPropertyOp6
 70
     1
102
RTVSPropertyOp7
 70
     1
102
RTVSPropertyOp8
 70
     1
102
RTVSPropertyOp9
 70
     1
102
RTVSPropertyOp10
 70
     1
102
RTVSPropertyOp11
 70
     1
102
RTVSPropertyOp12
 70
     1
102
RTVSPropertyOp13
 70
     1
102
RTVSPropertyOp14
 70
     1
102
RTVSPropertyOp15
 70
     1
102
RTVSPropertyOp16
 70
     1
102
RTVSPropertyOp17
 70
     1
102
RTVSPropertyOp18
 70
     1
102
RTVSPropertyOp19
 70
     1
102
RTVSPropertyOp20
 70
     1
102
RTVSPropertyOp21
 70
     1
102
RTVSPropertyOp22
 70
     1
102
RTVSPropertyOp23
 70
     1
102
RTVSPropertyOp24
 70
     1
102
RTVSPropertyOp25
 70
     1
102
RTVSPropertyOp26
 70
     1
102
RTVSPropertyOp27
 70
     1
102
RTVSPropertyOp28
 70
     1
102
RTVSPropertyOp29
 70
     1
102
RTVSPropertyOp30
 70
     1
102
RTVSPropertyOp31
 70
     1
102
RTVSPropertyOp32
 70
     1
102
RTVSPropertyOp33
 70
     1
102
RTVSPropertyOp34
 70
     1
102
RTVSPropertyOp35
 70
     1
102
RTVSPropertyOp36
 70
     1
102
RTVSPropertyOp37
 70
     1
102
RTVSPropertyOp38
 70
     1
102
RTVSPropertyOp39
 70
     1
102
RTVSPropertyOp40
 70
     1
102
RTVSPropertyOp41
 70
     1
102
RTVSPropertyOp42
 70
     1
102
RTVSPropertyOp43
 70
     1
102
RTVSPropertyOp44
 70
     1
102
RTVSPropertyOp45
 70
     1
102
RTVSPropertyOp46
 70
     1
102
RTVSPropertyOp47
 70
     1
102
RTVSPropertyOp48
 70
     1
102
RTVSPropertyOp49
 70
     1
102
RTVSPropertyOp50
 70
     1
102
RTVSPropertyOp51
 70
     0
102
RTVSPropertyOp52
 70
     0
102
RTVSPropertyOp53
 70
     1
102
RTVSPropertyOp54
 70
     1
102
RTVSPropertyOp55
 70
     1
102
RTVSPropertyOp56
 70
     1
102
RTVSPropertyOp57
 70
     1
102
RTVSPropertyOp58
 70
     1
102
RTVSPropertyOp59
 70
     1
102
RTVSPropertyOp60
 70
     1
102
RTVSPropertyOp61
 70
     1
102
RTVSPropertyOp62
 70
     1
  0
XRECORD
  5
11BB
102
{ACAD_REACTORS
330
11BA
102
}
330
11BA
100
AcDbXrecord
280
     1
102
RTVSPost2010Prop28
280
     0
102
RTVSPost2010PropOp28
 70
     1
102
RTVSPost2010Prop29
280
     1
102
RTVSPost2010PropOp29
 70
     1
102
RTVSPost2010Prop30
280
     1
102
RTVSPost2010PropOp30
 70
     1
102
RTVSPost2010Prop31
280
     0
102
RTVSPost2010PropOp31
 70
     1
102
RTVSPost2010Prop32
280
     0
102
RTVSPost2010PropOp32
 70
     1
102
RTVSPost2010Prop33
280
     0
102
RTVSPost2010PropOp33
 70
     1
102
RTVSPost2010Prop34
280
     0
102
RTVSPost2010PropOp34
 70
     1
102
RTVSPost2010Prop35
280
     0
102
RTVSPost2010PropOp35
 70
     1
102
RTVSPost2010Prop36
280
     0
102
RTVSPost2010PropOp36
 70
     1
102
RTVSPost2010Prop37
 90
       50
102
RTVSPost2010PropOp37
 70
     1
102
RTVSPost2010Prop38
140
0.0
102
RTVSPost2010PropOp38
 70
     1
102
RTVSPost2010Prop39
140
1.0
102
RTVSPost2010PropOp39
 70
     1
102
RTVSPost2010Prop40
 90
        0
102
RTVSPost2010PropOp40
 70
     1
102
RTVSPost2010Prop41ColorIndex
 90
       18
102
RTVSPost2010Prop41ColorRGB
 90
        0
102
RTVSPost2010PropOp41
 70
     1
102
RTVSPost2010Prop42
 90
       50
102
RTVSPost2010PropOp42
 70
     1
102
RTVSPost2010Prop43
 90
        3
102
RTVSPost2010PropOp43
 70
     1
102
RTVSPost2010Prop44ColorIndex
 90
        5
102
RTVSPost2010Prop44ColorRGB
 90
      255
102
RTVSPost2010PropOp44
 70
     1
102
RTVSPost2010Prop45
280
     0
102
RTVSPost2010PropOp45
 70
     1
102
RTVSPost2010Prop46
 90
       50
102
RTVSPost2010PropOp46
 70
     1
102
RTVSPost2010Prop47
 90
       50
102
RTVSPost2010PropOp47
 70
     1
102
RTVSPost2010Prop48
 90
       50
102
RTVSPost2010PropOp48
 70
     1
102
RTVSPost2010Prop49
280
     0
102
RTVSPost2010PropOp49
 70
     1
102
RTVSPost2010Prop50
 90
       50
102
RTVSPost2010PropOp50
 70
     1
102
RTVSPost2010Prop51ColorIndex
 90
      256
102
RTVSPost2010Prop51ColorRGB
 90
-16777216
102
RTVSPost2010PropOp51
 70
     0
102
RTVSPost2010Prop52
140
1.0
102
RTVSPost2010PropOp52
 70
     0
102
RTVSPost2010Prop53
 90
        2
102
RTVSPost2010PropOp53
 70
     1
102
RTVSPost2010Prop54
  1
strokes_ogs.tif
102
RTVSPost2010PropOp54
 70
     1
102
RTVSPost2010Prop55
280
     0
102
RTVSPost2010PropOp55
 70
     1
102
RTVSPost2010Prop56
140
1.0
102
RTVSPost2010PropOp56
 70
     1
102
RTVSPost2010Prop57
140
1.0
102
RTVSPost2010PropOp57
 70
     1
102
RTVSPropertyOp0
 70
     1
102
RTVSPropertyOp1
 70
     1
102
RTVSPropertyOp2
 70
     1
102
RTVSPropertyOp3
 70
     1
102
RTVSPropertyOp4
 70
     1
102
RTVSPropertyOp5
 70
     1
102
RTVSPropertyOp6
 70
     1
102
RTVSPropertyOp7
 70
     1
102
RTVSPropertyOp8
 70
     1
102
RTVSPropertyOp9
 70
     1
102
RTVSPropertyOp10
 70
     1
102
RTVSPropertyOp11
 70
     1
102
RTVSPropertyOp12
 70
     1
102
RTVSPropertyOp13
 70
     1
102
RTVSPropertyOp14
 70
     1
102
RTVSPropertyOp15
 70
     1
102
RTVSPropertyOp16
 70
     1
102
RTVSPropertyOp17
 70
     1
102
RTVSPropertyOp18
 70
     1
102
RTVSPropertyOp19
 70
     1
102
RTVSPropertyOp20
 70
     1
102
RTVSPropertyOp21
 70
     1
102
RTVSPropertyOp22
 70
     1
102
RTVSPropertyOp23
 70
     1
102
RTVSPropertyOp24
 70
     1
102
RTVSPropertyOp25
 70
     1
102
RTVSPropertyOp26
 70
     1
102
RTVSPropertyOp27
 70
     1
102
RTVSPropertyOp28
 70
     1
102
RTVSPropertyOp29
 70
     1
102
RTVSPropertyOp30
 70
     1
102
RTVSPropertyOp31
 70
     1
102
RTVSPropertyOp32
 70
     1
102
RTVSPropertyOp33
 70
     1
102
RTVSPropertyOp34
 70
     1
102
RTVSPropertyOp35
 70
     1
102
RTVSPropertyOp36
 70
     1
102
RTVSPropertyOp37
 70
     1
102
RTVSPropertyOp38
 70
     1
102
RTVSPropertyOp39
 70
     1
102
RTVSPropertyOp40
 70
     1
102
RTVSPropertyOp41
 70
     1
102
RTVSPropertyOp42
 70
     1
102
RTVSPropertyOp43
 70
     1
102
RTVSPropertyOp44
 70
     1
102
RTVSPropertyOp45
 70
     1
102
RTVSPropertyOp46
 70
     1
102
RTVSPropertyOp47
 70
     1
102
RTVSPropertyOp48
 70
     1
102
RTVSPropertyOp49
 70
     1
102
RTVSPropertyOp50
 70
     1
102
RTVSPropertyOp51
 70
     0
102
RTVSPropertyOp52
 70
     0
102
RTVSPropertyOp53
 70
     1
102
RTVSPropertyOp54
 70
     1
102
RTVSPropertyOp55
 70
     1
102
RTVSPropertyOp56
 70
     1
102
RTVSPropertyOp57
 70
     1
102
RTVSPropertyOp58
 70
     1
102
RTVSPropertyOp59
 70
     1
102
RTVSPropertyOp60
 70
     1
102
RTVSPropertyOp61
 70
     1
102
RTVSPropertyOp62
 70
     1
  0
XRECORD
  5
11C9
102
{ACAD_REACTORS
330
11C8
102
}
330
11C8
100
AcDbXrecord
280
     1
102
RTVSPost2010Prop28
280
     0
102
RTVSPost2010PropOp28
 70
     1
102
RTVSPost2010Prop29
280
     1
102
RTVSPost2010PropOp29
 70
     1
102
RTVSPost2010Prop30
280
     1
102
RTVSPost2010PropOp30
 70
     1
102
RTVSPost2010Prop31
280
     0
102
RTVSPost2010PropOp31
 70
     1
102
RTVSPost2010Prop32
280
     0
102
RTVSPost2010PropOp32
 70
     1
102
RTVSPost2010Prop33
280
     0
102
RTVSPost2010PropOp33
 70
     1
102
RTVSPost2010Prop34
280
     0
102
RTVSPost2010PropOp34
 70
     1
102
RTVSPost2010Prop35
280
     0
102
RTVSPost2010PropOp35
 70
     1
102
RTVSPost2010Prop36
280
     0
102
RTVSPost2010PropOp36
 70
     1
102
RTVSPost2010Prop37
 90
       50
102
RTVSPost2010PropOp37
 70
     1
102
RTVSPost2010Prop38
140
0.0
102
RTVSPost2010PropOp38
 70
     1
102
RTVSPost2010Prop39
140
1.0
102
RTVSPost2010PropOp39
 70
     1
102
RTVSPost2010Prop40
 90
        0
102
RTVSPost2010PropOp40
 70
     1
102
RTVSPost2010Prop41ColorIndex
 90
       18
102
RTVSPost2010Prop41ColorRGB
 90
        0
102
RTVSPost2010PropOp41
 70
     1
102
RTVSPost2010Prop42
 90
       50
102
RTVSPost2010PropOp42
 70
     1
102
RTVSPost2010Prop43
 90
        3
102
RTVSPost2010PropOp43
 70
     1
102
RTVSPost2010Prop44ColorIndex
 90
        5
102
RTVSPost2010Prop44ColorRGB
 90
      255
102
RTVSPost2010PropOp44
 70
     1
102
RTVSPost2010Prop45
280
     0
102
RTVSPost2010PropOp45
 70
     1
102
RTVSPost2010Prop46
 90
       50
102
RTVSPost2010PropOp46
 70
     1
102
RTVSPost2010Prop47
 90
       50
102
RTVSPost2010PropOp47
 70
     1
102
RTVSPost2010Prop48
 90
       50
102
RTVSPost2010PropOp48
 70
     1
102
RTVSPost2010Prop49
280
     0
102
RTVSPost2010PropOp49
 70
     1
102
RTVSPost2010Prop50
 90
       50
102
RTVSPost2010PropOp50
 70
     1
102
RTVSPost2010Prop51ColorIndex
 90
      256
102
RTVSPost2010Prop51ColorRGB
 90
-16777216
102
RTVSPost2010PropOp51
 70
     0
102
RTVSPost2010Prop52
140
1.0
102
RTVSPost2010PropOp52
 70
     0
102
RTVSPost2010Prop53
 90
        2
102
RTVSPost2010PropOp53
 70
     1
102
RTVSPost2010Prop54
  1
strokes_ogs.tif
102
RTVSPost2010PropOp54
 70
     1
102
RTVSPost2010Prop55
280
     0
102
RTVSPost2010PropOp55
 70
     1
102
RTVSPost2010Prop56
140
1.0
102
RTVSPost2010PropOp56
 70
     1
102
RTVSPost2010Prop57
140
1.0
102
RTVSPost2010PropOp57
 70
     1
102
RTVSPropertyOp0
 70
     1
102
RTVSPropertyOp1
 70
     1
102
RTVSPropertyOp2
 70
     1
102
RTVSPropertyOp3
 70
     1
102
RTVSPropertyOp4
 70
     1
102
RTVSPropertyOp5
 70
     1
102
RTVSPropertyOp6
 70
     1
102
RTVSPropertyOp7
 70
     1
102
RTVSPropertyOp8
 70
     1
102
RTVSPropertyOp9
 70
     1
102
RTVSPropertyOp10
 70
     1
102
RTVSPropertyOp11
 70
     1
102
RTVSPropertyOp12
 70
     1
102
RTVSPropertyOp13
 70
     1
102
RTVSPropertyOp14
 70
     1
102
RTVSPropertyOp15
 70
     1
102
RTVSPropertyOp16
 70
     1
102
RTVSPropertyOp17
 70
     1
102
RTVSPropertyOp18
 70
     1
102
RTVSPropertyOp19
 70
     1
102
RTVSPropertyOp20
 70
     1
102
RTVSPropertyOp21
 70
     1
102
RTVSPropertyOp22
 70
     1
102
RTVSPropertyOp23
 70
     1
102
RTVSPropertyOp24
 70
     1
102
RTVSPropertyOp25
 70
     1
102
RTVSPropertyOp26
 70
     1
102
RTVSPropertyOp27
 70
     1
102
RTVSPropertyOp28
 70
     1
102
RTVSPropertyOp29
 70
     1
102
RTVSPropertyOp30
 70
     1
102
RTVSPropertyOp31
 70
     1
102
RTVSPropertyOp32
 70
     1
102
RTVSPropertyOp33
 70
     1
102
RTVSPropertyOp34
 70
     1
102
RTVSPropertyOp35
 70
     1
102
RTVSPropertyOp36
 70
     1
102
RTVSPropertyOp37
 70
     1
102
RTVSPropertyOp38
 70
     1
102
RTVSPropertyOp39
 70
     1
102
RTVSPropertyOp40
 70
     1
102
RTVSPropertyOp41
 70
     1
102
RTVSPropertyOp42
 70
     1
102
RTVSPropertyOp43
 70
     1
102
RTVSPropertyOp44
 70
     1
102
RTVSPropertyOp45
 70
     1
102
RTVSPropertyOp46
 70
     1
102
RTVSPropertyOp47
 70
     1
102
RTVSPropertyOp48
 70
     1
102
RTVSPropertyOp49
 70
     1
102
RTVSPropertyOp50
 70
     1
102
RTVSPropertyOp51
 70
     0
102
RTVSPropertyOp52
 70
     0
102
RTVSPropertyOp53
 70
     1
102
RTVSPropertyOp54
 70
     1
102
RTVSPropertyOp55
 70
     1
102
RTVSPropertyOp56
 70
     1
102
RTVSPropertyOp57
 70
     1
102
RTVSPropertyOp58
 70
     1
102
RTVSPropertyOp59
 70
     1
102
RTVSPropertyOp60
 70
     1
102
RTVSPropertyOp61
 70
     1
102
RTVSPropertyOp62
 70
     1
  0
XRECORD
  5
11D1
102
{ACAD_REACTORS
330
11D0
102
}
330
11D0
100
AcDbXrecord
280
     1
102
RTVSPost2010Prop28
280
     0
102
RTVSPost2010PropOp28
 70
     1
102
RTVSPost2010Prop29
280
     1
102
RTVSPost2010PropOp29
 70
     1
102
RTVSPost2010Prop30
280
     1
102
RTVSPost2010PropOp30
 70
     1
102
RTVSPost2010Prop31
280
     0
102
RTVSPost2010PropOp31
 70
     1
102
RTVSPost2010Prop32
280
     0
102
RTVSPost2010PropOp32
 70
     1
102
RTVSPost2010Prop33
280
     0
102
RTVSPost2010PropOp33
 70
     1
102
RTVSPost2010Prop34
280
     0
102
RTVSPost2010PropOp34
 70
     1
102
RTVSPost2010Prop35
280
     0
102
RTVSPost2010PropOp35
 70
     1
102
RTVSPost2010Prop36
280
     0
102
RTVSPost2010PropOp36
 70
     1
102
RTVSPost2010Prop37
 90
       50
102
RTVSPost2010PropOp37
 70
     1
102
RTVSPost2010Prop38
140
0.0
102
RTVSPost2010PropOp38
 70
     1
102
RTVSPost2010Prop39
140
1.0
102
RTVSPost2010PropOp39
 70
     1
102
RTVSPost2010Prop40
 90
        0
102
RTVSPost2010PropOp40
 70
     1
102
RTVSPost2010Prop41ColorIndex
 90
       18
102
RTVSPost2010Prop41ColorRGB
 90
        0
102
RTVSPost2010PropOp41
 70
     1
102
RTVSPost2010Prop42
 90
       50
102
RTVSPost2010PropOp42
 70
     1
102
RTVSPost2010Prop43
 90
        3
102
RTVSPost2010PropOp43
 70
     1
102
RTVSPost2010Prop44ColorIndex
 90
        5
102
RTVSPost2010Prop44ColorRGB
 90
      255
102
RTVSPost2010PropOp44
 70
     1
102
RTVSPost2010Prop45
280
     0
102
RTVSPost2010PropOp45
 70
     1
102
RTVSPost2010Prop46
 90
       50
102
RTVSPost2010PropOp46
 70
     1
102
RTVSPost2010Prop47
 90
       50
102
RTVSPost2010PropOp47
 70
     1
102
RTVSPost2010Prop48
 90
       50
102
RTVSPost2010PropOp48
 70
     1
102
RTVSPost2010Prop49
280
     0
102
RTVSPost2010PropOp49
 70
     1
102
RTVSPost2010Prop50
 90
       50
102
RTVSPost2010PropOp50
 70
     1
102
RTVSPost2010Prop51ColorIndex
 90
      256
102
RTVSPost2010Prop51ColorRGB
 90
-16777216
102
RTVSPost2010PropOp51
 70
     0
102
RTVSPost2010Prop52
140
1.0
102
RTVSPost2010PropOp52
 70
     0
102
RTVSPost2010Prop53
 90
        2
102
RTVSPost2010PropOp53
 70
     1
102
RTVSPost2010Prop54
  1
strokes_ogs.tif
102
RTVSPost2010PropOp54
 70
     1
102
RTVSPost2010Prop55
280
     0
102
RTVSPost2010PropOp55
 70
     1
102
RTVSPost2010Prop56
140
1.0
102
RTVSPost2010PropOp56
 70
     1
102
RTVSPost2010Prop57
140
1.0
102
RTVSPost2010PropOp57
 70
     1
102
RTVSPropertyOp0
 70
     1
102
RTVSPropertyOp1
 70
     1
102
RTVSPropertyOp2
 70
     1
102
RTVSPropertyOp3
 70
     1
102
RTVSPropertyOp4
 70
     1
102
RTVSPropertyOp5
 70
     1
102
RTVSPropertyOp6
 70
     1
102
RTVSPropertyOp7
 70
     1
102
RTVSPropertyOp8
 70
     1
102
RTVSPropertyOp9
 70
     1
102
RTVSPropertyOp10
 70
     1
102
RTVSPropertyOp11
 70
     1
102
RTVSPropertyOp12
 70
     1
102
RTVSPropertyOp13
 70
     1
102
RTVSPropertyOp14
 70
     1
102
RTVSPropertyOp15
 70
     1
102
RTVSPropertyOp16
 70
     1
102
RTVSPropertyOp17
 70
     1
102
RTVSPropertyOp18
 70
     1
102
RTVSPropertyOp19
 70
     1
102
RTVSPropertyOp20
 70
     1
102
RTVSPropertyOp21
 70
     1
102
RTVSPropertyOp22
 70
     1
102
RTVSPropertyOp23
 70
     1
102
RTVSPropertyOp24
 70
     1
102
RTVSPropertyOp25
 70
     1
102
RTVSPropertyOp26
 70
     1
102
RTVSPropertyOp27
 70
     1
102
RTVSPropertyOp28
 70
     1
102
RTVSPropertyOp29
 70
     1
102
RTVSPropertyOp30
 70
     1
102
RTVSPropertyOp31
 70
     1
102
RTVSPropertyOp32
 70
     1
102
RTVSPropertyOp33
 70
     1
102
RTVSPropertyOp34
 70
     1
102
RTVSPropertyOp35
 70
     1
102
RTVSPropertyOp36
 70
     1
102
RTVSPropertyOp37
 70
     1
102
RTVSPropertyOp38
 70
     1
102
RTVSPropertyOp39
 70
     1
102
RTVSPropertyOp40
 70
     1
102
RTVSPropertyOp41
 70
     1
102
RTVSPropertyOp42
 70
     1
102
RTVSPropertyOp43
 70
     1
102
RTVSPropertyOp44
 70
     1
102
RTVSPropertyOp45
 70
     1
102
RTVSPropertyOp46
 70
     1
102
RTVSPropertyOp47
 70
     1
102
RTVSPropertyOp48
 70
     1
102
RTVSPropertyOp49
 70
     1
102
RTVSPropertyOp50
 70
     1
102
RTVSPropertyOp51
 70
     0
102
RTVSPropertyOp52
 70
     0
102
RTVSPropertyOp53
 70
     1
102
RTVSPropertyOp54
 70
     1
102
RTVSPropertyOp55
 70
     1
102
RTVSPropertyOp56
 70
     1
102
RTVSPropertyOp57
 70
     1
102
RTVSPropertyOp58
 70
     1
102
RTVSPropertyOp59
 70
     1
102
RTVSPropertyOp60
 70
     1
102
RTVSPropertyOp61
 70
     1
102
RTVSPropertyOp62
 70
     1
  0
XRECORD
  5
11C3
102
{ACAD_REACTORS
330
11C2
102
}
330
11C2
100
AcDbXrecord
280
     1
102
RTVSPost2010Prop28
280
     0
102
RTVSPost2010PropOp28
 70
     1
102
RTVSPost2010Prop29
280
     1
102
RTVSPost2010PropOp29
 70
     1
102
RTVSPost2010Prop30
280
     1
102
RTVSPost2010PropOp30
 70
     1
102
RTVSPost2010Prop31
280
     0
102
RTVSPost2010PropOp31
 70
     1
102
RTVSPost2010Prop32
280
     0
102
RTVSPost2010PropOp32
 70
     1
102
RTVSPost2010Prop33
280
     0
102
RTVSPost2010PropOp33
 70
     1
102
RTVSPost2010Prop34
280
     0
102
RTVSPost2010PropOp34
 70
     1
102
RTVSPost2010Prop35
280
     0
102
RTVSPost2010PropOp35
 70
     1
102
RTVSPost2010Prop36
280
     0
102
RTVSPost2010PropOp36
 70
     1
102
RTVSPost2010Prop37
 90
       50
102
RTVSPost2010PropOp37
 70
     1
102
RTVSPost2010Prop38
140
0.0
102
RTVSPost2010PropOp38
 70
     1
102
RTVSPost2010Prop39
140
1.0
102
RTVSPost2010PropOp39
 70
     1
102
RTVSPost2010Prop40
 90
        0
102
RTVSPost2010PropOp40
 70
     1
102
RTVSPost2010Prop41ColorIndex
 90
       18
102
RTVSPost2010Prop41ColorRGB
 90
        0
102
RTVSPost2010PropOp41
 70
     1
102
RTVSPost2010Prop42
 90
       50
102
RTVSPost2010PropOp42
 70
     1
102
RTVSPost2010Prop43
 90
        3
102
RTVSPost2010PropOp43
 70
     1
102
RTVSPost2010Prop44ColorIndex
 90
        5
102
RTVSPost2010Prop44ColorRGB
 90
      255
102
RTVSPost2010PropOp44
 70
     1
102
RTVSPost2010Prop45
280
     0
102
RTVSPost2010PropOp45
 70
     1
102
RTVSPost2010Prop46
 90
       50
102
RTVSPost2010PropOp46
 70
     1
102
RTVSPost2010Prop47
 90
       50
102
RTVSPost2010PropOp47
 70
     1
102
RTVSPost2010Prop48
 90
       50
102
RTVSPost2010PropOp48
 70
     1
102
RTVSPost2010Prop49
280
     0
102
RTVSPost2010PropOp49
 70
     1
102
RTVSPost2010Prop50
 90
       50
102
RTVSPost2010PropOp50
 70
     1
102
RTVSPost2010Prop51ColorIndex
 90
      256
102
RTVSPost2010Prop51ColorRGB
 90
-16777216
102
RTVSPost2010PropOp51
 70
     0
102
RTVSPost2010Prop52
140
1.0
102
RTVSPost2010PropOp52
 70
     0
102
RTVSPost2010Prop53
 90
        2
102
RTVSPost2010PropOp53
 70
     1
102
RTVSPost2010Prop54
  1
strokes_ogs.tif
102
RTVSPost2010PropOp54
 70
     1
102
RTVSPost2010Prop55
280
     0
102
RTVSPost2010PropOp55
 70
     1
102
RTVSPost2010Prop56
140
1.0
102
RTVSPost2010PropOp56
 70
     1
102
RTVSPost2010Prop57
140
1.0
102
RTVSPost2010PropOp57
 70
     1
102
RTVSPropertyOp0
 70
     1
102
RTVSPropertyOp1
 70
     1
102
RTVSPropertyOp2
 70
     1
102
RTVSPropertyOp3
 70
     1
102
RTVSPropertyOp4
 70
     1
102
RTVSPropertyOp5
 70
     1
102
RTVSPropertyOp6
 70
     1
102
RTVSPropertyOp7
 70
     1
102
RTVSPropertyOp8
 70
     1
102
RTVSPropertyOp9
 70
     1
102
RTVSPropertyOp10
 70
     1
102
RTVSPropertyOp11
 70
     1
102
RTVSPropertyOp12
 70
     1
102
RTVSPropertyOp13
 70
     1
102
RTVSPropertyOp14
 70
     1
102
RTVSPropertyOp15
 70
     1
102
RTVSPropertyOp16
 70
     1
102
RTVSPropertyOp17
 70
     1
102
RTVSPropertyOp18
 70
     1
102
RTVSPropertyOp19
 70
     1
102
RTVSPropertyOp20
 70
     1
102
RTVSPropertyOp21
 70
     1
102
RTVSPropertyOp22
 70
     1
102
RTVSPropertyOp23
 70
     1
102
RTVSPropertyOp24
 70
     1
102
RTVSPropertyOp25
 70
     1
102
RTVSPropertyOp26
 70
     1
102
RTVSPropertyOp27
 70
     1
102
RTVSPropertyOp28
 70
     1
102
RTVSPropertyOp29
 70
     1
102
RTVSPropertyOp30
 70
     1
102
RTVSPropertyOp31
 70
     1
102
RTVSPropertyOp32
 70
     1
102
RTVSPropertyOp33
 70
     1
102
RTVSPropertyOp34
 70
     1
102
RTVSPropertyOp35
 70
     1
102
RTVSPropertyOp36
 70
     1
102
RTVSPropertyOp37
 70
     1
102
RTVSPropertyOp38
 70
     1
102
RTVSPropertyOp39
 70
     1
102
RTVSPropertyOp40
 70
     1
102
RTVSPropertyOp41
 70
     1
102
RTVSPropertyOp42
 70
     1
102
RTVSPropertyOp43
 70
     1
102
RTVSPropertyOp44
 70
     1
102
RTVSPropertyOp45
 70
     1
102
RTVSPropertyOp46
 70
     1
102
RTVSPropertyOp47
 70
     1
102
RTVSPropertyOp48
 70
     1
102
RTVSPropertyOp49
 70
     1
102
RTVSPropertyOp50
 70
     1
102
RTVSPropertyOp51
 70
     0
102
RTVSPropertyOp52
 70
     0
102
RTVSPropertyOp53
 70
     1
102
RTVSPropertyOp54
 70
     1
102
RTVSPropertyOp55
 70
     1
102
RTVSPropertyOp56
 70
     1
102
RTVSPropertyOp57
 70
     1
102
RTVSPropertyOp58
 70
     1
102
RTVSPropertyOp59
 70
     1
102
RTVSPropertyOp60
 70
     1
102
RTVSPropertyOp61
 70
     1
102
RTVSPropertyOp62
 70
     1
  0
XRECORD
  5
11C7
102
{ACAD_REACTORS
330
11C6
102
}
330
11C6
100
AcDbXrecord
280
     1
102
RTVSPost2010Prop28
280
     0
102
RTVSPost2010PropOp28
 70
     1
102
RTVSPost2010Prop29
280
     1
102
RTVSPost2010PropOp29
 70
     1
102
RTVSPost2010Prop30
280
     1
102
RTVSPost2010PropOp30
 70
     1
102
RTVSPost2010Prop31
280
     0
102
RTVSPost2010PropOp31
 70
     1
102
RTVSPost2010Prop32
280
     0
102
RTVSPost2010PropOp32
 70
     1
102
RTVSPost2010Prop33
280
     0
102
RTVSPost2010PropOp33
 70
     1
102
RTVSPost2010Prop34
280
     0
102
RTVSPost2010PropOp34
 70
     1
102
RTVSPost2010Prop35
280
     0
102
RTVSPost2010PropOp35
 70
     1
102
RTVSPost2010Prop36
280
     0
102
RTVSPost2010PropOp36
 70
     1
102
RTVSPost2010Prop37
 90
       50
102
RTVSPost2010PropOp37
 70
     1
102
RTVSPost2010Prop38
140
0.0
102
RTVSPost2010PropOp38
 70
     1
102
RTVSPost2010Prop39
140
1.0
102
RTVSPost2010PropOp39
 70
     1
102
RTVSPost2010Prop40
 90
        0
102
RTVSPost2010PropOp40
 70
     1
102
RTVSPost2010Prop41ColorIndex
 90
       18
102
RTVSPost2010Prop41ColorRGB
 90
        0
102
RTVSPost2010PropOp41
 70
     1
102
RTVSPost2010Prop42
 90
       50
102
RTVSPost2010PropOp42
 70
     1
102
RTVSPost2010Prop43
 90
        3
102
RTVSPost2010PropOp43
 70
     1
102
RTVSPost2010Prop44ColorIndex
 90
        5
102
RTVSPost2010Prop44ColorRGB
 90
      255
102
RTVSPost2010PropOp44
 70
     1
102
RTVSPost2010Prop45
280
     0
102
RTVSPost2010PropOp45
 70
     1
102
RTVSPost2010Prop46
 90
       50
102
RTVSPost2010PropOp46
 70
     1
102
RTVSPost2010Prop47
 90
       50
102
RTVSPost2010PropOp47
 70
     1
102
RTVSPost2010Prop48
 90
       50
102
RTVSPost2010PropOp48
 70
     1
102
RTVSPost2010Prop49
280
     0
102
RTVSPost2010PropOp49
 70
     1
102
RTVSPost2010Prop50
 90
       50
102
RTVSPost2010PropOp50
 70
     1
102
RTVSPost2010Prop51ColorIndex
 90
      256
102
RTVSPost2010Prop51ColorRGB
 90
-16777216
102
RTVSPost2010PropOp51
 70
     0
102
RTVSPost2010Prop52
140
1.0
102
RTVSPost2010PropOp52
 70
     0
102
RTVSPost2010Prop53
 90
        2
102
RTVSPost2010PropOp53
 70
     1
102
RTVSPost2010Prop54
  1
strokes_ogs.tif
102
RTVSPost2010PropOp54
 70
     1
102
RTVSPost2010Prop55
280
     0
102
RTVSPost2010PropOp55
 70
     1
102
RTVSPost2010Prop56
140
1.0
102
RTVSPost2010PropOp56
 70
     1
102
RTVSPost2010Prop57
140
1.0
102
RTVSPost2010PropOp57
 70
     1
102
RTVSPropertyOp0
 70
     1
102
RTVSPropertyOp1
 70
     1
102
RTVSPropertyOp2
 70
     1
102
RTVSPropertyOp3
 70
     1
102
RTVSPropertyOp4
 70
     1
102
RTVSPropertyOp5
 70
     1
102
RTVSPropertyOp6
 70
     1
102
RTVSPropertyOp7
 70
     1
102
RTVSPropertyOp8
 70
     1
102
RTVSPropertyOp9
 70
     1
102
RTVSPropertyOp10
 70
     1
102
RTVSPropertyOp11
 70
     1
102
RTVSPropertyOp12
 70
     1
102
RTVSPropertyOp13
 70
     1
102
RTVSPropertyOp14
 70
     1
102
RTVSPropertyOp15
 70
     1
102
RTVSPropertyOp16
 70
     1
102
RTVSPropertyOp17
 70
     1
102
RTVSPropertyOp18
 70
     1
102
RTVSPropertyOp19
 70
     1
102
RTVSPropertyOp20
 70
     1
102
RTVSPropertyOp21
 70
     1
102
RTVSPropertyOp22
 70
     1
102
RTVSPropertyOp23
 70
     1
102
RTVSPropertyOp24
 70
     1
102
RTVSPropertyOp25
 70
     1
102
RTVSPropertyOp26
 70
     1
102
RTVSPropertyOp27
 70
     1
102
RTVSPropertyOp28
 70
     1
102
RTVSPropertyOp29
 70
     1
102
RTVSPropertyOp30
 70
     1
102
RTVSPropertyOp31
 70
     1
102
RTVSPropertyOp32
 70
     1
102
RTVSPropertyOp33
 70
     1
102
RTVSPropertyOp34
 70
     1
102
RTVSPropertyOp35
 70
     1
102
RTVSPropertyOp36
 70
     1
102
RTVSPropertyOp37
 70
     1
102
RTVSPropertyOp38
 70
     1
102
RTVSPropertyOp39
 70
     1
102
RTVSPropertyOp40
 70
     1
102
RTVSPropertyOp41
 70
     1
102
RTVSPropertyOp42
 70
     1
102
RTVSPropertyOp43
 70
     1
102
RTVSPropertyOp44
 70
     1
102
RTVSPropertyOp45
 70
     1
102
RTVSPropertyOp46
 70
     1
102
RTVSPropertyOp47
 70
     1
102
RTVSPropertyOp48
 70
     1
102
RTVSPropertyOp49
 70
     1
102
RTVSPropertyOp50
 70
     1
102
RTVSPropertyOp51
 70
     0
102
RTVSPropertyOp52
 70
     0
102
RTVSPropertyOp53
 70
     1
102
RTVSPropertyOp54
 70
     1
102
RTVSPropertyOp55
 70
     1
102
RTVSPropertyOp56
 70
     1
102
RTVSPropertyOp57
 70
     1
102
RTVSPropertyOp58
 70
     1
102
RTVSPropertyOp59
 70
     1
102
RTVSPropertyOp60
 70
     1
102
RTVSPropertyOp61
 70
     1
102
RTVSPropertyOp62
 70
     1
  0
XRECORD
  5
11E1
102
{ACAD_REACTORS
330
11E0
102
}
330
11E0
100
AcDbXrecord
280
     1
102
RTVSPost2010Prop28
280
     0
102
RTVSPost2010PropOp28
 70
     1
102
RTVSPost2010Prop29
280
     1
102
RTVSPost2010PropOp29
 70
     1
102
RTVSPost2010Prop30
280
     1
102
RTVSPost2010PropOp30
 70
     1
102
RTVSPost2010Prop31
280
     0
102
RTVSPost2010PropOp31
 70
     1
102
RTVSPost2010Prop32
280
     0
102
RTVSPost2010PropOp32
 70
     1
102
RTVSPost2010Prop33
280
     0
102
RTVSPost2010PropOp33
 70
     1
102
RTVSPost2010Prop34
280
     0
102
RTVSPost2010PropOp34
 70
     1
102
RTVSPost2010Prop35
280
     0
102
RTVSPost2010PropOp35
 70
     1
102
RTVSPost2010Prop36
280
     0
102
RTVSPost2010PropOp36
 70
     1
102
RTVSPost2010Prop37
 90
       50
102
RTVSPost2010PropOp37
 70
     0
102
RTVSPost2010Prop38
140
0.0
102
RTVSPost2010PropOp38
 70
     0
102
RTVSPost2010Prop39
140
1.0
102
RTVSPost2010PropOp39
 70
     0
102
RTVSPost2010Prop40
 90
        0
102
RTVSPost2010PropOp40
 70
     0
102
RTVSPost2010Prop41ColorIndex
 90
       18
102
RTVSPost2010Prop41ColorRGB
 90
        0
102
RTVSPost2010PropOp41
 70
     0
102
RTVSPost2010Prop42
 90
       50
102
RTVSPost2010PropOp42
 70
     0
102
RTVSPost2010Prop43
 90
        3
102
RTVSPost2010PropOp43
 70
     0
102
RTVSPost2010Prop44ColorIndex
 90
        5
102
RTVSPost2010Prop44ColorRGB
 90
      255
102
RTVSPost2010PropOp44
 70
     0
102
RTVSPost2010Prop45
280
     0
102
RTVSPost2010PropOp45
 70
     1
102
RTVSPost2010Prop46
 90
       50
102
RTVSPost2010PropOp46
 70
     0
102
RTVSPost2010Prop47
 90
       50
102
RTVSPost2010PropOp47
 70
     0
102
RTVSPost2010Prop48
 90
       50
102
RTVSPost2010PropOp48
 70
     0
102
RTVSPost2010Prop49
280
     0
102
RTVSPost2010PropOp49
 70
     1
102
RTVSPost2010Prop50
 90
       50
102
RTVSPost2010PropOp50
 70
     0
102
RTVSPost2010Prop51ColorIndex
 90
      256
102
RTVSPost2010Prop51ColorRGB
 90
-16777216
102
RTVSPost2010PropOp51
 70
     0
102
RTVSPost2010Prop52
140
1.0
102
RTVSPost2010PropOp52
 70
     0
102
RTVSPost2010Prop53
 90
        2
102
RTVSPost2010PropOp53
 70
     0
102
RTVSPost2010Prop54
  1
strokes_ogs.tif
102
RTVSPost2010PropOp54
 70
     0
102
RTVSPost2010Prop55
280
     0
102
RTVSPost2010PropOp55
 70
     1
102
RTVSPost2010Prop56
140
1.0
102
RTVSPost2010PropOp56
 70
     0
102
RTVSPost2010Prop57
140
1.0
102
RTVSPost2010PropOp57
 70
     0
102
RTVSPropertyOp0
 70
     0
102
RTVSPropertyOp1
 70
     0
102
RTVSPropertyOp2
 70
     0
102
RTVSPropertyOp3
 70
     0
102
RTVSPropertyOp4
 70
     0
102
RTVSPropertyOp5
 70
     0
102
RTVSPropertyOp6
 70
     0
102
RTVSPropertyOp7
 70
     0
102
RTVSPropertyOp8
 70
     0
102
RTVSPropertyOp9
 70
     0
102
RTVSPropertyOp10
 70
     0
102
RTVSPropertyOp11
 70
     0
102
RTVSPropertyOp12
 70
     0
102
RTVSPropertyOp13
 70
     0
102
RTVSPropertyOp14
 70
     2
102
RTVSPropertyOp15
 70
     0
102
RTVSPropertyOp16
 70
     0
102
RTVSPropertyOp17
 70
     0
102
RTVSPropertyOp18
 70
     0
102
RTVSPropertyOp19
 70
     0
102
RTVSPropertyOp20
 70
     0
102
RTVSPropertyOp21
 70
     0
102
RTVSPropertyOp22
 70
     0
102
RTVSPropertyOp23
 70
     0
102
RTVSPropertyOp24
 70
     0
102
RTVSPropertyOp25
 70
     0
102
RTVSPropertyOp26
 70
     0
102
RTVSPropertyOp27
 70
     0
102
RTVSPropertyOp28
 70
     1
102
RTVSPropertyOp29
 70
     1
102
RTVSPropertyOp30
 70
     1
102
RTVSPropertyOp31
 70
     1
102
RTVSPropertyOp32
 70
     1
102
RTVSPropertyOp33
 70
     1
102
RTVSPropertyOp34
 70
     1
102
RTVSPropertyOp35
 70
     1
102
RTVSPropertyOp36
 70
     1
102
RTVSPropertyOp37
 70
     0
102
RTVSPropertyOp38
 70
     0
102
RTVSPropertyOp39
 70
     0
102
RTVSPropertyOp40
 70
     0
102
RTVSPropertyOp41
 70
     0
102
RTVSPropertyOp42
 70
     0
102
RTVSPropertyOp43
 70
     0
102
RTVSPropertyOp44
 70
     0
102
RTVSPropertyOp45
 70
     1
102
RTVSPropertyOp46
 70
     0
102
RTVSPropertyOp47
 70
     0
102
RTVSPropertyOp48
 70
     0
102
RTVSPropertyOp49
 70
     1
102
RTVSPropertyOp50
 70
     0
102
RTVSPropertyOp51
 70
     0
102
RTVSPropertyOp52
 70
     0
102
RTVSPropertyOp53
 70
     0
102
RTVSPropertyOp54
 70
     0
102
RTVSPropertyOp55
 70
     1
102
RTVSPropertyOp56
 70
     0
102
RTVSPropertyOp57
 70
     0
102
RTVSPropertyOp58
 70
     0
102
RTVSPropertyOp59
 70
     0
102
RTVSPropertyOp60
 70
     0
102
RTVSPropertyOp61
 70
     0
102
RTVSPropertyOp62
 70
     0
  0
XRECORD
  5
11CF
102
{ACAD_REACTORS
330
11CE
102
}
330
11CE
100
AcDbXrecord
280
     1
102
RTVSPost2010Prop28
280
     0
102
RTVSPost2010PropOp28
 70
     1
102
RTVSPost2010Prop29
280
     1
102
RTVSPost2010PropOp29
 70
     1
102
RTVSPost2010Prop30
280
     1
102
RTVSPost2010PropOp30
 70
     1
102
RTVSPost2010Prop31
280
     0
102
RTVSPost2010PropOp31
 70
     1
102
RTVSPost2010Prop32
280
     0
102
RTVSPost2010PropOp32
 70
     1
102
RTVSPost2010Prop33
280
     0
102
RTVSPost2010PropOp33
 70
     1
102
RTVSPost2010Prop34
280
     0
102
RTVSPost2010PropOp34
 70
     1
102
RTVSPost2010Prop35
280
     0
102
RTVSPost2010PropOp35
 70
     1
102
RTVSPost2010Prop36
280
     0
102
RTVSPost2010PropOp36
 70
     1
102
RTVSPost2010Prop37
 90
       50
102
RTVSPost2010PropOp37
 70
     1
102
RTVSPost2010Prop38
140
0.0
102
RTVSPost2010PropOp38
 70
     1
102
RTVSPost2010Prop39
140
1.0
102
RTVSPost2010PropOp39
 70
     1
102
RTVSPost2010Prop40
 90
        0
102
RTVSPost2010PropOp40
 70
     1
102
RTVSPost2010Prop41ColorIndex
 90
       18
102
RTVSPost2010Prop41ColorRGB
 90
        0
102
RTVSPost2010PropOp41
 70
     1
102
RTVSPost2010Prop42
 90
       50
102
RTVSPost2010PropOp42
 70
     1
102
RTVSPost2010Prop43
 90
        3
102
RTVSPost2010PropOp43
 70
     1
102
RTVSPost2010Prop44ColorIndex
 90
        5
102
RTVSPost2010Prop44ColorRGB
 90
      255
102
RTVSPost2010PropOp44
 70
     1
102
RTVSPost2010Prop45
280
     0
102
RTVSPost2010PropOp45
 70
     1
102
RTVSPost2010Prop46
 90
       50
102
RTVSPost2010PropOp46
 70
     1
102
RTVSPost2010Prop47
 90
       50
102
RTVSPost2010PropOp47
 70
     1
102
RTVSPost2010Prop48
 90
       50
102
RTVSPost2010PropOp48
 70
     1
102
RTVSPost2010Prop49
280
     0
102
RTVSPost2010PropOp49
 70
     1
102
RTVSPost2010Prop50
 90
       50
102
RTVSPost2010PropOp50
 70
     1
102
RTVSPost2010Prop51ColorIndex
 90
      256
102
RTVSPost2010Prop51ColorRGB
 90
-16777216
102
RTVSPost2010PropOp51
 70
     0
102
RTVSPost2010Prop52
140
1.0
102
RTVSPost2010PropOp52
 70
     0
102
RTVSPost2010Prop53
 90
        2
102
RTVSPost2010PropOp53
 70
     1
102
RTVSPost2010Prop54
  1
strokes_ogs.tif
102
RTVSPost2010PropOp54
 70
     1
102
RTVSPost2010Prop55
280
     0
102
RTVSPost2010PropOp55
 70
     1
102
RTVSPost2010Prop56
140
1.0
102
RTVSPost2010PropOp56
 70
     1
102
RTVSPost2010Prop57
140
1.0
102
RTVSPost2010PropOp57
 70
     1
102
RTVSPropertyOp0
 70
     1
102
RTVSPropertyOp1
 70
     1
102
RTVSPropertyOp2
 70
     1
102
RTVSPropertyOp3
 70
     1
102
RTVSPropertyOp4
 70
     1
102
RTVSPropertyOp5
 70
     1
102
RTVSPropertyOp6
 70
     1
102
RTVSPropertyOp7
 70
     1
102
RTVSPropertyOp8
 70
     1
102
RTVSPropertyOp9
 70
     1
102
RTVSPropertyOp10
 70
     1
102
RTVSPropertyOp11
 70
     1
102
RTVSPropertyOp12
 70
     1
102
RTVSPropertyOp13
 70
     1
102
RTVSPropertyOp14
 70
     1
102
RTVSPropertyOp15
 70
     1
102
RTVSPropertyOp16
 70
     1
102
RTVSPropertyOp17
 70
     1
102
RTVSPropertyOp18
 70
     1
102
RTVSPropertyOp19
 70
     1
102
RTVSPropertyOp20
 70
     1
102
RTVSPropertyOp21
 70
     1
102
RTVSPropertyOp22
 70
     1
102
RTVSPropertyOp23
 70
     1
102
RTVSPropertyOp24
 70
     1
102
RTVSPropertyOp25
 70
     1
102
RTVSPropertyOp26
 70
     1
102
RTVSPropertyOp27
 70
     1
102
RTVSPropertyOp28
 70
     1
102
RTVSPropertyOp29
 70
     1
102
RTVSPropertyOp30
 70
     1
102
RTVSPropertyOp31
 70
     1
102
RTVSPropertyOp32
 70
     1
102
RTVSPropertyOp33
 70
     1
102
RTVSPropertyOp34
 70
     1
102
RTVSPropertyOp35
 70
     1
102
RTVSPropertyOp36
 70
     1
102
RTVSPropertyOp37
 70
     1
102
RTVSPropertyOp38
 70
     1
102
RTVSPropertyOp39
 70
     1
102
RTVSPropertyOp40
 70
     1
102
RTVSPropertyOp41
 70
     1
102
RTVSPropertyOp42
 70
     1
102
RTVSPropertyOp43
 70
     1
102
RTVSPropertyOp44
 70
     1
102
RTVSPropertyOp45
 70
     1
102
RTVSPropertyOp46
 70
     1
102
RTVSPropertyOp47
 70
     1
102
RTVSPropertyOp48
 70
     1
102
RTVSPropertyOp49
 70
     1
102
RTVSPropertyOp50
 70
     1
102
RTVSPropertyOp51
 70
     0
102
RTVSPropertyOp52
 70
     0
102
RTVSPropertyOp53
 70
     1
102
RTVSPropertyOp54
 70
     1
102
RTVSPropertyOp55
 70
     1
102
RTVSPropertyOp56
 70
     1
102
RTVSPropertyOp57
 70
     1
102
RTVSPropertyOp58
 70
     1
102
RTVSPropertyOp59
 70
     1
102
RTVSPropertyOp60
 70
     1
102
RTVSPropertyOp61
 70
     1
102
RTVSPropertyOp62
 70
     1
  0
XRECORD
  5
11B3
102
{ACAD_REACTORS
330
11B2
102
}
330
11B2
100
AcDbXrecord
280
     1
102
RTVSPost2010Prop28
280
     0
102
RTVSPost2010PropOp28
 70
     1
102
RTVSPost2010Prop29
280
     1
102
RTVSPost2010PropOp29
 70
     1
102
RTVSPost2010Prop30
280
     1
102
RTVSPost2010PropOp30
 70
     1
102
RTVSPost2010Prop31
280
     0
102
RTVSPost2010PropOp31
 70
     1
102
RTVSPost2010Prop32
280
     0
102
RTVSPost2010PropOp32
 70
     1
102
RTVSPost2010Prop33
280
     0
102
RTVSPost2010PropOp33
 70
     1
102
RTVSPost2010Prop34
280
     0
102
RTVSPost2010PropOp34
 70
     1
102
RTVSPost2010Prop35
280
     0
102
RTVSPost2010PropOp35
 70
     1
102
RTVSPost2010Prop36
280
     0
102
RTVSPost2010PropOp36
 70
     1
102
RTVSPost2010Prop37
 90
       50
102
RTVSPost2010PropOp37
 70
     1
102
RTVSPost2010Prop38
140
0.0
102
RTVSPost2010PropOp38
 70
     1
102
RTVSPost2010Prop39
140
1.0
102
RTVSPost2010PropOp39
 70
     1
102
RTVSPost2010Prop40
 90
        0
102
RTVSPost2010PropOp40
 70
     1
102
RTVSPost2010Prop41ColorIndex
 90
       18
102
RTVSPost2010Prop41ColorRGB
 90
        0
102
RTVSPost2010PropOp41
 70
     1
102
RTVSPost2010Prop42
 90
       50
102
RTVSPost2010PropOp42
 70
     1
102
RTVSPost2010Prop43
 90
        3
102
RTVSPost2010PropOp43
 70
     1
102
RTVSPost2010Prop44ColorIndex
 90
        5
102
RTVSPost2010Prop44ColorRGB
 90
      255
102
RTVSPost2010PropOp44
 70
     1
102
RTVSPost2010Prop45
280
     0
102
RTVSPost2010PropOp45
 70
     1
102
RTVSPost2010Prop46
 90
       50
102
RTVSPost2010PropOp46
 70
     1
102
RTVSPost2010Prop47
 90
       50
102
RTVSPost2010PropOp47
 70
     1
102
RTVSPost2010Prop48
 90
       50
102
RTVSPost2010PropOp48
 70
     1
102
RTVSPost2010Prop49
280
     0
102
RTVSPost2010PropOp49
 70
     1
102
RTVSPost2010Prop50
 90
       50
102
RTVSPost2010PropOp50
 70
     1
102
RTVSPost2010Prop51ColorIndex
 90
      256
102
RTVSPost2010Prop51ColorRGB
 90
-16777216
102
RTVSPost2010PropOp51
 70
     0
102
RTVSPost2010Prop52
140
1.0
102
RTVSPost2010PropOp52
 70
     0
102
RTVSPost2010Prop53
 90
        2
102
RTVSPost2010PropOp53
 70
     1
102
RTVSPost2010Prop54
  1
strokes_ogs.tif
102
RTVSPost2010PropOp54
 70
     1
102
RTVSPost2010Prop55
280
     0
102
RTVSPost2010PropOp55
 70
     1
102
RTVSPost2010Prop56
140
1.0
102
RTVSPost2010PropOp56
 70
     1
102
RTVSPost2010Prop57
140
1.0
102
RTVSPost2010PropOp57
 70
     1
102
RTVSPropertyOp0
 70
     1
102
RTVSPropertyOp1
 70
     1
102
RTVSPropertyOp2
 70
     1
102
RTVSPropertyOp3
 70
     1
102
RTVSPropertyOp4
 70
     1
102
RTVSPropertyOp5
 70
     1
102
RTVSPropertyOp6
 70
     1
102
RTVSPropertyOp7
 70
     1
102
RTVSPropertyOp8
 70
     1
102
RTVSPropertyOp9
 70
     1
102
RTVSPropertyOp10
 70
     1
102
RTVSPropertyOp11
 70
     1
102
RTVSPropertyOp12
 70
     1
102
RTVSPropertyOp13
 70
     1
102
RTVSPropertyOp14
 70
     1
102
RTVSPropertyOp15
 70
     1
102
RTVSPropertyOp16
 70
     1
102
RTVSPropertyOp17
 70
     1
102
RTVSPropertyOp18
 70
     1
102
RTVSPropertyOp19
 70
     1
102
RTVSPropertyOp20
 70
     1
102
RTVSPropertyOp21
 70
     1
102
RTVSPropertyOp22
 70
     1
102
RTVSPropertyOp23
 70
     1
102
RTVSPropertyOp24
 70
     1
102
RTVSPropertyOp25
 70
     1
102
RTVSPropertyOp26
 70
     1
102
RTVSPropertyOp27
 70
     1
102
RTVSPropertyOp28
 70
     1
102
RTVSPropertyOp29
 70
     1
102
RTVSPropertyOp30
 70
     1
102
RTVSPropertyOp31
 70
     1
102
RTVSPropertyOp32
 70
     1
102
RTVSPropertyOp33
 70
     1
102
RTVSPropertyOp34
 70
     1
102
RTVSPropertyOp35
 70
     1
102
RTVSPropertyOp36
 70
     1
102
RTVSPropertyOp37
 70
     1
102
RTVSPropertyOp38
 70
     1
102
RTVSPropertyOp39
 70
     1
102
RTVSPropertyOp40
 70
     1
102
RTVSPropertyOp41
 70
     1
102
RTVSPropertyOp42
 70
     1
102
RTVSPropertyOp43
 70
     1
102
RTVSPropertyOp44
 70
     1
102
RTVSPropertyOp45
 70
     1
102
RTVSPropertyOp46
 70
     1
102
RTVSPropertyOp47
 70
     1
102
RTVSPropertyOp48
 70
     1
102
RTVSPropertyOp49
 70
     1
102
RTVSPropertyOp50
 70
     1
102
RTVSPropertyOp51
 70
     0
102
RTVSPropertyOp52
 70
     0
102
RTVSPropertyOp53
 70
     1
102
RTVSPropertyOp54
 70
     1
102
RTVSPropertyOp55
 70
     1
102
RTVSPropertyOp56
 70
     1
102
RTVSPropertyOp57
 70
     1
102
RTVSPropertyOp58
 70
     1
102
RTVSPropertyOp59
 70
     1
102
RTVSPropertyOp60
 70
     1
102
RTVSPropertyOp61
 70
     1
102
RTVSPropertyOp62
 70
     1
  0
XRECORD
  5
11B5
102
{ACAD_REACTORS
330
11B4
102
}
330
11B4
100
AcDbXrecord
280
     1
102
RTVSPost2010Prop28
280
     0
102
RTVSPost2010PropOp28
 70
     1
102
RTVSPost2010Prop29
280
     1
102
RTVSPost2010PropOp29
 70
     1
102
RTVSPost2010Prop30
280
     1
102
RTVSPost2010PropOp30
 70
     1
102
RTVSPost2010Prop31
280
     0
102
RTVSPost2010PropOp31
 70
     1
102
RTVSPost2010Prop32
280
     0
102
RTVSPost2010PropOp32
 70
     1
102
RTVSPost2010Prop33
280
     0
102
RTVSPost2010PropOp33
 70
     1
102
RTVSPost2010Prop34
280
     0
102
RTVSPost2010PropOp34
 70
     1
102
RTVSPost2010Prop35
280
     0
102
RTVSPost2010PropOp35
 70
     1
102
RTVSPost2010Prop36
280
     0
102
RTVSPost2010PropOp36
 70
     1
102
RTVSPost2010Prop37
 90
       50
102
RTVSPost2010PropOp37
 70
     1
102
RTVSPost2010Prop38
140
0.0
102
RTVSPost2010PropOp38
 70
     1
102
RTVSPost2010Prop39
140
1.0
102
RTVSPost2010PropOp39
 70
     1
102
RTVSPost2010Prop40
 90
        0
102
RTVSPost2010PropOp40
 70
     1
102
RTVSPost2010Prop41ColorIndex
 90
       18
102
RTVSPost2010Prop41ColorRGB
 90
        0
102
RTVSPost2010PropOp41
 70
     1
102
RTVSPost2010Prop42
 90
       50
102
RTVSPost2010PropOp42
 70
     1
102
RTVSPost2010Prop43
 90
        3
102
RTVSPost2010PropOp43
 70
     1
102
RTVSPost2010Prop44ColorIndex
 90
        5
102
RTVSPost2010Prop44ColorRGB
 90
      255
102
RTVSPost2010PropOp44
 70
     1
102
RTVSPost2010Prop45
280
     0
102
RTVSPost2010PropOp45
 70
     1
102
RTVSPost2010Prop46
 90
       50
102
RTVSPost2010PropOp46
 70
     1
102
RTVSPost2010Prop47
 90
       50
102
RTVSPost2010PropOp47
 70
     1
102
RTVSPost2010Prop48
 90
       50
102
RTVSPost2010PropOp48
 70
     1
102
RTVSPost2010Prop49
280
     0
102
RTVSPost2010PropOp49
 70
     1
102
RTVSPost2010Prop50
 90
       50
102
RTVSPost2010PropOp50
 70
     1
102
RTVSPost2010Prop51ColorIndex
 90
      256
102
RTVSPost2010Prop51ColorRGB
 90
-16777216
102
RTVSPost2010PropOp51
 70
     0
102
RTVSPost2010Prop52
140
1.0
102
RTVSPost2010PropOp52
 70
     0
102
RTVSPost2010Prop53
 90
        2
102
RTVSPost2010PropOp53
 70
     1
102
RTVSPost2010Prop54
  1
strokes_ogs.tif
102
RTVSPost2010PropOp54
 70
     1
102
RTVSPost2010Prop55
280
     0
102
RTVSPost2010PropOp55
 70
     1
102
RTVSPost2010Prop56
140
1.0
102
RTVSPost2010PropOp56
 70
     1
102
RTVSPost2010Prop57
140
1.0
102
RTVSPost2010PropOp57
 70
     1
102
RTVSPropertyOp0
 70
     1
102
RTVSPropertyOp1
 70
     1
102
RTVSPropertyOp2
 70
     1
102
RTVSPropertyOp3
 70
     1
102
RTVSPropertyOp4
 70
     1
102
RTVSPropertyOp5
 70
     1
102
RTVSPropertyOp6
 70
     1
102
RTVSPropertyOp7
 70
     1
102
RTVSPropertyOp8
 70
     1
102
RTVSPropertyOp9
 70
     1
102
RTVSPropertyOp10
 70
     1
102
RTVSPropertyOp11
 70
     1
102
RTVSPropertyOp12
 70
     1
102
RTVSPropertyOp13
 70
     1
102
RTVSPropertyOp14
 70
     1
102
RTVSPropertyOp15
 70
     1
102
RTVSPropertyOp16
 70
     1
102
RTVSPropertyOp17
 70
     1
102
RTVSPropertyOp18
 70
     1
102
RTVSPropertyOp19
 70
     1
102
RTVSPropertyOp20
 70
     1
102
RTVSPropertyOp21
 70
     1
102
RTVSPropertyOp22
 70
     1
102
RTVSPropertyOp23
 70
     1
102
RTVSPropertyOp24
 70
     1
102
RTVSPropertyOp25
 70
     1
102
RTVSPropertyOp26
 70
     1
102
RTVSPropertyOp27
 70
     1
102
RTVSPropertyOp28
 70
     1
102
RTVSPropertyOp29
 70
     1
102
RTVSPropertyOp30
 70
     1
102
RTVSPropertyOp31
 70
     1
102
RTVSPropertyOp32
 70
     1
102
RTVSPropertyOp33
 70
     1
102
RTVSPropertyOp34
 70
     1
102
RTVSPropertyOp35
 70
     1
102
RTVSPropertyOp36
 70
     1
102
RTVSPropertyOp37
 70
     1
102
RTVSPropertyOp38
 70
     1
102
RTVSPropertyOp39
 70
     1
102
RTVSPropertyOp40
 70
     1
102
RTVSPropertyOp41
 70
     1
102
RTVSPropertyOp42
 70
     1
102
RTVSPropertyOp43
 70
     1
102
RTVSPropertyOp44
 70
     1
102
RTVSPropertyOp45
 70
     1
102
RTVSPropertyOp46
 70
     1
102
RTVSPropertyOp47
 70
     1
102
RTVSPropertyOp48
 70
     1
102
RTVSPropertyOp49
 70
     1
102
RTVSPropertyOp50
 70
     1
102
RTVSPropertyOp51
 70
     0
102
RTVSPropertyOp52
 70
     0
102
RTVSPropertyOp53
 70
     1
102
RTVSPropertyOp54
 70
     1
102
RTVSPropertyOp55
 70
     1
102
RTVSPropertyOp56
 70
     1
102
RTVSPropertyOp57
 70
     1
102
RTVSPropertyOp58
 70
     1
102
RTVSPropertyOp59
 70
     1
102
RTVSPropertyOp60
 70
     1
102
RTVSPropertyOp61
 70
     1
102
RTVSPropertyOp62
 70
     1
  0
XRECORD
  5
11B7
102
{ACAD_REACTORS
330
11B6
102
}
330
11B6
100
AcDbXrecord
280
     1
102
RTVSPost2010Prop28
280
     0
102
RTVSPost2010PropOp28
 70
     1
102
RTVSPost2010Prop29
280
     1
102
RTVSPost2010PropOp29
 70
     1
102
RTVSPost2010Prop30
280
     1
102
RTVSPost2010PropOp30
 70
     1
102
RTVSPost2010Prop31
280
     0
102
RTVSPost2010PropOp31
 70
     1
102
RTVSPost2010Prop32
280
     0
102
RTVSPost2010PropOp32
 70
     1
102
RTVSPost2010Prop33
280
     0
102
RTVSPost2010PropOp33
 70
     1
102
RTVSPost2010Prop34
280
     0
102
RTVSPost2010PropOp34
 70
     1
102
RTVSPost2010Prop35
280
     0
102
RTVSPost2010PropOp35
 70
     1
102
RTVSPost2010Prop36
280
     0
102
RTVSPost2010PropOp36
 70
     1
102
RTVSPost2010Prop37
 90
       50
102
RTVSPost2010PropOp37
 70
     1
102
RTVSPost2010Prop38
140
0.0
102
RTVSPost2010PropOp38
 70
     1
102
RTVSPost2010Prop39
140
1.0
102
RTVSPost2010PropOp39
 70
     1
102
RTVSPost2010Prop40
 90
        0
102
RTVSPost2010PropOp40
 70
     1
102
RTVSPost2010Prop41ColorIndex
 90
       18
102
RTVSPost2010Prop41ColorRGB
 90
        0
102
RTVSPost2010PropOp41
 70
     1
102
RTVSPost2010Prop42
 90
       50
102
RTVSPost2010PropOp42
 70
     1
102
RTVSPost2010Prop43
 90
        3
102
RTVSPost2010PropOp43
 70
     1
102
RTVSPost2010Prop44ColorIndex
 90
        5
102
RTVSPost2010Prop44ColorRGB
 90
      255
102
RTVSPost2010PropOp44
 70
     1
102
RTVSPost2010Prop45
280
     0
102
RTVSPost2010PropOp45
 70
     1
102
RTVSPost2010Prop46
 90
       50
102
RTVSPost2010PropOp46
 70
     1
102
RTVSPost2010Prop47
 90
       50
102
RTVSPost2010PropOp47
 70
     1
102
RTVSPost2010Prop48
 90
       50
102
RTVSPost2010PropOp48
 70
     1
102
RTVSPost2010Prop49
280
     0
102
RTVSPost2010PropOp49
 70
     1
102
RTVSPost2010Prop50
 90
       50
102
RTVSPost2010PropOp50
 70
     1
102
RTVSPost2010Prop51ColorIndex
 90
      256
102
RTVSPost2010Prop51ColorRGB
 90
-16777216
102
RTVSPost2010PropOp51
 70
     0
102
RTVSPost2010Prop52
140
1.0
102
RTVSPost2010PropOp52
 70
     0
102
RTVSPost2010Prop53
 90
        2
102
RTVSPost2010PropOp53
 70
     1
102
RTVSPost2010Prop54
  1
strokes_ogs.tif
102
RTVSPost2010PropOp54
 70
     1
102
RTVSPost2010Prop55
280
     0
102
RTVSPost2010PropOp55
 70
     1
102
RTVSPost2010Prop56
140
1.0
102
RTVSPost2010PropOp56
 70
     1
102
RTVSPost2010Prop57
140
1.0
102
RTVSPost2010PropOp57
 70
     1
102
RTVSPropertyOp0
 70
     1
102
RTVSPropertyOp1
 70
     1
102
RTVSPropertyOp2
 70
     1
102
RTVSPropertyOp3
 70
     1
102
RTVSPropertyOp4
 70
     1
102
RTVSPropertyOp5
 70
     1
102
RTVSPropertyOp6
 70
     1
102
RTVSPropertyOp7
 70
     1
102
RTVSPropertyOp8
 70
     1
102
RTVSPropertyOp9
 70
     1
102
RTVSPropertyOp10
 70
     1
102
RTVSPropertyOp11
 70
     1
102
RTVSPropertyOp12
 70
     1
102
RTVSPropertyOp13
 70
     1
102
RTVSPropertyOp14
 70
     1
102
RTVSPropertyOp15
 70
     1
102
RTVSPropertyOp16
 70
     1
102
RTVSPropertyOp17
 70
     1
102
RTVSPropertyOp18
 70
     1
102
RTVSPropertyOp19
 70
     1
102
RTVSPropertyOp20
 70
     1
102
RTVSPropertyOp21
 70
     1
102
RTVSPropertyOp22
 70
     1
102
RTVSPropertyOp23
 70
     1
102
RTVSPropertyOp24
 70
     1
102
RTVSPropertyOp25
 70
     1
102
RTVSPropertyOp26
 70
     1
102
RTVSPropertyOp27
 70
     1
102
RTVSPropertyOp28
 70
     1
102
RTVSPropertyOp29
 70
     1
102
RTVSPropertyOp30
 70
     1
102
RTVSPropertyOp31
 70
     1
102
RTVSPropertyOp32
 70
     1
102
RTVSPropertyOp33
 70
     1
102
RTVSPropertyOp34
 70
     1
102
RTVSPropertyOp35
 70
     1
102
RTVSPropertyOp36
 70
     1
102
RTVSPropertyOp37
 70
     1
102
RTVSPropertyOp38
 70
     1
102
RTVSPropertyOp39
 70
     1
102
RTVSPropertyOp40
 70
     1
102
RTVSPropertyOp41
 70
     1
102
RTVSPropertyOp42
 70
     1
102
RTVSPropertyOp43
 70
     1
102
RTVSPropertyOp44
 70
     1
102
RTVSPropertyOp45
 70
     1
102
RTVSPropertyOp46
 70
     1
102
RTVSPropertyOp47
 70
     1
102
RTVSPropertyOp48
 70
     1
102
RTVSPropertyOp49
 70
     1
102
RTVSPropertyOp50
 70
     1
102
RTVSPropertyOp51
 70
     0
102
RTVSPropertyOp52
 70
     0
102
RTVSPropertyOp53
 70
     1
102
RTVSPropertyOp54
 70
     1
102
RTVSPropertyOp55
 70
     1
102
RTVSPropertyOp56
 70
     1
102
RTVSPropertyOp57
 70
     1
102
RTVSPropertyOp58
 70
     1
102
RTVSPropertyOp59
 70
     1
102
RTVSPropertyOp60
 70
     1
102
RTVSPropertyOp61
 70
     1
102
RTVSPropertyOp62
 70
     1
  0
XRECORD
  5
11B9
102
{ACAD_REACTORS
330
11B8
102
}
330
11B8
100
AcDbXrecord
280
     1
102
RTVSPost2010Prop28
280
     0
102
RTVSPost2010PropOp28
 70
     1
102
RTVSPost2010Prop29
280
     1
102
RTVSPost2010PropOp29
 70
     1
102
RTVSPost2010Prop30
280
     1
102
RTVSPost2010PropOp30
 70
     1
102
RTVSPost2010Prop31
280
     0
102
RTVSPost2010PropOp31
 70
     1
102
RTVSPost2010Prop32
280
     0
102
RTVSPost2010PropOp32
 70
     1
102
RTVSPost2010Prop33
280
     0
102
RTVSPost2010PropOp33
 70
     1
102
RTVSPost2010Prop34
280
     0
102
RTVSPost2010PropOp34
 70
     1
102
RTVSPost2010Prop35
280
     0
102
RTVSPost2010PropOp35
 70
     1
102
RTVSPost2010Prop36
280
     0
102
RTVSPost2010PropOp36
 70
     1
102
RTVSPost2010Prop37
 90
       50
102
RTVSPost2010PropOp37
 70
     1
102
RTVSPost2010Prop38
140
0.0
102
RTVSPost2010PropOp38
 70
     1
102
RTVSPost2010Prop39
140
1.0
102
RTVSPost2010PropOp39
 70
     1
102
RTVSPost2010Prop40
 90
        0
102
RTVSPost2010PropOp40
 70
     1
102
RTVSPost2010Prop41ColorIndex
 90
       18
102
RTVSPost2010Prop41ColorRGB
 90
        0
102
RTVSPost2010PropOp41
 70
     1
102
RTVSPost2010Prop42
 90
       50
102
RTVSPost2010PropOp42
 70
     1
102
RTVSPost2010Prop43
 90
        3
102
RTVSPost2010PropOp43
 70
     1
102
RTVSPost2010Prop44ColorIndex
 90
        5
102
RTVSPost2010Prop44ColorRGB
 90
      255
102
RTVSPost2010PropOp44
 70
     1
102
RTVSPost2010Prop45
280
     0
102
RTVSPost2010PropOp45
 70
     1
102
RTVSPost2010Prop46
 90
       50
102
RTVSPost2010PropOp46
 70
     1
102
RTVSPost2010Prop47
 90
       50
102
RTVSPost2010PropOp47
 70
     1
102
RTVSPost2010Prop48
 90
       50
102
RTVSPost2010PropOp48
 70
     1
102
RTVSPost2010Prop49
280
     0
102
RTVSPost2010PropOp49
 70
     1
102
RTVSPost2010Prop50
 90
       50
102
RTVSPost2010PropOp50
 70
     1
102
RTVSPost2010Prop51ColorIndex
 90
      256
102
RTVSPost2010Prop51ColorRGB
 90
-16777216
102
RTVSPost2010PropOp51
 70
     0
102
RTVSPost2010Prop52
140
1.0
102
RTVSPost2010PropOp52
 70
     0
102
RTVSPost2010Prop53
 90
        2
102
RTVSPost2010PropOp53
 70
     1
102
RTVSPost2010Prop54
  1
strokes_ogs.tif
102
RTVSPost2010PropOp54
 70
     1
102
RTVSPost2010Prop55
280
     0
102
RTVSPost2010PropOp55
 70
     1
102
RTVSPost2010Prop56
140
1.0
102
RTVSPost2010PropOp56
 70
     1
102
RTVSPost2010Prop57
140
1.0
102
RTVSPost2010PropOp57
 70
     1
102
RTVSPropertyOp0
 70
     1
102
RTVSPropertyOp1
 70
     1
102
RTVSPropertyOp2
 70
     1
102
RTVSPropertyOp3
 70
     1
102
RTVSPropertyOp4
 70
     1
102
RTVSPropertyOp5
 70
     1
102
RTVSPropertyOp6
 70
     1
102
RTVSPropertyOp7
 70
     1
102
RTVSPropertyOp8
 70
     1
102
RTVSPropertyOp9
 70
     1
102
RTVSPropertyOp10
 70
     1
102
RTVSPropertyOp11
 70
     1
102
RTVSPropertyOp12
 70
     1
102
RTVSPropertyOp13
 70
     1
102
RTVSPropertyOp14
 70
     1
102
RTVSPropertyOp15
 70
     1
102
RTVSPropertyOp16
 70
     1
102
RTVSPropertyOp17
 70
     1
102
RTVSPropertyOp18
 70
     1
102
RTVSPropertyOp19
 70
     1
102
RTVSPropertyOp20
 70
     1
102
RTVSPropertyOp21
 70
     1
102
RTVSPropertyOp22
 70
     1
102
RTVSPropertyOp23
 70
     1
102
RTVSPropertyOp24
 70
     1
102
RTVSPropertyOp25
 70
     1
102
RTVSPropertyOp26
 70
     1
102
RTVSPropertyOp27
 70
     1
102
RTVSPropertyOp28
 70
     1
102
RTVSPropertyOp29
 70
     1
102
RTVSPropertyOp30
 70
     1
102
RTVSPropertyOp31
 70
     1
102
RTVSPropertyOp32
 70
     1
102
RTVSPropertyOp33
 70
     1
102
RTVSPropertyOp34
 70
     1
102
RTVSPropertyOp35
 70
     1
102
RTVSPropertyOp36
 70
     1
102
RTVSPropertyOp37
 70
     1
102
RTVSPropertyOp38
 70
     1
102
RTVSPropertyOp39
 70
     1
102
RTVSPropertyOp40
 70
     1
102
RTVSPropertyOp41
 70
     1
102
RTVSPropertyOp42
 70
     1
102
RTVSPropertyOp43
 70
     1
102
RTVSPropertyOp44
 70
     1
102
RTVSPropertyOp45
 70
     1
102
RTVSPropertyOp46
 70
     1
102
RTVSPropertyOp47
 70
     1
102
RTVSPropertyOp48
 70
     1
102
RTVSPropertyOp49
 70
     1
102
RTVSPropertyOp50
 70
     1
102
RTVSPropertyOp51
 70
     0
102
RTVSPropertyOp52
 70
     0
102
RTVSPropertyOp53
 70
     1
102
RTVSPropertyOp54
 70
     1
102
RTVSPropertyOp55
 70
     1
102
RTVSPropertyOp56
 70
     1
102
RTVSPropertyOp57
 70
     1
102
RTVSPropertyOp58
 70
     1
102
RTVSPropertyOp59
 70
     1
102
RTVSPropertyOp60
 70
     1
102
RTVSPropertyOp61
 70
     1
102
RTVSPropertyOp62
 70
     1
  0
XRECORD
  5
11C1
102
{ACAD_REACTORS
330
11C0
102
}
330
11C0
100
AcDbXrecord
280
     1
102
RTVSPost2010Prop28
280
     0
102
RTVSPost2010PropOp28
 70
     1
102
RTVSPost2010Prop29
280
     1
102
RTVSPost2010PropOp29
 70
     1
102
RTVSPost2010Prop30
280
     1
102
RTVSPost2010PropOp30
 70
     1
102
RTVSPost2010Prop31
280
     0
102
RTVSPost2010PropOp31
 70
     1
102
RTVSPost2010Prop32
280
     0
102
RTVSPost2010PropOp32
 70
     1
102
RTVSPost2010Prop33
280
     0
102
RTVSPost2010PropOp33
 70
     1
102
RTVSPost2010Prop34
280
     0
102
RTVSPost2010PropOp34
 70
     1
102
RTVSPost2010Prop35
280
     0
102
RTVSPost2010PropOp35
 70
     1
102
RTVSPost2010Prop36
280
     0
102
RTVSPost2010PropOp36
 70
     1
102
RTVSPost2010Prop37
 90
       50
102
RTVSPost2010PropOp37
 70
     1
102
RTVSPost2010Prop38
140
0.0
102
RTVSPost2010PropOp38
 70
     1
102
RTVSPost2010Prop39
140
1.0
102
RTVSPost2010PropOp39
 70
     1
102
RTVSPost2010Prop40
 90
        0
102
RTVSPost2010PropOp40
 70
     1
102
RTVSPost2010Prop41ColorIndex
 90
       18
102
RTVSPost2010Prop41ColorRGB
 90
        0
102
RTVSPost2010PropOp41
 70
     1
102
RTVSPost2010Prop42
 90
       50
102
RTVSPost2010PropOp42
 70
     1
102
RTVSPost2010Prop43
 90
        3
102
RTVSPost2010PropOp43
 70
     1
102
RTVSPost2010Prop44ColorIndex
 90
        5
102
RTVSPost2010Prop44ColorRGB
 90
      255
102
RTVSPost2010PropOp44
 70
     1
102
RTVSPost2010Prop45
280
     0
102
RTVSPost2010PropOp45
 70
     1
102
RTVSPost2010Prop46
 90
       50
102
RTVSPost2010PropOp46
 70
     1
102
RTVSPost2010Prop47
 90
       50
102
RTVSPost2010PropOp47
 70
     1
102
RTVSPost2010Prop48
 90
       50
102
RTVSPost2010PropOp48
 70
     1
102
RTVSPost2010Prop49
280
     0
102
RTVSPost2010PropOp49
 70
     1
102
RTVSPost2010Prop50
 90
       50
102
RTVSPost2010PropOp50
 70
     1
102
RTVSPost2010Prop51ColorIndex
 90
      256
102
RTVSPost2010Prop51ColorRGB
 90
-16777216
102
RTVSPost2010PropOp51
 70
     0
102
RTVSPost2010Prop52
140
1.0
102
RTVSPost2010PropOp52
 70
     0
102
RTVSPost2010Prop53
 90
        2
102
RTVSPost2010PropOp53
 70
     1
102
RTVSPost2010Prop54
  1
strokes_ogs.tif
102
RTVSPost2010PropOp54
 70
     1
102
RTVSPost2010Prop55
280
     0
102
RTVSPost2010PropOp55
 70
     1
102
RTVSPost2010Prop56
140
1.0
102
RTVSPost2010PropOp56
 70
     1
102
RTVSPost2010Prop57
140
1.0
102
RTVSPost2010PropOp57
 70
     1
102
RTVSPropertyOp0
 70
     1
102
RTVSPropertyOp1
 70
     1
102
RTVSPropertyOp2
 70
     1
102
RTVSPropertyOp3
 70
     1
102
RTVSPropertyOp4
 70
     1
102
RTVSPropertyOp5
 70
     1
102
RTVSPropertyOp6
 70
     1
102
RTVSPropertyOp7
 70
     1
102
RTVSPropertyOp8
 70
     1
102
RTVSPropertyOp9
 70
     1
102
RTVSPropertyOp10
 70
     1
102
RTVSPropertyOp11
 70
     1
102
RTVSPropertyOp12
 70
     1
102
RTVSPropertyOp13
 70
     1
102
RTVSPropertyOp14
 70
     1
102
RTVSPropertyOp15
 70
     1
102
RTVSPropertyOp16
 70
     1
102
RTVSPropertyOp17
 70
     1
102
RTVSPropertyOp18
 70
     1
102
RTVSPropertyOp19
 70
     1
102
RTVSPropertyOp20
 70
     1
102
RTVSPropertyOp21
 70
     1
102
RTVSPropertyOp22
 70
     1
102
RTVSPropertyOp23
 70
     1
102
RTVSPropertyOp24
 70
     1
102
RTVSPropertyOp25
 70
     1
102
RTVSPropertyOp26
 70
     1
102
RTVSPropertyOp27
 70
     1
102
RTVSPropertyOp28
 70
     1
102
RTVSPropertyOp29
 70
     1
102
RTVSPropertyOp30
 70
     1
102
RTVSPropertyOp31
 70
     1
102
RTVSPropertyOp32
 70
     1
102
RTVSPropertyOp33
 70
     1
102
RTVSPropertyOp34
 70
     1
102
RTVSPropertyOp35
 70
     1
102
RTVSPropertyOp36
 70
     1
102
RTVSPropertyOp37
 70
     1
102
RTVSPropertyOp38
 70
     1
102
RTVSPropertyOp39
 70
     1
102
RTVSPropertyOp40
 70
     1
102
RTVSPropertyOp41
 70
     1
102
RTVSPropertyOp42
 70
     1
102
RTVSPropertyOp43
 70
     1
102
RTVSPropertyOp44
 70
     1
102
RTVSPropertyOp45
 70
     1
102
RTVSPropertyOp46
 70
     1
102
RTVSPropertyOp47
 70
     1
102
RTVSPropertyOp48
 70
     1
102
RTVSPropertyOp49
 70
     1
102
RTVSPropertyOp50
 70
     1
102
RTVSPropertyOp51
 70
     0
102
RTVSPropertyOp52
 70
     0
102
RTVSPropertyOp53
 70
     1
102
RTVSPropertyOp54
 70
     1
102
RTVSPropertyOp55
 70
     1
102
RTVSPropertyOp56
 70
     1
102
RTVSPropertyOp57
 70
     1
102
RTVSPropertyOp58
 70
     1
102
RTVSPropertyOp59
 70
     1
102
RTVSPropertyOp60
 70
     1
102
RTVSPropertyOp61
 70
     1
102
RTVSPropertyOp62
 70
     1
  0
XRECORD
  5
11DD
102
{ACAD_REACTORS
330
11DC
102
}
330
11DC
100
AcDbXrecord
280
     1
102
RTVSPost2010Prop28
280
     0
102
RTVSPost2010PropOp28
 70
     1
102
RTVSPost2010Prop29
280
     1
102
RTVSPost2010PropOp29
 70
     1
102
RTVSPost2010Prop30
280
     1
102
RTVSPost2010PropOp30
 70
     1
102
RTVSPost2010Prop31
280
     0
102
RTVSPost2010PropOp31
 70
     1
102
RTVSPost2010Prop32
280
     0
102
RTVSPost2010PropOp32
 70
     1
102
RTVSPost2010Prop33
280
     0
102
RTVSPost2010PropOp33
 70
     1
102
RTVSPost2010Prop34
280
     0
102
RTVSPost2010PropOp34
 70
     1
102
RTVSPost2010Prop35
280
     0
102
RTVSPost2010PropOp35
 70
     1
102
RTVSPost2010Prop36
280
     0
102
RTVSPost2010PropOp36
 70
     1
102
RTVSPost2010Prop37
 90
       50
102
RTVSPost2010PropOp37
 70
     0
102
RTVSPost2010Prop38
140
0.0
102
RTVSPost2010PropOp38
 70
     0
102
RTVSPost2010Prop39
140
1.0
102
RTVSPost2010PropOp39
 70
     0
102
RTVSPost2010Prop40
 90
        0
102
RTVSPost2010PropOp40
 70
     0
102
RTVSPost2010Prop41ColorIndex
 90
       18
102
RTVSPost2010Prop41ColorRGB
 90
        0
102
RTVSPost2010PropOp41
 70
     0
102
RTVSPost2010Prop42
 90
       50
102
RTVSPost2010PropOp42
 70
     0
102
RTVSPost2010Prop43
 90
        3
102
RTVSPost2010PropOp43
 70
     0
102
RTVSPost2010Prop44ColorIndex
 90
        5
102
RTVSPost2010Prop44ColorRGB
 90
      255
102
RTVSPost2010PropOp44
 70
     0
102
RTVSPost2010Prop45
280
     0
102
RTVSPost2010PropOp45
 70
     1
102
RTVSPost2010Prop46
 90
       50
102
RTVSPost2010PropOp46
 70
     0
102
RTVSPost2010Prop47
 90
       50
102
RTVSPost2010PropOp47
 70
     0
102
RTVSPost2010Prop48
 90
       50
102
RTVSPost2010PropOp48
 70
     0
102
RTVSPost2010Prop49
280
     0
102
RTVSPost2010PropOp49
 70
     1
102
RTVSPost2010Prop50
 90
       50
102
RTVSPost2010PropOp50
 70
     0
102
RTVSPost2010Prop51ColorIndex
 90
      256
102
RTVSPost2010Prop51ColorRGB
 90
-16777216
102
RTVSPost2010PropOp51
 70
     0
102
RTVSPost2010Prop52
140
1.0
102
RTVSPost2010PropOp52
 70
     0
102
RTVSPost2010Prop53
 90
        2
102
RTVSPost2010PropOp53
 70
     0
102
RTVSPost2010Prop54
  1
strokes_ogs.tif
102
RTVSPost2010PropOp54
 70
     0
102
RTVSPost2010Prop55
280
     0
102
RTVSPost2010PropOp55
 70
     1
102
RTVSPost2010Prop56
140
1.0
102
RTVSPost2010PropOp56
 70
     0
102
RTVSPost2010Prop57
140
1.0
102
RTVSPost2010PropOp57
 70
     0
102
RTVSPropertyOp0
 70
     0
102
RTVSPropertyOp1
 70
     0
102
RTVSPropertyOp2
 70
     0
102
RTVSPropertyOp3
 70
     0
102
RTVSPropertyOp4
 70
     0
102
RTVSPropertyOp5
 70
     0
102
RTVSPropertyOp6
 70
     0
102
RTVSPropertyOp7
 70
     0
102
RTVSPropertyOp8
 70
     0
102
RTVSPropertyOp9
 70
     0
102
RTVSPropertyOp10
 70
     0
102
RTVSPropertyOp11
 70
     0
102
RTVSPropertyOp12
 70
     0
102
RTVSPropertyOp13
 70
     0
102
RTVSPropertyOp14
 70
     2
102
RTVSPropertyOp15
 70
     0
102
RTVSPropertyOp16
 70
     0
102
RTVSPropertyOp17
 70
     0
102
RTVSPropertyOp18
 70
     0
102
RTVSPropertyOp19
 70
     0
102
RTVSPropertyOp20
 70
     0
102
RTVSPropertyOp21
 70
     0
102
RTVSPropertyOp22
 70
     0
102
RTVSPropertyOp23
 70
     0
102
RTVSPropertyOp24
 70
     0
102
RTVSPropertyOp25
 70
     0
102
RTVSPropertyOp26
 70
     0
102
RTVSPropertyOp27
 70
     0
102
RTVSPropertyOp28
 70
     1
102
RTVSPropertyOp29
 70
     1
102
RTVSPropertyOp30
 70
     1
102
RTVSPropertyOp31
 70
     1
102
RTVSPropertyOp32
 70
     1
102
RTVSPropertyOp33
 70
     1
102
RTVSPropertyOp34
 70
     1
102
RTVSPropertyOp35
 70
     1
102
RTVSPropertyOp36
 70
     1
102
RTVSPropertyOp37
 70
     0
102
RTVSPropertyOp38
 70
     0
102
RTVSPropertyOp39
 70
     0
102
RTVSPropertyOp40
 70
     0
102
RTVSPropertyOp41
 70
     0
102
RTVSPropertyOp42
 70
     0
102
RTVSPropertyOp43
 70
     0
102
RTVSPropertyOp44
 70
     0
102
RTVSPropertyOp45
 70
     1
102
RTVSPropertyOp46
 70
     0
102
RTVSPropertyOp47
 70
     0
102
RTVSPropertyOp48
 70
     0
102
RTVSPropertyOp49
 70
     1
102
RTVSPropertyOp50
 70
     0
102
RTVSPropertyOp51
 70
     0
102
RTVSPropertyOp52
 70
     0
102
RTVSPropertyOp53
 70
     0
102
RTVSPropertyOp54
 70
     0
102
RTVSPropertyOp55
 70
     1
102
RTVSPropertyOp56
 70
     0
102
RTVSPropertyOp57
 70
     0
102
RTVSPropertyOp58
 70
     0
102
RTVSPropertyOp59
 70
     0
102
RTVSPropertyOp60
 70
     0
102
RTVSPropertyOp61
 70
     0
102
RTVSPropertyOp62
 70
     0
  0
XRECORD
  5
11CD
102
{ACAD_REACTORS
330
11CC
102
}
330
11CC
100
AcDbXrecord
280
     1
102
RTVSPost2010Prop28
280
     0
102
RTVSPost2010PropOp28
 70
     1
102
RTVSPost2010Prop29
280
     1
102
RTVSPost2010PropOp29
 70
     1
102
RTVSPost2010Prop30
280
     1
102
RTVSPost2010PropOp30
 70
     1
102
RTVSPost2010Prop31
280
     0
102
RTVSPost2010PropOp31
 70
     1
102
RTVSPost2010Prop32
280
     0
102
RTVSPost2010PropOp32
 70
     1
102
RTVSPost2010Prop33
280
     0
102
RTVSPost2010PropOp33
 70
     1
102
RTVSPost2010Prop34
280
     0
102
RTVSPost2010PropOp34
 70
     1
102
RTVSPost2010Prop35
280
     0
102
RTVSPost2010PropOp35
 70
     1
102
RTVSPost2010Prop36
280
     0
102
RTVSPost2010PropOp36
 70
     1
102
RTVSPost2010Prop37
 90
       50
102
RTVSPost2010PropOp37
 70
     1
102
RTVSPost2010Prop38
140
0.0
102
RTVSPost2010PropOp38
 70
     1
102
RTVSPost2010Prop39
140
1.0
102
RTVSPost2010PropOp39
 70
     1
102
RTVSPost2010Prop40
 90
        0
102
RTVSPost2010PropOp40
 70
     1
102
RTVSPost2010Prop41ColorIndex
 90
       18
102
RTVSPost2010Prop41ColorRGB
 90
        0
102
RTVSPost2010PropOp41
 70
     1
102
RTVSPost2010Prop42
 90
       50
102
RTVSPost2010PropOp42
 70
     1
102
RTVSPost2010Prop43
 90
        3
102
RTVSPost2010PropOp43
 70
     1
102
RTVSPost2010Prop44ColorIndex
 90
        5
102
RTVSPost2010Prop44ColorRGB
 90
      255
102
RTVSPost2010PropOp44
 70
     1
102
RTVSPost2010Prop45
280
     0
102
RTVSPost2010PropOp45
 70
     1
102
RTVSPost2010Prop46
 90
       50
102
RTVSPost2010PropOp46
 70
     1
102
RTVSPost2010Prop47
 90
       50
102
RTVSPost2010PropOp47
 70
     1
102
RTVSPost2010Prop48
 90
       50
102
RTVSPost2010PropOp48
 70
     1
102
RTVSPost2010Prop49
280
     0
102
RTVSPost2010PropOp49
 70
     1
102
RTVSPost2010Prop50
 90
       50
102
RTVSPost2010PropOp50
 70
     1
102
RTVSPost2010Prop51ColorIndex
 90
      256
102
RTVSPost2010Prop51ColorRGB
 90
-16777216
102
RTVSPost2010PropOp51
 70
     0
102
RTVSPost2010Prop52
140
1.0
102
RTVSPost2010PropOp52
 70
     0
102
RTVSPost2010Prop53
 90
        2
102
RTVSPost2010PropOp53
 70
     1
102
RTVSPost2010Prop54
  1
strokes_ogs.tif
102
RTVSPost2010PropOp54
 70
     1
102
RTVSPost2010Prop55
280
     0
102
RTVSPost2010PropOp55
 70
     1
102
RTVSPost2010Prop56
140
1.0
102
RTVSPost2010PropOp56
 70
     1
102
RTVSPost2010Prop57
140
1.0
102
RTVSPost2010PropOp57
 70
     1
102
RTVSPropertyOp0
 70
     1
102
RTVSPropertyOp1
 70
     1
102
RTVSPropertyOp2
 70
     1
102
RTVSPropertyOp3
 70
     1
102
RTVSPropertyOp4
 70
     1
102
RTVSPropertyOp5
 70
     1
102
RTVSPropertyOp6
 70
     1
102
RTVSPropertyOp7
 70
     1
102
RTVSPropertyOp8
 70
     1
102
RTVSPropertyOp9
 70
     1
102
RTVSPropertyOp10
 70
     1
102
RTVSPropertyOp11
 70
     1
102
RTVSPropertyOp12
 70
     1
102
RTVSPropertyOp13
 70
     1
102
RTVSPropertyOp14
 70
     1
102
RTVSPropertyOp15
 70
     1
102
RTVSPropertyOp16
 70
     1
102
RTVSPropertyOp17
 70
     1
102
RTVSPropertyOp18
 70
     1
102
RTVSPropertyOp19
 70
     1
102
RTVSPropertyOp20
 70
     1
102
RTVSPropertyOp21
 70
     1
102
RTVSPropertyOp22
 70
     1
102
RTVSPropertyOp23
 70
     1
102
RTVSPropertyOp24
 70
     1
102
RTVSPropertyOp25
 70
     1
102
RTVSPropertyOp26
 70
     1
102
RTVSPropertyOp27
 70
     1
102
RTVSPropertyOp28
 70
     1
102
RTVSPropertyOp29
 70
     1
102
RTVSPropertyOp30
 70
     1
102
RTVSPropertyOp31
 70
     1
102
RTVSPropertyOp32
 70
     1
102
RTVSPropertyOp33
 70
     1
102
RTVSPropertyOp34
 70
     1
102
RTVSPropertyOp35
 70
     1
102
RTVSPropertyOp36
 70
     1
102
RTVSPropertyOp37
 70
     1
102
RTVSPropertyOp38
 70
     1
102
RTVSPropertyOp39
 70
     1
102
RTVSPropertyOp40
 70
     1
102
RTVSPropertyOp41
 70
     1
102
RTVSPropertyOp42
 70
     1
102
RTVSPropertyOp43
 70
     1
102
RTVSPropertyOp44
 70
     1
102
RTVSPropertyOp45
 70
     1
102
RTVSPropertyOp46
 70
     1
102
RTVSPropertyOp47
 70
     1
102
RTVSPropertyOp48
 70
     1
102
RTVSPropertyOp49
 70
     1
102
RTVSPropertyOp50
 70
     1
102
RTVSPropertyOp51
 70
     0
102
RTVSPropertyOp52
 70
     0
102
RTVSPropertyOp53
 70
     1
102
RTVSPropertyOp54
 70
     1
102
RTVSPropertyOp55
 70
     1
102
RTVSPropertyOp56
 70
     1
102
RTVSPropertyOp57
 70
     1
102
RTVSPropertyOp58
 70
     1
102
RTVSPropertyOp59
 70
     1
102
RTVSPropertyOp60
 70
     1
102
RTVSPropertyOp61
 70
     1
102
RTVSPropertyOp62
 70
     1
  0
XRECORD
  5
11DF
102
{ACAD_REACTORS
330
11DE
102
}
330
11DE
100
AcDbXrecord
280
     1
102
RTVSPost2010Prop28
280
     0
102
RTVSPost2010PropOp28
 70
     1
102
RTVSPost2010Prop29
280
     1
102
RTVSPost2010PropOp29
 70
     1
102
RTVSPost2010Prop30
280
     1
102
RTVSPost2010PropOp30
 70
     1
102
RTVSPost2010Prop31
280
     0
102
RTVSPost2010PropOp31
 70
     1
102
RTVSPost2010Prop32
280
     0
102
RTVSPost2010PropOp32
 70
     1
102
RTVSPost2010Prop33
280
     0
102
RTVSPost2010PropOp33
 70
     1
102
RTVSPost2010Prop34
280
     0
102
RTVSPost2010PropOp34
 70
     1
102
RTVSPost2010Prop35
280
     0
102
RTVSPost2010PropOp35
 70
     1
102
RTVSPost2010Prop36
280
     0
102
RTVSPost2010PropOp36
 70
     1
102
RTVSPost2010Prop37
 90
       50
102
RTVSPost2010PropOp37
 70
     0
102
RTVSPost2010Prop38
140
0.0
102
RTVSPost2010PropOp38
 70
     0
102
RTVSPost2010Prop39
140
1.0
102
RTVSPost2010PropOp39
 70
     0
102
RTVSPost2010Prop40
 90
        0
102
RTVSPost2010PropOp40
 70
     0
102
RTVSPost2010Prop41ColorIndex
 90
       18
102
RTVSPost2010Prop41ColorRGB
 90
        0
102
RTVSPost2010PropOp41
 70
     0
102
RTVSPost2010Prop42
 90
       50
102
RTVSPost2010PropOp42
 70
     0
102
RTVSPost2010Prop43
 90
        3
102
RTVSPost2010PropOp43
 70
     0
102
RTVSPost2010Prop44ColorIndex
 90
        5
102
RTVSPost2010Prop44ColorRGB
 90
      255
102
RTVSPost2010PropOp44
 70
     0
102
RTVSPost2010Prop45
280
     0
102
RTVSPost2010PropOp45
 70
     1
102
RTVSPost2010Prop46
 90
       50
102
RTVSPost2010PropOp46
 70
     0
102
RTVSPost2010Prop47
 90
       50
102
RTVSPost2010PropOp47
 70
     0
102
RTVSPost2010Prop48
 90
       50
102
RTVSPost2010PropOp48
 70
     0
102
RTVSPost2010Prop49
280
     0
102
RTVSPost2010PropOp49
 70
     1
102
RTVSPost2010Prop50
 90
       50
102
RTVSPost2010PropOp50
 70
     0
102
RTVSPost2010Prop51ColorIndex
 90
      256
102
RTVSPost2010Prop51ColorRGB
 90
-16777216
102
RTVSPost2010PropOp51
 70
     0
102
RTVSPost2010Prop52
140
1.0
102
RTVSPost2010PropOp52
 70
     0
102
RTVSPost2010Prop53
 90
        2
102
RTVSPost2010PropOp53
 70
     0
102
RTVSPost2010Prop54
  1
strokes_ogs.tif
102
RTVSPost2010PropOp54
 70
     0
102
RTVSPost2010Prop55
280
     0
102
RTVSPost2010PropOp55
 70
     1
102
RTVSPost2010Prop56
140
1.0
102
RTVSPost2010PropOp56
 70
     0
102
RTVSPost2010Prop57
140
1.0
102
RTVSPost2010PropOp57
 70
     0
102
RTVSPropertyOp0
 70
     0
102
RTVSPropertyOp1
 70
     0
102
RTVSPropertyOp2
 70
     0
102
RTVSPropertyOp3
 70
     0
102
RTVSPropertyOp4
 70
     0
102
RTVSPropertyOp5
 70
     0
102
RTVSPropertyOp6
 70
     0
102
RTVSPropertyOp7
 70
     0
102
RTVSPropertyOp8
 70
     0
102
RTVSPropertyOp9
 70
     0
102
RTVSPropertyOp10
 70
     0
102
RTVSPropertyOp11
 70
     0
102
RTVSPropertyOp12
 70
     0
102
RTVSPropertyOp13
 70
     0
102
RTVSPropertyOp14
 70
     2
102
RTVSPropertyOp15
 70
     0
102
RTVSPropertyOp16
 70
     0
102
RTVSPropertyOp17
 70
     0
102
RTVSPropertyOp18
 70
     0
102
RTVSPropertyOp19
 70
     0
102
RTVSPropertyOp20
 70
     0
102
RTVSPropertyOp21
 70
     0
102
RTVSPropertyOp22
 70
     0
102
RTVSPropertyOp23
 70
     0
102
RTVSPropertyOp24
 70
     0
102
RTVSPropertyOp25
 70
     0
102
RTVSPropertyOp26
 70
     0
102
RTVSPropertyOp27
 70
     0
102
RTVSPropertyOp28
 70
     1
102
RTVSPropertyOp29
 70
     1
102
RTVSPropertyOp30
 70
     1
102
RTVSPropertyOp31
 70
     1
102
RTVSPropertyOp32
 70
     1
102
RTVSPropertyOp33
 70
     1
102
RTVSPropertyOp34
 70
     1
102
RTVSPropertyOp35
 70
     1
102
RTVSPropertyOp36
 70
     1
102
RTVSPropertyOp37
 70
     0
102
RTVSPropertyOp38
 70
     0
102
RTVSPropertyOp39
 70
     0
102
RTVSPropertyOp40
 70
     0
102
RTVSPropertyOp41
 70
     0
102
RTVSPropertyOp42
 70
     0
102
RTVSPropertyOp43
 70
     0
102
RTVSPropertyOp44
 70
     0
102
RTVSPropertyOp45
 70
     1
102
RTVSPropertyOp46
 70
     0
102
RTVSPropertyOp47
 70
     0
102
RTVSPropertyOp48
 70
     0
102
RTVSPropertyOp49
 70
     1
102
RTVSPropertyOp50
 70
     0
102
RTVSPropertyOp51
 70
     0
102
RTVSPropertyOp52
 70
     0
102
RTVSPropertyOp53
 70
     0
102
RTVSPropertyOp54
 70
     0
102
RTVSPropertyOp55
 70
     1
102
RTVSPropertyOp56
 70
     0
102
RTVSPropertyOp57
 70
     0
102
RTVSPropertyOp58
 70
     0
102
RTVSPropertyOp59
 70
     0
102
RTVSPropertyOp60
 70
     0
102
RTVSPropertyOp61
 70
     0
102
RTVSPropertyOp62
 70
     0
  0
XRECORD
  5
11C5
102
{ACAD_REACTORS
330
11C4
102
}
330
11C4
100
AcDbXrecord
280
     1
102
RTVSPost2010Prop28
280
     0
102
RTVSPost2010PropOp28
 70
     1
102
RTVSPost2010Prop29
280
     1
102
RTVSPost2010PropOp29
 70
     1
102
RTVSPost2010Prop30
280
     1
102
RTVSPost2010PropOp30
 70
     1
102
RTVSPost2010Prop31
280
     0
102
RTVSPost2010PropOp31
 70
     1
102
RTVSPost2010Prop32
280
     0
102
RTVSPost2010PropOp32
 70
     1
102
RTVSPost2010Prop33
280
     0
102
RTVSPost2010PropOp33
 70
     1
102
RTVSPost2010Prop34
280
     0
102
RTVSPost2010PropOp34
 70
     1
102
RTVSPost2010Prop35
280
     0
102
RTVSPost2010PropOp35
 70
     1
102
RTVSPost2010Prop36
280
     0
102
RTVSPost2010PropOp36
 70
     1
102
RTVSPost2010Prop37
 90
       50
102
RTVSPost2010PropOp37
 70
     1
102
RTVSPost2010Prop38
140
0.0
102
RTVSPost2010PropOp38
 70
     1
102
RTVSPost2010Prop39
140
1.0
102
RTVSPost2010PropOp39
 70
     1
102
RTVSPost2010Prop40
 90
        0
102
RTVSPost2010PropOp40
 70
     1
102
RTVSPost2010Prop41ColorIndex
 90
       18
102
RTVSPost2010Prop41ColorRGB
 90
        0
102
RTVSPost2010PropOp41
 70
     1
102
RTVSPost2010Prop42
 90
       50
102
RTVSPost2010PropOp42
 70
     1
102
RTVSPost2010Prop43
 90
        3
102
RTVSPost2010PropOp43
 70
     1
102
RTVSPost2010Prop44ColorIndex
 90
        5
102
RTVSPost2010Prop44ColorRGB
 90
      255
102
RTVSPost2010PropOp44
 70
     1
102
RTVSPost2010Prop45
280
     0
102
RTVSPost2010PropOp45
 70
     1
102
RTVSPost2010Prop46
 90
       50
102
RTVSPost2010PropOp46
 70
     1
102
RTVSPost2010Prop47
 90
       50
102
RTVSPost2010PropOp47
 70
     1
102
RTVSPost2010Prop48
 90
       50
102
RTVSPost2010PropOp48
 70
     1
102
RTVSPost2010Prop49
280
     0
102
RTVSPost2010PropOp49
 70
     1
102
RTVSPost2010Prop50
 90
       50
102
RTVSPost2010PropOp50
 70
     1
102
RTVSPost2010Prop51ColorIndex
 90
      256
102
RTVSPost2010Prop51ColorRGB
 90
-16777216
102
RTVSPost2010PropOp51
 70
     0
102
RTVSPost2010Prop52
140
1.0
102
RTVSPost2010PropOp52
 70
     0
102
RTVSPost2010Prop53
 90
        2
102
RTVSPost2010PropOp53
 70
     1
102
RTVSPost2010Prop54
  1
strokes_ogs.tif
102
RTVSPost2010PropOp54
 70
     1
102
RTVSPost2010Prop55
280
     0
102
RTVSPost2010PropOp55
 70
     1
102
RTVSPost2010Prop56
140
1.0
102
RTVSPost2010PropOp56
 70
     1
102
RTVSPost2010Prop57
140
1.0
102
RTVSPost2010PropOp57
 70
     1
102
RTVSPropertyOp0
 70
     1
102
RTVSPropertyOp1
 70
     1
102
RTVSPropertyOp2
 70
     1
102
RTVSPropertyOp3
 70
     1
102
RTVSPropertyOp4
 70
     1
102
RTVSPropertyOp5
 70
     1
102
RTVSPropertyOp6
 70
     1
102
RTVSPropertyOp7
 70
     1
102
RTVSPropertyOp8
 70
     1
102
RTVSPropertyOp9
 70
     1
102
RTVSPropertyOp10
 70
     1
102
RTVSPropertyOp11
 70
     1
102
RTVSPropertyOp12
 70
     1
102
RTVSPropertyOp13
 70
     1
102
RTVSPropertyOp14
 70
     1
102
RTVSPropertyOp15
 70
     1
102
RTVSPropertyOp16
 70
     1
102
RTVSPropertyOp17
 70
     1
102
RTVSPropertyOp18
 70
     1
102
RTVSPropertyOp19
 70
     1
102
RTVSPropertyOp20
 70
     1
102
RTVSPropertyOp21
 70
     1
102
RTVSPropertyOp22
 70
     1
102
RTVSPropertyOp23
 70
     1
102
RTVSPropertyOp24
 70
     1
102
RTVSPropertyOp25
 70
     1
102
RTVSPropertyOp26
 70
     1
102
RTVSPropertyOp27
 70
     1
102
RTVSPropertyOp28
 70
     1
102
RTVSPropertyOp29
 70
     1
102
RTVSPropertyOp30
 70
     1
102
RTVSPropertyOp31
 70
     1
102
RTVSPropertyOp32
 70
     1
102
RTVSPropertyOp33
 70
     1
102
RTVSPropertyOp34
 70
     1
102
RTVSPropertyOp35
 70
     1
102
RTVSPropertyOp36
 70
     1
102
RTVSPropertyOp37
 70
     1
102
RTVSPropertyOp38
 70
     1
102
RTVSPropertyOp39
 70
     1
102
RTVSPropertyOp40
 70
     1
102
RTVSPropertyOp41
 70
     1
102
RTVSPropertyOp42
 70
     1
102
RTVSPropertyOp43
 70
     1
102
RTVSPropertyOp44
 70
     1
102
RTVSPropertyOp45
 70
     1
102
RTVSPropertyOp46
 70
     1
102
RTVSPropertyOp47
 70
     1
102
RTVSPropertyOp48
 70
     1
102
RTVSPropertyOp49
 70
     1
102
RTVSPropertyOp50
 70
     1
102
RTVSPropertyOp51
 70
     0
102
RTVSPropertyOp52
 70
     0
102
RTVSPropertyOp53
 70
     1
102
RTVSPropertyOp54
 70
     1
102
RTVSPropertyOp55
 70
     1
102
RTVSPropertyOp56
 70
     1
102
RTVSPropertyOp57
 70
     1
102
RTVSPropertyOp58
 70
     1
102
RTVSPropertyOp59
 70
     1
102
RTVSPropertyOp60
 70
     1
102
RTVSPropertyOp61
 70
     1
102
RTVSPropertyOp62
 70
     1
  0
XRECORD
  5
11DB
102
{ACAD_REACTORS
330
11DA
102
}
330
11DA
100
AcDbXrecord
280
     1
102
RTVSPost2010Prop28
280
     0
102
RTVSPost2010PropOp28
 70
     1
102
RTVSPost2010Prop29
280
     1
102
RTVSPost2010PropOp29
 70
     1
102
RTVSPost2010Prop30
280
     1
102
RTVSPost2010PropOp30
 70
     1
102
RTVSPost2010Prop31
280
     0
102
RTVSPost2010PropOp31
 70
     1
102
RTVSPost2010Prop32
280
     0
102
RTVSPost2010PropOp32
 70
     1
102
RTVSPost2010Prop33
280
     0
102
RTVSPost2010PropOp33
 70
     1
102
RTVSPost2010Prop34
280
     0
102
RTVSPost2010PropOp34
 70
     1
102
RTVSPost2010Prop35
280
     0
102
RTVSPost2010PropOp35
 70
     1
102
RTVSPost2010Prop36
280
     0
102
RTVSPost2010PropOp36
 70
     1
102
RTVSPost2010Prop37
 90
       50
102
RTVSPost2010PropOp37
 70
     1
102
RTVSPost2010Prop38
140
0.0
102
RTVSPost2010PropOp38
 70
     1
102
RTVSPost2010Prop39
140
1.0
102
RTVSPost2010PropOp39
 70
     1
102
RTVSPost2010Prop40
 90
        0
102
RTVSPost2010PropOp40
 70
     1
102
RTVSPost2010Prop41ColorIndex
 90
       18
102
RTVSPost2010Prop41ColorRGB
 90
        0
102
RTVSPost2010PropOp41
 70
     1
102
RTVSPost2010Prop42
 90
       50
102
RTVSPost2010PropOp42
 70
     1
102
RTVSPost2010Prop43
 90
        3
102
RTVSPost2010PropOp43
 70
     1
102
RTVSPost2010Prop44ColorIndex
 90
        5
102
RTVSPost2010Prop44ColorRGB
 90
      255
102
RTVSPost2010PropOp44
 70
     1
102
RTVSPost2010Prop45
280
     0
102
RTVSPost2010PropOp45
 70
     1
102
RTVSPost2010Prop46
 90
       50
102
RTVSPost2010PropOp46
 70
     1
102
RTVSPost2010Prop47
 90
       50
102
RTVSPost2010PropOp47
 70
     1
102
RTVSPost2010Prop48
 90
       50
102
RTVSPost2010PropOp48
 70
     1
102
RTVSPost2010Prop49
280
     0
102
RTVSPost2010PropOp49
 70
     1
102
RTVSPost2010Prop50
 90
       50
102
RTVSPost2010PropOp50
 70
     1
102
RTVSPost2010Prop51ColorIndex
 90
      256
102
RTVSPost2010Prop51ColorRGB
 90
-16777216
102
RTVSPost2010PropOp51
 70
     0
102
RTVSPost2010Prop52
140
1.0
102
RTVSPost2010PropOp52
 70
     0
102
RTVSPost2010Prop53
 90
        2
102
RTVSPost2010PropOp53
 70
     1
102
RTVSPost2010Prop54
  1
strokes_ogs.tif
102
RTVSPost2010PropOp54
 70
     1
102
RTVSPost2010Prop55
280
     0
102
RTVSPost2010PropOp55
 70
     1
102
RTVSPost2010Prop56
140
1.0
102
RTVSPost2010PropOp56
 70
     1
102
RTVSPost2010Prop57
140
1.0
102
RTVSPost2010PropOp57
 70
     1
102
RTVSPropertyOp0
 70
     1
102
RTVSPropertyOp1
 70
     1
102
RTVSPropertyOp2
 70
     1
102
RTVSPropertyOp3
 70
     1
102
RTVSPropertyOp4
 70
     1
102
RTVSPropertyOp5
 70
     1
102
RTVSPropertyOp6
 70
     1
102
RTVSPropertyOp7
 70
     1
102
RTVSPropertyOp8
 70
     1
102
RTVSPropertyOp9
 70
     1
102
RTVSPropertyOp10
 70
     1
102
RTVSPropertyOp11
 70
     1
102
RTVSPropertyOp12
 70
     1
102
RTVSPropertyOp13
 70
     1
102
RTVSPropertyOp14
 70
     1
102
RTVSPropertyOp15
 70
     1
102
RTVSPropertyOp16
 70
     1
102
RTVSPropertyOp17
 70
     1
102
RTVSPropertyOp18
 70
     1
102
RTVSPropertyOp19
 70
     1
102
RTVSPropertyOp20
 70
     1
102
RTVSPropertyOp21
 70
     1
102
RTVSPropertyOp22
 70
     1
102
RTVSPropertyOp23
 70
     1
102
RTVSPropertyOp24
 70
     1
102
RTVSPropertyOp25
 70
     1
102
RTVSPropertyOp26
 70
     1
102
RTVSPropertyOp27
 70
     1
102
RTVSPropertyOp28
 70
     1
102
RTVSPropertyOp29
 70
     1
102
RTVSPropertyOp30
 70
     1
102
RTVSPropertyOp31
 70
     1
102
RTVSPropertyOp32
 70
     1
102
RTVSPropertyOp33
 70
     1
102
RTVSPropertyOp34
 70
     1
102
RTVSPropertyOp35
 70
     1
102
RTVSPropertyOp36
 70
     1
102
RTVSPropertyOp37
 70
     1
102
RTVSPropertyOp38
 70
     1
102
RTVSPropertyOp39
 70
     1
102
RTVSPropertyOp40
 70
     1
102
RTVSPropertyOp41
 70
     1
102
RTVSPropertyOp42
 70
     1
102
RTVSPropertyOp43
 70
     1
102
RTVSPropertyOp44
 70
     1
102
RTVSPropertyOp45
 70
     1
102
RTVSPropertyOp46
 70
     1
102
RTVSPropertyOp47
 70
     1
102
RTVSPropertyOp48
 70
     1
102
RTVSPropertyOp49
 70
     1
102
RTVSPropertyOp50
 70
     1
102
RTVSPropertyOp51
 70
     0
102
RTVSPropertyOp52
 70
     0
102
RTVSPropertyOp53
 70
     1
102
RTVSPropertyOp54
 70
     1
102
RTVSPropertyOp55
 70
     1
102
RTVSPropertyOp56
 70
     1
102
RTVSPropertyOp57
 70
     1
102
RTVSPropertyOp58
 70
     1
102
RTVSPropertyOp59
 70
     1
102
RTVSPropertyOp60
 70
     1
102
RTVSPropertyOp61
 70
     1
102
RTVSPropertyOp62
 70
     1
  0
XRECORD
  5
11D9
102
{ACAD_REACTORS
330
11D8
102
}
330
11D8
100
AcDbXrecord
280
     1
102
RTVSPost2010Prop28
280
     0
102
RTVSPost2010PropOp28
 70
     1
102
RTVSPost2010Prop29
280
     1
102
RTVSPost2010PropOp29
 70
     1
102
RTVSPost2010Prop30
280
     1
102
RTVSPost2010PropOp30
 70
     1
102
RTVSPost2010Prop31
280
     0
102
RTVSPost2010PropOp31
 70
     1
102
RTVSPost2010Prop32
280
     0
102
RTVSPost2010PropOp32
 70
     1
102
RTVSPost2010Prop33
280
     0
102
RTVSPost2010PropOp33
 70
     1
102
RTVSPost2010Prop34
280
     0
102
RTVSPost2010PropOp34
 70
     1
102
RTVSPost2010Prop35
280
     0
102
RTVSPost2010PropOp35
 70
     1
102
RTVSPost2010Prop36
280
     0
102
RTVSPost2010PropOp36
 70
     1
102
RTVSPost2010Prop37
 90
       50
102
RTVSPost2010PropOp37
 70
     1
102
RTVSPost2010Prop38
140
0.0
102
RTVSPost2010PropOp38
 70
     1
102
RTVSPost2010Prop39
140
1.0
102
RTVSPost2010PropOp39
 70
     1
102
RTVSPost2010Prop40
 90
        0
102
RTVSPost2010PropOp40
 70
     1
102
RTVSPost2010Prop41ColorIndex
 90
       18
102
RTVSPost2010Prop41ColorRGB
 90
        0
102
RTVSPost2010PropOp41
 70
     1
102
RTVSPost2010Prop42
 90
       50
102
RTVSPost2010PropOp42
 70
     1
102
RTVSPost2010Prop43
 90
        3
102
RTVSPost2010PropOp43
 70
     1
102
RTVSPost2010Prop44ColorIndex
 90
        5
102
RTVSPost2010Prop44ColorRGB
 90
      255
102
RTVSPost2010PropOp44
 70
     1
102
RTVSPost2010Prop45
280
     0
102
RTVSPost2010PropOp45
 70
     1
102
RTVSPost2010Prop46
 90
       50
102
RTVSPost2010PropOp46
 70
     1
102
RTVSPost2010Prop47
 90
       50
102
RTVSPost2010PropOp47
 70
     1
102
RTVSPost2010Prop48
 90
       50
102
RTVSPost2010PropOp48
 70
     1
102
RTVSPost2010Prop49
280
     0
102
RTVSPost2010PropOp49
 70
     1
102
RTVSPost2010Prop50
 90
       50
102
RTVSPost2010PropOp50
 70
     1
102
RTVSPost2010Prop51ColorIndex
 90
      256
102
RTVSPost2010Prop51ColorRGB
 90
-16777216
102
RTVSPost2010PropOp51
 70
     0
102
RTVSPost2010Prop52
140
1.0
102
RTVSPost2010PropOp52
 70
     0
102
RTVSPost2010Prop53
 90
        2
102
RTVSPost2010PropOp53
 70
     1
102
RTVSPost2010Prop54
  1
strokes_ogs.tif
102
RTVSPost2010PropOp54
 70
     1
102
RTVSPost2010Prop55
280
     0
102
RTVSPost2010PropOp55
 70
     1
102
RTVSPost2010Prop56
140
1.0
102
RTVSPost2010PropOp56
 70
     1
102
RTVSPost2010Prop57
140
1.0
102
RTVSPost2010PropOp57
 70
     1
102
RTVSPropertyOp0
 70
     1
102
RTVSPropertyOp1
 70
     1
102
RTVSPropertyOp2
 70
     1
102
RTVSPropertyOp3
 70
     1
102
RTVSPropertyOp4
 70
     1
102
RTVSPropertyOp5
 70
     1
102
RTVSPropertyOp6
 70
     1
102
RTVSPropertyOp7
 70
     1
102
RTVSPropertyOp8
 70
     1
102
RTVSPropertyOp9
 70
     1
102
RTVSPropertyOp10
 70
     1
102
RTVSPropertyOp11
 70
     1
102
RTVSPropertyOp12
 70
     1
102
RTVSPropertyOp13
 70
     1
102
RTVSPropertyOp14
 70
     1
102
RTVSPropertyOp15
 70
     1
102
RTVSPropertyOp16
 70
     1
102
RTVSPropertyOp17
 70
     1
102
RTVSPropertyOp18
 70
     1
102
RTVSPropertyOp19
 70
     1
102
RTVSPropertyOp20
 70
     1
102
RTVSPropertyOp21
 70
     1
102
RTVSPropertyOp22
 70
     1
102
RTVSPropertyOp23
 70
     1
102
RTVSPropertyOp24
 70
     1
102
RTVSPropertyOp25
 70
     1
102
RTVSPropertyOp26
 70
     1
102
RTVSPropertyOp27
 70
     1
102
RTVSPropertyOp28
 70
     1
102
RTVSPropertyOp29
 70
     1
102
RTVSPropertyOp30
 70
     1
102
RTVSPropertyOp31
 70
     1
102
RTVSPropertyOp32
 70
     1
102
RTVSPropertyOp33
 70
     1
102
RTVSPropertyOp34
 70
     1
102
RTVSPropertyOp35
 70
     1
102
RTVSPropertyOp36
 70
     1
102
RTVSPropertyOp37
 70
     1
102
RTVSPropertyOp38
 70
     1
102
RTVSPropertyOp39
 70
     1
102
RTVSPropertyOp40
 70
     1
102
RTVSPropertyOp41
 70
     1
102
RTVSPropertyOp42
 70
     1
102
RTVSPropertyOp43
 70
     1
102
RTVSPropertyOp44
 70
     1
102
RTVSPropertyOp45
 70
     1
102
RTVSPropertyOp46
 70
     1
102
RTVSPropertyOp47
 70
     1
102
RTVSPropertyOp48
 70
     1
102
RTVSPropertyOp49
 70
     1
102
RTVSPropertyOp50
 70
     1
102
RTVSPropertyOp51
 70
     0
102
RTVSPropertyOp52
 70
     0
102
RTVSPropertyOp53
 70
     1
102
RTVSPropertyOp54
 70
     1
102
RTVSPropertyOp55
 70
     1
102
RTVSPropertyOp56
 70
     1
102
RTVSPropertyOp57
 70
     1
102
RTVSPropertyOp58
 70
     1
102
RTVSPropertyOp59
 70
     1
102
RTVSPropertyOp60
 70
     1
102
RTVSPropertyOp61
 70
     1
102
RTVSPropertyOp62
 70
     1
  0
XRECORD
  5
11D3
102
{ACAD_REACTORS
330
11D2
102
}
330
11D2
100
AcDbXrecord
280
     1
102
RTVSPost2010Prop28
280
     0
102
RTVSPost2010PropOp28
 70
     1
102
RTVSPost2010Prop29
280
     1
102
RTVSPost2010PropOp29
 70
     1
102
RTVSPost2010Prop30
280
     1
102
RTVSPost2010PropOp30
 70
     1
102
RTVSPost2010Prop31
280
     0
102
RTVSPost2010PropOp31
 70
     1
102
RTVSPost2010Prop32
280
     0
102
RTVSPost2010PropOp32
 70
     1
102
RTVSPost2010Prop33
280
     0
102
RTVSPost2010PropOp33
 70
     1
102
RTVSPost2010Prop34
280
     0
102
RTVSPost2010PropOp34
 70
     1
102
RTVSPost2010Prop35
280
     0
102
RTVSPost2010PropOp35
 70
     1
102
RTVSPost2010Prop36
280
     0
102
RTVSPost2010PropOp36
 70
     1
102
RTVSPost2010Prop37
 90
       50
102
RTVSPost2010PropOp37
 70
     1
102
RTVSPost2010Prop38
140
0.0
102
RTVSPost2010PropOp38
 70
     1
102
RTVSPost2010Prop39
140
1.0
102
RTVSPost2010PropOp39
 70
     1
102
RTVSPost2010Prop40
 90
        0
102
RTVSPost2010PropOp40
 70
     1
102
RTVSPost2010Prop41ColorIndex
 90
       18
102
RTVSPost2010Prop41ColorRGB
 90
        0
102
RTVSPost2010PropOp41
 70
     1
102
RTVSPost2010Prop42
 90
       50
102
RTVSPost2010PropOp42
 70
     1
102
RTVSPost2010Prop43
 90
        3
102
RTVSPost2010PropOp43
 70
     1
102
RTVSPost2010Prop44ColorIndex
 90
        5
102
RTVSPost2010Prop44ColorRGB
 90
      255
102
RTVSPost2010PropOp44
 70
     1
102
RTVSPost2010Prop45
280
     0
102
RTVSPost2010PropOp45
 70
     1
102
RTVSPost2010Prop46
 90
       50
102
RTVSPost2010PropOp46
 70
     1
102
RTVSPost2010Prop47
 90
       50
102
RTVSPost2010PropOp47
 70
     1
102
RTVSPost2010Prop48
 90
       50
102
RTVSPost2010PropOp48
 70
     1
102
RTVSPost2010Prop49
280
     0
102
RTVSPost2010PropOp49
 70
     1
102
RTVSPost2010Prop50
 90
       50
102
RTVSPost2010PropOp50
 70
     1
102
RTVSPost2010Prop51ColorIndex
 90
      256
102
RTVSPost2010Prop51ColorRGB
 90
-16777216
102
RTVSPost2010PropOp51
 70
     0
102
RTVSPost2010Prop52
140
1.0
102
RTVSPost2010PropOp52
 70
     0
102
RTVSPost2010Prop53
 90
        2
102
RTVSPost2010PropOp53
 70
     1
102
RTVSPost2010Prop54
  1
strokes_ogs.tif
102
RTVSPost2010PropOp54
 70
     1
102
RTVSPost2010Prop55
280
     0
102
RTVSPost2010PropOp55
 70
     1
102
RTVSPost2010Prop56
140
1.0
102
RTVSPost2010PropOp56
 70
     1
102
RTVSPost2010Prop57
140
1.0
102
RTVSPost2010PropOp57
 70
     1
102
RTVSPropertyOp0
 70
     1
102
RTVSPropertyOp1
 70
     1
102
RTVSPropertyOp2
 70
     1
102
RTVSPropertyOp3
 70
     1
102
RTVSPropertyOp4
 70
     1
102
RTVSPropertyOp5
 70
     1
102
RTVSPropertyOp6
 70
     1
102
RTVSPropertyOp7
 70
     1
102
RTVSPropertyOp8
 70
     1
102
RTVSPropertyOp9
 70
     1
102
RTVSPropertyOp10
 70
     1
102
RTVSPropertyOp11
 70
     1
102
RTVSPropertyOp12
 70
     1
102
RTVSPropertyOp13
 70
     1
102
RTVSPropertyOp14
 70
     1
102
RTVSPropertyOp15
 70
     1
102
RTVSPropertyOp16
 70
     1
102
RTVSPropertyOp17
 70
     1
102
RTVSPropertyOp18
 70
     1
102
RTVSPropertyOp19
 70
     1
102
RTVSPropertyOp20
 70
     1
102
RTVSPropertyOp21
 70
     1
102
RTVSPropertyOp22
 70
     1
102
RTVSPropertyOp23
 70
     1
102
RTVSPropertyOp24
 70
     1
102
RTVSPropertyOp25
 70
     1
102
RTVSPropertyOp26
 70
     1
102
RTVSPropertyOp27
 70
     1
102
RTVSPropertyOp28
 70
     1
102
RTVSPropertyOp29
 70
     1
102
RTVSPropertyOp30
 70
     1
102
RTVSPropertyOp31
 70
     1
102
RTVSPropertyOp32
 70
     1
102
RTVSPropertyOp33
 70
     1
102
RTVSPropertyOp34
 70
     1
102
RTVSPropertyOp35
 70
     1
102
RTVSPropertyOp36
 70
     1
102
RTVSPropertyOp37
 70
     1
102
RTVSPropertyOp38
 70
     1
102
RTVSPropertyOp39
 70
     1
102
RTVSPropertyOp40
 70
     1
102
RTVSPropertyOp41
 70
     1
102
RTVSPropertyOp42
 70
     1
102
RTVSPropertyOp43
 70
     1
102
RTVSPropertyOp44
 70
     1
102
RTVSPropertyOp45
 70
     1
102
RTVSPropertyOp46
 70
     1
102
RTVSPropertyOp47
 70
     1
102
RTVSPropertyOp48
 70
     1
102
RTVSPropertyOp49
 70
     1
102
RTVSPropertyOp50
 70
     1
102
RTVSPropertyOp51
 70
     0
102
RTVSPropertyOp52
 70
     0
102
RTVSPropertyOp53
 70
     1
102
RTVSPropertyOp54
 70
     1
102
RTVSPropertyOp55
 70
     1
102
RTVSPropertyOp56
 70
     1
102
RTVSPropertyOp57
 70
     1
102
RTVSPropertyOp58
 70
     1
102
RTVSPropertyOp59
 70
     1
102
RTVSPropertyOp60
 70
     1
102
RTVSPropertyOp61
 70
     1
102
RTVSPropertyOp62
 70
     1
  0
XRECORD
  5
11D5
102
{ACAD_REACTORS
330
11D4
102
}
330
11D4
100
AcDbXrecord
280
     1
102
RTVSPost2010Prop28
280
     0
102
RTVSPost2010PropOp28
 70
     1
102
RTVSPost2010Prop29
280
     1
102
RTVSPost2010PropOp29
 70
     1
102
RTVSPost2010Prop30
280
     1
102
RTVSPost2010PropOp30
 70
     1
102
RTVSPost2010Prop31
280
     0
102
RTVSPost2010PropOp31
 70
     1
102
RTVSPost2010Prop32
280
     0
102
RTVSPost2010PropOp32
 70
     1
102
RTVSPost2010Prop33
280
     0
102
RTVSPost2010PropOp33
 70
     1
102
RTVSPost2010Prop34
280
     0
102
RTVSPost2010PropOp34
 70
     1
102
RTVSPost2010Prop35
280
     0
102
RTVSPost2010PropOp35
 70
     1
102
RTVSPost2010Prop36
280
     0
102
RTVSPost2010PropOp36
 70
     1
102
RTVSPost2010Prop37
 90
       50
102
RTVSPost2010PropOp37
 70
     1
102
RTVSPost2010Prop38
140
0.0
102
RTVSPost2010PropOp38
 70
     1
102
RTVSPost2010Prop39
140
1.0
102
RTVSPost2010PropOp39
 70
     1
102
RTVSPost2010Prop40
 90
        0
102
RTVSPost2010PropOp40
 70
     1
102
RTVSPost2010Prop41ColorIndex
 90
       18
102
RTVSPost2010Prop41ColorRGB
 90
        0
102
RTVSPost2010PropOp41
 70
     1
102
RTVSPost2010Prop42
 90
       50
102
RTVSPost2010PropOp42
 70
     1
102
RTVSPost2010Prop43
 90
        3
102
RTVSPost2010PropOp43
 70
     1
102
RTVSPost2010Prop44ColorIndex
 90
        5
102
RTVSPost2010Prop44ColorRGB
 90
      255
102
RTVSPost2010PropOp44
 70
     1
102
RTVSPost2010Prop45
280
     0
102
RTVSPost2010PropOp45
 70
     1
102
RTVSPost2010Prop46
 90
       50
102
RTVSPost2010PropOp46
 70
     1
102
RTVSPost2010Prop47
 90
       50
102
RTVSPost2010PropOp47
 70
     1
102
RTVSPost2010Prop48
 90
       50
102
RTVSPost2010PropOp48
 70
     1
102
RTVSPost2010Prop49
280
     0
102
RTVSPost2010PropOp49
 70
     1
102
RTVSPost2010Prop50
 90
       50
102
RTVSPost2010PropOp50
 70
     1
102
RTVSPost2010Prop51ColorIndex
 90
      256
102
RTVSPost2010Prop51ColorRGB
 90
-16777216
102
RTVSPost2010PropOp51
 70
     0
102
RTVSPost2010Prop52
140
1.0
102
RTVSPost2010PropOp52
 70
     0
102
RTVSPost2010Prop53
 90
        2
102
RTVSPost2010PropOp53
 70
     1
102
RTVSPost2010Prop54
  1
strokes_ogs.tif
102
RTVSPost2010PropOp54
 70
     1
102
RTVSPost2010Prop55
280
     0
102
RTVSPost2010PropOp55
 70
     1
102
RTVSPost2010Prop56
140
1.0
102
RTVSPost2010PropOp56
 70
     1
102
RTVSPost2010Prop57
140
1.0
102
RTVSPost2010PropOp57
 70
     1
102
RTVSPropertyOp0
 70
     1
102
RTVSPropertyOp1
 70
     1
102
RTVSPropertyOp2
 70
     1
102
RTVSPropertyOp3
 70
     1
102
RTVSPropertyOp4
 70
     1
102
RTVSPropertyOp5
 70
     1
102
RTVSPropertyOp6
 70
     1
102
RTVSPropertyOp7
 70
     1
102
RTVSPropertyOp8
 70
     1
102
RTVSPropertyOp9
 70
     1
102
RTVSPropertyOp10
 70
     1
102
RTVSPropertyOp11
 70
     1
102
RTVSPropertyOp12
 70
     1
102
RTVSPropertyOp13
 70
     1
102
RTVSPropertyOp14
 70
     1
102
RTVSPropertyOp15
 70
     1
102
RTVSPropertyOp16
 70
     1
102
RTVSPropertyOp17
 70
     1
102
RTVSPropertyOp18
 70
     1
102
RTVSPropertyOp19
 70
     1
102
RTVSPropertyOp20
 70
     1
102
RTVSPropertyOp21
 70
     1
102
RTVSPropertyOp22
 70
     1
102
RTVSPropertyOp23
 70
     1
102
RTVSPropertyOp24
 70
     1
102
RTVSPropertyOp25
 70
     1
102
RTVSPropertyOp26
 70
     1
102
RTVSPropertyOp27
 70
     1
102
RTVSPropertyOp28
 70
     1
102
RTVSPropertyOp29
 70
     1
102
RTVSPropertyOp30
 70
     1
102
RTVSPropertyOp31
 70
     1
102
RTVSPropertyOp32
 70
     1
102
RTVSPropertyOp33
 70
     1
102
RTVSPropertyOp34
 70
     1
102
RTVSPropertyOp35
 70
     1
102
RTVSPropertyOp36
 70
     1
102
RTVSPropertyOp37
 70
     1
102
RTVSPropertyOp38
 70
     1
102
RTVSPropertyOp39
 70
     1
102
RTVSPropertyOp40
 70
     1
102
RTVSPropertyOp41
 70
     1
102
RTVSPropertyOp42
 70
     1
102
RTVSPropertyOp43
 70
     1
102
RTVSPropertyOp44
 70
     1
102
RTVSPropertyOp45
 70
     1
102
RTVSPropertyOp46
 70
     1
102
RTVSPropertyOp47
 70
     1
102
RTVSPropertyOp48
 70
     1
102
RTVSPropertyOp49
 70
     1
102
RTVSPropertyOp50
 70
     1
102
RTVSPropertyOp51
 70
     0
102
RTVSPropertyOp52
 70
     0
102
RTVSPropertyOp53
 70
     1
102
RTVSPropertyOp54
 70
     1
102
RTVSPropertyOp55
 70
     1
102
RTVSPropertyOp56
 70
     1
102
RTVSPropertyOp57
 70
     1
102
RTVSPropertyOp58
 70
     1
102
RTVSPropertyOp59
 70
     1
102
RTVSPropertyOp60
 70
     1
102
RTVSPropertyOp61
 70
     1
102
RTVSPropertyOp62
 70
     1
  0
XRECORD
  5
11CB
102
{ACAD_REACTORS
330
11CA
102
}
330
11CA
100
AcDbXrecord
280
     1
102
RTVSPost2010Prop28
280
     0
102
RTVSPost2010PropOp28
 70
     1
102
RTVSPost2010Prop29
280
     1
102
RTVSPost2010PropOp29
 70
     1
102
RTVSPost2010Prop30
280
     1
102
RTVSPost2010PropOp30
 70
     1
102
RTVSPost2010Prop31
280
     0
102
RTVSPost2010PropOp31
 70
     1
102
RTVSPost2010Prop32
280
     0
102
RTVSPost2010PropOp32
 70
     1
102
RTVSPost2010Prop33
280
     0
102
RTVSPost2010PropOp33
 70
     1
102
RTVSPost2010Prop34
280
     0
102
RTVSPost2010PropOp34
 70
     1
102
RTVSPost2010Prop35
280
     0
102
RTVSPost2010PropOp35
 70
     1
102
RTVSPost2010Prop36
280
     0
102
RTVSPost2010PropOp36
 70
     1
102
RTVSPost2010Prop37
 90
       50
102
RTVSPost2010PropOp37
 70
     1
102
RTVSPost2010Prop38
140
0.0
102
RTVSPost2010PropOp38
 70
     1
102
RTVSPost2010Prop39
140
1.0
102
RTVSPost2010PropOp39
 70
     1
102
RTVSPost2010Prop40
 90
        0
102
RTVSPost2010PropOp40
 70
     1
102
RTVSPost2010Prop41ColorIndex
 90
       18
102
RTVSPost2010Prop41ColorRGB
 90
        0
102
RTVSPost2010PropOp41
 70
     1
102
RTVSPost2010Prop42
 90
       50
102
RTVSPost2010PropOp42
 70
     1
102
RTVSPost2010Prop43
 90
        3
102
RTVSPost2010PropOp43
 70
     1
102
RTVSPost2010Prop44ColorIndex
 90
        5
102
RTVSPost2010Prop44ColorRGB
 90
      255
102
RTVSPost2010PropOp44
 70
     1
102
RTVSPost2010Prop45
280
     0
102
RTVSPost2010PropOp45
 70
     1
102
RTVSPost2010Prop46
 90
       50
102
RTVSPost2010PropOp46
 70
     1
102
RTVSPost2010Prop47
 90
       50
102
RTVSPost2010PropOp47
 70
     1
102
RTVSPost2010Prop48
 90
       50
102
RTVSPost2010PropOp48
 70
     1
102
RTVSPost2010Prop49
280
     0
102
RTVSPost2010PropOp49
 70
     1
102
RTVSPost2010Prop50
 90
       50
102
RTVSPost2010PropOp50
 70
     1
102
RTVSPost2010Prop51ColorIndex
 90
      256
102
RTVSPost2010Prop51ColorRGB
 90
-16777216
102
RTVSPost2010PropOp51
 70
     0
102
RTVSPost2010Prop52
140
1.0
102
RTVSPost2010PropOp52
 70
     0
102
RTVSPost2010Prop53
 90
        2
102
RTVSPost2010PropOp53
 70
     1
102
RTVSPost2010Prop54
  1
strokes_ogs.tif
102
RTVSPost2010PropOp54
 70
     1
102
RTVSPost2010Prop55
280
     0
102
RTVSPost2010PropOp55
 70
     1
102
RTVSPost2010Prop56
140
1.0
102
RTVSPost2010PropOp56
 70
     1
102
RTVSPost2010Prop57
140
1.0
102
RTVSPost2010PropOp57
 70
     1
102
RTVSPropertyOp0
 70
     1
102
RTVSPropertyOp1
 70
     1
102
RTVSPropertyOp2
 70
     1
102
RTVSPropertyOp3
 70
     1
102
RTVSPropertyOp4
 70
     1
102
RTVSPropertyOp5
 70
     1
102
RTVSPropertyOp6
 70
     1
102
RTVSPropertyOp7
 70
     1
102
RTVSPropertyOp8
 70
     1
102
RTVSPropertyOp9
 70
     1
102
RTVSPropertyOp10
 70
     1
102
RTVSPropertyOp11
 70
     1
102
RTVSPropertyOp12
 70
     1
102
RTVSPropertyOp13
 70
     1
102
RTVSPropertyOp14
 70
     1
102
RTVSPropertyOp15
 70
     1
102
RTVSPropertyOp16
 70
     1
102
RTVSPropertyOp17
 70
     1
102
RTVSPropertyOp18
 70
     1
102
RTVSPropertyOp19
 70
     1
102
RTVSPropertyOp20
 70
     1
102
RTVSPropertyOp21
 70
     1
102
RTVSPropertyOp22
 70
     1
102
RTVSPropertyOp23
 70
     1
102
RTVSPropertyOp24
 70
     1
102
RTVSPropertyOp25
 70
     1
102
RTVSPropertyOp26
 70
     1
102
RTVSPropertyOp27
 70
     1
102
RTVSPropertyOp28
 70
     1
102
RTVSPropertyOp29
 70
     1
102
RTVSPropertyOp30
 70
     1
102
RTVSPropertyOp31
 70
     1
102
RTVSPropertyOp32
 70
     1
102
RTVSPropertyOp33
 70
     1
102
RTVSPropertyOp34
 70
     1
102
RTVSPropertyOp35
 70
     1
102
RTVSPropertyOp36
 70
     1
102
RTVSPropertyOp37
 70
     1
102
RTVSPropertyOp38
 70
     1
102
RTVSPropertyOp39
 70
     1
102
RTVSPropertyOp40
 70
     1
102
RTVSPropertyOp41
 70
     1
102
RTVSPropertyOp42
 70
     1
102
RTVSPropertyOp43
 70
     1
102
RTVSPropertyOp44
 70
     1
102
RTVSPropertyOp45
 70
     1
102
RTVSPropertyOp46
 70
     1
102
RTVSPropertyOp47
 70
     1
102
RTVSPropertyOp48
 70
     1
102
RTVSPropertyOp49
 70
     1
102
RTVSPropertyOp50
 70
     1
102
RTVSPropertyOp51
 70
     0
102
RTVSPropertyOp52
 70
     0
102
RTVSPropertyOp53
 70
     1
102
RTVSPropertyOp54
 70
     1
102
RTVSPropertyOp55
 70
     1
102
RTVSPropertyOp56
 70
     1
102
RTVSPropertyOp57
 70
     1
102
RTVSPropertyOp58
 70
     1
102
RTVSPropertyOp59
 70
     1
102
RTVSPropertyOp60
 70
     1
102
RTVSPropertyOp61
 70
     1
102
RTVSPropertyOp62
 70
     1
  0
XRECORD
  5
11BF
102
{ACAD_REACTORS
330
11BE
102
}
330
11BE
100
AcDbXrecord
280
     1
102
RTVSPost2010Prop28
280
     0
102
RTVSPost2010PropOp28
 70
     1
102
RTVSPost2010Prop29
280
     1
102
RTVSPost2010PropOp29
 70
     1
102
RTVSPost2010Prop30
280
     1
102
RTVSPost2010PropOp30
 70
     1
102
RTVSPost2010Prop31
280
     0
102
RTVSPost2010PropOp31
 70
     1
102
RTVSPost2010Prop32
280
     0
102
RTVSPost2010PropOp32
 70
     1
102
RTVSPost2010Prop33
280
     0
102
RTVSPost2010PropOp33
 70
     1
102
RTVSPost2010Prop34
280
     0
102
RTVSPost2010PropOp34
 70
     1
102
RTVSPost2010Prop35
280
     0
102
RTVSPost2010PropOp35
 70
     1
102
RTVSPost2010Prop36
280
     0
102
RTVSPost2010PropOp36
 70
     1
102
RTVSPost2010Prop37
 90
       50
102
RTVSPost2010PropOp37
 70
     1
102
RTVSPost2010Prop38
140
0.0
102
RTVSPost2010PropOp38
 70
     1
102
RTVSPost2010Prop39
140
1.0
102
RTVSPost2010PropOp39
 70
     1
102
RTVSPost2010Prop40
 90
        0
102
RTVSPost2010PropOp40
 70
     1
102
RTVSPost2010Prop41ColorIndex
 90
       18
102
RTVSPost2010Prop41ColorRGB
 90
        0
102
RTVSPost2010PropOp41
 70
     1
102
RTVSPost2010Prop42
 90
       50
102
RTVSPost2010PropOp42
 70
     1
102
RTVSPost2010Prop43
 90
        3
102
RTVSPost2010PropOp43
 70
     1
102
RTVSPost2010Prop44ColorIndex
 90
        5
102
RTVSPost2010Prop44ColorRGB
 90
      255
102
RTVSPost2010PropOp44
 70
     1
102
RTVSPost2010Prop45
280
     0
102
RTVSPost2010PropOp45
 70
     1
102
RTVSPost2010Prop46
 90
       50
102
RTVSPost2010PropOp46
 70
     1
102
RTVSPost2010Prop47
 90
       50
102
RTVSPost2010PropOp47
 70
     1
102
RTVSPost2010Prop48
 90
       50
102
RTVSPost2010PropOp48
 70
     1
102
RTVSPost2010Prop49
280
     0
102
RTVSPost2010PropOp49
 70
     1
102
RTVSPost2010Prop50
 90
       50
102
RTVSPost2010PropOp50
 70
     1
102
RTVSPost2010Prop51ColorIndex
 90
      256
102
RTVSPost2010Prop51ColorRGB
 90
-16777216
102
RTVSPost2010PropOp51
 70
     0
102
RTVSPost2010Prop52
140
1.0
102
RTVSPost2010PropOp52
 70
     0
102
RTVSPost2010Prop53
 90
        2
102
RTVSPost2010PropOp53
 70
     1
102
RTVSPost2010Prop54
  1
strokes_ogs.tif
102
RTVSPost2010PropOp54
 70
     1
102
RTVSPost2010Prop55
280
     0
102
RTVSPost2010PropOp55
 70
     1
102
RTVSPost2010Prop56
140
1.0
102
RTVSPost2010PropOp56
 70
     1
102
RTVSPost2010Prop57
140
1.0
102
RTVSPost2010PropOp57
 70
     1
102
RTVSPropertyOp0
 70
     1
102
RTVSPropertyOp1
 70
     1
102
RTVSPropertyOp2
 70
     1
102
RTVSPropertyOp3
 70
     1
102
RTVSPropertyOp4
 70
     1
102
RTVSPropertyOp5
 70
     1
102
RTVSPropertyOp6
 70
     1
102
RTVSPropertyOp7
 70
     1
102
RTVSPropertyOp8
 70
     1
102
RTVSPropertyOp9
 70
     1
102
RTVSPropertyOp10
 70
     1
102
RTVSPropertyOp11
 70
     1
102
RTVSPropertyOp12
 70
     1
102
RTVSPropertyOp13
 70
     1
102
RTVSPropertyOp14
 70
     1
102
RTVSPropertyOp15
 70
     1
102
RTVSPropertyOp16
 70
     1
102
RTVSPropertyOp17
 70
     1
102
RTVSPropertyOp18
 70
     1
102
RTVSPropertyOp19
 70
     1
102
RTVSPropertyOp20
 70
     1
102
RTVSPropertyOp21
 70
     1
102
RTVSPropertyOp22
 70
     1
102
RTVSPropertyOp23
 70
     1
102
RTVSPropertyOp24
 70
     1
102
RTVSPropertyOp25
 70
     1
102
RTVSPropertyOp26
 70
     1
102
RTVSPropertyOp27
 70
     1
102
RTVSPropertyOp28
 70
     1
102
RTVSPropertyOp29
 70
     1
102
RTVSPropertyOp30
 70
     1
102
RTVSPropertyOp31
 70
     1
102
RTVSPropertyOp32
 70
     1
102
RTVSPropertyOp33
 70
     1
102
RTVSPropertyOp34
 70
     1
102
RTVSPropertyOp35
 70
     1
102
RTVSPropertyOp36
 70
     1
102
RTVSPropertyOp37
 70
     1
102
RTVSPropertyOp38
 70
     1
102
RTVSPropertyOp39
 70
     1
102
RTVSPropertyOp40
 70
     1
102
RTVSPropertyOp41
 70
     1
102
RTVSPropertyOp42
 70
     1
102
RTVSPropertyOp43
 70
     1
102
RTVSPropertyOp44
 70
     1
102
RTVSPropertyOp45
 70
     1
102
RTVSPropertyOp46
 70
     1
102
RTVSPropertyOp47
 70
     1
102
RTVSPropertyOp48
 70
     1
102
RTVSPropertyOp49
 70
     1
102
RTVSPropertyOp50
 70
     1
102
RTVSPropertyOp51
 70
     0
102
RTVSPropertyOp52
 70
     0
102
RTVSPropertyOp53
 70
     1
102
RTVSPropertyOp54
 70
     1
102
RTVSPropertyOp55
 70
     1
102
RTVSPropertyOp56
 70
     1
102
RTVSPropertyOp57
 70
     1
102
RTVSPropertyOp58
 70
     1
102
RTVSPropertyOp59
 70
     1
102
RTVSPropertyOp60
 70
     1
102
RTVSPropertyOp61
 70
     1
102
RTVSPropertyOp62
 70
     1
  0
XRECORD
  5
11D7
102
{ACAD_REACTORS
330
11D6
102
}
330
11D6
100
AcDbXrecord
280
     1
102
RTVSPost2010Prop28
280
     0
102
RTVSPost2010PropOp28
 70
     1
102
RTVSPost2010Prop29
280
     1
102
RTVSPost2010PropOp29
 70
     1
102
RTVSPost2010Prop30
280
     1
102
RTVSPost2010PropOp30
 70
     1
102
RTVSPost2010Prop31
280
     0
102
RTVSPost2010PropOp31
 70
     1
102
RTVSPost2010Prop32
280
     0
102
RTVSPost2010PropOp32
 70
     1
102
RTVSPost2010Prop33
280
     0
102
RTVSPost2010PropOp33
 70
     1
102
RTVSPost2010Prop34
280
     0
102
RTVSPost2010PropOp34
 70
     1
102
RTVSPost2010Prop35
280
     0
102
RTVSPost2010PropOp35
 70
     1
102
RTVSPost2010Prop36
280
     0
102
RTVSPost2010PropOp36
 70
     1
102
RTVSPost2010Prop37
 90
       50
102
RTVSPost2010PropOp37
 70
     1
102
RTVSPost2010Prop38
140
0.0
102
RTVSPost2010PropOp38
 70
     1
102
RTVSPost2010Prop39
140
1.0
102
RTVSPost2010PropOp39
 70
     1
102
RTVSPost2010Prop40
 90
        0
102
RTVSPost2010PropOp40
 70
     1
102
RTVSPost2010Prop41ColorIndex
 90
       18
102
RTVSPost2010Prop41ColorRGB
 90
        0
102
RTVSPost2010PropOp41
 70
     1
102
RTVSPost2010Prop42
 90
       50
102
RTVSPost2010PropOp42
 70
     1
102
RTVSPost2010Prop43
 90
        3
102
RTVSPost2010PropOp43
 70
     1
102
RTVSPost2010Prop44ColorIndex
 90
        5
102
RTVSPost2010Prop44ColorRGB
 90
      255
102
RTVSPost2010PropOp44
 70
     1
102
RTVSPost2010Prop45
280
     0
102
RTVSPost2010PropOp45
 70
     1
102
RTVSPost2010Prop46
 90
       50
102
RTVSPost2010PropOp46
 70
     1
102
RTVSPost2010Prop47
 90
       50
102
RTVSPost2010PropOp47
 70
     1
102
RTVSPost2010Prop48
 90
       50
102
RTVSPost2010PropOp48
 70
     1
102
RTVSPost2010Prop49
280
     0
102
RTVSPost2010PropOp49
 70
     1
102
RTVSPost2010Prop50
 90
       50
102
RTVSPost2010PropOp50
 70
     1
102
RTVSPost2010Prop51ColorIndex
 90
      256
102
RTVSPost2010Prop51ColorRGB
 90
-16777216
102
RTVSPost2010PropOp51
 70
     0
102
RTVSPost2010Prop52
140
1.0
102
RTVSPost2010PropOp52
 70
     0
102
RTVSPost2010Prop53
 90
        2
102
RTVSPost2010PropOp53
 70
     1
102
RTVSPost2010Prop54
  1
strokes_ogs.tif
102
RTVSPost2010PropOp54
 70
     1
102
RTVSPost2010Prop55
280
     0
102
RTVSPost2010PropOp55
 70
     1
102
RTVSPost2010Prop56
140
1.0
102
RTVSPost2010PropOp56
 70
     1
102
RTVSPost2010Prop57
140
1.0
102
RTVSPost2010PropOp57
 70
     1
102
RTVSPropertyOp0
 70
     1
102
RTVSPropertyOp1
 70
     1
102
RTVSPropertyOp2
 70
     1
102
RTVSPropertyOp3
 70
     1
102
RTVSPropertyOp4
 70
     1
102
RTVSPropertyOp5
 70
     1
102
RTVSPropertyOp6
 70
     1
102
RTVSPropertyOp7
 70
     1
102
RTVSPropertyOp8
 70
     1
102
RTVSPropertyOp9
 70
     1
102
RTVSPropertyOp10
 70
     1
102
RTVSPropertyOp11
 70
     1
102
RTVSPropertyOp12
 70
     1
102
RTVSPropertyOp13
 70
     1
102
RTVSPropertyOp14
 70
     1
102
RTVSPropertyOp15
 70
     1
102
RTVSPropertyOp16
 70
     1
102
RTVSPropertyOp17
 70
     1
102
RTVSPropertyOp18
 70
     1
102
RTVSPropertyOp19
 70
     1
102
RTVSPropertyOp20
 70
     1
102
RTVSPropertyOp21
 70
     1
102
RTVSPropertyOp22
 70
     1
102
RTVSPropertyOp23
 70
     1
102
RTVSPropertyOp24
 70
     1
102
RTVSPropertyOp25
 70
     1
102
RTVSPropertyOp26
 70
     1
102
RTVSPropertyOp27
 70
     1
102
RTVSPropertyOp28
 70
     1
102
RTVSPropertyOp29
 70
     1
102
RTVSPropertyOp30
 70
     1
102
RTVSPropertyOp31
 70
     1
102
RTVSPropertyOp32
 70
     1
102
RTVSPropertyOp33
 70
     1
102
RTVSPropertyOp34
 70
     1
102
RTVSPropertyOp35
 70
     1
102
RTVSPropertyOp36
 70
     1
102
RTVSPropertyOp37
 70
     1
102
RTVSPropertyOp38
 70
     1
102
RTVSPropertyOp39
 70
     1
102
RTVSPropertyOp40
 70
     1
102
RTVSPropertyOp41
 70
     1
102
RTVSPropertyOp42
 70
     1
102
RTVSPropertyOp43
 70
     1
102
RTVSPropertyOp44
 70
     1
102
RTVSPropertyOp45
 70
     1
102
RTVSPropertyOp46
 70
     1
102
RTVSPropertyOp47
 70
     1
102
RTVSPropertyOp48
 70
     1
102
RTVSPropertyOp49
 70
     1
102
RTVSPropertyOp50
 70
     1
102
RTVSPropertyOp51
 70
     0
102
RTVSPropertyOp52
 70
     0
102
RTVSPropertyOp53
 70
     1
102
RTVSPropertyOp54
 70
     1
102
RTVSPropertyOp55
 70
     1
102
RTVSPropertyOp56
 70
     1
102
RTVSPropertyOp57
 70
     1
102
RTVSPropertyOp58
 70
     1
102
RTVSPropertyOp59
 70
     1
102
RTVSPropertyOp60
 70
     1
102
RTVSPropertyOp61
 70
     1
102
RTVSPropertyOp62
 70
     1
  0
ENDSEC
  0
EOF
