  0
SECTION
  2
HEADER
  9
$ACADVER
  1
AC1015
  9
$ACADMAINTVER
 70
    20
  9
$DWGCODEPAGE
  3
ANSI_932
  9
$INSBASE
 10
0.0
 20
0.0
 30
0.0
  9
$EXTMIN
 10
9.9999975266385
 20
10.0
 30
0.0
  9
$EXTMAX
 10
912.7841193152375
 20
651.6300977392377
 30
0.0
  9
$LIMMIN
 10
0.0000015376081137
 20
-0.0000001931532552
  9
$LIMMAX
 10
992.000001537608
 20
683.8787876856343
  9
$ORTHOMODE
 70
     1
  9
$REGENMODE
 70
     1
  9
$FILLMODE
 70
     1
  9
$QTEXTMODE
 70
     0
  9
$MIRRTEXT
 70
     1
  9
$LTSCALE
 40
1.0
  9
$ATTMODE
 70
     1
  9
$TEXTSIZE
 40
2.5
  9
$TRACEWID
 40
1.0
  9
$TEXTSTYLE
  7
STANDARD
  9
$CLAYER
  8
0
  9
$CELTYPE
  6
BYLAYER
  9
$CECOLOR
 62
   256
  9
$CELTSCALE
 40
1.0
  9
$DISPSILH
 70
     0
  9
$DIMSCALE
 40
1.0
  9
$DIMASZ
 40
3.0
  9
$DIMEXO
 40
1.0
  9
$DIMDLI
 40
10.0
  9
$DIMRND
 40
0.0
  9
$DIMDLE
 40
0.0
  9
$DIMEXE
 40
1.0
  9
$DIMTP
 40
0.0
  9
$DIMTM
 40
0.0
  9
$DIMTXT
 40
3.2
  9
$DIMCEN
 40
0.0
  9
$DIMTSZ
 40
0.0
  9
$DIMTOL
 70
     0
  9
$DIMLIM
 70
     0
  9
$DIMTIH
 70
     0
  9
$DIMTOH
 70
     0
  9
$DIMSE1
 70
     0
  9
$DIMSE2
 70
     0
  9
$DIMTAD
 70
     3
  9
$DIMZIN
 70
     8
  9
$DIMBLK
  1

  9
$DIMASO
 70
     1
  9
$DIMSHO
 70
     1
  9
$DIMPOST
  1

  9
$DIMAPOST
  1

  9
$DIMALT
 70
     0
  9
$DIMALTD
 70
     2
  9
$DIMALTF
 40
25.4
  9
$DIMLFAC
 40
1.0
  9
$DIMTOFL
 70
     1
  9
$DIMTVP
 40
0.0
  9
$DIMTIX
 70
     0
  9
$DIMSOXD
 70
     0
  9
$DIMSAH
 70
     1
  9
$DIMBLK1
  1
OPEN
  9
$DIMBLK2
  1
OPEN
  9
$DIMSTYLE
  2
STANDARD
  9
$DIMCLRD
 70
     0
  9
$DIMCLRE
 70
     0
  9
$DIMCLRT
 70
     0
  9
$DIMTFAC
 40
1.0
  9
$DIMGAP
 40
1.0
  9
$DIMJUST
 70
     0
  9
$DIMSD1
 70
     0
  9
$DIMSD2
 70
     0
  9
$DIMTOLJ
 70
     1
  9
$DIMTZIN
 70
     0
  9
$DIMALTZ
 70
     0
  9
$DIMALTTZ
 70
     0
  9
$DIMUPT
 70
     0
  9
$DIMDEC
 70
     4
  9
$DIMTDEC
 70
     4
  9
$DIMALTU
 70
     2
  9
$DIMALTTD
 70
     2
  9
$DIMTXSTY
  7
STANDARD
  9
$DIMAUNIT
 70
     0
  9
$DIMADEC
 70
     0
  9
$DIMALTRND
 40
0.0
  9
$DIMAZIN
 70
     0
  9
$DIMDSEP
 70
    46
  9
$DIMATFIT
 70
     3
  9
$DIMFRAC
 70
     0
  9
$DIMLDRBLK
  1
OPEN
  9
$DIMLUNIT
 70
     2
  9
$DIMLWD
 70
    -2
  9
$DIMLWE
 70
    -2
  9
$DIMTMOVE
 70
     0
  9
$LUNITS
 70
     2
  9
$LUPREC
 70
     4
  9
$SKETCHINC
 40
1.0
  9
$FILLETRAD
 40
0.0
  9
$AUNITS
 70
     0
  9
$AUPREC
 70
     0
  9
$MENU
  1
.
  9
$ELEVATION
 40
0.0
  9
$PELEVATION
 40
0.0
  9
$THICKNESS
 40
0.0
  9
$LIMCHECK
 70
     0
  9
$CHAMFERA
 40
10.0
  9
$CHAMFERB
 40
10.0
  9
$CHAMFERC
 40
20.0
  9
$CHAMFERD
 40
0.0
  9
$SKPOLY
 70
     0
  9
$TDCREATE
 40
2453811.402924803
  9
$TDUCREATE
 40
2453811.027924803
  9
$TDUPDATE
 40
2457192.689629549
  9
$TDUUPDATE
 40
2457192.314629549
  9
$TDINDWG
 40
0.0990589815
  9
$TDUSRTIMER
 40
0.0990587731
  9
$USRTIMER
 70
     1
  9
$ANGBASE
 50
0.0
  9
$ANGDIR
 70
     0
  9
$PDMODE
 70
     0
  9
$PDSIZE
 40
0.0
  9
$PLINEWID
 40
0.0
  9
$SPLFRAME
 70
     0
  9
$SPLINETYPE
 70
     6
  9
$SPLINESEGS
 70
     8
  9
$HANDSEED
  5
2142
  9
$SURFTAB1
 70
     6
  9
$SURFTAB2
 70
     6
  9
$SURFTYPE
 70
     6
  9
$SURFU
 70
     6
  9
$SURFV
 70
     6
  9
$UCSBASE
  2

  9
$UCSNAME
  2

  9
$UCSORG
 10
0.0
 20
0.0
 30
0.0
  9
$UCSXDIR
 10
1.0
 20
0.0
 30
0.0
  9
$UCSYDIR
 10
0.0
 20
1.0
 30
0.0
  9
$UCSORTHOREF
  2

  9
$UCSORTHOVIEW
 70
     0
  9
$UCSORGTOP
 10
0.0
 20
0.0
 30
0.0
  9
$UCSORGBOTTOM
 10
0.0
 20
0.0
 30
0.0
  9
$UCSORGLEFT
 10
0.0
 20
0.0
 30
0.0
  9
$UCSORGRIGHT
 10
0.0
 20
0.0
 30
0.0
  9
$UCSORGFRONT
 10
0.0
 20
0.0
 30
0.0
  9
$UCSORGBACK
 10
0.0
 20
0.0
 30
0.0
  9
$PUCSBASE
  2

  9
$PUCSNAME
  2

  9
$PUCSORG
 10
0.0
 20
0.0
 30
0.0
  9
$PUCSXDIR
 10
1.0
 20
0.0
 30
0.0
  9
$PUCSYDIR
 10
0.0
 20
1.0
 30
0.0
  9
$PUCSORTHOREF
  2

  9
$PUCSORTHOVIEW
 70
     0
  9
$PUCSORGTOP
 10
0.0
 20
0.0
 30
0.0
  9
$PUCSORGBOTTOM
 10
0.0
 20
0.0
 30
0.0
  9
$PUCSORGLEFT
 10
0.0
 20
0.0
 30
0.0
  9
$PUCSORGRIGHT
 10
0.0
 20
0.0
 30
0.0
  9
$PUCSORGFRONT
 10
0.0
 20
0.0
 30
0.0
  9
$PUCSORGBACK
 10
0.0
 20
0.0
 30
0.0
  9
$USERI1
 70
     0
  9
$USERI2
 70
     0
  9
$USERI3
 70
     0
  9
$USERI4
 70
     0
  9
$USERI5
 70
     0
  9
$USERR1
 40
0.0
  9
$USERR2
 40
0.0
  9
$USERR3
 40
0.0
  9
$USERR4
 40
0.0
  9
$USERR5
 40
0.0
  9
$WORLDVIEW
 70
     1
  9
$SHADEDGE
 70
     3
  9
$SHADEDIF
 70
    70
  9
$TILEMODE
 70
     1
  9
$MAXACTVP
 70
    48
  9
$PINSBASE
 10
0.0
 20
0.0
 30
0.0
  9
$PLIMCHECK
 70
     0
  9
$PEXTMIN
 10
1.000000000000000E+20
 20
1.000000000000000E+20
 30
1.000000000000000E+20
  9
$PEXTMAX
 10
-1.000000000000000E+20
 20
-1.000000000000000E+20
 30
-1.000000000000000E+20
  9
$PLIMMIN
 10
0.0
 20
0.0
  9
$PLIMMAX
 10
420.0
 20
297.0
  9
$UNITMODE
 70
     0
  9
$VISRETAIN
 70
     1
  9
$PLINEGEN
 70
     0
  9
$PSLTSCALE
 70
     1
  9
$TREEDEPTH
 70
  3020
  9
$CMLSTYLE
  2
STANDARD
  9
$CMLJUST
 70
     0
  9
$CMLSCALE
 40
20.0
  9
$PROXYGRAPHICS
 70
     1
  9
$MEASUREMENT
 70
     0
  9
$CELWEIGHT
370
    -1
  9
$ENDCAPS
280
     0
  9
$JOINSTYLE
280
     0
  9
$LWDISPLAY
290
     0
  9
$INSUNITS
 70
     0
  9
$HYPERLINKBASE
  1

  9
$STYLESHEET
  1

  9
$XEDIT
290
     1
  9
$CEPSNTYPE
380
     0
  9
$PSTYLEMODE
290
     1
  9
$FINGERPRINTGUID
  2
{6751CE99-20F5-4F13-AC44-A5457C0AA702}
  9
$VERSIONGUID
  2
{53E2EECD-2008-47E7-9E8D-9DB43659308E}
  9
$EXTNAMES
290
     1
  9
$PSVPSCALE
 40
0.0
  9
$OLESTARTUP
290
     0
  0
ENDSEC
  0
SECTION
  2
CLASSES
  0
CLASS
  1
ACDBDICTIONARYWDFLT
  2
AcDbDictionaryWithDefault
  3
ObjectDBX Classes
 90
        0
280
     0
281
     0
  0
CLASS
  1
ACDBPLACEHOLDER
  2
AcDbPlaceHolder
  3
ObjectDBX Classes
 90
        0
280
     0
281
     0
  0
CLASS
  1
LAYOUT
  2
AcDbLayout
  3
ObjectDBX Classes
 90
        0
280
     0
281
     0
  0
CLASS
  1
DICTIONARYVAR
  2
AcDbDictionaryVar
  3
ObjectDBX Classes
 90
        0
280
     0
281
     0
  0
CLASS
  1
MATERIAL
  2
AcDbMaterial
  3
ObjectDBX Classes
 90
     1153
280
     0
281
     0
  0
CLASS
  1
VISUALSTYLE
  2
AcDbVisualStyle
  3
ObjectDBX Classes
 90
     4095
280
     0
281
     0
  0
CLASS
  1
TABLESTYLE
  2
AcDbTableStyle
  3
ObjectDBX Classes
 90
     4095
280
     0
281
     0
  0
CLASS
  1
SCALE
  2
AcDbScale
  3
ObjectDBX Classes
 90
     1153
280
     0
281
     0
  0
CLASS
  1
MLEADERSTYLE
  2
AcDbMLeaderStyle
  3
ACDB_MLEADERSTYLE_CLASS
 90
     4095
280
     0
281
     0
  0
CLASS
  1
ACDBSECTIONVIEWSTYLE
  2
AcDbSectionViewStyle
  3
ObjectDBX Classes
 90
     1025
280
     0
281
     0
  0
CLASS
  1
ACDBDETAILVIEWSTYLE
  2
AcDbDetailViewStyle
  3
ObjectDBX Classes
 90
     1025
280
     0
281
     0
  0
CLASS
  1
CELLSTYLEMAP
  2
AcDbCellStyleMap
  3
ObjectDBX Classes
 90
     1152
280
     0
281
     0
  0
ENDSEC
  0
SECTION
  2
TABLES
  0
TABLE
  2
VPORT
  5
8
330
0
100
AcDbSymbolTable
 70
     1
  0
VPORT
  5
208E
330
8
100
AcDbSymbolTableRecord
100
AcDbViewportTableRecord
  2
*ACTIVE
 70
     0
 10
0.0
 20
0.0
 11
1.0
 21
1.0
 12
708.3483417681978
 22
330.825947616065
 13
0.0
 23
0.0
 14
10.0
 24
10.0
 15
10.0
 25
10.0
 16
0.0
 26
0.0
 36
1.0
 17
0.0
 27
0.0
 37
0.0
 40
646.7238437090266
 41
2.35006605019815
 42
50.0
 43
0.0
 44
0.0
 50
0.0
 51
0.0
 71
     0
 72
   100
 73
     1
 74
     0
 75
     0
 76
     0
 77
     0
 78
     0
281
     0
 65
     1
110
0.0
120
0.0
130
0.0
111
1.0
121
0.0
131
0.0
112
0.0
122
1.0
132
0.0
 79
     0
146
0.0
1001
ACAD_NAV_VCDISPLAY
1070
     3
  0
ENDTAB
  0
TABLE
  2
LTYPE
  5
5
330
0
100
AcDbSymbolTable
 70
     4
  0
LTYPE
  5
12
330
5
100
AcDbSymbolTableRecord
100
AcDbLinetypeTableRecord
  2
BYBLOCK
 70
     0
  3

 72
    65
 73
     0
 40
0.0
  0
LTYPE
  5
13
330
5
100
AcDbSymbolTableRecord
100
AcDbLinetypeTableRecord
  2
BYLAYER
 70
     0
  3

 72
    65
 73
     0
 40
0.0
  0
LTYPE
  5
14
330
5
100
AcDbSymbolTableRecord
100
AcDbLinetypeTableRecord
  2
CONTINUOUS
 70
     0
  3
Solid line
 72
    65
 73
     0
 40
0.0
  0
LTYPE
  5
4B
330
5
100
AcDbSymbolTableRecord
100
AcDbLinetypeTableRecord
  2
DASHED
 70
     0
  3
Dashed __ __ __ __ __ __ __ __ __ __ __ __ __ _
 72
    65
 73
     2
 40
19.04999999999998
 49
12.7
 74
     0
 49
-6.349999999999997
 74
     0
  0
LTYPE
  5
4C
330
5
100
AcDbSymbolTableRecord
100
AcDbLinetypeTableRecord
  2
CENTER
 70
     0
  3
Center ____ _ ____ _ ____ _ ____ _ ____ _ ____
 72
    65
 73
     4
 40
50.8
 49
31.75
 74
     0
 49
-6.349999999999997
 74
     0
 49
6.349999999999997
 74
     0
 49
-6.349999999999997
 74
     0
  0
LTYPE
  5
4D
330
5
100
AcDbSymbolTableRecord
100
AcDbLinetypeTableRecord
  2
PHANTOM
 70
     0
  3
Phantom ______  __  __  ______  __  __  ______
 72
    65
 73
     6
 40
63.5
 49
31.75
 74
     0
 49
-6.349999999999997
 74
     0
 49
6.349999999999997
 74
     0
 49
-6.349999999999997
 74
     0
 49
6.349999999999997
 74
     0
 49
-6.349999999999997
 74
     0
  0
ENDTAB
  0
TABLE
  2
LAYER
  5
2
330
0
100
AcDbSymbolTable
 70
     8
  0
LAYER
  5
E
102
{ACAD_XDICTIONARY
360
20E6
102
}
330
2
100
AcDbSymbolTableRecord
100
AcDbLayerTableRecord
  2
0
 70
     0
 62
     7
  6
CONTINUOUS
370
    -3
390
2095
  0
LAYER
  5
4E
102
{ACAD_XDICTIONARY
360
20E8
102
}
330
2
100
AcDbSymbolTableRecord
100
AcDbLayerTableRecord
  2
4
 70
     0
 62
     1
  6
CENTER
370
    -3
390
2095
  0
LAYER
  5
4F
102
{ACAD_XDICTIONARY
360
20EA
102
}
330
2
100
AcDbSymbolTableRecord
100
AcDbLayerTableRecord
  2
5
 70
     0
 62
     6
  6
PHANTOM
370
    -3
390
2095
  0
LAYER
  5
50
102
{ACAD_XDICTIONARY
360
20EC
102
}
330
2
100
AcDbSymbolTableRecord
100
AcDbLayerTableRecord
  2
1
 70
     0
 62
     7
  6
CONTINUOUS
370
    -3
390
2095
  0
LAYER
  5
51
102
{ACAD_XDICTIONARY
360
20EE
102
}
330
2
100
AcDbSymbolTableRecord
100
AcDbLayerTableRecord
  2
2
 70
     0
 62
     4
  6
CONTINUOUS
370
    -3
390
2095
  0
LAYER
  5
52
102
{ACAD_XDICTIONARY
360
20F0
102
}
330
2
100
AcDbSymbolTableRecord
100
AcDbLayerTableRecord
  2
3
 70
     0
 62
     2
  6
DASHED
370
    -3
390
2095
  0
LAYER
  5
53
102
{ACAD_XDICTIONARY
360
20F2
102
}
330
2
100
AcDbSymbolTableRecord
100
AcDbLayerTableRecord
  2
6
 70
     0
 62
     5
  6
CONTINUOUS
370
    -3
390
2095
  0
LAYER
  5
54
102
{ACAD_XDICTIONARY
360
20F4
102
}
330
2
100
AcDbSymbolTableRecord
100
AcDbLayerTableRecord
  2
7
 70
     0
 62
     3
  6
CONTINUOUS
370
    -3
390
2095
  0
ENDTAB
  0
TABLE
  2
STYLE
  5
3
330
0
100
AcDbSymbolTable
 70
     1
  0
STYLE
  5
F
330
3
100
AcDbSymbolTableRecord
100
AcDbTextStyleTableRecord
  2
STANDARD
 70
     0
 40
0.0
 41
1.0
 50
0.0
 71
     0
 42
2.5
  3
simplex.shx
  4

  0
ENDTAB
  0
TABLE
  2
VIEW
  5
6
330
0
100
AcDbSymbolTable
 70
     0
  0
ENDTAB
  0
TABLE
  2
UCS
  5
7
330
0
100
AcDbSymbolTable
 70
     0
  0
ENDTAB
  0
TABLE
  2
APPID
  5
9
330
0
100
AcDbSymbolTable
 70
     5
  0
APPID
  5
10
330
9
100
AcDbSymbolTableRecord
100
AcDbRegAppTableRecord
  2
ACAD
 70
     0
  0
APPID
  5
3E
330
9
100
AcDbSymbolTableRecord
100
AcDbRegAppTableRecord
  2
CONTENTTABDATA
 70
     0
  0
APPID
  5
3F
330
9
100
AcDbSymbolTableRecord
100
AcDbRegAppTableRecord
  2
CONTENTCURRENTTAB
 70
     0
  0
APPID
  5
2100
330
9
100
AcDbSymbolTableRecord
100
AcDbRegAppTableRecord
  2
ACAD_NAV_VCDISPLAY
 70
     0
  0
APPID
  5
2139
330
9
100
AcDbSymbolTableRecord
100
AcDbRegAppTableRecord
  2
ACAD_MLEADERVER
 70
     0
  0
ENDTAB
  0
TABLE
  2
DIMSTYLE
  5
A
330
0
100
AcDbSymbolTable
 70
     1
100
AcDbDimStyleTable
 71
     0
  0
DIMSTYLE
105
1D
330
A
100
AcDbSymbolTableRecord
100
AcDbDimStyleTableRecord
  2
STANDARD
 70
     0
 41
3.0
 42
1.0
 43
10.0
 44
1.0
 73
     0
 74
     0
 77
     3
 78
     8
140
3.2
141
0.0
147
1.0
172
     1
173
     1
340
F
341
2E
343
2E
344
2E
  0
ENDTAB
  0
TABLE
  2
BLOCK_RECORD
  5
1
330
0
100
AcDbSymbolTable
 70
     1
  0
BLOCK_RECORD
  5
18
102
{ACAD_XDICTIONARY
360
2078
102
}
330
1
100
AcDbSymbolTableRecord
100
AcDbBlockTableRecord
  2
*MODEL_SPACE
340
20E3
  0
BLOCK_RECORD
  5
15
102
{ACAD_XDICTIONARY
360
2076
102
}
330
1
100
AcDbSymbolTableRecord
100
AcDbBlockTableRecord
  2
*PAPER_SPACE
340
20E4
  0
BLOCK_RECORD
  5
2E
330
1
100
AcDbSymbolTableRecord
100
AcDbBlockTableRecord
  2
_OPEN
340
0
  0
ENDTAB
  0
ENDSEC
  0
SECTION
  2
BLOCKS
  0
BLOCK
  5
19
330
18
100
AcDbEntity
  8
0
100
AcDbBlockBegin
  2
*MODEL_SPACE
 70
     0
 10
0.0
 20
0.0
 30
0.0
  3
*MODEL_SPACE
  1

  0
ENDBLK
  5
1A
330
18
100
AcDbEntity
  8
0
100
AcDbBlockEnd
  0
BLOCK
  5
16
330
15
100
AcDbEntity
 67
     1
  8
0
100
AcDbBlockBegin
  2
*PAPER_SPACE
 70
     0
 10
0.0
 20
0.0
 30
0.0
  3
*PAPER_SPACE
  1

  0
ENDBLK
  5
17
330
15
100
AcDbEntity
 67
     1
  8
0
100
AcDbBlockEnd
  0
BLOCK
  5
2F
330
2E
100
AcDbEntity
  8
0
100
AcDbBlockBegin
  2
_OPEN
 70
     0
 10
0.0
 20
0.0
 30
0.0
  3
_OPEN
  1

  0
LINE
  5
30
330
2E
100
AcDbEntity
  8
0
  6
ByBlock
 62
     0
100
AcDbLine
 10
-1.0
 20
0.1666666666666666
 30
0.0
 11
0.0
 21
0.0
 31
0.0
  0
LINE
  5
31
330
2E
100
AcDbEntity
  8
0
  6
ByBlock
 62
     0
100
AcDbLine
 10
0.0
 20
0.0
 30
0.0
 11
-1.0
 21
-0.1666666666666666
 31
0.0
  0
LINE
  5
32
330
2E
100
AcDbEntity
  8
0
  6
ByBlock
 62
     0
100
AcDbLine
 10
0.0
 20
0.0
 30
0.0
 11
-1.0
 21
0.0
 31
0.0
  0
ENDBLK
  5
33
330
2E
100
AcDbEntity
  8
0
100
AcDbBlockEnd
  0
ENDSEC
  0
SECTION
  2
ENTITIES
  0
TEXT
  5
63
330
18
100
AcDbEntity
  8
4
  6
CENTER
 48
0.25
100
AcDbText
 10
23.97950852663849
 20
10.0
 30
0.0
 40
1.399999999999999
  1
4
100
AcDbText
  0
TEXT
  5
64
330
18
100
AcDbEntity
  8
7
  6
Continuous
 48
0.25
100
AcDbText
 10
9.999997526638502
 20
26.0000007607689
 30
0.0
 40
3.0
  1
CODE No.19253
100
AcDbText
  0
TEXT
  5
65
330
18
100
AcDbEntity
  8
7
  6
Continuous
 48
0.25
100
AcDbText
 10
9.999997526638502
 20
18.00000076076889
 30
0.0
 40
3.0
  1
TYPE No.TCA-320S-ARB150
100
AcDbText
  0
TEXT
  5
66
330
18
100
AcDbEntity
  8
1
  6
Continuous
 48
0.25
100
AcDbText
 10
9.999997526638502
 20
10.00000076076889
 30
0.0
 40
1.399999999999999
  1
LAYER
100
AcDbText
  0
TEXT
  5
67
330
18
100
AcDbEntity
  8
2
  6
Continuous
 48
0.25
100
AcDbText
 10
19.9795085266385
 20
10.0
 30
0.0
 40
1.399999999999999
  1
2
100
AcDbText
  0
TEXT
  5
68
330
18
100
AcDbEntity
  8
3
  6
DASHED
 48
0.25
100
AcDbText
 10
21.97950852663849
 20
10.0
 30
0.0
 40
1.399999999999999
  1
3
100
AcDbText
  0
TEXT
  5
69
330
18
100
AcDbEntity
  8
1
  6
Continuous
 48
0.25
100
AcDbText
 10
17.9795085266385
 20
10.0
 30
0.0
 40
1.399999999999999
  1
1
100
AcDbText
  0
TEXT
  5
6A
330
18
100
AcDbEntity
  8
5
  6
PHANTOM
 48
0.25
100
AcDbText
 10
25.97950852663849
 20
10.0
 30
0.0
 40
1.399999999999999
  1
5
100
AcDbText
  0
TEXT
  5
6B
330
18
100
AcDbEntity
  8
6
  6
Continuous
 48
0.25
100
AcDbText
 10
27.97950852663849
 20
10.0
 30
0.0
 40
1.399999999999999
  1
6
100
AcDbText
  0
TEXT
  5
6C
330
18
100
AcDbEntity
  8
7
  6
Continuous
 48
0.25
100
AcDbText
 10
29.9795085266385
 20
10.0
 30
0.0
 40
1.399999999999999
  1
7
100
AcDbText
  0
ARC
  5
3E9
330
18
100
AcDbEntity
  8
1
  6
Continuous
100
AcDbCircle
 10
74.32183404913529
 20
387.3765251679833
 30
0.0
 40
23.0
100
AcDbArc
 50
14.38019300000076
 51
165.6198199999996
  0
LINE
  5
3EA
330
18
100
AcDbEntity
  8
1
  6
Continuous
100
AcDbLine
 10
47.32183404913528
 20
419.3765331679832
 30
0.0
 11
101.3218340491353
 21
419.3765331679832
 31
0.0
  0
LINE
  5
3EB
330
18
100
AcDbEntity
  8
4
  6
CENTER
100
AcDbLine
 10
24.32184104913527
 20
328.7265311679833
 30
0.0
 11
114.3218280491351
 21
328.7265311679833
 31
0.0
  0
LINE
  5
3F0
330
18
100
AcDbEntity
  8
1
  6
Continuous
100
AcDbLine
 10
47.32183404913528
 20
416.376535167983
 30
0.0
 11
101.3218340491353
 21
416.376535167983
 31
0.0
  0
LINE
  5
3F1
330
18
100
AcDbEntity
  8
1
  6
Continuous
100
AcDbLine
 10
36.56798904913529
 20
437.226516167983
 30
0.0
 11
111.8219480630464
 21
437.2265050264847
 31
0.0
  0
LINE
  5
3F2
330
18
100
AcDbEntity
  8
1
  6
Continuous
100
AcDbLine
 10
23.32183404913529
 20
439.7265161679833
 30
0.0
 11
125.3218340491353
 21
439.7265161679833
 31
0.0
  0
LINE
  5
3F3
330
18
100
AcDbEntity
  8
1
  6
Continuous
100
AcDbLine
 10
23.32183404913529
 20
443.7265161679833
 30
0.0
 11
125.3218340491353
 21
443.7265161679833
 31
0.0
  0
ARC
  5
3F4
330
18
100
AcDbEntity
  8
1
  6
Continuous
100
AcDbCircle
 10
220.2005570491353
 20
373.7265311679832
 30
0.0
 40
182.028732
100
AcDbArc
 50
179.9999639999999
 51
190.9253840000003
  0
LINE
  5
3F5
330
18
100
AcDbEntity
  8
1
  6
Continuous
100
AcDbLine
 10
43.32183404913528
 20
415.3765331679831
 30
0.0
 11
43.32183404913528
 21
311.7265241679831
 31
0.0
  0
LINE
  5
3F7
330
18
100
AcDbEntity
  8
1
  6
Continuous
100
AcDbLine
 10
46.32183404913528
 20
415.376535167983
 30
0.0
 11
46.32183404913528
 21
311.7265241679831
 31
0.0
  0
LINE
  5
3F8
330
18
100
AcDbEntity
  8
1
  6
Continuous
100
AcDbLine
 10
34.57183404913529
 20
339.6961891679831
 30
0.0
 11
39.0718340491353
 21
339.6961891679831
 31
0.0
  0
LINE
  5
3F9
330
18
100
AcDbEntity
  8
1
  6
Continuous
100
AcDbLine
 10
34.57183404913529
 20
334.2113561679833
 30
0.0
 11
39.0718340491353
 21
334.2113561679833
 31
0.0
  0
LINE
  5
3FA
330
18
100
AcDbEntity
  8
1
  6
Continuous
100
AcDbLine
 10
34.57183404913529
 20
317.7568731679831
 30
0.0
 11
39.0718340491353
 21
317.7568731679831
 31
0.0
  0
LINE
  5
3FB
330
18
100
AcDbEntity
  8
1
  6
Continuous
100
AcDbLine
 10
34.57183404913529
 20
323.2417061679833
 30
0.0
 11
39.0718340491353
 21
323.2417061679833
 31
0.0
  0
ARC
  5
3FC
330
18
100
AcDbEntity
  8
1
  6
Continuous
100
AcDbCircle
 10
36.95516504913529
 20
336.9537731679831
 30
0.0
 40
3.633332999999998
100
AcDbArc
 50
130.9927279999998
 51
229.0072679999999
  0
LINE
  5
3FD
330
18
100
AcDbEntity
  8
1
  6
Continuous
100
AcDbLine
 10
33.32183404913529
 20
336.9537731679831
 30
0.0
 11
33.32183404913529
 21
320.4992901679833
 31
0.0
  0
ARC
  5
3FE
330
18
100
AcDbEntity
  8
1
  6
Continuous
100
AcDbCircle
 10
45.98017404913531
 20
328.7265311679833
 30
0.0
 40
12.65833399999999
100
AcDbArc
 50
154.3229740000002
 51
205.6770219999995
  0
LINE
  5
3FF
330
18
100
AcDbEntity
  8
1
  6
Continuous
100
AcDbLine
 10
29.32184104913527
 20
333.9765311679832
 30
0.0
 11
29.32184104913527
 21
323.4765311679832
 31
0.0
  0
LINE
  5
400
330
18
100
AcDbEntity
  8
1
  6
Continuous
100
AcDbLine
 10
30.07157404913527
 20
334.7265311679833
 30
0.0
 11
30.07157404913527
 21
322.7265311679833
 31
0.0
  0
LINE
  5
401
330
18
100
AcDbEntity
  8
1
  6
Continuous
100
AcDbLine
 10
30.07157404913527
 20
322.7265311679833
 30
0.0
 11
33.32184104913528
 21
322.7265311679833
 31
0.0
  0
LINE
  5
403
330
18
100
AcDbEntity
  8
1
  6
Continuous
100
AcDbLine
 10
30.07157404913527
 20
322.7265311679833
 30
0.0
 11
29.32167804913529
 21
323.4764271679831
 31
0.0
  0
ARC
  5
404
330
18
100
AcDbEntity
  8
1
  6
Continuous
100
AcDbCircle
 10
36.95516504913529
 20
320.4992901679833
 30
0.0
 40
3.633332999999998
100
AcDbArc
 50
130.9927279999998
 51
229.0072679999999
  0
LINE
  5
405
330
18
100
AcDbEntity
  8
1
  6
Continuous
100
AcDbLine
 10
30.07157404913527
 20
334.7265311679833
 30
0.0
 11
33.32184104913528
 21
334.7265311679833
 31
0.0
  0
LINE
  5
407
330
18
100
AcDbEntity
  8
1
  6
Continuous
100
AcDbLine
 10
30.07157404913527
 20
334.7265311679833
 30
0.0
 11
29.32167804913529
 21
333.9766351679831
 31
0.0
  0
LINE
  5
408
330
18
100
AcDbEntity
  8
1
  6
Continuous
100
AcDbLine
 10
46.32183404913528
 20
311.7265241679831
 30
0.0
 11
43.32183404913528
 21
311.7265241679831
 31
0.0
  0
ARC
  5
409
330
18
100
AcDbEntity
  8
1
  6
Continuous
100
AcDbCircle
 10
36.68850304913529
 20
336.9537731679831
 30
0.0
 40
3.633332999999998
100
AcDbArc
 50
310.992734
 51
49.00726600000002
  0
LINE
  5
40A
330
18
100
AcDbEntity
  8
1
  6
Continuous
100
AcDbLine
 10
40.3218340491353
 20
339.2265311679833
 30
0.0
 11
40.3218340491353
 21
318.2265311679833
 31
0.0
  0
LINE
  5
40B
330
18
100
AcDbEntity
  8
1
  6
Continuous
100
AcDbLine
 10
43.32183404913528
 20
318.2265311679833
 30
0.0
 11
40.3218340491353
 21
318.2265311679833
 31
0.0
  0
ARC
  5
40C
330
18
100
AcDbEntity
  8
1
  6
Continuous
100
AcDbCircle
 10
27.6635090491353
 20
328.7265311679833
 30
0.0
 40
12.65833399999999
100
AcDbArc
 50
334.3229730000002
 51
25.67702699999977
  0
ARC
  5
40D
330
18
100
AcDbEntity
  8
1
  6
Continuous
100
AcDbCircle
 10
36.68850304913529
 20
320.4992901679833
 30
0.0
 40
3.633332999999998
100
AcDbArc
 50
310.992734
 51
49.00726600000002
  0
LINE
  5
40E
330
18
100
AcDbEntity
  8
1
  6
Continuous
100
AcDbLine
 10
46.82183404913528
 20
320.2265311679833
 30
0.0
 11
46.32183404913528
 21
320.2265311679833
 31
0.0
  0
LINE
  5
40F
330
18
100
AcDbEntity
  8
1
  6
Continuous
100
AcDbLine
 10
43.32183404913528
 20
339.2265311679833
 30
0.0
 11
40.3218340491353
 21
339.2265311679833
 31
0.0
  0
LINE
  5
410
330
18
100
AcDbEntity
  8
1
  6
Continuous
100
AcDbLine
 10
46.82183404913528
 20
337.2265311679833
 30
0.0
 11
46.32183404913528
 21
337.2265311679833
 31
0.0
  0
ARC
  5
411
330
18
100
AcDbEntity
  8
1
  6
Continuous
100
AcDbCircle
 10
36.69485004913531
 20
442.2249181679831
 30
0.0
 40
5.0
100
AcDbArc
 50
209.9787059999998
 51
271.4539879999999
  0
LINE
  5
412
330
18
100
AcDbEntity
  8
1
  6
Continuous
100
AcDbLine
 10
23.32183404913529
 20
443.7265311679832
 30
0.0
 11
23.32183404913529
 21
439.7265311679832
 31
0.0
  0
LINE
  5
413
330
18
100
AcDbEntity
  8
1
  6
Continuous
100
AcDbLine
 10
37.32183404913529
 20
429.7265391679832
 30
0.0
 11
111.3218340491352
 21
429.7265274123293
 31
0.0
  0
LINE
  5
414
330
18
100
AcDbEntity
  8
1
  6
Continuous
100
AcDbLine
 10
38.32183404913529
 20
428.7265391679833
 30
0.0
 11
110.3267330139279
 21
428.7265391679833
 31
0.0
  0
LINE
  5
415
330
18
100
AcDbEntity
  8
1
  6
Continuous
100
AcDbLine
 10
38.82183404913529
 20
431.7265391679831
 30
0.0
 11
109.8218080491353
 21
431.7265391679831
 31
0.0
  0
LINE
  5
416
330
18
100
AcDbEntity
  8
1
  6
Continuous
100
AcDbLine
 10
36.8218340491353
 20
433.2265391679833
 30
0.0
 11
111.8218630491353
 21
433.2265691679831
 31
0.0
  0
LINE
  5
417
330
18
100
AcDbEntity
  8
1
  6
Continuous
100
AcDbLine
 10
38.17184004913531
 20
425.3765251679832
 30
0.0
 11
38.17184004913531
 21
373.7265311679832
 31
0.0
  0
LINE
  5
418
330
18
100
AcDbEntity
  8
1
  6
Continuous
100
AcDbLine
 10
46.32184104913529
 20
370.7764461679833
 30
0.0
 11
52.0424310491353
 21
393.0886921679832
 31
0.0
  0
LINE
  5
419
330
18
100
AcDbEntity
  8
1
  6
Continuous
100
AcDbLine
 10
39.40889304913532
 20
437.2265221679831
 30
0.0
 11
36.82179004913531
 21
433.2265521679833
 31
0.0
  0
ARC
  5
41A
330
18
100
AcDbEntity
  8
1
  6
Continuous
100
AcDbCircle
 10
47.32183404913528
 20
415.3765331679831
 30
0.0
 40
4.0
100
AcDbArc
 50
89.99998199999998
 51
179.9999639999999
  0
LINE
  5
41B
330
18
100
AcDbEntity
  8
1
  6
Continuous
100
AcDbLine
 10
38.32180904913531
 20
429.7265621679833
 30
0.0
 11
40.32181104913528
 21
431.726564167983
 31
0.0
  0
ARC
  5
41C
330
18
100
AcDbEntity
  8
1
  6
Continuous
100
AcDbCircle
 10
44.17184004913531
 20
425.3765271679831
 30
0.0
 40
6.0
100
AcDbArc
 50
146.0593609999996
 51
179.9999499999998
  0
ARC
  5
41D
330
18
100
AcDbEntity
  8
1
  6
Continuous
100
AcDbCircle
 10
38.32183404913529
 20
429.7265501679833
 30
0.0
 40
1.0
100
AcDbArc
 50
179.9999910000003
 51
270.0000279999998
  0
LINE
  5
41E
330
18
100
AcDbEntity
  8
1
  6
Continuous
100
AcDbLine
 10
36.82180204913527
 20
433.2265571679831
 30
0.0
 11
38.82180204913527
 21
431.7265571679833
 31
0.0
  0
ARC
  5
41F
330
18
100
AcDbEntity
  8
1
  6
Continuous
100
AcDbCircle
 10
47.32183404913528
 20
415.376535167983
 30
0.0
 40
1.0
100
AcDbArc
 50
89.99998199999998
 51
179.9999639999999
  0
ARC
  5
420
330
18
100
AcDbEntity
  8
1
  6
Continuous
100
AcDbCircle
 10
-71.55688895086473
 20
373.7265311679832
 30
0.0
 40
182.028732
100
AcDbArc
 50
348.9225039999997
 51
0.0
  0
LINE
  5
421
330
18
100
AcDbEntity
  8
1
  6
Continuous
100
AcDbLine
 10
102.3218340491353
 20
415.376535167983
 30
0.0
 11
102.3218340491353
 21
311.7265241679831
 31
0.0
  0
LINE
  5
422
330
18
100
AcDbEntity
  8
1
  6
Continuous
100
AcDbLine
 10
105.3218340491353
 20
415.3765331679831
 30
0.0
 11
105.3218340491353
 21
311.7265241679831
 31
0.0
  0
LINE
  5
423
330
18
100
AcDbEntity
  8
1
  6
Continuous
100
AcDbLine
 10
102.3218340491353
 20
311.7265241679831
 30
0.0
 11
105.3218340491353
 21
311.7265241679831
 31
0.0
  0
ARC
  5
424
330
18
100
AcDbEntity
  8
1
  6
Continuous
100
AcDbCircle
 10
85.78016204913529
 20
328.7265311679833
 30
0.0
 40
23.541666
100
AcDbArc
 50
330.7582050000001
 51
29.24174700000021
  0
LINE
  5
425
330
18
100
AcDbEntity
  8
1
  6
Continuous
100
AcDbLine
 10
106.3218340491353
 20
340.2265311679832
 30
0.0
 11
106.3218340491353
 21
317.2265311679832
 31
0.0
  0
LINE
  5
426
330
18
100
AcDbEntity
  8
1
  6
Continuous
100
AcDbLine
 10
102.3218340491353
 20
320.2265311679833
 30
0.0
 11
101.8218340491352
 21
320.2265311679833
 31
0.0
  0
LINE
  5
427
330
18
100
AcDbEntity
  8
1
  6
Continuous
100
AcDbLine
 10
105.3218340491353
 20
317.2265311679832
 30
0.0
 11
106.3218340491353
 21
317.2265311679832
 31
0.0
  0
LINE
  5
428
330
18
100
AcDbEntity
  8
1
  6
Continuous
100
AcDbLine
 10
102.3218340491353
 20
337.2265311679833
 30
0.0
 11
101.8218340491352
 21
337.2265311679833
 31
0.0
  0
LINE
  5
429
330
18
100
AcDbEntity
  8
1
  6
Continuous
100
AcDbLine
 10
105.3218340491353
 20
340.2265311679832
 30
0.0
 11
106.3218340491353
 21
340.2265311679832
 31
0.0
  0
LINE
  5
42A
330
18
100
AcDbEntity
  8
1
  6
Continuous
100
AcDbLine
 10
110.4718280491352
 20
425.3765251679832
 30
0.0
 11
110.4718280491352
 21
373.7265311679832
 31
0.0
  0
LINE
  5
42B
330
18
100
AcDbEntity
  8
1
  6
Continuous
100
AcDbLine
 10
102.3218380491353
 20
370.7763511679833
 30
0.0
 11
96.60122504913534
 21
393.0886911679831
 31
0.0
  0
ARC
  5
42C
330
18
100
AcDbEntity
  8
1
  6
Continuous
100
AcDbCircle
 10
110.3218340491353
 20
429.726527167983
 30
0.0
 40
1.0
100
AcDbArc
 50
269.9999769999998
 51
0.0000140000001062
  0
LINE
  5
42D
330
18
100
AcDbEntity
  8
1
  6
Continuous
100
AcDbLine
 10
109.2347680491353
 20
437.2265261679832
 30
0.0
 11
111.8218630491353
 21
433.2265691679831
 31
0.0
  0
LINE
  5
42E
330
18
100
AcDbEntity
  8
1
  6
Continuous
100
AcDbLine
 10
111.8218040491353
 20
433.2265361679831
 30
0.0
 11
109.8218040491353
 21
431.726536167983
 31
0.0
  0
ARC
  5
42F
330
18
100
AcDbEntity
  8
1
  6
Continuous
100
AcDbCircle
 10
101.3218340491353
 20
415.3765331679831
 30
0.0
 40
4.0
100
AcDbArc
 50
0.0
 51
89.99998199999998
  0
ARC
  5
430
330
18
100
AcDbEntity
  8
1
  6
Continuous
100
AcDbCircle
 10
101.3218340491353
 20
415.376535167983
 30
0.0
 40
1.0
100
AcDbArc
 50
0.0
 51
89.99998199999998
  0
ARC
  5
431
330
18
100
AcDbEntity
  8
1
  6
Continuous
100
AcDbCircle
 10
104.4718280491353
 20
425.3765271679831
 30
0.0
 40
6.0
100
AcDbArc
 50
0.0000140000001062
 51
33.94060299999972
  0
LINE
  5
432
330
18
100
AcDbEntity
  8
1
  6
Continuous
100
AcDbLine
 10
110.3218350491353
 20
429.7265481679833
 30
0.0
 11
108.3218440491352
 21
431.7265401679831
 31
0.0
  0
ARC
  5
433
330
18
100
AcDbEntity
  8
1
  6
Continuous
100
AcDbCircle
 10
111.9488180491353
 20
442.2248951679831
 30
0.0
 40
5.0
100
AcDbArc
 50
268.546021
 51
330.0213029999998
  0
LINE
  5
434
330
18
100
AcDbEntity
  8
1
  6
Continuous
100
AcDbLine
 10
125.3218340491353
 20
443.7265011679833
 30
0.0
 11
125.3218340491353
 21
439.7265011679833
 31
0.0
  0
CIRCLE
  5
436
330
18
100
AcDbEntity
  8
1
  6
Continuous
100
AcDbCircle
 10
340.1425958045028
 20
595.6300977392376
 30
0.0
 40
39.5
  0
CIRCLE
  5
437
330
18
100
AcDbEntity
  8
1
  6
Continuous
100
AcDbCircle
 10
340.1425958045028
 20
595.6300977392376
 30
0.0
 40
35.5
  0
LINE
  5
438
330
18
100
AcDbEntity
  8
1
  6
Continuous
100
AcDbLine
 10
391.1425808045028
 20
555.6300977392375
 30
0.0
 11
391.1425808045028
 21
635.6300977392375
 31
0.0
  0
LINE
  5
439
330
18
100
AcDbEntity
  8
1
  6
Continuous
100
AcDbLine
 10
289.1426148045028
 20
555.6300977392375
 30
0.0
 11
289.1426148045028
 21
635.6300977392375
 31
0.0
  0
LINE
  5
43A
330
18
100
AcDbEntity
  8
4
  6
CENTER
100
AcDbLine
 10
340.1425958045028
 20
539.6300977392376
 30
0.0
 11
340.1425958045028
 21
651.6300977392377
 31
0.0
  0
LINE
  5
43D
330
18
100
AcDbEntity
  8
1
  6
Continuous
100
AcDbLine
 10
289.1425958045028
 20
443.726539167983
 30
0.0
 11
391.1425958045029
 21
443.726539167983
 31
0.0
  0
LINE
  5
43E
330
18
100
AcDbEntity
  8
1
  6
Continuous
100
AcDbLine
 10
289.1425958045028
 20
439.726539167983
 30
0.0
 11
391.1425958045029
 21
439.726539167983
 31
0.0
  0
LINE
  5
43F
330
18
100
AcDbEntity
  8
1
  6
Continuous
100
AcDbLine
 10
302.3887508045028
 20
437.2265391679833
 30
0.0
 11
377.769579804503
 21
437.2265391679833
 31
0.0
  0
LINE
  5
440
330
18
100
AcDbEntity
  8
1
  6
Continuous
100
AcDbLine
 10
302.6425918045029
 20
433.226531167983
 30
0.0
 11
340.1425918045029
 21
433.226531167983
 31
0.0
  0
LINE
  5
441
330
18
100
AcDbEntity
  8
1
  6
Continuous
100
AcDbLine
 10
374.0153158045028
 20
407.7866021679833
 30
0.0
 11
312.7300138045029
 21
319.0646321679833
 31
0.0
  0
LINE
  5
442
330
18
100
AcDbEntity
  8
1
  6
Continuous
100
AcDbLine
 10
302.6425918045029
 20
433.226531167983
 30
0.0
 11
377.642618804503
 21
433.226531167983
 31
0.0
  0
LINE
  5
443
330
18
100
AcDbEntity
  8
1
  6
Continuous
100
AcDbLine
 10
304.6425918045029
 20
431.7265311679832
 30
0.0
 11
340.1425918045029
 21
431.7265311679832
 31
0.0
  0
LINE
  5
444
330
18
100
AcDbEntity
  8
1
  6
Continuous
100
AcDbLine
 10
304.1425918045029
 20
428.726531167983
 30
0.0
 11
376.1425888045028
 21
428.726531167983
 31
0.0
  0
LINE
  5
445
330
18
100
AcDbEntity
  8
1
  6
Continuous
100
AcDbLine
 10
303.1425918045028
 20
429.726531167983
 30
0.0
 11
377.1425888045028
 21
429.726531167983
 31
0.0
  0
LINE
  5
446
330
18
100
AcDbEntity
  8
1
  6
Continuous
100
AcDbLine
 10
375.6425728045028
 20
431.7265151679833
 30
0.0
 11
304.6425808045028
 21
431.7265151679833
 31
0.0
  0
LINE
  5
448
330
18
100
AcDbEntity
  8
1
  6
Continuous
100
AcDbLine
 10
315.142595804503
 20
417.5115481679831
 30
0.0
 11
315.142595804503
 21
329.8098671679832
 31
0.0
  0
LINE
  5
449
330
18
100
AcDbEntity
  8
1
  6
Continuous
100
AcDbLine
 10
293.9329558045029
 20
415.955640167983
 30
0.0
 11
281.9107328045029
 21
331.1115771679831
 31
0.0
  0
LINE
  5
44A
330
18
100
AcDbEntity
  8
4
  6
CENTER
100
AcDbLine
 10
299.1425958045029
 20
248.7265391679831
 30
0.0
 11
299.1425958045029
 21
408.7265391679832
 31
0.0
  0
ARC
  5
44B
330
18
100
AcDbEntity
  8
1
  6
Continuous
100
AcDbCircle
 10
298.7425948045029
 20
328.7265391679831
 30
0.0
 40
17.0
100
AcDbArc
 50
171.9350129999992
 51
325.3649399999994
  0
CIRCLE
  5
44C
330
18
100
AcDbEntity
  8
1
  6
Continuous
100
AcDbCircle
 10
299.1425958045029
 20
328.7265391679831
 30
0.0
 40
11.5
  0
LINE
  5
44D
330
18
100
AcDbEntity
  8
1
  6
Continuous
100
AcDbLine
 10
288.9925948045029
 20
419.3765291679833
 30
0.0
 11
312.142595804503
 21
419.3765291679833
 31
0.0
  0
LINE
  5
44E
330
18
100
AcDbEntity
  8
1
  6
Continuous
100
AcDbLine
 10
288.9925948045029
 20
416.3765291679832
 30
0.0
 11
292.2650628045028
 21
416.3765291679832
 31
0.0
  0
LINE
  5
44F
330
18
100
AcDbEntity
  8
1
  6
Continuous
100
AcDbLine
 10
288.9925948045029
 20
419.3765291679833
 30
0.0
 11
288.9925948045029
 21
416.3765291679832
 31
0.0
  0
ARC
  5
450
330
18
100
AcDbEntity
  8
1
  6
Continuous
100
AcDbCircle
 10
292.2650628045028
 20
414.8765291679833
 30
0.0
 40
1.5
100
AcDbArc
 50
351.9349719999994
 51
89.99998199999998
  0
ARC
  5
451
330
18
100
AcDbEntity
  8
1
  6
Continuous
100
AcDbCircle
 10
290.9626258045028
 20
416.3765291679832
 30
0.0
 40
3.0
100
AcDbArc
 50
351.9350059999993
 51
89.99998199999998
  0
LINE
  5
452
330
18
100
AcDbEntity
  8
1
  6
Continuous
100
AcDbLine
 10
289.1425958045028
 20
443.7265541679833
 30
0.0
 11
289.1425958045028
 21
439.7265541679833
 31
0.0
  0
LINE
  5
453
330
18
100
AcDbEntity
  8
1
  6
Continuous
100
AcDbLine
 10
305.2297018045028
 20
437.2265391679833
 30
0.0
 11
302.642582804503
 21
433.226546167983
 31
0.0
  0
LINE
  5
454
330
18
100
AcDbEntity
  8
1
  6
Continuous
100
AcDbLine
 10
302.6425738045028
 20
433.2265131679831
 30
0.0
 11
304.6425738045028
 21
431.7265131679833
 31
0.0
  0
LINE
  5
455
330
18
100
AcDbEntity
  8
1
  6
Continuous
100
AcDbLine
 10
302.6425908045029
 20
433.2265361679833
 30
0.0
 11
304.6425918045029
 21
431.726536167983
 31
0.0
  0
LINE
  5
456
330
18
100
AcDbEntity
  8
1
  6
Continuous
100
AcDbLine
 10
304.1426008045029
 20
429.7265411679833
 30
0.0
 11
306.142599804503
 21
431.7265401679831
 31
0.0
  0
ARC
  5
457
330
18
100
AcDbEntity
  8
1
  6
Continuous
100
AcDbCircle
 10
309.992590804503
 20
425.3765371679833
 30
0.0
 40
6.0
100
AcDbArc
 50
146.0593739999998
 51
179.9999639999999
  0
ARC
  5
458
330
18
100
AcDbEntity
  8
1
  6
Continuous
100
AcDbCircle
 10
300.9925908045028
 20
422.3765391679831
 30
0.0
 40
3.0
100
AcDbArc
 50
270.0000249999999
 51
359.9999970000006
  0
LINE
  5
459
330
18
100
AcDbEntity
  8
1
  6
Continuous
100
AcDbLine
 10
303.9925948045028
 20
425.3765391679833
 30
0.0
 11
303.9925948045028
 21
422.3765391679831
 31
0.0
  0
ARC
  5
45A
330
18
100
AcDbEntity
  8
1
  6
Continuous
100
AcDbCircle
 10
304.1425918045029
 20
429.7265401679831
 30
0.0
 40
1.0
100
AcDbArc
 50
179.999978
 51
270.0000279999998
  0
ARC
  5
45B
330
18
100
AcDbEntity
  8
1
  6
Continuous
100
AcDbCircle
 10
302.515612804503
 20
442.2249411679833
 30
0.0
 40
5.0
100
AcDbArc
 50
209.9787059999998
 51
271.4539879999999
  0
ARC
  5
45C
330
18
100
AcDbEntity
  8
1
  6
Continuous
100
AcDbCircle
 10
312.142595804503
 20
422.376529167983
 30
0.0
 40
3.0
100
AcDbArc
 50
269.9999969999999
 51
344.8584710000007
  0
ARC
  5
45D
330
18
100
AcDbEntity
  8
1
  6
Continuous
100
AcDbCircle
 10
300.142595804503
 20
555.6300977392375
 30
0.0
 40
5.5
100
AcDbArc
 50
135.000055
 51
314.9999639999994
  0
ARC
  5
45E
330
18
100
AcDbEntity
  8
1
  6
Continuous
100
AcDbCircle
 10
300.1426148045029
 20
555.6300977392375
 30
0.0
 40
11.0
100
AcDbArc
 50
180.000036
 51
270.0000179999999
  0
LINE
  5
45F
330
18
100
AcDbEntity
  8
1
  6
Continuous
100
AcDbLine
 10
296.2535128045031
 20
559.5192087392375
 30
0.0
 11
298.7535158045028
 21
562.0192117392376
 31
0.0
  0
ARC
  5
460
330
18
100
AcDbEntity
  8
1
  6
Continuous
100
AcDbCircle
 10
302.642595804503
 20
558.1300977392372
 30
0.0
 40
5.5
100
AcDbArc
 50
314.9999950000005
 51
135.000055
  0
LINE
  5
462
330
18
100
AcDbEntity
  8
1
  6
Continuous
100
AcDbLine
 10
304.0316818045028
 20
551.7410397392374
 30
0.0
 11
306.5316848045029
 21
554.2410427392375
 31
0.0
  0
ARC
  5
466
330
18
100
AcDbEntity
  8
1
  6
Continuous
100
AcDbCircle
 10
380.142580804503
 20
555.6300977392375
 30
0.0
 40
11.0
100
AcDbArc
 50
270.0000179999999
 51
0.0
  0
LINE
  5
467
330
18
100
AcDbEntity
  8
4
  6
CENTER
100
AcDbLine
 10
340.1425958045028
 20
448.7265391679833
 30
0.0
 11
340.1425958045028
 21
372.7265311679833
 31
0.0
  0
ARC
  5
468
330
18
100
AcDbEntity
  8
1
  6
Continuous
100
AcDbCircle
 10
378.952036804503
 20
404.376521167983
 30
0.0
 40
6.0
100
AcDbArc
 50
91.52284099999993
 51
145.3649759999994
  0
LINE
  5
469
330
18
100
AcDbEntity
  8
1
  6
Continuous
100
AcDbLine
 10
375.0554928045028
 20
437.2265401679832
 30
0.0
 11
377.6426128045028
 21
433.226545167983
 31
0.0
  0
ARC
  5
46A
330
18
100
AcDbEntity
  8
1
  6
Continuous
100
AcDbCircle
 10
379.2925978045028
 20
422.3765191679832
 30
0.0
 40
3.0
100
AcDbArc
 50
179.999978
 51
228.4192709999999
  0
LINE
  5
46B
330
18
100
AcDbEntity
  8
1
  6
Continuous
100
AcDbLine
 10
378.7925978045028
 20
416.8162741679831
 30
0.0
 11
378.7925978045028
 21
410.3765181679832
 31
0.0
  0
ARC
  5
46C
330
18
100
AcDbEntity
  8
1
  6
Continuous
100
AcDbCircle
 10
374.359323804503
 20
416.816276167983
 30
0.0
 40
4.433264999999997
100
AcDbArc
 50
359.9999970000006
 51
48.41932000000038
  0
LINE
  5
46D
330
18
100
AcDbEntity
  8
1
  6
Continuous
100
AcDbLine
 10
377.6426178045028
 20
433.226518167983
 30
0.0
 11
375.6426178045028
 21
431.7265181679831
 31
0.0
  0
LINE
  5
46E
330
18
100
AcDbEntity
  8
1
  6
Continuous
100
AcDbLine
 10
377.6425988045031
 20
433.226532167983
 30
0.0
 11
375.6425988045031
 21
431.7265321679832
 31
0.0
  0
ARC
  5
46F
330
18
100
AcDbEntity
  8
1
  6
Continuous
100
AcDbCircle
 10
376.1425888045028
 20
429.7265231679831
 30
0.0
 40
1.0
100
AcDbArc
 50
269.9999629999997
 51
0.000000999999775
  0
LINE
  5
470
330
18
100
AcDbEntity
  8
1
  6
Continuous
100
AcDbLine
 10
376.2925978045028
 20
425.376519167983
 30
0.0
 11
376.2925978045028
 21
422.3765191679832
 31
0.0
  0
LINE
  5
471
330
18
100
AcDbEntity
  8
1
  6
Continuous
100
AcDbLine
 10
376.1426098045028
 20
429.726544167983
 30
0.0
 11
374.1426128045028
 21
431.7265411679833
 31
0.0
  0
ARC
  5
472
330
18
100
AcDbEntity
  8
1
  6
Continuous
100
AcDbCircle
 10
370.2925978045028
 20
425.3765211679832
 30
0.0
 40
6.0
100
AcDbArc
 50
359.9999970000006
 51
33.94059000000057
  0
ARC
  5
473
330
18
100
AcDbEntity
  8
1
  6
Continuous
100
AcDbCircle
 10
377.769579804503
 20
442.2249181679831
 30
0.0
 40
5.0
100
AcDbArc
 50
268.546021
 51
330.0213029999998
  0
LINE
  5
474
330
18
100
AcDbEntity
  8
1
  6
Continuous
100
AcDbLine
 10
300.1426148045029
 20
544.6300977392374
 30
0.0
 11
380.142580804503
 21
544.6300977392374
 31
0.0
  0
ARC
  5
475
330
18
100
AcDbEntity
  8
1
  6
Continuous
100
AcDbCircle
 10
377.6425958045028
 20
558.1300977392372
 30
0.0
 40
5.5
100
AcDbArc
 50
44.99996399999974
 51
225.0000370000005
  0
ARC
  5
476
330
18
100
AcDbEntity
  8
1
  6
Continuous
100
AcDbCircle
 10
380.1425958045029
 20
555.6300977392375
 30
0.0
 40
5.5
100
AcDbArc
 50
225.0000540000003
 51
44.99995000000022
  0
LINE
  5
47A
330
18
100
AcDbEntity
  8
1
  6
Continuous
100
AcDbLine
 10
376.2534978045028
 20
551.7410157392373
 30
0.0
 11
373.7534948045031
 21
554.2410187392375
 31
0.0
  0
LINE
  5
47C
330
18
100
AcDbEntity
  8
1
  6
Continuous
100
AcDbLine
 10
384.0316688045028
 20
559.5191717392375
 30
0.0
 11
381.5316668045028
 21
562.0191737392375
 31
0.0
  0
LINE
  5
47D
330
18
100
AcDbEntity
  8
1
  6
Continuous
100
AcDbLine
 10
391.1425958045029
 20
443.726524167983
 30
0.0
 11
391.1425958045029
 21
439.726524167983
 31
0.0
  0
CIRCLE
  5
47E
330
18
100
AcDbEntity
  8
1
  6
Continuous
100
AcDbCircle
 10
340.1425958045028
 20
595.6300977392376
 30
0.0
 40
18.0
  0
CIRCLE
  5
47F
330
18
100
AcDbEntity
  8
1
  6
Continuous
100
AcDbCircle
 10
340.1425958045028
 20
595.6300977392376
 30
0.0
 40
16.0
  0
ARC
  5
482
330
18
100
AcDbEntity
  8
1
  6
Continuous
100
AcDbCircle
 10
300.142595804503
 20
635.6300977392375
 30
0.0
 40
5.5
100
AcDbArc
 50
45.00000499999948
 51
224.9999279999999
  0
ARC
  5
483
330
18
100
AcDbEntity
  8
1
  6
Continuous
100
AcDbCircle
 10
300.1426148045029
 20
635.6300977392375
 30
0.0
 40
11.0
100
AcDbArc
 50
89.99998199999998
 51
179.9999639999999
  0
LINE
  5
484
330
18
100
AcDbEntity
  8
1
  6
Continuous
100
AcDbLine
 10
296.2534988045031
 20
631.7410137392377
 30
0.0
 11
298.753501804503
 21
629.2410117392376
 31
0.0
  0
ARC
  5
486
330
18
100
AcDbEntity
  8
1
  6
Continuous
100
AcDbCircle
 10
302.642595804503
 20
633.1300977392376
 30
0.0
 40
5.5
100
AcDbArc
 50
224.9999310000005
 51
45.00000499999948
  0
LINE
  5
488
330
18
100
AcDbEntity
  8
1
  6
Continuous
100
AcDbLine
 10
304.0316628045029
 20
639.5191557392377
 30
0.0
 11
306.531665804503
 21
637.0191537392376
 31
0.0
  0
ARC
  5
48C
330
18
100
AcDbEntity
  8
1
  6
Continuous
100
AcDbCircle
 10
380.142580804503
 20
635.6300977392375
 30
0.0
 40
11.0
100
AcDbArc
 50
0.00005500000065
 51
90.00003699999981
  0
LINE
  5
48D
330
18
100
AcDbEntity
  8
1
  6
Continuous
100
AcDbLine
 10
300.1426148045029
 20
646.6300977392376
 30
0.0
 11
380.142580804503
 21
646.6300977392376
 31
0.0
  0
ARC
  5
48E
330
18
100
AcDbEntity
  8
1
  6
Continuous
100
AcDbCircle
 10
377.6425958045028
 20
633.1300977392376
 30
0.0
 40
5.5
100
AcDbArc
 50
134.9999999999996
 51
315.0000740000001
  0
ARC
  5
48F
330
18
100
AcDbEntity
  8
1
  6
Continuous
100
AcDbCircle
 10
380.1425958045029
 20
635.6300977392375
 30
0.0
 40
5.5
100
AcDbArc
 50
315.0001050000003
 51
134.9999999999996
  0
LINE
  5
493
330
18
100
AcDbEntity
  8
1
  6
Continuous
100
AcDbLine
 10
376.2535218045028
 20
639.5191647392375
 30
0.0
 11
373.7535088045028
 21
637.0191507392376
 31
0.0
  0
LINE
  5
495
330
18
100
AcDbEntity
  8
1
  6
Continuous
100
AcDbLine
 10
384.031682804503
 20
631.7410037392376
 30
0.0
 11
381.5316698045031
 21
629.2409897392376
 31
0.0
  0
LINE
  5
14DE
330
18
100
AcDbEntity
  8
4
  6
CENTER
100
AcDbLine
 10
219.1425958045029
 20
328.7265391679831
 30
0.0
 11
379.142595804503
 21
328.7265391679831
 31
0.0
  0
ARC
  5
14E0
330
18
100
AcDbEntity
  8
1
  6
Continuous
100
AcDbCircle
 10
299.1425958045029
 20
328.7265391679831
 30
0.0
 40
75.0
100
AcDbArc
 50
95.34674332894264
 51
42.52205975416052
  0
ARC
  5
14E1
330
18
100
AcDbEntity
  8
1
  6
Continuous
100
AcDbCircle
 10
306.7608248045028
 20
328.3834981679831
 30
0.0
 40
45.0
100
AcDbArc
 50
41.84763799999893
 51
42.25395126657913
  0
ARC
  5
14E2
330
18
100
AcDbEntity
  8
1
  6
Continuous
100
AcDbCircle
 10
326.2534788045028
 20
335.7265391679831
 30
0.0
 40
5.0
100
AcDbArc
 50
216.0085868094359
 51
270.0
  0
ARC
  5
14E3
330
18
100
AcDbEntity
  8
1
  6
Continuous
100
AcDbCircle
 10
338.4051458045028
 20
339.7265391679831
 30
0.0
 40
9.0
100
AcDbArc
 50
270.0
 51
6.749283000000888
  0
LINE
  5
14E5
330
18
100
AcDbEntity
  8
1
  6
Continuous
100
AcDbLine
 10
326.2534788045028
 20
330.7265391679831
 30
0.0
 11
338.4051458045028
 21
330.7265391679831
 31
0.0
  0
ARC
  5
14E6
330
18
100
AcDbEntity
  8
1
  6
Continuous
100
AcDbCircle
 10
321.6592558045029
 20
341.7265391679833
 30
0.0
 40
25.0
100
AcDbArc
 50
18.15236199999917
 51
41.84763799999893
  0
ARC
  5
14E7
330
18
100
AcDbEntity
  8
1
  6
Continuous
100
AcDbCircle
 10
302.6546278045028
 20
335.4956401679833
 30
0.0
 40
45.0
100
AcDbArc
 50
6.749283000000888
 51
18.15236199999917
  0
ARC
  5
14E8
330
18
100
AcDbEntity
  8
1
  6
Continuous
100
AcDbCircle
 10
326.2534788045028
 20
321.7265391679831
 30
0.0
 40
5.0
100
AcDbArc
 50
90.0
 51
165.5224879999986
  0
LINE
  5
14E9
330
18
100
AcDbEntity
  8
1
  6
Continuous
100
AcDbLine
 10
326.2534788045028
 20
326.7265391679831
 30
0.0
 11
338.4051458045028
 21
326.7265391679831
 31
0.0
  0
ARC
  5
14EA
330
18
100
AcDbEntity
  8
1
  6
Continuous
100
AcDbCircle
 10
338.4051458045028
 20
317.7265391679831
 30
0.0
 40
9.0
100
AcDbArc
 50
353.2507169999992
 51
90.0
  0
ARC
  5
14EB
330
18
100
AcDbEntity
  8
1
  6
Continuous
100
AcDbCircle
 10
302.6546278045028
 20
321.9574381679833
 30
0.0
 40
45.0
100
AcDbArc
 50
341.8476380000008
 51
353.2507169999992
  0
ARC
  5
14EC
330
18
100
AcDbEntity
  8
1
  6
Continuous
100
AcDbCircle
 10
318.7602158045028
 20
308.7478251679832
 30
0.0
 40
5.0
100
AcDbArc
 50
134.4775120000003
 51
209.9999999999999
  0
ARC
  5
14ED
330
18
100
AcDbEntity
  8
1
  6
Continuous
100
AcDbCircle
 10
328.3001498045028
 20
300.2241741679831
 30
0.0
 40
9.0
100
AcDbArc
 50
209.9999999999999
 51
306.7492829999999
  0
ARC
  5
14EF
330
18
100
AcDbEntity
  8
1
  6
Continuous
100
AcDbCircle
 10
299.1425958045029
 20
328.7265391679831
 30
0.0
 40
23.0
100
AcDbArc
 50
314.4775120000003
 51
345.5224879999986
  0
LINE
  5
14F0
330
18
100
AcDbEntity
  8
1
  6
Continuous
100
AcDbLine
 10
314.4300878045029
 20
306.2478251679832
 30
0.0
 11
320.5059218045028
 21
295.7241741679831
 31
0.0
  0
ARC
  5
14F1
330
18
100
AcDbEntity
  8
1
  6
Continuous
100
AcDbCircle
 10
321.6592558045029
 20
315.7265391679831
 30
0.0
 40
25.0
100
AcDbArc
 50
318.152362000001
 51
341.8476380000008
  0
ARC
  5
14F2
330
18
100
AcDbEntity
  8
1
  6
Continuous
100
AcDbCircle
 10
306.7608248045028
 20
329.0695801679833
 30
0.0
 40
45.0
100
AcDbArc
 50
306.7492829999999
 51
318.152362000001
  0
ARC
  5
14F3
330
18
100
AcDbEntity
  8
1
  6
Continuous
100
AcDbCircle
 10
306.6358598045028
 20
301.7478251679832
 30
0.0
 40
5.0
100
AcDbArc
 50
29.99999999999993
 51
105.5224879999999
  0
LINE
  5
14F4
330
18
100
AcDbEntity
  8
1
  6
Continuous
100
AcDbLine
 10
310.9659868045028
 20
304.2478251679832
 30
0.0
 11
317.041819804503
 21
293.7241741679831
 31
0.0
  0
ARC
  5
14F5
330
18
100
AcDbEntity
  8
1
  6
Continuous
100
AcDbCircle
 10
309.2475908045028
 20
289.2241741679831
 30
0.0
 40
9.0
100
AcDbArc
 50
293.2507169999995
 51
29.99999999999993
  0
ARC
  5
14F6
330
18
100
AcDbEntity
  8
1
  6
Continuous
100
AcDbCircle
 10
295.0363988045028
 20
322.3004791679831
 30
0.0
 40
45.0
100
AcDbArc
 50
281.8476379999994
 51
293.2507169999995
  0
ARC
  5
14F7
330
18
100
AcDbEntity
  8
1
  6
Continuous
100
AcDbCircle
 10
291.6493318045029
 20
301.7478251679832
 30
0.0
 40
5.0
100
AcDbArc
 50
74.47751200000009
 51
150.0
  0
ARC
  5
14F8
330
18
100
AcDbEntity
  8
1
  6
Continuous
100
AcDbCircle
 10
289.0376008045029
 20
289.2241741679831
 30
0.0
 40
9.0
100
AcDbArc
 50
150.0
 51
246.7492830000004
  0
ARC
  5
14F9
330
18
100
AcDbEntity
  8
1
  6
Continuous
100
AcDbCircle
 10
299.1425958045029
 20
328.7265391679831
 30
0.0
 40
23.0
100
AcDbArc
 50
254.477512
 51
285.5224879999998
  0
LINE
  5
14FA
330
18
100
AcDbEntity
  8
1
  6
Continuous
100
AcDbLine
 10
287.319204804503
 20
304.2478251679832
 30
0.0
 11
281.243371804503
 21
293.7241741679831
 31
0.0
  0
ARC
  5
14FB
330
18
100
AcDbEntity
  8
1
  6
Continuous
100
AcDbCircle
 10
299.1425958045029
 20
302.7265391679831
 30
0.0
 40
25.0
100
AcDbArc
 50
258.152362
 51
281.8476379999994
  0
ARC
  5
14FC
330
18
100
AcDbEntity
  8
1
  6
Continuous
100
AcDbCircle
 10
303.2487928045028
 20
322.3004791679831
 30
0.0
 40
45.0
100
AcDbArc
 50
246.7492830000004
 51
258.152362
  0
ARC
  5
14FD
330
18
100
AcDbEntity
  8
1
  6
Continuous
100
AcDbCircle
 10
279.5249758045029
 20
308.7478251679832
 30
0.0
 40
5.0
100
AcDbArc
 50
330.0
 51
45.52248799999968
  0
LINE
  5
14FE
330
18
100
AcDbEntity
  8
1
  6
Continuous
100
AcDbLine
 10
283.8551038045029
 20
306.2478251679832
 30
0.0
 11
277.7792698045029
 21
295.7241741679831
 31
0.0
  0
ARC
  5
14FF
330
18
100
AcDbEntity
  8
1
  6
Continuous
100
AcDbCircle
 10
269.985041804503
 20
300.2241741679831
 30
0.0
 40
9.0
100
AcDbArc
 50
233.2507169999999
 51
330.0
  0
ARC
  5
1500
330
18
100
AcDbEntity
  8
1
  6
Continuous
100
AcDbCircle
 10
291.5243668045028
 20
329.0695801679833
 30
0.0
 40
45.0
100
AcDbArc
 50
221.8476379999989
 51
233.2507169999999
  0
ARC
  5
1501
330
18
100
AcDbEntity
  8
1
  6
Continuous
100
AcDbCircle
 10
272.0317128045028
 20
321.7265391679831
 30
0.0
 40
5.0
100
AcDbArc
 50
14.47751200000133
 51
90.0
  0
ARC
  5
1502
330
18
100
AcDbEntity
  8
1
  6
Continuous
100
AcDbCircle
 10
259.8800458045029
 20
317.7265391679831
 30
0.0
 40
9.0
100
AcDbArc
 50
90.0
 51
186.7492830000009
  0
ARC
  5
1504
330
18
100
AcDbEntity
  8
1
  6
Continuous
100
AcDbCircle
 10
299.1425958045029
 20
328.7265391679831
 30
0.0
 40
23.0
100
AcDbArc
 50
194.4775120000013
 51
225.5224879999996
  0
LINE
  5
1505
330
18
100
AcDbEntity
  8
1
  6
Continuous
100
AcDbLine
 10
272.0317128045028
 20
326.7265391679831
 30
0.0
 11
259.8800458045029
 21
326.7265391679831
 31
0.0
  0
ARC
  5
1506
330
18
100
AcDbEntity
  8
1
  6
Continuous
100
AcDbCircle
 10
276.6259348045029
 20
315.7265391679831
 30
0.0
 40
25.0
100
AcDbArc
 50
198.152361999999
 51
221.8476379999989
  0
ARC
  5
1507
330
18
100
AcDbEntity
  8
1
  6
Continuous
100
AcDbCircle
 10
295.6305638045029
 20
321.9574381679833
 30
0.0
 40
45.0
100
AcDbArc
 50
186.7492830000009
 51
198.152361999999
  0
ARC
  5
1509
330
18
100
AcDbEntity
  8
1
  6
Continuous
100
AcDbCircle
 10
259.8800458045029
 20
339.7265391679831
 30
0.0
 40
9.0
100
AcDbArc
 50
173.250716999999
 51
270.0
  0
LINE
  5
150A
330
18
100
AcDbEntity
  8
1
  6
Continuous
100
AcDbLine
 10
272.0317128045028
 20
330.7265391679831
 30
0.0
 11
259.8800458045029
 21
330.7265391679831
 31
0.0
  0
ARC
  5
150B
330
18
100
AcDbEntity
  8
1
  6
Continuous
100
AcDbCircle
 10
272.0317128045028
 20
335.7265391679831
 30
0.0
 40
5.0
100
AcDbArc
 50
270.0
 51
345.5224879999986
  0
ARC
  5
150C
330
18
100
AcDbEntity
  8
1
  6
Continuous
100
AcDbCircle
 10
299.1425958045029
 20
328.7265391679831
 30
0.0
 40
23.0
100
AcDbArc
 50
134.4775120000003
 51
165.5224879999986
  0
LINE
  5
150D
330
18
100
AcDbEntity
  8
1
  6
Continuous
100
AcDbLine
 10
283.8551033343307
 20
351.2052539823453
 30
0.0
 11
277.7792698045029
 21
361.7289041679831
 31
0.0
  0
ARC
  5
150E
330
18
100
AcDbEntity
  8
1
  6
Continuous
100
AcDbCircle
 10
269.985041804503
 20
357.2289041679831
 30
0.0
 40
9.0
100
AcDbArc
 50
29.99999999999993
 51
126.7492829999999
  0
ARC
  5
150F
330
18
100
AcDbEntity
  8
1
  6
Continuous
100
AcDbCircle
 10
276.6259358045028
 20
341.7265391679833
 30
0.0
 40
25.0
100
AcDbArc
 50
138.152362000001
 51
161.8476380000008
  0
ARC
  5
1510
330
18
100
AcDbEntity
  8
1
  6
Continuous
100
AcDbCircle
 10
291.5243668045028
 20
328.3834981679831
 30
0.0
 40
45.0
100
AcDbArc
 50
126.7492829999999
 51
138.152362000001
  0
ARC
  5
1511
330
18
100
AcDbEntity
  8
1
  6
Continuous
100
AcDbCircle
 10
295.6305638045029
 20
335.4956401679833
 30
0.0
 40
45.0
100
AcDbArc
 50
161.8476380000008
 51
173.250716999999
  0
ARC
  5
1512
330
18
100
AcDbEntity
  8
1
  6
Continuous
100
AcDbCircle
 10
303.2487928045028
 20
335.1525991679833
 30
0.0
 40
45.0
100
AcDbArc
 50
109.121644716353
 51
113.2507169999994
  0
LINE
  5
1513
330
18
100
AcDbEntity
  8
1
  6
Continuous
100
AcDbLine
 10
285.4902388933727
 20
356.3731149146164
 30
0.0
 11
281.2433718045028
 21
363.7289041679833
 31
0.0
  0
ARC
  5
1514
330
18
100
AcDbEntity
  8
1
  6
Continuous
100
AcDbCircle
 10
289.0376008045029
 20
368.2289041679831
 30
0.0
 40
9.0
100
AcDbArc
 50
113.2507169999994
 51
209.9999999999999
  0
ARC
  5
1515
330
18
100
AcDbEntity
  8
1
  6
Continuous
100
AcDbCircle
 10
299.1425958045029
 20
328.7265391679831
 30
0.0
 40
57.0
100
AcDbArc
 50
99.70482259131593
 51
38.35896192835235
  0
ARC
  5
1516
330
18
100
AcDbEntity
  8
1
  6
Continuous
100
AcDbCircle
 10
299.1425958045029
 20
328.7265391679831
 30
0.0
 40
20.75
100
AcDbArc
 50
140.3031365464819
 51
1.907360873820154
  0
ARC
  5
1517
330
18
100
AcDbEntity
  8
1
  6
Continuous
100
AcDbCircle
 10
299.1425958045029
 20
328.7265391679831
 30
0.0
 40
17.0
100
AcDbArc
 50
269.3259147700387
 51
336.6573496678717
  0
ARC
  5
1518
330
18
100
AcDbEntity
  8
1
  6
Continuous
100
AcDbCircle
 10
279.5249758045029
 20
348.7052531679831
 30
0.0
 40
5.0
100
AcDbArc
 50
314.4775120000003
 51
336.9731826330526
  0
ARC
  5
1519
330
18
100
AcDbEntity
  8
1
  6
Continuous
100
AcDbCircle
 10
279.5249758045029
 20
348.7052531679831
 30
0.0
 40
5.0
100
AcDbArc
 50
6.8968197735827
 51
29.99999999999993
  0
ARC
  5
151A
330
18
100
AcDbEntity
  8
1
  6
Continuous
100
AcDbCircle
 10
101.3218340491353
 20
320.2265311679833
 30
0.0
 40
0.5
100
AcDbArc
 50
270.0
 51
0.0
  0
ARC
  5
151B
330
18
100
AcDbEntity
  8
1
  6
Continuous
100
AcDbCircle
 10
47.32183404913528
 20
320.2265311679833
 30
0.0
 40
0.5
100
AcDbArc
 50
180.0
 51
270.0
  0
LINE
  5
151C
330
18
100
AcDbEntity
  8
1
  6
Continuous
100
AcDbLine
 10
57.4376510491353
 20
270.3016661679833
 30
0.0
 11
59.36958304913528
 21
257.9105891679831
 31
0.0
  0
ARC
  5
151D
330
18
100
AcDbEntity
  8
1
  6
Continuous
100
AcDbCircle
 10
63.32183404913529
 20
258.5267971679833
 30
0.0
 40
4.0
100
AcDbArc
 50
188.8618200000009
 51
261.6779590000001
  0
ARC
  5
151E
330
18
100
AcDbEntity
  8
1
  6
Continuous
100
AcDbCircle
 10
74.32183404913529
 20
333.7265311679832
 30
0.0
 40
80.0
100
AcDbArc
 50
261.6779590000001
 51
278.3220409999997
  0
ARC
  5
151F
330
18
100
AcDbEntity
  8
1
  6
Continuous
100
AcDbCircle
 10
85.3218340491353
 20
258.5267971679833
 30
0.0
 40
4.0
100
AcDbArc
 50
278.3220409999997
 51
351.1381799999992
  0
LINE
  5
1520
330
18
100
AcDbEntity
  8
1
  6
Continuous
100
AcDbLine
 10
91.2060170491353
 20
270.3016661679833
 30
0.0
 11
89.27408504913531
 21
257.9105891679831
 31
0.0
  0
ARC
  5
1521
330
18
100
AcDbEntity
  8
1
  6
Continuous
100
AcDbCircle
 10
92.68056804913531
 20
270.0265301679833
 30
0.0
 40
1.5
100
AcDbArc
 50
90.0
 51
172.845611
  0
LINE
  5
1522
330
18
100
AcDbEntity
  8
1
  6
Continuous
100
AcDbLine
 10
93.32183404913529
 20
271.5265301679833
 30
0.0
 11
92.68056804913529
 21
271.5265301679833
 31
0.0
  0
LINE
  5
1523
330
18
100
AcDbEntity
  8
1
  6
Continuous
100
AcDbLine
 10
55.32183404913531
 20
271.5265301679833
 30
0.0
 11
55.96310004913532
 21
271.5265301679833
 31
0.0
  0
ARC
  5
1524
330
18
100
AcDbEntity
  8
1
  6
Continuous
100
AcDbCircle
 10
55.96310004913529
 20
270.0265301679833
 30
0.0
 40
1.5
100
AcDbArc
 50
7.154388999999899
 51
90.0
  0
LINE
  5
1525
330
18
100
AcDbEntity
  8
1
  6
Continuous
100
AcDbLine
 10
101.3218340491353
 20
319.7265311679831
 30
0.0
 11
95.8218340491353
 21
319.7265311679831
 31
0.0
  0
LINE
  5
1526
330
18
100
AcDbEntity
  8
1
  6
Continuous
100
AcDbLine
 10
47.32183404913528
 20
319.7265311679831
 30
0.0
 11
52.82183404913528
 21
319.7265311679831
 31
0.0
  0
ARC
  5
152D
330
18
100
AcDbEntity
  8
1
  6
Continuous
100
AcDbCircle
 10
93.82183404913531
 20
307.4765311679831
 30
0.0
 40
0.5
100
AcDbArc
 50
90.0
 51
180.0
  0
ARC
  5
152E
330
18
100
AcDbEntity
  8
1
  6
Continuous
100
AcDbCircle
 10
94.3218340491353
 20
309.4765311679831
 30
0.0
 40
1.5
100
AcDbArc
 50
270.0
 51
0.0
  0
LINE
  5
152F
330
18
100
AcDbEntity
  8
1
  6
Continuous
100
AcDbLine
 10
93.82183404913531
 20
307.9765311679831
 30
0.0
 11
94.3218340491353
 21
307.9765311679831
 31
0.0
  0
LINE
  5
1532
330
18
100
AcDbEntity
  8
1
  6
Continuous
100
AcDbLine
 10
54.82183404913531
 20
307.9765311679831
 30
0.0
 11
54.32183404913528
 21
307.9765311679831
 31
0.0
  0
ARC
  5
1533
330
18
100
AcDbEntity
  8
1
  6
Continuous
100
AcDbCircle
 10
54.32183404913528
 20
309.4765311679831
 30
0.0
 40
1.5
100
AcDbArc
 50
180.0
 51
270.0
  0
ARC
  5
1534
330
18
100
AcDbEntity
  8
1
  6
Continuous
100
AcDbCircle
 10
54.82183404913531
 20
307.4765311679831
 30
0.0
 40
0.5
100
AcDbArc
 50
0.0
 51
90.0
  0
ARC
  5
1537
330
18
100
AcDbEntity
  8
1
  6
Continuous
100
AcDbCircle
 10
101.3218340491353
 20
337.2265311679833
 30
0.0
 40
0.5
100
AcDbArc
 50
0.0
 51
90.0
  0
ARC
  5
1538
330
18
100
AcDbEntity
  8
1
  6
Continuous
100
AcDbCircle
 10
47.32183404913528
 20
337.2265311679833
 30
0.0
 40
0.5
100
AcDbArc
 50
90.0
 51
180.0
  0
LINE
  5
1539
330
18
100
AcDbEntity
  8
1
  6
Continuous
100
AcDbLine
 10
57.4376510491353
 20
387.1513961679833
 30
0.0
 11
59.36958304913528
 21
399.5424731679833
 31
0.0
  0
ARC
  5
153A
330
18
100
AcDbEntity
  8
1
  6
Continuous
100
AcDbCircle
 10
63.32183404913529
 20
398.9262651679833
 30
0.0
 40
4.0
100
AcDbArc
 50
98.32204099999993
 51
171.138179999999
  0
ARC
  5
153B
330
18
100
AcDbEntity
  8
1
  6
Continuous
100
AcDbCircle
 10
74.32183404913529
 20
323.7265311679832
 30
0.0
 40
80.0
100
AcDbArc
 50
81.67795900000006
 51
98.32204099999993
  0
ARC
  5
153C
330
18
100
AcDbEntity
  8
1
  6
Continuous
100
AcDbCircle
 10
85.3218340491353
 20
398.9262651679833
 30
0.0
 40
4.0
100
AcDbArc
 50
8.861820000000907
 51
81.67795900000006
  0
LINE
  5
153D
330
18
100
AcDbEntity
  8
1
  6
Continuous
100
AcDbLine
 10
91.2060170491353
 20
387.1513961679833
 30
0.0
 11
89.27408504913531
 21
399.5424731679833
 31
0.0
  0
ARC
  5
153E
330
18
100
AcDbEntity
  8
1
  6
Continuous
100
AcDbCircle
 10
92.68056804913531
 20
387.4265321679832
 30
0.0
 40
1.5
100
AcDbArc
 50
187.1543889999999
 51
270.0
  0
LINE
  5
153F
330
18
100
AcDbEntity
  8
1
  6
Continuous
100
AcDbLine
 10
93.32183404913529
 20
385.9265321679833
 30
0.0
 11
92.68056804913529
 21
385.9265321679833
 31
0.0
  0
LINE
  5
1540
330
18
100
AcDbEntity
  8
1
  6
Continuous
100
AcDbLine
 10
55.32183404913531
 20
385.9265321679833
 30
0.0
 11
55.96310004913532
 21
385.9265321679833
 31
0.0
  0
ARC
  5
1541
330
18
100
AcDbEntity
  8
1
  6
Continuous
100
AcDbCircle
 10
55.96310004913529
 20
387.4265321679832
 30
0.0
 40
1.5
100
AcDbArc
 50
270.0
 51
352.8456110000001
  0
LINE
  5
1542
330
18
100
AcDbEntity
  8
1
  6
Continuous
100
AcDbLine
 10
101.3218340491353
 20
337.7265311679833
 30
0.0
 11
95.8218340491353
 21
337.7265311679833
 31
0.0
  0
LINE
  5
1543
330
18
100
AcDbEntity
  8
1
  6
Continuous
100
AcDbLine
 10
47.32183404913528
 20
337.7265311679833
 30
0.0
 11
52.82183404913528
 21
337.7265311679833
 31
0.0
  0
LINE
  5
1544
330
18
100
AcDbEntity
  8
1
  6
Continuous
100
AcDbLine
 10
57.46310004913532
 20
385.9265321679831
 30
0.0
 11
57.46310004913532
 21
271.5265301679833
 31
0.0
  0
LINE
  5
1545
330
18
100
AcDbEntity
  8
1
  6
Continuous
100
AcDbLine
 10
91.1805680491353
 20
385.9265321679831
 30
0.0
 11
91.1805680491353
 21
271.5265301679833
 31
0.0
  0
LINE
  5
1546
330
18
100
AcDbEntity
  8
1
  6
Continuous
100
AcDbLine
 10
95.8218340491353
 20
309.4765311679831
 30
0.0
 11
95.8218340491353
 21
347.9765311679833
 31
0.0
  0
LINE
  5
1547
330
18
100
AcDbEntity
  8
1
  6
Continuous
100
AcDbLine
 10
101.8218340491352
 20
320.2265311679833
 30
0.0
 11
101.8218340491352
 21
337.2265311679833
 31
0.0
  0
LINE
  5
1548
330
18
100
AcDbEntity
  8
1
  6
Continuous
100
AcDbLine
 10
52.82183404913531
 20
309.4765311679831
 30
0.0
 11
52.82183404913528
 21
347.9765311679833
 31
0.0
  0
LINE
  5
1549
330
18
100
AcDbEntity
  8
1
  6
Continuous
100
AcDbLine
 10
46.82183404913528
 20
320.2265311679833
 30
0.0
 11
46.82183404913528
 21
337.2265311679833
 31
0.0
  0
ARC
  5
154A
330
18
100
AcDbEntity
  8
1
  6
Continuous
100
AcDbCircle
 10
93.82183404913531
 20
349.9765311679833
 30
0.0
 40
0.5
100
AcDbArc
 50
180.0
 51
270.0
  0
ARC
  5
154B
330
18
100
AcDbEntity
  8
1
  6
Continuous
100
AcDbCircle
 10
94.3218340491353
 20
347.9765311679833
 30
0.0
 40
1.5
100
AcDbArc
 50
0.0
 51
90.0
  0
LINE
  5
154C
330
18
100
AcDbEntity
  8
1
  6
Continuous
100
AcDbLine
 10
93.82183404913531
 20
349.4765311679833
 30
0.0
 11
94.3218340491353
 21
349.4765311679833
 31
0.0
  0
LINE
  5
154D
330
18
100
AcDbEntity
  8
1
  6
Continuous
100
AcDbLine
 10
93.3218340491353
 20
385.9265321679831
 30
0.0
 11
93.3218340491353
 21
271.5265301679833
 31
0.0
  0
LINE
  5
154E
330
18
100
AcDbEntity
  8
1
  6
Continuous
100
AcDbLine
 10
55.32183404913528
 20
385.9265321679831
 30
0.0
 11
55.32183404913528
 21
271.5265301679833
 31
0.0
  0
LINE
  5
154F
330
18
100
AcDbEntity
  8
1
  6
Continuous
100
AcDbLine
 10
54.82183404913531
 20
349.4765311679833
 30
0.0
 11
54.32183404913528
 21
349.4765311679833
 31
0.0
  0
ARC
  5
1550
330
18
100
AcDbEntity
  8
1
  6
Continuous
100
AcDbCircle
 10
54.32183404913528
 20
347.9765311679833
 30
0.0
 40
1.5
100
AcDbArc
 50
90.0
 51
180.0
  0
ARC
  5
1551
330
18
100
AcDbEntity
  8
1
  6
Continuous
100
AcDbCircle
 10
54.82183404913531
 20
349.9765311679833
 30
0.0
 40
0.5
100
AcDbArc
 50
270.0
 51
0.0
  0
LINE
  5
1552
330
18
100
AcDbEntity
  8
4
  6
CENTER
100
AcDbLine
 10
74.32183404913529
 20
248.7265311679832
 30
0.0
 11
74.32183404913529
 21
448.7265161679832
 31
0.0
  0
LINE
  5
1554
330
18
100
AcDbEntity
  8
1
  6
Continuous
100
AcDbLine
 10
240.7177308045029
 20
578.7459147392373
 30
0.0
 11
228.326653804503
 21
580.6778467392375
 31
0.0
  0
ARC
  5
1555
330
18
100
AcDbEntity
  8
1
  6
Continuous
100
AcDbCircle
 10
228.9428618045028
 20
584.6300977392371
 30
0.0
 40
4.0
100
AcDbArc
 50
188.3220409999983
 51
261.1381799999995
  0
ARC
  5
1556
330
18
100
AcDbEntity
  8
1
  6
Continuous
100
AcDbCircle
 10
304.142595804503
 20
595.6300977392372
 30
0.0
 40
80.0
100
AcDbArc
 50
171.6779590000014
 51
188.3220409999983
  0
ARC
  5
1557
330
18
100
AcDbEntity
  8
1
  6
Continuous
100
AcDbCircle
 10
228.9428618045028
 20
606.6300977392374
 30
0.0
 40
4.0
100
AcDbArc
 50
98.86182000000031
 51
171.6779590000014
  0
LINE
  5
1558
330
18
100
AcDbEntity
  8
1
  6
Continuous
100
AcDbLine
 10
240.7177308045028
 20
612.5142807392375
 30
0.0
 11
228.3266538045029
 21
610.5823487392371
 31
0.0
  0
ARC
  5
1559
330
18
100
AcDbEntity
  8
1
  6
Continuous
100
AcDbCircle
 10
240.4425948045028
 20
613.9888317392374
 30
0.0
 40
1.5
100
AcDbArc
 50
277.1543889999998
 51
0.0
  0
LINE
  5
155A
330
18
100
AcDbEntity
  8
1
  6
Continuous
100
AcDbLine
 10
241.9425948045029
 20
614.6300977392374
 30
0.0
 11
241.9425948045029
 21
613.9888317392374
 31
0.0
  0
LINE
  5
155B
330
18
100
AcDbEntity
  8
1
  6
Continuous
100
AcDbLine
 10
241.9425948045029
 20
576.6300977392374
 30
0.0
 11
241.9425948045029
 21
577.2713637392372
 31
0.0
  0
ARC
  5
155C
330
18
100
AcDbEntity
  8
1
  6
Continuous
100
AcDbCircle
 10
240.4425948045028
 20
577.2713637392372
 30
0.0
 40
1.5
100
AcDbArc
 50
0.0
 51
82.8456110000001
  0
LINE
  5
155D
330
18
100
AcDbEntity
  8
1
  6
Continuous
100
AcDbLine
 10
241.9425948045029
 20
578.7713637392372
 30
0.0
 11
289.1426148045028
 21
578.7713637392372
 31
0.0
  0
LINE
  5
155E
330
18
100
AcDbEntity
  8
1
  6
Continuous
100
AcDbLine
 10
241.9425948045029
 20
612.4888317392374
 30
0.0
 11
289.1426148045028
 21
612.4888317392374
 31
0.0
  0
LINE
  5
155F
330
18
100
AcDbEntity
  8
1
  6
Continuous
100
AcDbLine
 10
289.1426148045028
 20
617.1300977392375
 30
0.0
 11
279.892595804503
 21
617.1300977392375
 31
0.0
  0
LINE
  5
1560
330
18
100
AcDbEntity
  8
1
  6
Continuous
100
AcDbLine
 10
289.1426148045028
 20
574.1300977392371
 30
0.0
 11
279.892595804503
 21
574.1300977392371
 31
0.0
  0
ARC
  5
1561
330
18
100
AcDbEntity
  8
1
  6
Continuous
100
AcDbCircle
 10
277.892595804503
 20
615.1300977392375
 30
0.0
 40
0.5
100
AcDbArc
 50
270.0
 51
0.0
  0
ARC
  5
1562
330
18
100
AcDbEntity
  8
1
  6
Continuous
100
AcDbCircle
 10
279.892595804503
 20
615.6300977392374
 30
0.0
 40
1.5
100
AcDbArc
 50
90.0
 51
180.0
  0
LINE
  5
1563
330
18
100
AcDbEntity
  8
1
  6
Continuous
100
AcDbLine
 10
278.3925958045029
 20
615.1300977392375
 30
0.0
 11
278.3925958045029
 21
615.6300977392374
 31
0.0
  0
LINE
  5
1564
330
18
100
AcDbEntity
  8
1
  6
Continuous
100
AcDbLine
 10
241.9425948045029
 20
614.6300977392374
 30
0.0
 11
289.1426148045028
 21
614.6300977392375
 31
0.0
  0
LINE
  5
1565
330
18
100
AcDbEntity
  8
1
  6
Continuous
100
AcDbLine
 10
241.9425948045029
 20
576.6300977392374
 30
0.0
 11
289.1426148045028
 21
576.6300977392375
 31
0.0
  0
LINE
  5
1566
330
18
100
AcDbEntity
  8
1
  6
Continuous
100
AcDbLine
 10
278.3925958045029
 20
576.1300977392375
 30
0.0
 11
278.3925958045029
 21
575.6300977392375
 31
0.0
  0
ARC
  5
1567
330
18
100
AcDbEntity
  8
1
  6
Continuous
100
AcDbCircle
 10
279.892595804503
 20
575.6300977392375
 30
0.0
 40
1.5
100
AcDbArc
 50
180.0
 51
270.0
  0
ARC
  5
1568
330
18
100
AcDbEntity
  8
1
  6
Continuous
100
AcDbCircle
 10
277.892595804503
 20
576.1300977392375
 30
0.0
 40
0.5
100
AcDbArc
 50
0.0
 51
90.0
  0
LINE
  5
1569
330
18
100
AcDbEntity
  8
4
  6
CENTER
100
AcDbLine
 10
396.1425808045031
 20
595.6300977392377
 30
0.0
 11
219.1425958045029
 21
595.6300977392372
 31
0.0
  0
LINE
  5
156C
330
18
100
AcDbEntity
  8
4
  6
CENTER
100
AcDbLine
 10
299.1425958045028
 20
649.5845471548695
 30
0.0
 11
299.142595804503
 21
541.6756483236055
 31
0.0
  0
LINE
  5
1572
330
18
100
AcDbEntity
  8
4
  6
CENTER
 48
0.2
100
AcDbLine
 10
372.6425958045027
 20
635.6300977392375
 30
0.0
 11
387.6425958045027
 21
635.6300977392375
 31
0.0
  0
LINE
  5
1573
330
18
100
AcDbEntity
  8
4
  6
CENTER
 48
0.2
100
AcDbLine
 10
380.1425958045029
 20
643.1300977392376
 30
0.0
 11
380.1425958045029
 21
628.1300977392376
 31
0.0
  0
LINE
  5
1574
330
18
100
AcDbEntity
  8
4
  6
CENTER
 48
0.2
100
AcDbLine
 10
377.6425958045028
 20
640.6300977392376
 30
0.0
 11
377.6425958045028
 21
625.6300977392376
 31
0.0
  0
LINE
  5
1575
330
18
100
AcDbEntity
  8
4
  6
CENTER
 48
0.2
100
AcDbLine
 10
370.1425958045029
 20
633.1300977392376
 30
0.0
 11
385.1425958045028
 21
633.1300977392376
 31
0.0
  0
LINE
  5
1576
330
18
100
AcDbEntity
  8
4
  6
CENTER
 48
0.2
100
AcDbLine
 10
302.6425958045028
 20
640.6300977392376
 30
0.0
 11
302.6425958045028
 21
625.6300977392376
 31
0.0
  0
LINE
  5
1577
330
18
100
AcDbEntity
  8
4
  6
CENTER
 48
0.2
100
AcDbLine
 10
300.142595804503
 20
643.1300977392376
 30
0.0
 11
300.142595804503
 21
628.1300977392376
 31
0.0
  0
LINE
  5
1578
330
18
100
AcDbEntity
  8
4
  6
CENTER
 48
0.2
100
AcDbLine
 10
310.1425958045028
 20
633.1300977392376
 30
0.0
 11
295.1425958045028
 21
633.1300977392376
 31
0.0
  0
LINE
  5
1579
330
18
100
AcDbEntity
  8
4
  6
CENTER
 48
0.2
100
AcDbLine
 10
307.6425958045029
 20
635.6300977392375
 30
0.0
 11
292.642595804503
 21
635.6300977392375
 31
0.0
  0
LINE
  5
157A
330
18
100
AcDbEntity
  8
4
  6
CENTER
 48
0.2
100
AcDbLine
 10
377.6425958045028
 20
550.6300977392376
 30
0.0
 11
377.6425958045028
 21
565.6300977392374
 31
0.0
  0
LINE
  5
157B
330
18
100
AcDbEntity
  8
4
  6
CENTER
 48
0.2
100
AcDbLine
 10
380.1425958045029
 20
548.1300977392375
 30
0.0
 11
380.1425958045029
 21
563.1300977392376
 31
0.0
  0
LINE
  5
157C
330
18
100
AcDbEntity
  8
4
  6
CENTER
 48
0.2
100
AcDbLine
 10
370.1425958045029
 20
558.1300977392376
 30
0.0
 11
385.1425958045028
 21
558.1300977392376
 31
0.0
  0
LINE
  5
157D
330
18
100
AcDbEntity
  8
4
  6
CENTER
 48
0.2
100
AcDbLine
 10
372.6425958045027
 20
555.6300977392376
 30
0.0
 11
387.6425958045027
 21
555.6300977392376
 31
0.0
  0
LINE
  5
157E
330
18
100
AcDbEntity
  8
4
  6
CENTER
 48
0.2
100
AcDbLine
 10
307.6425958045029
 20
555.6300977392376
 30
0.0
 11
292.642595804503
 21
555.6300977392376
 31
0.0
  0
LINE
  5
157F
330
18
100
AcDbEntity
  8
4
  6
CENTER
 48
0.2
100
AcDbLine
 10
310.1425958045028
 20
558.1300977392376
 30
0.0
 11
295.1425958045028
 21
558.1300977392376
 31
0.0
  0
LINE
  5
1580
330
18
100
AcDbEntity
  8
4
  6
CENTER
 48
0.2
100
AcDbLine
 10
300.142595804503
 20
548.1300977392375
 30
0.0
 11
300.142595804503
 21
563.1300977392376
 31
0.0
  0
LINE
  5
1581
330
18
100
AcDbEntity
  8
4
  6
CENTER
 48
0.2
100
AcDbLine
 10
302.6425958045028
 20
550.6300977392376
 30
0.0
 11
302.6425958045028
 21
565.6300977392374
 31
0.0
  0
LINE
  5
1582
330
18
100
AcDbEntity
  8
4
  6
CENTER
 48
0.2
100
AcDbLine
 10
380.1425958045029
 20
435.726539167983
 30
0.0
 11
380.1425958045029
 21
447.726539167983
 31
0.0
  0
LINE
  5
1585
330
18
100
AcDbEntity
  8
4
  6
CENTER
 48
0.2
100
AcDbLine
 10
377.6425958045028
 20
435.726539167983
 30
0.0
 11
377.6425958045028
 21
447.726539167983
 31
0.0
  0
LINE
  5
1586
330
18
100
AcDbEntity
  8
4
  6
CENTER
 48
0.2
100
AcDbLine
 10
302.6425958045027
 20
435.726539167983
 30
0.0
 11
302.6425958045027
 21
447.726539167983
 31
0.0
  0
LINE
  5
1587
330
18
100
AcDbEntity
  8
4
  6
CENTER
 48
0.2
100
AcDbLine
 10
300.1425958045027
 20
435.726539167983
 30
0.0
 11
300.1425958045027
 21
447.726539167983
 31
0.0
  0
LINE
  5
1588
330
18
100
AcDbEntity
  8
2
  6
Continuous
100
AcDbLine
 10
29.32184104913527
 20
333.7795311679834
 30
0.0
 11
33.32183404913529
 21
333.7795311679834
 31
0.0
  0
LINE
  5
1589
330
18
100
AcDbEntity
  8
2
  6
Continuous
100
AcDbLine
 10
29.32184104913527
 20
323.6735311679832
 30
0.0
 11
33.32183404913529
 21
323.6735311679832
 31
0.0
  0
LINE
  5
159D
330
18
100
AcDbEntity
  8
1
  6
Continuous
100
AcDbLine
 10
289.1426148045028
 20
564.6300977392377
 30
0.0
 11
281.7425948045029
 21
564.6300977392376
 31
0.0
  0
LINE
  5
159E
330
18
100
AcDbEntity
  8
1
  6
Continuous
100
AcDbLine
 10
289.1426148045028
 20
567.6300977392377
 30
0.0
 11
281.7425948045029
 21
567.6300977392376
 31
0.0
  0
LINE
  5
15A0
330
18
100
AcDbEntity
  8
1
  6
Continuous
100
AcDbLine
 10
289.1426148045028
 20
623.6300977392374
 30
0.0
 11
281.7425948045029
 21
623.6300977392374
 31
0.0
  0
LINE
  5
15A1
330
18
100
AcDbEntity
  8
1
  6
Continuous
100
AcDbLine
 10
289.1426148045028
 20
626.6300977392376
 30
0.0
 11
281.7425948045029
 21
626.6300977392376
 31
0.0
  0
LINE
  5
15A4
330
18
100
AcDbEntity
  8
1
  6
Continuous
100
AcDbLine
 10
281.7425948045029
 20
623.6300977392374
 30
0.0
 11
281.7425948045029
 21
626.6300977392376
 31
0.0
  0
LINE
  5
15CC
330
18
100
AcDbEntity
  8
1
  6
Continuous
100
AcDbLine
 10
281.7425948045029
 20
567.6300977392376
 30
0.0
 11
281.7425948045029
 21
564.6300977392376
 31
0.0
  0
LINE
  5
1638
330
18
100
AcDbEntity
  8
4
  6
CENTER
 48
0.2
100
AcDbLine
 10
111.8218340491354
 20
435.7265161679833
 30
0.0
 11
111.8218340491354
 21
447.7265161679833
 31
0.0
  0
LINE
  5
1639
330
18
100
AcDbEntity
  8
4
  6
CENTER
 48
0.2
100
AcDbLine
 10
114.3218340491353
 20
435.7265161679833
 30
0.0
 11
114.3218340491353
 21
447.7265161679833
 31
0.0
  0
LINE
  5
163A
330
18
100
AcDbEntity
  8
4
  6
CENTER
 48
0.2
100
AcDbLine
 10
34.32183404913525
 20
435.7265161679833
 30
0.0
 11
34.32183404913525
 21
447.7265161679833
 31
0.0
  0
LINE
  5
163B
330
18
100
AcDbEntity
  8
4
  6
CENTER
 48
0.2
100
AcDbLine
 10
36.82183404913519
 20
435.7265161679833
 30
0.0
 11
36.82183404913519
 21
447.7265161679833
 31
0.0
  0
LINE
  5
1781
330
18
100
AcDbEntity
  8
1
  6
Continuous
100
AcDbLine
 10
584.9633575598702
 20
385.9265321679831
 30
0.0
 11
584.9633575598702
 21
271.5265301679833
 31
0.0
  0
LINE
  5
1782
330
18
100
AcDbEntity
  8
1
  6
Continuous
100
AcDbLine
 10
546.9633575598702
 20
385.9265321679831
 30
0.0
 11
546.9633575598702
 21
271.5265301679833
 31
0.0
  0
LINE
  5
1783
330
18
100
AcDbEntity
  8
1
  6
Continuous
100
AcDbLine
 10
549.1046235598703
 20
385.9265321679831
 30
0.0
 11
549.1046235598703
 21
271.5265301679833
 31
0.0
  0
LINE
  5
1784
330
18
100
AcDbEntity
  8
1
  6
Continuous
100
AcDbLine
 10
582.8220915598704
 20
385.9265321679831
 30
0.0
 11
582.8220915598704
 21
271.5265301679833
 31
0.0
  0
LINE
  5
1785
330
18
100
AcDbEntity
  8
4
  6
CENTER
100
AcDbLine
 10
565.9633575598702
 20
248.7265311679832
 30
0.0
 11
565.9633575598702
 21
448.7265161679832
 31
0.0
  0
ARC
  5
1787
330
18
100
AcDbEntity
  8
1
  6
Continuous
100
AcDbCircle
 10
554.9633575598702
 20
258.5267971679833
 30
0.0
 40
4.0
100
AcDbArc
 50
188.8618200000009
 51
261.6779590000001
  0
LINE
  5
1788
330
18
100
AcDbEntity
  8
1
  6
Continuous
100
AcDbLine
 10
584.9633575598702
 20
271.5265301679833
 30
0.0
 11
584.3220915598704
 21
271.5265301679833
 31
0.0
  0
ARC
  5
1789
330
18
100
AcDbEntity
  8
1
  6
Continuous
100
AcDbCircle
 10
565.9633575598702
 20
333.7265311679832
 30
0.0
 40
80.0
100
AcDbArc
 50
261.6779590000001
 51
278.3220409999997
  0
LINE
  5
178A
330
18
100
AcDbEntity
  8
1
  6
Continuous
100
AcDbLine
 10
582.8475405598704
 20
270.3016661679833
 30
0.0
 11
580.9156085598702
 21
257.9105891679831
 31
0.0
  0
ARC
  5
178B
330
18
100
AcDbEntity
  8
1
  6
Continuous
100
AcDbCircle
 10
576.9633575598702
 20
258.5267971679833
 30
0.0
 40
4.0
100
AcDbArc
 50
278.3220409999997
 51
351.1381799999992
  0
ARC
  5
178C
330
18
100
AcDbEntity
  8
1
  6
Continuous
100
AcDbCircle
 10
584.3220915598704
 20
270.0265301679833
 30
0.0
 40
1.5
100
AcDbArc
 50
90.0
 51
172.845611
  0
LINE
  5
178D
330
18
100
AcDbEntity
  8
1
  6
Continuous
100
AcDbLine
 10
549.0791745598703
 20
270.3016661679833
 30
0.0
 11
551.0111065598703
 21
257.9105891679831
 31
0.0
  0
LINE
  5
178E
330
18
100
AcDbEntity
  8
1
  6
Continuous
100
AcDbLine
 10
546.9633575598702
 20
271.5265301679833
 30
0.0
 11
547.6046235598703
 21
271.5265301679833
 31
0.0
  0
ARC
  5
178F
330
18
100
AcDbEntity
  8
1
  6
Continuous
100
AcDbCircle
 10
547.6046235598703
 20
270.0265301679833
 30
0.0
 40
1.5
100
AcDbArc
 50
7.154388999999919
 51
90.0
  0
LINE
  5
1790
330
18
100
AcDbEntity
  8
4
  6
CENTER
 48
0.2
100
AcDbLine
 10
603.4633575598705
 20
435.7265161679833
 30
0.0
 11
603.4633575598705
 21
447.7265161679833
 31
0.0
  0
LINE
  5
1791
330
18
100
AcDbEntity
  8
4
  6
CENTER
 48
0.2
100
AcDbLine
 10
605.9633575598702
 20
435.7265161679833
 30
0.0
 11
605.9633575598702
 21
447.7265161679833
 31
0.0
  0
LINE
  5
1792
330
18
100
AcDbEntity
  8
4
  6
CENTER
 48
0.2
100
AcDbLine
 10
525.9633575598702
 20
435.7265161679833
 30
0.0
 11
525.9633575598702
 21
447.7265161679833
 31
0.0
  0
LINE
  5
1793
330
18
100
AcDbEntity
  8
4
  6
CENTER
 48
0.2
100
AcDbLine
 10
528.4633575598702
 20
435.7265161679833
 30
0.0
 11
528.4633575598702
 21
447.7265161679833
 31
0.0
  0
LINE
  5
1795
330
18
100
AcDbEntity
  8
1
  6
Continuous
100
AcDbLine
 10
514.9633575598702
 20
443.7265011679833
 30
0.0
 11
514.9633575598702
 21
439.7265011679833
 31
0.0
  0
LINE
  5
1796
330
18
100
AcDbEntity
  8
1
  6
Continuous
100
AcDbLine
 10
616.9633575598702
 20
443.7265311679832
 30
0.0
 11
616.9633575598702
 21
439.7265311679832
 31
0.0
  0
LINE
  5
1799
330
18
100
AcDbEntity
  8
1
  6
Continuous
100
AcDbLine
 10
616.9633575598702
 20
439.7265161679833
 30
0.0
 11
514.9633575598702
 21
439.7265161679833
 31
0.0
  0
LINE
  5
179A
330
18
100
AcDbEntity
  8
4
  6
CENTER
100
AcDbLine
 10
615.9633505598702
 20
328.7265311679833
 30
0.0
 11
525.9633635598703
 21
328.7265311679833
 31
0.0
  0
LINE
  5
179B
330
18
100
AcDbEntity
  8
1
  6
Continuous
100
AcDbLine
 10
534.9633575598702
 20
330.0209625134391
 30
0.0
 11
534.9633575598702
 21
311.7265241679831
 31
0.0
  0
LINE
  5
179C
330
18
100
AcDbEntity
  8
1
  6
Continuous
100
AcDbLine
 10
537.9633575598702
 20
370.7763667693463
 30
0.0
 11
537.9633575598702
 21
311.7265241679831
 31
0.0
  0
ARC
  5
179D
330
18
100
AcDbEntity
  8
1
  6
Continuous
100
AcDbCircle
 10
711.8420805598702
 20
373.7265311679832
 30
0.0
 40
182.028732
100
AcDbArc
 50
180.0
 51
193.4408207507376
  0
LINE
  5
179E
330
18
100
AcDbEntity
  8
1
  6
Continuous
100
AcDbLine
 10
593.9633575598702
 20
370.7764188656041
 30
0.0
 11
593.9633575598702
 21
311.7265241679831
 31
0.0
  0
LINE
  5
179F
330
18
100
AcDbEntity
  8
1
  6
Continuous
100
AcDbLine
 10
596.9633575598702
 20
330.0209625134391
 30
0.0
 11
596.9633575598702
 21
311.7265241679831
 31
0.0
  0
ARC
  5
17A0
330
18
100
AcDbEntity
  8
1
  6
Continuous
100
AcDbCircle
 10
420.0846345598703
 20
373.7265311679832
 30
0.0
 40
182.028732
100
AcDbArc
 50
346.5591792492623
 51
0.0000360000000476
  0
LINE
  5
17A1
330
18
100
AcDbEntity
  8
1
  6
Continuous
100
AcDbLine
 10
587.4633575598704
 20
309.4765311679831
 30
0.0
 11
587.4633575598704
 21
347.9765311679833
 31
0.0
  0
LINE
  5
17A2
330
18
100
AcDbEntity
  8
1
  6
Continuous
100
AcDbLine
 10
593.9633575598702
 20
311.7265241679831
 30
0.0
 11
596.9633575598702
 21
311.7265241679831
 31
0.0
  0
ARC
  5
17A3
330
18
100
AcDbEntity
  8
1
  6
Continuous
100
AcDbCircle
 10
585.4633575598702
 20
307.4765311679831
 30
0.0
 40
0.5
100
AcDbArc
 50
90.0
 51
180.0
  0
ARC
  5
17A4
330
18
100
AcDbEntity
  8
1
  6
Continuous
100
AcDbCircle
 10
585.9633575598702
 20
309.4765311679831
 30
0.0
 40
1.5
100
AcDbArc
 50
270.0
 51
0.000000000000007
  0
LINE
  5
17A5
330
18
100
AcDbEntity
  8
1
  6
Continuous
100
AcDbLine
 10
585.4633575598702
 20
307.9765311679831
 30
0.0
 11
585.9633575598702
 21
307.9765311679831
 31
0.0
  0
LINE
  5
17A6
330
18
100
AcDbEntity
  8
1
  6
Continuous
100
AcDbLine
 10
593.4633575598702
 20
320.2265311679833
 30
0.0
 11
593.4633575598702
 21
337.2265311679833
 31
0.0
  0
LINE
  5
17A7
330
18
100
AcDbEntity
  8
1
  6
Continuous
100
AcDbLine
 10
599.9633575598704
 20
339.2265311679833
 30
0.0
 11
599.9633575598704
 21
318.2265311679833
 31
0.0
  0
ARC
  5
17A8
330
18
100
AcDbEntity
  8
1
  6
Continuous
100
AcDbCircle
 10
603.5966885598702
 20
336.9537731679831
 30
0.0
 40
3.633332999999998
100
AcDbArc
 50
130.9927339999999
 51
229.007266
  0
ARC
  5
17A9
330
18
100
AcDbEntity
  8
1
  6
Continuous
100
AcDbCircle
 10
603.3300265598702
 20
336.9537731679831
 30
0.0
 40
3.633332999999998
100
AcDbArc
 50
310.992732
 51
49.00727200000015
  0
ARC
  5
17AA
330
18
100
AcDbEntity
  8
1
  6
Continuous
100
AcDbCircle
 10
603.5966885598702
 20
320.4992901679833
 30
0.0
 40
3.633332999999998
100
AcDbArc
 50
130.9927339999999
 51
229.007266
  0
ARC
  5
17AB
330
18
100
AcDbEntity
  8
1
  6
Continuous
100
AcDbCircle
 10
612.6216825598702
 20
328.7265311679833
 30
0.0
 40
12.65833399999999
100
AcDbArc
 50
154.3229730000001
 51
205.6770269999998
  0
LINE
  5
17AC
330
18
100
AcDbEntity
  8
1
  6
Continuous
100
AcDbLine
 10
610.2136175598704
 20
334.7265311679833
 30
0.0
 11
610.2136175598704
 21
322.7265311679833
 31
0.0
  0
LINE
  5
17AD
330
18
100
AcDbEntity
  8
1
  6
Continuous
100
AcDbLine
 10
610.9633505598702
 20
333.9765311679832
 30
0.0
 11
610.9633505598702
 21
323.4765311679832
 31
0.0
  0
ARC
  5
17AE
330
18
100
AcDbEntity
  8
1
  6
Continuous
100
AcDbCircle
 10
594.3050175598702
 20
328.7265311679833
 30
0.0
 40
12.65833399999999
100
AcDbArc
 50
334.3229780000005
 51
25.67702599999968
  0
LINE
  5
17AF
330
18
100
AcDbEntity
  8
1
  6
Continuous
100
AcDbLine
 10
606.9633575598702
 20
336.9537731679831
 30
0.0
 11
606.9633575598702
 21
320.4992901679833
 31
0.0
  0
LINE
  5
17B0
330
18
100
AcDbEntity
  8
2
  6
Continuous
100
AcDbLine
 10
610.9633505598702
 20
323.6735311679832
 30
0.0
 11
606.9633575598702
 21
323.6735311679832
 31
0.0
  0
LINE
  5
17B1
330
18
100
AcDbEntity
  8
1
  6
Continuous
100
AcDbLine
 10
610.2136175598704
 20
322.7265311679833
 30
0.0
 11
606.9633505598702
 21
322.7265311679833
 31
0.0
  0
LINE
  5
17B2
330
18
100
AcDbEntity
  8
1
  6
Continuous
100
AcDbLine
 10
610.2136175598704
 20
322.7265311679833
 30
0.0
 11
610.9635135598701
 21
323.4764271679831
 31
0.0
  0
ARC
  5
17B3
330
18
100
AcDbEntity
  8
1
  6
Continuous
100
AcDbCircle
 10
603.3300265598702
 20
320.4992901679833
 30
0.0
 40
3.633332999999998
100
AcDbArc
 50
310.992732
 51
49.00727200000015
  0
LINE
  5
17B4
330
18
100
AcDbEntity
  8
1
  6
Continuous
100
AcDbLine
 10
605.7133575598704
 20
323.2417061679833
 30
0.0
 11
601.2133575598702
 21
323.2417061679833
 31
0.0
  0
LINE
  5
17B5
330
18
100
AcDbEntity
  8
1
  6
Continuous
100
AcDbLine
 10
605.7133575598704
 20
317.7568731679831
 30
0.0
 11
601.2133575598702
 21
317.7568731679831
 31
0.0
  0
LINE
  5
17B6
330
18
100
AcDbEntity
  8
2
  6
Continuous
100
AcDbLine
 10
610.9633505598702
 20
333.7795311679834
 30
0.0
 11
606.9633575598702
 21
333.7795311679834
 31
0.0
  0
LINE
  5
17B7
330
18
100
AcDbEntity
  8
1
  6
Continuous
100
AcDbLine
 10
610.2136175598704
 20
334.7265311679833
 30
0.0
 11
606.9633505598702
 21
334.7265311679833
 31
0.0
  0
LINE
  5
17B8
330
18
100
AcDbEntity
  8
1
  6
Continuous
100
AcDbLine
 10
610.2136175598704
 20
334.7265311679833
 30
0.0
 11
610.9635135598701
 21
333.9766351679831
 31
0.0
  0
LINE
  5
17B9
330
18
100
AcDbEntity
  8
1
  6
Continuous
100
AcDbLine
 10
605.7133575598704
 20
334.2113561679833
 30
0.0
 11
601.2133575598702
 21
334.2113561679833
 31
0.0
  0
LINE
  5
17BA
330
18
100
AcDbEntity
  8
1
  6
Continuous
100
AcDbLine
 10
592.9633575598702
 20
319.7265311679831
 30
0.0
 11
587.4633575598704
 21
319.7265311679831
 31
0.0
  0
ARC
  5
17BB
330
18
100
AcDbEntity
  8
1
  6
Continuous
100
AcDbCircle
 10
592.9633575598702
 20
320.2265311679833
 30
0.0
 40
0.5
100
AcDbArc
 50
270.0
 51
0.000000000000007
  0
LINE
  5
17BC
330
18
100
AcDbEntity
  8
1
  6
Continuous
100
AcDbLine
 10
593.4633575598702
 20
320.2265311679833
 30
0.0
 11
593.9633575598702
 21
320.2265311679833
 31
0.0
  0
LINE
  5
17BD
330
18
100
AcDbEntity
  8
1
  6
Continuous
100
AcDbLine
 10
596.9633575598702
 20
318.2265311679833
 30
0.0
 11
599.9633575598704
 21
318.2265311679833
 31
0.0
  0
LINE
  5
17BE
330
18
100
AcDbEntity
  8
1
  6
Continuous
100
AcDbLine
 10
605.7133575598704
 20
339.6961891679831
 30
0.0
 11
601.2133575598702
 21
339.6961891679831
 31
0.0
  0
LINE
  5
17BF
330
18
100
AcDbEntity
  8
1
  6
Continuous
100
AcDbLine
 10
592.9633575598702
 20
337.7265311679833
 30
0.0
 11
587.4633575598704
 21
337.7265311679833
 31
0.0
  0
ARC
  5
17C0
330
18
100
AcDbEntity
  8
1
  6
Continuous
100
AcDbCircle
 10
592.9633575598702
 20
337.2265311679833
 30
0.0
 40
0.5
100
AcDbArc
 50
0.000000000000007
 51
90.0
  0
LINE
  5
17C1
330
18
100
AcDbEntity
  8
1
  6
Continuous
100
AcDbLine
 10
593.4633575598702
 20
337.2265311679833
 30
0.0
 11
593.9633575598702
 21
337.2265311679833
 31
0.0
  0
LINE
  5
17C2
330
18
100
AcDbEntity
  8
1
  6
Continuous
100
AcDbLine
 10
598.8140649106881
 20
339.2265311679833
 30
0.0
 11
599.9633575598704
 21
339.2265311679833
 31
0.0
  0
ARC
  5
17C3
330
18
100
AcDbEntity
  8
1
  6
Continuous
100
AcDbCircle
 10
585.4633575598702
 20
349.9765311679833
 30
0.0
 40
0.5
100
AcDbArc
 50
180.0
 51
270.0
  0
ARC
  5
17C4
330
18
100
AcDbEntity
  8
1
  6
Continuous
100
AcDbCircle
 10
585.9633575598702
 20
347.9765311679833
 30
0.0
 40
1.5
100
AcDbArc
 50
0.000000000000007
 51
90.0
  0
LINE
  5
17C5
330
18
100
AcDbEntity
  8
1
  6
Continuous
100
AcDbLine
 10
585.4633575598702
 20
349.4765311679833
 30
0.0
 11
585.9633575598702
 21
349.4765311679833
 31
0.0
  0
LINE
  5
17C6
330
18
100
AcDbEntity
  8
1
  6
Continuous
100
AcDbLine
 10
544.4633575598702
 20
309.4765311679831
 30
0.0
 11
544.4633575598702
 21
347.9765311679833
 31
0.0
  0
ARC
  5
17C7
330
18
100
AcDbEntity
  8
1
  6
Continuous
100
AcDbCircle
 10
545.9633575598702
 20
309.4765311679831
 30
0.0
 40
1.5
100
AcDbArc
 50
180.0
 51
270.0
  0
LINE
  5
17C8
330
18
100
AcDbEntity
  8
1
  6
Continuous
100
AcDbLine
 10
546.4633575598702
 20
307.9765311679831
 30
0.0
 11
545.9633575598702
 21
307.9765311679831
 31
0.0
  0
ARC
  5
17C9
330
18
100
AcDbEntity
  8
1
  6
Continuous
100
AcDbCircle
 10
546.4633575598702
 20
307.4765311679831
 30
0.0
 40
0.5
100
AcDbArc
 50
0.000000000000007
 51
90.0
  0
LINE
  5
17CA
330
18
100
AcDbEntity
  8
1
  6
Continuous
100
AcDbLine
 10
537.9633575598702
 20
311.7265241679831
 30
0.0
 11
534.9633575598702
 21
311.7265241679831
 31
0.0
  0
LINE
  5
17CB
330
18
100
AcDbEntity
  8
1
  6
Continuous
100
AcDbLine
 10
538.4633575598702
 20
320.2265311679833
 30
0.0
 11
538.4633575598702
 21
337.2265311679833
 31
0.0
  0
LINE
  5
17CC
330
18
100
AcDbEntity
  8
1
  6
Continuous
100
AcDbLine
 10
533.9633575598702
 20
335.0791615625742
 30
0.0
 11
533.9633575598702
 21
317.2265311679832
 31
0.0
  0
ARC
  5
17CD
330
18
100
AcDbEntity
  8
1
  6
Continuous
100
AcDbCircle
 10
554.5050295598703
 20
328.7265311679833
 30
0.0
 40
23.541666
100
AcDbArc
 50
154.7944138678652
 51
209.2417949999999
  0
LINE
  5
17CE
330
18
100
AcDbEntity
  8
1
  6
Continuous
100
AcDbLine
 10
537.9633575598702
 20
320.2265311679833
 30
0.0
 11
538.4633575598702
 21
320.2265311679833
 31
0.0
  0
LINE
  5
17CF
330
18
100
AcDbEntity
  8
1
  6
Continuous
100
AcDbLine
 10
538.9633575598702
 20
319.7265311679831
 30
0.0
 11
544.4633575598702
 21
319.7265311679831
 31
0.0
  0
ARC
  5
17D0
330
18
100
AcDbEntity
  8
1
  6
Continuous
100
AcDbCircle
 10
538.9633575598702
 20
320.2265311679833
 30
0.0
 40
0.5
100
AcDbArc
 50
180.0
 51
270.0
  0
LINE
  5
17D1
330
18
100
AcDbEntity
  8
1
  6
Continuous
100
AcDbLine
 10
534.9633575598702
 20
317.2265311679832
 30
0.0
 11
533.9633575598702
 21
317.2265311679832
 31
0.0
  0
LINE
  5
17D2
330
18
100
AcDbEntity
  8
1
  6
Continuous
100
AcDbLine
 10
537.9633575598702
 20
337.2265311679833
 30
0.0
 11
538.4633575598702
 21
337.2265311679833
 31
0.0
  0
LINE
  5
17D3
330
18
100
AcDbEntity
  8
1
  6
Continuous
100
AcDbLine
 10
538.9633575598702
 20
337.7265311679833
 30
0.0
 11
544.4633575598702
 21
337.7265311679833
 31
0.0
  0
ARC
  5
17D4
330
18
100
AcDbEntity
  8
1
  6
Continuous
100
AcDbCircle
 10
538.9633575598702
 20
337.2265311679833
 30
0.0
 40
0.5
100
AcDbArc
 50
90.0
 51
180.0
  0
ARC
  5
17D5
330
18
100
AcDbEntity
  8
1
  6
Continuous
100
AcDbCircle
 10
545.9633575598702
 20
347.9765311679833
 30
0.0
 40
1.5
100
AcDbArc
 50
90.0
 51
180.0
  0
LINE
  5
17D6
330
18
100
AcDbEntity
  8
1
  6
Continuous
100
AcDbLine
 10
546.4633575598702
 20
349.4765311679833
 30
0.0
 11
545.9633575598702
 21
349.4765311679833
 31
0.0
  0
ARC
  5
17D7
330
18
100
AcDbEntity
  8
1
  6
Continuous
100
AcDbCircle
 10
546.4633575598702
 20
349.9765311679833
 30
0.0
 40
0.5
100
AcDbArc
 50
270.0
 51
0.000000000000007
  0
ARC
  5
17D9
330
18
100
AcDbEntity
  8
1
  6
Continuous
100
AcDbCircle
 10
554.9633575598702
 20
398.9262651679833
 30
0.0
 40
4.0
100
AcDbArc
 50
98.32204099999993
 51
171.138179999999
  0
LINE
  5
17DA
330
18
100
AcDbEntity
  8
1
  6
Continuous
100
AcDbLine
 10
603.4633575598704
 20
433.2265391679833
 30
0.0
 11
528.4633285598703
 21
433.2265691679831
 31
0.0
  0
LINE
  5
17DB
330
18
100
AcDbEntity
  8
1
  6
Continuous
100
AcDbLine
 10
601.4633575598702
 20
431.7265391679831
 30
0.0
 11
530.4633835598703
 21
431.7265391679831
 31
0.0
  0
LINE
  5
17DC
330
18
100
AcDbEntity
  8
1
  6
Continuous
100
AcDbLine
 10
601.9633575598702
 20
428.7265391679833
 30
0.0
 11
529.9584585950777
 21
428.7265391679833
 31
0.0
  0
LINE
  5
17DD
330
18
100
AcDbEntity
  8
1
  6
Continuous
100
AcDbLine
 10
602.9633575598702
 20
429.7265391679832
 30
0.0
 11
528.9633575598704
 21
429.7265274123293
 31
0.0
  0
LINE
  5
17DE
330
18
100
AcDbEntity
  8
1
  6
Continuous
100
AcDbLine
 10
603.7172025598704
 20
437.226516167983
 30
0.0
 11
528.4632435459591
 21
437.2265050264847
 31
0.0
  0
ARC
  5
17E1
330
18
100
AcDbEntity
  8
1
  6
Continuous
100
AcDbCircle
 10
565.9633575598702
 20
387.3765251679833
 30
0.0
 40
23.0
100
AcDbArc
 50
14.38018000000027
 51
165.619806999999
  0
ARC
  5
17E2
330
18
100
AcDbEntity
  8
1
  6
Continuous
100
AcDbCircle
 10
576.9633575598702
 20
398.9262651679833
 30
0.0
 40
4.0
100
AcDbArc
 50
8.861820000000927
 51
81.67795900000013
  0
LINE
  5
17E3
330
18
100
AcDbEntity
  8
1
  6
Continuous
100
AcDbLine
 10
602.1133515598704
 20
425.3765251679832
 30
0.0
 11
602.1133515598704
 21
373.7265311679832
 31
0.0
  0
LINE
  5
17E4
330
18
100
AcDbEntity
  8
1
  6
Continuous
100
AcDbLine
 10
584.9633575598702
 20
385.9265321679833
 30
0.0
 11
584.3220915598704
 21
385.9265321679833
 31
0.0
  0
LINE
  5
17E5
330
18
100
AcDbEntity
  8
1
  6
Continuous
100
AcDbLine
 10
597.1698302653601
 20
358.2700851138111
 30
0.0
 11
588.2427605598702
 21
393.0886921679832
 31
0.0
  0
LINE
  5
17E6
330
18
100
AcDbEntity
  8
1
  6
Continuous
100
AcDbLine
 10
582.8475405598704
 20
387.1513961679833
 30
0.0
 11
580.9156085598702
 21
399.5424731679833
 31
0.0
  0
ARC
  5
17E7
330
18
100
AcDbEntity
  8
1
  6
Continuous
100
AcDbCircle
 10
584.3220915598704
 20
387.4265321679832
 30
0.0
 40
1.5
100
AcDbArc
 50
187.1543889999999
 51
270.0
  0
LINE
  5
17EA
330
18
100
AcDbEntity
  8
1
  6
Continuous
100
AcDbLine
 10
601.9633825598702
 20
429.7265621679833
 30
0.0
 11
599.9633805598701
 21
431.726564167983
 31
0.0
  0
LINE
  5
17EB
330
18
100
AcDbEntity
  8
1
  6
Continuous
100
AcDbLine
 10
603.4633895598704
 20
433.2265571679831
 30
0.0
 11
601.4633895598704
 21
431.7265571679833
 31
0.0
  0
ARC
  5
17EC
330
18
100
AcDbEntity
  8
1
  6
Continuous
100
AcDbCircle
 10
601.9633575598702
 20
429.7265501679833
 30
0.0
 40
1.0
100
AcDbArc
 50
269.999972
 51
0.00000899999961
  0
ARC
  5
17ED
330
18
100
AcDbEntity
  8
1
  6
Continuous
100
AcDbCircle
 10
596.1133515598702
 20
425.3765271679831
 30
0.0
 40
6.0
100
AcDbArc
 50
0.0000500000001538
 51
33.94063900000041
  0
ARC
  5
17EE
330
18
100
AcDbEntity
  8
1
  6
Continuous
100
AcDbCircle
 10
603.5903415598702
 20
442.2249181679831
 30
0.0
 40
5.0
100
AcDbArc
 50
268.546012
 51
330.0212940000001
  0
LINE
  5
17EF
330
18
100
AcDbEntity
  8
1
  6
Continuous
100
AcDbLine
 10
600.8762985598702
 20
437.2265221679831
 30
0.0
 11
603.4634015598704
 21
433.2265521679833
 31
0.0
  0
ARC
  5
17F0
330
18
100
AcDbEntity
  8
1
  6
Continuous
100
AcDbCircle
 10
565.9633575598702
 20
323.7265311679832
 30
0.0
 40
80.0
100
AcDbArc
 50
81.67795900000013
 51
98.32204099999993
  0
LINE
  5
17F1
330
18
100
AcDbEntity
  8
1
  6
Continuous
100
AcDbLine
 10
529.8133635598702
 20
425.3765251679832
 30
0.0
 11
529.8133635598702
 21
373.7265311679832
 31
0.0
  0
LINE
  5
17F2
330
18
100
AcDbEntity
  8
1
  6
Continuous
100
AcDbLine
 10
534.7568893139122
 20
358.2700480054274
 30
0.0
 11
543.6839665598703
 21
393.0886911679831
 31
0.0
  0
LINE
  5
17F3
330
18
100
AcDbEntity
  8
1
  6
Continuous
100
AcDbLine
 10
549.0791745598703
 20
387.1513961679833
 30
0.0
 11
551.0111065598703
 21
399.5424731679833
 31
0.0
  0
LINE
  5
17F4
330
18
100
AcDbEntity
  8
1
  6
Continuous
100
AcDbLine
 10
546.9633575598702
 20
385.9265321679833
 30
0.0
 11
547.6046235598703
 21
385.9265321679833
 31
0.0
  0
ARC
  5
17F5
330
18
100
AcDbEntity
  8
1
  6
Continuous
100
AcDbCircle
 10
547.6046235598703
 20
387.4265321679832
 30
0.0
 40
1.5
100
AcDbArc
 50
270.0
 51
352.8456110000001
  0
LINE
  5
17F8
330
18
100
AcDbEntity
  8
1
  6
Continuous
100
AcDbLine
 10
528.4633875598704
 20
433.2265361679831
 30
0.0
 11
530.4633875598701
 21
431.726536167983
 31
0.0
  0
LINE
  5
17F9
330
18
100
AcDbEntity
  8
1
  6
Continuous
100
AcDbLine
 10
529.9633565598703
 20
429.7265481679833
 30
0.0
 11
531.9633475598704
 21
431.7265401679831
 31
0.0
  0
ARC
  5
17FA
330
18
100
AcDbEntity
  8
1
  6
Continuous
100
AcDbCircle
 10
535.8133635598703
 20
425.3765271679831
 30
0.0
 40
6.0
100
AcDbArc
 50
146.0593970000001
 51
179.9999859999998
  0
ARC
  5
17FB
330
18
100
AcDbEntity
  8
1
  6
Continuous
100
AcDbCircle
 10
529.9633575598702
 20
429.726527167983
 30
0.0
 40
1.0
100
AcDbArc
 50
179.9999859999998
 51
270.000023
  0
LINE
  5
17FC
330
18
100
AcDbEntity
  8
1
  6
Continuous
100
AcDbLine
 10
531.0504235598703
 20
437.2265261679832
 30
0.0
 11
528.4633285598703
 21
433.2265691679831
 31
0.0
  0
ARC
  5
17FD
330
18
100
AcDbEntity
  8
1
  6
Continuous
100
AcDbCircle
 10
528.3363735598704
 20
442.2248951679831
 30
0.0
 40
5.0
100
AcDbArc
 50
209.9786970000002
 51
271.4539789999999
  0
LINE
  5
17FF
330
18
100
AcDbEntity
  8
1
  6
Continuous
100
AcDbLine
 10
616.9633575598702
 20
443.7265161679833
 30
0.0
 11
514.9633575598702
 21
443.7265161679833
 31
0.0
  0
LINE
  5
18DE
330
18
100
AcDbEntity
  8
4
  6
CENTER
100
AcDbLine
 10
396.1425808045031
 20
101.8229495967289
 30
0.0
 11
219.1425958045029
 21
101.822949596729
 31
0.0
  0
LINE
  5
18E2
330
18
100
AcDbEntity
  8
1
  6
Continuous
100
AcDbLine
 10
391.1425808045028
 20
141.822949596729
 30
0.0
 11
391.1425808045028
 21
61.82294959672901
 31
0.0
  0
LINE
  5
18E5
330
18
100
AcDbEntity
  8
1
  6
Continuous
100
AcDbLine
 10
289.1426148045028
 20
141.822949596729
 30
0.0
 11
289.1426148045028
 21
134.5934904817204
 31
0.0
  0
LINE
  5
18E6
330
18
100
AcDbEntity
  8
1
  6
Continuous
100
AcDbLine
 10
241.9425948045029
 20
82.82294959672922
 30
0.0
 11
241.9425948045029
 21
83.46421559672922
 31
0.0
  0
LINE
  5
18E7
330
18
100
AcDbEntity
  8
4
  6
CENTER
100
AcDbLine
 10
340.1425958045028
 20
157.8229495967289
 30
0.0
 11
340.1425958045028
 21
45.82294959672888
 31
0.0
  0
LINE
  5
18E8
330
18
100
AcDbEntity
  8
4
  6
CENTER
100
AcDbLine
 10
299.1425958045029
 20
47.86850018109706
 30
0.0
 11
299.1425958045029
 21
155.777399012361
 31
0.0
  0
LINE
  5
18E9
330
18
100
AcDbEntity
  8
1
  6
Continuous
100
AcDbLine
 10
241.9425948045029
 20
84.96421559672922
 30
0.0
 11
356.3425968045031
 21
84.96421559672922
 31
0.0
  0
LINE
  5
18EA
330
18
100
AcDbEntity
  8
1
  6
Continuous
100
AcDbLine
 10
241.9425948045029
 20
120.8229495967292
 30
0.0
 11
356.3425968045031
 21
120.8229495967289
 31
0.0
  0
LINE
  5
18EB
330
18
100
AcDbEntity
  8
1
  6
Continuous
100
AcDbLine
 10
241.9425948045029
 20
118.6816835967291
 30
0.0
 11
356.3425968045031
 21
118.6816835967289
 31
0.0
  0
ARC
  5
18EC
330
18
100
AcDbEntity
  8
1
  6
Continuous
100
AcDbCircle
 10
240.4425948045028
 20
83.46421559672922
 30
0.0
 40
1.5
100
AcDbArc
 50
0.0
 51
82.8456110000001
  0
ARC
  5
18ED
330
18
100
AcDbEntity
  8
1
  6
Continuous
100
AcDbCircle
 10
240.4425948045028
 20
120.1816835967292
 30
0.0
 40
1.5
100
AcDbArc
 50
277.1543889999998
 51
0.0
  0
ARC
  5
18EE
330
18
100
AcDbEntity
  8
1
  6
Continuous
100
AcDbCircle
 10
304.142595804503
 20
101.822949596729
 30
0.0
 40
80.0
100
AcDbArc
 50
171.6779590000014
 51
188.3220409999983
  0
ARC
  5
18EF
330
18
100
AcDbEntity
  8
1
  6
Continuous
100
AcDbCircle
 10
228.9428618045028
 20
112.8229495967292
 30
0.0
 40
4.0
100
AcDbArc
 50
98.86182000000031
 51
171.6779590000014
  0
LINE
  5
18F0
330
18
100
AcDbEntity
  8
1
  6
Continuous
100
AcDbLine
 10
240.7177308045029
 20
118.707132596729
 30
0.0
 11
228.326653804503
 21
116.7752005967291
 31
0.0
  0
ARC
  5
18F1
330
18
100
AcDbEntity
  8
1
  6
Continuous
100
AcDbCircle
 10
228.9428618045028
 20
90.82294959672925
 30
0.0
 40
4.0
100
AcDbArc
 50
188.3220409999983
 51
261.1381799999995
  0
LINE
  5
18F2
330
18
100
AcDbEntity
  8
1
  6
Continuous
100
AcDbLine
 10
240.7177308045028
 20
84.93876659672912
 30
0.0
 11
228.3266538045029
 21
86.8706985967292
 31
0.0
  0
LINE
  5
18F3
330
18
100
AcDbEntity
  8
1
  6
Continuous
100
AcDbLine
 10
241.9425948045029
 20
120.8229495967292
 30
0.0
 11
241.9425948045029
 21
120.1816835967292
 31
0.0
  0
LINE
  5
18F7
330
18
100
AcDbEntity
  8
1
  6
Continuous
100
AcDbLine
 10
300.1426148045029
 20
152.822949596729
 30
0.0
 11
380.142580804503
 21
152.822949596729
 31
0.0
  0
LINE
  5
18FA
330
18
100
AcDbEntity
  8
4
  6
CENTER
 48
0.2
100
AcDbLine
 10
310.1425958045028
 20
139.3229495967289
 30
0.0
 11
295.1425958045028
 21
139.3229495967289
 31
0.0
  0
LINE
  5
18FB
330
18
100
AcDbEntity
  8
4
  6
CENTER
 48
0.2
100
AcDbLine
 10
307.6425958045029
 20
141.8229495967289
 30
0.0
 11
292.642595804503
 21
141.8229495967289
 31
0.0
  0
ARC
  5
18FC
330
18
100
AcDbEntity
  8
1
  6
Continuous
100
AcDbCircle
 10
302.642595804503
 20
139.322949596729
 30
0.0
 40
5.5
100
AcDbArc
 50
317.1816755288056
 51
45.00000499999948
  0
ARC
  5
18FD
330
18
100
AcDbEntity
  8
1
  6
Continuous
100
AcDbCircle
 10
300.142595804503
 20
141.822949596729
 30
0.0
 40
5.5
100
AcDbArc
 50
45.00003600000056
 51
224.9999449999999
  0
LINE
  5
18FE
330
18
100
AcDbEntity
  8
4
  6
CENTER
 48
0.2
100
AcDbLine
 10
300.142595804503
 20
149.3229495967289
 30
0.0
 11
300.142595804503
 21
134.3229495967289
 31
0.0
  0
ARC
  5
18FF
330
18
100
AcDbEntity
  8
1
  6
Continuous
100
AcDbCircle
 10
300.1426148045029
 20
141.822949596729
 30
0.0
 40
11.0
100
AcDbArc
 50
89.99998199999998
 51
179.9999639999999
  0
LINE
  5
1900
330
18
100
AcDbEntity
  8
1
  6
Continuous
100
AcDbLine
 10
318.8562011788584
 20
132.8229495967289
 30
0.0
 11
281.7425948045029
 21
132.822949596729
 31
0.0
  0
LINE
  5
1901
330
18
100
AcDbEntity
  8
1
  6
Continuous
100
AcDbLine
 10
318.8562011788584
 20
129.8229495967289
 30
0.0
 11
281.7425948045029
 21
129.8229495967289
 31
0.0
  0
LINE
  5
1902
330
18
100
AcDbEntity
  8
1
  6
Continuous
100
AcDbLine
 10
281.7425948045029
 20
129.8229495967289
 30
0.0
 11
281.7425948045029
 21
132.822949596729
 31
0.0
  0
LINE
  5
1903
330
18
100
AcDbEntity
  8
4
  6
CENTER
 48
0.2
100
AcDbLine
 10
302.6425958045028
 20
146.8229495967289
 30
0.0
 11
302.6425958045028
 21
131.8229495967289
 31
0.0
  0
LINE
  5
1904
330
18
100
AcDbEntity
  8
1
  6
Continuous
100
AcDbLine
 10
296.2535128045031
 20
137.9338385967288
 30
0.0
 11
297.4270027312558
 21
136.7603486699759
 31
0.0
  0
LINE
  5
1905
330
18
100
AcDbEntity
  8
1
  6
Continuous
100
AcDbLine
 10
304.0316818045028
 20
145.712007596729
 30
0.0
 11
306.5316848045029
 21
143.2120045967288
 31
0.0
  0
LINE
  5
1906
330
18
100
AcDbEntity
  8
1
  6
Continuous
100
AcDbLine
 10
318.3925958045031
 20
123.322949596729
 30
0.0
 11
279.892595804503
 21
123.322949596729
 31
0.0
  0
ARC
  5
1907
330
18
100
AcDbEntity
  8
1
  6
Continuous
100
AcDbCircle
 10
277.892595804503
 20
121.322949596729
 30
0.0
 40
0.5
100
AcDbArc
 50
270.0
 51
0.0
  0
ARC
  5
1908
330
18
100
AcDbEntity
  8
1
  6
Continuous
100
AcDbCircle
 10
279.892595804503
 20
121.8229495967291
 30
0.0
 40
1.5
100
AcDbArc
 50
90.00000000000005
 51
180.0
  0
LINE
  5
1909
330
18
100
AcDbEntity
  8
1
  6
Continuous
100
AcDbLine
 10
278.3925958045029
 20
121.322949596729
 30
0.0
 11
278.3925958045029
 21
121.8229495967291
 31
0.0
  0
LINE
  5
190A
330
18
100
AcDbEntity
  8
4
  6
CENTER
 48
0.2
100
AcDbLine
 10
380.1425958045029
 20
149.3229495967289
 30
0.0
 11
380.1425958045029
 21
134.3229495967289
 31
0.0
  0
ARC
  5
190B
330
18
100
AcDbEntity
  8
1
  6
Continuous
100
AcDbCircle
 10
380.1425958045029
 20
141.822949596729
 30
0.0
 40
5.5
100
AcDbArc
 50
315.0000499999998
 51
134.9999459999996
  0
ARC
  5
190C
330
18
100
AcDbEntity
  8
1
  6
Continuous
100
AcDbCircle
 10
380.142580804503
 20
141.822949596729
 30
0.0
 40
11.0
100
AcDbArc
 50
0.0
 51
89.99998199999998
  0
LINE
  5
190D
330
18
100
AcDbEntity
  8
4
  6
CENTER
 48
0.2
100
AcDbLine
 10
372.6425958045027
 20
141.8229495967289
 30
0.0
 11
387.6425958045027
 21
141.8229495967289
 31
0.0
  0
LINE
  5
190E
330
18
100
AcDbEntity
  8
4
  6
CENTER
 48
0.2
100
AcDbLine
 10
370.1425958045029
 20
139.3229495967289
 30
0.0
 11
385.1425958045028
 21
139.3229495967289
 31
0.0
  0
ARC
  5
190F
330
18
100
AcDbEntity
  8
1
  6
Continuous
100
AcDbCircle
 10
377.6425958045028
 20
139.322949596729
 30
0.0
 40
5.5
100
AcDbArc
 50
134.9999629999994
 51
315.0000360000002
  0
LINE
  5
1910
330
18
100
AcDbEntity
  8
4
  6
CENTER
 48
0.2
100
AcDbLine
 10
377.6425958045028
 20
146.8229495967289
 30
0.0
 11
377.6425958045028
 21
131.8229495967289
 31
0.0
  0
LINE
  5
1911
330
18
100
AcDbEntity
  8
1
  6
Continuous
100
AcDbLine
 10
376.2534978045028
 20
145.7120315967289
 30
0.0
 11
373.7534948045031
 21
143.2120285967288
 31
0.0
  0
LINE
  5
1912
330
18
100
AcDbEntity
  8
1
  6
Continuous
100
AcDbLine
 10
384.0316688045028
 20
137.933875596729
 30
0.0
 11
381.5316668045028
 21
135.433873596729
 31
0.0
  0
LINE
  5
1913
330
18
100
AcDbEntity
  8
1
  6
Continuous
100
AcDbLine
 10
241.9425948045029
 20
82.82294959672922
 30
0.0
 11
356.3425968045031
 21
82.82294959672897
 31
0.0
  0
LINE
  5
1915
330
18
100
AcDbEntity
  8
1
  6
Continuous
100
AcDbLine
 10
300.1426148045029
 20
50.82294959672902
 30
0.0
 11
380.142580804503
 21
50.82294959672902
 31
0.0
  0
LINE
  5
1916
330
18
100
AcDbEntity
  8
4
  6
CENTER
 48
0.2
100
AcDbLine
 10
307.6425958045029
 20
61.82294959672901
 30
0.0
 11
292.642595804503
 21
61.82294959672901
 31
0.0
  0
LINE
  5
1917
330
18
100
AcDbEntity
  8
4
  6
CENTER
 48
0.2
100
AcDbLine
 10
310.1425958045028
 20
64.32294959672901
 30
0.0
 11
295.1425958045028
 21
64.32294959672901
 31
0.0
  0
ARC
  5
1918
330
18
100
AcDbEntity
  8
1
  6
Continuous
100
AcDbCircle
 10
302.642595804503
 20
64.32294959672901
 30
0.0
 40
5.5
100
AcDbArc
 50
314.9999950000005
 51
320.4788036413576
  0
LINE
  5
191A
330
18
100
AcDbEntity
  8
4
  6
CENTER
 48
0.2
100
AcDbLine
 10
300.142595804503
 20
54.32294959672901
 30
0.0
 11
300.142595804503
 21
69.32294959672901
 31
0.0
  0
LINE
  5
191B
330
18
100
AcDbEntity
  8
4
  6
CENTER
 48
0.2
100
AcDbLine
 10
302.6425958045028
 20
56.82294959672901
 30
0.0
 11
302.6425958045028
 21
71.82294959672901
 31
0.0
  0
LINE
  5
191C
330
18
100
AcDbEntity
  8
1
  6
Continuous
100
AcDbLine
 10
318.8562011788584
 20
70.82294959672902
 30
0.0
 11
281.7425948045029
 21
70.82294959672902
 31
0.0
  0
LINE
  5
191D
330
18
100
AcDbEntity
  8
1
  6
Continuous
100
AcDbLine
 10
318.8562011788584
 20
73.82294959672901
 30
0.0
 11
281.7425948045029
 21
73.82294959672901
 31
0.0
  0
LINE
  5
191E
330
18
100
AcDbEntity
  8
1
  6
Continuous
100
AcDbLine
 10
318.3925958045031
 20
80.32294959672913
 30
0.0
 11
279.892595804503
 21
80.32294959672913
 31
0.0
  0
LINE
  5
191F
330
18
100
AcDbEntity
  8
1
  6
Continuous
100
AcDbLine
 10
281.7425948045029
 20
73.82294959672901
 30
0.0
 11
281.7425948045029
 21
70.82294959672902
 31
0.0
  0
LINE
  5
1920
330
18
100
AcDbEntity
  8
1
  6
Continuous
100
AcDbLine
 10
278.3925958045029
 20
82.32294959672913
 30
0.0
 11
278.3925958045029
 21
81.82294959672914
 31
0.0
  0
ARC
  5
1921
330
18
100
AcDbEntity
  8
1
  6
Continuous
100
AcDbCircle
 10
279.892595804503
 20
81.82294959672914
 30
0.0
 40
1.5
100
AcDbArc
 50
180.0
 51
270.0
  0
ARC
  5
1922
330
18
100
AcDbEntity
  8
1
  6
Continuous
100
AcDbCircle
 10
277.892595804503
 20
82.32294959672913
 30
0.0
 40
0.5
100
AcDbArc
 50
0.0
 51
90.00000000000005
  0
ARC
  5
1924
330
18
100
AcDbEntity
  8
1
  6
Continuous
100
AcDbCircle
 10
300.1426148045029
 20
61.82294959672901
 30
0.0
 40
11.0
100
AcDbArc
 50
180.000036
 51
270.0000179999999
  0
LINE
  5
1925
330
18
100
AcDbEntity
  8
1
  6
Continuous
100
AcDbLine
 10
305.1425958045029
 20
59.04482415235618
 30
0.0
 11
306.531665804503
 21
60.43389359672893
 31
0.0
  0
LINE
  5
1926
330
18
100
AcDbEntity
  8
4
  6
CENTER
 48
0.2
100
AcDbLine
 10
377.6425958045028
 20
56.82294959672901
 30
0.0
 11
377.6425958045028
 21
71.82294959672901
 31
0.0
  0
LINE
  5
1927
330
18
100
AcDbEntity
  8
4
  6
CENTER
 48
0.2
100
AcDbLine
 10
380.1425958045029
 20
54.32294959672901
 30
0.0
 11
380.1425958045029
 21
69.32294959672901
 31
0.0
  0
ARC
  5
1928
330
18
100
AcDbEntity
  8
1
  6
Continuous
100
AcDbCircle
 10
380.1425958045029
 20
61.82294959672901
 30
0.0
 40
5.5
100
AcDbArc
 50
225.0000000000002
 51
44.99989499999972
  0
ARC
  5
1929
330
18
100
AcDbEntity
  8
1
  6
Continuous
100
AcDbCircle
 10
377.6425958045028
 20
64.32294959672901
 30
0.0
 40
5.5
100
AcDbArc
 50
44.99992599999992
 51
225.0000000000002
  0
LINE
  5
192A
330
18
100
AcDbEntity
  8
4
  6
CENTER
 48
0.2
100
AcDbLine
 10
370.1425958045029
 20
64.32294959672901
 30
0.0
 11
385.1425958045028
 21
64.32294959672901
 31
0.0
  0
LINE
  5
192B
330
18
100
AcDbEntity
  8
1
  6
Continuous
100
AcDbLine
 10
384.031682804503
 20
65.71204359672901
 30
0.0
 11
381.5316698045031
 21
68.21205759672896
 31
0.0
  0
LINE
  5
192C
330
18
100
AcDbEntity
  8
4
  6
CENTER
 48
0.2
100
AcDbLine
 10
372.6425958045027
 20
61.82294959672901
 30
0.0
 11
387.6425958045027
 21
61.82294959672901
 31
0.0
  0
ARC
  5
192D
330
18
100
AcDbEntity
  8
1
  6
Continuous
100
AcDbCircle
 10
380.142580804503
 20
61.82294959672901
 30
0.0
 40
11.0
100
AcDbArc
 50
269.9999630000001
 51
359.9999449999992
  0
LINE
  5
192E
330
18
100
AcDbEntity
  8
1
  6
Continuous
100
AcDbLine
 10
376.2535218045028
 20
57.93388259672894
 30
0.0
 11
373.7535088045028
 21
60.43389659672903
 31
0.0
  0
ARC
  5
1A76
330
18
100
AcDbEntity
  8
1
  6
Continuous
100
AcDbCircle
 10
832.7841193152377
 20
328.7265391679831
 30
0.0
 40
57.0
100
AcDbArc
 50
141.6410380716475
 51
80.29517740868408
  0
ARC
  5
1A77
330
18
100
AcDbEntity
  8
1
  6
Continuous
100
AcDbCircle
 10
832.7841193152377
 20
328.7265391679831
 30
0.0
 40
75.0
100
AcDbArc
 50
137.4779402458393
 51
84.65325667105735
  0
LINE
  5
1A78
330
18
100
AcDbEntity
  8
4
  6
CENTER
100
AcDbLine
 10
832.7841193152377
 20
248.7265391679831
 30
0.0
 11
832.7841193152377
 21
408.7265391679832
 31
0.0
  0
LINE
  5
1A79
330
18
100
AcDbEntity
  8
4
  6
CENTER
 48
0.2
100
AcDbLine
 10
831.7841193152379
 20
435.726539167983
 30
0.0
 11
831.7841193152379
 21
447.726539167983
 31
0.0
  0
LINE
  5
1A7A
330
18
100
AcDbEntity
  8
4
  6
CENTER
 48
0.2
100
AcDbLine
 10
829.284119315238
 20
435.726539167983
 30
0.0
 11
829.284119315238
 21
447.726539167983
 31
0.0
  0
LINE
  5
1A7B
330
18
100
AcDbEntity
  8
4
  6
CENTER
 48
0.2
100
AcDbLine
 10
754.2841193152376
 20
435.726539167983
 30
0.0
 11
754.2841193152376
 21
447.726539167983
 31
0.0
  0
LINE
  5
1A7C
330
18
100
AcDbEntity
  8
4
  6
CENTER
 48
0.2
100
AcDbLine
 10
751.7841193152377
 20
435.726539167983
 30
0.0
 11
751.7841193152377
 21
447.726539167983
 31
0.0
  0
LINE
  5
1A7D
330
18
100
AcDbEntity
  8
1
  6
Continuous
100
AcDbLine
 10
740.7841193152377
 20
443.726524167983
 30
0.0
 11
740.7841193152377
 21
439.726524167983
 31
0.0
  0
LINE
  5
1A7E
330
18
100
AcDbEntity
  8
1
  6
Continuous
100
AcDbLine
 10
842.7841193152376
 20
443.7265541679833
 30
0.0
 11
842.7841193152376
 21
439.7265541679833
 31
0.0
  0
LINE
  5
1A7F
330
18
100
AcDbEntity
  8
4
  6
CENTER
100
AcDbLine
 10
791.7841193152377
 20
448.7265391679833
 30
0.0
 11
791.7841193152377
 21
372.7265311679833
 31
0.0
  0
ARC
  5
1A81
330
18
100
AcDbEntity
  8
1
  6
Continuous
100
AcDbCircle
 10
861.9416733152377
 20
357.2289041679831
 30
0.0
 40
9.0
100
AcDbArc
 50
53.25071700000009
 51
150.0
  0
ARC
  5
1A82
330
18
100
AcDbEntity
  8
1
  6
Continuous
100
AcDbCircle
 10
859.8950023152378
 20
335.7265391679831
 30
0.0
 40
5.0
100
AcDbArc
 50
194.4775120000013
 51
270.0
  0
ARC
  5
1A83
330
18
100
AcDbEntity
  8
1
  6
Continuous
100
AcDbCircle
 10
859.8950023152378
 20
321.7265391679831
 30
0.0
 40
5.0
100
AcDbArc
 50
90.0
 51
165.5224879999986
  0
ARC
  5
1A84
330
18
100
AcDbEntity
  8
1
  6
Continuous
100
AcDbCircle
 10
861.9416733152377
 20
300.2241741679831
 30
0.0
 40
9.0
100
AcDbArc
 50
209.9999999999999
 51
306.7492829999999
  0
LINE
  5
1A85
330
18
100
AcDbEntity
  8
4
  6
CENTER
100
AcDbLine
 10
912.7841193152375
 20
328.7265391679831
 30
0.0
 11
752.7841193152377
 21
328.7265391679831
 31
0.0
  0
ARC
  5
1A86
330
18
100
AcDbEntity
  8
1
  6
Continuous
100
AcDbCircle
 10
855.3007793152376
 20
341.7265391679833
 30
0.0
 40
25.0
100
AcDbArc
 50
18.15236199999917
 51
41.84763799999893
  0
ARC
  5
1A87
330
18
100
AcDbEntity
  8
1
  6
Continuous
100
AcDbCircle
 10
836.2961513152377
 20
321.9574381679833
 30
0.0
 40
45.0
100
AcDbArc
 50
341.8476380000008
 51
353.2507169999992
  0
ARC
  5
1A88
330
18
100
AcDbEntity
  8
1
  6
Continuous
100
AcDbCircle
 10
840.4023483152377
 20
329.0695801679833
 30
0.0
 40
45.0
100
AcDbArc
 50
306.7492829999999
 51
318.1523620000011
  0
ARC
  5
1A89
330
18
100
AcDbEntity
  8
1
  6
Continuous
100
AcDbCircle
 10
855.3007803152377
 20
315.7265391679831
 30
0.0
 40
25.0
100
AcDbArc
 50
318.1523620000011
 51
341.8476380000008
  0
ARC
  5
1A8A
330
18
100
AcDbEntity
  8
1
  6
Continuous
100
AcDbCircle
 10
872.0466693152378
 20
339.7265391679831
 30
0.0
 40
9.0
100
AcDbArc
 50
270.0
 51
6.749283000000897
  0
ARC
  5
1A8B
330
18
100
AcDbEntity
  8
1
  6
Continuous
100
AcDbCircle
 10
872.0466693152378
 20
317.7265391679831
 30
0.0
 40
9.0
100
AcDbArc
 50
353.2507169999992
 51
90.0
  0
LINE
  5
1A8C
330
18
100
AcDbEntity
  8
1
  6
Continuous
100
AcDbLine
 10
859.8950023152378
 20
330.7265391679831
 30
0.0
 11
872.0466693152378
 21
330.7265391679831
 31
0.0
  0
LINE
  5
1A8D
330
18
100
AcDbEntity
  8
1
  6
Continuous
100
AcDbLine
 10
859.8950023152378
 20
326.7265391679831
 30
0.0
 11
872.0466693152378
 21
326.7265391679831
 31
0.0
  0
ARC
  5
1A8E
330
18
100
AcDbEntity
  8
1
  6
Continuous
100
AcDbCircle
 10
836.2961513152377
 20
335.4956401679833
 30
0.0
 40
45.0
100
AcDbArc
 50
6.749283000000897
 51
18.15236199999917
  0
ARC
  5
1A8F
330
18
100
AcDbEntity
  8
1
  6
Continuous
100
AcDbCircle
 10
840.4023483152377
 20
328.3834981679831
 30
0.0
 40
45.0
100
AcDbArc
 50
41.84763799999893
 51
53.25071700000009
  0
LINE
  5
1A90
330
18
100
AcDbEntity
  8
1
  6
Continuous
100
AcDbLine
 10
846.4364762263681
 20
356.3731149146164
 30
0.0
 11
850.6833433152376
 21
363.7289041679833
 31
0.0
  0
LINE
  5
1A91
330
18
100
AcDbEntity
  8
1
  6
Continuous
100
AcDbLine
 10
848.0716117854097
 20
351.2052539823453
 30
0.0
 11
854.1474453152376
 21
361.7289041679831
 31
0.0
  0
ARC
  5
1A92
330
18
100
AcDbEntity
  8
1
  6
Continuous
100
AcDbCircle
 10
810.2674593152379
 20
341.7265391679833
 30
0.0
 40
25.0
100
AcDbArc
 50
138.152362000001
 51
161.8476380000008
  0
LINE
  5
1A93
330
18
100
AcDbEntity
  8
1
  6
Continuous
100
AcDbLine
 10
837.9937593152373
 20
415.955640167983
 30
0.0
 11
850.0159823152376
 21
331.1115771679831
 31
0.0
  0
LINE
  5
1A94
330
18
100
AcDbEntity
  8
1
  6
Continuous
100
AcDbLine
 10
816.7841193152376
 20
417.5115481679831
 30
0.0
 11
816.7841193152376
 21
329.8098671679832
 31
0.0
  0
LINE
  5
1A95
330
18
100
AcDbEntity
  8
1
  6
Continuous
100
AcDbLine
 10
757.9113993152377
 20
407.7866021679833
 30
0.0
 11
819.1967013152375
 21
319.0646321679833
 31
0.0
  0
ARC
  5
1A96
330
18
100
AcDbEntity
  8
1
  6
Continuous
100
AcDbCircle
 10
825.1658903152375
 20
329.0695801679833
 30
0.0
 40
45.0
100
AcDbArc
 50
221.8476379999989
 51
233.250717
  0
LINE
  5
1A97
330
18
100
AcDbEntity
  8
1
  6
Continuous
100
AcDbLine
 10
805.6732363152377
 20
326.7265391679831
 30
0.0
 11
793.5215693152374
 21
326.7265391679831
 31
0.0
  0
LINE
  5
1A98
330
18
100
AcDbEntity
  8
1
  6
Continuous
100
AcDbLine
 10
805.6732363152377
 20
330.7265391679831
 30
0.0
 11
793.5215693152374
 21
330.7265391679831
 31
0.0
  0
ARC
  5
1A99
330
18
100
AcDbEntity
  8
1
  6
Continuous
100
AcDbCircle
 10
832.7841193152377
 20
328.7265391679831
 30
0.0
 40
17.0
100
AcDbArc
 50
203.3426503321282
 51
270.6740852299611
  0
ARC
  5
1A9A
330
18
100
AcDbEntity
  8
1
  6
Continuous
100
AcDbCircle
 10
832.7841193152377
 20
328.7265391679831
 30
0.0
 40
20.75
100
AcDbArc
 50
178.0926391261798
 51
39.69686345351811
  0
ARC
  5
1A9B
330
18
100
AcDbEntity
  8
1
  6
Continuous
100
AcDbCircle
 10
832.7841193152377
 20
328.7265391679831
 30
0.0
 40
23.0
100
AcDbArc
 50
314.4775120000003
 51
345.5224879999986
  0
ARC
  5
1A9C
330
18
100
AcDbEntity
  8
1
  6
Continuous
100
AcDbCircle
 10
832.7841193152377
 20
328.7265391679831
 30
0.0
 40
23.0
100
AcDbArc
 50
194.4775120000013
 51
225.5224879999996
  0
ARC
  5
1A9D
330
18
100
AcDbEntity
  8
1
  6
Continuous
100
AcDbCircle
 10
833.1841203152377
 20
328.7265391679831
 30
0.0
 40
17.0
100
AcDbArc
 50
214.6350600000004
 51
8.064987000000751
  0
ARC
  5
1A9E
330
18
100
AcDbEntity
  8
1
  6
Continuous
100
AcDbCircle
 10
832.7841193152377
 20
302.7265391679831
 30
0.0
 40
25.0
100
AcDbArc
 50
258.1523620000004
 51
281.8476379999999
  0
ARC
  5
1A9F
330
18
100
AcDbEntity
  8
1
  6
Continuous
100
AcDbCircle
 10
832.7841193152377
 20
328.7265391679831
 30
0.0
 40
23.0
100
AcDbArc
 50
254.477512
 51
285.5224879999998
  0
LINE
  5
1AA0
330
18
100
AcDbEntity
  8
1
  6
Continuous
100
AcDbLine
 10
844.6075103152377
 20
304.2478251679832
 30
0.0
 11
850.6833433152376
 21
293.7241741679831
 31
0.0
  0
ARC
  5
1AA1
330
18
100
AcDbEntity
  8
1
  6
Continuous
100
AcDbCircle
 10
828.6779223152377
 20
322.3004791679831
 30
0.0
 40
45.0
100
AcDbArc
 50
281.8476379999999
 51
293.2507169999995
  0
ARC
  5
1AA2
330
18
100
AcDbEntity
  8
1
  6
Continuous
100
AcDbCircle
 10
842.8891143152377
 20
289.2241741679831
 30
0.0
 40
9.0
100
AcDbArc
 50
293.2507169999995
 51
29.99999999999994
  0
ARC
  5
1AA3
330
18
100
AcDbEntity
  8
1
  6
Continuous
100
AcDbCircle
 10
840.2773833152377
 20
301.7478251679832
 30
0.0
 40
5.0
100
AcDbArc
 50
29.99999999999994
 51
105.5224879999999
  0
LINE
  5
1AA4
330
18
100
AcDbEntity
  8
1
  6
Continuous
100
AcDbLine
 10
848.0716113152377
 20
306.2478251679832
 30
0.0
 11
854.1474453152376
 21
295.7241741679831
 31
0.0
  0
ARC
  5
1AA5
330
18
100
AcDbEntity
  8
1
  6
Continuous
100
AcDbCircle
 10
852.4017393152377
 20
308.7478251679832
 30
0.0
 40
5.0
100
AcDbArc
 50
134.4775120000003
 51
209.9999999999999
  0
LINE
  5
1AA6
330
18
100
AcDbEntity
  8
1
  6
Continuous
100
AcDbLine
 10
820.9607283152376
 20
304.2478251679832
 30
0.0
 11
814.8848953152377
 21
293.7241741679831
 31
0.0
  0
ARC
  5
1AA7
330
18
100
AcDbEntity
  8
1
  6
Continuous
100
AcDbCircle
 10
803.6265653152376
 20
300.2241741679831
 30
0.0
 40
9.0
100
AcDbArc
 50
233.250717
 51
330.0
  0
ARC
  5
1AA8
330
18
100
AcDbEntity
  8
1
  6
Continuous
100
AcDbCircle
 10
822.6791243152375
 20
289.2241741679831
 30
0.0
 40
9.0
100
AcDbArc
 50
150.0
 51
246.7492830000005
  0
ARC
  5
1AA9
330
18
100
AcDbEntity
  8
1
  6
Continuous
100
AcDbCircle
 10
836.8903163152378
 20
322.3004791679831
 30
0.0
 40
45.0
100
AcDbArc
 50
246.7492830000005
 51
258.1523620000004
  0
LINE
  5
1AAA
330
18
100
AcDbEntity
  8
1
  6
Continuous
100
AcDbLine
 10
817.4966273152378
 20
306.2478251679832
 30
0.0
 11
811.4207933152377
 21
295.7241741679831
 31
0.0
  0
ARC
  5
1AAB
330
18
100
AcDbEntity
  8
1
  6
Continuous
100
AcDbCircle
 10
825.2908553152375
 20
301.7478251679832
 30
0.0
 40
5.0
100
AcDbArc
 50
74.47751200000009
 51
150.0
  0
ARC
  5
1AAC
330
18
100
AcDbEntity
  8
1
  6
Continuous
100
AcDbCircle
 10
813.1664993152377
 20
308.7478251679832
 30
0.0
 40
5.0
100
AcDbArc
 50
330.0
 51
45.52248799999968
  0
ARC
  5
1AAE
330
18
100
AcDbEntity
  8
1
  6
Continuous
100
AcDbCircle
 10
832.7841193152377
 20
328.7265391679831
 30
0.0
 40
23.0
100
AcDbArc
 50
14.47751200000133
 51
45.52248799999968
  0
ARC
  5
1AAF
330
18
100
AcDbEntity
  8
1
  6
Continuous
100
AcDbCircle
 10
852.4017393152377
 20
348.7052531679831
 30
0.0
 40
5.0
100
AcDbArc
 50
203.0268173669472
 51
225.5224879999996
  0
ARC
  5
1AB0
330
18
100
AcDbEntity
  8
1
  6
Continuous
100
AcDbCircle
 10
852.4017393152377
 20
348.7052531679831
 30
0.0
 40
5.0
100
AcDbArc
 50
150.0
 51
173.1031802264173
  0
ARC
  5
1AB1
330
18
100
AcDbEntity
  8
1
  6
Continuous
100
AcDbCircle
 10
805.6732363152377
 20
321.7265391679831
 30
0.0
 40
5.0
100
AcDbArc
 50
14.47751200000133
 51
90.0
  0
ARC
  5
1AB2
330
18
100
AcDbEntity
  8
1
  6
Continuous
100
AcDbCircle
 10
805.6732363152377
 20
335.7265391679831
 30
0.0
 40
5.0
100
AcDbArc
 50
270.0
 51
323.9914131905641
  0
ARC
  5
1AB3
330
18
100
AcDbEntity
  8
1
  6
Continuous
100
AcDbCircle
 10
829.2720873152378
 20
321.9574381679833
 30
0.0
 40
45.0
100
AcDbArc
 50
186.7492830000009
 51
198.152361999999
  0
ARC
  5
1AB4
330
18
100
AcDbEntity
  8
1
  6
Continuous
100
AcDbCircle
 10
810.2674593152379
 20
315.7265391679831
 30
0.0
 40
25.0
100
AcDbArc
 50
198.152361999999
 51
221.8476379999989
  0
ARC
  5
1AB5
330
18
100
AcDbEntity
  8
1
  6
Continuous
100
AcDbCircle
 10
793.5215693152374
 20
339.7265391679831
 30
0.0
 40
9.0
100
AcDbArc
 50
173.250716999999
 51
270.0
  0
ARC
  5
1AB6
330
18
100
AcDbEntity
  8
1
  6
Continuous
100
AcDbCircle
 10
793.5215693152374
 20
317.7265391679831
 30
0.0
 40
9.0
100
AcDbArc
 50
90.0
 51
186.7492830000009
  0
ARC
  5
1AB7
330
18
100
AcDbEntity
  8
1
  6
Continuous
100
AcDbCircle
 10
829.2720873152378
 20
335.4956401679833
 30
0.0
 40
45.0
100
AcDbArc
 50
161.8476380000008
 51
173.250716999999
  0
LINE
  5
1AB8
330
18
100
AcDbEntity
  8
1
  6
Continuous
100
AcDbLine
 10
756.2841423152377
 20
431.7265151679833
 30
0.0
 11
827.2841343152377
 21
431.7265151679833
 31
0.0
  0
LINE
  5
1AB9
330
18
100
AcDbEntity
  8
1
  6
Continuous
100
AcDbLine
 10
828.7841233152377
 20
429.726531167983
 30
0.0
 11
754.7841263152377
 21
429.726531167983
 31
0.0
  0
LINE
  5
1ABA
330
18
100
AcDbEntity
  8
1
  6
Continuous
100
AcDbLine
 10
827.7841233152377
 20
428.726531167983
 30
0.0
 11
755.7841263152377
 21
428.726531167983
 31
0.0
  0
LINE
  5
1ABB
330
18
100
AcDbEntity
  8
1
  6
Continuous
100
AcDbLine
 10
827.2841233152377
 20
431.7265311679832
 30
0.0
 11
791.7841233152377
 21
431.7265311679832
 31
0.0
  0
LINE
  5
1ABC
330
18
100
AcDbEntity
  8
1
  6
Continuous
100
AcDbLine
 10
829.2841233152376
 20
433.226531167983
 30
0.0
 11
754.2840963152378
 21
433.226531167983
 31
0.0
  0
LINE
  5
1ABD
330
18
100
AcDbEntity
  8
1
  6
Continuous
100
AcDbLine
 10
829.2841233152376
 20
433.226531167983
 30
0.0
 11
791.7841233152377
 21
433.226531167983
 31
0.0
  0
LINE
  5
1ABE
330
18
100
AcDbEntity
  8
1
  6
Continuous
100
AcDbLine
 10
829.5379643152378
 20
437.2265391679833
 30
0.0
 11
754.1571353152377
 21
437.2265391679833
 31
0.0
  0
LINE
  5
1ABF
330
18
100
AcDbEntity
  8
1
  6
Continuous
100
AcDbLine
 10
842.7841193152376
 20
439.726539167983
 30
0.0
 11
740.7841193152377
 21
439.726539167983
 31
0.0
  0
ARC
  5
1AC0
330
18
100
AcDbEntity
  8
1
  6
Continuous
100
AcDbCircle
 10
828.6779223152377
 20
335.1525991679833
 30
0.0
 40
45.0
100
AcDbArc
 50
66.74928300000046
 51
70.87835528364698
  0
ARC
  5
1AC1
330
18
100
AcDbEntity
  8
1
  6
Continuous
100
AcDbCircle
 10
842.8891143152377
 20
368.2289041679831
 30
0.0
 40
9.0
100
AcDbArc
 50
330.0
 51
66.74928300000046
  0
ARC
  5
1AC2
330
18
100
AcDbEntity
  8
1
  6
Continuous
100
AcDbCircle
 10
827.7841233152377
 20
429.7265401679831
 30
0.0
 40
1.0
100
AcDbArc
 50
269.999972
 51
0.0000219999999413
  0
ARC
  5
1AC3
330
18
100
AcDbEntity
  8
1
  6
Continuous
100
AcDbCircle
 10
830.9341243152376
 20
422.3765391679831
 30
0.0
 40
3.0
100
AcDbArc
 50
180.0000029999993
 51
269.9999749999999
  0
LINE
  5
1AC4
330
18
100
AcDbEntity
  8
1
  6
Continuous
100
AcDbLine
 10
842.9341203152377
 20
419.3765291679833
 30
0.0
 11
819.7841193152378
 21
419.3765291679833
 31
0.0
  0
LINE
  5
1AC5
330
18
100
AcDbEntity
  8
1
  6
Continuous
100
AcDbLine
 10
829.2841243152377
 20
433.2265361679833
 30
0.0
 11
827.2841233152377
 21
431.726536167983
 31
0.0
  0
LINE
  5
1AC6
330
18
100
AcDbEntity
  8
1
  6
Continuous
100
AcDbLine
 10
829.2841413152377
 20
433.2265131679831
 30
0.0
 11
827.2841413152377
 21
431.7265131679833
 31
0.0
  0
LINE
  5
1AC7
330
18
100
AcDbEntity
  8
1
  6
Continuous
100
AcDbLine
 10
826.6970133152378
 20
437.2265391679833
 30
0.0
 11
829.2841323152375
 21
433.226546167983
 31
0.0
  0
ARC
  5
1AC8
330
18
100
AcDbEntity
  8
1
  6
Continuous
100
AcDbCircle
 10
840.9640893152378
 20
416.3765291679832
 30
0.0
 40
3.0
100
AcDbArc
 50
90.00001800000005
 51
188.0649940000004
  0
ARC
  5
1AC9
330
18
100
AcDbEntity
  8
1
  6
Continuous
100
AcDbCircle
 10
839.6616523152376
 20
414.8765291679833
 30
0.0
 40
1.5
100
AcDbArc
 50
90.00001800000005
 51
188.0650280000004
  0
LINE
  5
1ACA
330
18
100
AcDbEntity
  8
1
  6
Continuous
100
AcDbLine
 10
842.9341203152377
 20
419.3765291679833
 30
0.0
 11
842.9341203152377
 21
416.3765291679832
 31
0.0
  0
LINE
  5
1ACB
330
18
100
AcDbEntity
  8
1
  6
Continuous
100
AcDbLine
 10
842.9341203152377
 20
416.3765291679832
 30
0.0
 11
839.6616523152376
 21
416.3765291679832
 31
0.0
  0
ARC
  5
1ACC
330
18
100
AcDbEntity
  8
1
  6
Continuous
100
AcDbCircle
 10
829.4111023152376
 20
442.2249411679833
 30
0.0
 40
5.0
100
AcDbArc
 50
268.546012
 51
330.0212940000001
  0
ARC
  5
1ACD
330
18
100
AcDbEntity
  8
1
  6
Continuous
100
AcDbCircle
 10
819.7841193152378
 20
422.376529167983
 30
0.0
 40
3.0
100
AcDbArc
 50
195.1415289999992
 51
270.000003
  0
LINE
  5
1ACE
330
18
100
AcDbEntity
  8
1
  6
Continuous
100
AcDbLine
 10
827.9341203152377
 20
425.3765391679833
 30
0.0
 11
827.9341203152377
 21
422.3765391679831
 31
0.0
  0
ARC
  5
1ACF
330
18
100
AcDbEntity
  8
1
  6
Continuous
100
AcDbCircle
 10
821.9341243152376
 20
425.3765371679833
 30
0.0
 40
6.0
100
AcDbArc
 50
0.0000360000000476
 51
33.94062600000018
  0
LINE
  5
1AD0
330
18
100
AcDbEntity
  8
1
  6
Continuous
100
AcDbLine
 10
827.7841143152377
 20
429.7265411679833
 30
0.0
 11
825.7841153152376
 21
431.7265401679831
 31
0.0
  0
ARC
  5
1AD1
330
18
100
AcDbEntity
  8
1
  6
Continuous
100
AcDbCircle
 10
825.1658903152375
 20
328.3834981679831
 30
0.0
 40
45.0
100
AcDbArc
 50
137.7460487334208
 51
138.152362000001
  0
ARC
  5
1AD2
330
18
100
AcDbEntity
  8
1
  6
Continuous
100
AcDbCircle
 10
752.6341173152377
 20
422.3765191679832
 30
0.0
 40
3.0
100
AcDbArc
 50
311.580729
 51
0.0000219999999413
  0
LINE
  5
1AD3
330
18
100
AcDbEntity
  8
1
  6
Continuous
100
AcDbLine
 10
753.1341173152377
 20
416.8162741679831
 30
0.0
 11
753.1341173152377
 21
410.3765181679832
 31
0.0
  0
ARC
  5
1AD4
330
18
100
AcDbEntity
  8
1
  6
Continuous
100
AcDbCircle
 10
752.9746783152376
 20
404.376521167983
 30
0.0
 40
6.0
100
AcDbArc
 50
34.63502400000054
 51
88.47715900000006
  0
ARC
  5
1AD5
330
18
100
AcDbEntity
  8
1
  6
Continuous
100
AcDbCircle
 10
757.5673913152377
 20
416.816276167983
 30
0.0
 40
4.433264999999997
100
AcDbArc
 50
131.5806799999996
 51
180.0000029999993
  0
ARC
  5
1AD6
330
18
100
AcDbEntity
  8
1
  6
Continuous
100
AcDbCircle
 10
754.1571353152377
 20
442.2249181679831
 30
0.0
 40
5.0
100
AcDbArc
 50
209.9786970000002
 51
271.4539789999999
  0
LINE
  5
1AD7
330
18
100
AcDbEntity
  8
1
  6
Continuous
100
AcDbLine
 10
754.2841163152376
 20
433.226532167983
 30
0.0
 11
756.2841163152376
 21
431.7265321679832
 31
0.0
  0
LINE
  5
1AD8
330
18
100
AcDbEntity
  8
1
  6
Continuous
100
AcDbLine
 10
754.2840973152378
 20
433.226518167983
 30
0.0
 11
756.2840973152377
 21
431.7265181679831
 31
0.0
  0
ARC
  5
1AD9
330
18
100
AcDbEntity
  8
1
  6
Continuous
100
AcDbCircle
 10
761.6341173152378
 20
425.3765211679832
 30
0.0
 40
6.0
100
AcDbArc
 50
146.0594099999994
 51
180.0000029999993
  0
LINE
  5
1ADA
330
18
100
AcDbEntity
  8
1
  6
Continuous
100
AcDbLine
 10
755.7841053152377
 20
429.726544167983
 30
0.0
 11
757.7841023152378
 21
431.7265411679833
 31
0.0
  0
LINE
  5
1ADB
330
18
100
AcDbEntity
  8
1
  6
Continuous
100
AcDbLine
 10
755.6341173152377
 20
425.376519167983
 30
0.0
 11
755.6341173152377
 21
422.3765191679832
 31
0.0
  0
ARC
  5
1ADC
330
18
100
AcDbEntity
  8
1
  6
Continuous
100
AcDbCircle
 10
755.7841263152377
 20
429.7265231679831
 30
0.0
 40
1.0
100
AcDbArc
 50
179.9999990000002
 51
270.0000370000001
  0
LINE
  5
1ADD
330
18
100
AcDbEntity
  8
1
  6
Continuous
100
AcDbLine
 10
756.8712223152378
 20
437.2265401679832
 30
0.0
 11
754.2841023152377
 21
433.226545167983
 31
0.0
  0
LINE
  5
1AE1
330
18
100
AcDbEntity
  8
1
  6
Continuous
100
AcDbLine
 10
842.7841193152376
 20
443.726539167983
 30
0.0
 11
740.7841193152377
 21
443.726539167983
 31
0.0
  0
ARC
  5
1B77
330
18
100
AcDbEntity
  8
1
  6
Continuous
100
AcDbCircle
 10
832.7841193152373
 20
328.7265391679828
 30
0.0
 40
10.5
100
AcDbArc
 50
334.7912667175472
 51
25.20873328245271
  0
LINE
  5
1B78
330
18
100
AcDbEntity
  8
1
  6
Continuous
100
AcDbLine
 10
842.2841218140641
 20
334.2114021679826
 30
0.0
 11
842.2841218140641
 21
323.2417441679826
 31
0.0
  0
ARC
  5
1B79
330
18
100
AcDbEntity
  8
1
  6
Continuous
100
AcDbCircle
 10
832.7841193152373
 20
328.7265391679828
 30
0.0
 40
10.5
100
AcDbArc
 50
154.7912667175525
 51
205.2087332824473
  0
LINE
  5
1B7A
330
18
100
AcDbEntity
  8
1
  6
Continuous
100
AcDbLine
 10
823.2841168164098
 20
334.2114021679826
 30
0.0
 11
823.2841168164098
 21
323.2417441679826
 31
0.0
  0
CIRCLE
  5
1B7B
330
18
100
AcDbEntity
  8
1
  6
Continuous
100
AcDbCircle
 10
832.7841193152368
 20
328.7265391679826
 30
0.0
 40
5.999976999999942
  0
CIRCLE
  5
1B7C
330
18
100
AcDbEntity
  8
2
  6
Continuous
100
AcDbCircle
 10
832.7841193152368
 20
328.7265391679826
 30
0.0
 40
5.052976999999998
  0
CIRCLE
  5
1B7D
330
18
100
AcDbEntity
  8
1
  6
Continuous
100
AcDbCircle
 10
832.7841193152368
 20
328.7265391679826
 30
0.0
 40
9.500002498827255
  0
LINE
  5
1B7E
330
18
100
AcDbEntity
  8
1
  6
Continuous
100
AcDbLine
 10
823.2841168164098
 20
323.2417441679826
 30
0.0
 11
832.7841193152368
 21
317.7569151679827
 31
0.0
  0
ARC
  5
1B7F
330
18
100
AcDbEntity
  8
1
  6
Continuous
100
AcDbCircle
 10
832.7841193152373
 20
328.7265391679828
 30
0.0
 40
10.5
100
AcDbArc
 50
214.7908894802266
 51
265.2091105197762
  0
ARC
  5
1B80
330
18
100
AcDbEntity
  8
1
  6
Continuous
100
AcDbCircle
 10
832.7841193152373
 20
328.7265391679828
 30
0.0
 40
10.5
100
AcDbArc
 50
274.7908894802236
 51
325.209110519779
  0
LINE
  5
1B81
330
18
100
AcDbEntity
  8
1
  6
Continuous
100
AcDbLine
 10
842.2841218140641
 20
323.2417441679826
 30
0.0
 11
832.7841193152368
 21
317.7569151679827
 31
0.0
  0
LINE
  5
1B82
330
18
100
AcDbEntity
  8
1
  6
Continuous
100
AcDbLine
 10
832.7841193152368
 20
339.6962311679827
 30
0.0
 11
823.2841168164098
 21
334.2114021679826
 31
0.0
  0
ARC
  5
1B83
330
18
100
AcDbEntity
  8
1
  6
Continuous
100
AcDbCircle
 10
832.7841193152373
 20
328.7265391679828
 30
0.0
 40
10.5
100
AcDbArc
 50
94.7916439601507
 51
145.2083560398483
  0
LINE
  5
1B84
330
18
100
AcDbEntity
  8
1
  6
Continuous
100
AcDbLine
 10
832.7841193152368
 20
339.6962311679827
 30
0.0
 11
842.2841218140641
 21
334.2114021679826
 31
0.0
  0
ARC
  5
1B85
330
18
100
AcDbEntity
  8
1
  6
Continuous
100
AcDbCircle
 10
832.7841193152373
 20
328.7265391679828
 30
0.0
 40
10.5
100
AcDbArc
 50
34.79164396014994
 51
85.20835603984931
  0
ARC
  5
1BAB
330
18
100
AcDbEntity
  8
1
  6
Continuous
100
AcDbCircle
 10
294.142595804503
 20
101.822949596729
 30
0.0
 40
80.0
100
AcDbArc
 50
351.6779590000015
 51
8.322040999998474
  0
ARC
  5
1BAE
330
18
100
AcDbEntity
  8
1
  6
Continuous
100
AcDbCircle
 10
357.842596804503
 20
83.46421559672922
 30
0.0
 40
1.5
100
AcDbArc
 50
97.15438899999988
 51
180.0
  0
ARC
  5
1BAF
330
18
100
AcDbEntity
  8
1
  6
Continuous
100
AcDbCircle
 10
369.3423298045031
 20
90.82294959672925
 30
0.0
 40
4.0
100
AcDbArc
 50
278.8618200000003
 51
351.6779590000015
  0
LINE
  5
1BB0
330
18
100
AcDbEntity
  8
1
  6
Continuous
100
AcDbLine
 10
357.567460804503
 20
84.93876659672912
 30
0.0
 11
369.9585378045032
 21
86.8706985967292
 31
0.0
  0
LINE
  5
1BB1
330
18
100
AcDbEntity
  8
1
  6
Continuous
100
AcDbLine
 10
356.3425968045031
 20
82.82294959672922
 30
0.0
 11
356.3425968045031
 21
83.46421559672922
 31
0.0
  0
ARC
  5
1BB2
330
18
100
AcDbEntity
  8
1
  6
Continuous
100
AcDbCircle
 10
318.3925958045031
 20
81.82294959672914
 30
0.0
 40
1.5
100
AcDbArc
 50
270.0
 51
0.000000000000007
  0
ARC
  5
1BB4
330
18
100
AcDbEntity
  8
1
  6
Continuous
100
AcDbCircle
 10
320.3925958045031
 20
82.32294959672913
 30
0.0
 40
0.5
100
AcDbArc
 50
89.99999999999998
 51
180.0
  0
LINE
  5
1BB5
330
18
100
AcDbEntity
  8
1
  6
Continuous
100
AcDbLine
 10
319.8925958045031
 20
82.32294959672913
 30
0.0
 11
319.8925958045031
 21
81.82294959672914
 31
0.0
  0
ARC
  5
1BB8
330
18
100
AcDbEntity
  8
1
  6
Continuous
100
AcDbCircle
 10
357.842596804503
 20
120.1816835967292
 30
0.0
 40
1.5
100
AcDbArc
 50
180.0
 51
262.8456110000001
  0
ARC
  5
1BB9
330
18
100
AcDbEntity
  8
1
  6
Continuous
100
AcDbCircle
 10
369.3423298045031
 20
112.8229495967292
 30
0.0
 40
4.0
100
AcDbArc
 50
8.322040999998474
 51
81.13817999999968
  0
LINE
  5
1BBA
330
18
100
AcDbEntity
  8
1
  6
Continuous
100
AcDbLine
 10
357.567460804503
 20
118.707132596729
 30
0.0
 11
369.958537804503
 21
116.7752005967291
 31
0.0
  0
LINE
  5
1BBB
330
18
100
AcDbEntity
  8
1
  6
Continuous
100
AcDbLine
 10
356.3425968045031
 20
120.8229495967292
 30
0.0
 11
356.3425968045031
 21
120.1816835967292
 31
0.0
  0
LINE
  5
1BBD
330
18
100
AcDbEntity
  8
1
  6
Continuous
100
AcDbLine
 10
319.8925958045031
 20
121.322949596729
 30
0.0
 11
319.8925958045031
 21
121.8229495967291
 31
0.0
  0
ARC
  5
1BBE
330
18
100
AcDbEntity
  8
1
  6
Continuous
100
AcDbCircle
 10
318.3925958045031
 20
121.8229495967291
 30
0.0
 40
1.5
100
AcDbArc
 50
0.000000000000007
 51
89.99999999999998
  0
ARC
  5
1BBF
330
18
100
AcDbEntity
  8
1
  6
Continuous
100
AcDbCircle
 10
320.3925958045031
 20
121.322949596729
 30
0.0
 40
0.5
100
AcDbArc
 50
180.0
 51
270.0
  0
LINE
  5
1BC0
330
18
100
AcDbEntity
  8
1
  6
Continuous
100
AcDbLine
 10
289.1426148045028
 20
80.32294959672913
 30
0.0
 11
289.1426148045028
 21
73.82294959672901
 31
0.0
  0
LINE
  5
1BC1
330
18
100
AcDbEntity
  8
1
  6
Continuous
100
AcDbLine
 10
289.1426148045028
 20
129.8229495967289
 30
0.0
 11
289.1426148045028
 21
123.322949596729
 31
0.0
  0
LINE
  5
1BC2
330
18
100
AcDbEntity
  8
1
  6
Continuous
100
AcDbLine
 10
289.1426148045028
 20
67.82294959672903
 30
0.0
 11
289.1426148045028
 21
61.82294959672901
 31
0.0
  0
ARC
  5
1D0A
330
18
100
AcDbEntity
  8
1
  6
Continuous
100
AcDbCircle
 10
299.1425958045029
 20
113.2812775967289
 30
0.0
 40
23.541666
100
AcDbArc
 50
60.75825299999978
 51
119.2417949999999
  0
LINE
  5
1D0B
330
18
100
AcDbEntity
  8
1
  6
Continuous
100
AcDbLine
 10
310.6425958045028
 20
133.822949596729
 30
0.0
 11
287.642595804503
 21
133.822949596729
 31
0.0
  0
LINE
  5
1D0C
330
18
100
AcDbEntity
  8
1
  6
Continuous
100
AcDbLine
 10
287.642595804503
 20
132.822949596729
 30
0.0
 11
287.642595804503
 21
133.822949596729
 31
0.0
  0
LINE
  5
1D0D
330
18
100
AcDbEntity
  8
1
  6
Continuous
100
AcDbLine
 10
310.6425958045028
 20
132.822949596729
 30
0.0
 11
310.6425958045028
 21
133.822949596729
 31
0.0
  0
LINE
  5
1D0E
330
18
100
AcDbEntity
  8
1
  6
Continuous
100
AcDbLine
 10
290.642595804503
 20
129.3229495967289
 30
0.0
 11
307.6425958045029
 21
129.3229495967289
 31
0.0
  0
LINE
  5
1D0F
330
18
100
AcDbEntity
  8
1
  6
Continuous
100
AcDbLine
 10
290.142595804503
 20
128.8229495967289
 30
0.0
 11
290.142595804503
 21
123.3229495967289
 31
0.0
  0
LINE
  5
1D10
330
18
100
AcDbEntity
  8
1
  6
Continuous
100
AcDbLine
 10
290.642595804503
 20
129.8229495967289
 30
0.0
 11
290.642595804503
 21
129.3229495967289
 31
0.0
  0
ARC
  5
1D11
330
18
100
AcDbEntity
  8
1
  6
Continuous
100
AcDbCircle
 10
290.642595804503
 20
128.8229495967289
 30
0.0
 40
0.5
100
AcDbArc
 50
89.99999999999998
 51
180.0
  0
LINE
  5
1D12
330
18
100
AcDbEntity
  8
1
  6
Continuous
100
AcDbLine
 10
308.1425958045028
 20
128.8229495967289
 30
0.0
 11
308.1425958045028
 21
123.3229495967289
 31
0.0
  0
LINE
  5
1D13
330
18
100
AcDbEntity
  8
1
  6
Continuous
100
AcDbLine
 10
307.6425958045029
 20
129.8229495967289
 30
0.0
 11
307.6425958045029
 21
129.3229495967289
 31
0.0
  0
ARC
  5
1D14
330
18
100
AcDbEntity
  8
1
  6
Continuous
100
AcDbCircle
 10
307.6425958045029
 20
128.8229495967289
 30
0.0
 40
0.5
100
AcDbArc
 50
0.0
 51
89.99999999999998
  0
LINE
  5
1D15
330
18
100
AcDbEntity
  8
1
  6
Continuous
100
AcDbLine
 10
290.642595804503
 20
74.32294959672903
 30
0.0
 11
307.6425958045029
 21
74.32294959672903
 31
0.0
  0
LINE
  5
1D16
330
18
100
AcDbEntity
  8
1
  6
Continuous
100
AcDbLine
 10
290.642595804503
 20
74.32294959672903
 30
0.0
 11
290.642595804503
 21
73.82294959672903
 31
0.0
  0
ARC
  5
1D17
330
18
100
AcDbEntity
  8
1
  6
Continuous
100
AcDbCircle
 10
290.642595804503
 20
74.82294959672905
 30
0.0
 40
0.5
100
AcDbArc
 50
180.0
 51
270.0
  0
LINE
  5
1D18
330
18
100
AcDbEntity
  8
1
  6
Continuous
100
AcDbLine
 10
290.142595804503
 20
74.82294959672903
 30
0.0
 11
290.142595804503
 21
80.32294959672903
 31
0.0
  0
LINE
  5
1D19
330
18
100
AcDbEntity
  8
1
  6
Continuous
100
AcDbLine
 10
307.6425958045029
 20
74.32294959672903
 30
0.0
 11
307.6425958045029
 21
73.82294959672903
 31
0.0
  0
ARC
  5
1D1A
330
18
100
AcDbEntity
  8
1
  6
Continuous
100
AcDbCircle
 10
307.6425958045029
 20
74.82294959672905
 30
0.0
 40
0.5
100
AcDbArc
 50
270.0
 51
0.0
  0
LINE
  5
1D1B
330
18
100
AcDbEntity
  8
1
  6
Continuous
100
AcDbLine
 10
308.1425958045028
 20
74.82294959672903
 30
0.0
 11
308.1425958045028
 21
80.32294959672903
 31
0.0
  0
LINE
  5
1D1F
330
18
100
AcDbEntity
  8
1
  6
Continuous
100
AcDbLine
 10
309.6425958045029
 20
67.82294959672903
 30
0.0
 11
288.6425958045029
 21
67.82294959672903
 31
0.0
  0
LINE
  5
1D20
330
18
100
AcDbEntity
  8
1
  6
Continuous
100
AcDbLine
 10
305.1425958045029
 20
57.572689596729
 30
0.0
 11
305.1425958045029
 21
60.82295659672901
 31
0.0
  0
LINE
  5
1D21
330
18
100
AcDbEntity
  8
2
  6
Continuous
100
AcDbLine
 10
304.195595804503
 20
56.82295659672901
 30
0.0
 11
304.195595804503
 21
60.82294959672903
 31
0.0
  0
LINE
  5
1D22
330
18
100
AcDbEntity
  8
1
  6
Continuous
100
AcDbLine
 10
293.1425958045029
 20
57.572689596729
 30
0.0
 11
293.1425958045029
 21
60.82295659672901
 31
0.0
  0
LINE
  5
1D23
330
18
100
AcDbEntity
  8
2
  6
Continuous
100
AcDbLine
 10
294.089595804503
 20
56.82295659672901
 30
0.0
 11
294.089595804503
 21
60.82294959672903
 31
0.0
  0
LINE
  5
1D24
330
18
100
AcDbEntity
  8
1
  6
Continuous
100
AcDbLine
 10
304.3925958045028
 20
56.82295659672901
 30
0.0
 11
293.892595804503
 21
56.82295659672901
 31
0.0
  0
LINE
  5
1D25
330
18
100
AcDbEntity
  8
1
  6
Continuous
100
AcDbLine
 10
305.1425958045029
 20
57.572689596729
 30
0.0
 11
293.1425958045029
 21
57.572689596729
 31
0.0
  0
LINE
  5
1D26
330
18
100
AcDbEntity
  8
1
  6
Continuous
100
AcDbLine
 10
293.1425958045029
 20
57.572689596729
 30
0.0
 11
293.8924918045028
 21
56.82279359672907
 31
0.0
  0
LINE
  5
1D27
330
18
100
AcDbEntity
  8
1
  6
Continuous
100
AcDbLine
 10
305.1425958045029
 20
57.572689596729
 30
0.0
 11
304.3926998045029
 21
56.82279359672907
 31
0.0
  0
LINE
  5
1D2A
330
18
100
AcDbEntity
  8
1
  6
Continuous
100
AcDbLine
 10
288.6425958045029
 20
70.82294959672903
 30
0.0
 11
288.6425958045029
 21
67.82294959672903
 31
0.0
  0
LINE
  5
1D30
330
18
100
AcDbEntity
  8
1
  6
Continuous
100
AcDbLine
 10
309.6425958045029
 20
70.82294959672903
 30
0.0
 11
309.6425958045029
 21
67.82294959672903
 31
0.0
  0
ARC
  5
1D32
330
18
100
AcDbEntity
  8
1
  6
Continuous
100
AcDbCircle
 10
294.3925950512361
 20
58.17299454261354
 30
0.0
 40
9.649962754844267
100
AcDbArc
 50
60.51274927772702
 51
119.4872507222729
  0
LINE
  5
1D33
330
18
100
AcDbEntity
  8
1
  6
Continuous
100
AcDbLine
 10
289.6425948419943
 20
60.82294959672902
 30
0.0
 11
289.6425960137436
 21
67.82294959672902
 31
0.0
  0
ARC
  5
1D34
330
18
100
AcDbEntity
  8
1
  6
Continuous
100
AcDbCircle
 10
303.8925965577699
 20
58.17299454261354
 30
0.0
 40
9.649962754844267
100
AcDbArc
 50
60.51274927772702
 51
119.4872507222729
  0
LINE
  5
1D35
330
18
100
AcDbEntity
  8
1
  6
Continuous
100
AcDbLine
 10
299.1425950512361
 20
62.0729551391895
 30
0.0
 11
299.1425958045029
 21
66.57295175499746
 31
0.0
  0
ARC
  5
1D36
330
18
100
AcDbEntity
  8
1
  6
Continuous
100
AcDbCircle
 10
303.8925965577699
 20
70.47291235157342
 30
0.0
 40
9.649962754844267
100
AcDbArc
 50
240.512749277727
 51
299.487250722273
  0
LINE
  5
1D37
330
18
100
AcDbEntity
  8
1
  6
Continuous
100
AcDbLine
 10
289.6425948419943
 20
60.82294959672902
 30
0.0
 11
308.6425967670118
 21
60.82294959672902
 31
0.0
  0
ARC
  5
1D38
330
18
100
AcDbEntity
  8
1
  6
Continuous
100
AcDbCircle
 10
294.3925950512361
 20
70.47291235157342
 30
0.0
 40
9.649962754844267
100
AcDbArc
 50
240.512749277727
 51
299.487250722273
  0
LINE
  5
1D39
330
18
100
AcDbEntity
  8
1
  6
Continuous
100
AcDbLine
 10
308.6425967670118
 20
60.82294959672902
 30
0.0
 11
308.6425955952623
 21
67.82294959672902
 31
0.0
  0
ARC
  5
1D3A
330
18
100
AcDbEntity
  8
1
  6
Continuous
100
AcDbCircle
 10
300.142595804503
 20
61.82294959672901
 30
0.0
 40
5.5
100
AcDbArc
 50
245.3798476304285
 51
294.6201523695713
  0
ARC
  5
1D60
330
18
100
AcDbEntity
  8
1
  6
Continuous
100
AcDbCircle
 10
344.2733046016571
 20
101.8229495967289
 30
0.0
 40
34.51929320284568
100
AcDbArc
 50
313.0857404507718
 51
46.91425954922807
  0
ARC
  5
1D61
330
18
100
AcDbEntity
  8
1
  6
Continuous
100
AcDbCircle
 10
340.1425958045028
 20
97.40657532924132
 30
0.0
 40
40.56636826748756
100
AcDbArc
 50
46.91425954922807
 51
117.201389238094
  0
ARC
  5
1D62
330
18
100
AcDbEntity
  8
1
  6
Continuous
100
AcDbCircle
 10
340.1425958045028
 20
106.2393238642165
 30
0.0
 40
40.56636826748756
100
AcDbArc
 50
242.7986107619059
 51
313.0857404507718
  0
ARC
  5
1D63
330
18
100
AcDbEntity
  8
1
  6
Continuous
100
AcDbCircle
 10
340.1425958045028
 20
97.40657532924132
 30
0.0
 40
37.56636826748756
100
AcDbArc
 50
46.91425954922807
 51
117.201389238094
  0
ARC
  5
1D64
330
18
100
AcDbEntity
  8
1
  6
Continuous
100
AcDbCircle
 10
344.2733046016571
 20
101.8229495967289
 30
0.0
 40
31.51929320284569
100
AcDbArc
 50
313.0857404507718
 51
46.91425954922807
  0
ARC
  5
1D65
330
18
100
AcDbEntity
  8
1
  6
Continuous
100
AcDbCircle
 10
340.1425958045028
 20
106.2393238642165
 30
0.0
 40
37.56636826748756
100
AcDbArc
 50
242.7986107619057
 51
313.0857404507718
  0
ARC
  5
1D66
330
18
100
AcDbEntity
  8
1
  6
Continuous
100
AcDbCircle
 10
318.8562011788584
 20
138.8229495967289
 30
0.0
 40
6.0
100
AcDbArc
 50
270.0
 51
297.201389238094
  0
ARC
  5
1D67
330
18
100
AcDbEntity
  8
1
  6
Continuous
100
AcDbCircle
 10
318.8562011788584
 20
138.8229495967289
 30
0.0
 40
9.0
100
AcDbArc
 50
270.0
 51
297.201389238094
  0
ARC
  5
1D68
330
18
100
AcDbEntity
  8
1
  6
Continuous
100
AcDbCircle
 10
318.8562011788584
 20
64.82294959672905
 30
0.0
 40
9.0
100
AcDbArc
 50
62.79861076190591
 51
90.00000000000005
  0
ARC
  5
1D69
330
18
100
AcDbEntity
  8
1
  6
Continuous
100
AcDbCircle
 10
318.8562011788584
 20
64.82294959672905
 30
0.0
 40
6.0
100
AcDbArc
 50
62.79861076190591
 51
90.00000000000005
  0
ARC
  5
1D6A
330
18
100
AcDbEntity
  8
1
  6
Continuous
100
AcDbCircle
 10
340.1425958045028
 20
101.8229495967289
 30
0.0
 40
29.65000200000007
100
AcDbArc
 50
225.4969469646183
 51
328.0795705173862
  0
ARC
  5
1D6B
330
18
100
AcDbEntity
  8
1
  6
Continuous
100
AcDbCircle
 10
340.1425958045028
 20
101.8229495967289
 30
0.0
 40
29.65000200000007
100
AcDbArc
 50
31.9204294826147
 51
134.5030530353811
  0
ARC
  5
1E39
330
18
100
AcDbEntity
  8
1
  6
Continuous
100
AcDbCircle
 10
711.8420805598702
 20
373.7265311679832
 30
0.0
 40
179.028732
100
AcDbArc
 50
187.3787041074539
 51
193.4408207507375
  0
ARC
  5
1E3A
330
18
100
AcDbEntity
  8
1
  6
Continuous
100
AcDbCircle
 10
420.0846345598703
 20
373.7265311679832
 30
0.0
 40
179.028732
100
AcDbArc
 50
346.5591792492624
 51
352.6213090480844
  0
ARC
  5
1E3B
330
18
100
AcDbEntity
  8
1
  6
Continuous
100
AcDbCircle
 10
528.9633575598704
 20
330.0209625134391
 30
0.0
 40
6.0
100
AcDbArc
 50
0.0
 51
13.44082075073785
  0
ARC
  5
1E3C
330
18
100
AcDbEntity
  8
1
  6
Continuous
100
AcDbCircle
 10
602.9633575598702
 20
330.0209625134391
 30
0.0
 40
6.0
100
AcDbArc
 50
166.5591792492626
 51
180.0
  0
ARC
  5
1E3D
330
18
100
AcDbEntity
  8
1
  6
Continuous
100
AcDbCircle
 10
602.9633575598702
 20
330.0209625134395
 30
0.0
 40
9.0
100
AcDbArc
 50
166.5591792492632
 51
180.0000000000003
  0
ARC
  5
1E3E
330
18
100
AcDbEntity
  8
1
  6
Continuous
100
AcDbCircle
 10
528.9633575598704
 20
330.0209625134393
 30
0.0
 40
9.0
100
AcDbArc
 50
0.0
 51
13.44082075073785
  0
ARC
  5
1E3F
330
18
100
AcDbEntity
  8
1
  6
Continuous
100
AcDbCircle
 10
554.1302710438526
 20
353.3029482131932
 30
0.0
 40
20.0
100
AcDbArc
 50
165.6198097240014
 51
187.3787041074537
  0
ARC
  5
1E40
330
18
100
AcDbEntity
  8
1
  6
Continuous
100
AcDbCircle
 10
577.7964487652907
 20
353.3029844250016
 30
0.0
 40
20.0
100
AcDbArc
 50
352.6213090480843
 51
14.38019292757383
  0
ARC
  5
1E41
330
18
100
AcDbEntity
  8
1
  6
Continuous
100
AcDbCircle
 10
554.1302710438526
 20
353.3029482131932
 30
0.0
 40
23.0
100
AcDbArc
 50
165.6198097240014
 51
187.3787041074537
  0
LINE
  5
1E42
330
18
100
AcDbEntity
  8
1
  6
Continuous
100
AcDbLine
 10
531.8508820544211
 20
359.0151129742626
 30
0.0
 11
539.8177676841721
 21
390.0886816481298
 31
0.0
  0
LINE
  5
1E43
330
18
100
AcDbEntity
  8
1
  6
Continuous
100
AcDbLine
 10
600.0758374903705
 20
359.0151502171325
 30
0.0
 11
592.1089595664408
 21
390.0886828581143
 31
0.0
  0
ARC
  5
1E44
330
18
100
AcDbEntity
  8
1
  6
Continuous
100
AcDbCircle
 10
577.7964487652907
 20
353.3029844250016
 30
0.0
 40
23.0
100
AcDbArc
 50
352.6213090480843
 51
14.38019292757383
  0
ARC
  5
1E46
330
18
100
AcDbEntity
  8
1
  6
Continuous
100
AcDbCircle
 10
565.9633637804192
 20
383.3852683386811
 30
0.0
 40
26.99125682930277
100
AcDbArc
 50
14.38019292757389
 51
165.619809724001
  0
ENDSEC
  0
SECTION
  2
OBJECTS
  0
DICTIONARY
  5
C
330
0
100
AcDbDictionary
281
     1
  3
ACAD_CIP_PREVIOUS_PRODUCT_INFO
350
20E5
  3
ACAD_COLOR
350
20C8
  3
ACAD_DETAILVIEWSTYLE
350
20E1
  3
ACAD_GROUP
350
D
  3
ACAD_LAYOUT
350
94
  3
ACAD_MATERIAL
350
2096
  3
ACAD_MLEADERSTYLE
350
20DD
  3
ACAD_MLINESTYLE
350
1B
  3
ACAD_PLOTSETTINGS
350
95
  3
ACAD_PLOTSTYLENAME
350
2094
  3
ACAD_SCALELIST
350
20CB
  3
ACAD_SECTIONVIEWSTYLE
350
20DF
  3
ACAD_TABLESTYLE
350
20C9
  3
ACAD_VISUALSTYLE
350
20AF
  3
ACDB_RECOMPOSE_DATA
350
2103
  3
AcDbVariableDictionary
350
20F6
  3
CONTENTDICTIONARY
350
3D
  3
DWGPROPS
350
2104
  0
DICTIONARY
  5
20E6
330
E
100
AcDbDictionary
280
     1
281
     1
  3
ADSK_XREC_LAYER_RECONCILED
360
20E7
  0
DICTIONARY
  5
20E8
330
4E
100
AcDbDictionary
280
     1
281
     1
  3
ADSK_XREC_LAYER_RECONCILED
360
20E9
  0
DICTIONARY
  5
20EA
330
4F
100
AcDbDictionary
280
     1
281
     1
  3
ADSK_XREC_LAYER_RECONCILED
360
20EB
  0
DICTIONARY
  5
20EC
330
50
100
AcDbDictionary
280
     1
281
     1
  3
ADSK_XREC_LAYER_RECONCILED
360
20ED
  0
DICTIONARY
  5
20EE
330
51
100
AcDbDictionary
280
     1
281
     1
  3
ADSK_XREC_LAYER_RECONCILED
360
20EF
  0
DICTIONARY
  5
20F0
330
52
100
AcDbDictionary
280
     1
281
     1
  3
ADSK_XREC_LAYER_RECONCILED
360
20F1
  0
DICTIONARY
  5
20F2
330
53
100
AcDbDictionary
280
     1
281
     1
  3
ADSK_XREC_LAYER_RECONCILED
360
20F3
  0
DICTIONARY
  5
20F4
330
54
100
AcDbDictionary
280
     1
281
     1
  3
ADSK_XREC_LAYER_RECONCILED
360
20F5
  0
DICTIONARY
  5
2078
330
18
100
AcDbDictionary
281
     1
  3
ACAD_LAYOUTSELFREF
350
2090
  0
DICTIONARY
  5
2076
330
15
100
AcDbDictionary
281
     1
  3
ACAD_LAYOUTSELFREF
350
208F
  0
XRECORD
  5
20E5
102
{ACAD_REACTORS
330
C
102
}
330
C
100
AcDbXrecord
280
     1
300
ACDLT
300
2014
300
ACDLT_F_S
  0
DICTIONARY
  5
20C8
102
{ACAD_REACTORS
330
C
102
}
330
C
100
AcDbDictionary
281
     1
  0
DICTIONARY
  5
20E1
102
{ACAD_REACTORS
330
C
102
}
330
C
100
AcDbDictionary
281
     1
  3
Imperial24
350
20E2
  0
DICTIONARY
  5
D
102
{ACAD_REACTORS
330
C
102
}
330
C
100
AcDbDictionary
281
     1
  0
DICTIONARY
  5
94
102
{ACAD_REACTORS
330
C
102
}
330
C
100
AcDbDictionary
281
     1
  3
Model
350
20E3
  3
レイアウト1
350
20E4
  0
DICTIONARY
  5
2096
102
{ACAD_REACTORS
330
C
102
}
330
C
100
AcDbDictionary
281
     1
  3
ByBlock
350
209F
  3
ByLayer
350
2097
  3
Global
350
20A7
  0
DICTIONARY
  5
20DD
102
{ACAD_REACTORS
330
C
102
}
330
C
100
AcDbDictionary
281
     1
  3
Standard
350
20DE
  0
DICTIONARY
  5
1B
102
{ACAD_REACTORS
330
C
102
}
330
C
100
AcDbDictionary
281
     1
  3
STANDARD
350
1C
  0
DICTIONARY
  5
95
102
{ACAD_REACTORS
330
C
102
}
330
C
100
AcDbDictionary
281
     1
  0
ACDBDICTIONARYWDFLT
  5
2094
102
{ACAD_REACTORS
330
C
102
}
330
C
100
AcDbDictionary
281
     1
  3
Normal
350
2095
100
AcDbDictionaryWithDefault
340
2095
  0
DICTIONARY
  5
20CB
102
{ACAD_REACTORS
330
C
102
}
330
C
100
AcDbDictionary
281
     1
  3
A0
350
20CC
  3
A1
350
20CD
  3
A2
350
20CE
  3
A3
350
20CF
  3
A4
350
20D0
  3
A5
350
20D1
  3
A6
350
20D2
  3
A7
350
20D3
  3
A8
350
20D4
  3
A9
350
20D5
  3
B0
350
20D6
  3
B1
350
20D7
  3
B2
350
20D8
  3
B3
350
20D9
  3
B4
350
20DA
  3
B5
350
20DB
  3
B6
350
20DC
  0
DICTIONARY
  5
20DF
102
{ACAD_REACTORS
330
C
102
}
330
C
100
AcDbDictionary
281
     1
  3
Imperial24
350
20E0
  0
DICTIONARY
  5
20C9
102
{ACAD_REACTORS
330
C
102
}
330
C
100
AcDbDictionary
281
     1
  3
Standard
350
20CA
  0
DICTIONARY
  5
20AF
102
{ACAD_REACTORS
330
C
102
}
330
C
100
AcDbDictionary
281
     1
  3
2dWireframe
350
20B5
  3
Basic
350
20B4
  3
Brighten
350
20BB
  3
ColorChange
350
20BF
  3
Conceptual
350
20B8
  3
Dim
350
20BA
  3
EdgeColorOff
350
20C7
  3
Facepattern
350
20BE
  3
Flat
350
20B0
  3
FlatWithEdges
350
20B1
  3
Gouraud
350
20B2
  3
GouraudWithEdges
350
20B3
  3
Hidden
350
20B7
  3
JitterOff
350
20C5
  3
Linepattern
350
20BD
  3
OverhangOff
350
20C6
  3
Realistic
350
20B9
  3
Shaded
350
20C4
  3
Shaded with edges
350
20C3
  3
Shades of Gray
350
20C0
  3
Sketchy
350
20C1
  3
Thicken
350
20BC
  3
Wireframe
350
20B6
  3
X-Ray
350
20C2
  0
XRECORD
  5
2103
102
{ACAD_REACTORS
330
C
102
}
330
C
100
AcDbXrecord
280
     1
 90
        1
330
20CA
  0
DICTIONARY
  5
20F6
102
{ACAD_REACTORS
330
C
102
}
330
C
100
AcDbDictionary
281
     1
  3
CANNOSCALE
350
20FB
  3
CMLEADERSTYLE
350
20F8
  3
CTABLESTYLE
350
20F7
  3
CVIEWDETAILSTYLE
350
20F9
  3
CVIEWSECTIONSTYLE
350
20FA
  3
DIMASSOC
350
20FE
  3
INDEXCTL
350
20FD
  3
SORTENTS
350
20FC
  3
XCLIPFRAME
350
20FF
  0
DICTIONARY
  5
3D
102
{ACAD_REACTORS
330
C
102
}
330
C
100
AcDbDictionary
281
     1
  0
XRECORD
  5
2104
102
{ACAD_REACTORS
330
C
102
}
330
C
100
AcDbXrecord
280
     1
  1
DWGPROPS COOKIE
  2

  3

  4

  6

  7

  8
Yoshitsune
  9

300
=
301
=
302
=
303
=
304
=
305
=
306
=
307
=
308
=
309
=
 40
0.0990582986111111
 41
2453811.402924803
 42
2457192.689629549
  1

 90
        0
  0
XRECORD
  5
20E7
102
{ACAD_REACTORS
330
20E6
102
}
330
20E6
100
AcDbXrecord
280
     1
290
     1
  0
XRECORD
  5
20E9
102
{ACAD_REACTORS
330
20E8
102
}
330
20E8
100
AcDbXrecord
280
     1
290
     1
  0
XRECORD
  5
20EB
102
{ACAD_REACTORS
330
20EA
102
}
330
20EA
100
AcDbXrecord
280
     1
290
     1
  0
XRECORD
  5
20ED
102
{ACAD_REACTORS
330
20EC
102
}
330
20EC
100
AcDbXrecord
280
     1
290
     1
  0
XRECORD
  5
20EF
102
{ACAD_REACTORS
330
20EE
102
}
330
20EE
100
AcDbXrecord
280
     1
290
     1
  0
XRECORD
  5
20F1
102
{ACAD_REACTORS
330
20F0
102
}
330
20F0
100
AcDbXrecord
280
     1
290
     1
  0
XRECORD
  5
20F3
102
{ACAD_REACTORS
330
20F2
102
}
330
20F2
100
AcDbXrecord
280
     1
290
     1
  0
XRECORD
  5
20F5
102
{ACAD_REACTORS
330
20F4
102
}
330
20F4
100
AcDbXrecord
280
     1
290
     1
  0
XRECORD
  5
2090
102
{ACAD_REACTORS
330
2078
102
}
330
2078
100
AcDbXrecord
280
     1
340
18
  0
XRECORD
  5
208F
102
{ACAD_REACTORS
330
2076
102
}
330
2076
100
AcDbXrecord
280
     1
340
15
  0
ACDBDETAILVIEWSTYLE
  5
20E2
102
{ACAD_XDICTIONARY
360
213C
102
}
102
{ACAD_REACTORS
330
20E1
102
}
330
20E1
100
AcDbModelDocViewStyle
 70
     0
  3
Imperial24
290
     0
100
AcDbDetailViewStyle
 70
     0
 71
     0
 90
        3
 71
     1
340
F
 40
0.24
340
0
 40
0.24
300

 40
0.36
280
     3
 71
     2
340
14
 90
       25
 71
     3
340
F
 40
0.24
 90
        1
 40
0.75
 90
        1
300
%<\AcVar ViewType \f "%tc1">% %<\AcVar ViewDetailId>%\PSCALE %<\AcVar ViewScale \f "%sn">%
 71
     4
340
14
 90
       25
340
14
 90
       25
280
     0
  0
LAYOUT
  5
20E3
102
{ACAD_XDICTIONARY
360
213E
102
}
102
{ACAD_REACTORS
330
94
102
}
330
94
100
AcDbPlotSettings
  1

  2
Canon LBP9100C
  4

  6

 40
0.0
 41
0.0
 42
0.0
 43
0.0
 44
0.0
 45
0.0
 46
0.0
 47
0.0
 48
0.0
 49
0.0
140
0.0
141
0.0
142
1.0
143
1.0
 70
  1712
 72
     0
 73
     0
 74
     0
  7

 75
     0
147
1.0
148
0.0
149
0.0
100
AcDbLayout
  1
Model
 70
     1
 71
     0
 10
0.0
 20
0.0
 11
12.0
 21
9.0
 12
0.0
 22
0.0
 32
0.0
 14
0.0
 24
0.0
 34
0.0
 15
0.0
 25
0.0
 35
0.0
146
0.0
 13
0.0
 23
0.0
 33
0.0
 16
1.0
 26
0.0
 36
0.0
 17
0.0
 27
1.0
 37
0.0
 76
     0
330
18
331
208E
  0
LAYOUT
  5
20E4
102
{ACAD_XDICTIONARY
360
2140
102
}
102
{ACAD_REACTORS
330
94
102
}
330
94
100
AcDbPlotSettings
  1

  2
Canon LBP9100C
  4

  6

 40
0.0
 41
0.0
 42
0.0
 43
0.0
 44
0.0
 45
0.0
 46
0.0
 47
0.0
 48
0.0
 49
0.0
140
0.0
141
0.0
142
1.0
143
1.0
 70
   688
 72
     0
 73
     0
 74
     5
  7

 75
    16
147
1.0
148
0.0
149
0.0
100
AcDbLayout
  1
レイアウト1
 70
     1
 71
     1
 10
0.0
 20
0.0
 11
420.0
 21
297.0
 12
0.0
 22
0.0
 32
0.0
 14
1.000000000000000E+20
 24
1.000000000000000E+20
 34
1.000000000000000E+20
 15
-1.000000000000000E+20
 25
-1.000000000000000E+20
 35
-1.000000000000000E+20
146
0.0
 13
0.0
 23
0.0
 33
0.0
 16
1.0
 26
0.0
 36
0.0
 17
0.0
 27
1.0
 37
0.0
 76
     0
330
15
  0
MATERIAL
  5
209F
102
{ACAD_XDICTIONARY
360
20A0
102
}
102
{ACAD_REACTORS
330
2096
102
}
330
2096
100
AcDbMaterial
  1
ByBlock
 72
     0
 43
0.0208333333333333
 43
0.0
 43
0.0
 43
0.0
 43
0.0
 43
0.0208333333333333
 43
0.0
 43
0.0
 43
0.0
 43
0.0
 43
1.0
 43
0.0
 43
0.0
 43
0.0
 43
0.0
 43
1.0
 77
     0
 47
0.0208333333333333
 47
0.0
 47
0.0
 47
0.0
 47
0.0
 47
0.0208333333333333
 47
0.0
 47
0.0
 47
0.0
 47
0.0
 47
1.0
 47
0.0
 47
0.0
 47
0.0
 47
0.0
 47
1.0
171
     0
 49
0.0208333333333333
 49
0.0
 49
0.0
 49
0.0
 49
0.0
 49
0.0208333333333333
 49
0.0
 49
0.0
 49
0.0
 49
0.0
 49
1.0
 49
0.0
 49
0.0
 49
0.0
 49
0.0
 49
1.0
175
     0
142
0.0208333333333333
142
0.0
142
0.0
142
0.0
142
0.0
142
0.0208333333333333
142
0.0
142
0.0
142
0.0
142
0.0
142
1.0
142
0.0
142
0.0
142
0.0
142
0.0
142
1.0
179
     0
144
0.0208333333333333
144
0.0
144
0.0
144
0.0
144
0.0
144
0.0208333333333333
144
0.0
144
0.0
144
0.0
144
0.0
144
1.0
144
0.0
144
0.0
144
0.0
144
0.0
144
1.0
147
0.0208333333333333
147
0.0
147
0.0
147
0.0
147
0.0
147
0.0208333333333333
147
0.0
147
0.0
147
0.0
147
0.0
147
1.0
147
0.0
147
0.0
147
0.0
147
0.0
147
1.0
  0
MATERIAL
  5
2097
102
{ACAD_XDICTIONARY
360
2098
102
}
102
{ACAD_REACTORS
330
2096
102
}
330
2096
100
AcDbMaterial
  1
ByLayer
 72
     0
 43
0.0208333333333333
 43
0.0
 43
0.0
 43
0.0
 43
0.0
 43
0.0208333333333333
 43
0.0
 43
0.0
 43
0.0
 43
0.0
 43
1.0
 43
0.0
 43
0.0
 43
0.0
 43
0.0
 43
1.0
 77
     0
 47
0.0208333333333333
 47
0.0
 47
0.0
 47
0.0
 47
0.0
 47
0.0208333333333333
 47
0.0
 47
0.0
 47
0.0
 47
0.0
 47
1.0
 47
0.0
 47
0.0
 47
0.0
 47
0.0
 47
1.0
171
     0
 49
0.0208333333333333
 49
0.0
 49
0.0
 49
0.0
 49
0.0
 49
0.0208333333333333
 49
0.0
 49
0.0
 49
0.0
 49
0.0
 49
1.0
 49
0.0
 49
0.0
 49
0.0
 49
0.0
 49
1.0
175
     0
142
0.0208333333333333
142
0.0
142
0.0
142
0.0
142
0.0
142
0.0208333333333333
142
0.0
142
0.0
142
0.0
142
0.0
142
1.0
142
0.0
142
0.0
142
0.0
142
0.0
142
1.0
179
     0
144
0.0208333333333333
144
0.0
144
0.0
144
0.0
144
0.0
144
0.0208333333333333
144
0.0
144
0.0
144
0.0
144
0.0
144
1.0
144
0.0
144
0.0
144
0.0
144
0.0
144
1.0
147
0.0208333333333333
147
0.0
147
0.0
147
0.0
147
0.0
147
0.0208333333333333
147
0.0
147
0.0
147
0.0
147
0.0
147
1.0
147
0.0
147
0.0
147
0.0
147
0.0
147
1.0
  0
MATERIAL
  5
20A7
102
{ACAD_XDICTIONARY
360
20A8
102
}
102
{ACAD_REACTORS
330
2096
102
}
330
2096
100
AcDbMaterial
  1
Global
 72
     0
 43
0.0208333333333333
 43
0.0
 43
0.0
 43
0.0
 43
0.0
 43
0.0208333333333333
 43
0.0
 43
0.0
 43
0.0
 43
0.0
 43
1.0
 43
0.0
 43
0.0
 43
0.0
 43
0.0
 43
1.0
 77
     0
 47
0.0208333333333333
 47
0.0
 47
0.0
 47
0.0
 47
0.0
 47
0.0208333333333333
 47
0.0
 47
0.0
 47
0.0
 47
0.0
 47
1.0
 47
0.0
 47
0.0
 47
0.0
 47
0.0
 47
1.0
171
     0
 49
0.0208333333333333
 49
0.0
 49
0.0
 49
0.0
 49
0.0
 49
0.0208333333333333
 49
0.0
 49
0.0
 49
0.0
 49
0.0
 49
1.0
 49
0.0
 49
0.0
 49
0.0
 49
0.0
 49
1.0
175
     0
142
0.0208333333333333
142
0.0
142
0.0
142
0.0
142
0.0
142
0.0208333333333333
142
0.0
142
0.0
142
0.0
142
0.0
142
1.0
142
0.0
142
0.0
142
0.0
142
0.0
142
1.0
179
     0
144
0.0208333333333333
144
0.0
144
0.0
144
0.0
144
0.0
144
0.0208333333333333
144
0.0
144
0.0
144
0.0
144
0.0
144
1.0
144
0.0
144
0.0
144
0.0
144
0.0
144
1.0
147
0.0208333333333333
147
0.0
147
0.0
147
0.0
147
0.0
147
0.0208333333333333
147
0.0
147
0.0
147
0.0
147
0.0
147
1.0
147
0.0
147
0.0
147
0.0
147
0.0
147
1.0
  0
MLEADERSTYLE
  5
20DE
102
{ACAD_REACTORS
330
20DD
102
}
330
20DD
100
AcDbMLeaderStyle
170
     2
171
     1
172
     0
 90
        2
 40
0.0
 41
0.0
173
     1
 91
-1056964608
340
12
 92
       -2
290
     1
 42
0.09
291
     1
 43
0.36
  3
Standard
 44
0.18
300

342
F
174
     1
178
     6
175
     1
176
     0
 93
-1056964608
 45
0.18
292
     0
297
     0
 46
0.18
 94
-1056964608
 47
1.0
 49
1.0
140
1.0
293
     1
141
0.0
294
     1
177
     0
142
1.0
295
     0
296
     0
143
0.125
1001
ACAD_MLEADERVER
1070
     2
  0
MLINESTYLE
  5
1C
102
{ACAD_REACTORS
330
1B
102
}
330
1B
100
AcDbMlineStyle
  2
STANDARD
 70
     0
  3

 62
   256
 51
90.0
 52
90.0
 71
     2
 49
0.5
 62
   256
  6
BYLAYER
 49
-0.5
 62
   256
  6
BYLAYER
  0
ACDBPLACEHOLDER
  5
2095
102
{ACAD_REACTORS
330
2094
102
}
330
2094
  0
SCALE
  5
20CC
102
{ACAD_REACTORS
330
20CB
102
}
330
20CB
100
AcDbScale
 70
     0
300
1:1
140
1.0
141
1.0
290
     1
  0
SCALE
  5
20CD
102
{ACAD_REACTORS
330
20CB
102
}
330
20CB
100
AcDbScale
 70
     0
300
1/128" = 1'-0"
140
0.0078125
141
12.0
290
     0
  0
SCALE
  5
20CE
102
{ACAD_REACTORS
330
20CB
102
}
330
20CB
100
AcDbScale
 70
     0
300
1/64" = 1'-0"
140
0.015625
141
12.0
290
     0
  0
SCALE
  5
20CF
102
{ACAD_REACTORS
330
20CB
102
}
330
20CB
100
AcDbScale
 70
     0
300
1/32" = 1'-0"
140
0.03125
141
12.0
290
     0
  0
SCALE
  5
20D0
102
{ACAD_REACTORS
330
20CB
102
}
330
20CB
100
AcDbScale
 70
     0
300
1/16" = 1'-0"
140
0.0625
141
12.0
290
     0
  0
SCALE
  5
20D1
102
{ACAD_REACTORS
330
20CB
102
}
330
20CB
100
AcDbScale
 70
     0
300
3/32" = 1'-0"
140
0.09375
141
12.0
290
     0
  0
SCALE
  5
20D2
102
{ACAD_REACTORS
330
20CB
102
}
330
20CB
100
AcDbScale
 70
     0
300
1/8" = 1'-0"
140
0.125
141
12.0
290
     0
  0
SCALE
  5
20D3
102
{ACAD_REACTORS
330
20CB
102
}
330
20CB
100
AcDbScale
 70
     0
300
3/16" = 1'-0"
140
0.1875
141
12.0
290
     0
  0
SCALE
  5
20D4
102
{ACAD_REACTORS
330
20CB
102
}
330
20CB
100
AcDbScale
 70
     0
300
1/4" = 1'-0"
140
0.25
141
12.0
290
     0
  0
SCALE
  5
20D5
102
{ACAD_REACTORS
330
20CB
102
}
330
20CB
100
AcDbScale
 70
     0
300
3/8" = 1'-0"
140
0.375
141
12.0
290
     0
  0
SCALE
  5
20D6
102
{ACAD_REACTORS
330
20CB
102
}
330
20CB
100
AcDbScale
 70
     0
300
1/2" = 1'-0"
140
0.5
141
12.0
290
     0
  0
SCALE
  5
20D7
102
{ACAD_REACTORS
330
20CB
102
}
330
20CB
100
AcDbScale
 70
     0
300
3/4" = 1'-0"
140
0.75
141
12.0
290
     0
  0
SCALE
  5
20D8
102
{ACAD_REACTORS
330
20CB
102
}
330
20CB
100
AcDbScale
 70
     0
300
1" = 1'-0"
140
1.0
141
12.0
290
     0
  0
SCALE
  5
20D9
102
{ACAD_REACTORS
330
20CB
102
}
330
20CB
100
AcDbScale
 70
     0
300
1-1/2" = 1'-0"
140
1.5
141
12.0
290
     0
  0
SCALE
  5
20DA
102
{ACAD_REACTORS
330
20CB
102
}
330
20CB
100
AcDbScale
 70
     0
300
3" = 1'-0"
140
3.0
141
12.0
290
     0
  0
SCALE
  5
20DB
102
{ACAD_REACTORS
330
20CB
102
}
330
20CB
100
AcDbScale
 70
     0
300
6" = 1'-0"
140
6.0
141
12.0
290
     0
  0
SCALE
  5
20DC
102
{ACAD_REACTORS
330
20CB
102
}
330
20CB
100
AcDbScale
 70
     0
300
1'-0" = 1'-0"
140
12.0
141
12.0
290
     0
  0
ACDBSECTIONVIEWSTYLE
  5
20E0
102
{ACAD_XDICTIONARY
360
213A
102
}
102
{ACAD_REACTORS
330
20DF
102
}
330
20DF
100
AcDbModelDocViewStyle
 70
     0
  3
Imperial24
290
     0
100
AcDbSectionViewStyle
 70
     0
 71
     0
 90
       78
 71
     1
340
F
 40
0.24
340
0
340
0
 40
0.24
300
I, O, Q, S, X, Z
 40
0.48
 90
        3
 40
0.18
 90
        1
 71
     2
340
14
 90
       25
340
14
 90
       50
 40
0.24
 40
0.0
 40
0.24
 71
     3
340
F
 40
0.24
 90
        1
 40
0.75
 90
        1
300
%<\AcVar ViewType \f "%tc1">% %<\AcVar ViewSectionStartId>%-%<\AcVar ViewSectionEndId>%\PSCALE %<\AcVar ViewScale \f "%sn">%
 71
     4
300
ANSI31
 40
1.0
 90
        0
290
     0
290
     0
 90
        6
 40
0.0
 40
1.570796326794896
 40
0.2617993877991494
 40
1.308996938995747
 40
-0.2617993877991494
 40
1.832595714594046
  0
TABLESTYLE
  5
20CA
102
{ACAD_XDICTIONARY
360
2101
102
}
102
{ACAD_REACTORS
330
20C9
102
}
330
20C9
100
AcDbTableStyle
  3
Standard
 70
     0
 71
     0
 40
0.06
 41
0.06
280
     0
281
     0
  7
STANDARD
140
0.18
170
     2
 62
     0
 63
     7
283
     0
274
    -2
284
     1
 64
     0
275
    -2
285
     1
 65
     0
276
    -2
286
     1
 66
     0
277
    -2
287
     1
 67
     0
278
    -2
288
     1
 68
     0
279
    -2
289
     1
 69
     0
  7
STANDARD
140
0.25
170
     5
 62
     0
 63
     7
283
     0
274
    -2
284
     1
 64
     0
275
    -2
285
     1
 65
     0
276
    -2
286
     1
 66
     0
277
    -2
287
     1
 67
     0
278
    -2
288
     1
 68
     0
279
    -2
289
     1
 69
     0
  7
STANDARD
140
0.18
170
     5
 62
     0
 63
     7
283
     0
274
    -2
284
     1
 64
     0
275
    -2
285
     1
 65
     0
276
    -2
286
     1
 66
     0
277
    -2
287
     1
 67
     0
278
    -2
288
     1
 68
     0
279
    -2
289
     1
 69
     0
  0
VISUALSTYLE
  5
20B5
102
{ACAD_XDICTIONARY
360
2112
102
}
102
{ACAD_REACTORS
330
20AF
102
}
330
20AF
100
AcDbVisualStyle
  2
2dWireframe
 70
     4
 71
     0
 72
     2
 73
     0
 90
        0
 40
-0.6
 41
-30.0
 62
     5
 63
     7
 74
     1
 91
        4
 64
     7
 65
   257
 75
     1
175
     1
 42
1.0
 92
        0
 66
   257
 43
1.0
 76
     1
 77
     6
 78
     2
 67
     7
 79
     5
170
     0
171
     0
290
     0
174
     0
 93
        1
 44
0.0
173
     0
291
     0
 45
0.0
1001
ACAD
1000
AcDbSavedByObjectVersion
1070
     0
  0
VISUALSTYLE
  5
20B4
102
{ACAD_XDICTIONARY
360
2110
102
}
102
{ACAD_REACTORS
330
20AF
102
}
330
20AF
100
AcDbVisualStyle
  2
Basic
 70
     7
 71
     1
 72
     0
 73
     1
 90
        0
 40
-0.6
 41
-30.0
 62
     5
 63
     7
 74
     0
 91
        4
 64
     7
 65
   257
 75
     1
175
     1
 42
1.0
 92
        8
 66
     7
 43
1.0
 76
     1
 77
     6
 78
     2
 67
     7
 79
     5
170
     0
171
     0
290
     0
174
     0
 93
        1
 44
0.0
173
     0
291
     1
 45
0.0
1001
ACAD
1000
AcDbSavedByObjectVersion
1070
     0
  0
VISUALSTYLE
  5
20BB
102
{ACAD_XDICTIONARY
360
211E
102
}
102
{ACAD_REACTORS
330
20AF
102
}
330
20AF
100
AcDbVisualStyle
  2
Brighten
 70
    12
 71
     2
 72
     2
 73
     0
 90
        0
 40
-0.6
 41
-30.0
 62
     5
 63
     7
 74
     1
 91
        4
 64
     7
 65
   257
 75
     1
175
     1
 42
1.0
 92
        8
 66
     7
 43
1.0
 76
     1
 77
     6
 78
     2
 67
     7
 79
     5
170
     0
171
     0
290
     0
174
     0
 93
        1
 44
50.0
173
     0
291
     1
 45
0.0
1001
ACAD
1000
AcDbSavedByObjectVersion
1070
     0
  0
VISUALSTYLE
  5
20BF
102
{ACAD_XDICTIONARY
360
2126
102
}
102
{ACAD_REACTORS
330
20AF
102
}
330
20AF
100
AcDbVisualStyle
  2
ColorChange
 70
    16
 71
     2
 72
     2
 73
     3
 90
        0
 40
-0.6
 41
-30.0
 62
     5
 63
     8
 74
     1
 91
        4
 64
     7
 65
   257
 75
     1
175
     1
 42
1.0
 92
        8
 66
     8
 43
1.0
 76
     1
 77
     6
 78
     2
 67
     7
 79
     5
170
     0
171
     0
290
     0
174
     0
 93
        1
 44
0.0
173
     0
291
     1
 45
0.0
1001
ACAD
1000
AcDbSavedByObjectVersion
1070
     0
  0
VISUALSTYLE
  5
20B8
102
{ACAD_XDICTIONARY
360
2118
102
}
102
{ACAD_REACTORS
330
20AF
102
}
330
20AF
100
AcDbVisualStyle
  2
Conceptual
 70
     9
 71
     3
 72
     2
 73
     0
 90
        0
 40
-0.6
 41
-30.0
 62
     5
 63
     7
 74
     2
 91
        2
 64
     7
 65
   257
 75
     1
175
     1
 42
179.0
 92
        8
 66
     7
 43
1.0
 76
     1
 77
     6
 78
     2
 67
     7
 79
     3
170
     0
171
     0
290
     0
174
     0
 93
        1
 44
0.0
173
     0
291
     0
 45
0.0
1001
ACAD
1000
AcDbSavedByObjectVersion
1070
     0
  0
VISUALSTYLE
  5
20BA
102
{ACAD_XDICTIONARY
360
211C
102
}
102
{ACAD_REACTORS
330
20AF
102
}
330
20AF
100
AcDbVisualStyle
  2
Dim
 70
    11
 71
     2
 72
     2
 73
     0
 90
        0
 40
-0.6
 41
-30.0
 62
     5
 63
     7
 74
     1
 91
        4
 64
     7
 65
   257
 75
     1
175
     1
 42
1.0
 92
        8
 66
     7
 43
1.0
 76
     1
 77
     6
 78
     2
 67
     7
 79
     5
170
     0
171
     0
290
     0
174
     0
 93
        1
 44
-50.0
173
     0
291
     1
 45
0.0
1001
ACAD
1000
AcDbSavedByObjectVersion
1070
     0
  0
VISUALSTYLE
  5
20C7
102
{ACAD_XDICTIONARY
360
2136
102
}
102
{ACAD_REACTORS
330
20AF
102
}
330
20AF
100
AcDbVisualStyle
  2
EdgeColorOff
 70
    22
 71
     2
 72
     2
 73
     0
 90
        0
 40
-0.6
 41
-30.0
 62
     5
 63
     7
 74
     1
 91
        4
 64
     7
 65
   257
 75
     1
175
     1
 42
1.0
 92
        8
 66
     7
 43
1.0
 76
     1
 77
     6
 78
     2
 67
     7
 79
     5
170
     0
171
     0
290
     0
174
     0
 93
        1
 44
0.0
173
     0
291
     1
 45
0.0
1001
ACAD
1000
AcDbSavedByObjectVersion
1070
     0
  0
VISUALSTYLE
  5
20BE
102
{ACAD_XDICTIONARY
360
2124
102
}
102
{ACAD_REACTORS
330
20AF
102
}
330
20AF
100
AcDbVisualStyle
  2
Facepattern
 70
    15
 71
     2
 72
     2
 73
     0
 90
        0
 40
-0.6
 41
-30.0
 62
     5
 63
     7
 74
     1
 91
        4
 64
     7
 65
   257
 75
     1
175
     1
 42
1.0
 92
        8
 66
     7
 43
1.0
 76
     1
 77
     6
 78
     2
 67
     7
 79
     5
170
     0
171
     0
290
     0
174
     0
 93
        1
 44
0.0
173
     0
291
     1
 45
0.0
1001
ACAD
1000
AcDbSavedByObjectVersion
1070
     0
  0
VISUALSTYLE
  5
20B0
102
{ACAD_XDICTIONARY
360
2108
102
}
102
{ACAD_REACTORS
330
20AF
102
}
330
20AF
100
AcDbVisualStyle
  2
Flat
 70
     0
 71
     2
 72
     1
 73
     1
 90
        2
 40
-0.6
 41
30.0
 62
     5
 63
     7
 74
     0
 91
        0
 64
     7
 65
   257
 75
     1
175
     1
 42
1.0
 92
        8
 66
     7
 43
1.0
 76
     1
 77
     6
 78
     2
 67
     7
 79
     5
170
     0
171
     0
290
     0
174
     0
 93
       13
 44
0.0
173
     0
291
     1
 45
0.0
1001
ACAD
1000
AcDbSavedByObjectVersion
1070
     0
  0
VISUALSTYLE
  5
20B1
102
{ACAD_XDICTIONARY
360
210A
102
}
102
{ACAD_REACTORS
330
20AF
102
}
330
20AF
100
AcDbVisualStyle
  2
FlatWithEdges
 70
     1
 71
     2
 72
     1
 73
     1
 90
        2
 40
-0.6
 41
30.0
 62
     5
 63
     7
 74
     1
 91
        0
 64
     7
 65
   257
 75
     1
175
     1
 42
1.0
 92
        0
 66
   257
 43
1.0
 76
     1
 77
     6
 78
     2
 67
     7
 79
     5
170
     0
171
     0
290
     0
174
     0
 93
       13
 44
0.0
173
     0
291
     1
 45
0.0
1001
ACAD
1000
AcDbSavedByObjectVersion
1070
     0
  0
VISUALSTYLE
  5
20B2
102
{ACAD_XDICTIONARY
360
210C
102
}
102
{ACAD_REACTORS
330
20AF
102
}
330
20AF
100
AcDbVisualStyle
  2
Gouraud
 70
     2
 71
     2
 72
     2
 73
     1
 90
        2
 40
-0.6
 41
30.0
 62
     5
 63
     7
 74
     0
 91
        0
 64
     7
 65
   257
 75
     1
175
     1
 42
1.0
 92
        0
 66
     7
 43
1.0
 76
     1
 77
     6
 78
     2
 67
     7
 79
     5
170
     0
171
     0
290
     0
174
     0
 93
       13
 44
0.0
173
     0
291
     1
 45
0.0
1001
ACAD
1000
AcDbSavedByObjectVersion
1070
     0
  0
VISUALSTYLE
  5
20B3
102
{ACAD_XDICTIONARY
360
210E
102
}
102
{ACAD_REACTORS
330
20AF
102
}
330
20AF
100
AcDbVisualStyle
  2
GouraudWithEdges
 70
     3
 71
     2
 72
     2
 73
     1
 90
        2
 40
-0.6
 41
30.0
 62
     5
 63
     7
 74
     1
 91
        0
 64
     7
 65
   257
 75
     1
175
     1
 42
1.0
 92
        0
 66
   257
 43
1.0
 76
     1
 77
     6
 78
     2
 67
     7
 79
     5
170
     0
171
     0
290
     0
174
     0
 93
       13
 44
0.0
173
     0
291
     1
 45
0.0
1001
ACAD
1000
AcDbSavedByObjectVersion
1070
     0
  0
VISUALSTYLE
  5
20B7
102
{ACAD_XDICTIONARY
360
2116
102
}
102
{ACAD_REACTORS
330
20AF
102
}
330
20AF
100
AcDbVisualStyle
  2
Hidden
 70
     6
 71
     1
 72
     2
 73
     2
 90
        0
 40
-0.6
 41
-30.0
 62
     5
 63
     7
 74
     2
 91
        2
 64
     7
 65
   257
 75
     2
175
     1
 42
40.0
 92
        0
 66
   257
 43
1.0
 76
     1
 77
     6
 78
     2
 67
     7
 79
     3
170
     0
171
     0
290
     0
174
     0
 93
        1
 44
0.0
173
     0
291
     0
 45
0.0
1001
ACAD
1000
AcDbSavedByObjectVersion
1070
     0
  0
VISUALSTYLE
  5
20C5
102
{ACAD_XDICTIONARY
360
2132
102
}
102
{ACAD_REACTORS
330
20AF
102
}
330
20AF
100
AcDbVisualStyle
  2
JitterOff
 70
    20
 71
     2
 72
     2
 73
     0
 90
        0
 40
-0.6
 41
-30.0
 62
     5
 63
     7
 74
     1
 91
        4
 64
     7
 65
   257
 75
     1
175
     1
 42
1.0
 92
       10
 66
     7
 43
1.0
 76
     1
 77
     6
 78
     2
 67
     7
 79
     5
170
     0
171
     0
290
     0
174
     0
 93
        1
 44
0.0
173
     0
291
     1
 45
0.0
1001
ACAD
1000
AcDbSavedByObjectVersion
1070
     0
  0
VISUALSTYLE
  5
20BD
102
{ACAD_XDICTIONARY
360
2122
102
}
102
{ACAD_REACTORS
330
20AF
102
}
330
20AF
100
AcDbVisualStyle
  2
Linepattern
 70
    14
 71
     2
 72
     2
 73
     0
 90
        0
 40
-0.6
 41
-30.0
 62
     5
 63
     7
 74
     1
 91
        4
 64
     7
 65
   257
 75
     7
175
     7
 42
1.0
 92
        8
 66
     7
 43
1.0
 76
     1
 77
     6
 78
     2
 67
     7
 79
     5
170
     0
171
     0
290
     0
174
     0
 93
        1
 44
0.0
173
     0
291
     1
 45
0.0
1001
ACAD
1000
AcDbSavedByObjectVersion
1070
     0
  0
VISUALSTYLE
  5
20C6
102
{ACAD_XDICTIONARY
360
2134
102
}
102
{ACAD_REACTORS
330
20AF
102
}
330
20AF
100
AcDbVisualStyle
  2
OverhangOff
 70
    21
 71
     2
 72
     2
 73
     0
 90
        0
 40
-0.6
 41
-30.0
 62
     5
 63
     7
 74
     1
 91
        4
 64
     7
 65
   257
 75
     1
175
     1
 42
1.0
 92
        9
 66
     7
 43
1.0
 76
     1
 77
     6
 78
     2
 67
     7
 79
     5
170
     0
171
     0
290
     0
174
     0
 93
        1
 44
0.0
173
     0
291
     1
 45
0.0
1001
ACAD
1000
AcDbSavedByObjectVersion
1070
     0
  0
VISUALSTYLE
  5
20B9
102
{ACAD_XDICTIONARY
360
211A
102
}
102
{ACAD_REACTORS
330
20AF
102
}
330
20AF
100
AcDbVisualStyle
  2
Realistic
 70
     8
 71
     2
 72
     3
 73
     0
 90
        2
 40
-0.6
 41
30.0
 62
     5
 63
     7
 74
     0
 91
        0
 64
     7
 65
   257
 75
     1
175
     1
 42
1.0
 92
        8
 66
   257
 43
1.0
 76
     1
 77
     6
 78
     2
 67
     7
 79
     3
170
     0
171
     0
290
     0
174
     0
 93
       13
 44
0.0
173
     0
291
     0
 45
0.0
1001
ACAD
1000
AcDbSavedByObjectVersion
1070
     0
  0
VISUALSTYLE
  5
20C4
102
{ACAD_XDICTIONARY
360
2130
102
}
102
{ACAD_REACTORS
330
20AF
102
}
330
20AF
100
AcDbVisualStyle
  2
Shaded
 70
    27
 71
     2
 72
     2
 73
     1
 90
        2
 40
-0.6
 41
30.0
 62
     5
 63
     7
 74
     0
 91
        4
 64
     7
 65
   257
 75
     1
175
     1
 42
1.0
 92
        8
 66
   257
 43
1.0
 76
     1
 77
     6
 78
     2
 67
     8
 79
     3
170
     0
171
     0
290
     0
174
     0
 93
        5
 44
0.0
173
     0
291
     0
 45
0.0
1001
ACAD
1000
AcDbSavedByObjectVersion
1070
     0
  0
VISUALSTYLE
  5
20C3
102
{ACAD_XDICTIONARY
360
212E
102
}
102
{ACAD_REACTORS
330
20AF
102
}
330
20AF
100
AcDbVisualStyle
  2
Shaded with edges
 70
    26
 71
     2
 72
     2
 73
     1
 90
        2
 40
-0.6
 41
30.0
 62
     5
 63
     7
 74
     1
 91
       10
 64
     7
 65
   257
 75
     2
175
     1
 42
1.0
 92
        8
 66
   257
 43
1.0
 76
     1
 77
     6
 78
     2
 67
     7
 79
     3
170
     0
171
     0
290
     0
174
     0
 93
        5
 44
0.0
173
     0
291
     0
 45
0.0
1001
ACAD
1000
AcDbSavedByObjectVersion
1070
     0
  0
VISUALSTYLE
  5
20C0
102
{ACAD_XDICTIONARY
360
2128
102
}
102
{ACAD_REACTORS
330
20AF
102
}
330
20AF
100
AcDbVisualStyle
  2
Shades of Gray
 70
    23
 71
     2
 72
     2
 73
     3
 90
        0
 40
-0.6
 41
-30.0
 62
     5
 63
     7
 74
     2
 91
        2
 64
     7
 65
     7
 75
     1
175
     1
 42
40.0
 92
        8
 66
     7
 43
1.0
 76
     1
 77
     6
 78
     2
 67
     7
 79
     3
170
     0
171
     0
290
     0
174
     0
 93
        1
 44
0.0
173
     0
291
     0
 45
0.0
1001
ACAD
1000
AcDbSavedByObjectVersion
1070
     0
  0
VISUALSTYLE
  5
20C1
102
{ACAD_XDICTIONARY
360
212A
102
}
102
{ACAD_REACTORS
330
20AF
102
}
330
20AF
100
AcDbVisualStyle
  2
Sketchy
 70
    24
 71
     1
 72
     2
 73
     2
 90
        0
 40
-0.6
 41
-30.0
 62
     5
 63
     7
 74
     2
 91
        2
 64
     7
 65
     7
 75
     1
175
     1
 42
40.0
 92
       11
 66
     7
 43
1.0
 76
     1
 77
     6
 78
     2
 67
     7
 79
     6
170
     0
171
     0
290
     0
174
     0
 93
        1
 44
0.0
173
     0
291
     0
 45
0.0
1001
ACAD
1000
AcDbSavedByObjectVersion
1070
     0
  0
VISUALSTYLE
  5
20BC
102
{ACAD_XDICTIONARY
360
2120
102
}
102
{ACAD_REACTORS
330
20AF
102
}
330
20AF
100
AcDbVisualStyle
  2
Thicken
 70
    13
 71
     2
 72
     2
 73
     0
 90
        0
 40
-0.6
 41
-30.0
 62
     5
 63
     7
 74
     1
 91
        4
 64
     7
 65
   257
 75
     1
175
     1
 42
1.0
 92
       12
 66
     7
 43
1.0
 76
     1
 77
     6
 78
     2
 67
     7
 79
     5
170
     0
171
     0
290
     0
174
     0
 93
        1
 44
0.0
173
     0
291
     1
 45
0.0
1001
ACAD
1000
AcDbSavedByObjectVersion
1070
     0
  0
VISUALSTYLE
  5
20B6
102
{ACAD_XDICTIONARY
360
2114
102
}
102
{ACAD_REACTORS
330
20AF
102
}
330
20AF
100
AcDbVisualStyle
  2
Wireframe
 70
     5
 71
     0
 72
     2
 73
     0
 90
        0
 40
-0.6
 41
-30.0
 62
     5
 63
     7
 74
     1
 91
        4
 64
     7
 65
   257
 75
     1
175
     1
 42
1.0
 92
        0
 66
   257
 43
1.0
 76
     1
 77
     6
 78
     2
 67
     7
 79
     3
170
     0
171
     0
290
     0
174
     0
 93
        1
 44
0.0
173
     0
291
     0
 45
0.0
1001
ACAD
1000
AcDbSavedByObjectVersion
1070
     0
  0
VISUALSTYLE
  5
20C2
102
{ACAD_XDICTIONARY
360
212C
102
}
102
{ACAD_REACTORS
330
20AF
102
}
330
20AF
100
AcDbVisualStyle
  2
X-Ray
 70
    25
 71
     2
 72
     2
 73
     1
 90
        1
 40
0.5
 41
-30.0
 62
     5
 63
     7
 74
     1
 91
        0
 64
     7
 65
   257
 75
     1
175
     1
 42
1.0
 92
        8
 66
     7
 43
1.0
 76
     1
 77
     6
 78
     2
 67
     7
 79
     3
170
     0
171
     0
290
     0
174
     0
 93
       13
 44
0.0
173
     0
291
     0
 45
0.0
1001
ACAD
1000
AcDbSavedByObjectVersion
1070
     0
  0
DICTIONARYVAR
  5
20FB
102
{ACAD_REACTORS
330
20F6
102
}
330
20F6
100
DictionaryVariables
280
     0
  1
1:1
  0
DICTIONARYVAR
  5
20F8
102
{ACAD_REACTORS
330
20F6
102
}
330
20F6
100
DictionaryVariables
280
     0
  1
STANDARD
  0
DICTIONARYVAR
  5
20F7
102
{ACAD_REACTORS
330
20F6
102
}
330
20F6
100
DictionaryVariables
280
     0
  1
STANDARD
  0
DICTIONARYVAR
  5
20F9
102
{ACAD_REACTORS
330
20F6
102
}
330
20F6
100
DictionaryVariables
280
     0
  1
Imperial24
  0
DICTIONARYVAR
  5
20FA
102
{ACAD_REACTORS
330
20F6
102
}
330
20F6
100
DictionaryVariables
280
     0
  1
Imperial24
  0
DICTIONARYVAR
  5
20FE
102
{ACAD_REACTORS
330
20F6
102
}
330
20F6
100
DictionaryVariables
280
     0
  1
1
  0
DICTIONARYVAR
  5
20FD
102
{ACAD_REACTORS
330
20F6
102
}
330
20F6
100
DictionaryVariables
280
     0
  1
0
  0
DICTIONARYVAR
  5
20FC
102
{ACAD_REACTORS
330
20F6
102
}
330
20F6
100
DictionaryVariables
280
     0
  1
127
  0
DICTIONARYVAR
  5
20FF
102
{ACAD_REACTORS
330
20F6
102
}
330
20F6
100
DictionaryVariables
280
     0
  1
2
  0
DICTIONARY
  5
213C
330
20E2
100
AcDbDictionary
280
     1
281
     1
  3
ACAD_XREC_ROUNDTRIP
360
213D
  0
DICTIONARY
  5
213E
330
20E3
100
AcDbDictionary
280
     1
281
     1
  3
ACAD_XREC_ROUNDTRIP
360
213F
  0
DICTIONARY
  5
2140
330
20E4
100
AcDbDictionary
280
     1
281
     1
  3
ACAD_XREC_ROUNDTRIP
360
2141
  0
DICTIONARY
  5
20A0
330
209F
100
AcDbDictionary
280
     1
281
     1
  3
ACAD_XREC_ROUNDTRIP
360
2106
  3
BUMPTILE
360
20A2
  3
DIFFUSETILE
360
20A1
  3
OPACITYTILE
360
20A5
  3
REFLECTIONTILE
360
20A4
  3
REFRACTIONTILE
360
20A6
  3
SPECULARTILE
360
20A3
  0
DICTIONARY
  5
2098
330
2097
100
AcDbDictionary
280
     1
281
     1
  3
ACAD_XREC_ROUNDTRIP
360
2105
  3
BUMPTILE
360
209A
  3
DIFFUSETILE
360
2099
  3
OPACITYTILE
360
209D
  3
REFLECTIONTILE
360
209C
  3
REFRACTIONTILE
360
209E
  3
SPECULARTILE
360
209B
  0
DICTIONARY
  5
20A8
330
20A7
100
AcDbDictionary
280
     1
281
     1
  3
ACAD_XREC_ROUNDTRIP
360
2107
  3
BUMPTILE
360
20AA
  3
DIFFUSETILE
360
20A9
  3
OPACITYTILE
360
20AD
  3
REFLECTIONTILE
360
20AC
  3
REFRACTIONTILE
360
20AE
  3
SPECULARTILE
360
20AB
  0
DICTIONARY
  5
213A
330
20E0
100
AcDbDictionary
280
     1
281
     1
  3
ACAD_XREC_ROUNDTRIP
360
213B
  0
DICTIONARY
  5
2101
330
20CA
100
AcDbDictionary
280
     1
281
     1
  3
ACAD_ROUNDTRIP_2008_TABLESTYLE_CELLSTYLEMAP
360
2102
  3
ACAD_XREC_ROUNDTRIP
360
2138
  0
DICTIONARY
  5
2112
330
20B5
100
AcDbDictionary
280
     1
281
     1
  3
ACAD_XREC_ROUNDTRIP
360
2113
  0
DICTIONARY
  5
2110
330
20B4
100
AcDbDictionary
280
     1
281
     1
  3
ACAD_XREC_ROUNDTRIP
360
2111
  0
DICTIONARY
  5
211E
330
20BB
100
AcDbDictionary
280
     1
281
     1
  3
ACAD_XREC_ROUNDTRIP
360
211F
  0
DICTIONARY
  5
2126
330
20BF
100
AcDbDictionary
280
     1
281
     1
  3
ACAD_XREC_ROUNDTRIP
360
2127
  0
DICTIONARY
  5
2118
330
20B8
100
AcDbDictionary
280
     1
281
     1
  3
ACAD_XREC_ROUNDTRIP
360
2119
  0
DICTIONARY
  5
211C
330
20BA
100
AcDbDictionary
280
     1
281
     1
  3
ACAD_XREC_ROUNDTRIP
360
211D
  0
DICTIONARY
  5
2136
330
20C7
100
AcDbDictionary
280
     1
281
     1
  3
ACAD_XREC_ROUNDTRIP
360
2137
  0
DICTIONARY
  5
2124
330
20BE
100
AcDbDictionary
280
     1
281
     1
  3
ACAD_XREC_ROUNDTRIP
360
2125
  0
DICTIONARY
  5
2108
330
20B0
100
AcDbDictionary
280
     1
281
     1
  3
ACAD_XREC_ROUNDTRIP
360
2109
  0
DICTIONARY
  5
210A
330
20B1
100
AcDbDictionary
280
     1
281
     1
  3
ACAD_XREC_ROUNDTRIP
360
210B
  0
DICTIONARY
  5
210C
330
20B2
100
AcDbDictionary
280
     1
281
     1
  3
ACAD_XREC_ROUNDTRIP
360
210D
  0
DICTIONARY
  5
210E
330
20B3
100
AcDbDictionary
280
     1
281
     1
  3
ACAD_XREC_ROUNDTRIP
360
210F
  0
DICTIONARY
  5
2116
330
20B7
100
AcDbDictionary
280
     1
281
     1
  3
ACAD_XREC_ROUNDTRIP
360
2117
  0
DICTIONARY
  5
2132
330
20C5
100
AcDbDictionary
280
     1
281
     1
  3
ACAD_XREC_ROUNDTRIP
360
2133
  0
DICTIONARY
  5
2122
330
20BD
100
AcDbDictionary
280
     1
281
     1
  3
ACAD_XREC_ROUNDTRIP
360
2123
  0
DICTIONARY
  5
2134
330
20C6
100
AcDbDictionary
280
     1
281
     1
  3
ACAD_XREC_ROUNDTRIP
360
2135
  0
DICTIONARY
  5
211A
330
20B9
100
AcDbDictionary
280
     1
281
     1
  3
ACAD_XREC_ROUNDTRIP
360
211B
  0
DICTIONARY
  5
2130
330
20C4
100
AcDbDictionary
280
     1
281
     1
  3
ACAD_XREC_ROUNDTRIP
360
2131
  0
DICTIONARY
  5
212E
330
20C3
100
AcDbDictionary
280
     1
281
     1
  3
ACAD_XREC_ROUNDTRIP
360
212F
  0
DICTIONARY
  5
2128
330
20C0
100
AcDbDictionary
280
     1
281
     1
  3
ACAD_XREC_ROUNDTRIP
360
2129
  0
DICTIONARY
  5
212A
330
20C1
100
AcDbDictionary
280
     1
281
     1
  3
ACAD_XREC_ROUNDTRIP
360
212B
  0
DICTIONARY
  5
2120
330
20BC
100
AcDbDictionary
280
     1
281
     1
  3
ACAD_XREC_ROUNDTRIP
360
2121
  0
DICTIONARY
  5
2114
330
20B6
100
AcDbDictionary
280
     1
281
     1
  3
ACAD_XREC_ROUNDTRIP
360
2115
  0
DICTIONARY
  5
212C
330
20C2
100
AcDbDictionary
280
     1
281
     1
  3
ACAD_XREC_ROUNDTRIP
360
212D
  0
XRECORD
  5
213D
102
{ACAD_REACTORS
330
213C
102
}
330
213C
100
AcDbXrecord
280
     1
102
DISPLAYNAME
  1
Imperial24
102
FLAGS
 90
        0
  0
XRECORD
  5
213F
102
{ACAD_REACTORS
330
213E
102
}
330
213E
100
AcDbXrecord
280
     1
102
SHADEPLOT
 70
     0
102
SHADEPLOTRESLEVEL
 70
     2
102
SHADEPLOTCUSTOMDPI
 70
   300
  0
XRECORD
  5
2141
102
{ACAD_REACTORS
330
2140
102
}
330
2140
100
AcDbXrecord
280
     1
102
SHADEPLOT
 70
     0
102
SHADEPLOTRESLEVEL
 70
     2
102
SHADEPLOTCUSTOMDPI
 70
   300
  0
XRECORD
  5
2106
102
{ACAD_REACTORS
330
20A0
102
}
330
20A0
100
AcDbXrecord
280
     1
102
MATERIAL
148
0.0
149
0.0
149
0.0
 93
        0
 94
      127
282
     0
 72
     0
 77
     0
171
     0
175
     0
179
     0
273
     0
  0
XRECORD
  5
20A2
102
{ACAD_REACTORS
330
20A0
102
}
330
20A0
100
AcDbXrecord
280
     1
270
     1
271
     1
  0
XRECORD
  5
20A1
102
{ACAD_REACTORS
330
20A0
102
}
330
20A0
100
AcDbXrecord
280
     1
270
     1
271
     1
  0
XRECORD
  5
20A5
102
{ACAD_REACTORS
330
20A0
102
}
330
20A0
100
AcDbXrecord
280
     1
270
     1
271
     1
  0
XRECORD
  5
20A4
102
{ACAD_REACTORS
330
20A0
102
}
330
20A0
100
AcDbXrecord
280
     1
270
     1
271
     1
  0
XRECORD
  5
20A6
102
{ACAD_REACTORS
330
20A0
102
}
330
20A0
100
AcDbXrecord
280
     1
270
     1
271
     1
  0
XRECORD
  5
20A3
102
{ACAD_REACTORS
330
20A0
102
}
330
20A0
100
AcDbXrecord
280
     1
270
     1
271
     1
  0
XRECORD
  5
2105
102
{ACAD_REACTORS
330
2098
102
}
330
2098
100
AcDbXrecord
280
     1
102
MATERIAL
148
0.0
149
0.0
149
0.0
 93
        0
 94
      127
282
     0
 72
     0
 77
     0
171
     0
175
     0
179
     0
273
     0
  0
XRECORD
  5
209A
102
{ACAD_REACTORS
330
2098
102
}
330
2098
100
AcDbXrecord
280
     1
270
     1
271
     1
  0
XRECORD
  5
2099
102
{ACAD_REACTORS
330
2098
102
}
330
2098
100
AcDbXrecord
280
     1
270
     1
271
     1
  0
XRECORD
  5
209D
102
{ACAD_REACTORS
330
2098
102
}
330
2098
100
AcDbXrecord
280
     1
270
     1
271
     1
  0
XRECORD
  5
209C
102
{ACAD_REACTORS
330
2098
102
}
330
2098
100
AcDbXrecord
280
     1
270
     1
271
     1
  0
XRECORD
  5
209E
102
{ACAD_REACTORS
330
2098
102
}
330
2098
100
AcDbXrecord
280
     1
270
     1
271
     1
  0
XRECORD
  5
209B
102
{ACAD_REACTORS
330
2098
102
}
330
2098
100
AcDbXrecord
280
     1
270
     1
271
     1
  0
XRECORD
  5
2107
102
{ACAD_REACTORS
330
20A8
102
}
330
20A8
100
AcDbXrecord
280
     1
102
MATERIAL
148
0.0
149
0.0
149
0.0
 93
        0
 94
      127
282
     0
 72
     0
 77
     0
171
     0
175
     0
179
     0
273
     0
  0
XRECORD
  5
20AA
102
{ACAD_REACTORS
330
20A8
102
}
330
20A8
100
AcDbXrecord
280
     1
270
     1
271
     1
  0
XRECORD
  5
20A9
102
{ACAD_REACTORS
330
20A8
102
}
330
20A8
100
AcDbXrecord
280
     1
270
     1
271
     1
  0
XRECORD
  5
20AD
102
{ACAD_REACTORS
330
20A8
102
}
330
20A8
100
AcDbXrecord
280
     1
270
     1
271
     1
  0
XRECORD
  5
20AC
102
{ACAD_REACTORS
330
20A8
102
}
330
20A8
100
AcDbXrecord
280
     1
270
     1
271
     1
  0
XRECORD
  5
20AE
102
{ACAD_REACTORS
330
20A8
102
}
330
20A8
100
AcDbXrecord
280
     1
270
     1
271
     1
  0
XRECORD
  5
20AB
102
{ACAD_REACTORS
330
20A8
102
}
330
20A8
100
AcDbXrecord
280
     1
270
     1
271
     1
  0
XRECORD
  5
213B
102
{ACAD_REACTORS
330
213A
102
}
330
213A
100
AcDbXrecord
280
     1
102
DISPLAYNAME
  1
Imperial24
102
FLAGS
 90
        0
  0
CELLSTYLEMAP
  5
2102
102
{ACAD_REACTORS
330
2101
102
}
330
2101
100
AcDbCellStyleMap
 90
        3
300
CELLSTYLE
  1
TABLEFORMAT_BEGIN
 90
        5
170
     1
 91
        0
 92
    32768
 62
   257
 93
        1
300
CONTENTFORMAT
  1
CONTENTFORMAT_BEGIN
 90
        0
 91
        0
 92
      512
 93
        0
300

 40
0.0
140
1.0
 94
        5
 62
     0
340
F
144
0.25
309
CONTENTFORMAT_END
171
     0
 94
        0
309
TABLEFORMAT_END
  1
CELLSTYLE_BEGIN
 90
        1
 91
        1
300
_TITLE
309
CELLSTYLE_END
300
CELLSTYLE
  1
TABLEFORMAT_BEGIN
 90
        5
170
     1
 91
        0
 92
        0
 62
   257
 93
        1
300
CONTENTFORMAT
  1
CONTENTFORMAT_BEGIN
 90
        0
 91
        0
 92
      512
 93
        0
300

 40
0.0
140
1.0
 94
        5
 62
     0
340
F
144
0.18
309
CONTENTFORMAT_END
171
     0
 94
        0
309
TABLEFORMAT_END
  1
CELLSTYLE_BEGIN
 90
        2
 91
        1
300
_HEADER
309
CELLSTYLE_END
300
CELLSTYLE
  1
TABLEFORMAT_BEGIN
 90
        5
170
     1
 91
        0
 92
        0
 62
   257
 93
        1
300
CONTENTFORMAT
  1
CONTENTFORMAT_BEGIN
 90
        0
 91
        0
 92
      512
 93
        0
300

 40
0.0
140
1.0
 94
        2
 62
     0
340
F
144
0.18
309
CONTENTFORMAT_END
171
     0
 94
        0
309
TABLEFORMAT_END
  1
CELLSTYLE_BEGIN
 90
        3
 91
        2
300
_DATA
309
CELLSTYLE_END
  0
XRECORD
  5
2138
102
{ACAD_REACTORS
330
2101
102
}
330
2101
100
AcDbXrecord
280
     1
102
ACAD_ROUNDTRIP_PRE2007_TABLESTYLE
 90
      512
 91
        0
  1

 92
      512
 93
        0
  2

 94
      512
 95
        0
  3

  0
XRECORD
  5
2113
102
{ACAD_REACTORS
330
2112
102
}
330
2112
100
AcDbXrecord
280
     1
102
RTVSPost2010Prop28
280
     1
102
RTVSPost2010PropOp28
 70
     1
102
RTVSPost2010Prop29
280
     1
102
RTVSPost2010PropOp29
 70
     1
102
RTVSPost2010Prop30
280
     0
102
RTVSPost2010PropOp30
 70
     1
102
RTVSPost2010Prop31
280
     0
102
RTVSPost2010PropOp31
 70
     1
102
RTVSPost2010Prop32
280
     0
102
RTVSPost2010PropOp32
 70
     1
102
RTVSPost2010Prop33
280
     0
102
RTVSPost2010PropOp33
 70
     1
102
RTVSPost2010Prop34
280
     0
102
RTVSPost2010PropOp34
 70
     1
102
RTVSPost2010Prop35
280
     0
102
RTVSPost2010PropOp35
 70
     1
102
RTVSPost2010Prop36
280
     0
102
RTVSPost2010PropOp36
 70
     1
102
RTVSPost2010Prop37
 90
       50
102
RTVSPost2010PropOp37
 70
     1
102
RTVSPost2010Prop38
140
0.0
102
RTVSPost2010PropOp38
 70
     1
102
RTVSPost2010Prop39
140
1.0
102
RTVSPost2010PropOp39
 70
     1
102
RTVSPost2010Prop40
 90
        0
102
RTVSPost2010PropOp40
 70
     1
102
RTVSPost2010Prop41ColorIndex
 90
       18
102
RTVSPost2010Prop41ColorRGB
 90
        0
102
RTVSPost2010PropOp41
 70
     1
102
RTVSPost2010Prop42
 90
       50
102
RTVSPost2010PropOp42
 70
     1
102
RTVSPost2010Prop43
 90
        3
102
RTVSPost2010PropOp43
 70
     1
102
RTVSPost2010Prop44ColorIndex
 90
        5
102
RTVSPost2010Prop44ColorRGB
 90
      255
102
RTVSPost2010PropOp44
 70
     1
102
RTVSPost2010Prop45
280
     0
102
RTVSPost2010PropOp45
 70
     1
102
RTVSPost2010Prop46
 90
       50
102
RTVSPost2010PropOp46
 70
     1
102
RTVSPost2010Prop47
 90
       50
102
RTVSPost2010PropOp47
 70
     1
102
RTVSPost2010Prop48
 90
       50
102
RTVSPost2010PropOp48
 70
     1
102
RTVSPost2010Prop49
280
     0
102
RTVSPost2010PropOp49
 70
     1
102
RTVSPost2010Prop50
 90
       50
102
RTVSPost2010PropOp50
 70
     1
102
RTVSPost2010Prop51ColorIndex
 90
      256
102
RTVSPost2010Prop51ColorRGB
 90
-16777216
102
RTVSPost2010PropOp51
 70
     0
102
RTVSPost2010Prop52
140
1.0
102
RTVSPost2010PropOp52
 70
     0
102
RTVSPost2010Prop53
 90
        2
102
RTVSPost2010PropOp53
 70
     1
102
RTVSPost2010Prop54
  1
strokes_ogs.tif
102
RTVSPost2010PropOp54
 70
     1
102
RTVSPost2010Prop55
280
     0
102
RTVSPost2010PropOp55
 70
     1
102
RTVSPost2010Prop56
140
1.0
102
RTVSPost2010PropOp56
 70
     1
102
RTVSPost2010Prop57
140
1.0
102
RTVSPost2010PropOp57
 70
     1
102
RTVSPropertyOp0
 70
     1
102
RTVSPropertyOp1
 70
     1
102
RTVSPropertyOp2
 70
     1
102
RTVSPropertyOp3
 70
     1
102
RTVSPropertyOp4
 70
     1
102
RTVSPropertyOp5
 70
     1
102
RTVSPropertyOp6
 70
     1
102
RTVSPropertyOp7
 70
     1
102
RTVSPropertyOp8
 70
     1
102
RTVSPropertyOp9
 70
     1
102
RTVSPropertyOp10
 70
     1
102
RTVSPropertyOp11
 70
     1
102
RTVSPropertyOp12
 70
     1
102
RTVSPropertyOp13
 70
     1
102
RTVSPropertyOp14
 70
     1
102
RTVSPropertyOp15
 70
     1
102
RTVSPropertyOp16
 70
     1
102
RTVSPropertyOp17
 70
     1
102
RTVSPropertyOp18
 70
     1
102
RTVSPropertyOp19
 70
     1
102
RTVSPropertyOp20
 70
     1
102
RTVSPropertyOp21
 70
     1
102
RTVSPropertyOp22
 70
     1
102
RTVSPropertyOp23
 70
     1
102
RTVSPropertyOp24
 70
     1
102
RTVSPropertyOp25
 70
     1
102
RTVSPropertyOp26
 70
     1
102
RTVSPropertyOp27
 70
     1
102
RTVSPropertyOp28
 70
     1
102
RTVSPropertyOp29
 70
     1
102
RTVSPropertyOp30
 70
     1
102
RTVSPropertyOp31
 70
     1
102
RTVSPropertyOp32
 70
     1
102
RTVSPropertyOp33
 70
     1
102
RTVSPropertyOp34
 70
     1
102
RTVSPropertyOp35
 70
     1
102
RTVSPropertyOp36
 70
     1
102
RTVSPropertyOp37
 70
     1
102
RTVSPropertyOp38
 70
     1
102
RTVSPropertyOp39
 70
     1
102
RTVSPropertyOp40
 70
     1
102
RTVSPropertyOp41
 70
     1
102
RTVSPropertyOp42
 70
     1
102
RTVSPropertyOp43
 70
     1
102
RTVSPropertyOp44
 70
     1
102
RTVSPropertyOp45
 70
     1
102
RTVSPropertyOp46
 70
     1
102
RTVSPropertyOp47
 70
     1
102
RTVSPropertyOp48
 70
     1
102
RTVSPropertyOp49
 70
     1
102
RTVSPropertyOp50
 70
     1
102
RTVSPropertyOp51
 70
     0
102
RTVSPropertyOp52
 70
     0
102
RTVSPropertyOp53
 70
     1
102
RTVSPropertyOp54
 70
     1
102
RTVSPropertyOp55
 70
     1
102
RTVSPropertyOp56
 70
     1
102
RTVSPropertyOp57
 70
     1
102
RTVSPropertyOp58
 70
     1
102
RTVSPropertyOp59
 70
     1
102
RTVSPropertyOp60
 70
     1
102
RTVSPropertyOp61
 70
     1
102
RTVSPropertyOp62
 70
     1
  0
XRECORD
  5
2111
102
{ACAD_REACTORS
330
2110
102
}
330
2110
100
AcDbXrecord
280
     1
102
RTVSPost2010Prop28
280
     0
102
RTVSPost2010PropOp28
 70
     1
102
RTVSPost2010Prop29
280
     1
102
RTVSPost2010PropOp29
 70
     1
102
RTVSPost2010Prop30
280
     1
102
RTVSPost2010PropOp30
 70
     1
102
RTVSPost2010Prop31
280
     0
102
RTVSPost2010PropOp31
 70
     1
102
RTVSPost2010Prop32
280
     0
102
RTVSPost2010PropOp32
 70
     1
102
RTVSPost2010Prop33
280
     0
102
RTVSPost2010PropOp33
 70
     1
102
RTVSPost2010Prop34
280
     0
102
RTVSPost2010PropOp34
 70
     1
102
RTVSPost2010Prop35
280
     0
102
RTVSPost2010PropOp35
 70
     1
102
RTVSPost2010Prop36
280
     0
102
RTVSPost2010PropOp36
 70
     1
102
RTVSPost2010Prop37
 90
       50
102
RTVSPost2010PropOp37
 70
     1
102
RTVSPost2010Prop38
140
0.0
102
RTVSPost2010PropOp38
 70
     1
102
RTVSPost2010Prop39
140
1.0
102
RTVSPost2010PropOp39
 70
     1
102
RTVSPost2010Prop40
 90
        0
102
RTVSPost2010PropOp40
 70
     1
102
RTVSPost2010Prop41ColorIndex
 90
       18
102
RTVSPost2010Prop41ColorRGB
 90
        0
102
RTVSPost2010PropOp41
 70
     1
102
RTVSPost2010Prop42
 90
       50
102
RTVSPost2010PropOp42
 70
     1
102
RTVSPost2010Prop43
 90
        3
102
RTVSPost2010PropOp43
 70
     1
102
RTVSPost2010Prop44ColorIndex
 90
        5
102
RTVSPost2010Prop44ColorRGB
 90
      255
102
RTVSPost2010PropOp44
 70
     1
102
RTVSPost2010Prop45
280
     0
102
RTVSPost2010PropOp45
 70
     1
102
RTVSPost2010Prop46
 90
       50
102
RTVSPost2010PropOp46
 70
     1
102
RTVSPost2010Prop47
 90
       50
102
RTVSPost2010PropOp47
 70
     1
102
RTVSPost2010Prop48
 90
       50
102
RTVSPost2010PropOp48
 70
     1
102
RTVSPost2010Prop49
280
     0
102
RTVSPost2010PropOp49
 70
     1
102
RTVSPost2010Prop50
 90
       50
102
RTVSPost2010PropOp50
 70
     1
102
RTVSPost2010Prop51ColorIndex
 90
      256
102
RTVSPost2010Prop51ColorRGB
 90
-16777216
102
RTVSPost2010PropOp51
 70
     0
102
RTVSPost2010Prop52
140
1.0
102
RTVSPost2010PropOp52
 70
     0
102
RTVSPost2010Prop53
 90
        2
102
RTVSPost2010PropOp53
 70
     1
102
RTVSPost2010Prop54
  1
strokes_ogs.tif
102
RTVSPost2010PropOp54
 70
     1
102
RTVSPost2010Prop55
280
     0
102
RTVSPost2010PropOp55
 70
     1
102
RTVSPost2010Prop56
140
1.0
102
RTVSPost2010PropOp56
 70
     1
102
RTVSPost2010Prop57
140
1.0
102
RTVSPost2010PropOp57
 70
     1
102
RTVSPropertyOp0
 70
     1
102
RTVSPropertyOp1
 70
     1
102
RTVSPropertyOp2
 70
     1
102
RTVSPropertyOp3
 70
     1
102
RTVSPropertyOp4
 70
     1
102
RTVSPropertyOp5
 70
     1
102
RTVSPropertyOp6
 70
     1
102
RTVSPropertyOp7
 70
     1
102
RTVSPropertyOp8
 70
     1
102
RTVSPropertyOp9
 70
     1
102
RTVSPropertyOp10
 70
     1
102
RTVSPropertyOp11
 70
     1
102
RTVSPropertyOp12
 70
     1
102
RTVSPropertyOp13
 70
     1
102
RTVSPropertyOp14
 70
     1
102
RTVSPropertyOp15
 70
     1
102
RTVSPropertyOp16
 70
     1
102
RTVSPropertyOp17
 70
     1
102
RTVSPropertyOp18
 70
     1
102
RTVSPropertyOp19
 70
     1
102
RTVSPropertyOp20
 70
     1
102
RTVSPropertyOp21
 70
     1
102
RTVSPropertyOp22
 70
     1
102
RTVSPropertyOp23
 70
     1
102
RTVSPropertyOp24
 70
     1
102
RTVSPropertyOp25
 70
     1
102
RTVSPropertyOp26
 70
     1
102
RTVSPropertyOp27
 70
     1
102
RTVSPropertyOp28
 70
     1
102
RTVSPropertyOp29
 70
     1
102
RTVSPropertyOp30
 70
     1
102
RTVSPropertyOp31
 70
     1
102
RTVSPropertyOp32
 70
     1
102
RTVSPropertyOp33
 70
     1
102
RTVSPropertyOp34
 70
     1
102
RTVSPropertyOp35
 70
     1
102
RTVSPropertyOp36
 70
     1
102
RTVSPropertyOp37
 70
     1
102
RTVSPropertyOp38
 70
     1
102
RTVSPropertyOp39
 70
     1
102
RTVSPropertyOp40
 70
     1
102
RTVSPropertyOp41
 70
     1
102
RTVSPropertyOp42
 70
     1
102
RTVSPropertyOp43
 70
     1
102
RTVSPropertyOp44
 70
     1
102
RTVSPropertyOp45
 70
     1
102
RTVSPropertyOp46
 70
     1
102
RTVSPropertyOp47
 70
     1
102
RTVSPropertyOp48
 70
     1
102
RTVSPropertyOp49
 70
     1
102
RTVSPropertyOp50
 70
     1
102
RTVSPropertyOp51
 70
     0
102
RTVSPropertyOp52
 70
     0
102
RTVSPropertyOp53
 70
     1
102
RTVSPropertyOp54
 70
     1
102
RTVSPropertyOp55
 70
     1
102
RTVSPropertyOp56
 70
     1
102
RTVSPropertyOp57
 70
     1
102
RTVSPropertyOp58
 70
     1
102
RTVSPropertyOp59
 70
     1
102
RTVSPropertyOp60
 70
     1
102
RTVSPropertyOp61
 70
     1
102
RTVSPropertyOp62
 70
     1
  0
XRECORD
  5
211F
102
{ACAD_REACTORS
330
211E
102
}
330
211E
100
AcDbXrecord
280
     1
102
RTVSPost2010Prop28
280
     0
102
RTVSPost2010PropOp28
 70
     1
102
RTVSPost2010Prop29
280
     1
102
RTVSPost2010PropOp29
 70
     1
102
RTVSPost2010Prop30
280
     1
102
RTVSPost2010PropOp30
 70
     1
102
RTVSPost2010Prop31
280
     0
102
RTVSPost2010PropOp31
 70
     1
102
RTVSPost2010Prop32
280
     0
102
RTVSPost2010PropOp32
 70
     1
102
RTVSPost2010Prop33
280
     0
102
RTVSPost2010PropOp33
 70
     1
102
RTVSPost2010Prop34
280
     0
102
RTVSPost2010PropOp34
 70
     1
102
RTVSPost2010Prop35
280
     0
102
RTVSPost2010PropOp35
 70
     1
102
RTVSPost2010Prop36
280
     0
102
RTVSPost2010PropOp36
 70
     1
102
RTVSPost2010Prop37
 90
       50
102
RTVSPost2010PropOp37
 70
     1
102
RTVSPost2010Prop38
140
0.0
102
RTVSPost2010PropOp38
 70
     1
102
RTVSPost2010Prop39
140
1.0
102
RTVSPost2010PropOp39
 70
     1
102
RTVSPost2010Prop40
 90
        0
102
RTVSPost2010PropOp40
 70
     1
102
RTVSPost2010Prop41ColorIndex
 90
       18
102
RTVSPost2010Prop41ColorRGB
 90
        0
102
RTVSPost2010PropOp41
 70
     1
102
RTVSPost2010Prop42
 90
       50
102
RTVSPost2010PropOp42
 70
     1
102
RTVSPost2010Prop43
 90
        3
102
RTVSPost2010PropOp43
 70
     1
102
RTVSPost2010Prop44ColorIndex
 90
        5
102
RTVSPost2010Prop44ColorRGB
 90
      255
102
RTVSPost2010PropOp44
 70
     1
102
RTVSPost2010Prop45
280
     0
102
RTVSPost2010PropOp45
 70
     1
102
RTVSPost2010Prop46
 90
       50
102
RTVSPost2010PropOp46
 70
     1
102
RTVSPost2010Prop47
 90
       50
102
RTVSPost2010PropOp47
 70
     1
102
RTVSPost2010Prop48
 90
       50
102
RTVSPost2010PropOp48
 70
     1
102
RTVSPost2010Prop49
280
     0
102
RTVSPost2010PropOp49
 70
     1
102
RTVSPost2010Prop50
 90
       50
102
RTVSPost2010PropOp50
 70
     1
102
RTVSPost2010Prop51ColorIndex
 90
      256
102
RTVSPost2010Prop51ColorRGB
 90
-16777216
102
RTVSPost2010PropOp51
 70
     0
102
RTVSPost2010Prop52
140
1.0
102
RTVSPost2010PropOp52
 70
     0
102
RTVSPost2010Prop53
 90
        2
102
RTVSPost2010PropOp53
 70
     1
102
RTVSPost2010Prop54
  1
strokes_ogs.tif
102
RTVSPost2010PropOp54
 70
     1
102
RTVSPost2010Prop55
280
     0
102
RTVSPost2010PropOp55
 70
     1
102
RTVSPost2010Prop56
140
1.0
102
RTVSPost2010PropOp56
 70
     1
102
RTVSPost2010Prop57
140
1.0
102
RTVSPost2010PropOp57
 70
     1
102
RTVSPropertyOp0
 70
     1
102
RTVSPropertyOp1
 70
     1
102
RTVSPropertyOp2
 70
     1
102
RTVSPropertyOp3
 70
     1
102
RTVSPropertyOp4
 70
     1
102
RTVSPropertyOp5
 70
     1
102
RTVSPropertyOp6
 70
     1
102
RTVSPropertyOp7
 70
     1
102
RTVSPropertyOp8
 70
     1
102
RTVSPropertyOp9
 70
     1
102
RTVSPropertyOp10
 70
     1
102
RTVSPropertyOp11
 70
     1
102
RTVSPropertyOp12
 70
     1
102
RTVSPropertyOp13
 70
     1
102
RTVSPropertyOp14
 70
     1
102
RTVSPropertyOp15
 70
     1
102
RTVSPropertyOp16
 70
     1
102
RTVSPropertyOp17
 70
     1
102
RTVSPropertyOp18
 70
     1
102
RTVSPropertyOp19
 70
     1
102
RTVSPropertyOp20
 70
     1
102
RTVSPropertyOp21
 70
     1
102
RTVSPropertyOp22
 70
     1
102
RTVSPropertyOp23
 70
     1
102
RTVSPropertyOp24
 70
     1
102
RTVSPropertyOp25
 70
     1
102
RTVSPropertyOp26
 70
     1
102
RTVSPropertyOp27
 70
     1
102
RTVSPropertyOp28
 70
     1
102
RTVSPropertyOp29
 70
     1
102
RTVSPropertyOp30
 70
     1
102
RTVSPropertyOp31
 70
     1
102
RTVSPropertyOp32
 70
     1
102
RTVSPropertyOp33
 70
     1
102
RTVSPropertyOp34
 70
     1
102
RTVSPropertyOp35
 70
     1
102
RTVSPropertyOp36
 70
     1
102
RTVSPropertyOp37
 70
     1
102
RTVSPropertyOp38
 70
     1
102
RTVSPropertyOp39
 70
     1
102
RTVSPropertyOp40
 70
     1
102
RTVSPropertyOp41
 70
     1
102
RTVSPropertyOp42
 70
     1
102
RTVSPropertyOp43
 70
     1
102
RTVSPropertyOp44
 70
     1
102
RTVSPropertyOp45
 70
     1
102
RTVSPropertyOp46
 70
     1
102
RTVSPropertyOp47
 70
     1
102
RTVSPropertyOp48
 70
     1
102
RTVSPropertyOp49
 70
     1
102
RTVSPropertyOp50
 70
     1
102
RTVSPropertyOp51
 70
     0
102
RTVSPropertyOp52
 70
     0
102
RTVSPropertyOp53
 70
     1
102
RTVSPropertyOp54
 70
     1
102
RTVSPropertyOp55
 70
     1
102
RTVSPropertyOp56
 70
     1
102
RTVSPropertyOp57
 70
     1
102
RTVSPropertyOp58
 70
     1
102
RTVSPropertyOp59
 70
     1
102
RTVSPropertyOp60
 70
     1
102
RTVSPropertyOp61
 70
     1
102
RTVSPropertyOp62
 70
     1
  0
XRECORD
  5
2127
102
{ACAD_REACTORS
330
2126
102
}
330
2126
100
AcDbXrecord
280
     1
102
RTVSPost2010Prop28
280
     0
102
RTVSPost2010PropOp28
 70
     1
102
RTVSPost2010Prop29
280
     1
102
RTVSPost2010PropOp29
 70
     1
102
RTVSPost2010Prop30
280
     1
102
RTVSPost2010PropOp30
 70
     1
102
RTVSPost2010Prop31
280
     0
102
RTVSPost2010PropOp31
 70
     1
102
RTVSPost2010Prop32
280
     0
102
RTVSPost2010PropOp32
 70
     1
102
RTVSPost2010Prop33
280
     0
102
RTVSPost2010PropOp33
 70
     1
102
RTVSPost2010Prop34
280
     0
102
RTVSPost2010PropOp34
 70
     1
102
RTVSPost2010Prop35
280
     0
102
RTVSPost2010PropOp35
 70
     1
102
RTVSPost2010Prop36
280
     0
102
RTVSPost2010PropOp36
 70
     1
102
RTVSPost2010Prop37
 90
       50
102
RTVSPost2010PropOp37
 70
     1
102
RTVSPost2010Prop38
140
0.0
102
RTVSPost2010PropOp38
 70
     1
102
RTVSPost2010Prop39
140
1.0
102
RTVSPost2010PropOp39
 70
     1
102
RTVSPost2010Prop40
 90
        0
102
RTVSPost2010PropOp40
 70
     1
102
RTVSPost2010Prop41ColorIndex
 90
       18
102
RTVSPost2010Prop41ColorRGB
 90
        0
102
RTVSPost2010PropOp41
 70
     1
102
RTVSPost2010Prop42
 90
       50
102
RTVSPost2010PropOp42
 70
     1
102
RTVSPost2010Prop43
 90
        3
102
RTVSPost2010PropOp43
 70
     1
102
RTVSPost2010Prop44ColorIndex
 90
        5
102
RTVSPost2010Prop44ColorRGB
 90
      255
102
RTVSPost2010PropOp44
 70
     1
102
RTVSPost2010Prop45
280
     0
102
RTVSPost2010PropOp45
 70
     1
102
RTVSPost2010Prop46
 90
       50
102
RTVSPost2010PropOp46
 70
     1
102
RTVSPost2010Prop47
 90
       50
102
RTVSPost2010PropOp47
 70
     1
102
RTVSPost2010Prop48
 90
       50
102
RTVSPost2010PropOp48
 70
     1
102
RTVSPost2010Prop49
280
     0
102
RTVSPost2010PropOp49
 70
     1
102
RTVSPost2010Prop50
 90
       50
102
RTVSPost2010PropOp50
 70
     1
102
RTVSPost2010Prop51ColorIndex
 90
      256
102
RTVSPost2010Prop51ColorRGB
 90
-16777216
102
RTVSPost2010PropOp51
 70
     0
102
RTVSPost2010Prop52
140
1.0
102
RTVSPost2010PropOp52
 70
     0
102
RTVSPost2010Prop53
 90
        2
102
RTVSPost2010PropOp53
 70
     1
102
RTVSPost2010Prop54
  1
strokes_ogs.tif
102
RTVSPost2010PropOp54
 70
     1
102
RTVSPost2010Prop55
280
     0
102
RTVSPost2010PropOp55
 70
     1
102
RTVSPost2010Prop56
140
1.0
102
RTVSPost2010PropOp56
 70
     1
102
RTVSPost2010Prop57
140
1.0
102
RTVSPost2010PropOp57
 70
     1
102
RTVSPropertyOp0
 70
     1
102
RTVSPropertyOp1
 70
     1
102
RTVSPropertyOp2
 70
     1
102
RTVSPropertyOp3
 70
     1
102
RTVSPropertyOp4
 70
     1
102
RTVSPropertyOp5
 70
     1
102
RTVSPropertyOp6
 70
     1
102
RTVSPropertyOp7
 70
     1
102
RTVSPropertyOp8
 70
     1
102
RTVSPropertyOp9
 70
     1
102
RTVSPropertyOp10
 70
     1
102
RTVSPropertyOp11
 70
     1
102
RTVSPropertyOp12
 70
     1
102
RTVSPropertyOp13
 70
     1
102
RTVSPropertyOp14
 70
     1
102
RTVSPropertyOp15
 70
     1
102
RTVSPropertyOp16
 70
     1
102
RTVSPropertyOp17
 70
     1
102
RTVSPropertyOp18
 70
     1
102
RTVSPropertyOp19
 70
     1
102
RTVSPropertyOp20
 70
     1
102
RTVSPropertyOp21
 70
     1
102
RTVSPropertyOp22
 70
     1
102
RTVSPropertyOp23
 70
     1
102
RTVSPropertyOp24
 70
     1
102
RTVSPropertyOp25
 70
     1
102
RTVSPropertyOp26
 70
     1
102
RTVSPropertyOp27
 70
     1
102
RTVSPropertyOp28
 70
     1
102
RTVSPropertyOp29
 70
     1
102
RTVSPropertyOp30
 70
     1
102
RTVSPropertyOp31
 70
     1
102
RTVSPropertyOp32
 70
     1
102
RTVSPropertyOp33
 70
     1
102
RTVSPropertyOp34
 70
     1
102
RTVSPropertyOp35
 70
     1
102
RTVSPropertyOp36
 70
     1
102
RTVSPropertyOp37
 70
     1
102
RTVSPropertyOp38
 70
     1
102
RTVSPropertyOp39
 70
     1
102
RTVSPropertyOp40
 70
     1
102
RTVSPropertyOp41
 70
     1
102
RTVSPropertyOp42
 70
     1
102
RTVSPropertyOp43
 70
     1
102
RTVSPropertyOp44
 70
     1
102
RTVSPropertyOp45
 70
     1
102
RTVSPropertyOp46
 70
     1
102
RTVSPropertyOp47
 70
     1
102
RTVSPropertyOp48
 70
     1
102
RTVSPropertyOp49
 70
     1
102
RTVSPropertyOp50
 70
     1
102
RTVSPropertyOp51
 70
     0
102
RTVSPropertyOp52
 70
     0
102
RTVSPropertyOp53
 70
     1
102
RTVSPropertyOp54
 70
     1
102
RTVSPropertyOp55
 70
     1
102
RTVSPropertyOp56
 70
     1
102
RTVSPropertyOp57
 70
     1
102
RTVSPropertyOp58
 70
     1
102
RTVSPropertyOp59
 70
     1
102
RTVSPropertyOp60
 70
     1
102
RTVSPropertyOp61
 70
     1
102
RTVSPropertyOp62
 70
     1
  0
XRECORD
  5
2119
102
{ACAD_REACTORS
330
2118
102
}
330
2118
100
AcDbXrecord
280
     1
102
RTVSPost2010Prop28
280
     0
102
RTVSPost2010PropOp28
 70
     1
102
RTVSPost2010Prop29
280
     1
102
RTVSPost2010PropOp29
 70
     1
102
RTVSPost2010Prop30
280
     1
102
RTVSPost2010PropOp30
 70
     1
102
RTVSPost2010Prop31
280
     0
102
RTVSPost2010PropOp31
 70
     1
102
RTVSPost2010Prop32
280
     0
102
RTVSPost2010PropOp32
 70
     1
102
RTVSPost2010Prop33
280
     0
102
RTVSPost2010PropOp33
 70
     1
102
RTVSPost2010Prop34
280
     0
102
RTVSPost2010PropOp34
 70
     1
102
RTVSPost2010Prop35
280
     0
102
RTVSPost2010PropOp35
 70
     1
102
RTVSPost2010Prop36
280
     0
102
RTVSPost2010PropOp36
 70
     1
102
RTVSPost2010Prop37
 90
       50
102
RTVSPost2010PropOp37
 70
     1
102
RTVSPost2010Prop38
140
0.0
102
RTVSPost2010PropOp38
 70
     1
102
RTVSPost2010Prop39
140
1.0
102
RTVSPost2010PropOp39
 70
     1
102
RTVSPost2010Prop40
 90
        0
102
RTVSPost2010PropOp40
 70
     1
102
RTVSPost2010Prop41ColorIndex
 90
       18
102
RTVSPost2010Prop41ColorRGB
 90
        0
102
RTVSPost2010PropOp41
 70
     1
102
RTVSPost2010Prop42
 90
       50
102
RTVSPost2010PropOp42
 70
     1
102
RTVSPost2010Prop43
 90
        3
102
RTVSPost2010PropOp43
 70
     1
102
RTVSPost2010Prop44ColorIndex
 90
        5
102
RTVSPost2010Prop44ColorRGB
 90
      255
102
RTVSPost2010PropOp44
 70
     1
102
RTVSPost2010Prop45
280
     0
102
RTVSPost2010PropOp45
 70
     1
102
RTVSPost2010Prop46
 90
       50
102
RTVSPost2010PropOp46
 70
     1
102
RTVSPost2010Prop47
 90
       50
102
RTVSPost2010PropOp47
 70
     1
102
RTVSPost2010Prop48
 90
       50
102
RTVSPost2010PropOp48
 70
     1
102
RTVSPost2010Prop49
280
     0
102
RTVSPost2010PropOp49
 70
     1
102
RTVSPost2010Prop50
 90
       50
102
RTVSPost2010PropOp50
 70
     1
102
RTVSPost2010Prop51ColorIndex
 90
      256
102
RTVSPost2010Prop51ColorRGB
 90
-16777216
102
RTVSPost2010PropOp51
 70
     0
102
RTVSPost2010Prop52
140
1.0
102
RTVSPost2010PropOp52
 70
     0
102
RTVSPost2010Prop53
 90
        2
102
RTVSPost2010PropOp53
 70
     1
102
RTVSPost2010Prop54
  1
strokes_ogs.tif
102
RTVSPost2010PropOp54
 70
     1
102
RTVSPost2010Prop55
280
     0
102
RTVSPost2010PropOp55
 70
     1
102
RTVSPost2010Prop56
140
1.0
102
RTVSPost2010PropOp56
 70
     1
102
RTVSPost2010Prop57
140
1.0
102
RTVSPost2010PropOp57
 70
     1
102
RTVSPropertyOp0
 70
     1
102
RTVSPropertyOp1
 70
     1
102
RTVSPropertyOp2
 70
     1
102
RTVSPropertyOp3
 70
     1
102
RTVSPropertyOp4
 70
     1
102
RTVSPropertyOp5
 70
     1
102
RTVSPropertyOp6
 70
     1
102
RTVSPropertyOp7
 70
     1
102
RTVSPropertyOp8
 70
     1
102
RTVSPropertyOp9
 70
     1
102
RTVSPropertyOp10
 70
     1
102
RTVSPropertyOp11
 70
     1
102
RTVSPropertyOp12
 70
     1
102
RTVSPropertyOp13
 70
     1
102
RTVSPropertyOp14
 70
     1
102
RTVSPropertyOp15
 70
     1
102
RTVSPropertyOp16
 70
     1
102
RTVSPropertyOp17
 70
     1
102
RTVSPropertyOp18
 70
     1
102
RTVSPropertyOp19
 70
     1
102
RTVSPropertyOp20
 70
     1
102
RTVSPropertyOp21
 70
     1
102
RTVSPropertyOp22
 70
     1
102
RTVSPropertyOp23
 70
     1
102
RTVSPropertyOp24
 70
     1
102
RTVSPropertyOp25
 70
     1
102
RTVSPropertyOp26
 70
     1
102
RTVSPropertyOp27
 70
     1
102
RTVSPropertyOp28
 70
     1
102
RTVSPropertyOp29
 70
     1
102
RTVSPropertyOp30
 70
     1
102
RTVSPropertyOp31
 70
     1
102
RTVSPropertyOp32
 70
     1
102
RTVSPropertyOp33
 70
     1
102
RTVSPropertyOp34
 70
     1
102
RTVSPropertyOp35
 70
     1
102
RTVSPropertyOp36
 70
     1
102
RTVSPropertyOp37
 70
     1
102
RTVSPropertyOp38
 70
     1
102
RTVSPropertyOp39
 70
     1
102
RTVSPropertyOp40
 70
     1
102
RTVSPropertyOp41
 70
     1
102
RTVSPropertyOp42
 70
     1
102
RTVSPropertyOp43
 70
     1
102
RTVSPropertyOp44
 70
     1
102
RTVSPropertyOp45
 70
     1
102
RTVSPropertyOp46
 70
     1
102
RTVSPropertyOp47
 70
     1
102
RTVSPropertyOp48
 70
     1
102
RTVSPropertyOp49
 70
     1
102
RTVSPropertyOp50
 70
     1
102
RTVSPropertyOp51
 70
     0
102
RTVSPropertyOp52
 70
     0
102
RTVSPropertyOp53
 70
     1
102
RTVSPropertyOp54
 70
     1
102
RTVSPropertyOp55
 70
     1
102
RTVSPropertyOp56
 70
     1
102
RTVSPropertyOp57
 70
     1
102
RTVSPropertyOp58
 70
     1
102
RTVSPropertyOp59
 70
     1
102
RTVSPropertyOp60
 70
     1
102
RTVSPropertyOp61
 70
     1
102
RTVSPropertyOp62
 70
     1
  0
XRECORD
  5
211D
102
{ACAD_REACTORS
330
211C
102
}
330
211C
100
AcDbXrecord
280
     1
102
RTVSPost2010Prop28
280
     0
102
RTVSPost2010PropOp28
 70
     1
102
RTVSPost2010Prop29
280
     1
102
RTVSPost2010PropOp29
 70
     1
102
RTVSPost2010Prop30
280
     1
102
RTVSPost2010PropOp30
 70
     1
102
RTVSPost2010Prop31
280
     0
102
RTVSPost2010PropOp31
 70
     1
102
RTVSPost2010Prop32
280
     0
102
RTVSPost2010PropOp32
 70
     1
102
RTVSPost2010Prop33
280
     0
102
RTVSPost2010PropOp33
 70
     1
102
RTVSPost2010Prop34
280
     0
102
RTVSPost2010PropOp34
 70
     1
102
RTVSPost2010Prop35
280
     0
102
RTVSPost2010PropOp35
 70
     1
102
RTVSPost2010Prop36
280
     0
102
RTVSPost2010PropOp36
 70
     1
102
RTVSPost2010Prop37
 90
       50
102
RTVSPost2010PropOp37
 70
     1
102
RTVSPost2010Prop38
140
0.0
102
RTVSPost2010PropOp38
 70
     1
102
RTVSPost2010Prop39
140
1.0
102
RTVSPost2010PropOp39
 70
     1
102
RTVSPost2010Prop40
 90
        0
102
RTVSPost2010PropOp40
 70
     1
102
RTVSPost2010Prop41ColorIndex
 90
       18
102
RTVSPost2010Prop41ColorRGB
 90
        0
102
RTVSPost2010PropOp41
 70
     1
102
RTVSPost2010Prop42
 90
       50
102
RTVSPost2010PropOp42
 70
     1
102
RTVSPost2010Prop43
 90
        3
102
RTVSPost2010PropOp43
 70
     1
102
RTVSPost2010Prop44ColorIndex
 90
        5
102
RTVSPost2010Prop44ColorRGB
 90
      255
102
RTVSPost2010PropOp44
 70
     1
102
RTVSPost2010Prop45
280
     0
102
RTVSPost2010PropOp45
 70
     1
102
RTVSPost2010Prop46
 90
       50
102
RTVSPost2010PropOp46
 70
     1
102
RTVSPost2010Prop47
 90
       50
102
RTVSPost2010PropOp47
 70
     1
102
RTVSPost2010Prop48
 90
       50
102
RTVSPost2010PropOp48
 70
     1
102
RTVSPost2010Prop49
280
     0
102
RTVSPost2010PropOp49
 70
     1
102
RTVSPost2010Prop50
 90
       50
102
RTVSPost2010PropOp50
 70
     1
102
RTVSPost2010Prop51ColorIndex
 90
      256
102
RTVSPost2010Prop51ColorRGB
 90
-16777216
102
RTVSPost2010PropOp51
 70
     0
102
RTVSPost2010Prop52
140
1.0
102
RTVSPost2010PropOp52
 70
     0
102
RTVSPost2010Prop53
 90
        2
102
RTVSPost2010PropOp53
 70
     1
102
RTVSPost2010Prop54
  1
strokes_ogs.tif
102
RTVSPost2010PropOp54
 70
     1
102
RTVSPost2010Prop55
280
     0
102
RTVSPost2010PropOp55
 70
     1
102
RTVSPost2010Prop56
140
1.0
102
RTVSPost2010PropOp56
 70
     1
102
RTVSPost2010Prop57
140
1.0
102
RTVSPost2010PropOp57
 70
     1
102
RTVSPropertyOp0
 70
     1
102
RTVSPropertyOp1
 70
     1
102
RTVSPropertyOp2
 70
     1
102
RTVSPropertyOp3
 70
     1
102
RTVSPropertyOp4
 70
     1
102
RTVSPropertyOp5
 70
     1
102
RTVSPropertyOp6
 70
     1
102
RTVSPropertyOp7
 70
     1
102
RTVSPropertyOp8
 70
     1
102
RTVSPropertyOp9
 70
     1
102
RTVSPropertyOp10
 70
     1
102
RTVSPropertyOp11
 70
     1
102
RTVSPropertyOp12
 70
     1
102
RTVSPropertyOp13
 70
     1
102
RTVSPropertyOp14
 70
     1
102
RTVSPropertyOp15
 70
     1
102
RTVSPropertyOp16
 70
     1
102
RTVSPropertyOp17
 70
     1
102
RTVSPropertyOp18
 70
     1
102
RTVSPropertyOp19
 70
     1
102
RTVSPropertyOp20
 70
     1
102
RTVSPropertyOp21
 70
     1
102
RTVSPropertyOp22
 70
     1
102
RTVSPropertyOp23
 70
     1
102
RTVSPropertyOp24
 70
     1
102
RTVSPropertyOp25
 70
     1
102
RTVSPropertyOp26
 70
     1
102
RTVSPropertyOp27
 70
     1
102
RTVSPropertyOp28
 70
     1
102
RTVSPropertyOp29
 70
     1
102
RTVSPropertyOp30
 70
     1
102
RTVSPropertyOp31
 70
     1
102
RTVSPropertyOp32
 70
     1
102
RTVSPropertyOp33
 70
     1
102
RTVSPropertyOp34
 70
     1
102
RTVSPropertyOp35
 70
     1
102
RTVSPropertyOp36
 70
     1
102
RTVSPropertyOp37
 70
     1
102
RTVSPropertyOp38
 70
     1
102
RTVSPropertyOp39
 70
     1
102
RTVSPropertyOp40
 70
     1
102
RTVSPropertyOp41
 70
     1
102
RTVSPropertyOp42
 70
     1
102
RTVSPropertyOp43
 70
     1
102
RTVSPropertyOp44
 70
     1
102
RTVSPropertyOp45
 70
     1
102
RTVSPropertyOp46
 70
     1
102
RTVSPropertyOp47
 70
     1
102
RTVSPropertyOp48
 70
     1
102
RTVSPropertyOp49
 70
     1
102
RTVSPropertyOp50
 70
     1
102
RTVSPropertyOp51
 70
     0
102
RTVSPropertyOp52
 70
     0
102
RTVSPropertyOp53
 70
     1
102
RTVSPropertyOp54
 70
     1
102
RTVSPropertyOp55
 70
     1
102
RTVSPropertyOp56
 70
     1
102
RTVSPropertyOp57
 70
     1
102
RTVSPropertyOp58
 70
     1
102
RTVSPropertyOp59
 70
     1
102
RTVSPropertyOp60
 70
     1
102
RTVSPropertyOp61
 70
     1
102
RTVSPropertyOp62
 70
     1
  0
XRECORD
  5
2137
102
{ACAD_REACTORS
330
2136
102
}
330
2136
100
AcDbXrecord
280
     1
102
RTVSPost2010Prop28
280
     0
102
RTVSPost2010PropOp28
 70
     1
102
RTVSPost2010Prop29
280
     1
102
RTVSPost2010PropOp29
 70
     1
102
RTVSPost2010Prop30
280
     1
102
RTVSPost2010PropOp30
 70
     1
102
RTVSPost2010Prop31
280
     0
102
RTVSPost2010PropOp31
 70
     1
102
RTVSPost2010Prop32
280
     0
102
RTVSPost2010PropOp32
 70
     1
102
RTVSPost2010Prop33
280
     0
102
RTVSPost2010PropOp33
 70
     1
102
RTVSPost2010Prop34
280
     0
102
RTVSPost2010PropOp34
 70
     1
102
RTVSPost2010Prop35
280
     0
102
RTVSPost2010PropOp35
 70
     1
102
RTVSPost2010Prop36
280
     0
102
RTVSPost2010PropOp36
 70
     1
102
RTVSPost2010Prop37
 90
       50
102
RTVSPost2010PropOp37
 70
     0
102
RTVSPost2010Prop38
140
0.0
102
RTVSPost2010PropOp38
 70
     0
102
RTVSPost2010Prop39
140
1.0
102
RTVSPost2010PropOp39
 70
     0
102
RTVSPost2010Prop40
 90
        0
102
RTVSPost2010PropOp40
 70
     0
102
RTVSPost2010Prop41ColorIndex
 90
       18
102
RTVSPost2010Prop41ColorRGB
 90
        0
102
RTVSPost2010PropOp41
 70
     0
102
RTVSPost2010Prop42
 90
       50
102
RTVSPost2010PropOp42
 70
     0
102
RTVSPost2010Prop43
 90
        3
102
RTVSPost2010PropOp43
 70
     0
102
RTVSPost2010Prop44ColorIndex
 90
        5
102
RTVSPost2010Prop44ColorRGB
 90
      255
102
RTVSPost2010PropOp44
 70
     0
102
RTVSPost2010Prop45
280
     0
102
RTVSPost2010PropOp45
 70
     1
102
RTVSPost2010Prop46
 90
       50
102
RTVSPost2010PropOp46
 70
     0
102
RTVSPost2010Prop47
 90
       50
102
RTVSPost2010PropOp47
 70
     0
102
RTVSPost2010Prop48
 90
       50
102
RTVSPost2010PropOp48
 70
     0
102
RTVSPost2010Prop49
280
     0
102
RTVSPost2010PropOp49
 70
     1
102
RTVSPost2010Prop50
 90
       50
102
RTVSPost2010PropOp50
 70
     0
102
RTVSPost2010Prop51ColorIndex
 90
      256
102
RTVSPost2010Prop51ColorRGB
 90
-16777216
102
RTVSPost2010PropOp51
 70
     0
102
RTVSPost2010Prop52
140
1.0
102
RTVSPost2010PropOp52
 70
     0
102
RTVSPost2010Prop53
 90
        2
102
RTVSPost2010PropOp53
 70
     0
102
RTVSPost2010Prop54
  1
strokes_ogs.tif
102
RTVSPost2010PropOp54
 70
     0
102
RTVSPost2010Prop55
280
     0
102
RTVSPost2010PropOp55
 70
     1
102
RTVSPost2010Prop56
140
1.0
102
RTVSPost2010PropOp56
 70
     0
102
RTVSPost2010Prop57
140
1.0
102
RTVSPost2010PropOp57
 70
     0
102
RTVSPropertyOp0
 70
     0
102
RTVSPropertyOp1
 70
     0
102
RTVSPropertyOp2
 70
     0
102
RTVSPropertyOp3
 70
     0
102
RTVSPropertyOp4
 70
     0
102
RTVSPropertyOp5
 70
     0
102
RTVSPropertyOp6
 70
     0
102
RTVSPropertyOp7
 70
     0
102
RTVSPropertyOp8
 70
     0
102
RTVSPropertyOp9
 70
     0
102
RTVSPropertyOp10
 70
     0
102
RTVSPropertyOp11
 70
     0
102
RTVSPropertyOp12
 70
     0
102
RTVSPropertyOp13
 70
     0
102
RTVSPropertyOp14
 70
     2
102
RTVSPropertyOp15
 70
     0
102
RTVSPropertyOp16
 70
     0
102
RTVSPropertyOp17
 70
     0
102
RTVSPropertyOp18
 70
     0
102
RTVSPropertyOp19
 70
     0
102
RTVSPropertyOp20
 70
     0
102
RTVSPropertyOp21
 70
     0
102
RTVSPropertyOp22
 70
     0
102
RTVSPropertyOp23
 70
     0
102
RTVSPropertyOp24
 70
     0
102
RTVSPropertyOp25
 70
     0
102
RTVSPropertyOp26
 70
     0
102
RTVSPropertyOp27
 70
     0
102
RTVSPropertyOp28
 70
     1
102
RTVSPropertyOp29
 70
     1
102
RTVSPropertyOp30
 70
     1
102
RTVSPropertyOp31
 70
     1
102
RTVSPropertyOp32
 70
     1
102
RTVSPropertyOp33
 70
     1
102
RTVSPropertyOp34
 70
     1
102
RTVSPropertyOp35
 70
     1
102
RTVSPropertyOp36
 70
     1
102
RTVSPropertyOp37
 70
     0
102
RTVSPropertyOp38
 70
     0
102
RTVSPropertyOp39
 70
     0
102
RTVSPropertyOp40
 70
     0
102
RTVSPropertyOp41
 70
     0
102
RTVSPropertyOp42
 70
     0
102
RTVSPropertyOp43
 70
     0
102
RTVSPropertyOp44
 70
     0
102
RTVSPropertyOp45
 70
     1
102
RTVSPropertyOp46
 70
     0
102
RTVSPropertyOp47
 70
     0
102
RTVSPropertyOp48
 70
     0
102
RTVSPropertyOp49
 70
     1
102
RTVSPropertyOp50
 70
     0
102
RTVSPropertyOp51
 70
     0
102
RTVSPropertyOp52
 70
     0
102
RTVSPropertyOp53
 70
     0
102
RTVSPropertyOp54
 70
     0
102
RTVSPropertyOp55
 70
     1
102
RTVSPropertyOp56
 70
     0
102
RTVSPropertyOp57
 70
     0
102
RTVSPropertyOp58
 70
     0
102
RTVSPropertyOp59
 70
     0
102
RTVSPropertyOp60
 70
     0
102
RTVSPropertyOp61
 70
     0
102
RTVSPropertyOp62
 70
     0
  0
XRECORD
  5
2125
102
{ACAD_REACTORS
330
2124
102
}
330
2124
100
AcDbXrecord
280
     1
102
RTVSPost2010Prop28
280
     0
102
RTVSPost2010PropOp28
 70
     1
102
RTVSPost2010Prop29
280
     1
102
RTVSPost2010PropOp29
 70
     1
102
RTVSPost2010Prop30
280
     1
102
RTVSPost2010PropOp30
 70
     1
102
RTVSPost2010Prop31
280
     0
102
RTVSPost2010PropOp31
 70
     1
102
RTVSPost2010Prop32
280
     0
102
RTVSPost2010PropOp32
 70
     1
102
RTVSPost2010Prop33
280
     0
102
RTVSPost2010PropOp33
 70
     1
102
RTVSPost2010Prop34
280
     0
102
RTVSPost2010PropOp34
 70
     1
102
RTVSPost2010Prop35
280
     0
102
RTVSPost2010PropOp35
 70
     1
102
RTVSPost2010Prop36
280
     0
102
RTVSPost2010PropOp36
 70
     1
102
RTVSPost2010Prop37
 90
       50
102
RTVSPost2010PropOp37
 70
     1
102
RTVSPost2010Prop38
140
0.0
102
RTVSPost2010PropOp38
 70
     1
102
RTVSPost2010Prop39
140
1.0
102
RTVSPost2010PropOp39
 70
     1
102
RTVSPost2010Prop40
 90
        0
102
RTVSPost2010PropOp40
 70
     1
102
RTVSPost2010Prop41ColorIndex
 90
       18
102
RTVSPost2010Prop41ColorRGB
 90
        0
102
RTVSPost2010PropOp41
 70
     1
102
RTVSPost2010Prop42
 90
       50
102
RTVSPost2010PropOp42
 70
     1
102
RTVSPost2010Prop43
 90
        3
102
RTVSPost2010PropOp43
 70
     1
102
RTVSPost2010Prop44ColorIndex
 90
        5
102
RTVSPost2010Prop44ColorRGB
 90
      255
102
RTVSPost2010PropOp44
 70
     1
102
RTVSPost2010Prop45
280
     0
102
RTVSPost2010PropOp45
 70
     1
102
RTVSPost2010Prop46
 90
       50
102
RTVSPost2010PropOp46
 70
     1
102
RTVSPost2010Prop47
 90
       50
102
RTVSPost2010PropOp47
 70
     1
102
RTVSPost2010Prop48
 90
       50
102
RTVSPost2010PropOp48
 70
     1
102
RTVSPost2010Prop49
280
     0
102
RTVSPost2010PropOp49
 70
     1
102
RTVSPost2010Prop50
 90
       50
102
RTVSPost2010PropOp50
 70
     1
102
RTVSPost2010Prop51ColorIndex
 90
      256
102
RTVSPost2010Prop51ColorRGB
 90
-16777216
102
RTVSPost2010PropOp51
 70
     0
102
RTVSPost2010Prop52
140
1.0
102
RTVSPost2010PropOp52
 70
     0
102
RTVSPost2010Prop53
 90
        2
102
RTVSPost2010PropOp53
 70
     1
102
RTVSPost2010Prop54
  1
strokes_ogs.tif
102
RTVSPost2010PropOp54
 70
     1
102
RTVSPost2010Prop55
280
     0
102
RTVSPost2010PropOp55
 70
     1
102
RTVSPost2010Prop56
140
1.0
102
RTVSPost2010PropOp56
 70
     1
102
RTVSPost2010Prop57
140
1.0
102
RTVSPost2010PropOp57
 70
     1
102
RTVSPropertyOp0
 70
     1
102
RTVSPropertyOp1
 70
     1
102
RTVSPropertyOp2
 70
     1
102
RTVSPropertyOp3
 70
     1
102
RTVSPropertyOp4
 70
     1
102
RTVSPropertyOp5
 70
     1
102
RTVSPropertyOp6
 70
     1
102
RTVSPropertyOp7
 70
     1
102
RTVSPropertyOp8
 70
     1
102
RTVSPropertyOp9
 70
     1
102
RTVSPropertyOp10
 70
     1
102
RTVSPropertyOp11
 70
     1
102
RTVSPropertyOp12
 70
     1
102
RTVSPropertyOp13
 70
     1
102
RTVSPropertyOp14
 70
     1
102
RTVSPropertyOp15
 70
     1
102
RTVSPropertyOp16
 70
     1
102
RTVSPropertyOp17
 70
     1
102
RTVSPropertyOp18
 70
     1
102
RTVSPropertyOp19
 70
     1
102
RTVSPropertyOp20
 70
     1
102
RTVSPropertyOp21
 70
     1
102
RTVSPropertyOp22
 70
     1
102
RTVSPropertyOp23
 70
     1
102
RTVSPropertyOp24
 70
     1
102
RTVSPropertyOp25
 70
     1
102
RTVSPropertyOp26
 70
     1
102
RTVSPropertyOp27
 70
     1
102
RTVSPropertyOp28
 70
     1
102
RTVSPropertyOp29
 70
     1
102
RTVSPropertyOp30
 70
     1
102
RTVSPropertyOp31
 70
     1
102
RTVSPropertyOp32
 70
     1
102
RTVSPropertyOp33
 70
     1
102
RTVSPropertyOp34
 70
     1
102
RTVSPropertyOp35
 70
     1
102
RTVSPropertyOp36
 70
     1
102
RTVSPropertyOp37
 70
     1
102
RTVSPropertyOp38
 70
     1
102
RTVSPropertyOp39
 70
     1
102
RTVSPropertyOp40
 70
     1
102
RTVSPropertyOp41
 70
     1
102
RTVSPropertyOp42
 70
     1
102
RTVSPropertyOp43
 70
     1
102
RTVSPropertyOp44
 70
     1
102
RTVSPropertyOp45
 70
     1
102
RTVSPropertyOp46
 70
     1
102
RTVSPropertyOp47
 70
     1
102
RTVSPropertyOp48
 70
     1
102
RTVSPropertyOp49
 70
     1
102
RTVSPropertyOp50
 70
     1
102
RTVSPropertyOp51
 70
     0
102
RTVSPropertyOp52
 70
     0
102
RTVSPropertyOp53
 70
     1
102
RTVSPropertyOp54
 70
     1
102
RTVSPropertyOp55
 70
     1
102
RTVSPropertyOp56
 70
     1
102
RTVSPropertyOp57
 70
     1
102
RTVSPropertyOp58
 70
     1
102
RTVSPropertyOp59
 70
     1
102
RTVSPropertyOp60
 70
     1
102
RTVSPropertyOp61
 70
     1
102
RTVSPropertyOp62
 70
     1
  0
XRECORD
  5
2109
102
{ACAD_REACTORS
330
2108
102
}
330
2108
100
AcDbXrecord
280
     1
102
RTVSPost2010Prop28
280
     0
102
RTVSPost2010PropOp28
 70
     1
102
RTVSPost2010Prop29
280
     1
102
RTVSPost2010PropOp29
 70
     1
102
RTVSPost2010Prop30
280
     1
102
RTVSPost2010PropOp30
 70
     1
102
RTVSPost2010Prop31
280
     0
102
RTVSPost2010PropOp31
 70
     1
102
RTVSPost2010Prop32
280
     0
102
RTVSPost2010PropOp32
 70
     1
102
RTVSPost2010Prop33
280
     0
102
RTVSPost2010PropOp33
 70
     1
102
RTVSPost2010Prop34
280
     0
102
RTVSPost2010PropOp34
 70
     1
102
RTVSPost2010Prop35
280
     0
102
RTVSPost2010PropOp35
 70
     1
102
RTVSPost2010Prop36
280
     0
102
RTVSPost2010PropOp36
 70
     1
102
RTVSPost2010Prop37
 90
       50
102
RTVSPost2010PropOp37
 70
     1
102
RTVSPost2010Prop38
140
0.0
102
RTVSPost2010PropOp38
 70
     1
102
RTVSPost2010Prop39
140
1.0
102
RTVSPost2010PropOp39
 70
     1
102
RTVSPost2010Prop40
 90
        0
102
RTVSPost2010PropOp40
 70
     1
102
RTVSPost2010Prop41ColorIndex
 90
       18
102
RTVSPost2010Prop41ColorRGB
 90
        0
102
RTVSPost2010PropOp41
 70
     1
102
RTVSPost2010Prop42
 90
       50
102
RTVSPost2010PropOp42
 70
     1
102
RTVSPost2010Prop43
 90
        3
102
RTVSPost2010PropOp43
 70
     1
102
RTVSPost2010Prop44ColorIndex
 90
        5
102
RTVSPost2010Prop44ColorRGB
 90
      255
102
RTVSPost2010PropOp44
 70
     1
102
RTVSPost2010Prop45
280
     0
102
RTVSPost2010PropOp45
 70
     1
102
RTVSPost2010Prop46
 90
       50
102
RTVSPost2010PropOp46
 70
     1
102
RTVSPost2010Prop47
 90
       50
102
RTVSPost2010PropOp47
 70
     1
102
RTVSPost2010Prop48
 90
       50
102
RTVSPost2010PropOp48
 70
     1
102
RTVSPost2010Prop49
280
     0
102
RTVSPost2010PropOp49
 70
     1
102
RTVSPost2010Prop50
 90
       50
102
RTVSPost2010PropOp50
 70
     1
102
RTVSPost2010Prop51ColorIndex
 90
      256
102
RTVSPost2010Prop51ColorRGB
 90
-16777216
102
RTVSPost2010PropOp51
 70
     0
102
RTVSPost2010Prop52
140
1.0
102
RTVSPost2010PropOp52
 70
     0
102
RTVSPost2010Prop53
 90
        2
102
RTVSPost2010PropOp53
 70
     1
102
RTVSPost2010Prop54
  1
strokes_ogs.tif
102
RTVSPost2010PropOp54
 70
     1
102
RTVSPost2010Prop55
280
     0
102
RTVSPost2010PropOp55
 70
     1
102
RTVSPost2010Prop56
140
1.0
102
RTVSPost2010PropOp56
 70
     1
102
RTVSPost2010Prop57
140
1.0
102
RTVSPost2010PropOp57
 70
     1
102
RTVSPropertyOp0
 70
     1
102
RTVSPropertyOp1
 70
     1
102
RTVSPropertyOp2
 70
     1
102
RTVSPropertyOp3
 70
     1
102
RTVSPropertyOp4
 70
     1
102
RTVSPropertyOp5
 70
     1
102
RTVSPropertyOp6
 70
     1
102
RTVSPropertyOp7
 70
     1
102
RTVSPropertyOp8
 70
     1
102
RTVSPropertyOp9
 70
     1
102
RTVSPropertyOp10
 70
     1
102
RTVSPropertyOp11
 70
     1
102
RTVSPropertyOp12
 70
     1
102
RTVSPropertyOp13
 70
     1
102
RTVSPropertyOp14
 70
     1
102
RTVSPropertyOp15
 70
     1
102
RTVSPropertyOp16
 70
     1
102
RTVSPropertyOp17
 70
     1
102
RTVSPropertyOp18
 70
     1
102
RTVSPropertyOp19
 70
     1
102
RTVSPropertyOp20
 70
     1
102
RTVSPropertyOp21
 70
     1
102
RTVSPropertyOp22
 70
     1
102
RTVSPropertyOp23
 70
     1
102
RTVSPropertyOp24
 70
     1
102
RTVSPropertyOp25
 70
     1
102
RTVSPropertyOp26
 70
     1
102
RTVSPropertyOp27
 70
     1
102
RTVSPropertyOp28
 70
     1
102
RTVSPropertyOp29
 70
     1
102
RTVSPropertyOp30
 70
     1
102
RTVSPropertyOp31
 70
     1
102
RTVSPropertyOp32
 70
     1
102
RTVSPropertyOp33
 70
     1
102
RTVSPropertyOp34
 70
     1
102
RTVSPropertyOp35
 70
     1
102
RTVSPropertyOp36
 70
     1
102
RTVSPropertyOp37
 70
     1
102
RTVSPropertyOp38
 70
     1
102
RTVSPropertyOp39
 70
     1
102
RTVSPropertyOp40
 70
     1
102
RTVSPropertyOp41
 70
     1
102
RTVSPropertyOp42
 70
     1
102
RTVSPropertyOp43
 70
     1
102
RTVSPropertyOp44
 70
     1
102
RTVSPropertyOp45
 70
     1
102
RTVSPropertyOp46
 70
     1
102
RTVSPropertyOp47
 70
     1
102
RTVSPropertyOp48
 70
     1
102
RTVSPropertyOp49
 70
     1
102
RTVSPropertyOp50
 70
     1
102
RTVSPropertyOp51
 70
     0
102
RTVSPropertyOp52
 70
     0
102
RTVSPropertyOp53
 70
     1
102
RTVSPropertyOp54
 70
     1
102
RTVSPropertyOp55
 70
     1
102
RTVSPropertyOp56
 70
     1
102
RTVSPropertyOp57
 70
     1
102
RTVSPropertyOp58
 70
     1
102
RTVSPropertyOp59
 70
     1
102
RTVSPropertyOp60
 70
     1
102
RTVSPropertyOp61
 70
     1
102
RTVSPropertyOp62
 70
     1
  0
XRECORD
  5
210B
102
{ACAD_REACTORS
330
210A
102
}
330
210A
100
AcDbXrecord
280
     1
102
RTVSPost2010Prop28
280
     0
102
RTVSPost2010PropOp28
 70
     1
102
RTVSPost2010Prop29
280
     1
102
RTVSPost2010PropOp29
 70
     1
102
RTVSPost2010Prop30
280
     1
102
RTVSPost2010PropOp30
 70
     1
102
RTVSPost2010Prop31
280
     0
102
RTVSPost2010PropOp31
 70
     1
102
RTVSPost2010Prop32
280
     0
102
RTVSPost2010PropOp32
 70
     1
102
RTVSPost2010Prop33
280
     0
102
RTVSPost2010PropOp33
 70
     1
102
RTVSPost2010Prop34
280
     0
102
RTVSPost2010PropOp34
 70
     1
102
RTVSPost2010Prop35
280
     0
102
RTVSPost2010PropOp35
 70
     1
102
RTVSPost2010Prop36
280
     0
102
RTVSPost2010PropOp36
 70
     1
102
RTVSPost2010Prop37
 90
       50
102
RTVSPost2010PropOp37
 70
     1
102
RTVSPost2010Prop38
140
0.0
102
RTVSPost2010PropOp38
 70
     1
102
RTVSPost2010Prop39
140
1.0
102
RTVSPost2010PropOp39
 70
     1
102
RTVSPost2010Prop40
 90
        0
102
RTVSPost2010PropOp40
 70
     1
102
RTVSPost2010Prop41ColorIndex
 90
       18
102
RTVSPost2010Prop41ColorRGB
 90
        0
102
RTVSPost2010PropOp41
 70
     1
102
RTVSPost2010Prop42
 90
       50
102
RTVSPost2010PropOp42
 70
     1
102
RTVSPost2010Prop43
 90
        3
102
RTVSPost2010PropOp43
 70
     1
102
RTVSPost2010Prop44ColorIndex
 90
        5
102
RTVSPost2010Prop44ColorRGB
 90
      255
102
RTVSPost2010PropOp44
 70
     1
102
RTVSPost2010Prop45
280
     0
102
RTVSPost2010PropOp45
 70
     1
102
RTVSPost2010Prop46
 90
       50
102
RTVSPost2010PropOp46
 70
     1
102
RTVSPost2010Prop47
 90
       50
102
RTVSPost2010PropOp47
 70
     1
102
RTVSPost2010Prop48
 90
       50
102
RTVSPost2010PropOp48
 70
     1
102
RTVSPost2010Prop49
280
     0
102
RTVSPost2010PropOp49
 70
     1
102
RTVSPost2010Prop50
 90
       50
102
RTVSPost2010PropOp50
 70
     1
102
RTVSPost2010Prop51ColorIndex
 90
      256
102
RTVSPost2010Prop51ColorRGB
 90
-16777216
102
RTVSPost2010PropOp51
 70
     0
102
RTVSPost2010Prop52
140
1.0
102
RTVSPost2010PropOp52
 70
     0
102
RTVSPost2010Prop53
 90
        2
102
RTVSPost2010PropOp53
 70
     1
102
RTVSPost2010Prop54
  1
strokes_ogs.tif
102
RTVSPost2010PropOp54
 70
     1
102
RTVSPost2010Prop55
280
     0
102
RTVSPost2010PropOp55
 70
     1
102
RTVSPost2010Prop56
140
1.0
102
RTVSPost2010PropOp56
 70
     1
102
RTVSPost2010Prop57
140
1.0
102
RTVSPost2010PropOp57
 70
     1
102
RTVSPropertyOp0
 70
     1
102
RTVSPropertyOp1
 70
     1
102
RTVSPropertyOp2
 70
     1
102
RTVSPropertyOp3
 70
     1
102
RTVSPropertyOp4
 70
     1
102
RTVSPropertyOp5
 70
     1
102
RTVSPropertyOp6
 70
     1
102
RTVSPropertyOp7
 70
     1
102
RTVSPropertyOp8
 70
     1
102
RTVSPropertyOp9
 70
     1
102
RTVSPropertyOp10
 70
     1
102
RTVSPropertyOp11
 70
     1
102
RTVSPropertyOp12
 70
     1
102
RTVSPropertyOp13
 70
     1
102
RTVSPropertyOp14
 70
     1
102
RTVSPropertyOp15
 70
     1
102
RTVSPropertyOp16
 70
     1
102
RTVSPropertyOp17
 70
     1
102
RTVSPropertyOp18
 70
     1
102
RTVSPropertyOp19
 70
     1
102
RTVSPropertyOp20
 70
     1
102
RTVSPropertyOp21
 70
     1
102
RTVSPropertyOp22
 70
     1
102
RTVSPropertyOp23
 70
     1
102
RTVSPropertyOp24
 70
     1
102
RTVSPropertyOp25
 70
     1
102
RTVSPropertyOp26
 70
     1
102
RTVSPropertyOp27
 70
     1
102
RTVSPropertyOp28
 70
     1
102
RTVSPropertyOp29
 70
     1
102
RTVSPropertyOp30
 70
     1
102
RTVSPropertyOp31
 70
     1
102
RTVSPropertyOp32
 70
     1
102
RTVSPropertyOp33
 70
     1
102
RTVSPropertyOp34
 70
     1
102
RTVSPropertyOp35
 70
     1
102
RTVSPropertyOp36
 70
     1
102
RTVSPropertyOp37
 70
     1
102
RTVSPropertyOp38
 70
     1
102
RTVSPropertyOp39
 70
     1
102
RTVSPropertyOp40
 70
     1
102
RTVSPropertyOp41
 70
     1
102
RTVSPropertyOp42
 70
     1
102
RTVSPropertyOp43
 70
     1
102
RTVSPropertyOp44
 70
     1
102
RTVSPropertyOp45
 70
     1
102
RTVSPropertyOp46
 70
     1
102
RTVSPropertyOp47
 70
     1
102
RTVSPropertyOp48
 70
     1
102
RTVSPropertyOp49
 70
     1
102
RTVSPropertyOp50
 70
     1
102
RTVSPropertyOp51
 70
     0
102
RTVSPropertyOp52
 70
     0
102
RTVSPropertyOp53
 70
     1
102
RTVSPropertyOp54
 70
     1
102
RTVSPropertyOp55
 70
     1
102
RTVSPropertyOp56
 70
     1
102
RTVSPropertyOp57
 70
     1
102
RTVSPropertyOp58
 70
     1
102
RTVSPropertyOp59
 70
     1
102
RTVSPropertyOp60
 70
     1
102
RTVSPropertyOp61
 70
     1
102
RTVSPropertyOp62
 70
     1
  0
XRECORD
  5
210D
102
{ACAD_REACTORS
330
210C
102
}
330
210C
100
AcDbXrecord
280
     1
102
RTVSPost2010Prop28
280
     0
102
RTVSPost2010PropOp28
 70
     1
102
RTVSPost2010Prop29
280
     1
102
RTVSPost2010PropOp29
 70
     1
102
RTVSPost2010Prop30
280
     1
102
RTVSPost2010PropOp30
 70
     1
102
RTVSPost2010Prop31
280
     0
102
RTVSPost2010PropOp31
 70
     1
102
RTVSPost2010Prop32
280
     0
102
RTVSPost2010PropOp32
 70
     1
102
RTVSPost2010Prop33
280
     0
102
RTVSPost2010PropOp33
 70
     1
102
RTVSPost2010Prop34
280
     0
102
RTVSPost2010PropOp34
 70
     1
102
RTVSPost2010Prop35
280
     0
102
RTVSPost2010PropOp35
 70
     1
102
RTVSPost2010Prop36
280
     0
102
RTVSPost2010PropOp36
 70
     1
102
RTVSPost2010Prop37
 90
       50
102
RTVSPost2010PropOp37
 70
     1
102
RTVSPost2010Prop38
140
0.0
102
RTVSPost2010PropOp38
 70
     1
102
RTVSPost2010Prop39
140
1.0
102
RTVSPost2010PropOp39
 70
     1
102
RTVSPost2010Prop40
 90
        0
102
RTVSPost2010PropOp40
 70
     1
102
RTVSPost2010Prop41ColorIndex
 90
       18
102
RTVSPost2010Prop41ColorRGB
 90
        0
102
RTVSPost2010PropOp41
 70
     1
102
RTVSPost2010Prop42
 90
       50
102
RTVSPost2010PropOp42
 70
     1
102
RTVSPost2010Prop43
 90
        3
102
RTVSPost2010PropOp43
 70
     1
102
RTVSPost2010Prop44ColorIndex
 90
        5
102
RTVSPost2010Prop44ColorRGB
 90
      255
102
RTVSPost2010PropOp44
 70
     1
102
RTVSPost2010Prop45
280
     0
102
RTVSPost2010PropOp45
 70
     1
102
RTVSPost2010Prop46
 90
       50
102
RTVSPost2010PropOp46
 70
     1
102
RTVSPost2010Prop47
 90
       50
102
RTVSPost2010PropOp47
 70
     1
102
RTVSPost2010Prop48
 90
       50
102
RTVSPost2010PropOp48
 70
     1
102
RTVSPost2010Prop49
280
     0
102
RTVSPost2010PropOp49
 70
     1
102
RTVSPost2010Prop50
 90
       50
102
RTVSPost2010PropOp50
 70
     1
102
RTVSPost2010Prop51ColorIndex
 90
      256
102
RTVSPost2010Prop51ColorRGB
 90
-16777216
102
RTVSPost2010PropOp51
 70
     0
102
RTVSPost2010Prop52
140
1.0
102
RTVSPost2010PropOp52
 70
     0
102
RTVSPost2010Prop53
 90
        2
102
RTVSPost2010PropOp53
 70
     1
102
RTVSPost2010Prop54
  1
strokes_ogs.tif
102
RTVSPost2010PropOp54
 70
     1
102
RTVSPost2010Prop55
280
     0
102
RTVSPost2010PropOp55
 70
     1
102
RTVSPost2010Prop56
140
1.0
102
RTVSPost2010PropOp56
 70
     1
102
RTVSPost2010Prop57
140
1.0
102
RTVSPost2010PropOp57
 70
     1
102
RTVSPropertyOp0
 70
     1
102
RTVSPropertyOp1
 70
     1
102
RTVSPropertyOp2
 70
     1
102
RTVSPropertyOp3
 70
     1
102
RTVSPropertyOp4
 70
     1
102
RTVSPropertyOp5
 70
     1
102
RTVSPropertyOp6
 70
     1
102
RTVSPropertyOp7
 70
     1
102
RTVSPropertyOp8
 70
     1
102
RTVSPropertyOp9
 70
     1
102
RTVSPropertyOp10
 70
     1
102
RTVSPropertyOp11
 70
     1
102
RTVSPropertyOp12
 70
     1
102
RTVSPropertyOp13
 70
     1
102
RTVSPropertyOp14
 70
     1
102
RTVSPropertyOp15
 70
     1
102
RTVSPropertyOp16
 70
     1
102
RTVSPropertyOp17
 70
     1
102
RTVSPropertyOp18
 70
     1
102
RTVSPropertyOp19
 70
     1
102
RTVSPropertyOp20
 70
     1
102
RTVSPropertyOp21
 70
     1
102
RTVSPropertyOp22
 70
     1
102
RTVSPropertyOp23
 70
     1
102
RTVSPropertyOp24
 70
     1
102
RTVSPropertyOp25
 70
     1
102
RTVSPropertyOp26
 70
     1
102
RTVSPropertyOp27
 70
     1
102
RTVSPropertyOp28
 70
     1
102
RTVSPropertyOp29
 70
     1
102
RTVSPropertyOp30
 70
     1
102
RTVSPropertyOp31
 70
     1
102
RTVSPropertyOp32
 70
     1
102
RTVSPropertyOp33
 70
     1
102
RTVSPropertyOp34
 70
     1
102
RTVSPropertyOp35
 70
     1
102
RTVSPropertyOp36
 70
     1
102
RTVSPropertyOp37
 70
     1
102
RTVSPropertyOp38
 70
     1
102
RTVSPropertyOp39
 70
     1
102
RTVSPropertyOp40
 70
     1
102
RTVSPropertyOp41
 70
     1
102
RTVSPropertyOp42
 70
     1
102
RTVSPropertyOp43
 70
     1
102
RTVSPropertyOp44
 70
     1
102
RTVSPropertyOp45
 70
     1
102
RTVSPropertyOp46
 70
     1
102
RTVSPropertyOp47
 70
     1
102
RTVSPropertyOp48
 70
     1
102
RTVSPropertyOp49
 70
     1
102
RTVSPropertyOp50
 70
     1
102
RTVSPropertyOp51
 70
     0
102
RTVSPropertyOp52
 70
     0
102
RTVSPropertyOp53
 70
     1
102
RTVSPropertyOp54
 70
     1
102
RTVSPropertyOp55
 70
     1
102
RTVSPropertyOp56
 70
     1
102
RTVSPropertyOp57
 70
     1
102
RTVSPropertyOp58
 70
     1
102
RTVSPropertyOp59
 70
     1
102
RTVSPropertyOp60
 70
     1
102
RTVSPropertyOp61
 70
     1
102
RTVSPropertyOp62
 70
     1
  0
XRECORD
  5
210F
102
{ACAD_REACTORS
330
210E
102
}
330
210E
100
AcDbXrecord
280
     1
102
RTVSPost2010Prop28
280
     0
102
RTVSPost2010PropOp28
 70
     1
102
RTVSPost2010Prop29
280
     1
102
RTVSPost2010PropOp29
 70
     1
102
RTVSPost2010Prop30
280
     1
102
RTVSPost2010PropOp30
 70
     1
102
RTVSPost2010Prop31
280
     0
102
RTVSPost2010PropOp31
 70
     1
102
RTVSPost2010Prop32
280
     0
102
RTVSPost2010PropOp32
 70
     1
102
RTVSPost2010Prop33
280
     0
102
RTVSPost2010PropOp33
 70
     1
102
RTVSPost2010Prop34
280
     0
102
RTVSPost2010PropOp34
 70
     1
102
RTVSPost2010Prop35
280
     0
102
RTVSPost2010PropOp35
 70
     1
102
RTVSPost2010Prop36
280
     0
102
RTVSPost2010PropOp36
 70
     1
102
RTVSPost2010Prop37
 90
       50
102
RTVSPost2010PropOp37
 70
     1
102
RTVSPost2010Prop38
140
0.0
102
RTVSPost2010PropOp38
 70
     1
102
RTVSPost2010Prop39
140
1.0
102
RTVSPost2010PropOp39
 70
     1
102
RTVSPost2010Prop40
 90
        0
102
RTVSPost2010PropOp40
 70
     1
102
RTVSPost2010Prop41ColorIndex
 90
       18
102
RTVSPost2010Prop41ColorRGB
 90
        0
102
RTVSPost2010PropOp41
 70
     1
102
RTVSPost2010Prop42
 90
       50
102
RTVSPost2010PropOp42
 70
     1
102
RTVSPost2010Prop43
 90
        3
102
RTVSPost2010PropOp43
 70
     1
102
RTVSPost2010Prop44ColorIndex
 90
        5
102
RTVSPost2010Prop44ColorRGB
 90
      255
102
RTVSPost2010PropOp44
 70
     1
102
RTVSPost2010Prop45
280
     0
102
RTVSPost2010PropOp45
 70
     1
102
RTVSPost2010Prop46
 90
       50
102
RTVSPost2010PropOp46
 70
     1
102
RTVSPost2010Prop47
 90
       50
102
RTVSPost2010PropOp47
 70
     1
102
RTVSPost2010Prop48
 90
       50
102
RTVSPost2010PropOp48
 70
     1
102
RTVSPost2010Prop49
280
     0
102
RTVSPost2010PropOp49
 70
     1
102
RTVSPost2010Prop50
 90
       50
102
RTVSPost2010PropOp50
 70
     1
102
RTVSPost2010Prop51ColorIndex
 90
      256
102
RTVSPost2010Prop51ColorRGB
 90
-16777216
102
RTVSPost2010PropOp51
 70
     0
102
RTVSPost2010Prop52
140
1.0
102
RTVSPost2010PropOp52
 70
     0
102
RTVSPost2010Prop53
 90
        2
102
RTVSPost2010PropOp53
 70
     1
102
RTVSPost2010Prop54
  1
strokes_ogs.tif
102
RTVSPost2010PropOp54
 70
     1
102
RTVSPost2010Prop55
280
     0
102
RTVSPost2010PropOp55
 70
     1
102
RTVSPost2010Prop56
140
1.0
102
RTVSPost2010PropOp56
 70
     1
102
RTVSPost2010Prop57
140
1.0
102
RTVSPost2010PropOp57
 70
     1
102
RTVSPropertyOp0
 70
     1
102
RTVSPropertyOp1
 70
     1
102
RTVSPropertyOp2
 70
     1
102
RTVSPropertyOp3
 70
     1
102
RTVSPropertyOp4
 70
     1
102
RTVSPropertyOp5
 70
     1
102
RTVSPropertyOp6
 70
     1
102
RTVSPropertyOp7
 70
     1
102
RTVSPropertyOp8
 70
     1
102
RTVSPropertyOp9
 70
     1
102
RTVSPropertyOp10
 70
     1
102
RTVSPropertyOp11
 70
     1
102
RTVSPropertyOp12
 70
     1
102
RTVSPropertyOp13
 70
     1
102
RTVSPropertyOp14
 70
     1
102
RTVSPropertyOp15
 70
     1
102
RTVSPropertyOp16
 70
     1
102
RTVSPropertyOp17
 70
     1
102
RTVSPropertyOp18
 70
     1
102
RTVSPropertyOp19
 70
     1
102
RTVSPropertyOp20
 70
     1
102
RTVSPropertyOp21
 70
     1
102
RTVSPropertyOp22
 70
     1
102
RTVSPropertyOp23
 70
     1
102
RTVSPropertyOp24
 70
     1
102
RTVSPropertyOp25
 70
     1
102
RTVSPropertyOp26
 70
     1
102
RTVSPropertyOp27
 70
     1
102
RTVSPropertyOp28
 70
     1
102
RTVSPropertyOp29
 70
     1
102
RTVSPropertyOp30
 70
     1
102
RTVSPropertyOp31
 70
     1
102
RTVSPropertyOp32
 70
     1
102
RTVSPropertyOp33
 70
     1
102
RTVSPropertyOp34
 70
     1
102
RTVSPropertyOp35
 70
     1
102
RTVSPropertyOp36
 70
     1
102
RTVSPropertyOp37
 70
     1
102
RTVSPropertyOp38
 70
     1
102
RTVSPropertyOp39
 70
     1
102
RTVSPropertyOp40
 70
     1
102
RTVSPropertyOp41
 70
     1
102
RTVSPropertyOp42
 70
     1
102
RTVSPropertyOp43
 70
     1
102
RTVSPropertyOp44
 70
     1
102
RTVSPropertyOp45
 70
     1
102
RTVSPropertyOp46
 70
     1
102
RTVSPropertyOp47
 70
     1
102
RTVSPropertyOp48
 70
     1
102
RTVSPropertyOp49
 70
     1
102
RTVSPropertyOp50
 70
     1
102
RTVSPropertyOp51
 70
     0
102
RTVSPropertyOp52
 70
     0
102
RTVSPropertyOp53
 70
     1
102
RTVSPropertyOp54
 70
     1
102
RTVSPropertyOp55
 70
     1
102
RTVSPropertyOp56
 70
     1
102
RTVSPropertyOp57
 70
     1
102
RTVSPropertyOp58
 70
     1
102
RTVSPropertyOp59
 70
     1
102
RTVSPropertyOp60
 70
     1
102
RTVSPropertyOp61
 70
     1
102
RTVSPropertyOp62
 70
     1
  0
XRECORD
  5
2117
102
{ACAD_REACTORS
330
2116
102
}
330
2116
100
AcDbXrecord
280
     1
102
RTVSPost2010Prop28
280
     0
102
RTVSPost2010PropOp28
 70
     1
102
RTVSPost2010Prop29
280
     1
102
RTVSPost2010PropOp29
 70
     1
102
RTVSPost2010Prop30
280
     1
102
RTVSPost2010PropOp30
 70
     1
102
RTVSPost2010Prop31
280
     0
102
RTVSPost2010PropOp31
 70
     1
102
RTVSPost2010Prop32
280
     0
102
RTVSPost2010PropOp32
 70
     1
102
RTVSPost2010Prop33
280
     0
102
RTVSPost2010PropOp33
 70
     1
102
RTVSPost2010Prop34
280
     0
102
RTVSPost2010PropOp34
 70
     1
102
RTVSPost2010Prop35
280
     0
102
RTVSPost2010PropOp35
 70
     1
102
RTVSPost2010Prop36
280
     0
102
RTVSPost2010PropOp36
 70
     1
102
RTVSPost2010Prop37
 90
       50
102
RTVSPost2010PropOp37
 70
     1
102
RTVSPost2010Prop38
140
0.0
102
RTVSPost2010PropOp38
 70
     1
102
RTVSPost2010Prop39
140
1.0
102
RTVSPost2010PropOp39
 70
     1
102
RTVSPost2010Prop40
 90
        0
102
RTVSPost2010PropOp40
 70
     1
102
RTVSPost2010Prop41ColorIndex
 90
       18
102
RTVSPost2010Prop41ColorRGB
 90
        0
102
RTVSPost2010PropOp41
 70
     1
102
RTVSPost2010Prop42
 90
       50
102
RTVSPost2010PropOp42
 70
     1
102
RTVSPost2010Prop43
 90
        3
102
RTVSPost2010PropOp43
 70
     1
102
RTVSPost2010Prop44ColorIndex
 90
        5
102
RTVSPost2010Prop44ColorRGB
 90
      255
102
RTVSPost2010PropOp44
 70
     1
102
RTVSPost2010Prop45
280
     0
102
RTVSPost2010PropOp45
 70
     1
102
RTVSPost2010Prop46
 90
       50
102
RTVSPost2010PropOp46
 70
     1
102
RTVSPost2010Prop47
 90
       50
102
RTVSPost2010PropOp47
 70
     1
102
RTVSPost2010Prop48
 90
       50
102
RTVSPost2010PropOp48
 70
     1
102
RTVSPost2010Prop49
280
     0
102
RTVSPost2010PropOp49
 70
     1
102
RTVSPost2010Prop50
 90
       50
102
RTVSPost2010PropOp50
 70
     1
102
RTVSPost2010Prop51ColorIndex
 90
      256
102
RTVSPost2010Prop51ColorRGB
 90
-16777216
102
RTVSPost2010PropOp51
 70
     0
102
RTVSPost2010Prop52
140
1.0
102
RTVSPost2010PropOp52
 70
     0
102
RTVSPost2010Prop53
 90
        2
102
RTVSPost2010PropOp53
 70
     1
102
RTVSPost2010Prop54
  1
strokes_ogs.tif
102
RTVSPost2010PropOp54
 70
     1
102
RTVSPost2010Prop55
280
     0
102
RTVSPost2010PropOp55
 70
     1
102
RTVSPost2010Prop56
140
1.0
102
RTVSPost2010PropOp56
 70
     1
102
RTVSPost2010Prop57
140
1.0
102
RTVSPost2010PropOp57
 70
     1
102
RTVSPropertyOp0
 70
     1
102
RTVSPropertyOp1
 70
     1
102
RTVSPropertyOp2
 70
     1
102
RTVSPropertyOp3
 70
     1
102
RTVSPropertyOp4
 70
     1
102
RTVSPropertyOp5
 70
     1
102
RTVSPropertyOp6
 70
     1
102
RTVSPropertyOp7
 70
     1
102
RTVSPropertyOp8
 70
     1
102
RTVSPropertyOp9
 70
     1
102
RTVSPropertyOp10
 70
     1
102
RTVSPropertyOp11
 70
     1
102
RTVSPropertyOp12
 70
     1
102
RTVSPropertyOp13
 70
     1
102
RTVSPropertyOp14
 70
     1
102
RTVSPropertyOp15
 70
     1
102
RTVSPropertyOp16
 70
     1
102
RTVSPropertyOp17
 70
     1
102
RTVSPropertyOp18
 70
     1
102
RTVSPropertyOp19
 70
     1
102
RTVSPropertyOp20
 70
     1
102
RTVSPropertyOp21
 70
     1
102
RTVSPropertyOp22
 70
     1
102
RTVSPropertyOp23
 70
     1
102
RTVSPropertyOp24
 70
     1
102
RTVSPropertyOp25
 70
     1
102
RTVSPropertyOp26
 70
     1
102
RTVSPropertyOp27
 70
     1
102
RTVSPropertyOp28
 70
     1
102
RTVSPropertyOp29
 70
     1
102
RTVSPropertyOp30
 70
     1
102
RTVSPropertyOp31
 70
     1
102
RTVSPropertyOp32
 70
     1
102
RTVSPropertyOp33
 70
     1
102
RTVSPropertyOp34
 70
     1
102
RTVSPropertyOp35
 70
     1
102
RTVSPropertyOp36
 70
     1
102
RTVSPropertyOp37
 70
     1
102
RTVSPropertyOp38
 70
     1
102
RTVSPropertyOp39
 70
     1
102
RTVSPropertyOp40
 70
     1
102
RTVSPropertyOp41
 70
     1
102
RTVSPropertyOp42
 70
     1
102
RTVSPropertyOp43
 70
     1
102
RTVSPropertyOp44
 70
     1
102
RTVSPropertyOp45
 70
     1
102
RTVSPropertyOp46
 70
     1
102
RTVSPropertyOp47
 70
     1
102
RTVSPropertyOp48
 70
     1
102
RTVSPropertyOp49
 70
     1
102
RTVSPropertyOp50
 70
     1
102
RTVSPropertyOp51
 70
     0
102
RTVSPropertyOp52
 70
     0
102
RTVSPropertyOp53
 70
     1
102
RTVSPropertyOp54
 70
     1
102
RTVSPropertyOp55
 70
     1
102
RTVSPropertyOp56
 70
     1
102
RTVSPropertyOp57
 70
     1
102
RTVSPropertyOp58
 70
     1
102
RTVSPropertyOp59
 70
     1
102
RTVSPropertyOp60
 70
     1
102
RTVSPropertyOp61
 70
     1
102
RTVSPropertyOp62
 70
     1
  0
XRECORD
  5
2133
102
{ACAD_REACTORS
330
2132
102
}
330
2132
100
AcDbXrecord
280
     1
102
RTVSPost2010Prop28
280
     0
102
RTVSPost2010PropOp28
 70
     1
102
RTVSPost2010Prop29
280
     1
102
RTVSPost2010PropOp29
 70
     1
102
RTVSPost2010Prop30
280
     1
102
RTVSPost2010PropOp30
 70
     1
102
RTVSPost2010Prop31
280
     0
102
RTVSPost2010PropOp31
 70
     1
102
RTVSPost2010Prop32
280
     0
102
RTVSPost2010PropOp32
 70
     1
102
RTVSPost2010Prop33
280
     0
102
RTVSPost2010PropOp33
 70
     1
102
RTVSPost2010Prop34
280
     0
102
RTVSPost2010PropOp34
 70
     1
102
RTVSPost2010Prop35
280
     0
102
RTVSPost2010PropOp35
 70
     1
102
RTVSPost2010Prop36
280
     0
102
RTVSPost2010PropOp36
 70
     1
102
RTVSPost2010Prop37
 90
       50
102
RTVSPost2010PropOp37
 70
     0
102
RTVSPost2010Prop38
140
0.0
102
RTVSPost2010PropOp38
 70
     0
102
RTVSPost2010Prop39
140
1.0
102
RTVSPost2010PropOp39
 70
     0
102
RTVSPost2010Prop40
 90
        0
102
RTVSPost2010PropOp40
 70
     0
102
RTVSPost2010Prop41ColorIndex
 90
       18
102
RTVSPost2010Prop41ColorRGB
 90
        0
102
RTVSPost2010PropOp41
 70
     0
102
RTVSPost2010Prop42
 90
       50
102
RTVSPost2010PropOp42
 70
     0
102
RTVSPost2010Prop43
 90
        3
102
RTVSPost2010PropOp43
 70
     0
102
RTVSPost2010Prop44ColorIndex
 90
        5
102
RTVSPost2010Prop44ColorRGB
 90
      255
102
RTVSPost2010PropOp44
 70
     0
102
RTVSPost2010Prop45
280
     0
102
RTVSPost2010PropOp45
 70
     1
102
RTVSPost2010Prop46
 90
       50
102
RTVSPost2010PropOp46
 70
     0
102
RTVSPost2010Prop47
 90
       50
102
RTVSPost2010PropOp47
 70
     0
102
RTVSPost2010Prop48
 90
       50
102
RTVSPost2010PropOp48
 70
     0
102
RTVSPost2010Prop49
280
     0
102
RTVSPost2010PropOp49
 70
     1
102
RTVSPost2010Prop50
 90
       50
102
RTVSPost2010PropOp50
 70
     0
102
RTVSPost2010Prop51ColorIndex
 90
      256
102
RTVSPost2010Prop51ColorRGB
 90
-16777216
102
RTVSPost2010PropOp51
 70
     0
102
RTVSPost2010Prop52
140
1.0
102
RTVSPost2010PropOp52
 70
     0
102
RTVSPost2010Prop53
 90
        2
102
RTVSPost2010PropOp53
 70
     0
102
RTVSPost2010Prop54
  1
strokes_ogs.tif
102
RTVSPost2010PropOp54
 70
     0
102
RTVSPost2010Prop55
280
     0
102
RTVSPost2010PropOp55
 70
     1
102
RTVSPost2010Prop56
140
1.0
102
RTVSPost2010PropOp56
 70
     0
102
RTVSPost2010Prop57
140
1.0
102
RTVSPost2010PropOp57
 70
     0
102
RTVSPropertyOp0
 70
     0
102
RTVSPropertyOp1
 70
     0
102
RTVSPropertyOp2
 70
     0
102
RTVSPropertyOp3
 70
     0
102
RTVSPropertyOp4
 70
     0
102
RTVSPropertyOp5
 70
     0
102
RTVSPropertyOp6
 70
     0
102
RTVSPropertyOp7
 70
     0
102
RTVSPropertyOp8
 70
     0
102
RTVSPropertyOp9
 70
     0
102
RTVSPropertyOp10
 70
     0
102
RTVSPropertyOp11
 70
     0
102
RTVSPropertyOp12
 70
     0
102
RTVSPropertyOp13
 70
     0
102
RTVSPropertyOp14
 70
     2
102
RTVSPropertyOp15
 70
     0
102
RTVSPropertyOp16
 70
     0
102
RTVSPropertyOp17
 70
     0
102
RTVSPropertyOp18
 70
     0
102
RTVSPropertyOp19
 70
     0
102
RTVSPropertyOp20
 70
     0
102
RTVSPropertyOp21
 70
     0
102
RTVSPropertyOp22
 70
     0
102
RTVSPropertyOp23
 70
     0
102
RTVSPropertyOp24
 70
     0
102
RTVSPropertyOp25
 70
     0
102
RTVSPropertyOp26
 70
     0
102
RTVSPropertyOp27
 70
     0
102
RTVSPropertyOp28
 70
     1
102
RTVSPropertyOp29
 70
     1
102
RTVSPropertyOp30
 70
     1
102
RTVSPropertyOp31
 70
     1
102
RTVSPropertyOp32
 70
     1
102
RTVSPropertyOp33
 70
     1
102
RTVSPropertyOp34
 70
     1
102
RTVSPropertyOp35
 70
     1
102
RTVSPropertyOp36
 70
     1
102
RTVSPropertyOp37
 70
     0
102
RTVSPropertyOp38
 70
     0
102
RTVSPropertyOp39
 70
     0
102
RTVSPropertyOp40
 70
     0
102
RTVSPropertyOp41
 70
     0
102
RTVSPropertyOp42
 70
     0
102
RTVSPropertyOp43
 70
     0
102
RTVSPropertyOp44
 70
     0
102
RTVSPropertyOp45
 70
     1
102
RTVSPropertyOp46
 70
     0
102
RTVSPropertyOp47
 70
     0
102
RTVSPropertyOp48
 70
     0
102
RTVSPropertyOp49
 70
     1
102
RTVSPropertyOp50
 70
     0
102
RTVSPropertyOp51
 70
     0
102
RTVSPropertyOp52
 70
     0
102
RTVSPropertyOp53
 70
     0
102
RTVSPropertyOp54
 70
     0
102
RTVSPropertyOp55
 70
     1
102
RTVSPropertyOp56
 70
     0
102
RTVSPropertyOp57
 70
     0
102
RTVSPropertyOp58
 70
     0
102
RTVSPropertyOp59
 70
     0
102
RTVSPropertyOp60
 70
     0
102
RTVSPropertyOp61
 70
     0
102
RTVSPropertyOp62
 70
     0
  0
XRECORD
  5
2123
102
{ACAD_REACTORS
330
2122
102
}
330
2122
100
AcDbXrecord
280
     1
102
RTVSPost2010Prop28
280
     0
102
RTVSPost2010PropOp28
 70
     1
102
RTVSPost2010Prop29
280
     1
102
RTVSPost2010PropOp29
 70
     1
102
RTVSPost2010Prop30
280
     1
102
RTVSPost2010PropOp30
 70
     1
102
RTVSPost2010Prop31
280
     0
102
RTVSPost2010PropOp31
 70
     1
102
RTVSPost2010Prop32
280
     0
102
RTVSPost2010PropOp32
 70
     1
102
RTVSPost2010Prop33
280
     0
102
RTVSPost2010PropOp33
 70
     1
102
RTVSPost2010Prop34
280
     0
102
RTVSPost2010PropOp34
 70
     1
102
RTVSPost2010Prop35
280
     0
102
RTVSPost2010PropOp35
 70
     1
102
RTVSPost2010Prop36
280
     0
102
RTVSPost2010PropOp36
 70
     1
102
RTVSPost2010Prop37
 90
       50
102
RTVSPost2010PropOp37
 70
     1
102
RTVSPost2010Prop38
140
0.0
102
RTVSPost2010PropOp38
 70
     1
102
RTVSPost2010Prop39
140
1.0
102
RTVSPost2010PropOp39
 70
     1
102
RTVSPost2010Prop40
 90
        0
102
RTVSPost2010PropOp40
 70
     1
102
RTVSPost2010Prop41ColorIndex
 90
       18
102
RTVSPost2010Prop41ColorRGB
 90
        0
102
RTVSPost2010PropOp41
 70
     1
102
RTVSPost2010Prop42
 90
       50
102
RTVSPost2010PropOp42
 70
     1
102
RTVSPost2010Prop43
 90
        3
102
RTVSPost2010PropOp43
 70
     1
102
RTVSPost2010Prop44ColorIndex
 90
        5
102
RTVSPost2010Prop44ColorRGB
 90
      255
102
RTVSPost2010PropOp44
 70
     1
102
RTVSPost2010Prop45
280
     0
102
RTVSPost2010PropOp45
 70
     1
102
RTVSPost2010Prop46
 90
       50
102
RTVSPost2010PropOp46
 70
     1
102
RTVSPost2010Prop47
 90
       50
102
RTVSPost2010PropOp47
 70
     1
102
RTVSPost2010Prop48
 90
       50
102
RTVSPost2010PropOp48
 70
     1
102
RTVSPost2010Prop49
280
     0
102
RTVSPost2010PropOp49
 70
     1
102
RTVSPost2010Prop50
 90
       50
102
RTVSPost2010PropOp50
 70
     1
102
RTVSPost2010Prop51ColorIndex
 90
      256
102
RTVSPost2010Prop51ColorRGB
 90
-16777216
102
RTVSPost2010PropOp51
 70
     0
102
RTVSPost2010Prop52
140
1.0
102
RTVSPost2010PropOp52
 70
     0
102
RTVSPost2010Prop53
 90
        2
102
RTVSPost2010PropOp53
 70
     1
102
RTVSPost2010Prop54
  1
strokes_ogs.tif
102
RTVSPost2010PropOp54
 70
     1
102
RTVSPost2010Prop55
280
     0
102
RTVSPost2010PropOp55
 70
     1
102
RTVSPost2010Prop56
140
1.0
102
RTVSPost2010PropOp56
 70
     1
102
RTVSPost2010Prop57
140
1.0
102
RTVSPost2010PropOp57
 70
     1
102
RTVSPropertyOp0
 70
     1
102
RTVSPropertyOp1
 70
     1
102
RTVSPropertyOp2
 70
     1
102
RTVSPropertyOp3
 70
     1
102
RTVSPropertyOp4
 70
     1
102
RTVSPropertyOp5
 70
     1
102
RTVSPropertyOp6
 70
     1
102
RTVSPropertyOp7
 70
     1
102
RTVSPropertyOp8
 70
     1
102
RTVSPropertyOp9
 70
     1
102
RTVSPropertyOp10
 70
     1
102
RTVSPropertyOp11
 70
     1
102
RTVSPropertyOp12
 70
     1
102
RTVSPropertyOp13
 70
     1
102
RTVSPropertyOp14
 70
     1
102
RTVSPropertyOp15
 70
     1
102
RTVSPropertyOp16
 70
     1
102
RTVSPropertyOp17
 70
     1
102
RTVSPropertyOp18
 70
     1
102
RTVSPropertyOp19
 70
     1
102
RTVSPropertyOp20
 70
     1
102
RTVSPropertyOp21
 70
     1
102
RTVSPropertyOp22
 70
     1
102
RTVSPropertyOp23
 70
     1
102
RTVSPropertyOp24
 70
     1
102
RTVSPropertyOp25
 70
     1
102
RTVSPropertyOp26
 70
     1
102
RTVSPropertyOp27
 70
     1
102
RTVSPropertyOp28
 70
     1
102
RTVSPropertyOp29
 70
     1
102
RTVSPropertyOp30
 70
     1
102
RTVSPropertyOp31
 70
     1
102
RTVSPropertyOp32
 70
     1
102
RTVSPropertyOp33
 70
     1
102
RTVSPropertyOp34
 70
     1
102
RTVSPropertyOp35
 70
     1
102
RTVSPropertyOp36
 70
     1
102
RTVSPropertyOp37
 70
     1
102
RTVSPropertyOp38
 70
     1
102
RTVSPropertyOp39
 70
     1
102
RTVSPropertyOp40
 70
     1
102
RTVSPropertyOp41
 70
     1
102
RTVSPropertyOp42
 70
     1
102
RTVSPropertyOp43
 70
     1
102
RTVSPropertyOp44
 70
     1
102
RTVSPropertyOp45
 70
     1
102
RTVSPropertyOp46
 70
     1
102
RTVSPropertyOp47
 70
     1
102
RTVSPropertyOp48
 70
     1
102
RTVSPropertyOp49
 70
     1
102
RTVSPropertyOp50
 70
     1
102
RTVSPropertyOp51
 70
     0
102
RTVSPropertyOp52
 70
     0
102
RTVSPropertyOp53
 70
     1
102
RTVSPropertyOp54
 70
     1
102
RTVSPropertyOp55
 70
     1
102
RTVSPropertyOp56
 70
     1
102
RTVSPropertyOp57
 70
     1
102
RTVSPropertyOp58
 70
     1
102
RTVSPropertyOp59
 70
     1
102
RTVSPropertyOp60
 70
     1
102
RTVSPropertyOp61
 70
     1
102
RTVSPropertyOp62
 70
     1
  0
XRECORD
  5
2135
102
{ACAD_REACTORS
330
2134
102
}
330
2134
100
AcDbXrecord
280
     1
102
RTVSPost2010Prop28
280
     0
102
RTVSPost2010PropOp28
 70
     1
102
RTVSPost2010Prop29
280
     1
102
RTVSPost2010PropOp29
 70
     1
102
RTVSPost2010Prop30
280
     1
102
RTVSPost2010PropOp30
 70
     1
102
RTVSPost2010Prop31
280
     0
102
RTVSPost2010PropOp31
 70
     1
102
RTVSPost2010Prop32
280
     0
102
RTVSPost2010PropOp32
 70
     1
102
RTVSPost2010Prop33
280
     0
102
RTVSPost2010PropOp33
 70
     1
102
RTVSPost2010Prop34
280
     0
102
RTVSPost2010PropOp34
 70
     1
102
RTVSPost2010Prop35
280
     0
102
RTVSPost2010PropOp35
 70
     1
102
RTVSPost2010Prop36
280
     0
102
RTVSPost2010PropOp36
 70
     1
102
RTVSPost2010Prop37
 90
       50
102
RTVSPost2010PropOp37
 70
     0
102
RTVSPost2010Prop38
140
0.0
102
RTVSPost2010PropOp38
 70
     0
102
RTVSPost2010Prop39
140
1.0
102
RTVSPost2010PropOp39
 70
     0
102
RTVSPost2010Prop40
 90
        0
102
RTVSPost2010PropOp40
 70
     0
102
RTVSPost2010Prop41ColorIndex
 90
       18
102
RTVSPost2010Prop41ColorRGB
 90
        0
102
RTVSPost2010PropOp41
 70
     0
102
RTVSPost2010Prop42
 90
       50
102
RTVSPost2010PropOp42
 70
     0
102
RTVSPost2010Prop43
 90
        3
102
RTVSPost2010PropOp43
 70
     0
102
RTVSPost2010Prop44ColorIndex
 90
        5
102
RTVSPost2010Prop44ColorRGB
 90
      255
102
RTVSPost2010PropOp44
 70
     0
102
RTVSPost2010Prop45
280
     0
102
RTVSPost2010PropOp45
 70
     1
102
RTVSPost2010Prop46
 90
       50
102
RTVSPost2010PropOp46
 70
     0
102
RTVSPost2010Prop47
 90
       50
102
RTVSPost2010PropOp47
 70
     0
102
RTVSPost2010Prop48
 90
       50
102
RTVSPost2010PropOp48
 70
     0
102
RTVSPost2010Prop49
280
     0
102
RTVSPost2010PropOp49
 70
     1
102
RTVSPost2010Prop50
 90
       50
102
RTVSPost2010PropOp50
 70
     0
102
RTVSPost2010Prop51ColorIndex
 90
      256
102
RTVSPost2010Prop51ColorRGB
 90
-16777216
102
RTVSPost2010PropOp51
 70
     0
102
RTVSPost2010Prop52
140
1.0
102
RTVSPost2010PropOp52
 70
     0
102
RTVSPost2010Prop53
 90
        2
102
RTVSPost2010PropOp53
 70
     0
102
RTVSPost2010Prop54
  1
strokes_ogs.tif
102
RTVSPost2010PropOp54
 70
     0
102
RTVSPost2010Prop55
280
     0
102
RTVSPost2010PropOp55
 70
     1
102
RTVSPost2010Prop56
140
1.0
102
RTVSPost2010PropOp56
 70
     0
102
RTVSPost2010Prop57
140
1.0
102
RTVSPost2010PropOp57
 70
     0
102
RTVSPropertyOp0
 70
     0
102
RTVSPropertyOp1
 70
     0
102
RTVSPropertyOp2
 70
     0
102
RTVSPropertyOp3
 70
     0
102
RTVSPropertyOp4
 70
     0
102
RTVSPropertyOp5
 70
     0
102
RTVSPropertyOp6
 70
     0
102
RTVSPropertyOp7
 70
     0
102
RTVSPropertyOp8
 70
     0
102
RTVSPropertyOp9
 70
     0
102
RTVSPropertyOp10
 70
     0
102
RTVSPropertyOp11
 70
     0
102
RTVSPropertyOp12
 70
     0
102
RTVSPropertyOp13
 70
     0
102
RTVSPropertyOp14
 70
     2
102
RTVSPropertyOp15
 70
     0
102
RTVSPropertyOp16
 70
     0
102
RTVSPropertyOp17
 70
     0
102
RTVSPropertyOp18
 70
     0
102
RTVSPropertyOp19
 70
     0
102
RTVSPropertyOp20
 70
     0
102
RTVSPropertyOp21
 70
     0
102
RTVSPropertyOp22
 70
     0
102
RTVSPropertyOp23
 70
     0
102
RTVSPropertyOp24
 70
     0
102
RTVSPropertyOp25
 70
     0
102
RTVSPropertyOp26
 70
     0
102
RTVSPropertyOp27
 70
     0
102
RTVSPropertyOp28
 70
     1
102
RTVSPropertyOp29
 70
     1
102
RTVSPropertyOp30
 70
     1
102
RTVSPropertyOp31
 70
     1
102
RTVSPropertyOp32
 70
     1
102
RTVSPropertyOp33
 70
     1
102
RTVSPropertyOp34
 70
     1
102
RTVSPropertyOp35
 70
     1
102
RTVSPropertyOp36
 70
     1
102
RTVSPropertyOp37
 70
     0
102
RTVSPropertyOp38
 70
     0
102
RTVSPropertyOp39
 70
     0
102
RTVSPropertyOp40
 70
     0
102
RTVSPropertyOp41
 70
     0
102
RTVSPropertyOp42
 70
     0
102
RTVSPropertyOp43
 70
     0
102
RTVSPropertyOp44
 70
     0
102
RTVSPropertyOp45
 70
     1
102
RTVSPropertyOp46
 70
     0
102
RTVSPropertyOp47
 70
     0
102
RTVSPropertyOp48
 70
     0
102
RTVSPropertyOp49
 70
     1
102
RTVSPropertyOp50
 70
     0
102
RTVSPropertyOp51
 70
     0
102
RTVSPropertyOp52
 70
     0
102
RTVSPropertyOp53
 70
     0
102
RTVSPropertyOp54
 70
     0
102
RTVSPropertyOp55
 70
     1
102
RTVSPropertyOp56
 70
     0
102
RTVSPropertyOp57
 70
     0
102
RTVSPropertyOp58
 70
     0
102
RTVSPropertyOp59
 70
     0
102
RTVSPropertyOp60
 70
     0
102
RTVSPropertyOp61
 70
     0
102
RTVSPropertyOp62
 70
     0
  0
XRECORD
  5
211B
102
{ACAD_REACTORS
330
211A
102
}
330
211A
100
AcDbXrecord
280
     1
102
RTVSPost2010Prop28
280
     0
102
RTVSPost2010PropOp28
 70
     1
102
RTVSPost2010Prop29
280
     1
102
RTVSPost2010PropOp29
 70
     1
102
RTVSPost2010Prop30
280
     1
102
RTVSPost2010PropOp30
 70
     1
102
RTVSPost2010Prop31
280
     0
102
RTVSPost2010PropOp31
 70
     1
102
RTVSPost2010Prop32
280
     0
102
RTVSPost2010PropOp32
 70
     1
102
RTVSPost2010Prop33
280
     0
102
RTVSPost2010PropOp33
 70
     1
102
RTVSPost2010Prop34
280
     0
102
RTVSPost2010PropOp34
 70
     1
102
RTVSPost2010Prop35
280
     0
102
RTVSPost2010PropOp35
 70
     1
102
RTVSPost2010Prop36
280
     0
102
RTVSPost2010PropOp36
 70
     1
102
RTVSPost2010Prop37
 90
       50
102
RTVSPost2010PropOp37
 70
     1
102
RTVSPost2010Prop38
140
0.0
102
RTVSPost2010PropOp38
 70
     1
102
RTVSPost2010Prop39
140
1.0
102
RTVSPost2010PropOp39
 70
     1
102
RTVSPost2010Prop40
 90
        0
102
RTVSPost2010PropOp40
 70
     1
102
RTVSPost2010Prop41ColorIndex
 90
       18
102
RTVSPost2010Prop41ColorRGB
 90
        0
102
RTVSPost2010PropOp41
 70
     1
102
RTVSPost2010Prop42
 90
       50
102
RTVSPost2010PropOp42
 70
     1
102
RTVSPost2010Prop43
 90
        3
102
RTVSPost2010PropOp43
 70
     1
102
RTVSPost2010Prop44ColorIndex
 90
        5
102
RTVSPost2010Prop44ColorRGB
 90
      255
102
RTVSPost2010PropOp44
 70
     1
102
RTVSPost2010Prop45
280
     0
102
RTVSPost2010PropOp45
 70
     1
102
RTVSPost2010Prop46
 90
       50
102
RTVSPost2010PropOp46
 70
     1
102
RTVSPost2010Prop47
 90
       50
102
RTVSPost2010PropOp47
 70
     1
102
RTVSPost2010Prop48
 90
       50
102
RTVSPost2010PropOp48
 70
     1
102
RTVSPost2010Prop49
280
     0
102
RTVSPost2010PropOp49
 70
     1
102
RTVSPost2010Prop50
 90
       50
102
RTVSPost2010PropOp50
 70
     1
102
RTVSPost2010Prop51ColorIndex
 90
      256
102
RTVSPost2010Prop51ColorRGB
 90
-16777216
102
RTVSPost2010PropOp51
 70
     0
102
RTVSPost2010Prop52
140
1.0
102
RTVSPost2010PropOp52
 70
     0
102
RTVSPost2010Prop53
 90
        2
102
RTVSPost2010PropOp53
 70
     1
102
RTVSPost2010Prop54
  1
strokes_ogs.tif
102
RTVSPost2010PropOp54
 70
     1
102
RTVSPost2010Prop55
280
     0
102
RTVSPost2010PropOp55
 70
     1
102
RTVSPost2010Prop56
140
1.0
102
RTVSPost2010PropOp56
 70
     1
102
RTVSPost2010Prop57
140
1.0
102
RTVSPost2010PropOp57
 70
     1
102
RTVSPropertyOp0
 70
     1
102
RTVSPropertyOp1
 70
     1
102
RTVSPropertyOp2
 70
     1
102
RTVSPropertyOp3
 70
     1
102
RTVSPropertyOp4
 70
     1
102
RTVSPropertyOp5
 70
     1
102
RTVSPropertyOp6
 70
     1
102
RTVSPropertyOp7
 70
     1
102
RTVSPropertyOp8
 70
     1
102
RTVSPropertyOp9
 70
     1
102
RTVSPropertyOp10
 70
     1
102
RTVSPropertyOp11
 70
     1
102
RTVSPropertyOp12
 70
     1
102
RTVSPropertyOp13
 70
     1
102
RTVSPropertyOp14
 70
     1
102
RTVSPropertyOp15
 70
     1
102
RTVSPropertyOp16
 70
     1
102
RTVSPropertyOp17
 70
     1
102
RTVSPropertyOp18
 70
     1
102
RTVSPropertyOp19
 70
     1
102
RTVSPropertyOp20
 70
     1
102
RTVSPropertyOp21
 70
     1
102
RTVSPropertyOp22
 70
     1
102
RTVSPropertyOp23
 70
     1
102
RTVSPropertyOp24
 70
     1
102
RTVSPropertyOp25
 70
     1
102
RTVSPropertyOp26
 70
     1
102
RTVSPropertyOp27
 70
     1
102
RTVSPropertyOp28
 70
     1
102
RTVSPropertyOp29
 70
     1
102
RTVSPropertyOp30
 70
     1
102
RTVSPropertyOp31
 70
     1
102
RTVSPropertyOp32
 70
     1
102
RTVSPropertyOp33
 70
     1
102
RTVSPropertyOp34
 70
     1
102
RTVSPropertyOp35
 70
     1
102
RTVSPropertyOp36
 70
     1
102
RTVSPropertyOp37
 70
     1
102
RTVSPropertyOp38
 70
     1
102
RTVSPropertyOp39
 70
     1
102
RTVSPropertyOp40
 70
     1
102
RTVSPropertyOp41
 70
     1
102
RTVSPropertyOp42
 70
     1
102
RTVSPropertyOp43
 70
     1
102
RTVSPropertyOp44
 70
     1
102
RTVSPropertyOp45
 70
     1
102
RTVSPropertyOp46
 70
     1
102
RTVSPropertyOp47
 70
     1
102
RTVSPropertyOp48
 70
     1
102
RTVSPropertyOp49
 70
     1
102
RTVSPropertyOp50
 70
     1
102
RTVSPropertyOp51
 70
     0
102
RTVSPropertyOp52
 70
     0
102
RTVSPropertyOp53
 70
     1
102
RTVSPropertyOp54
 70
     1
102
RTVSPropertyOp55
 70
     1
102
RTVSPropertyOp56
 70
     1
102
RTVSPropertyOp57
 70
     1
102
RTVSPropertyOp58
 70
     1
102
RTVSPropertyOp59
 70
     1
102
RTVSPropertyOp60
 70
     1
102
RTVSPropertyOp61
 70
     1
102
RTVSPropertyOp62
 70
     1
  0
XRECORD
  5
2131
102
{ACAD_REACTORS
330
2130
102
}
330
2130
100
AcDbXrecord
280
     1
102
RTVSPost2010Prop28
280
     0
102
RTVSPost2010PropOp28
 70
     1
102
RTVSPost2010Prop29
280
     1
102
RTVSPost2010PropOp29
 70
     1
102
RTVSPost2010Prop30
280
     1
102
RTVSPost2010PropOp30
 70
     1
102
RTVSPost2010Prop31
280
     0
102
RTVSPost2010PropOp31
 70
     1
102
RTVSPost2010Prop32
280
     0
102
RTVSPost2010PropOp32
 70
     1
102
RTVSPost2010Prop33
280
     0
102
RTVSPost2010PropOp33
 70
     1
102
RTVSPost2010Prop34
280
     0
102
RTVSPost2010PropOp34
 70
     1
102
RTVSPost2010Prop35
280
     0
102
RTVSPost2010PropOp35
 70
     1
102
RTVSPost2010Prop36
280
     0
102
RTVSPost2010PropOp36
 70
     1
102
RTVSPost2010Prop37
 90
       50
102
RTVSPost2010PropOp37
 70
     1
102
RTVSPost2010Prop38
140
0.0
102
RTVSPost2010PropOp38
 70
     1
102
RTVSPost2010Prop39
140
1.0
102
RTVSPost2010PropOp39
 70
     1
102
RTVSPost2010Prop40
 90
        0
102
RTVSPost2010PropOp40
 70
     1
102
RTVSPost2010Prop41ColorIndex
 90
       18
102
RTVSPost2010Prop41ColorRGB
 90
        0
102
RTVSPost2010PropOp41
 70
     1
102
RTVSPost2010Prop42
 90
       50
102
RTVSPost2010PropOp42
 70
     1
102
RTVSPost2010Prop43
 90
        3
102
RTVSPost2010PropOp43
 70
     1
102
RTVSPost2010Prop44ColorIndex
 90
        5
102
RTVSPost2010Prop44ColorRGB
 90
      255
102
RTVSPost2010PropOp44
 70
     1
102
RTVSPost2010Prop45
280
     0
102
RTVSPost2010PropOp45
 70
     1
102
RTVSPost2010Prop46
 90
       50
102
RTVSPost2010PropOp46
 70
     1
102
RTVSPost2010Prop47
 90
       50
102
RTVSPost2010PropOp47
 70
     1
102
RTVSPost2010Prop48
 90
       50
102
RTVSPost2010PropOp48
 70
     1
102
RTVSPost2010Prop49
280
     0
102
RTVSPost2010PropOp49
 70
     1
102
RTVSPost2010Prop50
 90
       50
102
RTVSPost2010PropOp50
 70
     1
102
RTVSPost2010Prop51ColorIndex
 90
      256
102
RTVSPost2010Prop51ColorRGB
 90
-16777216
102
RTVSPost2010PropOp51
 70
     0
102
RTVSPost2010Prop52
140
1.0
102
RTVSPost2010PropOp52
 70
     0
102
RTVSPost2010Prop53
 90
        2
102
RTVSPost2010PropOp53
 70
     1
102
RTVSPost2010Prop54
  1
strokes_ogs.tif
102
RTVSPost2010PropOp54
 70
     1
102
RTVSPost2010Prop55
280
     0
102
RTVSPost2010PropOp55
 70
     1
102
RTVSPost2010Prop56
140
1.0
102
RTVSPost2010PropOp56
 70
     1
102
RTVSPost2010Prop57
140
1.0
102
RTVSPost2010PropOp57
 70
     1
102
RTVSPropertyOp0
 70
     1
102
RTVSPropertyOp1
 70
     1
102
RTVSPropertyOp2
 70
     1
102
RTVSPropertyOp3
 70
     1
102
RTVSPropertyOp4
 70
     1
102
RTVSPropertyOp5
 70
     1
102
RTVSPropertyOp6
 70
     1
102
RTVSPropertyOp7
 70
     1
102
RTVSPropertyOp8
 70
     1
102
RTVSPropertyOp9
 70
     1
102
RTVSPropertyOp10
 70
     1
102
RTVSPropertyOp11
 70
     1
102
RTVSPropertyOp12
 70
     1
102
RTVSPropertyOp13
 70
     1
102
RTVSPropertyOp14
 70
     1
102
RTVSPropertyOp15
 70
     1
102
RTVSPropertyOp16
 70
     1
102
RTVSPropertyOp17
 70
     1
102
RTVSPropertyOp18
 70
     1
102
RTVSPropertyOp19
 70
     1
102
RTVSPropertyOp20
 70
     1
102
RTVSPropertyOp21
 70
     1
102
RTVSPropertyOp22
 70
     1
102
RTVSPropertyOp23
 70
     1
102
RTVSPropertyOp24
 70
     1
102
RTVSPropertyOp25
 70
     1
102
RTVSPropertyOp26
 70
     1
102
RTVSPropertyOp27
 70
     1
102
RTVSPropertyOp28
 70
     1
102
RTVSPropertyOp29
 70
     1
102
RTVSPropertyOp30
 70
     1
102
RTVSPropertyOp31
 70
     1
102
RTVSPropertyOp32
 70
     1
102
RTVSPropertyOp33
 70
     1
102
RTVSPropertyOp34
 70
     1
102
RTVSPropertyOp35
 70
     1
102
RTVSPropertyOp36
 70
     1
102
RTVSPropertyOp37
 70
     1
102
RTVSPropertyOp38
 70
     1
102
RTVSPropertyOp39
 70
     1
102
RTVSPropertyOp40
 70
     1
102
RTVSPropertyOp41
 70
     1
102
RTVSPropertyOp42
 70
     1
102
RTVSPropertyOp43
 70
     1
102
RTVSPropertyOp44
 70
     1
102
RTVSPropertyOp45
 70
     1
102
RTVSPropertyOp46
 70
     1
102
RTVSPropertyOp47
 70
     1
102
RTVSPropertyOp48
 70
     1
102
RTVSPropertyOp49
 70
     1
102
RTVSPropertyOp50
 70
     1
102
RTVSPropertyOp51
 70
     0
102
RTVSPropertyOp52
 70
     0
102
RTVSPropertyOp53
 70
     1
102
RTVSPropertyOp54
 70
     1
102
RTVSPropertyOp55
 70
     1
102
RTVSPropertyOp56
 70
     1
102
RTVSPropertyOp57
 70
     1
102
RTVSPropertyOp58
 70
     1
102
RTVSPropertyOp59
 70
     1
102
RTVSPropertyOp60
 70
     1
102
RTVSPropertyOp61
 70
     1
102
RTVSPropertyOp62
 70
     1
  0
XRECORD
  5
212F
102
{ACAD_REACTORS
330
212E
102
}
330
212E
100
AcDbXrecord
280
     1
102
RTVSPost2010Prop28
280
     0
102
RTVSPost2010PropOp28
 70
     1
102
RTVSPost2010Prop29
280
     1
102
RTVSPost2010PropOp29
 70
     1
102
RTVSPost2010Prop30
280
     1
102
RTVSPost2010PropOp30
 70
     1
102
RTVSPost2010Prop31
280
     0
102
RTVSPost2010PropOp31
 70
     1
102
RTVSPost2010Prop32
280
     0
102
RTVSPost2010PropOp32
 70
     1
102
RTVSPost2010Prop33
280
     0
102
RTVSPost2010PropOp33
 70
     1
102
RTVSPost2010Prop34
280
     0
102
RTVSPost2010PropOp34
 70
     1
102
RTVSPost2010Prop35
280
     0
102
RTVSPost2010PropOp35
 70
     1
102
RTVSPost2010Prop36
280
     0
102
RTVSPost2010PropOp36
 70
     1
102
RTVSPost2010Prop37
 90
       50
102
RTVSPost2010PropOp37
 70
     1
102
RTVSPost2010Prop38
140
0.0
102
RTVSPost2010PropOp38
 70
     1
102
RTVSPost2010Prop39
140
1.0
102
RTVSPost2010PropOp39
 70
     1
102
RTVSPost2010Prop40
 90
        0
102
RTVSPost2010PropOp40
 70
     1
102
RTVSPost2010Prop41ColorIndex
 90
       18
102
RTVSPost2010Prop41ColorRGB
 90
        0
102
RTVSPost2010PropOp41
 70
     1
102
RTVSPost2010Prop42
 90
       50
102
RTVSPost2010PropOp42
 70
     1
102
RTVSPost2010Prop43
 90
        3
102
RTVSPost2010PropOp43
 70
     1
102
RTVSPost2010Prop44ColorIndex
 90
        5
102
RTVSPost2010Prop44ColorRGB
 90
      255
102
RTVSPost2010PropOp44
 70
     1
102
RTVSPost2010Prop45
280
     0
102
RTVSPost2010PropOp45
 70
     1
102
RTVSPost2010Prop46
 90
       50
102
RTVSPost2010PropOp46
 70
     1
102
RTVSPost2010Prop47
 90
       50
102
RTVSPost2010PropOp47
 70
     1
102
RTVSPost2010Prop48
 90
       50
102
RTVSPost2010PropOp48
 70
     1
102
RTVSPost2010Prop49
280
     0
102
RTVSPost2010PropOp49
 70
     1
102
RTVSPost2010Prop50
 90
       50
102
RTVSPost2010PropOp50
 70
     1
102
RTVSPost2010Prop51ColorIndex
 90
      256
102
RTVSPost2010Prop51ColorRGB
 90
-16777216
102
RTVSPost2010PropOp51
 70
     0
102
RTVSPost2010Prop52
140
1.0
102
RTVSPost2010PropOp52
 70
     0
102
RTVSPost2010Prop53
 90
        2
102
RTVSPost2010PropOp53
 70
     1
102
RTVSPost2010Prop54
  1
strokes_ogs.tif
102
RTVSPost2010PropOp54
 70
     1
102
RTVSPost2010Prop55
280
     0
102
RTVSPost2010PropOp55
 70
     1
102
RTVSPost2010Prop56
140
1.0
102
RTVSPost2010PropOp56
 70
     1
102
RTVSPost2010Prop57
140
1.0
102
RTVSPost2010PropOp57
 70
     1
102
RTVSPropertyOp0
 70
     1
102
RTVSPropertyOp1
 70
     1
102
RTVSPropertyOp2
 70
     1
102
RTVSPropertyOp3
 70
     1
102
RTVSPropertyOp4
 70
     1
102
RTVSPropertyOp5
 70
     1
102
RTVSPropertyOp6
 70
     1
102
RTVSPropertyOp7
 70
     1
102
RTVSPropertyOp8
 70
     1
102
RTVSPropertyOp9
 70
     1
102
RTVSPropertyOp10
 70
     1
102
RTVSPropertyOp11
 70
     1
102
RTVSPropertyOp12
 70
     1
102
RTVSPropertyOp13
 70
     1
102
RTVSPropertyOp14
 70
     1
102
RTVSPropertyOp15
 70
     1
102
RTVSPropertyOp16
 70
     1
102
RTVSPropertyOp17
 70
     1
102
RTVSPropertyOp18
 70
     1
102
RTVSPropertyOp19
 70
     1
102
RTVSPropertyOp20
 70
     1
102
RTVSPropertyOp21
 70
     1
102
RTVSPropertyOp22
 70
     1
102
RTVSPropertyOp23
 70
     1
102
RTVSPropertyOp24
 70
     1
102
RTVSPropertyOp25
 70
     1
102
RTVSPropertyOp26
 70
     1
102
RTVSPropertyOp27
 70
     1
102
RTVSPropertyOp28
 70
     1
102
RTVSPropertyOp29
 70
     1
102
RTVSPropertyOp30
 70
     1
102
RTVSPropertyOp31
 70
     1
102
RTVSPropertyOp32
 70
     1
102
RTVSPropertyOp33
 70
     1
102
RTVSPropertyOp34
 70
     1
102
RTVSPropertyOp35
 70
     1
102
RTVSPropertyOp36
 70
     1
102
RTVSPropertyOp37
 70
     1
102
RTVSPropertyOp38
 70
     1
102
RTVSPropertyOp39
 70
     1
102
RTVSPropertyOp40
 70
     1
102
RTVSPropertyOp41
 70
     1
102
RTVSPropertyOp42
 70
     1
102
RTVSPropertyOp43
 70
     1
102
RTVSPropertyOp44
 70
     1
102
RTVSPropertyOp45
 70
     1
102
RTVSPropertyOp46
 70
     1
102
RTVSPropertyOp47
 70
     1
102
RTVSPropertyOp48
 70
     1
102
RTVSPropertyOp49
 70
     1
102
RTVSPropertyOp50
 70
     1
102
RTVSPropertyOp51
 70
     0
102
RTVSPropertyOp52
 70
     0
102
RTVSPropertyOp53
 70
     1
102
RTVSPropertyOp54
 70
     1
102
RTVSPropertyOp55
 70
     1
102
RTVSPropertyOp56
 70
     1
102
RTVSPropertyOp57
 70
     1
102
RTVSPropertyOp58
 70
     1
102
RTVSPropertyOp59
 70
     1
102
RTVSPropertyOp60
 70
     1
102
RTVSPropertyOp61
 70
     1
102
RTVSPropertyOp62
 70
     1
  0
XRECORD
  5
2129
102
{ACAD_REACTORS
330
2128
102
}
330
2128
100
AcDbXrecord
280
     1
102
RTVSPost2010Prop28
280
     0
102
RTVSPost2010PropOp28
 70
     1
102
RTVSPost2010Prop29
280
     1
102
RTVSPost2010PropOp29
 70
     1
102
RTVSPost2010Prop30
280
     1
102
RTVSPost2010PropOp30
 70
     1
102
RTVSPost2010Prop31
280
     0
102
RTVSPost2010PropOp31
 70
     1
102
RTVSPost2010Prop32
280
     0
102
RTVSPost2010PropOp32
 70
     1
102
RTVSPost2010Prop33
280
     0
102
RTVSPost2010PropOp33
 70
     1
102
RTVSPost2010Prop34
280
     0
102
RTVSPost2010PropOp34
 70
     1
102
RTVSPost2010Prop35
280
     0
102
RTVSPost2010PropOp35
 70
     1
102
RTVSPost2010Prop36
280
     0
102
RTVSPost2010PropOp36
 70
     1
102
RTVSPost2010Prop37
 90
       50
102
RTVSPost2010PropOp37
 70
     1
102
RTVSPost2010Prop38
140
0.0
102
RTVSPost2010PropOp38
 70
     1
102
RTVSPost2010Prop39
140
1.0
102
RTVSPost2010PropOp39
 70
     1
102
RTVSPost2010Prop40
 90
        0
102
RTVSPost2010PropOp40
 70
     1
102
RTVSPost2010Prop41ColorIndex
 90
       18
102
RTVSPost2010Prop41ColorRGB
 90
        0
102
RTVSPost2010PropOp41
 70
     1
102
RTVSPost2010Prop42
 90
       50
102
RTVSPost2010PropOp42
 70
     1
102
RTVSPost2010Prop43
 90
        3
102
RTVSPost2010PropOp43
 70
     1
102
RTVSPost2010Prop44ColorIndex
 90
        5
102
RTVSPost2010Prop44ColorRGB
 90
      255
102
RTVSPost2010PropOp44
 70
     1
102
RTVSPost2010Prop45
280
     0
102
RTVSPost2010PropOp45
 70
     1
102
RTVSPost2010Prop46
 90
       50
102
RTVSPost2010PropOp46
 70
     1
102
RTVSPost2010Prop47
 90
       50
102
RTVSPost2010PropOp47
 70
     1
102
RTVSPost2010Prop48
 90
       50
102
RTVSPost2010PropOp48
 70
     1
102
RTVSPost2010Prop49
280
     0
102
RTVSPost2010PropOp49
 70
     1
102
RTVSPost2010Prop50
 90
       50
102
RTVSPost2010PropOp50
 70
     1
102
RTVSPost2010Prop51ColorIndex
 90
      256
102
RTVSPost2010Prop51ColorRGB
 90
-16777216
102
RTVSPost2010PropOp51
 70
     0
102
RTVSPost2010Prop52
140
1.0
102
RTVSPost2010PropOp52
 70
     0
102
RTVSPost2010Prop53
 90
        2
102
RTVSPost2010PropOp53
 70
     1
102
RTVSPost2010Prop54
  1
strokes_ogs.tif
102
RTVSPost2010PropOp54
 70
     1
102
RTVSPost2010Prop55
280
     0
102
RTVSPost2010PropOp55
 70
     1
102
RTVSPost2010Prop56
140
1.0
102
RTVSPost2010PropOp56
 70
     1
102
RTVSPost2010Prop57
140
1.0
102
RTVSPost2010PropOp57
 70
     1
102
RTVSPropertyOp0
 70
     1
102
RTVSPropertyOp1
 70
     1
102
RTVSPropertyOp2
 70
     1
102
RTVSPropertyOp3
 70
     1
102
RTVSPropertyOp4
 70
     1
102
RTVSPropertyOp5
 70
     1
102
RTVSPropertyOp6
 70
     1
102
RTVSPropertyOp7
 70
     1
102
RTVSPropertyOp8
 70
     1
102
RTVSPropertyOp9
 70
     1
102
RTVSPropertyOp10
 70
     1
102
RTVSPropertyOp11
 70
     1
102
RTVSPropertyOp12
 70
     1
102
RTVSPropertyOp13
 70
     1
102
RTVSPropertyOp14
 70
     1
102
RTVSPropertyOp15
 70
     1
102
RTVSPropertyOp16
 70
     1
102
RTVSPropertyOp17
 70
     1
102
RTVSPropertyOp18
 70
     1
102
RTVSPropertyOp19
 70
     1
102
RTVSPropertyOp20
 70
     1
102
RTVSPropertyOp21
 70
     1
102
RTVSPropertyOp22
 70
     1
102
RTVSPropertyOp23
 70
     1
102
RTVSPropertyOp24
 70
     1
102
RTVSPropertyOp25
 70
     1
102
RTVSPropertyOp26
 70
     1
102
RTVSPropertyOp27
 70
     1
102
RTVSPropertyOp28
 70
     1
102
RTVSPropertyOp29
 70
     1
102
RTVSPropertyOp30
 70
     1
102
RTVSPropertyOp31
 70
     1
102
RTVSPropertyOp32
 70
     1
102
RTVSPropertyOp33
 70
     1
102
RTVSPropertyOp34
 70
     1
102
RTVSPropertyOp35
 70
     1
102
RTVSPropertyOp36
 70
     1
102
RTVSPropertyOp37
 70
     1
102
RTVSPropertyOp38
 70
     1
102
RTVSPropertyOp39
 70
     1
102
RTVSPropertyOp40
 70
     1
102
RTVSPropertyOp41
 70
     1
102
RTVSPropertyOp42
 70
     1
102
RTVSPropertyOp43
 70
     1
102
RTVSPropertyOp44
 70
     1
102
RTVSPropertyOp45
 70
     1
102
RTVSPropertyOp46
 70
     1
102
RTVSPropertyOp47
 70
     1
102
RTVSPropertyOp48
 70
     1
102
RTVSPropertyOp49
 70
     1
102
RTVSPropertyOp50
 70
     1
102
RTVSPropertyOp51
 70
     0
102
RTVSPropertyOp52
 70
     0
102
RTVSPropertyOp53
 70
     1
102
RTVSPropertyOp54
 70
     1
102
RTVSPropertyOp55
 70
     1
102
RTVSPropertyOp56
 70
     1
102
RTVSPropertyOp57
 70
     1
102
RTVSPropertyOp58
 70
     1
102
RTVSPropertyOp59
 70
     1
102
RTVSPropertyOp60
 70
     1
102
RTVSPropertyOp61
 70
     1
102
RTVSPropertyOp62
 70
     1
  0
XRECORD
  5
212B
102
{ACAD_REACTORS
330
212A
102
}
330
212A
100
AcDbXrecord
280
     1
102
RTVSPost2010Prop28
280
     0
102
RTVSPost2010PropOp28
 70
     1
102
RTVSPost2010Prop29
280
     1
102
RTVSPost2010PropOp29
 70
     1
102
RTVSPost2010Prop30
280
     1
102
RTVSPost2010PropOp30
 70
     1
102
RTVSPost2010Prop31
280
     0
102
RTVSPost2010PropOp31
 70
     1
102
RTVSPost2010Prop32
280
     0
102
RTVSPost2010PropOp32
 70
     1
102
RTVSPost2010Prop33
280
     0
102
RTVSPost2010PropOp33
 70
     1
102
RTVSPost2010Prop34
280
     0
102
RTVSPost2010PropOp34
 70
     1
102
RTVSPost2010Prop35
280
     0
102
RTVSPost2010PropOp35
 70
     1
102
RTVSPost2010Prop36
280
     0
102
RTVSPost2010PropOp36
 70
     1
102
RTVSPost2010Prop37
 90
       50
102
RTVSPost2010PropOp37
 70
     1
102
RTVSPost2010Prop38
140
0.0
102
RTVSPost2010PropOp38
 70
     1
102
RTVSPost2010Prop39
140
1.0
102
RTVSPost2010PropOp39
 70
     1
102
RTVSPost2010Prop40
 90
        0
102
RTVSPost2010PropOp40
 70
     1
102
RTVSPost2010Prop41ColorIndex
 90
       18
102
RTVSPost2010Prop41ColorRGB
 90
        0
102
RTVSPost2010PropOp41
 70
     1
102
RTVSPost2010Prop42
 90
       50
102
RTVSPost2010PropOp42
 70
     1
102
RTVSPost2010Prop43
 90
        3
102
RTVSPost2010PropOp43
 70
     1
102
RTVSPost2010Prop44ColorIndex
 90
        5
102
RTVSPost2010Prop44ColorRGB
 90
      255
102
RTVSPost2010PropOp44
 70
     1
102
RTVSPost2010Prop45
280
     0
102
RTVSPost2010PropOp45
 70
     1
102
RTVSPost2010Prop46
 90
       50
102
RTVSPost2010PropOp46
 70
     1
102
RTVSPost2010Prop47
 90
       50
102
RTVSPost2010PropOp47
 70
     1
102
RTVSPost2010Prop48
 90
       50
102
RTVSPost2010PropOp48
 70
     1
102
RTVSPost2010Prop49
280
     0
102
RTVSPost2010PropOp49
 70
     1
102
RTVSPost2010Prop50
 90
       50
102
RTVSPost2010PropOp50
 70
     1
102
RTVSPost2010Prop51ColorIndex
 90
      256
102
RTVSPost2010Prop51ColorRGB
 90
-16777216
102
RTVSPost2010PropOp51
 70
     0
102
RTVSPost2010Prop52
140
1.0
102
RTVSPost2010PropOp52
 70
     0
102
RTVSPost2010Prop53
 90
        2
102
RTVSPost2010PropOp53
 70
     1
102
RTVSPost2010Prop54
  1
strokes_ogs.tif
102
RTVSPost2010PropOp54
 70
     1
102
RTVSPost2010Prop55
280
     0
102
RTVSPost2010PropOp55
 70
     1
102
RTVSPost2010Prop56
140
1.0
102
RTVSPost2010PropOp56
 70
     1
102
RTVSPost2010Prop57
140
1.0
102
RTVSPost2010PropOp57
 70
     1
102
RTVSPropertyOp0
 70
     1
102
RTVSPropertyOp1
 70
     1
102
RTVSPropertyOp2
 70
     1
102
RTVSPropertyOp3
 70
     1
102
RTVSPropertyOp4
 70
     1
102
RTVSPropertyOp5
 70
     1
102
RTVSPropertyOp6
 70
     1
102
RTVSPropertyOp7
 70
     1
102
RTVSPropertyOp8
 70
     1
102
RTVSPropertyOp9
 70
     1
102
RTVSPropertyOp10
 70
     1
102
RTVSPropertyOp11
 70
     1
102
RTVSPropertyOp12
 70
     1
102
RTVSPropertyOp13
 70
     1
102
RTVSPropertyOp14
 70
     1
102
RTVSPropertyOp15
 70
     1
102
RTVSPropertyOp16
 70
     1
102
RTVSPropertyOp17
 70
     1
102
RTVSPropertyOp18
 70
     1
102
RTVSPropertyOp19
 70
     1
102
RTVSPropertyOp20
 70
     1
102
RTVSPropertyOp21
 70
     1
102
RTVSPropertyOp22
 70
     1
102
RTVSPropertyOp23
 70
     1
102
RTVSPropertyOp24
 70
     1
102
RTVSPropertyOp25
 70
     1
102
RTVSPropertyOp26
 70
     1
102
RTVSPropertyOp27
 70
     1
102
RTVSPropertyOp28
 70
     1
102
RTVSPropertyOp29
 70
     1
102
RTVSPropertyOp30
 70
     1
102
RTVSPropertyOp31
 70
     1
102
RTVSPropertyOp32
 70
     1
102
RTVSPropertyOp33
 70
     1
102
RTVSPropertyOp34
 70
     1
102
RTVSPropertyOp35
 70
     1
102
RTVSPropertyOp36
 70
     1
102
RTVSPropertyOp37
 70
     1
102
RTVSPropertyOp38
 70
     1
102
RTVSPropertyOp39
 70
     1
102
RTVSPropertyOp40
 70
     1
102
RTVSPropertyOp41
 70
     1
102
RTVSPropertyOp42
 70
     1
102
RTVSPropertyOp43
 70
     1
102
RTVSPropertyOp44
 70
     1
102
RTVSPropertyOp45
 70
     1
102
RTVSPropertyOp46
 70
     1
102
RTVSPropertyOp47
 70
     1
102
RTVSPropertyOp48
 70
     1
102
RTVSPropertyOp49
 70
     1
102
RTVSPropertyOp50
 70
     1
102
RTVSPropertyOp51
 70
     0
102
RTVSPropertyOp52
 70
     0
102
RTVSPropertyOp53
 70
     1
102
RTVSPropertyOp54
 70
     1
102
RTVSPropertyOp55
 70
     1
102
RTVSPropertyOp56
 70
     1
102
RTVSPropertyOp57
 70
     1
102
RTVSPropertyOp58
 70
     1
102
RTVSPropertyOp59
 70
     1
102
RTVSPropertyOp60
 70
     1
102
RTVSPropertyOp61
 70
     1
102
RTVSPropertyOp62
 70
     1
  0
XRECORD
  5
2121
102
{ACAD_REACTORS
330
2120
102
}
330
2120
100
AcDbXrecord
280
     1
102
RTVSPost2010Prop28
280
     0
102
RTVSPost2010PropOp28
 70
     1
102
RTVSPost2010Prop29
280
     1
102
RTVSPost2010PropOp29
 70
     1
102
RTVSPost2010Prop30
280
     1
102
RTVSPost2010PropOp30
 70
     1
102
RTVSPost2010Prop31
280
     0
102
RTVSPost2010PropOp31
 70
     1
102
RTVSPost2010Prop32
280
     0
102
RTVSPost2010PropOp32
 70
     1
102
RTVSPost2010Prop33
280
     0
102
RTVSPost2010PropOp33
 70
     1
102
RTVSPost2010Prop34
280
     0
102
RTVSPost2010PropOp34
 70
     1
102
RTVSPost2010Prop35
280
     0
102
RTVSPost2010PropOp35
 70
     1
102
RTVSPost2010Prop36
280
     0
102
RTVSPost2010PropOp36
 70
     1
102
RTVSPost2010Prop37
 90
       50
102
RTVSPost2010PropOp37
 70
     1
102
RTVSPost2010Prop38
140
0.0
102
RTVSPost2010PropOp38
 70
     1
102
RTVSPost2010Prop39
140
1.0
102
RTVSPost2010PropOp39
 70
     1
102
RTVSPost2010Prop40
 90
        0
102
RTVSPost2010PropOp40
 70
     1
102
RTVSPost2010Prop41ColorIndex
 90
       18
102
RTVSPost2010Prop41ColorRGB
 90
        0
102
RTVSPost2010PropOp41
 70
     1
102
RTVSPost2010Prop42
 90
       50
102
RTVSPost2010PropOp42
 70
     1
102
RTVSPost2010Prop43
 90
        3
102
RTVSPost2010PropOp43
 70
     1
102
RTVSPost2010Prop44ColorIndex
 90
        5
102
RTVSPost2010Prop44ColorRGB
 90
      255
102
RTVSPost2010PropOp44
 70
     1
102
RTVSPost2010Prop45
280
     0
102
RTVSPost2010PropOp45
 70
     1
102
RTVSPost2010Prop46
 90
       50
102
RTVSPost2010PropOp46
 70
     1
102
RTVSPost2010Prop47
 90
       50
102
RTVSPost2010PropOp47
 70
     1
102
RTVSPost2010Prop48
 90
       50
102
RTVSPost2010PropOp48
 70
     1
102
RTVSPost2010Prop49
280
     0
102
RTVSPost2010PropOp49
 70
     1
102
RTVSPost2010Prop50
 90
       50
102
RTVSPost2010PropOp50
 70
     1
102
RTVSPost2010Prop51ColorIndex
 90
      256
102
RTVSPost2010Prop51ColorRGB
 90
-16777216
102
RTVSPost2010PropOp51
 70
     0
102
RTVSPost2010Prop52
140
1.0
102
RTVSPost2010PropOp52
 70
     0
102
RTVSPost2010Prop53
 90
        2
102
RTVSPost2010PropOp53
 70
     1
102
RTVSPost2010Prop54
  1
strokes_ogs.tif
102
RTVSPost2010PropOp54
 70
     1
102
RTVSPost2010Prop55
280
     0
102
RTVSPost2010PropOp55
 70
     1
102
RTVSPost2010Prop56
140
1.0
102
RTVSPost2010PropOp56
 70
     1
102
RTVSPost2010Prop57
140
1.0
102
RTVSPost2010PropOp57
 70
     1
102
RTVSPropertyOp0
 70
     1
102
RTVSPropertyOp1
 70
     1
102
RTVSPropertyOp2
 70
     1
102
RTVSPropertyOp3
 70
     1
102
RTVSPropertyOp4
 70
     1
102
RTVSPropertyOp5
 70
     1
102
RTVSPropertyOp6
 70
     1
102
RTVSPropertyOp7
 70
     1
102
RTVSPropertyOp8
 70
     1
102
RTVSPropertyOp9
 70
     1
102
RTVSPropertyOp10
 70
     1
102
RTVSPropertyOp11
 70
     1
102
RTVSPropertyOp12
 70
     1
102
RTVSPropertyOp13
 70
     1
102
RTVSPropertyOp14
 70
     1
102
RTVSPropertyOp15
 70
     1
102
RTVSPropertyOp16
 70
     1
102
RTVSPropertyOp17
 70
     1
102
RTVSPropertyOp18
 70
     1
102
RTVSPropertyOp19
 70
     1
102
RTVSPropertyOp20
 70
     1
102
RTVSPropertyOp21
 70
     1
102
RTVSPropertyOp22
 70
     1
102
RTVSPropertyOp23
 70
     1
102
RTVSPropertyOp24
 70
     1
102
RTVSPropertyOp25
 70
     1
102
RTVSPropertyOp26
 70
     1
102
RTVSPropertyOp27
 70
     1
102
RTVSPropertyOp28
 70
     1
102
RTVSPropertyOp29
 70
     1
102
RTVSPropertyOp30
 70
     1
102
RTVSPropertyOp31
 70
     1
102
RTVSPropertyOp32
 70
     1
102
RTVSPropertyOp33
 70
     1
102
RTVSPropertyOp34
 70
     1
102
RTVSPropertyOp35
 70
     1
102
RTVSPropertyOp36
 70
     1
102
RTVSPropertyOp37
 70
     1
102
RTVSPropertyOp38
 70
     1
102
RTVSPropertyOp39
 70
     1
102
RTVSPropertyOp40
 70
     1
102
RTVSPropertyOp41
 70
     1
102
RTVSPropertyOp42
 70
     1
102
RTVSPropertyOp43
 70
     1
102
RTVSPropertyOp44
 70
     1
102
RTVSPropertyOp45
 70
     1
102
RTVSPropertyOp46
 70
     1
102
RTVSPropertyOp47
 70
     1
102
RTVSPropertyOp48
 70
     1
102
RTVSPropertyOp49
 70
     1
102
RTVSPropertyOp50
 70
     1
102
RTVSPropertyOp51
 70
     0
102
RTVSPropertyOp52
 70
     0
102
RTVSPropertyOp53
 70
     1
102
RTVSPropertyOp54
 70
     1
102
RTVSPropertyOp55
 70
     1
102
RTVSPropertyOp56
 70
     1
102
RTVSPropertyOp57
 70
     1
102
RTVSPropertyOp58
 70
     1
102
RTVSPropertyOp59
 70
     1
102
RTVSPropertyOp60
 70
     1
102
RTVSPropertyOp61
 70
     1
102
RTVSPropertyOp62
 70
     1
  0
XRECORD
  5
2115
102
{ACAD_REACTORS
330
2114
102
}
330
2114
100
AcDbXrecord
280
     1
102
RTVSPost2010Prop28
280
     0
102
RTVSPost2010PropOp28
 70
     1
102
RTVSPost2010Prop29
280
     1
102
RTVSPost2010PropOp29
 70
     1
102
RTVSPost2010Prop30
280
     1
102
RTVSPost2010PropOp30
 70
     1
102
RTVSPost2010Prop31
280
     0
102
RTVSPost2010PropOp31
 70
     1
102
RTVSPost2010Prop32
280
     0
102
RTVSPost2010PropOp32
 70
     1
102
RTVSPost2010Prop33
280
     0
102
RTVSPost2010PropOp33
 70
     1
102
RTVSPost2010Prop34
280
     0
102
RTVSPost2010PropOp34
 70
     1
102
RTVSPost2010Prop35
280
     0
102
RTVSPost2010PropOp35
 70
     1
102
RTVSPost2010Prop36
280
     0
102
RTVSPost2010PropOp36
 70
     1
102
RTVSPost2010Prop37
 90
       50
102
RTVSPost2010PropOp37
 70
     1
102
RTVSPost2010Prop38
140
0.0
102
RTVSPost2010PropOp38
 70
     1
102
RTVSPost2010Prop39
140
1.0
102
RTVSPost2010PropOp39
 70
     1
102
RTVSPost2010Prop40
 90
        0
102
RTVSPost2010PropOp40
 70
     1
102
RTVSPost2010Prop41ColorIndex
 90
       18
102
RTVSPost2010Prop41ColorRGB
 90
        0
102
RTVSPost2010PropOp41
 70
     1
102
RTVSPost2010Prop42
 90
       50
102
RTVSPost2010PropOp42
 70
     1
102
RTVSPost2010Prop43
 90
        3
102
RTVSPost2010PropOp43
 70
     1
102
RTVSPost2010Prop44ColorIndex
 90
        5
102
RTVSPost2010Prop44ColorRGB
 90
      255
102
RTVSPost2010PropOp44
 70
     1
102
RTVSPost2010Prop45
280
     0
102
RTVSPost2010PropOp45
 70
     1
102
RTVSPost2010Prop46
 90
       50
102
RTVSPost2010PropOp46
 70
     1
102
RTVSPost2010Prop47
 90
       50
102
RTVSPost2010PropOp47
 70
     1
102
RTVSPost2010Prop48
 90
       50
102
RTVSPost2010PropOp48
 70
     1
102
RTVSPost2010Prop49
280
     0
102
RTVSPost2010PropOp49
 70
     1
102
RTVSPost2010Prop50
 90
       50
102
RTVSPost2010PropOp50
 70
     1
102
RTVSPost2010Prop51ColorIndex
 90
      256
102
RTVSPost2010Prop51ColorRGB
 90
-16777216
102
RTVSPost2010PropOp51
 70
     0
102
RTVSPost2010Prop52
140
1.0
102
RTVSPost2010PropOp52
 70
     0
102
RTVSPost2010Prop53
 90
        2
102
RTVSPost2010PropOp53
 70
     1
102
RTVSPost2010Prop54
  1
strokes_ogs.tif
102
RTVSPost2010PropOp54
 70
     1
102
RTVSPost2010Prop55
280
     0
102
RTVSPost2010PropOp55
 70
     1
102
RTVSPost2010Prop56
140
1.0
102
RTVSPost2010PropOp56
 70
     1
102
RTVSPost2010Prop57
140
1.0
102
RTVSPost2010PropOp57
 70
     1
102
RTVSPropertyOp0
 70
     1
102
RTVSPropertyOp1
 70
     1
102
RTVSPropertyOp2
 70
     1
102
RTVSPropertyOp3
 70
     1
102
RTVSPropertyOp4
 70
     1
102
RTVSPropertyOp5
 70
     1
102
RTVSPropertyOp6
 70
     1
102
RTVSPropertyOp7
 70
     1
102
RTVSPropertyOp8
 70
     1
102
RTVSPropertyOp9
 70
     1
102
RTVSPropertyOp10
 70
     1
102
RTVSPropertyOp11
 70
     1
102
RTVSPropertyOp12
 70
     1
102
RTVSPropertyOp13
 70
     1
102
RTVSPropertyOp14
 70
     1
102
RTVSPropertyOp15
 70
     1
102
RTVSPropertyOp16
 70
     1
102
RTVSPropertyOp17
 70
     1
102
RTVSPropertyOp18
 70
     1
102
RTVSPropertyOp19
 70
     1
102
RTVSPropertyOp20
 70
     1
102
RTVSPropertyOp21
 70
     1
102
RTVSPropertyOp22
 70
     1
102
RTVSPropertyOp23
 70
     1
102
RTVSPropertyOp24
 70
     1
102
RTVSPropertyOp25
 70
     1
102
RTVSPropertyOp26
 70
     1
102
RTVSPropertyOp27
 70
     1
102
RTVSPropertyOp28
 70
     1
102
RTVSPropertyOp29
 70
     1
102
RTVSPropertyOp30
 70
     1
102
RTVSPropertyOp31
 70
     1
102
RTVSPropertyOp32
 70
     1
102
RTVSPropertyOp33
 70
     1
102
RTVSPropertyOp34
 70
     1
102
RTVSPropertyOp35
 70
     1
102
RTVSPropertyOp36
 70
     1
102
RTVSPropertyOp37
 70
     1
102
RTVSPropertyOp38
 70
     1
102
RTVSPropertyOp39
 70
     1
102
RTVSPropertyOp40
 70
     1
102
RTVSPropertyOp41
 70
     1
102
RTVSPropertyOp42
 70
     1
102
RTVSPropertyOp43
 70
     1
102
RTVSPropertyOp44
 70
     1
102
RTVSPropertyOp45
 70
     1
102
RTVSPropertyOp46
 70
     1
102
RTVSPropertyOp47
 70
     1
102
RTVSPropertyOp48
 70
     1
102
RTVSPropertyOp49
 70
     1
102
RTVSPropertyOp50
 70
     1
102
RTVSPropertyOp51
 70
     0
102
RTVSPropertyOp52
 70
     0
102
RTVSPropertyOp53
 70
     1
102
RTVSPropertyOp54
 70
     1
102
RTVSPropertyOp55
 70
     1
102
RTVSPropertyOp56
 70
     1
102
RTVSPropertyOp57
 70
     1
102
RTVSPropertyOp58
 70
     1
102
RTVSPropertyOp59
 70
     1
102
RTVSPropertyOp60
 70
     1
102
RTVSPropertyOp61
 70
     1
102
RTVSPropertyOp62
 70
     1
  0
XRECORD
  5
212D
102
{ACAD_REACTORS
330
212C
102
}
330
212C
100
AcDbXrecord
280
     1
102
RTVSPost2010Prop28
280
     0
102
RTVSPost2010PropOp28
 70
     1
102
RTVSPost2010Prop29
280
     1
102
RTVSPost2010PropOp29
 70
     1
102
RTVSPost2010Prop30
280
     1
102
RTVSPost2010PropOp30
 70
     1
102
RTVSPost2010Prop31
280
     0
102
RTVSPost2010PropOp31
 70
     1
102
RTVSPost2010Prop32
280
     0
102
RTVSPost2010PropOp32
 70
     1
102
RTVSPost2010Prop33
280
     0
102
RTVSPost2010PropOp33
 70
     1
102
RTVSPost2010Prop34
280
     0
102
RTVSPost2010PropOp34
 70
     1
102
RTVSPost2010Prop35
280
     0
102
RTVSPost2010PropOp35
 70
     1
102
RTVSPost2010Prop36
280
     0
102
RTVSPost2010PropOp36
 70
     1
102
RTVSPost2010Prop37
 90
       50
102
RTVSPost2010PropOp37
 70
     1
102
RTVSPost2010Prop38
140
0.0
102
RTVSPost2010PropOp38
 70
     1
102
RTVSPost2010Prop39
140
1.0
102
RTVSPost2010PropOp39
 70
     1
102
RTVSPost2010Prop40
 90
        0
102
RTVSPost2010PropOp40
 70
     1
102
RTVSPost2010Prop41ColorIndex
 90
       18
102
RTVSPost2010Prop41ColorRGB
 90
        0
102
RTVSPost2010PropOp41
 70
     1
102
RTVSPost2010Prop42
 90
       50
102
RTVSPost2010PropOp42
 70
     1
102
RTVSPost2010Prop43
 90
        3
102
RTVSPost2010PropOp43
 70
     1
102
RTVSPost2010Prop44ColorIndex
 90
        5
102
RTVSPost2010Prop44ColorRGB
 90
      255
102
RTVSPost2010PropOp44
 70
     1
102
RTVSPost2010Prop45
280
     0
102
RTVSPost2010PropOp45
 70
     1
102
RTVSPost2010Prop46
 90
       50
102
RTVSPost2010PropOp46
 70
     1
102
RTVSPost2010Prop47
 90
       50
102
RTVSPost2010PropOp47
 70
     1
102
RTVSPost2010Prop48
 90
       50
102
RTVSPost2010PropOp48
 70
     1
102
RTVSPost2010Prop49
280
     0
102
RTVSPost2010PropOp49
 70
     1
102
RTVSPost2010Prop50
 90
       50
102
RTVSPost2010PropOp50
 70
     1
102
RTVSPost2010Prop51ColorIndex
 90
      256
102
RTVSPost2010Prop51ColorRGB
 90
-16777216
102
RTVSPost2010PropOp51
 70
     0
102
RTVSPost2010Prop52
140
1.0
102
RTVSPost2010PropOp52
 70
     0
102
RTVSPost2010Prop53
 90
        2
102
RTVSPost2010PropOp53
 70
     1
102
RTVSPost2010Prop54
  1
strokes_ogs.tif
102
RTVSPost2010PropOp54
 70
     1
102
RTVSPost2010Prop55
280
     0
102
RTVSPost2010PropOp55
 70
     1
102
RTVSPost2010Prop56
140
1.0
102
RTVSPost2010PropOp56
 70
     1
102
RTVSPost2010Prop57
140
1.0
102
RTVSPost2010PropOp57
 70
     1
102
RTVSPropertyOp0
 70
     1
102
RTVSPropertyOp1
 70
     1
102
RTVSPropertyOp2
 70
     1
102
RTVSPropertyOp3
 70
     1
102
RTVSPropertyOp4
 70
     1
102
RTVSPropertyOp5
 70
     1
102
RTVSPropertyOp6
 70
     1
102
RTVSPropertyOp7
 70
     1
102
RTVSPropertyOp8
 70
     1
102
RTVSPropertyOp9
 70
     1
102
RTVSPropertyOp10
 70
     1
102
RTVSPropertyOp11
 70
     1
102
RTVSPropertyOp12
 70
     1
102
RTVSPropertyOp13
 70
     1
102
RTVSPropertyOp14
 70
     1
102
RTVSPropertyOp15
 70
     1
102
RTVSPropertyOp16
 70
     1
102
RTVSPropertyOp17
 70
     1
102
RTVSPropertyOp18
 70
     1
102
RTVSPropertyOp19
 70
     1
102
RTVSPropertyOp20
 70
     1
102
RTVSPropertyOp21
 70
     1
102
RTVSPropertyOp22
 70
     1
102
RTVSPropertyOp23
 70
     1
102
RTVSPropertyOp24
 70
     1
102
RTVSPropertyOp25
 70
     1
102
RTVSPropertyOp26
 70
     1
102
RTVSPropertyOp27
 70
     1
102
RTVSPropertyOp28
 70
     1
102
RTVSPropertyOp29
 70
     1
102
RTVSPropertyOp30
 70
     1
102
RTVSPropertyOp31
 70
     1
102
RTVSPropertyOp32
 70
     1
102
RTVSPropertyOp33
 70
     1
102
RTVSPropertyOp34
 70
     1
102
RTVSPropertyOp35
 70
     1
102
RTVSPropertyOp36
 70
     1
102
RTVSPropertyOp37
 70
     1
102
RTVSPropertyOp38
 70
     1
102
RTVSPropertyOp39
 70
     1
102
RTVSPropertyOp40
 70
     1
102
RTVSPropertyOp41
 70
     1
102
RTVSPropertyOp42
 70
     1
102
RTVSPropertyOp43
 70
     1
102
RTVSPropertyOp44
 70
     1
102
RTVSPropertyOp45
 70
     1
102
RTVSPropertyOp46
 70
     1
102
RTVSPropertyOp47
 70
     1
102
RTVSPropertyOp48
 70
     1
102
RTVSPropertyOp49
 70
     1
102
RTVSPropertyOp50
 70
     1
102
RTVSPropertyOp51
 70
     0
102
RTVSPropertyOp52
 70
     0
102
RTVSPropertyOp53
 70
     1
102
RTVSPropertyOp54
 70
     1
102
RTVSPropertyOp55
 70
     1
102
RTVSPropertyOp56
 70
     1
102
RTVSPropertyOp57
 70
     1
102
RTVSPropertyOp58
 70
     1
102
RTVSPropertyOp59
 70
     1
102
RTVSPropertyOp60
 70
     1
102
RTVSPropertyOp61
 70
     1
102
RTVSPropertyOp62
 70
     1
  0
ENDSEC
  0
EOF
