  0
SECTION
  2
HEADER
  9
$ACADVER
  1
AC1015
  9
$ACADMAINTVER
 70
    20
  9
$DWGCODEPAGE
  3
ANSI_932
  9
$INSBASE
 10
0.0
 20
0.0
 30
0.0
  9
$EXTMIN
 10
9.999999064246615
 20
9.999999806846602
 30
0.0
  9
$EXTMAX
 10
737.88055339011
 20
515.4233254864971
 30
0.0
  9
$LIMMIN
 10
0.0000015376081137
 20
-0.0000001931532552
  9
$LIMMAX
 10
792.0000015376082
 20
545.9999998068466
  9
$ORTHOMODE
 70
     0
  9
$REGENMODE
 70
     1
  9
$FILLMODE
 70
     1
  9
$QTEXTMODE
 70
     0
  9
$MIRRTEXT
 70
     1
  9
$LTSCALE
 40
1.0
  9
$ATTMODE
 70
     1
  9
$TEXTSIZE
 40
2.5
  9
$TRACEWID
 40
1.0
  9
$TEXTSTYLE
  7
STANDARD
  9
$CLAYER
  8
0
  9
$CELTYPE
  6
BYLAYER
  9
$CECOLOR
 62
   256
  9
$CELTSCALE
 40
1.0
  9
$DISPSILH
 70
     0
  9
$DIMSCALE
 40
1.0
  9
$DIMASZ
 40
3.0
  9
$DIMEXO
 40
1.0
  9
$DIMDLI
 40
10.0
  9
$DIMRND
 40
0.0
  9
$DIMDLE
 40
0.0
  9
$DIMEXE
 40
1.0
  9
$DIMTP
 40
0.0
  9
$DIMTM
 40
0.0
  9
$DIMTXT
 40
3.2
  9
$DIMCEN
 40
0.0
  9
$DIMTSZ
 40
0.0
  9
$DIMTOL
 70
     0
  9
$DIMLIM
 70
     0
  9
$DIMTIH
 70
     0
  9
$DIMTOH
 70
     0
  9
$DIMSE1
 70
     0
  9
$DIMSE2
 70
     0
  9
$DIMTAD
 70
     3
  9
$DIMZIN
 70
     8
  9
$DIMBLK
  1

  9
$DIMASO
 70
     1
  9
$DIMSHO
 70
     1
  9
$DIMPOST
  1

  9
$DIMAPOST
  1

  9
$DIMALT
 70
     0
  9
$DIMALTD
 70
     2
  9
$DIMALTF
 40
25.4
  9
$DIMLFAC
 40
1.0
  9
$DIMTOFL
 70
     1
  9
$DIMTVP
 40
0.0
  9
$DIMTIX
 70
     0
  9
$DIMSOXD
 70
     0
  9
$DIMSAH
 70
     1
  9
$DIMBLK1
  1
OPEN
  9
$DIMBLK2
  1
OPEN
  9
$DIMSTYLE
  2
STANDARD
  9
$DIMCLRD
 70
     0
  9
$DIMCLRE
 70
     0
  9
$DIMCLRT
 70
     0
  9
$DIMTFAC
 40
1.0
  9
$DIMGAP
 40
1.0
  9
$DIMJUST
 70
     0
  9
$DIMSD1
 70
     0
  9
$DIMSD2
 70
     0
  9
$DIMTOLJ
 70
     1
  9
$DIMTZIN
 70
     0
  9
$DIMALTZ
 70
     0
  9
$DIMALTTZ
 70
     0
  9
$DIMUPT
 70
     0
  9
$DIMDEC
 70
     4
  9
$DIMTDEC
 70
     4
  9
$DIMALTU
 70
     2
  9
$DIMALTTD
 70
     2
  9
$DIMTXSTY
  7
STANDARD
  9
$DIMAUNIT
 70
     0
  9
$DIMADEC
 70
     0
  9
$DIMALTRND
 40
0.0
  9
$DIMAZIN
 70
     0
  9
$DIMDSEP
 70
    46
  9
$DIMATFIT
 70
     3
  9
$DIMFRAC
 70
     0
  9
$DIMLDRBLK
  1
OPEN
  9
$DIMLUNIT
 70
     2
  9
$DIMLWD
 70
    -2
  9
$DIMLWE
 70
    -2
  9
$DIMTMOVE
 70
     0
  9
$LUNITS
 70
     2
  9
$LUPREC
 70
     4
  9
$SKETCHINC
 40
1.0
  9
$FILLETRAD
 40
0.0
  9
$AUNITS
 70
     0
  9
$AUPREC
 70
     0
  9
$MENU
  1
.
  9
$ELEVATION
 40
0.0
  9
$PELEVATION
 40
0.0
  9
$THICKNESS
 40
0.0
  9
$LIMCHECK
 70
     0
  9
$CHAMFERA
 40
10.0
  9
$CHAMFERB
 40
10.0
  9
$CHAMFERC
 40
20.0
  9
$CHAMFERD
 40
0.0
  9
$SKPOLY
 70
     0
  9
$TDCREATE
 40
2453234.658638959
  9
$TDUCREATE
 40
2453234.283638959
  9
$TDUPDATE
 40
2457192.689638669
  9
$TDUUPDATE
 40
2457192.314638669
  9
$TDINDWG
 40
0.1675095255
  9
$TDUSRTIMER
 40
0.1675095139
  9
$USRTIMER
 70
     1
  9
$ANGBASE
 50
0.0
  9
$ANGDIR
 70
     0
  9
$PDMODE
 70
     0
  9
$PDSIZE
 40
0.0
  9
$PLINEWID
 40
0.0
  9
$SPLFRAME
 70
     0
  9
$SPLINETYPE
 70
     6
  9
$SPLINESEGS
 70
     8
  9
$HANDSEED
  5
1202
  9
$SURFTAB1
 70
     6
  9
$SURFTAB2
 70
     6
  9
$SURFTYPE
 70
     6
  9
$SURFU
 70
     6
  9
$SURFV
 70
     6
  9
$UCSBASE
  2

  9
$UCSNAME
  2

  9
$UCSORG
 10
0.0
 20
0.0
 30
0.0
  9
$UCSXDIR
 10
1.0
 20
0.0
 30
0.0
  9
$UCSYDIR
 10
0.0
 20
1.0
 30
0.0
  9
$UCSORTHOREF
  2

  9
$UCSORTHOVIEW
 70
     0
  9
$UCSORGTOP
 10
0.0
 20
0.0
 30
0.0
  9
$UCSORGBOTTOM
 10
0.0
 20
0.0
 30
0.0
  9
$UCSORGLEFT
 10
0.0
 20
0.0
 30
0.0
  9
$UCSORGRIGHT
 10
0.0
 20
0.0
 30
0.0
  9
$UCSORGFRONT
 10
0.0
 20
0.0
 30
0.0
  9
$UCSORGBACK
 10
0.0
 20
0.0
 30
0.0
  9
$PUCSBASE
  2

  9
$PUCSNAME
  2

  9
$PUCSORG
 10
0.0
 20
0.0
 30
0.0
  9
$PUCSXDIR
 10
1.0
 20
0.0
 30
0.0
  9
$PUCSYDIR
 10
0.0
 20
1.0
 30
0.0
  9
$PUCSORTHOREF
  2

  9
$PUCSORTHOVIEW
 70
     0
  9
$PUCSORGTOP
 10
0.0
 20
0.0
 30
0.0
  9
$PUCSORGBOTTOM
 10
0.0
 20
0.0
 30
0.0
  9
$PUCSORGLEFT
 10
0.0
 20
0.0
 30
0.0
  9
$PUCSORGRIGHT
 10
0.0
 20
0.0
 30
0.0
  9
$PUCSORGFRONT
 10
0.0
 20
0.0
 30
0.0
  9
$PUCSORGBACK
 10
0.0
 20
0.0
 30
0.0
  9
$USERI1
 70
     0
  9
$USERI2
 70
     0
  9
$USERI3
 70
     0
  9
$USERI4
 70
     0
  9
$USERI5
 70
     0
  9
$USERR1
 40
0.0
  9
$USERR2
 40
0.0
  9
$USERR3
 40
0.0
  9
$USERR4
 40
0.0
  9
$USERR5
 40
0.0
  9
$WORLDVIEW
 70
     1
  9
$SHADEDGE
 70
     3
  9
$SHADEDIF
 70
    70
  9
$TILEMODE
 70
     1
  9
$MAXACTVP
 70
    48
  9
$PINSBASE
 10
0.0
 20
0.0
 30
0.0
  9
$PLIMCHECK
 70
     0
  9
$PEXTMIN
 10
1.000000000000000E+20
 20
1.000000000000000E+20
 30
1.000000000000000E+20
  9
$PEXTMAX
 10
-1.000000000000000E+20
 20
-1.000000000000000E+20
 30
-1.000000000000000E+20
  9
$PLIMMIN
 10
0.0
 20
0.0
  9
$PLIMMAX
 10
420.0
 20
297.0
  9
$UNITMODE
 70
     0
  9
$VISRETAIN
 70
     1
  9
$PLINEGEN
 70
     0
  9
$PSLTSCALE
 70
     1
  9
$TREEDEPTH
 70
  3020
  9
$CMLSTYLE
  2
STANDARD
  9
$CMLJUST
 70
     0
  9
$CMLSCALE
 40
20.0
  9
$PROXYGRAPHICS
 70
     1
  9
$MEASUREMENT
 70
     0
  9
$CELWEIGHT
370
    -1
  9
$ENDCAPS
280
     0
  9
$JOINSTYLE
280
     0
  9
$LWDISPLAY
290
     0
  9
$INSUNITS
 70
     0
  9
$HYPERLINKBASE
  1

  9
$STYLESHEET
  1

  9
$XEDIT
290
     1
  9
$CEPSNTYPE
380
     0
  9
$PSTYLEMODE
290
     1
  9
$FINGERPRINTGUID
  2
{9FA392F3-A8FD-4A71-BABD-13539961EC4F}
  9
$VERSIONGUID
  2
{05DF0ADC-ED2F-4793-9785-8DB37E532E0B}
  9
$EXTNAMES
290
     1
  9
$PSVPSCALE
 40
0.0
  9
$OLESTARTUP
290
     0
  0
ENDSEC
  0
SECTION
  2
CLASSES
  0
CLASS
  1
ACDBDICTIONARYWDFLT
  2
AcDbDictionaryWithDefault
  3
ObjectDBX Classes
 90
        0
280
     0
281
     0
  0
CLASS
  1
ACDBPLACEHOLDER
  2
AcDbPlaceHolder
  3
ObjectDBX Classes
 90
        0
280
     0
281
     0
  0
CLASS
  1
LAYOUT
  2
AcDbLayout
  3
ObjectDBX Classes
 90
        0
280
     0
281
     0
  0
CLASS
  1
DICTIONARYVAR
  2
AcDbDictionaryVar
  3
ObjectDBX Classes
 90
        0
280
     0
281
     0
  0
CLASS
  1
MATERIAL
  2
AcDbMaterial
  3
ObjectDBX Classes
 90
     1153
280
     0
281
     0
  0
CLASS
  1
VISUALSTYLE
  2
AcDbVisualStyle
  3
ObjectDBX Classes
 90
     4095
280
     0
281
     0
  0
CLASS
  1
TABLESTYLE
  2
AcDbTableStyle
  3
ObjectDBX Classes
 90
     4095
280
     0
281
     0
  0
CLASS
  1
SCALE
  2
AcDbScale
  3
ObjectDBX Classes
 90
     1153
280
     0
281
     0
  0
CLASS
  1
MLEADERSTYLE
  2
AcDbMLeaderStyle
  3
ACDB_MLEADERSTYLE_CLASS
 90
     4095
280
     0
281
     0
  0
CLASS
  1
ACDBSECTIONVIEWSTYLE
  2
AcDbSectionViewStyle
  3
ObjectDBX Classes
 90
     1025
280
     0
281
     0
  0
CLASS
  1
ACDBDETAILVIEWSTYLE
  2
AcDbDetailViewStyle
  3
ObjectDBX Classes
 90
     1025
280
     0
281
     0
  0
CLASS
  1
CELLSTYLEMAP
  2
AcDbCellStyleMap
  3
ObjectDBX Classes
 90
     1152
280
     0
281
     0
  0
ENDSEC
  0
SECTION
  2
TABLES
  0
TABLE
  2
VPORT
  5
8
330
0
100
AcDbSymbolTable
 70
     1
  0
VPORT
  5
114E
330
8
100
AcDbSymbolTableRecord
100
AcDbViewportTableRecord
  2
*ACTIVE
 70
     0
 10
0.0
 20
0.0
 11
1.0
 21
1.0
 12
568.4657572564965
 22
262.7108470133894
 13
0.0
 23
0.0
 14
10.0
 24
10.0
 15
10.0
 25
10.0
 16
0.0
 26
0.0
 36
1.0
 17
0.0
 27
0.0
 37
0.0
 40
509.450372748742
 41
2.35006605019815
 42
50.0
 43
0.0
 44
0.0
 50
0.0
 51
0.0
 71
     0
 72
   100
 73
     1
 74
     0
 75
     0
 76
     0
 77
     0
 78
     0
281
     0
 65
     1
110
0.0
120
0.0
130
0.0
111
1.0
121
0.0
131
0.0
112
0.0
122
1.0
132
0.0
 79
     0
146
0.0
1001
ACAD_NAV_VCDISPLAY
1070
     3
  0
ENDTAB
  0
TABLE
  2
LTYPE
  5
5
330
0
100
AcDbSymbolTable
 70
     4
  0
LTYPE
  5
12
330
5
100
AcDbSymbolTableRecord
100
AcDbLinetypeTableRecord
  2
BYBLOCK
 70
     0
  3

 72
    65
 73
     0
 40
0.0
  0
LTYPE
  5
13
330
5
100
AcDbSymbolTableRecord
100
AcDbLinetypeTableRecord
  2
BYLAYER
 70
     0
  3

 72
    65
 73
     0
 40
0.0
  0
LTYPE
  5
14
330
5
100
AcDbSymbolTableRecord
100
AcDbLinetypeTableRecord
  2
CONTINUOUS
 70
     0
  3
Solid line
 72
    65
 73
     0
 40
0.0
  0
LTYPE
  5
290
330
5
100
AcDbSymbolTableRecord
100
AcDbLinetypeTableRecord
  2
DASHED
 70
     0
  3
Dashed __ __ __ __ __ __ __ __ __ __ __ __ __ _
 72
    65
 73
     2
 40
19.04999999999998
 49
12.7
 74
     0
 49
-6.349999999999997
 74
     0
  0
LTYPE
  5
291
330
5
100
AcDbSymbolTableRecord
100
AcDbLinetypeTableRecord
  2
CENTER
 70
     0
  3
Center ____ _ ____ _ ____ _ ____ _ ____ _ ____
 72
    65
 73
     4
 40
50.8
 49
31.75
 74
     0
 49
-6.349999999999997
 74
     0
 49
6.349999999999997
 74
     0
 49
-6.349999999999997
 74
     0
  0
LTYPE
  5
292
330
5
100
AcDbSymbolTableRecord
100
AcDbLinetypeTableRecord
  2
PHANTOM
 70
     0
  3
Phantom ______  __  __  ______  __  __  ______
 72
    65
 73
     6
 40
63.5
 49
31.75
 74
     0
 49
-6.349999999999997
 74
     0
 49
6.349999999999997
 74
     0
 49
-6.349999999999997
 74
     0
 49
6.349999999999997
 74
     0
 49
-6.349999999999997
 74
     0
  0
ENDTAB
  0
TABLE
  2
LAYER
  5
2
330
0
100
AcDbSymbolTable
 70
     8
  0
LAYER
  5
E
102
{ACAD_XDICTIONARY
360
11A6
102
}
330
2
100
AcDbSymbolTableRecord
100
AcDbLayerTableRecord
  2
0
 70
     0
 62
     7
  6
CONTINUOUS
370
    -3
390
1155
  0
LAYER
  5
293
102
{ACAD_XDICTIONARY
360
11A8
102
}
330
2
100
AcDbSymbolTableRecord
100
AcDbLayerTableRecord
  2
4
 70
     0
 62
     1
  6
CENTER
370
    -3
390
1155
  0
LAYER
  5
294
102
{ACAD_XDICTIONARY
360
11AA
102
}
330
2
100
AcDbSymbolTableRecord
100
AcDbLayerTableRecord
  2
5
 70
     0
 62
     6
  6
PHANTOM
370
    -3
390
1155
  0
LAYER
  5
295
102
{ACAD_XDICTIONARY
360
11AC
102
}
330
2
100
AcDbSymbolTableRecord
100
AcDbLayerTableRecord
  2
1
 70
     0
 62
     7
  6
CONTINUOUS
370
    -3
390
1155
  0
LAYER
  5
296
102
{ACAD_XDICTIONARY
360
11AE
102
}
330
2
100
AcDbSymbolTableRecord
100
AcDbLayerTableRecord
  2
2
 70
     0
 62
     4
  6
CONTINUOUS
370
    -3
390
1155
  0
LAYER
  5
297
102
{ACAD_XDICTIONARY
360
11B0
102
}
330
2
100
AcDbSymbolTableRecord
100
AcDbLayerTableRecord
  2
3
 70
     0
 62
     2
  6
DASHED
370
    -3
390
1155
  0
LAYER
  5
298
102
{ACAD_XDICTIONARY
360
11B2
102
}
330
2
100
AcDbSymbolTableRecord
100
AcDbLayerTableRecord
  2
6
 70
     0
 62
     5
  6
CONTINUOUS
370
    -3
390
1155
  0
LAYER
  5
299
102
{ACAD_XDICTIONARY
360
11B4
102
}
330
2
100
AcDbSymbolTableRecord
100
AcDbLayerTableRecord
  2
7
 70
     0
 62
     3
  6
CONTINUOUS
370
    -3
390
1155
  0
ENDTAB
  0
TABLE
  2
STYLE
  5
3
330
0
100
AcDbSymbolTable
 70
     1
  0
STYLE
  5
F
330
3
100
AcDbSymbolTableRecord
100
AcDbTextStyleTableRecord
  2
STANDARD
 70
     0
 40
0.0
 41
1.0
 50
0.0
 71
     0
 42
2.5
  3
simplex.shx
  4

  0
ENDTAB
  0
TABLE
  2
VIEW
  5
6
330
0
100
AcDbSymbolTable
 70
     0
  0
ENDTAB
  0
TABLE
  2
UCS
  5
7
330
0
100
AcDbSymbolTable
 70
     0
  0
ENDTAB
  0
TABLE
  2
APPID
  5
9
330
0
100
AcDbSymbolTable
 70
     5
  0
APPID
  5
10
330
9
100
AcDbSymbolTableRecord
100
AcDbRegAppTableRecord
  2
ACAD
 70
     0
  0
APPID
  5
3E
330
9
100
AcDbSymbolTableRecord
100
AcDbRegAppTableRecord
  2
CONTENTTABDATA
 70
     0
  0
APPID
  5
3F
330
9
100
AcDbSymbolTableRecord
100
AcDbRegAppTableRecord
  2
CONTENTCURRENTTAB
 70
     0
  0
APPID
  5
11C0
330
9
100
AcDbSymbolTableRecord
100
AcDbRegAppTableRecord
  2
ACAD_NAV_VCDISPLAY
 70
     0
  0
APPID
  5
11F9
330
9
100
AcDbSymbolTableRecord
100
AcDbRegAppTableRecord
  2
ACAD_MLEADERVER
 70
     0
  0
ENDTAB
  0
TABLE
  2
DIMSTYLE
  5
A
330
0
100
AcDbSymbolTable
 70
     1
100
AcDbDimStyleTable
 71
     0
  0
DIMSTYLE
105
1D
330
A
100
AcDbSymbolTableRecord
100
AcDbDimStyleTableRecord
  2
STANDARD
 70
     0
 41
3.0
 42
1.0
 43
10.0
 44
1.0
 73
     0
 74
     0
 77
     3
 78
     8
140
3.2
141
0.0
147
1.0
172
     1
173
     1
340
F
341
2E
343
2E
344
2E
  0
ENDTAB
  0
TABLE
  2
BLOCK_RECORD
  5
1
330
0
100
AcDbSymbolTable
 70
     1
  0
BLOCK_RECORD
  5
18
102
{ACAD_XDICTIONARY
360
1138
102
}
330
1
100
AcDbSymbolTableRecord
100
AcDbBlockTableRecord
  2
*MODEL_SPACE
340
11A3
  0
BLOCK_RECORD
  5
15
102
{ACAD_XDICTIONARY
360
1136
102
}
330
1
100
AcDbSymbolTableRecord
100
AcDbBlockTableRecord
  2
*PAPER_SPACE
340
11A4
  0
BLOCK_RECORD
  5
2E
330
1
100
AcDbSymbolTableRecord
100
AcDbBlockTableRecord
  2
_OPEN
340
0
  0
ENDTAB
  0
ENDSEC
  0
SECTION
  2
BLOCKS
  0
BLOCK
  5
19
330
18
100
AcDbEntity
  8
0
100
AcDbBlockBegin
  2
*MODEL_SPACE
 70
     0
 10
0.0
 20
0.0
 30
0.0
  3
*MODEL_SPACE
  1

  0
ENDBLK
  5
1A
330
18
100
AcDbEntity
  8
0
100
AcDbBlockEnd
  0
BLOCK
  5
16
330
15
100
AcDbEntity
 67
     1
  8
0
100
AcDbBlockBegin
  2
*PAPER_SPACE
 70
     0
 10
0.0
 20
0.0
 30
0.0
  3
*PAPER_SPACE
  1

  0
ENDBLK
  5
17
330
15
100
AcDbEntity
 67
     1
  8
0
100
AcDbBlockEnd
  0
BLOCK
  5
2F
330
2E
100
AcDbEntity
  8
0
100
AcDbBlockBegin
  2
_OPEN
 70
     0
 10
0.0
 20
0.0
 30
0.0
  3
_OPEN
  1

  0
LINE
  5
30
330
2E
100
AcDbEntity
  8
0
  6
ByBlock
 62
     0
100
AcDbLine
 10
-1.0
 20
0.1666666666666666
 30
0.0
 11
0.0
 21
0.0
 31
0.0
  0
LINE
  5
31
330
2E
100
AcDbEntity
  8
0
  6
ByBlock
 62
     0
100
AcDbLine
 10
0.0
 20
0.0
 30
0.0
 11
-1.0
 21
-0.1666666666666666
 31
0.0
  0
LINE
  5
32
330
2E
100
AcDbEntity
  8
0
  6
ByBlock
 62
     0
100
AcDbLine
 10
0.0
 20
0.0
 30
0.0
 11
-1.0
 21
0.0
 31
0.0
  0
ENDBLK
  5
33
330
2E
100
AcDbEntity
  8
0
100
AcDbBlockEnd
  0
ENDSEC
  0
SECTION
  2
ENTITIES
  0
ARC
  5
531
330
18
100
AcDbEntity
  8
1
  6
Continuous
100
AcDbCircle
 10
275.0425593473786
 20
90.27750610941859
 30
0.0
 40
31.485973615842
100
AcDbArc
 50
230.1226077064296
 51
129.8773922935704
  0
ARC
  5
532
330
18
100
AcDbEntity
  8
1
  6
Continuous
100
AcDbCircle
 10
275.0425593473786
 20
90.27750610941859
 30
0.0
 40
33.985973615842
100
AcDbArc
 50
230.1226077064296
 51
129.8773922935708
  0
LINE
  5
537
330
18
100
AcDbEntity
  8
1
  6
Continuous
100
AcDbLine
 10
310.0425593473786
 20
45.27750610941859
 30
0.0
 11
240.0425593473787
 21
45.27750610941859
 31
0.0
  0
LINE
  5
538
330
18
100
AcDbEntity
  8
1
  6
Continuous
100
AcDbLine
 10
310.0425593473786
 20
135.2775061094185
 30
0.0
 11
240.0425593473787
 21
135.2775061094185
 31
0.0
  0
LINE
  5
539
330
18
100
AcDbEntity
  8
4
  6
CENTER
100
AcDbLine
 10
325.0425593473786
 20
90.27750610941859
 30
0.0
 11
183.0114691142914
 21
90.27750610941859
 31
0.0
  0
CIRCLE
  5
53A
330
18
100
AcDbEntity
  8
1
  6
Continuous
100
AcDbCircle
 10
275.0425593473786
 20
462.7990329246323
 30
0.0
 40
14.0
  0
CIRCLE
  5
53B
330
18
100
AcDbEntity
  8
1
  6
Continuous
100
AcDbCircle
 10
275.0425593473786
 20
462.7990329246323
 30
0.0
 40
16.0
  0
LINE
  5
541
330
18
100
AcDbEntity
  8
4
  6
CENTER
100
AcDbLine
 10
185.0425593473786
 20
251.5382695170254
 30
0.0
 11
295.0425593473786
 21
251.5382695170254
 31
0.0
  0
LINE
  5
542
330
18
100
AcDbEntity
  8
1
  6
Continuous
100
AcDbLine
 10
230.0425593473787
 20
333.5382775170252
 30
0.0
 11
320.0425593473787
 21
333.5382775170252
 31
0.0
  0
LINE
  5
543
330
18
100
AcDbEntity
  8
1
  6
Continuous
100
AcDbLine
 10
230.0425593473787
 20
330.5382775170254
 30
0.0
 11
320.0425593473787
 21
330.5382775170254
 31
0.0
  0
LINE
  5
54D
330
18
100
AcDbEntity
  8
1
  6
Continuous
100
AcDbLine
 10
310.0425593473786
 20
417.7990329246322
 30
0.0
 11
240.0425593473787
 21
417.7990329246322
 31
0.0
  0
LINE
  5
54E
330
18
100
AcDbEntity
  8
1
  6
Continuous
100
AcDbLine
 10
310.0425593473786
 20
507.7990329246323
 30
0.0
 11
240.0425593473787
 21
507.7990329246323
 31
0.0
  0
CIRCLE
  5
54F
330
18
100
AcDbEntity
  8
1
  6
Continuous
100
AcDbCircle
 10
275.0425593473786
 20
462.7990329246323
 30
0.0
 40
34.5
  0
CIRCLE
  5
550
330
18
100
AcDbEntity
  8
1
  6
Continuous
100
AcDbCircle
 10
275.0425593473786
 20
462.7990329246323
 30
0.0
 40
31.0
  0
CIRCLE
  5
551
330
18
100
AcDbEntity
  8
1
  6
Continuous
100
AcDbCircle
 10
275.0425593473786
 20
462.7990329246323
 30
0.0
 40
34.5
  0
LINE
  5
552
330
18
100
AcDbEntity
  8
4
  6
CENTER
100
AcDbLine
 10
325.0425593473786
 20
462.7990329246323
 30
0.0
 11
183.0114691142914
 21
462.7990329246323
 31
0.0
  0
LINE
  5
553
330
18
100
AcDbEntity
  8
1
  6
Continuous
100
AcDbLine
 10
298.5760383473786
 20
299.3564235170253
 30
0.0
 11
249.0136303473787
 21
243.5683305170253
 31
0.0
  0
TEXT
  5
556
330
18
100
AcDbEntity
  8
7
  6
Continuous
 48
0.25
100
AcDbText
 10
9.999999064246617
 20
18.0000005676155
 30
0.0
 40
3.0
  1
TYPE No.TCA-320S-N100
100
AcDbText
  0
TEXT
  5
557
330
18
100
AcDbEntity
  8
7
  6
Continuous
 48
0.25
100
AcDbText
 10
9.999999064246617
 20
26.0000005676155
 30
0.0
 40
3.0
  1
CODE No.19148
100
AcDbText
  0
TEXT
  5
558
330
18
100
AcDbEntity
  8
1
  6
Continuous
 48
0.25
100
AcDbText
 10
9.999999064246617
 20
10.00000056761549
 30
0.0
 40
1.399999999999999
  1
LAYER
100
AcDbText
  0
TEXT
  5
559
330
18
100
AcDbEntity
  8
6
  6
Continuous
 48
0.25
100
AcDbText
 10
27.97951006424661
 20
9.999999806846602
 30
0.0
 40
1.399999999999999
  1
6
100
AcDbText
  0
TEXT
  5
55A
330
18
100
AcDbEntity
  8
1
  6
Continuous
 48
0.25
100
AcDbText
 10
17.9795100642466
 20
9.999999806846602
 30
0.0
 40
1.399999999999999
  1
1
100
AcDbText
  0
TEXT
  5
55B
330
18
100
AcDbEntity
  8
3
  6
DASHED
 48
0.25
100
AcDbText
 10
21.97951006424661
 20
9.999999806846602
 30
0.0
 40
1.399999999999999
  1
3
100
AcDbText
  0
TEXT
  5
55C
330
18
100
AcDbEntity
  8
2
  6
Continuous
 48
0.25
100
AcDbText
 10
19.9795100642466
 20
9.999999806846602
 30
0.0
 40
1.399999999999999
  1
2
100
AcDbText
  0
TEXT
  5
55D
330
18
100
AcDbEntity
  8
5
  6
PHANTOM
 48
0.25
100
AcDbText
 10
25.97951006424661
 20
9.999999806846602
 30
0.0
 40
1.399999999999999
  1
5
100
AcDbText
  0
TEXT
  5
55E
330
18
100
AcDbEntity
  8
4
  6
CENTER
 48
0.25
100
AcDbText
 10
23.97951006424661
 20
9.999999806846602
 30
0.0
 40
1.399999999999999
  1
4
100
AcDbText
  0
TEXT
  5
55F
330
18
100
AcDbEntity
  8
7
  6
Continuous
 48
0.25
100
AcDbText
 10
29.97951006424661
 20
9.999999806846602
 30
0.0
 40
1.399999999999999
  1
7
100
AcDbText
  0
LINE
  5
560
330
18
100
AcDbEntity
  8
4
  6
CENTER
100
AcDbLine
 10
275.0425593473786
 20
37.65321354755378
 30
0.0
 11
275.0425593473786
 21
145.6685888826656
 31
0.0
  0
LINE
  5
563
330
18
100
AcDbEntity
  8
4
  6
CENTER
100
AcDbLine
 10
240.0425593473787
 20
41.65321354755377
 30
0.0
 11
240.0425593473787
 21
140.6685888826656
 31
0.0
  0
LINE
  5
568
330
18
100
AcDbEntity
  8
1
  6
Continuous
100
AcDbLine
 10
235.0425593473785
 20
55.02750910941836
 30
0.0
 11
245.0425593473784
 21
55.02750910941836
 31
0.0
  0
LINE
  5
569
330
18
100
AcDbEntity
  8
4
  6
CENTER
100
AcDbLine
 10
248.5425593473787
 20
56.27750610941853
 30
0.0
 11
233.5425593473786
 21
56.27750610941853
 31
0.0
  0
LINE
  5
56A
330
18
100
AcDbEntity
  8
1
  6
Continuous
100
AcDbLine
 10
235.7925593473785
 20
54.27750610941846
 30
0.0
 11
244.2925593473785
 21
54.27750610941846
 31
0.0
  0
LINE
  5
56E
330
18
100
AcDbEntity
  8
1
  6
Continuous
100
AcDbLine
 10
251.6496914022995
 20
64.77750610941853
 30
0.0
 11
227.5425593473787
 21
64.77750610941853
 31
0.0
  0
LINE
  5
56F
330
18
100
AcDbEntity
  8
1
  6
Continuous
100
AcDbLine
 10
251.6496914022995
 20
67.27750610941853
 30
0.0
 11
227.5425593473787
 21
67.27750610941853
 31
0.0
  0
LINE
  5
570
330
18
100
AcDbEntity
  8
4
  6
CENTER
100
AcDbLine
 10
247.0425593473787
 20
54.77750610941853
 30
0.0
 11
232.0425593473787
 21
54.77750610941853
 31
0.0
  0
ARC
  5
571
330
18
100
AcDbEntity
  8
1
  6
Continuous
100
AcDbCircle
 10
240.0425593473787
 20
55.27750610941859
 30
0.0
 40
10.0
100
AcDbArc
 50
179.9999949999999
 51
269.9999969999999
  0
ARC
  5
572
330
18
100
AcDbEntity
  8
1
  6
Continuous
100
AcDbCircle
 10
239.5425593473786
 20
54.77750610941853
 30
0.0
 40
5.5
100
AcDbArc
 50
164.173379868128
 51
314.9999989999999
  0
LINE
  5
575
330
18
100
AcDbEntity
  8
1
  6
Continuous
100
AcDbLine
 10
230.0425593473787
 20
55.27750610941859
 30
0.0
 11
230.0425593473787
 21
64.77750610941853
 31
0.0
  0
LINE
  5
577
330
18
100
AcDbEntity
  8
1
  6
Continuous
100
AcDbLine
 10
235.0425593473785
 20
55.02750910941836
 30
0.0
 11
235.0425593473785
 21
56.27750610941848
 31
0.0
  0
LINE
  5
578
330
18
100
AcDbEntity
  8
1
  6
Continuous
100
AcDbLine
 10
235.7925593473785
 20
54.27750610941846
 30
0.0
 11
235.0425593473785
 21
55.02750910941836
 31
0.0
  0
LINE
  5
579
330
18
100
AcDbEntity
  8
2
  6
Continuous
100
AcDbLine
 10
235.7925593473785
 20
54.27750610941846
 30
0.0
 11
235.7925593473785
 21
56.27750610941848
 31
0.0
  0
LINE
  5
57B
330
18
100
AcDbEntity
  8
1
  6
Continuous
100
AcDbLine
 10
227.5425593473787
 20
64.77750610941853
 30
0.0
 11
227.5425593473787
 21
67.27750610941853
 31
0.0
  0
LINE
  5
581
330
18
100
AcDbEntity
  8
4
  6
CENTER
100
AcDbLine
 10
239.5425593473786
 20
62.2775061094186
 30
0.0
 11
239.5425593473786
 21
47.2775061094186
 31
0.0
  0
LINE
  5
582
330
18
100
AcDbEntity
  8
4
  6
CENTER
100
AcDbLine
 10
241.0425593473787
 20
63.77750610941859
 30
0.0
 11
241.0425593473787
 21
48.77750610941859
 31
0.0
  0
LINE
  5
585
330
18
100
AcDbEntity
  8
1
  6
Continuous
100
AcDbLine
 10
244.2925593473785
 20
54.27750610941846
 30
0.0
 11
245.0425593473784
 21
55.02750910941836
 31
0.0
  0
ARC
  5
586
330
18
100
AcDbEntity
  8
1
  6
Continuous
100
AcDbCircle
 10
241.0425593473787
 20
56.27750610941853
 30
0.0
 40
5.5
100
AcDbArc
 50
314.9999989999999
 51
359.9999999999993
  0
LINE
  5
588
330
18
100
AcDbEntity
  8
1
  6
Continuous
100
AcDbLine
 10
243.4316473473785
 20
50.88841710941857
 30
0.0
 11
244.9316493473786
 21
52.38841910941857
 31
0.0
  0
LINE
  5
589
330
18
100
AcDbEntity
  8
2
  6
Continuous
100
AcDbLine
 10
244.2925593473785
 20
54.27750610941846
 30
0.0
 11
244.2925593473785
 21
56.27750610941848
 31
0.0
  0
LINE
  5
58A
330
18
100
AcDbEntity
  8
1
  6
Continuous
100
AcDbLine
 10
245.0425593473784
 20
55.02750910941836
 30
0.0
 11
245.0425593473784
 21
56.27750610941848
 31
0.0
  0
ARC
  5
590
330
18
100
AcDbEntity
  8
1
  6
Continuous
100
AcDbCircle
 10
251.6496914022995
 20
62.27750610941853
 30
0.0
 40
2.5
100
AcDbArc
 50
50.12260770642915
 51
90.0
  0
ARC
  5
592
330
18
100
AcDbEntity
  8
1
  6
Continuous
100
AcDbCircle
 10
251.6496914022995
 20
62.27750610941853
 30
0.0
 40
5.0
100
AcDbArc
 50
50.12260770642947
 51
90.0
  0
ARC
  5
59B
330
18
100
AcDbEntity
  8
1
  6
Continuous
100
AcDbCircle
 10
240.0425593473787
 20
125.2775061094185
 30
0.0
 40
10.0
100
AcDbArc
 50
90.00000300000015
 51
180.000005
  0
LINE
  5
59C
330
18
100
AcDbEntity
  8
4
  6
CENTER
100
AcDbLine
 10
248.5425593473787
 20
124.2775061094185
 30
0.0
 11
233.5425593473786
 21
124.2775061094185
 31
0.0
  0
ARC
  5
59E
330
18
100
AcDbEntity
  8
1
  6
Continuous
100
AcDbCircle
 10
241.0425593473787
 20
124.2775061094185
 30
0.0
 40
5.5
100
AcDbArc
 50
224.9999999999996
 51
237.0289809890577
  0
ARC
  5
5A1
330
18
100
AcDbEntity
  8
1
  6
Continuous
100
AcDbCircle
 10
240.0425593473787
 20
102.3275091094183
 30
0.0
 40
17.450001
100
AcDbArc
 50
58.95176300000009
 51
121.048264
  0
LINE
  5
5A2
330
18
100
AcDbEntity
  8
1
  6
Continuous
100
AcDbLine
 10
249.0425593473784
 20
117.2775061094186
 30
0.0
 11
231.0425593473785
 21
117.2775061094186
 31
0.0
  0
LINE
  5
5A3
330
18
100
AcDbEntity
  8
1
  6
Continuous
100
AcDbLine
 10
251.6496914022993
 20
115.7775061094184
 30
0.0
 11
227.5425593473787
 21
115.7775061094184
 31
0.0
  0
LINE
  5
5A4
330
18
100
AcDbEntity
  8
1
  6
Continuous
100
AcDbLine
 10
251.6496914022995
 20
113.2775061094186
 30
0.0
 11
227.5425593473787
 21
113.2775061094186
 31
0.0
  0
LINE
  5
5A5
330
18
100
AcDbEntity
  8
4
  6
CENTER
100
AcDbLine
 10
247.0425593473787
 20
125.7775061094186
 30
0.0
 11
232.0425593473787
 21
125.7775061094186
 31
0.0
  0
ARC
  5
5A6
330
18
100
AcDbEntity
  8
1
  6
Continuous
100
AcDbCircle
 10
239.5425593473786
 20
125.7775061094186
 30
0.0
 40
5.5
100
AcDbArc
 50
45.00000799999958
 51
224.9999999999996
  0
LINE
  5
5A9
330
18
100
AcDbEntity
  8
1
  6
Continuous
100
AcDbLine
 10
230.0425593473787
 20
112.2775061094182
 30
0.0
 11
230.0425593473788
 21
113.2775061094186
 31
0.0
  0
LINE
  5
5AC
330
18
100
AcDbEntity
  8
1
  6
Continuous
100
AcDbLine
 10
227.5425593473787
 20
115.7775061094185
 30
0.0
 11
227.5425593473787
 21
113.2775061094186
 31
0.0
  0
LINE
  5
5AE
330
18
100
AcDbEntity
  8
1
  6
Continuous
100
AcDbLine
 10
231.0425593473785
 20
117.2775061094186
 30
0.0
 11
231.0425593473785
 21
115.7775061094184
 31
0.0
  0
LINE
  5
5B1
330
18
100
AcDbEntity
  8
1
  6
Continuous
100
AcDbLine
 10
235.6534733473788
 20
121.8884171094185
 30
0.0
 11
237.1534693473785
 21
120.3884211094184
 31
0.0
  0
LINE
  5
5B2
330
18
100
AcDbEntity
  8
4
  6
CENTER
100
AcDbLine
 10
239.5425593473786
 20
118.2775061094186
 30
0.0
 11
239.5425593473786
 21
133.2775061094185
 31
0.0
  0
LINE
  5
5B3
330
18
100
AcDbEntity
  8
4
  6
CENTER
100
AcDbLine
 10
241.0425593473787
 20
116.7775061094185
 30
0.0
 11
241.0425593473787
 21
131.7775061094185
 31
0.0
  0
LINE
  5
5B6
330
18
100
AcDbEntity
  8
1
  6
Continuous
100
AcDbLine
 10
249.0425593473784
 20
117.2775061094186
 30
0.0
 11
249.0425593473784
 21
115.7775061094184
 31
0.0
  0
ARC
  5
5BA
330
18
100
AcDbEntity
  8
1
  6
Continuous
100
AcDbCircle
 10
251.6496914022993
 20
118.2775061094184
 30
0.0
 40
2.5
100
AcDbArc
 50
270.0
 51
309.8773922935708
  0
ARC
  5
5BB
330
18
100
AcDbEntity
  8
1
  6
Continuous
100
AcDbCircle
 10
251.6496914022995
 20
118.2775061094186
 30
0.0
 40
5.0
100
AcDbArc
 50
270.0
 51
309.8773922935706
  0
LINE
  5
5BC
330
18
100
AcDbEntity
  8
1
  6
Continuous
100
AcDbLine
 10
243.4316503473785
 20
129.6665941094186
 30
0.0
 11
244.9316463473786
 21
128.1665981094185
 31
0.0
  0
LINE
  5
5BD
330
18
100
AcDbEntity
  8
4
  6
CENTER
100
AcDbLine
 10
275.0425593473786
 20
515.4233254864971
 30
0.0
 11
275.0425593473786
 21
407.4079501513851
 31
0.0
  0
ARC
  5
5BE
330
18
100
AcDbEntity
  8
1
  6
Continuous
100
AcDbCircle
 10
239.5425593473786
 20
427.299032924632
 30
0.0
 40
5.5
100
AcDbArc
 50
135.0000000000002
 51
314.9999920000003
  0
LINE
  5
5BF
330
18
100
AcDbEntity
  8
4
  6
CENTER
100
AcDbLine
 10
239.5425593473786
 20
434.7990329246322
 30
0.0
 11
239.5425593473786
 21
419.7990329246321
 31
0.0
  0
ARC
  5
5C0
330
18
100
AcDbEntity
  8
1
  6
Continuous
100
AcDbCircle
 10
240.0425593473787
 20
427.799032924632
 30
0.0
 40
10.0
100
AcDbArc
 50
179.9999949999999
 51
269.9999969999999
  0
LINE
  5
5C1
330
18
100
AcDbEntity
  8
4
  6
CENTER
100
AcDbLine
 10
240.0425593473787
 20
511.4233254864971
 30
0.0
 11
240.0425593473787
 21
412.4079501513851
 31
0.0
  0
LINE
  5
5C5
330
18
100
AcDbEntity
  8
1
  6
Continuous
100
AcDbLine
 10
91.62356232601302
 20
276.5382625170254
 30
0.0
 11
91.62356232601302
 21
312.4081415170254
 31
0.0
  0
LINE
  5
5C6
330
18
100
AcDbEntity
  8
1
  6
Continuous
100
AcDbLine
 10
84.12356232601302
 20
239.5382625170254
 30
0.0
 11
84.12356232601302
 21
308.2382665170253
 31
0.0
  0
LINE
  5
5C7
330
18
100
AcDbEntity
  8
1
  6
Continuous
100
AcDbLine
 10
81.6235623260129
 20
239.5382625170254
 30
0.0
 11
81.6235623260129
 21
308.2382665170253
 31
0.0
  0
LINE
  5
5C8
330
18
100
AcDbEntity
  8
1
  6
Continuous
100
AcDbLine
 10
25.62356232601302
 20
276.5382625170254
 30
0.0
 11
25.62356232601302
 21
312.4081415170254
 31
0.0
  0
LINE
  5
5C9
330
18
100
AcDbEntity
  8
1
  6
Continuous
100
AcDbLine
 10
35.62356232601314
 20
239.5382625170254
 30
0.0
 11
35.62356232601314
 21
308.2382665170253
 31
0.0
  0
LINE
  5
5CA
330
18
100
AcDbEntity
  8
1
  6
Continuous
100
AcDbLine
 10
33.1235623260129
 20
239.5382625170254
 30
0.0
 11
33.1235623260129
 21
308.2382665170253
 31
0.0
  0
LINE
  5
5CB
330
18
100
AcDbEntity
  8
4
  6
CENTER
100
AcDbLine
 10
58.62356232601314
 20
338.5382775170254
 30
0.0
 11
58.62356232601314
 21
196.5382625170254
 31
0.0
  0
ARC
  5
5CC
330
18
100
AcDbEntity
  8
1
  6
Continuous
100
AcDbCircle
 10
58.62356232601314
 20
282.1003925170253
 30
0.0
 40
26.637875
100
AcDbArc
 50
30.2958330000002
 51
149.7041679999999
  0
LINE
  5
5CD
330
18
100
AcDbEntity
  8
1
  6
Continuous
100
AcDbLine
 10
85.62356232601315
 20
242.5382625170255
 30
0.0
 11
85.62356232601315
 21
260.5382625170254
 31
0.0
  0
ARC
  5
5CE
330
18
100
AcDbEntity
  8
1
  6
Continuous
100
AcDbCircle
 10
70.67356532601298
 20
251.5382625170254
 30
0.0
 40
17.450001
100
AcDbArc
 50
328.9517630000001
 51
31.04826400000013
  0
LINE
  5
5D7
330
18
100
AcDbEntity
  8
1
  6
Continuous
100
AcDbLine
 10
23.37356532601289
 20
256.5382625170254
 30
0.0
 11
23.37356532601289
 21
246.5382625170255
 31
0.0
  0
ARC
  5
5D8
330
18
100
AcDbEntity
  8
1
  6
Continuous
100
AcDbCircle
 10
18.08189532601295
 20
251.5382695170254
 30
0.0
 40
12.541667
100
AcDbArc
 50
336.9649680000001
 51
23.03503199999988
  0
ARC
  5
5D9
330
18
100
AcDbEntity
  8
1
  6
Continuous
100
AcDbCircle
 10
37.16522932601288
 20
251.5382695170254
 30
0.0
 40
12.541667
100
AcDbArc
 50
156.964968
 51
203.0350319999997
  0
LINE
  5
5DA
330
18
100
AcDbEntity
  8
1
  6
Continuous
100
AcDbLine
 10
24.62356232601303
 20
244.1770385170254
 30
0.0
 11
24.62356232601303
 21
258.8994855170254
 31
0.0
  0
LINE
  5
5DB
330
18
100
AcDbEntity
  8
1
  6
Continuous
100
AcDbLine
 10
30.62356232601302
 20
242.5382625170255
 30
0.0
 11
30.62356232601302
 21
260.5382625170254
 31
0.0
  0
LINE
  5
5DC
330
18
100
AcDbEntity
  8
1
  6
Continuous
100
AcDbLine
 10
22.62356232601303
 20
247.2882625170254
 30
0.0
 11
23.37356532601289
 21
246.5382625170255
 31
0.0
  0
LINE
  5
5E4
330
18
100
AcDbEntity
  8
1
  6
Continuous
100
AcDbLine
 10
25.62356232601302
 20
241.7233005170254
 30
0.0
 11
29.62356232601303
 21
241.7233005170254
 31
0.0
  0
LINE
  5
5E5
330
18
100
AcDbEntity
  8
1
  6
Continuous
100
AcDbLine
 10
25.62356232601302
 20
246.6307925170252
 30
0.0
 11
29.62356232601303
 21
246.6307925170252
 31
0.0
  0
ARC
  5
5E6
330
18
100
AcDbEntity
  8
1
  6
Continuous
100
AcDbCircle
 10
28.1339793260131
 20
244.1770385170254
 30
0.0
 40
3.510416999999999
100
AcDbArc
 50
135.6541439999994
 51
224.3458559999997
  0
LINE
  5
5E7
330
18
100
AcDbEntity
  8
1
  6
Continuous
100
AcDbLine
 10
23.37356532601289
 20
246.5382625170255
 30
0.0
 11
24.62356232601303
 21
246.5382625170255
 31
0.0
  0
LINE
  5
5E9
330
18
100
AcDbEntity
  8
1
  6
Continuous
100
AcDbLine
 10
33.1235623260129
 20
239.5382625170254
 30
0.0
 11
35.62356232601314
 21
239.5382625170254
 31
0.0
  0
ARC
  5
5EA
330
18
100
AcDbEntity
  8
1
  6
Continuous
100
AcDbCircle
 10
27.11314532601295
 20
244.1770385170254
 30
0.0
 40
3.510416999999999
100
AcDbArc
 50
315.6541439999995
 51
44.34585599999985
  0
LINE
  5
5EB
330
18
100
AcDbEntity
  8
1
  6
Continuous
100
AcDbLine
 10
30.62356232601302
 20
242.5382625170255
 30
0.0
 11
33.1235623260129
 21
242.5382625170255
 31
0.0
  0
LINE
  5
5F2
330
18
100
AcDbEntity
  8
1
  6
Continuous
100
AcDbLine
 10
85.62356232601315
 20
242.5382625170255
 30
0.0
 11
84.12356232601302
 21
242.5382625170255
 31
0.0
  0
LINE
  5
5F9
330
18
100
AcDbEntity
  8
1
  6
Continuous
100
AcDbLine
 10
81.6235623260129
 20
239.5382625170254
 30
0.0
 11
84.12356232601302
 21
239.5382625170254
 31
0.0
  0
LINE
  5
5FB
330
18
100
AcDbEntity
  8
4
  6
CENTER
100
AcDbLine
 10
18.62356232601291
 20
251.5382625170254
 30
0.0
 11
92.74840432601299
 21
251.5382625170254
 31
0.0
  0
ARC
  5
601
330
18
100
AcDbEntity
  8
1
  6
Continuous
100
AcDbCircle
 10
71.0402343260132
 20
276.5382625170254
 30
0.0
 40
45.416668
100
AcDbArc
 50
179.999981
 51
199.5329829999995
  0
LINE
  5
602
330
18
100
AcDbEntity
  8
1
  6
Continuous
100
AcDbLine
 10
25.62356232601302
 20
256.4457475170253
 30
0.0
 11
29.62356232601303
 21
256.4457475170253
 31
0.0
  0
LINE
  5
603
330
18
100
AcDbEntity
  8
1
  6
Continuous
100
AcDbLine
 10
25.62356232601302
 20
261.3532245170254
 30
0.0
 11
29.62356232601303
 21
261.3532245170254
 31
0.0
  0
LINE
  5
604
330
18
100
AcDbEntity
  8
1
  6
Continuous
100
AcDbLine
 10
22.62356232601303
 20
255.7882625170253
 30
0.0
 11
22.62356232601303
 21
247.2882625170254
 31
0.0
  0
LINE
  5
605
330
18
100
AcDbEntity
  8
2
  6
Continuous
100
AcDbLine
 10
22.62356232601303
 20
247.2882625170254
 30
0.0
 11
24.62356232601303
 21
247.2882625170254
 31
0.0
  0
LINE
  5
606
330
18
100
AcDbEntity
  8
1
  6
Continuous
100
AcDbLine
 10
22.62356232601303
 20
255.7882625170253
 30
0.0
 11
23.37356532601289
 21
256.5382625170254
 31
0.0
  0
LINE
  5
607
330
18
100
AcDbEntity
  8
2
  6
Continuous
100
AcDbLine
 10
22.62356232601303
 20
255.7882625170253
 30
0.0
 11
24.62356232601303
 21
255.7882625170253
 31
0.0
  0
ARC
  5
608
330
18
100
AcDbEntity
  8
1
  6
Continuous
100
AcDbCircle
 10
28.1339793260131
 20
258.8994855170254
 30
0.0
 40
3.510416999999999
100
AcDbArc
 50
135.6541439999994
 51
224.3458559999997
  0
LINE
  5
609
330
18
100
AcDbEntity
  8
1
  6
Continuous
100
AcDbLine
 10
23.37356532601289
 20
256.5382625170254
 30
0.0
 11
24.62356232601303
 21
256.5382625170254
 31
0.0
  0
ARC
  5
60A
330
18
100
AcDbEntity
  8
1
  6
Continuous
100
AcDbCircle
 10
27.11314532601295
 20
258.8994855170254
 30
0.0
 40
3.510416999999999
100
AcDbArc
 50
315.6541439999995
 51
44.34585599999985
  0
LINE
  5
60B
330
18
100
AcDbEntity
  8
1
  6
Continuous
100
AcDbLine
 10
30.62356232601302
 20
260.5382625170254
 30
0.0
 11
33.1235623260129
 21
260.5382625170254
 31
0.0
  0
LINE
  5
61D
330
18
100
AcDbEntity
  8
1
  6
Continuous
100
AcDbLine
 10
85.62356232601315
 20
260.5382625170254
 30
0.0
 11
84.12356232601302
 21
260.5382625170254
 31
0.0
  0
ARC
  5
622
330
18
100
AcDbEntity
  8
1
  6
Continuous
100
AcDbCircle
 10
46.20689032601307
 20
276.5382625170254
 30
0.0
 40
45.416668
100
AcDbArc
 50
334.5902930000002
 51
0.0000549999998358
  0
LINE
  5
627
330
18
100
AcDbEntity
  8
1
  6
Continuous
100
AcDbLine
 10
13.62356232601302
 20
330.5382775170254
 30
0.0
 11
103.623562326013
 21
330.5382775170254
 31
0.0
  0
LINE
  5
628
330
18
100
AcDbEntity
  8
1
  6
Continuous
100
AcDbLine
 10
13.62356232601302
 20
333.5382775170252
 30
0.0
 11
103.623562326013
 21
333.5382775170252
 31
0.0
  0
LINE
  5
629
330
18
100
AcDbEntity
  8
1
  6
Continuous
100
AcDbLine
 10
13.62356232601302
 20
330.5382775170254
 30
0.0
 11
13.62356232601302
 21
333.5382775170252
 31
0.0
  0
LINE
  5
62C
330
18
100
AcDbEntity
  8
1
  6
Continuous
100
AcDbLine
 10
89.9235503260129
 20
320.5382775170255
 30
0.0
 11
27.32355932601308
 21
320.5382775170255
 31
0.0
  0
LINE
  5
62D
330
18
100
AcDbEntity
  8
1
  6
Continuous
100
AcDbLine
 10
89.12356232601302
 20
319.7382775170253
 30
0.0
 11
28.12356232601302
 21
319.7382775170253
 31
0.0
  0
LINE
  5
62E
330
18
100
AcDbEntity
  8
1
  6
Continuous
100
AcDbLine
 10
26.63671532601302
 20
328.0382775170255
 30
0.0
 11
90.61040932601292
 21
328.0382775170255
 31
0.0
  0
LINE
  5
62F
330
18
100
AcDbEntity
  8
1
  6
Continuous
100
AcDbLine
 10
26.62356232601303
 20
322.6929795170255
 30
0.0
 11
90.62356232601299
 21
322.6929795170255
 31
0.0
  0
LINE
  5
630
330
18
100
AcDbEntity
  8
1
  6
Continuous
100
AcDbLine
 10
28.62356232601303
 20
321.5382775170255
 30
0.0
 11
88.62356232601303
 21
321.5382775170255
 31
0.0
  0
LINE
  5
631
330
18
100
AcDbEntity
  8
1
  6
Continuous
100
AcDbLine
 10
39.62356232601303
 20
314.7382665170253
 30
0.0
 11
77.6235623260129
 21
314.7382665170253
 31
0.0
  0
LINE
  5
632
330
18
100
AcDbEntity
  8
1
  6
Continuous
100
AcDbLine
 10
39.62356232601303
 20
312.2382665170253
 30
0.0
 11
77.6235623260129
 21
312.2382665170253
 31
0.0
  0
LINE
  5
633
330
18
100
AcDbEntity
  8
1
  6
Continuous
100
AcDbLine
 10
36.1594663260131
 20
310.2382665170253
 30
0.0
 11
81.08765832601305
 21
310.2382665170253
 31
0.0
  0
LINE
  5
634
330
18
100
AcDbEntity
  8
1
  6
Continuous
100
AcDbLine
 10
26.62364732601304
 20
322.6929495170255
 30
0.0
 11
28.57283732601297
 21
327.2152425170255
 31
0.0
  0
LINE
  5
635
330
18
100
AcDbEntity
  8
1
  6
Continuous
100
AcDbLine
 10
28.1235743260131
 20
320.5382735170254
 30
0.0
 11
28.96267332601292
 21
321.5382705170253
 31
0.0
  0
ARC
  5
636
330
18
100
AcDbEntity
  8
1
  6
Continuous
100
AcDbCircle
 10
26.12356232601303
 20
316.7382685170254
 30
0.0
 40
2.0
100
AcDbArc
 50
299.999985
 51
0.0000140000001062
  0
ARC
  5
637
330
18
100
AcDbEntity
  8
1
  6
Continuous
100
AcDbCircle
 10
28.62356232601303
 20
312.4081415170254
 30
0.0
 40
3.0
100
AcDbArc
 50
120.0000169999992
 51
179.9999639999999
  0
LINE
  5
638
330
18
100
AcDbEntity
  8
1
  6
Continuous
100
AcDbLine
 10
28.12356232601302
 20
316.7382685170254
 30
0.0
 11
28.12356232601302
 21
317.2382685170254
 31
0.0
  0
ARC
  5
639
330
18
100
AcDbEntity
  8
1
  6
Continuous
100
AcDbCircle
 10
33.62356232601314
 20
317.2382685170254
 30
0.0
 40
5.5
100
AcDbArc
 50
152.9642029514701
 51
179.999978
  0
ARC
  5
63A
330
18
100
AcDbEntity
  8
1
  6
Continuous
100
AcDbCircle
 10
28.12356232601302
 20
320.5382795170255
 30
0.0
 40
0.8
100
AcDbArc
 50
179.9999949999999
 51
270.000032
  0
LINE
  5
63B
330
18
100
AcDbEntity
  8
1
  6
Continuous
100
AcDbLine
 10
28.62358332601319
 20
321.5382755170255
 30
0.0
 11
26.62358332601296
 21
322.6929785170253
 31
0.0
  0
ARC
  5
63C
330
18
100
AcDbEntity
  8
1
  6
Continuous
100
AcDbCircle
 10
39.62356232601303
 20
308.2382665170253
 30
0.0
 40
6.5
100
AcDbArc
 50
90.00000300000015
 51
180.000005
  0
ARC
  5
63D
330
18
100
AcDbEntity
  8
1
  6
Continuous
100
AcDbCircle
 10
39.62356232601303
 20
308.2382665170253
 30
0.0
 40
4.0
100
AcDbArc
 50
90.00000300000015
 51
180.000005
  0
ARC
  5
63E
330
18
100
AcDbEntity
  8
1
  6
Continuous
100
AcDbCircle
 10
33.62356232601314
 20
325.0382795170255
 30
0.0
 40
5.5
100
AcDbArc
 50
146.9442939999995
 51
156.6831330000001
  0
LINE
  5
63F
330
18
100
AcDbEntity
  8
4
  6
CENTER
100
AcDbLine
 10
23.12356232601314
 20
336.5382775170254
 30
0.0
 11
23.12356232601314
 21
327.5382775170255
 31
0.0
  0
LINE
  5
640
330
18
100
AcDbEntity
  8
4
  6
CENTER
100
AcDbLine
 10
24.62356232601303
 20
336.5382775170254
 30
0.0
 11
24.62356232601303
 21
327.5382775170255
 31
0.0
  0
ARC
  5
641
330
18
100
AcDbEntity
  8
1
  6
Continuous
100
AcDbCircle
 10
26.63671532601302
 20
333.5514445170254
 30
0.0
 40
5.513164999999997
100
AcDbArc
 50
213.129964
 51
270.000032
  0
ARC
  5
642
330
18
100
AcDbEntity
  8
1
  6
Continuous
100
AcDbCircle
 10
77.6235623260129
 20
308.2382665170253
 30
0.0
 40
6.5
100
AcDbArc
 50
0.0
 51
90.00000300000015
  0
ARC
  5
643
330
18
100
AcDbEntity
  8
1
  6
Continuous
100
AcDbCircle
 10
77.6235623260129
 20
308.2382665170253
 30
0.0
 40
4.0
100
AcDbArc
 50
0.0
 51
90.00000300000015
  0
LINE
  5
644
330
18
100
AcDbEntity
  8
1
  6
Continuous
100
AcDbLine
 10
90.62356632601291
 20
322.6929725170255
 30
0.0
 11
88.67437932601296
 21
327.2152625170255
 31
0.0
  0
ARC
  5
645
330
18
100
AcDbEntity
  8
1
  6
Continuous
100
AcDbCircle
 10
91.12356232601314
 20
316.7382685170254
 30
0.0
 40
2.0
100
AcDbArc
 50
180.0000219999999
 51
240.0000509999999
  0
ARC
  5
646
330
18
100
AcDbEntity
  8
1
  6
Continuous
100
AcDbCircle
 10
88.62356232601303
 20
312.4081415170254
 30
0.0
 40
3.0
100
AcDbArc
 50
0.0000549999998358
 51
60.00000199999967
  0
ARC
  5
647
330
18
100
AcDbEntity
  8
1
  6
Continuous
100
AcDbCircle
 10
89.12356232601302
 20
320.5382755170255
 30
0.0
 40
0.8
100
AcDbArc
 50
270.000032
 51
0.0000680000001671
  0
LINE
  5
648
330
18
100
AcDbEntity
  8
1
  6
Continuous
100
AcDbLine
 10
88.6235373260132
 20
321.5382655170253
 30
0.0
 11
90.62355132601307
 21
322.6929755170254
 31
0.0
  0
LINE
  5
649
330
18
100
AcDbEntity
  8
1
  6
Continuous
100
AcDbLine
 10
89.12357632601311
 20
320.5382705170253
 30
0.0
 11
88.28446832601299
 21
321.5382805170252
 31
0.0
  0
LINE
  5
64A
330
18
100
AcDbEntity
  8
1
  6
Continuous
100
AcDbLine
 10
89.12356232601302
 20
316.7382645170253
 30
0.0
 11
89.12356232601302
 21
317.2382645170253
 31
0.0
  0
ARC
  5
64B
330
18
100
AcDbEntity
  8
1
  6
Continuous
100
AcDbCircle
 10
83.62356232601312
 20
317.2382645170253
 30
0.0
 40
5.5
100
AcDbArc
 50
0.0000680000001671
 51
27.0358438303907
  0
ARC
  5
64C
330
18
100
AcDbEntity
  8
1
  6
Continuous
100
AcDbCircle
 10
90.61040932601292
 20
333.5514395170253
 30
0.0
 40
5.513164999999997
100
AcDbArc
 50
270.000032
 51
326.8701129999998
  0
LINE
  5
64D
330
18
100
AcDbEntity
  8
4
  6
CENTER
100
AcDbLine
 10
94.12356232601316
 20
336.5382775170254
 30
0.0
 11
94.12356232601323
 21
327.5382775170252
 31
0.0
  0
LINE
  5
64E
330
18
100
AcDbEntity
  8
4
  6
CENTER
100
AcDbLine
 10
92.62356232601314
 20
336.5382775170254
 30
0.0
 11
92.62356232601314
 21
327.5382775170255
 31
0.0
  0
ARC
  5
64F
330
18
100
AcDbEntity
  8
1
  6
Continuous
100
AcDbCircle
 10
83.62356232601312
 20
325.0382755170255
 30
0.0
 40
5.5
100
AcDbArc
 50
23.31691300000007
 51
33.05575200000024
  0
LINE
  5
650
330
18
100
AcDbEntity
  8
1
  6
Continuous
100
AcDbLine
 10
103.623562326013
 20
330.5382775170254
 30
0.0
 11
103.623562326013
 21
333.5382775170252
 31
0.0
  0
LINE
  5
651
330
18
100
AcDbEntity
  8
4
  6
CENTER
 48
0.5
100
AcDbLine
 10
275.0425593473786
 20
338.5382775170254
 30
0.0
 11
275.0425593473786
 21
296.1361625170253
 31
0.0
  0
LINE
  5
652
330
18
100
AcDbEntity
  8
1
  6
Continuous
100
AcDbLine
 10
235.2005683473787
 20
313.0812585170255
 30
0.0
 11
228.1247613473786
 21
252.9404385170254
 31
0.0
  0
LINE
  5
653
330
18
100
AcDbEntity
  8
1
  6
Continuous
100
AcDbLine
 10
252.0425593473786
 20
249.9637915170255
 30
0.0
 11
252.0425593473786
 21
313.9350615170254
 31
0.0
  0
ARC
  5
655
330
18
100
AcDbEntity
  8
1
  6
Continuous
100
AcDbCircle
 10
240.0425593473787
 20
251.5382695170254
 30
0.0
 40
12.0
100
AcDbArc
 50
173.2897679999999
 51
318.3819459999996
  0
CIRCLE
  5
656
330
18
100
AcDbEntity
  8
1
  6
Continuous
100
AcDbCircle
 10
240.0425593473787
 20
251.5382695170254
 30
0.0
 40
9.0
  0
LINE
  5
657
330
18
100
AcDbEntity
  8
4
  6
CENTER
100
AcDbLine
 10
240.0425593473787
 20
306.5382695170253
 30
0.0
 11
240.0425593473787
 21
196.5382695170255
 31
0.0
  0
ARC
  5
665
330
18
100
AcDbEntity
  8
1
  6
Continuous
100
AcDbCircle
 10
243.0557243473784
 20
333.5514425170253
 30
0.0
 40
5.513164999999997
100
AcDbArc
 50
213.1299369999997
 51
270.0000179999999
  0
LINE
  5
666
330
18
100
AcDbEntity
  8
1
  6
Continuous
100
AcDbLine
 10
234.0425593473787
 20
314.7382665170253
 30
0.0
 11
250.3063953473785
 21
314.7382665170253
 31
0.0
  0
ARC
  5
667
330
18
100
AcDbEntity
  8
1
  6
Continuous
100
AcDbCircle
 10
233.9180083473788
 20
310.7382665170253
 30
0.0
 40
1.0
100
AcDbArc
 50
353.289772
 51
82.84516500000027
  0
LINE
  5
668
330
18
100
AcDbEntity
  8
1
  6
Continuous
100
AcDbLine
 10
234.0425593473787
 20
311.7382665170253
 30
0.0
 11
234.0425593473787
 21
314.7382665170253
 31
0.0
  0
ARC
  5
669
330
18
100
AcDbEntity
  8
1
  6
Continuous
100
AcDbCircle
 10
233.6903043473788
 20
313.2589475170253
 30
0.0
 40
1.520680999999999
100
AcDbArc
 50
353.289772
 51
76.60617900000009
  0
LINE
  5
66A
330
18
100
AcDbEntity
  8
1
  6
Continuous
100
AcDbLine
 10
230.0425593473787
 20
330.5382775170254
 30
0.0
 11
230.0425593473787
 21
333.5382775170252
 31
0.0
  0
LINE
  5
66B
330
18
100
AcDbEntity
  8
1
  6
Continuous
100
AcDbLine
 10
243.0425593473787
 20
322.6929795170255
 30
0.0
 11
307.0425623473787
 21
322.6929795170255
 31
0.0
  0
LINE
  5
66C
330
18
100
AcDbEntity
  8
1
  6
Continuous
100
AcDbLine
 10
243.0557243473784
 20
328.0382775170255
 30
0.0
 11
307.0293983473786
 21
328.0382775170255
 31
0.0
  0
LINE
  5
66D
330
18
100
AcDbEntity
  8
1
  6
Continuous
100
AcDbLine
 10
243.7425603473789
 20
320.5382775170255
 30
0.0
 11
306.3425593473787
 21
320.5382775170255
 31
0.0
  0
LINE
  5
66E
330
18
100
AcDbEntity
  8
1
  6
Continuous
100
AcDbLine
 10
245.0425593473787
 20
321.5382775170255
 30
0.0
 11
305.0425623473786
 21
321.5382775170254
 31
0.0
  0
LINE
  5
66F
330
18
100
AcDbEntity
  8
1
  6
Continuous
100
AcDbLine
 10
244.5425593473787
 20
319.7382775170253
 30
0.0
 11
305.5425593473787
 21
319.7382775170253
 31
0.0
  0
LINE
  5
670
330
18
100
AcDbEntity
  8
1
  6
Continuous
100
AcDbLine
 10
243.0425583473788
 20
322.6929805170253
 30
0.0
 11
244.9917453473787
 21
327.2152695170253
 31
0.0
  0
ARC
  5
671
330
18
100
AcDbEntity
  8
1
  6
Continuous
100
AcDbCircle
 10
250.3063953473785
 20
316.7382665170253
 30
0.0
 40
2.0
100
AcDbArc
 50
270.0
 51
345.3774809999999
  0
ARC
  5
672
330
18
100
AcDbEntity
  8
1
  6
Continuous
100
AcDbCircle
 10
242.5425593473787
 20
316.7382665170253
 30
0.0
 40
2.0
100
AcDbArc
 50
269.9999969999999
 51
0.0
  0
ARC
  5
673
330
18
100
AcDbEntity
  8
1
  6
Continuous
100
AcDbCircle
 10
250.5425593473787
 20
316.7382665170253
 30
0.0
 40
6.0
100
AcDbArc
 50
149.9998840000001
 51
180.000005
  0
LINE
  5
674
330
18
100
AcDbEntity
  8
1
  6
Continuous
100
AcDbLine
 10
244.5425593473787
 20
320.5382775170255
 30
0.0
 11
245.3816593473785
 21
321.5382775170255
 31
0.0
  0
LINE
  5
675
330
18
100
AcDbEntity
  8
1
  6
Continuous
100
AcDbLine
 10
245.0425603473787
 20
321.5382775170255
 30
0.0
 11
243.0425593473787
 21
322.6929795170255
 31
0.0
  0
ARC
  5
676
330
18
100
AcDbEntity
  8
1
  6
Continuous
100
AcDbCircle
 10
244.5425593473787
 20
320.5382775170255
 30
0.0
 40
0.8
100
AcDbArc
 50
179.999981
 51
270.0000179999999
  0
LINE
  5
677
330
18
100
AcDbEntity
  8
4
  6
CENTER
100
AcDbLine
 10
241.0425593473787
 20
336.5382775170254
 30
0.0
 11
241.0425593473787
 21
327.5382775170255
 31
0.0
  0
LINE
  5
678
330
18
100
AcDbEntity
  8
4
  6
CENTER
100
AcDbLine
 10
239.5425593473788
 20
336.5382775170254
 30
0.0
 11
239.5425593473788
 21
327.5382775170255
 31
0.0
  0
ARC
  5
679
330
18
100
AcDbEntity
  8
1
  6
Continuous
100
AcDbCircle
 10
250.0425593473786
 20
325.0382775170255
 30
0.0
 40
5.5
100
AcDbArc
 50
146.9442800000001
 51
156.683119
  0
LINE
  5
687
330
18
100
AcDbEntity
  8
1
  6
Continuous
100
AcDbLine
 10
230.0425593473787
 20
497.7990329246323
 30
0.0
 11
230.0425593473787
 21
427.799032924632
 31
0.0
  0
ARC
  5
688
330
18
100
AcDbEntity
  8
1
  6
Continuous
100
AcDbCircle
 10
241.0425593473787
 20
428.7990329246321
 30
0.0
 40
5.5
100
AcDbArc
 50
314.9999989999999
 51
135.0000000000002
  0
LINE
  5
689
330
18
100
AcDbEntity
  8
4
  6
CENTER
100
AcDbLine
 10
248.5425593473787
 20
428.7990329246321
 30
0.0
 11
233.5425593473786
 21
428.7990329246321
 31
0.0
  0
LINE
  5
68A
330
18
100
AcDbEntity
  8
4
  6
CENTER
100
AcDbLine
 10
247.0425593473787
 20
427.299032924632
 30
0.0
 11
232.0425593473787
 21
427.299032924632
 31
0.0
  0
LINE
  5
68C
330
18
100
AcDbEntity
  8
1
  6
Continuous
100
AcDbLine
 10
235.6534733473788
 20
431.1881219246322
 30
0.0
 11
237.1534693473785
 21
432.6881179246321
 31
0.0
  0
LINE
  5
68D
330
18
100
AcDbEntity
  8
1
  6
Continuous
100
AcDbLine
 10
230.0425593473787
 20
437.2990329246321
 30
0.0
 11
227.5425593473787
 21
437.2990329246321
 31
0.0
  0
LINE
  5
68E
330
18
100
AcDbEntity
  8
1
  6
Continuous
100
AcDbLine
 10
230.0425593473787
 20
439.799032924632
 30
0.0
 11
227.5425593473787
 21
439.799032924632
 31
0.0
  0
LINE
  5
68F
330
18
100
AcDbEntity
  8
1
  6
Continuous
100
AcDbLine
 10
227.5425593473787
 20
437.2990329246321
 30
0.0
 11
227.5425593473787
 21
439.799032924632
 31
0.0
  0
LINE
  5
691
330
18
100
AcDbEntity
  8
4
  6
CENTER
100
AcDbLine
 10
241.0425593473787
 20
436.2990329246321
 30
0.0
 11
241.0425593473787
 21
421.2990329246323
 31
0.0
  0
LINE
  5
692
330
18
100
AcDbEntity
  8
1
  6
Continuous
100
AcDbLine
 10
243.4316503473785
 20
423.4099449246322
 30
0.0
 11
244.9316463473786
 21
424.9099409246321
 31
0.0
  0
LINE
  5
693
330
18
100
AcDbEntity
  8
4
  6
CENTER
100
AcDbLine
 10
248.5425593473787
 20
496.7990329246323
 30
0.0
 11
233.5425593473786
 21
496.7990329246323
 31
0.0
  0
ARC
  5
694
330
18
100
AcDbEntity
  8
1
  6
Continuous
100
AcDbCircle
 10
241.0425593473787
 20
496.7990329246323
 30
0.0
 40
5.5
100
AcDbArc
 50
224.9999999999996
 51
45.00000100000007
  0
LINE
  5
695
330
18
100
AcDbEntity
  8
4
  6
CENTER
100
AcDbLine
 10
247.0425593473787
 20
498.2990329246323
 30
0.0
 11
232.0425593473787
 21
498.2990329246323
 31
0.0
  0
ARC
  5
696
330
18
100
AcDbEntity
  8
1
  6
Continuous
100
AcDbCircle
 10
239.5425593473786
 20
498.2990329246323
 30
0.0
 40
5.5
100
AcDbArc
 50
45.00000100000007
 51
224.999996
  0
ARC
  5
697
330
18
100
AcDbEntity
  8
1
  6
Continuous
100
AcDbCircle
 10
240.0425593473787
 20
497.7990329246323
 30
0.0
 40
10.0
100
AcDbArc
 50
90.00000300000015
 51
180.000005
  0
LINE
  5
698
330
18
100
AcDbEntity
  8
1
  6
Continuous
100
AcDbLine
 10
230.0425593473787
 20
488.2990329246323
 30
0.0
 11
227.5425593473787
 21
488.2990329246323
 31
0.0
  0
LINE
  5
699
330
18
100
AcDbEntity
  8
1
  6
Continuous
100
AcDbLine
 10
230.0425593473787
 20
485.799032924632
 30
0.0
 11
227.5425593473787
 21
485.799032924632
 31
0.0
  0
LINE
  5
69A
330
18
100
AcDbEntity
  8
1
  6
Continuous
100
AcDbLine
 10
227.5425593473787
 20
488.2990329246323
 30
0.0
 11
227.5425593473787
 21
485.799032924632
 31
0.0
  0
LINE
  5
69B
330
18
100
AcDbEntity
  8
1
  6
Continuous
100
AcDbLine
 10
235.6534733473788
 20
494.4099469246323
 30
0.0
 11
237.1534743473788
 21
492.9099459246323
 31
0.0
  0
LINE
  5
69D
330
18
100
AcDbEntity
  8
4
  6
CENTER
100
AcDbLine
 10
239.5425593473786
 20
490.7990329246323
 30
0.0
 11
239.5425593473786
 21
505.7990329246323
 31
0.0
  0
LINE
  5
69E
330
18
100
AcDbEntity
  8
4
  6
CENTER
100
AcDbLine
 10
241.0425593473787
 20
489.2990329246321
 30
0.0
 11
241.0425593473787
 21
504.2990329246323
 31
0.0
  0
LINE
  5
69F
330
18
100
AcDbEntity
  8
1
  6
Continuous
100
AcDbLine
 10
243.4316473473785
 20
502.1881219246323
 30
0.0
 11
244.9316493473786
 21
500.6881199246323
 31
0.0
  0
LINE
  5
6A5
330
18
100
AcDbEntity
  8
1
  6
Continuous
100
AcDbLine
 10
320.0425593473787
 20
55.27750610941859
 30
0.0
 11
320.0425593473787
 21
125.2775061094185
 31
0.0
  0
LINE
  5
6A6
330
18
100
AcDbEntity
  8
1
  6
Continuous
100
AcDbLine
 10
306.6534673473786
 20
50.88842310941849
 30
0.0
 11
305.1534653473787
 21
52.38842410941851
 31
0.0
  0
LINE
  5
6A7
330
18
100
AcDbEntity
  8
4
  6
CENTER
100
AcDbLine
 10
303.0425593473787
 20
54.77750610941853
 30
0.0
 11
318.0425593473787
 21
54.77750610941853
 31
0.0
  0
LINE
  5
6A8
330
18
100
AcDbEntity
  8
4
  6
CENTER
100
AcDbLine
 10
301.5425593473787
 20
56.27750610941853
 30
0.0
 11
316.5425593473786
 21
56.27750610941853
 31
0.0
  0
ARC
  5
6A9
330
18
100
AcDbEntity
  8
1
  6
Continuous
100
AcDbCircle
 10
309.0425593473787
 20
56.27750610941853
 30
0.0
 40
5.5
100
AcDbArc
 50
45.00000799999958
 51
224.9999999999996
  0
ARC
  5
6AA
330
18
100
AcDbEntity
  8
1
  6
Continuous
100
AcDbCircle
 10
310.5425593473786
 20
54.77750610941853
 30
0.0
 40
5.5
100
AcDbArc
 50
224.9999999999996
 51
45.0000010000001
  0
LINE
  5
6AB
330
18
100
AcDbEntity
  8
4
  6
CENTER
100
AcDbLine
 10
310.5425593473786
 20
62.2775061094186
 30
0.0
 11
310.5425593473786
 21
47.2775061094186
 31
0.0
  0
LINE
  5
6AC
330
18
100
AcDbEntity
  8
4
  6
CENTER
100
AcDbLine
 10
309.0425593473787
 20
63.77750610941859
 30
0.0
 11
309.0425593473787
 21
48.77750610941859
 31
0.0
  0
ARC
  5
6AD
330
18
100
AcDbEntity
  8
1
  6
Continuous
100
AcDbCircle
 10
310.0425593473786
 20
55.27750610941859
 30
0.0
 40
10.0
100
AcDbArc
 50
269.9999969999999
 51
0.0
  0
LINE
  5
6AE
330
18
100
AcDbEntity
  8
1
  6
Continuous
100
AcDbLine
 10
314.4316443473786
 20
58.66660010941842
 30
0.0
 11
312.9316433473786
 21
60.16660110941853
 31
0.0
  0
ARC
  5
6AF
330
18
100
AcDbEntity
  8
1
  6
Continuous
100
AcDbCircle
 10
310.0425593473786
 20
125.2775061094185
 30
0.0
 40
10.0
100
AcDbArc
 50
0.0
 51
90.00000300000015
  0
LINE
  5
6B5
330
18
100
AcDbEntity
  8
1
  6
Continuous
100
AcDbLine
 10
306.6534743473786
 20
129.6665931094186
 30
0.0
 11
305.1534743473788
 21
128.1665931094186
 31
0.0
  0
ARC
  5
6B6
330
18
100
AcDbEntity
  8
1
  6
Continuous
100
AcDbCircle
 10
310.5425593473786
 20
125.7775061094186
 30
0.0
 40
5.5
100
AcDbArc
 50
314.9999989999999
 51
135.0000000000002
  0
LINE
  5
6B7
330
18
100
AcDbEntity
  8
4
  6
CENTER
100
AcDbLine
 10
303.0425593473787
 20
125.7775061094186
 30
0.0
 11
318.0425593473787
 21
125.7775061094186
 31
0.0
  0
LINE
  5
6B8
330
18
100
AcDbEntity
  8
4
  6
CENTER
100
AcDbLine
 10
301.5425593473787
 20
124.2775061094185
 30
0.0
 11
316.5425593473786
 21
124.2775061094185
 31
0.0
  0
ARC
  5
6B9
330
18
100
AcDbEntity
  8
1
  6
Continuous
100
AcDbCircle
 10
309.0425593473787
 20
124.2775061094185
 30
0.0
 40
5.5
100
AcDbArc
 50
135.0000039999999
 51
314.9999989999999
  0
LINE
  5
6BA
330
18
100
AcDbEntity
  8
4
  6
CENTER
100
AcDbLine
 10
309.0425593473787
 20
116.7775061094185
 30
0.0
 11
309.0425593473787
 21
131.7775061094185
 31
0.0
  0
LINE
  5
6BB
330
18
100
AcDbEntity
  8
4
  6
CENTER
100
AcDbLine
 10
310.5425593473786
 20
118.2775061094186
 30
0.0
 11
310.5425593473786
 21
133.2775061094185
 31
0.0
  0
LINE
  5
6BC
330
18
100
AcDbEntity
  8
1
  6
Continuous
100
AcDbLine
 10
314.4316483473786
 20
121.8884181094185
 30
0.0
 11
312.9316483473786
 21
120.3884181094185
 31
0.0
  0
LINE
  5
6C4
330
18
100
AcDbEntity
  8
1
  6
Continuous
100
AcDbLine
 10
624.3470743901098
 20
299.3564235170253
 30
0.0
 11
673.9094823901098
 21
243.5683305170253
 31
0.0
  0
LINE
  5
6C5
330
18
100
AcDbEntity
  8
4
  6
CENTER
100
AcDbLine
 10
737.88055339011
 20
251.5382695170254
 30
0.0
 11
627.8805533901097
 21
251.5382695170254
 31
0.0
  0
LINE
  5
6C9
330
18
100
AcDbEntity
  8
1
  6
Continuous
100
AcDbLine
 10
692.8805533901098
 20
330.5382775170254
 30
0.0
 11
602.8805533901097
 21
330.5382775170254
 31
0.0
  0
LINE
  5
6CA
330
18
100
AcDbEntity
  8
1
  6
Continuous
100
AcDbLine
 10
692.8805533901098
 20
333.5382775170252
 30
0.0
 11
602.8805533901097
 21
333.5382775170252
 31
0.0
  0
LINE
  5
6CC
330
18
100
AcDbEntity
  8
4
  6
CENTER
100
AcDbLine
 10
310.5425593473786
 20
434.7990329246322
 30
0.0
 11
310.5425593473786
 21
419.7990329246321
 31
0.0
  0
ARC
  5
6CD
330
18
100
AcDbEntity
  8
1
  6
Continuous
100
AcDbCircle
 10
310.0425593473786
 20
427.799032924632
 30
0.0
 40
10.0
100
AcDbArc
 50
269.9999969999999
 51
0.0
  0
LINE
  5
6D3
330
18
100
AcDbEntity
  8
1
  6
Continuous
100
AcDbLine
 10
506.4615563687445
 20
333.5382775170252
 30
0.0
 11
416.4615563687442
 21
333.5382775170252
 31
0.0
  0
LINE
  5
6D4
330
18
100
AcDbEntity
  8
1
  6
Continuous
100
AcDbLine
 10
506.4615563687445
 20
330.5382775170254
 30
0.0
 11
416.4615563687442
 21
330.5382775170254
 31
0.0
  0
LINE
  5
6D6
330
18
100
AcDbEntity
  8
4
  6
CENTER
100
AcDbLine
 10
501.4615563687446
 20
251.5382625170254
 30
0.0
 11
427.3367143687443
 21
251.5382625170254
 31
0.0
  0
LINE
  5
6D9
330
18
100
AcDbEntity
  8
1
  6
Continuous
100
AcDbLine
 10
491.4615563687442
 20
321.5382775170255
 30
0.0
 11
431.4615563687445
 21
321.5382775170255
 31
0.0
  0
LINE
  5
6DA
330
18
100
AcDbEntity
  8
1
  6
Continuous
100
AcDbLine
 10
493.4615563687445
 20
322.6929795170255
 30
0.0
 11
429.4615563687442
 21
322.6929795170255
 31
0.0
  0
LINE
  5
6DB
330
18
100
AcDbEntity
  8
1
  6
Continuous
100
AcDbLine
 10
493.4484033687445
 20
328.0382775170255
 30
0.0
 11
429.4747093687446
 21
328.0382775170255
 31
0.0
  0
LINE
  5
6DC
330
18
100
AcDbEntity
  8
1
  6
Continuous
100
AcDbLine
 10
430.9615563687445
 20
319.7382775170253
 30
0.0
 11
491.9615563687442
 21
319.7382775170253
 31
0.0
  0
LINE
  5
6DD
330
18
100
AcDbEntity
  8
1
  6
Continuous
100
AcDbLine
 10
430.1615683687447
 20
320.5382775170255
 30
0.0
 11
492.7615593687442
 21
320.5382775170255
 31
0.0
  0
ARC
  5
6DE
330
18
100
AcDbEntity
  8
1
  6
Continuous
100
AcDbCircle
 10
328.4727653473787
 20
272.7822695170254
 30
0.0
 40
40.0
100
AcDbArc
 50
119.0849489999997
 51
138.381955
  0
ARC
  5
6DF
330
18
100
AcDbEntity
  8
1
  6
Continuous
100
AcDbCircle
 10
299.0425593473787
 20
308.2677295170253
 30
0.0
 40
10.0
100
AcDbArc
 50
356.9649819999999
 51
44.90052600000036
  0
LINE
  5
6E0
330
18
100
AcDbEntity
  8
1
  6
Continuous
100
AcDbLine
 10
428.4615563687443
 20
276.5382625170254
 30
0.0
 11
428.4615563687443
 21
312.4081415170254
 31
0.0
  0
LINE
  5
6E4
330
18
100
AcDbEntity
  8
1
  6
Continuous
100
AcDbLine
 10
438.4615563687446
 20
239.5382625170254
 30
0.0
 11
438.4615563687445
 21
295.5382672927902
 31
0.0
  0
LINE
  5
6E7
330
18
100
AcDbEntity
  8
1
  6
Continuous
100
AcDbLine
 10
434.4615563687441
 20
242.5382625170255
 30
0.0
 11
434.4615563687441
 21
253.9772408055284
 31
0.0
  0
LINE
  5
6E8
330
18
100
AcDbEntity
  8
1
  6
Continuous
100
AcDbLine
 10
435.9615563687444
 20
239.5382625170254
 30
0.0
 11
435.9615563687444
 21
250.7991930570259
 31
0.0
  0
ARC
  5
6E9
330
18
100
AcDbEntity
  8
1
  6
Continuous
100
AcDbCircle
 10
449.4115533687445
 20
251.5382625170254
 30
0.0
 40
17.450001
100
AcDbArc
 50
161.5855866669276
 51
211.0482369999997
  0
LINE
  5
6EE
330
18
100
AcDbEntity
  8
1
  6
Continuous
100
AcDbLine
 10
434.4615563687441
 20
242.5382625170255
 30
0.0
 11
435.9615563687444
 21
242.5382625170255
 31
0.0
  0
LINE
  5
6EF
330
18
100
AcDbEntity
  8
1
  6
Continuous
100
AcDbLine
 10
438.4615563687446
 20
239.5382625170254
 30
0.0
 11
435.9615563687444
 21
239.5382625170254
 31
0.0
  0
ARC
  5
6F7
330
18
100
AcDbEntity
  8
1
  6
Continuous
100
AcDbCircle
 10
473.8782283687442
 20
276.5382625170254
 30
0.0
 40
45.416668
100
AcDbArc
 50
179.999945
 51
212.4907317984118
  0
ARC
  5
6F8
330
18
100
AcDbEntity
  8
1
  6
Continuous
100
AcDbCircle
 10
473.8782283687442
 20
276.5382625170254
 30
0.0
 40
42.916668
100
AcDbArc
 50
179.999945
 51
212.4907317984118
  0
ARC
  5
6F9
330
18
100
AcDbEntity
  8
1
  6
Continuous
100
AcDbCircle
 10
433.4615563687446
 20
250.7991930570259
 30
0.0
 40
5.0
100
AcDbArc
 50
0.0
 51
32.49073179841166
  0
ARC
  5
6FA
330
18
100
AcDbEntity
  8
1
  6
Continuous
100
AcDbCircle
 10
433.4615563687446
 20
250.7991930570259
 30
0.0
 40
2.5
100
AcDbArc
 50
0.0
 51
32.49073179841227
  0
LINE
  5
702
330
18
100
AcDbEntity
  8
1
  6
Continuous
100
AcDbLine
 10
305.0425623473786
 20
321.5382775170255
 30
0.0
 11
307.0425623473787
 21
322.6929795170255
 31
0.0
  0
ARC
  5
703
330
18
100
AcDbEntity
  8
1
  6
Continuous
100
AcDbCircle
 10
305.5425593473787
 20
320.5382775170255
 30
0.0
 40
0.8
100
AcDbArc
 50
270.0000179999999
 51
0.0000549999998358
  0
ARC
  5
704
330
18
100
AcDbEntity
  8
1
  6
Continuous
100
AcDbCircle
 10
307.5425593473787
 20
316.7382665170253
 30
0.0
 40
2.0
100
AcDbArc
 50
179.9999909999999
 51
224.9005209999996
  0
LINE
  5
705
330
18
100
AcDbEntity
  8
1
  6
Continuous
100
AcDbLine
 10
307.0425623473787
 20
322.6929785170253
 30
0.0
 11
305.0933743473787
 21
327.2152675170254
 31
0.0
  0
ARC
  5
706
330
18
100
AcDbEntity
  8
1
  6
Continuous
100
AcDbCircle
 10
299.5425593473786
 20
316.7382665170253
 30
0.0
 40
6.0
100
AcDbArc
 50
0.0
 51
30.00011599999993
  0
LINE
  5
707
330
18
100
AcDbEntity
  8
1
  6
Continuous
100
AcDbLine
 10
305.5425573473787
 20
320.5382735170254
 30
0.0
 11
304.7034543473788
 21
321.5382775170255
 31
0.0
  0
ARC
  5
708
330
18
100
AcDbEntity
  8
1
  6
Continuous
100
AcDbCircle
 10
300.0425593473786
 20
325.0382775170255
 30
0.0
 40
5.5
100
AcDbArc
 50
23.31689999999972
 51
33.05573900000013
  0
LINE
  5
709
330
18
100
AcDbEntity
  8
4
  6
CENTER
100
AcDbLine
 10
310.5425593473786
 20
336.5382775170254
 30
0.0
 11
310.5425593473786
 21
327.5382775170252
 31
0.0
  0
LINE
  5
70A
330
18
100
AcDbEntity
  8
4
  6
CENTER
100
AcDbLine
 10
309.0425593473787
 20
336.5382775170254
 30
0.0
 11
309.0425593473787
 21
327.5382775170255
 31
0.0
  0
ARC
  5
70B
330
18
100
AcDbEntity
  8
1
  6
Continuous
100
AcDbCircle
 10
307.0293983473786
 20
333.5514425170253
 30
0.0
 40
5.513164999999997
100
AcDbArc
 50
270.0000179999999
 51
326.8700990000001
  0
LINE
  5
70C
330
18
100
AcDbEntity
  8
1
  6
Continuous
100
AcDbLine
 10
320.0425593473787
 20
330.5382775170254
 30
0.0
 11
320.0425593473787
 21
333.5382775170252
 31
0.0
  0
LINE
  5
70D
330
18
100
AcDbEntity
  8
1
  6
Continuous
100
AcDbLine
 10
416.4615563687442
 20
330.5382775170254
 30
0.0
 11
416.4615563687442
 21
333.5382775170252
 31
0.0
  0
LINE
  5
70E
330
18
100
AcDbEntity
  8
1
  6
Continuous
100
AcDbLine
 10
429.4615523687446
 20
322.6929725170255
 30
0.0
 11
431.4107393687445
 21
327.2152625170255
 31
0.0
  0
ARC
  5
70F
330
18
100
AcDbEntity
  8
1
  6
Continuous
100
AcDbCircle
 10
428.9615563687442
 20
316.7382685170254
 30
0.0
 40
2.0
100
AcDbArc
 50
299.999949
 51
359.999978
  0
ARC
  5
710
330
18
100
AcDbEntity
  8
1
  6
Continuous
100
AcDbCircle
 10
431.4615563687445
 20
312.4081415170254
 30
0.0
 40
3.0
100
AcDbArc
 50
119.9999980000003
 51
179.999945
  0
LINE
  5
711
330
18
100
AcDbEntity
  8
1
  6
Continuous
100
AcDbLine
 10
430.9615423687445
 20
320.5382705170253
 30
0.0
 11
431.8006503687445
 21
321.5382805170252
 31
0.0
  0
ARC
  5
712
330
18
100
AcDbEntity
  8
1
  6
Continuous
100
AcDbCircle
 10
436.4615563687443
 20
317.2382645170253
 30
0.0
 40
5.5
100
AcDbArc
 50
152.9641561696093
 51
179.9999319999997
  0
ARC
  5
713
330
18
100
AcDbEntity
  8
1
  6
Continuous
100
AcDbCircle
 10
430.9615563687445
 20
320.5382755170255
 30
0.0
 40
0.8
100
AcDbArc
 50
179.9999319999997
 51
269.9999679999998
  0
LINE
  5
714
330
18
100
AcDbEntity
  8
1
  6
Continuous
100
AcDbLine
 10
430.9615563687445
 20
316.7382645170253
 30
0.0
 11
430.9615563687445
 21
317.2382645170253
 31
0.0
  0
LINE
  5
715
330
18
100
AcDbEntity
  8
1
  6
Continuous
100
AcDbLine
 10
431.4615813687443
 20
321.5382655170253
 30
0.0
 11
429.4615673687443
 21
322.6929755170254
 31
0.0
  0
ARC
  5
716
330
18
100
AcDbEntity
  8
1
  6
Continuous
100
AcDbCircle
 10
429.4747093687446
 20
333.5514395170253
 30
0.0
 40
5.513164999999997
100
AcDbArc
 50
213.1298870000001
 51
269.9999679999998
  0
LINE
  5
717
330
18
100
AcDbEntity
  8
4
  6
CENTER
100
AcDbLine
 10
425.9615563687441
 20
336.5382775170254
 30
0.0
 11
425.9615563687441
 21
327.5382775170252
 31
0.0
  0
LINE
  5
718
330
18
100
AcDbEntity
  8
4
  6
CENTER
100
AcDbLine
 10
427.4615563687444
 20
336.5382775170254
 30
0.0
 11
427.4615563687444
 21
327.5382775170255
 31
0.0
  0
ARC
  5
719
330
18
100
AcDbEntity
  8
1
  6
Continuous
100
AcDbCircle
 10
436.4615563687443
 20
325.0382755170255
 30
0.0
 40
5.5
100
AcDbArc
 50
146.9442479999997
 51
156.6830869999999
  0
ARC
  5
71A
330
18
100
AcDbEntity
  8
1
  6
Continuous
100
AcDbCircle
 10
623.88055339011
 20
308.2677295170253
 30
0.0
 40
10.0
100
AcDbArc
 50
135.0994739999995
 51
183.035018
  0
ARC
  5
71B
330
18
100
AcDbEntity
  8
1
  6
Continuous
100
AcDbCircle
 10
594.4503473901098
 20
272.7822695170254
 30
0.0
 40
40.0
100
AcDbArc
 50
41.61804499999994
 51
60.91505100000029
  0
LINE
  5
71D
330
18
100
AcDbEntity
  8
1
  6
Continuous
100
AcDbLine
 10
494.4615563687444
 20
276.5382625170254
 30
0.0
 11
494.4615563687444
 21
312.4081415170254
 31
0.0
  0
LINE
  5
71F
330
18
100
AcDbEntity
  8
4
  6
CENTER
100
AcDbLine
 10
461.4615563687443
 20
338.5382775170254
 30
0.0
 11
461.4615563687443
 21
196.5382625170254
 31
0.0
  0
LINE
  5
723
330
18
100
AcDbEntity
  8
1
  6
Continuous
100
AcDbLine
 10
484.4615563687441
 20
239.5382625170254
 30
0.0
 11
484.4615563687441
 21
295.5382602996053
 31
0.0
  0
LINE
  5
726
330
18
100
AcDbEntity
  8
1
  6
Continuous
100
AcDbLine
 10
489.4615563687445
 20
242.5382625170255
 30
0.0
 11
489.4615563687445
 21
255.821931841285
 31
0.0
  0
LINE
  5
727
330
18
100
AcDbEntity
  8
1
  6
Continuous
100
AcDbLine
 10
495.4615563687442
 20
244.1770385170254
 30
0.0
 11
495.4615563687442
 21
258.8994855170254
 31
0.0
  0
ARC
  5
728
330
18
100
AcDbEntity
  8
1
  6
Continuous
100
AcDbCircle
 10
482.9198893687446
 20
251.5382695170254
 30
0.0
 40
12.541667
100
AcDbArc
 50
336.9649680000001
 51
23.03503199999989
  0
ARC
  5
729
330
18
100
AcDbEntity
  8
1
  6
Continuous
100
AcDbCircle
 10
502.0032233687445
 20
251.5382695170254
 30
0.0
 40
12.541667
100
AcDbArc
 50
156.964968
 51
203.0350319999999
  0
LINE
  5
72A
330
18
100
AcDbEntity
  8
1
  6
Continuous
100
AcDbLine
 10
496.7115533687445
 20
256.5382625170254
 30
0.0
 11
496.7115533687445
 21
246.5382625170255
 31
0.0
  0
LINE
  5
72B
330
18
100
AcDbEntity
  8
1
  6
Continuous
100
AcDbLine
 10
486.9615563687443
 20
239.5382625170254
 30
0.0
 11
486.9615563687443
 21
250.7991930570266
 31
0.0
  0
LINE
  5
72C
330
18
100
AcDbEntity
  8
1
  6
Continuous
100
AcDbLine
 10
497.4615563687445
 20
247.2882625170254
 30
0.0
 11
496.7115533687445
 21
246.5382625170255
 31
0.0
  0
LINE
  5
734
330
18
100
AcDbEntity
  8
1
  6
Continuous
100
AcDbLine
 10
494.4615563687444
 20
241.7233005170254
 30
0.0
 11
490.4615563687444
 21
241.7233005170254
 31
0.0
  0
LINE
  5
735
330
18
100
AcDbEntity
  8
1
  6
Continuous
100
AcDbLine
 10
494.4615563687444
 20
246.6307925170252
 30
0.0
 11
490.4615563687444
 21
246.6307925170252
 31
0.0
  0
LINE
  5
736
330
18
100
AcDbEntity
  8
1
  6
Continuous
100
AcDbLine
 10
489.4615563687445
 20
242.5382625170255
 30
0.0
 11
486.9615563687443
 21
242.5382625170255
 31
0.0
  0
LINE
  5
737
330
18
100
AcDbEntity
  8
1
  6
Continuous
100
AcDbLine
 10
486.9615563687443
 20
239.5382625170254
 30
0.0
 11
484.4615563687441
 21
239.5382625170254
 31
0.0
  0
ARC
  5
73A
330
18
100
AcDbEntity
  8
1
  6
Continuous
100
AcDbCircle
 10
492.9719733687445
 20
244.1770385170254
 30
0.0
 40
3.510416999999999
100
AcDbArc
 50
135.654144
 51
224.3458560000004
  0
LINE
  5
73B
330
18
100
AcDbEntity
  8
1
  6
Continuous
100
AcDbLine
 10
496.7115533687445
 20
246.5382625170255
 30
0.0
 11
495.4615563687442
 21
246.5382625170255
 31
0.0
  0
ARC
  5
73C
330
18
100
AcDbEntity
  8
1
  6
Continuous
100
AcDbCircle
 10
491.9511393687442
 20
244.1770385170254
 30
0.0
 40
3.510416999999999
100
AcDbArc
 50
315.6541440000001
 51
44.34585600000043
  0
ARC
  5
750
330
18
100
AcDbEntity
  8
1
  6
Continuous
100
AcDbCircle
 10
449.0448843687443
 20
276.5382625170254
 30
0.0
 40
45.416668
100
AcDbArc
 50
327.5092682015891
 51
0.0000189999998023
  0
ARC
  5
751
330
18
100
AcDbEntity
  8
1
  6
Continuous
100
AcDbCircle
 10
449.0448843687443
 20
276.5382625170254
 30
0.0
 40
42.916668
100
AcDbArc
 50
327.5092682015888
 51
0.0000189999998023
  0
LINE
  5
752
330
18
100
AcDbEntity
  8
1
  6
Continuous
100
AcDbLine
 10
494.4615563687444
 20
256.4457475170253
 30
0.0
 11
490.4615563687444
 21
256.4457475170253
 31
0.0
  0
LINE
  5
753
330
18
100
AcDbEntity
  8
1
  6
Continuous
100
AcDbLine
 10
494.4615563687444
 20
261.3532245170254
 30
0.0
 11
491.8477855923852
 21
261.3532245170254
 31
0.0
  0
ARC
  5
754
330
18
100
AcDbEntity
  8
1
  6
Continuous
100
AcDbCircle
 10
489.4615563687445
 20
250.7991930570264
 30
0.0
 40
5.0
100
AcDbArc
 50
147.5092682015891
 51
180.0
  0
ARC
  5
755
330
18
100
AcDbEntity
  8
1
  6
Continuous
100
AcDbCircle
 10
489.4615563687445
 20
250.7991930570266
 30
0.0
 40
2.5
100
AcDbArc
 50
147.5092682015888
 51
180.0
  0
ARC
  5
757
330
18
100
AcDbEntity
  8
1
  6
Continuous
100
AcDbCircle
 10
492.9719733687445
 20
258.8994855170254
 30
0.0
 40
3.510416999999999
100
AcDbArc
 50
213.1763613437926
 51
224.3458560000004
  0
LINE
  5
758
330
18
100
AcDbEntity
  8
1
  6
Continuous
100
AcDbLine
 10
497.4615563687445
 20
255.7882625170253
 30
0.0
 11
497.4615563687445
 21
247.2882625170254
 31
0.0
  0
LINE
  5
759
330
18
100
AcDbEntity
  8
2
  6
Continuous
100
AcDbLine
 10
497.4615563687445
 20
247.2882625170254
 30
0.0
 11
495.4615563687442
 21
247.2882625170254
 31
0.0
  0
LINE
  5
75A
330
18
100
AcDbEntity
  8
1
  6
Continuous
100
AcDbLine
 10
496.7115533687445
 20
256.5382625170254
 30
0.0
 11
495.4615563687442
 21
256.5382625170254
 31
0.0
  0
LINE
  5
75B
330
18
100
AcDbEntity
  8
1
  6
Continuous
100
AcDbLine
 10
497.4615563687445
 20
255.7882625170253
 30
0.0
 11
496.7115533687445
 21
256.5382625170254
 31
0.0
  0
LINE
  5
75C
330
18
100
AcDbEntity
  8
2
  6
Continuous
100
AcDbLine
 10
497.4615563687445
 20
255.7882625170253
 30
0.0
 11
495.4615563687442
 21
255.7882625170253
 31
0.0
  0
ARC
  5
75D
330
18
100
AcDbEntity
  8
1
  6
Continuous
100
AcDbCircle
 10
491.9511393687442
 20
258.8994855170254
 30
0.0
 40
3.510416999999999
100
AcDbArc
 50
315.6541440000001
 51
44.34585600000043
  0
LINE
  5
761
330
18
100
AcDbEntity
  8
1
  6
Continuous
100
AcDbLine
 10
493.4614713687444
 20
322.6929495170255
 30
0.0
 11
491.5122813687443
 21
327.2152425170255
 31
0.0
  0
ARC
  5
762
330
18
100
AcDbEntity
  8
1
  6
Continuous
100
AcDbCircle
 10
491.4615563687442
 20
312.4081415170254
 30
0.0
 40
3.0
100
AcDbArc
 50
0.0000360000000476
 51
59.99998300000061
  0
ARC
  5
763
330
18
100
AcDbEntity
  8
1
  6
Continuous
100
AcDbCircle
 10
493.9615563687445
 20
316.7382685170254
 30
0.0
 40
2.0
100
AcDbArc
 50
179.9999859999998
 51
240.000015
  0
LINE
  5
764
330
18
100
AcDbEntity
  8
1
  6
Continuous
100
AcDbLine
 10
491.9615443687442
 20
320.5382735170254
 30
0.0
 11
491.1224453687443
 21
321.5382705170253
 31
0.0
  0
ARC
  5
765
330
18
100
AcDbEntity
  8
1
  6
Continuous
100
AcDbCircle
 10
486.4615563687443
 20
317.2382685170254
 30
0.0
 40
5.5
100
AcDbArc
 50
0.0000219999999413
 51
27.03579704852987
  0
LINE
  5
766
330
18
100
AcDbEntity
  8
1
  6
Continuous
100
AcDbLine
 10
491.9615563687442
 20
316.7382685170254
 30
0.0
 11
491.9615563687442
 21
317.2382685170254
 31
0.0
  0
ARC
  5
767
330
18
100
AcDbEntity
  8
1
  6
Continuous
100
AcDbCircle
 10
491.9615563687442
 20
320.5382795170255
 30
0.0
 40
0.8
100
AcDbArc
 50
269.9999679999998
 51
0.0000050000001031
  0
LINE
  5
768
330
18
100
AcDbEntity
  8
1
  6
Continuous
100
AcDbLine
 10
491.4615353687442
 20
321.5382755170255
 30
0.0
 11
493.4615353687445
 21
322.6929785170253
 31
0.0
  0
ARC
  5
769
330
18
100
AcDbEntity
  8
1
  6
Continuous
100
AcDbCircle
 10
493.4484033687445
 20
333.5514445170254
 30
0.0
 40
5.513164999999997
100
AcDbArc
 50
269.9999679999998
 51
326.8700359999998
  0
ARC
  5
76A
330
18
100
AcDbEntity
  8
1
  6
Continuous
100
AcDbCircle
 10
486.4615563687443
 20
325.0382795170255
 30
0.0
 40
5.5
100
AcDbArc
 50
23.31686699999991
 51
33.05570600000036
  0
LINE
  5
76B
330
18
100
AcDbEntity
  8
4
  6
CENTER
100
AcDbLine
 10
496.9615563687441
 20
336.5382775170254
 30
0.0
 11
496.9615563687441
 21
327.5382775170255
 31
0.0
  0
LINE
  5
76C
330
18
100
AcDbEntity
  8
4
  6
CENTER
100
AcDbLine
 10
495.4615563687442
 20
336.5382775170254
 30
0.0
 11
495.4615563687442
 21
327.5382775170255
 31
0.0
  0
LINE
  5
76E
330
18
100
AcDbEntity
  8
1
  6
Continuous
100
AcDbLine
 10
506.4615563687445
 20
330.5382775170254
 30
0.0
 11
506.4615563687445
 21
333.5382775170252
 31
0.0
  0
LINE
  5
770
330
18
100
AcDbEntity
  8
1
  6
Continuous
100
AcDbLine
 10
617.88055039011
 20
321.5382775170255
 30
0.0
 11
615.8805503901097
 21
322.6929795170255
 31
0.0
  0
LINE
  5
771
330
18
100
AcDbEntity
  8
1
  6
Continuous
100
AcDbLine
 10
615.8805503901097
 20
322.6929785170253
 30
0.0
 11
617.8297383901098
 21
327.2152675170254
 31
0.0
  0
LINE
  5
772
330
18
100
AcDbEntity
  8
1
  6
Continuous
100
AcDbLine
 10
602.8805533901097
 20
330.5382775170254
 30
0.0
 11
602.8805533901097
 21
333.5382775170252
 31
0.0
  0
LINE
  5
773
330
18
100
AcDbEntity
  8
4
  6
CENTER
100
AcDbLine
 10
612.38055339011
 20
336.5382775170254
 30
0.0
 11
612.38055339011
 21
327.5382775170252
 31
0.0
  0
LINE
  5
774
330
18
100
AcDbEntity
  8
4
  6
CENTER
100
AcDbLine
 10
613.8805533901098
 20
336.5382775170254
 30
0.0
 11
613.8805533901098
 21
327.5382775170255
 31
0.0
  0
ARC
  5
775
330
18
100
AcDbEntity
  8
1
  6
Continuous
100
AcDbCircle
 10
615.8937143901098
 20
333.5514425170253
 30
0.0
 40
5.513164999999997
100
AcDbArc
 50
213.1299009999999
 51
269.9999819999999
  0
ARC
  5
776
330
18
100
AcDbEntity
  8
1
  6
Continuous
100
AcDbCircle
 10
615.3805533901097
 20
316.7382665170253
 30
0.0
 40
2.0
100
AcDbArc
 50
315.0994790000002
 51
0.0000090000000172
  0
ARC
  5
777
330
18
100
AcDbEntity
  8
1
  6
Continuous
100
AcDbCircle
 10
623.3805533901097
 20
316.7382665170253
 30
0.0
 40
6.0
100
AcDbArc
 50
149.9998840000001
 51
180.0
  0
LINE
  5
778
330
18
100
AcDbEntity
  8
1
  6
Continuous
100
AcDbLine
 10
617.3805553901097
 20
320.5382735170254
 30
0.0
 11
618.2196583901099
 21
321.5382775170255
 31
0.0
  0
ARC
  5
779
330
18
100
AcDbEntity
  8
1
  6
Continuous
100
AcDbCircle
 10
617.3805533901099
 20
320.5382775170255
 30
0.0
 40
0.8
100
AcDbArc
 50
179.999945
 51
269.9999819999999
  0
ARC
  5
77A
330
18
100
AcDbEntity
  8
1
  6
Continuous
100
AcDbCircle
 10
622.8805533901097
 20
325.0382775170255
 30
0.0
 40
5.5
100
AcDbArc
 50
146.9442609999998
 51
156.6831000000002
  0
LINE
  5
77C
330
18
100
AcDbEntity
  8
1
  6
Continuous
100
AcDbLine
 10
320.0425593473787
 20
497.7990329246323
 30
0.0
 11
320.0425593473787
 21
427.799032924632
 31
0.0
  0
LINE
  5
77E
330
18
100
AcDbEntity
  8
1
  6
Continuous
100
AcDbLine
 10
306.6534743473786
 20
423.4099459246322
 30
0.0
 11
305.1534743473788
 21
424.9099459246322
 31
0.0
  0
ARC
  5
77F
330
18
100
AcDbEntity
  8
1
  6
Continuous
100
AcDbCircle
 10
310.5425593473786
 20
427.299032924632
 30
0.0
 40
5.5
100
AcDbArc
 50
224.9999999999996
 51
45.00000100000007
  0
LINE
  5
780
330
18
100
AcDbEntity
  8
4
  6
CENTER
100
AcDbLine
 10
303.0425593473787
 20
427.299032924632
 30
0.0
 11
318.0425593473787
 21
427.299032924632
 31
0.0
  0
LINE
  5
781
330
18
100
AcDbEntity
  8
4
  6
CENTER
100
AcDbLine
 10
301.5425593473787
 20
428.7990329246321
 30
0.0
 11
316.5425593473786
 21
428.7990329246321
 31
0.0
  0
ARC
  5
782
330
18
100
AcDbEntity
  8
1
  6
Continuous
100
AcDbCircle
 10
309.0425593473787
 20
428.7990329246321
 30
0.0
 40
5.5
100
AcDbArc
 50
45.00000100000007
 51
224.999996
  0
LINE
  5
783
330
18
100
AcDbEntity
  8
4
  6
CENTER
100
AcDbLine
 10
309.0425593473787
 20
436.2990329246321
 30
0.0
 11
309.0425593473787
 21
421.2990329246323
 31
0.0
  0
LINE
  5
784
330
18
100
AcDbEntity
  8
1
  6
Continuous
100
AcDbLine
 10
314.4316483473786
 20
431.1881209246322
 30
0.0
 11
312.9316483473786
 21
432.6881209246321
 31
0.0
  0
LINE
  5
785
330
18
100
AcDbEntity
  8
1
  6
Continuous
100
AcDbLine
 10
306.6534673473786
 20
502.1881159246323
 30
0.0
 11
305.1534653473787
 21
500.6881149246323
 31
0.0
  0
LINE
  5
786
330
18
100
AcDbEntity
  8
4
  6
CENTER
100
AcDbLine
 10
303.0425593473787
 20
498.2990329246323
 30
0.0
 11
318.0425593473787
 21
498.2990329246323
 31
0.0
  0
LINE
  5
787
330
18
100
AcDbEntity
  8
4
  6
CENTER
100
AcDbLine
 10
301.5425593473787
 20
496.7990329246323
 30
0.0
 11
316.5425593473786
 21
496.7990329246323
 31
0.0
  0
ARC
  5
788
330
18
100
AcDbEntity
  8
1
  6
Continuous
100
AcDbCircle
 10
309.0425593473787
 20
496.7990329246323
 30
0.0
 40
5.5
100
AcDbArc
 50
135.0000000000002
 51
314.9999920000003
  0
ARC
  5
789
330
18
100
AcDbEntity
  8
1
  6
Continuous
100
AcDbCircle
 10
310.5425593473786
 20
498.2990329246323
 30
0.0
 40
5.5
100
AcDbArc
 50
314.9999989999999
 51
135.0000000000002
  0
LINE
  5
78A
330
18
100
AcDbEntity
  8
4
  6
CENTER
100
AcDbLine
 10
310.5425593473786
 20
490.7990329246323
 30
0.0
 11
310.5425593473786
 21
505.7990329246323
 31
0.0
  0
LINE
  5
78B
330
18
100
AcDbEntity
  8
4
  6
CENTER
100
AcDbLine
 10
309.0425593473787
 20
489.2990329246321
 30
0.0
 11
309.0425593473787
 21
504.2990329246323
 31
0.0
  0
LINE
  5
78C
330
18
100
AcDbEntity
  8
1
  6
Continuous
100
AcDbLine
 10
314.4316443473786
 20
494.4099389246323
 30
0.0
 11
312.9316433473786
 21
492.9099379246323
 31
0.0
  0
ARC
  5
78D
330
18
100
AcDbEntity
  8
1
  6
Continuous
100
AcDbCircle
 10
310.0425593473786
 20
497.7990329246323
 30
0.0
 40
10.0
100
AcDbArc
 50
0.0
 51
90.00000300000015
  0
LINE
  5
78E
330
18
100
AcDbEntity
  8
4
  6
CENTER
 48
0.5
100
AcDbLine
 10
647.8805533901097
 20
338.5382775170254
 30
0.0
 11
647.8805533901097
 21
296.1361625170253
 31
0.0
  0
LINE
  5
78F
330
18
100
AcDbEntity
  8
1
  6
Continuous
100
AcDbLine
 10
687.72254439011
 20
313.0812585170255
 30
0.0
 11
694.79835139011
 21
252.9404385170254
 31
0.0
  0
LINE
  5
790
330
18
100
AcDbEntity
  8
1
  6
Continuous
100
AcDbLine
 10
670.88055339011
 20
249.9637915170255
 30
0.0
 11
670.88055339011
 21
313.9350615170254
 31
0.0
  0
CIRCLE
  5
791
330
18
100
AcDbEntity
  8
1
  6
Continuous
100
AcDbCircle
 10
682.88055339011
 20
251.5382695170254
 30
0.0
 40
5.0
  0
LINE
  5
792
330
18
100
AcDbEntity
  8
4
  6
CENTER
100
AcDbLine
 10
682.88055339011
 20
306.5382695170253
 30
0.0
 11
682.88055339011
 21
196.5382695170255
 31
0.0
  0
LINE
  5
793
330
18
100
AcDbEntity
  8
1
  6
Continuous
100
AcDbLine
 10
674.3805512910579
 20
256.4457480170253
 30
0.0
 11
674.3805512910579
 21
246.6307910170255
 31
0.0
  0
LINE
  5
794
330
18
100
AcDbEntity
  8
1
  6
Continuous
100
AcDbLine
 10
691.3805554891617
 20
256.4457480170253
 30
0.0
 11
691.3805554891617
 21
246.6307910170255
 31
0.0
  0
ARC
  5
797
330
18
100
AcDbEntity
  8
1
  6
Continuous
100
AcDbCircle
 10
682.88055339011
 20
251.5382695170254
 30
0.0
 40
12.0
100
AcDbArc
 50
221.6180540000002
 51
6.710232000000074
  0
LINE
  5
799
330
18
100
AcDbEntity
  8
1
  6
Continuous
100
AcDbLine
 10
674.3805471064422
 20
246.6307886010361
 30
0.0
 11
682.8805533901097
 21
241.7233076850473
 31
0.0
  0
ARC
  5
79A
330
18
100
AcDbEntity
  8
1
  6
Continuous
100
AcDbCircle
 10
682.88055339011
 20
251.5382695170254
 30
0.0
 40
9.000007999999997
100
AcDbArc
 50
220.8118389104753
 51
259.1881610895218
  0
LINE
  5
79B
330
18
100
AcDbEntity
  8
1
  6
Continuous
100
AcDbLine
 10
691.3805596737777
 20
246.6307886010361
 30
0.0
 11
682.8805533901102
 21
241.7233076850473
 31
0.0
  0
ARC
  5
79C
330
18
100
AcDbEntity
  8
1
  6
Continuous
100
AcDbCircle
 10
682.88055339011
 20
251.5382695170254
 30
0.0
 40
9.000007999999997
100
AcDbArc
 50
280.8118389104781
 51
319.1881610895246
  0
CIRCLE
  5
79D
330
18
100
AcDbEntity
  8
2
  6
Continuous
100
AcDbCircle
 10
682.88055339011
 20
251.5382695170254
 30
0.0
 40
4.25
  0
LINE
  5
79E
330
18
100
AcDbEntity
  8
1
  6
Continuous
100
AcDbLine
 10
674.3805471064422
 20
256.4457504330145
 30
0.0
 11
682.8805533901097
 21
261.3532313490034
 31
0.0
  0
ARC
  5
79F
330
18
100
AcDbEntity
  8
1
  6
Continuous
100
AcDbCircle
 10
682.88055339011
 20
251.5382695170254
 30
0.0
 40
9.000007999999997
100
AcDbArc
 50
160.8117578568634
 51
199.1882421431364
  0
ARC
  5
7A0
330
18
100
AcDbEntity
  8
1
  6
Continuous
100
AcDbCircle
 10
682.88055339011
 20
251.5382695170254
 30
0.0
 40
9.000007999999997
100
AcDbArc
 50
100.8118389104717
 51
139.1881610895245
  0
ARC
  5
7A1
330
18
100
AcDbEntity
  8
1
  6
Continuous
100
AcDbCircle
 10
682.88055339011
 20
251.5382695170254
 30
0.0
 40
9.000007999999997
100
AcDbArc
 50
340.8117578568553
 51
19.1882421431447
  0
LINE
  5
7A2
330
18
100
AcDbEntity
  8
1
  6
Continuous
100
AcDbLine
 10
691.3805596737777
 20
256.4457504330145
 30
0.0
 11
682.8805533901102
 21
261.3532313490034
 31
0.0
  0
ARC
  5
7A3
330
18
100
AcDbEntity
  8
1
  6
Continuous
100
AcDbCircle
 10
682.88055339011
 20
251.5382695170254
 30
0.0
 40
9.000007999999997
100
AcDbArc
 50
40.81183891047474
 51
79.18816108952838
  0
ARC
  5
7A4
330
18
100
AcDbEntity
  8
1
  6
Continuous
100
AcDbCircle
 10
679.8673883901101
 20
333.5514425170253
 30
0.0
 40
5.513164999999997
100
AcDbArc
 50
269.9999819999999
 51
326.8700630000003
  0
LINE
  5
7A5
330
18
100
AcDbEntity
  8
1
  6
Continuous
100
AcDbLine
 10
688.8805533901098
 20
314.7382665170253
 30
0.0
 11
672.6167173901101
 21
314.7382665170253
 31
0.0
  0
LINE
  5
7A6
330
18
100
AcDbEntity
  8
1
  6
Continuous
100
AcDbLine
 10
679.1805523901098
 20
320.5382775170255
 30
0.0
 11
616.5805533901099
 21
320.5382775170255
 31
0.0
  0
LINE
  5
7A7
330
18
100
AcDbEntity
  8
1
  6
Continuous
100
AcDbLine
 10
679.8673883901101
 20
328.0382775170255
 30
0.0
 11
615.8937143901098
 21
328.0382775170255
 31
0.0
  0
LINE
  5
7A8
330
18
100
AcDbEntity
  8
1
  6
Continuous
100
AcDbLine
 10
679.8805533901099
 20
322.6929795170255
 30
0.0
 11
615.8805503901097
 21
322.6929795170255
 31
0.0
  0
LINE
  5
7A9
330
18
100
AcDbEntity
  8
1
  6
Continuous
100
AcDbLine
 10
678.38055339011
 20
319.7382775170253
 30
0.0
 11
617.3805533901099
 21
319.7382775170253
 31
0.0
  0
LINE
  5
7AA
330
18
100
AcDbEntity
  8
1
  6
Continuous
100
AcDbLine
 10
677.8805533901097
 20
321.5382775170255
 30
0.0
 11
617.8805503901099
 21
321.5382775170254
 31
0.0
  0
LINE
  5
7AB
330
18
100
AcDbEntity
  8
1
  6
Continuous
100
AcDbLine
 10
679.8805543901099
 20
322.6929805170253
 30
0.0
 11
677.9313673901098
 21
327.2152695170253
 31
0.0
  0
ARC
  5
7AC
330
18
100
AcDbEntity
  8
1
  6
Continuous
100
AcDbCircle
 10
672.6167173901101
 20
316.7382665170253
 30
0.0
 40
2.0
100
AcDbArc
 50
194.622519
 51
270.0
  0
ARC
  5
7AD
330
18
100
AcDbEntity
  8
1
  6
Continuous
100
AcDbCircle
 10
680.3805533901098
 20
316.7382665170253
 30
0.0
 40
2.0
100
AcDbArc
 50
180.0
 51
270.000003
  0
LINE
  5
7AE
330
18
100
AcDbEntity
  8
1
  6
Continuous
100
AcDbLine
 10
677.8805523901097
 20
321.5382775170255
 30
0.0
 11
679.8805533901099
 21
322.6929795170255
 31
0.0
  0
ARC
  5
7AF
330
18
100
AcDbEntity
  8
1
  6
Continuous
100
AcDbCircle
 10
678.38055339011
 20
320.5382775170255
 30
0.0
 40
0.8
100
AcDbArc
 50
269.9999819999999
 51
0.0000189999998023
  0
ARC
  5
7B0
330
18
100
AcDbEntity
  8
1
  6
Continuous
100
AcDbCircle
 10
672.3805533901098
 20
316.7382665170253
 30
0.0
 40
6.0
100
AcDbArc
 50
359.9999949999999
 51
30.00011599999993
  0
LINE
  5
7B1
330
18
100
AcDbEntity
  8
1
  6
Continuous
100
AcDbLine
 10
678.38055339011
 20
320.5382775170255
 30
0.0
 11
677.5414533901098
 21
321.5382775170255
 31
0.0
  0
LINE
  5
7B2
330
18
100
AcDbEntity
  8
4
  6
CENTER
100
AcDbLine
 10
681.8805533901097
 20
336.5382775170254
 30
0.0
 11
681.8805533901097
 21
327.5382775170255
 31
0.0
  0
ARC
  5
7B3
330
18
100
AcDbEntity
  8
1
  6
Continuous
100
AcDbCircle
 10
672.8805533901097
 20
325.0382775170255
 30
0.0
 40
5.5
100
AcDbArc
 50
23.316881
 51
33.05571999999975
  0
ARC
  5
7B4
330
18
100
AcDbEntity
  8
1
  6
Continuous
100
AcDbCircle
 10
689.0051043901097
 20
310.7382665170253
 30
0.0
 40
1.0
100
AcDbArc
 50
97.15483499999971
 51
186.710228
  0
ARC
  5
7B5
330
18
100
AcDbEntity
  8
1
  6
Continuous
100
AcDbCircle
 10
689.2328083901097
 20
313.2589475170253
 30
0.0
 40
1.520680999999999
100
AcDbArc
 50
103.3938209999998
 51
186.710228
  0
LINE
  5
7B6
330
18
100
AcDbEntity
  8
1
  6
Continuous
100
AcDbLine
 10
688.8805533901098
 20
311.7382665170253
 30
0.0
 11
688.8805533901098
 21
314.7382665170253
 31
0.0
  0
LINE
  5
7B7
330
18
100
AcDbEntity
  8
1
  6
Continuous
100
AcDbLine
 10
692.8805533901098
 20
330.5382775170254
 30
0.0
 11
692.8805533901098
 21
333.5382775170252
 31
0.0
  0
LINE
  5
7B8
330
18
100
AcDbEntity
  8
4
  6
CENTER
100
AcDbLine
 10
683.3805533901099
 20
336.5382775170254
 30
0.0
 11
683.3805533901099
 21
327.5382775170255
 31
0.0
  0
ARC
  5
D7D
330
18
100
AcDbEntity
  8
1
  6
Continuous
100
AcDbCircle
 10
461.4615543258419
 20
282.1003925170252
 30
0.0
 40
26.637875
100
AcDbArc
 50
30.29582480626928
 51
149.7041577728623
  0
ARC
  5
D81
330
18
100
AcDbEntity
  8
1
  6
Continuous
100
AcDbCircle
 10
465.0380538965928
 20
272.601525131044
 30
0.0
 40
36.7877435112685
100
AcDbArc
 50
110.6322857094488
 51
173.8568895328181
  0
ARC
  5
D83
330
18
100
AcDbEntity
  8
1
  6
Continuous
100
AcDbCircle
 10
477.2642145171126
 20
269.2411611521677
 30
0.0
 40
46.87413007993106
100
AcDbArc
 50
145.8739554399157
 51
171.0440385760419
  0
ARC
  5
D84
330
18
100
AcDbEntity
  8
1
  6
Continuous
100
AcDbCircle
 10
457.8850588408958
 20
272.601525131044
 30
0.0
 40
36.7877435112685
100
AcDbArc
 50
6.143110467181767
 51
69.3677142905512
  0
ARC
  5
D85
330
18
100
AcDbEntity
  8
1
  6
Continuous
100
AcDbCircle
 10
445.6588982203759
 20
269.2411611521677
 30
0.0
 40
46.87413007993106
100
AcDbArc
 50
8.955961423958033
 51
34.12604456008421
  0
ARC
  5
D86
330
18
100
AcDbEntity
  8
1
  6
Continuous
100
AcDbCircle
 10
241.0425593473787
 20
124.2775061094185
 30
0.0
 40
5.5
100
AcDbArc
 50
297.7540534766038
 51
45.0000010000001
  0
LINE
  5
D87
330
18
100
AcDbEntity
  8
1
  6
Continuous
100
AcDbLine
 10
230.0425593473787
 20
115.7775061094184
 30
0.0
 11
230.0425593473787
 21
125.2775061094185
 31
0.0
  0
LINE
  5
D88
330
18
100
AcDbEntity
  8
1
  6
Continuous
100
AcDbLine
 10
230.0425593473787
 20
67.27750610941853
 30
0.0
 11
230.0425593473787
 21
68.27750610941857
 31
0.0
  0
ARC
  5
DD4
330
18
100
AcDbEntity
  8
1
  6
Continuous
100
AcDbCircle
 10
235.7925582978529
 20
52.74628787368472
 30
0.0
 40
9.531218578340507
100
AcDbArc
 50
63.5188590231306
 51
116.4811409768692
  0
ARC
  5
DD5
330
18
100
AcDbEntity
  8
1
  6
Continuous
100
AcDbCircle
 10
235.7925582978529
 20
65.80872468775893
 30
0.0
 40
9.531218578340507
100
AcDbArc
 50
243.5188590231304
 51
296.4811409768693
  0
LINE
  5
DD7
330
18
100
AcDbEntity
  8
1
  6
Continuous
100
AcDbLine
 10
248.5425656310464
 20
56.27750610941853
 30
0.0
 11
231.5425572483268
 21
56.27750610941853
 31
0.0
  0
LINE
  5
DD8
330
18
100
AcDbEntity
  8
1
  6
Continuous
100
AcDbLine
 10
249.0425593473787
 20
62.27750610941853
 30
0.0
 11
231.0425593473786
 21
62.27750610941853
 31
0.0
  0
ARC
  5
DD9
330
18
100
AcDbEntity
  8
1
  6
Continuous
100
AcDbCircle
 10
244.2925624892126
 20
52.74627898141314
 30
0.0
 40
9.531227470612687
100
AcDbArc
 50
63.51887160077104
 51
116.4811283992288
  0
ARC
  5
DDA
330
18
100
AcDbEntity
  8
1
  6
Continuous
100
AcDbCircle
 10
244.2925624892126
 20
65.80873358003085
 30
0.0
 40
9.531227470612687
100
AcDbArc
 50
243.5188716007671
 51
296.4811283992288
  0
LINE
  5
DDB
330
18
100
AcDbEntity
  8
1
  6
Continuous
100
AcDbLine
 10
248.5425656310464
 20
56.27750610941853
 30
0.0
 11
248.5425656310464
 21
62.27750610941853
 31
0.0
  0
LINE
  5
DDC
330
18
100
AcDbEntity
  8
1
  6
Continuous
100
AcDbLine
 10
249.0425593473787
 20
62.27750610941853
 30
0.0
 11
249.0425593473787
 21
64.77750610941853
 31
0.0
  0
LINE
  5
DE1
330
18
100
AcDbEntity
  8
1
  6
Continuous
100
AcDbLine
 10
240.0425593473787
 20
57.27751031540089
 30
0.0
 11
240.0425593473787
 21
61.27750224604284
 31
0.0
  0
LINE
  5
DE6
330
18
100
AcDbEntity
  8
1
  6
Continuous
100
AcDbLine
 10
231.5425572483268
 20
56.27750610941853
 30
0.0
 11
231.5425572483268
 21
62.27750610941853
 31
0.0
  0
LINE
  5
DE7
330
18
100
AcDbEntity
  8
1
  6
Continuous
100
AcDbLine
 10
231.0425593473786
 20
62.27750610941853
 30
0.0
 11
231.0425593473786
 21
64.77750610941853
 31
0.0
  0
CIRCLE
  5
E5C
330
18
100
AcDbEntity
  8
1
  6
Continuous
100
AcDbCircle
 10
682.88055339011
 20
251.5382695170253
 30
0.0
 40
8.500002099051926
  0
ARC
  5
E61
330
18
100
AcDbEntity
  8
1
  6
Continuous
100
AcDbCircle
 10
275.0425593473786
 20
90.27750610941859
 30
0.0
 40
36.60374865654324
100
AcDbArc
 50
224.7398759857636
 51
135.2601240142367
  0
ARC
  5
E62
330
18
100
AcDbEntity
  8
1
  6
Continuous
100
AcDbCircle
 10
275.0425593473786
 20
90.27750610941859
 30
0.0
 40
26.0
100
AcDbArc
 50
217.979872444852
 51
142.020127555148
  0
ARC
  5
E63
330
18
100
AcDbEntity
  8
1
  6
Continuous
100
AcDbCircle
 10
275.0425593473786
 20
90.27750610941859
 30
0.0
 40
17.5
100
AcDbArc
 50
246.1044918138385
 51
293.8955081861614
  0
ARC
  5
E64
330
18
100
AcDbEntity
  8
1
  6
Continuous
100
AcDbCircle
 10
275.0425593473786
 20
90.27750610941859
 30
0.0
 40
17.5
100
AcDbArc
 50
66.10449181383798
 51
113.8955081861619
  0
ARC
  5
E65
330
18
100
AcDbEntity
  8
1
  6
Continuous
100
AcDbCircle
 10
275.0425593473786
 20
90.27750610941859
 30
0.0
 40
17.5
100
AcDbArc
 50
324.9301698848563
 51
35.06983011514338
  0
ARC
  5
F5E
330
18
100
AcDbEntity
  8
1
  6
Continuous
100
AcDbCircle
 10
682.88055339011
 20
251.5382695170254
 30
0.0
 40
15.0
100
AcDbArc
 50
184.7481542888134
 51
43.58012917918155
  0
ARC
  5
F60
330
18
100
AcDbEntity
  8
1
  6
Continuous
100
AcDbCircle
 10
682.88055339011
 20
251.5382695170254
 30
0.0
 40
41.74999999999999
100
AcDbArc
 50
148.3219093064243
 51
80.00636275775608
  0
ARC
  5
F61
330
18
100
AcDbEntity
  8
1
  6
Continuous
100
AcDbCircle
 10
682.88055339011
 20
251.5382695170254
 30
0.0
 40
50.0
100
AcDbArc
 50
145.504583103164
 51
82.82368837758298
  0
LINE
  5
F7E
330
18
100
AcDbEntity
  8
1
  6
Continuous
100
AcDbLine
 10
254.4626109473785
 20
74.27750210941855
 30
0.0
 11
254.0383174473786
 21
69.68549910941857
 31
0.0
  0
LINE
  5
F7F
330
18
100
AcDbEntity
  8
1
  6
Continuous
100
AcDbLine
 10
225.6225077473787
 20
74.27750210941855
 30
0.0
 11
226.0468012473786
 21
69.68549910941857
 31
0.0
  0
LINE
  5
F8C
330
18
100
AcDbEntity
  8
1
  6
Continuous
100
AcDbLine
 10
286.687516649247
 20
106.2775061094185
 30
0.0
 11
193.3976013473787
 21
106.2775061094185
 31
0.0
  0
LINE
  5
F8D
330
18
100
AcDbEntity
  8
1
  6
Continuous
100
AcDbLine
 10
286.6875173473786
 20
74.2775061094186
 30
0.0
 11
193.3976013473787
 21
74.2775061094186
 31
0.0
  0
ARC
  5
F8F
330
18
100
AcDbEntity
  8
1
  6
Continuous
100
AcDbCircle
 10
265.0425593473787
 20
90.27750610941859
 30
0.0
 40
75.0
100
AcDbArc
 50
168.9432499999994
 51
191.0567299999998
  0
ARC
  5
F90
330
18
100
AcDbEntity
  8
1
  6
Continuous
100
AcDbCircle
 10
193.3976013473787
 20
104.2775061094185
 30
0.0
 40
2.0
100
AcDbArc
 50
89.99998000000124
 51
168.9432899999999
  0
ARC
  5
F91
330
18
100
AcDbEntity
  8
1
  6
Continuous
100
AcDbCircle
 10
193.3976013473787
 20
76.27750610941863
 30
0.0
 40
2.0
100
AcDbArc
 50
191.0566899999985
 51
270.0
  0
LINE
  5
FAD
330
18
100
AcDbEntity
  8
1
  6
Continuous
100
AcDbLine
 10
253.0425591728457
 20
111.7775061094185
 30
0.0
 11
227.0425593473786
 21
111.7775061094185
 31
0.0
  0
LINE
  5
FAE
330
18
100
AcDbEntity
  8
1
  6
Continuous
100
AcDbLine
 10
250.042558649247
 20
112.2775061094186
 30
0.0
 11
230.0425593473787
 21
112.2775061094186
 31
0.0
  0
LINE
  5
FAF
330
18
100
AcDbEntity
  8
1
  6
Continuous
100
AcDbLine
 10
225.6225072473787
 20
106.2775061094185
 30
0.0
 11
226.0468008473786
 21
110.8695061094185
 31
0.0
  0
ARC
  5
FB0
330
18
100
AcDbEntity
  8
1
  6
Continuous
100
AcDbCircle
 10
227.0425593473786
 20
110.7775061094185
 30
0.0
 40
1.0
100
AcDbArc
 50
89.99998999999897
 51
174.7209699999983
  0
LINE
  5
FB2
330
18
100
AcDbEntity
  8
1
  6
Continuous
100
AcDbLine
 10
234.0425593473787
 20
113.2775061094186
 30
0.0
 11
234.0425593473787
 21
112.2775061094186
 31
0.0
  0
ARC
  5
FB3
330
18
100
AcDbEntity
  8
1
  6
Continuous
100
AcDbCircle
 10
230.0425593473787
 20
111.2775061094186
 30
0.0
 40
1.0
100
AcDbArc
 50
89.99995999999923
 51
149.999949999999
  0
ARC
  5
FB4
330
18
100
AcDbEntity
  8
1
  6
Continuous
100
AcDbCircle
 10
250.0425593473786
 20
111.2775061094186
 30
0.0
 40
1.0
100
AcDbArc
 50
30.00005000000081
 51
90.00004000000073
  0
LINE
  5
FB5
330
18
100
AcDbEntity
  8
1
  6
Continuous
100
AcDbLine
 10
246.0425593473786
 20
113.2775061094186
 30
0.0
 11
246.0425593473786
 21
112.2775061094186
 31
0.0
  0
LINE
  5
FB6
330
18
100
AcDbEntity
  8
1
  6
Continuous
100
AcDbLine
 10
254.4626114473786
 20
106.2775061094185
 30
0.0
 11
254.0383178473787
 21
110.8695061094185
 31
0.0
  0
ARC
  5
FB7
330
18
100
AcDbEntity
  8
1
  6
Continuous
100
AcDbCircle
 10
253.0425593473787
 20
110.7775061094185
 30
0.0
 40
1.0
100
AcDbArc
 50
5.279029999998416
 51
90.000010000001
  0
ARC
  5
FC6
330
18
100
AcDbEntity
  8
1
  6
Continuous
100
AcDbCircle
 10
215.0425593473787
 20
90.27750610941863
 30
0.0
 40
75.0
100
AcDbArc
 50
348.9432700000002
 51
11.05675000000055
  0
ARC
  5
FC7
330
18
100
AcDbEntity
  8
1
  6
Continuous
100
AcDbCircle
 10
286.6875173473786
 20
104.2775061094185
 30
0.0
 40
2.0
100
AcDbArc
 50
11.05670999999996
 51
90.00001999999874
  0
ARC
  5
FC9
330
18
100
AcDbEntity
  8
1
  6
Continuous
100
AcDbCircle
 10
286.6875173473786
 20
76.27750610941859
 30
0.0
 40
2.0
100
AcDbArc
 50
270.0
 51
348.9433100000013
  0
LINE
  5
FCF
330
18
100
AcDbEntity
  8
1
  6
Continuous
100
AcDbLine
 10
250.0425593473786
 20
68.27750610941859
 30
0.0
 11
230.0425593473787
 21
68.27750610941859
 31
0.0
  0
LINE
  5
FD0
330
18
100
AcDbEntity
  8
1
  6
Continuous
100
AcDbLine
 10
253.0425593473787
 20
68.77750610941859
 30
0.0
 11
227.0425593473786
 21
68.77750610941859
 31
0.0
  0
ARC
  5
FD5
330
18
100
AcDbEntity
  8
1
  6
Continuous
100
AcDbCircle
 10
227.0425593473786
 20
69.7775061094186
 30
0.0
 40
1.0
100
AcDbArc
 50
185.2790400000007
 51
270.0
  0
LINE
  5
FD6
330
18
100
AcDbEntity
  8
1
  6
Continuous
100
AcDbLine
 10
234.0425593473787
 20
68.27750610941859
 30
0.0
 11
234.0425593473787
 21
67.2775061094186
 31
0.0
  0
ARC
  5
FD7
330
18
100
AcDbEntity
  8
1
  6
Continuous
100
AcDbCircle
 10
230.0425593473787
 20
69.2775061094186
 30
0.0
 40
1.0
100
AcDbArc
 50
209.9999999999995
 51
270.0
  0
ARC
  5
FDA
330
18
100
AcDbEntity
  8
1
  6
Continuous
100
AcDbCircle
 10
250.0425593473786
 20
69.2775061094186
 30
0.0
 40
1.0
100
AcDbArc
 50
270.0
 51
330.0000000000001
  0
LINE
  5
FDB
330
18
100
AcDbEntity
  8
1
  6
Continuous
100
AcDbLine
 10
246.0425593473786
 20
68.27750610941859
 30
0.0
 11
246.0425593473786
 21
67.2775061094186
 31
0.0
  0
ARC
  5
FDD
330
18
100
AcDbEntity
  8
1
  6
Continuous
100
AcDbCircle
 10
253.0425593473787
 20
69.7775061094186
 30
0.0
 40
1.0
100
AcDbArc
 50
270.0
 51
354.7209599999993
  0
ARC
  5
1049
330
18
100
AcDbEntity
  8
1
  6
Continuous
100
AcDbCircle
 10
240.0425593473787
 20
251.5382695170254
 30
0.0
 40
50.0
100
AcDbArc
 50
97.17631162241699
 51
34.49541689683597
  0
ARC
  5
104A
330
18
100
AcDbEntity
  8
1
  6
Continuous
100
AcDbCircle
 10
240.0425593473787
 20
251.5382695170254
 30
0.0
 40
41.74999999999999
100
AcDbArc
 50
99.99363724224393
 51
31.67809069357567
  0
ARC
  5
104B
330
18
100
AcDbEntity
  8
1
  6
Continuous
100
AcDbCircle
 10
244.0425593473786
 20
228.8887655170253
 30
0.0
 40
1.0
100
AcDbArc
 50
280.0153500000007
 51
0.0
  0
LINE
  5
104C
330
18
100
AcDbEntity
  8
1
  6
Continuous
100
AcDbLine
 10
245.0425593473787
 20
237.3961339170254
 30
0.0
 11
245.0425593473787
 21
228.8887655170253
 31
0.0
  0
ARC
  5
104D
330
18
100
AcDbEntity
  8
1
  6
Continuous
100
AcDbCircle
 10
240.0425593473787
 20
251.5382695170254
 30
0.0
 40
24.0
100
AcDbArc
 50
259.9845800000001
 51
280.0154000000008
  0
ARC
  5
104E
330
18
100
AcDbEntity
  8
1
  6
Continuous
100
AcDbCircle
 10
240.0425593473787
 20
251.5382695170254
 30
0.0
 40
15.0
100
AcDbArc
 50
136.4198708208184
 51
355.2518457111863
  0
LINE
  5
104F
330
18
100
AcDbEntity
  8
1
  6
Continuous
100
AcDbLine
 10
235.0425593473786
 20
237.3961339170254
 30
0.0
 11
235.0425593473786
 21
228.8887655170253
 31
0.0
  0
ARC
  5
1050
330
18
100
AcDbEntity
  8
1
  6
Continuous
100
AcDbCircle
 10
236.0425593473787
 20
228.8887655170253
 30
0.0
 40
1.0
100
AcDbArc
 50
179.9999800000011
 51
259.9846199999999
  0
LINE
  5
1051
330
18
100
AcDbEntity
  8
1
  6
Continuous
100
AcDbLine
 10
74.62356232601313
 20
298.1832205170253
 30
0.0
 11
74.62356232601313
 21
204.8933045170254
 31
0.0
  0
LINE
  5
1052
330
18
100
AcDbEntity
  8
1
  6
Continuous
100
AcDbLine
 10
42.62356232601314
 20
298.1832198188937
 30
0.0
 11
42.62356232601314
 21
204.8933045170254
 31
0.0
  0
ARC
  5
1053
330
18
100
AcDbEntity
  8
1
  6
Continuous
100
AcDbCircle
 10
58.62356232601314
 20
276.5382625170254
 30
0.0
 40
75.0
100
AcDbArc
 50
258.9432499999994
 51
281.0567299999996
  0
ARC
  5
1054
330
18
100
AcDbEntity
  8
1
  6
Continuous
100
AcDbCircle
 10
44.62356232601313
 20
204.8933045170254
 30
0.0
 40
2.0
100
AcDbArc
 50
179.9999800000011
 51
258.9432899999999
  0
LINE
  5
1055
330
18
100
AcDbEntity
  8
1
  6
Continuous
100
AcDbLine
 10
36.62356232601315
 20
261.5382618188937
 30
0.0
 11
36.62356232601315
 21
241.5382625170253
 31
0.0
  0
LINE
  5
1056
330
18
100
AcDbEntity
  8
1
  6
Continuous
100
AcDbLine
 10
37.12356232601314
 20
264.5382623424925
 30
0.0
 11
37.12356232601314
 21
238.5382625170254
 31
0.0
  0
LINE
  5
1057
330
18
100
AcDbEntity
  8
1
  6
Continuous
100
AcDbLine
 10
42.62356232601314
 20
237.1182104170254
 30
0.0
 11
38.03156232601315
 21
237.5425040170254
 31
0.0
  0
ARC
  5
1058
330
18
100
AcDbEntity
  8
1
  6
Continuous
100
AcDbCircle
 10
37.62356232601315
 20
241.5382625170253
 30
0.0
 40
1.0
100
AcDbArc
 50
179.9999599999992
 51
239.999949999999
  0
LINE
  5
1059
330
18
100
AcDbEntity
  8
1
  6
Continuous
100
AcDbLine
 10
35.62356232601314
 20
245.5382625170253
 30
0.0
 11
36.62356232601315
 21
245.5382625170253
 31
0.0
  0
ARC
  5
105A
330
18
100
AcDbEntity
  8
1
  6
Continuous
100
AcDbCircle
 10
38.12356232601315
 20
238.5382625170254
 30
0.0
 40
1.0
100
AcDbArc
 50
179.9999899999988
 51
264.7209699999983
  0
LINE
  5
105B
330
18
100
AcDbEntity
  8
1
  6
Continuous
100
AcDbLine
 10
42.62356232601314
 20
265.9583146170254
 30
0.0
 11
38.03156232601315
 21
265.5340210170253
 31
0.0
  0
ARC
  5
105C
330
18
100
AcDbEntity
  8
1
  6
Continuous
100
AcDbCircle
 10
38.12356232601315
 20
264.5382625170254
 30
0.0
 40
1.0
100
AcDbArc
 50
95.27902999999843
 51
180.0000100000009
  0
LINE
  5
105D
330
18
100
AcDbEntity
  8
1
  6
Continuous
100
AcDbLine
 10
35.62356232601314
 20
257.5382625170254
 30
0.0
 11
36.62356232601315
 21
257.5382625170254
 31
0.0
  0
ARC
  5
105E
330
18
100
AcDbEntity
  8
1
  6
Continuous
100
AcDbCircle
 10
37.62356232601315
 20
261.5382625170254
 30
0.0
 40
1.0
100
AcDbArc
 50
120.0000500000008
 51
180.0000400000006
  0
ARC
  5
105F
330
18
100
AcDbEntity
  8
1
  6
Continuous
100
AcDbCircle
 10
72.62356232601312
 20
204.8933045170254
 30
0.0
 40
2.0
100
AcDbArc
 50
281.0566899999985
 51
0.0
  0
LINE
  5
1060
330
18
100
AcDbEntity
  8
1
  6
Continuous
100
AcDbLine
 10
80.12356232601312
 20
264.5382625170254
 30
0.0
 11
80.12356232601312
 21
238.5382625170254
 31
0.0
  0
LINE
  5
1061
330
18
100
AcDbEntity
  8
1
  6
Continuous
100
AcDbLine
 10
80.62356232601315
 20
261.5382625170254
 30
0.0
 11
80.62356232601315
 21
241.5382625170253
 31
0.0
  0
LINE
  5
1062
330
18
100
AcDbEntity
  8
1
  6
Continuous
100
AcDbLine
 10
74.62356632601319
 20
237.1182109170254
 30
0.0
 11
79.21556932601315
 21
237.5425044170254
 31
0.0
  0
ARC
  5
1063
330
18
100
AcDbEntity
  8
1
  6
Continuous
100
AcDbCircle
 10
79.62356232601313
 20
241.5382625170253
 30
0.0
 40
1.0
100
AcDbArc
 50
299.9999999999997
 51
0.0
  0
LINE
  5
1064
330
18
100
AcDbEntity
  8
1
  6
Continuous
100
AcDbLine
 10
80.62356232601315
 20
245.5382625170253
 30
0.0
 11
81.62356232601316
 21
245.5382625170253
 31
0.0
  0
ARC
  5
1065
330
18
100
AcDbEntity
  8
1
  6
Continuous
100
AcDbCircle
 10
79.12356232601315
 20
238.5382625170254
 30
0.0
 40
1.0
100
AcDbArc
 50
275.2790400000006
 51
0.0
  0
LINE
  5
1066
330
18
100
AcDbEntity
  8
1
  6
Continuous
100
AcDbLine
 10
74.62356632601319
 20
265.9583141170254
 30
0.0
 11
79.21556932601315
 21
265.5340206170254
 31
0.0
  0
ARC
  5
1067
330
18
100
AcDbEntity
  8
1
  6
Continuous
100
AcDbCircle
 10
79.12356232601315
 20
264.5382625170254
 30
0.0
 40
1.0
100
AcDbArc
 50
0.0
 51
84.72095999999931
  0
LINE
  5
1068
330
18
100
AcDbEntity
  8
1
  6
Continuous
100
AcDbLine
 10
80.62356232601315
 20
257.5382625170254
 30
0.0
 11
81.62356232601316
 21
257.5382625170254
 31
0.0
  0
ARC
  5
1069
330
18
100
AcDbEntity
  8
1
  6
Continuous
100
AcDbCircle
 10
79.62356232601313
 20
261.5382625170254
 30
0.0
 40
1.0
100
AcDbArc
 50
0.0
 51
60.00000000000028
  0
ARC
  5
106A
330
18
100
AcDbEntity
  8
1
  6
Continuous
100
AcDbCircle
 10
58.62356232601314
 20
226.5382625170254
 30
0.0
 40
75.0
100
AcDbArc
 50
78.9432700000002
 51
101.0567500000004
  0
ARC
  5
106B
330
18
100
AcDbEntity
  8
1
  6
Continuous
100
AcDbCircle
 10
44.62356232601313
 20
298.1832205170253
 30
0.0
 40
2.0
100
AcDbArc
 50
101.0567099999999
 51
180.0000199999987
  0
ARC
  5
106C
330
18
100
AcDbEntity
  8
1
  6
Continuous
100
AcDbCircle
 10
72.62356232601312
 20
298.1832205170253
 30
0.0
 40
2.0
100
AcDbArc
 50
0.0
 51
78.94331000000147
  0
LINE
  5
106D
330
18
100
AcDbEntity
  8
1
  6
Continuous
100
AcDbLine
 10
477.4615563687444
 20
298.1832205170253
 30
0.0
 11
477.4615563687444
 21
204.8933045170254
 31
0.0
  0
LINE
  5
106E
330
18
100
AcDbEntity
  8
1
  6
Continuous
100
AcDbLine
 10
445.4615563687442
 20
298.1832198188937
 30
0.0
 11
445.4615563687442
 21
204.8933045170254
 31
0.0
  0
ARC
  5
106F
330
18
100
AcDbEntity
  8
1
  6
Continuous
100
AcDbCircle
 10
461.4615563687443
 20
276.5382625170254
 30
0.0
 40
75.0
100
AcDbArc
 50
258.9432499999994
 51
281.0567299999996
  0
ARC
  5
1070
330
18
100
AcDbEntity
  8
1
  6
Continuous
100
AcDbCircle
 10
447.4615563687442
 20
204.8933045170254
 30
0.0
 40
2.0
100
AcDbArc
 50
179.9999800000011
 51
258.9432899999999
  0
LINE
  5
1071
330
18
100
AcDbEntity
  8
1
  6
Continuous
100
AcDbLine
 10
439.4615563687444
 20
261.5382618188937
 30
0.0
 11
439.4615563687444
 21
241.5382625170253
 31
0.0
  0
LINE
  5
1072
330
18
100
AcDbEntity
  8
1
  6
Continuous
100
AcDbLine
 10
439.9615563687444
 20
264.5382623424925
 30
0.0
 11
439.9615563687444
 21
238.5382625170254
 31
0.0
  0
LINE
  5
1073
330
18
100
AcDbEntity
  8
1
  6
Continuous
100
AcDbLine
 10
445.4615563687442
 20
237.1182104170254
 30
0.0
 11
440.8695563687443
 21
237.5425040170254
 31
0.0
  0
ARC
  5
1074
330
18
100
AcDbEntity
  8
1
  6
Continuous
100
AcDbCircle
 10
440.4615563687444
 20
241.5382625170253
 30
0.0
 40
1.0
100
AcDbArc
 50
179.9999599999992
 51
239.999949999999
  0
LINE
  5
1075
330
18
100
AcDbEntity
  8
1
  6
Continuous
100
AcDbLine
 10
438.4615563687441
 20
245.5382625170253
 30
0.0
 11
439.4615563687444
 21
245.5382625170253
 31
0.0
  0
ARC
  5
1076
330
18
100
AcDbEntity
  8
1
  6
Continuous
100
AcDbCircle
 10
440.9615563687443
 20
238.5382625170254
 30
0.0
 40
1.0
100
AcDbArc
 50
179.9999899999988
 51
264.7209699999983
  0
LINE
  5
1077
330
18
100
AcDbEntity
  8
1
  6
Continuous
100
AcDbLine
 10
445.4615563687442
 20
265.9583146170254
 30
0.0
 11
440.8695563687443
 21
265.5340210170253
 31
0.0
  0
ARC
  5
1078
330
18
100
AcDbEntity
  8
1
  6
Continuous
100
AcDbCircle
 10
440.9615563687443
 20
264.5382625170254
 30
0.0
 40
1.0
100
AcDbArc
 50
95.27902999999843
 51
180.0000100000009
  0
LINE
  5
1079
330
18
100
AcDbEntity
  8
1
  6
Continuous
100
AcDbLine
 10
438.4615563687441
 20
257.5382625170254
 30
0.0
 11
439.4615563687444
 21
257.5382625170254
 31
0.0
  0
ARC
  5
107A
330
18
100
AcDbEntity
  8
1
  6
Continuous
100
AcDbCircle
 10
440.4615563687444
 20
261.5382625170254
 30
0.0
 40
1.0
100
AcDbArc
 50
120.0000500000008
 51
180.0000400000006
  0
ARC
  5
107B
330
18
100
AcDbEntity
  8
1
  6
Continuous
100
AcDbCircle
 10
475.4615563687441
 20
204.8933045170254
 30
0.0
 40
2.0
100
AcDbArc
 50
281.0566899999985
 51
0.0
  0
LINE
  5
107C
330
18
100
AcDbEntity
  8
1
  6
Continuous
100
AcDbLine
 10
482.9615563687442
 20
264.5382625170254
 30
0.0
 11
482.9615563687442
 21
238.5382625170254
 31
0.0
  0
LINE
  5
107D
330
18
100
AcDbEntity
  8
1
  6
Continuous
100
AcDbLine
 10
483.4615563687441
 20
261.5382625170254
 30
0.0
 11
483.4615563687441
 21
241.5382625170253
 31
0.0
  0
LINE
  5
107E
330
18
100
AcDbEntity
  8
1
  6
Continuous
100
AcDbLine
 10
477.4615603687442
 20
237.1182109170254
 30
0.0
 11
482.0535633687442
 21
237.5425044170254
 31
0.0
  0
ARC
  5
107F
330
18
100
AcDbEntity
  8
1
  6
Continuous
100
AcDbCircle
 10
482.4615563687443
 20
241.5382625170253
 30
0.0
 40
1.0
100
AcDbArc
 50
299.9999999999997
 51
0.0
  0
LINE
  5
1080
330
18
100
AcDbEntity
  8
1
  6
Continuous
100
AcDbLine
 10
483.4615563687441
 20
245.5382625170253
 30
0.0
 11
484.4615563687441
 21
245.5382625170253
 31
0.0
  0
ARC
  5
1081
330
18
100
AcDbEntity
  8
1
  6
Continuous
100
AcDbCircle
 10
481.9615563687444
 20
238.5382625170254
 30
0.0
 40
1.0
100
AcDbArc
 50
275.2790400000006
 51
0.0
  0
LINE
  5
1082
330
18
100
AcDbEntity
  8
1
  6
Continuous
100
AcDbLine
 10
477.4615603687442
 20
265.9583141170254
 30
0.0
 11
482.0535633687442
 21
265.5340206170254
 31
0.0
  0
ARC
  5
1083
330
18
100
AcDbEntity
  8
1
  6
Continuous
100
AcDbCircle
 10
481.9615563687444
 20
264.5382625170254
 30
0.0
 40
1.0
100
AcDbArc
 50
0.0
 51
84.72095999999931
  0
LINE
  5
1084
330
18
100
AcDbEntity
  8
1
  6
Continuous
100
AcDbLine
 10
483.4615563687441
 20
257.5382625170254
 30
0.0
 11
484.4615563687441
 21
257.5382625170254
 31
0.0
  0
ARC
  5
1085
330
18
100
AcDbEntity
  8
1
  6
Continuous
100
AcDbCircle
 10
482.4615563687443
 20
261.5382625170254
 30
0.0
 40
1.0
100
AcDbArc
 50
0.0
 51
60.00000000000028
  0
ARC
  5
1086
330
18
100
AcDbEntity
  8
1
  6
Continuous
100
AcDbCircle
 10
461.4615563687443
 20
226.5382625170254
 30
0.0
 40
75.0
100
AcDbArc
 50
78.9432700000002
 51
101.0567500000004
  0
ARC
  5
1087
330
18
100
AcDbEntity
  8
1
  6
Continuous
100
AcDbCircle
 10
447.4615563687442
 20
298.1832205170253
 30
0.0
 40
2.0
100
AcDbArc
 50
101.0567099999999
 51
180.0000199999987
  0
ARC
  5
1088
330
18
100
AcDbEntity
  8
1
  6
Continuous
100
AcDbCircle
 10
475.4615563687441
 20
298.1832205170253
 30
0.0
 40
2.0
100
AcDbArc
 50
0.0
 51
78.94331000000147
  0
ARC
  5
1089
330
18
100
AcDbEntity
  8
1
  6
Continuous
100
AcDbCircle
 10
265.0425593473787
 20
462.7990329246323
 30
0.0
 40
75.0
100
AcDbArc
 50
168.9432499999994
 51
191.0567299999998
  0
ARC
  5
108A
330
18
100
AcDbEntity
  8
1
  6
Continuous
100
AcDbCircle
 10
193.3976013473787
 20
448.7990329246321
 30
0.0
 40
2.0
100
AcDbArc
 50
191.0566899999985
 51
270.0
  0
ARC
  5
108B
330
18
100
AcDbEntity
  8
1
  6
Continuous
100
AcDbCircle
 10
193.3976013473787
 20
476.7990329246321
 30
0.0
 40
2.0
100
AcDbArc
 50
89.99998000000124
 51
168.9432899999999
  0
LINE
  5
108C
330
18
100
AcDbEntity
  8
1
  6
Continuous
100
AcDbLine
 10
230.0425593473788
 20
446.7990329246323
 30
0.0
 11
193.3976013473787
 21
446.7990329246323
 31
0.0
  0
LINE
  5
108D
330
18
100
AcDbEntity
  8
1
  6
Continuous
100
AcDbLine
 10
230.0425593473787
 20
478.7990329246323
 30
0.0
 11
193.3976013473787
 21
478.7990329246323
 31
0.0
  0
LINE
  5
108E
330
18
100
AcDbEntity
  8
1
  6
Continuous
100
AcDbLine
 10
225.6225072473787
 20
478.7990329246323
 30
0.0
 11
226.0468008473786
 21
483.3910329246323
 31
0.0
  0
ARC
  5
108F
330
18
100
AcDbEntity
  8
1
  6
Continuous
100
AcDbCircle
 10
230.0425593473787
 20
483.7990329246323
 30
0.0
 40
1.0
100
AcDbArc
 50
89.99995999999923
 51
149.999949999999
  0
ARC
  5
1090
330
18
100
AcDbEntity
  8
1
  6
Continuous
100
AcDbCircle
 10
227.0425593473786
 20
483.2990329246323
 30
0.0
 40
1.0
100
AcDbArc
 50
89.99998999999897
 51
174.7209699999983
  0
LINE
  5
1092
330
18
100
AcDbEntity
  8
1
  6
Continuous
100
AcDbLine
 10
230.0425593473788
 20
484.2990329246323
 30
0.0
 11
227.0425593473786
 21
484.2990329246323
 31
0.0
  0
LINE
  5
1094
330
18
100
AcDbEntity
  8
1
  6
Continuous
100
AcDbLine
 10
230.0425593473788
 20
441.2990329246323
 30
0.0
 11
227.0425593473786
 21
441.2990329246323
 31
0.0
  0
ARC
  5
1095
330
18
100
AcDbEntity
  8
1
  6
Continuous
100
AcDbCircle
 10
230.0425593473787
 20
441.7990329246323
 30
0.0
 40
1.0
100
AcDbArc
 50
209.9999999999995
 51
270.0
  0
LINE
  5
1096
330
18
100
AcDbEntity
  8
1
  6
Continuous
100
AcDbLine
 10
225.6225077473787
 20
446.7990289246322
 30
0.0
 11
226.0468012473786
 21
442.2070259246321
 31
0.0
  0
ARC
  5
1097
330
18
100
AcDbEntity
  8
1
  6
Continuous
100
AcDbCircle
 10
227.0425593473786
 20
442.2990329246323
 30
0.0
 40
1.0
100
AcDbArc
 50
185.2790400000007
 51
270.0
  0
ENDSEC
  0
SECTION
  2
OBJECTS
  0
DICTIONARY
  5
C
330
0
100
AcDbDictionary
281
     1
  3
ACAD_CIP_PREVIOUS_PRODUCT_INFO
350
11A5
  3
ACAD_COLOR
350
1188
  3
ACAD_DETAILVIEWSTYLE
350
11A1
  3
ACAD_GROUP
350
D
  3
ACAD_LAYOUT
350
5D
  3
ACAD_MATERIAL
350
1156
  3
ACAD_MLEADERSTYLE
350
119D
  3
ACAD_MLINESTYLE
350
1B
  3
ACAD_PLOTSETTINGS
350
5E
  3
ACAD_PLOTSTYLENAME
350
1154
  3
ACAD_SCALELIST
350
118B
  3
ACAD_SECTIONVIEWSTYLE
350
119F
  3
ACAD_TABLESTYLE
350
1189
  3
ACAD_VISUALSTYLE
350
116F
  3
ACDB_RECOMPOSE_DATA
350
11C3
  3
AcDbVariableDictionary
350
11B6
  3
CONTENTDICTIONARY
350
3D
  3
DWGPROPS
350
11C4
  0
DICTIONARY
  5
11A6
330
E
100
AcDbDictionary
280
     1
281
     1
  3
ADSK_XREC_LAYER_RECONCILED
360
11A7
  0
DICTIONARY
  5
11A8
330
293
100
AcDbDictionary
280
     1
281
     1
  3
ADSK_XREC_LAYER_RECONCILED
360
11A9
  0
DICTIONARY
  5
11AA
330
294
100
AcDbDictionary
280
     1
281
     1
  3
ADSK_XREC_LAYER_RECONCILED
360
11AB
  0
DICTIONARY
  5
11AC
330
295
100
AcDbDictionary
280
     1
281
     1
  3
ADSK_XREC_LAYER_RECONCILED
360
11AD
  0
DICTIONARY
  5
11AE
330
296
100
AcDbDictionary
280
     1
281
     1
  3
ADSK_XREC_LAYER_RECONCILED
360
11AF
  0
DICTIONARY
  5
11B0
330
297
100
AcDbDictionary
280
     1
281
     1
  3
ADSK_XREC_LAYER_RECONCILED
360
11B1
  0
DICTIONARY
  5
11B2
330
298
100
AcDbDictionary
280
     1
281
     1
  3
ADSK_XREC_LAYER_RECONCILED
360
11B3
  0
DICTIONARY
  5
11B4
330
299
100
AcDbDictionary
280
     1
281
     1
  3
ADSK_XREC_LAYER_RECONCILED
360
11B5
  0
DICTIONARY
  5
1138
330
18
100
AcDbDictionary
281
     1
  3
ACAD_LAYOUTSELFREF
350
1150
  0
DICTIONARY
  5
1136
330
15
100
AcDbDictionary
281
     1
  3
ACAD_LAYOUTSELFREF
350
114F
  0
XRECORD
  5
11A5
102
{ACAD_REACTORS
330
C
102
}
330
C
100
AcDbXrecord
280
     1
300
ACDLT
300
2014
300
ACDLT_F_S
  0
DICTIONARY
  5
1188
102
{ACAD_REACTORS
330
C
102
}
330
C
100
AcDbDictionary
281
     1
  0
DICTIONARY
  5
11A1
102
{ACAD_REACTORS
330
C
102
}
330
C
100
AcDbDictionary
281
     1
  3
Imperial24
350
11A2
  0
DICTIONARY
  5
D
102
{ACAD_REACTORS
330
C
102
}
330
C
100
AcDbDictionary
281
     1
  0
DICTIONARY
  5
5D
102
{ACAD_REACTORS
330
C
102
}
330
C
100
AcDbDictionary
281
     1
  3
Model
350
11A3
  3
レイアウト1
350
11A4
  0
DICTIONARY
  5
1156
102
{ACAD_REACTORS
330
C
102
}
330
C
100
AcDbDictionary
281
     1
  3
ByBlock
350
115F
  3
ByLayer
350
1157
  3
Global
350
1167
  0
DICTIONARY
  5
119D
102
{ACAD_REACTORS
330
C
102
}
330
C
100
AcDbDictionary
281
     1
  3
Standard
350
119E
  0
DICTIONARY
  5
1B
102
{ACAD_REACTORS
330
C
102
}
330
C
100
AcDbDictionary
281
     1
  3
STANDARD
350
1C
  0
DICTIONARY
  5
5E
102
{ACAD_REACTORS
330
C
102
}
330
C
100
AcDbDictionary
281
     1
  0
ACDBDICTIONARYWDFLT
  5
1154
102
{ACAD_REACTORS
330
C
102
}
330
C
100
AcDbDictionary
281
     1
  3
Normal
350
1155
100
AcDbDictionaryWithDefault
340
1155
  0
DICTIONARY
  5
118B
102
{ACAD_REACTORS
330
C
102
}
330
C
100
AcDbDictionary
281
     1
  3
A0
350
118C
  3
A1
350
118D
  3
A2
350
118E
  3
A3
350
118F
  3
A4
350
1190
  3
A5
350
1191
  3
A6
350
1192
  3
A7
350
1193
  3
A8
350
1194
  3
A9
350
1195
  3
B0
350
1196
  3
B1
350
1197
  3
B2
350
1198
  3
B3
350
1199
  3
B4
350
119A
  3
B5
350
119B
  3
B6
350
119C
  0
DICTIONARY
  5
119F
102
{ACAD_REACTORS
330
C
102
}
330
C
100
AcDbDictionary
281
     1
  3
Imperial24
350
11A0
  0
DICTIONARY
  5
1189
102
{ACAD_REACTORS
330
C
102
}
330
C
100
AcDbDictionary
281
     1
  3
Standard
350
118A
  0
DICTIONARY
  5
116F
102
{ACAD_REACTORS
330
C
102
}
330
C
100
AcDbDictionary
281
     1
  3
2dWireframe
350
1175
  3
Basic
350
1174
  3
Brighten
350
117B
  3
ColorChange
350
117F
  3
Conceptual
350
1178
  3
Dim
350
117A
  3
EdgeColorOff
350
1187
  3
Facepattern
350
117E
  3
Flat
350
1170
  3
FlatWithEdges
350
1171
  3
Gouraud
350
1172
  3
GouraudWithEdges
350
1173
  3
Hidden
350
1177
  3
JitterOff
350
1185
  3
Linepattern
350
117D
  3
OverhangOff
350
1186
  3
Realistic
350
1179
  3
Shaded
350
1184
  3
Shaded with edges
350
1183
  3
Shades of Gray
350
1180
  3
Sketchy
350
1181
  3
Thicken
350
117C
  3
Wireframe
350
1176
  3
X-Ray
350
1182
  0
XRECORD
  5
11C3
102
{ACAD_REACTORS
330
C
102
}
330
C
100
AcDbXrecord
280
     1
 90
        1
330
118A
  0
DICTIONARY
  5
11B6
102
{ACAD_REACTORS
330
C
102
}
330
C
100
AcDbDictionary
281
     1
  3
CANNOSCALE
350
11BB
  3
CMLEADERSTYLE
350
11B8
  3
CTABLESTYLE
350
11B7
  3
CVIEWDETAILSTYLE
350
11B9
  3
CVIEWSECTIONSTYLE
350
11BA
  3
DIMASSOC
350
11BE
  3
INDEXCTL
350
11BD
  3
SORTENTS
350
11BC
  3
XCLIPFRAME
350
11BF
  0
DICTIONARY
  5
3D
102
{ACAD_REACTORS
330
C
102
}
330
C
100
AcDbDictionary
281
     1
  0
XRECORD
  5
11C4
102
{ACAD_REACTORS
330
C
102
}
330
C
100
AcDbXrecord
280
     1
  1
DWGPROPS COOKIE
  2

  3

  4

  6

  7

  8
Yoshitsune
  9

300
=
301
=
302
=
303
=
304
=
305
=
306
=
307
=
308
=
309
=
 40
0.1675088425925926
 41
2453234.658638959
 42
2457192.689638669
  1

 90
        0
  0
XRECORD
  5
11A7
102
{ACAD_REACTORS
330
11A6
102
}
330
11A6
100
AcDbXrecord
280
     1
290
     1
  0
XRECORD
  5
11A9
102
{ACAD_REACTORS
330
11A8
102
}
330
11A8
100
AcDbXrecord
280
     1
290
     1
  0
XRECORD
  5
11AB
102
{ACAD_REACTORS
330
11AA
102
}
330
11AA
100
AcDbXrecord
280
     1
290
     1
  0
XRECORD
  5
11AD
102
{ACAD_REACTORS
330
11AC
102
}
330
11AC
100
AcDbXrecord
280
     1
290
     1
  0
XRECORD
  5
11AF
102
{ACAD_REACTORS
330
11AE
102
}
330
11AE
100
AcDbXrecord
280
     1
290
     1
  0
XRECORD
  5
11B1
102
{ACAD_REACTORS
330
11B0
102
}
330
11B0
100
AcDbXrecord
280
     1
290
     1
  0
XRECORD
  5
11B3
102
{ACAD_REACTORS
330
11B2
102
}
330
11B2
100
AcDbXrecord
280
     1
290
     1
  0
XRECORD
  5
11B5
102
{ACAD_REACTORS
330
11B4
102
}
330
11B4
100
AcDbXrecord
280
     1
290
     1
  0
XRECORD
  5
1150
102
{ACAD_REACTORS
330
1138
102
}
330
1138
100
AcDbXrecord
280
     1
340
18
  0
XRECORD
  5
114F
102
{ACAD_REACTORS
330
1136
102
}
330
1136
100
AcDbXrecord
280
     1
340
15
  0
ACDBDETAILVIEWSTYLE
  5
11A2
102
{ACAD_XDICTIONARY
360
11FC
102
}
102
{ACAD_REACTORS
330
11A1
102
}
330
11A1
100
AcDbModelDocViewStyle
 70
     0
  3
Imperial24
290
     0
100
AcDbDetailViewStyle
 70
     0
 71
     0
 90
        3
 71
     1
340
F
 40
0.24
340
0
 40
0.24
300

 40
0.36
280
     3
 71
     2
340
14
 90
       25
 71
     3
340
F
 40
0.24
 90
        1
 40
0.75
 90
        1
300
%<\AcVar ViewType \f "%tc1">% %<\AcVar ViewDetailId>%\PSCALE %<\AcVar ViewScale \f "%sn">%
 71
     4
340
14
 90
       25
340
14
 90
       25
280
     0
  0
LAYOUT
  5
11A3
102
{ACAD_XDICTIONARY
360
11FE
102
}
102
{ACAD_REACTORS
330
5D
102
}
330
5D
100
AcDbPlotSettings
  1

  2
Canon LBP9100C
  4

  6

 40
0.0
 41
0.0
 42
0.0
 43
0.0
 44
0.0
 45
0.0
 46
0.0
 47
0.0
 48
0.0
 49
0.0
140
0.0
141
0.0
142
1.0
143
1.0
 70
  1712
 72
     0
 73
     0
 74
     0
  7

 75
     0
147
1.0
148
0.0
149
0.0
100
AcDbLayout
  1
Model
 70
     1
 71
     0
 10
0.0
 20
0.0
 11
12.0
 21
9.0
 12
0.0
 22
0.0
 32
0.0
 14
0.0
 24
0.0
 34
0.0
 15
0.0
 25
0.0
 35
0.0
146
0.0
 13
0.0
 23
0.0
 33
0.0
 16
1.0
 26
0.0
 36
0.0
 17
0.0
 27
1.0
 37
0.0
 76
     0
330
18
331
114E
  0
LAYOUT
  5
11A4
102
{ACAD_XDICTIONARY
360
1200
102
}
102
{ACAD_REACTORS
330
5D
102
}
330
5D
100
AcDbPlotSettings
  1

  2
Canon LBP9100C
  4

  6

 40
0.0
 41
0.0
 42
0.0
 43
0.0
 44
0.0
 45
0.0
 46
0.0
 47
0.0
 48
0.0
 49
0.0
140
0.0
141
0.0
142
1.0
143
1.0
 70
   688
 72
     0
 73
     0
 74
     5
  7

 75
    16
147
1.0
148
0.0
149
0.0
100
AcDbLayout
  1
レイアウト1
 70
     1
 71
     1
 10
0.0
 20
0.0
 11
420.0
 21
297.0
 12
0.0
 22
0.0
 32
0.0
 14
1.000000000000000E+20
 24
1.000000000000000E+20
 34
1.000000000000000E+20
 15
-1.000000000000000E+20
 25
-1.000000000000000E+20
 35
-1.000000000000000E+20
146
0.0
 13
0.0
 23
0.0
 33
0.0
 16
1.0
 26
0.0
 36
0.0
 17
0.0
 27
1.0
 37
0.0
 76
     0
330
15
  0
MATERIAL
  5
115F
102
{ACAD_XDICTIONARY
360
1160
102
}
102
{ACAD_REACTORS
330
1156
102
}
330
1156
100
AcDbMaterial
  1
ByBlock
 72
     0
 43
0.0208333333333333
 43
0.0
 43
0.0
 43
0.0
 43
0.0
 43
0.0208333333333333
 43
0.0
 43
0.0
 43
0.0
 43
0.0
 43
1.0
 43
0.0
 43
0.0
 43
0.0
 43
0.0
 43
1.0
 77
     0
 47
0.0208333333333333
 47
0.0
 47
0.0
 47
0.0
 47
0.0
 47
0.0208333333333333
 47
0.0
 47
0.0
 47
0.0
 47
0.0
 47
1.0
 47
0.0
 47
0.0
 47
0.0
 47
0.0
 47
1.0
171
     0
 49
0.0208333333333333
 49
0.0
 49
0.0
 49
0.0
 49
0.0
 49
0.0208333333333333
 49
0.0
 49
0.0
 49
0.0
 49
0.0
 49
1.0
 49
0.0
 49
0.0
 49
0.0
 49
0.0
 49
1.0
175
     0
142
0.0208333333333333
142
0.0
142
0.0
142
0.0
142
0.0
142
0.0208333333333333
142
0.0
142
0.0
142
0.0
142
0.0
142
1.0
142
0.0
142
0.0
142
0.0
142
0.0
142
1.0
179
     0
144
0.0208333333333333
144
0.0
144
0.0
144
0.0
144
0.0
144
0.0208333333333333
144
0.0
144
0.0
144
0.0
144
0.0
144
1.0
144
0.0
144
0.0
144
0.0
144
0.0
144
1.0
147
0.0208333333333333
147
0.0
147
0.0
147
0.0
147
0.0
147
0.0208333333333333
147
0.0
147
0.0
147
0.0
147
0.0
147
1.0
147
0.0
147
0.0
147
0.0
147
0.0
147
1.0
  0
MATERIAL
  5
1157
102
{ACAD_XDICTIONARY
360
1158
102
}
102
{ACAD_REACTORS
330
1156
102
}
330
1156
100
AcDbMaterial
  1
ByLayer
 72
     0
 43
0.0208333333333333
 43
0.0
 43
0.0
 43
0.0
 43
0.0
 43
0.0208333333333333
 43
0.0
 43
0.0
 43
0.0
 43
0.0
 43
1.0
 43
0.0
 43
0.0
 43
0.0
 43
0.0
 43
1.0
 77
     0
 47
0.0208333333333333
 47
0.0
 47
0.0
 47
0.0
 47
0.0
 47
0.0208333333333333
 47
0.0
 47
0.0
 47
0.0
 47
0.0
 47
1.0
 47
0.0
 47
0.0
 47
0.0
 47
0.0
 47
1.0
171
     0
 49
0.0208333333333333
 49
0.0
 49
0.0
 49
0.0
 49
0.0
 49
0.0208333333333333
 49
0.0
 49
0.0
 49
0.0
 49
0.0
 49
1.0
 49
0.0
 49
0.0
 49
0.0
 49
0.0
 49
1.0
175
     0
142
0.0208333333333333
142
0.0
142
0.0
142
0.0
142
0.0
142
0.0208333333333333
142
0.0
142
0.0
142
0.0
142
0.0
142
1.0
142
0.0
142
0.0
142
0.0
142
0.0
142
1.0
179
     0
144
0.0208333333333333
144
0.0
144
0.0
144
0.0
144
0.0
144
0.0208333333333333
144
0.0
144
0.0
144
0.0
144
0.0
144
1.0
144
0.0
144
0.0
144
0.0
144
0.0
144
1.0
147
0.0208333333333333
147
0.0
147
0.0
147
0.0
147
0.0
147
0.0208333333333333
147
0.0
147
0.0
147
0.0
147
0.0
147
1.0
147
0.0
147
0.0
147
0.0
147
0.0
147
1.0
  0
MATERIAL
  5
1167
102
{ACAD_XDICTIONARY
360
1168
102
}
102
{ACAD_REACTORS
330
1156
102
}
330
1156
100
AcDbMaterial
  1
Global
 72
     0
 43
0.0208333333333333
 43
0.0
 43
0.0
 43
0.0
 43
0.0
 43
0.0208333333333333
 43
0.0
 43
0.0
 43
0.0
 43
0.0
 43
1.0
 43
0.0
 43
0.0
 43
0.0
 43
0.0
 43
1.0
 77
     0
 47
0.0208333333333333
 47
0.0
 47
0.0
 47
0.0
 47
0.0
 47
0.0208333333333333
 47
0.0
 47
0.0
 47
0.0
 47
0.0
 47
1.0
 47
0.0
 47
0.0
 47
0.0
 47
0.0
 47
1.0
171
     0
 49
0.0208333333333333
 49
0.0
 49
0.0
 49
0.0
 49
0.0
 49
0.0208333333333333
 49
0.0
 49
0.0
 49
0.0
 49
0.0
 49
1.0
 49
0.0
 49
0.0
 49
0.0
 49
0.0
 49
1.0
175
     0
142
0.0208333333333333
142
0.0
142
0.0
142
0.0
142
0.0
142
0.0208333333333333
142
0.0
142
0.0
142
0.0
142
0.0
142
1.0
142
0.0
142
0.0
142
0.0
142
0.0
142
1.0
179
     0
144
0.0208333333333333
144
0.0
144
0.0
144
0.0
144
0.0
144
0.0208333333333333
144
0.0
144
0.0
144
0.0
144
0.0
144
1.0
144
0.0
144
0.0
144
0.0
144
0.0
144
1.0
147
0.0208333333333333
147
0.0
147
0.0
147
0.0
147
0.0
147
0.0208333333333333
147
0.0
147
0.0
147
0.0
147
0.0
147
1.0
147
0.0
147
0.0
147
0.0
147
0.0
147
1.0
  0
MLEADERSTYLE
  5
119E
102
{ACAD_REACTORS
330
119D
102
}
330
119D
100
AcDbMLeaderStyle
170
     2
171
     1
172
     0
 90
        2
 40
0.0
 41
0.0
173
     1
 91
-1056964608
340
12
 92
       -2
290
     1
 42
0.09
291
     1
 43
0.36
  3
Standard
 44
0.18
300

342
F
174
     1
178
     6
175
     1
176
     0
 93
-1056964608
 45
0.18
292
     0
297
     0
 46
0.18
 94
-1056964608
 47
1.0
 49
1.0
140
1.0
293
     1
141
0.0
294
     1
177
     0
142
1.0
295
     0
296
     0
143
0.125
1001
ACAD_MLEADERVER
1070
     2
  0
MLINESTYLE
  5
1C
102
{ACAD_REACTORS
330
1B
102
}
330
1B
100
AcDbMlineStyle
  2
STANDARD
 70
     0
  3

 62
   256
 51
90.0
 52
90.0
 71
     2
 49
0.5
 62
   256
  6
BYLAYER
 49
-0.5
 62
   256
  6
BYLAYER
  0
ACDBPLACEHOLDER
  5
1155
102
{ACAD_REACTORS
330
1154
102
}
330
1154
  0
SCALE
  5
118C
102
{ACAD_REACTORS
330
118B
102
}
330
118B
100
AcDbScale
 70
     0
300
1:1
140
1.0
141
1.0
290
     1
  0
SCALE
  5
118D
102
{ACAD_REACTORS
330
118B
102
}
330
118B
100
AcDbScale
 70
     0
300
1/128" = 1'-0"
140
0.0078125
141
12.0
290
     0
  0
SCALE
  5
118E
102
{ACAD_REACTORS
330
118B
102
}
330
118B
100
AcDbScale
 70
     0
300
1/64" = 1'-0"
140
0.015625
141
12.0
290
     0
  0
SCALE
  5
118F
102
{ACAD_REACTORS
330
118B
102
}
330
118B
100
AcDbScale
 70
     0
300
1/32" = 1'-0"
140
0.03125
141
12.0
290
     0
  0
SCALE
  5
1190
102
{ACAD_REACTORS
330
118B
102
}
330
118B
100
AcDbScale
 70
     0
300
1/16" = 1'-0"
140
0.0625
141
12.0
290
     0
  0
SCALE
  5
1191
102
{ACAD_REACTORS
330
118B
102
}
330
118B
100
AcDbScale
 70
     0
300
3/32" = 1'-0"
140
0.09375
141
12.0
290
     0
  0
SCALE
  5
1192
102
{ACAD_REACTORS
330
118B
102
}
330
118B
100
AcDbScale
 70
     0
300
1/8" = 1'-0"
140
0.125
141
12.0
290
     0
  0
SCALE
  5
1193
102
{ACAD_REACTORS
330
118B
102
}
330
118B
100
AcDbScale
 70
     0
300
3/16" = 1'-0"
140
0.1875
141
12.0
290
     0
  0
SCALE
  5
1194
102
{ACAD_REACTORS
330
118B
102
}
330
118B
100
AcDbScale
 70
     0
300
1/4" = 1'-0"
140
0.25
141
12.0
290
     0
  0
SCALE
  5
1195
102
{ACAD_REACTORS
330
118B
102
}
330
118B
100
AcDbScale
 70
     0
300
3/8" = 1'-0"
140
0.375
141
12.0
290
     0
  0
SCALE
  5
1196
102
{ACAD_REACTORS
330
118B
102
}
330
118B
100
AcDbScale
 70
     0
300
1/2" = 1'-0"
140
0.5
141
12.0
290
     0
  0
SCALE
  5
1197
102
{ACAD_REACTORS
330
118B
102
}
330
118B
100
AcDbScale
 70
     0
300
3/4" = 1'-0"
140
0.75
141
12.0
290
     0
  0
SCALE
  5
1198
102
{ACAD_REACTORS
330
118B
102
}
330
118B
100
AcDbScale
 70
     0
300
1" = 1'-0"
140
1.0
141
12.0
290
     0
  0
SCALE
  5
1199
102
{ACAD_REACTORS
330
118B
102
}
330
118B
100
AcDbScale
 70
     0
300
1-1/2" = 1'-0"
140
1.5
141
12.0
290
     0
  0
SCALE
  5
119A
102
{ACAD_REACTORS
330
118B
102
}
330
118B
100
AcDbScale
 70
     0
300
3" = 1'-0"
140
3.0
141
12.0
290
     0
  0
SCALE
  5
119B
102
{ACAD_REACTORS
330
118B
102
}
330
118B
100
AcDbScale
 70
     0
300
6" = 1'-0"
140
6.0
141
12.0
290
     0
  0
SCALE
  5
119C
102
{ACAD_REACTORS
330
118B
102
}
330
118B
100
AcDbScale
 70
     0
300
1'-0" = 1'-0"
140
12.0
141
12.0
290
     0
  0
ACDBSECTIONVIEWSTYLE
  5
11A0
102
{ACAD_XDICTIONARY
360
11FA
102
}
102
{ACAD_REACTORS
330
119F
102
}
330
119F
100
AcDbModelDocViewStyle
 70
     0
  3
Imperial24
290
     0
100
AcDbSectionViewStyle
 70
     0
 71
     0
 90
       78
 71
     1
340
F
 40
0.24
340
0
340
0
 40
0.24
300
I, O, Q, S, X, Z
 40
0.48
 90
        3
 40
0.18
 90
        1
 71
     2
340
14
 90
       25
340
14
 90
       50
 40
0.24
 40
0.0
 40
0.24
 71
     3
340
F
 40
0.24
 90
        1
 40
0.75
 90
        1
300
%<\AcVar ViewType \f "%tc1">% %<\AcVar ViewSectionStartId>%-%<\AcVar ViewSectionEndId>%\PSCALE %<\AcVar ViewScale \f "%sn">%
 71
     4
300
ANSI31
 40
1.0
 90
        0
290
     0
290
     0
 90
        6
 40
0.0
 40
1.570796326794896
 40
0.2617993877991494
 40
1.308996938995747
 40
-0.2617993877991494
 40
1.832595714594046
  0
TABLESTYLE
  5
118A
102
{ACAD_XDICTIONARY
360
11C1
102
}
102
{ACAD_REACTORS
330
1189
102
}
330
1189
100
AcDbTableStyle
  3
Standard
 70
     0
 71
     0
 40
0.06
 41
0.06
280
     0
281
     0
  7
STANDARD
140
0.18
170
     2
 62
     0
 63
     7
283
     0
274
    -2
284
     1
 64
     0
275
    -2
285
     1
 65
     0
276
    -2
286
     1
 66
     0
277
    -2
287
     1
 67
     0
278
    -2
288
     1
 68
     0
279
    -2
289
     1
 69
     0
  7
STANDARD
140
0.25
170
     5
 62
     0
 63
     7
283
     0
274
    -2
284
     1
 64
     0
275
    -2
285
     1
 65
     0
276
    -2
286
     1
 66
     0
277
    -2
287
     1
 67
     0
278
    -2
288
     1
 68
     0
279
    -2
289
     1
 69
     0
  7
STANDARD
140
0.18
170
     5
 62
     0
 63
     7
283
     0
274
    -2
284
     1
 64
     0
275
    -2
285
     1
 65
     0
276
    -2
286
     1
 66
     0
277
    -2
287
     1
 67
     0
278
    -2
288
     1
 68
     0
279
    -2
289
     1
 69
     0
  0
VISUALSTYLE
  5
1175
102
{ACAD_XDICTIONARY
360
11D2
102
}
102
{ACAD_REACTORS
330
116F
102
}
330
116F
100
AcDbVisualStyle
  2
2dWireframe
 70
     4
 71
     0
 72
     2
 73
     0
 90
        0
 40
-0.6
 41
-30.0
 62
     5
 63
     7
 74
     1
 91
        4
 64
     7
 65
   257
 75
     1
175
     1
 42
1.0
 92
        0
 66
   257
 43
1.0
 76
     1
 77
     6
 78
     2
 67
     7
 79
     5
170
     0
171
     0
290
     0
174
     0
 93
        1
 44
0.0
173
     0
291
     0
 45
0.0
1001
ACAD
1000
AcDbSavedByObjectVersion
1070
     0
  0
VISUALSTYLE
  5
1174
102
{ACAD_XDICTIONARY
360
11D0
102
}
102
{ACAD_REACTORS
330
116F
102
}
330
116F
100
AcDbVisualStyle
  2
Basic
 70
     7
 71
     1
 72
     0
 73
     1
 90
        0
 40
-0.6
 41
-30.0
 62
     5
 63
     7
 74
     0
 91
        4
 64
     7
 65
   257
 75
     1
175
     1
 42
1.0
 92
        8
 66
     7
 43
1.0
 76
     1
 77
     6
 78
     2
 67
     7
 79
     5
170
     0
171
     0
290
     0
174
     0
 93
        1
 44
0.0
173
     0
291
     1
 45
0.0
1001
ACAD
1000
AcDbSavedByObjectVersion
1070
     0
  0
VISUALSTYLE
  5
117B
102
{ACAD_XDICTIONARY
360
11DE
102
}
102
{ACAD_REACTORS
330
116F
102
}
330
116F
100
AcDbVisualStyle
  2
Brighten
 70
    12
 71
     2
 72
     2
 73
     0
 90
        0
 40
-0.6
 41
-30.0
 62
     5
 63
     7
 74
     1
 91
        4
 64
     7
 65
   257
 75
     1
175
     1
 42
1.0
 92
        8
 66
     7
 43
1.0
 76
     1
 77
     6
 78
     2
 67
     7
 79
     5
170
     0
171
     0
290
     0
174
     0
 93
        1
 44
50.0
173
     0
291
     1
 45
0.0
1001
ACAD
1000
AcDbSavedByObjectVersion
1070
     0
  0
VISUALSTYLE
  5
117F
102
{ACAD_XDICTIONARY
360
11E6
102
}
102
{ACAD_REACTORS
330
116F
102
}
330
116F
100
AcDbVisualStyle
  2
ColorChange
 70
    16
 71
     2
 72
     2
 73
     3
 90
        0
 40
-0.6
 41
-30.0
 62
     5
 63
     8
 74
     1
 91
        4
 64
     7
 65
   257
 75
     1
175
     1
 42
1.0
 92
        8
 66
     8
 43
1.0
 76
     1
 77
     6
 78
     2
 67
     7
 79
     5
170
     0
171
     0
290
     0
174
     0
 93
        1
 44
0.0
173
     0
291
     1
 45
0.0
1001
ACAD
1000
AcDbSavedByObjectVersion
1070
     0
  0
VISUALSTYLE
  5
1178
102
{ACAD_XDICTIONARY
360
11D8
102
}
102
{ACAD_REACTORS
330
116F
102
}
330
116F
100
AcDbVisualStyle
  2
Conceptual
 70
     9
 71
     3
 72
     2
 73
     0
 90
        0
 40
-0.6
 41
-30.0
 62
     5
 63
     7
 74
     2
 91
        2
 64
     7
 65
   257
 75
     1
175
     1
 42
179.0
 92
        8
 66
     7
 43
1.0
 76
     1
 77
     6
 78
     2
 67
     7
 79
     3
170
     0
171
     0
290
     0
174
     0
 93
        1
 44
0.0
173
     0
291
     0
 45
0.0
1001
ACAD
1000
AcDbSavedByObjectVersion
1070
     0
  0
VISUALSTYLE
  5
117A
102
{ACAD_XDICTIONARY
360
11DC
102
}
102
{ACAD_REACTORS
330
116F
102
}
330
116F
100
AcDbVisualStyle
  2
Dim
 70
    11
 71
     2
 72
     2
 73
     0
 90
        0
 40
-0.6
 41
-30.0
 62
     5
 63
     7
 74
     1
 91
        4
 64
     7
 65
   257
 75
     1
175
     1
 42
1.0
 92
        8
 66
     7
 43
1.0
 76
     1
 77
     6
 78
     2
 67
     7
 79
     5
170
     0
171
     0
290
     0
174
     0
 93
        1
 44
-50.0
173
     0
291
     1
 45
0.0
1001
ACAD
1000
AcDbSavedByObjectVersion
1070
     0
  0
VISUALSTYLE
  5
1187
102
{ACAD_XDICTIONARY
360
11F6
102
}
102
{ACAD_REACTORS
330
116F
102
}
330
116F
100
AcDbVisualStyle
  2
EdgeColorOff
 70
    22
 71
     2
 72
     2
 73
     0
 90
        0
 40
-0.6
 41
-30.0
 62
     5
 63
     7
 74
     1
 91
        4
 64
     7
 65
   257
 75
     1
175
     1
 42
1.0
 92
        8
 66
     7
 43
1.0
 76
     1
 77
     6
 78
     2
 67
     7
 79
     5
170
     0
171
     0
290
     0
174
     0
 93
        1
 44
0.0
173
     0
291
     1
 45
0.0
1001
ACAD
1000
AcDbSavedByObjectVersion
1070
     0
  0
VISUALSTYLE
  5
117E
102
{ACAD_XDICTIONARY
360
11E4
102
}
102
{ACAD_REACTORS
330
116F
102
}
330
116F
100
AcDbVisualStyle
  2
Facepattern
 70
    15
 71
     2
 72
     2
 73
     0
 90
        0
 40
-0.6
 41
-30.0
 62
     5
 63
     7
 74
     1
 91
        4
 64
     7
 65
   257
 75
     1
175
     1
 42
1.0
 92
        8
 66
     7
 43
1.0
 76
     1
 77
     6
 78
     2
 67
     7
 79
     5
170
     0
171
     0
290
     0
174
     0
 93
        1
 44
0.0
173
     0
291
     1
 45
0.0
1001
ACAD
1000
AcDbSavedByObjectVersion
1070
     0
  0
VISUALSTYLE
  5
1170
102
{ACAD_XDICTIONARY
360
11C8
102
}
102
{ACAD_REACTORS
330
116F
102
}
330
116F
100
AcDbVisualStyle
  2
Flat
 70
     0
 71
     2
 72
     1
 73
     1
 90
        2
 40
-0.6
 41
30.0
 62
     5
 63
     7
 74
     0
 91
        0
 64
     7
 65
   257
 75
     1
175
     1
 42
1.0
 92
        8
 66
     7
 43
1.0
 76
     1
 77
     6
 78
     2
 67
     7
 79
     5
170
     0
171
     0
290
     0
174
     0
 93
       13
 44
0.0
173
     0
291
     1
 45
0.0
1001
ACAD
1000
AcDbSavedByObjectVersion
1070
     0
  0
VISUALSTYLE
  5
1171
102
{ACAD_XDICTIONARY
360
11CA
102
}
102
{ACAD_REACTORS
330
116F
102
}
330
116F
100
AcDbVisualStyle
  2
FlatWithEdges
 70
     1
 71
     2
 72
     1
 73
     1
 90
        2
 40
-0.6
 41
30.0
 62
     5
 63
     7
 74
     1
 91
        0
 64
     7
 65
   257
 75
     1
175
     1
 42
1.0
 92
        0
 66
   257
 43
1.0
 76
     1
 77
     6
 78
     2
 67
     7
 79
     5
170
     0
171
     0
290
     0
174
     0
 93
       13
 44
0.0
173
     0
291
     1
 45
0.0
1001
ACAD
1000
AcDbSavedByObjectVersion
1070
     0
  0
VISUALSTYLE
  5
1172
102
{ACAD_XDICTIONARY
360
11CC
102
}
102
{ACAD_REACTORS
330
116F
102
}
330
116F
100
AcDbVisualStyle
  2
Gouraud
 70
     2
 71
     2
 72
     2
 73
     1
 90
        2
 40
-0.6
 41
30.0
 62
     5
 63
     7
 74
     0
 91
        0
 64
     7
 65
   257
 75
     1
175
     1
 42
1.0
 92
        0
 66
     7
 43
1.0
 76
     1
 77
     6
 78
     2
 67
     7
 79
     5
170
     0
171
     0
290
     0
174
     0
 93
       13
 44
0.0
173
     0
291
     1
 45
0.0
1001
ACAD
1000
AcDbSavedByObjectVersion
1070
     0
  0
VISUALSTYLE
  5
1173
102
{ACAD_XDICTIONARY
360
11CE
102
}
102
{ACAD_REACTORS
330
116F
102
}
330
116F
100
AcDbVisualStyle
  2
GouraudWithEdges
 70
     3
 71
     2
 72
     2
 73
     1
 90
        2
 40
-0.6
 41
30.0
 62
     5
 63
     7
 74
     1
 91
        0
 64
     7
 65
   257
 75
     1
175
     1
 42
1.0
 92
        0
 66
   257
 43
1.0
 76
     1
 77
     6
 78
     2
 67
     7
 79
     5
170
     0
171
     0
290
     0
174
     0
 93
       13
 44
0.0
173
     0
291
     1
 45
0.0
1001
ACAD
1000
AcDbSavedByObjectVersion
1070
     0
  0
VISUALSTYLE
  5
1177
102
{ACAD_XDICTIONARY
360
11D6
102
}
102
{ACAD_REACTORS
330
116F
102
}
330
116F
100
AcDbVisualStyle
  2
Hidden
 70
     6
 71
     1
 72
     2
 73
     2
 90
        0
 40
-0.6
 41
-30.0
 62
     5
 63
     7
 74
     2
 91
        2
 64
     7
 65
   257
 75
     2
175
     1
 42
40.0
 92
        0
 66
   257
 43
1.0
 76
     1
 77
     6
 78
     2
 67
     7
 79
     3
170
     0
171
     0
290
     0
174
     0
 93
        1
 44
0.0
173
     0
291
     0
 45
0.0
1001
ACAD
1000
AcDbSavedByObjectVersion
1070
     0
  0
VISUALSTYLE
  5
1185
102
{ACAD_XDICTIONARY
360
11F2
102
}
102
{ACAD_REACTORS
330
116F
102
}
330
116F
100
AcDbVisualStyle
  2
JitterOff
 70
    20
 71
     2
 72
     2
 73
     0
 90
        0
 40
-0.6
 41
-30.0
 62
     5
 63
     7
 74
     1
 91
        4
 64
     7
 65
   257
 75
     1
175
     1
 42
1.0
 92
       10
 66
     7
 43
1.0
 76
     1
 77
     6
 78
     2
 67
     7
 79
     5
170
     0
171
     0
290
     0
174
     0
 93
        1
 44
0.0
173
     0
291
     1
 45
0.0
1001
ACAD
1000
AcDbSavedByObjectVersion
1070
     0
  0
VISUALSTYLE
  5
117D
102
{ACAD_XDICTIONARY
360
11E2
102
}
102
{ACAD_REACTORS
330
116F
102
}
330
116F
100
AcDbVisualStyle
  2
Linepattern
 70
    14
 71
     2
 72
     2
 73
     0
 90
        0
 40
-0.6
 41
-30.0
 62
     5
 63
     7
 74
     1
 91
        4
 64
     7
 65
   257
 75
     7
175
     7
 42
1.0
 92
        8
 66
     7
 43
1.0
 76
     1
 77
     6
 78
     2
 67
     7
 79
     5
170
     0
171
     0
290
     0
174
     0
 93
        1
 44
0.0
173
     0
291
     1
 45
0.0
1001
ACAD
1000
AcDbSavedByObjectVersion
1070
     0
  0
VISUALSTYLE
  5
1186
102
{ACAD_XDICTIONARY
360
11F4
102
}
102
{ACAD_REACTORS
330
116F
102
}
330
116F
100
AcDbVisualStyle
  2
OverhangOff
 70
    21
 71
     2
 72
     2
 73
     0
 90
        0
 40
-0.6
 41
-30.0
 62
     5
 63
     7
 74
     1
 91
        4
 64
     7
 65
   257
 75
     1
175
     1
 42
1.0
 92
        9
 66
     7
 43
1.0
 76
     1
 77
     6
 78
     2
 67
     7
 79
     5
170
     0
171
     0
290
     0
174
     0
 93
        1
 44
0.0
173
     0
291
     1
 45
0.0
1001
ACAD
1000
AcDbSavedByObjectVersion
1070
     0
  0
VISUALSTYLE
  5
1179
102
{ACAD_XDICTIONARY
360
11DA
102
}
102
{ACAD_REACTORS
330
116F
102
}
330
116F
100
AcDbVisualStyle
  2
Realistic
 70
     8
 71
     2
 72
     3
 73
     0
 90
        2
 40
-0.6
 41
30.0
 62
     5
 63
     7
 74
     0
 91
        0
 64
     7
 65
   257
 75
     1
175
     1
 42
1.0
 92
        8
 66
   257
 43
1.0
 76
     1
 77
     6
 78
     2
 67
     7
 79
     3
170
     0
171
     0
290
     0
174
     0
 93
       13
 44
0.0
173
     0
291
     0
 45
0.0
1001
ACAD
1000
AcDbSavedByObjectVersion
1070
     0
  0
VISUALSTYLE
  5
1184
102
{ACAD_XDICTIONARY
360
11F0
102
}
102
{ACAD_REACTORS
330
116F
102
}
330
116F
100
AcDbVisualStyle
  2
Shaded
 70
    27
 71
     2
 72
     2
 73
     1
 90
        2
 40
-0.6
 41
30.0
 62
     5
 63
     7
 74
     0
 91
        4
 64
     7
 65
   257
 75
     1
175
     1
 42
1.0
 92
        8
 66
   257
 43
1.0
 76
     1
 77
     6
 78
     2
 67
     8
 79
     3
170
     0
171
     0
290
     0
174
     0
 93
        5
 44
0.0
173
     0
291
     0
 45
0.0
1001
ACAD
1000
AcDbSavedByObjectVersion
1070
     0
  0
VISUALSTYLE
  5
1183
102
{ACAD_XDICTIONARY
360
11EE
102
}
102
{ACAD_REACTORS
330
116F
102
}
330
116F
100
AcDbVisualStyle
  2
Shaded with edges
 70
    26
 71
     2
 72
     2
 73
     1
 90
        2
 40
-0.6
 41
30.0
 62
     5
 63
     7
 74
     1
 91
       10
 64
     7
 65
   257
 75
     2
175
     1
 42
1.0
 92
        8
 66
   257
 43
1.0
 76
     1
 77
     6
 78
     2
 67
     7
 79
     3
170
     0
171
     0
290
     0
174
     0
 93
        5
 44
0.0
173
     0
291
     0
 45
0.0
1001
ACAD
1000
AcDbSavedByObjectVersion
1070
     0
  0
VISUALSTYLE
  5
1180
102
{ACAD_XDICTIONARY
360
11E8
102
}
102
{ACAD_REACTORS
330
116F
102
}
330
116F
100
AcDbVisualStyle
  2
Shades of Gray
 70
    23
 71
     2
 72
     2
 73
     3
 90
        0
 40
-0.6
 41
-30.0
 62
     5
 63
     7
 74
     2
 91
        2
 64
     7
 65
     7
 75
     1
175
     1
 42
40.0
 92
        8
 66
     7
 43
1.0
 76
     1
 77
     6
 78
     2
 67
     7
 79
     3
170
     0
171
     0
290
     0
174
     0
 93
        1
 44
0.0
173
     0
291
     0
 45
0.0
1001
ACAD
1000
AcDbSavedByObjectVersion
1070
     0
  0
VISUALSTYLE
  5
1181
102
{ACAD_XDICTIONARY
360
11EA
102
}
102
{ACAD_REACTORS
330
116F
102
}
330
116F
100
AcDbVisualStyle
  2
Sketchy
 70
    24
 71
     1
 72
     2
 73
     2
 90
        0
 40
-0.6
 41
-30.0
 62
     5
 63
     7
 74
     2
 91
        2
 64
     7
 65
     7
 75
     1
175
     1
 42
40.0
 92
       11
 66
     7
 43
1.0
 76
     1
 77
     6
 78
     2
 67
     7
 79
     6
170
     0
171
     0
290
     0
174
     0
 93
        1
 44
0.0
173
     0
291
     0
 45
0.0
1001
ACAD
1000
AcDbSavedByObjectVersion
1070
     0
  0
VISUALSTYLE
  5
117C
102
{ACAD_XDICTIONARY
360
11E0
102
}
102
{ACAD_REACTORS
330
116F
102
}
330
116F
100
AcDbVisualStyle
  2
Thicken
 70
    13
 71
     2
 72
     2
 73
     0
 90
        0
 40
-0.6
 41
-30.0
 62
     5
 63
     7
 74
     1
 91
        4
 64
     7
 65
   257
 75
     1
175
     1
 42
1.0
 92
       12
 66
     7
 43
1.0
 76
     1
 77
     6
 78
     2
 67
     7
 79
     5
170
     0
171
     0
290
     0
174
     0
 93
        1
 44
0.0
173
     0
291
     1
 45
0.0
1001
ACAD
1000
AcDbSavedByObjectVersion
1070
     0
  0
VISUALSTYLE
  5
1176
102
{ACAD_XDICTIONARY
360
11D4
102
}
102
{ACAD_REACTORS
330
116F
102
}
330
116F
100
AcDbVisualStyle
  2
Wireframe
 70
     5
 71
     0
 72
     2
 73
     0
 90
        0
 40
-0.6
 41
-30.0
 62
     5
 63
     7
 74
     1
 91
        4
 64
     7
 65
   257
 75
     1
175
     1
 42
1.0
 92
        0
 66
   257
 43
1.0
 76
     1
 77
     6
 78
     2
 67
     7
 79
     3
170
     0
171
     0
290
     0
174
     0
 93
        1
 44
0.0
173
     0
291
     0
 45
0.0
1001
ACAD
1000
AcDbSavedByObjectVersion
1070
     0
  0
VISUALSTYLE
  5
1182
102
{ACAD_XDICTIONARY
360
11EC
102
}
102
{ACAD_REACTORS
330
116F
102
}
330
116F
100
AcDbVisualStyle
  2
X-Ray
 70
    25
 71
     2
 72
     2
 73
     1
 90
        1
 40
0.5
 41
-30.0
 62
     5
 63
     7
 74
     1
 91
        0
 64
     7
 65
   257
 75
     1
175
     1
 42
1.0
 92
        8
 66
     7
 43
1.0
 76
     1
 77
     6
 78
     2
 67
     7
 79
     3
170
     0
171
     0
290
     0
174
     0
 93
       13
 44
0.0
173
     0
291
     0
 45
0.0
1001
ACAD
1000
AcDbSavedByObjectVersion
1070
     0
  0
DICTIONARYVAR
  5
11BB
102
{ACAD_REACTORS
330
11B6
102
}
330
11B6
100
DictionaryVariables
280
     0
  1
1:1
  0
DICTIONARYVAR
  5
11B8
102
{ACAD_REACTORS
330
11B6
102
}
330
11B6
100
DictionaryVariables
280
     0
  1
STANDARD
  0
DICTIONARYVAR
  5
11B7
102
{ACAD_REACTORS
330
11B6
102
}
330
11B6
100
DictionaryVariables
280
     0
  1
STANDARD
  0
DICTIONARYVAR
  5
11B9
102
{ACAD_REACTORS
330
11B6
102
}
330
11B6
100
DictionaryVariables
280
     0
  1
Imperial24
  0
DICTIONARYVAR
  5
11BA
102
{ACAD_REACTORS
330
11B6
102
}
330
11B6
100
DictionaryVariables
280
     0
  1
Imperial24
  0
DICTIONARYVAR
  5
11BE
102
{ACAD_REACTORS
330
11B6
102
}
330
11B6
100
DictionaryVariables
280
     0
  1
1
  0
DICTIONARYVAR
  5
11BD
102
{ACAD_REACTORS
330
11B6
102
}
330
11B6
100
DictionaryVariables
280
     0
  1
0
  0
DICTIONARYVAR
  5
11BC
102
{ACAD_REACTORS
330
11B6
102
}
330
11B6
100
DictionaryVariables
280
     0
  1
127
  0
DICTIONARYVAR
  5
11BF
102
{ACAD_REACTORS
330
11B6
102
}
330
11B6
100
DictionaryVariables
280
     0
  1
2
  0
DICTIONARY
  5
11FC
330
11A2
100
AcDbDictionary
280
     1
281
     1
  3
ACAD_XREC_ROUNDTRIP
360
11FD
  0
DICTIONARY
  5
11FE
330
11A3
100
AcDbDictionary
280
     1
281
     1
  3
ACAD_XREC_ROUNDTRIP
360
11FF
  0
DICTIONARY
  5
1200
330
11A4
100
AcDbDictionary
280
     1
281
     1
  3
ACAD_XREC_ROUNDTRIP
360
1201
  0
DICTIONARY
  5
1160
330
115F
100
AcDbDictionary
280
     1
281
     1
  3
ACAD_XREC_ROUNDTRIP
360
11C6
  3
BUMPTILE
360
1162
  3
DIFFUSETILE
360
1161
  3
OPACITYTILE
360
1165
  3
REFLECTIONTILE
360
1164
  3
REFRACTIONTILE
360
1166
  3
SPECULARTILE
360
1163
  0
DICTIONARY
  5
1158
330
1157
100
AcDbDictionary
280
     1
281
     1
  3
ACAD_XREC_ROUNDTRIP
360
11C5
  3
BUMPTILE
360
115A
  3
DIFFUSETILE
360
1159
  3
OPACITYTILE
360
115D
  3
REFLECTIONTILE
360
115C
  3
REFRACTIONTILE
360
115E
  3
SPECULARTILE
360
115B
  0
DICTIONARY
  5
1168
330
1167
100
AcDbDictionary
280
     1
281
     1
  3
ACAD_XREC_ROUNDTRIP
360
11C7
  3
BUMPTILE
360
116A
  3
DIFFUSETILE
360
1169
  3
OPACITYTILE
360
116D
  3
REFLECTIONTILE
360
116C
  3
REFRACTIONTILE
360
116E
  3
SPECULARTILE
360
116B
  0
DICTIONARY
  5
11FA
330
11A0
100
AcDbDictionary
280
     1
281
     1
  3
ACAD_XREC_ROUNDTRIP
360
11FB
  0
DICTIONARY
  5
11C1
330
118A
100
AcDbDictionary
280
     1
281
     1
  3
ACAD_ROUNDTRIP_2008_TABLESTYLE_CELLSTYLEMAP
360
11C2
  3
ACAD_XREC_ROUNDTRIP
360
11F8
  0
DICTIONARY
  5
11D2
330
1175
100
AcDbDictionary
280
     1
281
     1
  3
ACAD_XREC_ROUNDTRIP
360
11D3
  0
DICTIONARY
  5
11D0
330
1174
100
AcDbDictionary
280
     1
281
     1
  3
ACAD_XREC_ROUNDTRIP
360
11D1
  0
DICTIONARY
  5
11DE
330
117B
100
AcDbDictionary
280
     1
281
     1
  3
ACAD_XREC_ROUNDTRIP
360
11DF
  0
DICTIONARY
  5
11E6
330
117F
100
AcDbDictionary
280
     1
281
     1
  3
ACAD_XREC_ROUNDTRIP
360
11E7
  0
DICTIONARY
  5
11D8
330
1178
100
AcDbDictionary
280
     1
281
     1
  3
ACAD_XREC_ROUNDTRIP
360
11D9
  0
DICTIONARY
  5
11DC
330
117A
100
AcDbDictionary
280
     1
281
     1
  3
ACAD_XREC_ROUNDTRIP
360
11DD
  0
DICTIONARY
  5
11F6
330
1187
100
AcDbDictionary
280
     1
281
     1
  3
ACAD_XREC_ROUNDTRIP
360
11F7
  0
DICTIONARY
  5
11E4
330
117E
100
AcDbDictionary
280
     1
281
     1
  3
ACAD_XREC_ROUNDTRIP
360
11E5
  0
DICTIONARY
  5
11C8
330
1170
100
AcDbDictionary
280
     1
281
     1
  3
ACAD_XREC_ROUNDTRIP
360
11C9
  0
DICTIONARY
  5
11CA
330
1171
100
AcDbDictionary
280
     1
281
     1
  3
ACAD_XREC_ROUNDTRIP
360
11CB
  0
DICTIONARY
  5
11CC
330
1172
100
AcDbDictionary
280
     1
281
     1
  3
ACAD_XREC_ROUNDTRIP
360
11CD
  0
DICTIONARY
  5
11CE
330
1173
100
AcDbDictionary
280
     1
281
     1
  3
ACAD_XREC_ROUNDTRIP
360
11CF
  0
DICTIONARY
  5
11D6
330
1177
100
AcDbDictionary
280
     1
281
     1
  3
ACAD_XREC_ROUNDTRIP
360
11D7
  0
DICTIONARY
  5
11F2
330
1185
100
AcDbDictionary
280
     1
281
     1
  3
ACAD_XREC_ROUNDTRIP
360
11F3
  0
DICTIONARY
  5
11E2
330
117D
100
AcDbDictionary
280
     1
281
     1
  3
ACAD_XREC_ROUNDTRIP
360
11E3
  0
DICTIONARY
  5
11F4
330
1186
100
AcDbDictionary
280
     1
281
     1
  3
ACAD_XREC_ROUNDTRIP
360
11F5
  0
DICTIONARY
  5
11DA
330
1179
100
AcDbDictionary
280
     1
281
     1
  3
ACAD_XREC_ROUNDTRIP
360
11DB
  0
DICTIONARY
  5
11F0
330
1184
100
AcDbDictionary
280
     1
281
     1
  3
ACAD_XREC_ROUNDTRIP
360
11F1
  0
DICTIONARY
  5
11EE
330
1183
100
AcDbDictionary
280
     1
281
     1
  3
ACAD_XREC_ROUNDTRIP
360
11EF
  0
DICTIONARY
  5
11E8
330
1180
100
AcDbDictionary
280
     1
281
     1
  3
ACAD_XREC_ROUNDTRIP
360
11E9
  0
DICTIONARY
  5
11EA
330
1181
100
AcDbDictionary
280
     1
281
     1
  3
ACAD_XREC_ROUNDTRIP
360
11EB
  0
DICTIONARY
  5
11E0
330
117C
100
AcDbDictionary
280
     1
281
     1
  3
ACAD_XREC_ROUNDTRIP
360
11E1
  0
DICTIONARY
  5
11D4
330
1176
100
AcDbDictionary
280
     1
281
     1
  3
ACAD_XREC_ROUNDTRIP
360
11D5
  0
DICTIONARY
  5
11EC
330
1182
100
AcDbDictionary
280
     1
281
     1
  3
ACAD_XREC_ROUNDTRIP
360
11ED
  0
XRECORD
  5
11FD
102
{ACAD_REACTORS
330
11FC
102
}
330
11FC
100
AcDbXrecord
280
     1
102
DISPLAYNAME
  1
Imperial24
102
FLAGS
 90
        0
  0
XRECORD
  5
11FF
102
{ACAD_REACTORS
330
11FE
102
}
330
11FE
100
AcDbXrecord
280
     1
102
SHADEPLOT
 70
     0
102
SHADEPLOTRESLEVEL
 70
     2
102
SHADEPLOTCUSTOMDPI
 70
   300
  0
XRECORD
  5
1201
102
{ACAD_REACTORS
330
1200
102
}
330
1200
100
AcDbXrecord
280
     1
102
SHADEPLOT
 70
     0
102
SHADEPLOTRESLEVEL
 70
     2
102
SHADEPLOTCUSTOMDPI
 70
   300
  0
XRECORD
  5
11C6
102
{ACAD_REACTORS
330
1160
102
}
330
1160
100
AcDbXrecord
280
     1
102
MATERIAL
148
0.0
149
0.0
149
0.0
 93
        0
 94
      127
282
     0
 72
     0
 77
     0
171
     0
175
     0
179
     0
273
     0
  0
XRECORD
  5
1162
102
{ACAD_REACTORS
330
1160
102
}
330
1160
100
AcDbXrecord
280
     1
270
     1
271
     1
  0
XRECORD
  5
1161
102
{ACAD_REACTORS
330
1160
102
}
330
1160
100
AcDbXrecord
280
     1
270
     1
271
     1
  0
XRECORD
  5
1165
102
{ACAD_REACTORS
330
1160
102
}
330
1160
100
AcDbXrecord
280
     1
270
     1
271
     1
  0
XRECORD
  5
1164
102
{ACAD_REACTORS
330
1160
102
}
330
1160
100
AcDbXrecord
280
     1
270
     1
271
     1
  0
XRECORD
  5
1166
102
{ACAD_REACTORS
330
1160
102
}
330
1160
100
AcDbXrecord
280
     1
270
     1
271
     1
  0
XRECORD
  5
1163
102
{ACAD_REACTORS
330
1160
102
}
330
1160
100
AcDbXrecord
280
     1
270
     1
271
     1
  0
XRECORD
  5
11C5
102
{ACAD_REACTORS
330
1158
102
}
330
1158
100
AcDbXrecord
280
     1
102
MATERIAL
148
0.0
149
0.0
149
0.0
 93
        0
 94
      127
282
     0
 72
     0
 77
     0
171
     0
175
     0
179
     0
273
     0
  0
XRECORD
  5
115A
102
{ACAD_REACTORS
330
1158
102
}
330
1158
100
AcDbXrecord
280
     1
270
     1
271
     1
  0
XRECORD
  5
1159
102
{ACAD_REACTORS
330
1158
102
}
330
1158
100
AcDbXrecord
280
     1
270
     1
271
     1
  0
XRECORD
  5
115D
102
{ACAD_REACTORS
330
1158
102
}
330
1158
100
AcDbXrecord
280
     1
270
     1
271
     1
  0
XRECORD
  5
115C
102
{ACAD_REACTORS
330
1158
102
}
330
1158
100
AcDbXrecord
280
     1
270
     1
271
     1
  0
XRECORD
  5
115E
102
{ACAD_REACTORS
330
1158
102
}
330
1158
100
AcDbXrecord
280
     1
270
     1
271
     1
  0
XRECORD
  5
115B
102
{ACAD_REACTORS
330
1158
102
}
330
1158
100
AcDbXrecord
280
     1
270
     1
271
     1
  0
XRECORD
  5
11C7
102
{ACAD_REACTORS
330
1168
102
}
330
1168
100
AcDbXrecord
280
     1
102
MATERIAL
148
0.0
149
0.0
149
0.0
 93
        0
 94
      127
282
     0
 72
     0
 77
     0
171
     0
175
     0
179
     0
273
     0
  0
XRECORD
  5
116A
102
{ACAD_REACTORS
330
1168
102
}
330
1168
100
AcDbXrecord
280
     1
270
     1
271
     1
  0
XRECORD
  5
1169
102
{ACAD_REACTORS
330
1168
102
}
330
1168
100
AcDbXrecord
280
     1
270
     1
271
     1
  0
XRECORD
  5
116D
102
{ACAD_REACTORS
330
1168
102
}
330
1168
100
AcDbXrecord
280
     1
270
     1
271
     1
  0
XRECORD
  5
116C
102
{ACAD_REACTORS
330
1168
102
}
330
1168
100
AcDbXrecord
280
     1
270
     1
271
     1
  0
XRECORD
  5
116E
102
{ACAD_REACTORS
330
1168
102
}
330
1168
100
AcDbXrecord
280
     1
270
     1
271
     1
  0
XRECORD
  5
116B
102
{ACAD_REACTORS
330
1168
102
}
330
1168
100
AcDbXrecord
280
     1
270
     1
271
     1
  0
XRECORD
  5
11FB
102
{ACAD_REACTORS
330
11FA
102
}
330
11FA
100
AcDbXrecord
280
     1
102
DISPLAYNAME
  1
Imperial24
102
FLAGS
 90
        0
  0
CELLSTYLEMAP
  5
11C2
102
{ACAD_REACTORS
330
11C1
102
}
330
11C1
100
AcDbCellStyleMap
 90
        3
300
CELLSTYLE
  1
TABLEFORMAT_BEGIN
 90
        5
170
     1
 91
        0
 92
    32768
 62
   257
 93
        1
300
CONTENTFORMAT
  1
CONTENTFORMAT_BEGIN
 90
        0
 91
        0
 92
      512
 93
        0
300

 40
0.0
140
1.0
 94
        5
 62
     0
340
F
144
0.25
309
CONTENTFORMAT_END
171
     0
 94
        0
309
TABLEFORMAT_END
  1
CELLSTYLE_BEGIN
 90
        1
 91
        1
300
_TITLE
309
CELLSTYLE_END
300
CELLSTYLE
  1
TABLEFORMAT_BEGIN
 90
        5
170
     1
 91
        0
 92
        0
 62
   257
 93
        1
300
CONTENTFORMAT
  1
CONTENTFORMAT_BEGIN
 90
        0
 91
        0
 92
      512
 93
        0
300

 40
0.0
140
1.0
 94
        5
 62
     0
340
F
144
0.18
309
CONTENTFORMAT_END
171
     0
 94
        0
309
TABLEFORMAT_END
  1
CELLSTYLE_BEGIN
 90
        2
 91
        1
300
_HEADER
309
CELLSTYLE_END
300
CELLSTYLE
  1
TABLEFORMAT_BEGIN
 90
        5
170
     1
 91
        0
 92
        0
 62
   257
 93
        1
300
CONTENTFORMAT
  1
CONTENTFORMAT_BEGIN
 90
        0
 91
        0
 92
      512
 93
        0
300

 40
0.0
140
1.0
 94
        2
 62
     0
340
F
144
0.18
309
CONTENTFORMAT_END
171
     0
 94
        0
309
TABLEFORMAT_END
  1
CELLSTYLE_BEGIN
 90
        3
 91
        2
300
_DATA
309
CELLSTYLE_END
  0
XRECORD
  5
11F8
102
{ACAD_REACTORS
330
11C1
102
}
330
11C1
100
AcDbXrecord
280
     1
102
ACAD_ROUNDTRIP_PRE2007_TABLESTYLE
 90
      512
 91
        0
  1

 92
      512
 93
        0
  2

 94
      512
 95
        0
  3

  0
XRECORD
  5
11D3
102
{ACAD_REACTORS
330
11D2
102
}
330
11D2
100
AcDbXrecord
280
     1
102
RTVSPost2010Prop28
280
     1
102
RTVSPost2010PropOp28
 70
     1
102
RTVSPost2010Prop29
280
     1
102
RTVSPost2010PropOp29
 70
     1
102
RTVSPost2010Prop30
280
     0
102
RTVSPost2010PropOp30
 70
     1
102
RTVSPost2010Prop31
280
     0
102
RTVSPost2010PropOp31
 70
     1
102
RTVSPost2010Prop32
280
     0
102
RTVSPost2010PropOp32
 70
     1
102
RTVSPost2010Prop33
280
     0
102
RTVSPost2010PropOp33
 70
     1
102
RTVSPost2010Prop34
280
     0
102
RTVSPost2010PropOp34
 70
     1
102
RTVSPost2010Prop35
280
     0
102
RTVSPost2010PropOp35
 70
     1
102
RTVSPost2010Prop36
280
     0
102
RTVSPost2010PropOp36
 70
     1
102
RTVSPost2010Prop37
 90
       50
102
RTVSPost2010PropOp37
 70
     1
102
RTVSPost2010Prop38
140
0.0
102
RTVSPost2010PropOp38
 70
     1
102
RTVSPost2010Prop39
140
1.0
102
RTVSPost2010PropOp39
 70
     1
102
RTVSPost2010Prop40
 90
        0
102
RTVSPost2010PropOp40
 70
     1
102
RTVSPost2010Prop41ColorIndex
 90
       18
102
RTVSPost2010Prop41ColorRGB
 90
        0
102
RTVSPost2010PropOp41
 70
     1
102
RTVSPost2010Prop42
 90
       50
102
RTVSPost2010PropOp42
 70
     1
102
RTVSPost2010Prop43
 90
        3
102
RTVSPost2010PropOp43
 70
     1
102
RTVSPost2010Prop44ColorIndex
 90
        5
102
RTVSPost2010Prop44ColorRGB
 90
      255
102
RTVSPost2010PropOp44
 70
     1
102
RTVSPost2010Prop45
280
     0
102
RTVSPost2010PropOp45
 70
     1
102
RTVSPost2010Prop46
 90
       50
102
RTVSPost2010PropOp46
 70
     1
102
RTVSPost2010Prop47
 90
       50
102
RTVSPost2010PropOp47
 70
     1
102
RTVSPost2010Prop48
 90
       50
102
RTVSPost2010PropOp48
 70
     1
102
RTVSPost2010Prop49
280
     0
102
RTVSPost2010PropOp49
 70
     1
102
RTVSPost2010Prop50
 90
       50
102
RTVSPost2010PropOp50
 70
     1
102
RTVSPost2010Prop51ColorIndex
 90
      256
102
RTVSPost2010Prop51ColorRGB
 90
-16777216
102
RTVSPost2010PropOp51
 70
     0
102
RTVSPost2010Prop52
140
1.0
102
RTVSPost2010PropOp52
 70
     0
102
RTVSPost2010Prop53
 90
        2
102
RTVSPost2010PropOp53
 70
     1
102
RTVSPost2010Prop54
  1
strokes_ogs.tif
102
RTVSPost2010PropOp54
 70
     1
102
RTVSPost2010Prop55
280
     0
102
RTVSPost2010PropOp55
 70
     1
102
RTVSPost2010Prop56
140
1.0
102
RTVSPost2010PropOp56
 70
     1
102
RTVSPost2010Prop57
140
1.0
102
RTVSPost2010PropOp57
 70
     1
102
RTVSPropertyOp0
 70
     1
102
RTVSPropertyOp1
 70
     1
102
RTVSPropertyOp2
 70
     1
102
RTVSPropertyOp3
 70
     1
102
RTVSPropertyOp4
 70
     1
102
RTVSPropertyOp5
 70
     1
102
RTVSPropertyOp6
 70
     1
102
RTVSPropertyOp7
 70
     1
102
RTVSPropertyOp8
 70
     1
102
RTVSPropertyOp9
 70
     1
102
RTVSPropertyOp10
 70
     1
102
RTVSPropertyOp11
 70
     1
102
RTVSPropertyOp12
 70
     1
102
RTVSPropertyOp13
 70
     1
102
RTVSPropertyOp14
 70
     1
102
RTVSPropertyOp15
 70
     1
102
RTVSPropertyOp16
 70
     1
102
RTVSPropertyOp17
 70
     1
102
RTVSPropertyOp18
 70
     1
102
RTVSPropertyOp19
 70
     1
102
RTVSPropertyOp20
 70
     1
102
RTVSPropertyOp21
 70
     1
102
RTVSPropertyOp22
 70
     1
102
RTVSPropertyOp23
 70
     1
102
RTVSPropertyOp24
 70
     1
102
RTVSPropertyOp25
 70
     1
102
RTVSPropertyOp26
 70
     1
102
RTVSPropertyOp27
 70
     1
102
RTVSPropertyOp28
 70
     1
102
RTVSPropertyOp29
 70
     1
102
RTVSPropertyOp30
 70
     1
102
RTVSPropertyOp31
 70
     1
102
RTVSPropertyOp32
 70
     1
102
RTVSPropertyOp33
 70
     1
102
RTVSPropertyOp34
 70
     1
102
RTVSPropertyOp35
 70
     1
102
RTVSPropertyOp36
 70
     1
102
RTVSPropertyOp37
 70
     1
102
RTVSPropertyOp38
 70
     1
102
RTVSPropertyOp39
 70
     1
102
RTVSPropertyOp40
 70
     1
102
RTVSPropertyOp41
 70
     1
102
RTVSPropertyOp42
 70
     1
102
RTVSPropertyOp43
 70
     1
102
RTVSPropertyOp44
 70
     1
102
RTVSPropertyOp45
 70
     1
102
RTVSPropertyOp46
 70
     1
102
RTVSPropertyOp47
 70
     1
102
RTVSPropertyOp48
 70
     1
102
RTVSPropertyOp49
 70
     1
102
RTVSPropertyOp50
 70
     1
102
RTVSPropertyOp51
 70
     0
102
RTVSPropertyOp52
 70
     0
102
RTVSPropertyOp53
 70
     1
102
RTVSPropertyOp54
 70
     1
102
RTVSPropertyOp55
 70
     1
102
RTVSPropertyOp56
 70
     1
102
RTVSPropertyOp57
 70
     1
102
RTVSPropertyOp58
 70
     1
102
RTVSPropertyOp59
 70
     1
102
RTVSPropertyOp60
 70
     1
102
RTVSPropertyOp61
 70
     1
102
RTVSPropertyOp62
 70
     1
  0
XRECORD
  5
11D1
102
{ACAD_REACTORS
330
11D0
102
}
330
11D0
100
AcDbXrecord
280
     1
102
RTVSPost2010Prop28
280
     0
102
RTVSPost2010PropOp28
 70
     1
102
RTVSPost2010Prop29
280
     1
102
RTVSPost2010PropOp29
 70
     1
102
RTVSPost2010Prop30
280
     1
102
RTVSPost2010PropOp30
 70
     1
102
RTVSPost2010Prop31
280
     0
102
RTVSPost2010PropOp31
 70
     1
102
RTVSPost2010Prop32
280
     0
102
RTVSPost2010PropOp32
 70
     1
102
RTVSPost2010Prop33
280
     0
102
RTVSPost2010PropOp33
 70
     1
102
RTVSPost2010Prop34
280
     0
102
RTVSPost2010PropOp34
 70
     1
102
RTVSPost2010Prop35
280
     0
102
RTVSPost2010PropOp35
 70
     1
102
RTVSPost2010Prop36
280
     0
102
RTVSPost2010PropOp36
 70
     1
102
RTVSPost2010Prop37
 90
       50
102
RTVSPost2010PropOp37
 70
     1
102
RTVSPost2010Prop38
140
0.0
102
RTVSPost2010PropOp38
 70
     1
102
RTVSPost2010Prop39
140
1.0
102
RTVSPost2010PropOp39
 70
     1
102
RTVSPost2010Prop40
 90
        0
102
RTVSPost2010PropOp40
 70
     1
102
RTVSPost2010Prop41ColorIndex
 90
       18
102
RTVSPost2010Prop41ColorRGB
 90
        0
102
RTVSPost2010PropOp41
 70
     1
102
RTVSPost2010Prop42
 90
       50
102
RTVSPost2010PropOp42
 70
     1
102
RTVSPost2010Prop43
 90
        3
102
RTVSPost2010PropOp43
 70
     1
102
RTVSPost2010Prop44ColorIndex
 90
        5
102
RTVSPost2010Prop44ColorRGB
 90
      255
102
RTVSPost2010PropOp44
 70
     1
102
RTVSPost2010Prop45
280
     0
102
RTVSPost2010PropOp45
 70
     1
102
RTVSPost2010Prop46
 90
       50
102
RTVSPost2010PropOp46
 70
     1
102
RTVSPost2010Prop47
 90
       50
102
RTVSPost2010PropOp47
 70
     1
102
RTVSPost2010Prop48
 90
       50
102
RTVSPost2010PropOp48
 70
     1
102
RTVSPost2010Prop49
280
     0
102
RTVSPost2010PropOp49
 70
     1
102
RTVSPost2010Prop50
 90
       50
102
RTVSPost2010PropOp50
 70
     1
102
RTVSPost2010Prop51ColorIndex
 90
      256
102
RTVSPost2010Prop51ColorRGB
 90
-16777216
102
RTVSPost2010PropOp51
 70
     0
102
RTVSPost2010Prop52
140
1.0
102
RTVSPost2010PropOp52
 70
     0
102
RTVSPost2010Prop53
 90
        2
102
RTVSPost2010PropOp53
 70
     1
102
RTVSPost2010Prop54
  1
strokes_ogs.tif
102
RTVSPost2010PropOp54
 70
     1
102
RTVSPost2010Prop55
280
     0
102
RTVSPost2010PropOp55
 70
     1
102
RTVSPost2010Prop56
140
1.0
102
RTVSPost2010PropOp56
 70
     1
102
RTVSPost2010Prop57
140
1.0
102
RTVSPost2010PropOp57
 70
     1
102
RTVSPropertyOp0
 70
     1
102
RTVSPropertyOp1
 70
     1
102
RTVSPropertyOp2
 70
     1
102
RTVSPropertyOp3
 70
     1
102
RTVSPropertyOp4
 70
     1
102
RTVSPropertyOp5
 70
     1
102
RTVSPropertyOp6
 70
     1
102
RTVSPropertyOp7
 70
     1
102
RTVSPropertyOp8
 70
     1
102
RTVSPropertyOp9
 70
     1
102
RTVSPropertyOp10
 70
     1
102
RTVSPropertyOp11
 70
     1
102
RTVSPropertyOp12
 70
     1
102
RTVSPropertyOp13
 70
     1
102
RTVSPropertyOp14
 70
     1
102
RTVSPropertyOp15
 70
     1
102
RTVSPropertyOp16
 70
     1
102
RTVSPropertyOp17
 70
     1
102
RTVSPropertyOp18
 70
     1
102
RTVSPropertyOp19
 70
     1
102
RTVSPropertyOp20
 70
     1
102
RTVSPropertyOp21
 70
     1
102
RTVSPropertyOp22
 70
     1
102
RTVSPropertyOp23
 70
     1
102
RTVSPropertyOp24
 70
     1
102
RTVSPropertyOp25
 70
     1
102
RTVSPropertyOp26
 70
     1
102
RTVSPropertyOp27
 70
     1
102
RTVSPropertyOp28
 70
     1
102
RTVSPropertyOp29
 70
     1
102
RTVSPropertyOp30
 70
     1
102
RTVSPropertyOp31
 70
     1
102
RTVSPropertyOp32
 70
     1
102
RTVSPropertyOp33
 70
     1
102
RTVSPropertyOp34
 70
     1
102
RTVSPropertyOp35
 70
     1
102
RTVSPropertyOp36
 70
     1
102
RTVSPropertyOp37
 70
     1
102
RTVSPropertyOp38
 70
     1
102
RTVSPropertyOp39
 70
     1
102
RTVSPropertyOp40
 70
     1
102
RTVSPropertyOp41
 70
     1
102
RTVSPropertyOp42
 70
     1
102
RTVSPropertyOp43
 70
     1
102
RTVSPropertyOp44
 70
     1
102
RTVSPropertyOp45
 70
     1
102
RTVSPropertyOp46
 70
     1
102
RTVSPropertyOp47
 70
     1
102
RTVSPropertyOp48
 70
     1
102
RTVSPropertyOp49
 70
     1
102
RTVSPropertyOp50
 70
     1
102
RTVSPropertyOp51
 70
     0
102
RTVSPropertyOp52
 70
     0
102
RTVSPropertyOp53
 70
     1
102
RTVSPropertyOp54
 70
     1
102
RTVSPropertyOp55
 70
     1
102
RTVSPropertyOp56
 70
     1
102
RTVSPropertyOp57
 70
     1
102
RTVSPropertyOp58
 70
     1
102
RTVSPropertyOp59
 70
     1
102
RTVSPropertyOp60
 70
     1
102
RTVSPropertyOp61
 70
     1
102
RTVSPropertyOp62
 70
     1
  0
XRECORD
  5
11DF
102
{ACAD_REACTORS
330
11DE
102
}
330
11DE
100
AcDbXrecord
280
     1
102
RTVSPost2010Prop28
280
     0
102
RTVSPost2010PropOp28
 70
     1
102
RTVSPost2010Prop29
280
     1
102
RTVSPost2010PropOp29
 70
     1
102
RTVSPost2010Prop30
280
     1
102
RTVSPost2010PropOp30
 70
     1
102
RTVSPost2010Prop31
280
     0
102
RTVSPost2010PropOp31
 70
     1
102
RTVSPost2010Prop32
280
     0
102
RTVSPost2010PropOp32
 70
     1
102
RTVSPost2010Prop33
280
     0
102
RTVSPost2010PropOp33
 70
     1
102
RTVSPost2010Prop34
280
     0
102
RTVSPost2010PropOp34
 70
     1
102
RTVSPost2010Prop35
280
     0
102
RTVSPost2010PropOp35
 70
     1
102
RTVSPost2010Prop36
280
     0
102
RTVSPost2010PropOp36
 70
     1
102
RTVSPost2010Prop37
 90
       50
102
RTVSPost2010PropOp37
 70
     1
102
RTVSPost2010Prop38
140
0.0
102
RTVSPost2010PropOp38
 70
     1
102
RTVSPost2010Prop39
140
1.0
102
RTVSPost2010PropOp39
 70
     1
102
RTVSPost2010Prop40
 90
        0
102
RTVSPost2010PropOp40
 70
     1
102
RTVSPost2010Prop41ColorIndex
 90
       18
102
RTVSPost2010Prop41ColorRGB
 90
        0
102
RTVSPost2010PropOp41
 70
     1
102
RTVSPost2010Prop42
 90
       50
102
RTVSPost2010PropOp42
 70
     1
102
RTVSPost2010Prop43
 90
        3
102
RTVSPost2010PropOp43
 70
     1
102
RTVSPost2010Prop44ColorIndex
 90
        5
102
RTVSPost2010Prop44ColorRGB
 90
      255
102
RTVSPost2010PropOp44
 70
     1
102
RTVSPost2010Prop45
280
     0
102
RTVSPost2010PropOp45
 70
     1
102
RTVSPost2010Prop46
 90
       50
102
RTVSPost2010PropOp46
 70
     1
102
RTVSPost2010Prop47
 90
       50
102
RTVSPost2010PropOp47
 70
     1
102
RTVSPost2010Prop48
 90
       50
102
RTVSPost2010PropOp48
 70
     1
102
RTVSPost2010Prop49
280
     0
102
RTVSPost2010PropOp49
 70
     1
102
RTVSPost2010Prop50
 90
       50
102
RTVSPost2010PropOp50
 70
     1
102
RTVSPost2010Prop51ColorIndex
 90
      256
102
RTVSPost2010Prop51ColorRGB
 90
-16777216
102
RTVSPost2010PropOp51
 70
     0
102
RTVSPost2010Prop52
140
1.0
102
RTVSPost2010PropOp52
 70
     0
102
RTVSPost2010Prop53
 90
        2
102
RTVSPost2010PropOp53
 70
     1
102
RTVSPost2010Prop54
  1
strokes_ogs.tif
102
RTVSPost2010PropOp54
 70
     1
102
RTVSPost2010Prop55
280
     0
102
RTVSPost2010PropOp55
 70
     1
102
RTVSPost2010Prop56
140
1.0
102
RTVSPost2010PropOp56
 70
     1
102
RTVSPost2010Prop57
140
1.0
102
RTVSPost2010PropOp57
 70
     1
102
RTVSPropertyOp0
 70
     1
102
RTVSPropertyOp1
 70
     1
102
RTVSPropertyOp2
 70
     1
102
RTVSPropertyOp3
 70
     1
102
RTVSPropertyOp4
 70
     1
102
RTVSPropertyOp5
 70
     1
102
RTVSPropertyOp6
 70
     1
102
RTVSPropertyOp7
 70
     1
102
RTVSPropertyOp8
 70
     1
102
RTVSPropertyOp9
 70
     1
102
RTVSPropertyOp10
 70
     1
102
RTVSPropertyOp11
 70
     1
102
RTVSPropertyOp12
 70
     1
102
RTVSPropertyOp13
 70
     1
102
RTVSPropertyOp14
 70
     1
102
RTVSPropertyOp15
 70
     1
102
RTVSPropertyOp16
 70
     1
102
RTVSPropertyOp17
 70
     1
102
RTVSPropertyOp18
 70
     1
102
RTVSPropertyOp19
 70
     1
102
RTVSPropertyOp20
 70
     1
102
RTVSPropertyOp21
 70
     1
102
RTVSPropertyOp22
 70
     1
102
RTVSPropertyOp23
 70
     1
102
RTVSPropertyOp24
 70
     1
102
RTVSPropertyOp25
 70
     1
102
RTVSPropertyOp26
 70
     1
102
RTVSPropertyOp27
 70
     1
102
RTVSPropertyOp28
 70
     1
102
RTVSPropertyOp29
 70
     1
102
RTVSPropertyOp30
 70
     1
102
RTVSPropertyOp31
 70
     1
102
RTVSPropertyOp32
 70
     1
102
RTVSPropertyOp33
 70
     1
102
RTVSPropertyOp34
 70
     1
102
RTVSPropertyOp35
 70
     1
102
RTVSPropertyOp36
 70
     1
102
RTVSPropertyOp37
 70
     1
102
RTVSPropertyOp38
 70
     1
102
RTVSPropertyOp39
 70
     1
102
RTVSPropertyOp40
 70
     1
102
RTVSPropertyOp41
 70
     1
102
RTVSPropertyOp42
 70
     1
102
RTVSPropertyOp43
 70
     1
102
RTVSPropertyOp44
 70
     1
102
RTVSPropertyOp45
 70
     1
102
RTVSPropertyOp46
 70
     1
102
RTVSPropertyOp47
 70
     1
102
RTVSPropertyOp48
 70
     1
102
RTVSPropertyOp49
 70
     1
102
RTVSPropertyOp50
 70
     1
102
RTVSPropertyOp51
 70
     0
102
RTVSPropertyOp52
 70
     0
102
RTVSPropertyOp53
 70
     1
102
RTVSPropertyOp54
 70
     1
102
RTVSPropertyOp55
 70
     1
102
RTVSPropertyOp56
 70
     1
102
RTVSPropertyOp57
 70
     1
102
RTVSPropertyOp58
 70
     1
102
RTVSPropertyOp59
 70
     1
102
RTVSPropertyOp60
 70
     1
102
RTVSPropertyOp61
 70
     1
102
RTVSPropertyOp62
 70
     1
  0
XRECORD
  5
11E7
102
{ACAD_REACTORS
330
11E6
102
}
330
11E6
100
AcDbXrecord
280
     1
102
RTVSPost2010Prop28
280
     0
102
RTVSPost2010PropOp28
 70
     1
102
RTVSPost2010Prop29
280
     1
102
RTVSPost2010PropOp29
 70
     1
102
RTVSPost2010Prop30
280
     1
102
RTVSPost2010PropOp30
 70
     1
102
RTVSPost2010Prop31
280
     0
102
RTVSPost2010PropOp31
 70
     1
102
RTVSPost2010Prop32
280
     0
102
RTVSPost2010PropOp32
 70
     1
102
RTVSPost2010Prop33
280
     0
102
RTVSPost2010PropOp33
 70
     1
102
RTVSPost2010Prop34
280
     0
102
RTVSPost2010PropOp34
 70
     1
102
RTVSPost2010Prop35
280
     0
102
RTVSPost2010PropOp35
 70
     1
102
RTVSPost2010Prop36
280
     0
102
RTVSPost2010PropOp36
 70
     1
102
RTVSPost2010Prop37
 90
       50
102
RTVSPost2010PropOp37
 70
     1
102
RTVSPost2010Prop38
140
0.0
102
RTVSPost2010PropOp38
 70
     1
102
RTVSPost2010Prop39
140
1.0
102
RTVSPost2010PropOp39
 70
     1
102
RTVSPost2010Prop40
 90
        0
102
RTVSPost2010PropOp40
 70
     1
102
RTVSPost2010Prop41ColorIndex
 90
       18
102
RTVSPost2010Prop41ColorRGB
 90
        0
102
RTVSPost2010PropOp41
 70
     1
102
RTVSPost2010Prop42
 90
       50
102
RTVSPost2010PropOp42
 70
     1
102
RTVSPost2010Prop43
 90
        3
102
RTVSPost2010PropOp43
 70
     1
102
RTVSPost2010Prop44ColorIndex
 90
        5
102
RTVSPost2010Prop44ColorRGB
 90
      255
102
RTVSPost2010PropOp44
 70
     1
102
RTVSPost2010Prop45
280
     0
102
RTVSPost2010PropOp45
 70
     1
102
RTVSPost2010Prop46
 90
       50
102
RTVSPost2010PropOp46
 70
     1
102
RTVSPost2010Prop47
 90
       50
102
RTVSPost2010PropOp47
 70
     1
102
RTVSPost2010Prop48
 90
       50
102
RTVSPost2010PropOp48
 70
     1
102
RTVSPost2010Prop49
280
     0
102
RTVSPost2010PropOp49
 70
     1
102
RTVSPost2010Prop50
 90
       50
102
RTVSPost2010PropOp50
 70
     1
102
RTVSPost2010Prop51ColorIndex
 90
      256
102
RTVSPost2010Prop51ColorRGB
 90
-16777216
102
RTVSPost2010PropOp51
 70
     0
102
RTVSPost2010Prop52
140
1.0
102
RTVSPost2010PropOp52
 70
     0
102
RTVSPost2010Prop53
 90
        2
102
RTVSPost2010PropOp53
 70
     1
102
RTVSPost2010Prop54
  1
strokes_ogs.tif
102
RTVSPost2010PropOp54
 70
     1
102
RTVSPost2010Prop55
280
     0
102
RTVSPost2010PropOp55
 70
     1
102
RTVSPost2010Prop56
140
1.0
102
RTVSPost2010PropOp56
 70
     1
102
RTVSPost2010Prop57
140
1.0
102
RTVSPost2010PropOp57
 70
     1
102
RTVSPropertyOp0
 70
     1
102
RTVSPropertyOp1
 70
     1
102
RTVSPropertyOp2
 70
     1
102
RTVSPropertyOp3
 70
     1
102
RTVSPropertyOp4
 70
     1
102
RTVSPropertyOp5
 70
     1
102
RTVSPropertyOp6
 70
     1
102
RTVSPropertyOp7
 70
     1
102
RTVSPropertyOp8
 70
     1
102
RTVSPropertyOp9
 70
     1
102
RTVSPropertyOp10
 70
     1
102
RTVSPropertyOp11
 70
     1
102
RTVSPropertyOp12
 70
     1
102
RTVSPropertyOp13
 70
     1
102
RTVSPropertyOp14
 70
     1
102
RTVSPropertyOp15
 70
     1
102
RTVSPropertyOp16
 70
     1
102
RTVSPropertyOp17
 70
     1
102
RTVSPropertyOp18
 70
     1
102
RTVSPropertyOp19
 70
     1
102
RTVSPropertyOp20
 70
     1
102
RTVSPropertyOp21
 70
     1
102
RTVSPropertyOp22
 70
     1
102
RTVSPropertyOp23
 70
     1
102
RTVSPropertyOp24
 70
     1
102
RTVSPropertyOp25
 70
     1
102
RTVSPropertyOp26
 70
     1
102
RTVSPropertyOp27
 70
     1
102
RTVSPropertyOp28
 70
     1
102
RTVSPropertyOp29
 70
     1
102
RTVSPropertyOp30
 70
     1
102
RTVSPropertyOp31
 70
     1
102
RTVSPropertyOp32
 70
     1
102
RTVSPropertyOp33
 70
     1
102
RTVSPropertyOp34
 70
     1
102
RTVSPropertyOp35
 70
     1
102
RTVSPropertyOp36
 70
     1
102
RTVSPropertyOp37
 70
     1
102
RTVSPropertyOp38
 70
     1
102
RTVSPropertyOp39
 70
     1
102
RTVSPropertyOp40
 70
     1
102
RTVSPropertyOp41
 70
     1
102
RTVSPropertyOp42
 70
     1
102
RTVSPropertyOp43
 70
     1
102
RTVSPropertyOp44
 70
     1
102
RTVSPropertyOp45
 70
     1
102
RTVSPropertyOp46
 70
     1
102
RTVSPropertyOp47
 70
     1
102
RTVSPropertyOp48
 70
     1
102
RTVSPropertyOp49
 70
     1
102
RTVSPropertyOp50
 70
     1
102
RTVSPropertyOp51
 70
     0
102
RTVSPropertyOp52
 70
     0
102
RTVSPropertyOp53
 70
     1
102
RTVSPropertyOp54
 70
     1
102
RTVSPropertyOp55
 70
     1
102
RTVSPropertyOp56
 70
     1
102
RTVSPropertyOp57
 70
     1
102
RTVSPropertyOp58
 70
     1
102
RTVSPropertyOp59
 70
     1
102
RTVSPropertyOp60
 70
     1
102
RTVSPropertyOp61
 70
     1
102
RTVSPropertyOp62
 70
     1
  0
XRECORD
  5
11D9
102
{ACAD_REACTORS
330
11D8
102
}
330
11D8
100
AcDbXrecord
280
     1
102
RTVSPost2010Prop28
280
     0
102
RTVSPost2010PropOp28
 70
     1
102
RTVSPost2010Prop29
280
     1
102
RTVSPost2010PropOp29
 70
     1
102
RTVSPost2010Prop30
280
     1
102
RTVSPost2010PropOp30
 70
     1
102
RTVSPost2010Prop31
280
     0
102
RTVSPost2010PropOp31
 70
     1
102
RTVSPost2010Prop32
280
     0
102
RTVSPost2010PropOp32
 70
     1
102
RTVSPost2010Prop33
280
     0
102
RTVSPost2010PropOp33
 70
     1
102
RTVSPost2010Prop34
280
     0
102
RTVSPost2010PropOp34
 70
     1
102
RTVSPost2010Prop35
280
     0
102
RTVSPost2010PropOp35
 70
     1
102
RTVSPost2010Prop36
280
     0
102
RTVSPost2010PropOp36
 70
     1
102
RTVSPost2010Prop37
 90
       50
102
RTVSPost2010PropOp37
 70
     1
102
RTVSPost2010Prop38
140
0.0
102
RTVSPost2010PropOp38
 70
     1
102
RTVSPost2010Prop39
140
1.0
102
RTVSPost2010PropOp39
 70
     1
102
RTVSPost2010Prop40
 90
        0
102
RTVSPost2010PropOp40
 70
     1
102
RTVSPost2010Prop41ColorIndex
 90
       18
102
RTVSPost2010Prop41ColorRGB
 90
        0
102
RTVSPost2010PropOp41
 70
     1
102
RTVSPost2010Prop42
 90
       50
102
RTVSPost2010PropOp42
 70
     1
102
RTVSPost2010Prop43
 90
        3
102
RTVSPost2010PropOp43
 70
     1
102
RTVSPost2010Prop44ColorIndex
 90
        5
102
RTVSPost2010Prop44ColorRGB
 90
      255
102
RTVSPost2010PropOp44
 70
     1
102
RTVSPost2010Prop45
280
     0
102
RTVSPost2010PropOp45
 70
     1
102
RTVSPost2010Prop46
 90
       50
102
RTVSPost2010PropOp46
 70
     1
102
RTVSPost2010Prop47
 90
       50
102
RTVSPost2010PropOp47
 70
     1
102
RTVSPost2010Prop48
 90
       50
102
RTVSPost2010PropOp48
 70
     1
102
RTVSPost2010Prop49
280
     0
102
RTVSPost2010PropOp49
 70
     1
102
RTVSPost2010Prop50
 90
       50
102
RTVSPost2010PropOp50
 70
     1
102
RTVSPost2010Prop51ColorIndex
 90
      256
102
RTVSPost2010Prop51ColorRGB
 90
-16777216
102
RTVSPost2010PropOp51
 70
     0
102
RTVSPost2010Prop52
140
1.0
102
RTVSPost2010PropOp52
 70
     0
102
RTVSPost2010Prop53
 90
        2
102
RTVSPost2010PropOp53
 70
     1
102
RTVSPost2010Prop54
  1
strokes_ogs.tif
102
RTVSPost2010PropOp54
 70
     1
102
RTVSPost2010Prop55
280
     0
102
RTVSPost2010PropOp55
 70
     1
102
RTVSPost2010Prop56
140
1.0
102
RTVSPost2010PropOp56
 70
     1
102
RTVSPost2010Prop57
140
1.0
102
RTVSPost2010PropOp57
 70
     1
102
RTVSPropertyOp0
 70
     1
102
RTVSPropertyOp1
 70
     1
102
RTVSPropertyOp2
 70
     1
102
RTVSPropertyOp3
 70
     1
102
RTVSPropertyOp4
 70
     1
102
RTVSPropertyOp5
 70
     1
102
RTVSPropertyOp6
 70
     1
102
RTVSPropertyOp7
 70
     1
102
RTVSPropertyOp8
 70
     1
102
RTVSPropertyOp9
 70
     1
102
RTVSPropertyOp10
 70
     1
102
RTVSPropertyOp11
 70
     1
102
RTVSPropertyOp12
 70
     1
102
RTVSPropertyOp13
 70
     1
102
RTVSPropertyOp14
 70
     1
102
RTVSPropertyOp15
 70
     1
102
RTVSPropertyOp16
 70
     1
102
RTVSPropertyOp17
 70
     1
102
RTVSPropertyOp18
 70
     1
102
RTVSPropertyOp19
 70
     1
102
RTVSPropertyOp20
 70
     1
102
RTVSPropertyOp21
 70
     1
102
RTVSPropertyOp22
 70
     1
102
RTVSPropertyOp23
 70
     1
102
RTVSPropertyOp24
 70
     1
102
RTVSPropertyOp25
 70
     1
102
RTVSPropertyOp26
 70
     1
102
RTVSPropertyOp27
 70
     1
102
RTVSPropertyOp28
 70
     1
102
RTVSPropertyOp29
 70
     1
102
RTVSPropertyOp30
 70
     1
102
RTVSPropertyOp31
 70
     1
102
RTVSPropertyOp32
 70
     1
102
RTVSPropertyOp33
 70
     1
102
RTVSPropertyOp34
 70
     1
102
RTVSPropertyOp35
 70
     1
102
RTVSPropertyOp36
 70
     1
102
RTVSPropertyOp37
 70
     1
102
RTVSPropertyOp38
 70
     1
102
RTVSPropertyOp39
 70
     1
102
RTVSPropertyOp40
 70
     1
102
RTVSPropertyOp41
 70
     1
102
RTVSPropertyOp42
 70
     1
102
RTVSPropertyOp43
 70
     1
102
RTVSPropertyOp44
 70
     1
102
RTVSPropertyOp45
 70
     1
102
RTVSPropertyOp46
 70
     1
102
RTVSPropertyOp47
 70
     1
102
RTVSPropertyOp48
 70
     1
102
RTVSPropertyOp49
 70
     1
102
RTVSPropertyOp50
 70
     1
102
RTVSPropertyOp51
 70
     0
102
RTVSPropertyOp52
 70
     0
102
RTVSPropertyOp53
 70
     1
102
RTVSPropertyOp54
 70
     1
102
RTVSPropertyOp55
 70
     1
102
RTVSPropertyOp56
 70
     1
102
RTVSPropertyOp57
 70
     1
102
RTVSPropertyOp58
 70
     1
102
RTVSPropertyOp59
 70
     1
102
RTVSPropertyOp60
 70
     1
102
RTVSPropertyOp61
 70
     1
102
RTVSPropertyOp62
 70
     1
  0
XRECORD
  5
11DD
102
{ACAD_REACTORS
330
11DC
102
}
330
11DC
100
AcDbXrecord
280
     1
102
RTVSPost2010Prop28
280
     0
102
RTVSPost2010PropOp28
 70
     1
102
RTVSPost2010Prop29
280
     1
102
RTVSPost2010PropOp29
 70
     1
102
RTVSPost2010Prop30
280
     1
102
RTVSPost2010PropOp30
 70
     1
102
RTVSPost2010Prop31
280
     0
102
RTVSPost2010PropOp31
 70
     1
102
RTVSPost2010Prop32
280
     0
102
RTVSPost2010PropOp32
 70
     1
102
RTVSPost2010Prop33
280
     0
102
RTVSPost2010PropOp33
 70
     1
102
RTVSPost2010Prop34
280
     0
102
RTVSPost2010PropOp34
 70
     1
102
RTVSPost2010Prop35
280
     0
102
RTVSPost2010PropOp35
 70
     1
102
RTVSPost2010Prop36
280
     0
102
RTVSPost2010PropOp36
 70
     1
102
RTVSPost2010Prop37
 90
       50
102
RTVSPost2010PropOp37
 70
     1
102
RTVSPost2010Prop38
140
0.0
102
RTVSPost2010PropOp38
 70
     1
102
RTVSPost2010Prop39
140
1.0
102
RTVSPost2010PropOp39
 70
     1
102
RTVSPost2010Prop40
 90
        0
102
RTVSPost2010PropOp40
 70
     1
102
RTVSPost2010Prop41ColorIndex
 90
       18
102
RTVSPost2010Prop41ColorRGB
 90
        0
102
RTVSPost2010PropOp41
 70
     1
102
RTVSPost2010Prop42
 90
       50
102
RTVSPost2010PropOp42
 70
     1
102
RTVSPost2010Prop43
 90
        3
102
RTVSPost2010PropOp43
 70
     1
102
RTVSPost2010Prop44ColorIndex
 90
        5
102
RTVSPost2010Prop44ColorRGB
 90
      255
102
RTVSPost2010PropOp44
 70
     1
102
RTVSPost2010Prop45
280
     0
102
RTVSPost2010PropOp45
 70
     1
102
RTVSPost2010Prop46
 90
       50
102
RTVSPost2010PropOp46
 70
     1
102
RTVSPost2010Prop47
 90
       50
102
RTVSPost2010PropOp47
 70
     1
102
RTVSPost2010Prop48
 90
       50
102
RTVSPost2010PropOp48
 70
     1
102
RTVSPost2010Prop49
280
     0
102
RTVSPost2010PropOp49
 70
     1
102
RTVSPost2010Prop50
 90
       50
102
RTVSPost2010PropOp50
 70
     1
102
RTVSPost2010Prop51ColorIndex
 90
      256
102
RTVSPost2010Prop51ColorRGB
 90
-16777216
102
RTVSPost2010PropOp51
 70
     0
102
RTVSPost2010Prop52
140
1.0
102
RTVSPost2010PropOp52
 70
     0
102
RTVSPost2010Prop53
 90
        2
102
RTVSPost2010PropOp53
 70
     1
102
RTVSPost2010Prop54
  1
strokes_ogs.tif
102
RTVSPost2010PropOp54
 70
     1
102
RTVSPost2010Prop55
280
     0
102
RTVSPost2010PropOp55
 70
     1
102
RTVSPost2010Prop56
140
1.0
102
RTVSPost2010PropOp56
 70
     1
102
RTVSPost2010Prop57
140
1.0
102
RTVSPost2010PropOp57
 70
     1
102
RTVSPropertyOp0
 70
     1
102
RTVSPropertyOp1
 70
     1
102
RTVSPropertyOp2
 70
     1
102
RTVSPropertyOp3
 70
     1
102
RTVSPropertyOp4
 70
     1
102
RTVSPropertyOp5
 70
     1
102
RTVSPropertyOp6
 70
     1
102
RTVSPropertyOp7
 70
     1
102
RTVSPropertyOp8
 70
     1
102
RTVSPropertyOp9
 70
     1
102
RTVSPropertyOp10
 70
     1
102
RTVSPropertyOp11
 70
     1
102
RTVSPropertyOp12
 70
     1
102
RTVSPropertyOp13
 70
     1
102
RTVSPropertyOp14
 70
     1
102
RTVSPropertyOp15
 70
     1
102
RTVSPropertyOp16
 70
     1
102
RTVSPropertyOp17
 70
     1
102
RTVSPropertyOp18
 70
     1
102
RTVSPropertyOp19
 70
     1
102
RTVSPropertyOp20
 70
     1
102
RTVSPropertyOp21
 70
     1
102
RTVSPropertyOp22
 70
     1
102
RTVSPropertyOp23
 70
     1
102
RTVSPropertyOp24
 70
     1
102
RTVSPropertyOp25
 70
     1
102
RTVSPropertyOp26
 70
     1
102
RTVSPropertyOp27
 70
     1
102
RTVSPropertyOp28
 70
     1
102
RTVSPropertyOp29
 70
     1
102
RTVSPropertyOp30
 70
     1
102
RTVSPropertyOp31
 70
     1
102
RTVSPropertyOp32
 70
     1
102
RTVSPropertyOp33
 70
     1
102
RTVSPropertyOp34
 70
     1
102
RTVSPropertyOp35
 70
     1
102
RTVSPropertyOp36
 70
     1
102
RTVSPropertyOp37
 70
     1
102
RTVSPropertyOp38
 70
     1
102
RTVSPropertyOp39
 70
     1
102
RTVSPropertyOp40
 70
     1
102
RTVSPropertyOp41
 70
     1
102
RTVSPropertyOp42
 70
     1
102
RTVSPropertyOp43
 70
     1
102
RTVSPropertyOp44
 70
     1
102
RTVSPropertyOp45
 70
     1
102
RTVSPropertyOp46
 70
     1
102
RTVSPropertyOp47
 70
     1
102
RTVSPropertyOp48
 70
     1
102
RTVSPropertyOp49
 70
     1
102
RTVSPropertyOp50
 70
     1
102
RTVSPropertyOp51
 70
     0
102
RTVSPropertyOp52
 70
     0
102
RTVSPropertyOp53
 70
     1
102
RTVSPropertyOp54
 70
     1
102
RTVSPropertyOp55
 70
     1
102
RTVSPropertyOp56
 70
     1
102
RTVSPropertyOp57
 70
     1
102
RTVSPropertyOp58
 70
     1
102
RTVSPropertyOp59
 70
     1
102
RTVSPropertyOp60
 70
     1
102
RTVSPropertyOp61
 70
     1
102
RTVSPropertyOp62
 70
     1
  0
XRECORD
  5
11F7
102
{ACAD_REACTORS
330
11F6
102
}
330
11F6
100
AcDbXrecord
280
     1
102
RTVSPost2010Prop28
280
     0
102
RTVSPost2010PropOp28
 70
     1
102
RTVSPost2010Prop29
280
     1
102
RTVSPost2010PropOp29
 70
     1
102
RTVSPost2010Prop30
280
     1
102
RTVSPost2010PropOp30
 70
     1
102
RTVSPost2010Prop31
280
     0
102
RTVSPost2010PropOp31
 70
     1
102
RTVSPost2010Prop32
280
     0
102
RTVSPost2010PropOp32
 70
     1
102
RTVSPost2010Prop33
280
     0
102
RTVSPost2010PropOp33
 70
     1
102
RTVSPost2010Prop34
280
     0
102
RTVSPost2010PropOp34
 70
     1
102
RTVSPost2010Prop35
280
     0
102
RTVSPost2010PropOp35
 70
     1
102
RTVSPost2010Prop36
280
     0
102
RTVSPost2010PropOp36
 70
     1
102
RTVSPost2010Prop37
 90
       50
102
RTVSPost2010PropOp37
 70
     0
102
RTVSPost2010Prop38
140
0.0
102
RTVSPost2010PropOp38
 70
     0
102
RTVSPost2010Prop39
140
1.0
102
RTVSPost2010PropOp39
 70
     0
102
RTVSPost2010Prop40
 90
        0
102
RTVSPost2010PropOp40
 70
     0
102
RTVSPost2010Prop41ColorIndex
 90
       18
102
RTVSPost2010Prop41ColorRGB
 90
        0
102
RTVSPost2010PropOp41
 70
     0
102
RTVSPost2010Prop42
 90
       50
102
RTVSPost2010PropOp42
 70
     0
102
RTVSPost2010Prop43
 90
        3
102
RTVSPost2010PropOp43
 70
     0
102
RTVSPost2010Prop44ColorIndex
 90
        5
102
RTVSPost2010Prop44ColorRGB
 90
      255
102
RTVSPost2010PropOp44
 70
     0
102
RTVSPost2010Prop45
280
     0
102
RTVSPost2010PropOp45
 70
     1
102
RTVSPost2010Prop46
 90
       50
102
RTVSPost2010PropOp46
 70
     0
102
RTVSPost2010Prop47
 90
       50
102
RTVSPost2010PropOp47
 70
     0
102
RTVSPost2010Prop48
 90
       50
102
RTVSPost2010PropOp48
 70
     0
102
RTVSPost2010Prop49
280
     0
102
RTVSPost2010PropOp49
 70
     1
102
RTVSPost2010Prop50
 90
       50
102
RTVSPost2010PropOp50
 70
     0
102
RTVSPost2010Prop51ColorIndex
 90
      256
102
RTVSPost2010Prop51ColorRGB
 90
-16777216
102
RTVSPost2010PropOp51
 70
     0
102
RTVSPost2010Prop52
140
1.0
102
RTVSPost2010PropOp52
 70
     0
102
RTVSPost2010Prop53
 90
        2
102
RTVSPost2010PropOp53
 70
     0
102
RTVSPost2010Prop54
  1
strokes_ogs.tif
102
RTVSPost2010PropOp54
 70
     0
102
RTVSPost2010Prop55
280
     0
102
RTVSPost2010PropOp55
 70
     1
102
RTVSPost2010Prop56
140
1.0
102
RTVSPost2010PropOp56
 70
     0
102
RTVSPost2010Prop57
140
1.0
102
RTVSPost2010PropOp57
 70
     0
102
RTVSPropertyOp0
 70
     0
102
RTVSPropertyOp1
 70
     0
102
RTVSPropertyOp2
 70
     0
102
RTVSPropertyOp3
 70
     0
102
RTVSPropertyOp4
 70
     0
102
RTVSPropertyOp5
 70
     0
102
RTVSPropertyOp6
 70
     0
102
RTVSPropertyOp7
 70
     0
102
RTVSPropertyOp8
 70
     0
102
RTVSPropertyOp9
 70
     0
102
RTVSPropertyOp10
 70
     0
102
RTVSPropertyOp11
 70
     0
102
RTVSPropertyOp12
 70
     0
102
RTVSPropertyOp13
 70
     0
102
RTVSPropertyOp14
 70
     2
102
RTVSPropertyOp15
 70
     0
102
RTVSPropertyOp16
 70
     0
102
RTVSPropertyOp17
 70
     0
102
RTVSPropertyOp18
 70
     0
102
RTVSPropertyOp19
 70
     0
102
RTVSPropertyOp20
 70
     0
102
RTVSPropertyOp21
 70
     0
102
RTVSPropertyOp22
 70
     0
102
RTVSPropertyOp23
 70
     0
102
RTVSPropertyOp24
 70
     0
102
RTVSPropertyOp25
 70
     0
102
RTVSPropertyOp26
 70
     0
102
RTVSPropertyOp27
 70
     0
102
RTVSPropertyOp28
 70
     1
102
RTVSPropertyOp29
 70
     1
102
RTVSPropertyOp30
 70
     1
102
RTVSPropertyOp31
 70
     1
102
RTVSPropertyOp32
 70
     1
102
RTVSPropertyOp33
 70
     1
102
RTVSPropertyOp34
 70
     1
102
RTVSPropertyOp35
 70
     1
102
RTVSPropertyOp36
 70
     1
102
RTVSPropertyOp37
 70
     0
102
RTVSPropertyOp38
 70
     0
102
RTVSPropertyOp39
 70
     0
102
RTVSPropertyOp40
 70
     0
102
RTVSPropertyOp41
 70
     0
102
RTVSPropertyOp42
 70
     0
102
RTVSPropertyOp43
 70
     0
102
RTVSPropertyOp44
 70
     0
102
RTVSPropertyOp45
 70
     1
102
RTVSPropertyOp46
 70
     0
102
RTVSPropertyOp47
 70
     0
102
RTVSPropertyOp48
 70
     0
102
RTVSPropertyOp49
 70
     1
102
RTVSPropertyOp50
 70
     0
102
RTVSPropertyOp51
 70
     0
102
RTVSPropertyOp52
 70
     0
102
RTVSPropertyOp53
 70
     0
102
RTVSPropertyOp54
 70
     0
102
RTVSPropertyOp55
 70
     1
102
RTVSPropertyOp56
 70
     0
102
RTVSPropertyOp57
 70
     0
102
RTVSPropertyOp58
 70
     0
102
RTVSPropertyOp59
 70
     0
102
RTVSPropertyOp60
 70
     0
102
RTVSPropertyOp61
 70
     0
102
RTVSPropertyOp62
 70
     0
  0
XRECORD
  5
11E5
102
{ACAD_REACTORS
330
11E4
102
}
330
11E4
100
AcDbXrecord
280
     1
102
RTVSPost2010Prop28
280
     0
102
RTVSPost2010PropOp28
 70
     1
102
RTVSPost2010Prop29
280
     1
102
RTVSPost2010PropOp29
 70
     1
102
RTVSPost2010Prop30
280
     1
102
RTVSPost2010PropOp30
 70
     1
102
RTVSPost2010Prop31
280
     0
102
RTVSPost2010PropOp31
 70
     1
102
RTVSPost2010Prop32
280
     0
102
RTVSPost2010PropOp32
 70
     1
102
RTVSPost2010Prop33
280
     0
102
RTVSPost2010PropOp33
 70
     1
102
RTVSPost2010Prop34
280
     0
102
RTVSPost2010PropOp34
 70
     1
102
RTVSPost2010Prop35
280
     0
102
RTVSPost2010PropOp35
 70
     1
102
RTVSPost2010Prop36
280
     0
102
RTVSPost2010PropOp36
 70
     1
102
RTVSPost2010Prop37
 90
       50
102
RTVSPost2010PropOp37
 70
     1
102
RTVSPost2010Prop38
140
0.0
102
RTVSPost2010PropOp38
 70
     1
102
RTVSPost2010Prop39
140
1.0
102
RTVSPost2010PropOp39
 70
     1
102
RTVSPost2010Prop40
 90
        0
102
RTVSPost2010PropOp40
 70
     1
102
RTVSPost2010Prop41ColorIndex
 90
       18
102
RTVSPost2010Prop41ColorRGB
 90
        0
102
RTVSPost2010PropOp41
 70
     1
102
RTVSPost2010Prop42
 90
       50
102
RTVSPost2010PropOp42
 70
     1
102
RTVSPost2010Prop43
 90
        3
102
RTVSPost2010PropOp43
 70
     1
102
RTVSPost2010Prop44ColorIndex
 90
        5
102
RTVSPost2010Prop44ColorRGB
 90
      255
102
RTVSPost2010PropOp44
 70
     1
102
RTVSPost2010Prop45
280
     0
102
RTVSPost2010PropOp45
 70
     1
102
RTVSPost2010Prop46
 90
       50
102
RTVSPost2010PropOp46
 70
     1
102
RTVSPost2010Prop47
 90
       50
102
RTVSPost2010PropOp47
 70
     1
102
RTVSPost2010Prop48
 90
       50
102
RTVSPost2010PropOp48
 70
     1
102
RTVSPost2010Prop49
280
     0
102
RTVSPost2010PropOp49
 70
     1
102
RTVSPost2010Prop50
 90
       50
102
RTVSPost2010PropOp50
 70
     1
102
RTVSPost2010Prop51ColorIndex
 90
      256
102
RTVSPost2010Prop51ColorRGB
 90
-16777216
102
RTVSPost2010PropOp51
 70
     0
102
RTVSPost2010Prop52
140
1.0
102
RTVSPost2010PropOp52
 70
     0
102
RTVSPost2010Prop53
 90
        2
102
RTVSPost2010PropOp53
 70
     1
102
RTVSPost2010Prop54
  1
strokes_ogs.tif
102
RTVSPost2010PropOp54
 70
     1
102
RTVSPost2010Prop55
280
     0
102
RTVSPost2010PropOp55
 70
     1
102
RTVSPost2010Prop56
140
1.0
102
RTVSPost2010PropOp56
 70
     1
102
RTVSPost2010Prop57
140
1.0
102
RTVSPost2010PropOp57
 70
     1
102
RTVSPropertyOp0
 70
     1
102
RTVSPropertyOp1
 70
     1
102
RTVSPropertyOp2
 70
     1
102
RTVSPropertyOp3
 70
     1
102
RTVSPropertyOp4
 70
     1
102
RTVSPropertyOp5
 70
     1
102
RTVSPropertyOp6
 70
     1
102
RTVSPropertyOp7
 70
     1
102
RTVSPropertyOp8
 70
     1
102
RTVSPropertyOp9
 70
     1
102
RTVSPropertyOp10
 70
     1
102
RTVSPropertyOp11
 70
     1
102
RTVSPropertyOp12
 70
     1
102
RTVSPropertyOp13
 70
     1
102
RTVSPropertyOp14
 70
     1
102
RTVSPropertyOp15
 70
     1
102
RTVSPropertyOp16
 70
     1
102
RTVSPropertyOp17
 70
     1
102
RTVSPropertyOp18
 70
     1
102
RTVSPropertyOp19
 70
     1
102
RTVSPropertyOp20
 70
     1
102
RTVSPropertyOp21
 70
     1
102
RTVSPropertyOp22
 70
     1
102
RTVSPropertyOp23
 70
     1
102
RTVSPropertyOp24
 70
     1
102
RTVSPropertyOp25
 70
     1
102
RTVSPropertyOp26
 70
     1
102
RTVSPropertyOp27
 70
     1
102
RTVSPropertyOp28
 70
     1
102
RTVSPropertyOp29
 70
     1
102
RTVSPropertyOp30
 70
     1
102
RTVSPropertyOp31
 70
     1
102
RTVSPropertyOp32
 70
     1
102
RTVSPropertyOp33
 70
     1
102
RTVSPropertyOp34
 70
     1
102
RTVSPropertyOp35
 70
     1
102
RTVSPropertyOp36
 70
     1
102
RTVSPropertyOp37
 70
     1
102
RTVSPropertyOp38
 70
     1
102
RTVSPropertyOp39
 70
     1
102
RTVSPropertyOp40
 70
     1
102
RTVSPropertyOp41
 70
     1
102
RTVSPropertyOp42
 70
     1
102
RTVSPropertyOp43
 70
     1
102
RTVSPropertyOp44
 70
     1
102
RTVSPropertyOp45
 70
     1
102
RTVSPropertyOp46
 70
     1
102
RTVSPropertyOp47
 70
     1
102
RTVSPropertyOp48
 70
     1
102
RTVSPropertyOp49
 70
     1
102
RTVSPropertyOp50
 70
     1
102
RTVSPropertyOp51
 70
     0
102
RTVSPropertyOp52
 70
     0
102
RTVSPropertyOp53
 70
     1
102
RTVSPropertyOp54
 70
     1
102
RTVSPropertyOp55
 70
     1
102
RTVSPropertyOp56
 70
     1
102
RTVSPropertyOp57
 70
     1
102
RTVSPropertyOp58
 70
     1
102
RTVSPropertyOp59
 70
     1
102
RTVSPropertyOp60
 70
     1
102
RTVSPropertyOp61
 70
     1
102
RTVSPropertyOp62
 70
     1
  0
XRECORD
  5
11C9
102
{ACAD_REACTORS
330
11C8
102
}
330
11C8
100
AcDbXrecord
280
     1
102
RTVSPost2010Prop28
280
     0
102
RTVSPost2010PropOp28
 70
     1
102
RTVSPost2010Prop29
280
     1
102
RTVSPost2010PropOp29
 70
     1
102
RTVSPost2010Prop30
280
     1
102
RTVSPost2010PropOp30
 70
     1
102
RTVSPost2010Prop31
280
     0
102
RTVSPost2010PropOp31
 70
     1
102
RTVSPost2010Prop32
280
     0
102
RTVSPost2010PropOp32
 70
     1
102
RTVSPost2010Prop33
280
     0
102
RTVSPost2010PropOp33
 70
     1
102
RTVSPost2010Prop34
280
     0
102
RTVSPost2010PropOp34
 70
     1
102
RTVSPost2010Prop35
280
     0
102
RTVSPost2010PropOp35
 70
     1
102
RTVSPost2010Prop36
280
     0
102
RTVSPost2010PropOp36
 70
     1
102
RTVSPost2010Prop37
 90
       50
102
RTVSPost2010PropOp37
 70
     1
102
RTVSPost2010Prop38
140
0.0
102
RTVSPost2010PropOp38
 70
     1
102
RTVSPost2010Prop39
140
1.0
102
RTVSPost2010PropOp39
 70
     1
102
RTVSPost2010Prop40
 90
        0
102
RTVSPost2010PropOp40
 70
     1
102
RTVSPost2010Prop41ColorIndex
 90
       18
102
RTVSPost2010Prop41ColorRGB
 90
        0
102
RTVSPost2010PropOp41
 70
     1
102
RTVSPost2010Prop42
 90
       50
102
RTVSPost2010PropOp42
 70
     1
102
RTVSPost2010Prop43
 90
        3
102
RTVSPost2010PropOp43
 70
     1
102
RTVSPost2010Prop44ColorIndex
 90
        5
102
RTVSPost2010Prop44ColorRGB
 90
      255
102
RTVSPost2010PropOp44
 70
     1
102
RTVSPost2010Prop45
280
     0
102
RTVSPost2010PropOp45
 70
     1
102
RTVSPost2010Prop46
 90
       50
102
RTVSPost2010PropOp46
 70
     1
102
RTVSPost2010Prop47
 90
       50
102
RTVSPost2010PropOp47
 70
     1
102
RTVSPost2010Prop48
 90
       50
102
RTVSPost2010PropOp48
 70
     1
102
RTVSPost2010Prop49
280
     0
102
RTVSPost2010PropOp49
 70
     1
102
RTVSPost2010Prop50
 90
       50
102
RTVSPost2010PropOp50
 70
     1
102
RTVSPost2010Prop51ColorIndex
 90
      256
102
RTVSPost2010Prop51ColorRGB
 90
-16777216
102
RTVSPost2010PropOp51
 70
     0
102
RTVSPost2010Prop52
140
1.0
102
RTVSPost2010PropOp52
 70
     0
102
RTVSPost2010Prop53
 90
        2
102
RTVSPost2010PropOp53
 70
     1
102
RTVSPost2010Prop54
  1
strokes_ogs.tif
102
RTVSPost2010PropOp54
 70
     1
102
RTVSPost2010Prop55
280
     0
102
RTVSPost2010PropOp55
 70
     1
102
RTVSPost2010Prop56
140
1.0
102
RTVSPost2010PropOp56
 70
     1
102
RTVSPost2010Prop57
140
1.0
102
RTVSPost2010PropOp57
 70
     1
102
RTVSPropertyOp0
 70
     1
102
RTVSPropertyOp1
 70
     1
102
RTVSPropertyOp2
 70
     1
102
RTVSPropertyOp3
 70
     1
102
RTVSPropertyOp4
 70
     1
102
RTVSPropertyOp5
 70
     1
102
RTVSPropertyOp6
 70
     1
102
RTVSPropertyOp7
 70
     1
102
RTVSPropertyOp8
 70
     1
102
RTVSPropertyOp9
 70
     1
102
RTVSPropertyOp10
 70
     1
102
RTVSPropertyOp11
 70
     1
102
RTVSPropertyOp12
 70
     1
102
RTVSPropertyOp13
 70
     1
102
RTVSPropertyOp14
 70
     1
102
RTVSPropertyOp15
 70
     1
102
RTVSPropertyOp16
 70
     1
102
RTVSPropertyOp17
 70
     1
102
RTVSPropertyOp18
 70
     1
102
RTVSPropertyOp19
 70
     1
102
RTVSPropertyOp20
 70
     1
102
RTVSPropertyOp21
 70
     1
102
RTVSPropertyOp22
 70
     1
102
RTVSPropertyOp23
 70
     1
102
RTVSPropertyOp24
 70
     1
102
RTVSPropertyOp25
 70
     1
102
RTVSPropertyOp26
 70
     1
102
RTVSPropertyOp27
 70
     1
102
RTVSPropertyOp28
 70
     1
102
RTVSPropertyOp29
 70
     1
102
RTVSPropertyOp30
 70
     1
102
RTVSPropertyOp31
 70
     1
102
RTVSPropertyOp32
 70
     1
102
RTVSPropertyOp33
 70
     1
102
RTVSPropertyOp34
 70
     1
102
RTVSPropertyOp35
 70
     1
102
RTVSPropertyOp36
 70
     1
102
RTVSPropertyOp37
 70
     1
102
RTVSPropertyOp38
 70
     1
102
RTVSPropertyOp39
 70
     1
102
RTVSPropertyOp40
 70
     1
102
RTVSPropertyOp41
 70
     1
102
RTVSPropertyOp42
 70
     1
102
RTVSPropertyOp43
 70
     1
102
RTVSPropertyOp44
 70
     1
102
RTVSPropertyOp45
 70
     1
102
RTVSPropertyOp46
 70
     1
102
RTVSPropertyOp47
 70
     1
102
RTVSPropertyOp48
 70
     1
102
RTVSPropertyOp49
 70
     1
102
RTVSPropertyOp50
 70
     1
102
RTVSPropertyOp51
 70
     0
102
RTVSPropertyOp52
 70
     0
102
RTVSPropertyOp53
 70
     1
102
RTVSPropertyOp54
 70
     1
102
RTVSPropertyOp55
 70
     1
102
RTVSPropertyOp56
 70
     1
102
RTVSPropertyOp57
 70
     1
102
RTVSPropertyOp58
 70
     1
102
RTVSPropertyOp59
 70
     1
102
RTVSPropertyOp60
 70
     1
102
RTVSPropertyOp61
 70
     1
102
RTVSPropertyOp62
 70
     1
  0
XRECORD
  5
11CB
102
{ACAD_REACTORS
330
11CA
102
}
330
11CA
100
AcDbXrecord
280
     1
102
RTVSPost2010Prop28
280
     0
102
RTVSPost2010PropOp28
 70
     1
102
RTVSPost2010Prop29
280
     1
102
RTVSPost2010PropOp29
 70
     1
102
RTVSPost2010Prop30
280
     1
102
RTVSPost2010PropOp30
 70
     1
102
RTVSPost2010Prop31
280
     0
102
RTVSPost2010PropOp31
 70
     1
102
RTVSPost2010Prop32
280
     0
102
RTVSPost2010PropOp32
 70
     1
102
RTVSPost2010Prop33
280
     0
102
RTVSPost2010PropOp33
 70
     1
102
RTVSPost2010Prop34
280
     0
102
RTVSPost2010PropOp34
 70
     1
102
RTVSPost2010Prop35
280
     0
102
RTVSPost2010PropOp35
 70
     1
102
RTVSPost2010Prop36
280
     0
102
RTVSPost2010PropOp36
 70
     1
102
RTVSPost2010Prop37
 90
       50
102
RTVSPost2010PropOp37
 70
     1
102
RTVSPost2010Prop38
140
0.0
102
RTVSPost2010PropOp38
 70
     1
102
RTVSPost2010Prop39
140
1.0
102
RTVSPost2010PropOp39
 70
     1
102
RTVSPost2010Prop40
 90
        0
102
RTVSPost2010PropOp40
 70
     1
102
RTVSPost2010Prop41ColorIndex
 90
       18
102
RTVSPost2010Prop41ColorRGB
 90
        0
102
RTVSPost2010PropOp41
 70
     1
102
RTVSPost2010Prop42
 90
       50
102
RTVSPost2010PropOp42
 70
     1
102
RTVSPost2010Prop43
 90
        3
102
RTVSPost2010PropOp43
 70
     1
102
RTVSPost2010Prop44ColorIndex
 90
        5
102
RTVSPost2010Prop44ColorRGB
 90
      255
102
RTVSPost2010PropOp44
 70
     1
102
RTVSPost2010Prop45
280
     0
102
RTVSPost2010PropOp45
 70
     1
102
RTVSPost2010Prop46
 90
       50
102
RTVSPost2010PropOp46
 70
     1
102
RTVSPost2010Prop47
 90
       50
102
RTVSPost2010PropOp47
 70
     1
102
RTVSPost2010Prop48
 90
       50
102
RTVSPost2010PropOp48
 70
     1
102
RTVSPost2010Prop49
280
     0
102
RTVSPost2010PropOp49
 70
     1
102
RTVSPost2010Prop50
 90
       50
102
RTVSPost2010PropOp50
 70
     1
102
RTVSPost2010Prop51ColorIndex
 90
      256
102
RTVSPost2010Prop51ColorRGB
 90
-16777216
102
RTVSPost2010PropOp51
 70
     0
102
RTVSPost2010Prop52
140
1.0
102
RTVSPost2010PropOp52
 70
     0
102
RTVSPost2010Prop53
 90
        2
102
RTVSPost2010PropOp53
 70
     1
102
RTVSPost2010Prop54
  1
strokes_ogs.tif
102
RTVSPost2010PropOp54
 70
     1
102
RTVSPost2010Prop55
280
     0
102
RTVSPost2010PropOp55
 70
     1
102
RTVSPost2010Prop56
140
1.0
102
RTVSPost2010PropOp56
 70
     1
102
RTVSPost2010Prop57
140
1.0
102
RTVSPost2010PropOp57
 70
     1
102
RTVSPropertyOp0
 70
     1
102
RTVSPropertyOp1
 70
     1
102
RTVSPropertyOp2
 70
     1
102
RTVSPropertyOp3
 70
     1
102
RTVSPropertyOp4
 70
     1
102
RTVSPropertyOp5
 70
     1
102
RTVSPropertyOp6
 70
     1
102
RTVSPropertyOp7
 70
     1
102
RTVSPropertyOp8
 70
     1
102
RTVSPropertyOp9
 70
     1
102
RTVSPropertyOp10
 70
     1
102
RTVSPropertyOp11
 70
     1
102
RTVSPropertyOp12
 70
     1
102
RTVSPropertyOp13
 70
     1
102
RTVSPropertyOp14
 70
     1
102
RTVSPropertyOp15
 70
     1
102
RTVSPropertyOp16
 70
     1
102
RTVSPropertyOp17
 70
     1
102
RTVSPropertyOp18
 70
     1
102
RTVSPropertyOp19
 70
     1
102
RTVSPropertyOp20
 70
     1
102
RTVSPropertyOp21
 70
     1
102
RTVSPropertyOp22
 70
     1
102
RTVSPropertyOp23
 70
     1
102
RTVSPropertyOp24
 70
     1
102
RTVSPropertyOp25
 70
     1
102
RTVSPropertyOp26
 70
     1
102
RTVSPropertyOp27
 70
     1
102
RTVSPropertyOp28
 70
     1
102
RTVSPropertyOp29
 70
     1
102
RTVSPropertyOp30
 70
     1
102
RTVSPropertyOp31
 70
     1
102
RTVSPropertyOp32
 70
     1
102
RTVSPropertyOp33
 70
     1
102
RTVSPropertyOp34
 70
     1
102
RTVSPropertyOp35
 70
     1
102
RTVSPropertyOp36
 70
     1
102
RTVSPropertyOp37
 70
     1
102
RTVSPropertyOp38
 70
     1
102
RTVSPropertyOp39
 70
     1
102
RTVSPropertyOp40
 70
     1
102
RTVSPropertyOp41
 70
     1
102
RTVSPropertyOp42
 70
     1
102
RTVSPropertyOp43
 70
     1
102
RTVSPropertyOp44
 70
     1
102
RTVSPropertyOp45
 70
     1
102
RTVSPropertyOp46
 70
     1
102
RTVSPropertyOp47
 70
     1
102
RTVSPropertyOp48
 70
     1
102
RTVSPropertyOp49
 70
     1
102
RTVSPropertyOp50
 70
     1
102
RTVSPropertyOp51
 70
     0
102
RTVSPropertyOp52
 70
     0
102
RTVSPropertyOp53
 70
     1
102
RTVSPropertyOp54
 70
     1
102
RTVSPropertyOp55
 70
     1
102
RTVSPropertyOp56
 70
     1
102
RTVSPropertyOp57
 70
     1
102
RTVSPropertyOp58
 70
     1
102
RTVSPropertyOp59
 70
     1
102
RTVSPropertyOp60
 70
     1
102
RTVSPropertyOp61
 70
     1
102
RTVSPropertyOp62
 70
     1
  0
XRECORD
  5
11CD
102
{ACAD_REACTORS
330
11CC
102
}
330
11CC
100
AcDbXrecord
280
     1
102
RTVSPost2010Prop28
280
     0
102
RTVSPost2010PropOp28
 70
     1
102
RTVSPost2010Prop29
280
     1
102
RTVSPost2010PropOp29
 70
     1
102
RTVSPost2010Prop30
280
     1
102
RTVSPost2010PropOp30
 70
     1
102
RTVSPost2010Prop31
280
     0
102
RTVSPost2010PropOp31
 70
     1
102
RTVSPost2010Prop32
280
     0
102
RTVSPost2010PropOp32
 70
     1
102
RTVSPost2010Prop33
280
     0
102
RTVSPost2010PropOp33
 70
     1
102
RTVSPost2010Prop34
280
     0
102
RTVSPost2010PropOp34
 70
     1
102
RTVSPost2010Prop35
280
     0
102
RTVSPost2010PropOp35
 70
     1
102
RTVSPost2010Prop36
280
     0
102
RTVSPost2010PropOp36
 70
     1
102
RTVSPost2010Prop37
 90
       50
102
RTVSPost2010PropOp37
 70
     1
102
RTVSPost2010Prop38
140
0.0
102
RTVSPost2010PropOp38
 70
     1
102
RTVSPost2010Prop39
140
1.0
102
RTVSPost2010PropOp39
 70
     1
102
RTVSPost2010Prop40
 90
        0
102
RTVSPost2010PropOp40
 70
     1
102
RTVSPost2010Prop41ColorIndex
 90
       18
102
RTVSPost2010Prop41ColorRGB
 90
        0
102
RTVSPost2010PropOp41
 70
     1
102
RTVSPost2010Prop42
 90
       50
102
RTVSPost2010PropOp42
 70
     1
102
RTVSPost2010Prop43
 90
        3
102
RTVSPost2010PropOp43
 70
     1
102
RTVSPost2010Prop44ColorIndex
 90
        5
102
RTVSPost2010Prop44ColorRGB
 90
      255
102
RTVSPost2010PropOp44
 70
     1
102
RTVSPost2010Prop45
280
     0
102
RTVSPost2010PropOp45
 70
     1
102
RTVSPost2010Prop46
 90
       50
102
RTVSPost2010PropOp46
 70
     1
102
RTVSPost2010Prop47
 90
       50
102
RTVSPost2010PropOp47
 70
     1
102
RTVSPost2010Prop48
 90
       50
102
RTVSPost2010PropOp48
 70
     1
102
RTVSPost2010Prop49
280
     0
102
RTVSPost2010PropOp49
 70
     1
102
RTVSPost2010Prop50
 90
       50
102
RTVSPost2010PropOp50
 70
     1
102
RTVSPost2010Prop51ColorIndex
 90
      256
102
RTVSPost2010Prop51ColorRGB
 90
-16777216
102
RTVSPost2010PropOp51
 70
     0
102
RTVSPost2010Prop52
140
1.0
102
RTVSPost2010PropOp52
 70
     0
102
RTVSPost2010Prop53
 90
        2
102
RTVSPost2010PropOp53
 70
     1
102
RTVSPost2010Prop54
  1
strokes_ogs.tif
102
RTVSPost2010PropOp54
 70
     1
102
RTVSPost2010Prop55
280
     0
102
RTVSPost2010PropOp55
 70
     1
102
RTVSPost2010Prop56
140
1.0
102
RTVSPost2010PropOp56
 70
     1
102
RTVSPost2010Prop57
140
1.0
102
RTVSPost2010PropOp57
 70
     1
102
RTVSPropertyOp0
 70
     1
102
RTVSPropertyOp1
 70
     1
102
RTVSPropertyOp2
 70
     1
102
RTVSPropertyOp3
 70
     1
102
RTVSPropertyOp4
 70
     1
102
RTVSPropertyOp5
 70
     1
102
RTVSPropertyOp6
 70
     1
102
RTVSPropertyOp7
 70
     1
102
RTVSPropertyOp8
 70
     1
102
RTVSPropertyOp9
 70
     1
102
RTVSPropertyOp10
 70
     1
102
RTVSPropertyOp11
 70
     1
102
RTVSPropertyOp12
 70
     1
102
RTVSPropertyOp13
 70
     1
102
RTVSPropertyOp14
 70
     1
102
RTVSPropertyOp15
 70
     1
102
RTVSPropertyOp16
 70
     1
102
RTVSPropertyOp17
 70
     1
102
RTVSPropertyOp18
 70
     1
102
RTVSPropertyOp19
 70
     1
102
RTVSPropertyOp20
 70
     1
102
RTVSPropertyOp21
 70
     1
102
RTVSPropertyOp22
 70
     1
102
RTVSPropertyOp23
 70
     1
102
RTVSPropertyOp24
 70
     1
102
RTVSPropertyOp25
 70
     1
102
RTVSPropertyOp26
 70
     1
102
RTVSPropertyOp27
 70
     1
102
RTVSPropertyOp28
 70
     1
102
RTVSPropertyOp29
 70
     1
102
RTVSPropertyOp30
 70
     1
102
RTVSPropertyOp31
 70
     1
102
RTVSPropertyOp32
 70
     1
102
RTVSPropertyOp33
 70
     1
102
RTVSPropertyOp34
 70
     1
102
RTVSPropertyOp35
 70
     1
102
RTVSPropertyOp36
 70
     1
102
RTVSPropertyOp37
 70
     1
102
RTVSPropertyOp38
 70
     1
102
RTVSPropertyOp39
 70
     1
102
RTVSPropertyOp40
 70
     1
102
RTVSPropertyOp41
 70
     1
102
RTVSPropertyOp42
 70
     1
102
RTVSPropertyOp43
 70
     1
102
RTVSPropertyOp44
 70
     1
102
RTVSPropertyOp45
 70
     1
102
RTVSPropertyOp46
 70
     1
102
RTVSPropertyOp47
 70
     1
102
RTVSPropertyOp48
 70
     1
102
RTVSPropertyOp49
 70
     1
102
RTVSPropertyOp50
 70
     1
102
RTVSPropertyOp51
 70
     0
102
RTVSPropertyOp52
 70
     0
102
RTVSPropertyOp53
 70
     1
102
RTVSPropertyOp54
 70
     1
102
RTVSPropertyOp55
 70
     1
102
RTVSPropertyOp56
 70
     1
102
RTVSPropertyOp57
 70
     1
102
RTVSPropertyOp58
 70
     1
102
RTVSPropertyOp59
 70
     1
102
RTVSPropertyOp60
 70
     1
102
RTVSPropertyOp61
 70
     1
102
RTVSPropertyOp62
 70
     1
  0
XRECORD
  5
11CF
102
{ACAD_REACTORS
330
11CE
102
}
330
11CE
100
AcDbXrecord
280
     1
102
RTVSPost2010Prop28
280
     0
102
RTVSPost2010PropOp28
 70
     1
102
RTVSPost2010Prop29
280
     1
102
RTVSPost2010PropOp29
 70
     1
102
RTVSPost2010Prop30
280
     1
102
RTVSPost2010PropOp30
 70
     1
102
RTVSPost2010Prop31
280
     0
102
RTVSPost2010PropOp31
 70
     1
102
RTVSPost2010Prop32
280
     0
102
RTVSPost2010PropOp32
 70
     1
102
RTVSPost2010Prop33
280
     0
102
RTVSPost2010PropOp33
 70
     1
102
RTVSPost2010Prop34
280
     0
102
RTVSPost2010PropOp34
 70
     1
102
RTVSPost2010Prop35
280
     0
102
RTVSPost2010PropOp35
 70
     1
102
RTVSPost2010Prop36
280
     0
102
RTVSPost2010PropOp36
 70
     1
102
RTVSPost2010Prop37
 90
       50
102
RTVSPost2010PropOp37
 70
     1
102
RTVSPost2010Prop38
140
0.0
102
RTVSPost2010PropOp38
 70
     1
102
RTVSPost2010Prop39
140
1.0
102
RTVSPost2010PropOp39
 70
     1
102
RTVSPost2010Prop40
 90
        0
102
RTVSPost2010PropOp40
 70
     1
102
RTVSPost2010Prop41ColorIndex
 90
       18
102
RTVSPost2010Prop41ColorRGB
 90
        0
102
RTVSPost2010PropOp41
 70
     1
102
RTVSPost2010Prop42
 90
       50
102
RTVSPost2010PropOp42
 70
     1
102
RTVSPost2010Prop43
 90
        3
102
RTVSPost2010PropOp43
 70
     1
102
RTVSPost2010Prop44ColorIndex
 90
        5
102
RTVSPost2010Prop44ColorRGB
 90
      255
102
RTVSPost2010PropOp44
 70
     1
102
RTVSPost2010Prop45
280
     0
102
RTVSPost2010PropOp45
 70
     1
102
RTVSPost2010Prop46
 90
       50
102
RTVSPost2010PropOp46
 70
     1
102
RTVSPost2010Prop47
 90
       50
102
RTVSPost2010PropOp47
 70
     1
102
RTVSPost2010Prop48
 90
       50
102
RTVSPost2010PropOp48
 70
     1
102
RTVSPost2010Prop49
280
     0
102
RTVSPost2010PropOp49
 70
     1
102
RTVSPost2010Prop50
 90
       50
102
RTVSPost2010PropOp50
 70
     1
102
RTVSPost2010Prop51ColorIndex
 90
      256
102
RTVSPost2010Prop51ColorRGB
 90
-16777216
102
RTVSPost2010PropOp51
 70
     0
102
RTVSPost2010Prop52
140
1.0
102
RTVSPost2010PropOp52
 70
     0
102
RTVSPost2010Prop53
 90
        2
102
RTVSPost2010PropOp53
 70
     1
102
RTVSPost2010Prop54
  1
strokes_ogs.tif
102
RTVSPost2010PropOp54
 70
     1
102
RTVSPost2010Prop55
280
     0
102
RTVSPost2010PropOp55
 70
     1
102
RTVSPost2010Prop56
140
1.0
102
RTVSPost2010PropOp56
 70
     1
102
RTVSPost2010Prop57
140
1.0
102
RTVSPost2010PropOp57
 70
     1
102
RTVSPropertyOp0
 70
     1
102
RTVSPropertyOp1
 70
     1
102
RTVSPropertyOp2
 70
     1
102
RTVSPropertyOp3
 70
     1
102
RTVSPropertyOp4
 70
     1
102
RTVSPropertyOp5
 70
     1
102
RTVSPropertyOp6
 70
     1
102
RTVSPropertyOp7
 70
     1
102
RTVSPropertyOp8
 70
     1
102
RTVSPropertyOp9
 70
     1
102
RTVSPropertyOp10
 70
     1
102
RTVSPropertyOp11
 70
     1
102
RTVSPropertyOp12
 70
     1
102
RTVSPropertyOp13
 70
     1
102
RTVSPropertyOp14
 70
     1
102
RTVSPropertyOp15
 70
     1
102
RTVSPropertyOp16
 70
     1
102
RTVSPropertyOp17
 70
     1
102
RTVSPropertyOp18
 70
     1
102
RTVSPropertyOp19
 70
     1
102
RTVSPropertyOp20
 70
     1
102
RTVSPropertyOp21
 70
     1
102
RTVSPropertyOp22
 70
     1
102
RTVSPropertyOp23
 70
     1
102
RTVSPropertyOp24
 70
     1
102
RTVSPropertyOp25
 70
     1
102
RTVSPropertyOp26
 70
     1
102
RTVSPropertyOp27
 70
     1
102
RTVSPropertyOp28
 70
     1
102
RTVSPropertyOp29
 70
     1
102
RTVSPropertyOp30
 70
     1
102
RTVSPropertyOp31
 70
     1
102
RTVSPropertyOp32
 70
     1
102
RTVSPropertyOp33
 70
     1
102
RTVSPropertyOp34
 70
     1
102
RTVSPropertyOp35
 70
     1
102
RTVSPropertyOp36
 70
     1
102
RTVSPropertyOp37
 70
     1
102
RTVSPropertyOp38
 70
     1
102
RTVSPropertyOp39
 70
     1
102
RTVSPropertyOp40
 70
     1
102
RTVSPropertyOp41
 70
     1
102
RTVSPropertyOp42
 70
     1
102
RTVSPropertyOp43
 70
     1
102
RTVSPropertyOp44
 70
     1
102
RTVSPropertyOp45
 70
     1
102
RTVSPropertyOp46
 70
     1
102
RTVSPropertyOp47
 70
     1
102
RTVSPropertyOp48
 70
     1
102
RTVSPropertyOp49
 70
     1
102
RTVSPropertyOp50
 70
     1
102
RTVSPropertyOp51
 70
     0
102
RTVSPropertyOp52
 70
     0
102
RTVSPropertyOp53
 70
     1
102
RTVSPropertyOp54
 70
     1
102
RTVSPropertyOp55
 70
     1
102
RTVSPropertyOp56
 70
     1
102
RTVSPropertyOp57
 70
     1
102
RTVSPropertyOp58
 70
     1
102
RTVSPropertyOp59
 70
     1
102
RTVSPropertyOp60
 70
     1
102
RTVSPropertyOp61
 70
     1
102
RTVSPropertyOp62
 70
     1
  0
XRECORD
  5
11D7
102
{ACAD_REACTORS
330
11D6
102
}
330
11D6
100
AcDbXrecord
280
     1
102
RTVSPost2010Prop28
280
     0
102
RTVSPost2010PropOp28
 70
     1
102
RTVSPost2010Prop29
280
     1
102
RTVSPost2010PropOp29
 70
     1
102
RTVSPost2010Prop30
280
     1
102
RTVSPost2010PropOp30
 70
     1
102
RTVSPost2010Prop31
280
     0
102
RTVSPost2010PropOp31
 70
     1
102
RTVSPost2010Prop32
280
     0
102
RTVSPost2010PropOp32
 70
     1
102
RTVSPost2010Prop33
280
     0
102
RTVSPost2010PropOp33
 70
     1
102
RTVSPost2010Prop34
280
     0
102
RTVSPost2010PropOp34
 70
     1
102
RTVSPost2010Prop35
280
     0
102
RTVSPost2010PropOp35
 70
     1
102
RTVSPost2010Prop36
280
     0
102
RTVSPost2010PropOp36
 70
     1
102
RTVSPost2010Prop37
 90
       50
102
RTVSPost2010PropOp37
 70
     1
102
RTVSPost2010Prop38
140
0.0
102
RTVSPost2010PropOp38
 70
     1
102
RTVSPost2010Prop39
140
1.0
102
RTVSPost2010PropOp39
 70
     1
102
RTVSPost2010Prop40
 90
        0
102
RTVSPost2010PropOp40
 70
     1
102
RTVSPost2010Prop41ColorIndex
 90
       18
102
RTVSPost2010Prop41ColorRGB
 90
        0
102
RTVSPost2010PropOp41
 70
     1
102
RTVSPost2010Prop42
 90
       50
102
RTVSPost2010PropOp42
 70
     1
102
RTVSPost2010Prop43
 90
        3
102
RTVSPost2010PropOp43
 70
     1
102
RTVSPost2010Prop44ColorIndex
 90
        5
102
RTVSPost2010Prop44ColorRGB
 90
      255
102
RTVSPost2010PropOp44
 70
     1
102
RTVSPost2010Prop45
280
     0
102
RTVSPost2010PropOp45
 70
     1
102
RTVSPost2010Prop46
 90
       50
102
RTVSPost2010PropOp46
 70
     1
102
RTVSPost2010Prop47
 90
       50
102
RTVSPost2010PropOp47
 70
     1
102
RTVSPost2010Prop48
 90
       50
102
RTVSPost2010PropOp48
 70
     1
102
RTVSPost2010Prop49
280
     0
102
RTVSPost2010PropOp49
 70
     1
102
RTVSPost2010Prop50
 90
       50
102
RTVSPost2010PropOp50
 70
     1
102
RTVSPost2010Prop51ColorIndex
 90
      256
102
RTVSPost2010Prop51ColorRGB
 90
-16777216
102
RTVSPost2010PropOp51
 70
     0
102
RTVSPost2010Prop52
140
1.0
102
RTVSPost2010PropOp52
 70
     0
102
RTVSPost2010Prop53
 90
        2
102
RTVSPost2010PropOp53
 70
     1
102
RTVSPost2010Prop54
  1
strokes_ogs.tif
102
RTVSPost2010PropOp54
 70
     1
102
RTVSPost2010Prop55
280
     0
102
RTVSPost2010PropOp55
 70
     1
102
RTVSPost2010Prop56
140
1.0
102
RTVSPost2010PropOp56
 70
     1
102
RTVSPost2010Prop57
140
1.0
102
RTVSPost2010PropOp57
 70
     1
102
RTVSPropertyOp0
 70
     1
102
RTVSPropertyOp1
 70
     1
102
RTVSPropertyOp2
 70
     1
102
RTVSPropertyOp3
 70
     1
102
RTVSPropertyOp4
 70
     1
102
RTVSPropertyOp5
 70
     1
102
RTVSPropertyOp6
 70
     1
102
RTVSPropertyOp7
 70
     1
102
RTVSPropertyOp8
 70
     1
102
RTVSPropertyOp9
 70
     1
102
RTVSPropertyOp10
 70
     1
102
RTVSPropertyOp11
 70
     1
102
RTVSPropertyOp12
 70
     1
102
RTVSPropertyOp13
 70
     1
102
RTVSPropertyOp14
 70
     1
102
RTVSPropertyOp15
 70
     1
102
RTVSPropertyOp16
 70
     1
102
RTVSPropertyOp17
 70
     1
102
RTVSPropertyOp18
 70
     1
102
RTVSPropertyOp19
 70
     1
102
RTVSPropertyOp20
 70
     1
102
RTVSPropertyOp21
 70
     1
102
RTVSPropertyOp22
 70
     1
102
RTVSPropertyOp23
 70
     1
102
RTVSPropertyOp24
 70
     1
102
RTVSPropertyOp25
 70
     1
102
RTVSPropertyOp26
 70
     1
102
RTVSPropertyOp27
 70
     1
102
RTVSPropertyOp28
 70
     1
102
RTVSPropertyOp29
 70
     1
102
RTVSPropertyOp30
 70
     1
102
RTVSPropertyOp31
 70
     1
102
RTVSPropertyOp32
 70
     1
102
RTVSPropertyOp33
 70
     1
102
RTVSPropertyOp34
 70
     1
102
RTVSPropertyOp35
 70
     1
102
RTVSPropertyOp36
 70
     1
102
RTVSPropertyOp37
 70
     1
102
RTVSPropertyOp38
 70
     1
102
RTVSPropertyOp39
 70
     1
102
RTVSPropertyOp40
 70
     1
102
RTVSPropertyOp41
 70
     1
102
RTVSPropertyOp42
 70
     1
102
RTVSPropertyOp43
 70
     1
102
RTVSPropertyOp44
 70
     1
102
RTVSPropertyOp45
 70
     1
102
RTVSPropertyOp46
 70
     1
102
RTVSPropertyOp47
 70
     1
102
RTVSPropertyOp48
 70
     1
102
RTVSPropertyOp49
 70
     1
102
RTVSPropertyOp50
 70
     1
102
RTVSPropertyOp51
 70
     0
102
RTVSPropertyOp52
 70
     0
102
RTVSPropertyOp53
 70
     1
102
RTVSPropertyOp54
 70
     1
102
RTVSPropertyOp55
 70
     1
102
RTVSPropertyOp56
 70
     1
102
RTVSPropertyOp57
 70
     1
102
RTVSPropertyOp58
 70
     1
102
RTVSPropertyOp59
 70
     1
102
RTVSPropertyOp60
 70
     1
102
RTVSPropertyOp61
 70
     1
102
RTVSPropertyOp62
 70
     1
  0
XRECORD
  5
11F3
102
{ACAD_REACTORS
330
11F2
102
}
330
11F2
100
AcDbXrecord
280
     1
102
RTVSPost2010Prop28
280
     0
102
RTVSPost2010PropOp28
 70
     1
102
RTVSPost2010Prop29
280
     1
102
RTVSPost2010PropOp29
 70
     1
102
RTVSPost2010Prop30
280
     1
102
RTVSPost2010PropOp30
 70
     1
102
RTVSPost2010Prop31
280
     0
102
RTVSPost2010PropOp31
 70
     1
102
RTVSPost2010Prop32
280
     0
102
RTVSPost2010PropOp32
 70
     1
102
RTVSPost2010Prop33
280
     0
102
RTVSPost2010PropOp33
 70
     1
102
RTVSPost2010Prop34
280
     0
102
RTVSPost2010PropOp34
 70
     1
102
RTVSPost2010Prop35
280
     0
102
RTVSPost2010PropOp35
 70
     1
102
RTVSPost2010Prop36
280
     0
102
RTVSPost2010PropOp36
 70
     1
102
RTVSPost2010Prop37
 90
       50
102
RTVSPost2010PropOp37
 70
     0
102
RTVSPost2010Prop38
140
0.0
102
RTVSPost2010PropOp38
 70
     0
102
RTVSPost2010Prop39
140
1.0
102
RTVSPost2010PropOp39
 70
     0
102
RTVSPost2010Prop40
 90
        0
102
RTVSPost2010PropOp40
 70
     0
102
RTVSPost2010Prop41ColorIndex
 90
       18
102
RTVSPost2010Prop41ColorRGB
 90
        0
102
RTVSPost2010PropOp41
 70
     0
102
RTVSPost2010Prop42
 90
       50
102
RTVSPost2010PropOp42
 70
     0
102
RTVSPost2010Prop43
 90
        3
102
RTVSPost2010PropOp43
 70
     0
102
RTVSPost2010Prop44ColorIndex
 90
        5
102
RTVSPost2010Prop44ColorRGB
 90
      255
102
RTVSPost2010PropOp44
 70
     0
102
RTVSPost2010Prop45
280
     0
102
RTVSPost2010PropOp45
 70
     1
102
RTVSPost2010Prop46
 90
       50
102
RTVSPost2010PropOp46
 70
     0
102
RTVSPost2010Prop47
 90
       50
102
RTVSPost2010PropOp47
 70
     0
102
RTVSPost2010Prop48
 90
       50
102
RTVSPost2010PropOp48
 70
     0
102
RTVSPost2010Prop49
280
     0
102
RTVSPost2010PropOp49
 70
     1
102
RTVSPost2010Prop50
 90
       50
102
RTVSPost2010PropOp50
 70
     0
102
RTVSPost2010Prop51ColorIndex
 90
      256
102
RTVSPost2010Prop51ColorRGB
 90
-16777216
102
RTVSPost2010PropOp51
 70
     0
102
RTVSPost2010Prop52
140
1.0
102
RTVSPost2010PropOp52
 70
     0
102
RTVSPost2010Prop53
 90
        2
102
RTVSPost2010PropOp53
 70
     0
102
RTVSPost2010Prop54
  1
strokes_ogs.tif
102
RTVSPost2010PropOp54
 70
     0
102
RTVSPost2010Prop55
280
     0
102
RTVSPost2010PropOp55
 70
     1
102
RTVSPost2010Prop56
140
1.0
102
RTVSPost2010PropOp56
 70
     0
102
RTVSPost2010Prop57
140
1.0
102
RTVSPost2010PropOp57
 70
     0
102
RTVSPropertyOp0
 70
     0
102
RTVSPropertyOp1
 70
     0
102
RTVSPropertyOp2
 70
     0
102
RTVSPropertyOp3
 70
     0
102
RTVSPropertyOp4
 70
     0
102
RTVSPropertyOp5
 70
     0
102
RTVSPropertyOp6
 70
     0
102
RTVSPropertyOp7
 70
     0
102
RTVSPropertyOp8
 70
     0
102
RTVSPropertyOp9
 70
     0
102
RTVSPropertyOp10
 70
     0
102
RTVSPropertyOp11
 70
     0
102
RTVSPropertyOp12
 70
     0
102
RTVSPropertyOp13
 70
     0
102
RTVSPropertyOp14
 70
     2
102
RTVSPropertyOp15
 70
     0
102
RTVSPropertyOp16
 70
     0
102
RTVSPropertyOp17
 70
     0
102
RTVSPropertyOp18
 70
     0
102
RTVSPropertyOp19
 70
     0
102
RTVSPropertyOp20
 70
     0
102
RTVSPropertyOp21
 70
     0
102
RTVSPropertyOp22
 70
     0
102
RTVSPropertyOp23
 70
     0
102
RTVSPropertyOp24
 70
     0
102
RTVSPropertyOp25
 70
     0
102
RTVSPropertyOp26
 70
     0
102
RTVSPropertyOp27
 70
     0
102
RTVSPropertyOp28
 70
     1
102
RTVSPropertyOp29
 70
     1
102
RTVSPropertyOp30
 70
     1
102
RTVSPropertyOp31
 70
     1
102
RTVSPropertyOp32
 70
     1
102
RTVSPropertyOp33
 70
     1
102
RTVSPropertyOp34
 70
     1
102
RTVSPropertyOp35
 70
     1
102
RTVSPropertyOp36
 70
     1
102
RTVSPropertyOp37
 70
     0
102
RTVSPropertyOp38
 70
     0
102
RTVSPropertyOp39
 70
     0
102
RTVSPropertyOp40
 70
     0
102
RTVSPropertyOp41
 70
     0
102
RTVSPropertyOp42
 70
     0
102
RTVSPropertyOp43
 70
     0
102
RTVSPropertyOp44
 70
     0
102
RTVSPropertyOp45
 70
     1
102
RTVSPropertyOp46
 70
     0
102
RTVSPropertyOp47
 70
     0
102
RTVSPropertyOp48
 70
     0
102
RTVSPropertyOp49
 70
     1
102
RTVSPropertyOp50
 70
     0
102
RTVSPropertyOp51
 70
     0
102
RTVSPropertyOp52
 70
     0
102
RTVSPropertyOp53
 70
     0
102
RTVSPropertyOp54
 70
     0
102
RTVSPropertyOp55
 70
     1
102
RTVSPropertyOp56
 70
     0
102
RTVSPropertyOp57
 70
     0
102
RTVSPropertyOp58
 70
     0
102
RTVSPropertyOp59
 70
     0
102
RTVSPropertyOp60
 70
     0
102
RTVSPropertyOp61
 70
     0
102
RTVSPropertyOp62
 70
     0
  0
XRECORD
  5
11E3
102
{ACAD_REACTORS
330
11E2
102
}
330
11E2
100
AcDbXrecord
280
     1
102
RTVSPost2010Prop28
280
     0
102
RTVSPost2010PropOp28
 70
     1
102
RTVSPost2010Prop29
280
     1
102
RTVSPost2010PropOp29
 70
     1
102
RTVSPost2010Prop30
280
     1
102
RTVSPost2010PropOp30
 70
     1
102
RTVSPost2010Prop31
280
     0
102
RTVSPost2010PropOp31
 70
     1
102
RTVSPost2010Prop32
280
     0
102
RTVSPost2010PropOp32
 70
     1
102
RTVSPost2010Prop33
280
     0
102
RTVSPost2010PropOp33
 70
     1
102
RTVSPost2010Prop34
280
     0
102
RTVSPost2010PropOp34
 70
     1
102
RTVSPost2010Prop35
280
     0
102
RTVSPost2010PropOp35
 70
     1
102
RTVSPost2010Prop36
280
     0
102
RTVSPost2010PropOp36
 70
     1
102
RTVSPost2010Prop37
 90
       50
102
RTVSPost2010PropOp37
 70
     1
102
RTVSPost2010Prop38
140
0.0
102
RTVSPost2010PropOp38
 70
     1
102
RTVSPost2010Prop39
140
1.0
102
RTVSPost2010PropOp39
 70
     1
102
RTVSPost2010Prop40
 90
        0
102
RTVSPost2010PropOp40
 70
     1
102
RTVSPost2010Prop41ColorIndex
 90
       18
102
RTVSPost2010Prop41ColorRGB
 90
        0
102
RTVSPost2010PropOp41
 70
     1
102
RTVSPost2010Prop42
 90
       50
102
RTVSPost2010PropOp42
 70
     1
102
RTVSPost2010Prop43
 90
        3
102
RTVSPost2010PropOp43
 70
     1
102
RTVSPost2010Prop44ColorIndex
 90
        5
102
RTVSPost2010Prop44ColorRGB
 90
      255
102
RTVSPost2010PropOp44
 70
     1
102
RTVSPost2010Prop45
280
     0
102
RTVSPost2010PropOp45
 70
     1
102
RTVSPost2010Prop46
 90
       50
102
RTVSPost2010PropOp46
 70
     1
102
RTVSPost2010Prop47
 90
       50
102
RTVSPost2010PropOp47
 70
     1
102
RTVSPost2010Prop48
 90
       50
102
RTVSPost2010PropOp48
 70
     1
102
RTVSPost2010Prop49
280
     0
102
RTVSPost2010PropOp49
 70
     1
102
RTVSPost2010Prop50
 90
       50
102
RTVSPost2010PropOp50
 70
     1
102
RTVSPost2010Prop51ColorIndex
 90
      256
102
RTVSPost2010Prop51ColorRGB
 90
-16777216
102
RTVSPost2010PropOp51
 70
     0
102
RTVSPost2010Prop52
140
1.0
102
RTVSPost2010PropOp52
 70
     0
102
RTVSPost2010Prop53
 90
        2
102
RTVSPost2010PropOp53
 70
     1
102
RTVSPost2010Prop54
  1
strokes_ogs.tif
102
RTVSPost2010PropOp54
 70
     1
102
RTVSPost2010Prop55
280
     0
102
RTVSPost2010PropOp55
 70
     1
102
RTVSPost2010Prop56
140
1.0
102
RTVSPost2010PropOp56
 70
     1
102
RTVSPost2010Prop57
140
1.0
102
RTVSPost2010PropOp57
 70
     1
102
RTVSPropertyOp0
 70
     1
102
RTVSPropertyOp1
 70
     1
102
RTVSPropertyOp2
 70
     1
102
RTVSPropertyOp3
 70
     1
102
RTVSPropertyOp4
 70
     1
102
RTVSPropertyOp5
 70
     1
102
RTVSPropertyOp6
 70
     1
102
RTVSPropertyOp7
 70
     1
102
RTVSPropertyOp8
 70
     1
102
RTVSPropertyOp9
 70
     1
102
RTVSPropertyOp10
 70
     1
102
RTVSPropertyOp11
 70
     1
102
RTVSPropertyOp12
 70
     1
102
RTVSPropertyOp13
 70
     1
102
RTVSPropertyOp14
 70
     1
102
RTVSPropertyOp15
 70
     1
102
RTVSPropertyOp16
 70
     1
102
RTVSPropertyOp17
 70
     1
102
RTVSPropertyOp18
 70
     1
102
RTVSPropertyOp19
 70
     1
102
RTVSPropertyOp20
 70
     1
102
RTVSPropertyOp21
 70
     1
102
RTVSPropertyOp22
 70
     1
102
RTVSPropertyOp23
 70
     1
102
RTVSPropertyOp24
 70
     1
102
RTVSPropertyOp25
 70
     1
102
RTVSPropertyOp26
 70
     1
102
RTVSPropertyOp27
 70
     1
102
RTVSPropertyOp28
 70
     1
102
RTVSPropertyOp29
 70
     1
102
RTVSPropertyOp30
 70
     1
102
RTVSPropertyOp31
 70
     1
102
RTVSPropertyOp32
 70
     1
102
RTVSPropertyOp33
 70
     1
102
RTVSPropertyOp34
 70
     1
102
RTVSPropertyOp35
 70
     1
102
RTVSPropertyOp36
 70
     1
102
RTVSPropertyOp37
 70
     1
102
RTVSPropertyOp38
 70
     1
102
RTVSPropertyOp39
 70
     1
102
RTVSPropertyOp40
 70
     1
102
RTVSPropertyOp41
 70
     1
102
RTVSPropertyOp42
 70
     1
102
RTVSPropertyOp43
 70
     1
102
RTVSPropertyOp44
 70
     1
102
RTVSPropertyOp45
 70
     1
102
RTVSPropertyOp46
 70
     1
102
RTVSPropertyOp47
 70
     1
102
RTVSPropertyOp48
 70
     1
102
RTVSPropertyOp49
 70
     1
102
RTVSPropertyOp50
 70
     1
102
RTVSPropertyOp51
 70
     0
102
RTVSPropertyOp52
 70
     0
102
RTVSPropertyOp53
 70
     1
102
RTVSPropertyOp54
 70
     1
102
RTVSPropertyOp55
 70
     1
102
RTVSPropertyOp56
 70
     1
102
RTVSPropertyOp57
 70
     1
102
RTVSPropertyOp58
 70
     1
102
RTVSPropertyOp59
 70
     1
102
RTVSPropertyOp60
 70
     1
102
RTVSPropertyOp61
 70
     1
102
RTVSPropertyOp62
 70
     1
  0
XRECORD
  5
11F5
102
{ACAD_REACTORS
330
11F4
102
}
330
11F4
100
AcDbXrecord
280
     1
102
RTVSPost2010Prop28
280
     0
102
RTVSPost2010PropOp28
 70
     1
102
RTVSPost2010Prop29
280
     1
102
RTVSPost2010PropOp29
 70
     1
102
RTVSPost2010Prop30
280
     1
102
RTVSPost2010PropOp30
 70
     1
102
RTVSPost2010Prop31
280
     0
102
RTVSPost2010PropOp31
 70
     1
102
RTVSPost2010Prop32
280
     0
102
RTVSPost2010PropOp32
 70
     1
102
RTVSPost2010Prop33
280
     0
102
RTVSPost2010PropOp33
 70
     1
102
RTVSPost2010Prop34
280
     0
102
RTVSPost2010PropOp34
 70
     1
102
RTVSPost2010Prop35
280
     0
102
RTVSPost2010PropOp35
 70
     1
102
RTVSPost2010Prop36
280
     0
102
RTVSPost2010PropOp36
 70
     1
102
RTVSPost2010Prop37
 90
       50
102
RTVSPost2010PropOp37
 70
     0
102
RTVSPost2010Prop38
140
0.0
102
RTVSPost2010PropOp38
 70
     0
102
RTVSPost2010Prop39
140
1.0
102
RTVSPost2010PropOp39
 70
     0
102
RTVSPost2010Prop40
 90
        0
102
RTVSPost2010PropOp40
 70
     0
102
RTVSPost2010Prop41ColorIndex
 90
       18
102
RTVSPost2010Prop41ColorRGB
 90
        0
102
RTVSPost2010PropOp41
 70
     0
102
RTVSPost2010Prop42
 90
       50
102
RTVSPost2010PropOp42
 70
     0
102
RTVSPost2010Prop43
 90
        3
102
RTVSPost2010PropOp43
 70
     0
102
RTVSPost2010Prop44ColorIndex
 90
        5
102
RTVSPost2010Prop44ColorRGB
 90
      255
102
RTVSPost2010PropOp44
 70
     0
102
RTVSPost2010Prop45
280
     0
102
RTVSPost2010PropOp45
 70
     1
102
RTVSPost2010Prop46
 90
       50
102
RTVSPost2010PropOp46
 70
     0
102
RTVSPost2010Prop47
 90
       50
102
RTVSPost2010PropOp47
 70
     0
102
RTVSPost2010Prop48
 90
       50
102
RTVSPost2010PropOp48
 70
     0
102
RTVSPost2010Prop49
280
     0
102
RTVSPost2010PropOp49
 70
     1
102
RTVSPost2010Prop50
 90
       50
102
RTVSPost2010PropOp50
 70
     0
102
RTVSPost2010Prop51ColorIndex
 90
      256
102
RTVSPost2010Prop51ColorRGB
 90
-16777216
102
RTVSPost2010PropOp51
 70
     0
102
RTVSPost2010Prop52
140
1.0
102
RTVSPost2010PropOp52
 70
     0
102
RTVSPost2010Prop53
 90
        2
102
RTVSPost2010PropOp53
 70
     0
102
RTVSPost2010Prop54
  1
strokes_ogs.tif
102
RTVSPost2010PropOp54
 70
     0
102
RTVSPost2010Prop55
280
     0
102
RTVSPost2010PropOp55
 70
     1
102
RTVSPost2010Prop56
140
1.0
102
RTVSPost2010PropOp56
 70
     0
102
RTVSPost2010Prop57
140
1.0
102
RTVSPost2010PropOp57
 70
     0
102
RTVSPropertyOp0
 70
     0
102
RTVSPropertyOp1
 70
     0
102
RTVSPropertyOp2
 70
     0
102
RTVSPropertyOp3
 70
     0
102
RTVSPropertyOp4
 70
     0
102
RTVSPropertyOp5
 70
     0
102
RTVSPropertyOp6
 70
     0
102
RTVSPropertyOp7
 70
     0
102
RTVSPropertyOp8
 70
     0
102
RTVSPropertyOp9
 70
     0
102
RTVSPropertyOp10
 70
     0
102
RTVSPropertyOp11
 70
     0
102
RTVSPropertyOp12
 70
     0
102
RTVSPropertyOp13
 70
     0
102
RTVSPropertyOp14
 70
     2
102
RTVSPropertyOp15
 70
     0
102
RTVSPropertyOp16
 70
     0
102
RTVSPropertyOp17
 70
     0
102
RTVSPropertyOp18
 70
     0
102
RTVSPropertyOp19
 70
     0
102
RTVSPropertyOp20
 70
     0
102
RTVSPropertyOp21
 70
     0
102
RTVSPropertyOp22
 70
     0
102
RTVSPropertyOp23
 70
     0
102
RTVSPropertyOp24
 70
     0
102
RTVSPropertyOp25
 70
     0
102
RTVSPropertyOp26
 70
     0
102
RTVSPropertyOp27
 70
     0
102
RTVSPropertyOp28
 70
     1
102
RTVSPropertyOp29
 70
     1
102
RTVSPropertyOp30
 70
     1
102
RTVSPropertyOp31
 70
     1
102
RTVSPropertyOp32
 70
     1
102
RTVSPropertyOp33
 70
     1
102
RTVSPropertyOp34
 70
     1
102
RTVSPropertyOp35
 70
     1
102
RTVSPropertyOp36
 70
     1
102
RTVSPropertyOp37
 70
     0
102
RTVSPropertyOp38
 70
     0
102
RTVSPropertyOp39
 70
     0
102
RTVSPropertyOp40
 70
     0
102
RTVSPropertyOp41
 70
     0
102
RTVSPropertyOp42
 70
     0
102
RTVSPropertyOp43
 70
     0
102
RTVSPropertyOp44
 70
     0
102
RTVSPropertyOp45
 70
     1
102
RTVSPropertyOp46
 70
     0
102
RTVSPropertyOp47
 70
     0
102
RTVSPropertyOp48
 70
     0
102
RTVSPropertyOp49
 70
     1
102
RTVSPropertyOp50
 70
     0
102
RTVSPropertyOp51
 70
     0
102
RTVSPropertyOp52
 70
     0
102
RTVSPropertyOp53
 70
     0
102
RTVSPropertyOp54
 70
     0
102
RTVSPropertyOp55
 70
     1
102
RTVSPropertyOp56
 70
     0
102
RTVSPropertyOp57
 70
     0
102
RTVSPropertyOp58
 70
     0
102
RTVSPropertyOp59
 70
     0
102
RTVSPropertyOp60
 70
     0
102
RTVSPropertyOp61
 70
     0
102
RTVSPropertyOp62
 70
     0
  0
XRECORD
  5
11DB
102
{ACAD_REACTORS
330
11DA
102
}
330
11DA
100
AcDbXrecord
280
     1
102
RTVSPost2010Prop28
280
     0
102
RTVSPost2010PropOp28
 70
     1
102
RTVSPost2010Prop29
280
     1
102
RTVSPost2010PropOp29
 70
     1
102
RTVSPost2010Prop30
280
     1
102
RTVSPost2010PropOp30
 70
     1
102
RTVSPost2010Prop31
280
     0
102
RTVSPost2010PropOp31
 70
     1
102
RTVSPost2010Prop32
280
     0
102
RTVSPost2010PropOp32
 70
     1
102
RTVSPost2010Prop33
280
     0
102
RTVSPost2010PropOp33
 70
     1
102
RTVSPost2010Prop34
280
     0
102
RTVSPost2010PropOp34
 70
     1
102
RTVSPost2010Prop35
280
     0
102
RTVSPost2010PropOp35
 70
     1
102
RTVSPost2010Prop36
280
     0
102
RTVSPost2010PropOp36
 70
     1
102
RTVSPost2010Prop37
 90
       50
102
RTVSPost2010PropOp37
 70
     1
102
RTVSPost2010Prop38
140
0.0
102
RTVSPost2010PropOp38
 70
     1
102
RTVSPost2010Prop39
140
1.0
102
RTVSPost2010PropOp39
 70
     1
102
RTVSPost2010Prop40
 90
        0
102
RTVSPost2010PropOp40
 70
     1
102
RTVSPost2010Prop41ColorIndex
 90
       18
102
RTVSPost2010Prop41ColorRGB
 90
        0
102
RTVSPost2010PropOp41
 70
     1
102
RTVSPost2010Prop42
 90
       50
102
RTVSPost2010PropOp42
 70
     1
102
RTVSPost2010Prop43
 90
        3
102
RTVSPost2010PropOp43
 70
     1
102
RTVSPost2010Prop44ColorIndex
 90
        5
102
RTVSPost2010Prop44ColorRGB
 90
      255
102
RTVSPost2010PropOp44
 70
     1
102
RTVSPost2010Prop45
280
     0
102
RTVSPost2010PropOp45
 70
     1
102
RTVSPost2010Prop46
 90
       50
102
RTVSPost2010PropOp46
 70
     1
102
RTVSPost2010Prop47
 90
       50
102
RTVSPost2010PropOp47
 70
     1
102
RTVSPost2010Prop48
 90
       50
102
RTVSPost2010PropOp48
 70
     1
102
RTVSPost2010Prop49
280
     0
102
RTVSPost2010PropOp49
 70
     1
102
RTVSPost2010Prop50
 90
       50
102
RTVSPost2010PropOp50
 70
     1
102
RTVSPost2010Prop51ColorIndex
 90
      256
102
RTVSPost2010Prop51ColorRGB
 90
-16777216
102
RTVSPost2010PropOp51
 70
     0
102
RTVSPost2010Prop52
140
1.0
102
RTVSPost2010PropOp52
 70
     0
102
RTVSPost2010Prop53
 90
        2
102
RTVSPost2010PropOp53
 70
     1
102
RTVSPost2010Prop54
  1
strokes_ogs.tif
102
RTVSPost2010PropOp54
 70
     1
102
RTVSPost2010Prop55
280
     0
102
RTVSPost2010PropOp55
 70
     1
102
RTVSPost2010Prop56
140
1.0
102
RTVSPost2010PropOp56
 70
     1
102
RTVSPost2010Prop57
140
1.0
102
RTVSPost2010PropOp57
 70
     1
102
RTVSPropertyOp0
 70
     1
102
RTVSPropertyOp1
 70
     1
102
RTVSPropertyOp2
 70
     1
102
RTVSPropertyOp3
 70
     1
102
RTVSPropertyOp4
 70
     1
102
RTVSPropertyOp5
 70
     1
102
RTVSPropertyOp6
 70
     1
102
RTVSPropertyOp7
 70
     1
102
RTVSPropertyOp8
 70
     1
102
RTVSPropertyOp9
 70
     1
102
RTVSPropertyOp10
 70
     1
102
RTVSPropertyOp11
 70
     1
102
RTVSPropertyOp12
 70
     1
102
RTVSPropertyOp13
 70
     1
102
RTVSPropertyOp14
 70
     1
102
RTVSPropertyOp15
 70
     1
102
RTVSPropertyOp16
 70
     1
102
RTVSPropertyOp17
 70
     1
102
RTVSPropertyOp18
 70
     1
102
RTVSPropertyOp19
 70
     1
102
RTVSPropertyOp20
 70
     1
102
RTVSPropertyOp21
 70
     1
102
RTVSPropertyOp22
 70
     1
102
RTVSPropertyOp23
 70
     1
102
RTVSPropertyOp24
 70
     1
102
RTVSPropertyOp25
 70
     1
102
RTVSPropertyOp26
 70
     1
102
RTVSPropertyOp27
 70
     1
102
RTVSPropertyOp28
 70
     1
102
RTVSPropertyOp29
 70
     1
102
RTVSPropertyOp30
 70
     1
102
RTVSPropertyOp31
 70
     1
102
RTVSPropertyOp32
 70
     1
102
RTVSPropertyOp33
 70
     1
102
RTVSPropertyOp34
 70
     1
102
RTVSPropertyOp35
 70
     1
102
RTVSPropertyOp36
 70
     1
102
RTVSPropertyOp37
 70
     1
102
RTVSPropertyOp38
 70
     1
102
RTVSPropertyOp39
 70
     1
102
RTVSPropertyOp40
 70
     1
102
RTVSPropertyOp41
 70
     1
102
RTVSPropertyOp42
 70
     1
102
RTVSPropertyOp43
 70
     1
102
RTVSPropertyOp44
 70
     1
102
RTVSPropertyOp45
 70
     1
102
RTVSPropertyOp46
 70
     1
102
RTVSPropertyOp47
 70
     1
102
RTVSPropertyOp48
 70
     1
102
RTVSPropertyOp49
 70
     1
102
RTVSPropertyOp50
 70
     1
102
RTVSPropertyOp51
 70
     0
102
RTVSPropertyOp52
 70
     0
102
RTVSPropertyOp53
 70
     1
102
RTVSPropertyOp54
 70
     1
102
RTVSPropertyOp55
 70
     1
102
RTVSPropertyOp56
 70
     1
102
RTVSPropertyOp57
 70
     1
102
RTVSPropertyOp58
 70
     1
102
RTVSPropertyOp59
 70
     1
102
RTVSPropertyOp60
 70
     1
102
RTVSPropertyOp61
 70
     1
102
RTVSPropertyOp62
 70
     1
  0
XRECORD
  5
11F1
102
{ACAD_REACTORS
330
11F0
102
}
330
11F0
100
AcDbXrecord
280
     1
102
RTVSPost2010Prop28
280
     0
102
RTVSPost2010PropOp28
 70
     1
102
RTVSPost2010Prop29
280
     1
102
RTVSPost2010PropOp29
 70
     1
102
RTVSPost2010Prop30
280
     1
102
RTVSPost2010PropOp30
 70
     1
102
RTVSPost2010Prop31
280
     0
102
RTVSPost2010PropOp31
 70
     1
102
RTVSPost2010Prop32
280
     0
102
RTVSPost2010PropOp32
 70
     1
102
RTVSPost2010Prop33
280
     0
102
RTVSPost2010PropOp33
 70
     1
102
RTVSPost2010Prop34
280
     0
102
RTVSPost2010PropOp34
 70
     1
102
RTVSPost2010Prop35
280
     0
102
RTVSPost2010PropOp35
 70
     1
102
RTVSPost2010Prop36
280
     0
102
RTVSPost2010PropOp36
 70
     1
102
RTVSPost2010Prop37
 90
       50
102
RTVSPost2010PropOp37
 70
     1
102
RTVSPost2010Prop38
140
0.0
102
RTVSPost2010PropOp38
 70
     1
102
RTVSPost2010Prop39
140
1.0
102
RTVSPost2010PropOp39
 70
     1
102
RTVSPost2010Prop40
 90
        0
102
RTVSPost2010PropOp40
 70
     1
102
RTVSPost2010Prop41ColorIndex
 90
       18
102
RTVSPost2010Prop41ColorRGB
 90
        0
102
RTVSPost2010PropOp41
 70
     1
102
RTVSPost2010Prop42
 90
       50
102
RTVSPost2010PropOp42
 70
     1
102
RTVSPost2010Prop43
 90
        3
102
RTVSPost2010PropOp43
 70
     1
102
RTVSPost2010Prop44ColorIndex
 90
        5
102
RTVSPost2010Prop44ColorRGB
 90
      255
102
RTVSPost2010PropOp44
 70
     1
102
RTVSPost2010Prop45
280
     0
102
RTVSPost2010PropOp45
 70
     1
102
RTVSPost2010Prop46
 90
       50
102
RTVSPost2010PropOp46
 70
     1
102
RTVSPost2010Prop47
 90
       50
102
RTVSPost2010PropOp47
 70
     1
102
RTVSPost2010Prop48
 90
       50
102
RTVSPost2010PropOp48
 70
     1
102
RTVSPost2010Prop49
280
     0
102
RTVSPost2010PropOp49
 70
     1
102
RTVSPost2010Prop50
 90
       50
102
RTVSPost2010PropOp50
 70
     1
102
RTVSPost2010Prop51ColorIndex
 90
      256
102
RTVSPost2010Prop51ColorRGB
 90
-16777216
102
RTVSPost2010PropOp51
 70
     0
102
RTVSPost2010Prop52
140
1.0
102
RTVSPost2010PropOp52
 70
     0
102
RTVSPost2010Prop53
 90
        2
102
RTVSPost2010PropOp53
 70
     1
102
RTVSPost2010Prop54
  1
strokes_ogs.tif
102
RTVSPost2010PropOp54
 70
     1
102
RTVSPost2010Prop55
280
     0
102
RTVSPost2010PropOp55
 70
     1
102
RTVSPost2010Prop56
140
1.0
102
RTVSPost2010PropOp56
 70
     1
102
RTVSPost2010Prop57
140
1.0
102
RTVSPost2010PropOp57
 70
     1
102
RTVSPropertyOp0
 70
     1
102
RTVSPropertyOp1
 70
     1
102
RTVSPropertyOp2
 70
     1
102
RTVSPropertyOp3
 70
     1
102
RTVSPropertyOp4
 70
     1
102
RTVSPropertyOp5
 70
     1
102
RTVSPropertyOp6
 70
     1
102
RTVSPropertyOp7
 70
     1
102
RTVSPropertyOp8
 70
     1
102
RTVSPropertyOp9
 70
     1
102
RTVSPropertyOp10
 70
     1
102
RTVSPropertyOp11
 70
     1
102
RTVSPropertyOp12
 70
     1
102
RTVSPropertyOp13
 70
     1
102
RTVSPropertyOp14
 70
     1
102
RTVSPropertyOp15
 70
     1
102
RTVSPropertyOp16
 70
     1
102
RTVSPropertyOp17
 70
     1
102
RTVSPropertyOp18
 70
     1
102
RTVSPropertyOp19
 70
     1
102
RTVSPropertyOp20
 70
     1
102
RTVSPropertyOp21
 70
     1
102
RTVSPropertyOp22
 70
     1
102
RTVSPropertyOp23
 70
     1
102
RTVSPropertyOp24
 70
     1
102
RTVSPropertyOp25
 70
     1
102
RTVSPropertyOp26
 70
     1
102
RTVSPropertyOp27
 70
     1
102
RTVSPropertyOp28
 70
     1
102
RTVSPropertyOp29
 70
     1
102
RTVSPropertyOp30
 70
     1
102
RTVSPropertyOp31
 70
     1
102
RTVSPropertyOp32
 70
     1
102
RTVSPropertyOp33
 70
     1
102
RTVSPropertyOp34
 70
     1
102
RTVSPropertyOp35
 70
     1
102
RTVSPropertyOp36
 70
     1
102
RTVSPropertyOp37
 70
     1
102
RTVSPropertyOp38
 70
     1
102
RTVSPropertyOp39
 70
     1
102
RTVSPropertyOp40
 70
     1
102
RTVSPropertyOp41
 70
     1
102
RTVSPropertyOp42
 70
     1
102
RTVSPropertyOp43
 70
     1
102
RTVSPropertyOp44
 70
     1
102
RTVSPropertyOp45
 70
     1
102
RTVSPropertyOp46
 70
     1
102
RTVSPropertyOp47
 70
     1
102
RTVSPropertyOp48
 70
     1
102
RTVSPropertyOp49
 70
     1
102
RTVSPropertyOp50
 70
     1
102
RTVSPropertyOp51
 70
     0
102
RTVSPropertyOp52
 70
     0
102
RTVSPropertyOp53
 70
     1
102
RTVSPropertyOp54
 70
     1
102
RTVSPropertyOp55
 70
     1
102
RTVSPropertyOp56
 70
     1
102
RTVSPropertyOp57
 70
     1
102
RTVSPropertyOp58
 70
     1
102
RTVSPropertyOp59
 70
     1
102
RTVSPropertyOp60
 70
     1
102
RTVSPropertyOp61
 70
     1
102
RTVSPropertyOp62
 70
     1
  0
XRECORD
  5
11EF
102
{ACAD_REACTORS
330
11EE
102
}
330
11EE
100
AcDbXrecord
280
     1
102
RTVSPost2010Prop28
280
     0
102
RTVSPost2010PropOp28
 70
     1
102
RTVSPost2010Prop29
280
     1
102
RTVSPost2010PropOp29
 70
     1
102
RTVSPost2010Prop30
280
     1
102
RTVSPost2010PropOp30
 70
     1
102
RTVSPost2010Prop31
280
     0
102
RTVSPost2010PropOp31
 70
     1
102
RTVSPost2010Prop32
280
     0
102
RTVSPost2010PropOp32
 70
     1
102
RTVSPost2010Prop33
280
     0
102
RTVSPost2010PropOp33
 70
     1
102
RTVSPost2010Prop34
280
     0
102
RTVSPost2010PropOp34
 70
     1
102
RTVSPost2010Prop35
280
     0
102
RTVSPost2010PropOp35
 70
     1
102
RTVSPost2010Prop36
280
     0
102
RTVSPost2010PropOp36
 70
     1
102
RTVSPost2010Prop37
 90
       50
102
RTVSPost2010PropOp37
 70
     1
102
RTVSPost2010Prop38
140
0.0
102
RTVSPost2010PropOp38
 70
     1
102
RTVSPost2010Prop39
140
1.0
102
RTVSPost2010PropOp39
 70
     1
102
RTVSPost2010Prop40
 90
        0
102
RTVSPost2010PropOp40
 70
     1
102
RTVSPost2010Prop41ColorIndex
 90
       18
102
RTVSPost2010Prop41ColorRGB
 90
        0
102
RTVSPost2010PropOp41
 70
     1
102
RTVSPost2010Prop42
 90
       50
102
RTVSPost2010PropOp42
 70
     1
102
RTVSPost2010Prop43
 90
        3
102
RTVSPost2010PropOp43
 70
     1
102
RTVSPost2010Prop44ColorIndex
 90
        5
102
RTVSPost2010Prop44ColorRGB
 90
      255
102
RTVSPost2010PropOp44
 70
     1
102
RTVSPost2010Prop45
280
     0
102
RTVSPost2010PropOp45
 70
     1
102
RTVSPost2010Prop46
 90
       50
102
RTVSPost2010PropOp46
 70
     1
102
RTVSPost2010Prop47
 90
       50
102
RTVSPost2010PropOp47
 70
     1
102
RTVSPost2010Prop48
 90
       50
102
RTVSPost2010PropOp48
 70
     1
102
RTVSPost2010Prop49
280
     0
102
RTVSPost2010PropOp49
 70
     1
102
RTVSPost2010Prop50
 90
       50
102
RTVSPost2010PropOp50
 70
     1
102
RTVSPost2010Prop51ColorIndex
 90
      256
102
RTVSPost2010Prop51ColorRGB
 90
-16777216
102
RTVSPost2010PropOp51
 70
     0
102
RTVSPost2010Prop52
140
1.0
102
RTVSPost2010PropOp52
 70
     0
102
RTVSPost2010Prop53
 90
        2
102
RTVSPost2010PropOp53
 70
     1
102
RTVSPost2010Prop54
  1
strokes_ogs.tif
102
RTVSPost2010PropOp54
 70
     1
102
RTVSPost2010Prop55
280
     0
102
RTVSPost2010PropOp55
 70
     1
102
RTVSPost2010Prop56
140
1.0
102
RTVSPost2010PropOp56
 70
     1
102
RTVSPost2010Prop57
140
1.0
102
RTVSPost2010PropOp57
 70
     1
102
RTVSPropertyOp0
 70
     1
102
RTVSPropertyOp1
 70
     1
102
RTVSPropertyOp2
 70
     1
102
RTVSPropertyOp3
 70
     1
102
RTVSPropertyOp4
 70
     1
102
RTVSPropertyOp5
 70
     1
102
RTVSPropertyOp6
 70
     1
102
RTVSPropertyOp7
 70
     1
102
RTVSPropertyOp8
 70
     1
102
RTVSPropertyOp9
 70
     1
102
RTVSPropertyOp10
 70
     1
102
RTVSPropertyOp11
 70
     1
102
RTVSPropertyOp12
 70
     1
102
RTVSPropertyOp13
 70
     1
102
RTVSPropertyOp14
 70
     1
102
RTVSPropertyOp15
 70
     1
102
RTVSPropertyOp16
 70
     1
102
RTVSPropertyOp17
 70
     1
102
RTVSPropertyOp18
 70
     1
102
RTVSPropertyOp19
 70
     1
102
RTVSPropertyOp20
 70
     1
102
RTVSPropertyOp21
 70
     1
102
RTVSPropertyOp22
 70
     1
102
RTVSPropertyOp23
 70
     1
102
RTVSPropertyOp24
 70
     1
102
RTVSPropertyOp25
 70
     1
102
RTVSPropertyOp26
 70
     1
102
RTVSPropertyOp27
 70
     1
102
RTVSPropertyOp28
 70
     1
102
RTVSPropertyOp29
 70
     1
102
RTVSPropertyOp30
 70
     1
102
RTVSPropertyOp31
 70
     1
102
RTVSPropertyOp32
 70
     1
102
RTVSPropertyOp33
 70
     1
102
RTVSPropertyOp34
 70
     1
102
RTVSPropertyOp35
 70
     1
102
RTVSPropertyOp36
 70
     1
102
RTVSPropertyOp37
 70
     1
102
RTVSPropertyOp38
 70
     1
102
RTVSPropertyOp39
 70
     1
102
RTVSPropertyOp40
 70
     1
102
RTVSPropertyOp41
 70
     1
102
RTVSPropertyOp42
 70
     1
102
RTVSPropertyOp43
 70
     1
102
RTVSPropertyOp44
 70
     1
102
RTVSPropertyOp45
 70
     1
102
RTVSPropertyOp46
 70
     1
102
RTVSPropertyOp47
 70
     1
102
RTVSPropertyOp48
 70
     1
102
RTVSPropertyOp49
 70
     1
102
RTVSPropertyOp50
 70
     1
102
RTVSPropertyOp51
 70
     0
102
RTVSPropertyOp52
 70
     0
102
RTVSPropertyOp53
 70
     1
102
RTVSPropertyOp54
 70
     1
102
RTVSPropertyOp55
 70
     1
102
RTVSPropertyOp56
 70
     1
102
RTVSPropertyOp57
 70
     1
102
RTVSPropertyOp58
 70
     1
102
RTVSPropertyOp59
 70
     1
102
RTVSPropertyOp60
 70
     1
102
RTVSPropertyOp61
 70
     1
102
RTVSPropertyOp62
 70
     1
  0
XRECORD
  5
11E9
102
{ACAD_REACTORS
330
11E8
102
}
330
11E8
100
AcDbXrecord
280
     1
102
RTVSPost2010Prop28
280
     0
102
RTVSPost2010PropOp28
 70
     1
102
RTVSPost2010Prop29
280
     1
102
RTVSPost2010PropOp29
 70
     1
102
RTVSPost2010Prop30
280
     1
102
RTVSPost2010PropOp30
 70
     1
102
RTVSPost2010Prop31
280
     0
102
RTVSPost2010PropOp31
 70
     1
102
RTVSPost2010Prop32
280
     0
102
RTVSPost2010PropOp32
 70
     1
102
RTVSPost2010Prop33
280
     0
102
RTVSPost2010PropOp33
 70
     1
102
RTVSPost2010Prop34
280
     0
102
RTVSPost2010PropOp34
 70
     1
102
RTVSPost2010Prop35
280
     0
102
RTVSPost2010PropOp35
 70
     1
102
RTVSPost2010Prop36
280
     0
102
RTVSPost2010PropOp36
 70
     1
102
RTVSPost2010Prop37
 90
       50
102
RTVSPost2010PropOp37
 70
     1
102
RTVSPost2010Prop38
140
0.0
102
RTVSPost2010PropOp38
 70
     1
102
RTVSPost2010Prop39
140
1.0
102
RTVSPost2010PropOp39
 70
     1
102
RTVSPost2010Prop40
 90
        0
102
RTVSPost2010PropOp40
 70
     1
102
RTVSPost2010Prop41ColorIndex
 90
       18
102
RTVSPost2010Prop41ColorRGB
 90
        0
102
RTVSPost2010PropOp41
 70
     1
102
RTVSPost2010Prop42
 90
       50
102
RTVSPost2010PropOp42
 70
     1
102
RTVSPost2010Prop43
 90
        3
102
RTVSPost2010PropOp43
 70
     1
102
RTVSPost2010Prop44ColorIndex
 90
        5
102
RTVSPost2010Prop44ColorRGB
 90
      255
102
RTVSPost2010PropOp44
 70
     1
102
RTVSPost2010Prop45
280
     0
102
RTVSPost2010PropOp45
 70
     1
102
RTVSPost2010Prop46
 90
       50
102
RTVSPost2010PropOp46
 70
     1
102
RTVSPost2010Prop47
 90
       50
102
RTVSPost2010PropOp47
 70
     1
102
RTVSPost2010Prop48
 90
       50
102
RTVSPost2010PropOp48
 70
     1
102
RTVSPost2010Prop49
280
     0
102
RTVSPost2010PropOp49
 70
     1
102
RTVSPost2010Prop50
 90
       50
102
RTVSPost2010PropOp50
 70
     1
102
RTVSPost2010Prop51ColorIndex
 90
      256
102
RTVSPost2010Prop51ColorRGB
 90
-16777216
102
RTVSPost2010PropOp51
 70
     0
102
RTVSPost2010Prop52
140
1.0
102
RTVSPost2010PropOp52
 70
     0
102
RTVSPost2010Prop53
 90
        2
102
RTVSPost2010PropOp53
 70
     1
102
RTVSPost2010Prop54
  1
strokes_ogs.tif
102
RTVSPost2010PropOp54
 70
     1
102
RTVSPost2010Prop55
280
     0
102
RTVSPost2010PropOp55
 70
     1
102
RTVSPost2010Prop56
140
1.0
102
RTVSPost2010PropOp56
 70
     1
102
RTVSPost2010Prop57
140
1.0
102
RTVSPost2010PropOp57
 70
     1
102
RTVSPropertyOp0
 70
     1
102
RTVSPropertyOp1
 70
     1
102
RTVSPropertyOp2
 70
     1
102
RTVSPropertyOp3
 70
     1
102
RTVSPropertyOp4
 70
     1
102
RTVSPropertyOp5
 70
     1
102
RTVSPropertyOp6
 70
     1
102
RTVSPropertyOp7
 70
     1
102
RTVSPropertyOp8
 70
     1
102
RTVSPropertyOp9
 70
     1
102
RTVSPropertyOp10
 70
     1
102
RTVSPropertyOp11
 70
     1
102
RTVSPropertyOp12
 70
     1
102
RTVSPropertyOp13
 70
     1
102
RTVSPropertyOp14
 70
     1
102
RTVSPropertyOp15
 70
     1
102
RTVSPropertyOp16
 70
     1
102
RTVSPropertyOp17
 70
     1
102
RTVSPropertyOp18
 70
     1
102
RTVSPropertyOp19
 70
     1
102
RTVSPropertyOp20
 70
     1
102
RTVSPropertyOp21
 70
     1
102
RTVSPropertyOp22
 70
     1
102
RTVSPropertyOp23
 70
     1
102
RTVSPropertyOp24
 70
     1
102
RTVSPropertyOp25
 70
     1
102
RTVSPropertyOp26
 70
     1
102
RTVSPropertyOp27
 70
     1
102
RTVSPropertyOp28
 70
     1
102
RTVSPropertyOp29
 70
     1
102
RTVSPropertyOp30
 70
     1
102
RTVSPropertyOp31
 70
     1
102
RTVSPropertyOp32
 70
     1
102
RTVSPropertyOp33
 70
     1
102
RTVSPropertyOp34
 70
     1
102
RTVSPropertyOp35
 70
     1
102
RTVSPropertyOp36
 70
     1
102
RTVSPropertyOp37
 70
     1
102
RTVSPropertyOp38
 70
     1
102
RTVSPropertyOp39
 70
     1
102
RTVSPropertyOp40
 70
     1
102
RTVSPropertyOp41
 70
     1
102
RTVSPropertyOp42
 70
     1
102
RTVSPropertyOp43
 70
     1
102
RTVSPropertyOp44
 70
     1
102
RTVSPropertyOp45
 70
     1
102
RTVSPropertyOp46
 70
     1
102
RTVSPropertyOp47
 70
     1
102
RTVSPropertyOp48
 70
     1
102
RTVSPropertyOp49
 70
     1
102
RTVSPropertyOp50
 70
     1
102
RTVSPropertyOp51
 70
     0
102
RTVSPropertyOp52
 70
     0
102
RTVSPropertyOp53
 70
     1
102
RTVSPropertyOp54
 70
     1
102
RTVSPropertyOp55
 70
     1
102
RTVSPropertyOp56
 70
     1
102
RTVSPropertyOp57
 70
     1
102
RTVSPropertyOp58
 70
     1
102
RTVSPropertyOp59
 70
     1
102
RTVSPropertyOp60
 70
     1
102
RTVSPropertyOp61
 70
     1
102
RTVSPropertyOp62
 70
     1
  0
XRECORD
  5
11EB
102
{ACAD_REACTORS
330
11EA
102
}
330
11EA
100
AcDbXrecord
280
     1
102
RTVSPost2010Prop28
280
     0
102
RTVSPost2010PropOp28
 70
     1
102
RTVSPost2010Prop29
280
     1
102
RTVSPost2010PropOp29
 70
     1
102
RTVSPost2010Prop30
280
     1
102
RTVSPost2010PropOp30
 70
     1
102
RTVSPost2010Prop31
280
     0
102
RTVSPost2010PropOp31
 70
     1
102
RTVSPost2010Prop32
280
     0
102
RTVSPost2010PropOp32
 70
     1
102
RTVSPost2010Prop33
280
     0
102
RTVSPost2010PropOp33
 70
     1
102
RTVSPost2010Prop34
280
     0
102
RTVSPost2010PropOp34
 70
     1
102
RTVSPost2010Prop35
280
     0
102
RTVSPost2010PropOp35
 70
     1
102
RTVSPost2010Prop36
280
     0
102
RTVSPost2010PropOp36
 70
     1
102
RTVSPost2010Prop37
 90
       50
102
RTVSPost2010PropOp37
 70
     1
102
RTVSPost2010Prop38
140
0.0
102
RTVSPost2010PropOp38
 70
     1
102
RTVSPost2010Prop39
140
1.0
102
RTVSPost2010PropOp39
 70
     1
102
RTVSPost2010Prop40
 90
        0
102
RTVSPost2010PropOp40
 70
     1
102
RTVSPost2010Prop41ColorIndex
 90
       18
102
RTVSPost2010Prop41ColorRGB
 90
        0
102
RTVSPost2010PropOp41
 70
     1
102
RTVSPost2010Prop42
 90
       50
102
RTVSPost2010PropOp42
 70
     1
102
RTVSPost2010Prop43
 90
        3
102
RTVSPost2010PropOp43
 70
     1
102
RTVSPost2010Prop44ColorIndex
 90
        5
102
RTVSPost2010Prop44ColorRGB
 90
      255
102
RTVSPost2010PropOp44
 70
     1
102
RTVSPost2010Prop45
280
     0
102
RTVSPost2010PropOp45
 70
     1
102
RTVSPost2010Prop46
 90
       50
102
RTVSPost2010PropOp46
 70
     1
102
RTVSPost2010Prop47
 90
       50
102
RTVSPost2010PropOp47
 70
     1
102
RTVSPost2010Prop48
 90
       50
102
RTVSPost2010PropOp48
 70
     1
102
RTVSPost2010Prop49
280
     0
102
RTVSPost2010PropOp49
 70
     1
102
RTVSPost2010Prop50
 90
       50
102
RTVSPost2010PropOp50
 70
     1
102
RTVSPost2010Prop51ColorIndex
 90
      256
102
RTVSPost2010Prop51ColorRGB
 90
-16777216
102
RTVSPost2010PropOp51
 70
     0
102
RTVSPost2010Prop52
140
1.0
102
RTVSPost2010PropOp52
 70
     0
102
RTVSPost2010Prop53
 90
        2
102
RTVSPost2010PropOp53
 70
     1
102
RTVSPost2010Prop54
  1
strokes_ogs.tif
102
RTVSPost2010PropOp54
 70
     1
102
RTVSPost2010Prop55
280
     0
102
RTVSPost2010PropOp55
 70
     1
102
RTVSPost2010Prop56
140
1.0
102
RTVSPost2010PropOp56
 70
     1
102
RTVSPost2010Prop57
140
1.0
102
RTVSPost2010PropOp57
 70
     1
102
RTVSPropertyOp0
 70
     1
102
RTVSPropertyOp1
 70
     1
102
RTVSPropertyOp2
 70
     1
102
RTVSPropertyOp3
 70
     1
102
RTVSPropertyOp4
 70
     1
102
RTVSPropertyOp5
 70
     1
102
RTVSPropertyOp6
 70
     1
102
RTVSPropertyOp7
 70
     1
102
RTVSPropertyOp8
 70
     1
102
RTVSPropertyOp9
 70
     1
102
RTVSPropertyOp10
 70
     1
102
RTVSPropertyOp11
 70
     1
102
RTVSPropertyOp12
 70
     1
102
RTVSPropertyOp13
 70
     1
102
RTVSPropertyOp14
 70
     1
102
RTVSPropertyOp15
 70
     1
102
RTVSPropertyOp16
 70
     1
102
RTVSPropertyOp17
 70
     1
102
RTVSPropertyOp18
 70
     1
102
RTVSPropertyOp19
 70
     1
102
RTVSPropertyOp20
 70
     1
102
RTVSPropertyOp21
 70
     1
102
RTVSPropertyOp22
 70
     1
102
RTVSPropertyOp23
 70
     1
102
RTVSPropertyOp24
 70
     1
102
RTVSPropertyOp25
 70
     1
102
RTVSPropertyOp26
 70
     1
102
RTVSPropertyOp27
 70
     1
102
RTVSPropertyOp28
 70
     1
102
RTVSPropertyOp29
 70
     1
102
RTVSPropertyOp30
 70
     1
102
RTVSPropertyOp31
 70
     1
102
RTVSPropertyOp32
 70
     1
102
RTVSPropertyOp33
 70
     1
102
RTVSPropertyOp34
 70
     1
102
RTVSPropertyOp35
 70
     1
102
RTVSPropertyOp36
 70
     1
102
RTVSPropertyOp37
 70
     1
102
RTVSPropertyOp38
 70
     1
102
RTVSPropertyOp39
 70
     1
102
RTVSPropertyOp40
 70
     1
102
RTVSPropertyOp41
 70
     1
102
RTVSPropertyOp42
 70
     1
102
RTVSPropertyOp43
 70
     1
102
RTVSPropertyOp44
 70
     1
102
RTVSPropertyOp45
 70
     1
102
RTVSPropertyOp46
 70
     1
102
RTVSPropertyOp47
 70
     1
102
RTVSPropertyOp48
 70
     1
102
RTVSPropertyOp49
 70
     1
102
RTVSPropertyOp50
 70
     1
102
RTVSPropertyOp51
 70
     0
102
RTVSPropertyOp52
 70
     0
102
RTVSPropertyOp53
 70
     1
102
RTVSPropertyOp54
 70
     1
102
RTVSPropertyOp55
 70
     1
102
RTVSPropertyOp56
 70
     1
102
RTVSPropertyOp57
 70
     1
102
RTVSPropertyOp58
 70
     1
102
RTVSPropertyOp59
 70
     1
102
RTVSPropertyOp60
 70
     1
102
RTVSPropertyOp61
 70
     1
102
RTVSPropertyOp62
 70
     1
  0
XRECORD
  5
11E1
102
{ACAD_REACTORS
330
11E0
102
}
330
11E0
100
AcDbXrecord
280
     1
102
RTVSPost2010Prop28
280
     0
102
RTVSPost2010PropOp28
 70
     1
102
RTVSPost2010Prop29
280
     1
102
RTVSPost2010PropOp29
 70
     1
102
RTVSPost2010Prop30
280
     1
102
RTVSPost2010PropOp30
 70
     1
102
RTVSPost2010Prop31
280
     0
102
RTVSPost2010PropOp31
 70
     1
102
RTVSPost2010Prop32
280
     0
102
RTVSPost2010PropOp32
 70
     1
102
RTVSPost2010Prop33
280
     0
102
RTVSPost2010PropOp33
 70
     1
102
RTVSPost2010Prop34
280
     0
102
RTVSPost2010PropOp34
 70
     1
102
RTVSPost2010Prop35
280
     0
102
RTVSPost2010PropOp35
 70
     1
102
RTVSPost2010Prop36
280
     0
102
RTVSPost2010PropOp36
 70
     1
102
RTVSPost2010Prop37
 90
       50
102
RTVSPost2010PropOp37
 70
     1
102
RTVSPost2010Prop38
140
0.0
102
RTVSPost2010PropOp38
 70
     1
102
RTVSPost2010Prop39
140
1.0
102
RTVSPost2010PropOp39
 70
     1
102
RTVSPost2010Prop40
 90
        0
102
RTVSPost2010PropOp40
 70
     1
102
RTVSPost2010Prop41ColorIndex
 90
       18
102
RTVSPost2010Prop41ColorRGB
 90
        0
102
RTVSPost2010PropOp41
 70
     1
102
RTVSPost2010Prop42
 90
       50
102
RTVSPost2010PropOp42
 70
     1
102
RTVSPost2010Prop43
 90
        3
102
RTVSPost2010PropOp43
 70
     1
102
RTVSPost2010Prop44ColorIndex
 90
        5
102
RTVSPost2010Prop44ColorRGB
 90
      255
102
RTVSPost2010PropOp44
 70
     1
102
RTVSPost2010Prop45
280
     0
102
RTVSPost2010PropOp45
 70
     1
102
RTVSPost2010Prop46
 90
       50
102
RTVSPost2010PropOp46
 70
     1
102
RTVSPost2010Prop47
 90
       50
102
RTVSPost2010PropOp47
 70
     1
102
RTVSPost2010Prop48
 90
       50
102
RTVSPost2010PropOp48
 70
     1
102
RTVSPost2010Prop49
280
     0
102
RTVSPost2010PropOp49
 70
     1
102
RTVSPost2010Prop50
 90
       50
102
RTVSPost2010PropOp50
 70
     1
102
RTVSPost2010Prop51ColorIndex
 90
      256
102
RTVSPost2010Prop51ColorRGB
 90
-16777216
102
RTVSPost2010PropOp51
 70
     0
102
RTVSPost2010Prop52
140
1.0
102
RTVSPost2010PropOp52
 70
     0
102
RTVSPost2010Prop53
 90
        2
102
RTVSPost2010PropOp53
 70
     1
102
RTVSPost2010Prop54
  1
strokes_ogs.tif
102
RTVSPost2010PropOp54
 70
     1
102
RTVSPost2010Prop55
280
     0
102
RTVSPost2010PropOp55
 70
     1
102
RTVSPost2010Prop56
140
1.0
102
RTVSPost2010PropOp56
 70
     1
102
RTVSPost2010Prop57
140
1.0
102
RTVSPost2010PropOp57
 70
     1
102
RTVSPropertyOp0
 70
     1
102
RTVSPropertyOp1
 70
     1
102
RTVSPropertyOp2
 70
     1
102
RTVSPropertyOp3
 70
     1
102
RTVSPropertyOp4
 70
     1
102
RTVSPropertyOp5
 70
     1
102
RTVSPropertyOp6
 70
     1
102
RTVSPropertyOp7
 70
     1
102
RTVSPropertyOp8
 70
     1
102
RTVSPropertyOp9
 70
     1
102
RTVSPropertyOp10
 70
     1
102
RTVSPropertyOp11
 70
     1
102
RTVSPropertyOp12
 70
     1
102
RTVSPropertyOp13
 70
     1
102
RTVSPropertyOp14
 70
     1
102
RTVSPropertyOp15
 70
     1
102
RTVSPropertyOp16
 70
     1
102
RTVSPropertyOp17
 70
     1
102
RTVSPropertyOp18
 70
     1
102
RTVSPropertyOp19
 70
     1
102
RTVSPropertyOp20
 70
     1
102
RTVSPropertyOp21
 70
     1
102
RTVSPropertyOp22
 70
     1
102
RTVSPropertyOp23
 70
     1
102
RTVSPropertyOp24
 70
     1
102
RTVSPropertyOp25
 70
     1
102
RTVSPropertyOp26
 70
     1
102
RTVSPropertyOp27
 70
     1
102
RTVSPropertyOp28
 70
     1
102
RTVSPropertyOp29
 70
     1
102
RTVSPropertyOp30
 70
     1
102
RTVSPropertyOp31
 70
     1
102
RTVSPropertyOp32
 70
     1
102
RTVSPropertyOp33
 70
     1
102
RTVSPropertyOp34
 70
     1
102
RTVSPropertyOp35
 70
     1
102
RTVSPropertyOp36
 70
     1
102
RTVSPropertyOp37
 70
     1
102
RTVSPropertyOp38
 70
     1
102
RTVSPropertyOp39
 70
     1
102
RTVSPropertyOp40
 70
     1
102
RTVSPropertyOp41
 70
     1
102
RTVSPropertyOp42
 70
     1
102
RTVSPropertyOp43
 70
     1
102
RTVSPropertyOp44
 70
     1
102
RTVSPropertyOp45
 70
     1
102
RTVSPropertyOp46
 70
     1
102
RTVSPropertyOp47
 70
     1
102
RTVSPropertyOp48
 70
     1
102
RTVSPropertyOp49
 70
     1
102
RTVSPropertyOp50
 70
     1
102
RTVSPropertyOp51
 70
     0
102
RTVSPropertyOp52
 70
     0
102
RTVSPropertyOp53
 70
     1
102
RTVSPropertyOp54
 70
     1
102
RTVSPropertyOp55
 70
     1
102
RTVSPropertyOp56
 70
     1
102
RTVSPropertyOp57
 70
     1
102
RTVSPropertyOp58
 70
     1
102
RTVSPropertyOp59
 70
     1
102
RTVSPropertyOp60
 70
     1
102
RTVSPropertyOp61
 70
     1
102
RTVSPropertyOp62
 70
     1
  0
XRECORD
  5
11D5
102
{ACAD_REACTORS
330
11D4
102
}
330
11D4
100
AcDbXrecord
280
     1
102
RTVSPost2010Prop28
280
     0
102
RTVSPost2010PropOp28
 70
     1
102
RTVSPost2010Prop29
280
     1
102
RTVSPost2010PropOp29
 70
     1
102
RTVSPost2010Prop30
280
     1
102
RTVSPost2010PropOp30
 70
     1
102
RTVSPost2010Prop31
280
     0
102
RTVSPost2010PropOp31
 70
     1
102
RTVSPost2010Prop32
280
     0
102
RTVSPost2010PropOp32
 70
     1
102
RTVSPost2010Prop33
280
     0
102
RTVSPost2010PropOp33
 70
     1
102
RTVSPost2010Prop34
280
     0
102
RTVSPost2010PropOp34
 70
     1
102
RTVSPost2010Prop35
280
     0
102
RTVSPost2010PropOp35
 70
     1
102
RTVSPost2010Prop36
280
     0
102
RTVSPost2010PropOp36
 70
     1
102
RTVSPost2010Prop37
 90
       50
102
RTVSPost2010PropOp37
 70
     1
102
RTVSPost2010Prop38
140
0.0
102
RTVSPost2010PropOp38
 70
     1
102
RTVSPost2010Prop39
140
1.0
102
RTVSPost2010PropOp39
 70
     1
102
RTVSPost2010Prop40
 90
        0
102
RTVSPost2010PropOp40
 70
     1
102
RTVSPost2010Prop41ColorIndex
 90
       18
102
RTVSPost2010Prop41ColorRGB
 90
        0
102
RTVSPost2010PropOp41
 70
     1
102
RTVSPost2010Prop42
 90
       50
102
RTVSPost2010PropOp42
 70
     1
102
RTVSPost2010Prop43
 90
        3
102
RTVSPost2010PropOp43
 70
     1
102
RTVSPost2010Prop44ColorIndex
 90
        5
102
RTVSPost2010Prop44ColorRGB
 90
      255
102
RTVSPost2010PropOp44
 70
     1
102
RTVSPost2010Prop45
280
     0
102
RTVSPost2010PropOp45
 70
     1
102
RTVSPost2010Prop46
 90
       50
102
RTVSPost2010PropOp46
 70
     1
102
RTVSPost2010Prop47
 90
       50
102
RTVSPost2010PropOp47
 70
     1
102
RTVSPost2010Prop48
 90
       50
102
RTVSPost2010PropOp48
 70
     1
102
RTVSPost2010Prop49
280
     0
102
RTVSPost2010PropOp49
 70
     1
102
RTVSPost2010Prop50
 90
       50
102
RTVSPost2010PropOp50
 70
     1
102
RTVSPost2010Prop51ColorIndex
 90
      256
102
RTVSPost2010Prop51ColorRGB
 90
-16777216
102
RTVSPost2010PropOp51
 70
     0
102
RTVSPost2010Prop52
140
1.0
102
RTVSPost2010PropOp52
 70
     0
102
RTVSPost2010Prop53
 90
        2
102
RTVSPost2010PropOp53
 70
     1
102
RTVSPost2010Prop54
  1
strokes_ogs.tif
102
RTVSPost2010PropOp54
 70
     1
102
RTVSPost2010Prop55
280
     0
102
RTVSPost2010PropOp55
 70
     1
102
RTVSPost2010Prop56
140
1.0
102
RTVSPost2010PropOp56
 70
     1
102
RTVSPost2010Prop57
140
1.0
102
RTVSPost2010PropOp57
 70
     1
102
RTVSPropertyOp0
 70
     1
102
RTVSPropertyOp1
 70
     1
102
RTVSPropertyOp2
 70
     1
102
RTVSPropertyOp3
 70
     1
102
RTVSPropertyOp4
 70
     1
102
RTVSPropertyOp5
 70
     1
102
RTVSPropertyOp6
 70
     1
102
RTVSPropertyOp7
 70
     1
102
RTVSPropertyOp8
 70
     1
102
RTVSPropertyOp9
 70
     1
102
RTVSPropertyOp10
 70
     1
102
RTVSPropertyOp11
 70
     1
102
RTVSPropertyOp12
 70
     1
102
RTVSPropertyOp13
 70
     1
102
RTVSPropertyOp14
 70
     1
102
RTVSPropertyOp15
 70
     1
102
RTVSPropertyOp16
 70
     1
102
RTVSPropertyOp17
 70
     1
102
RTVSPropertyOp18
 70
     1
102
RTVSPropertyOp19
 70
     1
102
RTVSPropertyOp20
 70
     1
102
RTVSPropertyOp21
 70
     1
102
RTVSPropertyOp22
 70
     1
102
RTVSPropertyOp23
 70
     1
102
RTVSPropertyOp24
 70
     1
102
RTVSPropertyOp25
 70
     1
102
RTVSPropertyOp26
 70
     1
102
RTVSPropertyOp27
 70
     1
102
RTVSPropertyOp28
 70
     1
102
RTVSPropertyOp29
 70
     1
102
RTVSPropertyOp30
 70
     1
102
RTVSPropertyOp31
 70
     1
102
RTVSPropertyOp32
 70
     1
102
RTVSPropertyOp33
 70
     1
102
RTVSPropertyOp34
 70
     1
102
RTVSPropertyOp35
 70
     1
102
RTVSPropertyOp36
 70
     1
102
RTVSPropertyOp37
 70
     1
102
RTVSPropertyOp38
 70
     1
102
RTVSPropertyOp39
 70
     1
102
RTVSPropertyOp40
 70
     1
102
RTVSPropertyOp41
 70
     1
102
RTVSPropertyOp42
 70
     1
102
RTVSPropertyOp43
 70
     1
102
RTVSPropertyOp44
 70
     1
102
RTVSPropertyOp45
 70
     1
102
RTVSPropertyOp46
 70
     1
102
RTVSPropertyOp47
 70
     1
102
RTVSPropertyOp48
 70
     1
102
RTVSPropertyOp49
 70
     1
102
RTVSPropertyOp50
 70
     1
102
RTVSPropertyOp51
 70
     0
102
RTVSPropertyOp52
 70
     0
102
RTVSPropertyOp53
 70
     1
102
RTVSPropertyOp54
 70
     1
102
RTVSPropertyOp55
 70
     1
102
RTVSPropertyOp56
 70
     1
102
RTVSPropertyOp57
 70
     1
102
RTVSPropertyOp58
 70
     1
102
RTVSPropertyOp59
 70
     1
102
RTVSPropertyOp60
 70
     1
102
RTVSPropertyOp61
 70
     1
102
RTVSPropertyOp62
 70
     1
  0
XRECORD
  5
11ED
102
{ACAD_REACTORS
330
11EC
102
}
330
11EC
100
AcDbXrecord
280
     1
102
RTVSPost2010Prop28
280
     0
102
RTVSPost2010PropOp28
 70
     1
102
RTVSPost2010Prop29
280
     1
102
RTVSPost2010PropOp29
 70
     1
102
RTVSPost2010Prop30
280
     1
102
RTVSPost2010PropOp30
 70
     1
102
RTVSPost2010Prop31
280
     0
102
RTVSPost2010PropOp31
 70
     1
102
RTVSPost2010Prop32
280
     0
102
RTVSPost2010PropOp32
 70
     1
102
RTVSPost2010Prop33
280
     0
102
RTVSPost2010PropOp33
 70
     1
102
RTVSPost2010Prop34
280
     0
102
RTVSPost2010PropOp34
 70
     1
102
RTVSPost2010Prop35
280
     0
102
RTVSPost2010PropOp35
 70
     1
102
RTVSPost2010Prop36
280
     0
102
RTVSPost2010PropOp36
 70
     1
102
RTVSPost2010Prop37
 90
       50
102
RTVSPost2010PropOp37
 70
     1
102
RTVSPost2010Prop38
140
0.0
102
RTVSPost2010PropOp38
 70
     1
102
RTVSPost2010Prop39
140
1.0
102
RTVSPost2010PropOp39
 70
     1
102
RTVSPost2010Prop40
 90
        0
102
RTVSPost2010PropOp40
 70
     1
102
RTVSPost2010Prop41ColorIndex
 90
       18
102
RTVSPost2010Prop41ColorRGB
 90
        0
102
RTVSPost2010PropOp41
 70
     1
102
RTVSPost2010Prop42
 90
       50
102
RTVSPost2010PropOp42
 70
     1
102
RTVSPost2010Prop43
 90
        3
102
RTVSPost2010PropOp43
 70
     1
102
RTVSPost2010Prop44ColorIndex
 90
        5
102
RTVSPost2010Prop44ColorRGB
 90
      255
102
RTVSPost2010PropOp44
 70
     1
102
RTVSPost2010Prop45
280
     0
102
RTVSPost2010PropOp45
 70
     1
102
RTVSPost2010Prop46
 90
       50
102
RTVSPost2010PropOp46
 70
     1
102
RTVSPost2010Prop47
 90
       50
102
RTVSPost2010PropOp47
 70
     1
102
RTVSPost2010Prop48
 90
       50
102
RTVSPost2010PropOp48
 70
     1
102
RTVSPost2010Prop49
280
     0
102
RTVSPost2010PropOp49
 70
     1
102
RTVSPost2010Prop50
 90
       50
102
RTVSPost2010PropOp50
 70
     1
102
RTVSPost2010Prop51ColorIndex
 90
      256
102
RTVSPost2010Prop51ColorRGB
 90
-16777216
102
RTVSPost2010PropOp51
 70
     0
102
RTVSPost2010Prop52
140
1.0
102
RTVSPost2010PropOp52
 70
     0
102
RTVSPost2010Prop53
 90
        2
102
RTVSPost2010PropOp53
 70
     1
102
RTVSPost2010Prop54
  1
strokes_ogs.tif
102
RTVSPost2010PropOp54
 70
     1
102
RTVSPost2010Prop55
280
     0
102
RTVSPost2010PropOp55
 70
     1
102
RTVSPost2010Prop56
140
1.0
102
RTVSPost2010PropOp56
 70
     1
102
RTVSPost2010Prop57
140
1.0
102
RTVSPost2010PropOp57
 70
     1
102
RTVSPropertyOp0
 70
     1
102
RTVSPropertyOp1
 70
     1
102
RTVSPropertyOp2
 70
     1
102
RTVSPropertyOp3
 70
     1
102
RTVSPropertyOp4
 70
     1
102
RTVSPropertyOp5
 70
     1
102
RTVSPropertyOp6
 70
     1
102
RTVSPropertyOp7
 70
     1
102
RTVSPropertyOp8
 70
     1
102
RTVSPropertyOp9
 70
     1
102
RTVSPropertyOp10
 70
     1
102
RTVSPropertyOp11
 70
     1
102
RTVSPropertyOp12
 70
     1
102
RTVSPropertyOp13
 70
     1
102
RTVSPropertyOp14
 70
     1
102
RTVSPropertyOp15
 70
     1
102
RTVSPropertyOp16
 70
     1
102
RTVSPropertyOp17
 70
     1
102
RTVSPropertyOp18
 70
     1
102
RTVSPropertyOp19
 70
     1
102
RTVSPropertyOp20
 70
     1
102
RTVSPropertyOp21
 70
     1
102
RTVSPropertyOp22
 70
     1
102
RTVSPropertyOp23
 70
     1
102
RTVSPropertyOp24
 70
     1
102
RTVSPropertyOp25
 70
     1
102
RTVSPropertyOp26
 70
     1
102
RTVSPropertyOp27
 70
     1
102
RTVSPropertyOp28
 70
     1
102
RTVSPropertyOp29
 70
     1
102
RTVSPropertyOp30
 70
     1
102
RTVSPropertyOp31
 70
     1
102
RTVSPropertyOp32
 70
     1
102
RTVSPropertyOp33
 70
     1
102
RTVSPropertyOp34
 70
     1
102
RTVSPropertyOp35
 70
     1
102
RTVSPropertyOp36
 70
     1
102
RTVSPropertyOp37
 70
     1
102
RTVSPropertyOp38
 70
     1
102
RTVSPropertyOp39
 70
     1
102
RTVSPropertyOp40
 70
     1
102
RTVSPropertyOp41
 70
     1
102
RTVSPropertyOp42
 70
     1
102
RTVSPropertyOp43
 70
     1
102
RTVSPropertyOp44
 70
     1
102
RTVSPropertyOp45
 70
     1
102
RTVSPropertyOp46
 70
     1
102
RTVSPropertyOp47
 70
     1
102
RTVSPropertyOp48
 70
     1
102
RTVSPropertyOp49
 70
     1
102
RTVSPropertyOp50
 70
     1
102
RTVSPropertyOp51
 70
     0
102
RTVSPropertyOp52
 70
     0
102
RTVSPropertyOp53
 70
     1
102
RTVSPropertyOp54
 70
     1
102
RTVSPropertyOp55
 70
     1
102
RTVSPropertyOp56
 70
     1
102
RTVSPropertyOp57
 70
     1
102
RTVSPropertyOp58
 70
     1
102
RTVSPropertyOp59
 70
     1
102
RTVSPropertyOp60
 70
     1
102
RTVSPropertyOp61
 70
     1
102
RTVSPropertyOp62
 70
     1
  0
ENDSEC
  0
EOF
