  0
SECTION
  2
HEADER
  9
$ACADVER
  1
AC1015
  9
$ACADMAINTVER
 70
    20
  9
$DWGCODEPAGE
  3
ANSI_932
  9
$INSBASE
 10
0.0
 20
0.0
 30
0.0
  9
$EXTMIN
 10
9.999999064246818
 20
9.999999806846743
 30
0.0
  9
$EXTMAX
 10
561.4091493249177
 20
373.2686108191567
 30
0.0
  9
$LIMMIN
 10
0.0000015376081137
 20
-0.0000001931532552
  9
$LIMMAX
 10
595.0000015376082
 20
410.1893937462405
  9
$ORTHOMODE
 70
     0
  9
$REGENMODE
 70
     1
  9
$FILLMODE
 70
     1
  9
$QTEXTMODE
 70
     0
  9
$MIRRTEXT
 70
     1
  9
$LTSCALE
 40
1.0
  9
$ATTMODE
 70
     1
  9
$TEXTSIZE
 40
2.5
  9
$TRACEWID
 40
1.0
  9
$TEXTSTYLE
  7
STANDARD
  9
$CLAYER
  8
0
  9
$CELTYPE
  6
BYLAYER
  9
$CECOLOR
 62
   256
  9
$CELTSCALE
 40
1.0
  9
$DISPSILH
 70
     0
  9
$DIMSCALE
 40
1.0
  9
$DIMASZ
 40
3.0
  9
$DIMEXO
 40
1.0
  9
$DIMDLI
 40
10.0
  9
$DIMRND
 40
0.0
  9
$DIMDLE
 40
0.0
  9
$DIMEXE
 40
1.0
  9
$DIMTP
 40
0.0
  9
$DIMTM
 40
0.0
  9
$DIMTXT
 40
3.2
  9
$DIMCEN
 40
0.0
  9
$DIMTSZ
 40
0.0
  9
$DIMTOL
 70
     0
  9
$DIMLIM
 70
     0
  9
$DIMTIH
 70
     0
  9
$DIMTOH
 70
     0
  9
$DIMSE1
 70
     0
  9
$DIMSE2
 70
     0
  9
$DIMTAD
 70
     3
  9
$DIMZIN
 70
     8
  9
$DIMBLK
  1

  9
$DIMASO
 70
     1
  9
$DIMSHO
 70
     1
  9
$DIMPOST
  1

  9
$DIMAPOST
  1

  9
$DIMALT
 70
     0
  9
$DIMALTD
 70
     2
  9
$DIMALTF
 40
25.4
  9
$DIMLFAC
 40
1.0
  9
$DIMTOFL
 70
     1
  9
$DIMTVP
 40
0.0
  9
$DIMTIX
 70
     0
  9
$DIMSOXD
 70
     0
  9
$DIMSAH
 70
     1
  9
$DIMBLK1
  1
OPEN
  9
$DIMBLK2
  1
OPEN
  9
$DIMSTYLE
  2
STANDARD
  9
$DIMCLRD
 70
     0
  9
$DIMCLRE
 70
     0
  9
$DIMCLRT
 70
     0
  9
$DIMTFAC
 40
1.0
  9
$DIMGAP
 40
1.0
  9
$DIMJUST
 70
     0
  9
$DIMSD1
 70
     0
  9
$DIMSD2
 70
     0
  9
$DIMTOLJ
 70
     1
  9
$DIMTZIN
 70
     0
  9
$DIMALTZ
 70
     0
  9
$DIMALTTZ
 70
     0
  9
$DIMUPT
 70
     0
  9
$DIMDEC
 70
     4
  9
$DIMTDEC
 70
     4
  9
$DIMALTU
 70
     2
  9
$DIMALTTD
 70
     2
  9
$DIMTXSTY
  7
STANDARD
  9
$DIMAUNIT
 70
     0
  9
$DIMADEC
 70
     0
  9
$DIMALTRND
 40
0.0
  9
$DIMAZIN
 70
     0
  9
$DIMDSEP
 70
    46
  9
$DIMATFIT
 70
     3
  9
$DIMFRAC
 70
     0
  9
$DIMLDRBLK
  1
OPEN
  9
$DIMLUNIT
 70
     2
  9
$DIMLWD
 70
    -2
  9
$DIMLWE
 70
    -2
  9
$DIMTMOVE
 70
     0
  9
$LUNITS
 70
     2
  9
$LUPREC
 70
     4
  9
$SKETCHINC
 40
1.0
  9
$FILLETRAD
 40
0.0
  9
$AUNITS
 70
     0
  9
$AUPREC
 70
     0
  9
$MENU
  1
.
  9
$ELEVATION
 40
0.0
  9
$PELEVATION
 40
0.0
  9
$THICKNESS
 40
0.0
  9
$LIMCHECK
 70
     0
  9
$CHAMFERA
 40
10.0
  9
$CHAMFERB
 40
10.0
  9
$CHAMFERC
 40
20.0
  9
$CHAMFERD
 40
0.0
  9
$SKPOLY
 70
     0
  9
$TDCREATE
 40
2453252.417179179
  9
$TDUCREATE
 40
2453252.042179178
  9
$TDUPDATE
 40
2457192.689678796
  9
$TDUUPDATE
 40
2457192.314678796
  9
$TDINDWG
 40
0.3560083681
  9
$TDUSRTIMER
 40
0.3560081713
  9
$USRTIMER
 70
     1
  9
$ANGBASE
 50
0.0
  9
$ANGDIR
 70
     0
  9
$PDMODE
 70
     0
  9
$PDSIZE
 40
0.0
  9
$PLINEWID
 40
0.0
  9
$SPLFRAME
 70
     0
  9
$SPLINETYPE
 70
     6
  9
$SPLINESEGS
 70
     8
  9
$HANDSEED
  5
1366
  9
$SURFTAB1
 70
     6
  9
$SURFTAB2
 70
     6
  9
$SURFTYPE
 70
     6
  9
$SURFU
 70
     6
  9
$SURFV
 70
     6
  9
$UCSBASE
  2

  9
$UCSNAME
  2

  9
$UCSORG
 10
0.0
 20
0.0
 30
0.0
  9
$UCSXDIR
 10
1.0
 20
0.0
 30
0.0
  9
$UCSYDIR
 10
0.0
 20
1.0
 30
0.0
  9
$UCSORTHOREF
  2

  9
$UCSORTHOVIEW
 70
     0
  9
$UCSORGTOP
 10
0.0
 20
0.0
 30
0.0
  9
$UCSORGBOTTOM
 10
0.0
 20
0.0
 30
0.0
  9
$UCSORGLEFT
 10
0.0
 20
0.0
 30
0.0
  9
$UCSORGRIGHT
 10
0.0
 20
0.0
 30
0.0
  9
$UCSORGFRONT
 10
0.0
 20
0.0
 30
0.0
  9
$UCSORGBACK
 10
0.0
 20
0.0
 30
0.0
  9
$PUCSBASE
  2

  9
$PUCSNAME
  2

  9
$PUCSORG
 10
0.0
 20
0.0
 30
0.0
  9
$PUCSXDIR
 10
1.0
 20
0.0
 30
0.0
  9
$PUCSYDIR
 10
0.0
 20
1.0
 30
0.0
  9
$PUCSORTHOREF
  2

  9
$PUCSORTHOVIEW
 70
     0
  9
$PUCSORGTOP
 10
0.0
 20
0.0
 30
0.0
  9
$PUCSORGBOTTOM
 10
0.0
 20
0.0
 30
0.0
  9
$PUCSORGLEFT
 10
0.0
 20
0.0
 30
0.0
  9
$PUCSORGRIGHT
 10
0.0
 20
0.0
 30
0.0
  9
$PUCSORGFRONT
 10
0.0
 20
0.0
 30
0.0
  9
$PUCSORGBACK
 10
0.0
 20
0.0
 30
0.0
  9
$USERI1
 70
     0
  9
$USERI2
 70
     0
  9
$USERI3
 70
     0
  9
$USERI4
 70
     0
  9
$USERI5
 70
     0
  9
$USERR1
 40
0.0
  9
$USERR2
 40
0.0
  9
$USERR3
 40
0.0
  9
$USERR4
 40
0.0
  9
$USERR5
 40
0.0
  9
$WORLDVIEW
 70
     1
  9
$SHADEDGE
 70
     3
  9
$SHADEDIF
 70
    70
  9
$TILEMODE
 70
     1
  9
$MAXACTVP
 70
    48
  9
$PINSBASE
 10
0.0
 20
0.0
 30
0.0
  9
$PLIMCHECK
 70
     0
  9
$PEXTMIN
 10
1.000000000000000E+20
 20
1.000000000000000E+20
 30
1.000000000000000E+20
  9
$PEXTMAX
 10
-1.000000000000000E+20
 20
-1.000000000000000E+20
 30
-1.000000000000000E+20
  9
$PLIMMIN
 10
0.0
 20
0.0
  9
$PLIMMAX
 10
420.0
 20
297.0
  9
$UNITMODE
 70
     0
  9
$VISRETAIN
 70
     1
  9
$PLINEGEN
 70
     0
  9
$PSLTSCALE
 70
     1
  9
$TREEDEPTH
 70
  3020
  9
$CMLSTYLE
  2
STANDARD
  9
$CMLJUST
 70
     0
  9
$CMLSCALE
 40
20.0
  9
$PROXYGRAPHICS
 70
     1
  9
$MEASUREMENT
 70
     0
  9
$CELWEIGHT
370
    -1
  9
$ENDCAPS
280
     0
  9
$JOINSTYLE
280
     0
  9
$LWDISPLAY
290
     0
  9
$INSUNITS
 70
     0
  9
$HYPERLINKBASE
  1

  9
$STYLESHEET
  1

  9
$XEDIT
290
     1
  9
$CEPSNTYPE
380
     0
  9
$PSTYLEMODE
290
     1
  9
$FINGERPRINTGUID
  2
{7A5A2711-8BB3-475F-8D82-BD80A8CBEF32}
  9
$VERSIONGUID
  2
{FE10506F-6936-446E-97C7-DD2906F6B264}
  9
$EXTNAMES
290
     1
  9
$PSVPSCALE
 40
0.0
  9
$OLESTARTUP
290
     0
  0
ENDSEC
  0
SECTION
  2
CLASSES
  0
CLASS
  1
ACDBDICTIONARYWDFLT
  2
AcDbDictionaryWithDefault
  3
ObjectDBX Classes
 90
        0
280
     0
281
     0
  0
CLASS
  1
ACDBPLACEHOLDER
  2
AcDbPlaceHolder
  3
ObjectDBX Classes
 90
        0
280
     0
281
     0
  0
CLASS
  1
LAYOUT
  2
AcDbLayout
  3
ObjectDBX Classes
 90
        0
280
     0
281
     0
  0
CLASS
  1
DICTIONARYVAR
  2
AcDbDictionaryVar
  3
ObjectDBX Classes
 90
        0
280
     0
281
     0
  0
CLASS
  1
MATERIAL
  2
AcDbMaterial
  3
ObjectDBX Classes
 90
     1153
280
     0
281
     0
  0
CLASS
  1
VISUALSTYLE
  2
AcDbVisualStyle
  3
ObjectDBX Classes
 90
     4095
280
     0
281
     0
  0
CLASS
  1
TABLESTYLE
  2
AcDbTableStyle
  3
ObjectDBX Classes
 90
     4095
280
     0
281
     0
  0
CLASS
  1
SCALE
  2
AcDbScale
  3
ObjectDBX Classes
 90
     1153
280
     0
281
     0
  0
CLASS
  1
MLEADERSTYLE
  2
AcDbMLeaderStyle
  3
ACDB_MLEADERSTYLE_CLASS
 90
     4095
280
     0
281
     0
  0
CLASS
  1
ACDBSECTIONVIEWSTYLE
  2
AcDbSectionViewStyle
  3
ObjectDBX Classes
 90
     1025
280
     0
281
     0
  0
CLASS
  1
ACDBDETAILVIEWSTYLE
  2
AcDbDetailViewStyle
  3
ObjectDBX Classes
 90
     1025
280
     0
281
     0
  0
CLASS
  1
CELLSTYLEMAP
  2
AcDbCellStyleMap
  3
ObjectDBX Classes
 90
     1152
280
     0
281
     0
  0
ENDSEC
  0
SECTION
  2
TABLES
  0
TABLE
  2
VPORT
  5
8
330
0
100
AcDbSymbolTable
 70
     1
  0
VPORT
  5
12B2
330
8
100
AcDbSymbolTableRecord
100
AcDbViewportTableRecord
  2
*ACTIVE
 70
     0
 10
0.0
 20
0.0
 11
1.0
 21
1.0
 12
425.5324036465718
 22
191.6222143410504
 13
0.0
 23
0.0
 14
10.0
 24
10.0
 15
10.0
 25
10.0
 16
0.0
 26
0.0
 36
1.0
 17
0.0
 27
0.0
 37
0.0
 40
366.1714577847208
 41
2.35006605019815
 42
50.0
 43
0.0
 44
0.0
 50
0.0
 51
0.0
 71
     0
 72
   100
 73
     1
 74
     0
 75
     0
 76
     0
 77
     0
 78
     0
281
     0
 65
     1
110
0.0
120
0.0
130
0.0
111
1.0
121
0.0
131
0.0
112
0.0
122
1.0
132
0.0
 79
     0
146
0.0
1001
ACAD_NAV_VCDISPLAY
1070
     3
  0
ENDTAB
  0
TABLE
  2
LTYPE
  5
5
330
0
100
AcDbSymbolTable
 70
     4
  0
LTYPE
  5
12
330
5
100
AcDbSymbolTableRecord
100
AcDbLinetypeTableRecord
  2
BYBLOCK
 70
     0
  3

 72
    65
 73
     0
 40
0.0
  0
LTYPE
  5
13
330
5
100
AcDbSymbolTableRecord
100
AcDbLinetypeTableRecord
  2
BYLAYER
 70
     0
  3

 72
    65
 73
     0
 40
0.0
  0
LTYPE
  5
14
330
5
100
AcDbSymbolTableRecord
100
AcDbLinetypeTableRecord
  2
CONTINUOUS
 70
     0
  3
Solid line
 72
    65
 73
     0
 40
0.0
  0
LTYPE
  5
7A
330
5
100
AcDbSymbolTableRecord
100
AcDbLinetypeTableRecord
  2
DASHED
 70
     0
  3
Dashed __ __ __ __ __ __ __ __ __ __ __ __ __ _
 72
    65
 73
     2
 40
19.04999999999998
 49
12.7
 74
     0
 49
-6.349999999999997
 74
     0
  0
LTYPE
  5
7B
330
5
100
AcDbSymbolTableRecord
100
AcDbLinetypeTableRecord
  2
CENTER
 70
     0
  3
Center ____ _ ____ _ ____ _ ____ _ ____ _ ____
 72
    65
 73
     4
 40
50.8
 49
31.75
 74
     0
 49
-6.349999999999997
 74
     0
 49
6.349999999999997
 74
     0
 49
-6.349999999999997
 74
     0
  0
LTYPE
  5
7C
330
5
100
AcDbSymbolTableRecord
100
AcDbLinetypeTableRecord
  2
PHANTOM
 70
     0
  3
Phantom ______  __  __  ______  __  __  ______
 72
    65
 73
     6
 40
63.5
 49
31.75
 74
     0
 49
-6.349999999999997
 74
     0
 49
6.349999999999997
 74
     0
 49
-6.349999999999997
 74
     0
 49
6.349999999999997
 74
     0
 49
-6.349999999999997
 74
     0
  0
ENDTAB
  0
TABLE
  2
LAYER
  5
2
330
0
100
AcDbSymbolTable
 70
     8
  0
LAYER
  5
E
102
{ACAD_XDICTIONARY
360
130A
102
}
330
2
100
AcDbSymbolTableRecord
100
AcDbLayerTableRecord
  2
0
 70
     0
 62
     7
  6
CONTINUOUS
370
    -3
390
12B9
  0
LAYER
  5
7D
102
{ACAD_XDICTIONARY
360
130C
102
}
330
2
100
AcDbSymbolTableRecord
100
AcDbLayerTableRecord
  2
4
 70
     0
 62
     1
  6
CENTER
370
    -3
390
12B9
  0
LAYER
  5
7E
102
{ACAD_XDICTIONARY
360
130E
102
}
330
2
100
AcDbSymbolTableRecord
100
AcDbLayerTableRecord
  2
5
 70
     0
 62
     6
  6
PHANTOM
370
    -3
390
12B9
  0
LAYER
  5
7F
102
{ACAD_XDICTIONARY
360
1310
102
}
330
2
100
AcDbSymbolTableRecord
100
AcDbLayerTableRecord
  2
1
 70
     0
 62
     7
  6
CONTINUOUS
370
    -3
390
12B9
  0
LAYER
  5
80
102
{ACAD_XDICTIONARY
360
1312
102
}
330
2
100
AcDbSymbolTableRecord
100
AcDbLayerTableRecord
  2
2
 70
     0
 62
     4
  6
CONTINUOUS
370
    -3
390
12B9
  0
LAYER
  5
81
102
{ACAD_XDICTIONARY
360
1314
102
}
330
2
100
AcDbSymbolTableRecord
100
AcDbLayerTableRecord
  2
3
 70
     0
 62
     2
  6
DASHED
370
    -3
390
12B9
  0
LAYER
  5
82
102
{ACAD_XDICTIONARY
360
1316
102
}
330
2
100
AcDbSymbolTableRecord
100
AcDbLayerTableRecord
  2
6
 70
     0
 62
     5
  6
CONTINUOUS
370
    -3
390
12B9
  0
LAYER
  5
83
102
{ACAD_XDICTIONARY
360
1318
102
}
330
2
100
AcDbSymbolTableRecord
100
AcDbLayerTableRecord
  2
7
 70
     0
 62
     3
  6
CONTINUOUS
370
    -3
390
12B9
  0
ENDTAB
  0
TABLE
  2
STYLE
  5
3
330
0
100
AcDbSymbolTable
 70
     1
  0
STYLE
  5
F
330
3
100
AcDbSymbolTableRecord
100
AcDbTextStyleTableRecord
  2
STANDARD
 70
     0
 40
0.0
 41
1.0
 50
0.0
 71
     0
 42
2.5
  3
simplex.shx
  4

  0
ENDTAB
  0
TABLE
  2
VIEW
  5
6
330
0
100
AcDbSymbolTable
 70
     0
  0
ENDTAB
  0
TABLE
  2
UCS
  5
7
330
0
100
AcDbSymbolTable
 70
     0
  0
ENDTAB
  0
TABLE
  2
APPID
  5
9
330
0
100
AcDbSymbolTable
 70
     5
  0
APPID
  5
10
330
9
100
AcDbSymbolTableRecord
100
AcDbRegAppTableRecord
  2
ACAD
 70
     0
  0
APPID
  5
3E
330
9
100
AcDbSymbolTableRecord
100
AcDbRegAppTableRecord
  2
CONTENTTABDATA
 70
     0
  0
APPID
  5
3F
330
9
100
AcDbSymbolTableRecord
100
AcDbRegAppTableRecord
  2
CONTENTCURRENTTAB
 70
     0
  0
APPID
  5
1324
330
9
100
AcDbSymbolTableRecord
100
AcDbRegAppTableRecord
  2
ACAD_NAV_VCDISPLAY
 70
     0
  0
APPID
  5
135D
330
9
100
AcDbSymbolTableRecord
100
AcDbRegAppTableRecord
  2
ACAD_MLEADERVER
 70
     0
  0
ENDTAB
  0
TABLE
  2
DIMSTYLE
  5
A
330
0
100
AcDbSymbolTable
 70
     1
100
AcDbDimStyleTable
 71
     0
  0
DIMSTYLE
105
1D
330
A
100
AcDbSymbolTableRecord
100
AcDbDimStyleTableRecord
  2
STANDARD
 70
     0
 41
3.0
 42
1.0
 43
10.0
 44
1.0
 73
     0
 74
     0
 77
     3
 78
     8
140
3.2
141
0.0
147
1.0
172
     1
173
     1
340
F
341
2E
343
2E
344
2E
  0
ENDTAB
  0
TABLE
  2
BLOCK_RECORD
  5
1
330
0
100
AcDbSymbolTable
 70
     1
  0
BLOCK_RECORD
  5
18
102
{ACAD_XDICTIONARY
360
129C
102
}
330
1
100
AcDbSymbolTableRecord
100
AcDbBlockTableRecord
  2
*MODEL_SPACE
340
1307
  0
BLOCK_RECORD
  5
15
102
{ACAD_XDICTIONARY
360
129A
102
}
330
1
100
AcDbSymbolTableRecord
100
AcDbBlockTableRecord
  2
*PAPER_SPACE
340
1308
  0
BLOCK_RECORD
  5
2E
330
1
100
AcDbSymbolTableRecord
100
AcDbBlockTableRecord
  2
_OPEN
340
0
  0
ENDTAB
  0
ENDSEC
  0
SECTION
  2
BLOCKS
  0
BLOCK
  5
19
330
18
100
AcDbEntity
  8
0
100
AcDbBlockBegin
  2
*MODEL_SPACE
 70
     0
 10
0.0
 20
0.0
 30
0.0
  3
*MODEL_SPACE
  1

  0
ENDBLK
  5
1A
330
18
100
AcDbEntity
  8
0
100
AcDbBlockEnd
  0
BLOCK
  5
16
330
15
100
AcDbEntity
 67
     1
  8
0
100
AcDbBlockBegin
  2
*PAPER_SPACE
 70
     0
 10
0.0
 20
0.0
 30
0.0
  3
*PAPER_SPACE
  1

  0
ENDBLK
  5
17
330
15
100
AcDbEntity
 67
     1
  8
0
100
AcDbBlockEnd
  0
BLOCK
  5
2F
330
2E
100
AcDbEntity
  8
0
100
AcDbBlockBegin
  2
_OPEN
 70
     0
 10
0.0
 20
0.0
 30
0.0
  3
_OPEN
  1

  0
LINE
  5
30
330
2E
100
AcDbEntity
  8
0
  6
ByBlock
 62
     0
100
AcDbLine
 10
-1.0
 20
0.1666666666666666
 30
0.0
 11
0.0
 21
0.0
 31
0.0
  0
LINE
  5
31
330
2E
100
AcDbEntity
  8
0
  6
ByBlock
 62
     0
100
AcDbLine
 10
0.0
 20
0.0
 30
0.0
 11
-1.0
 21
-0.1666666666666666
 31
0.0
  0
LINE
  5
32
330
2E
100
AcDbEntity
  8
0
  6
ByBlock
 62
     0
100
AcDbLine
 10
0.0
 20
0.0
 30
0.0
 11
-1.0
 21
0.0
 31
0.0
  0
ENDBLK
  5
33
330
2E
100
AcDbEntity
  8
0
100
AcDbBlockEnd
  0
ENDSEC
  0
SECTION
  2
ENTITIES
  0
LINE
  5
1A3
330
18
100
AcDbEntity
  8
4
  6
CENTER
 48
0.5
100
AcDbLine
 10
132.2430653249176
 20
196.0008967249413
 30
0.0
 11
215.4091493249171
 21
196.0008967249413
 31
0.0
  0
LINE
  5
1A5
330
18
100
AcDbEntity
  8
4
  6
CENTER
 48
0.5
100
AcDbLine
 10
128.2252793249176
 20
341.5009027249411
 30
0.0
 11
238.4235773249176
 21
341.5009027249411
 31
0.0
  0
LINE
  5
1AA
330
18
100
AcDbEntity
  8
4
  6
CENTER
 48
0.5
100
AcDbLine
 10
46.82610732491776
 20
253.893139724941
 30
0.0
 11
46.82610732491776
 21
153.9701851020341
 31
0.0
  0
TEXT
  5
1AC
330
18
100
AcDbEntity
  8
1
  6
Continuous
 48
0.25
100
AcDbText
 10
9.99999906424682
 20
10.00000056761564
 30
0.0
 40
1.399999999999999
  1
LAYER
100
AcDbText
  0
TEXT
  5
1AD
330
18
100
AcDbEntity
  8
7
  6
Continuous
 48
0.25
100
AcDbText
 10
9.99999906424682
 20
18.00000056761564
 30
0.0
 40
3.0
  1
TYPE No.TCA-320S-N75
100
AcDbText
  0
TEXT
  5
1AE
330
18
100
AcDbEntity
  8
7
  6
Continuous
 48
0.25
100
AcDbText
 10
9.99999906424682
 20
26.00000056761564
 30
0.0
 40
3.0
  1
CODE No.19147
100
AcDbText
  0
TEXT
  5
1AF
330
18
100
AcDbEntity
  8
2
  6
Continuous
 48
0.25
100
AcDbText
 10
19.97951006424682
 20
9.999999806846743
 30
0.0
 40
1.399999999999999
  1
2
100
AcDbText
  0
TEXT
  5
1B0
330
18
100
AcDbEntity
  8
1
  6
Continuous
 48
0.25
100
AcDbText
 10
17.97951006424682
 20
9.999999806846743
 30
0.0
 40
1.399999999999999
  1
1
100
AcDbText
  0
TEXT
  5
1B1
330
18
100
AcDbEntity
  8
3
  6
DASHED
 48
0.25
100
AcDbText
 10
21.97951006424682
 20
9.999999806846743
 30
0.0
 40
1.399999999999999
  1
3
100
AcDbText
  0
TEXT
  5
1B2
330
18
100
AcDbEntity
  8
5
  6
PHANTOM
 48
0.25
100
AcDbText
 10
25.97951006424682
 20
9.999999806846743
 30
0.0
 40
1.399999999999999
  1
5
100
AcDbText
  0
TEXT
  5
1B3
330
18
100
AcDbEntity
  8
4
  6
CENTER
 48
0.25
100
AcDbText
 10
23.97951006424682
 20
9.999999806846743
 30
0.0
 40
1.399999999999999
  1
4
100
AcDbText
  0
TEXT
  5
1B4
330
18
100
AcDbEntity
  8
7
  6
Continuous
 48
0.25
100
AcDbText
 10
29.97951006424682
 20
9.999999806846743
 30
0.0
 40
1.399999999999999
  1
7
100
AcDbText
  0
TEXT
  5
1B5
330
18
100
AcDbEntity
  8
6
  6
Continuous
 48
0.25
100
AcDbText
 10
27.97951006424682
 20
9.999999806846743
 30
0.0
 40
1.399999999999999
  1
6
100
AcDbText
  0
LINE
  5
1BA
330
18
100
AcDbEntity
  8
1
  6
Continuous
100
AcDbLine
 10
75.82610732491764
 20
251.5009027249411
 30
0.0
 11
46.82610732491776
 21
251.5009027249411
 31
0.0
  0
LINE
  5
1BB
330
18
100
AcDbEntity
  8
1
  6
Continuous
100
AcDbLine
 10
75.82610732491764
 20
249.5009027249411
 30
0.0
 11
46.82610732491776
 21
249.5009027249411
 31
0.0
  0
LINE
  5
1BC
330
18
100
AcDbEntity
  8
4
  6
CENTER
 48
0.5
100
AcDbLine
 10
19.30913732491774
 20
196.0008967249413
 30
0.0
 11
72.22948832491771
 21
196.0008967249413
 31
0.0
  0
ARC
  5
1BD
330
18
100
AcDbEntity
  8
1
  6
Continuous
100
AcDbCircle
 10
46.82610732491776
 20
467.2270027249409
 30
0.0
 40
228.99847
100
AcDbArc
 50
270.0
 51
273.5760000000002
  0
ARC
  5
1BE
330
18
100
AcDbEntity
  8
1
  6
Continuous
100
AcDbCircle
 10
46.82610732491776
 20
429.9449027249413
 30
0.0
 40
190.0
100
AcDbArc
 50
270.0
 51
275.1343499999998
  0
ARC
  5
1BF
330
18
100
AcDbEntity
  8
1
  6
Continuous
100
AcDbCircle
 10
46.82610732491776
 20
465.2574027249412
 30
0.0
 40
228.99847
100
AcDbArc
 50
270.0
 51
273.6066899999999
  0
LINE
  5
1C0
330
18
100
AcDbEntity
  8
1
  6
Continuous
100
AcDbLine
 10
68.32610732491776
 20
243.3949017249413
 30
0.0
 11
46.82610732491776
 21
243.3949017249413
 31
0.0
  0
LINE
  5
1C1
330
18
100
AcDbEntity
  8
1
  6
Continuous
100
AcDbLine
 10
69.32610732491776
 20
244.8009017249412
 30
0.0
 11
46.82610732491776
 21
244.8009017249412
 31
0.0
  0
ARC
  5
1C3
330
18
100
AcDbEntity
  8
1
  6
Continuous
100
AcDbCircle
 10
46.82610732491776
 20
245.272901724941
 30
0.0
 40
2.778000099999998
100
AcDbArc
 50
317.4661199999996
 51
350.21762
  0
ARC
  5
1C4
330
18
100
AcDbEntity
  8
1
  6
Continuous
100
AcDbCircle
 10
52.22610932491761
 20
245.272901724941
 30
0.0
 40
2.778000099999998
100
AcDbArc
 50
193.60946
 51
222.5338800000002
  0
ARC
  5
1C5
330
18
100
AcDbEntity
  8
1
  6
Continuous
100
AcDbCircle
 10
57.78721232491761
 20
213.8425487249411
 30
0.0
 40
36.0
100
AcDbArc
 50
178.5639899999998
 51
199.39231
  0
LINE
  5
1C7
330
18
100
AcDbEntity
  8
1
  6
Continuous
100
AcDbLine
 10
30.82610732491775
 20
235.2822652249411
 30
0.0
 11
30.82610732491775
 21
185.0008987249411
 31
0.0
  0
LINE
  5
1C8
330
18
100
AcDbEntity
  8
1
  6
Continuous
100
AcDbLine
 10
28.82610732491775
 20
235.2845731249411
 30
0.0
 11
28.82610732491775
 21
185.0008987249411
 31
0.0
  0
LINE
  5
1D1
330
18
100
AcDbEntity
  8
1
  6
Continuous
100
AcDbLine
 10
28.82610732491775
 20
185.0008987249411
 30
0.0
 11
30.82610732491775
 21
185.0008987249411
 31
0.0
  0
LINE
  5
1DB
330
18
100
AcDbEntity
  8
1
  6
Continuous
100
AcDbLine
 10
22.4511273249177
 20
192.0008987249413
 30
0.0
 11
22.4511273249177
 21
200.0008967249413
 31
0.0
  0
LINE
  5
1DC
330
18
100
AcDbEntity
  8
1
  6
Continuous
100
AcDbLine
 10
21.8261273249177
 20
192.6258987249411
 30
0.0
 11
21.8261273249177
 21
199.3758967249411
 31
0.0
  0
LINE
  5
1DD
330
18
100
AcDbEntity
  8
1
  6
Continuous
100
AcDbLine
 10
22.4511273249177
 20
192.0008987249413
 30
0.0
 11
23.82612732491769
 21
192.0008987249413
 31
0.0
  0
LINE
  5
1DE
330
18
100
AcDbEntity
  8
2
  6
Continuous
100
AcDbLine
 10
21.8261273249177
 20
192.6258987249411
 30
0.0
 11
23.82612732491769
 21
192.6258987249411
 31
0.0
  0
LINE
  5
1DF
330
18
100
AcDbEntity
  8
1
  6
Continuous
100
AcDbLine
 10
22.4511273249177
 20
192.0008987249413
 30
0.0
 11
21.8261273249177
 21
192.6258987249411
 31
0.0
  0
LINE
  5
1E0
330
18
100
AcDbEntity
  8
1
  6
Continuous
100
AcDbLine
 10
22.4511273249177
 20
200.0008967249413
 30
0.0
 11
23.82612732491769
 21
200.0008967249413
 31
0.0
  0
LINE
  5
1E1
330
18
100
AcDbEntity
  8
2
  6
Continuous
100
AcDbLine
 10
21.8261273249177
 20
199.3758967249411
 30
0.0
 11
23.82612732491769
 21
199.3758967249411
 31
0.0
  0
LINE
  5
1E2
330
18
100
AcDbEntity
  8
1
  6
Continuous
100
AcDbLine
 10
21.8261273249177
 20
199.3758947249411
 30
0.0
 11
22.4511273249177
 21
200.0008967249413
 31
0.0
  0
LINE
  5
1E9
330
18
100
AcDbEntity
  8
1
  6
Continuous
100
AcDbLine
 10
17.82610732491774
 20
249.5009027249411
 30
0.0
 11
46.82610732491776
 21
249.5009027249411
 31
0.0
  0
LINE
  5
1EA
330
18
100
AcDbEntity
  8
1
  6
Continuous
100
AcDbLine
 10
17.82610732491774
 20
251.5009027249411
 30
0.0
 11
46.82610732491776
 21
251.5009027249411
 31
0.0
  0
LINE
  5
1EB
330
18
100
AcDbEntity
  8
1
  6
Continuous
100
AcDbLine
 10
17.82610732491774
 20
251.5009027249411
 30
0.0
 11
17.82610732491774
 21
249.5009027249411
 31
0.0
  0
LINE
  5
1EC
330
18
100
AcDbEntity
  8
1
  6
Continuous
100
AcDbLine
 10
21.79182732491767
 20
214.4192047249411
 30
0.0
 11
22.32673732491775
 21
240.4565197249411
 31
0.0
  0
ARC
  5
1ED
330
18
100
AcDbEntity
  8
1
  6
Continuous
100
AcDbCircle
 10
46.82610732491776
 20
-137.9364472750585
 30
0.0
 40
371.0813299999998
100
AcDbArc
 50
91.26093749767859
 51
92.47119899999978
  0
LINE
  5
1F0
330
18
100
AcDbEntity
  8
1
  6
Continuous
100
AcDbLine
 10
25.32610732491775
 20
243.3949017249413
 30
0.0
 11
46.82610732491776
 21
243.3949017249413
 31
0.0
  0
LINE
  5
1F1
330
18
100
AcDbEntity
  8
1
  6
Continuous
100
AcDbLine
 10
24.32610732491776
 20
244.8009017249412
 30
0.0
 11
46.82610732491776
 21
244.8009017249412
 31
0.0
  0
ARC
  5
1F2
330
18
100
AcDbEntity
  8
1
  6
Continuous
100
AcDbCircle
 10
46.82610732491776
 20
467.2270027249409
 30
0.0
 40
228.99847
100
AcDbArc
 50
266.4239999999998
 51
270.0
  0
ARC
  5
1F3
330
18
100
AcDbEntity
  8
1
  6
Continuous
100
AcDbCircle
 10
46.82610732491776
 20
465.2574027249412
 30
0.0
 40
228.99847
100
AcDbArc
 50
266.3932999999996
 51
270.0
  0
ARC
  5
1F4
330
18
100
AcDbEntity
  8
1
  6
Continuous
100
AcDbCircle
 10
46.82610732491776
 20
429.9449027249413
 30
0.0
 40
190.0
100
AcDbArc
 50
264.86565
 51
270.0
  0
ARC
  5
1F5
330
18
100
AcDbEntity
  8
1
  6
Continuous
100
AcDbCircle
 10
36.92610532491778
 20
245.272901724941
 30
0.0
 40
2.778000099999998
100
AcDbArc
 50
189.7823799999999
 51
222.5338800000002
  0
ARC
  5
1F6
330
18
100
AcDbEntity
  8
1
  6
Continuous
100
AcDbCircle
 10
24.32610732491776
 20
247.8009017249411
 30
0.0
 40
3.0
100
AcDbArc
 50
213.0681
 51
269.9999599999999
  0
ARC
  5
1F7
330
18
100
AcDbEntity
  8
1
  6
Continuous
100
AcDbCircle
 10
26.47901732491777
 20
248.5009027249411
 30
0.0
 40
3.0
100
AcDbArc
 50
194.8123899999999
 51
270.0
  0
ARC
  5
1F8
330
18
100
AcDbEntity
  8
1
  6
Continuous
100
AcDbCircle
 10
25.32610732491775
 20
240.3949017249412
 30
0.0
 40
3.0
100
AcDbArc
 50
89.99999600000005
 51
178.8230999999998
  0
ARC
  5
1F9
330
18
100
AcDbEntity
  8
1
  6
Continuous
100
AcDbCircle
 10
32.32457732491774
 20
235.1812349249411
 30
0.0
 40
3.5
100
AcDbArc
 50
86.42399499999964
 51
181.6919199999999
  0
ARC
  5
1FA
330
18
100
AcDbEntity
  8
1
  6
Continuous
100
AcDbCircle
 10
32.32610732491774
 20
235.2154603249411
 30
0.0
 40
1.5
100
AcDbArc
 50
86.39330700000035
 51
180.0000100000002
  0
ARC
  5
1FB
330
18
100
AcDbEntity
  8
1
  6
Continuous
100
AcDbCircle
 10
29.42610732491777
 20
245.272901724941
 30
0.0
 40
2.778000099999998
100
AcDbArc
 50
189.7823799999999
 51
222.5338800000002
  0
ARC
  5
1FC
330
18
100
AcDbEntity
  8
1
  6
Continuous
100
AcDbCircle
 10
30.92610732491777
 20
245.272901724941
 30
0.0
 40
2.778000099999998
100
AcDbArc
 50
189.7823799999999
 51
222.5338800000002
  0
ARC
  5
1FD
330
18
100
AcDbEntity
  8
1
  6
Continuous
100
AcDbCircle
 10
33.42610732491777
 20
245.272901724941
 30
0.0
 40
2.778000099999998
100
AcDbArc
 50
189.7823799999999
 51
222.5338800000002
  0
LINE
  5
1FE
330
18
100
AcDbEntity
  8
4
  6
CENTER
100
AcDbLine
 10
25.82610732491775
 20
253.8751397249411
 30
0.0
 11
25.82610732491775
 21
247.0499287249411
 31
0.0
  0
ARC
  5
1FF
330
18
100
AcDbEntity
  8
1
  6
Continuous
100
AcDbCircle
 10
22.34151732491773
 20
248.5009027249411
 30
0.0
 40
1.0
100
AcDbArc
 50
14.812389
 51
90.00000300000015
  0
LINE
  5
200
330
18
100
AcDbEntity
  8
1
  6
Continuous
100
AcDbLine
 10
21.81203732491769
 20
246.1639967249411
 30
0.0
 11
20.08313732491774
 21
248.8193517249412
 31
0.0
  0
ARC
  5
201
330
18
100
AcDbEntity
  8
1
  6
Continuous
100
AcDbCircle
 10
18.82610732491775
 20
248.0009027249411
 30
0.0
 40
1.5
100
AcDbArc
 50
33.06801899999995
 51
90.00000300000015
  0
LINE
  5
202
330
18
100
AcDbEntity
  8
1
  6
Continuous
100
AcDbLine
 10
23.30829732491769
 20
248.756557724941
 30
0.0
 11
23.57871732491776
 21
247.7339407249411
 31
0.0
  0
ARC
  5
203
330
18
100
AcDbEntity
  8
1
  6
Continuous
100
AcDbCircle
 10
26.47901732491777
 20
246.0009027249411
 30
0.0
 40
0.5
100
AcDbArc
 50
270.0
 51
352.3953099999997
  0
LINE
  5
204
330
18
100
AcDbEntity
  8
1
  6
Continuous
100
AcDbLine
 10
26.97461732491774
 20
245.9347327249411
 30
0.0
 11
27.3349073249177
 21
248.6332407249411
 31
0.0
  0
ARC
  5
205
330
18
100
AcDbEntity
  8
1
  6
Continuous
100
AcDbCircle
 10
28.32610732491776
 20
248.5009027249411
 30
0.0
 40
1.0
100
AcDbArc
 50
90.00000300000015
 51
172.3953100000001
  0
ARC
  5
206
330
18
100
AcDbEntity
  8
1
  6
Continuous
100
AcDbCircle
 10
36.92610532491778
 20
245.272901724941
 30
0.0
 40
2.778000099999998
100
AcDbArc
 50
317.4661199999996
 51
324.0896000000003
  0
ARC
  5
207
330
18
100
AcDbEntity
  8
1
  6
Continuous
100
AcDbCircle
 10
41.42610532491779
 20
245.272901724941
 30
0.0
 40
2.778000099999998
100
AcDbArc
 50
189.7823799999999
 51
222.5338800000002
  0
ARC
  5
208
330
18
100
AcDbEntity
  8
1
  6
Continuous
100
AcDbCircle
 10
41.42610532491779
 20
245.272901724941
 30
0.0
 40
2.778000099999998
100
AcDbArc
 50
317.4661199999996
 51
346.3905399999999
  0
ARC
  5
209
330
18
100
AcDbEntity
  8
1
  6
Continuous
100
AcDbCircle
 10
46.82610732491776
 20
245.272901724941
 30
0.0
 40
2.778000099999998
100
AcDbArc
 50
189.7823799999999
 51
222.5338800000002
  0
ARC
  5
20A
330
18
100
AcDbEntity
  8
1
  6
Continuous
100
AcDbCircle
 10
35.86499732491779
 20
213.8425487249411
 30
0.0
 40
36.0
100
AcDbArc
 50
336.2889399999998
 51
1.436359500000087
  0
LINE
  5
20C
330
18
100
AcDbEntity
  8
1
  6
Continuous
100
AcDbLine
 10
62.82610732491765
 20
235.2822652249411
 30
0.0
 11
62.82610732491765
 21
185.0008987249411
 31
0.0
  0
LINE
  5
20D
330
18
100
AcDbEntity
  8
1
  6
Continuous
100
AcDbLine
 10
64.82610732491764
 20
235.2845731249411
 30
0.0
 11
64.82610732491764
 21
185.0008987249411
 31
0.0
  0
ARC
  5
210
330
18
100
AcDbEntity
  8
1
  6
Continuous
100
AcDbCircle
 10
66.32606132491765
 20
191.0008987249413
 30
0.0
 40
1.5
100
AcDbArc
 50
89.99998199999998
 51
179.99996
  0
ARC
  5
212
330
18
100
AcDbEntity
  8
1
  6
Continuous
100
AcDbCircle
 10
66.32606132491765
 20
190.0008987249411
 30
0.0
 40
1.5
100
AcDbArc
 50
179.9999799999999
 51
269.9999700000002
  0
LINE
  5
215
330
18
100
AcDbEntity
  8
1
  6
Continuous
100
AcDbLine
 10
62.82610732491765
 20
185.0008987249411
 30
0.0
 11
64.82610732491764
 21
185.0008987249411
 31
0.0
  0
LINE
  5
217
330
18
100
AcDbEntity
  8
1
  6
Continuous
100
AcDbLine
 10
67.32615332491764
 20
188.5008987249411
 30
0.0
 11
66.32606132491765
 21
188.5008987249411
 31
0.0
  0
ARC
  5
218
330
18
100
AcDbEntity
  8
1
  6
Continuous
100
AcDbCircle
 10
66.32606132491765
 20
197.5008967249413
 30
0.0
 40
1.5
100
AcDbArc
 50
89.99998199999998
 51
179.99996
  0
ARC
  5
219
330
18
100
AcDbEntity
  8
1
  6
Continuous
100
AcDbCircle
 10
66.32606132491765
 20
201.0008967249413
 30
0.0
 40
1.5
100
AcDbArc
 50
179.9999799999999
 51
269.9999700000002
  0
ARC
  5
21A
330
18
100
AcDbEntity
  8
1
  6
Continuous
100
AcDbCircle
 10
66.32606132491765
 20
194.5008987249411
 30
0.0
 40
1.5
100
AcDbArc
 50
179.9999799999999
 51
269.9999700000002
  0
ARC
  5
21B
330
18
100
AcDbEntity
  8
1
  6
Continuous
100
AcDbCircle
 10
66.32606132491765
 20
202.0008967249411
 30
0.0
 40
1.5
100
AcDbArc
 50
89.99998199999998
 51
179.99996
  0
LINE
  5
223
330
18
100
AcDbEntity
  8
1
  6
Continuous
100
AcDbLine
 10
67.32615332491764
 20
193.0008987249413
 30
0.0
 11
66.32606132491765
 21
193.0008987249413
 31
0.0
  0
LINE
  5
224
330
18
100
AcDbEntity
  8
1
  6
Continuous
100
AcDbLine
 10
67.32615332491764
 20
192.5008987249411
 30
0.0
 11
66.32606132491765
 21
192.5008987249411
 31
0.0
  0
LINE
  5
227
330
18
100
AcDbEntity
  8
1
  6
Continuous
100
AcDbLine
 10
67.32615332491764
 20
199.0008967249411
 30
0.0
 11
66.32606132491765
 21
199.0008967249411
 31
0.0
  0
LINE
  5
228
330
18
100
AcDbEntity
  8
1
  6
Continuous
100
AcDbLine
 10
67.32615332491764
 20
199.5008967249411
 30
0.0
 11
66.32606132491765
 21
199.5008967249413
 31
0.0
  0
LINE
  5
229
330
18
100
AcDbEntity
  8
1
  6
Continuous
100
AcDbLine
 10
67.32615332491764
 20
203.5008967249412
 30
0.0
 11
66.32606132491765
 21
203.5008967249412
 31
0.0
  0
LINE
  5
22A
330
18
100
AcDbEntity
  8
1
  6
Continuous
100
AcDbLine
 10
71.32547432491776
 20
240.4565197249411
 30
0.0
 11
71.86038632491762
 21
214.4189827249411
 31
0.0
  0
ARC
  5
22B
330
18
100
AcDbEntity
  8
1
  6
Continuous
100
AcDbCircle
 10
46.82610732491776
 20
-137.9364472750585
 30
0.0
 40
371.0813299999998
100
AcDbArc
 50
87.52879900000037
 51
88.73906250232142
  0
ARC
  5
22D
330
18
100
AcDbEntity
  8
1
  6
Continuous
100
AcDbCircle
 10
61.32763332491776
 20
235.1812349249411
 30
0.0
 40
3.5
100
AcDbArc
 50
358.30808
 51
93.57600300000028
  0
ARC
  5
22E
330
18
100
AcDbEntity
  8
1
  6
Continuous
100
AcDbCircle
 10
62.72610932491762
 20
245.272901724941
 30
0.0
 40
2.778000099999998
100
AcDbArc
 50
317.4661199999996
 51
350.21762
  0
ARC
  5
22F
330
18
100
AcDbEntity
  8
1
  6
Continuous
100
AcDbCircle
 10
56.72610932491761
 20
245.272901724941
 30
0.0
 40
2.778000099999998
100
AcDbArc
 50
215.9104000000004
 51
222.5338800000002
  0
ARC
  5
230
330
18
100
AcDbEntity
  8
1
  6
Continuous
100
AcDbCircle
 10
52.22610932491761
 20
245.272901724941
 30
0.0
 40
2.778000099999998
100
AcDbArc
 50
317.4661199999996
 51
350.21762
  0
ARC
  5
231
330
18
100
AcDbEntity
  8
1
  6
Continuous
100
AcDbCircle
 10
61.32610732491764
 20
235.2154603249411
 30
0.0
 40
1.5
100
AcDbArc
 50
2.552639800000037
 51
93.60669799999985
  0
ARC
  5
232
330
18
100
AcDbEntity
  8
1
  6
Continuous
100
AcDbCircle
 10
56.72610932491761
 20
245.272901724941
 30
0.0
 40
2.778000099999998
100
AcDbArc
 50
317.4661199999996
 51
350.21762
  0
ARC
  5
233
330
18
100
AcDbEntity
  8
1
  6
Continuous
100
AcDbCircle
 10
60.22610932491762
 20
245.272901724941
 30
0.0
 40
2.778000099999998
100
AcDbArc
 50
317.4661199999996
 51
350.21762
  0
ARC
  5
234
330
18
100
AcDbEntity
  8
1
  6
Continuous
100
AcDbCircle
 10
69.32610732491776
 20
247.8009017249411
 30
0.0
 40
3.0
100
AcDbArc
 50
269.9999799999996
 51
326.9318999999998
  0
ARC
  5
235
330
18
100
AcDbEntity
  8
1
  6
Continuous
100
AcDbCircle
 10
67.17319932491761
 20
248.5009027249411
 30
0.0
 40
3.0
100
AcDbArc
 50
270.0
 51
345.18761
  0
ARC
  5
236
330
18
100
AcDbEntity
  8
1
  6
Continuous
100
AcDbCircle
 10
68.32610732491776
 20
240.3949017249412
 30
0.0
 40
3.0
100
AcDbArc
 50
1.176911000000137
 51
90.00000300000015
  0
ARC
  5
237
330
18
100
AcDbEntity
  8
1
  6
Continuous
100
AcDbCircle
 10
64.22610932491761
 20
245.272901724941
 30
0.0
 40
2.778000099999998
100
AcDbArc
 50
317.4661199999996
 51
350.21762
  0
LINE
  5
238
330
18
100
AcDbEntity
  8
1
  6
Continuous
100
AcDbLine
 10
73.56907332491778
 20
248.8193477249411
 30
0.0
 11
71.8401763249177
 21
246.1639947249413
 31
0.0
  0
LINE
  5
239
330
18
100
AcDbEntity
  8
4
  6
CENTER
100
AcDbLine
 10
67.82610732491765
 20
253.8751397249411
 30
0.0
 11
67.82610732491765
 21
246.893062724941
 31
0.0
  0
ARC
  5
23A
330
18
100
AcDbEntity
  8
1
  6
Continuous
100
AcDbCircle
 10
67.17319932491761
 20
246.0009027249411
 30
0.0
 40
0.5
100
AcDbArc
 50
187.6046899999998
 51
270.0
  0
LINE
  5
23B
330
18
100
AcDbEntity
  8
1
  6
Continuous
100
AcDbLine
 10
66.67759332491778
 20
245.9347327249411
 30
0.0
 11
66.31731032491768
 21
248.6332407249411
 31
0.0
  0
ARC
  5
23C
330
18
100
AcDbEntity
  8
1
  6
Continuous
100
AcDbCircle
 10
65.32610732491774
 20
248.5009027249411
 30
0.0
 40
1.0
100
AcDbArc
 50
7.604693300000017
 51
89.99999600000005
  0
LINE
  5
23D
330
18
100
AcDbEntity
  8
1
  6
Continuous
100
AcDbLine
 10
70.34392932491778
 20
248.756557724941
 30
0.0
 11
70.07350532491762
 21
247.7339387249411
 31
0.0
  0
ARC
  5
23E
330
18
100
AcDbEntity
  8
1
  6
Continuous
100
AcDbCircle
 10
71.31069632491779
 20
248.5009027249411
 30
0.0
 40
1.0
100
AcDbArc
 50
89.99999600000005
 51
165.18761
  0
LINE
  5
23F
330
18
100
AcDbEntity
  8
1
  6
Continuous
100
AcDbLine
 10
75.82610732491764
 20
251.5009027249411
 30
0.0
 11
75.82610732491764
 21
249.5009027249411
 31
0.0
  0
ARC
  5
240
330
18
100
AcDbEntity
  8
1
  6
Continuous
100
AcDbCircle
 10
74.82610732491764
 20
248.0009027249411
 30
0.0
 40
1.5
100
AcDbArc
 50
89.99994800000029
 51
146.9319899999999
  0
LINE
  5
244
330
18
100
AcDbEntity
  8
4
  6
CENTER
 48
0.5
100
AcDbLine
 10
173.8261073249176
 20
236.900886724941
 30
0.0
 11
173.8261073249176
 21
154.4178547249414
 31
0.0
  0
ARC
  5
247
330
18
100
AcDbEntity
  8
1
  6
Continuous
100
AcDbCircle
 10
217.8512873249176
 20
341.5009027249411
 30
0.0
 40
50.22517
100
AcDbArc
 50
169.6851399999999
 51
190.3148699999999
  0
CIRCLE
  5
248
330
18
100
AcDbEntity
  8
1
  6
Continuous
100
AcDbCircle
 10
201.8261073249176
 20
341.5009027249411
 30
0.0
 40
21.49999999999999
  0
CIRCLE
  5
249
330
18
100
AcDbEntity
  8
1
  6
Continuous
100
AcDbCircle
 10
201.8261073249176
 20
341.5009027249411
 30
0.0
 40
9.5
  0
CIRCLE
  5
24A
330
18
100
AcDbEntity
  8
1
  6
Continuous
100
AcDbCircle
 10
201.8261073249176
 20
341.5009027249411
 30
0.0
 40
23.5
  0
CIRCLE
  5
24B
330
18
100
AcDbEntity
  8
1
  6
Continuous
100
AcDbCircle
 10
201.8261073249176
 20
341.5009027249411
 30
0.0
 40
12.0
  0
ARC
  5
24C
330
18
100
AcDbEntity
  8
1
  6
Continuous
100
AcDbCircle
 10
338.2840973249177
 20
341.5009027249411
 30
0.0
 40
103.46132
100
AcDbArc
 50
168.71589
 51
191.2840400000001
  0
ARC
  5
24D
330
18
100
AcDbEntity
  8
1
  6
Continuous
100
AcDbCircle
 10
65.36809932491769
 20
341.5009027249411
 30
0.0
 40
103.46132
100
AcDbArc
 50
348.7159299999998
 51
11.2840680000001
  0
LINE
  5
24E
330
18
100
AcDbEntity
  8
4
  6
CENTER
 48
0.5
100
AcDbLine
 10
201.8261073249176
 20
373.2686108191567
 30
0.0
 11
201.8261073249176
 21
308.7185673324033
 31
0.0
  0
LINE
  5
24F
330
18
100
AcDbEntity
  8
4
  6
CENTER
 48
0.5
100
AcDbLine
 10
173.8261073249176
 20
371.5009027249411
 30
0.0
 11
173.8261073249176
 21
311.5009107249412
 31
0.0
  0
LINE
  5
250
330
18
100
AcDbEntity
  8
1
  6
Continuous
100
AcDbLine
 10
236.8261073249176
 20
251.5009027249411
 30
0.0
 11
201.8261073249176
 21
251.5009027249411
 31
0.0
  0
LINE
  5
251
330
18
100
AcDbEntity
  8
1
  6
Continuous
100
AcDbLine
 10
236.8261073249176
 20
249.5009027249411
 30
0.0
 11
201.8261073249176
 21
249.5009027249411
 31
0.0
  0
LINE
  5
252
330
18
100
AcDbEntity
  8
1
  6
Continuous
100
AcDbLine
 10
182.2852213249176
 20
188.9692937249411
 30
0.0
 11
216.8185543249176
 21
230.5133644249412
 31
0.0
  0
LINE
  5
253
330
18
100
AcDbEntity
  8
1
  6
Continuous
100
AcDbLine
 10
223.3261073249176
 20
243.3949017249413
 30
0.0
 11
201.8261073249176
 21
243.3949017249413
 31
0.0
  0
LINE
  5
254
330
18
100
AcDbEntity
  8
1
  6
Continuous
100
AcDbLine
 10
224.3261073249176
 20
244.8009017249412
 30
0.0
 11
201.8261073249176
 21
244.8009017249412
 31
0.0
  0
LINE
  5
255
330
18
100
AcDbEntity
  8
1
  6
Continuous
100
AcDbLine
 10
163.0407523249177
 20
198.1633367249413
 30
0.0
 11
170.4804693249176
 21
235.269601424941
 31
0.0
  0
LINE
  5
256
330
18
100
AcDbEntity
  8
1
  6
Continuous
100
AcDbLine
 10
185.3261073249176
 20
239.6845647249411
 30
0.0
 11
185.3261073249176
 21
196.6968947249411
 31
0.0
  0
LINE
  5
257
330
18
100
AcDbEntity
  8
4
  6
CENTER
 48
0.5
100
AcDbLine
 10
201.8261073249176
 20
253.8751397249411
 30
0.0
 11
201.8261073249176
 21
209.2342247249411
 31
0.0
  0
ARC
  5
259
330
18
100
AcDbEntity
  8
1
  6
Continuous
100
AcDbCircle
 10
173.8261073249176
 20
196.0008967249413
 30
0.0
 40
7.5
100
AcDbArc
 50
321.0394400000001
 51
338.9605400000001
  0
ARC
  5
25A
330
18
100
AcDbEntity
  8
1
  6
Continuous
100
AcDbCircle
 10
173.8261073249176
 20
196.0008967249413
 30
0.0
 40
7.5
100
AcDbArc
 50
201.0394399999999
 51
218.9605299999999
  0
CIRCLE
  5
25B
330
18
100
AcDbEntity
  8
1
  6
Continuous
100
AcDbCircle
 10
173.8261073249176
 20
196.0008967249413
 30
0.0
 40
6.3000002
  0
ARC
  5
25C
330
18
100
AcDbEntity
  8
1
  6
Continuous
100
AcDbCircle
 10
173.8261073249176
 20
196.0008967249413
 30
0.0
 40
11.0
100
AcDbArc
 50
168.6626599999998
 51
320.2650799999994
  0
LINE
  5
25D
330
18
100
AcDbEntity
  8
1
  6
Continuous
100
AcDbLine
 10
167.9942663249175
 20
191.2849947249411
 30
0.0
 11
172.6579513249177
 21
188.5924177249411
 31
0.0
  0
LINE
  5
25E
330
18
100
AcDbEntity
  8
1
  6
Continuous
100
AcDbLine
 10
174.9942703249177
 20
188.5924287249411
 30
0.0
 11
179.6579553249176
 21
191.2850057249411
 31
0.0
  0
ARC
  5
25F
330
18
100
AcDbEntity
  8
1
  6
Continuous
100
AcDbCircle
 10
173.8261073249176
 20
196.0008967249413
 30
0.0
 40
7.5
100
AcDbArc
 50
261.0394499999999
 51
278.9605599999999
  0
LINE
  5
260
330
18
100
AcDbEntity
  8
1
  6
Continuous
100
AcDbLine
 10
167.9942593249176
 20
200.7167747249412
 30
0.0
 11
172.6579593249176
 21
203.4093637249411
 31
0.0
  0
LINE
  5
261
330
18
100
AcDbEntity
  8
1
  6
Continuous
100
AcDbLine
 10
166.8261073249176
 20
198.6934777249411
 30
0.0
 11
166.8261073249176
 21
193.3083177249411
 31
0.0
  0
ARC
  5
262
330
18
100
AcDbEntity
  8
1
  6
Continuous
100
AcDbCircle
 10
173.8261073249176
 20
196.0008967249413
 30
0.0
 40
7.5
100
AcDbArc
 50
141.03953
 51
158.96056
  0
LINE
  5
263
330
18
100
AcDbEntity
  8
1
  6
Continuous
100
AcDbLine
 10
174.9942633249176
 20
203.4093617249411
 30
0.0
 11
179.6579553249176
 21
200.7167787249413
 31
0.0
  0
CIRCLE
  5
264
330
18
100
AcDbEntity
  8
1
  6
Continuous
100
AcDbCircle
 10
173.8261073249176
 20
196.0008967249413
 30
0.0
 40
2.299999999999998
  0
LINE
  5
265
330
18
100
AcDbEntity
  8
1
  6
Continuous
100
AcDbLine
 10
180.8261073249176
 20
198.6934777249411
 30
0.0
 11
180.8261073249176
 21
193.3083177249411
 31
0.0
  0
ARC
  5
266
330
18
100
AcDbEntity
  8
1
  6
Continuous
100
AcDbCircle
 10
173.8261073249176
 20
196.0008967249413
 30
0.0
 40
7.5
100
AcDbArc
 50
21.03945999999992
 51
38.96051599999968
  0
ARC
  5
267
330
18
100
AcDbEntity
  8
1
  6
Continuous
100
AcDbCircle
 10
173.8261073249176
 20
196.0008967249413
 30
0.0
 40
7.5
100
AcDbArc
 50
81.03948399999987
 51
98.96051400000031
  0
LINE
  5
268
330
18
100
AcDbEntity
  8
1
  6
Continuous
100
AcDbLine
 10
166.8261073249176
 20
251.5009027249411
 30
0.0
 11
201.8261073249176
 21
251.5009027249411
 31
0.0
  0
LINE
  5
269
330
18
100
AcDbEntity
  8
1
  6
Continuous
100
AcDbLine
 10
166.8261073249176
 20
249.5009027249411
 30
0.0
 11
201.8261073249176
 21
249.5009027249411
 31
0.0
  0
LINE
  5
26A
330
18
100
AcDbEntity
  8
1
  6
Continuous
100
AcDbLine
 10
179.3261073249176
 20
244.8009017249412
 30
0.0
 11
201.8261073249176
 21
244.8009017249412
 31
0.0
  0
LINE
  5
26B
330
18
100
AcDbEntity
  8
1
  6
Continuous
100
AcDbLine
 10
180.3261073249176
 20
243.3949017249413
 30
0.0
 11
201.8261073249176
 21
243.3949017249413
 31
0.0
  0
LINE
  5
26C
330
18
100
AcDbEntity
  8
1
  6
Continuous
100
AcDbLine
 10
167.6261103249174
 20
238.2285467249411
 30
0.0
 11
181.2372173249176
 21
240.6285517249413
 31
0.0
  0
ARC
  5
26D
330
18
100
AcDbEntity
  8
1
  6
Continuous
100
AcDbCircle
 10
168.0292553249176
 20
235.7610651249411
 30
0.0
 40
2.5
100
AcDbArc
 50
348.66444
 51
100.0000000000001
  0
LINE
  5
26E
330
18
100
AcDbEntity
  8
1
  6
Continuous
100
AcDbLine
 10
167.9734083249176
 20
236.2589298249412
 30
0.0
 11
169.3360023249176
 21
236.499192824941
 31
0.0
  0
LINE
  5
26F
330
18
100
AcDbEntity
  8
1
  6
Continuous
100
AcDbLine
 10
167.6261103249174
 20
238.2285467249411
 30
0.0
 11
167.9734083249176
 21
236.2589298249412
 31
0.0
  0
LINE
  5
270
330
18
100
AcDbEntity
  8
1
  6
Continuous
100
AcDbLine
 10
166.8261073249176
 20
249.5009027249411
 30
0.0
 11
166.8261073249176
 21
251.5009027249411
 31
0.0
  0
ARC
  5
271
330
18
100
AcDbEntity
  8
1
  6
Continuous
100
AcDbCircle
 10
179.3261073249176
 20
247.8009017249411
 30
0.0
 40
3.0
100
AcDbArc
 50
213.0681
 51
269.9999599999999
  0
ARC
  5
272
330
18
100
AcDbEntity
  8
1
  6
Continuous
100
AcDbCircle
 10
181.4790153249176
 20
248.5009027249411
 30
0.0
 40
3.0
100
AcDbArc
 50
194.8123899999999
 51
270.0
  0
ARC
  5
273
330
18
100
AcDbEntity
  8
1
  6
Continuous
100
AcDbCircle
 10
169.5096473249176
 20
235.5143857249411
 30
0.0
 40
1.0
100
AcDbArc
 50
348.66444
 51
100.0000000000001
  0
ARC
  5
274
330
18
100
AcDbEntity
  8
1
  6
Continuous
100
AcDbCircle
 10
176.9189223249176
 20
240.3748337249411
 30
0.0
 40
0.5
100
AcDbArc
 50
280.0
 51
349.1141499999995
  0
ARC
  5
275
330
18
100
AcDbEntity
  8
1
  6
Continuous
100
AcDbCircle
 10
181.3379483249175
 20
239.5249947249411
 30
0.0
 40
4.0
100
AcDbArc
 50
104.65275
 51
169.11415
  0
ARC
  5
276
330
18
100
AcDbEntity
  8
1
  6
Continuous
100
AcDbCircle
 10
184.4261053249176
 20
245.272901724941
 30
0.0
 40
2.778000099999998
100
AcDbArc
 50
189.7823799999999
 51
222.5338800000002
  0
ARC
  5
277
330
18
100
AcDbEntity
  8
1
  6
Continuous
100
AcDbCircle
 10
185.9261053249176
 20
245.272901724941
 30
0.0
 40
2.778000099999998
100
AcDbArc
 50
189.7823799999999
 51
222.5338800000002
  0
LINE
  5
278
330
18
100
AcDbEntity
  8
1
  6
Continuous
100
AcDbLine
 10
176.8120383249176
 20
246.1639977249411
 30
0.0
 11
175.0831453249176
 21
248.8193537249411
 31
0.0
  0
LINE
  5
279
330
18
100
AcDbEntity
  8
4
  6
CENTER
100
AcDbLine
 10
174.3261073249176
 20
253.8751397249411
 30
0.0
 11
174.3261073249176
 21
246.893062724941
 31
0.0
  0
ARC
  5
27A
330
18
100
AcDbEntity
  8
1
  6
Continuous
100
AcDbCircle
 10
173.8261073249176
 20
248.0009027249411
 30
0.0
 40
1.5
100
AcDbArc
 50
33.06801899999995
 51
90.00000300000015
  0
LINE
  5
27B
330
18
100
AcDbEntity
  8
1
  6
Continuous
100
AcDbLine
 10
178.3082853249176
 20
248.7565557249411
 30
0.0
 11
178.5787123249176
 21
247.7339367249411
 31
0.0
  0
ARC
  5
27C
330
18
100
AcDbEntity
  8
1
  6
Continuous
100
AcDbCircle
 10
177.3415183249176
 20
248.5009027249411
 30
0.0
 40
1.0
100
AcDbArc
 50
14.812389
 51
90.00000300000015
  0
ARC
  5
27D
330
18
100
AcDbEntity
  8
1
  6
Continuous
100
AcDbCircle
 10
181.4790153249176
 20
246.0009027249411
 30
0.0
 40
0.5
100
AcDbArc
 50
270.0
 51
352.3953099999997
  0
LINE
  5
27E
330
18
100
AcDbEntity
  8
1
  6
Continuous
100
AcDbLine
 10
181.9746213249175
 20
245.9347327249411
 30
0.0
 11
182.3349043249177
 21
248.6332407249411
 31
0.0
  0
ARC
  5
27F
330
18
100
AcDbEntity
  8
1
  6
Continuous
100
AcDbCircle
 10
183.3261073249176
 20
248.5009027249411
 30
0.0
 40
1.0
100
AcDbArc
 50
90.00000300000015
 51
172.3953100000001
  0
ARC
  5
280
330
18
100
AcDbEntity
  8
1
  6
Continuous
100
AcDbCircle
 10
201.8261073249176
 20
245.272901724941
 30
0.0
 40
2.778000099999998
100
AcDbArc
 50
189.7823799999999
 51
222.5338800000002
  0
ARC
  5
281
330
18
100
AcDbEntity
  8
1
  6
Continuous
100
AcDbCircle
 10
188.4261053249176
 20
245.272901724941
 30
0.0
 40
2.778000099999998
100
AcDbArc
 50
189.7823799999999
 51
222.5338800000002
  0
ARC
  5
282
330
18
100
AcDbEntity
  8
1
  6
Continuous
100
AcDbCircle
 10
191.9261053249176
 20
245.272901724941
 30
0.0
 40
2.778000099999998
100
AcDbArc
 50
189.7823799999999
 51
222.5338800000002
  0
ARC
  5
283
330
18
100
AcDbEntity
  8
1
  6
Continuous
100
AcDbCircle
 10
191.9261053249176
 20
245.272901724941
 30
0.0
 40
2.778000099999998
100
AcDbArc
 50
317.4661199999996
 51
324.0896000000003
  0
ARC
  5
284
330
18
100
AcDbEntity
  8
1
  6
Continuous
100
AcDbCircle
 10
196.4261053249176
 20
245.272901724941
 30
0.0
 40
2.778000099999998
100
AcDbArc
 50
189.7823799999999
 51
222.5338800000002
  0
ARC
  5
285
330
18
100
AcDbEntity
  8
1
  6
Continuous
100
AcDbCircle
 10
196.4261053249176
 20
245.272901724941
 30
0.0
 40
2.778000099999998
100
AcDbArc
 50
317.4661199999996
 51
346.3905399999999
  0
ARC
  5
286
330
18
100
AcDbEntity
  8
1
  6
Continuous
100
AcDbCircle
 10
207.2261093249176
 20
245.272901724941
 30
0.0
 40
2.778000099999998
100
AcDbArc
 50
193.60946
 51
222.5338800000002
  0
ARC
  5
287
330
18
100
AcDbEntity
  8
1
  6
Continuous
100
AcDbCircle
 10
201.8261073249176
 20
245.272901724941
 30
0.0
 40
2.778000099999998
100
AcDbArc
 50
317.4661199999996
 51
350.21762
  0
ARC
  5
288
330
18
100
AcDbEntity
  8
1
  6
Continuous
100
AcDbCircle
 10
211.7261093249175
 20
245.272901724941
 30
0.0
 40
2.778000099999998
100
AcDbArc
 50
215.9104000000004
 51
222.5338800000002
  0
ARC
  5
289
330
18
100
AcDbEntity
  8
1
  6
Continuous
100
AcDbCircle
 10
207.2261093249176
 20
245.272901724941
 30
0.0
 40
2.778000099999998
100
AcDbArc
 50
317.4661199999996
 51
350.21762
  0
ARC
  5
28A
330
18
100
AcDbEntity
  8
1
  6
Continuous
100
AcDbCircle
 10
211.7261093249175
 20
245.272901724941
 30
0.0
 40
2.778000099999998
100
AcDbArc
 50
317.4661199999996
 51
350.21762
  0
LINE
  5
28B
330
18
100
AcDbEntity
  8
1
  6
Continuous
100
AcDbLine
 10
226.9261073249178
 20
233.1449032249411
 30
0.0
 11
226.3162073249175
 21
240.638268724941
 31
0.0
  0
LINE
  5
28C
330
18
100
AcDbEntity
  8
1
  6
Continuous
100
AcDbLine
 10
220.9458873249177
 20
232.6581684249411
 30
0.0
 11
226.9261073249178
 21
233.1449032249411
 31
0.0
  0
ARC
  5
28D
330
18
100
AcDbEntity
  8
1
  6
Continuous
100
AcDbCircle
 10
221.4326173249176
 20
226.6779428249411
 30
0.0
 40
6.0
100
AcDbArc
 50
94.65309600000015
 51
140.2691499999999
  0
ARC
  5
28E
330
18
100
AcDbEntity
  8
1
  6
Continuous
100
AcDbCircle
 10
224.3261073249176
 20
247.8009017249411
 30
0.0
 40
3.0
100
AcDbArc
 50
269.9999799999996
 51
326.9318999999998
  0
ARC
  5
28F
330
18
100
AcDbEntity
  8
1
  6
Continuous
100
AcDbCircle
 10
222.1731973249176
 20
248.5009027249411
 30
0.0
 40
3.0
100
AcDbArc
 50
270.0
 51
345.18761
  0
ARC
  5
290
330
18
100
AcDbEntity
  8
1
  6
Continuous
100
AcDbCircle
 10
215.2261093249176
 20
245.272901724941
 30
0.0
 40
2.778000099999998
100
AcDbArc
 50
317.4661199999996
 51
350.21762
  0
ARC
  5
291
330
18
100
AcDbEntity
  8
1
  6
Continuous
100
AcDbCircle
 10
217.7261073249176
 20
245.272901724941
 30
0.0
 40
2.778000099999998
100
AcDbArc
 50
317.4661199999996
 51
350.21762
  0
ARC
  5
292
330
18
100
AcDbEntity
  8
1
  6
Continuous
100
AcDbCircle
 10
219.2261073249175
 20
245.272901724941
 30
0.0
 40
2.778000099999998
100
AcDbArc
 50
317.4661199999996
 51
350.21762
  0
ARC
  5
293
330
18
100
AcDbEntity
  8
1
  6
Continuous
100
AcDbCircle
 10
223.3261073249176
 20
240.3949017249412
 30
0.0
 40
3.0
100
AcDbArc
 50
4.653094499999848
 51
90.00000300000015
  0
ARC
  5
294
330
18
100
AcDbEntity
  8
1
  6
Continuous
100
AcDbCircle
 10
222.1731973249176
 20
246.0009027249411
 30
0.0
 40
0.5
100
AcDbArc
 50
187.6046899999998
 51
270.0
  0
LINE
  5
295
330
18
100
AcDbEntity
  8
1
  6
Continuous
100
AcDbLine
 10
221.6775973249176
 20
245.9347327249411
 30
0.0
 11
221.3173073249176
 21
248.6332407249411
 31
0.0
  0
ARC
  5
296
330
18
100
AcDbEntity
  8
1
  6
Continuous
100
AcDbCircle
 10
220.3261073249176
 20
248.5009027249411
 30
0.0
 40
1.0
100
AcDbArc
 50
7.604693300000017
 51
89.99999600000005
  0
LINE
  5
297
330
18
100
AcDbEntity
  8
4
  6
CENTER
100
AcDbLine
 10
229.3260973249176
 20
253.8751397249411
 30
0.0
 11
229.3260973249176
 21
246.893062724941
 31
0.0
  0
LINE
  5
298
330
18
100
AcDbEntity
  8
1
  6
Continuous
100
AcDbLine
 10
228.5690773249176
 20
248.8193537249411
 30
0.0
 11
226.8401773249176
 21
246.1639977249411
 31
0.0
  0
LINE
  5
299
330
18
100
AcDbEntity
  8
1
  6
Continuous
100
AcDbLine
 10
225.3439173249176
 20
248.756557724941
 30
0.0
 11
225.0734973249176
 21
247.7339387249411
 31
0.0
  0
ARC
  5
29A
330
18
100
AcDbEntity
  8
1
  6
Continuous
100
AcDbCircle
 10
226.3106973249176
 20
248.5009027249411
 30
0.0
 40
1.0
100
AcDbArc
 50
89.99999600000005
 51
165.18761
  0
ARC
  5
29B
330
18
100
AcDbEntity
  8
1
  6
Continuous
100
AcDbCircle
 10
229.8261073249176
 20
248.0009027249411
 30
0.0
 40
1.5
100
AcDbArc
 50
89.99994800000029
 51
146.9319899999999
  0
LINE
  5
29C
330
18
100
AcDbEntity
  8
1
  6
Continuous
100
AcDbLine
 10
236.8261073249176
 20
249.5009027249411
 30
0.0
 11
236.8261073249176
 21
251.5009027249411
 31
0.0
  0
LINE
  5
29D
330
18
100
AcDbEntity
  8
1
  6
Continuous
100
AcDbLine
 10
175.8260993249176
 20
312.5009027249411
 30
0.0
 11
227.8260973249178
 21
312.5009027249411
 31
0.0
  0
CIRCLE
  5
29E
330
18
100
AcDbEntity
  8
1
  6
Continuous
100
AcDbCircle
 10
174.3261073249176
 20
320.5009027249411
 30
0.0
 40
4.400000099999997
  0
ARC
  5
29F
330
18
100
AcDbEntity
  8
1
  6
Continuous
100
AcDbCircle
 10
175.8261073249176
 20
321.5009027249411
 30
0.0
 40
9.0
100
AcDbArc
 50
181.5575799999999
 51
270.0000200000004
  0
LINE
  5
2A0
330
18
100
AcDbEntity
  8
4
  6
CENTER
100
AcDbLine
 10
174.3261073249176
 20
311.7009147249413
 30
0.0
 11
174.3261073249176
 21
329.3009027249411
 31
0.0
  0
LINE
  5
2A1
330
18
100
AcDbEntity
  8
4
  6
CENTER
100
AcDbLine
 10
183.1260953249175
 20
320.5009027249411
 30
0.0
 11
165.5261003249176
 21
320.5009027249411
 31
0.0
  0
LINE
  5
2A5
330
18
100
AcDbEntity
  8
1
  6
Continuous
100
AcDbLine
 10
162.8261073249176
 20
325.5009027249411
 30
0.0
 11
162.8261073249176
 21
323.5009027249411
 31
0.0
  0
LINE
  5
2A6
330
18
100
AcDbEntity
  8
1
  6
Continuous
100
AcDbLine
 10
167.2515833249175
 20
323.5009027249411
 30
0.0
 11
162.8261073249176
 21
323.5009027249411
 31
0.0
  0
LINE
  5
2A7
330
18
100
AcDbEntity
  8
1
  6
Continuous
100
AcDbLine
 10
167.5847553249176
 20
325.5009027249411
 30
0.0
 11
162.8261073249176
 21
325.5009027249411
 31
0.0
  0
CIRCLE
  5
2A8
330
18
100
AcDbEntity
  8
1
  6
Continuous
100
AcDbCircle
 10
229.3260973249176
 20
320.5009027249411
 30
0.0
 40
4.400000099999997
  0
ARC
  5
2A9
330
18
100
AcDbEntity
  8
1
  6
Continuous
100
AcDbCircle
 10
227.8260973249178
 20
321.5009027249411
 30
0.0
 40
9.0
100
AcDbArc
 50
270.0000200000004
 51
358.44251
  0
LINE
  5
2AA
330
18
100
AcDbEntity
  8
4
  6
CENTER
100
AcDbLine
 10
229.3260973249176
 20
311.7009147249413
 30
0.0
 11
229.3260973249176
 21
329.3009027249411
 31
0.0
  0
LINE
  5
2AB
330
18
100
AcDbEntity
  8
4
  6
CENTER
100
AcDbLine
 10
220.5261073249177
 20
320.5009027249411
 30
0.0
 11
238.1260973249176
 21
320.5009027249411
 31
0.0
  0
LINE
  5
2AC
330
18
100
AcDbEntity
  8
1
  6
Continuous
100
AcDbLine
 10
175.8260993249176
 20
370.5009027249411
 30
0.0
 11
227.8260973249178
 21
370.5009027249411
 31
0.0
  0
CIRCLE
  5
2AD
330
18
100
AcDbEntity
  8
1
  6
Continuous
100
AcDbCircle
 10
174.3261073249176
 20
362.5009027249411
 30
0.0
 40
4.400000099999997
  0
ARC
  5
2AE
330
18
100
AcDbEntity
  8
1
  6
Continuous
100
AcDbCircle
 10
175.8261073249176
 20
361.5009027249413
 30
0.0
 40
9.0
100
AcDbArc
 50
89.99998199999998
 51
178.44242
  0
LINE
  5
2AF
330
18
100
AcDbEntity
  8
4
  6
CENTER
100
AcDbLine
 10
174.3261073249176
 20
371.3009027249412
 30
0.0
 11
174.3261073249176
 21
353.7009127249413
 31
0.0
  0
LINE
  5
2B0
330
18
100
AcDbEntity
  8
4
  6
CENTER
100
AcDbLine
 10
183.1260953249175
 20
362.5009027249411
 30
0.0
 11
165.5261003249176
 21
362.5009027249411
 31
0.0
  0
LINE
  5
2B4
330
18
100
AcDbEntity
  8
1
  6
Continuous
100
AcDbLine
 10
167.5847553249176
 20
357.5009027249413
 30
0.0
 11
162.8261073249176
 21
357.5009027249413
 31
0.0
  0
LINE
  5
2B5
330
18
100
AcDbEntity
  8
1
  6
Continuous
100
AcDbLine
 10
167.2515833249175
 20
359.5009027249413
 30
0.0
 11
162.8261073249176
 21
359.5009027249413
 31
0.0
  0
LINE
  5
2B6
330
18
100
AcDbEntity
  8
1
  6
Continuous
100
AcDbLine
 10
162.8261073249176
 20
359.5009027249413
 30
0.0
 11
162.8261073249176
 21
357.5009027249413
 31
0.0
  0
ARC
  5
2B7
330
18
100
AcDbEntity
  8
1
  6
Continuous
100
AcDbCircle
 10
227.8260973249178
 20
361.5009027249413
 30
0.0
 40
9.0
100
AcDbArc
 50
1.557487299999831
 51
89.99998199999998
  0
CIRCLE
  5
2B8
330
18
100
AcDbEntity
  8
1
  6
Continuous
100
AcDbCircle
 10
229.3260973249176
 20
362.5009027249411
 30
0.0
 40
4.400000099999997
  0
LINE
  5
2B9
330
18
100
AcDbEntity
  8
4
  6
CENTER
100
AcDbLine
 10
229.3260973249176
 20
371.3009027249412
 30
0.0
 11
229.3260973249176
 21
353.7009127249413
 31
0.0
  0
LINE
  5
2BA
330
18
100
AcDbEntity
  8
4
  6
CENTER
100
AcDbLine
 10
220.5261073249177
 20
362.5009027249411
 30
0.0
 11
238.1260973249176
 21
362.5009027249411
 31
0.0
  0
ARC
  5
42B
330
18
100
AcDbEntity
  8
1
  6
Continuous
100
AcDbCircle
 10
67.32615332491764
 20
202.0008967249411
 30
0.0
 40
1.5
100
AcDbArc
 50
0.0000399999999616
 51
90.00001800000005
  0
ARC
  5
42C
330
18
100
AcDbEntity
  8
1
  6
Continuous
100
AcDbCircle
 10
67.32615332491764
 20
201.0008967249413
 30
0.0
 40
1.5
100
AcDbArc
 50
270.0000299999997
 51
0.0000199999999843
  0
ARC
  5
42D
330
18
100
AcDbEntity
  8
1
  6
Continuous
100
AcDbCircle
 10
67.32615332491764
 20
197.5008967249413
 30
0.0
 40
1.5
100
AcDbArc
 50
0.0000399999999616
 51
90.00001800000005
  0
ARC
  5
42E
330
18
100
AcDbEntity
  8
1
  6
Continuous
100
AcDbCircle
 10
67.32615332491764
 20
194.5008987249411
 30
0.0
 40
1.5
100
AcDbArc
 50
270.0000299999997
 51
0.0000199999999843
  0
ARC
  5
42F
330
18
100
AcDbEntity
  8
1
  6
Continuous
100
AcDbCircle
 10
67.32615332491764
 20
191.0008987249413
 30
0.0
 40
1.5
100
AcDbArc
 50
0.0000399999999616
 51
90.00001800000005
  0
ARC
  5
430
330
18
100
AcDbEntity
  8
1
  6
Continuous
100
AcDbCircle
 10
67.32615332491764
 20
190.0008987249411
 30
0.0
 40
1.5
100
AcDbArc
 50
270.0000299999997
 51
0.0000199999999843
  0
LINE
  5
431
330
18
100
AcDbEntity
  8
1
  6
Continuous
100
AcDbLine
 10
68.82606132491776
 20
202.0175097179221
 30
0.0
 11
68.82606132491776
 21
189.9842857319606
 31
0.0
  0
LINE
  5
450
330
18
100
AcDbEntity
  8
4
  6
CENTER
 48
0.5
100
AcDbLine
 10
346.8261073249176
 20
253.893139724941
 30
0.0
 11
346.8261073249176
 21
153.9701851020341
 31
0.0
  0
LINE
  5
451
330
18
100
AcDbEntity
  8
1
  6
Continuous
100
AcDbLine
 10
322.3267403249177
 20
240.4565197249411
 30
0.0
 11
321.7918283249176
 21
214.4189827249411
 31
0.0
  0
LINE
  5
452
330
18
100
AcDbEntity
  8
1
  6
Continuous
100
AcDbLine
 10
328.8261073249178
 20
192.4590478991196
 30
0.0
 11
328.8261073249178
 21
185.0008987249411
 31
0.0
  0
LINE
  5
453
330
18
100
AcDbEntity
  8
1
  6
Continuous
100
AcDbLine
 10
330.8275233053306
 20
232.8353824626149
 30
0.0
 11
330.8261073249178
 21
185.0008987249411
 31
0.0
  0
LINE
  5
455
330
18
100
AcDbEntity
  8
1
  6
Continuous
100
AcDbLine
 10
371.8603873249176
 20
214.4192047249411
 30
0.0
 11
371.3254773249177
 21
240.4565197249411
 31
0.0
  0
LINE
  5
456
330
18
100
AcDbEntity
  8
1
  6
Continuous
100
AcDbLine
 10
364.8261073249175
 20
192.4590411272859
 30
0.0
 11
364.8261073249177
 21
185.0008987249411
 31
0.0
  0
LINE
  5
457
330
18
100
AcDbEntity
  8
1
  6
Continuous
100
AcDbLine
 10
362.8261073249177
 20
232.834861241147
 30
0.0
 11
362.8261073249177
 21
185.0008987249411
 31
0.0
  0
LINE
  5
45A
330
18
100
AcDbEntity
  8
4
  6
CENTER
 48
0.5
100
AcDbLine
 10
374.3430773249176
 20
196.0008967249413
 30
0.0
 11
321.4227263249176
 21
196.0008967249413
 31
0.0
  0
LINE
  5
46F
330
18
100
AcDbEntity
  8
1
  6
Continuous
100
AcDbLine
 10
364.8261073249177
 20
185.0008987249411
 30
0.0
 11
362.8261073249177
 21
185.0008987249411
 31
0.0
  0
LINE
  5
471
330
18
100
AcDbEntity
  8
2
  6
Continuous
100
AcDbLine
 10
371.8260873249175
 20
199.3758967249411
 30
0.0
 11
369.8260873249175
 21
199.3758967249411
 31
0.0
  0
LINE
  5
472
330
18
100
AcDbEntity
  8
1
  6
Continuous
100
AcDbLine
 10
371.2010873249177
 20
200.0008967249413
 30
0.0
 11
369.8260873249175
 21
200.0008967249413
 31
0.0
  0
LINE
  5
473
330
18
100
AcDbEntity
  8
2
  6
Continuous
100
AcDbLine
 10
371.8260873249175
 20
192.6258987249411
 30
0.0
 11
369.8260873249175
 21
192.6258987249411
 31
0.0
  0
LINE
  5
474
330
18
100
AcDbEntity
  8
1
  6
Continuous
100
AcDbLine
 10
371.2010873249177
 20
192.0008987249413
 30
0.0
 11
369.8260873249175
 21
192.0008987249413
 31
0.0
  0
LINE
  5
475
330
18
100
AcDbEntity
  8
1
  6
Continuous
100
AcDbLine
 10
371.8260873249175
 20
199.3758947249411
 30
0.0
 11
371.2010873249177
 21
200.0008967249413
 31
0.0
  0
LINE
  5
476
330
18
100
AcDbEntity
  8
1
  6
Continuous
100
AcDbLine
 10
371.2010873249177
 20
192.0008987249413
 30
0.0
 11
371.8260873249175
 21
192.6258987249411
 31
0.0
  0
LINE
  5
477
330
18
100
AcDbEntity
  8
1
  6
Continuous
100
AcDbLine
 10
371.8260873249175
 20
192.6258987249411
 30
0.0
 11
371.8260873249175
 21
199.3758967249411
 31
0.0
  0
LINE
  5
478
330
18
100
AcDbEntity
  8
1
  6
Continuous
100
AcDbLine
 10
371.2010873249177
 20
192.0008987249413
 30
0.0
 11
371.2010873249177
 21
200.0008967249413
 31
0.0
  0
ARC
  5
47D
330
18
100
AcDbEntity
  8
1
  6
Continuous
100
AcDbCircle
 10
335.8650023249178
 20
213.8425487249411
 30
0.0
 40
36.0
100
AcDbArc
 50
323.5595970069068
 51
27.47530587442639
  0
LINE
  5
48B
330
18
100
AcDbEntity
  8
1
  6
Continuous
100
AcDbLine
 10
324.8261533249177
 20
199.3660760886978
 30
0.0
 11
324.8261533249177
 21
189.9842857319606
 31
0.0
  0
ARC
  5
48E
330
18
100
AcDbEntity
  8
1
  6
Continuous
100
AcDbCircle
 10
357.7872173249176
 20
213.8425487249411
 30
0.0
 40
36.0
100
AcDbArc
 50
152.5246941255735
 51
216.4403895959018
  0
ARC
  5
48F
330
18
100
AcDbEntity
  8
1
  6
Continuous
100
AcDbCircle
 10
326.3260613249177
 20
190.0008987249411
 30
0.0
 40
1.5
100
AcDbArc
 50
179.9999799999999
 51
269.9999700000002
  0
ARC
  5
490
330
18
100
AcDbEntity
  8
1
  6
Continuous
100
AcDbCircle
 10
327.3261533249178
 20
190.0008987249411
 30
0.0
 40
1.5
100
AcDbArc
 50
270.0000299999997
 51
0.0000199999999843
  0
LINE
  5
491
330
18
100
AcDbEntity
  8
1
  6
Continuous
100
AcDbLine
 10
326.3260613249177
 20
188.5008987249411
 30
0.0
 11
327.3261533249178
 21
188.5008987249411
 31
0.0
  0
LINE
  5
492
330
18
100
AcDbEntity
  8
1
  6
Continuous
100
AcDbLine
 10
330.8261073249178
 20
185.0008987249411
 30
0.0
 11
328.8261073249178
 21
185.0008987249411
 31
0.0
  0
LINE
  5
495
330
18
100
AcDbEntity
  8
1
  6
Continuous
100
AcDbLine
 10
326.3260613249177
 20
193.0008987249413
 30
0.0
 11
327.3261533249178
 21
193.0008987249413
 31
0.0
  0
LINE
  5
496
330
18
100
AcDbEntity
  8
1
  6
Continuous
100
AcDbLine
 10
326.3260613249177
 20
192.5008987249411
 30
0.0
 11
327.3261533249178
 21
192.5008987249411
 31
0.0
  0
ARC
  5
497
330
18
100
AcDbEntity
  8
1
  6
Continuous
100
AcDbCircle
 10
326.3260613249177
 20
191.0008987249413
 30
0.0
 40
1.5
100
AcDbArc
 50
89.99998199999998
 51
179.99996
  0
ARC
  5
498
330
18
100
AcDbEntity
  8
1
  6
Continuous
100
AcDbCircle
 10
326.3260613249177
 20
194.5008987249411
 30
0.0
 40
1.5
100
AcDbArc
 50
179.9999799999999
 51
269.9999700000002
  0
ARC
  5
499
330
18
100
AcDbEntity
  8
1
  6
Continuous
100
AcDbCircle
 10
326.3260613249177
 20
197.5008967249413
 30
0.0
 40
1.5
100
AcDbArc
 50
137.7468249141104
 51
179.99996
  0
ARC
  5
49A
330
18
100
AcDbEntity
  8
1
  6
Continuous
100
AcDbCircle
 10
327.3261533249178
 20
194.5008987249411
 30
0.0
 40
1.5
100
AcDbArc
 50
270.0000299999997
 51
306.7721594346644
  0
ARC
  5
49C
330
18
100
AcDbEntity
  8
1
  6
Continuous
100
AcDbCircle
 10
327.3261533249178
 20
191.0008987249413
 30
0.0
 40
1.5
100
AcDbArc
 50
0.0000399999999616
 51
90.00001800000005
  0
LINE
  5
4A5
330
18
100
AcDbEntity
  8
1
  6
Continuous
100
AcDbLine
 10
324.3261073249176
 20
244.8009017249412
 30
0.0
 11
346.8261073249176
 21
244.8009017249412
 31
0.0
  0
LINE
  5
4A6
330
18
100
AcDbEntity
  8
1
  6
Continuous
100
AcDbLine
 10
325.3261073249177
 20
243.3949017249413
 30
0.0
 11
346.8261073249176
 21
243.3949017249413
 31
0.0
  0
LINE
  5
4A8
330
18
100
AcDbEntity
  8
1
  6
Continuous
100
AcDbLine
 10
317.8261073249178
 20
249.5009027249411
 30
0.0
 11
346.8261073249176
 21
249.5009027249411
 31
0.0
  0
LINE
  5
4A9
330
18
100
AcDbEntity
  8
1
  6
Continuous
100
AcDbLine
 10
317.8261073249178
 20
251.5009027249411
 30
0.0
 11
346.8261073249176
 21
251.5009027249411
 31
0.0
  0
ARC
  5
4AA
330
18
100
AcDbEntity
  8
1
  6
Continuous
100
AcDbCircle
 10
360.2261073249176
 20
245.272901724941
 30
0.0
 40
2.778000099999998
100
AcDbArc
 50
317.4661199999998
 51
350.21762
  0
LINE
  5
4AE
330
18
100
AcDbEntity
  8
1
  6
Continuous
100
AcDbLine
 10
369.3261073249177
 20
244.8009017249412
 30
0.0
 11
346.8261073249176
 21
244.8009017249412
 31
0.0
  0
LINE
  5
4AF
330
18
100
AcDbEntity
  8
1
  6
Continuous
100
AcDbLine
 10
368.3261073249177
 20
243.3949017249413
 30
0.0
 11
346.8261073249176
 21
243.3949017249413
 31
0.0
  0
LINE
  5
4B1
330
18
100
AcDbEntity
  8
1
  6
Continuous
100
AcDbLine
 10
375.8261073249177
 20
251.5009027249411
 30
0.0
 11
346.8261073249176
 21
251.5009027249411
 31
0.0
  0
LINE
  5
4B2
330
18
100
AcDbEntity
  8
1
  6
Continuous
100
AcDbLine
 10
375.8261073249177
 20
249.5009027249411
 30
0.0
 11
346.8261073249176
 21
249.5009027249411
 31
0.0
  0
ARC
  5
4B3
330
18
100
AcDbEntity
  8
1
  6
Continuous
100
AcDbCircle
 10
368.3261073249177
 20
240.3949017249412
 30
0.0
 40
3.0
100
AcDbArc
 50
1.176900000000194
 51
90.00000399999995
  0
LINE
  5
4B4
330
18
100
AcDbEntity
  8
4
  6
CENTER
100
AcDbLine
 10
367.8261073249176
 20
253.8751397249411
 30
0.0
 11
367.8261073249176
 21
247.0499287249411
 31
0.0
  0
LINE
  5
4B5
330
18
100
AcDbEntity
  8
1
  6
Continuous
100
AcDbLine
 10
370.3439173249177
 20
248.756557724941
 30
0.0
 11
370.0734973249176
 21
247.7339407249411
 31
0.0
  0
ARC
  5
4B6
330
18
100
AcDbEntity
  8
1
  6
Continuous
100
AcDbCircle
 10
371.3106973249176
 20
248.5009027249411
 30
0.0
 40
1.0
100
AcDbArc
 50
89.99999699999987
 51
165.187611
  0
ARC
  5
4B7
330
18
100
AcDbEntity
  8
1
  6
Continuous
100
AcDbCircle
 10
367.1731973249176
 20
248.5009027249411
 30
0.0
 40
3.0
100
AcDbArc
 50
270.0
 51
345.18761
  0
ARC
  5
4B8
330
18
100
AcDbEntity
  8
1
  6
Continuous
100
AcDbCircle
 10
369.3261073249177
 20
247.8009017249411
 30
0.0
 40
3.0
100
AcDbArc
 50
270.0000399999999
 51
326.9318999999998
  0
ARC
  5
4B9
330
18
100
AcDbEntity
  8
1
  6
Continuous
100
AcDbCircle
 10
374.8261073249177
 20
248.0009027249411
 30
0.0
 40
1.5
100
AcDbArc
 50
89.99999699999987
 51
146.931981
  0
LINE
  5
4BA
330
18
100
AcDbEntity
  8
1
  6
Continuous
100
AcDbLine
 10
371.8401773249177
 20
246.1639967249411
 30
0.0
 11
373.5690773249176
 21
248.8193517249412
 31
0.0
  0
LINE
  5
4BB
330
18
100
AcDbEntity
  8
1
  6
Continuous
100
AcDbLine
 10
375.8261073249177
 20
251.5009027249411
 30
0.0
 11
375.8261073249177
 21
249.5009027249411
 31
0.0
  0
ARC
  5
4BC
330
18
100
AcDbEntity
  8
1
  6
Continuous
100
AcDbCircle
 10
365.3261073249177
 20
248.5009027249411
 30
0.0
 40
1.0
100
AcDbArc
 50
7.604689999999886
 51
89.99999699999987
  0
LINE
  5
4BD
330
18
100
AcDbEntity
  8
1
  6
Continuous
100
AcDbLine
 10
366.6775973249176
 20
245.9347327249411
 30
0.0
 11
366.3173073249176
 21
248.6332407249411
 31
0.0
  0
ARC
  5
4BE
330
18
100
AcDbEntity
  8
1
  6
Continuous
100
AcDbCircle
 10
367.1731973249176
 20
246.0009027249411
 30
0.0
 40
0.5
100
AcDbArc
 50
187.6046900000002
 51
270.0
  0
ARC
  5
4BF
330
18
100
AcDbEntity
  8
1
  6
Continuous
100
AcDbCircle
 10
362.7261073249176
 20
245.272901724941
 30
0.0
 40
2.778000099999998
100
AcDbArc
 50
317.4661199999998
 51
350.21762
  0
ARC
  5
4C0
330
18
100
AcDbEntity
  8
1
  6
Continuous
100
AcDbCircle
 10
364.2261073249176
 20
245.272901724941
 30
0.0
 40
2.778000099999998
100
AcDbArc
 50
317.4661199999998
 51
350.21762
  0
ARC
  5
4C9
330
18
100
AcDbEntity
  8
1
  6
Continuous
100
AcDbCircle
 10
352.2261093249176
 20
245.272901724941
 30
0.0
 40
2.778000099999998
100
AcDbArc
 50
317.4661199999998
 51
350.21762
  0
ARC
  5
4CA
330
18
100
AcDbEntity
  8
1
  6
Continuous
100
AcDbCircle
 10
356.7261093249176
 20
245.272901724941
 30
0.0
 40
2.778000099999998
100
AcDbArc
 50
317.4661199999998
 51
350.21762
  0
ARC
  5
4CB
330
18
100
AcDbEntity
  8
1
  6
Continuous
100
AcDbCircle
 10
346.8261073249176
 20
245.272901724941
 30
0.0
 40
2.778000099999998
100
AcDbArc
 50
317.4661199999998
 51
350.21762
  0
ARC
  5
4CC
330
18
100
AcDbEntity
  8
1
  6
Continuous
100
AcDbCircle
 10
352.2261093249176
 20
245.272901724941
 30
0.0
 40
2.778000099999998
100
AcDbArc
 50
193.60946
 51
222.5338800000002
  0
ARC
  5
4CD
330
18
100
AcDbEntity
  8
1
  6
Continuous
100
AcDbCircle
 10
356.7261093249176
 20
245.272901724941
 30
0.0
 40
2.778000099999998
100
AcDbArc
 50
215.9103999999995
 51
222.5338800000002
  0
ARC
  5
4CE
330
18
100
AcDbEntity
  8
1
  6
Continuous
100
AcDbCircle
 10
341.4261053249176
 20
245.272901724941
 30
0.0
 40
2.778000099999998
100
AcDbArc
 50
317.4661199999998
 51
346.3905399999999
  0
ARC
  5
4CF
330
18
100
AcDbEntity
  8
1
  6
Continuous
100
AcDbCircle
 10
346.8261073249176
 20
245.272901724941
 30
0.0
 40
2.778000099999998
100
AcDbArc
 50
189.7823799999999
 51
222.5338800000002
  0
ARC
  5
4D0
330
18
100
AcDbEntity
  8
1
  6
Continuous
100
AcDbCircle
 10
336.9261053249176
 20
245.272901724941
 30
0.0
 40
2.778000099999998
100
AcDbArc
 50
189.7823799999999
 51
222.5338800000002
  0
ARC
  5
4D1
330
18
100
AcDbEntity
  8
1
  6
Continuous
100
AcDbCircle
 10
341.4261053249176
 20
245.272901724941
 30
0.0
 40
2.778000099999998
100
AcDbArc
 50
189.7823799999999
 51
222.5338800000002
  0
ARC
  5
4D2
330
18
100
AcDbEntity
  8
1
  6
Continuous
100
AcDbCircle
 10
336.9261053249176
 20
245.272901724941
 30
0.0
 40
2.778000099999998
100
AcDbArc
 50
317.4661199999998
 51
324.0895999999995
  0
ARC
  5
4D3
330
18
100
AcDbEntity
  8
1
  6
Continuous
100
AcDbCircle
 10
325.3261073249177
 20
240.3949017249412
 30
0.0
 40
3.0
100
AcDbArc
 50
89.99999699999987
 51
178.8230889999998
  0
LINE
  5
4D5
330
18
100
AcDbEntity
  8
4
  6
CENTER
100
AcDbLine
 10
325.8261073249178
 20
253.8751397249411
 30
0.0
 11
325.8261073249178
 21
246.893062724941
 31
0.0
  0
ARC
  5
4D6
330
18
100
AcDbEntity
  8
1
  6
Continuous
100
AcDbCircle
 10
326.4790153249176
 20
248.5009027249411
 30
0.0
 40
3.0
100
AcDbArc
 50
194.8123899999999
 51
270.0
  0
ARC
  5
4D7
330
18
100
AcDbEntity
  8
1
  6
Continuous
100
AcDbCircle
 10
324.3261073249176
 20
247.8009017249411
 30
0.0
 40
3.0
100
AcDbArc
 50
213.0681
 51
270.0000200000004
  0
ARC
  5
4D8
330
18
100
AcDbEntity
  8
1
  6
Continuous
100
AcDbCircle
 10
328.3261073249176
 20
248.5009027249411
 30
0.0
 40
1.0
100
AcDbArc
 50
90.00000399999995
 51
172.3953067
  0
LINE
  5
4D9
330
18
100
AcDbEntity
  8
1
  6
Continuous
100
AcDbLine
 10
326.9746213249177
 20
245.9347327249411
 30
0.0
 11
327.3349043249178
 21
248.6332407249411
 31
0.0
  0
ARC
  5
4DA
330
18
100
AcDbEntity
  8
1
  6
Continuous
100
AcDbCircle
 10
326.4790153249176
 20
246.0009027249411
 30
0.0
 40
0.5
100
AcDbArc
 50
270.0
 51
352.3953100000002
  0
ARC
  5
4DB
330
18
100
AcDbEntity
  8
1
  6
Continuous
100
AcDbCircle
 10
329.4261053249178
 20
245.272901724941
 30
0.0
 40
2.778000099999998
100
AcDbArc
 50
189.7823799999999
 51
222.5338800000002
  0
ARC
  5
4DC
330
18
100
AcDbEntity
  8
1
  6
Continuous
100
AcDbCircle
 10
333.4261053249178
 20
245.272901724941
 30
0.0
 40
2.778000099999998
100
AcDbArc
 50
189.7823799999999
 51
222.5338800000002
  0
ARC
  5
4DD
330
18
100
AcDbEntity
  8
1
  6
Continuous
100
AcDbCircle
 10
330.9261053249176
 20
245.272901724941
 30
0.0
 40
2.778000099999998
100
AcDbArc
 50
189.7823799999999
 51
222.5338800000002
  0
ARC
  5
4DE
330
18
100
AcDbEntity
  8
1
  6
Continuous
100
AcDbCircle
 10
318.8261073249178
 20
248.0009027249411
 30
0.0
 40
1.5
100
AcDbArc
 50
33.06801000000008
 51
90.0000519999997
  0
LINE
  5
4DF
330
18
100
AcDbEntity
  8
1
  6
Continuous
100
AcDbLine
 10
317.8261073249178
 20
251.5009027249411
 30
0.0
 11
317.8261073249178
 21
249.5009027249411
 31
0.0
  0
ARC
  5
4E0
330
18
100
AcDbEntity
  8
1
  6
Continuous
100
AcDbCircle
 10
322.3415183249176
 20
248.5009027249411
 30
0.0
 40
1.0
100
AcDbArc
 50
14.81238999999995
 51
90.00000399999995
  0
LINE
  5
4E1
330
18
100
AcDbEntity
  8
1
  6
Continuous
100
AcDbLine
 10
323.3082853249176
 20
248.756557724941
 30
0.0
 11
323.5787093249177
 21
247.7339387249411
 31
0.0
  0
LINE
  5
4E2
330
18
100
AcDbEntity
  8
1
  6
Continuous
100
AcDbLine
 10
320.0831413249176
 20
248.8193477249411
 30
0.0
 11
321.8120383249177
 21
246.1639947249413
 31
0.0
  0
LINE
  5
57D
330
18
100
AcDbEntity
  8
1
  6
Continuous
100
AcDbLine
 10
456.8261073249177
 20
249.5009027249411
 30
0.0
 11
491.8261073249175
 21
249.5009027249411
 31
0.0
  0
LINE
  5
57E
330
18
100
AcDbEntity
  8
1
  6
Continuous
100
AcDbLine
 10
456.8261073249177
 20
251.5009027249411
 30
0.0
 11
491.8261073249175
 21
251.5009027249411
 31
0.0
  0
LINE
  5
57F
330
18
100
AcDbEntity
  8
1
  6
Continuous
100
AcDbLine
 10
465.0831373249176
 20
248.8193537249411
 30
0.0
 11
466.8120373249178
 21
246.1639977249411
 31
0.0
  0
LINE
  5
581
330
18
100
AcDbEntity
  8
4
  6
CENTER
 48
0.5
100
AcDbLine
 10
491.8261073249175
 20
253.8751397249411
 30
0.0
 11
491.8261073249175
 21
209.2342247249411
 31
0.0
  0
LINE
  5
582
330
18
100
AcDbEntity
  8
4
  6
CENTER
 48
0.5
100
AcDbLine
 10
519.8261073249176
 20
237.5839387249411
 30
0.0
 11
519.8261073249176
 21
154.4178547249414
 31
0.0
  0
LINE
  5
583
330
18
100
AcDbEntity
  8
1
  6
Continuous
100
AcDbLine
 10
508.3261073249174
 20
239.6845647249411
 30
0.0
 11
508.3261073249174
 21
196.6968947249411
 31
0.0
  0
LINE
  5
584
330
18
100
AcDbEntity
  8
1
  6
Continuous
100
AcDbLine
 10
530.6114623249176
 20
198.1633367249413
 30
0.0
 11
523.1717453249176
 21
235.269601424941
 31
0.0
  0
LINE
  5
585
330
18
100
AcDbEntity
  8
1
  6
Continuous
100
AcDbLine
 10
511.3669933249176
 20
188.9692937249411
 30
0.0
 11
476.8336603249176
 21
230.5133644249412
 31
0.0
  0
LINE
  5
588
330
18
100
AcDbEntity
  8
4
  6
CENTER
 48
0.5
100
AcDbLine
 10
561.4091493249177
 20
196.0008967249413
 30
0.0
 11
478.2430653249178
 21
196.0008967249413
 31
0.0
  0
ARC
  5
589
330
18
100
AcDbEntity
  8
1
  6
Continuous
100
AcDbCircle
 10
519.8261073249176
 20
196.0008967249413
 30
0.0
 40
11.0
100
AcDbArc
 50
219.7349200000004
 51
11.33734000000013
  0
LINE
  5
59A
330
18
100
AcDbEntity
  8
1
  6
Continuous
100
AcDbLine
 10
513.3261073249176
 20
243.3949017249413
 30
0.0
 11
491.8261073249175
 21
243.3949017249413
 31
0.0
  0
LINE
  5
59B
330
18
100
AcDbEntity
  8
1
  6
Continuous
100
AcDbLine
 10
514.3261073249176
 20
244.8009017249412
 30
0.0
 11
491.8261073249175
 21
244.8009017249412
 31
0.0
  0
LINE
  5
59C
330
18
100
AcDbEntity
  8
1
  6
Continuous
100
AcDbLine
 10
526.8261073249176
 20
249.5009027249411
 30
0.0
 11
491.8261073249175
 21
249.5009027249411
 31
0.0
  0
LINE
  5
59D
330
18
100
AcDbEntity
  8
1
  6
Continuous
100
AcDbLine
 10
526.8261073249176
 20
251.5009027249411
 30
0.0
 11
491.8261073249175
 21
251.5009027249411
 31
0.0
  0
ARC
  5
59E
330
18
100
AcDbEntity
  8
1
  6
Continuous
100
AcDbCircle
 10
512.3142663249176
 20
239.5249947249411
 30
0.0
 40
4.0
100
AcDbArc
 50
10.88584999999997
 51
75.34724999999986
  0
LINE
  5
59F
330
18
100
AcDbEntity
  8
1
  6
Continuous
100
AcDbLine
 10
526.0261043249177
 20
238.2285467249411
 30
0.0
 11
512.4149973249176
 21
240.6285517249413
 31
0.0
  0
ARC
  5
5A0
330
18
100
AcDbEntity
  8
1
  6
Continuous
100
AcDbCircle
 10
524.1425673249176
 20
235.5143857249411
 30
0.0
 40
1.0
100
AcDbArc
 50
79.99999999999983
 51
191.33556
  0
LINE
  5
5A1
330
18
100
AcDbEntity
  8
1
  6
Continuous
100
AcDbLine
 10
526.0261043249177
 20
238.2285467249411
 30
0.0
 11
525.6788063249175
 21
236.2589298249412
 31
0.0
  0
LINE
  5
5A2
330
18
100
AcDbEntity
  8
1
  6
Continuous
100
AcDbLine
 10
525.6788063249175
 20
236.2589298249412
 30
0.0
 11
524.3162123249176
 21
236.499192824941
 31
0.0
  0
ARC
  5
5A3
330
18
100
AcDbEntity
  8
1
  6
Continuous
100
AcDbCircle
 10
525.6229593249177
 20
235.7610651249411
 30
0.0
 40
2.5
100
AcDbArc
 50
79.99999999999983
 51
191.33556
  0
ARC
  5
5A4
330
18
100
AcDbEntity
  8
1
  6
Continuous
100
AcDbCircle
 10
516.7332923249175
 20
240.3748337249411
 30
0.0
 40
0.5
100
AcDbArc
 50
190.8858500000004
 51
259.9999999999998
  0
ARC
  5
5A5
330
18
100
AcDbEntity
  8
1
  6
Continuous
100
AcDbCircle
 10
512.1731993249177
 20
248.5009027249411
 30
0.0
 40
3.0
100
AcDbArc
 50
270.0
 51
345.18761
  0
LINE
  5
5A6
330
18
100
AcDbEntity
  8
4
  6
CENTER
100
AcDbLine
 10
519.3261073249176
 20
253.8751397249411
 30
0.0
 11
519.3261073249176
 21
246.893062724941
 31
0.0
  0
LINE
  5
5A7
330
18
100
AcDbEntity
  8
1
  6
Continuous
100
AcDbLine
 10
526.8261073249176
 20
249.5009027249411
 30
0.0
 11
526.8261073249176
 21
251.5009027249411
 31
0.0
  0
ARC
  5
5A8
330
18
100
AcDbEntity
  8
1
  6
Continuous
100
AcDbCircle
 10
516.3106963249178
 20
248.5009027249411
 30
0.0
 40
1.0
100
AcDbArc
 50
89.99999699999987
 51
165.187611
  0
LINE
  5
5A9
330
18
100
AcDbEntity
  8
1
  6
Continuous
100
AcDbLine
 10
515.3439293249175
 20
248.7565557249411
 30
0.0
 11
515.0735023249175
 21
247.7339367249411
 31
0.0
  0
ARC
  5
5AA
330
18
100
AcDbEntity
  8
1
  6
Continuous
100
AcDbCircle
 10
519.8261073249176
 20
248.0009027249411
 30
0.0
 40
1.5
100
AcDbArc
 50
89.99999699999987
 51
146.931981
  0
LINE
  5
5AB
330
18
100
AcDbEntity
  8
1
  6
Continuous
100
AcDbLine
 10
516.8401763249176
 20
246.1639977249411
 30
0.0
 11
518.5690693249178
 21
248.8193537249411
 31
0.0
  0
ARC
  5
5AC
330
18
100
AcDbEntity
  8
1
  6
Continuous
100
AcDbCircle
 10
514.3261073249176
 20
247.8009017249411
 30
0.0
 40
3.0
100
AcDbArc
 50
270.0000399999999
 51
326.9318999999998
  0
ARC
  5
5AD
330
18
100
AcDbEntity
  8
1
  6
Continuous
100
AcDbCircle
 10
505.2261093249176
 20
245.272901724941
 30
0.0
 40
2.778000099999998
100
AcDbArc
 50
317.4661199999998
 51
350.21762
  0
ARC
  5
5AE
330
18
100
AcDbEntity
  8
1
  6
Continuous
100
AcDbCircle
 10
510.3261073249176
 20
248.5009027249411
 30
0.0
 40
1.0
100
AcDbArc
 50
7.604689999999886
 51
89.99999699999987
  0
LINE
  5
5AF
330
18
100
AcDbEntity
  8
1
  6
Continuous
100
AcDbLine
 10
511.6775933249178
 20
245.9347327249411
 30
0.0
 11
511.3173103249176
 21
248.6332407249411
 31
0.0
  0
ARC
  5
5B0
330
18
100
AcDbEntity
  8
1
  6
Continuous
100
AcDbCircle
 10
512.1731993249177
 20
246.0009027249411
 30
0.0
 40
0.5
100
AcDbArc
 50
187.6046900000002
 51
270.0
  0
ARC
  5
5B1
330
18
100
AcDbEntity
  8
1
  6
Continuous
100
AcDbCircle
 10
507.7261093249176
 20
245.272901724941
 30
0.0
 40
2.778000099999998
100
AcDbArc
 50
317.4661199999998
 51
350.21762
  0
ARC
  5
5B2
330
18
100
AcDbEntity
  8
1
  6
Continuous
100
AcDbCircle
 10
509.2261093249176
 20
245.272901724941
 30
0.0
 40
2.778000099999998
100
AcDbArc
 50
317.4661199999998
 51
350.21762
  0
ARC
  5
5B3
330
18
100
AcDbEntity
  8
1
  6
Continuous
100
AcDbCircle
 10
497.2261093249175
 20
245.272901724941
 30
0.0
 40
2.778000099999998
100
AcDbArc
 50
317.4661199999998
 51
350.21762
  0
ARC
  5
5B4
330
18
100
AcDbEntity
  8
1
  6
Continuous
100
AcDbCircle
 10
501.7261093249175
 20
245.272901724941
 30
0.0
 40
2.778000099999998
100
AcDbArc
 50
215.9103999999995
 51
222.5338800000002
  0
ARC
  5
5B5
330
18
100
AcDbEntity
  8
1
  6
Continuous
100
AcDbCircle
 10
501.7261093249175
 20
245.272901724941
 30
0.0
 40
2.778000099999998
100
AcDbArc
 50
317.4661199999998
 51
350.21762
  0
ARC
  5
5B6
330
18
100
AcDbEntity
  8
1
  6
Continuous
100
AcDbCircle
 10
470.3261073249175
 20
240.3949017249412
 30
0.0
 40
3.0
100
AcDbArc
 50
89.99999699999987
 51
175.3469055
  0
ARC
  5
5B7
330
18
100
AcDbEntity
  8
1
  6
Continuous
100
AcDbCircle
 10
472.2195973249177
 20
226.6779428249411
 30
0.0
 40
6.0
100
AcDbArc
 50
39.73085000000003
 51
85.34690399999986
  0
LINE
  5
5B8
330
18
100
AcDbEntity
  8
1
  6
Continuous
100
AcDbLine
 10
472.7063273249176
 20
232.6581684249411
 30
0.0
 11
466.7261073249176
 21
233.1449032249411
 31
0.0
  0
LINE
  5
5B9
330
18
100
AcDbEntity
  8
1
  6
Continuous
100
AcDbLine
 10
466.7261073249176
 20
233.1449032249411
 30
0.0
 11
467.3360073249178
 21
240.638268724941
 31
0.0
  0
LINE
  5
5BA
330
18
100
AcDbEntity
  8
1
  6
Continuous
100
AcDbLine
 10
469.3261073249177
 20
244.8009017249412
 30
0.0
 11
491.8261073249175
 21
244.8009017249412
 31
0.0
  0
LINE
  5
5BB
330
18
100
AcDbEntity
  8
1
  6
Continuous
100
AcDbLine
 10
470.3261073249175
 20
243.3949017249413
 30
0.0
 11
491.8261073249175
 21
243.3949017249413
 31
0.0
  0
ARC
  5
5BC
330
18
100
AcDbEntity
  8
1
  6
Continuous
100
AcDbCircle
 10
491.8261073249175
 20
245.272901724941
 30
0.0
 40
2.778000099999998
100
AcDbArc
 50
189.7823799999999
 51
222.5338800000002
  0
ARC
  5
5BD
330
18
100
AcDbEntity
  8
1
  6
Continuous
100
AcDbCircle
 10
497.2261093249175
 20
245.272901724941
 30
0.0
 40
2.778000099999998
100
AcDbArc
 50
193.60946
 51
222.5338800000002
  0
ARC
  5
5BE
330
18
100
AcDbEntity
  8
1
  6
Continuous
100
AcDbCircle
 10
491.8261073249175
 20
245.272901724941
 30
0.0
 40
2.778000099999998
100
AcDbArc
 50
317.4661199999998
 51
350.21762
  0
ARC
  5
5BF
330
18
100
AcDbEntity
  8
1
  6
Continuous
100
AcDbCircle
 10
486.4261053249178
 20
245.272901724941
 30
0.0
 40
2.778000099999998
100
AcDbArc
 50
189.7823799999999
 51
222.5338800000002
  0
ARC
  5
5C0
330
18
100
AcDbEntity
  8
1
  6
Continuous
100
AcDbCircle
 10
481.9261053249176
 20
245.272901724941
 30
0.0
 40
2.778000099999998
100
AcDbArc
 50
317.4661199999998
 51
324.0895999999995
  0
ARC
  5
5C1
330
18
100
AcDbEntity
  8
1
  6
Continuous
100
AcDbCircle
 10
486.4261053249178
 20
245.272901724941
 30
0.0
 40
2.778000099999998
100
AcDbArc
 50
317.4661199999998
 51
346.3905399999999
  0
ARC
  5
5C2
330
18
100
AcDbEntity
  8
1
  6
Continuous
100
AcDbCircle
 10
475.9261073249176
 20
245.272901724941
 30
0.0
 40
2.778000099999998
100
AcDbArc
 50
189.7823799999999
 51
222.5338800000002
  0
ARC
  5
5C3
330
18
100
AcDbEntity
  8
1
  6
Continuous
100
AcDbCircle
 10
478.4261053249176
 20
245.272901724941
 30
0.0
 40
2.778000099999998
100
AcDbArc
 50
189.7823799999999
 51
222.5338800000002
  0
ARC
  5
5C4
330
18
100
AcDbEntity
  8
1
  6
Continuous
100
AcDbCircle
 10
481.9261053249176
 20
245.272901724941
 30
0.0
 40
2.778000099999998
100
AcDbArc
 50
189.7823799999999
 51
222.5338800000002
  0
ARC
  5
5C5
330
18
100
AcDbEntity
  8
1
  6
Continuous
100
AcDbCircle
 10
467.3415173249176
 20
248.5009027249411
 30
0.0
 40
1.0
100
AcDbArc
 50
14.81238999999995
 51
90.00000399999995
  0
LINE
  5
5C6
330
18
100
AcDbEntity
  8
1
  6
Continuous
100
AcDbLine
 10
468.3082973249176
 20
248.756557724941
 30
0.0
 11
468.5787173249178
 21
247.7339387249411
 31
0.0
  0
ARC
  5
5C7
330
18
100
AcDbEntity
  8
1
  6
Continuous
100
AcDbCircle
 10
473.3261073249177
 20
248.5009027249411
 30
0.0
 40
1.0
100
AcDbArc
 50
90.00000399999995
 51
172.3953067
  0
LINE
  5
5C8
330
18
100
AcDbEntity
  8
1
  6
Continuous
100
AcDbLine
 10
471.9746173249176
 20
245.9347327249411
 30
0.0
 11
472.3349073249178
 21
248.6332407249411
 31
0.0
  0
ARC
  5
5C9
330
18
100
AcDbEntity
  8
1
  6
Continuous
100
AcDbCircle
 10
471.4790173249176
 20
246.0009027249411
 30
0.0
 40
0.5
100
AcDbArc
 50
270.0
 51
352.3953100000002
  0
ARC
  5
5CA
330
18
100
AcDbEntity
  8
1
  6
Continuous
100
AcDbCircle
 10
474.4261073249178
 20
245.272901724941
 30
0.0
 40
2.778000099999998
100
AcDbArc
 50
189.7823799999999
 51
222.5338800000002
  0
ARC
  5
5CB
330
18
100
AcDbEntity
  8
1
  6
Continuous
100
AcDbCircle
 10
471.4790173249176
 20
248.5009027249411
 30
0.0
 40
3.0
100
AcDbArc
 50
194.8123899999999
 51
270.0
  0
ARC
  5
5CC
330
18
100
AcDbEntity
  8
1
  6
Continuous
100
AcDbCircle
 10
469.3261073249177
 20
247.8009017249411
 30
0.0
 40
3.0
100
AcDbArc
 50
213.0681
 51
270.0000200000004
  0
LINE
  5
5CE
330
18
100
AcDbEntity
  8
4
  6
CENTER
100
AcDbLine
 10
464.3261173249176
 20
253.8751397249411
 30
0.0
 11
464.3261173249176
 21
246.893062724941
 31
0.0
  0
ARC
  5
5CF
330
18
100
AcDbEntity
  8
1
  6
Continuous
100
AcDbCircle
 10
463.8261073249177
 20
248.0009027249411
 30
0.0
 40
1.5
100
AcDbArc
 50
33.06801000000008
 51
90.0000519999997
  0
LINE
  5
5D0
330
18
100
AcDbEntity
  8
1
  6
Continuous
100
AcDbLine
 10
456.8261073249177
 20
249.5009027249411
 30
0.0
 11
456.8261073249177
 21
251.5009027249411
 31
0.0
  0
CIRCLE
  5
82D
330
18
100
AcDbEntity
  8
2
  6
Continuous
100
AcDbCircle
 10
519.8261073249176
 20
196.0008967249411
 30
0.0
 40
3.375000000000111
  0
CIRCLE
  5
82E
330
18
100
AcDbEntity
  8
1
  6
Continuous
100
AcDbCircle
 10
519.8261073249178
 20
196.0008967249413
 30
0.0
 40
4.0
  0
LINE
  5
83B
330
18
100
AcDbEntity
  8
1
  6
Continuous
100
AcDbLine
 10
175.8260993249176
 20
95.36242210203408
 30
0.0
 11
227.8260973249178
 21
95.36242210203408
 31
0.0
  0
CIRCLE
  5
83C
330
18
100
AcDbEntity
  8
1
  6
Continuous
100
AcDbCircle
 10
229.3260973249176
 20
87.36242210203409
 30
0.0
 40
4.400000099999997
  0
LINE
  5
83D
330
18
100
AcDbEntity
  8
4
  6
CENTER
100
AcDbLine
 10
220.5261073249177
 20
87.36242210203409
 30
0.0
 11
238.1260973249176
 21
87.36242210203409
 31
0.0
  0
LINE
  5
83E
330
18
100
AcDbEntity
  8
1
  6
Continuous
100
AcDbLine
 10
175.8260993249176
 20
37.3624221020341
 30
0.0
 11
227.8260973249178
 21
37.3624221020341
 31
0.0
  0
CIRCLE
  5
83F
330
18
100
AcDbEntity
  8
1
  6
Continuous
100
AcDbCircle
 10
229.3260973249176
 20
45.36242210203409
 30
0.0
 40
4.400000099999997
  0
LINE
  5
840
330
18
100
AcDbEntity
  8
4
  6
CENTER
100
AcDbLine
 10
220.5261073249177
 20
45.36242210203409
 30
0.0
 11
238.1260973249176
 21
45.36242210203409
 31
0.0
  0
LINE
  5
841
330
18
100
AcDbEntity
  8
4
  6
CENTER
 48
0.5
100
AcDbLine
 10
128.2252793249176
 20
66.36242210203409
 30
0.0
 11
238.4235773249176
 21
66.36242210203409
 31
0.0
  0
ARC
  5
845
330
18
100
AcDbEntity
  8
1
  6
Continuous
100
AcDbCircle
 10
174.3261073249176
 20
45.36242210203409
 30
0.0
 40
4.400000099999997
100
AcDbArc
 50
245.3793946890726
 51
294.6206053109273
  0
LINE
  5
846
330
18
100
AcDbEntity
  8
4
  6
CENTER
100
AcDbLine
 10
174.3261073249176
 20
36.56242210203407
 30
0.0
 11
174.3261073249176
 21
54.16241210203406
 31
0.0
  0
ARC
  5
849
330
18
100
AcDbEntity
  8
1
  6
Continuous
100
AcDbCircle
 10
65.36809932491769
 20
66.36242210203409
 30
0.0
 40
103.46132
100
AcDbArc
 50
348.7159319999999
 51
349.9808068440953
  0
LINE
  5
84A
330
18
100
AcDbEntity
  8
4
  6
CENTER
 48
0.5
100
AcDbLine
 10
201.8261073249176
 20
34.59471400781848
 30
0.0
 11
201.8261073249176
 21
99.14475749457194
 31
0.0
  0
LINE
  5
84B
330
18
100
AcDbEntity
  8
4
  6
CENTER
 48
0.5
100
AcDbLine
 10
173.8261073249176
 20
36.3624221020342
 30
0.0
 11
173.8261073249176
 21
96.36241410203423
 31
0.0
  0
LINE
  5
84C
330
18
100
AcDbEntity
  8
1
  6
Continuous
100
AcDbLine
 10
162.8261073249176
 20
48.36242210203408
 30
0.0
 11
162.8261073249176
 21
50.36242210203409
 31
0.0
  0
ARC
  5
84F
330
18
100
AcDbEntity
  8
1
  6
Continuous
100
AcDbCircle
 10
175.8261073249176
 20
86.3624221020342
 30
0.0
 40
9.0
100
AcDbArc
 50
89.99997999999962
 51
167.2265535092995
  0
LINE
  5
850
330
18
100
AcDbEntity
  8
4
  6
CENTER
100
AcDbLine
 10
183.1260953249175
 20
87.36242210203409
 30
0.0
 11
165.5261003249176
 21
87.36242210203409
 31
0.0
  0
LINE
  5
852
330
18
100
AcDbEntity
  8
1
  6
Continuous
100
AcDbLine
 10
182.4093619745771
 20
84.36242210203408
 30
0.0
 11
162.8261073249176
 21
84.36242210203408
 31
0.0
  0
LINE
  5
853
330
18
100
AcDbEntity
  8
1
  6
Continuous
100
AcDbLine
 10
182.4093619745771
 20
82.36242210203409
 30
0.0
 11
162.8261073249176
 21
82.36242210203409
 31
0.0
  0
LINE
  5
855
330
18
100
AcDbEntity
  8
1
  6
Continuous
100
AcDbLine
 10
182.4093619745755
 20
50.36242210203409
 30
0.0
 11
162.8261073249176
 21
50.36242210203409
 31
0.0
  0
LINE
  5
85C
330
18
100
AcDbEntity
  8
1
  6
Continuous
100
AcDbLine
 10
162.8261073249176
 20
82.36242210203409
 30
0.0
 11
162.8261073249176
 21
84.36242210203408
 31
0.0
  0
LINE
  5
862
330
18
100
AcDbEntity
  8
4
  6
CENTER
100
AcDbLine
 10
174.3261073249176
 20
96.16241010203408
 30
0.0
 11
174.3261073249176
 21
78.56242210203411
 31
0.0
  0
ARC
  5
866
330
18
100
AcDbEntity
  8
1
  6
Continuous
100
AcDbCircle
 10
174.3261073249176
 20
87.36242210203409
 30
0.0
 40
4.400000099999997
100
AcDbArc
 50
13.13642503361837
 51
166.8635749663815
  0
ARC
  5
867
330
18
100
AcDbEntity
  8
1
  6
Continuous
100
AcDbCircle
 10
175.8261073249176
 20
46.36242210203408
 30
0.0
 40
9.0
100
AcDbArc
 50
181.5575799999999
 51
270.0000179999999
  0
LINE
  5
868
330
18
100
AcDbEntity
  8
4
  6
CENTER
100
AcDbLine
 10
183.1260953249175
 20
45.36242210203409
 30
0.0
 11
165.5261003249176
 21
45.36242210203409
 31
0.0
  0
LINE
  5
869
330
18
100
AcDbEntity
  8
1
  6
Continuous
100
AcDbLine
 10
182.4093619745754
 20
48.36242210203408
 30
0.0
 11
162.8261073249176
 21
48.36242210203408
 31
0.0
  0
LINE
  5
86A
330
18
100
AcDbEntity
  8
4
  6
CENTER
100
AcDbLine
 10
229.3260973249176
 20
36.56242210203407
 30
0.0
 11
229.3260973249176
 21
54.16241210203406
 31
0.0
  0
ARC
  5
86B
330
18
100
AcDbEntity
  8
1
  6
Continuous
100
AcDbCircle
 10
338.2840973249177
 20
66.36242210203409
 30
0.0
 40
103.46132
100
AcDbArc
 50
168.7159599999997
 51
191.2841099999999
  0
ARC
  5
86E
330
18
100
AcDbEntity
  8
1
  6
Continuous
100
AcDbCircle
 10
227.8260973249178
 20
86.3624221020342
 30
0.0
 40
9.0
100
AcDbArc
 50
1.557489999999965
 51
89.99997999999962
  0
LINE
  5
86F
330
18
100
AcDbEntity
  8
4
  6
CENTER
100
AcDbLine
 10
229.3260973249176
 20
96.16241010203408
 30
0.0
 11
229.3260973249176
 21
78.56242210203411
 31
0.0
  0
ARC
  5
870
330
18
100
AcDbEntity
  8
1
  6
Continuous
100
AcDbCircle
 10
227.8260973249178
 20
46.36242210203408
 30
0.0
 40
9.0
100
AcDbArc
 50
270.0000179999999
 51
358.4425127000002
  0
ARC
  5
90C
330
18
100
AcDbEntity
  8
1
  6
Continuous
100
AcDbCircle
 10
201.8261073249176
 20
66.36242210203339
 30
0.0
 40
25.10000000000002
100
AcDbArc
 50
229.8287313220841
 51
130.1712686779116
  0
ARC
  5
90D
330
18
100
AcDbEntity
  8
1
  6
Continuous
100
AcDbCircle
 10
201.8261073249176
 20
66.36242210203339
 30
0.0
 40
23.10000000000001
100
AcDbArc
 50
229.8287313220841
 51
130.1712686779117
  0
ARC
  5
90E
330
18
100
AcDbEntity
  8
1
  6
Continuous
100
AcDbCircle
 10
182.4093619745771
 20
89.36242210203408
 30
0.0
 40
5.0
100
AcDbArc
 50
269.9999999999997
 51
310.1712686779117
  0
ARC
  5
90F
330
18
100
AcDbEntity
  8
1
  6
Continuous
100
AcDbCircle
 10
182.4093619745755
 20
43.36242210203407
 30
0.0
 40
5.0
100
AcDbArc
 50
49.82873132208414
 51
90.0000000000003
  0
ARC
  5
910
330
18
100
AcDbEntity
  8
1
  6
Continuous
100
AcDbCircle
 10
182.4093619745755
 20
43.36242210203407
 30
0.0
 40
7.0
100
AcDbArc
 50
49.82873132208414
 51
90.0
  0
ARC
  5
911
330
18
100
AcDbEntity
  8
1
  6
Continuous
100
AcDbCircle
 10
182.4093619745771
 20
89.36242210203408
 30
0.0
 40
7.0
100
AcDbArc
 50
270.0000000000001
 51
310.1712686779117
  0
ARC
  5
913
330
18
100
AcDbEntity
  8
1
  6
Continuous
100
AcDbCircle
 10
65.36809932491769
 20
66.36242210203409
 30
0.0
 40
103.46132
100
AcDbArc
 50
8.336220565203502
 51
8.896333658087836
  0
ARC
  5
914
330
18
100
AcDbEntity
  8
1
  6
Continuous
100
AcDbCircle
 10
65.36809932491769
 20
66.36242210203409
 30
0.0
 40
103.46132
100
AcDbArc
 50
351.1036663419122
 51
351.6637794347963
  0
LINE
  5
94A
330
18
100
AcDbEntity
  8
1
  6
Continuous
100
AcDbLine
 10
180.5261073249176
 20
88.36241212203413
 30
0.0
 11
167.1261073249178
 21
88.36241212203413
 31
0.0
  0
ARC
  5
94B
330
18
100
AcDbEntity
  8
1
  6
Continuous
100
AcDbCircle
 10
178.1579573249175
 20
85.86241212203411
 30
0.0
 40
1.5
100
AcDbArc
 50
270.0000029999976
 51
0.0000100000009873
  0
ARC
  5
94C
330
18
100
AcDbEntity
  8
1
  6
Continuous
100
AcDbCircle
 10
178.1579573249175
 20
86.86241212203436
 30
0.0
 40
1.5
100
AcDbArc
 50
359.999989999999
 51
90.0
  0
LINE
  5
94D
330
18
100
AcDbEntity
  8
1
  6
Continuous
100
AcDbLine
 10
179.6579573249174
 20
86.86241212203436
 30
0.0
 11
179.6579573249174
 21
85.86241212203411
 31
0.0
  0
LINE
  5
94E
330
18
100
AcDbEntity
  8
1
  6
Continuous
100
AcDbLine
 10
180.8261073249176
 20
88.0624121220344
 30
0.0
 11
180.8261073249176
 21
84.66242212203429
 31
0.0
  0
ARC
  5
94F
330
18
100
AcDbEntity
  8
1
  6
Continuous
100
AcDbCircle
 10
180.5261073249176
 20
88.0624121220344
 30
0.0
 40
0.30000001
100
AcDbArc
 50
359.999989999999
 51
90.0
  0
ARC
  5
950
330
18
100
AcDbEntity
  8
1
  6
Continuous
100
AcDbCircle
 10
180.5261073249176
 20
84.66242212203429
 30
0.0
 40
0.30000001
100
AcDbArc
 50
270.0000029999976
 51
0.0000100000009873
  0
ARC
  5
951
330
18
100
AcDbEntity
  8
1
  6
Continuous
100
AcDbCircle
 10
167.1261073249178
 20
84.66242212203429
 30
0.0
 40
0.30000001
100
AcDbArc
 50
180.0
 51
270.0000029999976
  0
ARC
  5
952
330
18
100
AcDbEntity
  8
1
  6
Continuous
100
AcDbCircle
 10
169.4942573249176
 20
85.86241212203411
 30
0.0
 40
1.5
100
AcDbArc
 50
180.0
 51
270.0000029999976
  0
ARC
  5
953
330
18
100
AcDbEntity
  8
1
  6
Continuous
100
AcDbCircle
 10
167.1261073249178
 20
88.0624121220344
 30
0.0
 40
0.30000001
100
AcDbArc
 50
90.0
 51
180.0
  0
ARC
  5
954
330
18
100
AcDbEntity
  8
1
  6
Continuous
100
AcDbCircle
 10
169.4942573249176
 20
86.86241212203436
 30
0.0
 40
1.5
100
AcDbArc
 50
90.0
 51
180.0
  0
LINE
  5
955
330
18
100
AcDbEntity
  8
1
  6
Continuous
100
AcDbLine
 10
166.8261073249176
 20
88.0624121220344
 30
0.0
 11
166.8261073249176
 21
84.66242212203429
 31
0.0
  0
LINE
  5
956
330
18
100
AcDbEntity
  8
1
  6
Continuous
100
AcDbLine
 10
167.9942573249176
 20
86.86241212203436
 30
0.0
 11
167.9942573249176
 21
85.86241212203411
 31
0.0
  0
ARC
  5
957
330
18
100
AcDbEntity
  8
1
  6
Continuous
100
AcDbCircle
 10
171.1579573249175
 20
85.86241212203411
 30
0.0
 40
1.5
100
AcDbArc
 50
270.0000029999976
 51
0.0000100000009873
  0
ARC
  5
958
330
18
100
AcDbEntity
  8
1
  6
Continuous
100
AcDbCircle
 10
176.4942573249176
 20
85.86241212203411
 30
0.0
 40
1.5
100
AcDbArc
 50
180.0
 51
270.0000029999976
  0
ARC
  5
959
330
18
100
AcDbEntity
  8
1
  6
Continuous
100
AcDbCircle
 10
171.1579573249175
 20
86.86241212203436
 30
0.0
 40
1.5
100
AcDbArc
 50
359.999989999999
 51
90.0
  0
ARC
  5
95A
330
18
100
AcDbEntity
  8
1
  6
Continuous
100
AcDbCircle
 10
176.4942573249176
 20
86.86241212203436
 30
0.0
 40
1.5
100
AcDbArc
 50
90.0
 51
180.0
  0
LINE
  5
95B
330
18
100
AcDbEntity
  8
1
  6
Continuous
100
AcDbLine
 10
174.9942573249176
 20
86.86241212203436
 30
0.0
 11
174.9942573249176
 21
85.86241212203411
 31
0.0
  0
LINE
  5
95C
330
18
100
AcDbEntity
  8
1
  6
Continuous
100
AcDbLine
 10
172.6579573249176
 20
86.86241212203436
 30
0.0
 11
172.6579573249176
 21
85.86241212203411
 31
0.0
  0
LINE
  5
965
330
18
100
AcDbEntity
  8
1
  6
Continuous
100
AcDbLine
 10
177.2011073249176
 20
41.36244210203424
 30
0.0
 11
177.8261073249176
 21
41.98744210203424
 31
0.0
  0
LINE
  5
967
330
18
100
AcDbEntity
  8
1
  6
Continuous
100
AcDbLine
 10
177.8261073249176
 20
41.98744210203424
 30
0.0
 11
169.8261073249176
 21
41.98744210203424
 31
0.0
  0
LINE
  5
96A
330
18
100
AcDbEntity
  8
1
  6
Continuous
100
AcDbLine
 10
177.8261073249176
 20
41.98744210203424
 30
0.0
 11
177.8261073249176
 21
43.36244210203425
 31
0.0
  0
LINE
  5
96B
330
18
100
AcDbEntity
  8
1
  6
Continuous
100
AcDbLine
 10
169.8261273249175
 20
41.98744210203424
 30
0.0
 11
170.4511273249176
 21
41.36244210203424
 31
0.0
  0
LINE
  5
96C
330
18
100
AcDbEntity
  8
2
  6
Continuous
100
AcDbLine
 10
170.4511073249176
 20
41.36244210203424
 30
0.0
 11
170.4511073249176
 21
43.36244210203425
 31
0.0
  0
LINE
  5
96E
330
18
100
AcDbEntity
  8
1
  6
Continuous
100
AcDbLine
 10
169.8261073249176
 20
41.98744210203424
 30
0.0
 11
169.8261073249176
 21
43.36244210203425
 31
0.0
  0
LINE
  5
96F
330
18
100
AcDbEntity
  8
2
  6
Continuous
100
AcDbLine
 10
177.2011073249176
 20
41.36244210203424
 30
0.0
 11
177.2011073249176
 21
43.36244210203425
 31
0.0
  0
LINE
  5
970
330
18
100
AcDbEntity
  8
1
  6
Continuous
100
AcDbLine
 10
177.2011073249176
 20
41.36244210203424
 30
0.0
 11
170.4511073249176
 21
41.36244210203424
 31
0.0
  0
ARC
  5
E45
330
18
100
AcDbEntity
  8
1
  6
Continuous
100
AcDbCircle
 10
357.7872173249176
 20
213.8425487249411
 30
0.0
 40
34.0
100
AcDbArc
 50
150.4498856095355
 51
216.4403895959016
  0
ARC
  5
E46
330
18
100
AcDbEntity
  8
1
  6
Continuous
100
AcDbCircle
 10
335.8650023249178
 20
213.8425487249411
 30
0.0
 40
34.0
100
AcDbArc
 50
323.5595970069068
 51
29.55011439046414
  0
ARC
  5
E47
330
18
100
AcDbEntity
  8
1
  6
Continuous
100
AcDbCircle
 10
328.8261073249178
 20
192.4590478991198
 30
0.0
 40
2.0
100
AcDbArc
 50
0.0
 51
36.44038959590147
  0
ARC
  5
E48
330
18
100
AcDbEntity
  8
1
  6
Continuous
100
AcDbCircle
 10
364.8261073249177
 20
192.4590411272859
 30
0.0
 40
2.0
100
AcDbArc
 50
143.5595970069074
 51
180.0
  0
LINE
  5
E4A
330
18
100
AcDbEntity
  8
1
  6
Continuous
100
AcDbLine
 10
330.2837147160439
 20
233.1449032249413
 30
0.0
 11
363.3685049337917
 21
233.1449032249413
 31
0.0
  0
ARC
  5
E4B
330
18
100
AcDbEntity
  8
1
  6
Continuous
100
AcDbCircle
 10
361.0928174454613
 20
228.1449032249411
 30
0.0
 40
5.0
100
AcDbArc
 50
29.55011439046415
 51
90.0
  0
ARC
  5
E4C
330
18
100
AcDbEntity
  8
1
  6
Continuous
100
AcDbCircle
 10
363.3685049337917
 20
228.1449032249411
 30
0.0
 40
5.0
100
AcDbArc
 50
27.47530587442633
 51
90.0
  0
ARC
  5
E4D
330
18
100
AcDbEntity
  8
1
  6
Continuous
100
AcDbCircle
 10
332.5594022043741
 20
228.1449032249411
 30
0.0
 40
5.0
100
AcDbArc
 50
90.0
 51
150.4498856095354
  0
ARC
  5
E4E
330
18
100
AcDbEntity
  8
1
  6
Continuous
100
AcDbCircle
 10
330.2837147160439
 20
228.1449032249411
 30
0.0
 40
5.0
100
AcDbArc
 50
90.0
 51
152.5246941255733
  0
ARC
  5
E97
330
18
100
AcDbEntity
  8
1
  6
Continuous
100
AcDbCircle
 10
201.8261073249176
 20
66.36242210203409
 30
0.0
 40
28.0
100
AcDbArc
 50
220.0052008848607
 51
138.5903778907295
  0
ARC
  5
E98
330
18
100
AcDbEntity
  8
1
  6
Continuous
100
AcDbCircle
 10
201.8261073249176
 20
66.36242210203409
 30
0.0
 40
18.0
100
AcDbArc
 50
223.9829631303587
 51
136.0170368696413
  0
LINE
  5
EE3
330
18
100
AcDbEntity
  8
1
  6
Continuous
100
AcDbLine
 10
369.8261073249176
 20
190.1365435249413
 30
0.0
 11
369.8261073249176
 21
201.8652384249413
 31
0.0
  0
ARC
  5
EE5
330
18
100
AcDbEntity
  8
1
  6
Continuous
100
AcDbCircle
 10
365.0628398249176
 20
190.5758975249413
 30
0.0
 40
4.363269299999998
100
AcDbArc
 50
335.2749599999983
 51
24.72506100000128
  0
LINE
  5
EE6
330
18
100
AcDbEntity
  8
1
  6
Continuous
100
AcDbLine
 10
369.0261042249176
 20
188.7508967249413
 30
0.0
 11
365.6261104249176
 21
188.7508967249413
 31
0.0
  0
ARC
  5
EE7
330
18
100
AcDbEntity
  8
1
  6
Continuous
100
AcDbCircle
 10
365.6934388249176
 20
189.7486274249411
 30
0.0
 40
1.0
100
AcDbArc
 50
209.8499999999956
 51
266.1394899999939
  0
LINE
  5
EE8
330
18
100
AcDbEntity
  8
1
  6
Continuous
100
AcDbLine
 10
369.0260480249176
 20
188.7509310249411
 30
0.0
 11
369.8260525249178
 21
190.1365764249413
 31
0.0
  0
LINE
  5
EEB
330
18
100
AcDbEntity
  8
1
  6
Continuous
100
AcDbLine
 10
369.0261042249176
 20
192.4008982249412
 30
0.0
 11
365.6261180249176
 21
192.4008982249412
 31
0.0
  0
ARC
  5
EEF
330
18
100
AcDbEntity
  8
1
  6
Continuous
100
AcDbCircle
 10
365.8259042249176
 20
193.3807373249413
 30
0.0
 40
1.0
100
AcDbArc
 50
218.5647557825769
 51
258.4754200000003
  0
ARC
  5
EF0
330
18
100
AcDbEntity
  8
1
  6
Continuous
100
AcDbCircle
 10
365.6934388249176
 20
191.4031670249413
 30
0.0
 40
1.0
100
AcDbArc
 50
86.13977100000067
 51
150.1499900000031
  0
LINE
  5
EF3
330
18
100
AcDbEntity
  8
1
  6
Continuous
100
AcDbLine
 10
369.8186944978028
 20
201.878152048595
 30
0.0
 11
369.8261402249178
 21
201.8652556249413
 31
0.0
  0
ARC
  5
EF4
330
18
100
AcDbEntity
  8
1
  6
Continuous
100
AcDbCircle
 10
365.0628398249176
 20
201.4258959249413
 30
0.0
 40
4.363265
100
AcDbArc
 50
335.2749700000011
 51
349.5002764518725
  0
ARC
  5
EF5
330
18
100
AcDbEntity
  8
1
  6
Continuous
100
AcDbCircle
 10
353.0261733249176
 20
196.0008967249413
 30
0.0
 40
16.399935
100
AcDbArc
 50
347.3196000000003
 51
12.68041900000017
  0
ARC
  5
EF6
330
18
100
AcDbEntity
  8
1
  6
Continuous
100
AcDbCircle
 10
519.8261073249178
 20
196.0008967249413
 30
0.0
 40
7.3000002
100
AcDbArc
 50
27.07506599999929
 51
32.92493400000157
  0
ARC
  5
EF7
330
18
100
AcDbEntity
  8
1
  6
Continuous
100
AcDbCircle
 10
519.8261073249178
 20
196.0008967249413
 30
0.0
 40
7.3000002
100
AcDbArc
 50
327.0750699999986
 51
332.9249300000014
  0
CIRCLE
  5
EF9
330
18
100
AcDbEntity
  8
1
  6
Continuous
100
AcDbCircle
 10
519.8261073249178
 20
196.0008967249413
 30
0.0
 40
6.400000099999997
  0
LINE
  5
EFA
330
18
100
AcDbEntity
  8
1
  6
Continuous
100
AcDbLine
 10
513.6986083249179
 20
192.0330556249411
 30
0.0
 11
519.4536063249179
 21
188.7104065249411
 31
0.0
  0
LINE
  5
EFB
330
18
100
AcDbEntity
  8
1
  6
Continuous
100
AcDbLine
 10
520.1986083249179
 20
188.7104075249411
 30
0.0
 11
525.9536063249178
 21
192.0330567249411
 31
0.0
  0
ARC
  5
EFC
330
18
100
AcDbEntity
  8
1
  6
Continuous
100
AcDbCircle
 10
519.8261073249178
 20
196.0008967249413
 30
0.0
 40
7.3000002
100
AcDbArc
 50
267.0750600000004
 51
272.9249299999987
  0
LINE
  5
EFD
330
18
100
AcDbEntity
  8
1
  6
Continuous
100
AcDbLine
 10
513.6986083249179
 20
199.9687378249411
 30
0.0
 11
519.4536063249179
 21
203.2913869249413
 31
0.0
  0
ARC
  5
EFE
330
18
100
AcDbEntity
  8
1
  6
Continuous
100
AcDbCircle
 10
519.8261073249178
 20
196.0008967249413
 30
0.0
 40
7.3000002
100
AcDbArc
 50
147.0750599999969
 51
152.9249300000013
  0
ARC
  5
EFF
330
18
100
AcDbEntity
  8
1
  6
Continuous
100
AcDbCircle
 10
519.8261073249178
 20
196.0008967249413
 30
0.0
 40
7.3000002
100
AcDbArc
 50
207.0750699999985
 51
212.9249400000028
  0
LINE
  5
F00
330
18
100
AcDbEntity
  8
1
  6
Continuous
100
AcDbLine
 10
513.3261073249179
 20
199.3235462249413
 30
0.0
 11
513.3261073249179
 21
192.6782472249411
 31
0.0
  0
ARC
  5
F01
330
18
100
AcDbEntity
  8
1
  6
Continuous
100
AcDbCircle
 10
519.8261073249178
 20
196.0008967249413
 30
0.0
 40
7.3000002
100
AcDbArc
 50
87.07507000000132
 51
92.92493499999904
  0
LINE
  5
F02
330
18
100
AcDbEntity
  8
1
  6
Continuous
100
AcDbLine
 10
520.1986083249179
 20
203.2913859249413
 30
0.0
 11
525.9536063249178
 21
199.9687367249413
 31
0.0
  0
ARC
  5
F03
330
18
100
AcDbEntity
  8
1
  6
Continuous
100
AcDbCircle
 10
519.8261073249178
 20
196.0008967249413
 30
0.0
 40
5.0
100
AcDbArc
 50
342.5423999999988
 51
17.45760300000481
  0
LINE
  5
F04
330
18
100
AcDbEntity
  8
1
  6
Continuous
100
AcDbLine
 10
524.0687483249179
 20
197.5008967249413
 30
0.0
 11
524.5958023249179
 21
197.5008967249413
 31
0.0
  0
LINE
  5
F05
330
18
100
AcDbEntity
  8
1
  6
Continuous
100
AcDbLine
 10
524.0687483249179
 20
194.5008967249411
 30
0.0
 11
524.5958023249179
 21
194.5008967249411
 31
0.0
  0
LINE
  5
F06
330
18
100
AcDbEntity
  8
1
  6
Continuous
100
AcDbLine
 10
516.4057463249179
 20
198.9251316249411
 30
0.0
 11
516.142220324918
 21
199.3815737249413
 31
0.0
  0
ARC
  5
F07
330
18
100
AcDbEntity
  8
1
  6
Continuous
100
AcDbCircle
 10
519.8261073249178
 20
196.0008967249413
 30
0.0
 40
5.0
100
AcDbArc
 50
102.542390000006
 51
137.4576000000074
  0
LINE
  5
F08
330
18
100
AcDbEntity
  8
1
  6
Continuous
100
AcDbLine
 10
516.4057463249179
 20
193.0766618249413
 30
0.0
 11
516.142220324918
 21
192.6202197249413
 31
0.0
  0
LINE
  5
F09
330
18
100
AcDbEntity
  8
1
  6
Continuous
100
AcDbLine
 10
519.0038223249179
 20
200.4251316249411
 30
0.0
 11
518.7402953249179
 21
200.8815734249411
 31
0.0
  0
LINE
  5
F0A
330
18
100
AcDbEntity
  8
1
  6
Continuous
100
AcDbLine
 10
519.0038223249179
 20
191.5766618249413
 30
0.0
 11
518.7402953249179
 21
191.1202200249413
 31
0.0
  0
CIRCLE
  5
F0D
330
18
100
AcDbEntity
  8
1
  6
Continuous
100
AcDbCircle
 10
519.8261073249178
 20
196.0008967249413
 30
0.0
 40
4.5
  0
ARC
  5
F0E
330
18
100
AcDbEntity
  8
1
  6
Continuous
100
AcDbCircle
 10
519.8261073249178
 20
196.0008967249413
 30
0.0
 40
5.0
100
AcDbArc
 50
222.5423999999923
 51
257.4576099999938
  0
LINE
  5
F0F
330
18
100
AcDbEntity
  8
1
  6
Continuous
100
AcDbLine
 10
526.3261073249179
 20
199.3235462249413
 30
0.0
 11
526.3261073249179
 21
192.6782472249411
 31
0.0
  0
LINE
  5
F10
330
18
100
AcDbEntity
  8
1
  6
Continuous
100
AcDbLine
 10
180.3261073249176
 20
43.72941828386102
 30
0.0
 11
179.6904490249176
 21
43.36242210203421
 31
0.0
  0
ARC
  5
F11
330
18
100
AcDbEntity
  8
1
  6
Continuous
100
AcDbCircle
 10
179.328376456119
 20
47.4950906020341
 30
0.0
 40
1.0
100
AcDbArc
 50
356.1394463623628
 51
60.14999000000472
  0
ARC
  5
F12
330
18
100
AcDbEntity
  8
1
  6
Continuous
100
AcDbCircle
 10
177.0772418905183
 20
57.17460585734954
 30
0.0
 40
13.41218555531533
100
AcDbArc
 50
255.9716747596946
 51
284.0283252403052
  0
LINE
  5
F13
330
18
100
AcDbEntity
  8
1
  6
Continuous
100
AcDbLine
 10
167.3261073249176
 20
43.72941828386092
 30
0.0
 11
167.3261073249176
 21
47.42776220203483
 31
0.0
  0
LINE
  5
F14
330
18
100
AcDbEntity
  8
1
  6
Continuous
100
AcDbLine
 10
173.8261101774959
 20
44.16242865636102
 30
0.0
 11
173.8261101774959
 21
47.5624148563611
 31
0.0
  0
ARC
  5
F16
330
18
100
AcDbEntity
  8
1
  6
Continuous
100
AcDbCircle
 10
170.5749727593168
 20
57.17460585734954
 30
0.0
 40
13.41218555531533
100
AcDbArc
 50
255.9716747596946
 51
284.0283252403052
  0
LINE
  5
F17
330
18
100
AcDbEntity
  8
1
  6
Continuous
100
AcDbLine
 10
167.9617541249175
 20
43.36242210203421
 30
0.0
 11
179.6904490249176
 21
43.36242210203421
 31
0.0
  0
LINE
  5
F18
330
18
100
AcDbEntity
  8
1
  6
Continuous
100
AcDbLine
 10
167.3261073249176
 20
43.72941828386092
 30
0.0
 11
167.9617656249175
 21
43.36242210203421
 31
0.0
  0
ARC
  5
F1A
330
18
100
AcDbEntity
  8
1
  6
Continuous
100
AcDbCircle
 10
168.323838193716
 20
47.4950906020341
 30
0.0
 40
1.0
100
AcDbArc
 50
119.8500099999953
 51
183.8605536375325
  0
ARC
  5
F1B
330
18
100
AcDbEntity
  8
1
  6
Continuous
100
AcDbCircle
 10
172.8261044723393
 20
47.4950906020341
 30
0.0
 40
1.0
100
AcDbArc
 50
0.0
 51
60.14999000000472
  0
ARC
  5
F1C
330
18
100
AcDbEntity
  8
1
  6
Continuous
100
AcDbCircle
 10
174.8261101774959
 20
47.4950906020341
 30
0.0
 40
1.0
100
AcDbArc
 50
119.8500099999953
 51
180.0
  0
LINE
  5
F1D
330
18
100
AcDbEntity
  8
1
  6
Continuous
100
AcDbLine
 10
180.3261073249176
 20
43.72941828386102
 30
0.0
 11
180.3261073249176
 21
47.42776220203302
 31
0.0
  0
LINE
  5
F1E
330
18
100
AcDbEntity
  8
1
  6
Continuous
100
AcDbLine
 10
24.62611042491767
 20
203.2508967249412
 30
0.0
 11
28.02610422491762
 21
203.2508967249412
 31
0.0
  0
LINE
  5
F1F
330
18
100
AcDbEntity
  8
1
  6
Continuous
100
AcDbLine
 10
24.62611042491767
 20
199.6008952249413
 30
0.0
 11
28.02609662491772
 21
199.6008952249413
 31
0.0
  0
LINE
  5
F20
330
18
100
AcDbEntity
  8
1
  6
Continuous
100
AcDbLine
 10
24.62611042491767
 20
192.4008982249412
 30
0.0
 11
28.02609662491772
 21
192.4008982249412
 31
0.0
  0
LINE
  5
F22
330
18
100
AcDbEntity
  8
1
  6
Continuous
100
AcDbLine
 10
24.62611042491767
 20
188.7508967249413
 30
0.0
 11
28.02610422491762
 21
188.7508967249413
 31
0.0
  0
ARC
  5
F24
330
18
100
AcDbEntity
  8
1
  6
Continuous
100
AcDbCircle
 10
27.82631042491766
 20
193.3807373249413
 30
0.0
 40
1.0
100
AcDbArc
 50
281.5245799999996
 51
1.155210000004124
  0
ARC
  5
F25
330
18
100
AcDbEntity
  8
1
  6
Continuous
100
AcDbCircle
 10
27.95877582491765
 20
191.4031670249413
 30
0.0
 40
1.0
100
AcDbArc
 50
29.85000999999691
 51
93.86022899999934
  0
ARC
  5
F26
330
18
100
AcDbEntity
  8
1
  6
Continuous
100
AcDbCircle
 10
27.95877582491765
 20
189.7486274249411
 30
0.0
 40
1.0
100
AcDbArc
 50
273.8605100000061
 51
330.1500000000042
  0
ARC
  5
F28
330
18
100
AcDbEntity
  8
1
  6
Continuous
100
AcDbCircle
 10
27.95877582491765
 20
202.2531660249413
 30
0.0
 40
1.0
100
AcDbArc
 50
29.84999999999573
 51
86.13949299999843
  0
ARC
  5
F29
330
18
100
AcDbEntity
  8
1
  6
Continuous
100
AcDbCircle
 10
27.95877582491765
 20
200.5986264249411
 30
0.0
 40
1.0
100
AcDbArc
 50
266.1397700000037
 51
330.149990000003
  0
ARC
  5
F2A
330
18
100
AcDbEntity
  8
1
  6
Continuous
100
AcDbCircle
 10
27.82631042491766
 20
198.6210561249411
 30
0.0
 40
1.0
100
AcDbArc
 50
358.8447899999958
 51
78.47542999999539
  0
ARC
  5
F2B
330
18
100
AcDbEntity
  8
1
  6
Continuous
100
AcDbCircle
 10
40.62604132491765
 20
196.0008967249413
 30
0.0
 40
16.399935
100
AcDbArc
 50
167.3195809999997
 51
192.6803999999995
  0
LINE
  5
F2C
330
18
100
AcDbEntity
  8
1
  6
Continuous
100
AcDbLine
 10
23.82610732491774
 20
190.1365435249413
 30
0.0
 11
23.82610732491774
 21
201.8652384249413
 31
0.0
  0
LINE
  5
F2D
330
18
100
AcDbEntity
  8
1
  6
Continuous
100
AcDbLine
 10
24.62616662491768
 20
188.7509310249411
 30
0.0
 11
23.82616212491757
 21
190.1365764249413
 31
0.0
  0
ARC
  5
F2E
330
18
100
AcDbEntity
  8
1
  6
Continuous
100
AcDbCircle
 10
28.58937482491773
 20
190.5758975249413
 30
0.0
 40
4.363269299999998
100
AcDbArc
 50
155.2749389999986
 51
204.7250400000017
  0
ARC
  5
F2F
330
18
100
AcDbEntity
  8
1
  6
Continuous
100
AcDbCircle
 10
28.58937482491773
 20
201.4258959249413
 30
0.0
 40
4.363265
100
AcDbArc
 50
155.2749389999986
 51
204.7250299999989
  0
LINE
  5
F30
330
18
100
AcDbEntity
  8
1
  6
Continuous
100
AcDbLine
 10
24.62607512491763
 20
203.2509024249411
 30
0.0
 11
23.82607442491758
 21
201.8652556249413
 31
0.0
  0
LINE
  5
F31
330
18
100
AcDbEntity
  8
1
  6
Continuous
100
AcDbLine
 10
369.0261030311148
 20
199.6008842140053
 30
0.0
 11
368.9281992658965
 21
199.6008842140053
 31
0.0
  0
ARC
  5
104B
330
18
100
AcDbEntity
  8
1
  6
Continuous
100
AcDbCircle
 10
519.8261073249178
 20
196.0008967249413
 30
0.0
 40
31.799999
100
AcDbArc
 50
149.972389454304
 51
81.09986593285013
  0
ARC
  5
104C
330
18
100
AcDbEntity
  8
1
  6
Continuous
100
AcDbCircle
 10
519.8261073249178
 20
196.0008967249413
 30
0.0
 40
37.5
100
AcDbArc
 50
146.79253717061
 51
84.27971790636767
  0
LINE
  5
104D
330
18
100
AcDbEntity
  8
1
  6
Continuous
100
AcDbLine
 10
545.3657173249178
 20
183.5650017249411
 30
0.0
 11
532.6595693249178
 21
190.9008977249411
 31
0.0
  0
LINE
  5
104E
330
18
100
AcDbEntity
  8
1
  6
Continuous
100
AcDbLine
 10
543.3657153249177
 20
180.1008957249413
 30
0.0
 11
530.6595653249178
 21
187.4367915249413
 31
0.0
  0
ARC
  5
105C
330
18
100
AcDbEntity
  8
1
  6
Continuous
100
AcDbCircle
 10
346.8261073249176
 20
158.5008967249413
 30
0.0
 40
75.0
100
AcDbArc
 50
81.73013999999936
 51
84.41529847864819
  0
ARC
  5
105D
330
18
100
AcDbEntity
  8
1
  6
Continuous
100
AcDbCircle
 10
346.8261073249176
 20
233.5008967249413
 30
0.0
 40
75.0
100
AcDbArc
 50
261.7301200000003
 51
278.2698600000006
  0
LINE
  5
1066
330
18
100
AcDbEntity
  8
1
  6
Continuous
100
AcDbLine
 10
334.3261073249176
 20
230.7418090268095
 30
0.0
 11
334.3261073249176
 21
161.2599837249413
 31
0.0
  0
ARC
  5
1067
330
18
100
AcDbEntity
  8
1
  6
Continuous
100
AcDbCircle
 10
336.3261073249177
 20
161.2599837249413
 30
0.0
 40
2.0
100
AcDbArc
 50
179.9999800000011
 51
261.7301200000003
  0
LINE
  5
106C
330
18
100
AcDbEntity
  8
1
  6
Continuous
100
AcDbLine
 10
332.7569083249176
 20
186.0032933087413
 30
0.0
 11
334.3261073249176
 21
185.8944400949411
 31
0.0
  0
LINE
  5
106D
330
18
100
AcDbEntity
  8
1
  6
Continuous
100
AcDbLine
 10
332.7569083249176
 20
205.9985001411412
 30
0.0
 11
334.3261073249176
 21
206.1073533549413
 31
0.0
  0
LINE
  5
106E
330
18
100
AcDbEntity
  8
1
  6
Continuous
100
AcDbLine
 10
331.8261073249177
 20
205.0008967249413
 30
0.0
 11
331.8261073249177
 21
187.0008967249413
 31
0.0
  0
ARC
  5
107D
330
18
100
AcDbEntity
  8
1
  6
Continuous
100
AcDbCircle
 10
332.8261073249176
 20
187.0008967249413
 30
0.0
 40
1.0
100
AcDbArc
 50
179.9999800000011
 51
266.0318000000015
  0
LINE
  5
107E
330
18
100
AcDbEntity
  8
1
  6
Continuous
100
AcDbLine
 10
330.8261073249177
 20
192.0008987249413
 30
0.0
 11
331.8261073249177
 21
192.0008987249413
 31
0.0
  0
LINE
  5
1087
330
18
100
AcDbEntity
  8
1
  6
Continuous
100
AcDbLine
 10
330.8261073249177
 20
200.0008967249413
 30
0.0
 11
331.8261073249177
 21
200.0008967249413
 31
0.0
  0
ARC
  5
1089
330
18
100
AcDbEntity
  8
1
  6
Continuous
100
AcDbCircle
 10
332.8261073249176
 20
205.0008967249413
 30
0.0
 40
1.0
100
AcDbArc
 50
93.96820000000172
 51
180.0000199999987
  0
ARC
  5
108B
330
18
100
AcDbEntity
  8
1
  6
Continuous
100
AcDbCircle
 10
336.3261073249177
 20
230.7418097249411
 30
0.0
 40
2.0
100
AcDbArc
 50
98.2698799999995
 51
180.0000199999987
  0
LINE
  5
10A3
330
18
100
AcDbEntity
  8
1
  6
Continuous
100
AcDbLine
 10
359.3261073249176
 20
230.7418097249411
 30
0.0
 11
359.3261073249176
 21
161.2599837249413
 31
0.0
  0
ARC
  5
10A4
330
18
100
AcDbEntity
  8
1
  6
Continuous
100
AcDbCircle
 10
357.3261073249176
 20
161.2599837249413
 30
0.0
 40
2.0
100
AcDbArc
 50
278.2698600000006
 51
0.0
  0
LINE
  5
10AF
330
18
100
AcDbEntity
  8
1
  6
Continuous
100
AcDbLine
 10
361.8261073249176
 20
205.0008967249413
 30
0.0
 11
361.8261073249176
 21
187.0008967249413
 31
0.0
  0
ARC
  5
10B0
330
18
100
AcDbEntity
  8
1
  6
Continuous
100
AcDbCircle
 10
360.8261073249177
 20
187.0008967249413
 30
0.0
 40
1.0
100
AcDbArc
 50
273.96818
 51
0.0
  0
LINE
  5
10B1
330
18
100
AcDbEntity
  8
1
  6
Continuous
100
AcDbLine
 10
359.3261073249176
 20
185.8944403449413
 30
0.0
 11
360.8953093249176
 21
186.003293813941
 31
0.0
  0
LINE
  5
10B2
330
18
100
AcDbEntity
  8
1
  6
Continuous
100
AcDbLine
 10
361.8261073249176
 20
192.0008987249413
 30
0.0
 11
362.8261153249177
 21
192.0008987249413
 31
0.0
  0
LINE
  5
10B3
330
18
100
AcDbEntity
  8
1
  6
Continuous
100
AcDbLine
 10
361.8261073249176
 20
200.0008967249413
 30
0.0
 11
362.8261153249177
 21
200.0008967249413
 31
0.0
  0
ARC
  5
10B4
330
18
100
AcDbEntity
  8
1
  6
Continuous
100
AcDbCircle
 10
360.8261073249177
 20
205.0008967249413
 30
0.0
 40
1.0
100
AcDbArc
 50
0.0
 51
86.03181999999987
  0
LINE
  5
10B5
330
18
100
AcDbEntity
  8
1
  6
Continuous
100
AcDbLine
 10
359.3261073249176
 20
206.1073531049411
 30
0.0
 11
360.8953093249176
 21
205.9984996359413
 31
0.0
  0
ARC
  5
10C7
330
18
100
AcDbEntity
  8
1
  6
Continuous
100
AcDbCircle
 10
357.3261073249176
 20
230.7418097249411
 30
0.0
 40
2.0
100
AcDbArc
 50
0.0
 51
81.73013999999936
  0
ARC
  5
10D5
330
18
100
AcDbEntity
  8
1
  6
Continuous
100
AcDbCircle
 10
543.3657153249177
 20
180.1009018249411
 30
0.0
 40
4.0
100
AcDbArc
 50
0.0000100000010134
 51
60.00000999999977
  0
ARC
  5
10D6
330
18
100
AcDbEntity
  8
1
  6
Continuous
100
AcDbCircle
 10
545.3657153249178
 20
183.5650036249413
 30
0.0
 40
4.0
100
AcDbArc
 50
240.0000399999996
 51
299.9999799999987
  0
ARC
  5
10EF
330
18
100
AcDbEntity
  8
1
  6
Continuous
100
AcDbCircle
 10
506.9926493249178
 20
190.9008968249413
 30
0.0
 40
4.0
100
AcDbArc
 50
300.0000200000018
 51
341.8952901366506
  0
ARC
  5
10F5
330
18
100
AcDbEntity
  8
1
  6
Continuous
100
AcDbCircle
 10
530.6595653249178
 20
187.4367974249413
 30
0.0
 40
4.0
100
AcDbArc
 50
60.00000999999977
 51
102.5497205018049
  0
ARC
  5
10F6
330
18
100
AcDbEntity
  8
1
  6
Continuous
100
AcDbCircle
 10
532.6595653249178
 20
190.9008987249411
 30
0.0
 40
4.0
100
AcDbArc
 50
197.4502807346794
 51
240.0000399999996
  0
LINE
  5
1101
330
18
100
AcDbEntity
  8
1
  6
Continuous
100
AcDbLine
 10
494.2864723249178
 20
183.5650046249413
 30
0.0
 11
506.9926193249179
 21
190.9009054249413
 31
0.0
  0
LINE
  5
1102
330
18
100
AcDbEntity
  8
1
  6
Continuous
100
AcDbLine
 10
496.2864723249179
 20
180.1009038249411
 30
0.0
 11
508.9926223249178
 21
187.4368044249413
 31
0.0
  0
ARC
  5
1103
330
18
100
AcDbEntity
  8
1
  6
Continuous
100
AcDbCircle
 10
496.2865103249177
 20
180.1008895249411
 30
0.0
 40
4.0
100
AcDbArc
 50
120.0000460000007
 51
179.9999863396215
  0
ARC
  5
1104
330
18
100
AcDbEntity
  8
1
  6
Continuous
100
AcDbCircle
 10
494.2865033249177
 20
183.5649903249411
 30
0.0
 40
4.0
100
AcDbArc
 50
240.0000200000012
 51
299.9999999999997
  0
ARC
  5
1105
330
18
100
AcDbEntity
  8
1
  6
Continuous
100
AcDbCircle
 10
508.9926493249178
 20
187.4367955249413
 30
0.0
 40
4.0
100
AcDbArc
 50
85.19701163938478
 51
120.0000460000007
  0
ARC
  5
115E
330
18
100
AcDbEntity
  8
1
  6
Continuous
100
AcDbCircle
 10
173.8261073249176
 20
196.0008967249411
 30
0.0
 40
37.5
100
AcDbArc
 50
95.72028209363232
 51
33.20746282938983
  0
ARC
  5
115F
330
18
100
AcDbEntity
  8
1
  6
Continuous
100
AcDbCircle
 10
173.8261073249176
 20
196.0008967249411
 30
0.0
 40
31.799999
100
AcDbArc
 50
98.90013406714986
 51
30.02761054569581
  0
LINE
  5
1160
330
18
100
AcDbEntity
  8
1
  6
Continuous
100
AcDbLine
 10
199.3657423249175
 20
183.5650046249411
 30
0.0
 11
186.6595953249175
 21
190.9009054249411
 31
0.0
  0
LINE
  5
1161
330
18
100
AcDbEntity
  8
1
  6
Continuous
100
AcDbLine
 10
197.3657423249175
 20
180.1009038249411
 30
0.0
 11
184.6595923249176
 21
187.4368044249411
 31
0.0
  0
ARC
  5
1162
330
18
100
AcDbEntity
  8
1
  6
Continuous
100
AcDbCircle
 10
199.3657113249176
 20
183.5649903249411
 30
0.0
 40
4.0
100
AcDbArc
 50
240.0000000000002
 51
299.9999799999987
  0
ARC
  5
1163
330
18
100
AcDbEntity
  8
1
  6
Continuous
100
AcDbCircle
 10
197.3657043249176
 20
180.1008895249411
 30
0.0
 40
4.0
100
AcDbArc
 50
0.00001366037834
 51
59.9999539999992
  0
ARC
  5
1164
330
18
100
AcDbEntity
  8
1
  6
Continuous
100
AcDbCircle
 10
186.6595653249174
 20
190.9008968249411
 30
0.0
 40
4.0
100
AcDbArc
 50
198.1047098633493
 51
239.999979999998
  0
ARC
  5
1165
330
18
100
AcDbEntity
  8
1
  6
Continuous
100
AcDbCircle
 10
184.6595653249176
 20
187.4367955249411
 30
0.0
 40
4.0
100
AcDbArc
 50
59.9999539999992
 51
94.80298836061523
  0
LINE
  5
1166
330
18
100
AcDbEntity
  8
1
  6
Continuous
100
AcDbLine
 10
148.2864973249176
 20
183.5650017249411
 30
0.0
 11
160.9926453249175
 21
190.9008977249411
 31
0.0
  0
LINE
  5
1167
330
18
100
AcDbEntity
  8
1
  6
Continuous
100
AcDbLine
 10
150.2864993249175
 20
180.1008957249411
 30
0.0
 11
162.9926493249176
 21
187.4367915249411
 31
0.0
  0
ARC
  5
1168
330
18
100
AcDbEntity
  8
1
  6
Continuous
100
AcDbCircle
 10
160.9926493249176
 20
190.9008987249411
 30
0.0
 40
4.0
100
AcDbArc
 50
299.9999600000002
 51
342.5497192653206
  0
ARC
  5
1169
330
18
100
AcDbEntity
  8
1
  6
Continuous
100
AcDbCircle
 10
162.9926493249176
 20
187.4367974249411
 30
0.0
 40
4.0
100
AcDbArc
 50
77.45027949819513
 51
119.9999900000002
  0
ARC
  5
116A
330
18
100
AcDbEntity
  8
1
  6
Continuous
100
AcDbCircle
 10
148.2864993249175
 20
183.5650036249411
 30
0.0
 40
4.0
100
AcDbArc
 50
240.0000200000012
 51
299.9999600000002
  0
ARC
  5
116B
330
18
100
AcDbEntity
  8
1
  6
Continuous
100
AcDbCircle
 10
150.2864993249175
 20
180.1009018249411
 30
0.0
 40
4.0
100
AcDbArc
 50
119.9999900000002
 51
179.9999899999988
  0
LINE
  5
116C
330
18
100
AcDbEntity
  8
1
  6
Continuous
100
AcDbLine
 10
61.82610732491776
 20
205.0008967249413
 30
0.0
 11
61.82610732491776
 21
187.0008967249413
 31
0.0
  0
LINE
  5
116D
330
18
100
AcDbEntity
  8
1
  6
Continuous
100
AcDbLine
 10
59.32610732491776
 20
230.7418097249411
 30
0.0
 11
59.32610732491776
 21
161.2599837249413
 31
0.0
  0
LINE
  5
116E
330
18
100
AcDbEntity
  8
1
  6
Continuous
100
AcDbLine
 10
31.82610732491776
 20
205.0008967249413
 30
0.0
 11
31.82610732491776
 21
187.0008967249413
 31
0.0
  0
LINE
  5
116F
330
18
100
AcDbEntity
  8
1
  6
Continuous
100
AcDbLine
 10
34.32610732491776
 20
230.7418090268095
 30
0.0
 11
34.32610732491776
 21
161.2599837249413
 31
0.0
  0
ARC
  5
1170
330
18
100
AcDbEntity
  8
1
  6
Continuous
100
AcDbCircle
 10
46.82610732491776
 20
233.5008967249413
 30
0.0
 40
75.0
100
AcDbArc
 50
261.7301200000003
 51
278.2698600000006
  0
ARC
  5
1171
330
18
100
AcDbEntity
  8
1
  6
Continuous
100
AcDbCircle
 10
36.32610732491775
 20
161.2599837249413
 30
0.0
 40
2.0
100
AcDbArc
 50
179.9999800000011
 51
261.7301200000003
  0
LINE
  5
1172
330
18
100
AcDbEntity
  8
1
  6
Continuous
100
AcDbLine
 10
32.75690832491773
 20
186.0032933087413
 30
0.0
 11
34.32610732491776
 21
185.8944400949411
 31
0.0
  0
ARC
  5
1173
330
18
100
AcDbEntity
  8
1
  6
Continuous
100
AcDbCircle
 10
32.82610732491775
 20
187.0008967249413
 30
0.0
 40
1.0
100
AcDbArc
 50
179.9999800000011
 51
266.0318000000015
  0
ARC
  5
1174
330
18
100
AcDbEntity
  8
1
  6
Continuous
100
AcDbCircle
 10
57.32610732491774
 20
161.2599837249413
 30
0.0
 40
2.0
100
AcDbArc
 50
278.2698600000006
 51
0.0
  0
LINE
  5
1175
330
18
100
AcDbEntity
  8
1
  6
Continuous
100
AcDbLine
 10
59.32610732491776
 20
185.8944403449413
 30
0.0
 11
60.89530932491777
 21
186.003293813941
 31
0.0
  0
ARC
  5
1176
330
18
100
AcDbEntity
  8
1
  6
Continuous
100
AcDbCircle
 10
60.82610732491776
 20
187.0008967249413
 30
0.0
 40
1.0
100
AcDbArc
 50
273.96818
 51
0.0
  0
ARC
  5
1177
330
18
100
AcDbEntity
  8
1
  6
Continuous
100
AcDbCircle
 10
57.32610732491774
 20
230.7418097249411
 30
0.0
 40
2.0
100
AcDbArc
 50
0.0
 51
81.73013999999936
  0
ARC
  5
1178
330
18
100
AcDbEntity
  8
1
  6
Continuous
100
AcDbCircle
 10
36.32610732491775
 20
230.7418097249411
 30
0.0
 40
2.0
100
AcDbArc
 50
98.2698799999995
 51
180.0000199999987
  0
LINE
  5
1179
330
18
100
AcDbEntity
  8
1
  6
Continuous
100
AcDbLine
 10
30.82610732491775
 20
200.0008967249413
 30
0.0
 11
31.82610732491776
 21
200.0008967249413
 31
0.0
  0
LINE
  5
117A
330
18
100
AcDbEntity
  8
1
  6
Continuous
100
AcDbLine
 10
30.82610732491775
 20
192.0008987249413
 30
0.0
 11
31.82610732491776
 21
192.0008987249413
 31
0.0
  0
LINE
  5
117B
330
18
100
AcDbEntity
  8
1
  6
Continuous
100
AcDbLine
 10
32.75690832491773
 20
205.9985001411412
 30
0.0
 11
34.32610732491776
 21
206.1073533549413
 31
0.0
  0
ARC
  5
117C
330
18
100
AcDbEntity
  8
1
  6
Continuous
100
AcDbCircle
 10
32.82610732491775
 20
205.0008967249413
 30
0.0
 40
1.0
100
AcDbArc
 50
93.96820000000172
 51
180.0000199999987
  0
LINE
  5
117D
330
18
100
AcDbEntity
  8
1
  6
Continuous
100
AcDbLine
 10
61.82610732491767
 20
200.0008967249413
 30
0.0
 11
62.82611532491768
 21
200.0008967249413
 31
0.0
  0
LINE
  5
117E
330
18
100
AcDbEntity
  8
1
  6
Continuous
100
AcDbLine
 10
61.82610732491767
 20
192.0008987249413
 30
0.0
 11
62.82611532491768
 21
192.0008987249413
 31
0.0
  0
LINE
  5
117F
330
18
100
AcDbEntity
  8
1
  6
Continuous
100
AcDbLine
 10
59.32610732491776
 20
206.1073531049411
 30
0.0
 11
60.89530932491777
 21
205.9984996359413
 31
0.0
  0
ARC
  5
1180
330
18
100
AcDbEntity
  8
1
  6
Continuous
100
AcDbCircle
 10
60.82610732491776
 20
205.0008967249413
 30
0.0
 40
1.0
100
AcDbArc
 50
0.0
 51
86.03181999999987
  0
ARC
  5
1181
330
18
100
AcDbEntity
  8
1
  6
Continuous
100
AcDbCircle
 10
46.82610732491776
 20
158.5008967249413
 30
0.0
 40
75.0
100
AcDbArc
 50
81.73013999999936
 51
98.2698799999995
  0
ARC
  5
1182
330
18
100
AcDbEntity
  8
1
  6
Continuous
100
AcDbCircle
 10
346.8261073249176
 20
158.5008967249413
 30
0.0
 40
75.0
100
AcDbArc
 50
95.58470152135177
 51
98.2698799999995
  0
LINE
  5
1198
330
18
100
AcDbEntity
  8
1
  6
Continuous
100
AcDbLine
 10
208.5670196267858
 20
78.86242210203405
 30
0.0
 11
139.0851943249176
 21
78.86242210203405
 31
0.0
  0
LINE
  5
1199
330
18
100
AcDbEntity
  8
1
  6
Continuous
100
AcDbLine
 10
182.8261073249176
 20
81.36242210203404
 30
0.0
 11
164.8261073249176
 21
81.36242210203404
 31
0.0
  0
LINE
  5
119A
330
18
100
AcDbEntity
  8
1
  6
Continuous
100
AcDbLine
 10
208.5670203249176
 20
53.86242210203405
 30
0.0
 11
139.0851943249176
 21
53.86242210203409
 31
0.0
  0
LINE
  5
119B
330
18
100
AcDbEntity
  8
1
  6
Continuous
100
AcDbLine
 10
182.8261073249176
 20
51.36242210203409
 30
0.0
 11
164.8261073249176
 21
51.36242210203409
 31
0.0
  0
ARC
  5
11A0
330
18
100
AcDbEntity
  8
1
  6
Continuous
100
AcDbCircle
 10
211.3261073249176
 20
66.36242210203405
 30
0.0
 40
75.0
100
AcDbArc
 50
171.7301200000004
 51
188.2698600000006
  0
ARC
  5
11A1
330
18
100
AcDbEntity
  8
1
  6
Continuous
100
AcDbCircle
 10
139.0851943249176
 20
76.86242210203406
 30
0.0
 40
2.0
100
AcDbArc
 50
89.99998000000124
 51
171.7301200000004
  0
ARC
  5
11A2
330
18
100
AcDbEntity
  8
1
  6
Continuous
100
AcDbCircle
 10
164.8261073249176
 20
80.36242210203406
 30
0.0
 40
1.0
100
AcDbArc
 50
89.99998000000124
 51
176.0318000000014
  0
LINE
  5
11A4
330
18
100
AcDbEntity
  8
1
  6
Continuous
100
AcDbLine
 10
163.8285039087176
 20
80.43162110203409
 30
0.0
 11
163.7196506949175
 21
78.86242210203405
 31
0.0
  0
ARC
  5
11A5
330
18
100
AcDbEntity
  8
1
  6
Continuous
100
AcDbCircle
 10
139.0851943249176
 20
55.86242210203408
 30
0.0
 40
2.0
100
AcDbArc
 50
188.2698600000006
 51
270.0
  0
ARC
  5
11A7
330
18
100
AcDbEntity
  8
1
  6
Continuous
100
AcDbCircle
 10
164.8261073249176
 20
52.3624221020341
 30
0.0
 40
1.0
100
AcDbArc
 50
183.96818
 51
270.0
  0
LINE
  5
11A8
330
18
100
AcDbEntity
  8
1
  6
Continuous
100
AcDbLine
 10
163.7196509449175
 20
53.86242210203409
 30
0.0
 11
163.8285044139175
 21
52.29322010203407
 31
0.0
  0
LINE
  5
11A9
330
18
100
AcDbEntity
  8
1
  6
Continuous
100
AcDbLine
 10
169.8261093249176
 20
82.36242210203405
 30
0.0
 11
169.8261093249176
 21
81.36242210203404
 31
0.0
  0
ARC
  5
11AD
330
18
100
AcDbEntity
  8
1
  6
Continuous
100
AcDbCircle
 10
182.8261073249176
 20
80.36242210203406
 30
0.0
 40
1.0
100
AcDbArc
 50
3.968200000001706
 51
90.00001999999872
  0
LINE
  5
11AE
330
18
100
AcDbEntity
  8
1
  6
Continuous
100
AcDbLine
 10
177.8261073249176
 20
82.36242210203405
 30
0.0
 11
177.8261073249176
 21
81.36242210203404
 31
0.0
  0
LINE
  5
11B2
330
18
100
AcDbEntity
  8
1
  6
Continuous
100
AcDbLine
 10
183.8237107411176
 20
80.43162110203409
 30
0.0
 11
183.9325639549176
 21
78.86242210203405
 31
0.0
  0
LINE
  5
11B7
330
18
100
AcDbEntity
  8
1
  6
Continuous
100
AcDbLine
 10
169.8261093249176
 20
51.36242210203416
 30
0.0
 11
169.8261093249176
 21
50.36241410203416
 31
0.0
  0
ARC
  5
11C1
330
18
100
AcDbEntity
  8
1
  6
Continuous
100
AcDbCircle
 10
182.8261073249176
 20
52.3624221020341
 30
0.0
 40
1.0
100
AcDbArc
 50
270.0
 51
356.0318199999999
  0
LINE
  5
11C2
330
18
100
AcDbEntity
  8
1
  6
Continuous
100
AcDbLine
 10
183.9325637049176
 20
53.86242210203409
 30
0.0
 11
183.8237102359175
 21
52.29322010203407
 31
0.0
  0
LINE
  5
11C3
330
18
100
AcDbEntity
  8
1
  6
Continuous
100
AcDbLine
 10
177.8261073249176
 20
51.36242210203416
 30
0.0
 11
177.8261073249176
 21
50.36241410203416
 31
0.0
  0
ARC
  5
11CC
330
18
100
AcDbEntity
  8
1
  6
Continuous
100
AcDbCircle
 10
136.3261073249176
 20
66.36242210203409
 30
0.0
 40
75.0
100
AcDbArc
 50
351.7301399999993
 51
8.269879999999494
  0
ARC
  5
11D4
330
18
100
AcDbEntity
  8
1
  6
Continuous
100
AcDbCircle
 10
208.5670203249176
 20
76.86242210203406
 30
0.0
 40
2.0
100
AcDbArc
 50
8.269879999999494
 51
90.00001999999872
  0
ARC
  5
11D6
330
18
100
AcDbEntity
  8
1
  6
Continuous
100
AcDbCircle
 10
208.5670203249176
 20
55.86242210203406
 30
0.0
 40
2.0
100
AcDbArc
 50
270.0
 51
351.7301399999993
  0
ARC
  5
11EF
330
18
100
AcDbEntity
  8
1
  6
Continuous
100
AcDbCircle
 10
211.3261073249176
 20
341.5009027249411
 30
0.0
 40
75.0
100
AcDbArc
 50
171.7301200000004
 51
188.2698600000006
  0
ARC
  5
11F0
330
18
100
AcDbEntity
  8
1
  6
Continuous
100
AcDbCircle
 10
139.0851943249176
 20
331.0009027249411
 30
0.0
 40
2.0
100
AcDbArc
 50
188.2698600000006
 51
270.0
  0
ARC
  5
11F1
330
18
100
AcDbEntity
  8
1
  6
Continuous
100
AcDbCircle
 10
139.0851943249176
 20
352.0009027249411
 30
0.0
 40
2.0
100
AcDbArc
 50
89.99998000000124
 51
171.7301200000004
  0
LINE
  5
11F2
330
18
100
AcDbEntity
  8
1
  6
Continuous
100
AcDbLine
 10
168.0715303101695
 20
329.0009027249411
 30
0.0
 11
139.0851943249176
 21
329.0009027249411
 31
0.0
  0
LINE
  5
11F3
330
18
100
AcDbEntity
  8
1
  6
Continuous
100
AcDbLine
 10
168.0715303101695
 20
354.0009027249411
 30
0.0
 11
139.0851943249176
 21
354.0009027249411
 31
0.0
  0
ARC
  5
11F4
330
18
100
AcDbEntity
  8
1
  6
Continuous
100
AcDbCircle
 10
164.8261073249176
 20
355.5009027249413
 30
0.0
 40
1.0
100
AcDbArc
 50
89.99998000000124
 51
176.0318000000014
  0
LINE
  5
11F5
330
18
100
AcDbEntity
  8
1
  6
Continuous
100
AcDbLine
 10
163.8285039087176
 20
355.5701017249413
 30
0.0
 11
163.7196506949175
 21
354.0009027249411
 31
0.0
  0
LINE
  5
11F6
330
18
100
AcDbEntity
  8
1
  6
Continuous
100
AcDbLine
 10
167.7362815699023
 20
356.5009027249411
 30
0.0
 11
164.8261073249176
 21
356.5009027249411
 31
0.0
  0
ARC
  5
11F7
330
18
100
AcDbEntity
  8
1
  6
Continuous
100
AcDbCircle
 10
164.8261073249176
 20
327.5009027249411
 30
0.0
 40
1.0
100
AcDbArc
 50
183.96818
 51
270.0
  0
LINE
  5
11F8
330
18
100
AcDbEntity
  8
1
  6
Continuous
100
AcDbLine
 10
163.7196509449175
 20
329.0009027249411
 30
0.0
 11
163.8285044139175
 21
327.4317007249412
 31
0.0
  0
LINE
  5
11F9
330
18
100
AcDbEntity
  8
1
  6
Continuous
100
AcDbLine
 10
167.7362815699023
 20
326.5009027249411
 30
0.0
 11
164.8261073249176
 21
326.5009027249411
 31
0.0
  0
ENDSEC
  0
SECTION
  2
OBJECTS
  0
DICTIONARY
  5
C
330
0
100
AcDbDictionary
281
     1
  3
ACAD_CIP_PREVIOUS_PRODUCT_INFO
350
1309
  3
ACAD_COLOR
350
12EC
  3
ACAD_DETAILVIEWSTYLE
350
1305
  3
ACAD_GROUP
350
D
  3
ACAD_LAYOUT
350
5D
  3
ACAD_MATERIAL
350
12BA
  3
ACAD_MLEADERSTYLE
350
1301
  3
ACAD_MLINESTYLE
350
1B
  3
ACAD_PLOTSETTINGS
350
5E
  3
ACAD_PLOTSTYLENAME
350
12B8
  3
ACAD_SCALELIST
350
12EF
  3
ACAD_SECTIONVIEWSTYLE
350
1303
  3
ACAD_TABLESTYLE
350
12ED
  3
ACAD_VISUALSTYLE
350
12D3
  3
ACDB_RECOMPOSE_DATA
350
1327
  3
AcDbVariableDictionary
350
131A
  3
CONTENTDICTIONARY
350
3D
  3
DWGPROPS
350
1328
  0
DICTIONARY
  5
130A
330
E
100
AcDbDictionary
280
     1
281
     1
  3
ADSK_XREC_LAYER_RECONCILED
360
130B
  0
DICTIONARY
  5
130C
330
7D
100
AcDbDictionary
280
     1
281
     1
  3
ADSK_XREC_LAYER_RECONCILED
360
130D
  0
DICTIONARY
  5
130E
330
7E
100
AcDbDictionary
280
     1
281
     1
  3
ADSK_XREC_LAYER_RECONCILED
360
130F
  0
DICTIONARY
  5
1310
330
7F
100
AcDbDictionary
280
     1
281
     1
  3
ADSK_XREC_LAYER_RECONCILED
360
1311
  0
DICTIONARY
  5
1312
330
80
100
AcDbDictionary
280
     1
281
     1
  3
ADSK_XREC_LAYER_RECONCILED
360
1313
  0
DICTIONARY
  5
1314
330
81
100
AcDbDictionary
280
     1
281
     1
  3
ADSK_XREC_LAYER_RECONCILED
360
1315
  0
DICTIONARY
  5
1316
330
82
100
AcDbDictionary
280
     1
281
     1
  3
ADSK_XREC_LAYER_RECONCILED
360
1317
  0
DICTIONARY
  5
1318
330
83
100
AcDbDictionary
280
     1
281
     1
  3
ADSK_XREC_LAYER_RECONCILED
360
1319
  0
DICTIONARY
  5
129C
330
18
100
AcDbDictionary
281
     1
  3
ACAD_LAYOUTSELFREF
350
12B4
  0
DICTIONARY
  5
129A
330
15
100
AcDbDictionary
281
     1
  3
ACAD_LAYOUTSELFREF
350
12B3
  0
XRECORD
  5
1309
102
{ACAD_REACTORS
330
C
102
}
330
C
100
AcDbXrecord
280
     1
300
ACDLT
300
2014
300
ACDLT_F_S
  0
DICTIONARY
  5
12EC
102
{ACAD_REACTORS
330
C
102
}
330
C
100
AcDbDictionary
281
     1
  0
DICTIONARY
  5
1305
102
{ACAD_REACTORS
330
C
102
}
330
C
100
AcDbDictionary
281
     1
  3
Imperial24
350
1306
  0
DICTIONARY
  5
D
102
{ACAD_REACTORS
330
C
102
}
330
C
100
AcDbDictionary
281
     1
  0
DICTIONARY
  5
5D
102
{ACAD_REACTORS
330
C
102
}
330
C
100
AcDbDictionary
281
     1
  3
Model
350
1307
  3
レイアウト1
350
1308
  0
DICTIONARY
  5
12BA
102
{ACAD_REACTORS
330
C
102
}
330
C
100
AcDbDictionary
281
     1
  3
ByBlock
350
12C3
  3
ByLayer
350
12BB
  3
Global
350
12CB
  0
DICTIONARY
  5
1301
102
{ACAD_REACTORS
330
C
102
}
330
C
100
AcDbDictionary
281
     1
  3
Standard
350
1302
  0
DICTIONARY
  5
1B
102
{ACAD_REACTORS
330
C
102
}
330
C
100
AcDbDictionary
281
     1
  3
STANDARD
350
1C
  0
DICTIONARY
  5
5E
102
{ACAD_REACTORS
330
C
102
}
330
C
100
AcDbDictionary
281
     1
  0
ACDBDICTIONARYWDFLT
  5
12B8
102
{ACAD_REACTORS
330
C
102
}
330
C
100
AcDbDictionary
281
     1
  3
Normal
350
12B9
100
AcDbDictionaryWithDefault
340
12B9
  0
DICTIONARY
  5
12EF
102
{ACAD_REACTORS
330
C
102
}
330
C
100
AcDbDictionary
281
     1
  3
A0
350
12F0
  3
A1
350
12F1
  3
A2
350
12F2
  3
A3
350
12F3
  3
A4
350
12F4
  3
A5
350
12F5
  3
A6
350
12F6
  3
A7
350
12F7
  3
A8
350
12F8
  3
A9
350
12F9
  3
B0
350
12FA
  3
B1
350
12FB
  3
B2
350
12FC
  3
B3
350
12FD
  3
B4
350
12FE
  3
B5
350
12FF
  3
B6
350
1300
  0
DICTIONARY
  5
1303
102
{ACAD_REACTORS
330
C
102
}
330
C
100
AcDbDictionary
281
     1
  3
Imperial24
350
1304
  0
DICTIONARY
  5
12ED
102
{ACAD_REACTORS
330
C
102
}
330
C
100
AcDbDictionary
281
     1
  3
Standard
350
12EE
  0
DICTIONARY
  5
12D3
102
{ACAD_REACTORS
330
C
102
}
330
C
100
AcDbDictionary
281
     1
  3
2dWireframe
350
12D9
  3
Basic
350
12D8
  3
Brighten
350
12DF
  3
ColorChange
350
12E3
  3
Conceptual
350
12DC
  3
Dim
350
12DE
  3
EdgeColorOff
350
12EB
  3
Facepattern
350
12E2
  3
Flat
350
12D4
  3
FlatWithEdges
350
12D5
  3
Gouraud
350
12D6
  3
GouraudWithEdges
350
12D7
  3
Hidden
350
12DB
  3
JitterOff
350
12E9
  3
Linepattern
350
12E1
  3
OverhangOff
350
12EA
  3
Realistic
350
12DD
  3
Shaded
350
12E8
  3
Shaded with edges
350
12E7
  3
Shades of Gray
350
12E4
  3
Sketchy
350
12E5
  3
Thicken
350
12E0
  3
Wireframe
350
12DA
  3
X-Ray
350
12E6
  0
XRECORD
  5
1327
102
{ACAD_REACTORS
330
C
102
}
330
C
100
AcDbXrecord
280
     1
 90
        1
330
12EE
  0
DICTIONARY
  5
131A
102
{ACAD_REACTORS
330
C
102
}
330
C
100
AcDbDictionary
281
     1
  3
CANNOSCALE
350
131F
  3
CMLEADERSTYLE
350
131C
  3
CTABLESTYLE
350
131B
  3
CVIEWDETAILSTYLE
350
131D
  3
CVIEWSECTIONSTYLE
350
131E
  3
DIMASSOC
350
1322
  3
INDEXCTL
350
1321
  3
SORTENTS
350
1320
  3
XCLIPFRAME
350
1323
  0
DICTIONARY
  5
3D
102
{ACAD_REACTORS
330
C
102
}
330
C
100
AcDbDictionary
281
     1
  0
XRECORD
  5
1328
102
{ACAD_REACTORS
330
C
102
}
330
C
100
AcDbXrecord
280
     1
  1
DWGPROPS COOKIE
  2

  3

  4

  6

  7

  8
Yoshitsune
  9

300
=
301
=
302
=
303
=
304
=
305
=
306
=
307
=
308
=
309
=
 40
0.3560076736111111
 41
2453252.417179179
 42
2457192.689678796
  1

 90
        0
  0
XRECORD
  5
130B
102
{ACAD_REACTORS
330
130A
102
}
330
130A
100
AcDbXrecord
280
     1
290
     1
  0
XRECORD
  5
130D
102
{ACAD_REACTORS
330
130C
102
}
330
130C
100
AcDbXrecord
280
     1
290
     1
  0
XRECORD
  5
130F
102
{ACAD_REACTORS
330
130E
102
}
330
130E
100
AcDbXrecord
280
     1
290
     1
  0
XRECORD
  5
1311
102
{ACAD_REACTORS
330
1310
102
}
330
1310
100
AcDbXrecord
280
     1
290
     1
  0
XRECORD
  5
1313
102
{ACAD_REACTORS
330
1312
102
}
330
1312
100
AcDbXrecord
280
     1
290
     1
  0
XRECORD
  5
1315
102
{ACAD_REACTORS
330
1314
102
}
330
1314
100
AcDbXrecord
280
     1
290
     1
  0
XRECORD
  5
1317
102
{ACAD_REACTORS
330
1316
102
}
330
1316
100
AcDbXrecord
280
     1
290
     1
  0
XRECORD
  5
1319
102
{ACAD_REACTORS
330
1318
102
}
330
1318
100
AcDbXrecord
280
     1
290
     1
  0
XRECORD
  5
12B4
102
{ACAD_REACTORS
330
129C
102
}
330
129C
100
AcDbXrecord
280
     1
340
18
  0
XRECORD
  5
12B3
102
{ACAD_REACTORS
330
129A
102
}
330
129A
100
AcDbXrecord
280
     1
340
15
  0
ACDBDETAILVIEWSTYLE
  5
1306
102
{ACAD_XDICTIONARY
360
1360
102
}
102
{ACAD_REACTORS
330
1305
102
}
330
1305
100
AcDbModelDocViewStyle
 70
     0
  3
Imperial24
290
     0
100
AcDbDetailViewStyle
 70
     0
 71
     0
 90
        3
 71
     1
340
F
 40
0.24
340
0
 40
0.24
300

 40
0.36
280
     3
 71
     2
340
14
 90
       25
 71
     3
340
F
 40
0.24
 90
        1
 40
0.75
 90
        1
300
%<\AcVar ViewType \f "%tc1">% %<\AcVar ViewDetailId>%\PSCALE %<\AcVar ViewScale \f "%sn">%
 71
     4
340
14
 90
       25
340
14
 90
       25
280
     0
  0
LAYOUT
  5
1307
102
{ACAD_XDICTIONARY
360
1362
102
}
102
{ACAD_REACTORS
330
5D
102
}
330
5D
100
AcDbPlotSettings
  1

  2
Canon LBP9100C
  4

  6

 40
0.0
 41
0.0
 42
0.0
 43
0.0
 44
0.0
 45
0.0
 46
0.0
 47
0.0
 48
0.0
 49
0.0
140
0.0
141
0.0
142
1.0
143
1.0
 70
  1712
 72
     0
 73
     0
 74
     0
  7

 75
     0
147
1.0
148
0.0
149
0.0
100
AcDbLayout
  1
Model
 70
     1
 71
     0
 10
0.0
 20
0.0
 11
12.0
 21
9.0
 12
0.0
 22
0.0
 32
0.0
 14
0.0
 24
0.0
 34
0.0
 15
0.0
 25
0.0
 35
0.0
146
0.0
 13
0.0
 23
0.0
 33
0.0
 16
1.0
 26
0.0
 36
0.0
 17
0.0
 27
1.0
 37
0.0
 76
     0
330
18
331
12B2
  0
LAYOUT
  5
1308
102
{ACAD_XDICTIONARY
360
1364
102
}
102
{ACAD_REACTORS
330
5D
102
}
330
5D
100
AcDbPlotSettings
  1

  2
Canon LBP9100C
  4

  6

 40
0.0
 41
0.0
 42
0.0
 43
0.0
 44
0.0
 45
0.0
 46
0.0
 47
0.0
 48
0.0
 49
0.0
140
0.0
141
0.0
142
1.0
143
1.0
 70
   688
 72
     0
 73
     0
 74
     5
  7

 75
    16
147
1.0
148
0.0
149
0.0
100
AcDbLayout
  1
レイアウト1
 70
     1
 71
     1
 10
0.0
 20
0.0
 11
420.0
 21
297.0
 12
0.0
 22
0.0
 32
0.0
 14
1.000000000000000E+20
 24
1.000000000000000E+20
 34
1.000000000000000E+20
 15
-1.000000000000000E+20
 25
-1.000000000000000E+20
 35
-1.000000000000000E+20
146
0.0
 13
0.0
 23
0.0
 33
0.0
 16
1.0
 26
0.0
 36
0.0
 17
0.0
 27
1.0
 37
0.0
 76
     0
330
15
  0
MATERIAL
  5
12C3
102
{ACAD_XDICTIONARY
360
12C4
102
}
102
{ACAD_REACTORS
330
12BA
102
}
330
12BA
100
AcDbMaterial
  1
ByBlock
 72
     0
 43
0.0208333333333333
 43
0.0
 43
0.0
 43
0.0
 43
0.0
 43
0.0208333333333333
 43
0.0
 43
0.0
 43
0.0
 43
0.0
 43
1.0
 43
0.0
 43
0.0
 43
0.0
 43
0.0
 43
1.0
 77
     0
 47
0.0208333333333333
 47
0.0
 47
0.0
 47
0.0
 47
0.0
 47
0.0208333333333333
 47
0.0
 47
0.0
 47
0.0
 47
0.0
 47
1.0
 47
0.0
 47
0.0
 47
0.0
 47
0.0
 47
1.0
171
     0
 49
0.0208333333333333
 49
0.0
 49
0.0
 49
0.0
 49
0.0
 49
0.0208333333333333
 49
0.0
 49
0.0
 49
0.0
 49
0.0
 49
1.0
 49
0.0
 49
0.0
 49
0.0
 49
0.0
 49
1.0
175
     0
142
0.0208333333333333
142
0.0
142
0.0
142
0.0
142
0.0
142
0.0208333333333333
142
0.0
142
0.0
142
0.0
142
0.0
142
1.0
142
0.0
142
0.0
142
0.0
142
0.0
142
1.0
179
     0
144
0.0208333333333333
144
0.0
144
0.0
144
0.0
144
0.0
144
0.0208333333333333
144
0.0
144
0.0
144
0.0
144
0.0
144
1.0
144
0.0
144
0.0
144
0.0
144
0.0
144
1.0
147
0.0208333333333333
147
0.0
147
0.0
147
0.0
147
0.0
147
0.0208333333333333
147
0.0
147
0.0
147
0.0
147
0.0
147
1.0
147
0.0
147
0.0
147
0.0
147
0.0
147
1.0
  0
MATERIAL
  5
12BB
102
{ACAD_XDICTIONARY
360
12BC
102
}
102
{ACAD_REACTORS
330
12BA
102
}
330
12BA
100
AcDbMaterial
  1
ByLayer
 72
     0
 43
0.0208333333333333
 43
0.0
 43
0.0
 43
0.0
 43
0.0
 43
0.0208333333333333
 43
0.0
 43
0.0
 43
0.0
 43
0.0
 43
1.0
 43
0.0
 43
0.0
 43
0.0
 43
0.0
 43
1.0
 77
     0
 47
0.0208333333333333
 47
0.0
 47
0.0
 47
0.0
 47
0.0
 47
0.0208333333333333
 47
0.0
 47
0.0
 47
0.0
 47
0.0
 47
1.0
 47
0.0
 47
0.0
 47
0.0
 47
0.0
 47
1.0
171
     0
 49
0.0208333333333333
 49
0.0
 49
0.0
 49
0.0
 49
0.0
 49
0.0208333333333333
 49
0.0
 49
0.0
 49
0.0
 49
0.0
 49
1.0
 49
0.0
 49
0.0
 49
0.0
 49
0.0
 49
1.0
175
     0
142
0.0208333333333333
142
0.0
142
0.0
142
0.0
142
0.0
142
0.0208333333333333
142
0.0
142
0.0
142
0.0
142
0.0
142
1.0
142
0.0
142
0.0
142
0.0
142
0.0
142
1.0
179
     0
144
0.0208333333333333
144
0.0
144
0.0
144
0.0
144
0.0
144
0.0208333333333333
144
0.0
144
0.0
144
0.0
144
0.0
144
1.0
144
0.0
144
0.0
144
0.0
144
0.0
144
1.0
147
0.0208333333333333
147
0.0
147
0.0
147
0.0
147
0.0
147
0.0208333333333333
147
0.0
147
0.0
147
0.0
147
0.0
147
1.0
147
0.0
147
0.0
147
0.0
147
0.0
147
1.0
  0
MATERIAL
  5
12CB
102
{ACAD_XDICTIONARY
360
12CC
102
}
102
{ACAD_REACTORS
330
12BA
102
}
330
12BA
100
AcDbMaterial
  1
Global
 72
     0
 43
0.0208333333333333
 43
0.0
 43
0.0
 43
0.0
 43
0.0
 43
0.0208333333333333
 43
0.0
 43
0.0
 43
0.0
 43
0.0
 43
1.0
 43
0.0
 43
0.0
 43
0.0
 43
0.0
 43
1.0
 77
     0
 47
0.0208333333333333
 47
0.0
 47
0.0
 47
0.0
 47
0.0
 47
0.0208333333333333
 47
0.0
 47
0.0
 47
0.0
 47
0.0
 47
1.0
 47
0.0
 47
0.0
 47
0.0
 47
0.0
 47
1.0
171
     0
 49
0.0208333333333333
 49
0.0
 49
0.0
 49
0.0
 49
0.0
 49
0.0208333333333333
 49
0.0
 49
0.0
 49
0.0
 49
0.0
 49
1.0
 49
0.0
 49
0.0
 49
0.0
 49
0.0
 49
1.0
175
     0
142
0.0208333333333333
142
0.0
142
0.0
142
0.0
142
0.0
142
0.0208333333333333
142
0.0
142
0.0
142
0.0
142
0.0
142
1.0
142
0.0
142
0.0
142
0.0
142
0.0
142
1.0
179
     0
144
0.0208333333333333
144
0.0
144
0.0
144
0.0
144
0.0
144
0.0208333333333333
144
0.0
144
0.0
144
0.0
144
0.0
144
1.0
144
0.0
144
0.0
144
0.0
144
0.0
144
1.0
147
0.0208333333333333
147
0.0
147
0.0
147
0.0
147
0.0
147
0.0208333333333333
147
0.0
147
0.0
147
0.0
147
0.0
147
1.0
147
0.0
147
0.0
147
0.0
147
0.0
147
1.0
  0
MLEADERSTYLE
  5
1302
102
{ACAD_REACTORS
330
1301
102
}
330
1301
100
AcDbMLeaderStyle
170
     2
171
     1
172
     0
 90
        2
 40
0.0
 41
0.0
173
     1
 91
-1056964608
340
12
 92
       -2
290
     1
 42
0.09
291
     1
 43
0.36
  3
Standard
 44
0.18
300

342
F
174
     1
178
     6
175
     1
176
     0
 93
-1056964608
 45
0.18
292
     0
297
     0
 46
0.18
 94
-1056964608
 47
1.0
 49
1.0
140
1.0
293
     1
141
0.0
294
     1
177
     0
142
1.0
295
     0
296
     0
143
0.125
1001
ACAD_MLEADERVER
1070
     2
  0
MLINESTYLE
  5
1C
102
{ACAD_REACTORS
330
1B
102
}
330
1B
100
AcDbMlineStyle
  2
STANDARD
 70
     0
  3

 62
   256
 51
90.0
 52
90.0
 71
     2
 49
0.5
 62
   256
  6
BYLAYER
 49
-0.5
 62
   256
  6
BYLAYER
  0
ACDBPLACEHOLDER
  5
12B9
102
{ACAD_REACTORS
330
12B8
102
}
330
12B8
  0
SCALE
  5
12F0
102
{ACAD_REACTORS
330
12EF
102
}
330
12EF
100
AcDbScale
 70
     0
300
1:1
140
1.0
141
1.0
290
     1
  0
SCALE
  5
12F1
102
{ACAD_REACTORS
330
12EF
102
}
330
12EF
100
AcDbScale
 70
     0
300
1/128" = 1'-0"
140
0.0078125
141
12.0
290
     0
  0
SCALE
  5
12F2
102
{ACAD_REACTORS
330
12EF
102
}
330
12EF
100
AcDbScale
 70
     0
300
1/64" = 1'-0"
140
0.015625
141
12.0
290
     0
  0
SCALE
  5
12F3
102
{ACAD_REACTORS
330
12EF
102
}
330
12EF
100
AcDbScale
 70
     0
300
1/32" = 1'-0"
140
0.03125
141
12.0
290
     0
  0
SCALE
  5
12F4
102
{ACAD_REACTORS
330
12EF
102
}
330
12EF
100
AcDbScale
 70
     0
300
1/16" = 1'-0"
140
0.0625
141
12.0
290
     0
  0
SCALE
  5
12F5
102
{ACAD_REACTORS
330
12EF
102
}
330
12EF
100
AcDbScale
 70
     0
300
3/32" = 1'-0"
140
0.09375
141
12.0
290
     0
  0
SCALE
  5
12F6
102
{ACAD_REACTORS
330
12EF
102
}
330
12EF
100
AcDbScale
 70
     0
300
1/8" = 1'-0"
140
0.125
141
12.0
290
     0
  0
SCALE
  5
12F7
102
{ACAD_REACTORS
330
12EF
102
}
330
12EF
100
AcDbScale
 70
     0
300
3/16" = 1'-0"
140
0.1875
141
12.0
290
     0
  0
SCALE
  5
12F8
102
{ACAD_REACTORS
330
12EF
102
}
330
12EF
100
AcDbScale
 70
     0
300
1/4" = 1'-0"
140
0.25
141
12.0
290
     0
  0
SCALE
  5
12F9
102
{ACAD_REACTORS
330
12EF
102
}
330
12EF
100
AcDbScale
 70
     0
300
3/8" = 1'-0"
140
0.375
141
12.0
290
     0
  0
SCALE
  5
12FA
102
{ACAD_REACTORS
330
12EF
102
}
330
12EF
100
AcDbScale
 70
     0
300
1/2" = 1'-0"
140
0.5
141
12.0
290
     0
  0
SCALE
  5
12FB
102
{ACAD_REACTORS
330
12EF
102
}
330
12EF
100
AcDbScale
 70
     0
300
3/4" = 1'-0"
140
0.75
141
12.0
290
     0
  0
SCALE
  5
12FC
102
{ACAD_REACTORS
330
12EF
102
}
330
12EF
100
AcDbScale
 70
     0
300
1" = 1'-0"
140
1.0
141
12.0
290
     0
  0
SCALE
  5
12FD
102
{ACAD_REACTORS
330
12EF
102
}
330
12EF
100
AcDbScale
 70
     0
300
1-1/2" = 1'-0"
140
1.5
141
12.0
290
     0
  0
SCALE
  5
12FE
102
{ACAD_REACTORS
330
12EF
102
}
330
12EF
100
AcDbScale
 70
     0
300
3" = 1'-0"
140
3.0
141
12.0
290
     0
  0
SCALE
  5
12FF
102
{ACAD_REACTORS
330
12EF
102
}
330
12EF
100
AcDbScale
 70
     0
300
6" = 1'-0"
140
6.0
141
12.0
290
     0
  0
SCALE
  5
1300
102
{ACAD_REACTORS
330
12EF
102
}
330
12EF
100
AcDbScale
 70
     0
300
1'-0" = 1'-0"
140
12.0
141
12.0
290
     0
  0
ACDBSECTIONVIEWSTYLE
  5
1304
102
{ACAD_XDICTIONARY
360
135E
102
}
102
{ACAD_REACTORS
330
1303
102
}
330
1303
100
AcDbModelDocViewStyle
 70
     0
  3
Imperial24
290
     0
100
AcDbSectionViewStyle
 70
     0
 71
     0
 90
       78
 71
     1
340
F
 40
0.24
340
0
340
0
 40
0.24
300
I, O, Q, S, X, Z
 40
0.48
 90
        3
 40
0.18
 90
        1
 71
     2
340
14
 90
       25
340
14
 90
       50
 40
0.24
 40
0.0
 40
0.24
 71
     3
340
F
 40
0.24
 90
        1
 40
0.75
 90
        1
300
%<\AcVar ViewType \f "%tc1">% %<\AcVar ViewSectionStartId>%-%<\AcVar ViewSectionEndId>%\PSCALE %<\AcVar ViewScale \f "%sn">%
 71
     4
300
ANSI31
 40
1.0
 90
        0
290
     0
290
     0
 90
        6
 40
0.0
 40
1.570796326794896
 40
0.2617993877991494
 40
1.308996938995747
 40
-0.2617993877991494
 40
1.832595714594046
  0
TABLESTYLE
  5
12EE
102
{ACAD_XDICTIONARY
360
1325
102
}
102
{ACAD_REACTORS
330
12ED
102
}
330
12ED
100
AcDbTableStyle
  3
Standard
 70
     0
 71
     0
 40
0.06
 41
0.06
280
     0
281
     0
  7
STANDARD
140
0.18
170
     2
 62
     0
 63
     7
283
     0
274
    -2
284
     1
 64
     0
275
    -2
285
     1
 65
     0
276
    -2
286
     1
 66
     0
277
    -2
287
     1
 67
     0
278
    -2
288
     1
 68
     0
279
    -2
289
     1
 69
     0
  7
STANDARD
140
0.25
170
     5
 62
     0
 63
     7
283
     0
274
    -2
284
     1
 64
     0
275
    -2
285
     1
 65
     0
276
    -2
286
     1
 66
     0
277
    -2
287
     1
 67
     0
278
    -2
288
     1
 68
     0
279
    -2
289
     1
 69
     0
  7
STANDARD
140
0.18
170
     5
 62
     0
 63
     7
283
     0
274
    -2
284
     1
 64
     0
275
    -2
285
     1
 65
     0
276
    -2
286
     1
 66
     0
277
    -2
287
     1
 67
     0
278
    -2
288
     1
 68
     0
279
    -2
289
     1
 69
     0
  0
VISUALSTYLE
  5
12D9
102
{ACAD_XDICTIONARY
360
1336
102
}
102
{ACAD_REACTORS
330
12D3
102
}
330
12D3
100
AcDbVisualStyle
  2
2dWireframe
 70
     4
 71
     0
 72
     2
 73
     0
 90
        0
 40
-0.6
 41
-30.0
 62
     5
 63
     7
 74
     1
 91
        4
 64
     7
 65
   257
 75
     1
175
     1
 42
1.0
 92
        0
 66
   257
 43
1.0
 76
     1
 77
     6
 78
     2
 67
     7
 79
     5
170
     0
171
     0
290
     0
174
     0
 93
        1
 44
0.0
173
     0
291
     0
 45
0.0
1001
ACAD
1000
AcDbSavedByObjectVersion
1070
     0
  0
VISUALSTYLE
  5
12D8
102
{ACAD_XDICTIONARY
360
1334
102
}
102
{ACAD_REACTORS
330
12D3
102
}
330
12D3
100
AcDbVisualStyle
  2
Basic
 70
     7
 71
     1
 72
     0
 73
     1
 90
        0
 40
-0.6
 41
-30.0
 62
     5
 63
     7
 74
     0
 91
        4
 64
     7
 65
   257
 75
     1
175
     1
 42
1.0
 92
        8
 66
     7
 43
1.0
 76
     1
 77
     6
 78
     2
 67
     7
 79
     5
170
     0
171
     0
290
     0
174
     0
 93
        1
 44
0.0
173
     0
291
     1
 45
0.0
1001
ACAD
1000
AcDbSavedByObjectVersion
1070
     0
  0
VISUALSTYLE
  5
12DF
102
{ACAD_XDICTIONARY
360
1342
102
}
102
{ACAD_REACTORS
330
12D3
102
}
330
12D3
100
AcDbVisualStyle
  2
Brighten
 70
    12
 71
     2
 72
     2
 73
     0
 90
        0
 40
-0.6
 41
-30.0
 62
     5
 63
     7
 74
     1
 91
        4
 64
     7
 65
   257
 75
     1
175
     1
 42
1.0
 92
        8
 66
     7
 43
1.0
 76
     1
 77
     6
 78
     2
 67
     7
 79
     5
170
     0
171
     0
290
     0
174
     0
 93
        1
 44
50.0
173
     0
291
     1
 45
0.0
1001
ACAD
1000
AcDbSavedByObjectVersion
1070
     0
  0
VISUALSTYLE
  5
12E3
102
{ACAD_XDICTIONARY
360
134A
102
}
102
{ACAD_REACTORS
330
12D3
102
}
330
12D3
100
AcDbVisualStyle
  2
ColorChange
 70
    16
 71
     2
 72
     2
 73
     3
 90
        0
 40
-0.6
 41
-30.0
 62
     5
 63
     8
 74
     1
 91
        4
 64
     7
 65
   257
 75
     1
175
     1
 42
1.0
 92
        8
 66
     8
 43
1.0
 76
     1
 77
     6
 78
     2
 67
     7
 79
     5
170
     0
171
     0
290
     0
174
     0
 93
        1
 44
0.0
173
     0
291
     1
 45
0.0
1001
ACAD
1000
AcDbSavedByObjectVersion
1070
     0
  0
VISUALSTYLE
  5
12DC
102
{ACAD_XDICTIONARY
360
133C
102
}
102
{ACAD_REACTORS
330
12D3
102
}
330
12D3
100
AcDbVisualStyle
  2
Conceptual
 70
     9
 71
     3
 72
     2
 73
     0
 90
        0
 40
-0.6
 41
-30.0
 62
     5
 63
     7
 74
     2
 91
        2
 64
     7
 65
   257
 75
     1
175
     1
 42
179.0
 92
        8
 66
     7
 43
1.0
 76
     1
 77
     6
 78
     2
 67
     7
 79
     3
170
     0
171
     0
290
     0
174
     0
 93
        1
 44
0.0
173
     0
291
     0
 45
0.0
1001
ACAD
1000
AcDbSavedByObjectVersion
1070
     0
  0
VISUALSTYLE
  5
12DE
102
{ACAD_XDICTIONARY
360
1340
102
}
102
{ACAD_REACTORS
330
12D3
102
}
330
12D3
100
AcDbVisualStyle
  2
Dim
 70
    11
 71
     2
 72
     2
 73
     0
 90
        0
 40
-0.6
 41
-30.0
 62
     5
 63
     7
 74
     1
 91
        4
 64
     7
 65
   257
 75
     1
175
     1
 42
1.0
 92
        8
 66
     7
 43
1.0
 76
     1
 77
     6
 78
     2
 67
     7
 79
     5
170
     0
171
     0
290
     0
174
     0
 93
        1
 44
-50.0
173
     0
291
     1
 45
0.0
1001
ACAD
1000
AcDbSavedByObjectVersion
1070
     0
  0
VISUALSTYLE
  5
12EB
102
{ACAD_XDICTIONARY
360
135A
102
}
102
{ACAD_REACTORS
330
12D3
102
}
330
12D3
100
AcDbVisualStyle
  2
EdgeColorOff
 70
    22
 71
     2
 72
     2
 73
     0
 90
        0
 40
-0.6
 41
-30.0
 62
     5
 63
     7
 74
     1
 91
        4
 64
     7
 65
   257
 75
     1
175
     1
 42
1.0
 92
        8
 66
     7
 43
1.0
 76
     1
 77
     6
 78
     2
 67
     7
 79
     5
170
     0
171
     0
290
     0
174
     0
 93
        1
 44
0.0
173
     0
291
     1
 45
0.0
1001
ACAD
1000
AcDbSavedByObjectVersion
1070
     0
  0
VISUALSTYLE
  5
12E2
102
{ACAD_XDICTIONARY
360
1348
102
}
102
{ACAD_REACTORS
330
12D3
102
}
330
12D3
100
AcDbVisualStyle
  2
Facepattern
 70
    15
 71
     2
 72
     2
 73
     0
 90
        0
 40
-0.6
 41
-30.0
 62
     5
 63
     7
 74
     1
 91
        4
 64
     7
 65
   257
 75
     1
175
     1
 42
1.0
 92
        8
 66
     7
 43
1.0
 76
     1
 77
     6
 78
     2
 67
     7
 79
     5
170
     0
171
     0
290
     0
174
     0
 93
        1
 44
0.0
173
     0
291
     1
 45
0.0
1001
ACAD
1000
AcDbSavedByObjectVersion
1070
     0
  0
VISUALSTYLE
  5
12D4
102
{ACAD_XDICTIONARY
360
132C
102
}
102
{ACAD_REACTORS
330
12D3
102
}
330
12D3
100
AcDbVisualStyle
  2
Flat
 70
     0
 71
     2
 72
     1
 73
     1
 90
        2
 40
-0.6
 41
30.0
 62
     5
 63
     7
 74
     0
 91
        0
 64
     7
 65
   257
 75
     1
175
     1
 42
1.0
 92
        8
 66
     7
 43
1.0
 76
     1
 77
     6
 78
     2
 67
     7
 79
     5
170
     0
171
     0
290
     0
174
     0
 93
       13
 44
0.0
173
     0
291
     1
 45
0.0
1001
ACAD
1000
AcDbSavedByObjectVersion
1070
     0
  0
VISUALSTYLE
  5
12D5
102
{ACAD_XDICTIONARY
360
132E
102
}
102
{ACAD_REACTORS
330
12D3
102
}
330
12D3
100
AcDbVisualStyle
  2
FlatWithEdges
 70
     1
 71
     2
 72
     1
 73
     1
 90
        2
 40
-0.6
 41
30.0
 62
     5
 63
     7
 74
     1
 91
        0
 64
     7
 65
   257
 75
     1
175
     1
 42
1.0
 92
        0
 66
   257
 43
1.0
 76
     1
 77
     6
 78
     2
 67
     7
 79
     5
170
     0
171
     0
290
     0
174
     0
 93
       13
 44
0.0
173
     0
291
     1
 45
0.0
1001
ACAD
1000
AcDbSavedByObjectVersion
1070
     0
  0
VISUALSTYLE
  5
12D6
102
{ACAD_XDICTIONARY
360
1330
102
}
102
{ACAD_REACTORS
330
12D3
102
}
330
12D3
100
AcDbVisualStyle
  2
Gouraud
 70
     2
 71
     2
 72
     2
 73
     1
 90
        2
 40
-0.6
 41
30.0
 62
     5
 63
     7
 74
     0
 91
        0
 64
     7
 65
   257
 75
     1
175
     1
 42
1.0
 92
        0
 66
     7
 43
1.0
 76
     1
 77
     6
 78
     2
 67
     7
 79
     5
170
     0
171
     0
290
     0
174
     0
 93
       13
 44
0.0
173
     0
291
     1
 45
0.0
1001
ACAD
1000
AcDbSavedByObjectVersion
1070
     0
  0
VISUALSTYLE
  5
12D7
102
{ACAD_XDICTIONARY
360
1332
102
}
102
{ACAD_REACTORS
330
12D3
102
}
330
12D3
100
AcDbVisualStyle
  2
GouraudWithEdges
 70
     3
 71
     2
 72
     2
 73
     1
 90
        2
 40
-0.6
 41
30.0
 62
     5
 63
     7
 74
     1
 91
        0
 64
     7
 65
   257
 75
     1
175
     1
 42
1.0
 92
        0
 66
   257
 43
1.0
 76
     1
 77
     6
 78
     2
 67
     7
 79
     5
170
     0
171
     0
290
     0
174
     0
 93
       13
 44
0.0
173
     0
291
     1
 45
0.0
1001
ACAD
1000
AcDbSavedByObjectVersion
1070
     0
  0
VISUALSTYLE
  5
12DB
102
{ACAD_XDICTIONARY
360
133A
102
}
102
{ACAD_REACTORS
330
12D3
102
}
330
12D3
100
AcDbVisualStyle
  2
Hidden
 70
     6
 71
     1
 72
     2
 73
     2
 90
        0
 40
-0.6
 41
-30.0
 62
     5
 63
     7
 74
     2
 91
        2
 64
     7
 65
   257
 75
     2
175
     1
 42
40.0
 92
        0
 66
   257
 43
1.0
 76
     1
 77
     6
 78
     2
 67
     7
 79
     3
170
     0
171
     0
290
     0
174
     0
 93
        1
 44
0.0
173
     0
291
     0
 45
0.0
1001
ACAD
1000
AcDbSavedByObjectVersion
1070
     0
  0
VISUALSTYLE
  5
12E9
102
{ACAD_XDICTIONARY
360
1356
102
}
102
{ACAD_REACTORS
330
12D3
102
}
330
12D3
100
AcDbVisualStyle
  2
JitterOff
 70
    20
 71
     2
 72
     2
 73
     0
 90
        0
 40
-0.6
 41
-30.0
 62
     5
 63
     7
 74
     1
 91
        4
 64
     7
 65
   257
 75
     1
175
     1
 42
1.0
 92
       10
 66
     7
 43
1.0
 76
     1
 77
     6
 78
     2
 67
     7
 79
     5
170
     0
171
     0
290
     0
174
     0
 93
        1
 44
0.0
173
     0
291
     1
 45
0.0
1001
ACAD
1000
AcDbSavedByObjectVersion
1070
     0
  0
VISUALSTYLE
  5
12E1
102
{ACAD_XDICTIONARY
360
1346
102
}
102
{ACAD_REACTORS
330
12D3
102
}
330
12D3
100
AcDbVisualStyle
  2
Linepattern
 70
    14
 71
     2
 72
     2
 73
     0
 90
        0
 40
-0.6
 41
-30.0
 62
     5
 63
     7
 74
     1
 91
        4
 64
     7
 65
   257
 75
     7
175
     7
 42
1.0
 92
        8
 66
     7
 43
1.0
 76
     1
 77
     6
 78
     2
 67
     7
 79
     5
170
     0
171
     0
290
     0
174
     0
 93
        1
 44
0.0
173
     0
291
     1
 45
0.0
1001
ACAD
1000
AcDbSavedByObjectVersion
1070
     0
  0
VISUALSTYLE
  5
12EA
102
{ACAD_XDICTIONARY
360
1358
102
}
102
{ACAD_REACTORS
330
12D3
102
}
330
12D3
100
AcDbVisualStyle
  2
OverhangOff
 70
    21
 71
     2
 72
     2
 73
     0
 90
        0
 40
-0.6
 41
-30.0
 62
     5
 63
     7
 74
     1
 91
        4
 64
     7
 65
   257
 75
     1
175
     1
 42
1.0
 92
        9
 66
     7
 43
1.0
 76
     1
 77
     6
 78
     2
 67
     7
 79
     5
170
     0
171
     0
290
     0
174
     0
 93
        1
 44
0.0
173
     0
291
     1
 45
0.0
1001
ACAD
1000
AcDbSavedByObjectVersion
1070
     0
  0
VISUALSTYLE
  5
12DD
102
{ACAD_XDICTIONARY
360
133E
102
}
102
{ACAD_REACTORS
330
12D3
102
}
330
12D3
100
AcDbVisualStyle
  2
Realistic
 70
     8
 71
     2
 72
     3
 73
     0
 90
        2
 40
-0.6
 41
30.0
 62
     5
 63
     7
 74
     0
 91
        0
 64
     7
 65
   257
 75
     1
175
     1
 42
1.0
 92
        8
 66
   257
 43
1.0
 76
     1
 77
     6
 78
     2
 67
     7
 79
     3
170
     0
171
     0
290
     0
174
     0
 93
       13
 44
0.0
173
     0
291
     0
 45
0.0
1001
ACAD
1000
AcDbSavedByObjectVersion
1070
     0
  0
VISUALSTYLE
  5
12E8
102
{ACAD_XDICTIONARY
360
1354
102
}
102
{ACAD_REACTORS
330
12D3
102
}
330
12D3
100
AcDbVisualStyle
  2
Shaded
 70
    27
 71
     2
 72
     2
 73
     1
 90
        2
 40
-0.6
 41
30.0
 62
     5
 63
     7
 74
     0
 91
        4
 64
     7
 65
   257
 75
     1
175
     1
 42
1.0
 92
        8
 66
   257
 43
1.0
 76
     1
 77
     6
 78
     2
 67
     8
 79
     3
170
     0
171
     0
290
     0
174
     0
 93
        5
 44
0.0
173
     0
291
     0
 45
0.0
1001
ACAD
1000
AcDbSavedByObjectVersion
1070
     0
  0
VISUALSTYLE
  5
12E7
102
{ACAD_XDICTIONARY
360
1352
102
}
102
{ACAD_REACTORS
330
12D3
102
}
330
12D3
100
AcDbVisualStyle
  2
Shaded with edges
 70
    26
 71
     2
 72
     2
 73
     1
 90
        2
 40
-0.6
 41
30.0
 62
     5
 63
     7
 74
     1
 91
       10
 64
     7
 65
   257
 75
     2
175
     1
 42
1.0
 92
        8
 66
   257
 43
1.0
 76
     1
 77
     6
 78
     2
 67
     7
 79
     3
170
     0
171
     0
290
     0
174
     0
 93
        5
 44
0.0
173
     0
291
     0
 45
0.0
1001
ACAD
1000
AcDbSavedByObjectVersion
1070
     0
  0
VISUALSTYLE
  5
12E4
102
{ACAD_XDICTIONARY
360
134C
102
}
102
{ACAD_REACTORS
330
12D3
102
}
330
12D3
100
AcDbVisualStyle
  2
Shades of Gray
 70
    23
 71
     2
 72
     2
 73
     3
 90
        0
 40
-0.6
 41
-30.0
 62
     5
 63
     7
 74
     2
 91
        2
 64
     7
 65
     7
 75
     1
175
     1
 42
40.0
 92
        8
 66
     7
 43
1.0
 76
     1
 77
     6
 78
     2
 67
     7
 79
     3
170
     0
171
     0
290
     0
174
     0
 93
        1
 44
0.0
173
     0
291
     0
 45
0.0
1001
ACAD
1000
AcDbSavedByObjectVersion
1070
     0
  0
VISUALSTYLE
  5
12E5
102
{ACAD_XDICTIONARY
360
134E
102
}
102
{ACAD_REACTORS
330
12D3
102
}
330
12D3
100
AcDbVisualStyle
  2
Sketchy
 70
    24
 71
     1
 72
     2
 73
     2
 90
        0
 40
-0.6
 41
-30.0
 62
     5
 63
     7
 74
     2
 91
        2
 64
     7
 65
     7
 75
     1
175
     1
 42
40.0
 92
       11
 66
     7
 43
1.0
 76
     1
 77
     6
 78
     2
 67
     7
 79
     6
170
     0
171
     0
290
     0
174
     0
 93
        1
 44
0.0
173
     0
291
     0
 45
0.0
1001
ACAD
1000
AcDbSavedByObjectVersion
1070
     0
  0
VISUALSTYLE
  5
12E0
102
{ACAD_XDICTIONARY
360
1344
102
}
102
{ACAD_REACTORS
330
12D3
102
}
330
12D3
100
AcDbVisualStyle
  2
Thicken
 70
    13
 71
     2
 72
     2
 73
     0
 90
        0
 40
-0.6
 41
-30.0
 62
     5
 63
     7
 74
     1
 91
        4
 64
     7
 65
   257
 75
     1
175
     1
 42
1.0
 92
       12
 66
     7
 43
1.0
 76
     1
 77
     6
 78
     2
 67
     7
 79
     5
170
     0
171
     0
290
     0
174
     0
 93
        1
 44
0.0
173
     0
291
     1
 45
0.0
1001
ACAD
1000
AcDbSavedByObjectVersion
1070
     0
  0
VISUALSTYLE
  5
12DA
102
{ACAD_XDICTIONARY
360
1338
102
}
102
{ACAD_REACTORS
330
12D3
102
}
330
12D3
100
AcDbVisualStyle
  2
Wireframe
 70
     5
 71
     0
 72
     2
 73
     0
 90
        0
 40
-0.6
 41
-30.0
 62
     5
 63
     7
 74
     1
 91
        4
 64
     7
 65
   257
 75
     1
175
     1
 42
1.0
 92
        0
 66
   257
 43
1.0
 76
     1
 77
     6
 78
     2
 67
     7
 79
     3
170
     0
171
     0
290
     0
174
     0
 93
        1
 44
0.0
173
     0
291
     0
 45
0.0
1001
ACAD
1000
AcDbSavedByObjectVersion
1070
     0
  0
VISUALSTYLE
  5
12E6
102
{ACAD_XDICTIONARY
360
1350
102
}
102
{ACAD_REACTORS
330
12D3
102
}
330
12D3
100
AcDbVisualStyle
  2
X-Ray
 70
    25
 71
     2
 72
     2
 73
     1
 90
        1
 40
0.5
 41
-30.0
 62
     5
 63
     7
 74
     1
 91
        0
 64
     7
 65
   257
 75
     1
175
     1
 42
1.0
 92
        8
 66
     7
 43
1.0
 76
     1
 77
     6
 78
     2
 67
     7
 79
     3
170
     0
171
     0
290
     0
174
     0
 93
       13
 44
0.0
173
     0
291
     0
 45
0.0
1001
ACAD
1000
AcDbSavedByObjectVersion
1070
     0
  0
DICTIONARYVAR
  5
131F
102
{ACAD_REACTORS
330
131A
102
}
330
131A
100
DictionaryVariables
280
     0
  1
1:1
  0
DICTIONARYVAR
  5
131C
102
{ACAD_REACTORS
330
131A
102
}
330
131A
100
DictionaryVariables
280
     0
  1
STANDARD
  0
DICTIONARYVAR
  5
131B
102
{ACAD_REACTORS
330
131A
102
}
330
131A
100
DictionaryVariables
280
     0
  1
STANDARD
  0
DICTIONARYVAR
  5
131D
102
{ACAD_REACTORS
330
131A
102
}
330
131A
100
DictionaryVariables
280
     0
  1
Imperial24
  0
DICTIONARYVAR
  5
131E
102
{ACAD_REACTORS
330
131A
102
}
330
131A
100
DictionaryVariables
280
     0
  1
Imperial24
  0
DICTIONARYVAR
  5
1322
102
{ACAD_REACTORS
330
131A
102
}
330
131A
100
DictionaryVariables
280
     0
  1
1
  0
DICTIONARYVAR
  5
1321
102
{ACAD_REACTORS
330
131A
102
}
330
131A
100
DictionaryVariables
280
     0
  1
0
  0
DICTIONARYVAR
  5
1320
102
{ACAD_REACTORS
330
131A
102
}
330
131A
100
DictionaryVariables
280
     0
  1
127
  0
DICTIONARYVAR
  5
1323
102
{ACAD_REACTORS
330
131A
102
}
330
131A
100
DictionaryVariables
280
     0
  1
2
  0
DICTIONARY
  5
1360
330
1306
100
AcDbDictionary
280
     1
281
     1
  3
ACAD_XREC_ROUNDTRIP
360
1361
  0
DICTIONARY
  5
1362
330
1307
100
AcDbDictionary
280
     1
281
     1
  3
ACAD_XREC_ROUNDTRIP
360
1363
  0
DICTIONARY
  5
1364
330
1308
100
AcDbDictionary
280
     1
281
     1
  3
ACAD_XREC_ROUNDTRIP
360
1365
  0
DICTIONARY
  5
12C4
330
12C3
100
AcDbDictionary
280
     1
281
     1
  3
ACAD_XREC_ROUNDTRIP
360
132A
  3
BUMPTILE
360
12C6
  3
DIFFUSETILE
360
12C5
  3
OPACITYTILE
360
12C9
  3
REFLECTIONTILE
360
12C8
  3
REFRACTIONTILE
360
12CA
  3
SPECULARTILE
360
12C7
  0
DICTIONARY
  5
12BC
330
12BB
100
AcDbDictionary
280
     1
281
     1
  3
ACAD_XREC_ROUNDTRIP
360
1329
  3
BUMPTILE
360
12BE
  3
DIFFUSETILE
360
12BD
  3
OPACITYTILE
360
12C1
  3
REFLECTIONTILE
360
12C0
  3
REFRACTIONTILE
360
12C2
  3
SPECULARTILE
360
12BF
  0
DICTIONARY
  5
12CC
330
12CB
100
AcDbDictionary
280
     1
281
     1
  3
ACAD_XREC_ROUNDTRIP
360
132B
  3
BUMPTILE
360
12CE
  3
DIFFUSETILE
360
12CD
  3
OPACITYTILE
360
12D1
  3
REFLECTIONTILE
360
12D0
  3
REFRACTIONTILE
360
12D2
  3
SPECULARTILE
360
12CF
  0
DICTIONARY
  5
135E
330
1304
100
AcDbDictionary
280
     1
281
     1
  3
ACAD_XREC_ROUNDTRIP
360
135F
  0
DICTIONARY
  5
1325
330
12EE
100
AcDbDictionary
280
     1
281
     1
  3
ACAD_ROUNDTRIP_2008_TABLESTYLE_CELLSTYLEMAP
360
1326
  3
ACAD_XREC_ROUNDTRIP
360
135C
  0
DICTIONARY
  5
1336
330
12D9
100
AcDbDictionary
280
     1
281
     1
  3
ACAD_XREC_ROUNDTRIP
360
1337
  0
DICTIONARY
  5
1334
330
12D8
100
AcDbDictionary
280
     1
281
     1
  3
ACAD_XREC_ROUNDTRIP
360
1335
  0
DICTIONARY
  5
1342
330
12DF
100
AcDbDictionary
280
     1
281
     1
  3
ACAD_XREC_ROUNDTRIP
360
1343
  0
DICTIONARY
  5
134A
330
12E3
100
AcDbDictionary
280
     1
281
     1
  3
ACAD_XREC_ROUNDTRIP
360
134B
  0
DICTIONARY
  5
133C
330
12DC
100
AcDbDictionary
280
     1
281
     1
  3
ACAD_XREC_ROUNDTRIP
360
133D
  0
DICTIONARY
  5
1340
330
12DE
100
AcDbDictionary
280
     1
281
     1
  3
ACAD_XREC_ROUNDTRIP
360
1341
  0
DICTIONARY
  5
135A
330
12EB
100
AcDbDictionary
280
     1
281
     1
  3
ACAD_XREC_ROUNDTRIP
360
135B
  0
DICTIONARY
  5
1348
330
12E2
100
AcDbDictionary
280
     1
281
     1
  3
ACAD_XREC_ROUNDTRIP
360
1349
  0
DICTIONARY
  5
132C
330
12D4
100
AcDbDictionary
280
     1
281
     1
  3
ACAD_XREC_ROUNDTRIP
360
132D
  0
DICTIONARY
  5
132E
330
12D5
100
AcDbDictionary
280
     1
281
     1
  3
ACAD_XREC_ROUNDTRIP
360
132F
  0
DICTIONARY
  5
1330
330
12D6
100
AcDbDictionary
280
     1
281
     1
  3
ACAD_XREC_ROUNDTRIP
360
1331
  0
DICTIONARY
  5
1332
330
12D7
100
AcDbDictionary
280
     1
281
     1
  3
ACAD_XREC_ROUNDTRIP
360
1333
  0
DICTIONARY
  5
133A
330
12DB
100
AcDbDictionary
280
     1
281
     1
  3
ACAD_XREC_ROUNDTRIP
360
133B
  0
DICTIONARY
  5
1356
330
12E9
100
AcDbDictionary
280
     1
281
     1
  3
ACAD_XREC_ROUNDTRIP
360
1357
  0
DICTIONARY
  5
1346
330
12E1
100
AcDbDictionary
280
     1
281
     1
  3
ACAD_XREC_ROUNDTRIP
360
1347
  0
DICTIONARY
  5
1358
330
12EA
100
AcDbDictionary
280
     1
281
     1
  3
ACAD_XREC_ROUNDTRIP
360
1359
  0
DICTIONARY
  5
133E
330
12DD
100
AcDbDictionary
280
     1
281
     1
  3
ACAD_XREC_ROUNDTRIP
360
133F
  0
DICTIONARY
  5
1354
330
12E8
100
AcDbDictionary
280
     1
281
     1
  3
ACAD_XREC_ROUNDTRIP
360
1355
  0
DICTIONARY
  5
1352
330
12E7
100
AcDbDictionary
280
     1
281
     1
  3
ACAD_XREC_ROUNDTRIP
360
1353
  0
DICTIONARY
  5
134C
330
12E4
100
AcDbDictionary
280
     1
281
     1
  3
ACAD_XREC_ROUNDTRIP
360
134D
  0
DICTIONARY
  5
134E
330
12E5
100
AcDbDictionary
280
     1
281
     1
  3
ACAD_XREC_ROUNDTRIP
360
134F
  0
DICTIONARY
  5
1344
330
12E0
100
AcDbDictionary
280
     1
281
     1
  3
ACAD_XREC_ROUNDTRIP
360
1345
  0
DICTIONARY
  5
1338
330
12DA
100
AcDbDictionary
280
     1
281
     1
  3
ACAD_XREC_ROUNDTRIP
360
1339
  0
DICTIONARY
  5
1350
330
12E6
100
AcDbDictionary
280
     1
281
     1
  3
ACAD_XREC_ROUNDTRIP
360
1351
  0
XRECORD
  5
1361
102
{ACAD_REACTORS
330
1360
102
}
330
1360
100
AcDbXrecord
280
     1
102
DISPLAYNAME
  1
Imperial24
102
FLAGS
 90
        0
  0
XRECORD
  5
1363
102
{ACAD_REACTORS
330
1362
102
}
330
1362
100
AcDbXrecord
280
     1
102
SHADEPLOT
 70
     0
102
SHADEPLOTRESLEVEL
 70
     2
102
SHADEPLOTCUSTOMDPI
 70
   300
  0
XRECORD
  5
1365
102
{ACAD_REACTORS
330
1364
102
}
330
1364
100
AcDbXrecord
280
     1
102
SHADEPLOT
 70
     0
102
SHADEPLOTRESLEVEL
 70
     2
102
SHADEPLOTCUSTOMDPI
 70
   300
  0
XRECORD
  5
132A
102
{ACAD_REACTORS
330
12C4
102
}
330
12C4
100
AcDbXrecord
280
     1
102
MATERIAL
148
0.0
149
0.0
149
0.0
 93
        0
 94
      127
282
     0
 72
     0
 77
     0
171
     0
175
     0
179
     0
273
     0
  0
XRECORD
  5
12C6
102
{ACAD_REACTORS
330
12C4
102
}
330
12C4
100
AcDbXrecord
280
     1
270
     1
271
     1
  0
XRECORD
  5
12C5
102
{ACAD_REACTORS
330
12C4
102
}
330
12C4
100
AcDbXrecord
280
     1
270
     1
271
     1
  0
XRECORD
  5
12C9
102
{ACAD_REACTORS
330
12C4
102
}
330
12C4
100
AcDbXrecord
280
     1
270
     1
271
     1
  0
XRECORD
  5
12C8
102
{ACAD_REACTORS
330
12C4
102
}
330
12C4
100
AcDbXrecord
280
     1
270
     1
271
     1
  0
XRECORD
  5
12CA
102
{ACAD_REACTORS
330
12C4
102
}
330
12C4
100
AcDbXrecord
280
     1
270
     1
271
     1
  0
XRECORD
  5
12C7
102
{ACAD_REACTORS
330
12C4
102
}
330
12C4
100
AcDbXrecord
280
     1
270
     1
271
     1
  0
XRECORD
  5
1329
102
{ACAD_REACTORS
330
12BC
102
}
330
12BC
100
AcDbXrecord
280
     1
102
MATERIAL
148
0.0
149
0.0
149
0.0
 93
        0
 94
      127
282
     0
 72
     0
 77
     0
171
     0
175
     0
179
     0
273
     0
  0
XRECORD
  5
12BE
102
{ACAD_REACTORS
330
12BC
102
}
330
12BC
100
AcDbXrecord
280
     1
270
     1
271
     1
  0
XRECORD
  5
12BD
102
{ACAD_REACTORS
330
12BC
102
}
330
12BC
100
AcDbXrecord
280
     1
270
     1
271
     1
  0
XRECORD
  5
12C1
102
{ACAD_REACTORS
330
12BC
102
}
330
12BC
100
AcDbXrecord
280
     1
270
     1
271
     1
  0
XRECORD
  5
12C0
102
{ACAD_REACTORS
330
12BC
102
}
330
12BC
100
AcDbXrecord
280
     1
270
     1
271
     1
  0
XRECORD
  5
12C2
102
{ACAD_REACTORS
330
12BC
102
}
330
12BC
100
AcDbXrecord
280
     1
270
     1
271
     1
  0
XRECORD
  5
12BF
102
{ACAD_REACTORS
330
12BC
102
}
330
12BC
100
AcDbXrecord
280
     1
270
     1
271
     1
  0
XRECORD
  5
132B
102
{ACAD_REACTORS
330
12CC
102
}
330
12CC
100
AcDbXrecord
280
     1
102
MATERIAL
148
0.0
149
0.0
149
0.0
 93
        0
 94
      127
282
     0
 72
     0
 77
     0
171
     0
175
     0
179
     0
273
     0
  0
XRECORD
  5
12CE
102
{ACAD_REACTORS
330
12CC
102
}
330
12CC
100
AcDbXrecord
280
     1
270
     1
271
     1
  0
XRECORD
  5
12CD
102
{ACAD_REACTORS
330
12CC
102
}
330
12CC
100
AcDbXrecord
280
     1
270
     1
271
     1
  0
XRECORD
  5
12D1
102
{ACAD_REACTORS
330
12CC
102
}
330
12CC
100
AcDbXrecord
280
     1
270
     1
271
     1
  0
XRECORD
  5
12D0
102
{ACAD_REACTORS
330
12CC
102
}
330
12CC
100
AcDbXrecord
280
     1
270
     1
271
     1
  0
XRECORD
  5
12D2
102
{ACAD_REACTORS
330
12CC
102
}
330
12CC
100
AcDbXrecord
280
     1
270
     1
271
     1
  0
XRECORD
  5
12CF
102
{ACAD_REACTORS
330
12CC
102
}
330
12CC
100
AcDbXrecord
280
     1
270
     1
271
     1
  0
XRECORD
  5
135F
102
{ACAD_REACTORS
330
135E
102
}
330
135E
100
AcDbXrecord
280
     1
102
DISPLAYNAME
  1
Imperial24
102
FLAGS
 90
        0
  0
CELLSTYLEMAP
  5
1326
102
{ACAD_REACTORS
330
1325
102
}
330
1325
100
AcDbCellStyleMap
 90
        3
300
CELLSTYLE
  1
TABLEFORMAT_BEGIN
 90
        5
170
     1
 91
        0
 92
    32768
 62
   257
 93
        1
300
CONTENTFORMAT
  1
CONTENTFORMAT_BEGIN
 90
        0
 91
        0
 92
      512
 93
        0
300

 40
0.0
140
1.0
 94
        5
 62
     0
340
F
144
0.25
309
CONTENTFORMAT_END
171
     0
 94
        0
309
TABLEFORMAT_END
  1
CELLSTYLE_BEGIN
 90
        1
 91
        1
300
_TITLE
309
CELLSTYLE_END
300
CELLSTYLE
  1
TABLEFORMAT_BEGIN
 90
        5
170
     1
 91
        0
 92
        0
 62
   257
 93
        1
300
CONTENTFORMAT
  1
CONTENTFORMAT_BEGIN
 90
        0
 91
        0
 92
      512
 93
        0
300

 40
0.0
140
1.0
 94
        5
 62
     0
340
F
144
0.18
309
CONTENTFORMAT_END
171
     0
 94
        0
309
TABLEFORMAT_END
  1
CELLSTYLE_BEGIN
 90
        2
 91
        1
300
_HEADER
309
CELLSTYLE_END
300
CELLSTYLE
  1
TABLEFORMAT_BEGIN
 90
        5
170
     1
 91
        0
 92
        0
 62
   257
 93
        1
300
CONTENTFORMAT
  1
CONTENTFORMAT_BEGIN
 90
        0
 91
        0
 92
      512
 93
        0
300

 40
0.0
140
1.0
 94
        2
 62
     0
340
F
144
0.18
309
CONTENTFORMAT_END
171
     0
 94
        0
309
TABLEFORMAT_END
  1
CELLSTYLE_BEGIN
 90
        3
 91
        2
300
_DATA
309
CELLSTYLE_END
  0
XRECORD
  5
135C
102
{ACAD_REACTORS
330
1325
102
}
330
1325
100
AcDbXrecord
280
     1
102
ACAD_ROUNDTRIP_PRE2007_TABLESTYLE
 90
      512
 91
        0
  1

 92
      512
 93
        0
  2

 94
      512
 95
        0
  3

  0
XRECORD
  5
1337
102
{ACAD_REACTORS
330
1336
102
}
330
1336
100
AcDbXrecord
280
     1
102
RTVSPost2010Prop28
280
     1
102
RTVSPost2010PropOp28
 70
     1
102
RTVSPost2010Prop29
280
     1
102
RTVSPost2010PropOp29
 70
     1
102
RTVSPost2010Prop30
280
     0
102
RTVSPost2010PropOp30
 70
     1
102
RTVSPost2010Prop31
280
     0
102
RTVSPost2010PropOp31
 70
     1
102
RTVSPost2010Prop32
280
     0
102
RTVSPost2010PropOp32
 70
     1
102
RTVSPost2010Prop33
280
     0
102
RTVSPost2010PropOp33
 70
     1
102
RTVSPost2010Prop34
280
     0
102
RTVSPost2010PropOp34
 70
     1
102
RTVSPost2010Prop35
280
     0
102
RTVSPost2010PropOp35
 70
     1
102
RTVSPost2010Prop36
280
     0
102
RTVSPost2010PropOp36
 70
     1
102
RTVSPost2010Prop37
 90
       50
102
RTVSPost2010PropOp37
 70
     1
102
RTVSPost2010Prop38
140
0.0
102
RTVSPost2010PropOp38
 70
     1
102
RTVSPost2010Prop39
140
1.0
102
RTVSPost2010PropOp39
 70
     1
102
RTVSPost2010Prop40
 90
        0
102
RTVSPost2010PropOp40
 70
     1
102
RTVSPost2010Prop41ColorIndex
 90
       18
102
RTVSPost2010Prop41ColorRGB
 90
        0
102
RTVSPost2010PropOp41
 70
     1
102
RTVSPost2010Prop42
 90
       50
102
RTVSPost2010PropOp42
 70
     1
102
RTVSPost2010Prop43
 90
        3
102
RTVSPost2010PropOp43
 70
     1
102
RTVSPost2010Prop44ColorIndex
 90
        5
102
RTVSPost2010Prop44ColorRGB
 90
      255
102
RTVSPost2010PropOp44
 70
     1
102
RTVSPost2010Prop45
280
     0
102
RTVSPost2010PropOp45
 70
     1
102
RTVSPost2010Prop46
 90
       50
102
RTVSPost2010PropOp46
 70
     1
102
RTVSPost2010Prop47
 90
       50
102
RTVSPost2010PropOp47
 70
     1
102
RTVSPost2010Prop48
 90
       50
102
RTVSPost2010PropOp48
 70
     1
102
RTVSPost2010Prop49
280
     0
102
RTVSPost2010PropOp49
 70
     1
102
RTVSPost2010Prop50
 90
       50
102
RTVSPost2010PropOp50
 70
     1
102
RTVSPost2010Prop51ColorIndex
 90
      256
102
RTVSPost2010Prop51ColorRGB
 90
-16777216
102
RTVSPost2010PropOp51
 70
     0
102
RTVSPost2010Prop52
140
1.0
102
RTVSPost2010PropOp52
 70
     0
102
RTVSPost2010Prop53
 90
        2
102
RTVSPost2010PropOp53
 70
     1
102
RTVSPost2010Prop54
  1
strokes_ogs.tif
102
RTVSPost2010PropOp54
 70
     1
102
RTVSPost2010Prop55
280
     0
102
RTVSPost2010PropOp55
 70
     1
102
RTVSPost2010Prop56
140
1.0
102
RTVSPost2010PropOp56
 70
     1
102
RTVSPost2010Prop57
140
1.0
102
RTVSPost2010PropOp57
 70
     1
102
RTVSPropertyOp0
 70
     1
102
RTVSPropertyOp1
 70
     1
102
RTVSPropertyOp2
 70
     1
102
RTVSPropertyOp3
 70
     1
102
RTVSPropertyOp4
 70
     1
102
RTVSPropertyOp5
 70
     1
102
RTVSPropertyOp6
 70
     1
102
RTVSPropertyOp7
 70
     1
102
RTVSPropertyOp8
 70
     1
102
RTVSPropertyOp9
 70
     1
102
RTVSPropertyOp10
 70
     1
102
RTVSPropertyOp11
 70
     1
102
RTVSPropertyOp12
 70
     1
102
RTVSPropertyOp13
 70
     1
102
RTVSPropertyOp14
 70
     1
102
RTVSPropertyOp15
 70
     1
102
RTVSPropertyOp16
 70
     1
102
RTVSPropertyOp17
 70
     1
102
RTVSPropertyOp18
 70
     1
102
RTVSPropertyOp19
 70
     1
102
RTVSPropertyOp20
 70
     1
102
RTVSPropertyOp21
 70
     1
102
RTVSPropertyOp22
 70
     1
102
RTVSPropertyOp23
 70
     1
102
RTVSPropertyOp24
 70
     1
102
RTVSPropertyOp25
 70
     1
102
RTVSPropertyOp26
 70
     1
102
RTVSPropertyOp27
 70
     1
102
RTVSPropertyOp28
 70
     1
102
RTVSPropertyOp29
 70
     1
102
RTVSPropertyOp30
 70
     1
102
RTVSPropertyOp31
 70
     1
102
RTVSPropertyOp32
 70
     1
102
RTVSPropertyOp33
 70
     1
102
RTVSPropertyOp34
 70
     1
102
RTVSPropertyOp35
 70
     1
102
RTVSPropertyOp36
 70
     1
102
RTVSPropertyOp37
 70
     1
102
RTVSPropertyOp38
 70
     1
102
RTVSPropertyOp39
 70
     1
102
RTVSPropertyOp40
 70
     1
102
RTVSPropertyOp41
 70
     1
102
RTVSPropertyOp42
 70
     1
102
RTVSPropertyOp43
 70
     1
102
RTVSPropertyOp44
 70
     1
102
RTVSPropertyOp45
 70
     1
102
RTVSPropertyOp46
 70
     1
102
RTVSPropertyOp47
 70
     1
102
RTVSPropertyOp48
 70
     1
102
RTVSPropertyOp49
 70
     1
102
RTVSPropertyOp50
 70
     1
102
RTVSPropertyOp51
 70
     0
102
RTVSPropertyOp52
 70
     0
102
RTVSPropertyOp53
 70
     1
102
RTVSPropertyOp54
 70
     1
102
RTVSPropertyOp55
 70
     1
102
RTVSPropertyOp56
 70
     1
102
RTVSPropertyOp57
 70
     1
102
RTVSPropertyOp58
 70
     1
102
RTVSPropertyOp59
 70
     1
102
RTVSPropertyOp60
 70
     1
102
RTVSPropertyOp61
 70
     1
102
RTVSPropertyOp62
 70
     1
  0
XRECORD
  5
1335
102
{ACAD_REACTORS
330
1334
102
}
330
1334
100
AcDbXrecord
280
     1
102
RTVSPost2010Prop28
280
     0
102
RTVSPost2010PropOp28
 70
     1
102
RTVSPost2010Prop29
280
     1
102
RTVSPost2010PropOp29
 70
     1
102
RTVSPost2010Prop30
280
     1
102
RTVSPost2010PropOp30
 70
     1
102
RTVSPost2010Prop31
280
     0
102
RTVSPost2010PropOp31
 70
     1
102
RTVSPost2010Prop32
280
     0
102
RTVSPost2010PropOp32
 70
     1
102
RTVSPost2010Prop33
280
     0
102
RTVSPost2010PropOp33
 70
     1
102
RTVSPost2010Prop34
280
     0
102
RTVSPost2010PropOp34
 70
     1
102
RTVSPost2010Prop35
280
     0
102
RTVSPost2010PropOp35
 70
     1
102
RTVSPost2010Prop36
280
     0
102
RTVSPost2010PropOp36
 70
     1
102
RTVSPost2010Prop37
 90
       50
102
RTVSPost2010PropOp37
 70
     1
102
RTVSPost2010Prop38
140
0.0
102
RTVSPost2010PropOp38
 70
     1
102
RTVSPost2010Prop39
140
1.0
102
RTVSPost2010PropOp39
 70
     1
102
RTVSPost2010Prop40
 90
        0
102
RTVSPost2010PropOp40
 70
     1
102
RTVSPost2010Prop41ColorIndex
 90
       18
102
RTVSPost2010Prop41ColorRGB
 90
        0
102
RTVSPost2010PropOp41
 70
     1
102
RTVSPost2010Prop42
 90
       50
102
RTVSPost2010PropOp42
 70
     1
102
RTVSPost2010Prop43
 90
        3
102
RTVSPost2010PropOp43
 70
     1
102
RTVSPost2010Prop44ColorIndex
 90
        5
102
RTVSPost2010Prop44ColorRGB
 90
      255
102
RTVSPost2010PropOp44
 70
     1
102
RTVSPost2010Prop45
280
     0
102
RTVSPost2010PropOp45
 70
     1
102
RTVSPost2010Prop46
 90
       50
102
RTVSPost2010PropOp46
 70
     1
102
RTVSPost2010Prop47
 90
       50
102
RTVSPost2010PropOp47
 70
     1
102
RTVSPost2010Prop48
 90
       50
102
RTVSPost2010PropOp48
 70
     1
102
RTVSPost2010Prop49
280
     0
102
RTVSPost2010PropOp49
 70
     1
102
RTVSPost2010Prop50
 90
       50
102
RTVSPost2010PropOp50
 70
     1
102
RTVSPost2010Prop51ColorIndex
 90
      256
102
RTVSPost2010Prop51ColorRGB
 90
-16777216
102
RTVSPost2010PropOp51
 70
     0
102
RTVSPost2010Prop52
140
1.0
102
RTVSPost2010PropOp52
 70
     0
102
RTVSPost2010Prop53
 90
        2
102
RTVSPost2010PropOp53
 70
     1
102
RTVSPost2010Prop54
  1
strokes_ogs.tif
102
RTVSPost2010PropOp54
 70
     1
102
RTVSPost2010Prop55
280
     0
102
RTVSPost2010PropOp55
 70
     1
102
RTVSPost2010Prop56
140
1.0
102
RTVSPost2010PropOp56
 70
     1
102
RTVSPost2010Prop57
140
1.0
102
RTVSPost2010PropOp57
 70
     1
102
RTVSPropertyOp0
 70
     1
102
RTVSPropertyOp1
 70
     1
102
RTVSPropertyOp2
 70
     1
102
RTVSPropertyOp3
 70
     1
102
RTVSPropertyOp4
 70
     1
102
RTVSPropertyOp5
 70
     1
102
RTVSPropertyOp6
 70
     1
102
RTVSPropertyOp7
 70
     1
102
RTVSPropertyOp8
 70
     1
102
RTVSPropertyOp9
 70
     1
102
RTVSPropertyOp10
 70
     1
102
RTVSPropertyOp11
 70
     1
102
RTVSPropertyOp12
 70
     1
102
RTVSPropertyOp13
 70
     1
102
RTVSPropertyOp14
 70
     1
102
RTVSPropertyOp15
 70
     1
102
RTVSPropertyOp16
 70
     1
102
RTVSPropertyOp17
 70
     1
102
RTVSPropertyOp18
 70
     1
102
RTVSPropertyOp19
 70
     1
102
RTVSPropertyOp20
 70
     1
102
RTVSPropertyOp21
 70
     1
102
RTVSPropertyOp22
 70
     1
102
RTVSPropertyOp23
 70
     1
102
RTVSPropertyOp24
 70
     1
102
RTVSPropertyOp25
 70
     1
102
RTVSPropertyOp26
 70
     1
102
RTVSPropertyOp27
 70
     1
102
RTVSPropertyOp28
 70
     1
102
RTVSPropertyOp29
 70
     1
102
RTVSPropertyOp30
 70
     1
102
RTVSPropertyOp31
 70
     1
102
RTVSPropertyOp32
 70
     1
102
RTVSPropertyOp33
 70
     1
102
RTVSPropertyOp34
 70
     1
102
RTVSPropertyOp35
 70
     1
102
RTVSPropertyOp36
 70
     1
102
RTVSPropertyOp37
 70
     1
102
RTVSPropertyOp38
 70
     1
102
RTVSPropertyOp39
 70
     1
102
RTVSPropertyOp40
 70
     1
102
RTVSPropertyOp41
 70
     1
102
RTVSPropertyOp42
 70
     1
102
RTVSPropertyOp43
 70
     1
102
RTVSPropertyOp44
 70
     1
102
RTVSPropertyOp45
 70
     1
102
RTVSPropertyOp46
 70
     1
102
RTVSPropertyOp47
 70
     1
102
RTVSPropertyOp48
 70
     1
102
RTVSPropertyOp49
 70
     1
102
RTVSPropertyOp50
 70
     1
102
RTVSPropertyOp51
 70
     0
102
RTVSPropertyOp52
 70
     0
102
RTVSPropertyOp53
 70
     1
102
RTVSPropertyOp54
 70
     1
102
RTVSPropertyOp55
 70
     1
102
RTVSPropertyOp56
 70
     1
102
RTVSPropertyOp57
 70
     1
102
RTVSPropertyOp58
 70
     1
102
RTVSPropertyOp59
 70
     1
102
RTVSPropertyOp60
 70
     1
102
RTVSPropertyOp61
 70
     1
102
RTVSPropertyOp62
 70
     1
  0
XRECORD
  5
1343
102
{ACAD_REACTORS
330
1342
102
}
330
1342
100
AcDbXrecord
280
     1
102
RTVSPost2010Prop28
280
     0
102
RTVSPost2010PropOp28
 70
     1
102
RTVSPost2010Prop29
280
     1
102
RTVSPost2010PropOp29
 70
     1
102
RTVSPost2010Prop30
280
     1
102
RTVSPost2010PropOp30
 70
     1
102
RTVSPost2010Prop31
280
     0
102
RTVSPost2010PropOp31
 70
     1
102
RTVSPost2010Prop32
280
     0
102
RTVSPost2010PropOp32
 70
     1
102
RTVSPost2010Prop33
280
     0
102
RTVSPost2010PropOp33
 70
     1
102
RTVSPost2010Prop34
280
     0
102
RTVSPost2010PropOp34
 70
     1
102
RTVSPost2010Prop35
280
     0
102
RTVSPost2010PropOp35
 70
     1
102
RTVSPost2010Prop36
280
     0
102
RTVSPost2010PropOp36
 70
     1
102
RTVSPost2010Prop37
 90
       50
102
RTVSPost2010PropOp37
 70
     1
102
RTVSPost2010Prop38
140
0.0
102
RTVSPost2010PropOp38
 70
     1
102
RTVSPost2010Prop39
140
1.0
102
RTVSPost2010PropOp39
 70
     1
102
RTVSPost2010Prop40
 90
        0
102
RTVSPost2010PropOp40
 70
     1
102
RTVSPost2010Prop41ColorIndex
 90
       18
102
RTVSPost2010Prop41ColorRGB
 90
        0
102
RTVSPost2010PropOp41
 70
     1
102
RTVSPost2010Prop42
 90
       50
102
RTVSPost2010PropOp42
 70
     1
102
RTVSPost2010Prop43
 90
        3
102
RTVSPost2010PropOp43
 70
     1
102
RTVSPost2010Prop44ColorIndex
 90
        5
102
RTVSPost2010Prop44ColorRGB
 90
      255
102
RTVSPost2010PropOp44
 70
     1
102
RTVSPost2010Prop45
280
     0
102
RTVSPost2010PropOp45
 70
     1
102
RTVSPost2010Prop46
 90
       50
102
RTVSPost2010PropOp46
 70
     1
102
RTVSPost2010Prop47
 90
       50
102
RTVSPost2010PropOp47
 70
     1
102
RTVSPost2010Prop48
 90
       50
102
RTVSPost2010PropOp48
 70
     1
102
RTVSPost2010Prop49
280
     0
102
RTVSPost2010PropOp49
 70
     1
102
RTVSPost2010Prop50
 90
       50
102
RTVSPost2010PropOp50
 70
     1
102
RTVSPost2010Prop51ColorIndex
 90
      256
102
RTVSPost2010Prop51ColorRGB
 90
-16777216
102
RTVSPost2010PropOp51
 70
     0
102
RTVSPost2010Prop52
140
1.0
102
RTVSPost2010PropOp52
 70
     0
102
RTVSPost2010Prop53
 90
        2
102
RTVSPost2010PropOp53
 70
     1
102
RTVSPost2010Prop54
  1
strokes_ogs.tif
102
RTVSPost2010PropOp54
 70
     1
102
RTVSPost2010Prop55
280
     0
102
RTVSPost2010PropOp55
 70
     1
102
RTVSPost2010Prop56
140
1.0
102
RTVSPost2010PropOp56
 70
     1
102
RTVSPost2010Prop57
140
1.0
102
RTVSPost2010PropOp57
 70
     1
102
RTVSPropertyOp0
 70
     1
102
RTVSPropertyOp1
 70
     1
102
RTVSPropertyOp2
 70
     1
102
RTVSPropertyOp3
 70
     1
102
RTVSPropertyOp4
 70
     1
102
RTVSPropertyOp5
 70
     1
102
RTVSPropertyOp6
 70
     1
102
RTVSPropertyOp7
 70
     1
102
RTVSPropertyOp8
 70
     1
102
RTVSPropertyOp9
 70
     1
102
RTVSPropertyOp10
 70
     1
102
RTVSPropertyOp11
 70
     1
102
RTVSPropertyOp12
 70
     1
102
RTVSPropertyOp13
 70
     1
102
RTVSPropertyOp14
 70
     1
102
RTVSPropertyOp15
 70
     1
102
RTVSPropertyOp16
 70
     1
102
RTVSPropertyOp17
 70
     1
102
RTVSPropertyOp18
 70
     1
102
RTVSPropertyOp19
 70
     1
102
RTVSPropertyOp20
 70
     1
102
RTVSPropertyOp21
 70
     1
102
RTVSPropertyOp22
 70
     1
102
RTVSPropertyOp23
 70
     1
102
RTVSPropertyOp24
 70
     1
102
RTVSPropertyOp25
 70
     1
102
RTVSPropertyOp26
 70
     1
102
RTVSPropertyOp27
 70
     1
102
RTVSPropertyOp28
 70
     1
102
RTVSPropertyOp29
 70
     1
102
RTVSPropertyOp30
 70
     1
102
RTVSPropertyOp31
 70
     1
102
RTVSPropertyOp32
 70
     1
102
RTVSPropertyOp33
 70
     1
102
RTVSPropertyOp34
 70
     1
102
RTVSPropertyOp35
 70
     1
102
RTVSPropertyOp36
 70
     1
102
RTVSPropertyOp37
 70
     1
102
RTVSPropertyOp38
 70
     1
102
RTVSPropertyOp39
 70
     1
102
RTVSPropertyOp40
 70
     1
102
RTVSPropertyOp41
 70
     1
102
RTVSPropertyOp42
 70
     1
102
RTVSPropertyOp43
 70
     1
102
RTVSPropertyOp44
 70
     1
102
RTVSPropertyOp45
 70
     1
102
RTVSPropertyOp46
 70
     1
102
RTVSPropertyOp47
 70
     1
102
RTVSPropertyOp48
 70
     1
102
RTVSPropertyOp49
 70
     1
102
RTVSPropertyOp50
 70
     1
102
RTVSPropertyOp51
 70
     0
102
RTVSPropertyOp52
 70
     0
102
RTVSPropertyOp53
 70
     1
102
RTVSPropertyOp54
 70
     1
102
RTVSPropertyOp55
 70
     1
102
RTVSPropertyOp56
 70
     1
102
RTVSPropertyOp57
 70
     1
102
RTVSPropertyOp58
 70
     1
102
RTVSPropertyOp59
 70
     1
102
RTVSPropertyOp60
 70
     1
102
RTVSPropertyOp61
 70
     1
102
RTVSPropertyOp62
 70
     1
  0
XRECORD
  5
134B
102
{ACAD_REACTORS
330
134A
102
}
330
134A
100
AcDbXrecord
280
     1
102
RTVSPost2010Prop28
280
     0
102
RTVSPost2010PropOp28
 70
     1
102
RTVSPost2010Prop29
280
     1
102
RTVSPost2010PropOp29
 70
     1
102
RTVSPost2010Prop30
280
     1
102
RTVSPost2010PropOp30
 70
     1
102
RTVSPost2010Prop31
280
     0
102
RTVSPost2010PropOp31
 70
     1
102
RTVSPost2010Prop32
280
     0
102
RTVSPost2010PropOp32
 70
     1
102
RTVSPost2010Prop33
280
     0
102
RTVSPost2010PropOp33
 70
     1
102
RTVSPost2010Prop34
280
     0
102
RTVSPost2010PropOp34
 70
     1
102
RTVSPost2010Prop35
280
     0
102
RTVSPost2010PropOp35
 70
     1
102
RTVSPost2010Prop36
280
     0
102
RTVSPost2010PropOp36
 70
     1
102
RTVSPost2010Prop37
 90
       50
102
RTVSPost2010PropOp37
 70
     1
102
RTVSPost2010Prop38
140
0.0
102
RTVSPost2010PropOp38
 70
     1
102
RTVSPost2010Prop39
140
1.0
102
RTVSPost2010PropOp39
 70
     1
102
RTVSPost2010Prop40
 90
        0
102
RTVSPost2010PropOp40
 70
     1
102
RTVSPost2010Prop41ColorIndex
 90
       18
102
RTVSPost2010Prop41ColorRGB
 90
        0
102
RTVSPost2010PropOp41
 70
     1
102
RTVSPost2010Prop42
 90
       50
102
RTVSPost2010PropOp42
 70
     1
102
RTVSPost2010Prop43
 90
        3
102
RTVSPost2010PropOp43
 70
     1
102
RTVSPost2010Prop44ColorIndex
 90
        5
102
RTVSPost2010Prop44ColorRGB
 90
      255
102
RTVSPost2010PropOp44
 70
     1
102
RTVSPost2010Prop45
280
     0
102
RTVSPost2010PropOp45
 70
     1
102
RTVSPost2010Prop46
 90
       50
102
RTVSPost2010PropOp46
 70
     1
102
RTVSPost2010Prop47
 90
       50
102
RTVSPost2010PropOp47
 70
     1
102
RTVSPost2010Prop48
 90
       50
102
RTVSPost2010PropOp48
 70
     1
102
RTVSPost2010Prop49
280
     0
102
RTVSPost2010PropOp49
 70
     1
102
RTVSPost2010Prop50
 90
       50
102
RTVSPost2010PropOp50
 70
     1
102
RTVSPost2010Prop51ColorIndex
 90
      256
102
RTVSPost2010Prop51ColorRGB
 90
-16777216
102
RTVSPost2010PropOp51
 70
     0
102
RTVSPost2010Prop52
140
1.0
102
RTVSPost2010PropOp52
 70
     0
102
RTVSPost2010Prop53
 90
        2
102
RTVSPost2010PropOp53
 70
     1
102
RTVSPost2010Prop54
  1
strokes_ogs.tif
102
RTVSPost2010PropOp54
 70
     1
102
RTVSPost2010Prop55
280
     0
102
RTVSPost2010PropOp55
 70
     1
102
RTVSPost2010Prop56
140
1.0
102
RTVSPost2010PropOp56
 70
     1
102
RTVSPost2010Prop57
140
1.0
102
RTVSPost2010PropOp57
 70
     1
102
RTVSPropertyOp0
 70
     1
102
RTVSPropertyOp1
 70
     1
102
RTVSPropertyOp2
 70
     1
102
RTVSPropertyOp3
 70
     1
102
RTVSPropertyOp4
 70
     1
102
RTVSPropertyOp5
 70
     1
102
RTVSPropertyOp6
 70
     1
102
RTVSPropertyOp7
 70
     1
102
RTVSPropertyOp8
 70
     1
102
RTVSPropertyOp9
 70
     1
102
RTVSPropertyOp10
 70
     1
102
RTVSPropertyOp11
 70
     1
102
RTVSPropertyOp12
 70
     1
102
RTVSPropertyOp13
 70
     1
102
RTVSPropertyOp14
 70
     1
102
RTVSPropertyOp15
 70
     1
102
RTVSPropertyOp16
 70
     1
102
RTVSPropertyOp17
 70
     1
102
RTVSPropertyOp18
 70
     1
102
RTVSPropertyOp19
 70
     1
102
RTVSPropertyOp20
 70
     1
102
RTVSPropertyOp21
 70
     1
102
RTVSPropertyOp22
 70
     1
102
RTVSPropertyOp23
 70
     1
102
RTVSPropertyOp24
 70
     1
102
RTVSPropertyOp25
 70
     1
102
RTVSPropertyOp26
 70
     1
102
RTVSPropertyOp27
 70
     1
102
RTVSPropertyOp28
 70
     1
102
RTVSPropertyOp29
 70
     1
102
RTVSPropertyOp30
 70
     1
102
RTVSPropertyOp31
 70
     1
102
RTVSPropertyOp32
 70
     1
102
RTVSPropertyOp33
 70
     1
102
RTVSPropertyOp34
 70
     1
102
RTVSPropertyOp35
 70
     1
102
RTVSPropertyOp36
 70
     1
102
RTVSPropertyOp37
 70
     1
102
RTVSPropertyOp38
 70
     1
102
RTVSPropertyOp39
 70
     1
102
RTVSPropertyOp40
 70
     1
102
RTVSPropertyOp41
 70
     1
102
RTVSPropertyOp42
 70
     1
102
RTVSPropertyOp43
 70
     1
102
RTVSPropertyOp44
 70
     1
102
RTVSPropertyOp45
 70
     1
102
RTVSPropertyOp46
 70
     1
102
RTVSPropertyOp47
 70
     1
102
RTVSPropertyOp48
 70
     1
102
RTVSPropertyOp49
 70
     1
102
RTVSPropertyOp50
 70
     1
102
RTVSPropertyOp51
 70
     0
102
RTVSPropertyOp52
 70
     0
102
RTVSPropertyOp53
 70
     1
102
RTVSPropertyOp54
 70
     1
102
RTVSPropertyOp55
 70
     1
102
RTVSPropertyOp56
 70
     1
102
RTVSPropertyOp57
 70
     1
102
RTVSPropertyOp58
 70
     1
102
RTVSPropertyOp59
 70
     1
102
RTVSPropertyOp60
 70
     1
102
RTVSPropertyOp61
 70
     1
102
RTVSPropertyOp62
 70
     1
  0
XRECORD
  5
133D
102
{ACAD_REACTORS
330
133C
102
}
330
133C
100
AcDbXrecord
280
     1
102
RTVSPost2010Prop28
280
     0
102
RTVSPost2010PropOp28
 70
     1
102
RTVSPost2010Prop29
280
     1
102
RTVSPost2010PropOp29
 70
     1
102
RTVSPost2010Prop30
280
     1
102
RTVSPost2010PropOp30
 70
     1
102
RTVSPost2010Prop31
280
     0
102
RTVSPost2010PropOp31
 70
     1
102
RTVSPost2010Prop32
280
     0
102
RTVSPost2010PropOp32
 70
     1
102
RTVSPost2010Prop33
280
     0
102
RTVSPost2010PropOp33
 70
     1
102
RTVSPost2010Prop34
280
     0
102
RTVSPost2010PropOp34
 70
     1
102
RTVSPost2010Prop35
280
     0
102
RTVSPost2010PropOp35
 70
     1
102
RTVSPost2010Prop36
280
     0
102
RTVSPost2010PropOp36
 70
     1
102
RTVSPost2010Prop37
 90
       50
102
RTVSPost2010PropOp37
 70
     1
102
RTVSPost2010Prop38
140
0.0
102
RTVSPost2010PropOp38
 70
     1
102
RTVSPost2010Prop39
140
1.0
102
RTVSPost2010PropOp39
 70
     1
102
RTVSPost2010Prop40
 90
        0
102
RTVSPost2010PropOp40
 70
     1
102
RTVSPost2010Prop41ColorIndex
 90
       18
102
RTVSPost2010Prop41ColorRGB
 90
        0
102
RTVSPost2010PropOp41
 70
     1
102
RTVSPost2010Prop42
 90
       50
102
RTVSPost2010PropOp42
 70
     1
102
RTVSPost2010Prop43
 90
        3
102
RTVSPost2010PropOp43
 70
     1
102
RTVSPost2010Prop44ColorIndex
 90
        5
102
RTVSPost2010Prop44ColorRGB
 90
      255
102
RTVSPost2010PropOp44
 70
     1
102
RTVSPost2010Prop45
280
     0
102
RTVSPost2010PropOp45
 70
     1
102
RTVSPost2010Prop46
 90
       50
102
RTVSPost2010PropOp46
 70
     1
102
RTVSPost2010Prop47
 90
       50
102
RTVSPost2010PropOp47
 70
     1
102
RTVSPost2010Prop48
 90
       50
102
RTVSPost2010PropOp48
 70
     1
102
RTVSPost2010Prop49
280
     0
102
RTVSPost2010PropOp49
 70
     1
102
RTVSPost2010Prop50
 90
       50
102
RTVSPost2010PropOp50
 70
     1
102
RTVSPost2010Prop51ColorIndex
 90
      256
102
RTVSPost2010Prop51ColorRGB
 90
-16777216
102
RTVSPost2010PropOp51
 70
     0
102
RTVSPost2010Prop52
140
1.0
102
RTVSPost2010PropOp52
 70
     0
102
RTVSPost2010Prop53
 90
        2
102
RTVSPost2010PropOp53
 70
     1
102
RTVSPost2010Prop54
  1
strokes_ogs.tif
102
RTVSPost2010PropOp54
 70
     1
102
RTVSPost2010Prop55
280
     0
102
RTVSPost2010PropOp55
 70
     1
102
RTVSPost2010Prop56
140
1.0
102
RTVSPost2010PropOp56
 70
     1
102
RTVSPost2010Prop57
140
1.0
102
RTVSPost2010PropOp57
 70
     1
102
RTVSPropertyOp0
 70
     1
102
RTVSPropertyOp1
 70
     1
102
RTVSPropertyOp2
 70
     1
102
RTVSPropertyOp3
 70
     1
102
RTVSPropertyOp4
 70
     1
102
RTVSPropertyOp5
 70
     1
102
RTVSPropertyOp6
 70
     1
102
RTVSPropertyOp7
 70
     1
102
RTVSPropertyOp8
 70
     1
102
RTVSPropertyOp9
 70
     1
102
RTVSPropertyOp10
 70
     1
102
RTVSPropertyOp11
 70
     1
102
RTVSPropertyOp12
 70
     1
102
RTVSPropertyOp13
 70
     1
102
RTVSPropertyOp14
 70
     1
102
RTVSPropertyOp15
 70
     1
102
RTVSPropertyOp16
 70
     1
102
RTVSPropertyOp17
 70
     1
102
RTVSPropertyOp18
 70
     1
102
RTVSPropertyOp19
 70
     1
102
RTVSPropertyOp20
 70
     1
102
RTVSPropertyOp21
 70
     1
102
RTVSPropertyOp22
 70
     1
102
RTVSPropertyOp23
 70
     1
102
RTVSPropertyOp24
 70
     1
102
RTVSPropertyOp25
 70
     1
102
RTVSPropertyOp26
 70
     1
102
RTVSPropertyOp27
 70
     1
102
RTVSPropertyOp28
 70
     1
102
RTVSPropertyOp29
 70
     1
102
RTVSPropertyOp30
 70
     1
102
RTVSPropertyOp31
 70
     1
102
RTVSPropertyOp32
 70
     1
102
RTVSPropertyOp33
 70
     1
102
RTVSPropertyOp34
 70
     1
102
RTVSPropertyOp35
 70
     1
102
RTVSPropertyOp36
 70
     1
102
RTVSPropertyOp37
 70
     1
102
RTVSPropertyOp38
 70
     1
102
RTVSPropertyOp39
 70
     1
102
RTVSPropertyOp40
 70
     1
102
RTVSPropertyOp41
 70
     1
102
RTVSPropertyOp42
 70
     1
102
RTVSPropertyOp43
 70
     1
102
RTVSPropertyOp44
 70
     1
102
RTVSPropertyOp45
 70
     1
102
RTVSPropertyOp46
 70
     1
102
RTVSPropertyOp47
 70
     1
102
RTVSPropertyOp48
 70
     1
102
RTVSPropertyOp49
 70
     1
102
RTVSPropertyOp50
 70
     1
102
RTVSPropertyOp51
 70
     0
102
RTVSPropertyOp52
 70
     0
102
RTVSPropertyOp53
 70
     1
102
RTVSPropertyOp54
 70
     1
102
RTVSPropertyOp55
 70
     1
102
RTVSPropertyOp56
 70
     1
102
RTVSPropertyOp57
 70
     1
102
RTVSPropertyOp58
 70
     1
102
RTVSPropertyOp59
 70
     1
102
RTVSPropertyOp60
 70
     1
102
RTVSPropertyOp61
 70
     1
102
RTVSPropertyOp62
 70
     1
  0
XRECORD
  5
1341
102
{ACAD_REACTORS
330
1340
102
}
330
1340
100
AcDbXrecord
280
     1
102
RTVSPost2010Prop28
280
     0
102
RTVSPost2010PropOp28
 70
     1
102
RTVSPost2010Prop29
280
     1
102
RTVSPost2010PropOp29
 70
     1
102
RTVSPost2010Prop30
280
     1
102
RTVSPost2010PropOp30
 70
     1
102
RTVSPost2010Prop31
280
     0
102
RTVSPost2010PropOp31
 70
     1
102
RTVSPost2010Prop32
280
     0
102
RTVSPost2010PropOp32
 70
     1
102
RTVSPost2010Prop33
280
     0
102
RTVSPost2010PropOp33
 70
     1
102
RTVSPost2010Prop34
280
     0
102
RTVSPost2010PropOp34
 70
     1
102
RTVSPost2010Prop35
280
     0
102
RTVSPost2010PropOp35
 70
     1
102
RTVSPost2010Prop36
280
     0
102
RTVSPost2010PropOp36
 70
     1
102
RTVSPost2010Prop37
 90
       50
102
RTVSPost2010PropOp37
 70
     1
102
RTVSPost2010Prop38
140
0.0
102
RTVSPost2010PropOp38
 70
     1
102
RTVSPost2010Prop39
140
1.0
102
RTVSPost2010PropOp39
 70
     1
102
RTVSPost2010Prop40
 90
        0
102
RTVSPost2010PropOp40
 70
     1
102
RTVSPost2010Prop41ColorIndex
 90
       18
102
RTVSPost2010Prop41ColorRGB
 90
        0
102
RTVSPost2010PropOp41
 70
     1
102
RTVSPost2010Prop42
 90
       50
102
RTVSPost2010PropOp42
 70
     1
102
RTVSPost2010Prop43
 90
        3
102
RTVSPost2010PropOp43
 70
     1
102
RTVSPost2010Prop44ColorIndex
 90
        5
102
RTVSPost2010Prop44ColorRGB
 90
      255
102
RTVSPost2010PropOp44
 70
     1
102
RTVSPost2010Prop45
280
     0
102
RTVSPost2010PropOp45
 70
     1
102
RTVSPost2010Prop46
 90
       50
102
RTVSPost2010PropOp46
 70
     1
102
RTVSPost2010Prop47
 90
       50
102
RTVSPost2010PropOp47
 70
     1
102
RTVSPost2010Prop48
 90
       50
102
RTVSPost2010PropOp48
 70
     1
102
RTVSPost2010Prop49
280
     0
102
RTVSPost2010PropOp49
 70
     1
102
RTVSPost2010Prop50
 90
       50
102
RTVSPost2010PropOp50
 70
     1
102
RTVSPost2010Prop51ColorIndex
 90
      256
102
RTVSPost2010Prop51ColorRGB
 90
-16777216
102
RTVSPost2010PropOp51
 70
     0
102
RTVSPost2010Prop52
140
1.0
102
RTVSPost2010PropOp52
 70
     0
102
RTVSPost2010Prop53
 90
        2
102
RTVSPost2010PropOp53
 70
     1
102
RTVSPost2010Prop54
  1
strokes_ogs.tif
102
RTVSPost2010PropOp54
 70
     1
102
RTVSPost2010Prop55
280
     0
102
RTVSPost2010PropOp55
 70
     1
102
RTVSPost2010Prop56
140
1.0
102
RTVSPost2010PropOp56
 70
     1
102
RTVSPost2010Prop57
140
1.0
102
RTVSPost2010PropOp57
 70
     1
102
RTVSPropertyOp0
 70
     1
102
RTVSPropertyOp1
 70
     1
102
RTVSPropertyOp2
 70
     1
102
RTVSPropertyOp3
 70
     1
102
RTVSPropertyOp4
 70
     1
102
RTVSPropertyOp5
 70
     1
102
RTVSPropertyOp6
 70
     1
102
RTVSPropertyOp7
 70
     1
102
RTVSPropertyOp8
 70
     1
102
RTVSPropertyOp9
 70
     1
102
RTVSPropertyOp10
 70
     1
102
RTVSPropertyOp11
 70
     1
102
RTVSPropertyOp12
 70
     1
102
RTVSPropertyOp13
 70
     1
102
RTVSPropertyOp14
 70
     1
102
RTVSPropertyOp15
 70
     1
102
RTVSPropertyOp16
 70
     1
102
RTVSPropertyOp17
 70
     1
102
RTVSPropertyOp18
 70
     1
102
RTVSPropertyOp19
 70
     1
102
RTVSPropertyOp20
 70
     1
102
RTVSPropertyOp21
 70
     1
102
RTVSPropertyOp22
 70
     1
102
RTVSPropertyOp23
 70
     1
102
RTVSPropertyOp24
 70
     1
102
RTVSPropertyOp25
 70
     1
102
RTVSPropertyOp26
 70
     1
102
RTVSPropertyOp27
 70
     1
102
RTVSPropertyOp28
 70
     1
102
RTVSPropertyOp29
 70
     1
102
RTVSPropertyOp30
 70
     1
102
RTVSPropertyOp31
 70
     1
102
RTVSPropertyOp32
 70
     1
102
RTVSPropertyOp33
 70
     1
102
RTVSPropertyOp34
 70
     1
102
RTVSPropertyOp35
 70
     1
102
RTVSPropertyOp36
 70
     1
102
RTVSPropertyOp37
 70
     1
102
RTVSPropertyOp38
 70
     1
102
RTVSPropertyOp39
 70
     1
102
RTVSPropertyOp40
 70
     1
102
RTVSPropertyOp41
 70
     1
102
RTVSPropertyOp42
 70
     1
102
RTVSPropertyOp43
 70
     1
102
RTVSPropertyOp44
 70
     1
102
RTVSPropertyOp45
 70
     1
102
RTVSPropertyOp46
 70
     1
102
RTVSPropertyOp47
 70
     1
102
RTVSPropertyOp48
 70
     1
102
RTVSPropertyOp49
 70
     1
102
RTVSPropertyOp50
 70
     1
102
RTVSPropertyOp51
 70
     0
102
RTVSPropertyOp52
 70
     0
102
RTVSPropertyOp53
 70
     1
102
RTVSPropertyOp54
 70
     1
102
RTVSPropertyOp55
 70
     1
102
RTVSPropertyOp56
 70
     1
102
RTVSPropertyOp57
 70
     1
102
RTVSPropertyOp58
 70
     1
102
RTVSPropertyOp59
 70
     1
102
RTVSPropertyOp60
 70
     1
102
RTVSPropertyOp61
 70
     1
102
RTVSPropertyOp62
 70
     1
  0
XRECORD
  5
135B
102
{ACAD_REACTORS
330
135A
102
}
330
135A
100
AcDbXrecord
280
     1
102
RTVSPost2010Prop28
280
     0
102
RTVSPost2010PropOp28
 70
     1
102
RTVSPost2010Prop29
280
     1
102
RTVSPost2010PropOp29
 70
     1
102
RTVSPost2010Prop30
280
     1
102
RTVSPost2010PropOp30
 70
     1
102
RTVSPost2010Prop31
280
     0
102
RTVSPost2010PropOp31
 70
     1
102
RTVSPost2010Prop32
280
     0
102
RTVSPost2010PropOp32
 70
     1
102
RTVSPost2010Prop33
280
     0
102
RTVSPost2010PropOp33
 70
     1
102
RTVSPost2010Prop34
280
     0
102
RTVSPost2010PropOp34
 70
     1
102
RTVSPost2010Prop35
280
     0
102
RTVSPost2010PropOp35
 70
     1
102
RTVSPost2010Prop36
280
     0
102
RTVSPost2010PropOp36
 70
     1
102
RTVSPost2010Prop37
 90
       50
102
RTVSPost2010PropOp37
 70
     0
102
RTVSPost2010Prop38
140
0.0
102
RTVSPost2010PropOp38
 70
     0
102
RTVSPost2010Prop39
140
1.0
102
RTVSPost2010PropOp39
 70
     0
102
RTVSPost2010Prop40
 90
        0
102
RTVSPost2010PropOp40
 70
     0
102
RTVSPost2010Prop41ColorIndex
 90
       18
102
RTVSPost2010Prop41ColorRGB
 90
        0
102
RTVSPost2010PropOp41
 70
     0
102
RTVSPost2010Prop42
 90
       50
102
RTVSPost2010PropOp42
 70
     0
102
RTVSPost2010Prop43
 90
        3
102
RTVSPost2010PropOp43
 70
     0
102
RTVSPost2010Prop44ColorIndex
 90
        5
102
RTVSPost2010Prop44ColorRGB
 90
      255
102
RTVSPost2010PropOp44
 70
     0
102
RTVSPost2010Prop45
280
     0
102
RTVSPost2010PropOp45
 70
     1
102
RTVSPost2010Prop46
 90
       50
102
RTVSPost2010PropOp46
 70
     0
102
RTVSPost2010Prop47
 90
       50
102
RTVSPost2010PropOp47
 70
     0
102
RTVSPost2010Prop48
 90
       50
102
RTVSPost2010PropOp48
 70
     0
102
RTVSPost2010Prop49
280
     0
102
RTVSPost2010PropOp49
 70
     1
102
RTVSPost2010Prop50
 90
       50
102
RTVSPost2010PropOp50
 70
     0
102
RTVSPost2010Prop51ColorIndex
 90
      256
102
RTVSPost2010Prop51ColorRGB
 90
-16777216
102
RTVSPost2010PropOp51
 70
     0
102
RTVSPost2010Prop52
140
1.0
102
RTVSPost2010PropOp52
 70
     0
102
RTVSPost2010Prop53
 90
        2
102
RTVSPost2010PropOp53
 70
     0
102
RTVSPost2010Prop54
  1
strokes_ogs.tif
102
RTVSPost2010PropOp54
 70
     0
102
RTVSPost2010Prop55
280
     0
102
RTVSPost2010PropOp55
 70
     1
102
RTVSPost2010Prop56
140
1.0
102
RTVSPost2010PropOp56
 70
     0
102
RTVSPost2010Prop57
140
1.0
102
RTVSPost2010PropOp57
 70
     0
102
RTVSPropertyOp0
 70
     0
102
RTVSPropertyOp1
 70
     0
102
RTVSPropertyOp2
 70
     0
102
RTVSPropertyOp3
 70
     0
102
RTVSPropertyOp4
 70
     0
102
RTVSPropertyOp5
 70
     0
102
RTVSPropertyOp6
 70
     0
102
RTVSPropertyOp7
 70
     0
102
RTVSPropertyOp8
 70
     0
102
RTVSPropertyOp9
 70
     0
102
RTVSPropertyOp10
 70
     0
102
RTVSPropertyOp11
 70
     0
102
RTVSPropertyOp12
 70
     0
102
RTVSPropertyOp13
 70
     0
102
RTVSPropertyOp14
 70
     2
102
RTVSPropertyOp15
 70
     0
102
RTVSPropertyOp16
 70
     0
102
RTVSPropertyOp17
 70
     0
102
RTVSPropertyOp18
 70
     0
102
RTVSPropertyOp19
 70
     0
102
RTVSPropertyOp20
 70
     0
102
RTVSPropertyOp21
 70
     0
102
RTVSPropertyOp22
 70
     0
102
RTVSPropertyOp23
 70
     0
102
RTVSPropertyOp24
 70
     0
102
RTVSPropertyOp25
 70
     0
102
RTVSPropertyOp26
 70
     0
102
RTVSPropertyOp27
 70
     0
102
RTVSPropertyOp28
 70
     1
102
RTVSPropertyOp29
 70
     1
102
RTVSPropertyOp30
 70
     1
102
RTVSPropertyOp31
 70
     1
102
RTVSPropertyOp32
 70
     1
102
RTVSPropertyOp33
 70
     1
102
RTVSPropertyOp34
 70
     1
102
RTVSPropertyOp35
 70
     1
102
RTVSPropertyOp36
 70
     1
102
RTVSPropertyOp37
 70
     0
102
RTVSPropertyOp38
 70
     0
102
RTVSPropertyOp39
 70
     0
102
RTVSPropertyOp40
 70
     0
102
RTVSPropertyOp41
 70
     0
102
RTVSPropertyOp42
 70
     0
102
RTVSPropertyOp43
 70
     0
102
RTVSPropertyOp44
 70
     0
102
RTVSPropertyOp45
 70
     1
102
RTVSPropertyOp46
 70
     0
102
RTVSPropertyOp47
 70
     0
102
RTVSPropertyOp48
 70
     0
102
RTVSPropertyOp49
 70
     1
102
RTVSPropertyOp50
 70
     0
102
RTVSPropertyOp51
 70
     0
102
RTVSPropertyOp52
 70
     0
102
RTVSPropertyOp53
 70
     0
102
RTVSPropertyOp54
 70
     0
102
RTVSPropertyOp55
 70
     1
102
RTVSPropertyOp56
 70
     0
102
RTVSPropertyOp57
 70
     0
102
RTVSPropertyOp58
 70
     0
102
RTVSPropertyOp59
 70
     0
102
RTVSPropertyOp60
 70
     0
102
RTVSPropertyOp61
 70
     0
102
RTVSPropertyOp62
 70
     0
  0
XRECORD
  5
1349
102
{ACAD_REACTORS
330
1348
102
}
330
1348
100
AcDbXrecord
280
     1
102
RTVSPost2010Prop28
280
     0
102
RTVSPost2010PropOp28
 70
     1
102
RTVSPost2010Prop29
280
     1
102
RTVSPost2010PropOp29
 70
     1
102
RTVSPost2010Prop30
280
     1
102
RTVSPost2010PropOp30
 70
     1
102
RTVSPost2010Prop31
280
     0
102
RTVSPost2010PropOp31
 70
     1
102
RTVSPost2010Prop32
280
     0
102
RTVSPost2010PropOp32
 70
     1
102
RTVSPost2010Prop33
280
     0
102
RTVSPost2010PropOp33
 70
     1
102
RTVSPost2010Prop34
280
     0
102
RTVSPost2010PropOp34
 70
     1
102
RTVSPost2010Prop35
280
     0
102
RTVSPost2010PropOp35
 70
     1
102
RTVSPost2010Prop36
280
     0
102
RTVSPost2010PropOp36
 70
     1
102
RTVSPost2010Prop37
 90
       50
102
RTVSPost2010PropOp37
 70
     1
102
RTVSPost2010Prop38
140
0.0
102
RTVSPost2010PropOp38
 70
     1
102
RTVSPost2010Prop39
140
1.0
102
RTVSPost2010PropOp39
 70
     1
102
RTVSPost2010Prop40
 90
        0
102
RTVSPost2010PropOp40
 70
     1
102
RTVSPost2010Prop41ColorIndex
 90
       18
102
RTVSPost2010Prop41ColorRGB
 90
        0
102
RTVSPost2010PropOp41
 70
     1
102
RTVSPost2010Prop42
 90
       50
102
RTVSPost2010PropOp42
 70
     1
102
RTVSPost2010Prop43
 90
        3
102
RTVSPost2010PropOp43
 70
     1
102
RTVSPost2010Prop44ColorIndex
 90
        5
102
RTVSPost2010Prop44ColorRGB
 90
      255
102
RTVSPost2010PropOp44
 70
     1
102
RTVSPost2010Prop45
280
     0
102
RTVSPost2010PropOp45
 70
     1
102
RTVSPost2010Prop46
 90
       50
102
RTVSPost2010PropOp46
 70
     1
102
RTVSPost2010Prop47
 90
       50
102
RTVSPost2010PropOp47
 70
     1
102
RTVSPost2010Prop48
 90
       50
102
RTVSPost2010PropOp48
 70
     1
102
RTVSPost2010Prop49
280
     0
102
RTVSPost2010PropOp49
 70
     1
102
RTVSPost2010Prop50
 90
       50
102
RTVSPost2010PropOp50
 70
     1
102
RTVSPost2010Prop51ColorIndex
 90
      256
102
RTVSPost2010Prop51ColorRGB
 90
-16777216
102
RTVSPost2010PropOp51
 70
     0
102
RTVSPost2010Prop52
140
1.0
102
RTVSPost2010PropOp52
 70
     0
102
RTVSPost2010Prop53
 90
        2
102
RTVSPost2010PropOp53
 70
     1
102
RTVSPost2010Prop54
  1
strokes_ogs.tif
102
RTVSPost2010PropOp54
 70
     1
102
RTVSPost2010Prop55
280
     0
102
RTVSPost2010PropOp55
 70
     1
102
RTVSPost2010Prop56
140
1.0
102
RTVSPost2010PropOp56
 70
     1
102
RTVSPost2010Prop57
140
1.0
102
RTVSPost2010PropOp57
 70
     1
102
RTVSPropertyOp0
 70
     1
102
RTVSPropertyOp1
 70
     1
102
RTVSPropertyOp2
 70
     1
102
RTVSPropertyOp3
 70
     1
102
RTVSPropertyOp4
 70
     1
102
RTVSPropertyOp5
 70
     1
102
RTVSPropertyOp6
 70
     1
102
RTVSPropertyOp7
 70
     1
102
RTVSPropertyOp8
 70
     1
102
RTVSPropertyOp9
 70
     1
102
RTVSPropertyOp10
 70
     1
102
RTVSPropertyOp11
 70
     1
102
RTVSPropertyOp12
 70
     1
102
RTVSPropertyOp13
 70
     1
102
RTVSPropertyOp14
 70
     1
102
RTVSPropertyOp15
 70
     1
102
RTVSPropertyOp16
 70
     1
102
RTVSPropertyOp17
 70
     1
102
RTVSPropertyOp18
 70
     1
102
RTVSPropertyOp19
 70
     1
102
RTVSPropertyOp20
 70
     1
102
RTVSPropertyOp21
 70
     1
102
RTVSPropertyOp22
 70
     1
102
RTVSPropertyOp23
 70
     1
102
RTVSPropertyOp24
 70
     1
102
RTVSPropertyOp25
 70
     1
102
RTVSPropertyOp26
 70
     1
102
RTVSPropertyOp27
 70
     1
102
RTVSPropertyOp28
 70
     1
102
RTVSPropertyOp29
 70
     1
102
RTVSPropertyOp30
 70
     1
102
RTVSPropertyOp31
 70
     1
102
RTVSPropertyOp32
 70
     1
102
RTVSPropertyOp33
 70
     1
102
RTVSPropertyOp34
 70
     1
102
RTVSPropertyOp35
 70
     1
102
RTVSPropertyOp36
 70
     1
102
RTVSPropertyOp37
 70
     1
102
RTVSPropertyOp38
 70
     1
102
RTVSPropertyOp39
 70
     1
102
RTVSPropertyOp40
 70
     1
102
RTVSPropertyOp41
 70
     1
102
RTVSPropertyOp42
 70
     1
102
RTVSPropertyOp43
 70
     1
102
RTVSPropertyOp44
 70
     1
102
RTVSPropertyOp45
 70
     1
102
RTVSPropertyOp46
 70
     1
102
RTVSPropertyOp47
 70
     1
102
RTVSPropertyOp48
 70
     1
102
RTVSPropertyOp49
 70
     1
102
RTVSPropertyOp50
 70
     1
102
RTVSPropertyOp51
 70
     0
102
RTVSPropertyOp52
 70
     0
102
RTVSPropertyOp53
 70
     1
102
RTVSPropertyOp54
 70
     1
102
RTVSPropertyOp55
 70
     1
102
RTVSPropertyOp56
 70
     1
102
RTVSPropertyOp57
 70
     1
102
RTVSPropertyOp58
 70
     1
102
RTVSPropertyOp59
 70
     1
102
RTVSPropertyOp60
 70
     1
102
RTVSPropertyOp61
 70
     1
102
RTVSPropertyOp62
 70
     1
  0
XRECORD
  5
132D
102
{ACAD_REACTORS
330
132C
102
}
330
132C
100
AcDbXrecord
280
     1
102
RTVSPost2010Prop28
280
     0
102
RTVSPost2010PropOp28
 70
     1
102
RTVSPost2010Prop29
280
     1
102
RTVSPost2010PropOp29
 70
     1
102
RTVSPost2010Prop30
280
     1
102
RTVSPost2010PropOp30
 70
     1
102
RTVSPost2010Prop31
280
     0
102
RTVSPost2010PropOp31
 70
     1
102
RTVSPost2010Prop32
280
     0
102
RTVSPost2010PropOp32
 70
     1
102
RTVSPost2010Prop33
280
     0
102
RTVSPost2010PropOp33
 70
     1
102
RTVSPost2010Prop34
280
     0
102
RTVSPost2010PropOp34
 70
     1
102
RTVSPost2010Prop35
280
     0
102
RTVSPost2010PropOp35
 70
     1
102
RTVSPost2010Prop36
280
     0
102
RTVSPost2010PropOp36
 70
     1
102
RTVSPost2010Prop37
 90
       50
102
RTVSPost2010PropOp37
 70
     1
102
RTVSPost2010Prop38
140
0.0
102
RTVSPost2010PropOp38
 70
     1
102
RTVSPost2010Prop39
140
1.0
102
RTVSPost2010PropOp39
 70
     1
102
RTVSPost2010Prop40
 90
        0
102
RTVSPost2010PropOp40
 70
     1
102
RTVSPost2010Prop41ColorIndex
 90
       18
102
RTVSPost2010Prop41ColorRGB
 90
        0
102
RTVSPost2010PropOp41
 70
     1
102
RTVSPost2010Prop42
 90
       50
102
RTVSPost2010PropOp42
 70
     1
102
RTVSPost2010Prop43
 90
        3
102
RTVSPost2010PropOp43
 70
     1
102
RTVSPost2010Prop44ColorIndex
 90
        5
102
RTVSPost2010Prop44ColorRGB
 90
      255
102
RTVSPost2010PropOp44
 70
     1
102
RTVSPost2010Prop45
280
     0
102
RTVSPost2010PropOp45
 70
     1
102
RTVSPost2010Prop46
 90
       50
102
RTVSPost2010PropOp46
 70
     1
102
RTVSPost2010Prop47
 90
       50
102
RTVSPost2010PropOp47
 70
     1
102
RTVSPost2010Prop48
 90
       50
102
RTVSPost2010PropOp48
 70
     1
102
RTVSPost2010Prop49
280
     0
102
RTVSPost2010PropOp49
 70
     1
102
RTVSPost2010Prop50
 90
       50
102
RTVSPost2010PropOp50
 70
     1
102
RTVSPost2010Prop51ColorIndex
 90
      256
102
RTVSPost2010Prop51ColorRGB
 90
-16777216
102
RTVSPost2010PropOp51
 70
     0
102
RTVSPost2010Prop52
140
1.0
102
RTVSPost2010PropOp52
 70
     0
102
RTVSPost2010Prop53
 90
        2
102
RTVSPost2010PropOp53
 70
     1
102
RTVSPost2010Prop54
  1
strokes_ogs.tif
102
RTVSPost2010PropOp54
 70
     1
102
RTVSPost2010Prop55
280
     0
102
RTVSPost2010PropOp55
 70
     1
102
RTVSPost2010Prop56
140
1.0
102
RTVSPost2010PropOp56
 70
     1
102
RTVSPost2010Prop57
140
1.0
102
RTVSPost2010PropOp57
 70
     1
102
RTVSPropertyOp0
 70
     1
102
RTVSPropertyOp1
 70
     1
102
RTVSPropertyOp2
 70
     1
102
RTVSPropertyOp3
 70
     1
102
RTVSPropertyOp4
 70
     1
102
RTVSPropertyOp5
 70
     1
102
RTVSPropertyOp6
 70
     1
102
RTVSPropertyOp7
 70
     1
102
RTVSPropertyOp8
 70
     1
102
RTVSPropertyOp9
 70
     1
102
RTVSPropertyOp10
 70
     1
102
RTVSPropertyOp11
 70
     1
102
RTVSPropertyOp12
 70
     1
102
RTVSPropertyOp13
 70
     1
102
RTVSPropertyOp14
 70
     1
102
RTVSPropertyOp15
 70
     1
102
RTVSPropertyOp16
 70
     1
102
RTVSPropertyOp17
 70
     1
102
RTVSPropertyOp18
 70
     1
102
RTVSPropertyOp19
 70
     1
102
RTVSPropertyOp20
 70
     1
102
RTVSPropertyOp21
 70
     1
102
RTVSPropertyOp22
 70
     1
102
RTVSPropertyOp23
 70
     1
102
RTVSPropertyOp24
 70
     1
102
RTVSPropertyOp25
 70
     1
102
RTVSPropertyOp26
 70
     1
102
RTVSPropertyOp27
 70
     1
102
RTVSPropertyOp28
 70
     1
102
RTVSPropertyOp29
 70
     1
102
RTVSPropertyOp30
 70
     1
102
RTVSPropertyOp31
 70
     1
102
RTVSPropertyOp32
 70
     1
102
RTVSPropertyOp33
 70
     1
102
RTVSPropertyOp34
 70
     1
102
RTVSPropertyOp35
 70
     1
102
RTVSPropertyOp36
 70
     1
102
RTVSPropertyOp37
 70
     1
102
RTVSPropertyOp38
 70
     1
102
RTVSPropertyOp39
 70
     1
102
RTVSPropertyOp40
 70
     1
102
RTVSPropertyOp41
 70
     1
102
RTVSPropertyOp42
 70
     1
102
RTVSPropertyOp43
 70
     1
102
RTVSPropertyOp44
 70
     1
102
RTVSPropertyOp45
 70
     1
102
RTVSPropertyOp46
 70
     1
102
RTVSPropertyOp47
 70
     1
102
RTVSPropertyOp48
 70
     1
102
RTVSPropertyOp49
 70
     1
102
RTVSPropertyOp50
 70
     1
102
RTVSPropertyOp51
 70
     0
102
RTVSPropertyOp52
 70
     0
102
RTVSPropertyOp53
 70
     1
102
RTVSPropertyOp54
 70
     1
102
RTVSPropertyOp55
 70
     1
102
RTVSPropertyOp56
 70
     1
102
RTVSPropertyOp57
 70
     1
102
RTVSPropertyOp58
 70
     1
102
RTVSPropertyOp59
 70
     1
102
RTVSPropertyOp60
 70
     1
102
RTVSPropertyOp61
 70
     1
102
RTVSPropertyOp62
 70
     1
  0
XRECORD
  5
132F
102
{ACAD_REACTORS
330
132E
102
}
330
132E
100
AcDbXrecord
280
     1
102
RTVSPost2010Prop28
280
     0
102
RTVSPost2010PropOp28
 70
     1
102
RTVSPost2010Prop29
280
     1
102
RTVSPost2010PropOp29
 70
     1
102
RTVSPost2010Prop30
280
     1
102
RTVSPost2010PropOp30
 70
     1
102
RTVSPost2010Prop31
280
     0
102
RTVSPost2010PropOp31
 70
     1
102
RTVSPost2010Prop32
280
     0
102
RTVSPost2010PropOp32
 70
     1
102
RTVSPost2010Prop33
280
     0
102
RTVSPost2010PropOp33
 70
     1
102
RTVSPost2010Prop34
280
     0
102
RTVSPost2010PropOp34
 70
     1
102
RTVSPost2010Prop35
280
     0
102
RTVSPost2010PropOp35
 70
     1
102
RTVSPost2010Prop36
280
     0
102
RTVSPost2010PropOp36
 70
     1
102
RTVSPost2010Prop37
 90
       50
102
RTVSPost2010PropOp37
 70
     1
102
RTVSPost2010Prop38
140
0.0
102
RTVSPost2010PropOp38
 70
     1
102
RTVSPost2010Prop39
140
1.0
102
RTVSPost2010PropOp39
 70
     1
102
RTVSPost2010Prop40
 90
        0
102
RTVSPost2010PropOp40
 70
     1
102
RTVSPost2010Prop41ColorIndex
 90
       18
102
RTVSPost2010Prop41ColorRGB
 90
        0
102
RTVSPost2010PropOp41
 70
     1
102
RTVSPost2010Prop42
 90
       50
102
RTVSPost2010PropOp42
 70
     1
102
RTVSPost2010Prop43
 90
        3
102
RTVSPost2010PropOp43
 70
     1
102
RTVSPost2010Prop44ColorIndex
 90
        5
102
RTVSPost2010Prop44ColorRGB
 90
      255
102
RTVSPost2010PropOp44
 70
     1
102
RTVSPost2010Prop45
280
     0
102
RTVSPost2010PropOp45
 70
     1
102
RTVSPost2010Prop46
 90
       50
102
RTVSPost2010PropOp46
 70
     1
102
RTVSPost2010Prop47
 90
       50
102
RTVSPost2010PropOp47
 70
     1
102
RTVSPost2010Prop48
 90
       50
102
RTVSPost2010PropOp48
 70
     1
102
RTVSPost2010Prop49
280
     0
102
RTVSPost2010PropOp49
 70
     1
102
RTVSPost2010Prop50
 90
       50
102
RTVSPost2010PropOp50
 70
     1
102
RTVSPost2010Prop51ColorIndex
 90
      256
102
RTVSPost2010Prop51ColorRGB
 90
-16777216
102
RTVSPost2010PropOp51
 70
     0
102
RTVSPost2010Prop52
140
1.0
102
RTVSPost2010PropOp52
 70
     0
102
RTVSPost2010Prop53
 90
        2
102
RTVSPost2010PropOp53
 70
     1
102
RTVSPost2010Prop54
  1
strokes_ogs.tif
102
RTVSPost2010PropOp54
 70
     1
102
RTVSPost2010Prop55
280
     0
102
RTVSPost2010PropOp55
 70
     1
102
RTVSPost2010Prop56
140
1.0
102
RTVSPost2010PropOp56
 70
     1
102
RTVSPost2010Prop57
140
1.0
102
RTVSPost2010PropOp57
 70
     1
102
RTVSPropertyOp0
 70
     1
102
RTVSPropertyOp1
 70
     1
102
RTVSPropertyOp2
 70
     1
102
RTVSPropertyOp3
 70
     1
102
RTVSPropertyOp4
 70
     1
102
RTVSPropertyOp5
 70
     1
102
RTVSPropertyOp6
 70
     1
102
RTVSPropertyOp7
 70
     1
102
RTVSPropertyOp8
 70
     1
102
RTVSPropertyOp9
 70
     1
102
RTVSPropertyOp10
 70
     1
102
RTVSPropertyOp11
 70
     1
102
RTVSPropertyOp12
 70
     1
102
RTVSPropertyOp13
 70
     1
102
RTVSPropertyOp14
 70
     1
102
RTVSPropertyOp15
 70
     1
102
RTVSPropertyOp16
 70
     1
102
RTVSPropertyOp17
 70
     1
102
RTVSPropertyOp18
 70
     1
102
RTVSPropertyOp19
 70
     1
102
RTVSPropertyOp20
 70
     1
102
RTVSPropertyOp21
 70
     1
102
RTVSPropertyOp22
 70
     1
102
RTVSPropertyOp23
 70
     1
102
RTVSPropertyOp24
 70
     1
102
RTVSPropertyOp25
 70
     1
102
RTVSPropertyOp26
 70
     1
102
RTVSPropertyOp27
 70
     1
102
RTVSPropertyOp28
 70
     1
102
RTVSPropertyOp29
 70
     1
102
RTVSPropertyOp30
 70
     1
102
RTVSPropertyOp31
 70
     1
102
RTVSPropertyOp32
 70
     1
102
RTVSPropertyOp33
 70
     1
102
RTVSPropertyOp34
 70
     1
102
RTVSPropertyOp35
 70
     1
102
RTVSPropertyOp36
 70
     1
102
RTVSPropertyOp37
 70
     1
102
RTVSPropertyOp38
 70
     1
102
RTVSPropertyOp39
 70
     1
102
RTVSPropertyOp40
 70
     1
102
RTVSPropertyOp41
 70
     1
102
RTVSPropertyOp42
 70
     1
102
RTVSPropertyOp43
 70
     1
102
RTVSPropertyOp44
 70
     1
102
RTVSPropertyOp45
 70
     1
102
RTVSPropertyOp46
 70
     1
102
RTVSPropertyOp47
 70
     1
102
RTVSPropertyOp48
 70
     1
102
RTVSPropertyOp49
 70
     1
102
RTVSPropertyOp50
 70
     1
102
RTVSPropertyOp51
 70
     0
102
RTVSPropertyOp52
 70
     0
102
RTVSPropertyOp53
 70
     1
102
RTVSPropertyOp54
 70
     1
102
RTVSPropertyOp55
 70
     1
102
RTVSPropertyOp56
 70
     1
102
RTVSPropertyOp57
 70
     1
102
RTVSPropertyOp58
 70
     1
102
RTVSPropertyOp59
 70
     1
102
RTVSPropertyOp60
 70
     1
102
RTVSPropertyOp61
 70
     1
102
RTVSPropertyOp62
 70
     1
  0
XRECORD
  5
1331
102
{ACAD_REACTORS
330
1330
102
}
330
1330
100
AcDbXrecord
280
     1
102
RTVSPost2010Prop28
280
     0
102
RTVSPost2010PropOp28
 70
     1
102
RTVSPost2010Prop29
280
     1
102
RTVSPost2010PropOp29
 70
     1
102
RTVSPost2010Prop30
280
     1
102
RTVSPost2010PropOp30
 70
     1
102
RTVSPost2010Prop31
280
     0
102
RTVSPost2010PropOp31
 70
     1
102
RTVSPost2010Prop32
280
     0
102
RTVSPost2010PropOp32
 70
     1
102
RTVSPost2010Prop33
280
     0
102
RTVSPost2010PropOp33
 70
     1
102
RTVSPost2010Prop34
280
     0
102
RTVSPost2010PropOp34
 70
     1
102
RTVSPost2010Prop35
280
     0
102
RTVSPost2010PropOp35
 70
     1
102
RTVSPost2010Prop36
280
     0
102
RTVSPost2010PropOp36
 70
     1
102
RTVSPost2010Prop37
 90
       50
102
RTVSPost2010PropOp37
 70
     1
102
RTVSPost2010Prop38
140
0.0
102
RTVSPost2010PropOp38
 70
     1
102
RTVSPost2010Prop39
140
1.0
102
RTVSPost2010PropOp39
 70
     1
102
RTVSPost2010Prop40
 90
        0
102
RTVSPost2010PropOp40
 70
     1
102
RTVSPost2010Prop41ColorIndex
 90
       18
102
RTVSPost2010Prop41ColorRGB
 90
        0
102
RTVSPost2010PropOp41
 70
     1
102
RTVSPost2010Prop42
 90
       50
102
RTVSPost2010PropOp42
 70
     1
102
RTVSPost2010Prop43
 90
        3
102
RTVSPost2010PropOp43
 70
     1
102
RTVSPost2010Prop44ColorIndex
 90
        5
102
RTVSPost2010Prop44ColorRGB
 90
      255
102
RTVSPost2010PropOp44
 70
     1
102
RTVSPost2010Prop45
280
     0
102
RTVSPost2010PropOp45
 70
     1
102
RTVSPost2010Prop46
 90
       50
102
RTVSPost2010PropOp46
 70
     1
102
RTVSPost2010Prop47
 90
       50
102
RTVSPost2010PropOp47
 70
     1
102
RTVSPost2010Prop48
 90
       50
102
RTVSPost2010PropOp48
 70
     1
102
RTVSPost2010Prop49
280
     0
102
RTVSPost2010PropOp49
 70
     1
102
RTVSPost2010Prop50
 90
       50
102
RTVSPost2010PropOp50
 70
     1
102
RTVSPost2010Prop51ColorIndex
 90
      256
102
RTVSPost2010Prop51ColorRGB
 90
-16777216
102
RTVSPost2010PropOp51
 70
     0
102
RTVSPost2010Prop52
140
1.0
102
RTVSPost2010PropOp52
 70
     0
102
RTVSPost2010Prop53
 90
        2
102
RTVSPost2010PropOp53
 70
     1
102
RTVSPost2010Prop54
  1
strokes_ogs.tif
102
RTVSPost2010PropOp54
 70
     1
102
RTVSPost2010Prop55
280
     0
102
RTVSPost2010PropOp55
 70
     1
102
RTVSPost2010Prop56
140
1.0
102
RTVSPost2010PropOp56
 70
     1
102
RTVSPost2010Prop57
140
1.0
102
RTVSPost2010PropOp57
 70
     1
102
RTVSPropertyOp0
 70
     1
102
RTVSPropertyOp1
 70
     1
102
RTVSPropertyOp2
 70
     1
102
RTVSPropertyOp3
 70
     1
102
RTVSPropertyOp4
 70
     1
102
RTVSPropertyOp5
 70
     1
102
RTVSPropertyOp6
 70
     1
102
RTVSPropertyOp7
 70
     1
102
RTVSPropertyOp8
 70
     1
102
RTVSPropertyOp9
 70
     1
102
RTVSPropertyOp10
 70
     1
102
RTVSPropertyOp11
 70
     1
102
RTVSPropertyOp12
 70
     1
102
RTVSPropertyOp13
 70
     1
102
RTVSPropertyOp14
 70
     1
102
RTVSPropertyOp15
 70
     1
102
RTVSPropertyOp16
 70
     1
102
RTVSPropertyOp17
 70
     1
102
RTVSPropertyOp18
 70
     1
102
RTVSPropertyOp19
 70
     1
102
RTVSPropertyOp20
 70
     1
102
RTVSPropertyOp21
 70
     1
102
RTVSPropertyOp22
 70
     1
102
RTVSPropertyOp23
 70
     1
102
RTVSPropertyOp24
 70
     1
102
RTVSPropertyOp25
 70
     1
102
RTVSPropertyOp26
 70
     1
102
RTVSPropertyOp27
 70
     1
102
RTVSPropertyOp28
 70
     1
102
RTVSPropertyOp29
 70
     1
102
RTVSPropertyOp30
 70
     1
102
RTVSPropertyOp31
 70
     1
102
RTVSPropertyOp32
 70
     1
102
RTVSPropertyOp33
 70
     1
102
RTVSPropertyOp34
 70
     1
102
RTVSPropertyOp35
 70
     1
102
RTVSPropertyOp36
 70
     1
102
RTVSPropertyOp37
 70
     1
102
RTVSPropertyOp38
 70
     1
102
RTVSPropertyOp39
 70
     1
102
RTVSPropertyOp40
 70
     1
102
RTVSPropertyOp41
 70
     1
102
RTVSPropertyOp42
 70
     1
102
RTVSPropertyOp43
 70
     1
102
RTVSPropertyOp44
 70
     1
102
RTVSPropertyOp45
 70
     1
102
RTVSPropertyOp46
 70
     1
102
RTVSPropertyOp47
 70
     1
102
RTVSPropertyOp48
 70
     1
102
RTVSPropertyOp49
 70
     1
102
RTVSPropertyOp50
 70
     1
102
RTVSPropertyOp51
 70
     0
102
RTVSPropertyOp52
 70
     0
102
RTVSPropertyOp53
 70
     1
102
RTVSPropertyOp54
 70
     1
102
RTVSPropertyOp55
 70
     1
102
RTVSPropertyOp56
 70
     1
102
RTVSPropertyOp57
 70
     1
102
RTVSPropertyOp58
 70
     1
102
RTVSPropertyOp59
 70
     1
102
RTVSPropertyOp60
 70
     1
102
RTVSPropertyOp61
 70
     1
102
RTVSPropertyOp62
 70
     1
  0
XRECORD
  5
1333
102
{ACAD_REACTORS
330
1332
102
}
330
1332
100
AcDbXrecord
280
     1
102
RTVSPost2010Prop28
280
     0
102
RTVSPost2010PropOp28
 70
     1
102
RTVSPost2010Prop29
280
     1
102
RTVSPost2010PropOp29
 70
     1
102
RTVSPost2010Prop30
280
     1
102
RTVSPost2010PropOp30
 70
     1
102
RTVSPost2010Prop31
280
     0
102
RTVSPost2010PropOp31
 70
     1
102
RTVSPost2010Prop32
280
     0
102
RTVSPost2010PropOp32
 70
     1
102
RTVSPost2010Prop33
280
     0
102
RTVSPost2010PropOp33
 70
     1
102
RTVSPost2010Prop34
280
     0
102
RTVSPost2010PropOp34
 70
     1
102
RTVSPost2010Prop35
280
     0
102
RTVSPost2010PropOp35
 70
     1
102
RTVSPost2010Prop36
280
     0
102
RTVSPost2010PropOp36
 70
     1
102
RTVSPost2010Prop37
 90
       50
102
RTVSPost2010PropOp37
 70
     1
102
RTVSPost2010Prop38
140
0.0
102
RTVSPost2010PropOp38
 70
     1
102
RTVSPost2010Prop39
140
1.0
102
RTVSPost2010PropOp39
 70
     1
102
RTVSPost2010Prop40
 90
        0
102
RTVSPost2010PropOp40
 70
     1
102
RTVSPost2010Prop41ColorIndex
 90
       18
102
RTVSPost2010Prop41ColorRGB
 90
        0
102
RTVSPost2010PropOp41
 70
     1
102
RTVSPost2010Prop42
 90
       50
102
RTVSPost2010PropOp42
 70
     1
102
RTVSPost2010Prop43
 90
        3
102
RTVSPost2010PropOp43
 70
     1
102
RTVSPost2010Prop44ColorIndex
 90
        5
102
RTVSPost2010Prop44ColorRGB
 90
      255
102
RTVSPost2010PropOp44
 70
     1
102
RTVSPost2010Prop45
280
     0
102
RTVSPost2010PropOp45
 70
     1
102
RTVSPost2010Prop46
 90
       50
102
RTVSPost2010PropOp46
 70
     1
102
RTVSPost2010Prop47
 90
       50
102
RTVSPost2010PropOp47
 70
     1
102
RTVSPost2010Prop48
 90
       50
102
RTVSPost2010PropOp48
 70
     1
102
RTVSPost2010Prop49
280
     0
102
RTVSPost2010PropOp49
 70
     1
102
RTVSPost2010Prop50
 90
       50
102
RTVSPost2010PropOp50
 70
     1
102
RTVSPost2010Prop51ColorIndex
 90
      256
102
RTVSPost2010Prop51ColorRGB
 90
-16777216
102
RTVSPost2010PropOp51
 70
     0
102
RTVSPost2010Prop52
140
1.0
102
RTVSPost2010PropOp52
 70
     0
102
RTVSPost2010Prop53
 90
        2
102
RTVSPost2010PropOp53
 70
     1
102
RTVSPost2010Prop54
  1
strokes_ogs.tif
102
RTVSPost2010PropOp54
 70
     1
102
RTVSPost2010Prop55
280
     0
102
RTVSPost2010PropOp55
 70
     1
102
RTVSPost2010Prop56
140
1.0
102
RTVSPost2010PropOp56
 70
     1
102
RTVSPost2010Prop57
140
1.0
102
RTVSPost2010PropOp57
 70
     1
102
RTVSPropertyOp0
 70
     1
102
RTVSPropertyOp1
 70
     1
102
RTVSPropertyOp2
 70
     1
102
RTVSPropertyOp3
 70
     1
102
RTVSPropertyOp4
 70
     1
102
RTVSPropertyOp5
 70
     1
102
RTVSPropertyOp6
 70
     1
102
RTVSPropertyOp7
 70
     1
102
RTVSPropertyOp8
 70
     1
102
RTVSPropertyOp9
 70
     1
102
RTVSPropertyOp10
 70
     1
102
RTVSPropertyOp11
 70
     1
102
RTVSPropertyOp12
 70
     1
102
RTVSPropertyOp13
 70
     1
102
RTVSPropertyOp14
 70
     1
102
RTVSPropertyOp15
 70
     1
102
RTVSPropertyOp16
 70
     1
102
RTVSPropertyOp17
 70
     1
102
RTVSPropertyOp18
 70
     1
102
RTVSPropertyOp19
 70
     1
102
RTVSPropertyOp20
 70
     1
102
RTVSPropertyOp21
 70
     1
102
RTVSPropertyOp22
 70
     1
102
RTVSPropertyOp23
 70
     1
102
RTVSPropertyOp24
 70
     1
102
RTVSPropertyOp25
 70
     1
102
RTVSPropertyOp26
 70
     1
102
RTVSPropertyOp27
 70
     1
102
RTVSPropertyOp28
 70
     1
102
RTVSPropertyOp29
 70
     1
102
RTVSPropertyOp30
 70
     1
102
RTVSPropertyOp31
 70
     1
102
RTVSPropertyOp32
 70
     1
102
RTVSPropertyOp33
 70
     1
102
RTVSPropertyOp34
 70
     1
102
RTVSPropertyOp35
 70
     1
102
RTVSPropertyOp36
 70
     1
102
RTVSPropertyOp37
 70
     1
102
RTVSPropertyOp38
 70
     1
102
RTVSPropertyOp39
 70
     1
102
RTVSPropertyOp40
 70
     1
102
RTVSPropertyOp41
 70
     1
102
RTVSPropertyOp42
 70
     1
102
RTVSPropertyOp43
 70
     1
102
RTVSPropertyOp44
 70
     1
102
RTVSPropertyOp45
 70
     1
102
RTVSPropertyOp46
 70
     1
102
RTVSPropertyOp47
 70
     1
102
RTVSPropertyOp48
 70
     1
102
RTVSPropertyOp49
 70
     1
102
RTVSPropertyOp50
 70
     1
102
RTVSPropertyOp51
 70
     0
102
RTVSPropertyOp52
 70
     0
102
RTVSPropertyOp53
 70
     1
102
RTVSPropertyOp54
 70
     1
102
RTVSPropertyOp55
 70
     1
102
RTVSPropertyOp56
 70
     1
102
RTVSPropertyOp57
 70
     1
102
RTVSPropertyOp58
 70
     1
102
RTVSPropertyOp59
 70
     1
102
RTVSPropertyOp60
 70
     1
102
RTVSPropertyOp61
 70
     1
102
RTVSPropertyOp62
 70
     1
  0
XRECORD
  5
133B
102
{ACAD_REACTORS
330
133A
102
}
330
133A
100
AcDbXrecord
280
     1
102
RTVSPost2010Prop28
280
     0
102
RTVSPost2010PropOp28
 70
     1
102
RTVSPost2010Prop29
280
     1
102
RTVSPost2010PropOp29
 70
     1
102
RTVSPost2010Prop30
280
     1
102
RTVSPost2010PropOp30
 70
     1
102
RTVSPost2010Prop31
280
     0
102
RTVSPost2010PropOp31
 70
     1
102
RTVSPost2010Prop32
280
     0
102
RTVSPost2010PropOp32
 70
     1
102
RTVSPost2010Prop33
280
     0
102
RTVSPost2010PropOp33
 70
     1
102
RTVSPost2010Prop34
280
     0
102
RTVSPost2010PropOp34
 70
     1
102
RTVSPost2010Prop35
280
     0
102
RTVSPost2010PropOp35
 70
     1
102
RTVSPost2010Prop36
280
     0
102
RTVSPost2010PropOp36
 70
     1
102
RTVSPost2010Prop37
 90
       50
102
RTVSPost2010PropOp37
 70
     1
102
RTVSPost2010Prop38
140
0.0
102
RTVSPost2010PropOp38
 70
     1
102
RTVSPost2010Prop39
140
1.0
102
RTVSPost2010PropOp39
 70
     1
102
RTVSPost2010Prop40
 90
        0
102
RTVSPost2010PropOp40
 70
     1
102
RTVSPost2010Prop41ColorIndex
 90
       18
102
RTVSPost2010Prop41ColorRGB
 90
        0
102
RTVSPost2010PropOp41
 70
     1
102
RTVSPost2010Prop42
 90
       50
102
RTVSPost2010PropOp42
 70
     1
102
RTVSPost2010Prop43
 90
        3
102
RTVSPost2010PropOp43
 70
     1
102
RTVSPost2010Prop44ColorIndex
 90
        5
102
RTVSPost2010Prop44ColorRGB
 90
      255
102
RTVSPost2010PropOp44
 70
     1
102
RTVSPost2010Prop45
280
     0
102
RTVSPost2010PropOp45
 70
     1
102
RTVSPost2010Prop46
 90
       50
102
RTVSPost2010PropOp46
 70
     1
102
RTVSPost2010Prop47
 90
       50
102
RTVSPost2010PropOp47
 70
     1
102
RTVSPost2010Prop48
 90
       50
102
RTVSPost2010PropOp48
 70
     1
102
RTVSPost2010Prop49
280
     0
102
RTVSPost2010PropOp49
 70
     1
102
RTVSPost2010Prop50
 90
       50
102
RTVSPost2010PropOp50
 70
     1
102
RTVSPost2010Prop51ColorIndex
 90
      256
102
RTVSPost2010Prop51ColorRGB
 90
-16777216
102
RTVSPost2010PropOp51
 70
     0
102
RTVSPost2010Prop52
140
1.0
102
RTVSPost2010PropOp52
 70
     0
102
RTVSPost2010Prop53
 90
        2
102
RTVSPost2010PropOp53
 70
     1
102
RTVSPost2010Prop54
  1
strokes_ogs.tif
102
RTVSPost2010PropOp54
 70
     1
102
RTVSPost2010Prop55
280
     0
102
RTVSPost2010PropOp55
 70
     1
102
RTVSPost2010Prop56
140
1.0
102
RTVSPost2010PropOp56
 70
     1
102
RTVSPost2010Prop57
140
1.0
102
RTVSPost2010PropOp57
 70
     1
102
RTVSPropertyOp0
 70
     1
102
RTVSPropertyOp1
 70
     1
102
RTVSPropertyOp2
 70
     1
102
RTVSPropertyOp3
 70
     1
102
RTVSPropertyOp4
 70
     1
102
RTVSPropertyOp5
 70
     1
102
RTVSPropertyOp6
 70
     1
102
RTVSPropertyOp7
 70
     1
102
RTVSPropertyOp8
 70
     1
102
RTVSPropertyOp9
 70
     1
102
RTVSPropertyOp10
 70
     1
102
RTVSPropertyOp11
 70
     1
102
RTVSPropertyOp12
 70
     1
102
RTVSPropertyOp13
 70
     1
102
RTVSPropertyOp14
 70
     1
102
RTVSPropertyOp15
 70
     1
102
RTVSPropertyOp16
 70
     1
102
RTVSPropertyOp17
 70
     1
102
RTVSPropertyOp18
 70
     1
102
RTVSPropertyOp19
 70
     1
102
RTVSPropertyOp20
 70
     1
102
RTVSPropertyOp21
 70
     1
102
RTVSPropertyOp22
 70
     1
102
RTVSPropertyOp23
 70
     1
102
RTVSPropertyOp24
 70
     1
102
RTVSPropertyOp25
 70
     1
102
RTVSPropertyOp26
 70
     1
102
RTVSPropertyOp27
 70
     1
102
RTVSPropertyOp28
 70
     1
102
RTVSPropertyOp29
 70
     1
102
RTVSPropertyOp30
 70
     1
102
RTVSPropertyOp31
 70
     1
102
RTVSPropertyOp32
 70
     1
102
RTVSPropertyOp33
 70
     1
102
RTVSPropertyOp34
 70
     1
102
RTVSPropertyOp35
 70
     1
102
RTVSPropertyOp36
 70
     1
102
RTVSPropertyOp37
 70
     1
102
RTVSPropertyOp38
 70
     1
102
RTVSPropertyOp39
 70
     1
102
RTVSPropertyOp40
 70
     1
102
RTVSPropertyOp41
 70
     1
102
RTVSPropertyOp42
 70
     1
102
RTVSPropertyOp43
 70
     1
102
RTVSPropertyOp44
 70
     1
102
RTVSPropertyOp45
 70
     1
102
RTVSPropertyOp46
 70
     1
102
RTVSPropertyOp47
 70
     1
102
RTVSPropertyOp48
 70
     1
102
RTVSPropertyOp49
 70
     1
102
RTVSPropertyOp50
 70
     1
102
RTVSPropertyOp51
 70
     0
102
RTVSPropertyOp52
 70
     0
102
RTVSPropertyOp53
 70
     1
102
RTVSPropertyOp54
 70
     1
102
RTVSPropertyOp55
 70
     1
102
RTVSPropertyOp56
 70
     1
102
RTVSPropertyOp57
 70
     1
102
RTVSPropertyOp58
 70
     1
102
RTVSPropertyOp59
 70
     1
102
RTVSPropertyOp60
 70
     1
102
RTVSPropertyOp61
 70
     1
102
RTVSPropertyOp62
 70
     1
  0
XRECORD
  5
1357
102
{ACAD_REACTORS
330
1356
102
}
330
1356
100
AcDbXrecord
280
     1
102
RTVSPost2010Prop28
280
     0
102
RTVSPost2010PropOp28
 70
     1
102
RTVSPost2010Prop29
280
     1
102
RTVSPost2010PropOp29
 70
     1
102
RTVSPost2010Prop30
280
     1
102
RTVSPost2010PropOp30
 70
     1
102
RTVSPost2010Prop31
280
     0
102
RTVSPost2010PropOp31
 70
     1
102
RTVSPost2010Prop32
280
     0
102
RTVSPost2010PropOp32
 70
     1
102
RTVSPost2010Prop33
280
     0
102
RTVSPost2010PropOp33
 70
     1
102
RTVSPost2010Prop34
280
     0
102
RTVSPost2010PropOp34
 70
     1
102
RTVSPost2010Prop35
280
     0
102
RTVSPost2010PropOp35
 70
     1
102
RTVSPost2010Prop36
280
     0
102
RTVSPost2010PropOp36
 70
     1
102
RTVSPost2010Prop37
 90
       50
102
RTVSPost2010PropOp37
 70
     0
102
RTVSPost2010Prop38
140
0.0
102
RTVSPost2010PropOp38
 70
     0
102
RTVSPost2010Prop39
140
1.0
102
RTVSPost2010PropOp39
 70
     0
102
RTVSPost2010Prop40
 90
        0
102
RTVSPost2010PropOp40
 70
     0
102
RTVSPost2010Prop41ColorIndex
 90
       18
102
RTVSPost2010Prop41ColorRGB
 90
        0
102
RTVSPost2010PropOp41
 70
     0
102
RTVSPost2010Prop42
 90
       50
102
RTVSPost2010PropOp42
 70
     0
102
RTVSPost2010Prop43
 90
        3
102
RTVSPost2010PropOp43
 70
     0
102
RTVSPost2010Prop44ColorIndex
 90
        5
102
RTVSPost2010Prop44ColorRGB
 90
      255
102
RTVSPost2010PropOp44
 70
     0
102
RTVSPost2010Prop45
280
     0
102
RTVSPost2010PropOp45
 70
     1
102
RTVSPost2010Prop46
 90
       50
102
RTVSPost2010PropOp46
 70
     0
102
RTVSPost2010Prop47
 90
       50
102
RTVSPost2010PropOp47
 70
     0
102
RTVSPost2010Prop48
 90
       50
102
RTVSPost2010PropOp48
 70
     0
102
RTVSPost2010Prop49
280
     0
102
RTVSPost2010PropOp49
 70
     1
102
RTVSPost2010Prop50
 90
       50
102
RTVSPost2010PropOp50
 70
     0
102
RTVSPost2010Prop51ColorIndex
 90
      256
102
RTVSPost2010Prop51ColorRGB
 90
-16777216
102
RTVSPost2010PropOp51
 70
     0
102
RTVSPost2010Prop52
140
1.0
102
RTVSPost2010PropOp52
 70
     0
102
RTVSPost2010Prop53
 90
        2
102
RTVSPost2010PropOp53
 70
     0
102
RTVSPost2010Prop54
  1
strokes_ogs.tif
102
RTVSPost2010PropOp54
 70
     0
102
RTVSPost2010Prop55
280
     0
102
RTVSPost2010PropOp55
 70
     1
102
RTVSPost2010Prop56
140
1.0
102
RTVSPost2010PropOp56
 70
     0
102
RTVSPost2010Prop57
140
1.0
102
RTVSPost2010PropOp57
 70
     0
102
RTVSPropertyOp0
 70
     0
102
RTVSPropertyOp1
 70
     0
102
RTVSPropertyOp2
 70
     0
102
RTVSPropertyOp3
 70
     0
102
RTVSPropertyOp4
 70
     0
102
RTVSPropertyOp5
 70
     0
102
RTVSPropertyOp6
 70
     0
102
RTVSPropertyOp7
 70
     0
102
RTVSPropertyOp8
 70
     0
102
RTVSPropertyOp9
 70
     0
102
RTVSPropertyOp10
 70
     0
102
RTVSPropertyOp11
 70
     0
102
RTVSPropertyOp12
 70
     0
102
RTVSPropertyOp13
 70
     0
102
RTVSPropertyOp14
 70
     2
102
RTVSPropertyOp15
 70
     0
102
RTVSPropertyOp16
 70
     0
102
RTVSPropertyOp17
 70
     0
102
RTVSPropertyOp18
 70
     0
102
RTVSPropertyOp19
 70
     0
102
RTVSPropertyOp20
 70
     0
102
RTVSPropertyOp21
 70
     0
102
RTVSPropertyOp22
 70
     0
102
RTVSPropertyOp23
 70
     0
102
RTVSPropertyOp24
 70
     0
102
RTVSPropertyOp25
 70
     0
102
RTVSPropertyOp26
 70
     0
102
RTVSPropertyOp27
 70
     0
102
RTVSPropertyOp28
 70
     1
102
RTVSPropertyOp29
 70
     1
102
RTVSPropertyOp30
 70
     1
102
RTVSPropertyOp31
 70
     1
102
RTVSPropertyOp32
 70
     1
102
RTVSPropertyOp33
 70
     1
102
RTVSPropertyOp34
 70
     1
102
RTVSPropertyOp35
 70
     1
102
RTVSPropertyOp36
 70
     1
102
RTVSPropertyOp37
 70
     0
102
RTVSPropertyOp38
 70
     0
102
RTVSPropertyOp39
 70
     0
102
RTVSPropertyOp40
 70
     0
102
RTVSPropertyOp41
 70
     0
102
RTVSPropertyOp42
 70
     0
102
RTVSPropertyOp43
 70
     0
102
RTVSPropertyOp44
 70
     0
102
RTVSPropertyOp45
 70
     1
102
RTVSPropertyOp46
 70
     0
102
RTVSPropertyOp47
 70
     0
102
RTVSPropertyOp48
 70
     0
102
RTVSPropertyOp49
 70
     1
102
RTVSPropertyOp50
 70
     0
102
RTVSPropertyOp51
 70
     0
102
RTVSPropertyOp52
 70
     0
102
RTVSPropertyOp53
 70
     0
102
RTVSPropertyOp54
 70
     0
102
RTVSPropertyOp55
 70
     1
102
RTVSPropertyOp56
 70
     0
102
RTVSPropertyOp57
 70
     0
102
RTVSPropertyOp58
 70
     0
102
RTVSPropertyOp59
 70
     0
102
RTVSPropertyOp60
 70
     0
102
RTVSPropertyOp61
 70
     0
102
RTVSPropertyOp62
 70
     0
  0
XRECORD
  5
1347
102
{ACAD_REACTORS
330
1346
102
}
330
1346
100
AcDbXrecord
280
     1
102
RTVSPost2010Prop28
280
     0
102
RTVSPost2010PropOp28
 70
     1
102
RTVSPost2010Prop29
280
     1
102
RTVSPost2010PropOp29
 70
     1
102
RTVSPost2010Prop30
280
     1
102
RTVSPost2010PropOp30
 70
     1
102
RTVSPost2010Prop31
280
     0
102
RTVSPost2010PropOp31
 70
     1
102
RTVSPost2010Prop32
280
     0
102
RTVSPost2010PropOp32
 70
     1
102
RTVSPost2010Prop33
280
     0
102
RTVSPost2010PropOp33
 70
     1
102
RTVSPost2010Prop34
280
     0
102
RTVSPost2010PropOp34
 70
     1
102
RTVSPost2010Prop35
280
     0
102
RTVSPost2010PropOp35
 70
     1
102
RTVSPost2010Prop36
280
     0
102
RTVSPost2010PropOp36
 70
     1
102
RTVSPost2010Prop37
 90
       50
102
RTVSPost2010PropOp37
 70
     1
102
RTVSPost2010Prop38
140
0.0
102
RTVSPost2010PropOp38
 70
     1
102
RTVSPost2010Prop39
140
1.0
102
RTVSPost2010PropOp39
 70
     1
102
RTVSPost2010Prop40
 90
        0
102
RTVSPost2010PropOp40
 70
     1
102
RTVSPost2010Prop41ColorIndex
 90
       18
102
RTVSPost2010Prop41ColorRGB
 90
        0
102
RTVSPost2010PropOp41
 70
     1
102
RTVSPost2010Prop42
 90
       50
102
RTVSPost2010PropOp42
 70
     1
102
RTVSPost2010Prop43
 90
        3
102
RTVSPost2010PropOp43
 70
     1
102
RTVSPost2010Prop44ColorIndex
 90
        5
102
RTVSPost2010Prop44ColorRGB
 90
      255
102
RTVSPost2010PropOp44
 70
     1
102
RTVSPost2010Prop45
280
     0
102
RTVSPost2010PropOp45
 70
     1
102
RTVSPost2010Prop46
 90
       50
102
RTVSPost2010PropOp46
 70
     1
102
RTVSPost2010Prop47
 90
       50
102
RTVSPost2010PropOp47
 70
     1
102
RTVSPost2010Prop48
 90
       50
102
RTVSPost2010PropOp48
 70
     1
102
RTVSPost2010Prop49
280
     0
102
RTVSPost2010PropOp49
 70
     1
102
RTVSPost2010Prop50
 90
       50
102
RTVSPost2010PropOp50
 70
     1
102
RTVSPost2010Prop51ColorIndex
 90
      256
102
RTVSPost2010Prop51ColorRGB
 90
-16777216
102
RTVSPost2010PropOp51
 70
     0
102
RTVSPost2010Prop52
140
1.0
102
RTVSPost2010PropOp52
 70
     0
102
RTVSPost2010Prop53
 90
        2
102
RTVSPost2010PropOp53
 70
     1
102
RTVSPost2010Prop54
  1
strokes_ogs.tif
102
RTVSPost2010PropOp54
 70
     1
102
RTVSPost2010Prop55
280
     0
102
RTVSPost2010PropOp55
 70
     1
102
RTVSPost2010Prop56
140
1.0
102
RTVSPost2010PropOp56
 70
     1
102
RTVSPost2010Prop57
140
1.0
102
RTVSPost2010PropOp57
 70
     1
102
RTVSPropertyOp0
 70
     1
102
RTVSPropertyOp1
 70
     1
102
RTVSPropertyOp2
 70
     1
102
RTVSPropertyOp3
 70
     1
102
RTVSPropertyOp4
 70
     1
102
RTVSPropertyOp5
 70
     1
102
RTVSPropertyOp6
 70
     1
102
RTVSPropertyOp7
 70
     1
102
RTVSPropertyOp8
 70
     1
102
RTVSPropertyOp9
 70
     1
102
RTVSPropertyOp10
 70
     1
102
RTVSPropertyOp11
 70
     1
102
RTVSPropertyOp12
 70
     1
102
RTVSPropertyOp13
 70
     1
102
RTVSPropertyOp14
 70
     1
102
RTVSPropertyOp15
 70
     1
102
RTVSPropertyOp16
 70
     1
102
RTVSPropertyOp17
 70
     1
102
RTVSPropertyOp18
 70
     1
102
RTVSPropertyOp19
 70
     1
102
RTVSPropertyOp20
 70
     1
102
RTVSPropertyOp21
 70
     1
102
RTVSPropertyOp22
 70
     1
102
RTVSPropertyOp23
 70
     1
102
RTVSPropertyOp24
 70
     1
102
RTVSPropertyOp25
 70
     1
102
RTVSPropertyOp26
 70
     1
102
RTVSPropertyOp27
 70
     1
102
RTVSPropertyOp28
 70
     1
102
RTVSPropertyOp29
 70
     1
102
RTVSPropertyOp30
 70
     1
102
RTVSPropertyOp31
 70
     1
102
RTVSPropertyOp32
 70
     1
102
RTVSPropertyOp33
 70
     1
102
RTVSPropertyOp34
 70
     1
102
RTVSPropertyOp35
 70
     1
102
RTVSPropertyOp36
 70
     1
102
RTVSPropertyOp37
 70
     1
102
RTVSPropertyOp38
 70
     1
102
RTVSPropertyOp39
 70
     1
102
RTVSPropertyOp40
 70
     1
102
RTVSPropertyOp41
 70
     1
102
RTVSPropertyOp42
 70
     1
102
RTVSPropertyOp43
 70
     1
102
RTVSPropertyOp44
 70
     1
102
RTVSPropertyOp45
 70
     1
102
RTVSPropertyOp46
 70
     1
102
RTVSPropertyOp47
 70
     1
102
RTVSPropertyOp48
 70
     1
102
RTVSPropertyOp49
 70
     1
102
RTVSPropertyOp50
 70
     1
102
RTVSPropertyOp51
 70
     0
102
RTVSPropertyOp52
 70
     0
102
RTVSPropertyOp53
 70
     1
102
RTVSPropertyOp54
 70
     1
102
RTVSPropertyOp55
 70
     1
102
RTVSPropertyOp56
 70
     1
102
RTVSPropertyOp57
 70
     1
102
RTVSPropertyOp58
 70
     1
102
RTVSPropertyOp59
 70
     1
102
RTVSPropertyOp60
 70
     1
102
RTVSPropertyOp61
 70
     1
102
RTVSPropertyOp62
 70
     1
  0
XRECORD
  5
1359
102
{ACAD_REACTORS
330
1358
102
}
330
1358
100
AcDbXrecord
280
     1
102
RTVSPost2010Prop28
280
     0
102
RTVSPost2010PropOp28
 70
     1
102
RTVSPost2010Prop29
280
     1
102
RTVSPost2010PropOp29
 70
     1
102
RTVSPost2010Prop30
280
     1
102
RTVSPost2010PropOp30
 70
     1
102
RTVSPost2010Prop31
280
     0
102
RTVSPost2010PropOp31
 70
     1
102
RTVSPost2010Prop32
280
     0
102
RTVSPost2010PropOp32
 70
     1
102
RTVSPost2010Prop33
280
     0
102
RTVSPost2010PropOp33
 70
     1
102
RTVSPost2010Prop34
280
     0
102
RTVSPost2010PropOp34
 70
     1
102
RTVSPost2010Prop35
280
     0
102
RTVSPost2010PropOp35
 70
     1
102
RTVSPost2010Prop36
280
     0
102
RTVSPost2010PropOp36
 70
     1
102
RTVSPost2010Prop37
 90
       50
102
RTVSPost2010PropOp37
 70
     0
102
RTVSPost2010Prop38
140
0.0
102
RTVSPost2010PropOp38
 70
     0
102
RTVSPost2010Prop39
140
1.0
102
RTVSPost2010PropOp39
 70
     0
102
RTVSPost2010Prop40
 90
        0
102
RTVSPost2010PropOp40
 70
     0
102
RTVSPost2010Prop41ColorIndex
 90
       18
102
RTVSPost2010Prop41ColorRGB
 90
        0
102
RTVSPost2010PropOp41
 70
     0
102
RTVSPost2010Prop42
 90
       50
102
RTVSPost2010PropOp42
 70
     0
102
RTVSPost2010Prop43
 90
        3
102
RTVSPost2010PropOp43
 70
     0
102
RTVSPost2010Prop44ColorIndex
 90
        5
102
RTVSPost2010Prop44ColorRGB
 90
      255
102
RTVSPost2010PropOp44
 70
     0
102
RTVSPost2010Prop45
280
     0
102
RTVSPost2010PropOp45
 70
     1
102
RTVSPost2010Prop46
 90
       50
102
RTVSPost2010PropOp46
 70
     0
102
RTVSPost2010Prop47
 90
       50
102
RTVSPost2010PropOp47
 70
     0
102
RTVSPost2010Prop48
 90
       50
102
RTVSPost2010PropOp48
 70
     0
102
RTVSPost2010Prop49
280
     0
102
RTVSPost2010PropOp49
 70
     1
102
RTVSPost2010Prop50
 90
       50
102
RTVSPost2010PropOp50
 70
     0
102
RTVSPost2010Prop51ColorIndex
 90
      256
102
RTVSPost2010Prop51ColorRGB
 90
-16777216
102
RTVSPost2010PropOp51
 70
     0
102
RTVSPost2010Prop52
140
1.0
102
RTVSPost2010PropOp52
 70
     0
102
RTVSPost2010Prop53
 90
        2
102
RTVSPost2010PropOp53
 70
     0
102
RTVSPost2010Prop54
  1
strokes_ogs.tif
102
RTVSPost2010PropOp54
 70
     0
102
RTVSPost2010Prop55
280
     0
102
RTVSPost2010PropOp55
 70
     1
102
RTVSPost2010Prop56
140
1.0
102
RTVSPost2010PropOp56
 70
     0
102
RTVSPost2010Prop57
140
1.0
102
RTVSPost2010PropOp57
 70
     0
102
RTVSPropertyOp0
 70
     0
102
RTVSPropertyOp1
 70
     0
102
RTVSPropertyOp2
 70
     0
102
RTVSPropertyOp3
 70
     0
102
RTVSPropertyOp4
 70
     0
102
RTVSPropertyOp5
 70
     0
102
RTVSPropertyOp6
 70
     0
102
RTVSPropertyOp7
 70
     0
102
RTVSPropertyOp8
 70
     0
102
RTVSPropertyOp9
 70
     0
102
RTVSPropertyOp10
 70
     0
102
RTVSPropertyOp11
 70
     0
102
RTVSPropertyOp12
 70
     0
102
RTVSPropertyOp13
 70
     0
102
RTVSPropertyOp14
 70
     2
102
RTVSPropertyOp15
 70
     0
102
RTVSPropertyOp16
 70
     0
102
RTVSPropertyOp17
 70
     0
102
RTVSPropertyOp18
 70
     0
102
RTVSPropertyOp19
 70
     0
102
RTVSPropertyOp20
 70
     0
102
RTVSPropertyOp21
 70
     0
102
RTVSPropertyOp22
 70
     0
102
RTVSPropertyOp23
 70
     0
102
RTVSPropertyOp24
 70
     0
102
RTVSPropertyOp25
 70
     0
102
RTVSPropertyOp26
 70
     0
102
RTVSPropertyOp27
 70
     0
102
RTVSPropertyOp28
 70
     1
102
RTVSPropertyOp29
 70
     1
102
RTVSPropertyOp30
 70
     1
102
RTVSPropertyOp31
 70
     1
102
RTVSPropertyOp32
 70
     1
102
RTVSPropertyOp33
 70
     1
102
RTVSPropertyOp34
 70
     1
102
RTVSPropertyOp35
 70
     1
102
RTVSPropertyOp36
 70
     1
102
RTVSPropertyOp37
 70
     0
102
RTVSPropertyOp38
 70
     0
102
RTVSPropertyOp39
 70
     0
102
RTVSPropertyOp40
 70
     0
102
RTVSPropertyOp41
 70
     0
102
RTVSPropertyOp42
 70
     0
102
RTVSPropertyOp43
 70
     0
102
RTVSPropertyOp44
 70
     0
102
RTVSPropertyOp45
 70
     1
102
RTVSPropertyOp46
 70
     0
102
RTVSPropertyOp47
 70
     0
102
RTVSPropertyOp48
 70
     0
102
RTVSPropertyOp49
 70
     1
102
RTVSPropertyOp50
 70
     0
102
RTVSPropertyOp51
 70
     0
102
RTVSPropertyOp52
 70
     0
102
RTVSPropertyOp53
 70
     0
102
RTVSPropertyOp54
 70
     0
102
RTVSPropertyOp55
 70
     1
102
RTVSPropertyOp56
 70
     0
102
RTVSPropertyOp57
 70
     0
102
RTVSPropertyOp58
 70
     0
102
RTVSPropertyOp59
 70
     0
102
RTVSPropertyOp60
 70
     0
102
RTVSPropertyOp61
 70
     0
102
RTVSPropertyOp62
 70
     0
  0
XRECORD
  5
133F
102
{ACAD_REACTORS
330
133E
102
}
330
133E
100
AcDbXrecord
280
     1
102
RTVSPost2010Prop28
280
     0
102
RTVSPost2010PropOp28
 70
     1
102
RTVSPost2010Prop29
280
     1
102
RTVSPost2010PropOp29
 70
     1
102
RTVSPost2010Prop30
280
     1
102
RTVSPost2010PropOp30
 70
     1
102
RTVSPost2010Prop31
280
     0
102
RTVSPost2010PropOp31
 70
     1
102
RTVSPost2010Prop32
280
     0
102
RTVSPost2010PropOp32
 70
     1
102
RTVSPost2010Prop33
280
     0
102
RTVSPost2010PropOp33
 70
     1
102
RTVSPost2010Prop34
280
     0
102
RTVSPost2010PropOp34
 70
     1
102
RTVSPost2010Prop35
280
     0
102
RTVSPost2010PropOp35
 70
     1
102
RTVSPost2010Prop36
280
     0
102
RTVSPost2010PropOp36
 70
     1
102
RTVSPost2010Prop37
 90
       50
102
RTVSPost2010PropOp37
 70
     1
102
RTVSPost2010Prop38
140
0.0
102
RTVSPost2010PropOp38
 70
     1
102
RTVSPost2010Prop39
140
1.0
102
RTVSPost2010PropOp39
 70
     1
102
RTVSPost2010Prop40
 90
        0
102
RTVSPost2010PropOp40
 70
     1
102
RTVSPost2010Prop41ColorIndex
 90
       18
102
RTVSPost2010Prop41ColorRGB
 90
        0
102
RTVSPost2010PropOp41
 70
     1
102
RTVSPost2010Prop42
 90
       50
102
RTVSPost2010PropOp42
 70
     1
102
RTVSPost2010Prop43
 90
        3
102
RTVSPost2010PropOp43
 70
     1
102
RTVSPost2010Prop44ColorIndex
 90
        5
102
RTVSPost2010Prop44ColorRGB
 90
      255
102
RTVSPost2010PropOp44
 70
     1
102
RTVSPost2010Prop45
280
     0
102
RTVSPost2010PropOp45
 70
     1
102
RTVSPost2010Prop46
 90
       50
102
RTVSPost2010PropOp46
 70
     1
102
RTVSPost2010Prop47
 90
       50
102
RTVSPost2010PropOp47
 70
     1
102
RTVSPost2010Prop48
 90
       50
102
RTVSPost2010PropOp48
 70
     1
102
RTVSPost2010Prop49
280
     0
102
RTVSPost2010PropOp49
 70
     1
102
RTVSPost2010Prop50
 90
       50
102
RTVSPost2010PropOp50
 70
     1
102
RTVSPost2010Prop51ColorIndex
 90
      256
102
RTVSPost2010Prop51ColorRGB
 90
-16777216
102
RTVSPost2010PropOp51
 70
     0
102
RTVSPost2010Prop52
140
1.0
102
RTVSPost2010PropOp52
 70
     0
102
RTVSPost2010Prop53
 90
        2
102
RTVSPost2010PropOp53
 70
     1
102
RTVSPost2010Prop54
  1
strokes_ogs.tif
102
RTVSPost2010PropOp54
 70
     1
102
RTVSPost2010Prop55
280
     0
102
RTVSPost2010PropOp55
 70
     1
102
RTVSPost2010Prop56
140
1.0
102
RTVSPost2010PropOp56
 70
     1
102
RTVSPost2010Prop57
140
1.0
102
RTVSPost2010PropOp57
 70
     1
102
RTVSPropertyOp0
 70
     1
102
RTVSPropertyOp1
 70
     1
102
RTVSPropertyOp2
 70
     1
102
RTVSPropertyOp3
 70
     1
102
RTVSPropertyOp4
 70
     1
102
RTVSPropertyOp5
 70
     1
102
RTVSPropertyOp6
 70
     1
102
RTVSPropertyOp7
 70
     1
102
RTVSPropertyOp8
 70
     1
102
RTVSPropertyOp9
 70
     1
102
RTVSPropertyOp10
 70
     1
102
RTVSPropertyOp11
 70
     1
102
RTVSPropertyOp12
 70
     1
102
RTVSPropertyOp13
 70
     1
102
RTVSPropertyOp14
 70
     1
102
RTVSPropertyOp15
 70
     1
102
RTVSPropertyOp16
 70
     1
102
RTVSPropertyOp17
 70
     1
102
RTVSPropertyOp18
 70
     1
102
RTVSPropertyOp19
 70
     1
102
RTVSPropertyOp20
 70
     1
102
RTVSPropertyOp21
 70
     1
102
RTVSPropertyOp22
 70
     1
102
RTVSPropertyOp23
 70
     1
102
RTVSPropertyOp24
 70
     1
102
RTVSPropertyOp25
 70
     1
102
RTVSPropertyOp26
 70
     1
102
RTVSPropertyOp27
 70
     1
102
RTVSPropertyOp28
 70
     1
102
RTVSPropertyOp29
 70
     1
102
RTVSPropertyOp30
 70
     1
102
RTVSPropertyOp31
 70
     1
102
RTVSPropertyOp32
 70
     1
102
RTVSPropertyOp33
 70
     1
102
RTVSPropertyOp34
 70
     1
102
RTVSPropertyOp35
 70
     1
102
RTVSPropertyOp36
 70
     1
102
RTVSPropertyOp37
 70
     1
102
RTVSPropertyOp38
 70
     1
102
RTVSPropertyOp39
 70
     1
102
RTVSPropertyOp40
 70
     1
102
RTVSPropertyOp41
 70
     1
102
RTVSPropertyOp42
 70
     1
102
RTVSPropertyOp43
 70
     1
102
RTVSPropertyOp44
 70
     1
102
RTVSPropertyOp45
 70
     1
102
RTVSPropertyOp46
 70
     1
102
RTVSPropertyOp47
 70
     1
102
RTVSPropertyOp48
 70
     1
102
RTVSPropertyOp49
 70
     1
102
RTVSPropertyOp50
 70
     1
102
RTVSPropertyOp51
 70
     0
102
RTVSPropertyOp52
 70
     0
102
RTVSPropertyOp53
 70
     1
102
RTVSPropertyOp54
 70
     1
102
RTVSPropertyOp55
 70
     1
102
RTVSPropertyOp56
 70
     1
102
RTVSPropertyOp57
 70
     1
102
RTVSPropertyOp58
 70
     1
102
RTVSPropertyOp59
 70
     1
102
RTVSPropertyOp60
 70
     1
102
RTVSPropertyOp61
 70
     1
102
RTVSPropertyOp62
 70
     1
  0
XRECORD
  5
1355
102
{ACAD_REACTORS
330
1354
102
}
330
1354
100
AcDbXrecord
280
     1
102
RTVSPost2010Prop28
280
     0
102
RTVSPost2010PropOp28
 70
     1
102
RTVSPost2010Prop29
280
     1
102
RTVSPost2010PropOp29
 70
     1
102
RTVSPost2010Prop30
280
     1
102
RTVSPost2010PropOp30
 70
     1
102
RTVSPost2010Prop31
280
     0
102
RTVSPost2010PropOp31
 70
     1
102
RTVSPost2010Prop32
280
     0
102
RTVSPost2010PropOp32
 70
     1
102
RTVSPost2010Prop33
280
     0
102
RTVSPost2010PropOp33
 70
     1
102
RTVSPost2010Prop34
280
     0
102
RTVSPost2010PropOp34
 70
     1
102
RTVSPost2010Prop35
280
     0
102
RTVSPost2010PropOp35
 70
     1
102
RTVSPost2010Prop36
280
     0
102
RTVSPost2010PropOp36
 70
     1
102
RTVSPost2010Prop37
 90
       50
102
RTVSPost2010PropOp37
 70
     1
102
RTVSPost2010Prop38
140
0.0
102
RTVSPost2010PropOp38
 70
     1
102
RTVSPost2010Prop39
140
1.0
102
RTVSPost2010PropOp39
 70
     1
102
RTVSPost2010Prop40
 90
        0
102
RTVSPost2010PropOp40
 70
     1
102
RTVSPost2010Prop41ColorIndex
 90
       18
102
RTVSPost2010Prop41ColorRGB
 90
        0
102
RTVSPost2010PropOp41
 70
     1
102
RTVSPost2010Prop42
 90
       50
102
RTVSPost2010PropOp42
 70
     1
102
RTVSPost2010Prop43
 90
        3
102
RTVSPost2010PropOp43
 70
     1
102
RTVSPost2010Prop44ColorIndex
 90
        5
102
RTVSPost2010Prop44ColorRGB
 90
      255
102
RTVSPost2010PropOp44
 70
     1
102
RTVSPost2010Prop45
280
     0
102
RTVSPost2010PropOp45
 70
     1
102
RTVSPost2010Prop46
 90
       50
102
RTVSPost2010PropOp46
 70
     1
102
RTVSPost2010Prop47
 90
       50
102
RTVSPost2010PropOp47
 70
     1
102
RTVSPost2010Prop48
 90
       50
102
RTVSPost2010PropOp48
 70
     1
102
RTVSPost2010Prop49
280
     0
102
RTVSPost2010PropOp49
 70
     1
102
RTVSPost2010Prop50
 90
       50
102
RTVSPost2010PropOp50
 70
     1
102
RTVSPost2010Prop51ColorIndex
 90
      256
102
RTVSPost2010Prop51ColorRGB
 90
-16777216
102
RTVSPost2010PropOp51
 70
     0
102
RTVSPost2010Prop52
140
1.0
102
RTVSPost2010PropOp52
 70
     0
102
RTVSPost2010Prop53
 90
        2
102
RTVSPost2010PropOp53
 70
     1
102
RTVSPost2010Prop54
  1
strokes_ogs.tif
102
RTVSPost2010PropOp54
 70
     1
102
RTVSPost2010Prop55
280
     0
102
RTVSPost2010PropOp55
 70
     1
102
RTVSPost2010Prop56
140
1.0
102
RTVSPost2010PropOp56
 70
     1
102
RTVSPost2010Prop57
140
1.0
102
RTVSPost2010PropOp57
 70
     1
102
RTVSPropertyOp0
 70
     1
102
RTVSPropertyOp1
 70
     1
102
RTVSPropertyOp2
 70
     1
102
RTVSPropertyOp3
 70
     1
102
RTVSPropertyOp4
 70
     1
102
RTVSPropertyOp5
 70
     1
102
RTVSPropertyOp6
 70
     1
102
RTVSPropertyOp7
 70
     1
102
RTVSPropertyOp8
 70
     1
102
RTVSPropertyOp9
 70
     1
102
RTVSPropertyOp10
 70
     1
102
RTVSPropertyOp11
 70
     1
102
RTVSPropertyOp12
 70
     1
102
RTVSPropertyOp13
 70
     1
102
RTVSPropertyOp14
 70
     1
102
RTVSPropertyOp15
 70
     1
102
RTVSPropertyOp16
 70
     1
102
RTVSPropertyOp17
 70
     1
102
RTVSPropertyOp18
 70
     1
102
RTVSPropertyOp19
 70
     1
102
RTVSPropertyOp20
 70
     1
102
RTVSPropertyOp21
 70
     1
102
RTVSPropertyOp22
 70
     1
102
RTVSPropertyOp23
 70
     1
102
RTVSPropertyOp24
 70
     1
102
RTVSPropertyOp25
 70
     1
102
RTVSPropertyOp26
 70
     1
102
RTVSPropertyOp27
 70
     1
102
RTVSPropertyOp28
 70
     1
102
RTVSPropertyOp29
 70
     1
102
RTVSPropertyOp30
 70
     1
102
RTVSPropertyOp31
 70
     1
102
RTVSPropertyOp32
 70
     1
102
RTVSPropertyOp33
 70
     1
102
RTVSPropertyOp34
 70
     1
102
RTVSPropertyOp35
 70
     1
102
RTVSPropertyOp36
 70
     1
102
RTVSPropertyOp37
 70
     1
102
RTVSPropertyOp38
 70
     1
102
RTVSPropertyOp39
 70
     1
102
RTVSPropertyOp40
 70
     1
102
RTVSPropertyOp41
 70
     1
102
RTVSPropertyOp42
 70
     1
102
RTVSPropertyOp43
 70
     1
102
RTVSPropertyOp44
 70
     1
102
RTVSPropertyOp45
 70
     1
102
RTVSPropertyOp46
 70
     1
102
RTVSPropertyOp47
 70
     1
102
RTVSPropertyOp48
 70
     1
102
RTVSPropertyOp49
 70
     1
102
RTVSPropertyOp50
 70
     1
102
RTVSPropertyOp51
 70
     0
102
RTVSPropertyOp52
 70
     0
102
RTVSPropertyOp53
 70
     1
102
RTVSPropertyOp54
 70
     1
102
RTVSPropertyOp55
 70
     1
102
RTVSPropertyOp56
 70
     1
102
RTVSPropertyOp57
 70
     1
102
RTVSPropertyOp58
 70
     1
102
RTVSPropertyOp59
 70
     1
102
RTVSPropertyOp60
 70
     1
102
RTVSPropertyOp61
 70
     1
102
RTVSPropertyOp62
 70
     1
  0
XRECORD
  5
1353
102
{ACAD_REACTORS
330
1352
102
}
330
1352
100
AcDbXrecord
280
     1
102
RTVSPost2010Prop28
280
     0
102
RTVSPost2010PropOp28
 70
     1
102
RTVSPost2010Prop29
280
     1
102
RTVSPost2010PropOp29
 70
     1
102
RTVSPost2010Prop30
280
     1
102
RTVSPost2010PropOp30
 70
     1
102
RTVSPost2010Prop31
280
     0
102
RTVSPost2010PropOp31
 70
     1
102
RTVSPost2010Prop32
280
     0
102
RTVSPost2010PropOp32
 70
     1
102
RTVSPost2010Prop33
280
     0
102
RTVSPost2010PropOp33
 70
     1
102
RTVSPost2010Prop34
280
     0
102
RTVSPost2010PropOp34
 70
     1
102
RTVSPost2010Prop35
280
     0
102
RTVSPost2010PropOp35
 70
     1
102
RTVSPost2010Prop36
280
     0
102
RTVSPost2010PropOp36
 70
     1
102
RTVSPost2010Prop37
 90
       50
102
RTVSPost2010PropOp37
 70
     1
102
RTVSPost2010Prop38
140
0.0
102
RTVSPost2010PropOp38
 70
     1
102
RTVSPost2010Prop39
140
1.0
102
RTVSPost2010PropOp39
 70
     1
102
RTVSPost2010Prop40
 90
        0
102
RTVSPost2010PropOp40
 70
     1
102
RTVSPost2010Prop41ColorIndex
 90
       18
102
RTVSPost2010Prop41ColorRGB
 90
        0
102
RTVSPost2010PropOp41
 70
     1
102
RTVSPost2010Prop42
 90
       50
102
RTVSPost2010PropOp42
 70
     1
102
RTVSPost2010Prop43
 90
        3
102
RTVSPost2010PropOp43
 70
     1
102
RTVSPost2010Prop44ColorIndex
 90
        5
102
RTVSPost2010Prop44ColorRGB
 90
      255
102
RTVSPost2010PropOp44
 70
     1
102
RTVSPost2010Prop45
280
     0
102
RTVSPost2010PropOp45
 70
     1
102
RTVSPost2010Prop46
 90
       50
102
RTVSPost2010PropOp46
 70
     1
102
RTVSPost2010Prop47
 90
       50
102
RTVSPost2010PropOp47
 70
     1
102
RTVSPost2010Prop48
 90
       50
102
RTVSPost2010PropOp48
 70
     1
102
RTVSPost2010Prop49
280
     0
102
RTVSPost2010PropOp49
 70
     1
102
RTVSPost2010Prop50
 90
       50
102
RTVSPost2010PropOp50
 70
     1
102
RTVSPost2010Prop51ColorIndex
 90
      256
102
RTVSPost2010Prop51ColorRGB
 90
-16777216
102
RTVSPost2010PropOp51
 70
     0
102
RTVSPost2010Prop52
140
1.0
102
RTVSPost2010PropOp52
 70
     0
102
RTVSPost2010Prop53
 90
        2
102
RTVSPost2010PropOp53
 70
     1
102
RTVSPost2010Prop54
  1
strokes_ogs.tif
102
RTVSPost2010PropOp54
 70
     1
102
RTVSPost2010Prop55
280
     0
102
RTVSPost2010PropOp55
 70
     1
102
RTVSPost2010Prop56
140
1.0
102
RTVSPost2010PropOp56
 70
     1
102
RTVSPost2010Prop57
140
1.0
102
RTVSPost2010PropOp57
 70
     1
102
RTVSPropertyOp0
 70
     1
102
RTVSPropertyOp1
 70
     1
102
RTVSPropertyOp2
 70
     1
102
RTVSPropertyOp3
 70
     1
102
RTVSPropertyOp4
 70
     1
102
RTVSPropertyOp5
 70
     1
102
RTVSPropertyOp6
 70
     1
102
RTVSPropertyOp7
 70
     1
102
RTVSPropertyOp8
 70
     1
102
RTVSPropertyOp9
 70
     1
102
RTVSPropertyOp10
 70
     1
102
RTVSPropertyOp11
 70
     1
102
RTVSPropertyOp12
 70
     1
102
RTVSPropertyOp13
 70
     1
102
RTVSPropertyOp14
 70
     1
102
RTVSPropertyOp15
 70
     1
102
RTVSPropertyOp16
 70
     1
102
RTVSPropertyOp17
 70
     1
102
RTVSPropertyOp18
 70
     1
102
RTVSPropertyOp19
 70
     1
102
RTVSPropertyOp20
 70
     1
102
RTVSPropertyOp21
 70
     1
102
RTVSPropertyOp22
 70
     1
102
RTVSPropertyOp23
 70
     1
102
RTVSPropertyOp24
 70
     1
102
RTVSPropertyOp25
 70
     1
102
RTVSPropertyOp26
 70
     1
102
RTVSPropertyOp27
 70
     1
102
RTVSPropertyOp28
 70
     1
102
RTVSPropertyOp29
 70
     1
102
RTVSPropertyOp30
 70
     1
102
RTVSPropertyOp31
 70
     1
102
RTVSPropertyOp32
 70
     1
102
RTVSPropertyOp33
 70
     1
102
RTVSPropertyOp34
 70
     1
102
RTVSPropertyOp35
 70
     1
102
RTVSPropertyOp36
 70
     1
102
RTVSPropertyOp37
 70
     1
102
RTVSPropertyOp38
 70
     1
102
RTVSPropertyOp39
 70
     1
102
RTVSPropertyOp40
 70
     1
102
RTVSPropertyOp41
 70
     1
102
RTVSPropertyOp42
 70
     1
102
RTVSPropertyOp43
 70
     1
102
RTVSPropertyOp44
 70
     1
102
RTVSPropertyOp45
 70
     1
102
RTVSPropertyOp46
 70
     1
102
RTVSPropertyOp47
 70
     1
102
RTVSPropertyOp48
 70
     1
102
RTVSPropertyOp49
 70
     1
102
RTVSPropertyOp50
 70
     1
102
RTVSPropertyOp51
 70
     0
102
RTVSPropertyOp52
 70
     0
102
RTVSPropertyOp53
 70
     1
102
RTVSPropertyOp54
 70
     1
102
RTVSPropertyOp55
 70
     1
102
RTVSPropertyOp56
 70
     1
102
RTVSPropertyOp57
 70
     1
102
RTVSPropertyOp58
 70
     1
102
RTVSPropertyOp59
 70
     1
102
RTVSPropertyOp60
 70
     1
102
RTVSPropertyOp61
 70
     1
102
RTVSPropertyOp62
 70
     1
  0
XRECORD
  5
134D
102
{ACAD_REACTORS
330
134C
102
}
330
134C
100
AcDbXrecord
280
     1
102
RTVSPost2010Prop28
280
     0
102
RTVSPost2010PropOp28
 70
     1
102
RTVSPost2010Prop29
280
     1
102
RTVSPost2010PropOp29
 70
     1
102
RTVSPost2010Prop30
280
     1
102
RTVSPost2010PropOp30
 70
     1
102
RTVSPost2010Prop31
280
     0
102
RTVSPost2010PropOp31
 70
     1
102
RTVSPost2010Prop32
280
     0
102
RTVSPost2010PropOp32
 70
     1
102
RTVSPost2010Prop33
280
     0
102
RTVSPost2010PropOp33
 70
     1
102
RTVSPost2010Prop34
280
     0
102
RTVSPost2010PropOp34
 70
     1
102
RTVSPost2010Prop35
280
     0
102
RTVSPost2010PropOp35
 70
     1
102
RTVSPost2010Prop36
280
     0
102
RTVSPost2010PropOp36
 70
     1
102
RTVSPost2010Prop37
 90
       50
102
RTVSPost2010PropOp37
 70
     1
102
RTVSPost2010Prop38
140
0.0
102
RTVSPost2010PropOp38
 70
     1
102
RTVSPost2010Prop39
140
1.0
102
RTVSPost2010PropOp39
 70
     1
102
RTVSPost2010Prop40
 90
        0
102
RTVSPost2010PropOp40
 70
     1
102
RTVSPost2010Prop41ColorIndex
 90
       18
102
RTVSPost2010Prop41ColorRGB
 90
        0
102
RTVSPost2010PropOp41
 70
     1
102
RTVSPost2010Prop42
 90
       50
102
RTVSPost2010PropOp42
 70
     1
102
RTVSPost2010Prop43
 90
        3
102
RTVSPost2010PropOp43
 70
     1
102
RTVSPost2010Prop44ColorIndex
 90
        5
102
RTVSPost2010Prop44ColorRGB
 90
      255
102
RTVSPost2010PropOp44
 70
     1
102
RTVSPost2010Prop45
280
     0
102
RTVSPost2010PropOp45
 70
     1
102
RTVSPost2010Prop46
 90
       50
102
RTVSPost2010PropOp46
 70
     1
102
RTVSPost2010Prop47
 90
       50
102
RTVSPost2010PropOp47
 70
     1
102
RTVSPost2010Prop48
 90
       50
102
RTVSPost2010PropOp48
 70
     1
102
RTVSPost2010Prop49
280
     0
102
RTVSPost2010PropOp49
 70
     1
102
RTVSPost2010Prop50
 90
       50
102
RTVSPost2010PropOp50
 70
     1
102
RTVSPost2010Prop51ColorIndex
 90
      256
102
RTVSPost2010Prop51ColorRGB
 90
-16777216
102
RTVSPost2010PropOp51
 70
     0
102
RTVSPost2010Prop52
140
1.0
102
RTVSPost2010PropOp52
 70
     0
102
RTVSPost2010Prop53
 90
        2
102
RTVSPost2010PropOp53
 70
     1
102
RTVSPost2010Prop54
  1
strokes_ogs.tif
102
RTVSPost2010PropOp54
 70
     1
102
RTVSPost2010Prop55
280
     0
102
RTVSPost2010PropOp55
 70
     1
102
RTVSPost2010Prop56
140
1.0
102
RTVSPost2010PropOp56
 70
     1
102
RTVSPost2010Prop57
140
1.0
102
RTVSPost2010PropOp57
 70
     1
102
RTVSPropertyOp0
 70
     1
102
RTVSPropertyOp1
 70
     1
102
RTVSPropertyOp2
 70
     1
102
RTVSPropertyOp3
 70
     1
102
RTVSPropertyOp4
 70
     1
102
RTVSPropertyOp5
 70
     1
102
RTVSPropertyOp6
 70
     1
102
RTVSPropertyOp7
 70
     1
102
RTVSPropertyOp8
 70
     1
102
RTVSPropertyOp9
 70
     1
102
RTVSPropertyOp10
 70
     1
102
RTVSPropertyOp11
 70
     1
102
RTVSPropertyOp12
 70
     1
102
RTVSPropertyOp13
 70
     1
102
RTVSPropertyOp14
 70
     1
102
RTVSPropertyOp15
 70
     1
102
RTVSPropertyOp16
 70
     1
102
RTVSPropertyOp17
 70
     1
102
RTVSPropertyOp18
 70
     1
102
RTVSPropertyOp19
 70
     1
102
RTVSPropertyOp20
 70
     1
102
RTVSPropertyOp21
 70
     1
102
RTVSPropertyOp22
 70
     1
102
RTVSPropertyOp23
 70
     1
102
RTVSPropertyOp24
 70
     1
102
RTVSPropertyOp25
 70
     1
102
RTVSPropertyOp26
 70
     1
102
RTVSPropertyOp27
 70
     1
102
RTVSPropertyOp28
 70
     1
102
RTVSPropertyOp29
 70
     1
102
RTVSPropertyOp30
 70
     1
102
RTVSPropertyOp31
 70
     1
102
RTVSPropertyOp32
 70
     1
102
RTVSPropertyOp33
 70
     1
102
RTVSPropertyOp34
 70
     1
102
RTVSPropertyOp35
 70
     1
102
RTVSPropertyOp36
 70
     1
102
RTVSPropertyOp37
 70
     1
102
RTVSPropertyOp38
 70
     1
102
RTVSPropertyOp39
 70
     1
102
RTVSPropertyOp40
 70
     1
102
RTVSPropertyOp41
 70
     1
102
RTVSPropertyOp42
 70
     1
102
RTVSPropertyOp43
 70
     1
102
RTVSPropertyOp44
 70
     1
102
RTVSPropertyOp45
 70
     1
102
RTVSPropertyOp46
 70
     1
102
RTVSPropertyOp47
 70
     1
102
RTVSPropertyOp48
 70
     1
102
RTVSPropertyOp49
 70
     1
102
RTVSPropertyOp50
 70
     1
102
RTVSPropertyOp51
 70
     0
102
RTVSPropertyOp52
 70
     0
102
RTVSPropertyOp53
 70
     1
102
RTVSPropertyOp54
 70
     1
102
RTVSPropertyOp55
 70
     1
102
RTVSPropertyOp56
 70
     1
102
RTVSPropertyOp57
 70
     1
102
RTVSPropertyOp58
 70
     1
102
RTVSPropertyOp59
 70
     1
102
RTVSPropertyOp60
 70
     1
102
RTVSPropertyOp61
 70
     1
102
RTVSPropertyOp62
 70
     1
  0
XRECORD
  5
134F
102
{ACAD_REACTORS
330
134E
102
}
330
134E
100
AcDbXrecord
280
     1
102
RTVSPost2010Prop28
280
     0
102
RTVSPost2010PropOp28
 70
     1
102
RTVSPost2010Prop29
280
     1
102
RTVSPost2010PropOp29
 70
     1
102
RTVSPost2010Prop30
280
     1
102
RTVSPost2010PropOp30
 70
     1
102
RTVSPost2010Prop31
280
     0
102
RTVSPost2010PropOp31
 70
     1
102
RTVSPost2010Prop32
280
     0
102
RTVSPost2010PropOp32
 70
     1
102
RTVSPost2010Prop33
280
     0
102
RTVSPost2010PropOp33
 70
     1
102
RTVSPost2010Prop34
280
     0
102
RTVSPost2010PropOp34
 70
     1
102
RTVSPost2010Prop35
280
     0
102
RTVSPost2010PropOp35
 70
     1
102
RTVSPost2010Prop36
280
     0
102
RTVSPost2010PropOp36
 70
     1
102
RTVSPost2010Prop37
 90
       50
102
RTVSPost2010PropOp37
 70
     1
102
RTVSPost2010Prop38
140
0.0
102
RTVSPost2010PropOp38
 70
     1
102
RTVSPost2010Prop39
140
1.0
102
RTVSPost2010PropOp39
 70
     1
102
RTVSPost2010Prop40
 90
        0
102
RTVSPost2010PropOp40
 70
     1
102
RTVSPost2010Prop41ColorIndex
 90
       18
102
RTVSPost2010Prop41ColorRGB
 90
        0
102
RTVSPost2010PropOp41
 70
     1
102
RTVSPost2010Prop42
 90
       50
102
RTVSPost2010PropOp42
 70
     1
102
RTVSPost2010Prop43
 90
        3
102
RTVSPost2010PropOp43
 70
     1
102
RTVSPost2010Prop44ColorIndex
 90
        5
102
RTVSPost2010Prop44ColorRGB
 90
      255
102
RTVSPost2010PropOp44
 70
     1
102
RTVSPost2010Prop45
280
     0
102
RTVSPost2010PropOp45
 70
     1
102
RTVSPost2010Prop46
 90
       50
102
RTVSPost2010PropOp46
 70
     1
102
RTVSPost2010Prop47
 90
       50
102
RTVSPost2010PropOp47
 70
     1
102
RTVSPost2010Prop48
 90
       50
102
RTVSPost2010PropOp48
 70
     1
102
RTVSPost2010Prop49
280
     0
102
RTVSPost2010PropOp49
 70
     1
102
RTVSPost2010Prop50
 90
       50
102
RTVSPost2010PropOp50
 70
     1
102
RTVSPost2010Prop51ColorIndex
 90
      256
102
RTVSPost2010Prop51ColorRGB
 90
-16777216
102
RTVSPost2010PropOp51
 70
     0
102
RTVSPost2010Prop52
140
1.0
102
RTVSPost2010PropOp52
 70
     0
102
RTVSPost2010Prop53
 90
        2
102
RTVSPost2010PropOp53
 70
     1
102
RTVSPost2010Prop54
  1
strokes_ogs.tif
102
RTVSPost2010PropOp54
 70
     1
102
RTVSPost2010Prop55
280
     0
102
RTVSPost2010PropOp55
 70
     1
102
RTVSPost2010Prop56
140
1.0
102
RTVSPost2010PropOp56
 70
     1
102
RTVSPost2010Prop57
140
1.0
102
RTVSPost2010PropOp57
 70
     1
102
RTVSPropertyOp0
 70
     1
102
RTVSPropertyOp1
 70
     1
102
RTVSPropertyOp2
 70
     1
102
RTVSPropertyOp3
 70
     1
102
RTVSPropertyOp4
 70
     1
102
RTVSPropertyOp5
 70
     1
102
RTVSPropertyOp6
 70
     1
102
RTVSPropertyOp7
 70
     1
102
RTVSPropertyOp8
 70
     1
102
RTVSPropertyOp9
 70
     1
102
RTVSPropertyOp10
 70
     1
102
RTVSPropertyOp11
 70
     1
102
RTVSPropertyOp12
 70
     1
102
RTVSPropertyOp13
 70
     1
102
RTVSPropertyOp14
 70
     1
102
RTVSPropertyOp15
 70
     1
102
RTVSPropertyOp16
 70
     1
102
RTVSPropertyOp17
 70
     1
102
RTVSPropertyOp18
 70
     1
102
RTVSPropertyOp19
 70
     1
102
RTVSPropertyOp20
 70
     1
102
RTVSPropertyOp21
 70
     1
102
RTVSPropertyOp22
 70
     1
102
RTVSPropertyOp23
 70
     1
102
RTVSPropertyOp24
 70
     1
102
RTVSPropertyOp25
 70
     1
102
RTVSPropertyOp26
 70
     1
102
RTVSPropertyOp27
 70
     1
102
RTVSPropertyOp28
 70
     1
102
RTVSPropertyOp29
 70
     1
102
RTVSPropertyOp30
 70
     1
102
RTVSPropertyOp31
 70
     1
102
RTVSPropertyOp32
 70
     1
102
RTVSPropertyOp33
 70
     1
102
RTVSPropertyOp34
 70
     1
102
RTVSPropertyOp35
 70
     1
102
RTVSPropertyOp36
 70
     1
102
RTVSPropertyOp37
 70
     1
102
RTVSPropertyOp38
 70
     1
102
RTVSPropertyOp39
 70
     1
102
RTVSPropertyOp40
 70
     1
102
RTVSPropertyOp41
 70
     1
102
RTVSPropertyOp42
 70
     1
102
RTVSPropertyOp43
 70
     1
102
RTVSPropertyOp44
 70
     1
102
RTVSPropertyOp45
 70
     1
102
RTVSPropertyOp46
 70
     1
102
RTVSPropertyOp47
 70
     1
102
RTVSPropertyOp48
 70
     1
102
RTVSPropertyOp49
 70
     1
102
RTVSPropertyOp50
 70
     1
102
RTVSPropertyOp51
 70
     0
102
RTVSPropertyOp52
 70
     0
102
RTVSPropertyOp53
 70
     1
102
RTVSPropertyOp54
 70
     1
102
RTVSPropertyOp55
 70
     1
102
RTVSPropertyOp56
 70
     1
102
RTVSPropertyOp57
 70
     1
102
RTVSPropertyOp58
 70
     1
102
RTVSPropertyOp59
 70
     1
102
RTVSPropertyOp60
 70
     1
102
RTVSPropertyOp61
 70
     1
102
RTVSPropertyOp62
 70
     1
  0
XRECORD
  5
1345
102
{ACAD_REACTORS
330
1344
102
}
330
1344
100
AcDbXrecord
280
     1
102
RTVSPost2010Prop28
280
     0
102
RTVSPost2010PropOp28
 70
     1
102
RTVSPost2010Prop29
280
     1
102
RTVSPost2010PropOp29
 70
     1
102
RTVSPost2010Prop30
280
     1
102
RTVSPost2010PropOp30
 70
     1
102
RTVSPost2010Prop31
280
     0
102
RTVSPost2010PropOp31
 70
     1
102
RTVSPost2010Prop32
280
     0
102
RTVSPost2010PropOp32
 70
     1
102
RTVSPost2010Prop33
280
     0
102
RTVSPost2010PropOp33
 70
     1
102
RTVSPost2010Prop34
280
     0
102
RTVSPost2010PropOp34
 70
     1
102
RTVSPost2010Prop35
280
     0
102
RTVSPost2010PropOp35
 70
     1
102
RTVSPost2010Prop36
280
     0
102
RTVSPost2010PropOp36
 70
     1
102
RTVSPost2010Prop37
 90
       50
102
RTVSPost2010PropOp37
 70
     1
102
RTVSPost2010Prop38
140
0.0
102
RTVSPost2010PropOp38
 70
     1
102
RTVSPost2010Prop39
140
1.0
102
RTVSPost2010PropOp39
 70
     1
102
RTVSPost2010Prop40
 90
        0
102
RTVSPost2010PropOp40
 70
     1
102
RTVSPost2010Prop41ColorIndex
 90
       18
102
RTVSPost2010Prop41ColorRGB
 90
        0
102
RTVSPost2010PropOp41
 70
     1
102
RTVSPost2010Prop42
 90
       50
102
RTVSPost2010PropOp42
 70
     1
102
RTVSPost2010Prop43
 90
        3
102
RTVSPost2010PropOp43
 70
     1
102
RTVSPost2010Prop44ColorIndex
 90
        5
102
RTVSPost2010Prop44ColorRGB
 90
      255
102
RTVSPost2010PropOp44
 70
     1
102
RTVSPost2010Prop45
280
     0
102
RTVSPost2010PropOp45
 70
     1
102
RTVSPost2010Prop46
 90
       50
102
RTVSPost2010PropOp46
 70
     1
102
RTVSPost2010Prop47
 90
       50
102
RTVSPost2010PropOp47
 70
     1
102
RTVSPost2010Prop48
 90
       50
102
RTVSPost2010PropOp48
 70
     1
102
RTVSPost2010Prop49
280
     0
102
RTVSPost2010PropOp49
 70
     1
102
RTVSPost2010Prop50
 90
       50
102
RTVSPost2010PropOp50
 70
     1
102
RTVSPost2010Prop51ColorIndex
 90
      256
102
RTVSPost2010Prop51ColorRGB
 90
-16777216
102
RTVSPost2010PropOp51
 70
     0
102
RTVSPost2010Prop52
140
1.0
102
RTVSPost2010PropOp52
 70
     0
102
RTVSPost2010Prop53
 90
        2
102
RTVSPost2010PropOp53
 70
     1
102
RTVSPost2010Prop54
  1
strokes_ogs.tif
102
RTVSPost2010PropOp54
 70
     1
102
RTVSPost2010Prop55
280
     0
102
RTVSPost2010PropOp55
 70
     1
102
RTVSPost2010Prop56
140
1.0
102
RTVSPost2010PropOp56
 70
     1
102
RTVSPost2010Prop57
140
1.0
102
RTVSPost2010PropOp57
 70
     1
102
RTVSPropertyOp0
 70
     1
102
RTVSPropertyOp1
 70
     1
102
RTVSPropertyOp2
 70
     1
102
RTVSPropertyOp3
 70
     1
102
RTVSPropertyOp4
 70
     1
102
RTVSPropertyOp5
 70
     1
102
RTVSPropertyOp6
 70
     1
102
RTVSPropertyOp7
 70
     1
102
RTVSPropertyOp8
 70
     1
102
RTVSPropertyOp9
 70
     1
102
RTVSPropertyOp10
 70
     1
102
RTVSPropertyOp11
 70
     1
102
RTVSPropertyOp12
 70
     1
102
RTVSPropertyOp13
 70
     1
102
RTVSPropertyOp14
 70
     1
102
RTVSPropertyOp15
 70
     1
102
RTVSPropertyOp16
 70
     1
102
RTVSPropertyOp17
 70
     1
102
RTVSPropertyOp18
 70
     1
102
RTVSPropertyOp19
 70
     1
102
RTVSPropertyOp20
 70
     1
102
RTVSPropertyOp21
 70
     1
102
RTVSPropertyOp22
 70
     1
102
RTVSPropertyOp23
 70
     1
102
RTVSPropertyOp24
 70
     1
102
RTVSPropertyOp25
 70
     1
102
RTVSPropertyOp26
 70
     1
102
RTVSPropertyOp27
 70
     1
102
RTVSPropertyOp28
 70
     1
102
RTVSPropertyOp29
 70
     1
102
RTVSPropertyOp30
 70
     1
102
RTVSPropertyOp31
 70
     1
102
RTVSPropertyOp32
 70
     1
102
RTVSPropertyOp33
 70
     1
102
RTVSPropertyOp34
 70
     1
102
RTVSPropertyOp35
 70
     1
102
RTVSPropertyOp36
 70
     1
102
RTVSPropertyOp37
 70
     1
102
RTVSPropertyOp38
 70
     1
102
RTVSPropertyOp39
 70
     1
102
RTVSPropertyOp40
 70
     1
102
RTVSPropertyOp41
 70
     1
102
RTVSPropertyOp42
 70
     1
102
RTVSPropertyOp43
 70
     1
102
RTVSPropertyOp44
 70
     1
102
RTVSPropertyOp45
 70
     1
102
RTVSPropertyOp46
 70
     1
102
RTVSPropertyOp47
 70
     1
102
RTVSPropertyOp48
 70
     1
102
RTVSPropertyOp49
 70
     1
102
RTVSPropertyOp50
 70
     1
102
RTVSPropertyOp51
 70
     0
102
RTVSPropertyOp52
 70
     0
102
RTVSPropertyOp53
 70
     1
102
RTVSPropertyOp54
 70
     1
102
RTVSPropertyOp55
 70
     1
102
RTVSPropertyOp56
 70
     1
102
RTVSPropertyOp57
 70
     1
102
RTVSPropertyOp58
 70
     1
102
RTVSPropertyOp59
 70
     1
102
RTVSPropertyOp60
 70
     1
102
RTVSPropertyOp61
 70
     1
102
RTVSPropertyOp62
 70
     1
  0
XRECORD
  5
1339
102
{ACAD_REACTORS
330
1338
102
}
330
1338
100
AcDbXrecord
280
     1
102
RTVSPost2010Prop28
280
     0
102
RTVSPost2010PropOp28
 70
     1
102
RTVSPost2010Prop29
280
     1
102
RTVSPost2010PropOp29
 70
     1
102
RTVSPost2010Prop30
280
     1
102
RTVSPost2010PropOp30
 70
     1
102
RTVSPost2010Prop31
280
     0
102
RTVSPost2010PropOp31
 70
     1
102
RTVSPost2010Prop32
280
     0
102
RTVSPost2010PropOp32
 70
     1
102
RTVSPost2010Prop33
280
     0
102
RTVSPost2010PropOp33
 70
     1
102
RTVSPost2010Prop34
280
     0
102
RTVSPost2010PropOp34
 70
     1
102
RTVSPost2010Prop35
280
     0
102
RTVSPost2010PropOp35
 70
     1
102
RTVSPost2010Prop36
280
     0
102
RTVSPost2010PropOp36
 70
     1
102
RTVSPost2010Prop37
 90
       50
102
RTVSPost2010PropOp37
 70
     1
102
RTVSPost2010Prop38
140
0.0
102
RTVSPost2010PropOp38
 70
     1
102
RTVSPost2010Prop39
140
1.0
102
RTVSPost2010PropOp39
 70
     1
102
RTVSPost2010Prop40
 90
        0
102
RTVSPost2010PropOp40
 70
     1
102
RTVSPost2010Prop41ColorIndex
 90
       18
102
RTVSPost2010Prop41ColorRGB
 90
        0
102
RTVSPost2010PropOp41
 70
     1
102
RTVSPost2010Prop42
 90
       50
102
RTVSPost2010PropOp42
 70
     1
102
RTVSPost2010Prop43
 90
        3
102
RTVSPost2010PropOp43
 70
     1
102
RTVSPost2010Prop44ColorIndex
 90
        5
102
RTVSPost2010Prop44ColorRGB
 90
      255
102
RTVSPost2010PropOp44
 70
     1
102
RTVSPost2010Prop45
280
     0
102
RTVSPost2010PropOp45
 70
     1
102
RTVSPost2010Prop46
 90
       50
102
RTVSPost2010PropOp46
 70
     1
102
RTVSPost2010Prop47
 90
       50
102
RTVSPost2010PropOp47
 70
     1
102
RTVSPost2010Prop48
 90
       50
102
RTVSPost2010PropOp48
 70
     1
102
RTVSPost2010Prop49
280
     0
102
RTVSPost2010PropOp49
 70
     1
102
RTVSPost2010Prop50
 90
       50
102
RTVSPost2010PropOp50
 70
     1
102
RTVSPost2010Prop51ColorIndex
 90
      256
102
RTVSPost2010Prop51ColorRGB
 90
-16777216
102
RTVSPost2010PropOp51
 70
     0
102
RTVSPost2010Prop52
140
1.0
102
RTVSPost2010PropOp52
 70
     0
102
RTVSPost2010Prop53
 90
        2
102
RTVSPost2010PropOp53
 70
     1
102
RTVSPost2010Prop54
  1
strokes_ogs.tif
102
RTVSPost2010PropOp54
 70
     1
102
RTVSPost2010Prop55
280
     0
102
RTVSPost2010PropOp55
 70
     1
102
RTVSPost2010Prop56
140
1.0
102
RTVSPost2010PropOp56
 70
     1
102
RTVSPost2010Prop57
140
1.0
102
RTVSPost2010PropOp57
 70
     1
102
RTVSPropertyOp0
 70
     1
102
RTVSPropertyOp1
 70
     1
102
RTVSPropertyOp2
 70
     1
102
RTVSPropertyOp3
 70
     1
102
RTVSPropertyOp4
 70
     1
102
RTVSPropertyOp5
 70
     1
102
RTVSPropertyOp6
 70
     1
102
RTVSPropertyOp7
 70
     1
102
RTVSPropertyOp8
 70
     1
102
RTVSPropertyOp9
 70
     1
102
RTVSPropertyOp10
 70
     1
102
RTVSPropertyOp11
 70
     1
102
RTVSPropertyOp12
 70
     1
102
RTVSPropertyOp13
 70
     1
102
RTVSPropertyOp14
 70
     1
102
RTVSPropertyOp15
 70
     1
102
RTVSPropertyOp16
 70
     1
102
RTVSPropertyOp17
 70
     1
102
RTVSPropertyOp18
 70
     1
102
RTVSPropertyOp19
 70
     1
102
RTVSPropertyOp20
 70
     1
102
RTVSPropertyOp21
 70
     1
102
RTVSPropertyOp22
 70
     1
102
RTVSPropertyOp23
 70
     1
102
RTVSPropertyOp24
 70
     1
102
RTVSPropertyOp25
 70
     1
102
RTVSPropertyOp26
 70
     1
102
RTVSPropertyOp27
 70
     1
102
RTVSPropertyOp28
 70
     1
102
RTVSPropertyOp29
 70
     1
102
RTVSPropertyOp30
 70
     1
102
RTVSPropertyOp31
 70
     1
102
RTVSPropertyOp32
 70
     1
102
RTVSPropertyOp33
 70
     1
102
RTVSPropertyOp34
 70
     1
102
RTVSPropertyOp35
 70
     1
102
RTVSPropertyOp36
 70
     1
102
RTVSPropertyOp37
 70
     1
102
RTVSPropertyOp38
 70
     1
102
RTVSPropertyOp39
 70
     1
102
RTVSPropertyOp40
 70
     1
102
RTVSPropertyOp41
 70
     1
102
RTVSPropertyOp42
 70
     1
102
RTVSPropertyOp43
 70
     1
102
RTVSPropertyOp44
 70
     1
102
RTVSPropertyOp45
 70
     1
102
RTVSPropertyOp46
 70
     1
102
RTVSPropertyOp47
 70
     1
102
RTVSPropertyOp48
 70
     1
102
RTVSPropertyOp49
 70
     1
102
RTVSPropertyOp50
 70
     1
102
RTVSPropertyOp51
 70
     0
102
RTVSPropertyOp52
 70
     0
102
RTVSPropertyOp53
 70
     1
102
RTVSPropertyOp54
 70
     1
102
RTVSPropertyOp55
 70
     1
102
RTVSPropertyOp56
 70
     1
102
RTVSPropertyOp57
 70
     1
102
RTVSPropertyOp58
 70
     1
102
RTVSPropertyOp59
 70
     1
102
RTVSPropertyOp60
 70
     1
102
RTVSPropertyOp61
 70
     1
102
RTVSPropertyOp62
 70
     1
  0
XRECORD
  5
1351
102
{ACAD_REACTORS
330
1350
102
}
330
1350
100
AcDbXrecord
280
     1
102
RTVSPost2010Prop28
280
     0
102
RTVSPost2010PropOp28
 70
     1
102
RTVSPost2010Prop29
280
     1
102
RTVSPost2010PropOp29
 70
     1
102
RTVSPost2010Prop30
280
     1
102
RTVSPost2010PropOp30
 70
     1
102
RTVSPost2010Prop31
280
     0
102
RTVSPost2010PropOp31
 70
     1
102
RTVSPost2010Prop32
280
     0
102
RTVSPost2010PropOp32
 70
     1
102
RTVSPost2010Prop33
280
     0
102
RTVSPost2010PropOp33
 70
     1
102
RTVSPost2010Prop34
280
     0
102
RTVSPost2010PropOp34
 70
     1
102
RTVSPost2010Prop35
280
     0
102
RTVSPost2010PropOp35
 70
     1
102
RTVSPost2010Prop36
280
     0
102
RTVSPost2010PropOp36
 70
     1
102
RTVSPost2010Prop37
 90
       50
102
RTVSPost2010PropOp37
 70
     1
102
RTVSPost2010Prop38
140
0.0
102
RTVSPost2010PropOp38
 70
     1
102
RTVSPost2010Prop39
140
1.0
102
RTVSPost2010PropOp39
 70
     1
102
RTVSPost2010Prop40
 90
        0
102
RTVSPost2010PropOp40
 70
     1
102
RTVSPost2010Prop41ColorIndex
 90
       18
102
RTVSPost2010Prop41ColorRGB
 90
        0
102
RTVSPost2010PropOp41
 70
     1
102
RTVSPost2010Prop42
 90
       50
102
RTVSPost2010PropOp42
 70
     1
102
RTVSPost2010Prop43
 90
        3
102
RTVSPost2010PropOp43
 70
     1
102
RTVSPost2010Prop44ColorIndex
 90
        5
102
RTVSPost2010Prop44ColorRGB
 90
      255
102
RTVSPost2010PropOp44
 70
     1
102
RTVSPost2010Prop45
280
     0
102
RTVSPost2010PropOp45
 70
     1
102
RTVSPost2010Prop46
 90
       50
102
RTVSPost2010PropOp46
 70
     1
102
RTVSPost2010Prop47
 90
       50
102
RTVSPost2010PropOp47
 70
     1
102
RTVSPost2010Prop48
 90
       50
102
RTVSPost2010PropOp48
 70
     1
102
RTVSPost2010Prop49
280
     0
102
RTVSPost2010PropOp49
 70
     1
102
RTVSPost2010Prop50
 90
       50
102
RTVSPost2010PropOp50
 70
     1
102
RTVSPost2010Prop51ColorIndex
 90
      256
102
RTVSPost2010Prop51ColorRGB
 90
-16777216
102
RTVSPost2010PropOp51
 70
     0
102
RTVSPost2010Prop52
140
1.0
102
RTVSPost2010PropOp52
 70
     0
102
RTVSPost2010Prop53
 90
        2
102
RTVSPost2010PropOp53
 70
     1
102
RTVSPost2010Prop54
  1
strokes_ogs.tif
102
RTVSPost2010PropOp54
 70
     1
102
RTVSPost2010Prop55
280
     0
102
RTVSPost2010PropOp55
 70
     1
102
RTVSPost2010Prop56
140
1.0
102
RTVSPost2010PropOp56
 70
     1
102
RTVSPost2010Prop57
140
1.0
102
RTVSPost2010PropOp57
 70
     1
102
RTVSPropertyOp0
 70
     1
102
RTVSPropertyOp1
 70
     1
102
RTVSPropertyOp2
 70
     1
102
RTVSPropertyOp3
 70
     1
102
RTVSPropertyOp4
 70
     1
102
RTVSPropertyOp5
 70
     1
102
RTVSPropertyOp6
 70
     1
102
RTVSPropertyOp7
 70
     1
102
RTVSPropertyOp8
 70
     1
102
RTVSPropertyOp9
 70
     1
102
RTVSPropertyOp10
 70
     1
102
RTVSPropertyOp11
 70
     1
102
RTVSPropertyOp12
 70
     1
102
RTVSPropertyOp13
 70
     1
102
RTVSPropertyOp14
 70
     1
102
RTVSPropertyOp15
 70
     1
102
RTVSPropertyOp16
 70
     1
102
RTVSPropertyOp17
 70
     1
102
RTVSPropertyOp18
 70
     1
102
RTVSPropertyOp19
 70
     1
102
RTVSPropertyOp20
 70
     1
102
RTVSPropertyOp21
 70
     1
102
RTVSPropertyOp22
 70
     1
102
RTVSPropertyOp23
 70
     1
102
RTVSPropertyOp24
 70
     1
102
RTVSPropertyOp25
 70
     1
102
RTVSPropertyOp26
 70
     1
102
RTVSPropertyOp27
 70
     1
102
RTVSPropertyOp28
 70
     1
102
RTVSPropertyOp29
 70
     1
102
RTVSPropertyOp30
 70
     1
102
RTVSPropertyOp31
 70
     1
102
RTVSPropertyOp32
 70
     1
102
RTVSPropertyOp33
 70
     1
102
RTVSPropertyOp34
 70
     1
102
RTVSPropertyOp35
 70
     1
102
RTVSPropertyOp36
 70
     1
102
RTVSPropertyOp37
 70
     1
102
RTVSPropertyOp38
 70
     1
102
RTVSPropertyOp39
 70
     1
102
RTVSPropertyOp40
 70
     1
102
RTVSPropertyOp41
 70
     1
102
RTVSPropertyOp42
 70
     1
102
RTVSPropertyOp43
 70
     1
102
RTVSPropertyOp44
 70
     1
102
RTVSPropertyOp45
 70
     1
102
RTVSPropertyOp46
 70
     1
102
RTVSPropertyOp47
 70
     1
102
RTVSPropertyOp48
 70
     1
102
RTVSPropertyOp49
 70
     1
102
RTVSPropertyOp50
 70
     1
102
RTVSPropertyOp51
 70
     0
102
RTVSPropertyOp52
 70
     0
102
RTVSPropertyOp53
 70
     1
102
RTVSPropertyOp54
 70
     1
102
RTVSPropertyOp55
 70
     1
102
RTVSPropertyOp56
 70
     1
102
RTVSPropertyOp57
 70
     1
102
RTVSPropertyOp58
 70
     1
102
RTVSPropertyOp59
 70
     1
102
RTVSPropertyOp60
 70
     1
102
RTVSPropertyOp61
 70
     1
102
RTVSPropertyOp62
 70
     1
  0
ENDSEC
  0
EOF
