  0
SECTION
  2
HEADER
  9
$ACADVER
  1
AC1015
  9
$ACADMAINTVER
 70
    20
  9
$DWGCODEPAGE
  3
ANSI_932
  9
$INSBASE
 10
0.0
 20
0.0
 30
0.0
  9
$EXTMIN
 10
10.0
 20
9.999999999999998
 30
0.0
  9
$EXTMAX
 10
663.220223
 20
508.8878549999998
 30
0.0
  9
$LIMMIN
 10
0.0
 20
0.0
  9
$LIMMAX
 10
792.0
 20
546.0
  9
$ORTHOMODE
 70
     1
  9
$REGENMODE
 70
     1
  9
$FILLMODE
 70
     1
  9
$QTEXTMODE
 70
     0
  9
$MIRRTEXT
 70
     1
  9
$LTSCALE
 40
20.0
  9
$ATTMODE
 70
     1
  9
$TEXTSIZE
 40
5.0
  9
$TRACEWID
 40
1.0
  9
$TEXTSTYLE
  7
STANDARD
  9
$CLAYER
  8
0
  9
$CELTYPE
  6
BYLAYER
  9
$CECOLOR
 62
   256
  9
$CELTSCALE
 40
1.0
  9
$DISPSILH
 70
     0
  9
$DIMSCALE
 40
1.0
  9
$DIMASZ
 40
2.5
  9
$DIMEXO
 40
1.0
  9
$DIMDLI
 40
10.0
  9
$DIMRND
 40
0.0
  9
$DIMDLE
 40
0.0
  9
$DIMEXE
 40
1.0
  9
$DIMTP
 40
0.0
  9
$DIMTM
 40
0.0
  9
$DIMTXT
 40
3.2
  9
$DIMCEN
 40
0.0
  9
$DIMTSZ
 40
0.0
  9
$DIMTOL
 70
     0
  9
$DIMLIM
 70
     0
  9
$DIMTIH
 70
     0
  9
$DIMTOH
 70
     0
  9
$DIMSE1
 70
     0
  9
$DIMSE2
 70
     0
  9
$DIMTAD
 70
     3
  9
$DIMZIN
 70
     8
  9
$DIMBLK
  1

  9
$DIMASO
 70
     1
  9
$DIMSHO
 70
     1
  9
$DIMPOST
  1

  9
$DIMAPOST
  1

  9
$DIMALT
 70
     0
  9
$DIMALTD
 70
     2
  9
$DIMALTF
 40
25.4
  9
$DIMLFAC
 40
1.0
  9
$DIMTOFL
 70
     1
  9
$DIMTVP
 40
0.0
  9
$DIMTIX
 70
     0
  9
$DIMSOXD
 70
     0
  9
$DIMSAH
 70
     1
  9
$DIMBLK1
  1

  9
$DIMBLK2
  1

  9
$DIMSTYLE
  2
STANDARD
  9
$DIMCLRD
 70
     0
  9
$DIMCLRE
 70
     0
  9
$DIMCLRT
 70
     0
  9
$DIMTFAC
 40
1.0
  9
$DIMGAP
 40
1.0
  9
$DIMJUST
 70
     0
  9
$DIMSD1
 70
     0
  9
$DIMSD2
 70
     0
  9
$DIMTOLJ
 70
     1
  9
$DIMTZIN
 70
     0
  9
$DIMALTZ
 70
     0
  9
$DIMALTTZ
 70
     0
  9
$DIMUPT
 70
     0
  9
$DIMDEC
 70
     4
  9
$DIMTDEC
 70
     4
  9
$DIMALTU
 70
     2
  9
$DIMALTTD
 70
     2
  9
$DIMTXSTY
  7
STANDARD
  9
$DIMAUNIT
 70
     0
  9
$DIMADEC
 70
     0
  9
$DIMALTRND
 40
0.0
  9
$DIMAZIN
 70
     0
  9
$DIMDSEP
 70
    46
  9
$DIMATFIT
 70
     3
  9
$DIMFRAC
 70
     0
  9
$DIMLDRBLK
  1

  9
$DIMLUNIT
 70
     2
  9
$DIMLWD
 70
    -2
  9
$DIMLWE
 70
    -2
  9
$DIMTMOVE
 70
     0
  9
$LUNITS
 70
     2
  9
$LUPREC
 70
     4
  9
$SKETCHINC
 40
1.0
  9
$FILLETRAD
 40
3.299999999999998
  9
$AUNITS
 70
     0
  9
$AUPREC
 70
     2
  9
$MENU
  1
.
  9
$ELEVATION
 40
0.0
  9
$PELEVATION
 40
0.0
  9
$THICKNESS
 40
0.0
  9
$LIMCHECK
 70
     0
  9
$CHAMFERA
 40
10.0
  9
$CHAMFERB
 40
10.0
  9
$CHAMFERC
 40
0.0
  9
$CHAMFERD
 40
0.0
  9
$SKPOLY
 70
     0
  9
$TDCREATE
 40
2451303.405510880
  9
$TDUCREATE
 40
2451303.030510880
  9
$TDUPDATE
 40
2457192.689884190
  9
$TDUUPDATE
 40
2457192.314884190
  9
$TDINDWG
 40
0.0126923148
  9
$TDUSRTIMER
 40
0.0126920139
  9
$USRTIMER
 70
     1
  9
$ANGBASE
 50
0.0
  9
$ANGDIR
 70
     0
  9
$PDMODE
 70
     0
  9
$PDSIZE
 40
0.0
  9
$PLINEWID
 40
0.0
  9
$SPLFRAME
 70
     0
  9
$SPLINETYPE
 70
     6
  9
$SPLINESEGS
 70
     8
  9
$HANDSEED
  5
B38C
  9
$SURFTAB1
 70
     6
  9
$SURFTAB2
 70
     6
  9
$SURFTYPE
 70
     6
  9
$SURFU
 70
     6
  9
$SURFV
 70
     6
  9
$UCSBASE
  2

  9
$UCSNAME
  2

  9
$UCSORG
 10
0.0
 20
0.0
 30
0.0
  9
$UCSXDIR
 10
1.0
 20
0.0
 30
0.0
  9
$UCSYDIR
 10
0.0
 20
1.0
 30
0.0
  9
$UCSORTHOREF
  2

  9
$UCSORTHOVIEW
 70
     0
  9
$UCSORGTOP
 10
0.0
 20
0.0
 30
0.0
  9
$UCSORGBOTTOM
 10
0.0
 20
0.0
 30
0.0
  9
$UCSORGLEFT
 10
0.0
 20
0.0
 30
0.0
  9
$UCSORGRIGHT
 10
0.0
 20
0.0
 30
0.0
  9
$UCSORGFRONT
 10
0.0
 20
0.0
 30
0.0
  9
$UCSORGBACK
 10
0.0
 20
0.0
 30
0.0
  9
$PUCSBASE
  2

  9
$PUCSNAME
  2

  9
$PUCSORG
 10
0.0
 20
0.0
 30
0.0
  9
$PUCSXDIR
 10
1.0
 20
0.0
 30
0.0
  9
$PUCSYDIR
 10
0.0
 20
1.0
 30
0.0
  9
$PUCSORTHOREF
  2

  9
$PUCSORTHOVIEW
 70
     0
  9
$PUCSORGTOP
 10
0.0
 20
0.0
 30
0.0
  9
$PUCSORGBOTTOM
 10
0.0
 20
0.0
 30
0.0
  9
$PUCSORGLEFT
 10
0.0
 20
0.0
 30
0.0
  9
$PUCSORGRIGHT
 10
0.0
 20
0.0
 30
0.0
  9
$PUCSORGFRONT
 10
0.0
 20
0.0
 30
0.0
  9
$PUCSORGBACK
 10
0.0
 20
0.0
 30
0.0
  9
$USERI1
 70
     0
  9
$USERI2
 70
     0
  9
$USERI3
 70
     0
  9
$USERI4
 70
     0
  9
$USERI5
 70
     0
  9
$USERR1
 40
0.0
  9
$USERR2
 40
0.0
  9
$USERR3
 40
0.0
  9
$USERR4
 40
0.0
  9
$USERR5
 40
0.0
  9
$WORLDVIEW
 70
     1
  9
$SHADEDGE
 70
     3
  9
$SHADEDIF
 70
    70
  9
$TILEMODE
 70
     1
  9
$MAXACTVP
 70
    16
  9
$PINSBASE
 10
0.0
 20
0.0
 30
0.0
  9
$PLIMCHECK
 70
     0
  9
$PEXTMIN
 10
1.000000000000000E+20
 20
1.000000000000000E+20
 30
1.000000000000000E+20
  9
$PEXTMAX
 10
-1.000000000000000E+20
 20
-1.000000000000000E+20
 30
-1.000000000000000E+20
  9
$PLIMMIN
 10
0.0
 20
0.0
  9
$PLIMMAX
 10
420.0
 20
297.0
  9
$UNITMODE
 70
     0
  9
$VISRETAIN
 70
     0
  9
$PLINEGEN
 70
     0
  9
$PSLTSCALE
 70
     0
  9
$TREEDEPTH
 70
  3020
  9
$CMLSTYLE
  2
STANDARD
  9
$CMLJUST
 70
     0
  9
$CMLSCALE
 40
1.0
  9
$PROXYGRAPHICS
 70
     1
  9
$MEASUREMENT
 70
     0
  9
$CELWEIGHT
370
    -1
  9
$ENDCAPS
280
     0
  9
$JOINSTYLE
280
     0
  9
$LWDISPLAY
290
     0
  9
$INSUNITS
 70
     0
  9
$HYPERLINKBASE
  1

  9
$STYLESHEET
  1

  9
$XEDIT
290
     1
  9
$CEPSNTYPE
380
     0
  9
$PSTYLEMODE
290
     1
  9
$FINGERPRINTGUID
  2
{17AC1F98-176F-49B0-91A9-16CA1EBDB9DD}
  9
$VERSIONGUID
  2
{EAD3A403-99AA-4ECF-A4B0-3B9900FDDE87}
  9
$EXTNAMES
290
     1
  9
$PSVPSCALE
 40
0.0
  9
$OLESTARTUP
290
     0
  0
ENDSEC
  0
SECTION
  2
CLASSES
  0
CLASS
  1
ACDBDICTIONARYWDFLT
  2
AcDbDictionaryWithDefault
  3
ObjectDBX Classes
 90
        0
280
     0
281
     0
  0
CLASS
  1
ACDBPLACEHOLDER
  2
AcDbPlaceHolder
  3
ObjectDBX Classes
 90
        0
280
     0
281
     0
  0
CLASS
  1
LAYOUT
  2
AcDbLayout
  3
ObjectDBX Classes
 90
        0
280
     0
281
     0
  0
CLASS
  1
DICTIONARYVAR
  2
AcDbDictionaryVar
  3
ObjectDBX Classes
 90
        0
280
     0
281
     0
  0
CLASS
  1
MATERIAL
  2
AcDbMaterial
  3
ObjectDBX Classes
 90
     1153
280
     0
281
     0
  0
CLASS
  1
VISUALSTYLE
  2
AcDbVisualStyle
  3
ObjectDBX Classes
 90
     4095
280
     0
281
     0
  0
CLASS
  1
TABLESTYLE
  2
AcDbTableStyle
  3
ObjectDBX Classes
 90
     4095
280
     0
281
     0
  0
CLASS
  1
SCALE
  2
AcDbScale
  3
ObjectDBX Classes
 90
     1153
280
     0
281
     0
  0
CLASS
  1
MLEADERSTYLE
  2
AcDbMLeaderStyle
  3
ACDB_MLEADERSTYLE_CLASS
 90
     4095
280
     0
281
     0
  0
CLASS
  1
ACDBSECTIONVIEWSTYLE
  2
AcDbSectionViewStyle
  3
ObjectDBX Classes
 90
     1025
280
     0
281
     0
  0
CLASS
  1
ACDBDETAILVIEWSTYLE
  2
AcDbDetailViewStyle
  3
ObjectDBX Classes
 90
     1025
280
     0
281
     0
  0
CLASS
  1
CELLSTYLEMAP
  2
AcDbCellStyleMap
  3
ObjectDBX Classes
 90
     1152
280
     0
281
     0
  0
ENDSEC
  0
SECTION
  2
TABLES
  0
TABLE
  2
VPORT
  5
ADE9
330
0
100
AcDbSymbolTable
 70
     1
  0
VPORT
  5
B2D7
330
ADE9
100
AcDbSymbolTableRecord
100
AcDbViewportTableRecord
  2
*ACTIVE
 70
     0
 10
0.0
 20
0.0
 11
1.0
 21
1.0
 12
528.6361724070461
 22
259.4408124126967
 13
0.0
 23
0.0
 14
10.0
 24
10.0
 15
10.0
 25
10.0
 16
0.0
 26
0.0
 36
1.0
 17
0.0
 27
0.0
 37
0.0
 40
502.8586710327263
 41
2.35006605019815
 42
50.0
 43
0.0
 44
0.0
 50
0.0
 51
0.0
 71
     0
 72
   100
 73
     1
 74
     0
 75
     0
 76
     0
 77
     0
 78
     0
281
     0
 65
     1
110
0.0
120
0.0
130
0.0
111
1.0
121
0.0
131
0.0
112
0.0
122
1.0
132
0.0
 79
     0
146
0.0
1001
ACAD_NAV_VCDISPLAY
1070
     3
  0
ENDTAB
  0
TABLE
  2
LTYPE
  5
ADE6
330
0
100
AcDbSymbolTable
 70
     4
  0
LTYPE
  5
ADF4
330
ADE6
100
AcDbSymbolTableRecord
100
AcDbLinetypeTableRecord
  2
BYBLOCK
 70
     0
  3

 72
    65
 73
     0
 40
0.0
  0
LTYPE
  5
ADF5
330
ADE6
100
AcDbSymbolTableRecord
100
AcDbLinetypeTableRecord
  2
BYLAYER
 70
     0
  3

 72
    65
 73
     0
 40
0.0
  0
LTYPE
  5
ADF6
330
ADE6
100
AcDbSymbolTableRecord
100
AcDbLinetypeTableRecord
  2
CONTINUOUS
 70
     0
  3
Solid line
 72
    65
 73
     0
 40
0.0
  0
LTYPE
  5
AE04
330
ADE6
100
AcDbSymbolTableRecord
100
AcDbLinetypeTableRecord
  2
DASHED
 70
     0
  3
__ __ __ __ __ __ __ __ __ __ __ __ __ __ __ __
 72
    65
 73
     2
 40
0.75
 49
0.5
 74
     0
 49
-0.25
 74
     0
  0
LTYPE
  5
AE05
330
ADE6
100
AcDbSymbolTableRecord
100
AcDbLinetypeTableRecord
  2
CENTER
 70
     0
  3
____ _ ____ _ ____ _ ____ _ ____ _ ____ _ ____ 
 72
    65
 73
     4
 40
2.0
 49
1.25
 74
     0
 49
-0.25
 74
     0
 49
0.25
 74
     0
 49
-0.25
 74
     0
  0
LTYPE
  5
AE06
330
ADE6
100
AcDbSymbolTableRecord
100
AcDbLinetypeTableRecord
  2
PHANTOM
 70
     0
  3
______  __  __  ______  __  __  ______  __  __ 
 72
    65
 73
     6
 40
2.5
 49
1.25
 74
     0
 49
-0.25
 74
     0
 49
0.25
 74
     0
 49
-0.25
 74
     0
 49
0.25
 74
     0
 49
-0.25
 74
     0
  0
ENDTAB
  0
TABLE
  2
LAYER
  5
ADE3
330
0
100
AcDbSymbolTable
 70
     8
  0
LAYER
  5
ADF1
102
{ACAD_XDICTIONARY
360
B330
102
}
330
ADE3
100
AcDbSymbolTableRecord
100
AcDbLayerTableRecord
  2
0
 70
     0
 62
     7
  6
CONTINUOUS
370
    -3
390
B2DE
  0
LAYER
  5
AE07
102
{ACAD_XDICTIONARY
360
B332
102
}
330
ADE3
100
AcDbSymbolTableRecord
100
AcDbLayerTableRecord
  2
4
 70
     0
 62
     1
  6
CENTER
370
    -3
390
B2DE
  0
LAYER
  5
AE08
102
{ACAD_XDICTIONARY
360
B334
102
}
330
ADE3
100
AcDbSymbolTableRecord
100
AcDbLayerTableRecord
  2
5
 70
     0
 62
     6
  6
PHANTOM
370
    -3
390
B2DE
  0
LAYER
  5
AE09
102
{ACAD_XDICTIONARY
360
B336
102
}
330
ADE3
100
AcDbSymbolTableRecord
100
AcDbLayerTableRecord
  2
1
 70
     0
 62
     7
  6
CONTINUOUS
370
    -3
390
B2DE
  0
LAYER
  5
AE0A
102
{ACAD_XDICTIONARY
360
B338
102
}
330
ADE3
100
AcDbSymbolTableRecord
100
AcDbLayerTableRecord
  2
2
 70
     0
 62
     4
  6
CONTINUOUS
370
    -3
390
B2DE
  0
LAYER
  5
AE0B
102
{ACAD_XDICTIONARY
360
B33A
102
}
330
ADE3
100
AcDbSymbolTableRecord
100
AcDbLayerTableRecord
  2
3
 70
     0
 62
     2
  6
DASHED
370
    -3
390
B2DE
  0
LAYER
  5
AE0C
102
{ACAD_XDICTIONARY
360
B33C
102
}
330
ADE3
100
AcDbSymbolTableRecord
100
AcDbLayerTableRecord
  2
6
 70
     0
 62
     5
  6
CONTINUOUS
370
    -3
390
B2DE
  0
LAYER
  5
AE0D
102
{ACAD_XDICTIONARY
360
B33E
102
}
330
ADE3
100
AcDbSymbolTableRecord
100
AcDbLayerTableRecord
  2
7
 70
     0
 62
     3
  6
CONTINUOUS
370
    -3
390
B2DE
  0
ENDTAB
  0
TABLE
  2
STYLE
  5
ADE4
330
0
100
AcDbSymbolTable
 70
     1
  0
STYLE
  5
ADF2
330
ADE4
100
AcDbSymbolTableRecord
100
AcDbTextStyleTableRecord
  2
STANDARD
 70
     0
 40
0.0
 41
1.0
 50
0.0
 71
     0
 42
5.0
  3
txt
  4

  0
ENDTAB
  0
TABLE
  2
VIEW
  5
ADE7
330
0
100
AcDbSymbolTable
 70
     0
  0
ENDTAB
  0
TABLE
  2
UCS
  5
ADE8
330
0
100
AcDbSymbolTable
 70
     0
  0
ENDTAB
  0
TABLE
  2
APPID
  5
ADEA
330
0
100
AcDbSymbolTable
 70
     3
  0
APPID
  5
ADF3
330
ADEA
100
AcDbSymbolTableRecord
100
AcDbRegAppTableRecord
  2
ACAD
 70
     0
  0
APPID
  5
B34A
330
ADEA
100
AcDbSymbolTableRecord
100
AcDbRegAppTableRecord
  2
ACAD_NAV_VCDISPLAY
 70
     0
  0
APPID
  5
B383
330
ADEA
100
AcDbSymbolTableRecord
100
AcDbRegAppTableRecord
  2
ACAD_MLEADERVER
 70
     0
  0
ENDTAB
  0
TABLE
  2
DIMSTYLE
  5
ADEB
330
0
100
AcDbSymbolTable
 70
     1
100
AcDbDimStyleTable
 71
     0
  0
DIMSTYLE
105
AE0F
330
ADEB
100
AcDbSymbolTableRecord
100
AcDbDimStyleTableRecord
  2
STANDARD
 70
     0
 41
2.5
 42
1.0
 43
10.0
 44
1.0
 73
     0
 74
     0
 77
     3
 78
     8
140
3.2
141
0.0
147
1.0
172
     1
173
     1
284
     8
285
     8
286
     8
340
ADF2
  0
ENDTAB
  0
TABLE
  2
BLOCK_RECORD
  5
ADE2
330
0
100
AcDbSymbolTable
 70
     0
  0
BLOCK_RECORD
  5
ADFF
102
{ACAD_XDICTIONARY
360
B174
102
}
330
ADE2
100
AcDbSymbolTableRecord
100
AcDbBlockTableRecord
  2
*MODEL_SPACE
340
B32C
  0
BLOCK_RECORD
  5
ADFB
102
{ACAD_XDICTIONARY
360
B172
102
}
330
ADE2
100
AcDbSymbolTableRecord
100
AcDbBlockTableRecord
  2
*PAPER_SPACE
340
B32D
  0
ENDTAB
  0
ENDSEC
  0
SECTION
  2
BLOCKS
  0
BLOCK
  5
AE00
330
ADFF
100
AcDbEntity
  8
0
100
AcDbBlockBegin
  2
*MODEL_SPACE
 70
     0
 10
0.0
 20
0.0
 30
0.0
  3
*MODEL_SPACE
  1

  0
ENDBLK
  5
AE01
330
ADFF
100
AcDbEntity
  8
0
100
AcDbBlockEnd
  0
BLOCK
  5
ADFC
330
ADFB
100
AcDbEntity
 67
     1
  8
0
100
AcDbBlockBegin
  2
*PAPER_SPACE
 70
     0
 10
0.0
 20
0.0
 30
0.0
  3
*PAPER_SPACE
  1

  0
ENDBLK
  5
ADFD
330
ADFB
100
AcDbEntity
 67
     1
  8
0
100
AcDbBlockEnd
  0
ENDSEC
  0
SECTION
  2
ENTITIES
  0
TEXT
  5
AE17
330
ADFF
100
AcDbEntity
  8
7
  6
Continuous
100
AcDbText
 10
10.0
 20
18.0
 30
0.0
 40
3.0
  1
TYPE No.TCA-415EA-R150
100
AcDbText
  0
TEXT
  5
AE18
330
ADFF
100
AcDbEntity
  8
7
  6
Continuous
100
AcDbText
 10
10.0
 20
26.0
 30
0.0
 40
3.0
  1
CODE No.9782
100
AcDbText
  0
TEXT
  5
AE19
330
ADFF
100
AcDbEntity
  8
1
  6
Continuous
100
AcDbText
 10
10.0
 20
10.0
 30
0.0
 40
1.399999999999999
  1
LAYER
100
AcDbText
  0
TEXT
  5
AE1A
330
ADFF
100
AcDbEntity
  8
1
  6
Continuous
100
AcDbText
 10
17.97951099999998
 20
10.04873699999998
 30
0.0
 40
1.399999999999999
  1
1
100
AcDbText
  0
TEXT
  5
AE1B
330
ADFF
100
AcDbEntity
  8
7
  6
Continuous
100
AcDbText
 10
29.97951099999999
 20
10.04873699999998
 30
0.0
 40
1.399999999999999
  1
7
100
AcDbText
  0
TEXT
  5
AE1C
330
ADFF
100
AcDbEntity
  8
4
  6
CENTER
100
AcDbText
 10
23.97951099999999
 20
10.04873699999998
 30
0.0
 40
1.399999999999999
  1
4
100
AcDbText
  0
TEXT
  5
AE1D
330
ADFF
100
AcDbEntity
  8
3
  6
DASHED
100
AcDbText
 10
21.979511
 20
10.04873699999998
 30
0.0
 40
1.399999999999999
  1
3
100
AcDbText
  0
TEXT
  5
AE1E
330
ADFF
100
AcDbEntity
  8
2
  6
Continuous
100
AcDbText
 10
19.97951099999998
 20
10.04873699999998
 30
0.0
 40
1.399999999999999
  1
2
100
AcDbText
  0
TEXT
  5
AE1F
330
ADFF
100
AcDbEntity
  8
6
  6
Continuous
100
AcDbText
 10
27.979511
 20
10.04873699999998
 30
0.0
 40
1.399999999999999
  1
6
100
AcDbText
  0
TEXT
  5
AE20
330
ADFF
100
AcDbEntity
  8
5
  6
PHANTOM
100
AcDbText
 10
25.97951099999999
 20
10.04873699999998
 30
0.0
 40
1.399999999999999
  1
5
100
AcDbText
  0
LINE
  5
AE21
330
ADFF
100
AcDbEntity
  8
4
  6
CENTER
100
AcDbLine
 10
57.22022299999999
 20
389.871613
 30
0.0
 11
57.22022299999999
 21
156.871609
 31
0.0
  0
LINE
  5
AE22
330
ADFF
100
AcDbEntity
  8
4
  6
CENTER
100
AcDbLine
 10
137.2202229999998
 20
475.871609
 30
0.0
 11
303.2202229999999
 21
475.871609
 31
0.0
  0
LINE
  5
AE23
330
ADFF
100
AcDbEntity
  8
4
  6
CENTER
100
AcDbLine
 10
262.2202229999999
 20
508.8878549999998
 30
0.0
 11
262.2202229999999
 21
442.8878550000002
 31
0.0
  0
LINE
  5
AE25
330
ADFF
100
AcDbEntity
  8
4
  6
CENTER
100
AcDbLine
 10
140.220223
 20
73.87160899999997
 30
0.0
 11
303.2202229999998
 21
73.87160899999997
 31
0.0
  0
LINE
  5
AE26
330
ADFF
100
AcDbEntity
  8
4
  6
CENTER
100
AcDbLine
 10
262.2202229999999
 20
389.871613
 30
0.0
 11
262.2202229999999
 21
283.6049389999999
 31
0.0
  0
LINE
  5
AE27
330
ADFF
100
AcDbEntity
  8
1
  6
Continuous
100
AcDbLine
 10
209.220223
 20
89.87160899999997
 30
0.0
 11
243.3228689999999
 21
89.87160899999997
 31
0.0
  0
LINE
  5
AE28
330
ADFF
100
AcDbEntity
  8
1
  6
Continuous
100
AcDbLine
 10
204.720206
 20
57.87160899999999
 30
0.0
 11
235.7202389999999
 21
57.87160899999999
 31
0.0
  0
LINE
  5
AE29
330
ADFF
100
AcDbEntity
  8
1
  6
Continuous
100
AcDbLine
 10
209.220223
 20
55.57161899999999
 30
0.0
 11
232.9409019999999
 21
55.57161899999999
 31
0.0
  0
LINE
  5
AE2A
330
ADFF
100
AcDbEntity
  8
1
  6
Continuous
100
AcDbLine
 10
209.220223
 20
92.17160900000001
 30
0.0
 11
243.3228689999999
 21
92.17160900000001
 31
0.0
  0
ARC
  5
AE2B
330
ADFF
100
AcDbEntity
  8
1
  6
Continuous
100
AcDbCircle
 10
262.2202229999999
 20
73.87160899999997
 30
0.0
 40
25.0
100
AcDbArc
 50
230.9563529999997
 51
327.3163609999998
  0
ARC
  5
AE2C
330
ADFF
100
AcDbEntity
  8
1
  6
Continuous
100
AcDbCircle
 10
129.7535629999997
 20
73.87160899999997
 30
0.0
 40
85.0
100
AcDbArc
 50
10.84078599999999
 51
10.849816
  0
ARC
  5
AE2D
330
ADFF
100
AcDbEntity
  8
1
  6
Continuous
100
AcDbCircle
 10
129.7535629999997
 20
73.87160899999997
 30
0.0
 40
85.0
100
AcDbArc
 50
349.1501839999998
 51
349.159218
  0
ARC
  5
AE2E
330
ADFF
100
AcDbEntity
  8
1
  6
Continuous
100
AcDbCircle
 10
275.6035719999999
 20
73.87161399999998
 30
0.0
 40
64.383349
100
AcDbArc
 50
165.6105589999999
 51
166.527454
  0
ARC
  5
AE2F
330
ADFF
100
AcDbEntity
  8
1
  6
Continuous
100
AcDbCircle
 10
262.2202229999999
 20
73.87160899999997
 30
0.0
 40
22.7
100
AcDbArc
 50
230.956384
 51
323.5077779999998
  0
ARC
  5
AE30
330
ADFF
100
AcDbEntity
  8
1
  6
Continuous
100
AcDbCircle
 10
262.2202229999999
 20
73.87160899999997
 30
0.0
 40
25.0
100
AcDbArc
 50
32.683639
 51
67.440155
  0
ARC
  5
AE31
330
ADFF
100
AcDbEntity
  8
1
  6
Continuous
100
AcDbCircle
 10
262.2202229999999
 20
73.87160899999997
 30
0.0
 40
22.7
100
AcDbArc
 50
36.492222
 51
68.934721
  0
ARC
  5
AE32
330
ADFF
100
AcDbEntity
  8
1
  6
Continuous
100
AcDbCircle
 10
262.2202229999999
 20
73.87160899999997
 30
0.0
 40
17.7
100
AcDbArc
 50
49.70385700000001
 51
94.919475
  0
ARC
  5
AE33
330
ADFF
100
AcDbEntity
  8
1
  6
Continuous
100
AcDbCircle
 10
262.2202229999999
 20
73.87160899999997
 30
0.0
 40
17.7
100
AcDbArc
 50
229.7038569999999
 51
310.2961429999998
  0
LINE
  5
AE34
330
ADFF
100
AcDbEntity
  8
4
  6
CENTER
100
AcDbLine
 10
137.220223
 20
236.8716089999999
 30
0.0
 11
303.2202229999998
 21
236.8716089999999
 31
0.0
  0
ARC
  5
AE35
330
ADFF
100
AcDbEntity
  8
1
  6
Continuous
100
AcDbCircle
 10
220.220223
 20
236.8716089999999
 30
0.0
 40
75.0
100
AcDbArc
 50
93.07922299999999
 51
55.396095
  0
ARC
  5
AE36
330
ADFF
100
AcDbEntity
  8
1
  6
Continuous
100
AcDbCircle
 10
220.220223
 20
236.8716089999999
 30
0.0
 40
54.5
100
AcDbArc
 50
96.289691
 51
139.480596
  0
ARC
  5
AE37
330
ADFF
100
AcDbEntity
  8
1
  6
Continuous
100
AcDbCircle
 10
220.220223
 20
236.8716089999999
 30
0.0
 40
44.0
100
AcDbArc
 50
99.12292900000002
 51
136.9303139999999
  0
ARC
  5
AE38
330
ADFF
100
AcDbEntity
  8
1
  6
Continuous
100
AcDbCircle
 10
220.220223
 20
236.8716089999999
 30
0.0
 40
50.0
100
AcDbArc
 50
97.35445
 51
138.521532
  0
LINE
  5
AE39
330
ADFF
100
AcDbEntity
  8
4
  6
CENTER
100
AcDbLine
 10
220.220223
 20
314.2043569999998
 30
0.0
 11
220.220223
 21
153.871609
 31
0.0
  0
CIRCLE
  5
AE3A
330
ADFF
100
AcDbEntity
  8
1
  6
Continuous
100
AcDbCircle
 10
580.220223
 20
236.8716089999999
 30
0.0
 40
6.25
  0
ARC
  5
AE3B
330
ADFF
100
AcDbEntity
  8
1
  6
Continuous
100
AcDbCircle
 10
220.220223
 20
236.8716089999999
 30
0.0
 40
31.0
100
AcDbArc
 50
105.42898
 51
131.278579
  0
ARC
  5
AE3C
330
ADFF
100
AcDbEntity
  8
1
  6
Continuous
100
AcDbCircle
 10
220.220223
 20
236.8716089999999
 30
0.0
 40
16.0
100
AcDbArc
 50
180.253835
 51
299.746168
  0
LINE
  5
AE3D
330
ADFF
100
AcDbEntity
  8
1
  6
Continuous
100
AcDbLine
 10
210.762066
 20
253.836144
 30
0.0
 11
216.7989439999999
 21
318.2445259999998
 31
0.0
  0
LINE
  5
AE3E
330
ADFF
100
AcDbEntity
  8
1
  6
Continuous
100
AcDbLine
 10
235.364422
 20
242.748087
 30
0.0
 11
269.7386859999999
 21
312.697958
 31
0.0
  0
CIRCLE
  5
AE3F
330
ADFF
100
AcDbEntity
  8
1
  6
Continuous
100
AcDbCircle
 10
580.220223
 20
236.8716089999999
 30
0.0
 40
1.5
  0
LINE
  5
AE40
330
ADFF
100
AcDbEntity
  8
1
  6
Continuous
100
AcDbLine
 10
241.220223
 20
320.771611
 30
0.0
 11
241.220223
 21
259.6821409999999
 31
0.0
  0
LINE
  5
AE41
330
ADFF
100
AcDbEntity
  8
1
  6
Continuous
100
AcDbLine
 10
211.2202179999999
 20
320.4716069999999
 30
0.0
 11
240.061743
 21
325.557144
 31
0.0
  0
ARC
  5
AE42
330
ADFF
100
AcDbEntity
  8
1
  6
Continuous
100
AcDbCircle
 10
214.3098529999999
 20
318.4778249999999
 30
0.0
 40
2.5
100
AcDbArc
 50
354.64542
 51
100.0000199999999
  0
ARC
  5
AE43
330
ADFF
100
AcDbEntity
  8
1
  6
Continuous
100
AcDbCircle
 10
215.774773
 20
317.923786
 30
0.0
 40
1.0
100
AcDbArc
 50
356.0
 51
100.00001
  0
LINE
  5
AE44
330
ADFF
100
AcDbEntity
  8
1
  6
Continuous
100
AcDbLine
 10
211.220227
 20
320.4716069999999
 30
0.0
 11
211.619618
 21
318.206551
 31
0.0
  0
LINE
  5
AE45
330
ADFF
100
AcDbEntity
  8
1
  6
Continuous
100
AcDbLine
 10
211.6196239999999
 20
318.2065469999999
 30
0.0
 11
215.601141
 21
318.9085959999998
 31
0.0
  0
ARC
  5
AE46
330
ADFF
100
AcDbEntity
  8
1
  6
Continuous
100
AcDbCircle
 10
283.19571
 20
306.0716080000001
 30
0.0
 40
15.0
100
AcDbArc
 50
89.99998199999996
 51
153.82993
  0
LINE
  5
AE47
330
ADFF
100
AcDbEntity
  8
1
  6
Continuous
100
AcDbLine
 10
283.19571
 20
321.0716059999998
 30
0.0
 11
287.2202229999998
 21
321.0716059999998
 31
0.0
  0
LINE
  5
AE48
330
ADFF
100
AcDbEntity
  8
1
  6
Continuous
100
AcDbLine
 10
241.220223
 20
329.971604
 30
0.0
 11
282.2202229999998
 21
329.971604
 31
0.0
  0
ARC
  5
AE49
330
ADFF
100
AcDbEntity
  8
1
  6
Continuous
100
AcDbCircle
 10
251.7790529999998
 20
331.449612
 30
0.0
 40
2.778
100
AcDbArc
 50
189.9080999999999
 51
212.1434
  0
ARC
  5
AE4A
330
ADFF
100
AcDbEntity
  8
1
  6
Continuous
100
AcDbCircle
 10
245.3078389999999
 20
331.449612
 30
0.0
 40
2.778
100
AcDbArc
 50
189.9080999999999
 51
212.1433699999999
  0
ARC
  5
AE4B
330
ADFF
100
AcDbEntity
  8
1
  6
Continuous
100
AcDbCircle
 10
247.8430789999999
 20
331.449612
 30
0.0
 40
2.778
100
AcDbArc
 50
189.9080999999999
 51
212.1434
  0
ARC
  5
AE4C
330
ADFF
100
AcDbEntity
  8
1
  6
Continuous
100
AcDbCircle
 10
244.420197
 20
331.449612
 30
0.0
 40
2.778
100
AcDbArc
 50
189.9080999999999
 51
212.1433699999999
  0
ARC
  5
AE4D
330
ADFF
100
AcDbEntity
  8
1
  6
Continuous
100
AcDbCircle
 10
267.708123
 20
331.449612
 30
0.0
 40
2.778
100
AcDbArc
 50
189.90804
 51
212.1434
  0
ARC
  5
AE4E
330
ADFF
100
AcDbEntity
  8
1
  6
Continuous
100
AcDbCircle
 10
256.732293
 20
331.449612
 30
0.0
 40
2.778
100
AcDbArc
 50
189.9080999999999
 51
212.1434
  0
ARC
  5
AE4F
330
ADFF
100
AcDbEntity
  8
1
  6
Continuous
100
AcDbCircle
 10
256.732293
 20
331.449612
 30
0.0
 40
2.778
100
AcDbArc
 50
327.8565799999999
 51
350.0919899999999
  0
ARC
  5
AE50
330
ADFF
100
AcDbEntity
  8
1
  6
Continuous
100
AcDbCircle
 10
262.220208
 20
331.449612
 30
0.0
 40
2.778
100
AcDbArc
 50
189.9080999999999
 51
212.1434
  0
ARC
  5
AE51
330
ADFF
100
AcDbEntity
  8
1
  6
Continuous
100
AcDbCircle
 10
262.220208
 20
331.449612
 30
0.0
 40
2.778
100
AcDbArc
 50
327.8565799999999
 51
350.09193
  0
ARC
  5
AE52
330
ADFF
100
AcDbEntity
  8
1
  6
Continuous
100
AcDbCircle
 10
267.708123
 20
331.449612
 30
0.0
 40
2.778
100
AcDbArc
 50
327.8565799999999
 51
350.09193
  0
ARC
  5
AE53
330
ADFF
100
AcDbEntity
  8
1
  6
Continuous
100
AcDbCircle
 10
272.661362
 20
331.449612
 30
0.0
 40
2.778
100
AcDbArc
 50
327.8565799999999
 51
350.09193
  0
ARC
  5
AE54
330
ADFF
100
AcDbEntity
  8
1
  6
Continuous
100
AcDbCircle
 10
276.5973359999999
 20
331.449612
 30
0.0
 40
2.778
100
AcDbArc
 50
327.85663
 51
350.09193
  0
ARC
  5
AE55
330
ADFF
100
AcDbEntity
  8
1
  6
Continuous
100
AcDbCircle
 10
279.132577
 20
331.449612
 30
0.0
 40
2.778
100
AcDbArc
 50
327.85663
 51
350.09193
  0
ARC
  5
AE56
330
ADFF
100
AcDbEntity
  8
1
  6
Continuous
100
AcDbCircle
 10
280.0202179999999
 20
331.449612
 30
0.0
 40
2.778
100
AcDbArc
 50
327.85663
 51
350.09193
  0
LINE
  5
AE57
330
ADFF
100
AcDbEntity
  8
1
  6
Continuous
100
AcDbLine
 10
72.220223
 20
228.5872759999997
 30
0.0
 11
72.220223
 21
249.413571
 31
0.0
  0
LINE
  5
AE58
330
ADFF
100
AcDbEntity
  8
1
  6
Continuous
100
AcDbLine
 10
43.720223
 20
164.851099
 30
0.0
 11
43.720223
 21
308.892124
 31
0.0
  0
LINE
  5
AE59
330
ADFF
100
AcDbEntity
  8
1
  6
Continuous
100
AcDbLine
 10
70.720223
 20
164.851099
 30
0.0
 11
70.720223
 21
308.892124
 31
0.0
  0
LINE
  5
AE5A
330
ADFF
100
AcDbEntity
  8
1
  6
Continuous
100
AcDbLine
 10
75.520223
 20
318.0279509999998
 30
0.0
 11
75.520223
 21
217.100704
 31
0.0
  0
LINE
  5
AE5B
330
ADFF
100
AcDbEntity
  8
1
  6
Continuous
100
AcDbLine
 10
38.920233
 20
318.0279509999998
 30
0.0
 11
38.920233
 21
242.2247749999999
 31
0.0
  0
LINE
  5
AE5C
330
ADFF
100
AcDbEntity
  8
1
  6
Continuous
100
AcDbLine
 10
41.220223
 20
318.078213
 30
0.0
 11
41.220223
 21
243.304796
 31
0.0
  0
LINE
  5
AE5D
330
ADFF
100
AcDbEntity
  8
1
  6
Continuous
100
AcDbLine
 10
73.220223
 20
318.078213
 30
0.0
 11
73.220223
 21
259.0872759999999
 31
0.0
  0
LINE
  5
AE5E
330
ADFF
100
AcDbEntity
  8
4
  6
CENTER
100
AcDbLine
 10
26.92023300000001
 20
236.8716089999999
 30
0.0
 11
97.921802
 21
236.8716089999999
 31
0.0
  0
ARC
  5
AE5F
330
ADFF
100
AcDbEntity
  8
1
  6
Continuous
100
AcDbCircle
 10
57.22022299999999
 20
231.8716089999998
 30
0.0
 40
70.0
100
AcDbArc
 50
260.26341
 51
279.7365199999999
  0
ARC
  5
AE60
330
ADFF
100
AcDbEntity
  8
1
  6
Continuous
100
AcDbCircle
 10
45.72022299999999
 20
164.851099
 30
0.0
 40
2.0
100
AcDbArc
 50
179.9999799999999
 51
260.2634299999999
  0
LINE
  5
AE61
330
ADFF
100
AcDbEntity
  8
1
  6
Continuous
100
AcDbLine
 10
38.920233
 20
225.8716089999999
 30
0.0
 11
41.220223
 21
225.8716089999999
 31
0.0
  0
ARC
  5
AE62
330
ADFF
100
AcDbEntity
  8
1
  6
Continuous
100
AcDbCircle
 10
68.72022300000001
 20
164.851099
 30
0.0
 40
2.0
100
AcDbArc
 50
279.73649
 51
359.99995
  0
ARC
  5
AE63
330
ADFF
100
AcDbEntity
  8
1
  6
Continuous
100
AcDbCircle
 10
69.220223
 20
224.329647
 30
0.0
 40
3.0
100
AcDbArc
 50
300.00001
 51
356.793838
  0
LINE
  5
AE64
330
ADFF
100
AcDbEntity
  8
1
  6
Continuous
100
AcDbLine
 10
72.220223
 20
232.8716089999999
 30
0.0
 11
73.220223
 21
232.8716089999999
 31
0.0
  0
ARC
  5
AE65
330
ADFF
100
AcDbEntity
  8
1
  6
Continuous
100
AcDbCircle
 10
57.22022299999999
 20
241.8716089999997
 30
0.0
 40
70.0
100
AcDbArc
 50
80.26348
 51
99.736594
  0
ARC
  5
AE66
330
ADFF
100
AcDbEntity
  8
1
  6
Continuous
100
AcDbCircle
 10
57.22022299999999
 20
453.573819
 30
0.0
 40
128.4999999999998
100
AcDbArc
 50
262.8473099999999
 51
277.1526699999999
  0
ARC
  5
AE67
330
ADFF
100
AcDbEntity
  8
1
  6
Continuous
100
AcDbCircle
 10
57.22022299999999
 20
446.7065589999998
 30
0.0
 40
128.4999999999998
100
AcDbArc
 50
263.34847
 51
276.6515099999999
  0
ARC
  5
AE68
330
ADFF
100
AcDbEntity
  8
1
  6
Continuous
100
AcDbCircle
 10
57.22022299999999
 20
448.971599
 30
0.0
 40
128.4999999999998
100
AcDbArc
 50
263.46506
 51
276.53492
  0
LINE
  5
AE69
330
ADFF
100
AcDbEntity
  8
1
  6
Continuous
100
AcDbLine
 10
37.22022299999999
 20
329.9716
 30
0.0
 11
77.220223
 21
329.9716
 31
0.0
  0
ARC
  5
AE6A
330
ADFF
100
AcDbEntity
  8
1
  6
Continuous
100
AcDbCircle
 10
37.22022299999999
 20
324.9716
 30
0.0
 40
5.0
100
AcDbArc
 50
89.99998199999996
 51
179.9999599999999
  0
ARC
  5
AE6B
330
ADFF
100
AcDbEntity
  8
1
  6
Continuous
100
AcDbCircle
 10
177.2202229999997
 20
297.398272
 30
0.0
 40
145.0
100
AcDbArc
 50
179.9999799999999
 51
197.4854799999997
  0
LINE
  5
AE6C
330
ADFF
100
AcDbEntity
  8
1
  6
Continuous
100
AcDbLine
 10
32.22022299999999
 20
324.9716
 30
0.0
 11
32.22022299999999
 21
297.398272
 31
0.0
  0
ARC
  5
AE6D
330
ADFF
100
AcDbEntity
  8
1
  6
Continuous
100
AcDbCircle
 10
42.22022299999999
 20
318.078213
 30
0.0
 40
1.0
100
AcDbArc
 50
83.348539
 51
179.9999599999999
  0
ARC
  5
AE6E
330
ADFF
100
AcDbEntity
  8
1
  6
Continuous
100
AcDbCircle
 10
42.220243
 20
318.0279509999998
 30
0.0
 40
3.299999999999998
100
AcDbArc
 50
83.465158
 51
179.9999599999999
  0
ARC
  5
AE6F
330
ADFF
100
AcDbEntity
  8
1
  6
Continuous
100
AcDbCircle
 10
45.72022299999999
 20
308.892124
 30
0.0
 40
2.0
100
AcDbArc
 50
99.73656
 51
180.00002
  0
ARC
  5
AE70
330
ADFF
100
AcDbEntity
  8
1
  6
Continuous
100
AcDbCircle
 10
40.30784299999999
 20
331.449612
 30
0.0
 40
2.778
100
AcDbArc
 50
189.9080999999999
 51
212.14351
  0
ARC
  5
AE71
330
ADFF
100
AcDbEntity
  8
1
  6
Continuous
100
AcDbCircle
 10
42.843083
 20
331.449612
 30
0.0
 40
2.778
100
AcDbArc
 50
189.9080999999999
 51
212.14351
  0
ARC
  5
AE72
330
ADFF
100
AcDbEntity
  8
1
  6
Continuous
100
AcDbCircle
 10
39.420203
 20
331.449612
 30
0.0
 40
2.778
100
AcDbArc
 50
189.9080999999999
 51
212.14351
  0
ARC
  5
AE73
330
ADFF
100
AcDbEntity
  8
1
  6
Continuous
100
AcDbCircle
 10
46.779063
 20
331.449612
 30
0.0
 40
2.778
100
AcDbArc
 50
327.8564799999998
 51
333.0638399999999
  0
ARC
  5
AE74
330
ADFF
100
AcDbEntity
  8
1
  6
Continuous
100
AcDbCircle
 10
51.732293
 20
331.449612
 30
0.0
 40
2.778
100
AcDbArc
 50
189.9080999999999
 51
212.14351
  0
ARC
  5
AE75
330
ADFF
100
AcDbEntity
  8
1
  6
Continuous
100
AcDbCircle
 10
46.779063
 20
331.449612
 30
0.0
 40
2.778
100
AcDbArc
 50
189.9080999999999
 51
212.14351
  0
ARC
  5
AE76
330
ADFF
100
AcDbEntity
  8
1
  6
Continuous
100
AcDbCircle
 10
51.732293
 20
331.449612
 30
0.0
 40
2.778
100
AcDbArc
 50
327.8564799999998
 51
350.0919899999999
  0
ARC
  5
AE77
330
ADFF
100
AcDbEntity
  8
1
  6
Continuous
100
AcDbCircle
 10
57.220203
 20
331.449612
 30
0.0
 40
2.778
100
AcDbArc
 50
189.9080999999999
 51
212.14351
  0
ARC
  5
AE78
330
ADFF
100
AcDbEntity
  8
1
  6
Continuous
100
AcDbCircle
 10
77.220223
 20
324.9716
 30
0.0
 40
5.0
100
AcDbArc
 50
0.0
 51
89.99998199999996
  0
ARC
  5
AE79
330
ADFF
100
AcDbEntity
  8
1
  6
Continuous
100
AcDbCircle
 10
-62.779777
 20
297.398272
 30
0.0
 40
145.0
100
AcDbArc
 50
350.064268
 51
0.0
  0
LINE
  5
AE7A
330
ADFF
100
AcDbEntity
  8
1
  6
Continuous
100
AcDbLine
 10
72.220223
 20
240.8716089999999
 30
0.0
 11
73.220223
 21
240.8716089999999
 31
0.0
  0
ARC
  5
AE7B
330
ADFF
100
AcDbEntity
  8
1
  6
Continuous
100
AcDbCircle
 10
69.220223
 20
249.413571
 30
0.0
 40
3.0
100
AcDbArc
 50
0.000055
 51
59.999995
  0
LINE
  5
AE7C
330
ADFF
100
AcDbEntity
  8
1
  6
Continuous
100
AcDbLine
 10
82.220223
 20
324.9716
 30
0.0
 11
82.220223
 21
297.398272
 31
0.0
  0
ARC
  5
AE7D
330
ADFF
100
AcDbEntity
  8
1
  6
Continuous
100
AcDbCircle
 10
72.220223
 20
318.0279509999998
 30
0.0
 40
3.299999999999998
100
AcDbArc
 50
0.0
 51
96.53486100000002
  0
ARC
  5
AE7E
330
ADFF
100
AcDbEntity
  8
1
  6
Continuous
100
AcDbCircle
 10
68.72022300000001
 20
308.892124
 30
0.0
 40
2.0
100
AcDbArc
 50
0.000055
 51
80.26351299999998
  0
ARC
  5
AE7F
330
ADFF
100
AcDbEntity
  8
1
  6
Continuous
100
AcDbCircle
 10
72.220223
 20
318.078213
 30
0.0
 40
1.0
100
AcDbArc
 50
0.0
 51
96.65148000000002
  0
ARC
  5
AE80
330
ADFF
100
AcDbEntity
  8
1
  6
Continuous
100
AcDbCircle
 10
67.66135300000001
 20
331.449612
 30
0.0
 40
2.778
100
AcDbArc
 50
206.9362
 51
212.14351
  0
ARC
  5
AE81
330
ADFF
100
AcDbEntity
  8
1
  6
Continuous
100
AcDbCircle
 10
62.708123
 20
331.449612
 30
0.0
 40
2.778
100
AcDbArc
 50
327.8564799999998
 51
350.09193
  0
ARC
  5
AE82
330
ADFF
100
AcDbEntity
  8
1
  6
Continuous
100
AcDbCircle
 10
62.708123
 20
331.449612
 30
0.0
 40
2.778
100
AcDbArc
 50
189.90804
 51
212.14351
  0
ARC
  5
AE83
330
ADFF
100
AcDbEntity
  8
1
  6
Continuous
100
AcDbCircle
 10
57.220203
 20
331.449612
 30
0.0
 40
2.778
100
AcDbArc
 50
327.8564799999998
 51
350.09193
  0
ARC
  5
AE84
330
ADFF
100
AcDbEntity
  8
1
  6
Continuous
100
AcDbCircle
 10
67.66135300000001
 20
331.449612
 30
0.0
 40
2.778
100
AcDbArc
 50
327.8564799999998
 51
350.09193
  0
ARC
  5
AE85
330
ADFF
100
AcDbEntity
  8
1
  6
Continuous
100
AcDbCircle
 10
74.13257299999997
 20
331.449612
 30
0.0
 40
2.778
100
AcDbArc
 50
327.8564799999998
 51
350.09193
  0
ARC
  5
AE86
330
ADFF
100
AcDbEntity
  8
1
  6
Continuous
100
AcDbCircle
 10
71.59733299999998
 20
331.449612
 30
0.0
 40
2.778
100
AcDbArc
 50
327.8564799999998
 51
350.09193
  0
ARC
  5
AE87
330
ADFF
100
AcDbEntity
  8
1
  6
Continuous
100
AcDbCircle
 10
75.020213
 20
331.449612
 30
0.0
 40
2.778
100
AcDbArc
 50
327.80113
 51
350.09193
  0
LINE
  5
AE88
330
ADFF
100
AcDbEntity
  8
1
  6
Continuous
100
AcDbLine
 10
287.2202229999998
 20
324.971604
 30
0.0
 11
287.2202229999998
 21
321.0716059999998
 31
0.0
  0
ARC
  5
AE89
330
ADFF
100
AcDbEntity
  8
1
  6
Continuous
100
AcDbCircle
 10
282.2202229999998
 20
324.971604
 30
0.0
 40
5.0
100
AcDbArc
 50
0.0
 51
90.0
  0
ARC
  5
AE8A
330
ADFF
100
AcDbEntity
  8
1
  6
Continuous
100
AcDbCircle
 10
242.2202229999999
 20
324.971604
 30
0.0
 40
5.0
100
AcDbArc
 50
90.0
 51
180.0
  0
LINE
  5
AE8B
330
ADFF
100
AcDbEntity
  8
4
  6
CENTER
100
AcDbLine
 10
220.220223
 20
44.371609
 30
0.0
 11
220.220223
 21
114.073609
 31
0.0
  0
LINE
  5
AE8C
330
ADFF
100
AcDbEntity
  8
1
  6
Continuous
100
AcDbLine
 10
292.240733
 20
87.37160899999997
 30
0.0
 11
148.199708
 21
87.37160899999997
 31
0.0
  0
LINE
  5
AE8D
330
ADFF
100
AcDbEntity
  8
1
  6
Continuous
100
AcDbLine
 10
292.240733
 20
60.37160899999999
 30
0.0
 11
148.199708
 21
60.37160899999999
 31
0.0
  0
ARC
  5
AE8E
330
ADFF
100
AcDbEntity
  8
1
  6
Continuous
100
AcDbCircle
 10
215.2202229999998
 20
73.87160899999997
 30
0.0
 40
70.0
100
AcDbArc
 50
170.26348
 51
189.7365939999999
  0
ARC
  5
AE8F
330
ADFF
100
AcDbEntity
  8
1
  6
Continuous
100
AcDbCircle
 10
148.199708
 20
62.371609
 30
0.0
 40
2.0
100
AcDbArc
 50
189.73656
 51
270.00002
  0
ARC
  5
AE90
330
ADFF
100
AcDbEntity
  8
1
  6
Continuous
100
AcDbCircle
 10
148.199708
 20
85.37160899999998
 30
0.0
 40
2.0
100
AcDbArc
 50
90.00005499999994
 51
170.2635129999999
  0
ARC
  5
AE91
330
ADFF
100
AcDbEntity
  8
1
  6
Continuous
100
AcDbCircle
 10
225.2202229999999
 20
73.87160899999997
 30
0.0
 40
70.0
100
AcDbArc
 50
350.26341
 51
9.73652
  0
ARC
  5
AE92
330
ADFF
100
AcDbEntity
  8
1
  6
Continuous
100
AcDbCircle
 10
292.240733
 20
62.371609
 30
0.0
 40
2.0
100
AcDbArc
 50
269.99998
 51
350.2634299999999
  0
LINE
  5
AE93
330
ADFF
100
AcDbEntity
  8
1
  6
Continuous
100
AcDbLine
 10
232.7621849999999
 20
88.87160899999996
 30
0.0
 11
207.874804
 21
88.87160899999996
 31
0.0
  0
ARC
  5
AE94
330
ADFF
100
AcDbEntity
  8
1
  6
Continuous
100
AcDbCircle
 10
207.6782609999999
 20
85.87160899999998
 30
0.0
 40
3.0
100
AcDbArc
 50
125.826498
 51
149.9999949999998
  0
LINE
  5
AE95
330
ADFF
100
AcDbEntity
  8
1
  6
Continuous
100
AcDbLine
 10
216.220223
 20
88.87160899999996
 30
0.0
 11
216.220223
 21
89.87160899999997
 31
0.0
  0
LINE
  5
AE96
330
ADFF
100
AcDbEntity
  8
1
  6
Continuous
100
AcDbLine
 10
224.220223
 20
88.87160899999996
 30
0.0
 11
224.220223
 21
89.87160899999997
 31
0.0
  0
ARC
  5
AE97
330
ADFF
100
AcDbEntity
  8
1
  6
Continuous
100
AcDbCircle
 10
232.7621849999999
 20
85.87160899999998
 30
0.0
 40
3.0
100
AcDbArc
 50
30.00001
 51
89.99995000000001
  0
ARC
  5
AE98
330
ADFF
100
AcDbEntity
  8
1
  6
Continuous
100
AcDbCircle
 10
292.240733
 20
85.37160899999998
 30
0.0
 40
2.0
100
AcDbArc
 50
9.736489999999999
 51
89.99995000000001
  0
LINE
  5
AE99
330
ADFF
100
AcDbEntity
  8
1
  6
Continuous
100
AcDbLine
 10
209.220223
 20
92.17160900000001
 30
0.0
 11
209.220223
 21
89.87160899999997
 31
0.0
  0
LINE
  5
AE9A
330
ADFF
100
AcDbEntity
  8
1
  6
Continuous
100
AcDbLine
 10
209.220223
 20
57.87160899999999
 30
0.0
 11
209.220223
 21
55.57161899999999
 31
0.0
  0
ARC
  5
AE9B
330
ADFF
100
AcDbEntity
  8
1
  6
Continuous
100
AcDbCircle
 10
262.2202229999999
 20
73.87160899999997
 30
0.0
 40
27.500023
100
AcDbArc
 50
29.400324
 51
67.27038399999999
  0
LINE
  5
AE9C
330
ADFF
100
AcDbEntity
  8
4
  6
CENTER
100
AcDbLine
 10
220.220223
 20
505.3715789999998
 30
0.0
 11
220.220223
 21
435.6696089999998
 31
0.0
  0
LINE
  5
AE9D
330
ADFF
100
AcDbEntity
  8
1
  6
Continuous
100
AcDbLine
 10
212.991948
 20
460.8716089999998
 30
0.0
 11
209.0248169999999
 21
460.8716089999998
 31
0.0
  0
LINE
  5
AEA2
330
ADFF
100
AcDbEntity
  8
4
  6
CENTER
100
AcDbLine
 10
400.2202229999999
 20
389.871613
 30
0.0
 11
400.2202229999999
 21
156.871609
 31
0.0
  0
LINE
  5
AEA3
330
ADFF
100
AcDbEntity
  8
1
  6
Continuous
100
AcDbLine
 10
386.7202229999999
 20
164.851099
 30
0.0
 11
386.7202229999999
 21
308.892124
 31
0.0
  0
LINE
  5
AEA4
330
ADFF
100
AcDbEntity
  8
1
  6
Continuous
100
AcDbLine
 10
413.7202229999998
 20
164.851099
 30
0.0
 11
413.7202229999998
 21
308.892124
 31
0.0
  0
ARC
  5
AEA5
330
ADFF
100
AcDbEntity
  8
1
  6
Continuous
100
AcDbCircle
 10
400.2202229999999
 20
231.8716089999998
 30
0.0
 40
70.0
100
AcDbArc
 50
260.2634799999999
 51
279.7365899999999
  0
ARC
  5
AEA6
330
ADFF
100
AcDbEntity
  8
1
  6
Continuous
100
AcDbCircle
 10
411.720223
 20
164.851099
 30
0.0
 40
2.0
100
AcDbArc
 50
279.7365699999999
 51
0.00002
  0
ARC
  5
AEA7
330
ADFF
100
AcDbEntity
  8
1
  6
Continuous
100
AcDbCircle
 10
388.7202229999999
 20
164.851099
 30
0.0
 40
2.0
100
AcDbArc
 50
180.0000499999999
 51
260.26351
  0
LINE
  5
AEA8
330
ADFF
100
AcDbEntity
  8
1
  6
Continuous
100
AcDbLine
 10
384.2202229999998
 20
318.0782109999999
 30
0.0
 11
384.2202229999998
 21
228.4885299999999
 31
0.0
  0
LINE
  5
AEA9
330
ADFF
100
AcDbEntity
  8
1
  6
Continuous
100
AcDbLine
 10
416.220223
 20
318.0782109999999
 30
0.0
 11
416.220223
 21
238.198296
 31
0.0
  0
LINE
  5
AEAA
330
ADFF
100
AcDbEntity
  8
1
  6
Continuous
100
AcDbLine
 10
418.520213
 20
262.4312629999999
 30
0.0
 11
418.520213
 21
237.9755649999999
 31
0.0
  0
LINE
  5
AEAB
330
ADFF
100
AcDbEntity
  8
1
  6
Continuous
100
AcDbLine
 10
381.920223
 20
262.431288
 30
0.0
 11
381.920223
 21
228.4885299999999
 31
0.0
  0
LINE
  5
AEAC
330
ADFF
100
AcDbEntity
  8
4
  6
CENTER
100
AcDbLine
 10
430.520213
 20
236.8716089999999
 30
0.0
 11
360.0182229999999
 21
236.8716089999999
 31
0.0
  0
LINE
  5
AEAD
330
ADFF
100
AcDbEntity
  8
1
  6
Continuous
100
AcDbLine
 10
418.520213
 20
225.8716089999999
 30
0.0
 11
416.220223
 21
225.8716089999999
 31
0.0
  0
LINE
  5
AEAE
330
ADFF
100
AcDbEntity
  8
1
  6
Continuous
100
AcDbLine
 10
385.2202229999999
 20
226.038569
 30
0.0
 11
385.2202229999999
 21
249.413571
 31
0.0
  0
ARC
  5
AEAF
330
ADFF
100
AcDbEntity
  8
1
  6
Continuous
100
AcDbCircle
 10
388.2202229999998
 20
224.329647
 30
0.0
 40
3.0
100
AcDbArc
 50
184.7273389999998
 51
239.99999
  0
LINE
  5
AEB0
330
ADFF
100
AcDbEntity
  8
1
  6
Continuous
100
AcDbLine
 10
385.2202229999999
 20
232.8716089999999
 30
0.0
 11
384.2202229999998
 21
232.8716089999999
 31
0.0
  0
LINE
  5
AEB1
330
ADFF
100
AcDbEntity
  8
1
  6
Continuous
100
AcDbLine
 10
385.2202229999999
 20
240.8716089999999
 30
0.0
 11
384.2202229999998
 21
240.8716089999999
 31
0.0
  0
ARC
  5
AEB2
330
ADFF
100
AcDbEntity
  8
1
  6
Continuous
100
AcDbCircle
 10
388.2202229999998
 20
249.413571
 30
0.0
 40
3.0
100
AcDbArc
 50
120.000005
 51
179.999945
  0
ARC
  5
AEB3
330
ADFF
100
AcDbEntity
  8
1
  6
Continuous
100
AcDbCircle
 10
400.2202229999999
 20
241.8716089999997
 30
0.0
 40
70.0
100
AcDbArc
 50
80.26340600000002
 51
99.73652000000001
  0
LINE
  5
AEB4
330
ADFF
100
AcDbEntity
  8
1
  6
Continuous
100
AcDbLine
 10
420.220223
 20
329.9716
 30
0.0
 11
380.2202229999999
 21
329.9716
 31
0.0
  0
ARC
  5
AEB5
330
ADFF
100
AcDbEntity
  8
1
  6
Continuous
100
AcDbCircle
 10
420.220223
 20
324.9716
 30
0.0
 40
5.0
100
AcDbArc
 50
0.00004
 51
90.00001800000005
  0
LINE
  5
AEB6
330
ADFF
100
AcDbEntity
  8
1
  6
Continuous
100
AcDbLine
 10
425.2202229999999
 20
324.9716
 30
0.0
 11
425.2202229999999
 21
297.3982689999999
 31
0.0
  0
ARC
  5
AEB7
330
ADFF
100
AcDbEntity
  8
1
  6
Continuous
100
AcDbCircle
 10
411.720223
 20
308.892124
 30
0.0
 40
2.0
100
AcDbArc
 50
359.9999799999998
 51
80.26343999999998
  0
ARC
  5
AEB8
330
ADFF
100
AcDbEntity
  8
1
  6
Continuous
100
AcDbCircle
 10
410.6613829999998
 20
331.449612
 30
0.0
 40
2.778
100
AcDbArc
 50
327.85649
 51
350.0919
  0
ARC
  5
AEB9
330
ADFF
100
AcDbEntity
  8
1
  6
Continuous
100
AcDbCircle
 10
418.0202429999998
 20
331.449612
 30
0.0
 40
2.778
100
AcDbArc
 50
327.85649
 51
350.0919
  0
ARC
  5
AEBA
330
ADFF
100
AcDbEntity
  8
1
  6
Continuous
100
AcDbCircle
 10
414.5973629999998
 20
331.449612
 30
0.0
 40
2.778
100
AcDbArc
 50
327.85649
 51
350.0919
  0
ARC
  5
AEBB
330
ADFF
100
AcDbEntity
  8
1
  6
Continuous
100
AcDbCircle
 10
417.1326029999998
 20
331.449612
 30
0.0
 40
2.778
100
AcDbArc
 50
327.85649
 51
350.0919
  0
ARC
  5
AEBC
330
ADFF
100
AcDbEntity
  8
1
  6
Continuous
100
AcDbCircle
 10
400.2202429999998
 20
331.449612
 30
0.0
 40
2.778
100
AcDbArc
 50
189.90807
 51
212.14352
  0
ARC
  5
AEBD
330
ADFF
100
AcDbEntity
  8
1
  6
Continuous
100
AcDbCircle
 10
394.732323
 20
331.449612
 30
0.0
 40
2.778
100
AcDbArc
 50
327.85649
 51
350.0919599999999
  0
ARC
  5
AEBE
330
ADFF
100
AcDbEntity
  8
1
  6
Continuous
100
AcDbCircle
 10
400.2202429999998
 20
331.449612
 30
0.0
 40
2.778
100
AcDbArc
 50
327.85649
 51
350.0919
  0
ARC
  5
AEBF
330
ADFF
100
AcDbEntity
  8
1
  6
Continuous
100
AcDbCircle
 10
405.7081529999998
 20
331.449612
 30
0.0
 40
2.778
100
AcDbArc
 50
189.9080099999999
 51
212.14352
  0
ARC
  5
AEC0
330
ADFF
100
AcDbEntity
  8
1
  6
Continuous
100
AcDbCircle
 10
405.7081529999998
 20
331.449612
 30
0.0
 40
2.778
100
AcDbArc
 50
327.85649
 51
350.0919
  0
ARC
  5
AEC1
330
ADFF
100
AcDbEntity
  8
1
  6
Continuous
100
AcDbCircle
 10
410.6613829999998
 20
331.449612
 30
0.0
 40
2.778
100
AcDbArc
 50
206.93616
 51
212.14352
  0
ARC
  5
AEC2
330
ADFF
100
AcDbEntity
  8
1
  6
Continuous
100
AcDbCircle
 10
380.2202229999999
 20
324.9716
 30
0.0
 40
5.0
100
AcDbArc
 50
90.00001800000005
 51
180.0
  0
ARC
  5
AEC3
330
ADFF
100
AcDbEntity
  8
1
  6
Continuous
100
AcDbCircle
 10
388.7202229999999
 20
308.892124
 30
0.0
 40
2.0
100
AcDbArc
 50
99.736487
 51
179.999945
  0
ARC
  5
AEC4
330
ADFF
100
AcDbEntity
  8
1
  6
Continuous
100
AcDbCircle
 10
382.4202329999998
 20
331.449612
 30
0.0
 40
2.778
100
AcDbArc
 50
189.90807
 51
212.19887
  0
ARC
  5
AEC5
330
ADFF
100
AcDbEntity
  8
1
  6
Continuous
100
AcDbCircle
 10
385.8431129999999
 20
331.449612
 30
0.0
 40
2.778
100
AcDbArc
 50
189.90807
 51
212.14352
  0
ARC
  5
AEC6
330
ADFF
100
AcDbEntity
  8
1
  6
Continuous
100
AcDbCircle
 10
383.307873
 20
331.449612
 30
0.0
 40
2.778
100
AcDbArc
 50
189.90807
 51
212.14352
  0
ARC
  5
AEC7
330
ADFF
100
AcDbEntity
  8
1
  6
Continuous
100
AcDbCircle
 10
389.7790929999999
 20
331.449612
 30
0.0
 40
2.778
100
AcDbArc
 50
189.90807
 51
212.14352
  0
ARC
  5
AEC8
330
ADFF
100
AcDbEntity
  8
1
  6
Continuous
100
AcDbCircle
 10
394.732323
 20
331.449612
 30
0.0
 40
2.778
100
AcDbArc
 50
189.90807
 51
212.14352
  0
ARC
  5
AEC9
330
ADFF
100
AcDbEntity
  8
1
  6
Continuous
100
AcDbCircle
 10
389.7790929999999
 20
331.449612
 30
0.0
 40
2.778
100
AcDbArc
 50
327.85649
 51
333.0638
  0
ARC
  5
AECA
330
ADFF
100
AcDbEntity
  8
1
  6
Continuous
100
AcDbCircle
 10
400.2202229999999
 20
446.7065569999999
 30
0.0
 40
128.4999999999998
100
AcDbArc
 50
263.3484899999999
 51
276.65153
  0
ARC
  5
AECB
330
ADFF
100
AcDbEntity
  8
1
  6
Continuous
100
AcDbCircle
 10
400.2202229999999
 20
448.9715969999998
 30
0.0
 40
128.4999999999998
100
AcDbArc
 50
264.460965
 51
275.539035
  0
LINE
  5
AECC
330
ADFF
100
AcDbEntity
  8
1
  6
Continuous
100
AcDbLine
 10
379.821329
 20
321.0716059999998
 30
0.0
 11
420.619117
 21
321.0716059999998
 31
0.0
  0
ARC
  5
AECD
330
ADFF
100
AcDbEntity
  8
1
  6
Continuous
100
AcDbCircle
 10
385.2202229999999
 20
318.0782109999999
 30
0.0
 40
1.0
100
AcDbArc
 50
83.34851999999996
 51
180.0
  0
ARC
  5
AECE
330
ADFF
100
AcDbEntity
  8
1
  6
Continuous
100
AcDbCircle
 10
415.2202229999998
 20
318.0782109999999
 30
0.0
 40
1.0
100
AcDbArc
 50
0.00004
 51
96.65146100000001
  0
LINE
  5
AECF
330
ADFF
100
AcDbEntity
  8
1
  6
Continuous
100
AcDbLine
 10
375.2202229999999
 20
324.9716
 30
0.0
 11
375.2202229999999
 21
297.3982689999999
 31
0.0
  0
ARC
  5
AED0
330
ADFF
100
AcDbEntity
  8
1
  6
Continuous
100
AcDbCircle
 10
580.220223
 20
236.8716089999999
 30
0.0
 40
75.0
100
AcDbArc
 50
124.603905
 51
86.920777
  0
ARC
  5
AED1
330
ADFF
100
AcDbEntity
  8
1
  6
Continuous
100
AcDbCircle
 10
580.220223
 20
236.8716089999999
 30
0.0
 40
54.5
100
AcDbArc
 50
127.8143669999999
 51
83.71030899999999
  0
ARC
  5
AED2
330
ADFF
100
AcDbEntity
  8
1
  6
Continuous
100
AcDbCircle
 10
580.220223
 20
236.8716089999999
 30
0.0
 40
44.0
100
AcDbArc
 50
130.647611
 51
80.87707100000001
  0
ARC
  5
AED3
330
ADFF
100
AcDbEntity
  8
1
  6
Continuous
100
AcDbCircle
 10
580.220223
 20
236.8716089999999
 30
0.0
 40
50.0
100
AcDbArc
 50
128.8791389999997
 51
82.64554999999999
  0
LINE
  5
AED4
330
ADFF
100
AcDbEntity
  8
1
  6
Continuous
100
AcDbLine
 10
567.413187
 20
237.9920789999999
 30
0.0
 11
530.7070620000001
 21
312.6871679999998
 31
0.0
  0
LINE
  5
AED5
330
ADFF
100
AcDbEntity
  8
1
  6
Continuous
100
AcDbLine
 10
559.220223
 20
329.971604
 30
0.0
 11
518.220223
 21
329.971604
 31
0.0
  0
LINE
  5
AED6
330
ADFF
100
AcDbEntity
  8
4
  6
CENTER
100
AcDbLine
 10
580.220223
 20
314.2043569999998
 30
0.0
 11
580.220223
 21
153.871609
 31
0.0
  0
ARC
  5
AED7
330
ADFF
100
AcDbEntity
  8
1
  6
Continuous
100
AcDbCircle
 10
580.220223
 20
236.8716089999999
 30
0.0
 40
31.0
100
AcDbArc
 50
136.953652
 51
74.57101999999998
  0
LINE
  5
AED8
330
ADFF
100
AcDbEntity
  8
1
  6
Continuous
100
AcDbLine
 10
590.80578
 20
241.807735
 30
0.0
 11
583.6415019999996
 21
318.2445259999998
 31
0.0
  0
LINE
  5
AED9
330
ADFF
100
AcDbEntity
  8
1
  6
Continuous
100
AcDbLine
 10
559.220223
 20
320.771611
 30
0.0
 11
559.220223
 21
259.6821409999999
 31
0.0
  0
ARC
  5
AEDA
330
ADFF
100
AcDbEntity
  8
1
  6
Continuous
100
AcDbCircle
 10
580.220223
 20
236.8716089999999
 30
0.0
 40
11.0
100
AcDbArc
 50
209.31727
 51
5.35458
  0
LINE
  5
AEDB
330
ADFF
100
AcDbEntity
  8
1
  6
Continuous
100
AcDbLine
 10
589.220228
 20
320.4716069999999
 30
0.0
 11
560.3787029999998
 21
325.557144
 31
0.0
  0
ARC
  5
AEDC
330
ADFF
100
AcDbEntity
  8
1
  6
Continuous
100
AcDbCircle
 10
586.1305929999997
 20
318.4778249999999
 30
0.0
 40
2.5
100
AcDbArc
 50
79.99997999999997
 51
185.3545799999999
  0
ARC
  5
AEDD
330
ADFF
100
AcDbEntity
  8
1
  6
Continuous
100
AcDbCircle
 10
584.6656730000002
 20
317.923786
 30
0.0
 40
1.0
100
AcDbArc
 50
79.99998999999998
 51
183.9999999999998
  0
LINE
  5
AEDE
330
ADFF
100
AcDbEntity
  8
1
  6
Continuous
100
AcDbLine
 10
589.220219
 20
320.4716069999999
 30
0.0
 11
588.8208279999997
 21
318.206551
 31
0.0
  0
LINE
  5
AEDF
330
ADFF
100
AcDbEntity
  8
1
  6
Continuous
100
AcDbLine
 10
588.820822
 20
318.2065469999999
 30
0.0
 11
584.8393049999997
 21
318.9085959999998
 31
0.0
  0
ARC
  5
AEE0
330
ADFF
100
AcDbEntity
  8
1
  6
Continuous
100
AcDbCircle
 10
555.132607
 20
331.449612
 30
0.0
 40
2.778
100
AcDbArc
 50
327.85663
 51
350.0919
  0
ARC
  5
AEE1
330
ADFF
100
AcDbEntity
  8
1
  6
Continuous
100
AcDbCircle
 10
548.6613929999998
 20
331.449612
 30
0.0
 40
2.778
100
AcDbArc
 50
327.8566
 51
350.0919
  0
ARC
  5
AEE2
330
ADFF
100
AcDbEntity
  8
1
  6
Continuous
100
AcDbCircle
 10
552.5973669999998
 20
331.449612
 30
0.0
 40
2.778
100
AcDbArc
 50
327.8566
 51
350.0919
  0
ARC
  5
AEE3
330
ADFF
100
AcDbEntity
  8
1
  6
Continuous
100
AcDbCircle
 10
543.708153
 20
331.449612
 30
0.0
 40
2.778
100
AcDbArc
 50
327.8566
 51
350.0919
  0
ARC
  5
AEE4
330
ADFF
100
AcDbEntity
  8
1
  6
Continuous
100
AcDbCircle
 10
556.020249
 20
331.449612
 30
0.0
 40
2.778
100
AcDbArc
 50
327.85663
 51
350.0919
  0
ARC
  5
AEE5
330
ADFF
100
AcDbEntity
  8
1
  6
Continuous
100
AcDbCircle
 10
558.220223
 20
324.971604
 30
0.0
 40
5.0
100
AcDbArc
 50
0.0
 51
90.0
  0
LINE
  5
AEE6
330
ADFF
100
AcDbEntity
  8
4
  6
CENTER
100
AcDbLine
 10
538.220223
 20
389.871613
 30
0.0
 11
538.220223
 21
283.6049389999999
 31
0.0
  0
ARC
  5
AEE7
330
ADFF
100
AcDbEntity
  8
1
  6
Continuous
100
AcDbCircle
 10
527.779084
 20
331.449612
 30
0.0
 40
2.778
100
AcDbArc
 50
189.90807
 51
212.1434199999999
  0
ARC
  5
AEE8
330
ADFF
100
AcDbEntity
  8
1
  6
Continuous
100
AcDbCircle
 10
523.8431099999997
 20
331.449612
 30
0.0
 40
2.778
100
AcDbArc
 50
189.90807
 51
212.1433699999999
  0
ARC
  5
AEE9
330
ADFF
100
AcDbEntity
  8
1
  6
Continuous
100
AcDbCircle
 10
521.3078690000001
 20
331.449612
 30
0.0
 40
2.778
100
AcDbArc
 50
189.90807
 51
212.1433699999999
  0
ARC
  5
AEEA
330
ADFF
100
AcDbEntity
  8
1
  6
Continuous
100
AcDbCircle
 10
520.4202279999998
 20
331.449612
 30
0.0
 40
2.778
100
AcDbArc
 50
189.90807
 51
212.1433699999999
  0
ARC
  5
AEEB
330
ADFF
100
AcDbEntity
  8
1
  6
Continuous
100
AcDbCircle
 10
543.708153
 20
331.449612
 30
0.0
 40
2.778
100
AcDbArc
 50
189.9080099999999
 51
212.1434199999999
  0
ARC
  5
AEEC
330
ADFF
100
AcDbEntity
  8
1
  6
Continuous
100
AcDbCircle
 10
538.2202379999998
 20
331.449612
 30
0.0
 40
2.778
100
AcDbArc
 50
327.8566
 51
350.0919
  0
ARC
  5
AEED
330
ADFF
100
AcDbEntity
  8
1
  6
Continuous
100
AcDbCircle
 10
532.7323230000001
 20
331.449612
 30
0.0
 40
2.778
100
AcDbArc
 50
327.8566
 51
350.0919599999999
  0
ARC
  5
AEEE
330
ADFF
100
AcDbEntity
  8
1
  6
Continuous
100
AcDbCircle
 10
538.2202379999998
 20
331.449612
 30
0.0
 40
2.778
100
AcDbArc
 50
189.90807
 51
212.1434199999999
  0
ARC
  5
AEEF
330
ADFF
100
AcDbEntity
  8
1
  6
Continuous
100
AcDbCircle
 10
532.7323230000001
 20
331.449612
 30
0.0
 40
2.778
100
AcDbArc
 50
189.90807
 51
212.1434199999999
  0
ARC
  5
AEF0
330
ADFF
100
AcDbEntity
  8
1
  6
Continuous
100
AcDbCircle
 10
518.220223
 20
324.971604
 30
0.0
 40
5.0
100
AcDbArc
 50
90.0
 51
180.0
  0
ARC
  5
AEF1
330
ADFF
100
AcDbEntity
  8
1
  6
Continuous
100
AcDbCircle
 10
517.2447359999998
 20
306.0716080000001
 30
0.0
 40
15.0
100
AcDbArc
 50
26.17007
 51
90.00001800000005
  0
LINE
  5
AEF2
330
ADFF
100
AcDbEntity
  8
1
  6
Continuous
100
AcDbLine
 10
517.2447359999998
 20
321.0716059999998
 30
0.0
 11
513.220223
 21
321.0716059999998
 31
0.0
  0
LINE
  5
AEF3
330
ADFF
100
AcDbEntity
  8
1
  6
Continuous
100
AcDbLine
 10
513.220223
 20
324.971604
 30
0.0
 11
513.220223
 21
321.0716059999998
 31
0.0
  0
LINE
  5
AEF4
330
ADFF
100
AcDbEntity
  8
4
  6
CENTER
100
AcDbLine
 10
663.220223
 20
236.8716089999999
 30
0.0
 11
497.2202229999998
 21
236.8716089999999
 31
0.0
  0
ARC
  5
AEF5
330
ADFF
100
AcDbEntity
  8
1
  6
Continuous
100
AcDbCircle
 10
207.6782609999999
 20
463.8716089999999
 30
0.0
 40
3.0
100
AcDbArc
 50
210.0000049999999
 51
239.461838
  0
ARC
  5
AEFA
330
ADFF
100
AcDbEntity
  8
1
  6
Continuous
100
AcDbCircle
 10
468.8157279999998
 20
297.3982689999999
 30
0.0
 40
93.595505
100
AcDbArc
 50
166.312859
 51
201.693872
  0
ARC
  5
AEFB
330
ADFF
100
AcDbEntity
  8
1
  6
Continuous
100
AcDbCircle
 10
331.624717
 20
297.3982689999999
 30
0.0
 40
93.595505
100
AcDbArc
 50
338.3061109999998
 51
13.687141
  0
ARC
  5
AEFC
330
ADFF
100
AcDbEntity
  8
1
  6
Continuous
100
AcDbCircle
 10
331.624717
 20
297.3982689999999
 30
0.0
 40
91.295505
100
AcDbArc
 50
338.306128
 51
15.028798
  0
ARC
  5
AEFD
330
ADFF
100
AcDbEntity
  8
1
  6
Continuous
100
AcDbCircle
 10
468.8157279999998
 20
297.3982689999999
 30
0.0
 40
91.295505
100
AcDbArc
 50
164.971202
 51
201.693872
  0
ARC
  5
AEFE
330
ADFF
100
AcDbEntity
  8
1
  6
Continuous
100
AcDbCircle
 10
243.3228689999999
 20
97.17160900000001
 30
0.0
 40
7.299999999999998
100
AcDbArc
 50
270.0
 51
316.769779
  0
ARC
  5
AEFF
330
ADFF
100
AcDbEntity
  8
1
  6
Continuous
100
AcDbCircle
 10
243.3228689999999
 20
50.571609
 30
0.0
 40
7.299999999999998
100
AcDbArc
 50
50.956384
 51
90.0
  0
ARC
  5
AF00
330
ADFF
100
AcDbEntity
  8
1
  6
Continuous
100
AcDbCircle
 10
243.3228559999998
 20
50.571619
 30
0.0
 40
5.0
100
AcDbArc
 50
50.956353
 51
90.0
  0
ARC
  5
AF01
330
ADFF
100
AcDbEntity
  8
1
  6
Continuous
100
AcDbCircle
 10
420.619117
 20
319.0716059999998
 30
0.0
 40
2.0
100
AcDbArc
 50
13.687141
 51
90.0
  0
ARC
  5
AF02
330
ADFF
100
AcDbEntity
  8
1
  6
Continuous
100
AcDbCircle
 10
379.821329
 20
319.0716059999998
 30
0.0
 40
2.0
100
AcDbArc
 50
90.0
 51
166.312859
  0
ARC
  5
AF03
330
ADFF
100
AcDbEntity
  8
1
  6
Continuous
100
AcDbCircle
 10
380.920223
 20
262.431288
 30
0.0
 40
1.0
100
AcDbArc
 50
0.0
 51
21.693872
  0
ARC
  5
AF04
330
ADFF
100
AcDbEntity
  8
1
  6
Continuous
100
AcDbCircle
 10
419.520213
 20
262.4312629999999
 30
0.0
 40
1.0
100
AcDbArc
 50
158.3061109999999
 51
180.0
  0
ARC
  5
AF05
330
ADFF
100
AcDbEntity
  8
1
  6
Continuous
100
AcDbCircle
 10
380.920223
 20
262.431288
 30
0.0
 40
3.299999999999998
100
AcDbArc
 50
0.0
 51
21.693872
  0
ARC
  5
AF06
330
ADFF
100
AcDbEntity
  8
1
  6
Continuous
100
AcDbCircle
 10
419.5202229999998
 20
262.431288
 30
0.0
 40
3.299999999999998
100
AcDbArc
 50
158.306128
 51
180.0
  0
ARC
  5
AF07
330
ADFF
100
AcDbEntity
  8
1
  6
Continuous
100
AcDbCircle
 10
369.725093
 20
252.3111459999999
 30
0.0
 40
1.0
100
AcDbArc
 50
214.7676109999999
 51
281.8310799999998
  0
ARC
  5
AF08
330
ADFF
100
AcDbEntity
  8
1
  6
Continuous
100
AcDbCircle
 10
370.4483139999999
 20
250.8487439999999
 30
0.0
 40
2.529177999999999
100
AcDbArc
 50
3.716425
 51
98.37553599999999
  0
ARC
  5
AF09
330
ADFF
100
AcDbEntity
  8
1
  6
Continuous
100
AcDbCircle
 10
370.448665
 20
248.8569379999999
 30
0.0
 40
2.529177999999999
100
AcDbArc
 50
3.716425
 51
101.831079
  0
LINE
  5
AF0A
330
ADFF
100
AcDbEntity
  8
1
  6
Continuous
100
AcDbLine
 10
381.920223
 20
253.289379
 30
0.0
 11
381.920223
 21
228.4885299999999
 31
0.0
  0
LINE
  5
AF0B
330
ADFF
100
AcDbEntity
  8
1
  6
Continuous
100
AcDbLine
 10
368.0182229999999
 20
239.6715939999999
 30
0.0
 11
369.218223
 21
240.8715939999999
 31
0.0
  0
ARC
  5
AF0C
330
ADFF
100
AcDbEntity
  8
1
  6
Continuous
100
AcDbCircle
 10
370.920223
 20
237.5126999999999
 30
0.0
 40
19.899187
100
AcDbArc
 50
243.4349529999999
 51
296.5650479999998
  0
ARC
  5
AF0D
330
ADFF
100
AcDbEntity
  8
1
  6
Continuous
100
AcDbCircle
 10
370.920223
 20
235.5208549999999
 30
0.0
 40
19.899187
100
AcDbArc
 50
243.4349529999999
 51
296.5650479999998
  0
LINE
  5
AF0E
330
ADFF
100
AcDbEntity
  8
1
  6
Continuous
100
AcDbLine
 10
369.420223
 20
237.988537
 30
0.0
 11
360.5986899999999
 21
225.280697
 31
0.0
  0
LINE
  5
AF0F
330
ADFF
100
AcDbEntity
  8
5
  6
PHANTOM
100
AcDbLine
 10
167.9683019999997
 20
215.9833379999998
 30
0.0
 11
201.5786589999999
 21
235.078932
 31
0.0
  0
LINE
  5
AF10
330
ADFF
100
AcDbEntity
  8
5
  6
PHANTOM
100
AcDbLine
 10
166.832129
 20
217.9830969999999
 30
0.0
 11
200.4424859999998
 21
237.078691
 31
0.0
  0
ARC
  5
AF11
330
ADFF
100
AcDbEntity
  8
5
  6
PHANTOM
100
AcDbCircle
 10
186.930136
 20
239.744727
 30
0.0
 40
22.51196699999999
100
AcDbArc
 50
241.1256709999999
 51
301.9589419999998
  0
LINE
  5
AF12
330
ADFF
100
AcDbEntity
  8
1
  6
Continuous
100
AcDbLine
 10
176.9142999999999
 20
273.3635469999999
 30
0.0
 11
210.3915039999999
 21
254.035468
 31
0.0
  0
LINE
  5
AF13
330
ADFF
100
AcDbEntity
  8
1
  6
Continuous
100
AcDbLine
 10
175.764322
 20
271.3716949999999
 30
0.0
 11
209.241525
 21
252.043616
 31
0.0
  0
ARC
  5
AF14
330
ADFF
100
AcDbEntity
  8
1
  6
Continuous
100
AcDbCircle
 10
205.853952
 20
267.039389
 30
0.0
 40
22.51196699999999
100
AcDbArc
 50
181.522758
 51
242.3560289999998
  0
LINE
  5
AF15
330
ADFF
100
AcDbEntity
  8
1
  6
Continuous
100
AcDbLine
 10
175.76436
 20
271.3716949999999
 30
0.0
 11
176.914361
 21
273.363562
 31
0.0
  0
LINE
  5
AF16
330
ADFF
100
AcDbEntity
  8
5
  6
PHANTOM
100
AcDbLine
 10
167.968321
 20
215.983371
 30
0.0
 11
166.832146
 21
217.983158
 31
0.0
  0
ARC
  5
AF17
330
ADFF
100
AcDbEntity
  8
5
  6
PHANTOM
100
AcDbCircle
 10
175.576447
 20
219.1557689999999
 30
0.0
 40
1.0
100
AcDbArc
 50
61.12566000000001
 51
119.602908
  0
ARC
  5
AF18
330
ADFF
100
AcDbEntity
  8
1
  6
Continuous
100
AcDbCircle
 10
182.3503129999997
 20
266.414587
 30
0.0
 40
1.0
100
AcDbArc
 50
1.522746999999999
 51
59.999995
  0
LINE
  5
AF19
330
ADFF
100
AcDbEntity
  8
1
  6
Continuous
100
AcDbLine
 10
413.7202229999998
 20
238.440395
 30
0.0
 11
420.020213
 21
237.8303049999999
 31
0.0
  0
LINE
  5
AF1A
330
ADFF
100
AcDbEntity
  8
1
  6
Continuous
100
AcDbLine
 10
413.7202229999998
 20
229.2644629999998
 30
0.0
 11
420.020213
 21
232.2064839999999
 31
0.0
  0
ARC
  5
AF1B
330
ADFF
100
AcDbEntity
  8
1
  6
Continuous
100
AcDbCircle
 10
413.7202229999998
 20
221.3715919999999
 30
0.0
 40
2.5
100
AcDbArc
 50
270.0
 51
0.0
  0
LINE
  5
AF1C
330
ADFF
100
AcDbEntity
  8
1
  6
Continuous
100
AcDbLine
 10
420.020213
 20
237.8303049999999
 30
0.0
 11
420.020213
 21
232.2064839999999
 31
0.0
  0
ARC
  5
AF1D
330
ADFF
100
AcDbEntity
  8
1
  6
Continuous
100
AcDbCircle
 10
413.7202229999998
 20
252.371625
 30
0.0
 40
2.5
100
AcDbArc
 50
0.0
 51
90.0
  0
ARC
  5
AF1E
330
ADFF
100
AcDbEntity
  8
1
  6
Continuous
100
AcDbCircle
 10
363.720638
 20
221.12167
 30
0.0
 40
3.800405999999998
100
AcDbArc
 50
179.9999909999999
 51
243.4349629999999
  0
ARC
  5
AF1F
330
ADFF
100
AcDbEntity
  8
1
  6
Continuous
100
AcDbCircle
 10
363.720638
 20
223.113514
 30
0.0
 40
3.800405999999998
100
AcDbArc
 50
145.2323889999999
 51
243.4349629999999
  0
LINE
  5
AF20
330
ADFF
100
AcDbEntity
  8
1
  6
Continuous
100
AcDbLine
 10
359.920223
 20
223.113514
 30
0.0
 11
359.920223
 21
221.12167
 31
0.0
  0
LINE
  5
AF21
330
ADFF
100
AcDbEntity
  8
1
  6
Continuous
100
AcDbLine
 10
368.0182229999999
 20
239.6715939999999
 30
0.0
 11
368.0182229999999
 21
235.968889
 31
0.0
  0
ARC
  5
AF22
330
ADFF
100
AcDbEntity
  8
1
  6
Continuous
100
AcDbCircle
 10
87.152197
 20
248.719875
 30
0.0
 40
2.529177999999999
100
AcDbArc
 50
137.409623
 51
176.283576
  0
LINE
  5
AF23
330
ADFF
100
AcDbEntity
  8
1
  6
Continuous
100
AcDbLine
 10
77.820223
 20
264.239895
 30
0.0
 11
77.820223
 21
217.100704
 31
0.0
  0
LINE
  5
AF24
330
ADFF
100
AcDbEntity
  8
5
  6
PHANTOM
100
AcDbLine
 10
264.9141009999999
 20
271.06276
 30
0.0
 11
263.777942
 21
273.0625279999998
 31
0.0
  0
LINE
  5
AF25
330
ADFF
100
AcDbEntity
  8
5
  6
PHANTOM
100
AcDbLine
 10
230.167662
 20
253.9669599999998
 30
0.0
 11
263.7780409999999
 21
273.0625759999999
 31
0.0
  0
LINE
  5
AF26
330
ADFF
100
AcDbEntity
  8
5
  6
PHANTOM
100
AcDbLine
 10
248.582237
 20
255.779135
 30
0.0
 11
254.065393
 21
260.298599
 31
0.0
  0
LINE
  5
AF27
330
ADFF
100
AcDbEntity
  8
5
  6
PHANTOM
100
AcDbLine
 10
231.3038129999999
 20
251.9671789999999
 30
0.0
 11
264.914192
 21
271.062795
 31
0.0
  0
ARC
  5
AF28
330
ADFF
100
AcDbEntity
  8
5
  6
PHANTOM
100
AcDbCircle
 10
234.795226
 20
266.9391059999999
 30
0.0
 40
22.51196699999999
100
AcDbArc
 50
297.2468899999999
 51
358.0801619999999
  0
ARC
  5
AF29
330
ADFF
100
AcDbEntity
  8
1
  6
Continuous
100
AcDbCircle
 10
253.5294279999999
 20
239.513945
 30
0.0
 40
22.51196699999999
100
AcDbArc
 50
237.6439779999998
 51
298.4772489999998
  0
LINE
  5
AF2A
330
ADFF
100
AcDbEntity
  8
1
  6
Continuous
100
AcDbLine
 10
238.848932
 20
234.9497819999999
 30
0.0
 11
272.3261659999999
 21
215.621695
 31
0.0
  0
LINE
  5
AF2B
330
ADFF
100
AcDbEntity
  8
1
  6
Continuous
100
AcDbLine
 10
239.9989409999998
 20
236.9416259999999
 30
0.0
 11
273.476175
 21
217.613539
 31
0.0
  0
ARC
  5
AF2C
330
ADFF
100
AcDbEntity
  8
1
  6
Continuous
100
AcDbCircle
 10
229.5299959999999
 20
231.4966089999999
 30
0.0
 40
4.25
100
AcDbArc
 50
240.000004
 51
60.00000400000001
  0
LINE
  5
AF2D
330
ADFF
100
AcDbEntity
  8
5
  6
PHANTOM
100
AcDbLine
 10
215.919309
 20
229.5400239999999
 30
0.0
 11
212.9728639999999
 21
227.866011
 31
0.0
  0
LINE
  5
AF2E
330
ADFF
100
AcDbEntity
  8
5
  6
PHANTOM
100
AcDbLine
 10
194.941513
 20
226.707616
 30
0.0
 11
201.613173
 21
229.1351839999999
 31
0.0
  0
ARC
  5
AF2F
330
ADFF
100
AcDbEntity
  8
5
  6
PHANTOM
100
AcDbCircle
 10
210.873423
 20
231.561258
 30
0.0
 40
4.25
100
AcDbArc
 50
119.602917
 51
299.6029169999999
  0
ARC
  5
AF30
330
ADFF
100
AcDbEntity
  8
5
  6
PHANTOM
100
AcDbCircle
 10
215.4285429999999
 20
245.3055009999999
 30
0.0
 40
22.450027
100
AcDbArc
 50
261.848889
 51
337.356944
  0
LINE
  5
AF31
330
ADFF
100
AcDbEntity
  8
1
  6
Continuous
100
AcDbLine
 10
227.404997
 20
227.8160009999997
 30
0.0
 11
224.470223
 21
229.5103929999999
 31
0.0
  0
ARC
  5
AF32
330
ADFF
100
AcDbEntity
  8
1
  6
Continuous
100
AcDbCircle
 10
225.070245
 20
245.2720859999999
 30
0.0
 40
22.450027
100
AcDbArc
 50
202.245976
 51
277.754031
  0
LINE
  5
AF33
330
ADFF
100
AcDbEntity
  8
5
  6
PHANTOM
100
AcDbLine
 10
192.9655919999999
 20
230.185464
 30
0.0
 11
194.9415319999999
 21
226.7075879999999
 31
0.0
  0
ARC
  5
AF34
330
ADFF
100
AcDbEntity
  8
5
  6
PHANTOM
100
AcDbCircle
 10
203.2528649999999
 20
234.469005
 30
0.0
 40
14.509467
100
AcDbArc
 50
252.3185339999999
 51
308.2997349999998
  0
ARC
  5
AF35
330
ADFF
100
AcDbEntity
  8
1
  6
Continuous
100
AcDbCircle
 10
237.1705259999999
 20
234.3514689999999
 30
0.0
 40
14.509467
100
AcDbArc
 50
231.303185
 51
287.2843849999999
  0
LINE
  5
AF36
330
ADFF
100
AcDbEntity
  8
1
  6
Continuous
100
AcDbLine
 10
215.970222
 20
244.232824
 30
0.0
 11
213.035449
 21
245.9272159999999
 31
0.0
  0
CIRCLE
  5
AF37
330
ADFF
100
AcDbEntity
  8
1
  6
Continuous
100
AcDbCircle
 10
220.220223
 20
236.8716089999999
 30
0.0
 40
2.799999999999998
  0
CIRCLE
  5
AF38
330
ADFF
100
AcDbEntity
  8
2
  6
Continuous
100
AcDbCircle
 10
220.220223
 20
236.8716089999999
 30
0.0
 40
3.3235
  0
LINE
  5
AF39
330
ADFF
100
AcDbEntity
  8
1
  6
Continuous
100
AcDbLine
 10
214.5910619999999
 20
233.6216109999998
 30
0.0
 11
220.220223
 21
230.371614
 31
0.0
  0
CIRCLE
  5
AF3A
330
ADFF
100
AcDbEntity
  8
1
  6
Continuous
100
AcDbCircle
 10
220.220223
 20
236.8716089999999
 30
0.0
 40
4.0
  0
CIRCLE
  5
AF3B
330
ADFF
100
AcDbEntity
  8
1
  6
Continuous
100
AcDbCircle
 10
220.220223
 20
236.8716089999999
 30
0.0
 40
5.102005
  0
LINE
  5
AF3C
330
ADFF
100
AcDbEntity
  8
1
  6
Continuous
100
AcDbLine
 10
220.220223
 20
243.3716029999999
 30
0.0
 11
214.5910619999999
 21
240.121606
 31
0.0
  0
ARC
  5
AF3D
330
ADFF
100
AcDbEntity
  8
5
  6
PHANTOM
100
AcDbCircle
 10
225.697276
 20
227.231395
 30
0.0
 40
25.837463
100
AcDbArc
 50
88.233112
 51
150.972723
  0
ARC
  5
AF3E
330
ADFF
100
AcDbEntity
  8
5
  6
PHANTOM
100
AcDbCircle
 10
225.697276
 20
227.231395
 30
0.0
 40
23.53746399999999
100
AcDbArc
 50
88.23314000000001
 51
150.9726959999998
  0
ARC
  5
AF3F
330
ADFF
100
AcDbEntity
  8
1
  6
Continuous
100
AcDbCircle
 10
214.6764919999998
 20
227.2695829999999
 30
0.0
 40
23.53746399999999
100
AcDbArc
 50
28.630227
 51
91.369783
  0
ARC
  5
AF40
330
ADFF
100
AcDbEntity
  8
1
  6
Continuous
100
AcDbCircle
 10
214.6764919999998
 20
227.2695829999999
 30
0.0
 40
25.837463
100
AcDbArc
 50
28.63019999999999
 51
91.36981099999998
  0
LINE
  5
AF41
330
ADFF
100
AcDbEntity
  8
1
  6
Continuous
100
AcDbLine
 10
206.724725
 20
253.49671
 30
0.0
 11
204.132226
 21
249.0063539999999
 31
0.0
  0
LINE
  5
AF42
330
ADFF
100
AcDbEntity
  8
1
  6
Continuous
100
AcDbLine
 10
198.6626069999998
 20
253.532614
 30
0.0
 11
204.132272
 21
249.0063689999999
 31
0.0
  0
ARC
  5
AF43
330
ADFF
100
AcDbEntity
  8
5
  6
PHANTOM
100
AcDbCircle
 10
196.9845629999998
 20
243.165009
 30
0.0
 40
9.3
100
AcDbArc
 50
299.6029229999998
 51
330.972691
  0
ARC
  5
AF44
330
ADFF
100
AcDbEntity
  8
5
  6
PHANTOM
100
AcDbCircle
 10
196.9845689999999
 20
243.164988
 30
0.0
 40
7.0
100
AcDbArc
 50
299.6029229999998
 51
330.9727179999998
  0
ARC
  5
AF45
330
ADFF
100
AcDbEntity
  8
1
  6
Continuous
100
AcDbCircle
 10
209.5625699999999
 20
250.2909299999998
 30
0.0
 40
14.509467
100
AcDbArc
 50
192.715622
 51
248.696822
  0
LINE
  5
AF46
330
ADFF
100
AcDbEntity
  8
5
  6
PHANTOM
100
AcDbLine
 10
199.0518319999999
 20
233.6433439999999
 30
0.0
 11
201.6131629999999
 21
229.135137
 31
0.0
  0
LINE
  5
AF47
330
ADFF
100
AcDbEntity
  8
1
  6
Continuous
100
AcDbLine
 10
214.5910619999999
 20
240.121606
 30
0.0
 11
214.5910619999999
 21
233.6216109999998
 31
0.0
  0
LINE
  5
AF48
330
ADFF
100
AcDbEntity
  8
5
  6
PHANTOM
100
AcDbLine
 10
211.720427
 20
236.930517
 30
0.0
 11
208.7739819999999
 21
235.2565039999999
 31
0.0
  0
LINE
  5
AF49
330
ADFF
100
AcDbEntity
  8
1
  6
Continuous
100
AcDbLine
 10
211.720223
 20
236.871608
 30
0.0
 11
208.78545
 21
238.5659999999997
 31
0.0
  0
ARC
  5
AF4A
330
ADFF
100
AcDbEntity
  8
1
  6
Continuous
100
AcDbCircle
 10
210.910449
 20
242.2466079999999
 30
0.0
 40
4.25
100
AcDbArc
 50
60.00000400000001
 51
240.000004
  0
LINE
  5
AF4B
330
ADFF
100
AcDbEntity
  8
1
  6
Continuous
100
AcDbLine
 10
200.6625909999999
 20
256.9966799999999
 30
0.0
 11
198.6625909999999
 21
253.532584
 31
0.0
  0
ARC
  5
AF4C
330
ADFF
100
AcDbEntity
  8
1
  6
Continuous
100
AcDbCircle
 10
213.891504
 20
260.097662
 30
0.0
 40
7.0
100
AcDbArc
 50
240.00001
 51
271.369806
  0
ARC
  5
AF4D
330
ADFF
100
AcDbEntity
  8
1
  6
Continuous
100
AcDbCircle
 10
213.891519
 20
260.0976779999999
 30
0.0
 40
9.3
100
AcDbArc
 50
240.00001
 51
271.3697779999999
  0
ARC
  5
AF4E
330
ADFF
100
AcDbEntity
  8
5
  6
PHANTOM
100
AcDbCircle
 10
229.567023
 20
242.18196
 30
0.0
 40
4.25
100
AcDbArc
 50
299.6029169999999
 51
119.602917
  0
LINE
  5
AF4F
330
ADFF
100
AcDbEntity
  8
5
  6
PHANTOM
100
AcDbLine
 10
231.6664639999999
 20
238.4867129999999
 30
0.0
 11
228.720019
 21
236.8127009999998
 31
0.0
  0
LINE
  5
AF50
330
ADFF
100
AcDbEntity
  8
1
  6
Continuous
100
AcDbLine
 10
231.6549959999999
 20
235.177218
 30
0.0
 11
228.720223
 21
236.8716089999999
 31
0.0
  0
LINE
  5
AF51
330
ADFF
100
AcDbEntity
  8
1
  6
Continuous
100
AcDbLine
 10
225.8493829999999
 20
233.6216109999998
 30
0.0
 11
225.8493829999999
 21
240.121606
 31
0.0
  0
LINE
  5
AF52
330
ADFF
100
AcDbEntity
  8
5
  6
PHANTOM
100
AcDbLine
 10
227.467582
 20
245.877206
 30
0.0
 11
224.521137
 21
244.203194
 31
0.0
  0
LINE
  5
AF53
330
ADFF
100
AcDbEntity
  8
1
  6
Continuous
100
AcDbLine
 10
225.8493829999999
 20
240.121606
 30
0.0
 11
220.220223
 21
243.3716029999999
 31
0.0
  0
LINE
  5
AF54
330
ADFF
100
AcDbEntity
  8
1
  6
Continuous
100
AcDbLine
 10
220.220223
 20
230.371614
 30
0.0
 11
225.8493829999999
 21
233.6216109999998
 31
0.0
  0
ARC
  5
AF55
330
ADFF
100
AcDbEntity
  8
1
  6
Continuous
100
AcDbCircle
 10
243.498941
 20
243.003806
 30
0.0
 40
7.0
100
AcDbArc
 50
208.630208
 51
240.00001
  0
ARC
  5
AF56
330
ADFF
100
AcDbEntity
  8
1
  6
Continuous
100
AcDbCircle
 10
243.498941
 20
243.0038209999999
 30
0.0
 40
9.3
100
AcDbArc
 50
208.6302359999999
 51
239.999997
  0
ARC
  5
AF57
330
ADFF
100
AcDbEntity
  8
5
  6
PHANTOM
100
AcDbCircle
 10
230.970625
 20
250.216748
 30
0.0
 40
14.509467
100
AcDbArc
 50
290.9060979999998
 51
346.8872979999999
  0
ARC
  5
AF58
330
ADFF
100
AcDbEntity
  8
5
  6
PHANTOM
100
AcDbCircle
 10
226.709745
 20
260.053258
 30
0.0
 40
9.3
100
AcDbArc
 50
268.2331479999999
 51
299.60291
  0
ARC
  5
AF59
330
ADFF
100
AcDbEntity
  8
5
  6
PHANTOM
100
AcDbCircle
 10
226.709758
 20
260.0532499999999
 30
0.0
 40
7.0
100
AcDbArc
 50
268.233121
 51
299.6029229999998
  0
LINE
  5
AF5A
330
ADFF
100
AcDbEntity
  8
5
  6
PHANTOM
100
AcDbLine
 10
246.003213
 20
260.318596
 30
0.0
 11
248.5822719999999
 21
255.7791499999999
 31
0.0
  0
ARC
  5
AF5B
330
ADFF
100
AcDbEntity
  8
1
  6
Continuous
100
AcDbCircle
 10
264.7401669999998
 20
218.8467769999999
 30
0.0
 40
1.0
100
AcDbArc
 50
60.000002
 51
118.477254
  0
LINE
  5
AF5C
330
ADFF
100
AcDbEntity
  8
1
  6
Continuous
100
AcDbLine
 10
250.879602
 20
221.9752719999999
 30
0.0
 11
257.55224
 21
219.532637
 31
0.0
  0
LINE
  5
AF5D
330
ADFF
100
AcDbEntity
  8
1
  6
Continuous
100
AcDbLine
 10
253.490106
 20
226.4967029999999
 30
0.0
 11
250.879632
 21
221.9752489999999
 31
0.0
  0
LINE
  5
AF5E
330
ADFF
100
AcDbEntity
  8
1
  6
Continuous
100
AcDbLine
 10
259.552255
 20
222.9967559999999
 30
0.0
 11
257.55224
 21
219.532637
 31
0.0
  0
LINE
  5
AF5F
330
ADFF
100
AcDbEntity
  8
1
  6
Continuous
100
AcDbLine
 10
272.326089
 20
215.6217559999999
 30
0.0
 11
273.476083
 21
217.6136
 31
0.0
  0
ARC
  5
AF60
330
ADFF
100
AcDbEntity
  8
1
  6
Continuous
100
AcDbCircle
 10
43.720223
 20
221.3715919999999
 30
0.0
 40
2.5
100
AcDbArc
 50
180.0
 51
270.0
  0
LINE
  5
AF61
330
ADFF
100
AcDbEntity
  8
5
  6
PHANTOM
100
AcDbLine
 10
252.0894419999999
 20
263.7765009999998
 30
0.0
 11
254.065393
 21
260.298599
 31
0.0
  0
ARC
  5
AF62
330
ADFF
100
AcDbEntity
  8
5
  6
PHANTOM
100
AcDbCircle
 10
258.293993
 20
266.151432
 30
0.0
 40
1.0
100
AcDbArc
 50
119.6029149999999
 51
178.0801669999999
  0
LINE
  5
AF63
330
ADFF
100
AcDbEntity
  8
1
  6
Continuous
100
AcDbLine
 10
43.720223
 20
244.478737
 30
0.0
 11
37.420233
 21
241.5204099999999
 31
0.0
  0
LINE
  5
AF64
330
ADFF
100
AcDbEntity
  8
1
  6
Continuous
100
AcDbLine
 10
38.920223
 20
243.1216089999999
 30
0.0
 11
37.72024299999999
 21
243.1216089999999
 31
0.0
  0
ARC
  5
AF65
330
ADFF
100
AcDbEntity
  8
1
  6
Continuous
100
AcDbCircle
 10
37.72024299999999
 20
241.1216089999999
 30
0.0
 40
2.0
100
AcDbArc
 50
90.00001800000005
 51
180.0
  0
LINE
  5
AF66
330
ADFF
100
AcDbEntity
  8
1
  6
Continuous
100
AcDbLine
 10
43.720223
 20
235.3028049999998
 30
0.0
 11
37.420233
 21
235.912896
 31
0.0
  0
LINE
  5
AF67
330
ADFF
100
AcDbEntity
  8
1
  6
Continuous
100
AcDbLine
 10
38.920223
 20
230.6216089999999
 30
0.0
 11
37.72024299999999
 21
230.6216089999999
 31
0.0
  0
ARC
  5
AF68
330
ADFF
100
AcDbEntity
  8
1
  6
Continuous
100
AcDbCircle
 10
37.72024299999999
 20
232.6216089999999
 30
0.0
 40
2.0
100
AcDbArc
 50
180.0
 51
269.99998
  0
LINE
  5
AF69
330
ADFF
100
AcDbEntity
  8
1
  6
Continuous
100
AcDbLine
 10
37.420233
 20
241.5204099999999
 30
0.0
 11
37.420233
 21
235.912896
 31
0.0
  0
LINE
  5
AF6A
330
ADFF
100
AcDbEntity
  8
1
  6
Continuous
100
AcDbLine
 10
35.72024299999997
 20
241.1216089999999
 30
0.0
 11
35.72024299999997
 21
232.6216089999999
 31
0.0
  0
LINE
  5
AF6B
330
ADFF
100
AcDbEntity
  8
1
  6
Continuous
100
AcDbLine
 10
89.422233
 20
236.062084
 30
0.0
 11
96.84121500000001
 21
225.3801919999999
 31
0.0
  0
LINE
  5
AF6C
330
ADFF
100
AcDbEntity
  8
1
  6
Continuous
100
AcDbLine
 10
96.841185
 20
223.388386
 30
0.0
 11
89.38104199999996
 21
234.12915
 31
0.0
  0
ARC
  5
AF6D
330
ADFF
100
AcDbEntity
  8
1
  6
Continuous
100
AcDbCircle
 10
76.070223
 20
231.218324
 30
0.0
 40
4.25
100
AcDbArc
 50
294.315739
 51
0.0
  0
LINE
  5
AF6E
330
ADFF
100
AcDbEntity
  8
1
  6
Continuous
100
AcDbLine
 10
71.52021999999998
 20
228.5872759999997
 30
0.0
 11
71.52021999999998
 21
226.595425
 31
0.0
  0
ARC
  5
AF6F
330
ADFF
100
AcDbEntity
  8
1
  6
Continuous
100
AcDbCircle
 10
86.52021600000002
 20
235.619595
 30
0.0
 40
19.899187
100
AcDbArc
 50
244.0744089999999
 51
296.565062
  0
LINE
  5
AF70
330
ADFF
100
AcDbEntity
  8
1
  6
Continuous
100
AcDbLine
 10
75.52021999999998
 20
223.126064
 30
0.0
 11
77.820223
 21
223.126064
 31
0.0
  0
LINE
  5
AF71
330
ADFF
100
AcDbEntity
  8
1
  6
Continuous
100
AcDbLine
 10
71.52022399999999
 20
226.595417
 30
0.0
 11
72.520224
 21
223.0954249999999
 31
0.0
  0
LINE
  5
AF72
330
ADFF
100
AcDbEntity
  8
1
  6
Continuous
100
AcDbLine
 10
75.52021999999998
 20
223.0954249999999
 30
0.0
 11
72.52021999999998
 21
223.0954249999999
 31
0.0
  0
LINE
  5
AF73
330
ADFF
100
AcDbEntity
  8
1
  6
Continuous
100
AcDbLine
 10
75.52021999999998
 20
226.595425
 30
0.0
 11
71.52021999999998
 21
226.595425
 31
0.0
  0
LINE
  5
AF74
330
ADFF
100
AcDbEntity
  8
1
  6
Continuous
100
AcDbLine
 10
75.52021999999998
 20
219.940731
 30
0.0
 11
77.820223
 21
219.940731
 31
0.0
  0
LINE
  5
AF75
330
ADFF
100
AcDbEntity
  8
1
  6
Continuous
100
AcDbLine
 10
75.52021999999998
 20
217.100704
 30
0.0
 11
77.820223
 21
217.100704
 31
0.0
  0
ARC
  5
AF76
330
ADFF
100
AcDbEntity
  8
1
  6
Continuous
100
AcDbCircle
 10
93.719809
 20
223.2122459999999
 30
0.0
 40
3.800405999999998
100
AcDbArc
 50
359.999997
 51
34.78147100000001
  0
LINE
  5
AF77
330
ADFF
100
AcDbEntity
  8
1
  6
Continuous
100
AcDbLine
 10
97.520216
 20
221.220394
 30
0.0
 11
97.520216
 21
223.2122459999999
 31
0.0
  0
ARC
  5
AF78
330
ADFF
100
AcDbEntity
  8
1
  6
Continuous
100
AcDbCircle
 10
93.719809
 20
221.220394
 30
0.0
 40
3.800405999999998
100
AcDbArc
 50
296.5650479999998
 51
34.78245799999999
  0
ARC
  5
AF79
330
ADFF
100
AcDbEntity
  8
1
  6
Continuous
100
AcDbCircle
 10
79.968213
 20
232.028712
 30
0.0
 40
3.25
100
AcDbArc
 50
298.524959
 51
31.365793
  0
ARC
  5
AF7A
330
ADFF
100
AcDbEntity
  8
1
  6
Continuous
100
AcDbCircle
 10
79.968213
 20
241.911968
 30
0.0
 40
3.25
100
AcDbArc
 50
328.6342
 51
61.475041
  0
LINE
  5
AF7B
330
ADFF
100
AcDbEntity
  8
1
  6
Continuous
100
AcDbLine
 10
80.32022299999999
 20
245.47034
 30
0.0
 11
81.520223
 21
245.47034
 31
0.0
  0
LINE
  5
AF7C
330
ADFF
100
AcDbEntity
  8
1
  6
Continuous
100
AcDbLine
 10
75.52021999999998
 20
247.19595
 30
0.0
 11
77.820223
 21
247.19595
 31
0.0
  0
LINE
  5
AF7D
330
ADFF
100
AcDbEntity
  8
2
  6
Continuous
100
AcDbLine
 10
80.32022299999999
 20
233.64684
 30
0.0
 11
77.820223
 21
233.64684
 31
0.0
  0
LINE
  5
AF7E
330
ADFF
100
AcDbEntity
  8
1
  6
Continuous
100
AcDbLine
 10
80.32022299999999
 20
232.97034
 30
0.0
 11
77.820223
 21
232.97034
 31
0.0
  0
LINE
  5
AF7F
330
ADFF
100
AcDbEntity
  8
1
  6
Continuous
100
AcDbLine
 10
80.32022299999999
 20
228.47034
 30
0.0
 11
81.520223
 21
228.47034
 31
0.0
  0
LINE
  5
AF80
330
ADFF
100
AcDbEntity
  8
1
  6
Continuous
100
AcDbLine
 10
77.820223
 20
232.8260509999998
 30
0.0
 11
80.32022299999999
 21
232.62034
 31
0.0
  0
LINE
  5
AF81
330
ADFF
100
AcDbEntity
  8
1
  6
Continuous
100
AcDbLine
 10
80.32022299999999
 20
239.14534
 30
0.0
 11
77.820223
 21
233.7534129999998
 31
0.0
  0
LINE
  5
AF82
330
ADFF
100
AcDbEntity
  8
1
  6
Continuous
100
AcDbLine
 10
75.52021999999998
 20
236.8716089999999
 30
0.0
 11
77.820223
 21
236.8716089999999
 31
0.0
  0
LINE
  5
AF83
330
ADFF
100
AcDbEntity
  8
1
  6
Continuous
100
AcDbLine
 10
75.52021999999998
 20
228.5872759999997
 30
0.0
 11
71.52021999999998
 21
228.5872759999997
 31
0.0
  0
LINE
  5
AF84
330
ADFF
100
AcDbEntity
  8
1
  6
Continuous
100
AcDbLine
 10
81.520223
 20
245.47034
 30
0.0
 11
81.520223
 21
228.47034
 31
0.0
  0
ARC
  5
AF85
330
ADFF
100
AcDbEntity
  8
1
  6
Continuous
100
AcDbCircle
 10
76.070223
 20
242.7223559999999
 30
0.0
 40
4.25
100
AcDbArc
 50
294.315739
 51
65.68426099999999
  0
LINE
  5
AF86
330
ADFF
100
AcDbEntity
  8
1
  6
Continuous
100
AcDbLine
 10
80.32022299999999
 20
245.47034
 30
0.0
 11
80.32022299999999
 21
228.47034
 31
0.0
  0
LINE
  5
AF87
330
ADFF
100
AcDbEntity
  8
1
  6
Continuous
100
AcDbLine
 10
88.222233
 20
240.97034
 30
0.0
 11
87.42223299999997
 21
240.97034
 31
0.0
  0
LINE
  5
AF88
330
ADFF
100
AcDbEntity
  8
2
  6
Continuous
100
AcDbLine
 10
88.89873299999996
 20
240.29384
 30
0.0
 11
87.42223299999997
 21
240.29384
 31
0.0
  0
LINE
  5
AF89
330
ADFF
100
AcDbEntity
  8
1
  6
Continuous
100
AcDbLine
 10
89.422233
 20
234.1703399999999
 30
0.0
 11
88.222233
 21
232.97034
 31
0.0
  0
LINE
  5
AF8A
330
ADFF
100
AcDbEntity
  8
2
  6
Continuous
100
AcDbLine
 10
88.89873299999996
 20
233.64684
 30
0.0
 11
87.42223299999997
 21
233.64684
 31
0.0
  0
LINE
  5
AF8B
330
ADFF
100
AcDbEntity
  8
1
  6
Continuous
100
AcDbLine
 10
88.222233
 20
232.97034
 30
0.0
 11
87.42223299999997
 21
232.97034
 31
0.0
  0
LINE
  5
AF8C
330
ADFF
100
AcDbEntity
  8
1
  6
Continuous
100
AcDbLine
 10
89.422233
 20
234.1703399999999
 30
0.0
 11
89.422233
 21
239.77034
 31
0.0
  0
LINE
  5
AF8D
330
ADFF
100
AcDbEntity
  8
1
  6
Continuous
100
AcDbLine
 10
89.422233
 20
239.77034
 30
0.0
 11
88.222233
 21
240.97034
 31
0.0
  0
LINE
  5
AF8E
330
ADFF
100
AcDbEntity
  8
1
  6
Continuous
100
AcDbLine
 10
88.222233
 20
232.97034
 30
0.0
 11
88.222233
 21
240.97034
 31
0.0
  0
LINE
  5
AF8F
330
ADFF
100
AcDbEntity
  8
1
  6
Continuous
100
AcDbLine
 10
87.42223299999997
 20
242.072353
 30
0.0
 11
87.42223299999997
 21
231.868327
 31
0.0
  0
LINE
  5
AF90
330
ADFF
100
AcDbEntity
  8
1
  6
Continuous
100
AcDbLine
 10
86.02423299999998
 20
243.47034
 30
0.0
 11
82.82022299999999
 21
243.47034
 31
0.0
  0
ARC
  5
AF91
330
ADFF
100
AcDbEntity
  8
1
  6
Continuous
100
AcDbCircle
 10
105.3480739999999
 20
249.529781
 30
0.0
 40
20.76305799999997
100
AcDbArc
 50
182.739379
 51
196.968003
  0
ARC
  5
AF92
330
ADFF
100
AcDbEntity
  8
1
  6
Continuous
100
AcDbCircle
 10
105.347731
 20
247.537991
 30
0.0
 40
20.76305799999997
100
AcDbArc
 50
176.283576
 51
191.2977749999997
  0
LINE
  5
AF93
330
ADFF
100
AcDbEntity
  8
1
  6
Continuous
100
AcDbLine
 10
86.02423299999998
 20
230.47034
 30
0.0
 11
82.82022299999999
 21
230.47034
 31
0.0
  0
ARC
  5
AF94
330
ADFF
100
AcDbEntity
  8
1
  6
Continuous
100
AcDbCircle
 10
71.21821300000002
 20
236.97034
 30
0.0
 40
12.0
100
AcDbArc
 50
344.2861399999999
 51
15.71386099999998
  0
LINE
  5
AF95
330
ADFF
100
AcDbEntity
  8
1
  6
Continuous
100
AcDbLine
 10
85.973743
 20
240.2203399999999
 30
0.0
 11
82.87071299999999
 21
240.2203399999999
 31
0.0
  0
LINE
  5
AF96
330
ADFF
100
AcDbEntity
  8
1
  6
Continuous
100
AcDbLine
 10
85.94728299999998
 20
233.7203399999999
 30
0.0
 11
82.89717299999997
 21
233.7203399999999
 31
0.0
  0
ARC
  5
AF97
330
ADFF
100
AcDbEntity
  8
1
  6
Continuous
100
AcDbCircle
 10
83.172233
 20
241.911968
 30
0.0
 40
3.25
100
AcDbArc
 50
328.6342499999999
 51
28.65275
  0
ARC
  5
AF98
330
ADFF
100
AcDbEntity
  8
1
  6
Continuous
100
AcDbCircle
 10
83.172233
 20
232.028712
 30
0.0
 40
3.25
100
AcDbArc
 50
331.3472699999998
 51
31.36577
  0
LINE
  5
AF99
330
ADFF
100
AcDbEntity
  8
1
  6
Continuous
100
AcDbLine
 10
86.024203
 20
230.4703589999999
 30
0.0
 11
87.42218299999995
 21
231.86835
 31
0.0
  0
ARC
  5
AF9A
330
ADFF
100
AcDbEntity
  8
1
  6
Continuous
100
AcDbCircle
 10
74.42223299999998
 20
236.97034
 30
0.0
 40
12.0
100
AcDbArc
 50
344.28617
 51
15.71384
  0
LINE
  5
AF9B
330
ADFF
100
AcDbEntity
  8
1
  6
Continuous
100
AcDbLine
 10
87.42220299999997
 20
242.072345
 30
0.0
 11
86.02422299999997
 21
243.4703289999999
 31
0.0
  0
ARC
  5
AF9C
330
ADFF
100
AcDbEntity
  8
1
  6
Continuous
100
AcDbCircle
 10
580.220223
 20
236.8716089999999
 30
0.0
 40
16.5
100
AcDbArc
 50
205.0
 51
355.0
  0
LINE
  5
AF9D
330
ADFF
100
AcDbEntity
  8
1
  6
Continuous
100
AcDbLine
 10
598.1517269999998
 20
235.3028049999998
 30
0.0
 11
591.178365
 21
235.912896
 31
0.0
  0
ARC
  5
AF9E
330
ADFF
100
AcDbEntity
  8
1
  6
Continuous
100
AcDbCircle
 10
580.220223
 20
236.8716089999999
 30
0.0
 40
18.0
100
AcDbArc
 50
153.8399819999999
 51
57.684697
  0
ARC
  5
AF9F
330
ADFF
100
AcDbEntity
  8
1
  6
Continuous
100
AcDbCircle
 10
580.220223
 20
236.8716089999999
 30
0.0
 40
21.4
100
AcDbArc
 50
147.101981
 51
64.422698
  0
LINE
  5
AFA0
330
ADFF
100
AcDbEntity
  8
1
  6
Continuous
100
AcDbLine
 10
570.2508370000002
 20
232.2228079999999
 30
0.0
 11
563.906683
 21
229.26448
 31
0.0
  0
LINE
  5
AFA1
330
ADFF
100
AcDbEntity
  8
1
  6
Continuous
100
AcDbLine
 10
569.262081
 20
237.830322
 30
0.0
 11
562.288718
 21
238.440412
 31
0.0
  0
ARC
  5
AFA2
330
ADFF
100
AcDbEntity
  8
1
  6
Continuous
100
AcDbCircle
 10
580.220223
 20
236.8716089999999
 30
0.0
 40
16.5
100
AcDbArc
 50
157.98041
 51
175.0
  0
ARC
  5
AFA3
330
ADFF
100
AcDbEntity
  8
1
  6
Continuous
100
AcDbCircle
 10
580.220223
 20
236.8716089999999
 30
0.0
 40
13.5
100
AcDbArc
 50
175.0
 51
205.0
  0
ARC
  5
AFA4
330
ADFF
100
AcDbEntity
  8
1
  6
Continuous
100
AcDbCircle
 10
580.220223
 20
236.8716089999999
 30
0.0
 40
11.0
100
AcDbArc
 50
175.0
 51
205.0
  0
LINE
  5
AFA5
330
ADFF
100
AcDbEntity
  8
1
  6
Continuous
100
AcDbLine
 10
570.6795120000001
 20
231.3966819999999
 30
0.0
 11
570.215865
 21
232.2065
 31
0.0
  0
ARC
  5
AFA6
330
ADFF
100
AcDbEntity
  8
1
  6
Continuous
100
AcDbCircle
 10
580.220223
 20
236.8716089999999
 30
0.0
 40
16.5
100
AcDbArc
 50
25.0
 51
53.54426899999999
  0
LINE
  5
AFA7
330
ADFF
100
AcDbEntity
  8
1
  6
Continuous
100
AcDbLine
 10
596.533763
 20
244.478737
 30
0.0
 11
590.189608
 21
241.5204099999999
 31
0.0
  0
ARC
  5
AFA8
330
ADFF
100
AcDbEntity
  8
1
  6
Continuous
100
AcDbCircle
 10
580.220223
 20
236.8716089999999
 30
0.0
 40
13.5
100
AcDbArc
 50
355.0
 51
25.0
  0
ARC
  5
AFA9
330
ADFF
100
AcDbEntity
  8
1
  6
Continuous
100
AcDbCircle
 10
580.220223
 20
236.8716089999999
 30
0.0
 40
11.0
100
AcDbArc
 50
355.0
 51
25.0
  0
LINE
  5
AFAA
330
ADFF
100
AcDbEntity
  8
1
  6
Continuous
100
AcDbLine
 10
380.420223
 20
228.4885299999999
 30
0.0
 11
385.920223
 21
228.4885299999999
 31
0.0
  0
LINE
  5
AFAB
330
ADFF
100
AcDbEntity
  8
1
  6
Continuous
100
AcDbLine
 10
381.920223
 20
222.996685
 30
0.0
 11
384.920223
 21
222.996685
 31
0.0
  0
LINE
  5
AFAC
330
ADFF
100
AcDbEntity
  8
1
  6
Continuous
100
AcDbLine
 10
380.420223
 20
224.9885299999998
 30
0.0
 11
384.920223
 21
224.9885299999998
 31
0.0
  0
ARC
  5
AFAD
330
ADFF
100
AcDbEntity
  8
1
  6
Continuous
100
AcDbCircle
 10
378.119823
 20
221.12167
 30
0.0
 40
3.800405999999998
100
AcDbArc
 50
296.5650479999998
 51
0.000003
  0
LINE
  5
AFAE
330
ADFF
100
AcDbEntity
  8
1
  6
Continuous
100
AcDbLine
 10
381.920223
 20
223.4885299999999
 30
0.0
 11
381.920223
 21
217.001957
 31
0.0
  0
LINE
  5
AFAF
330
ADFF
100
AcDbEntity
  8
1
  6
Continuous
100
AcDbLine
 10
379.62022
 20
217.6242719999999
 30
0.0
 11
379.62022
 21
217.001957
 31
0.0
  0
LINE
  5
AFB0
330
ADFF
100
AcDbEntity
  8
1
  6
Continuous
100
AcDbLine
 10
381.920223
 20
217.001957
 30
0.0
 11
379.62022
 21
217.001957
 31
0.0
  0
ARC
  5
AFB1
330
ADFF
100
AcDbEntity
  8
1
  6
Continuous
100
AcDbCircle
 10
378.119823
 20
223.113514
 30
0.0
 40
3.800405999999998
100
AcDbArc
 50
296.5650479999998
 51
15.04255799999999
  0
ARC
  5
AFB2
330
ADFF
100
AcDbEntity
  8
1
  6
Continuous
100
AcDbCircle
 10
380.420223
 20
223.4885299999999
 30
0.0
 40
1.5
100
AcDbArc
 50
0.000003
 51
90.00000300000001
  0
LINE
  5
AFB3
330
ADFF
100
AcDbEntity
  8
1
  6
Continuous
100
AcDbLine
 10
384.920223
 20
222.996685
 30
0.0
 11
384.920223
 21
224.9885299999998
 31
0.0
  0
LINE
  5
AFB4
330
ADFF
100
AcDbEntity
  8
1
  6
Continuous
100
AcDbLine
 10
385.920223
 20
226.4966849999999
 30
0.0
 11
384.920223
 21
222.996685
 31
0.0
  0
LINE
  5
AFB5
330
ADFF
100
AcDbEntity
  8
1
  6
Continuous
100
AcDbLine
 10
385.920223
 20
228.488537
 30
0.0
 11
384.9202079999998
 21
224.9885299999998
 31
0.0
  0
LINE
  5
AFB6
330
ADFF
100
AcDbEntity
  8
1
  6
Continuous
100
AcDbLine
 10
385.920223
 20
226.4966849999999
 30
0.0
 11
385.920223
 21
228.4885299999999
 31
0.0
  0
LINE
  5
AFB7
330
ADFF
100
AcDbEntity
  8
1
  6
Continuous
100
AcDbLine
 10
369.218223
 20
240.8715939999999
 30
0.0
 11
369.218223
 21
237.697547
 31
0.0
  0
LINE
  5
AFB8
330
ADFF
100
AcDbEntity
  8
1
  6
Continuous
100
AcDbLine
 10
370.0182229999999
 20
241.9736069999999
 30
0.0
 11
370.0182229999999
 21
238.92005
 31
0.0
  0
LINE
  5
AFB9
330
ADFF
100
AcDbEntity
  8
2
  6
Continuous
100
AcDbLine
 10
368.541723
 20
240.1950939999999
 30
0.0
 11
370.0182229999999
 21
240.1950939999999
 31
0.0
  0
ARC
  5
AFBA
330
ADFF
100
AcDbEntity
  8
1
  6
Continuous
100
AcDbCircle
 10
352.253124
 20
247.6750529999999
 30
0.0
 40
20.76305799999997
100
AcDbArc
 50
2.759138999999998
 51
3.716425
  0
LINE
  5
AFBB
330
ADFF
100
AcDbEntity
  8
1
  6
Continuous
100
AcDbLine
 10
369.218223
 20
240.8715939999999
 30
0.0
 11
370.0182229999999
 21
240.8715939999999
 31
0.0
  0
ARC
  5
AFBC
330
ADFF
100
AcDbEntity
  8
1
  6
Continuous
100
AcDbCircle
 10
374.2682229999999
 20
241.813222
 30
0.0
 40
3.25
100
AcDbArc
 50
151.34725
 51
194.462184
  0
LINE
  5
AFBD
330
ADFF
100
AcDbEntity
  8
1
  6
Continuous
100
AcDbLine
 10
371.4162229999999
 20
243.3715939999999
 30
0.0
 11
372.038495
 21
243.3715939999999
 31
0.0
  0
LINE
  5
AFBE
330
ADFF
100
AcDbEntity
  8
1
  6
Continuous
100
AcDbLine
 10
370.0182529999998
 20
241.9735989999999
 30
0.0
 11
371.4162329999999
 21
243.371583
 31
0.0
  0
LINE
  5
AFBF
330
ADFF
100
AcDbEntity
  8
1
  6
Continuous
100
AcDbLine
 10
370.7993119999999
 20
237.9885299999999
 30
0.0
 11
380.1568259999998
 21
237.9885299999999
 31
0.0
  0
ARC
  5
AFC0
330
ADFF
100
AcDbEntity
  8
1
  6
Continuous
100
AcDbCircle
 10
352.252788
 20
249.666859
 30
0.0
 40
20.76305799999997
100
AcDbArc
 50
325.7741129999998
 51
3.716425
  0
ARC
  5
AFC1
330
ADFF
100
AcDbEntity
  8
1
  6
Continuous
100
AcDbCircle
 10
126.7535629999999
 20
73.87160899999997
 30
0.0
 40
85.0
100
AcDbArc
 50
349.1501839999998
 51
349.159218
  0
ARC
  5
AFC2
330
ADFF
100
AcDbEntity
  8
1
  6
Continuous
100
AcDbCircle
 10
204.720206
 20
60.37160899999999
 30
0.0
 40
2.5
100
AcDbArc
 50
180.0
 51
270.0
  0
LINE
  5
AFC3
330
ADFF
100
AcDbEntity
  8
1
  6
Continuous
100
AcDbLine
 10
202.554575
 20
59.12259200000001
 30
0.0
 11
203.509742
 21
55.55444300000001
 31
0.0
  0
ARC
  5
AFC4
330
ADFF
100
AcDbEntity
  8
1
  6
Continuous
100
AcDbCircle
 10
205.4417169999999
 20
56.07161899999999
 30
0.0
 40
2.0
100
AcDbArc
 50
194.986275
 51
270.0
  0
LINE
  5
AFC5
330
ADFF
100
AcDbEntity
  8
1
  6
Continuous
100
AcDbLine
 10
205.4417169999999
 20
54.07161899999999
 30
0.0
 11
209.262081
 21
54.07161899999999
 31
0.0
  0
LINE
  5
AFC6
330
ADFF
100
AcDbEntity
  8
1
  6
Continuous
100
AcDbLine
 10
206.033662
 20
55.07161899999999
 30
0.0
 11
209.262081
 21
55.07161899999999
 31
0.0
  0
LINE
  5
AFC7
330
ADFF
100
AcDbEntity
  8
1
  6
Continuous
100
AcDbLine
 10
209.262081
 20
54.07161899999999
 30
0.0
 11
209.262081
 21
55.07161899999999
 31
0.0
  0
LINE
  5
AFC8
330
ADFF
100
AcDbEntity
  8
1
  6
Continuous
100
AcDbLine
 10
206.7715939999999
 20
54.07161899999999
 30
0.0
 11
206.7715939999999
 21
55.07161899999999
 31
0.0
  0
LINE
  5
AFC9
330
ADFF
100
AcDbEntity
  8
1
  6
Continuous
100
AcDbLine
 10
209.262081
 20
54.07161899999999
 30
0.0
 11
209.262081
 21
55.07161899999999
 31
0.0
  0
LINE
  5
AFCA
330
ADFF
100
AcDbEntity
  8
1
  6
Continuous
100
AcDbLine
 10
204.514335
 20
57.88009999999999
 30
0.0
 11
205.067674
 21
55.813031
 31
0.0
  0
LINE
  5
AFCB
330
ADFF
100
AcDbEntity
  8
1
  6
Continuous
100
AcDbLine
 10
206.019785
 20
57.88009999999999
 30
0.0
 11
206.7715939999999
 21
55.07161899999999
 31
0.0
  0
ARC
  5
AFCC
330
ADFF
100
AcDbEntity
  8
1
  6
Continuous
100
AcDbCircle
 10
206.033662
 20
56.07161899999999
 30
0.0
 40
1.0
100
AcDbArc
 50
194.986275
 51
270.0
  0
ARC
  5
AFCD
330
ADFF
100
AcDbEntity
  8
1
  6
Continuous
100
AcDbCircle
 10
43.720223
 20
252.371625
 30
0.0
 40
2.5
100
AcDbArc
 50
90.0
 51
180.0
  0
ARC
  5
AFCE
330
ADFF
100
AcDbEntity
  8
1
  6
Continuous
100
AcDbCircle
 10
93.719809
 20
267.9622759999999
 30
0.0
 40
3.800405999999998
100
AcDbArc
 50
359.999997
 51
63.434952
  0
ARC
  5
AFCF
330
ADFF
100
AcDbEntity
  8
1
  6
Continuous
100
AcDbCircle
 10
79.320627
 20
267.9622759999999
 30
0.0
 40
3.800405999999998
100
AcDbArc
 50
116.5650469999998
 51
180.000005
  0
ARC
  5
AFD0
330
ADFF
100
AcDbEntity
  8
1
  6
Continuous
100
AcDbCircle
 10
86.52021600000002
 20
253.5631069999999
 30
0.0
 40
19.899187
100
AcDbArc
 50
63.434952
 51
116.5650469999998
  0
ARC
  5
AFD1
330
ADFF
100
AcDbEntity
  8
1
  6
Continuous
100
AcDbCircle
 10
86.52021600000002
 20
251.5712549999999
 30
0.0
 40
19.899187
100
AcDbArc
 50
63.434952
 51
116.5650469999998
  0
LINE
  5
AFD2
330
ADFF
100
AcDbEntity
  8
1
  6
Continuous
100
AcDbLine
 10
87.559324
 20
250.4314839999999
 30
0.0
 11
78.76634399999997
 21
250.4314839999999
 31
0.0
  0
ARC
  5
AFD3
330
ADFF
100
AcDbEntity
  8
1
  6
Continuous
100
AcDbCircle
 10
79.320627
 20
265.9704249999999
 30
0.0
 40
3.800405999999998
100
AcDbArc
 50
116.5650469999998
 51
171.3823689999999
  0
LINE
  5
AFD4
330
ADFF
100
AcDbEntity
  8
1
  6
Continuous
100
AcDbLine
 10
75.52021999999998
 20
266.5398829999999
 30
0.0
 11
75.52021999999998
 21
266.5398829999999
 31
0.0
  0
ARC
  5
AFD5
330
ADFF
100
AcDbEntity
  8
1
  6
Continuous
100
AcDbCircle
 10
75.52021999999998
 20
264.239895
 30
0.0
 40
2.299999999999998
100
AcDbArc
 50
359.999997
 51
90.00000300000001
  0
LINE
  5
AFD6
330
ADFF
100
AcDbEntity
  8
1
  6
Continuous
100
AcDbLine
 10
72.52021999999998
 20
257.0954249999999
 30
0.0
 11
72.52021999999998
 21
259.0872759999999
 31
0.0
  0
LINE
  5
AFD7
330
ADFF
100
AcDbEntity
  8
1
  6
Continuous
100
AcDbLine
 10
71.52021999999998
 20
255.5872759999997
 30
0.0
 11
71.52021999999998
 21
253.595425
 31
0.0
  0
LINE
  5
AFD8
330
ADFF
100
AcDbEntity
  8
1
  6
Continuous
100
AcDbLine
 10
75.52021999999998
 20
253.595425
 30
0.0
 11
71.52021999999998
 21
253.595425
 31
0.0
  0
LINE
  5
AFD9
330
ADFF
100
AcDbEntity
  8
1
  6
Continuous
100
AcDbLine
 10
75.52021999999998
 20
257.0954249999999
 30
0.0
 11
72.52021999999998
 21
257.0954249999999
 31
0.0
  0
LINE
  5
AFDA
330
ADFF
100
AcDbEntity
  8
1
  6
Continuous
100
AcDbLine
 10
71.52021600000002
 20
253.59544
 30
0.0
 11
72.520216
 21
257.0954249999999
 31
0.0
  0
LINE
  5
AFDB
330
ADFF
100
AcDbEntity
  8
1
  6
Continuous
100
AcDbLine
 10
75.52021999999998
 20
259.0872759999999
 30
0.0
 11
72.52021999999998
 21
259.0872759999999
 31
0.0
  0
LINE
  5
AFDC
330
ADFF
100
AcDbEntity
  8
1
  6
Continuous
100
AcDbLine
 10
71.52021999999998
 20
255.587292
 30
0.0
 11
72.520216
 21
259.0872919999998
 31
0.0
  0
ARC
  5
AFDD
330
ADFF
100
AcDbEntity
  8
1
  6
Continuous
100
AcDbCircle
 10
93.719809
 20
265.9704249999999
 30
0.0
 40
3.800405999999998
100
AcDbArc
 50
325.232387
 51
63.434952
  0
LINE
  5
AFDE
330
ADFF
100
AcDbEntity
  8
1
  6
Continuous
100
AcDbLine
 10
97.520216
 20
265.9704249999999
 30
0.0
 11
97.520216
 21
267.9622759999999
 31
0.0
  0
LINE
  5
AFDF
330
ADFF
100
AcDbEntity
  8
1
  6
Continuous
100
AcDbLine
 10
87.55933199999999
 20
250.4315
 30
0.0
 11
96.841757
 21
263.8032649999999
 31
0.0
  0
LINE
  5
AFE0
330
ADFF
100
AcDbEntity
  8
1
  6
Continuous
100
AcDbLine
 10
234.2790990000001
 20
54.54355699999999
 30
0.0
 11
237.5105819999999
 21
57.272359
 31
0.0
  0
LINE
  5
AFE1
330
ADFF
100
AcDbEntity
  8
1
  6
Continuous
100
AcDbLine
 10
232.743402
 20
54.33998199999999
 30
0.0
 11
236.5337629999999
 21
57.87160899999999
 31
0.0
  0
LINE
  5
AFE2
330
ADFF
100
AcDbEntity
  8
1
  6
Continuous
100
AcDbLine
 10
232.74995
 20
55.374974
 30
0.0
 11
235.1743009999999
 21
57.87160899999999
 31
0.0
  0
ARC
  5
AFE3
330
ADFF
100
AcDbEntity
  8
1
  6
Continuous
100
AcDbCircle
 10
232.988739
 20
56.07161899999999
 30
0.0
 40
2.0
100
AcDbArc
 50
270.0
 51
310.17916
  0
ARC
  5
AFE4
330
ADFF
100
AcDbEntity
  8
1
  6
Continuous
100
AcDbCircle
 10
235.7202389999999
 20
60.37160899999999
 30
0.0
 40
2.5
100
AcDbArc
 50
270.0
 51
0.0
  0
LINE
  5
AFE5
330
ADFF
100
AcDbEntity
  8
1
  6
Continuous
100
AcDbLine
 10
236.5337629999999
 20
57.87160899999999
 30
0.0
 11
236.5337629999999
 21
58.007676
 31
0.0
  0
LINE
  5
AFE6
330
ADFF
100
AcDbEntity
  8
1
  6
Continuous
100
AcDbLine
 10
238.220223
 20
58.80041999999999
 30
0.0
 11
238.220223
 21
60.37160899999999
 31
0.0
  0
ARC
  5
AFE7
330
ADFF
100
AcDbEntity
  8
1
  6
Continuous
100
AcDbCircle
 10
236.220223
 20
58.80041999999999
 30
0.0
 40
2.0
100
AcDbArc
 50
310.17916
 51
0.0
  0
LINE
  5
AFE8
330
ADFF
100
AcDbEntity
  8
1
  6
Continuous
100
AcDbLine
 10
230.189608
 20
54.07161899999999
 30
0.0
 11
230.189608
 21
55.07161899999999
 31
0.0
  0
LINE
  5
AFE9
330
ADFF
100
AcDbEntity
  8
1
  6
Continuous
100
AcDbLine
 10
230.189608
 20
55.07161899999999
 30
0.0
 11
232.032534
 21
55.07161899999999
 31
0.0
  0
ARC
  5
AFEA
330
ADFF
100
AcDbEntity
  8
1
  6
Continuous
100
AcDbCircle
 10
232.032534
 20
56.07161899999999
 30
0.0
 40
1.0
100
AcDbArc
 50
270.0
 51
315.8415499999998
  0
ARC
  5
AFEB
330
ADFF
100
AcDbEntity
  8
1
  6
Continuous
100
AcDbCircle
 10
232.0617069999999
 20
55.07161899999999
 30
0.0
 40
1.0
100
AcDbArc
 50
270.0
 51
312.976204
  0
LINE
  5
AFEC
330
ADFF
100
AcDbEntity
  8
1
  6
Continuous
100
AcDbLine
 10
230.189608
 20
54.07161899999999
 30
0.0
 11
232.988739
 21
54.07161899999999
 31
0.0
  0
LINE
  5
AFED
330
ADFF
100
AcDbEntity
  8
1
  6
Continuous
100
AcDbLine
 10
368.9036209999999
 20
251.740902
 30
0.0
 11
360.5987049999998
 21
263.7045249999999
 31
0.0
  0
LINE
  5
AFEE
330
ADFF
100
AcDbEntity
  8
1
  6
Continuous
100
AcDbLine
 10
369.1203879999998
 20
253.7592509999999
 30
0.0
 11
360.627575
 21
265.6553769999998
 31
0.0
  0
ARC
  5
AFEF
330
ADFF
100
AcDbEntity
  8
1
  6
Continuous
100
AcDbCircle
 10
370.920223
 20
253.4643599999998
 30
0.0
 40
19.899187
100
AcDbArc
 50
66.64841199999999
 51
116.5650599999999
  0
ARC
  5
AFF0
330
ADFF
100
AcDbEntity
  8
1
  6
Continuous
100
AcDbCircle
 10
363.720638
 20
267.8635529999999
 30
0.0
 40
3.800405999999998
100
AcDbArc
 50
116.565033
 51
215.5235869999999
  0
ARC
  5
AFF1
330
ADFF
100
AcDbEntity
  8
1
  6
Continuous
100
AcDbCircle
 10
363.720638
 20
265.8717009999999
 30
0.0
 40
3.800405999999998
100
AcDbArc
 50
179.9999909999999
 51
214.767608
  0
LINE
  5
AFF2
330
ADFF
100
AcDbEntity
  8
1
  6
Continuous
100
AcDbLine
 10
359.920223
 20
267.8635529999999
 30
0.0
 11
359.920223
 21
265.8717009999999
 31
0.0
  0
ARC
  5
AFF3
330
ADFF
100
AcDbEntity
  8
1
  6
Continuous
100
AcDbCircle
 10
369.9342609999998
 20
254.340283
 30
0.0
 40
1.0
100
AcDbArc
 50
215.52359
 51
278.3755439999998
  0
LINE
  5
AFF4
330
ADFF
100
AcDbEntity
  8
1
  6
Continuous
100
AcDbLine
 10
370.4483139999999
 20
253.3779259999997
 30
0.0
 11
379.9933889999999
 21
253.3779259999997
 31
0.0
  0
ARC
  5
AFF5
330
ADFF
100
AcDbEntity
  8
1
  6
Continuous
100
AcDbCircle
 10
220.220223
 20
236.8716089999999
 30
0.0
 40
44.0
100
AcDbArc
 50
343.0697059999999
 51
49.352389
  0
ARC
  5
AFF6
330
ADFF
100
AcDbEntity
  8
1
  6
Continuous
100
AcDbCircle
 10
220.220223
 20
236.8716089999999
 30
0.0
 40
50.0
100
AcDbArc
 50
341.4784859999998
 51
51.12086099999999
  0
ARC
  5
AFF7
330
ADFF
100
AcDbEntity
  8
1
  6
Continuous
100
AcDbCircle
 10
220.220223
 20
236.8716089999999
 30
0.0
 40
54.5
100
AcDbArc
 50
340.51942
 51
52.18563300000002
  0
ARC
  5
AFF8
330
ADFF
100
AcDbEntity
  8
1
  6
Continuous
100
AcDbCircle
 10
220.220223
 20
236.8716089999999
 30
0.0
 40
31.0
100
AcDbArc
 50
156.160088
 51
323.8399189999999
  0
ARC
  5
AFF9
330
ADFF
100
AcDbEntity
  8
1
  6
Continuous
100
AcDbCircle
 10
220.220223
 20
236.8716089999999
 30
0.0
 40
44.0
100
AcDbArc
 50
145.494774
 51
334.505226
  0
ARC
  5
AFFA
330
ADFF
100
AcDbEntity
  8
1
  6
Continuous
100
AcDbCircle
 10
220.220223
 20
236.8716089999999
 30
0.0
 40
50.0
100
AcDbArc
 50
141.1991789999999
 51
338.8008279999999
  0
ARC
  5
AFFB
330
ADFF
100
AcDbEntity
  8
1
  6
Continuous
100
AcDbCircle
 10
220.220223
 20
236.8716089999999
 30
0.0
 40
54.5
100
AcDbArc
 50
141.9309179999999
 51
338.0690879999999
  0
ARC
  5
AFFC
330
ADFF
100
AcDbEntity
  8
1
  6
Continuous
100
AcDbCircle
 10
220.220223
 20
236.8716089999999
 30
0.0
 40
31.0
100
AcDbArc
 50
348.721453
 51
43.04634799999997
  0
LINE
  5
AFFD
330
ADFF
100
AcDbEntity
  8
1
  6
Continuous
100
AcDbLine
 10
73.220223
 20
253.595425
 30
0.0
 11
73.220223
 21
228.5872759999997
 31
0.0
  0
LINE
  5
AFFE
330
ADFF
100
AcDbEntity
  8
1
  6
Continuous
100
AcDbLine
 10
38.920233
 20
235.7676359999999
 30
0.0
 11
38.920233
 21
225.8716089999999
 31
0.0
  0
LINE
  5
AFFF
330
ADFF
100
AcDbEntity
  8
1
  6
Continuous
100
AcDbLine
 10
41.220223
 20
235.5449049999998
 30
0.0
 11
41.220223
 21
221.3715919999999
 31
0.0
  0
LINE
  5
B000
330
ADFF
100
AcDbEntity
  8
1
  6
Continuous
100
AcDbLine
 10
416.220223
 20
230.4319339999999
 30
0.0
 11
416.220223
 21
221.3715919999999
 31
0.0
  0
LINE
  5
B001
330
ADFF
100
AcDbEntity
  8
1
  6
Continuous
100
AcDbLine
 10
418.520213
 20
231.506002
 30
0.0
 11
418.520213
 21
225.8716089999999
 31
0.0
  0
LINE
  5
B002
330
ADFF
100
AcDbEntity
  8
1
  6
Continuous
100
AcDbLine
 10
235.496543
 20
55.57161899999999
 30
0.0
 11
243.3228559999998
 21
55.57161899999999
 31
0.0
  0
LINE
  5
B003
330
ADFF
100
AcDbEntity
  8
1
  6
Continuous
100
AcDbLine
 10
237.991468
 20
57.87160899999999
 30
0.0
 11
243.3228689999999
 21
57.87160899999999
 31
0.0
  0
ARC
  5
B004
330
ADFF
100
AcDbEntity
  8
1
  6
Continuous
100
AcDbCircle
 10
204.720206
 20
489.3716089999998
 30
0.0
 40
2.5
100
AcDbArc
 50
90.0
 51
180.0
  0
LINE
  5
B005
330
ADFF
100
AcDbEntity
  8
1
  6
Continuous
100
AcDbLine
 10
202.554575
 20
490.620625
 30
0.0
 11
203.509742
 21
494.188774
 31
0.0
  0
LINE
  5
B007
330
ADFF
100
AcDbEntity
  8
1
  6
Continuous
100
AcDbLine
 10
204.720206
 20
491.871609
 30
0.0
 11
213.2399945813193
 21
491.871609
 31
0.0
  0
LINE
  5
B008
330
ADFF
100
AcDbEntity
  8
1
  6
Continuous
100
AcDbLine
 10
206.033662
 20
494.671599
 30
0.0
 11
209.262081
 21
494.671599
 31
0.0
  0
LINE
  5
B009
330
ADFF
100
AcDbEntity
  8
1
  6
Continuous
100
AcDbLine
 10
209.262081
 20
495.671599
 30
0.0
 11
209.262081
 21
494.671599
 31
0.0
  0
LINE
  5
B00A
330
ADFF
100
AcDbEntity
  8
1
  6
Continuous
100
AcDbLine
 10
206.7715939999999
 20
495.671599
 30
0.0
 11
206.7715939999999
 21
494.671599
 31
0.0
  0
LINE
  5
B00B
330
ADFF
100
AcDbEntity
  8
1
  6
Continuous
100
AcDbLine
 10
209.262081
 20
495.671599
 30
0.0
 11
209.262081
 21
494.671599
 31
0.0
  0
LINE
  5
B00C
330
ADFF
100
AcDbEntity
  8
1
  6
Continuous
100
AcDbLine
 10
206.019785
 20
491.863118
 30
0.0
 11
206.7715939999999
 21
494.671599
 31
0.0
  0
ARC
  5
B00D
330
ADFF
100
AcDbEntity
  8
1
  6
Continuous
100
AcDbCircle
 10
205.4417169999999
 20
493.671599
 30
0.0
 40
2.0
100
AcDbArc
 50
90.0
 51
165.013725
  0
LINE
  5
B00E
330
ADFF
100
AcDbEntity
  8
1
  6
Continuous
100
AcDbLine
 10
204.514335
 20
491.863118
 30
0.0
 11
205.067674
 21
493.9301859999998
 31
0.0
  0
LINE
  5
B00F
330
ADFF
100
AcDbEntity
  8
1
  6
Continuous
100
AcDbLine
 10
205.4417169999999
 20
495.671599
 30
0.0
 11
209.262081
 21
495.671599
 31
0.0
  0
ARC
  5
B010
330
ADFF
100
AcDbEntity
  8
1
  6
Continuous
100
AcDbCircle
 10
206.033662
 20
493.671599
 30
0.0
 40
1.0
100
AcDbArc
 50
90.0
 51
165.013725
  0
ARC
  5
B011
330
ADFF
100
AcDbEntity
  8
1
  6
Continuous
100
AcDbCircle
 10
217.2202229999999
 20
452.511209
 30
0.0
 40
6.841600999999998
100
AcDbArc
 50
257.3616059999998
 51
296.0078240000001
  0
LINE
  5
B012
330
ADFF
100
AcDbEntity
  8
1
  6
Continuous
100
AcDbLine
 10
190.7131259999999
 20
436.1548299999998
 30
0.0
 11
215.8430089999999
 21
445.8817129999998
 31
0.0
  0
ARC
  5
B013
330
ADFF
100
AcDbEntity
  8
1
  6
Continuous
100
AcDbCircle
 10
187.5906589999999
 20
448.921355
 30
0.0
 40
8.650256
100
AcDbArc
 50
90.00000300000001
 51
139.1065419999998
  0
ARC
  5
B014
330
ADFF
100
AcDbEntity
  8
1
  6
Continuous
100
AcDbCircle
 10
186.440665
 20
448.921355
 30
0.0
 40
8.650256
100
AcDbArc
 50
90.00000300000001
 51
139.1065419999998
  0
ARC
  5
B015
330
ADFF
100
AcDbEntity
  8
1
  6
Continuous
100
AcDbCircle
 10
187.5906589999999
 20
444.2218769999998
 30
0.0
 40
8.650256
100
AcDbArc
 50
220.893458
 51
291.1596369999998
  0
ARC
  5
B016
330
ADFF
100
AcDbEntity
  8
1
  6
Continuous
100
AcDbCircle
 10
186.440665
 20
444.2218769999998
 30
0.0
 40
8.650256
100
AcDbArc
 50
220.893458
 51
269.9999969999999
  0
ARC
  5
B017
330
ADFF
100
AcDbEntity
  8
1
  6
Continuous
100
AcDbCircle
 10
190.3038999999999
 20
446.5716089999999
 30
0.0
 40
12.239545
100
AcDbArc
 50
139.1065419999998
 51
220.893454
  0
ARC
  5
B018
330
ADFF
100
AcDbEntity
  8
1
  6
Continuous
100
AcDbCircle
 10
189.153906
 20
446.5716089999999
 30
0.0
 40
12.239545
100
AcDbArc
 50
139.1065419999998
 51
220.893454
  0
ARC
  5
B019
330
ADFF
100
AcDbEntity
  8
5
  6
PHANTOM
100
AcDbCircle
 10
179.034267
 20
446.5716089999999
 30
0.0
 40
12.202099
100
AcDbArc
 50
138.994524
 51
221.0054759999999
  0
ARC
  5
B01A
330
ADFF
100
AcDbEntity
  8
5
  6
PHANTOM
100
AcDbCircle
 10
176.3961679999999
 20
444.2779019999998
 30
0.0
 40
8.706292999999996
100
AcDbArc
 50
221.0054759999999
 51
270.0
  0
ARC
  5
B01B
330
ADFF
100
AcDbEntity
  8
5
  6
PHANTOM
100
AcDbCircle
 10
176.3961679999999
 20
448.865316
 30
0.0
 40
8.706292999999996
100
AcDbArc
 50
90.0
 51
138.994524
  0
LINE
  5
B01C
330
ADFF
100
AcDbEntity
  8
1
  6
Continuous
100
AcDbLine
 10
186.440665
 20
435.5716089999998
 30
0.0
 11
187.5906589999999
 21
435.5716089999998
 31
0.0
  0
LINE
  5
B01D
330
ADFF
100
AcDbEntity
  8
1
  6
Continuous
100
AcDbLine
 10
186.440665
 20
457.5716089999998
 30
0.0
 11
201.462637
 21
457.5716089999998
 31
0.0
  0
LINE
  5
B01E
330
ADFF
100
AcDbEntity
  8
1
  6
Continuous
100
AcDbLine
 10
209.0248169999999
 20
461.571611
 30
0.0
 11
202.9626369999999
 21
460.5716089999998
 31
0.0
  0
LINE
  5
B01F
330
ADFF
100
AcDbEntity
  8
1
  6
Continuous
100
AcDbLine
 10
209.0248169999999
 20
461.7613119999998
 30
0.0
 11
201.812644
 21
460.5716089999998
 31
0.0
  0
LINE
  5
B020
330
ADFF
100
AcDbEntity
  8
1
  6
Continuous
100
AcDbLine
 10
202.9626369999999
 20
456.0716089999998
 30
0.0
 11
202.9626369999999
 21
460.5716089999998
 31
0.0
  0
LINE
  5
B021
330
ADFF
100
AcDbEntity
  8
1
  6
Continuous
100
AcDbLine
 10
201.812644
 20
457.5716089999998
 30
0.0
 11
201.812644
 21
460.5716089999998
 31
0.0
  0
LINE
  5
B022
330
ADFF
100
AcDbEntity
  8
1
  6
Continuous
100
AcDbLine
 10
201.812644
 20
460.5716089999998
 30
0.0
 11
202.9626369999999
 21
460.5716089999998
 31
0.0
  0
ARC
  5
B023
330
ADFF
100
AcDbEntity
  8
1
  6
Continuous
100
AcDbCircle
 10
201.462637
 20
456.0716089999998
 30
0.0
 40
1.5
100
AcDbArc
 50
0.0
 51
90.00000300000001
  0
LINE
  5
B024
330
ADFF
100
AcDbEntity
  8
1
  6
Continuous
100
AcDbLine
 10
209.0248169999999
 20
456.406051
 30
0.0
 11
209.0248169999999
 21
461.7613119999998
 31
0.0
  0
LINE
  5
B025
330
ADFF
100
AcDbEntity
  8
1
  6
Continuous
100
AcDbLine
 10
226.220223
 20
449.1227989999998
 30
0.0
 11
226.220223
 21
446.362429
 31
0.0
  0
LINE
  5
B027
330
ADFF
100
AcDbEntity
  8
1
  6
Continuous
100
AcDbLine
 10
217.470223
 20
445.669609
 30
0.0
 11
222.970223
 21
445.669609
 31
0.0
  0
LINE
  5
B028
330
ADFF
100
AcDbEntity
  8
1
  6
Continuous
100
AcDbLine
 10
220.220223
 20
447.440934
 30
0.0
 11
220.220223
 21
446.362429
 31
0.0
  0
ARC
  5
B029
330
ADFF
100
AcDbEntity
  8
1
  6
Continuous
100
AcDbCircle
 10
223.2202229999999
 20
452.511209
 30
0.0
 40
6.841600999999998
100
AcDbArc
 50
243.992176
 51
296.0078240000001
  0
LINE
  5
B02A
330
ADFF
100
AcDbEntity
  8
1
  6
Continuous
100
AcDbLine
 10
224.220223
 20
444.8696089999998
 30
0.0
 11
216.220223
 21
444.8696089999998
 31
0.0
  0
LINE
  5
B02B
330
ADFF
100
AcDbEntity
  8
1
  6
Continuous
100
AcDbLine
 10
223.0202229999999
 20
443.6696089999998
 30
0.0
 11
217.420223
 21
443.6696089999998
 31
0.0
  0
LINE
  5
B02C
330
ADFF
100
AcDbEntity
  8
1
  6
Continuous
100
AcDbLine
 10
217.420223
 20
443.6696089999998
 30
0.0
 11
216.220223
 21
444.8696089999998
 31
0.0
  0
LINE
  5
B02D
330
ADFF
100
AcDbEntity
  8
1
  6
Continuous
100
AcDbLine
 10
223.0202229999999
 20
443.6696089999998
 30
0.0
 11
224.220223
 21
444.8696089999998
 31
0.0
  0
LINE
  5
B02E
330
ADFF
100
AcDbEntity
  8
1
  6
Continuous
100
AcDbLine
 10
216.220223
 20
444.8696089999998
 30
0.0
 11
216.220223
 21
445.669609
 31
0.0
  0
LINE
  5
B02F
330
ADFF
100
AcDbEntity
  8
2
  6
Continuous
100
AcDbLine
 10
216.896723
 20
444.1931089999997
 30
0.0
 11
216.896723
 21
445.669609
 31
0.0
  0
LINE
  5
B030
330
ADFF
100
AcDbEntity
  8
1
  6
Continuous
100
AcDbLine
 10
224.220223
 20
444.8696089999998
 30
0.0
 11
224.220223
 21
445.669609
 31
0.0
  0
LINE
  5
B031
330
ADFF
100
AcDbEntity
  8
2
  6
Continuous
100
AcDbLine
 10
223.543723
 20
444.1931089999997
 30
0.0
 11
223.543723
 21
445.669609
 31
0.0
  0
ARC
  5
B058
330
ADFF
100
AcDbEntity
  8
1
  6
Continuous
100
AcDbCircle
 10
226.5972919999999
 20
115.252496
 30
0.0
 40
14.874959
100
AcDbArc
 50
268.547438
 51
314.60477
  0
LINE
  5
B059
330
ADFF
100
AcDbEntity
  8
1
  6
Continuous
100
AcDbLine
 10
224.220223
 20
104.873609
 30
0.0
 11
224.220223
 21
104.073609
 31
0.0
  0
LINE
  5
B05A
330
ADFF
100
AcDbEntity
  8
2
  6
Continuous
100
AcDbLine
 10
223.543723
 20
105.550109
 30
0.0
 11
223.543723
 21
104.073609
 31
0.0
  0
LINE
  5
B05B
330
ADFF
100
AcDbEntity
  8
1
  6
Continuous
100
AcDbLine
 10
216.220223
 20
104.873609
 30
0.0
 11
216.220223
 21
104.073609
 31
0.0
  0
LINE
  5
B05C
330
ADFF
100
AcDbEntity
  8
2
  6
Continuous
100
AcDbLine
 10
216.896723
 20
105.550109
 30
0.0
 11
216.896723
 21
104.073609
 31
0.0
  0
ARC
  5
B05D
330
ADFF
100
AcDbEntity
  8
5
  6
PHANTOM
100
AcDbCircle
 10
179.034267
 20
103.170746
 30
0.0
 40
12.202099
100
AcDbArc
 50
138.994524
 51
221.0054759999999
  0
LINE
  5
B071
330
ADFF
100
AcDbEntity
  8
1
  6
Continuous
100
AcDbLine
 10
189.5082419999999
 20
113.5856939999999
 30
0.0
 11
214.759035
 21
103.8359959999997
 31
0.0
  0
LINE
  5
B072
330
ADFF
100
AcDbEntity
  8
1
  6
Continuous
100
AcDbLine
 10
188.358248
 20
113.5856939999999
 30
0.0
 11
213.6090419999999
 21
103.835988
 31
0.0
  0
LINE
  5
B073
330
ADFF
100
AcDbEntity
  8
1
  6
Continuous
100
AcDbLine
 10
207.229841
 20
96.971612
 30
0.0
 11
233.2106039999999
 21
96.971612
 31
0.0
  0
LINE
  5
B074
330
ADFF
100
AcDbEntity
  8
1
  6
Continuous
100
AcDbLine
 10
185.6500269999999
 20
94.471612
 30
0.0
 11
261.963427
 21
94.471612
 31
0.0
  0
LINE
  5
B075
330
ADFF
100
AcDbEntity
  8
1
  6
Continuous
100
AcDbLine
 10
183.350024
 20
92.17160900000001
 30
0.0
 11
263.949969
 21
92.17160900000001
 31
0.0
  0
ARC
  5
B076
330
ADFF
100
AcDbEntity
  8
5
  6
PHANTOM
100
AcDbCircle
 10
176.3961679999999
 20
100.8770399999999
 30
0.0
 40
8.706292999999996
100
AcDbArc
 50
221.0054759999999
 51
270.0
  0
ARC
  5
B077
330
ADFF
100
AcDbEntity
  8
1
  6
Continuous
100
AcDbCircle
 10
185.6500269999999
 20
92.17160900000001
 30
0.0
 40
2.299999999999998
100
AcDbArc
 50
90.00000300000001
 51
180.000005
  0
LINE
  5
B078
330
ADFF
100
AcDbEntity
  8
1
  6
Continuous
100
AcDbLine
 10
183.350024
 20
92.17160900000001
 30
0.0
 11
183.350024
 21
92.17160900000001
 31
0.0
  0
LINE
  5
B079
330
ADFF
100
AcDbEntity
  8
1
  6
Continuous
100
AcDbLine
 10
204.2913229999999
 20
92.17160900000001
 30
0.0
 11
204.2913229999999
 21
94.471612
 31
0.0
  0
LINE
  5
B07A
330
ADFF
100
AcDbEntity
  8
1
  6
Continuous
100
AcDbLine
 10
195.4090449999999
 20
92.17160900000001
 30
0.0
 11
195.4090449999999
 21
94.471612
 31
0.0
  0
LINE
  5
B07B
330
ADFF
100
AcDbEntity
  8
1
  6
Continuous
100
AcDbLine
 10
206.72481
 20
88.17160900000002
 30
0.0
 11
207.874804
 21
88.17160900000002
 31
0.0
  0
LINE
  5
B07C
330
ADFF
100
AcDbEntity
  8
1
  6
Continuous
100
AcDbLine
 10
206.724795
 20
88.17160499999998
 30
0.0
 11
200.6626149999999
 21
89.17160499999999
 31
0.0
  0
LINE
  5
B07D
330
ADFF
100
AcDbEntity
  8
1
  6
Continuous
100
AcDbLine
 10
207.874804
 20
92.17160900000001
 30
0.0
 11
207.874804
 21
88.17160900000002
 31
0.0
  0
LINE
  5
B07E
330
ADFF
100
AcDbEntity
  8
1
  6
Continuous
100
AcDbLine
 10
200.66263
 20
92.17160900000001
 30
0.0
 11
200.66263
 21
89.171609
 31
0.0
  0
LINE
  5
B07F
330
ADFF
100
AcDbEntity
  8
1
  6
Continuous
100
AcDbLine
 10
206.72481
 20
92.17160900000001
 30
0.0
 11
206.72481
 21
88.17160900000002
 31
0.0
  0
LINE
  5
B080
330
ADFF
100
AcDbEntity
  8
1
  6
Continuous
100
AcDbLine
 10
207.229841
 20
96.971612
 30
0.0
 11
207.229841
 21
94.471612
 31
0.0
  0
ARC
  5
B081
330
ADFF
100
AcDbEntity
  8
1
  6
Continuous
100
AcDbCircle
 10
227.7472859999999
 20
115.252496
 30
0.0
 40
14.874959
100
AcDbArc
 50
264.1076339999999
 51
267.7846599999999
  0
LINE
  5
B082
330
ADFF
100
AcDbEntity
  8
1
  6
Continuous
100
AcDbLine
 10
211.720223
 20
98.17161200000001
 30
0.0
 11
228.720223
 21
98.17161200000001
 31
0.0
  0
ARC
  5
B083
330
ADFF
100
AcDbEntity
  8
1
  6
Continuous
100
AcDbCircle
 10
223.2718259999999
 20
93.592738
 30
0.0
 40
6.841600999999998
100
AcDbArc
 50
42.010696
 51
116.487702
  0
LINE
  5
B084
330
ADFF
100
AcDbEntity
  8
1
  6
Continuous
100
AcDbLine
 10
226.220223
 20
99.76642900000001
 30
0.0
 11
226.220223
 21
103.3807879999999
 31
0.0
  0
LINE
  5
B085
330
ADFF
100
AcDbEntity
  8
1
  6
Continuous
100
AcDbLine
 10
211.720223
 20
96.971612
 30
0.0
 11
211.720223
 21
98.17161200000001
 31
0.0
  0
LINE
  5
B086
330
ADFF
100
AcDbEntity
  8
1
  6
Continuous
100
AcDbLine
 10
216.220223
 20
96.971612
 30
0.0
 11
216.220223
 21
96.35623000000002
 31
0.0
  0
LINE
  5
B087
330
ADFF
100
AcDbEntity
  8
1
  6
Continuous
100
AcDbLine
 10
224.220223
 20
96.971612
 30
0.0
 11
224.220223
 21
96.81734200000001
 31
0.0
  0
LINE
  5
B088
330
ADFF
100
AcDbEntity
  8
2
  6
Continuous
100
AcDbLine
 10
223.543723
 20
96.971612
 30
0.0
 11
223.543723
 21
96.51915999999999
 31
0.0
  0
LINE
  5
B089
330
ADFF
100
AcDbEntity
  8
1
  6
Continuous
100
AcDbLine
 10
211.0549339999999
 20
103.133797
 30
0.0
 11
211.0549339999999
 21
99.471612
 31
0.0
  0
ARC
  5
B08A
330
ADFF
100
AcDbEntity
  8
1
  6
Continuous
100
AcDbCircle
 10
245.638079
 20
183.8097389999999
 30
0.0
 40
85.728165
100
AcDbArc
 50
248.8876919999999
 51
249.099962
  0
ARC
  5
B08B
330
ADFF
100
AcDbEntity
  8
1
  6
Continuous
100
AcDbCircle
 10
244.488085
 20
183.8097389999999
 30
0.0
 40
85.728165
100
AcDbArc
 50
248.8876919999999
 51
249.514114
  0
ARC
  5
B08C
330
ADFF
100
AcDbEntity
  8
1
  6
Continuous
100
AcDbCircle
 10
217.2720369999999
 20
93.542486
 30
0.0
 40
6.841600999999998
100
AcDbArc
 50
64.472054
 51
137.4203559999999
  0
LINE
  5
B08D
330
ADFF
100
AcDbEntity
  8
1
  6
Continuous
100
AcDbLine
 10
217.470223
 20
104.073609
 30
0.0
 11
222.970223
 21
104.073609
 31
0.0
  0
ARC
  5
B08E
330
ADFF
100
AcDbEntity
  8
1
  6
Continuous
100
AcDbCircle
 10
217.2202229999999
 20
97.232008
 30
0.0
 40
6.841600999999998
100
AcDbArc
 50
63.992176
 51
116.007824
  0
LINE
  5
B08F
330
ADFF
100
AcDbEntity
  8
1
  6
Continuous
100
AcDbLine
 10
214.220223
 20
99.76642900000001
 30
0.0
 11
214.220223
 21
103.3807879999999
 31
0.0
  0
LINE
  5
B090
330
ADFF
100
AcDbEntity
  8
1
  6
Continuous
100
AcDbLine
 10
220.220223
 20
99.073609
 30
0.0
 11
220.220223
 21
103.3807879999999
 31
0.0
  0
ARC
  5
B091
330
ADFF
100
AcDbEntity
  8
1
  6
Continuous
100
AcDbCircle
 10
223.2202229999999
 20
97.232008
 30
0.0
 40
6.841600999999998
100
AcDbArc
 50
63.992176
 51
116.007824
  0
LINE
  5
B092
330
ADFF
100
AcDbEntity
  8
2
  6
Continuous
100
AcDbLine
 10
216.896723
 20
96.971612
 30
0.0
 11
216.896723
 21
95.16678500000001
 31
0.0
  0
LINE
  5
B093
330
ADFF
100
AcDbEntity
  8
1
  6
Continuous
100
AcDbLine
 10
215.870223
 20
96.971612
 30
0.0
 11
217.2921039999998
 21
94.471612
 31
0.0
  0
LINE
  5
B094
330
ADFF
100
AcDbEntity
  8
1
  6
Continuous
100
AcDbLine
 10
224.570223
 20
96.971612
 30
0.0
 11
218.898342
 21
94.471612
 31
0.0
  0
LINE
  5
B095
330
ADFF
100
AcDbEntity
  8
1
  6
Continuous
100
AcDbLine
 10
228.720223
 20
96.971612
 30
0.0
 11
228.720223
 21
98.17161200000001
 31
0.0
  0
LINE
  5
B096
330
ADFF
100
AcDbEntity
  8
1
  6
Continuous
100
AcDbLine
 10
237.035708
 20
103.133797
 30
0.0
 11
237.035708
 21
96.382027
 31
0.0
  0
LINE
  5
B097
330
ADFF
100
AcDbEntity
  8
1
  6
Continuous
100
AcDbLine
 10
241.481585
 20
92.17160900000001
 30
0.0
 11
241.481585
 21
94.471612
 31
0.0
  0
LINE
  5
B098
330
ADFF
100
AcDbEntity
  8
1
  6
Continuous
100
AcDbLine
 10
228.099306
 20
92.17160900000001
 30
0.0
 11
228.099306
 21
94.471612
 31
0.0
  0
LINE
  5
B099
330
ADFF
100
AcDbEntity
  8
1
  6
Continuous
100
AcDbLine
 10
233.2106039999999
 20
96.971612
 30
0.0
 11
233.2106039999999
 21
94.471612
 31
0.0
  0
LINE
  5
B09A
330
ADFF
100
AcDbEntity
  8
1
  6
Continuous
100
AcDbLine
 10
254.6401689999999
 20
88.17160900000002
 30
0.0
 11
260.7023639999998
 21
89.17161299999998
 31
0.0
  0
LINE
  5
B09B
330
ADFF
100
AcDbEntity
  8
1
  6
Continuous
100
AcDbLine
 10
254.6401689999999
 20
88.17160900000002
 30
0.0
 11
260.7023639999998
 21
89.17161299999998
 31
0.0
  0
LINE
  5
B09C
330
ADFF
100
AcDbEntity
  8
1
  6
Continuous
100
AcDbLine
 10
253.4901759999999
 20
88.17160499999998
 30
0.0
 11
259.55237
 21
89.17160499999999
 31
0.0
  0
LINE
  5
B09D
330
ADFF
100
AcDbEntity
  8
1
  6
Continuous
100
AcDbLine
 10
253.490191
 20
88.17160900000002
 30
0.0
 11
254.640154
 21
88.17160900000002
 31
0.0
  0
LINE
  5
B09E
330
ADFF
100
AcDbEntity
  8
1
  6
Continuous
100
AcDbLine
 10
253.490191
 20
92.17160900000001
 30
0.0
 11
253.490191
 21
88.17160900000002
 31
0.0
  0
ARC
  5
B09F
330
ADFF
100
AcDbEntity
  8
1
  6
Continuous
100
AcDbCircle
 10
261.963427
 20
92.17160900000001
 30
0.0
 40
2.299999999999998
100
AcDbArc
 50
0.8506262898771812
 51
90.00000300000001
  0
LINE
  5
B0A1
330
ADFF
100
AcDbEntity
  8
1
  6
Continuous
100
AcDbLine
 10
259.5523549999999
 20
89.171609
 30
0.0
 11
260.702349
 21
89.171609
 31
0.0
  0
LINE
  5
B0A2
330
ADFF
100
AcDbEntity
  8
1
  6
Continuous
100
AcDbLine
 10
260.702349
 20
92.17160900000001
 30
0.0
 11
260.702349
 21
89.171609
 31
0.0
  0
LINE
  5
B0A3
330
ADFF
100
AcDbEntity
  8
1
  6
Continuous
100
AcDbLine
 10
259.5523549999999
 20
92.17160900000001
 30
0.0
 11
259.5523549999999
 21
89.171609
 31
0.0
  0
ARC
  5
B0A4
330
ADFF
100
AcDbEntity
  8
5
  6
PHANTOM
100
AcDbCircle
 10
176.3961679999999
 20
105.464453
 30
0.0
 40
8.706292999999996
100
AcDbArc
 50
90.0
 51
138.994524
  0
LINE
  5
B0B8
330
ADFF
100
AcDbEntity
  8
1
  6
Continuous
100
AcDbLine
 10
237.035708
 20
104.6715969999999
 30
0.0
 11
259.7323939999998
 21
113.585687
 31
0.0
  0
LINE
  5
B0B9
330
ADFF
100
AcDbEntity
  8
1
  6
Continuous
100
AcDbLine
 10
223.0202229999999
 20
106.073609
 30
0.0
 11
224.220223
 21
104.873609
 31
0.0
  0
LINE
  5
B0BA
330
ADFF
100
AcDbEntity
  8
1
  6
Continuous
100
AcDbLine
 10
217.420223
 20
106.073609
 30
0.0
 11
216.220223
 21
104.873609
 31
0.0
  0
LINE
  5
B0BB
330
ADFF
100
AcDbEntity
  8
1
  6
Continuous
100
AcDbLine
 10
224.220223
 20
104.873609
 30
0.0
 11
216.220223
 21
104.873609
 31
0.0
  0
LINE
  5
B0BC
330
ADFF
100
AcDbEntity
  8
1
  6
Continuous
100
AcDbLine
 10
223.0202229999999
 20
106.073609
 30
0.0
 11
217.420223
 21
106.073609
 31
0.0
  0
ARC
  5
B0BD
330
ADFF
100
AcDbEntity
  8
1
  6
Continuous
100
AcDbCircle
 10
262.2202229999999
 20
73.87160899999997
 30
0.0
 40
17.7
100
AcDbArc
 50
119.5525849999999
 51
130.296143
  0
LINE
  5
B0BE
330
ADFF
100
AcDbEntity
  8
1
  6
Continuous
100
AcDbLine
 10
215.970223
 20
52.371639
 30
0.0
 11
224.470223
 21
52.371639
 31
0.0
  0
ARC
  5
B0BF
330
ADFF
100
AcDbEntity
  8
1
  6
Continuous
100
AcDbCircle
 10
215.970223
 20
54.371639
 30
0.0
 40
2.0
100
AcDbArc
 50
180.0000179999999
 51
270.0
  0
LINE
  5
B0C0
330
ADFF
100
AcDbEntity
  8
1
  6
Continuous
100
AcDbLine
 10
213.970223
 20
55.57161899999999
 30
0.0
 11
213.970223
 21
54.371639
 31
0.0
  0
LINE
  5
B0C1
330
ADFF
100
AcDbEntity
  8
1
  6
Continuous
100
AcDbLine
 10
226.470223
 20
55.57161899999999
 30
0.0
 11
226.470223
 21
54.371639
 31
0.0
  0
ARC
  5
B0C2
330
ADFF
100
AcDbEntity
  8
1
  6
Continuous
100
AcDbCircle
 10
224.470223
 20
54.371639
 30
0.0
 40
2.0
100
AcDbArc
 50
270.0
 51
359.9999799999998
  0
CIRCLE
  5
B0C3
330
ADFF
100
AcDbEntity
  8
1
  6
Continuous
100
AcDbCircle
 10
220.220223
 20
236.8716089999999
 30
0.0
 40
8.5
  0
LINE
  5
B0C4
330
ADFF
100
AcDbEntity
  8
1
  6
Continuous
100
AcDbLine
 10
526.8202200000001
 20
341.8716129999999
 30
0.0
 11
549.6202199999999
 21
341.8716129999999
 31
0.0
  0
LINE
  5
B0C5
330
ADFF
100
AcDbEntity
  8
1
  6
Continuous
100
AcDbLine
 10
556.4702869999998
 20
336.7716019999998
 30
0.0
 11
519.97022
 21
336.7716019999998
 31
0.0
  0
LINE
  5
B0C6
330
ADFF
100
AcDbEntity
  8
1
  6
Continuous
100
AcDbLine
 10
560.72022
 20
334.771602
 30
0.0
 11
515.72022
 21
334.771602
 31
0.0
  0
LINE
  5
B0C7
330
ADFF
100
AcDbEntity
  8
1
  6
Continuous
100
AcDbLine
 10
560.320236
 20
330.971607
 30
0.0
 11
516.1202099999997
 21
330.971607
 31
0.0
  0
ARC
  5
B0C8
330
ADFF
100
AcDbEntity
  8
1
  6
Continuous
100
AcDbCircle
 10
520.1961599999998
 20
330.77586
 30
0.0
 40
6.0
100
AcDbArc
 50
92.158028
 51
138.2442
  0
LINE
  5
B0C9
330
ADFF
100
AcDbEntity
  8
1
  6
Continuous
100
AcDbLine
 10
516.1202399999998
 20
330.9716029999999
 30
0.0
 11
515.72024
 21
332.27161
 31
0.0
  0
LINE
  5
B0CA
330
ADFF
100
AcDbEntity
  8
1
  6
Continuous
100
AcDbLine
 10
515.72022
 20
334.771602
 30
0.0
 11
515.72022
 21
332.2716019999998
 31
0.0
  0
LINE
  5
B0CB
330
ADFF
100
AcDbEntity
  8
1
  6
Continuous
100
AcDbLine
 10
526.8202200000001
 20
341.8716129999999
 30
0.0
 11
526.8202200000001
 21
336.7716019999998
 31
0.0
  0
LINE
  5
B0CC
330
ADFF
100
AcDbEntity
  8
1
  6
Continuous
100
AcDbLine
 10
422.3202179999998
 20
330.971607
 30
0.0
 11
378.120227
 21
330.971607
 31
0.0
  0
LINE
  5
B0CD
330
ADFF
100
AcDbEntity
  8
1
  6
Continuous
100
AcDbLine
 10
418.2480909999998
 20
336.7716099999999
 30
0.0
 11
381.970227
 21
336.7716099999999
 31
0.0
  0
LINE
  5
B0CE
330
ADFF
100
AcDbEntity
  8
1
  6
Continuous
100
AcDbLine
 10
422.7202269999998
 20
334.7716099999999
 30
0.0
 11
377.720227
 21
334.7716099999999
 31
0.0
  0
LINE
  5
B0CF
330
ADFF
100
AcDbEntity
  8
1
  6
Continuous
100
AcDbLine
 10
546.22022
 20
341.8716129999999
 30
0.0
 11
546.22022
 21
379.8716129999998
 31
0.0
  0
LINE
  5
B0D0
330
ADFF
100
AcDbEntity
  8
2
  6
Continuous
100
AcDbLine
 10
545.1377199999998
 20
347.8716129999999
 30
0.0
 11
545.1377199999998
 21
380.9541129999999
 31
0.0
  0
LINE
  5
B0D1
330
ADFF
100
AcDbEntity
  8
1
  6
Continuous
100
AcDbLine
 10
530.22022
 20
341.8716129999999
 30
0.0
 11
530.22022
 21
379.8716129999998
 31
0.0
  0
LINE
  5
B0D2
330
ADFF
100
AcDbEntity
  8
2
  6
Continuous
100
AcDbLine
 10
531.30272
 20
347.8716129999999
 30
0.0
 11
531.30272
 21
380.9541129999999
 31
0.0
  0
ARC
  5
B0D3
330
ADFF
100
AcDbEntity
  8
1
  6
Continuous
100
AcDbCircle
 10
556.244283
 20
330.77586
 30
0.0
 40
6.0
100
AcDbArc
 50
41.75575999999996
 51
87.841936
  0
LINE
  5
B0D4
330
ADFF
100
AcDbEntity
  8
2
  6
Continuous
100
AcDbLine
 10
545.1377199999998
 20
347.8716129999999
 30
0.0
 11
546.22022
 21
345.9966679999998
 31
0.0
  0
LINE
  5
B0D5
330
ADFF
100
AcDbEntity
  8
2
  6
Continuous
100
AcDbLine
 10
531.30272
 20
347.8716129999999
 30
0.0
 11
530.22022
 21
345.9966679999998
 31
0.0
  0
LINE
  5
B0D6
330
ADFF
100
AcDbEntity
  8
1
  6
Continuous
100
AcDbLine
 10
538.22022
 20
341.8716129999999
 30
0.0
 11
538.22022
 21
336.7716019999998
 31
0.0
  0
LINE
  5
B0D7
330
ADFF
100
AcDbEntity
  8
1
  6
Continuous
100
AcDbLine
 10
560.320234
 20
330.971599
 30
0.0
 11
560.720235
 21
332.2716019999998
 31
0.0
  0
LINE
  5
B0D8
330
ADFF
100
AcDbEntity
  8
1
  6
Continuous
100
AcDbLine
 10
560.72022
 20
334.771602
 30
0.0
 11
560.72022
 21
332.2716019999998
 31
0.0
  0
LINE
  5
B0D9
330
ADFF
100
AcDbEntity
  8
1
  6
Continuous
100
AcDbLine
 10
549.6202199999999
 20
341.8716129999999
 30
0.0
 11
549.6202199999999
 21
336.7716019999998
 31
0.0
  0
LINE
  5
B0DA
330
ADFF
100
AcDbEntity
  8
1
  6
Continuous
100
AcDbLine
 10
530.22022
 20
347.8716129999999
 30
0.0
 11
546.22022
 21
347.8716129999999
 31
0.0
  0
ARC
  5
B0DB
330
ADFF
100
AcDbEntity
  8
1
  6
Continuous
100
AcDbCircle
 10
382.1961659999999
 20
330.775863
 30
0.0
 40
6.0
100
AcDbArc
 50
92.158028
 51
138.2442
  0
LINE
  5
B0DC
330
ADFF
100
AcDbEntity
  8
1
  6
Continuous
100
AcDbLine
 10
377.720227
 20
334.7716099999999
 30
0.0
 11
377.720227
 21
332.27161
 31
0.0
  0
LINE
  5
B0DD
330
ADFF
100
AcDbEntity
  8
1
  6
Continuous
100
AcDbLine
 10
378.120223
 20
330.9716029999999
 30
0.0
 11
377.7202229999998
 21
332.271606
 31
0.0
  0
LINE
  5
B0DE
330
ADFF
100
AcDbEntity
  8
1
  6
Continuous
100
AcDbLine
 10
544.22022
 20
381.8716129999998
 30
0.0
 11
546.22022
 21
379.8716129999998
 31
0.0
  0
LINE
  5
B0DF
330
ADFF
100
AcDbEntity
  8
1
  6
Continuous
100
AcDbLine
 10
530.22022
 20
379.8716129999998
 30
0.0
 11
546.22022
 21
379.8716129999998
 31
0.0
  0
LINE
  5
B0E0
330
ADFF
100
AcDbEntity
  8
1
  6
Continuous
100
AcDbLine
 10
532.22022
 20
381.8716129999998
 30
0.0
 11
544.22022
 21
381.8716129999998
 31
0.0
  0
LINE
  5
B0E1
330
ADFF
100
AcDbEntity
  8
1
  6
Continuous
100
AcDbLine
 10
530.22022
 20
379.8716129999998
 30
0.0
 11
532.22022
 21
381.8716129999998
 31
0.0
  0
LINE
  5
B0E2
330
ADFF
100
AcDbEntity
  8
2
  6
Continuous
100
AcDbLine
 10
407.137727
 20
347.8716129999999
 30
0.0
 11
407.137727
 21
380.9541129999999
 31
0.0
  0
LINE
  5
B0E3
330
ADFF
100
AcDbEntity
  8
1
  6
Continuous
100
AcDbLine
 10
408.220227
 20
341.8716129999999
 30
0.0
 11
408.220227
 21
379.8716129999998
 31
0.0
  0
LINE
  5
B0E4
330
ADFF
100
AcDbEntity
  8
2
  6
Continuous
100
AcDbLine
 10
393.302727
 20
347.8716129999999
 30
0.0
 11
393.302727
 21
380.9541129999999
 31
0.0
  0
LINE
  5
B0E5
330
ADFF
100
AcDbEntity
  8
1
  6
Continuous
100
AcDbLine
 10
392.220227
 20
341.8716129999999
 30
0.0
 11
392.220227
 21
379.8716129999998
 31
0.0
  0
ARC
  5
B0E6
330
ADFF
100
AcDbEntity
  8
1
  6
Continuous
100
AcDbCircle
 10
418.2480909999998
 20
330.77161
 30
0.0
 40
6.0
100
AcDbArc
 50
41.810315
 51
90.0
  0
LINE
  5
B0E7
330
ADFF
100
AcDbEntity
  8
1
  6
Continuous
100
AcDbLine
 10
387.220227
 20
341.8716129999999
 30
0.0
 11
413.220227
 21
341.8716129999999
 31
0.0
  0
LINE
  5
B0E8
330
ADFF
100
AcDbEntity
  8
1
  6
Continuous
100
AcDbLine
 10
392.220227
 20
347.8716129999999
 30
0.0
 11
408.220227
 21
347.8716129999999
 31
0.0
  0
LINE
  5
B0E9
330
ADFF
100
AcDbEntity
  8
1
  6
Continuous
100
AcDbLine
 10
393.5806969999999
 20
341.8716129999999
 30
0.0
 11
393.5806969999999
 21
336.7716099999999
 31
0.0
  0
LINE
  5
B0EA
330
ADFF
100
AcDbEntity
  8
2
  6
Continuous
100
AcDbLine
 10
393.302727
 20
347.8716129999999
 30
0.0
 11
392.220227
 21
345.9966679999998
 31
0.0
  0
LINE
  5
B0EB
330
ADFF
100
AcDbEntity
  8
1
  6
Continuous
100
AcDbLine
 10
387.220227
 20
341.8716129999999
 30
0.0
 11
387.220227
 21
336.7716099999999
 31
0.0
  0
LINE
  5
B0EC
330
ADFF
100
AcDbEntity
  8
1
  6
Continuous
100
AcDbLine
 10
413.220227
 20
341.8716129999999
 30
0.0
 11
413.220227
 21
336.7716099999999
 31
0.0
  0
LINE
  5
B0ED
330
ADFF
100
AcDbEntity
  8
1
  6
Continuous
100
AcDbLine
 10
406.8597529999998
 20
341.8716129999999
 30
0.0
 11
406.8597529999998
 21
336.7716099999999
 31
0.0
  0
LINE
  5
B0EE
330
ADFF
100
AcDbEntity
  8
2
  6
Continuous
100
AcDbLine
 10
407.137727
 20
347.8716129999999
 30
0.0
 11
408.220227
 21
345.9966679999998
 31
0.0
  0
LINE
  5
B0EF
330
ADFF
100
AcDbEntity
  8
1
  6
Continuous
100
AcDbLine
 10
422.7202269999998
 20
334.7716099999999
 30
0.0
 11
422.7202269999998
 21
332.27161
 31
0.0
  0
LINE
  5
B0F0
330
ADFF
100
AcDbEntity
  8
1
  6
Continuous
100
AcDbLine
 10
422.3202179999998
 20
330.971611
 30
0.0
 11
422.7202189999998
 21
332.27161
 31
0.0
  0
LINE
  5
B0F1
330
ADFF
100
AcDbEntity
  8
1
  6
Continuous
100
AcDbLine
 10
394.220227
 20
381.8716129999998
 30
0.0
 11
406.220227
 21
381.8716129999998
 31
0.0
  0
LINE
  5
B0F2
330
ADFF
100
AcDbEntity
  8
1
  6
Continuous
100
AcDbLine
 10
392.220227
 20
379.8716129999998
 30
0.0
 11
408.220227
 21
379.8716129999998
 31
0.0
  0
LINE
  5
B0F3
330
ADFF
100
AcDbEntity
  8
1
  6
Continuous
100
AcDbLine
 10
392.220227
 20
379.8716129999998
 30
0.0
 11
394.220227
 21
381.8716129999998
 31
0.0
  0
LINE
  5
B0F4
330
ADFF
100
AcDbEntity
  8
1
  6
Continuous
100
AcDbLine
 10
406.220227
 20
381.8716129999998
 30
0.0
 11
408.220227
 21
379.8716129999998
 31
0.0
  0
LINE
  5
B0F6
330
ADFF
100
AcDbEntity
  8
1
  6
Continuous
100
AcDbLine
 10
209.22657
 20
494.2088459999998
 30
0.0
 11
243.330112
 21
494.195332
 31
0.0
  0
LINE
  5
B0F7
330
ADFF
100
AcDbEntity
  8
1
  6
Continuous
100
AcDbLine
 10
209.21389
 20
459.908858
 30
0.0
 11
213.230859
 21
459.9072669999998
 31
0.0
  0
LINE
  5
B0F8
330
ADFF
100
AcDbEntity
  8
1
  6
Continuous
100
AcDbLine
 10
209.2129789999999
 20
457.608859
 30
0.0
 11
243.3156219999999
 21
457.595345
 31
0.0
  0
LINE
  5
B0F9
330
ADFF
100
AcDbEntity
  8
1
  6
Continuous
100
AcDbLine
 10
212.651483
 20
462.371609
 30
0.0
 11
148.199708
 21
462.371609
 31
0.0
  0
LINE
  5
B0FA
330
ADFF
100
AcDbEntity
  8
1
  6
Continuous
100
AcDbLine
 10
212.6514809999999
 20
489.3716089999998
 30
0.0
 11
148.199708
 21
489.3716089999998
 31
0.0
  0
ARC
  5
B0FB
330
ADFF
100
AcDbEntity
  8
1
  6
Continuous
100
AcDbCircle
 10
148.199708
 20
487.371609
 30
0.0
 40
2.0
100
AcDbArc
 50
90.00005499999994
 51
170.2635129999999
  0
ARC
  5
B0FC
330
ADFF
100
AcDbEntity
  8
1
  6
Continuous
100
AcDbCircle
 10
148.199708
 20
464.3716089999998
 30
0.0
 40
2.0
100
AcDbArc
 50
189.73656
 51
270.00002
  0
ARC
  5
B0FD
330
ADFF
100
AcDbEntity
  8
1
  6
Continuous
100
AcDbCircle
 10
215.2202229999998
 20
475.871609
 30
0.0
 40
70.0
100
AcDbArc
 50
170.26348
 51
189.7365939999999
  0
LINE
  5
B0FE
330
ADFF
100
AcDbEntity
  8
1
  6
Continuous
100
AcDbLine
 10
209.2129789999999
 20
457.608859
 30
0.0
 11
209.21389
 21
459.908858
 31
0.0
  0
ARC
  5
B0FF
330
ADFF
100
AcDbEntity
  8
1
  6
Continuous
100
AcDbCircle
 10
262.2202259999999
 20
475.887855
 30
0.0
 40
25.0
100
AcDbArc
 50
230.93368
 51
129.0209429999999
  0
CIRCLE
  5
B100
330
ADFF
100
AcDbEntity
  8
1
  6
Continuous
100
AcDbCircle
 10
262.2202229999999
 20
475.871609
 30
0.0
 40
22.5
  0
CIRCLE
  5
B101
330
ADFF
100
AcDbEntity
  8
1
  6
Continuous
100
AcDbCircle
 10
262.2202229999999
 20
475.871609
 30
0.0
 40
18.25
  0
ARC
  5
B102
330
ADFF
100
AcDbEntity
  8
1
  6
Continuous
100
AcDbCircle
 10
262.2202259999999
 20
475.887855
 30
0.0
 40
25.0
100
AcDbArc
 50
140.3068849999999
 51
219.622718
  0
ARC
  5
B103
330
ADFF
100
AcDbEntity
  8
1
  6
Continuous
100
AcDbCircle
 10
275.6035719999999
 20
475.8716139999998
 30
0.0
 40
64.383349
100
AcDbArc
 50
163.454027
 51
196.4802689999999
  0
LINE
  5
B109
330
ADFF
100
AcDbEntity
  8
1
  6
Continuous
100
AcDbLine
 10
273.6202229999999
 20
469.4534019999998
 30
0.0
 11
273.6202229999999
 21
482.289816
 31
0.0
  0
CIRCLE
  5
B10A
330
ADFF
100
AcDbEntity
  8
1
  6
Continuous
100
AcDbCircle
 10
262.2202229999999
 20
475.871609
 30
0.0
 40
6.0
  0
LINE
  5
B10B
330
ADFF
100
AcDbEntity
  8
1
  6
Continuous
100
AcDbLine
 10
250.820223
 20
469.4534019999998
 30
0.0
 11
250.820223
 21
482.289816
 31
0.0
  0
CIRCLE
  5
B10C
330
ADFF
100
AcDbEntity
  8
1
  6
Continuous
100
AcDbCircle
 10
262.2202229999999
 20
475.871609
 30
0.0
 40
8.0
  0
CIRCLE
  5
B10D
330
ADFF
100
AcDbEntity
  8
2
  6
Continuous
100
AcDbCircle
 10
262.2202229999999
 20
475.871609
 30
0.0
 40
6.9175
  0
LINE
  5
B10E
330
ADFF
100
AcDbEntity
  8
1
  6
Continuous
100
AcDbLine
 10
250.820223
 20
469.4534019999998
 30
0.0
 11
262.2202229999999
 21
462.871609
 31
0.0
  0
ARC
  5
B10F
330
ADFF
100
AcDbEntity
  8
1
  6
Continuous
100
AcDbCircle
 10
243.3136399999999
 20
452.595345
 30
0.0
 40
5.0
100
AcDbArc
 50
50.93367999999999
 51
89.97729599999997
  0
LINE
  5
B110
330
ADFF
100
AcDbEntity
  8
1
  6
Continuous
100
AcDbLine
 10
273.6202229999999
 20
469.4534019999998
 30
0.0
 11
262.2202229999999
 21
462.871609
 31
0.0
  0
LINE
  5
B111
330
ADFF
100
AcDbEntity
  8
1
  6
Continuous
100
AcDbLine
 10
262.2202229999999
 20
488.8716089999999
 30
0.0
 11
250.820223
 21
482.289816
 31
0.0
  0
ARC
  5
B112
330
ADFF
100
AcDbEntity
  8
1
  6
Continuous
100
AcDbCircle
 10
243.3320939999999
 20
499.195332
 30
0.0
 40
5.0
100
AcDbArc
 50
269.977296
 51
309.0209429999998
  0
LINE
  5
B113
330
ADFF
100
AcDbEntity
  8
1
  6
Continuous
100
AcDbLine
 10
262.2202229999999
 20
488.8716089999999
 30
0.0
 11
273.6202229999999
 21
482.289816
 31
0.0
  0
ARC
  5
B114
330
ADFF
100
AcDbEntity
  8
1
  6
Continuous
100
AcDbCircle
 10
225.2202229999999
 20
475.871609
 30
0.0
 40
70.0
100
AcDbArc
 50
350.2634059999999
 51
9.73652
  0
LINE
  5
B115
330
ADFF
100
AcDbEntity
  8
1
  6
Continuous
100
AcDbLine
 10
292.240737
 20
462.371609
 30
0.0
 11
283.2514189999999
 21
462.371609
 31
0.0
  0
ARC
  5
B116
330
ADFF
100
AcDbEntity
  8
1
  6
Continuous
100
AcDbCircle
 10
292.2407379999999
 20
464.3716089999998
 30
0.0
 40
2.0
100
AcDbArc
 50
269.99998
 51
350.26344
  0
LINE
  5
B117
330
ADFF
100
AcDbEntity
  8
1
  6
Continuous
100
AcDbLine
 10
292.24074
 20
489.3716089999998
 30
0.0
 11
283.2722659999999
 21
489.3716089999998
 31
0.0
  0
ARC
  5
B118
330
ADFF
100
AcDbEntity
  8
1
  6
Continuous
100
AcDbCircle
 10
292.2407379999999
 20
487.371609
 30
0.0
 40
2.0
100
AcDbArc
 50
9.736487
 51
89.99994499999997
  0
LINE
  5
B119
330
ADFF
100
AcDbEntity
  8
1
  6
Continuous
100
AcDbLine
 10
209.22657
 20
491.9088559999998
 30
0.0
 11
209.22657
 21
494.2088459999998
 31
0.0
  0
LINE
  5
B11A
330
ADFF
100
AcDbEntity
  8
2
  6
Continuous
100
AcDbLine
 10
64.13772699999999
 20
347.8716129999999
 30
0.0
 11
64.13772699999999
 21
380.9541129999999
 31
0.0
  0
LINE
  5
B11B
330
ADFF
100
AcDbEntity
  8
1
  6
Continuous
100
AcDbLine
 10
65.22022699999999
 20
341.8716129999999
 30
0.0
 11
65.22022699999999
 21
379.8716129999998
 31
0.0
  0
LINE
  5
B11C
330
ADFF
100
AcDbEntity
  8
2
  6
Continuous
100
AcDbLine
 10
50.30272700000001
 20
347.8716129999999
 30
0.0
 11
50.30272700000001
 21
380.9541129999999
 31
0.0
  0
LINE
  5
B11D
330
ADFF
100
AcDbEntity
  8
1
  6
Continuous
100
AcDbLine
 10
49.220227
 20
341.8716129999999
 30
0.0
 11
49.220227
 21
379.8716129999998
 31
0.0
  0
LINE
  5
B11E
330
ADFF
100
AcDbEntity
  8
1
  6
Continuous
100
AcDbLine
 10
44.220227
 20
341.8716129999999
 30
0.0
 11
70.22022699999999
 21
341.8716129999999
 31
0.0
  0
LINE
  5
B11F
330
ADFF
100
AcDbEntity
  8
1
  6
Continuous
100
AcDbLine
 10
79.32021800000002
 20
330.971607
 30
0.0
 11
35.120227
 21
330.971607
 31
0.0
  0
LINE
  5
B120
330
ADFF
100
AcDbEntity
  8
1
  6
Continuous
100
AcDbLine
 10
75.248091
 20
336.7716099999999
 30
0.0
 11
38.970227
 21
336.7716099999999
 31
0.0
  0
LINE
  5
B121
330
ADFF
100
AcDbEntity
  8
1
  6
Continuous
100
AcDbLine
 10
79.72022700000002
 20
334.7716099999999
 30
0.0
 11
34.720227
 21
334.7716099999999
 31
0.0
  0
ARC
  5
B122
330
ADFF
100
AcDbEntity
  8
1
  6
Continuous
100
AcDbCircle
 10
39.19616599999999
 20
330.775863
 30
0.0
 40
6.0
100
AcDbArc
 50
92.158028
 51
138.2442
  0
LINE
  5
B123
330
ADFF
100
AcDbEntity
  8
1
  6
Continuous
100
AcDbLine
 10
34.720227
 20
334.7716099999999
 30
0.0
 11
34.720227
 21
332.27161
 31
0.0
  0
LINE
  5
B124
330
ADFF
100
AcDbEntity
  8
1
  6
Continuous
100
AcDbLine
 10
35.12022299999999
 20
330.9716029999999
 30
0.0
 11
34.72022299999999
 21
332.271606
 31
0.0
  0
LINE
  5
B125
330
ADFF
100
AcDbEntity
  8
1
  6
Continuous
100
AcDbLine
 10
44.220227
 20
341.8716129999999
 30
0.0
 11
44.220227
 21
336.7716099999999
 31
0.0
  0
ARC
  5
B126
330
ADFF
100
AcDbEntity
  8
1
  6
Continuous
100
AcDbCircle
 10
75.248091
 20
330.77161
 30
0.0
 40
6.0
100
AcDbArc
 50
41.810315
 51
90.0
  0
LINE
  5
B127
330
ADFF
100
AcDbEntity
  8
1
  6
Continuous
100
AcDbLine
 10
79.32021800000002
 20
330.971611
 30
0.0
 11
79.720219
 21
332.27161
 31
0.0
  0
LINE
  5
B128
330
ADFF
100
AcDbEntity
  8
1
  6
Continuous
100
AcDbLine
 10
49.220227
 20
347.8716129999999
 30
0.0
 11
65.22022699999999
 21
347.8716129999999
 31
0.0
  0
LINE
  5
B129
330
ADFF
100
AcDbEntity
  8
2
  6
Continuous
100
AcDbLine
 10
50.30272700000001
 20
347.8716129999999
 30
0.0
 11
49.220227
 21
345.9966679999998
 31
0.0
  0
LINE
  5
B12A
330
ADFF
100
AcDbEntity
  8
1
  6
Continuous
100
AcDbLine
 10
50.580697
 20
341.8716129999999
 30
0.0
 11
50.580697
 21
336.7716099999999
 31
0.0
  0
LINE
  5
B12B
330
ADFF
100
AcDbEntity
  8
2
  6
Continuous
100
AcDbLine
 10
64.13772699999999
 20
347.8716129999999
 30
0.0
 11
65.22022699999999
 21
345.9966679999998
 31
0.0
  0
LINE
  5
B12C
330
ADFF
100
AcDbEntity
  8
1
  6
Continuous
100
AcDbLine
 10
70.22022699999999
 20
341.8716129999999
 30
0.0
 11
70.22022699999999
 21
336.7716099999999
 31
0.0
  0
LINE
  5
B12D
330
ADFF
100
AcDbEntity
  8
1
  6
Continuous
100
AcDbLine
 10
63.85975300000001
 20
341.8716129999999
 30
0.0
 11
63.85975300000001
 21
336.7716099999999
 31
0.0
  0
LINE
  5
B12E
330
ADFF
100
AcDbEntity
  8
1
  6
Continuous
100
AcDbLine
 10
79.72022700000002
 20
334.7716099999999
 30
0.0
 11
79.72022700000002
 21
332.27161
 31
0.0
  0
LINE
  5
B12F
330
ADFF
100
AcDbEntity
  8
1
  6
Continuous
100
AcDbLine
 10
49.220227
 20
379.8716129999998
 30
0.0
 11
65.22022699999999
 21
379.8716129999998
 31
0.0
  0
LINE
  5
B130
330
ADFF
100
AcDbEntity
  8
1
  6
Continuous
100
AcDbLine
 10
63.220227
 20
381.8716129999998
 30
0.0
 11
65.22022699999999
 21
379.8716129999998
 31
0.0
  0
LINE
  5
B131
330
ADFF
100
AcDbEntity
  8
1
  6
Continuous
100
AcDbLine
 10
51.220227
 20
381.8716129999998
 30
0.0
 11
63.220227
 21
381.8716129999998
 31
0.0
  0
LINE
  5
B132
330
ADFF
100
AcDbEntity
  8
1
  6
Continuous
100
AcDbLine
 10
49.220227
 20
379.8716129999998
 30
0.0
 11
51.220227
 21
381.8716129999998
 31
0.0
  0
LINE
  5
B133
330
ADFF
100
AcDbEntity
  8
1
  6
Continuous
100
AcDbLine
 10
270.2202199999999
 20
341.8716129999999
 30
0.0
 11
270.2202199999999
 21
379.8716129999998
 31
0.0
  0
LINE
  5
B134
330
ADFF
100
AcDbEntity
  8
2
  6
Continuous
100
AcDbLine
 10
269.13772
 20
347.8716129999999
 30
0.0
 11
269.13772
 21
380.9541129999999
 31
0.0
  0
LINE
  5
B135
330
ADFF
100
AcDbEntity
  8
1
  6
Continuous
100
AcDbLine
 10
254.22022
 20
341.8716129999999
 30
0.0
 11
254.22022
 21
379.8716129999998
 31
0.0
  0
LINE
  5
B136
330
ADFF
100
AcDbEntity
  8
2
  6
Continuous
100
AcDbLine
 10
255.3027199999999
 20
347.8716129999999
 30
0.0
 11
255.3027199999999
 21
380.9541129999999
 31
0.0
  0
LINE
  5
B137
330
ADFF
100
AcDbEntity
  8
1
  6
Continuous
100
AcDbLine
 10
250.8202199999999
 20
341.8716129999999
 30
0.0
 11
273.62022
 21
341.8716129999999
 31
0.0
  0
LINE
  5
B138
330
ADFF
100
AcDbEntity
  8
1
  6
Continuous
100
AcDbLine
 10
254.22022
 20
347.8716129999999
 30
0.0
 11
270.2202199999999
 21
347.8716129999999
 31
0.0
  0
LINE
  5
B139
330
ADFF
100
AcDbEntity
  8
1
  6
Continuous
100
AcDbLine
 10
280.4702869999999
 20
336.7716019999998
 30
0.0
 11
243.97022
 21
336.7716019999998
 31
0.0
  0
LINE
  5
B13A
330
ADFF
100
AcDbEntity
  8
1
  6
Continuous
100
AcDbLine
 10
284.7202199999998
 20
334.771602
 30
0.0
 11
239.72022
 21
334.771602
 31
0.0
  0
LINE
  5
B13B
330
ADFF
100
AcDbEntity
  8
1
  6
Continuous
100
AcDbLine
 10
284.3202359999999
 20
330.971607
 30
0.0
 11
240.1202099999999
 21
330.971607
 31
0.0
  0
ARC
  5
B13C
330
ADFF
100
AcDbEntity
  8
1
  6
Continuous
100
AcDbCircle
 10
244.1961599999999
 20
330.77586
 30
0.0
 40
6.0
100
AcDbArc
 50
92.158028
 51
138.2442
  0
LINE
  5
B13D
330
ADFF
100
AcDbEntity
  8
1
  6
Continuous
100
AcDbLine
 10
240.1202399999998
 20
330.9716029999999
 30
0.0
 11
239.7202399999999
 21
332.27161
 31
0.0
  0
LINE
  5
B13E
330
ADFF
100
AcDbEntity
  8
1
  6
Continuous
100
AcDbLine
 10
239.72022
 20
334.771602
 30
0.0
 11
239.72022
 21
332.2716019999998
 31
0.0
  0
LINE
  5
B13F
330
ADFF
100
AcDbEntity
  8
2
  6
Continuous
100
AcDbLine
 10
255.3027199999999
 20
347.8716129999999
 30
0.0
 11
254.22022
 21
345.9966679999998
 31
0.0
  0
LINE
  5
B140
330
ADFF
100
AcDbEntity
  8
1
  6
Continuous
100
AcDbLine
 10
250.8202199999999
 20
341.8716129999999
 30
0.0
 11
250.8202199999999
 21
336.7716019999998
 31
0.0
  0
LINE
  5
B141
330
ADFF
100
AcDbEntity
  8
2
  6
Continuous
100
AcDbLine
 10
269.13772
 20
347.8716129999999
 30
0.0
 11
270.2202199999999
 21
345.9966679999998
 31
0.0
  0
LINE
  5
B142
330
ADFF
100
AcDbEntity
  8
1
  6
Continuous
100
AcDbLine
 10
262.2202199999999
 20
341.8716129999999
 30
0.0
 11
262.2202199999999
 21
336.7716019999998
 31
0.0
  0
LINE
  5
B143
330
ADFF
100
AcDbEntity
  8
1
  6
Continuous
100
AcDbLine
 10
284.3202339999999
 20
330.971599
 30
0.0
 11
284.7202349999998
 21
332.2716019999998
 31
0.0
  0
LINE
  5
B144
330
ADFF
100
AcDbEntity
  8
1
  6
Continuous
100
AcDbLine
 10
284.7202199999998
 20
334.771602
 30
0.0
 11
284.7202199999998
 21
332.2716019999998
 31
0.0
  0
ARC
  5
B145
330
ADFF
100
AcDbEntity
  8
1
  6
Continuous
100
AcDbCircle
 10
280.244283
 20
330.77586
 30
0.0
 40
6.0
100
AcDbArc
 50
41.75575999999996
 51
87.841936
  0
LINE
  5
B146
330
ADFF
100
AcDbEntity
  8
1
  6
Continuous
100
AcDbLine
 10
273.62022
 20
341.8716129999999
 30
0.0
 11
273.62022
 21
336.7716019999998
 31
0.0
  0
LINE
  5
B147
330
ADFF
100
AcDbEntity
  8
1
  6
Continuous
100
AcDbLine
 10
254.22022
 20
379.8716129999998
 30
0.0
 11
270.2202199999999
 21
379.8716129999998
 31
0.0
  0
LINE
  5
B148
330
ADFF
100
AcDbEntity
  8
1
  6
Continuous
100
AcDbLine
 10
256.2202199999999
 20
381.8716129999998
 30
0.0
 11
268.2202199999999
 21
381.8716129999998
 31
0.0
  0
LINE
  5
B149
330
ADFF
100
AcDbEntity
  8
1
  6
Continuous
100
AcDbLine
 10
254.22022
 20
379.8716129999998
 30
0.0
 11
256.2202199999999
 21
381.8716129999998
 31
0.0
  0
LINE
  5
B14A
330
ADFF
100
AcDbEntity
  8
1
  6
Continuous
100
AcDbLine
 10
268.2202199999999
 20
381.8716129999998
 30
0.0
 11
270.2202199999999
 21
379.8716129999998
 31
0.0
  0
LINE
  5
B14B
330
ADFF
100
AcDbEntity
  8
1
  6
Continuous
100
AcDbLine
 10
215.970223
 20
497.3715789999998
 30
0.0
 11
224.470223
 21
497.3715789999998
 31
0.0
  0
LINE
  5
B14C
330
ADFF
100
AcDbEntity
  8
1
  6
Continuous
100
AcDbLine
 10
213.970223
 20
494.171599
 30
0.0
 11
213.970223
 21
495.371579
 31
0.0
  0
ARC
  5
B14D
330
ADFF
100
AcDbEntity
  8
1
  6
Continuous
100
AcDbCircle
 10
215.970223
 20
495.371579
 30
0.0
 40
2.0
100
AcDbArc
 50
90.0
 51
179.999982
  0
ARC
  5
B14F
330
ADFF
100
AcDbEntity
  8
1
  6
Continuous
100
AcDbCircle
 10
224.470223
 20
495.371579
 30
0.0
 40
2.0
100
AcDbArc
 50
0.00002
 51
90.0
  0
LINE
  5
B150
330
ADFF
100
AcDbEntity
  8
1
  6
Continuous
100
AcDbLine
 10
226.470223
 20
494.171599
 30
0.0
 11
226.470223
 21
495.371579
 31
0.0
  0
LINE
  5
B151
330
ADFF
100
AcDbEntity
  8
1
  6
Continuous
100
AcDbLine
 10
230.189608
 20
495.671599
 30
0.0
 11
232.988739
 21
495.671599
 31
0.0
  0
ARC
  5
B152
330
ADFF
100
AcDbEntity
  8
1
  6
Continuous
100
AcDbCircle
 10
232.0617069999999
 20
494.671599
 30
0.0
 40
1.0
100
AcDbArc
 50
47.02379599999999
 51
90.0
  0
ARC
  5
B153
330
ADFF
100
AcDbEntity
  8
1
  6
Continuous
100
AcDbCircle
 10
232.032534
 20
493.671599
 30
0.0
 40
1.0
100
AcDbArc
 50
44.15845
 51
90.0
  0
LINE
  5
B154
330
ADFF
100
AcDbEntity
  8
1
  6
Continuous
100
AcDbLine
 10
230.189608
 20
494.671599
 30
0.0
 11
232.032534
 21
494.671599
 31
0.0
  0
LINE
  5
B155
330
ADFF
100
AcDbEntity
  8
1
  6
Continuous
100
AcDbLine
 10
230.189608
 20
495.671599
 30
0.0
 11
230.189608
 21
494.671599
 31
0.0
  0
ARC
  5
B156
330
ADFF
100
AcDbEntity
  8
1
  6
Continuous
100
AcDbCircle
 10
232.988739
 20
493.671599
 30
0.0
 40
2.0
100
AcDbArc
 50
49.82084
 51
90.0
  0
LINE
  5
B157
330
ADFF
100
AcDbEntity
  8
1
  6
Continuous
100
AcDbLine
 10
232.74995
 20
494.368244
 30
0.0
 11
232.913847
 21
494.19946
 31
0.0
  0
LINE
  5
B158
330
ADFF
100
AcDbEntity
  8
1
  6
Continuous
100
AcDbLine
 10
232.743402
 20
495.403236
 30
0.0
 11
234.035846
 21
494.1990149999998
 31
0.0
  0
LINE
  5
B159
330
ADFF
100
AcDbEntity
  8
1
  6
Continuous
100
AcDbLine
 10
234.2790990000001
 20
495.1996599999998
 30
0.0
 11
235.4647469999999
 21
494.198449
 31
0.0
  0
ARC
  5
B15A
330
ADFF
100
AcDbEntity
  8
1
  6
Continuous
100
AcDbCircle
 10
262.3867399999999
 20
446.5716089999999
 30
0.0
 40
12.239545
100
AcDbArc
 50
319.106544
 51
32.70106
  0
ARC
  5
B15B
330
ADFF
100
AcDbEntity
  8
1
  6
Continuous
100
AcDbCircle
 10
246.788092
 20
365.9334709999998
 30
0.0
 40
85.728165
100
AcDbArc
 50
104.6257939999997
 51
111.159635
  0
ARC
  5
B15C
330
ADFF
100
AcDbEntity
  8
1
  6
Continuous
100
AcDbCircle
 10
227.7473049999999
 20
434.4907219999998
 30
0.0
 40
14.874959
100
AcDbArc
 50
45.39152799999999
 51
87.78465799999997
  0
ARC
  5
B15D
330
ADFF
100
AcDbEntity
  8
1
  6
Continuous
100
AcDbCircle
 10
228.897299
 20
434.4907219999998
 30
0.0
 40
14.874959
100
AcDbArc
 50
45.39152799999999
 51
104.6257939999997
  0
ARC
  5
B15E
330
ADFF
100
AcDbEntity
  8
1
  6
Continuous
100
AcDbCircle
 10
265.099982
 20
444.2218769999998
 30
0.0
 40
8.650256
100
AcDbArc
 50
244.407436
 51
319.106544
  0
LINE
  5
B15F
330
ADFF
100
AcDbEntity
  8
1
  6
Continuous
100
AcDbLine
 10
239.3356999999999
 20
445.0716089999998
 30
0.0
 11
261.36343
 21
436.420268
 31
0.0
  0
LINE
  5
B160
330
ADFF
100
AcDbEntity
  8
1
  6
Continuous
100
AcDbLine
 10
238.185706
 20
445.071624
 30
0.0
 11
260.780249
 21
436.1732779999998
 31
0.0
  0
LINE
  5
B161
330
ADFF
100
AcDbEntity
  8
1
  6
Continuous
100
AcDbLine
 10
263.9499879999998
 20
435.5716089999998
 30
0.0
 11
265.099982
 21
435.5716089999998
 31
0.0
  0
ARC
  5
B162
330
ADFF
100
AcDbEntity
  8
1
  6
Continuous
100
AcDbCircle
 10
263.9499879999998
 20
444.2218769999998
 30
0.0
 40
8.650256
100
AcDbArc
 50
248.5041559999999
 51
269.9999969999999
  0
LINE
  5
B163
330
ADFF
100
AcDbEntity
  8
1
  6
Continuous
100
AcDbLine
 10
213.354941
 20
450.219894
 30
0.0
 11
213.354941
 21
455.808212
 31
0.0
  0
LINE
  5
B164
330
ADFF
100
AcDbEntity
  8
1
  6
Continuous
100
AcDbLine
 10
239.3356999999999
 20
450.219894
 30
0.0
 11
239.3356999999999
 21
455.808212
 31
0.0
  0
ARC
  5
B165
330
ADFF
100
AcDbEntity
  8
1
  6
Continuous
100
AcDbCircle
 10
419.720193
 20
241.1216089999999
 30
0.0
 40
2.0
100
AcDbArc
 50
0.0
 51
89.99998199999996
  0
LINE
  5
B166
330
ADFF
100
AcDbEntity
  8
1
  6
Continuous
100
AcDbLine
 10
418.520213
 20
243.1216089999999
 30
0.0
 11
419.720193
 21
243.1216089999999
 31
0.0
  0
LINE
  5
B167
330
ADFF
100
AcDbEntity
  8
1
  6
Continuous
100
AcDbLine
 10
421.7201929999998
 20
241.1216089999999
 30
0.0
 11
421.7201929999998
 21
232.6216089999999
 31
0.0
  0
ARC
  5
B168
330
ADFF
100
AcDbEntity
  8
1
  6
Continuous
100
AcDbCircle
 10
419.720193
 20
232.6216089999999
 30
0.0
 40
2.0
100
AcDbArc
 50
270.00002
 51
0.0
  0
LINE
  5
B169
330
ADFF
100
AcDbEntity
  8
1
  6
Continuous
100
AcDbLine
 10
418.520213
 20
230.6216089999999
 30
0.0
 11
419.720193
 21
230.6216089999999
 31
0.0
  0
LINE
  5
B184
330
ADFF
100
AcDbEntity
  8
4
  6
CENTER
100
AcDbLine
 10
262.2202229999999
 20
106.8878549999998
 30
0.0
 11
262.2202229999999
 21
40.88785500000017
 31
0.0
  0
LINE
  5
B18D
330
ADFF
100
AcDbEntity
  8
1
  6
Continuous
100
AcDbLine
 10
209.22657
 20
491.9088559999998
 30
0.0
 11
213.2495625259553
 21
491.9088559999996
 31
0.0
  0
ARC
  5
B236
330
ADFF
100
AcDbEntity
  8
1
  6
Continuous
100
AcDbCircle
 10
261.7920736128561
 20
102.5453642812432
 30
0.0
 40
10.53709224264076
100
AcDbArc
 50
283.5643062680928
 51
1.909682091703298
  0
ARC
  5
B237
330
ADFF
100
AcDbEntity
  8
1
  6
Continuous
100
AcDbCircle
 10
262.9679341758748
 20
102.6331252597544
 30
0.0
 40
10.50750754693528
100
AcDbArc
 50
275.3627072951354
 51
1.300525852142657
  0
ARC
  5
B238
330
ADFF
100
AcDbEntity
  8
1
  6
Continuous
100
AcDbCircle
 10
188.0114888801115
 20
103.1716027515657
 30
0.0
 40
12.239545
100
AcDbArc
 50
139.106542
 51
220.8934539999989
  0
ARC
  5
B25E
330
ADFF
100
AcDbEntity
  8
1
  6
Continuous
100
AcDbCircle
 10
185.2982478801115
 20
100.8218707515659
 30
0.0
 40
8.650256
100
AcDbArc
 50
220.893458
 51
257.055683875038
  0
ARC
  5
B2B3
330
ADFF
100
AcDbEntity
  8
1
  6
Continuous
100
AcDbCircle
 10
261.5446623165459
 20
103.6119504001452
 30
0.0
 40
10.80236951550817
100
AcDbArc
 50
356.2024868638443
 51
73.57571011594792
  0
ARC
  5
B2B4
330
ADFF
100
AcDbEntity
  8
1
  6
Continuous
100
AcDbCircle
 10
262.694083772991
 20
103.587056325859
 30
0.0
 40
10.80236951550823
100
AcDbArc
 50
356.2024868638443
 51
75.3848287866187
  0
ARC
  5
B2B7
330
ADFF
100
AcDbEntity
  8
1
  6
Continuous
100
AcDbCircle
 10
185.2982478801115
 20
105.5213487515659
 30
0.0
 40
8.650256
100
AcDbArc
 50
90.00000299999769
 51
139.106542
  0
ARC
  5
B2B9
330
ADFF
100
AcDbEntity
  8
1
  6
Continuous
100
AcDbCircle
 10
186.438350366471
 20
105.8310726682081
 30
0.0
 40
8.340167063140372
100
AcDbArc
 50
68.40242817895536
 51
93.9360168386303
  0
ARC
  5
B2BA
330
ADFF
100
AcDbEntity
  8
1
  6
Continuous
100
AcDbCircle
 10
185.2844152677071
 20
105.8157692253276
 30
0.0
 40
8.355846975033793
100
AcDbArc
 50
68.415926585153
 51
89.90515327487415
  0
ARC
  5
B2C9
330
ADFF
100
AcDbEntity
  8
1
  6
Continuous
100
AcDbCircle
 10
263.9500698122523
 20
105.904508448553
 30
0.0
 40
8.267072342806917
100
AcDbArc
 50
79.7594654821253
 51
94.02698711332195
  0
ARC
  5
B2CA
330
ADFF
100
AcDbEntity
  8
1
  6
Continuous
100
AcDbCircle
 10
262.7976467167761
 20
105.8498385766896
 30
0.0
 40
8.321005050241126
100
AcDbArc
 50
77.49738924465683
 51
111.6154525606094
  0
ENDSEC
  0
SECTION
  2
OBJECTS
  0
DICTIONARY
  5
ADED
330
0
100
AcDbDictionary
281
     1
  3
ACAD_CIP_PREVIOUS_PRODUCT_INFO
350
B32F
  3
ACAD_COLOR
350
B311
  3
ACAD_DETAILVIEWSTYLE
350
B32A
  3
ACAD_GROUP
350
ADEE
  3
ACAD_LAYOUT
350
ADFA
  3
ACAD_MATERIAL
350
B2DF
  3
ACAD_MLEADERSTYLE
350
B326
  3
ACAD_MLINESTYLE
350
ADF7
  3
ACAD_PLOTSETTINGS
350
ADF9
  3
ACAD_PLOTSTYLENAME
350
B2DD
  3
ACAD_SCALELIST
350
B314
  3
ACAD_SECTIONVIEWSTYLE
350
B328
  3
ACAD_TABLESTYLE
350
B312
  3
ACAD_VISUALSTYLE
350
B2F8
  3
ACDB_RECOMPOSE_DATA
350
B34D
  3
AcDbVariableDictionary
350
B340
  3
DWGPROPS
350
B34E
  0
DICTIONARY
  5
B330
330
ADF1
100
AcDbDictionary
280
     1
281
     1
  3
ADSK_XREC_LAYER_RECONCILED
360
B331
  0
DICTIONARY
  5
B332
330
AE07
100
AcDbDictionary
280
     1
281
     1
  3
ADSK_XREC_LAYER_RECONCILED
360
B333
  0
DICTIONARY
  5
B334
330
AE08
100
AcDbDictionary
280
     1
281
     1
  3
ADSK_XREC_LAYER_RECONCILED
360
B335
  0
DICTIONARY
  5
B336
330
AE09
100
AcDbDictionary
280
     1
281
     1
  3
ADSK_XREC_LAYER_RECONCILED
360
B337
  0
DICTIONARY
  5
B338
330
AE0A
100
AcDbDictionary
280
     1
281
     1
  3
ADSK_XREC_LAYER_RECONCILED
360
B339
  0
DICTIONARY
  5
B33A
330
AE0B
100
AcDbDictionary
280
     1
281
     1
  3
ADSK_XREC_LAYER_RECONCILED
360
B33B
  0
DICTIONARY
  5
B33C
330
AE0C
100
AcDbDictionary
280
     1
281
     1
  3
ADSK_XREC_LAYER_RECONCILED
360
B33D
  0
DICTIONARY
  5
B33E
330
AE0D
100
AcDbDictionary
280
     1
281
     1
  3
ADSK_XREC_LAYER_RECONCILED
360
B33F
  0
DICTIONARY
  5
B174
330
ADFF
100
AcDbDictionary
281
     1
  3
ACAD_LAYOUTSELFREF
350
B2D9
  0
DICTIONARY
  5
B172
330
ADFB
100
AcDbDictionary
281
     1
  3
ACAD_LAYOUTSELFREF
350
B2D8
  0
XRECORD
  5
B32F
102
{ACAD_REACTORS
330
ADED
102
}
330
ADED
100
AcDbXrecord
280
     1
300
ACDLT
300
2014
300
ACDLT_F_S
  0
DICTIONARY
  5
B311
102
{ACAD_REACTORS
330
ADED
102
}
330
ADED
100
AcDbDictionary
281
     1
  0
DICTIONARY
  5
B32A
102
{ACAD_REACTORS
330
ADED
102
}
330
ADED
100
AcDbDictionary
281
     1
  3
Imperial24
350
B32B
  0
DICTIONARY
  5
ADEE
102
{ACAD_REACTORS
330
ADED
102
}
330
ADED
100
AcDbDictionary
281
     1
  0
DICTIONARY
  5
ADFA
102
{ACAD_REACTORS
330
ADED
102
}
330
ADED
100
AcDbDictionary
281
     1
  3
Model
350
B32C
  3
レイアウト1
350
B32D
  0
DICTIONARY
  5
B2DF
102
{ACAD_REACTORS
330
ADED
102
}
330
ADED
100
AcDbDictionary
281
     1
  3
ByBlock
350
B2E8
  3
ByLayer
350
B2E0
  3
Global
350
B2F0
  0
DICTIONARY
  5
B326
102
{ACAD_REACTORS
330
ADED
102
}
330
ADED
100
AcDbDictionary
281
     1
  3
Standard
350
B327
  0
DICTIONARY
  5
ADF7
102
{ACAD_REACTORS
330
ADED
102
}
330
ADED
100
AcDbDictionary
281
     1
  3
STANDARD
350
ADF8
  0
DICTIONARY
  5
ADF9
102
{ACAD_REACTORS
330
ADED
102
}
330
ADED
100
AcDbDictionary
281
     1
  0
ACDBDICTIONARYWDFLT
  5
B2DD
102
{ACAD_REACTORS
330
ADED
102
}
330
ADED
100
AcDbDictionary
281
     1
  3
Normal
350
B2DE
100
AcDbDictionaryWithDefault
340
B2DE
  0
DICTIONARY
  5
B314
102
{ACAD_REACTORS
330
ADED
102
}
330
ADED
100
AcDbDictionary
281
     1
  3
A0
350
B315
  3
A1
350
B316
  3
A2
350
B317
  3
A3
350
B318
  3
A4
350
B319
  3
A5
350
B31A
  3
A6
350
B31B
  3
A7
350
B31C
  3
A8
350
B31D
  3
A9
350
B31E
  3
B0
350
B31F
  3
B1
350
B320
  3
B2
350
B321
  3
B3
350
B322
  3
B4
350
B323
  3
B5
350
B324
  3
B6
350
B325
  0
DICTIONARY
  5
B328
102
{ACAD_REACTORS
330
ADED
102
}
330
ADED
100
AcDbDictionary
281
     1
  3
Imperial24
350
B329
  0
DICTIONARY
  5
B312
102
{ACAD_REACTORS
330
ADED
102
}
330
ADED
100
AcDbDictionary
281
     1
  3
Standard
350
B313
  0
DICTIONARY
  5
B2F8
102
{ACAD_REACTORS
330
ADED
102
}
330
ADED
100
AcDbDictionary
281
     1
  3
2dWireframe
350
B2FE
  3
Basic
350
B2FD
  3
Brighten
350
B304
  3
ColorChange
350
B308
  3
Conceptual
350
B301
  3
Dim
350
B303
  3
EdgeColorOff
350
B310
  3
Facepattern
350
B307
  3
Flat
350
B2F9
  3
FlatWithEdges
350
B2FA
  3
Gouraud
350
B2FB
  3
GouraudWithEdges
350
B2FC
  3
Hidden
350
B300
  3
JitterOff
350
B30E
  3
Linepattern
350
B306
  3
OverhangOff
350
B30F
  3
Realistic
350
B302
  3
Shaded
350
B30D
  3
Shaded with edges
350
B30C
  3
Shades of Gray
350
B309
  3
Sketchy
350
B30A
  3
Thicken
350
B305
  3
Wireframe
350
B2FF
  3
X-Ray
350
B30B
  0
XRECORD
  5
B34D
102
{ACAD_REACTORS
330
ADED
102
}
330
ADED
100
AcDbXrecord
280
     1
 90
        1
330
B313
  0
DICTIONARY
  5
B340
102
{ACAD_REACTORS
330
ADED
102
}
330
ADED
100
AcDbDictionary
281
     1
  3
CANNOSCALE
350
B345
  3
CMLEADERSTYLE
350
B342
  3
CTABLESTYLE
350
B341
  3
CVIEWDETAILSTYLE
350
B343
  3
CVIEWSECTIONSTYLE
350
B344
  3
DIMASSOC
350
B348
  3
INDEXCTL
350
B347
  3
SORTENTS
350
B346
  3
XCLIPFRAME
350
B349
  0
XRECORD
  5
B34E
102
{ACAD_REACTORS
330
ADED
102
}
330
ADED
100
AcDbXrecord
280
     1
  1
DWGPROPS COOKIE
  2

  3

  4

  6

  7

  8
Yoshitsune
  9

300
=
301
=
302
=
303
=
304
=
305
=
306
=
307
=
308
=
309
=
 40
0.0126916435185185
 41
2451303.40551088
 42
2457192.68988419
  1

 90
        0
  0
XRECORD
  5
B331
102
{ACAD_REACTORS
330
B330
102
}
330
B330
100
AcDbXrecord
280
     1
290
     1
  0
XRECORD
  5
B333
102
{ACAD_REACTORS
330
B332
102
}
330
B332
100
AcDbXrecord
280
     1
290
     1
  0
XRECORD
  5
B335
102
{ACAD_REACTORS
330
B334
102
}
330
B334
100
AcDbXrecord
280
     1
290
     1
  0
XRECORD
  5
B337
102
{ACAD_REACTORS
330
B336
102
}
330
B336
100
AcDbXrecord
280
     1
290
     1
  0
XRECORD
  5
B339
102
{ACAD_REACTORS
330
B338
102
}
330
B338
100
AcDbXrecord
280
     1
290
     1
  0
XRECORD
  5
B33B
102
{ACAD_REACTORS
330
B33A
102
}
330
B33A
100
AcDbXrecord
280
     1
290
     1
  0
XRECORD
  5
B33D
102
{ACAD_REACTORS
330
B33C
102
}
330
B33C
100
AcDbXrecord
280
     1
290
     1
  0
XRECORD
  5
B33F
102
{ACAD_REACTORS
330
B33E
102
}
330
B33E
100
AcDbXrecord
280
     1
290
     1
  0
XRECORD
  5
B2D9
102
{ACAD_REACTORS
330
B174
102
}
330
B174
100
AcDbXrecord
280
     1
340
ADFF
  0
XRECORD
  5
B2D8
102
{ACAD_REACTORS
330
B172
102
}
330
B172
100
AcDbXrecord
280
     1
340
ADFB
  0
ACDBDETAILVIEWSTYLE
  5
B32B
102
{ACAD_XDICTIONARY
360
B386
102
}
102
{ACAD_REACTORS
330
B32A
102
}
330
B32A
100
AcDbModelDocViewStyle
 70
     0
  3
Imperial24
290
     0
100
AcDbDetailViewStyle
 70
     0
 71
     0
 90
        3
 71
     1
340
ADF2
 40
0.24
340
0
 40
0.24
300

 40
0.36
280
     3
 71
     2
340
ADF6
 90
       25
 71
     3
340
ADF2
 40
0.24
 90
        1
 40
0.75
 90
        1
300
%<\AcVar ViewType \f "%tc1">% %<\AcVar ViewDetailId>%\PSCALE %<\AcVar ViewScale \f "%sn">%
 71
     4
340
ADF6
 90
       25
340
ADF6
 90
       25
280
     0
  0
LAYOUT
  5
B32C
102
{ACAD_XDICTIONARY
360
B388
102
}
102
{ACAD_REACTORS
330
ADFA
102
}
330
ADFA
100
AcDbPlotSettings
  1

  2
Canon LBP9100C
  4

  6

 40
0.0
 41
0.0
 42
0.0
 43
0.0
 44
0.0
 45
0.0
 46
0.0
 47
0.0
 48
0.0
 49
0.0
140
0.0
141
0.0
142
1.0
143
1.0
 70
  1712
 72
     0
 73
     0
 74
     0
  7

 75
     0
147
1.0
148
0.0
149
0.0
100
AcDbLayout
  1
Model
 70
     1
 71
     0
 10
0.0
 20
0.0
 11
12.0
 21
9.0
 12
0.0
 22
0.0
 32
0.0
 14
0.0
 24
0.0
 34
0.0
 15
0.0
 25
0.0
 35
0.0
146
0.0
 13
0.0
 23
0.0
 33
0.0
 16
1.0
 26
0.0
 36
0.0
 17
0.0
 27
1.0
 37
0.0
 76
     0
330
ADFF
331
B2D7
  0
LAYOUT
  5
B32D
102
{ACAD_XDICTIONARY
360
B38A
102
}
102
{ACAD_REACTORS
330
ADFA
102
}
330
ADFA
100
AcDbPlotSettings
  1

  2
Canon LBP9100C
  4

  6

 40
0.0
 41
0.0
 42
0.0
 43
0.0
 44
0.0
 45
0.0
 46
0.0
 47
0.0
 48
0.0
 49
0.0
140
0.0
141
0.0
142
1.0
143
1.0
 70
   688
 72
     0
 73
     0
 74
     5
  7

 75
    16
147
1.0
148
0.0
149
0.0
100
AcDbLayout
  1
レイアウト1
 70
     0
 71
     1
 10
0.0
 20
0.0
 11
420.0
 21
297.0
 12
0.0
 22
0.0
 32
0.0
 14
1.000000000000000E+20
 24
1.000000000000000E+20
 34
1.000000000000000E+20
 15
-1.000000000000000E+20
 25
-1.000000000000000E+20
 35
-1.000000000000000E+20
146
0.0
 13
0.0
 23
0.0
 33
0.0
 16
1.0
 26
0.0
 36
0.0
 17
0.0
 27
1.0
 37
0.0
 76
     0
330
ADFB
  0
MATERIAL
  5
B2E8
102
{ACAD_XDICTIONARY
360
B2E9
102
}
102
{ACAD_REACTORS
330
B2DF
102
}
330
B2DF
100
AcDbMaterial
  1
ByBlock
 72
     0
 43
0.0208333333333333
 43
0.0
 43
0.0
 43
0.0
 43
0.0
 43
0.0208333333333333
 43
0.0
 43
0.0
 43
0.0
 43
0.0
 43
1.0
 43
0.0
 43
0.0
 43
0.0
 43
0.0
 43
1.0
 77
     0
 47
0.0208333333333333
 47
0.0
 47
0.0
 47
0.0
 47
0.0
 47
0.0208333333333333
 47
0.0
 47
0.0
 47
0.0
 47
0.0
 47
1.0
 47
0.0
 47
0.0
 47
0.0
 47
0.0
 47
1.0
171
     0
 49
0.0208333333333333
 49
0.0
 49
0.0
 49
0.0
 49
0.0
 49
0.0208333333333333
 49
0.0
 49
0.0
 49
0.0
 49
0.0
 49
1.0
 49
0.0
 49
0.0
 49
0.0
 49
0.0
 49
1.0
175
     0
142
0.0208333333333333
142
0.0
142
0.0
142
0.0
142
0.0
142
0.0208333333333333
142
0.0
142
0.0
142
0.0
142
0.0
142
1.0
142
0.0
142
0.0
142
0.0
142
0.0
142
1.0
179
     0
144
0.0208333333333333
144
0.0
144
0.0
144
0.0
144
0.0
144
0.0208333333333333
144
0.0
144
0.0
144
0.0
144
0.0
144
1.0
144
0.0
144
0.0
144
0.0
144
0.0
144
1.0
147
0.0208333333333333
147
0.0
147
0.0
147
0.0
147
0.0
147
0.0208333333333333
147
0.0
147
0.0
147
0.0
147
0.0
147
1.0
147
0.0
147
0.0
147
0.0
147
0.0
147
1.0
  0
MATERIAL
  5
B2E0
102
{ACAD_XDICTIONARY
360
B2E1
102
}
102
{ACAD_REACTORS
330
B2DF
102
}
330
B2DF
100
AcDbMaterial
  1
ByLayer
 72
     0
 43
0.0208333333333333
 43
0.0
 43
0.0
 43
0.0
 43
0.0
 43
0.0208333333333333
 43
0.0
 43
0.0
 43
0.0
 43
0.0
 43
1.0
 43
0.0
 43
0.0
 43
0.0
 43
0.0
 43
1.0
 77
     0
 47
0.0208333333333333
 47
0.0
 47
0.0
 47
0.0
 47
0.0
 47
0.0208333333333333
 47
0.0
 47
0.0
 47
0.0
 47
0.0
 47
1.0
 47
0.0
 47
0.0
 47
0.0
 47
0.0
 47
1.0
171
     0
 49
0.0208333333333333
 49
0.0
 49
0.0
 49
0.0
 49
0.0
 49
0.0208333333333333
 49
0.0
 49
0.0
 49
0.0
 49
0.0
 49
1.0
 49
0.0
 49
0.0
 49
0.0
 49
0.0
 49
1.0
175
     0
142
0.0208333333333333
142
0.0
142
0.0
142
0.0
142
0.0
142
0.0208333333333333
142
0.0
142
0.0
142
0.0
142
0.0
142
1.0
142
0.0
142
0.0
142
0.0
142
0.0
142
1.0
179
     0
144
0.0208333333333333
144
0.0
144
0.0
144
0.0
144
0.0
144
0.0208333333333333
144
0.0
144
0.0
144
0.0
144
0.0
144
1.0
144
0.0
144
0.0
144
0.0
144
0.0
144
1.0
147
0.0208333333333333
147
0.0
147
0.0
147
0.0
147
0.0
147
0.0208333333333333
147
0.0
147
0.0
147
0.0
147
0.0
147
1.0
147
0.0
147
0.0
147
0.0
147
0.0
147
1.0
  0
MATERIAL
  5
B2F0
102
{ACAD_XDICTIONARY
360
B2F1
102
}
102
{ACAD_REACTORS
330
B2DF
102
}
330
B2DF
100
AcDbMaterial
  1
Global
 72
     0
 43
0.0208333333333333
 43
0.0
 43
0.0
 43
0.0
 43
0.0
 43
0.0208333333333333
 43
0.0
 43
0.0
 43
0.0
 43
0.0
 43
1.0
 43
0.0
 43
0.0
 43
0.0
 43
0.0
 43
1.0
 77
     0
 47
0.0208333333333333
 47
0.0
 47
0.0
 47
0.0
 47
0.0
 47
0.0208333333333333
 47
0.0
 47
0.0
 47
0.0
 47
0.0
 47
1.0
 47
0.0
 47
0.0
 47
0.0
 47
0.0
 47
1.0
171
     0
 49
0.0208333333333333
 49
0.0
 49
0.0
 49
0.0
 49
0.0
 49
0.0208333333333333
 49
0.0
 49
0.0
 49
0.0
 49
0.0
 49
1.0
 49
0.0
 49
0.0
 49
0.0
 49
0.0
 49
1.0
175
     0
142
0.0208333333333333
142
0.0
142
0.0
142
0.0
142
0.0
142
0.0208333333333333
142
0.0
142
0.0
142
0.0
142
0.0
142
1.0
142
0.0
142
0.0
142
0.0
142
0.0
142
1.0
179
     0
144
0.0208333333333333
144
0.0
144
0.0
144
0.0
144
0.0
144
0.0208333333333333
144
0.0
144
0.0
144
0.0
144
0.0
144
1.0
144
0.0
144
0.0
144
0.0
144
0.0
144
1.0
147
0.0208333333333333
147
0.0
147
0.0
147
0.0
147
0.0
147
0.0208333333333333
147
0.0
147
0.0
147
0.0
147
0.0
147
1.0
147
0.0
147
0.0
147
0.0
147
0.0
147
1.0
  0
MLEADERSTYLE
  5
B327
102
{ACAD_REACTORS
330
B326
102
}
330
B326
100
AcDbMLeaderStyle
170
     2
171
     1
172
     0
 90
        2
 40
0.0
 41
0.0
173
     1
 91
-1056964608
340
ADF4
 92
       -2
290
     1
 42
0.09
291
     1
 43
0.36
  3
Standard
 44
0.18
300

342
ADF2
174
     1
178
     6
175
     1
176
     0
 93
-1056964608
 45
0.18
292
     0
297
     0
 46
0.18
 94
-1056964608
 47
1.0
 49
1.0
140
1.0
293
     1
141
0.0
294
     1
177
     0
142
1.0
295
     0
296
     0
143
0.125
1001
ACAD_MLEADERVER
1070
     2
  0
MLINESTYLE
  5
ADF8
102
{ACAD_REACTORS
330
ADF7
102
}
330
ADF7
100
AcDbMlineStyle
  2
STANDARD
 70
     0
  3

 62
   256
 51
90.0
 52
90.0
 71
     2
 49
0.5
 62
   256
  6
BYLAYER
 49
-0.5
 62
   256
  6
BYLAYER
  0
ACDBPLACEHOLDER
  5
B2DE
102
{ACAD_REACTORS
330
B2DD
102
}
330
B2DD
  0
SCALE
  5
B315
102
{ACAD_REACTORS
330
B314
102
}
330
B314
100
AcDbScale
 70
     0
300
1:1
140
1.0
141
1.0
290
     1
  0
SCALE
  5
B316
102
{ACAD_REACTORS
330
B314
102
}
330
B314
100
AcDbScale
 70
     0
300
1/128" = 1'-0"
140
0.0078125
141
12.0
290
     0
  0
SCALE
  5
B317
102
{ACAD_REACTORS
330
B314
102
}
330
B314
100
AcDbScale
 70
     0
300
1/64" = 1'-0"
140
0.015625
141
12.0
290
     0
  0
SCALE
  5
B318
102
{ACAD_REACTORS
330
B314
102
}
330
B314
100
AcDbScale
 70
     0
300
1/32" = 1'-0"
140
0.03125
141
12.0
290
     0
  0
SCALE
  5
B319
102
{ACAD_REACTORS
330
B314
102
}
330
B314
100
AcDbScale
 70
     0
300
1/16" = 1'-0"
140
0.0625
141
12.0
290
     0
  0
SCALE
  5
B31A
102
{ACAD_REACTORS
330
B314
102
}
330
B314
100
AcDbScale
 70
     0
300
3/32" = 1'-0"
140
0.09375
141
12.0
290
     0
  0
SCALE
  5
B31B
102
{ACAD_REACTORS
330
B314
102
}
330
B314
100
AcDbScale
 70
     0
300
1/8" = 1'-0"
140
0.125
141
12.0
290
     0
  0
SCALE
  5
B31C
102
{ACAD_REACTORS
330
B314
102
}
330
B314
100
AcDbScale
 70
     0
300
3/16" = 1'-0"
140
0.1875
141
12.0
290
     0
  0
SCALE
  5
B31D
102
{ACAD_REACTORS
330
B314
102
}
330
B314
100
AcDbScale
 70
     0
300
1/4" = 1'-0"
140
0.25
141
12.0
290
     0
  0
SCALE
  5
B31E
102
{ACAD_REACTORS
330
B314
102
}
330
B314
100
AcDbScale
 70
     0
300
3/8" = 1'-0"
140
0.375
141
12.0
290
     0
  0
SCALE
  5
B31F
102
{ACAD_REACTORS
330
B314
102
}
330
B314
100
AcDbScale
 70
     0
300
1/2" = 1'-0"
140
0.5
141
12.0
290
     0
  0
SCALE
  5
B320
102
{ACAD_REACTORS
330
B314
102
}
330
B314
100
AcDbScale
 70
     0
300
3/4" = 1'-0"
140
0.75
141
12.0
290
     0
  0
SCALE
  5
B321
102
{ACAD_REACTORS
330
B314
102
}
330
B314
100
AcDbScale
 70
     0
300
1" = 1'-0"
140
1.0
141
12.0
290
     0
  0
SCALE
  5
B322
102
{ACAD_REACTORS
330
B314
102
}
330
B314
100
AcDbScale
 70
     0
300
1-1/2" = 1'-0"
140
1.5
141
12.0
290
     0
  0
SCALE
  5
B323
102
{ACAD_REACTORS
330
B314
102
}
330
B314
100
AcDbScale
 70
     0
300
3" = 1'-0"
140
3.0
141
12.0
290
     0
  0
SCALE
  5
B324
102
{ACAD_REACTORS
330
B314
102
}
330
B314
100
AcDbScale
 70
     0
300
6" = 1'-0"
140
6.0
141
12.0
290
     0
  0
SCALE
  5
B325
102
{ACAD_REACTORS
330
B314
102
}
330
B314
100
AcDbScale
 70
     0
300
1'-0" = 1'-0"
140
12.0
141
12.0
290
     0
  0
ACDBSECTIONVIEWSTYLE
  5
B329
102
{ACAD_XDICTIONARY
360
B384
102
}
102
{ACAD_REACTORS
330
B328
102
}
330
B328
100
AcDbModelDocViewStyle
 70
     0
  3
Imperial24
290
     0
100
AcDbSectionViewStyle
 70
     0
 71
     0
 90
       78
 71
     1
340
ADF2
 40
0.24
340
0
340
0
 40
0.24
300
I, O, Q, S, X, Z
 40
0.48
 90
        3
 40
0.18
 90
        1
 71
     2
340
ADF6
 90
       25
340
ADF6
 90
       50
 40
0.24
 40
0.0
 40
0.24
 71
     3
340
ADF2
 40
0.24
 90
        1
 40
0.75
 90
        1
300
%<\AcVar ViewType \f "%tc1">% %<\AcVar ViewSectionStartId>%-%<\AcVar ViewSectionEndId>%\PSCALE %<\AcVar ViewScale \f "%sn">%
 71
     4
300
ANSI31
 40
1.0
 90
        0
290
     0
290
     0
 90
        6
 40
0.0
 40
1.570796326794896
 40
0.2617993877991494
 40
1.308996938995747
 40
-0.2617993877991494
 40
1.832595714594046
  0
TABLESTYLE
  5
B313
102
{ACAD_XDICTIONARY
360
B34B
102
}
102
{ACAD_REACTORS
330
B312
102
}
330
B312
100
AcDbTableStyle
  3
Standard
 70
     0
 71
     0
 40
0.06
 41
0.06
280
     0
281
     0
  7
STANDARD
140
0.18
170
     2
 62
     0
 63
     7
283
     0
274
    -2
284
     1
 64
     0
275
    -2
285
     1
 65
     0
276
    -2
286
     1
 66
     0
277
    -2
287
     1
 67
     0
278
    -2
288
     1
 68
     0
279
    -2
289
     1
 69
     0
  7
STANDARD
140
0.25
170
     5
 62
     0
 63
     7
283
     0
274
    -2
284
     1
 64
     0
275
    -2
285
     1
 65
     0
276
    -2
286
     1
 66
     0
277
    -2
287
     1
 67
     0
278
    -2
288
     1
 68
     0
279
    -2
289
     1
 69
     0
  7
STANDARD
140
0.18
170
     5
 62
     0
 63
     7
283
     0
274
    -2
284
     1
 64
     0
275
    -2
285
     1
 65
     0
276
    -2
286
     1
 66
     0
277
    -2
287
     1
 67
     0
278
    -2
288
     1
 68
     0
279
    -2
289
     1
 69
     0
  0
VISUALSTYLE
  5
B2FE
102
{ACAD_XDICTIONARY
360
B35C
102
}
102
{ACAD_REACTORS
330
B2F8
102
}
330
B2F8
100
AcDbVisualStyle
  2
2dWireframe
 70
     4
 71
     0
 72
     2
 73
     0
 90
        0
 40
-0.6
 41
-30.0
 62
     5
 63
     7
 74
     1
 91
        4
 64
     7
 65
   257
 75
     1
175
     1
 42
1.0
 92
        0
 66
   257
 43
1.0
 76
     1
 77
     6
 78
     2
 67
     7
 79
     5
170
     0
171
     0
290
     0
174
     0
 93
        1
 44
0.0
173
     0
291
     0
 45
0.0
1001
ACAD
1000
AcDbSavedByObjectVersion
1070
     0
  0
VISUALSTYLE
  5
B2FD
102
{ACAD_XDICTIONARY
360
B35A
102
}
102
{ACAD_REACTORS
330
B2F8
102
}
330
B2F8
100
AcDbVisualStyle
  2
Basic
 70
     7
 71
     1
 72
     0
 73
     1
 90
        0
 40
-0.6
 41
-30.0
 62
     5
 63
     7
 74
     0
 91
        4
 64
     7
 65
   257
 75
     1
175
     1
 42
1.0
 92
        8
 66
     7
 43
1.0
 76
     1
 77
     6
 78
     2
 67
     7
 79
     5
170
     0
171
     0
290
     0
174
     0
 93
        1
 44
0.0
173
     0
291
     1
 45
0.0
1001
ACAD
1000
AcDbSavedByObjectVersion
1070
     0
  0
VISUALSTYLE
  5
B304
102
{ACAD_XDICTIONARY
360
B368
102
}
102
{ACAD_REACTORS
330
B2F8
102
}
330
B2F8
100
AcDbVisualStyle
  2
Brighten
 70
    12
 71
     2
 72
     2
 73
     0
 90
        0
 40
-0.6
 41
-30.0
 62
     5
 63
     7
 74
     1
 91
        4
 64
     7
 65
   257
 75
     1
175
     1
 42
1.0
 92
        8
 66
     7
 43
1.0
 76
     1
 77
     6
 78
     2
 67
     7
 79
     5
170
     0
171
     0
290
     0
174
     0
 93
        1
 44
50.0
173
     0
291
     1
 45
0.0
1001
ACAD
1000
AcDbSavedByObjectVersion
1070
     0
  0
VISUALSTYLE
  5
B308
102
{ACAD_XDICTIONARY
360
B370
102
}
102
{ACAD_REACTORS
330
B2F8
102
}
330
B2F8
100
AcDbVisualStyle
  2
ColorChange
 70
    16
 71
     2
 72
     2
 73
     3
 90
        0
 40
-0.6
 41
-30.0
 62
     5
 63
     8
 74
     1
 91
        4
 64
     7
 65
   257
 75
     1
175
     1
 42
1.0
 92
        8
 66
     8
 43
1.0
 76
     1
 77
     6
 78
     2
 67
     7
 79
     5
170
     0
171
     0
290
     0
174
     0
 93
        1
 44
0.0
173
     0
291
     1
 45
0.0
1001
ACAD
1000
AcDbSavedByObjectVersion
1070
     0
  0
VISUALSTYLE
  5
B301
102
{ACAD_XDICTIONARY
360
B362
102
}
102
{ACAD_REACTORS
330
B2F8
102
}
330
B2F8
100
AcDbVisualStyle
  2
Conceptual
 70
     9
 71
     3
 72
     2
 73
     0
 90
        0
 40
-0.6
 41
-30.0
 62
     5
 63
     7
 74
     2
 91
        2
 64
     7
 65
   257
 75
     1
175
     1
 42
179.0
 92
        8
 66
     7
 43
1.0
 76
     1
 77
     6
 78
     2
 67
     7
 79
     3
170
     0
171
     0
290
     0
174
     0
 93
        1
 44
0.0
173
     0
291
     0
 45
0.0
1001
ACAD
1000
AcDbSavedByObjectVersion
1070
     0
  0
VISUALSTYLE
  5
B303
102
{ACAD_XDICTIONARY
360
B366
102
}
102
{ACAD_REACTORS
330
B2F8
102
}
330
B2F8
100
AcDbVisualStyle
  2
Dim
 70
    11
 71
     2
 72
     2
 73
     0
 90
        0
 40
-0.6
 41
-30.0
 62
     5
 63
     7
 74
     1
 91
        4
 64
     7
 65
   257
 75
     1
175
     1
 42
1.0
 92
        8
 66
     7
 43
1.0
 76
     1
 77
     6
 78
     2
 67
     7
 79
     5
170
     0
171
     0
290
     0
174
     0
 93
        1
 44
-50.0
173
     0
291
     1
 45
0.0
1001
ACAD
1000
AcDbSavedByObjectVersion
1070
     0
  0
VISUALSTYLE
  5
B310
102
{ACAD_XDICTIONARY
360
B380
102
}
102
{ACAD_REACTORS
330
B2F8
102
}
330
B2F8
100
AcDbVisualStyle
  2
EdgeColorOff
 70
    22
 71
     2
 72
     2
 73
     0
 90
        0
 40
-0.6
 41
-30.0
 62
     5
 63
     7
 74
     1
 91
        4
 64
     7
 65
   257
 75
     1
175
     1
 42
1.0
 92
        8
 66
     7
 43
1.0
 76
     1
 77
     6
 78
     2
 67
     7
 79
     5
170
     0
171
     0
290
     0
174
     0
 93
        1
 44
0.0
173
     0
291
     1
 45
0.0
1001
ACAD
1000
AcDbSavedByObjectVersion
1070
     0
  0
VISUALSTYLE
  5
B307
102
{ACAD_XDICTIONARY
360
B36E
102
}
102
{ACAD_REACTORS
330
B2F8
102
}
330
B2F8
100
AcDbVisualStyle
  2
Facepattern
 70
    15
 71
     2
 72
     2
 73
     0
 90
        0
 40
-0.6
 41
-30.0
 62
     5
 63
     7
 74
     1
 91
        4
 64
     7
 65
   257
 75
     1
175
     1
 42
1.0
 92
        8
 66
     7
 43
1.0
 76
     1
 77
     6
 78
     2
 67
     7
 79
     5
170
     0
171
     0
290
     0
174
     0
 93
        1
 44
0.0
173
     0
291
     1
 45
0.0
1001
ACAD
1000
AcDbSavedByObjectVersion
1070
     0
  0
VISUALSTYLE
  5
B2F9
102
{ACAD_XDICTIONARY
360
B352
102
}
102
{ACAD_REACTORS
330
B2F8
102
}
330
B2F8
100
AcDbVisualStyle
  2
Flat
 70
     0
 71
     2
 72
     1
 73
     1
 90
        2
 40
-0.6
 41
30.0
 62
     5
 63
     7
 74
     0
 91
        0
 64
     7
 65
   257
 75
     1
175
     1
 42
1.0
 92
        8
 66
     7
 43
1.0
 76
     1
 77
     6
 78
     2
 67
     7
 79
     5
170
     0
171
     0
290
     0
174
     0
 93
       13
 44
0.0
173
     0
291
     1
 45
0.0
1001
ACAD
1000
AcDbSavedByObjectVersion
1070
     0
  0
VISUALSTYLE
  5
B2FA
102
{ACAD_XDICTIONARY
360
B354
102
}
102
{ACAD_REACTORS
330
B2F8
102
}
330
B2F8
100
AcDbVisualStyle
  2
FlatWithEdges
 70
     1
 71
     2
 72
     1
 73
     1
 90
        2
 40
-0.6
 41
30.0
 62
     5
 63
     7
 74
     1
 91
        0
 64
     7
 65
   257
 75
     1
175
     1
 42
1.0
 92
        0
 66
   257
 43
1.0
 76
     1
 77
     6
 78
     2
 67
     7
 79
     5
170
     0
171
     0
290
     0
174
     0
 93
       13
 44
0.0
173
     0
291
     1
 45
0.0
1001
ACAD
1000
AcDbSavedByObjectVersion
1070
     0
  0
VISUALSTYLE
  5
B2FB
102
{ACAD_XDICTIONARY
360
B356
102
}
102
{ACAD_REACTORS
330
B2F8
102
}
330
B2F8
100
AcDbVisualStyle
  2
Gouraud
 70
     2
 71
     2
 72
     2
 73
     1
 90
        2
 40
-0.6
 41
30.0
 62
     5
 63
     7
 74
     0
 91
        0
 64
     7
 65
   257
 75
     1
175
     1
 42
1.0
 92
        0
 66
     7
 43
1.0
 76
     1
 77
     6
 78
     2
 67
     7
 79
     5
170
     0
171
     0
290
     0
174
     0
 93
       13
 44
0.0
173
     0
291
     1
 45
0.0
1001
ACAD
1000
AcDbSavedByObjectVersion
1070
     0
  0
VISUALSTYLE
  5
B2FC
102
{ACAD_XDICTIONARY
360
B358
102
}
102
{ACAD_REACTORS
330
B2F8
102
}
330
B2F8
100
AcDbVisualStyle
  2
GouraudWithEdges
 70
     3
 71
     2
 72
     2
 73
     1
 90
        2
 40
-0.6
 41
30.0
 62
     5
 63
     7
 74
     1
 91
        0
 64
     7
 65
   257
 75
     1
175
     1
 42
1.0
 92
        0
 66
   257
 43
1.0
 76
     1
 77
     6
 78
     2
 67
     7
 79
     5
170
     0
171
     0
290
     0
174
     0
 93
       13
 44
0.0
173
     0
291
     1
 45
0.0
1001
ACAD
1000
AcDbSavedByObjectVersion
1070
     0
  0
VISUALSTYLE
  5
B300
102
{ACAD_XDICTIONARY
360
B360
102
}
102
{ACAD_REACTORS
330
B2F8
102
}
330
B2F8
100
AcDbVisualStyle
  2
Hidden
 70
     6
 71
     1
 72
     2
 73
     2
 90
        0
 40
-0.6
 41
-30.0
 62
     5
 63
     7
 74
     2
 91
        2
 64
     7
 65
   257
 75
     2
175
     1
 42
40.0
 92
        0
 66
   257
 43
1.0
 76
     1
 77
     6
 78
     2
 67
     7
 79
     3
170
     0
171
     0
290
     0
174
     0
 93
        1
 44
0.0
173
     0
291
     0
 45
0.0
1001
ACAD
1000
AcDbSavedByObjectVersion
1070
     0
  0
VISUALSTYLE
  5
B30E
102
{ACAD_XDICTIONARY
360
B37C
102
}
102
{ACAD_REACTORS
330
B2F8
102
}
330
B2F8
100
AcDbVisualStyle
  2
JitterOff
 70
    20
 71
     2
 72
     2
 73
     0
 90
        0
 40
-0.6
 41
-30.0
 62
     5
 63
     7
 74
     1
 91
        4
 64
     7
 65
   257
 75
     1
175
     1
 42
1.0
 92
       10
 66
     7
 43
1.0
 76
     1
 77
     6
 78
     2
 67
     7
 79
     5
170
     0
171
     0
290
     0
174
     0
 93
        1
 44
0.0
173
     0
291
     1
 45
0.0
1001
ACAD
1000
AcDbSavedByObjectVersion
1070
     0
  0
VISUALSTYLE
  5
B306
102
{ACAD_XDICTIONARY
360
B36C
102
}
102
{ACAD_REACTORS
330
B2F8
102
}
330
B2F8
100
AcDbVisualStyle
  2
Linepattern
 70
    14
 71
     2
 72
     2
 73
     0
 90
        0
 40
-0.6
 41
-30.0
 62
     5
 63
     7
 74
     1
 91
        4
 64
     7
 65
   257
 75
     7
175
     7
 42
1.0
 92
        8
 66
     7
 43
1.0
 76
     1
 77
     6
 78
     2
 67
     7
 79
     5
170
     0
171
     0
290
     0
174
     0
 93
        1
 44
0.0
173
     0
291
     1
 45
0.0
1001
ACAD
1000
AcDbSavedByObjectVersion
1070
     0
  0
VISUALSTYLE
  5
B30F
102
{ACAD_XDICTIONARY
360
B37E
102
}
102
{ACAD_REACTORS
330
B2F8
102
}
330
B2F8
100
AcDbVisualStyle
  2
OverhangOff
 70
    21
 71
     2
 72
     2
 73
     0
 90
        0
 40
-0.6
 41
-30.0
 62
     5
 63
     7
 74
     1
 91
        4
 64
     7
 65
   257
 75
     1
175
     1
 42
1.0
 92
        9
 66
     7
 43
1.0
 76
     1
 77
     6
 78
     2
 67
     7
 79
     5
170
     0
171
     0
290
     0
174
     0
 93
        1
 44
0.0
173
     0
291
     1
 45
0.0
1001
ACAD
1000
AcDbSavedByObjectVersion
1070
     0
  0
VISUALSTYLE
  5
B302
102
{ACAD_XDICTIONARY
360
B364
102
}
102
{ACAD_REACTORS
330
B2F8
102
}
330
B2F8
100
AcDbVisualStyle
  2
Realistic
 70
     8
 71
     2
 72
     3
 73
     0
 90
        2
 40
-0.6
 41
30.0
 62
     5
 63
     7
 74
     0
 91
        0
 64
     7
 65
   257
 75
     1
175
     1
 42
1.0
 92
        8
 66
   257
 43
1.0
 76
     1
 77
     6
 78
     2
 67
     7
 79
     3
170
     0
171
     0
290
     0
174
     0
 93
       13
 44
0.0
173
     0
291
     0
 45
0.0
1001
ACAD
1000
AcDbSavedByObjectVersion
1070
     0
  0
VISUALSTYLE
  5
B30D
102
{ACAD_XDICTIONARY
360
B37A
102
}
102
{ACAD_REACTORS
330
B2F8
102
}
330
B2F8
100
AcDbVisualStyle
  2
Shaded
 70
    27
 71
     2
 72
     2
 73
     1
 90
        2
 40
-0.6
 41
30.0
 62
     5
 63
     7
 74
     0
 91
        4
 64
     7
 65
   257
 75
     1
175
     1
 42
1.0
 92
        8
 66
   257
 43
1.0
 76
     1
 77
     6
 78
     2
 67
     8
 79
     3
170
     0
171
     0
290
     0
174
     0
 93
        5
 44
0.0
173
     0
291
     0
 45
0.0
1001
ACAD
1000
AcDbSavedByObjectVersion
1070
     0
  0
VISUALSTYLE
  5
B30C
102
{ACAD_XDICTIONARY
360
B378
102
}
102
{ACAD_REACTORS
330
B2F8
102
}
330
B2F8
100
AcDbVisualStyle
  2
Shaded with edges
 70
    26
 71
     2
 72
     2
 73
     1
 90
        2
 40
-0.6
 41
30.0
 62
     5
 63
     7
 74
     1
 91
       10
 64
     7
 65
   257
 75
     2
175
     1
 42
1.0
 92
        8
 66
   257
 43
1.0
 76
     1
 77
     6
 78
     2
 67
     7
 79
     3
170
     0
171
     0
290
     0
174
     0
 93
        5
 44
0.0
173
     0
291
     0
 45
0.0
1001
ACAD
1000
AcDbSavedByObjectVersion
1070
     0
  0
VISUALSTYLE
  5
B309
102
{ACAD_XDICTIONARY
360
B372
102
}
102
{ACAD_REACTORS
330
B2F8
102
}
330
B2F8
100
AcDbVisualStyle
  2
Shades of Gray
 70
    23
 71
     2
 72
     2
 73
     3
 90
        0
 40
-0.6
 41
-30.0
 62
     5
 63
     7
 74
     2
 91
        2
 64
     7
 65
     7
 75
     1
175
     1
 42
40.0
 92
        8
 66
     7
 43
1.0
 76
     1
 77
     6
 78
     2
 67
     7
 79
     3
170
     0
171
     0
290
     0
174
     0
 93
        1
 44
0.0
173
     0
291
     0
 45
0.0
1001
ACAD
1000
AcDbSavedByObjectVersion
1070
     0
  0
VISUALSTYLE
  5
B30A
102
{ACAD_XDICTIONARY
360
B374
102
}
102
{ACAD_REACTORS
330
B2F8
102
}
330
B2F8
100
AcDbVisualStyle
  2
Sketchy
 70
    24
 71
     1
 72
     2
 73
     2
 90
        0
 40
-0.6
 41
-30.0
 62
     5
 63
     7
 74
     2
 91
        2
 64
     7
 65
     7
 75
     1
175
     1
 42
40.0
 92
       11
 66
     7
 43
1.0
 76
     1
 77
     6
 78
     2
 67
     7
 79
     6
170
     0
171
     0
290
     0
174
     0
 93
        1
 44
0.0
173
     0
291
     0
 45
0.0
1001
ACAD
1000
AcDbSavedByObjectVersion
1070
     0
  0
VISUALSTYLE
  5
B305
102
{ACAD_XDICTIONARY
360
B36A
102
}
102
{ACAD_REACTORS
330
B2F8
102
}
330
B2F8
100
AcDbVisualStyle
  2
Thicken
 70
    13
 71
     2
 72
     2
 73
     0
 90
        0
 40
-0.6
 41
-30.0
 62
     5
 63
     7
 74
     1
 91
        4
 64
     7
 65
   257
 75
     1
175
     1
 42
1.0
 92
       12
 66
     7
 43
1.0
 76
     1
 77
     6
 78
     2
 67
     7
 79
     5
170
     0
171
     0
290
     0
174
     0
 93
        1
 44
0.0
173
     0
291
     1
 45
0.0
1001
ACAD
1000
AcDbSavedByObjectVersion
1070
     0
  0
VISUALSTYLE
  5
B2FF
102
{ACAD_XDICTIONARY
360
B35E
102
}
102
{ACAD_REACTORS
330
B2F8
102
}
330
B2F8
100
AcDbVisualStyle
  2
Wireframe
 70
     5
 71
     0
 72
     2
 73
     0
 90
        0
 40
-0.6
 41
-30.0
 62
     5
 63
     7
 74
     1
 91
        4
 64
     7
 65
   257
 75
     1
175
     1
 42
1.0
 92
        0
 66
   257
 43
1.0
 76
     1
 77
     6
 78
     2
 67
     7
 79
     3
170
     0
171
     0
290
     0
174
     0
 93
        1
 44
0.0
173
     0
291
     0
 45
0.0
1001
ACAD
1000
AcDbSavedByObjectVersion
1070
     0
  0
VISUALSTYLE
  5
B30B
102
{ACAD_XDICTIONARY
360
B376
102
}
102
{ACAD_REACTORS
330
B2F8
102
}
330
B2F8
100
AcDbVisualStyle
  2
X-Ray
 70
    25
 71
     2
 72
     2
 73
     1
 90
        1
 40
0.5
 41
-30.0
 62
     5
 63
     7
 74
     1
 91
        0
 64
     7
 65
   257
 75
     1
175
     1
 42
1.0
 92
        8
 66
     7
 43
1.0
 76
     1
 77
     6
 78
     2
 67
     7
 79
     3
170
     0
171
     0
290
     0
174
     0
 93
       13
 44
0.0
173
     0
291
     0
 45
0.0
1001
ACAD
1000
AcDbSavedByObjectVersion
1070
     0
  0
DICTIONARYVAR
  5
B345
102
{ACAD_REACTORS
330
B340
102
}
330
B340
100
DictionaryVariables
280
     0
  1
1:1
  0
DICTIONARYVAR
  5
B342
102
{ACAD_REACTORS
330
B340
102
}
330
B340
100
DictionaryVariables
280
     0
  1
STANDARD
  0
DICTIONARYVAR
  5
B341
102
{ACAD_REACTORS
330
B340
102
}
330
B340
100
DictionaryVariables
280
     0
  1
STANDARD
  0
DICTIONARYVAR
  5
B343
102
{ACAD_REACTORS
330
B340
102
}
330
B340
100
DictionaryVariables
280
     0
  1
Imperial24
  0
DICTIONARYVAR
  5
B344
102
{ACAD_REACTORS
330
B340
102
}
330
B340
100
DictionaryVariables
280
     0
  1
Imperial24
  0
DICTIONARYVAR
  5
B348
102
{ACAD_REACTORS
330
B340
102
}
330
B340
100
DictionaryVariables
280
     0
  1
1
  0
DICTIONARYVAR
  5
B347
102
{ACAD_REACTORS
330
B340
102
}
330
B340
100
DictionaryVariables
280
     0
  1
0
  0
DICTIONARYVAR
  5
B346
102
{ACAD_REACTORS
330
B340
102
}
330
B340
100
DictionaryVariables
280
     0
  1
127
  0
DICTIONARYVAR
  5
B349
102
{ACAD_REACTORS
330
B340
102
}
330
B340
100
DictionaryVariables
280
     0
  1
2
  0
DICTIONARY
  5
B386
330
B32B
100
AcDbDictionary
280
     1
281
     1
  3
ACAD_XREC_ROUNDTRIP
360
B387
  0
DICTIONARY
  5
B388
330
B32C
100
AcDbDictionary
280
     1
281
     1
  3
ACAD_XREC_ROUNDTRIP
360
B389
  0
DICTIONARY
  5
B38A
330
B32D
100
AcDbDictionary
280
     1
281
     1
  3
ACAD_XREC_ROUNDTRIP
360
B38B
  0
DICTIONARY
  5
B2E9
330
B2E8
100
AcDbDictionary
280
     1
281
     1
  3
ACAD_XREC_ROUNDTRIP
360
B350
  3
BUMPTILE
360
B2EB
  3
DIFFUSETILE
360
B2EA
  3
OPACITYTILE
360
B2EE
  3
REFLECTIONTILE
360
B2ED
  3
REFRACTIONTILE
360
B2EF
  3
SPECULARTILE
360
B2EC
  0
DICTIONARY
  5
B2E1
330
B2E0
100
AcDbDictionary
280
     1
281
     1
  3
ACAD_XREC_ROUNDTRIP
360
B34F
  3
BUMPTILE
360
B2E3
  3
DIFFUSETILE
360
B2E2
  3
OPACITYTILE
360
B2E6
  3
REFLECTIONTILE
360
B2E5
  3
REFRACTIONTILE
360
B2E7
  3
SPECULARTILE
360
B2E4
  0
DICTIONARY
  5
B2F1
330
B2F0
100
AcDbDictionary
280
     1
281
     1
  3
ACAD_XREC_ROUNDTRIP
360
B351
  3
BUMPTILE
360
B2F3
  3
DIFFUSETILE
360
B2F2
  3
OPACITYTILE
360
B2F6
  3
REFLECTIONTILE
360
B2F5
  3
REFRACTIONTILE
360
B2F7
  3
SPECULARTILE
360
B2F4
  0
DICTIONARY
  5
B384
330
B329
100
AcDbDictionary
280
     1
281
     1
  3
ACAD_XREC_ROUNDTRIP
360
B385
  0
DICTIONARY
  5
B34B
330
B313
100
AcDbDictionary
280
     1
281
     1
  3
ACAD_ROUNDTRIP_2008_TABLESTYLE_CELLSTYLEMAP
360
B34C
  3
ACAD_XREC_ROUNDTRIP
360
B382
  0
DICTIONARY
  5
B35C
330
B2FE
100
AcDbDictionary
280
     1
281
     1
  3
ACAD_XREC_ROUNDTRIP
360
B35D
  0
DICTIONARY
  5
B35A
330
B2FD
100
AcDbDictionary
280
     1
281
     1
  3
ACAD_XREC_ROUNDTRIP
360
B35B
  0
DICTIONARY
  5
B368
330
B304
100
AcDbDictionary
280
     1
281
     1
  3
ACAD_XREC_ROUNDTRIP
360
B369
  0
DICTIONARY
  5
B370
330
B308
100
AcDbDictionary
280
     1
281
     1
  3
ACAD_XREC_ROUNDTRIP
360
B371
  0
DICTIONARY
  5
B362
330
B301
100
AcDbDictionary
280
     1
281
     1
  3
ACAD_XREC_ROUNDTRIP
360
B363
  0
DICTIONARY
  5
B366
330
B303
100
AcDbDictionary
280
     1
281
     1
  3
ACAD_XREC_ROUNDTRIP
360
B367
  0
DICTIONARY
  5
B380
330
B310
100
AcDbDictionary
280
     1
281
     1
  3
ACAD_XREC_ROUNDTRIP
360
B381
  0
DICTIONARY
  5
B36E
330
B307
100
AcDbDictionary
280
     1
281
     1
  3
ACAD_XREC_ROUNDTRIP
360
B36F
  0
DICTIONARY
  5
B352
330
B2F9
100
AcDbDictionary
280
     1
281
     1
  3
ACAD_XREC_ROUNDTRIP
360
B353
  0
DICTIONARY
  5
B354
330
B2FA
100
AcDbDictionary
280
     1
281
     1
  3
ACAD_XREC_ROUNDTRIP
360
B355
  0
DICTIONARY
  5
B356
330
B2FB
100
AcDbDictionary
280
     1
281
     1
  3
ACAD_XREC_ROUNDTRIP
360
B357
  0
DICTIONARY
  5
B358
330
B2FC
100
AcDbDictionary
280
     1
281
     1
  3
ACAD_XREC_ROUNDTRIP
360
B359
  0
DICTIONARY
  5
B360
330
B300
100
AcDbDictionary
280
     1
281
     1
  3
ACAD_XREC_ROUNDTRIP
360
B361
  0
DICTIONARY
  5
B37C
330
B30E
100
AcDbDictionary
280
     1
281
     1
  3
ACAD_XREC_ROUNDTRIP
360
B37D
  0
DICTIONARY
  5
B36C
330
B306
100
AcDbDictionary
280
     1
281
     1
  3
ACAD_XREC_ROUNDTRIP
360
B36D
  0
DICTIONARY
  5
B37E
330
B30F
100
AcDbDictionary
280
     1
281
     1
  3
ACAD_XREC_ROUNDTRIP
360
B37F
  0
DICTIONARY
  5
B364
330
B302
100
AcDbDictionary
280
     1
281
     1
  3
ACAD_XREC_ROUNDTRIP
360
B365
  0
DICTIONARY
  5
B37A
330
B30D
100
AcDbDictionary
280
     1
281
     1
  3
ACAD_XREC_ROUNDTRIP
360
B37B
  0
DICTIONARY
  5
B378
330
B30C
100
AcDbDictionary
280
     1
281
     1
  3
ACAD_XREC_ROUNDTRIP
360
B379
  0
DICTIONARY
  5
B372
330
B309
100
AcDbDictionary
280
     1
281
     1
  3
ACAD_XREC_ROUNDTRIP
360
B373
  0
DICTIONARY
  5
B374
330
B30A
100
AcDbDictionary
280
     1
281
     1
  3
ACAD_XREC_ROUNDTRIP
360
B375
  0
DICTIONARY
  5
B36A
330
B305
100
AcDbDictionary
280
     1
281
     1
  3
ACAD_XREC_ROUNDTRIP
360
B36B
  0
DICTIONARY
  5
B35E
330
B2FF
100
AcDbDictionary
280
     1
281
     1
  3
ACAD_XREC_ROUNDTRIP
360
B35F
  0
DICTIONARY
  5
B376
330
B30B
100
AcDbDictionary
280
     1
281
     1
  3
ACAD_XREC_ROUNDTRIP
360
B377
  0
XRECORD
  5
B387
102
{ACAD_REACTORS
330
B386
102
}
330
B386
100
AcDbXrecord
280
     1
102
DISPLAYNAME
  1
Imperial24
102
FLAGS
 90
        0
  0
XRECORD
  5
B389
102
{ACAD_REACTORS
330
B388
102
}
330
B388
100
AcDbXrecord
280
     1
102
SHADEPLOT
 70
     0
102
SHADEPLOTRESLEVEL
 70
     2
102
SHADEPLOTCUSTOMDPI
 70
   300
  0
XRECORD
  5
B38B
102
{ACAD_REACTORS
330
B38A
102
}
330
B38A
100
AcDbXrecord
280
     1
102
SHADEPLOT
 70
     0
102
SHADEPLOTRESLEVEL
 70
     2
102
SHADEPLOTCUSTOMDPI
 70
   300
  0
XRECORD
  5
B350
102
{ACAD_REACTORS
330
B2E9
102
}
330
B2E9
100
AcDbXrecord
280
     1
102
MATERIAL
148
0.0
149
0.0
149
0.0
 93
        0
 94
      127
282
     0
 72
     0
 77
     0
171
     0
175
     0
179
     0
273
     0
  0
XRECORD
  5
B2EB
102
{ACAD_REACTORS
330
B2E9
102
}
330
B2E9
100
AcDbXrecord
280
     1
270
     1
271
     1
  0
XRECORD
  5
B2EA
102
{ACAD_REACTORS
330
B2E9
102
}
330
B2E9
100
AcDbXrecord
280
     1
270
     1
271
     1
  0
XRECORD
  5
B2EE
102
{ACAD_REACTORS
330
B2E9
102
}
330
B2E9
100
AcDbXrecord
280
     1
270
     1
271
     1
  0
XRECORD
  5
B2ED
102
{ACAD_REACTORS
330
B2E9
102
}
330
B2E9
100
AcDbXrecord
280
     1
270
     1
271
     1
  0
XRECORD
  5
B2EF
102
{ACAD_REACTORS
330
B2E9
102
}
330
B2E9
100
AcDbXrecord
280
     1
270
     1
271
     1
  0
XRECORD
  5
B2EC
102
{ACAD_REACTORS
330
B2E9
102
}
330
B2E9
100
AcDbXrecord
280
     1
270
     1
271
     1
  0
XRECORD
  5
B34F
102
{ACAD_REACTORS
330
B2E1
102
}
330
B2E1
100
AcDbXrecord
280
     1
102
MATERIAL
148
0.0
149
0.0
149
0.0
 93
        0
 94
      127
282
     0
 72
     0
 77
     0
171
     0
175
     0
179
     0
273
     0
  0
XRECORD
  5
B2E3
102
{ACAD_REACTORS
330
B2E1
102
}
330
B2E1
100
AcDbXrecord
280
     1
270
     1
271
     1
  0
XRECORD
  5
B2E2
102
{ACAD_REACTORS
330
B2E1
102
}
330
B2E1
100
AcDbXrecord
280
     1
270
     1
271
     1
  0
XRECORD
  5
B2E6
102
{ACAD_REACTORS
330
B2E1
102
}
330
B2E1
100
AcDbXrecord
280
     1
270
     1
271
     1
  0
XRECORD
  5
B2E5
102
{ACAD_REACTORS
330
B2E1
102
}
330
B2E1
100
AcDbXrecord
280
     1
270
     1
271
     1
  0
XRECORD
  5
B2E7
102
{ACAD_REACTORS
330
B2E1
102
}
330
B2E1
100
AcDbXrecord
280
     1
270
     1
271
     1
  0
XRECORD
  5
B2E4
102
{ACAD_REACTORS
330
B2E1
102
}
330
B2E1
100
AcDbXrecord
280
     1
270
     1
271
     1
  0
XRECORD
  5
B351
102
{ACAD_REACTORS
330
B2F1
102
}
330
B2F1
100
AcDbXrecord
280
     1
102
MATERIAL
148
0.0
149
0.0
149
0.0
 93
        0
 94
      127
282
     0
 72
     0
 77
     0
171
     0
175
     0
179
     0
273
     0
  0
XRECORD
  5
B2F3
102
{ACAD_REACTORS
330
B2F1
102
}
330
B2F1
100
AcDbXrecord
280
     1
270
     1
271
     1
  0
XRECORD
  5
B2F2
102
{ACAD_REACTORS
330
B2F1
102
}
330
B2F1
100
AcDbXrecord
280
     1
270
     1
271
     1
  0
XRECORD
  5
B2F6
102
{ACAD_REACTORS
330
B2F1
102
}
330
B2F1
100
AcDbXrecord
280
     1
270
     1
271
     1
  0
XRECORD
  5
B2F5
102
{ACAD_REACTORS
330
B2F1
102
}
330
B2F1
100
AcDbXrecord
280
     1
270
     1
271
     1
  0
XRECORD
  5
B2F7
102
{ACAD_REACTORS
330
B2F1
102
}
330
B2F1
100
AcDbXrecord
280
     1
270
     1
271
     1
  0
XRECORD
  5
B2F4
102
{ACAD_REACTORS
330
B2F1
102
}
330
B2F1
100
AcDbXrecord
280
     1
270
     1
271
     1
  0
XRECORD
  5
B385
102
{ACAD_REACTORS
330
B384
102
}
330
B384
100
AcDbXrecord
280
     1
102
DISPLAYNAME
  1
Imperial24
102
FLAGS
 90
        0
  0
CELLSTYLEMAP
  5
B34C
102
{ACAD_REACTORS
330
B34B
102
}
330
B34B
100
AcDbCellStyleMap
 90
        3
300
CELLSTYLE
  1
TABLEFORMAT_BEGIN
 90
        5
170
     1
 91
        0
 92
    32768
 62
   257
 93
        1
300
CONTENTFORMAT
  1
CONTENTFORMAT_BEGIN
 90
        0
 91
        0
 92
      512
 93
        0
300

 40
0.0
140
1.0
 94
        5
 62
     0
340
ADF2
144
0.25
309
CONTENTFORMAT_END
171
     0
 94
        0
309
TABLEFORMAT_END
  1
CELLSTYLE_BEGIN
 90
        1
 91
        1
300
_TITLE
309
CELLSTYLE_END
300
CELLSTYLE
  1
TABLEFORMAT_BEGIN
 90
        5
170
     1
 91
        0
 92
        0
 62
   257
 93
        1
300
CONTENTFORMAT
  1
CONTENTFORMAT_BEGIN
 90
        0
 91
        0
 92
      512
 93
        0
300

 40
0.0
140
1.0
 94
        5
 62
     0
340
ADF2
144
0.18
309
CONTENTFORMAT_END
171
     0
 94
        0
309
TABLEFORMAT_END
  1
CELLSTYLE_BEGIN
 90
        2
 91
        1
300
_HEADER
309
CELLSTYLE_END
300
CELLSTYLE
  1
TABLEFORMAT_BEGIN
 90
        5
170
     1
 91
        0
 92
        0
 62
   257
 93
        1
300
CONTENTFORMAT
  1
CONTENTFORMAT_BEGIN
 90
        0
 91
        0
 92
      512
 93
        0
300

 40
0.0
140
1.0
 94
        2
 62
     0
340
ADF2
144
0.18
309
CONTENTFORMAT_END
171
     0
 94
        0
309
TABLEFORMAT_END
  1
CELLSTYLE_BEGIN
 90
        3
 91
        2
300
_DATA
309
CELLSTYLE_END
  0
XRECORD
  5
B382
102
{ACAD_REACTORS
330
B34B
102
}
330
B34B
100
AcDbXrecord
280
     1
102
ACAD_ROUNDTRIP_PRE2007_TABLESTYLE
 90
      512
 91
        0
  1

 92
      512
 93
        0
  2

 94
      512
 95
        0
  3

  0
XRECORD
  5
B35D
102
{ACAD_REACTORS
330
B35C
102
}
330
B35C
100
AcDbXrecord
280
     1
102
RTVSPost2010Prop28
280
     1
102
RTVSPost2010PropOp28
 70
     1
102
RTVSPost2010Prop29
280
     1
102
RTVSPost2010PropOp29
 70
     1
102
RTVSPost2010Prop30
280
     0
102
RTVSPost2010PropOp30
 70
     1
102
RTVSPost2010Prop31
280
     0
102
RTVSPost2010PropOp31
 70
     1
102
RTVSPost2010Prop32
280
     0
102
RTVSPost2010PropOp32
 70
     1
102
RTVSPost2010Prop33
280
     0
102
RTVSPost2010PropOp33
 70
     1
102
RTVSPost2010Prop34
280
     0
102
RTVSPost2010PropOp34
 70
     1
102
RTVSPost2010Prop35
280
     0
102
RTVSPost2010PropOp35
 70
     1
102
RTVSPost2010Prop36
280
     0
102
RTVSPost2010PropOp36
 70
     1
102
RTVSPost2010Prop37
 90
       50
102
RTVSPost2010PropOp37
 70
     1
102
RTVSPost2010Prop38
140
0.0
102
RTVSPost2010PropOp38
 70
     1
102
RTVSPost2010Prop39
140
1.0
102
RTVSPost2010PropOp39
 70
     1
102
RTVSPost2010Prop40
 90
        0
102
RTVSPost2010PropOp40
 70
     1
102
RTVSPost2010Prop41ColorIndex
 90
       18
102
RTVSPost2010Prop41ColorRGB
 90
        0
102
RTVSPost2010PropOp41
 70
     1
102
RTVSPost2010Prop42
 90
       50
102
RTVSPost2010PropOp42
 70
     1
102
RTVSPost2010Prop43
 90
        3
102
RTVSPost2010PropOp43
 70
     1
102
RTVSPost2010Prop44ColorIndex
 90
        5
102
RTVSPost2010Prop44ColorRGB
 90
      255
102
RTVSPost2010PropOp44
 70
     1
102
RTVSPost2010Prop45
280
     0
102
RTVSPost2010PropOp45
 70
     1
102
RTVSPost2010Prop46
 90
       50
102
RTVSPost2010PropOp46
 70
     1
102
RTVSPost2010Prop47
 90
       50
102
RTVSPost2010PropOp47
 70
     1
102
RTVSPost2010Prop48
 90
       50
102
RTVSPost2010PropOp48
 70
     1
102
RTVSPost2010Prop49
280
     0
102
RTVSPost2010PropOp49
 70
     1
102
RTVSPost2010Prop50
 90
       50
102
RTVSPost2010PropOp50
 70
     1
102
RTVSPost2010Prop51ColorIndex
 90
      256
102
RTVSPost2010Prop51ColorRGB
 90
-16777216
102
RTVSPost2010PropOp51
 70
     0
102
RTVSPost2010Prop52
140
1.0
102
RTVSPost2010PropOp52
 70
     0
102
RTVSPost2010Prop53
 90
        2
102
RTVSPost2010PropOp53
 70
     1
102
RTVSPost2010Prop54
  1
strokes_ogs.tif
102
RTVSPost2010PropOp54
 70
     1
102
RTVSPost2010Prop55
280
     0
102
RTVSPost2010PropOp55
 70
     1
102
RTVSPost2010Prop56
140
1.0
102
RTVSPost2010PropOp56
 70
     1
102
RTVSPost2010Prop57
140
1.0
102
RTVSPost2010PropOp57
 70
     1
102
RTVSPropertyOp0
 70
     1
102
RTVSPropertyOp1
 70
     1
102
RTVSPropertyOp2
 70
     1
102
RTVSPropertyOp3
 70
     1
102
RTVSPropertyOp4
 70
     1
102
RTVSPropertyOp5
 70
     1
102
RTVSPropertyOp6
 70
     1
102
RTVSPropertyOp7
 70
     1
102
RTVSPropertyOp8
 70
     1
102
RTVSPropertyOp9
 70
     1
102
RTVSPropertyOp10
 70
     1
102
RTVSPropertyOp11
 70
     1
102
RTVSPropertyOp12
 70
     1
102
RTVSPropertyOp13
 70
     1
102
RTVSPropertyOp14
 70
     1
102
RTVSPropertyOp15
 70
     1
102
RTVSPropertyOp16
 70
     1
102
RTVSPropertyOp17
 70
     1
102
RTVSPropertyOp18
 70
     1
102
RTVSPropertyOp19
 70
     1
102
RTVSPropertyOp20
 70
     1
102
RTVSPropertyOp21
 70
     1
102
RTVSPropertyOp22
 70
     1
102
RTVSPropertyOp23
 70
     1
102
RTVSPropertyOp24
 70
     1
102
RTVSPropertyOp25
 70
     1
102
RTVSPropertyOp26
 70
     1
102
RTVSPropertyOp27
 70
     1
102
RTVSPropertyOp28
 70
     1
102
RTVSPropertyOp29
 70
     1
102
RTVSPropertyOp30
 70
     1
102
RTVSPropertyOp31
 70
     1
102
RTVSPropertyOp32
 70
     1
102
RTVSPropertyOp33
 70
     1
102
RTVSPropertyOp34
 70
     1
102
RTVSPropertyOp35
 70
     1
102
RTVSPropertyOp36
 70
     1
102
RTVSPropertyOp37
 70
     1
102
RTVSPropertyOp38
 70
     1
102
RTVSPropertyOp39
 70
     1
102
RTVSPropertyOp40
 70
     1
102
RTVSPropertyOp41
 70
     1
102
RTVSPropertyOp42
 70
     1
102
RTVSPropertyOp43
 70
     1
102
RTVSPropertyOp44
 70
     1
102
RTVSPropertyOp45
 70
     1
102
RTVSPropertyOp46
 70
     1
102
RTVSPropertyOp47
 70
     1
102
RTVSPropertyOp48
 70
     1
102
RTVSPropertyOp49
 70
     1
102
RTVSPropertyOp50
 70
     1
102
RTVSPropertyOp51
 70
     0
102
RTVSPropertyOp52
 70
     0
102
RTVSPropertyOp53
 70
     1
102
RTVSPropertyOp54
 70
     1
102
RTVSPropertyOp55
 70
     1
102
RTVSPropertyOp56
 70
     1
102
RTVSPropertyOp57
 70
     1
102
RTVSPropertyOp58
 70
     1
102
RTVSPropertyOp59
 70
     1
102
RTVSPropertyOp60
 70
     1
102
RTVSPropertyOp61
 70
     1
102
RTVSPropertyOp62
 70
     1
  0
XRECORD
  5
B35B
102
{ACAD_REACTORS
330
B35A
102
}
330
B35A
100
AcDbXrecord
280
     1
102
RTVSPost2010Prop28
280
     0
102
RTVSPost2010PropOp28
 70
     1
102
RTVSPost2010Prop29
280
     1
102
RTVSPost2010PropOp29
 70
     1
102
RTVSPost2010Prop30
280
     1
102
RTVSPost2010PropOp30
 70
     1
102
RTVSPost2010Prop31
280
     0
102
RTVSPost2010PropOp31
 70
     1
102
RTVSPost2010Prop32
280
     0
102
RTVSPost2010PropOp32
 70
     1
102
RTVSPost2010Prop33
280
     0
102
RTVSPost2010PropOp33
 70
     1
102
RTVSPost2010Prop34
280
     0
102
RTVSPost2010PropOp34
 70
     1
102
RTVSPost2010Prop35
280
     0
102
RTVSPost2010PropOp35
 70
     1
102
RTVSPost2010Prop36
280
     0
102
RTVSPost2010PropOp36
 70
     1
102
RTVSPost2010Prop37
 90
       50
102
RTVSPost2010PropOp37
 70
     1
102
RTVSPost2010Prop38
140
0.0
102
RTVSPost2010PropOp38
 70
     1
102
RTVSPost2010Prop39
140
1.0
102
RTVSPost2010PropOp39
 70
     1
102
RTVSPost2010Prop40
 90
        0
102
RTVSPost2010PropOp40
 70
     1
102
RTVSPost2010Prop41ColorIndex
 90
       18
102
RTVSPost2010Prop41ColorRGB
 90
        0
102
RTVSPost2010PropOp41
 70
     1
102
RTVSPost2010Prop42
 90
       50
102
RTVSPost2010PropOp42
 70
     1
102
RTVSPost2010Prop43
 90
        3
102
RTVSPost2010PropOp43
 70
     1
102
RTVSPost2010Prop44ColorIndex
 90
        5
102
RTVSPost2010Prop44ColorRGB
 90
      255
102
RTVSPost2010PropOp44
 70
     1
102
RTVSPost2010Prop45
280
     0
102
RTVSPost2010PropOp45
 70
     1
102
RTVSPost2010Prop46
 90
       50
102
RTVSPost2010PropOp46
 70
     1
102
RTVSPost2010Prop47
 90
       50
102
RTVSPost2010PropOp47
 70
     1
102
RTVSPost2010Prop48
 90
       50
102
RTVSPost2010PropOp48
 70
     1
102
RTVSPost2010Prop49
280
     0
102
RTVSPost2010PropOp49
 70
     1
102
RTVSPost2010Prop50
 90
       50
102
RTVSPost2010PropOp50
 70
     1
102
RTVSPost2010Prop51ColorIndex
 90
      256
102
RTVSPost2010Prop51ColorRGB
 90
-16777216
102
RTVSPost2010PropOp51
 70
     0
102
RTVSPost2010Prop52
140
1.0
102
RTVSPost2010PropOp52
 70
     0
102
RTVSPost2010Prop53
 90
        2
102
RTVSPost2010PropOp53
 70
     1
102
RTVSPost2010Prop54
  1
strokes_ogs.tif
102
RTVSPost2010PropOp54
 70
     1
102
RTVSPost2010Prop55
280
     0
102
RTVSPost2010PropOp55
 70
     1
102
RTVSPost2010Prop56
140
1.0
102
RTVSPost2010PropOp56
 70
     1
102
RTVSPost2010Prop57
140
1.0
102
RTVSPost2010PropOp57
 70
     1
102
RTVSPropertyOp0
 70
     1
102
RTVSPropertyOp1
 70
     1
102
RTVSPropertyOp2
 70
     1
102
RTVSPropertyOp3
 70
     1
102
RTVSPropertyOp4
 70
     1
102
RTVSPropertyOp5
 70
     1
102
RTVSPropertyOp6
 70
     1
102
RTVSPropertyOp7
 70
     1
102
RTVSPropertyOp8
 70
     1
102
RTVSPropertyOp9
 70
     1
102
RTVSPropertyOp10
 70
     1
102
RTVSPropertyOp11
 70
     1
102
RTVSPropertyOp12
 70
     1
102
RTVSPropertyOp13
 70
     1
102
RTVSPropertyOp14
 70
     1
102
RTVSPropertyOp15
 70
     1
102
RTVSPropertyOp16
 70
     1
102
RTVSPropertyOp17
 70
     1
102
RTVSPropertyOp18
 70
     1
102
RTVSPropertyOp19
 70
     1
102
RTVSPropertyOp20
 70
     1
102
RTVSPropertyOp21
 70
     1
102
RTVSPropertyOp22
 70
     1
102
RTVSPropertyOp23
 70
     1
102
RTVSPropertyOp24
 70
     1
102
RTVSPropertyOp25
 70
     1
102
RTVSPropertyOp26
 70
     1
102
RTVSPropertyOp27
 70
     1
102
RTVSPropertyOp28
 70
     1
102
RTVSPropertyOp29
 70
     1
102
RTVSPropertyOp30
 70
     1
102
RTVSPropertyOp31
 70
     1
102
RTVSPropertyOp32
 70
     1
102
RTVSPropertyOp33
 70
     1
102
RTVSPropertyOp34
 70
     1
102
RTVSPropertyOp35
 70
     1
102
RTVSPropertyOp36
 70
     1
102
RTVSPropertyOp37
 70
     1
102
RTVSPropertyOp38
 70
     1
102
RTVSPropertyOp39
 70
     1
102
RTVSPropertyOp40
 70
     1
102
RTVSPropertyOp41
 70
     1
102
RTVSPropertyOp42
 70
     1
102
RTVSPropertyOp43
 70
     1
102
RTVSPropertyOp44
 70
     1
102
RTVSPropertyOp45
 70
     1
102
RTVSPropertyOp46
 70
     1
102
RTVSPropertyOp47
 70
     1
102
RTVSPropertyOp48
 70
     1
102
RTVSPropertyOp49
 70
     1
102
RTVSPropertyOp50
 70
     1
102
RTVSPropertyOp51
 70
     0
102
RTVSPropertyOp52
 70
     0
102
RTVSPropertyOp53
 70
     1
102
RTVSPropertyOp54
 70
     1
102
RTVSPropertyOp55
 70
     1
102
RTVSPropertyOp56
 70
     1
102
RTVSPropertyOp57
 70
     1
102
RTVSPropertyOp58
 70
     1
102
RTVSPropertyOp59
 70
     1
102
RTVSPropertyOp60
 70
     1
102
RTVSPropertyOp61
 70
     1
102
RTVSPropertyOp62
 70
     1
  0
XRECORD
  5
B369
102
{ACAD_REACTORS
330
B368
102
}
330
B368
100
AcDbXrecord
280
     1
102
RTVSPost2010Prop28
280
     0
102
RTVSPost2010PropOp28
 70
     1
102
RTVSPost2010Prop29
280
     1
102
RTVSPost2010PropOp29
 70
     1
102
RTVSPost2010Prop30
280
     1
102
RTVSPost2010PropOp30
 70
     1
102
RTVSPost2010Prop31
280
     0
102
RTVSPost2010PropOp31
 70
     1
102
RTVSPost2010Prop32
280
     0
102
RTVSPost2010PropOp32
 70
     1
102
RTVSPost2010Prop33
280
     0
102
RTVSPost2010PropOp33
 70
     1
102
RTVSPost2010Prop34
280
     0
102
RTVSPost2010PropOp34
 70
     1
102
RTVSPost2010Prop35
280
     0
102
RTVSPost2010PropOp35
 70
     1
102
RTVSPost2010Prop36
280
     0
102
RTVSPost2010PropOp36
 70
     1
102
RTVSPost2010Prop37
 90
       50
102
RTVSPost2010PropOp37
 70
     1
102
RTVSPost2010Prop38
140
0.0
102
RTVSPost2010PropOp38
 70
     1
102
RTVSPost2010Prop39
140
1.0
102
RTVSPost2010PropOp39
 70
     1
102
RTVSPost2010Prop40
 90
        0
102
RTVSPost2010PropOp40
 70
     1
102
RTVSPost2010Prop41ColorIndex
 90
       18
102
RTVSPost2010Prop41ColorRGB
 90
        0
102
RTVSPost2010PropOp41
 70
     1
102
RTVSPost2010Prop42
 90
       50
102
RTVSPost2010PropOp42
 70
     1
102
RTVSPost2010Prop43
 90
        3
102
RTVSPost2010PropOp43
 70
     1
102
RTVSPost2010Prop44ColorIndex
 90
        5
102
RTVSPost2010Prop44ColorRGB
 90
      255
102
RTVSPost2010PropOp44
 70
     1
102
RTVSPost2010Prop45
280
     0
102
RTVSPost2010PropOp45
 70
     1
102
RTVSPost2010Prop46
 90
       50
102
RTVSPost2010PropOp46
 70
     1
102
RTVSPost2010Prop47
 90
       50
102
RTVSPost2010PropOp47
 70
     1
102
RTVSPost2010Prop48
 90
       50
102
RTVSPost2010PropOp48
 70
     1
102
RTVSPost2010Prop49
280
     0
102
RTVSPost2010PropOp49
 70
     1
102
RTVSPost2010Prop50
 90
       50
102
RTVSPost2010PropOp50
 70
     1
102
RTVSPost2010Prop51ColorIndex
 90
      256
102
RTVSPost2010Prop51ColorRGB
 90
-16777216
102
RTVSPost2010PropOp51
 70
     0
102
RTVSPost2010Prop52
140
1.0
102
RTVSPost2010PropOp52
 70
     0
102
RTVSPost2010Prop53
 90
        2
102
RTVSPost2010PropOp53
 70
     1
102
RTVSPost2010Prop54
  1
strokes_ogs.tif
102
RTVSPost2010PropOp54
 70
     1
102
RTVSPost2010Prop55
280
     0
102
RTVSPost2010PropOp55
 70
     1
102
RTVSPost2010Prop56
140
1.0
102
RTVSPost2010PropOp56
 70
     1
102
RTVSPost2010Prop57
140
1.0
102
RTVSPost2010PropOp57
 70
     1
102
RTVSPropertyOp0
 70
     1
102
RTVSPropertyOp1
 70
     1
102
RTVSPropertyOp2
 70
     1
102
RTVSPropertyOp3
 70
     1
102
RTVSPropertyOp4
 70
     1
102
RTVSPropertyOp5
 70
     1
102
RTVSPropertyOp6
 70
     1
102
RTVSPropertyOp7
 70
     1
102
RTVSPropertyOp8
 70
     1
102
RTVSPropertyOp9
 70
     1
102
RTVSPropertyOp10
 70
     1
102
RTVSPropertyOp11
 70
     1
102
RTVSPropertyOp12
 70
     1
102
RTVSPropertyOp13
 70
     1
102
RTVSPropertyOp14
 70
     1
102
RTVSPropertyOp15
 70
     1
102
RTVSPropertyOp16
 70
     1
102
RTVSPropertyOp17
 70
     1
102
RTVSPropertyOp18
 70
     1
102
RTVSPropertyOp19
 70
     1
102
RTVSPropertyOp20
 70
     1
102
RTVSPropertyOp21
 70
     1
102
RTVSPropertyOp22
 70
     1
102
RTVSPropertyOp23
 70
     1
102
RTVSPropertyOp24
 70
     1
102
RTVSPropertyOp25
 70
     1
102
RTVSPropertyOp26
 70
     1
102
RTVSPropertyOp27
 70
     1
102
RTVSPropertyOp28
 70
     1
102
RTVSPropertyOp29
 70
     1
102
RTVSPropertyOp30
 70
     1
102
RTVSPropertyOp31
 70
     1
102
RTVSPropertyOp32
 70
     1
102
RTVSPropertyOp33
 70
     1
102
RTVSPropertyOp34
 70
     1
102
RTVSPropertyOp35
 70
     1
102
RTVSPropertyOp36
 70
     1
102
RTVSPropertyOp37
 70
     1
102
RTVSPropertyOp38
 70
     1
102
RTVSPropertyOp39
 70
     1
102
RTVSPropertyOp40
 70
     1
102
RTVSPropertyOp41
 70
     1
102
RTVSPropertyOp42
 70
     1
102
RTVSPropertyOp43
 70
     1
102
RTVSPropertyOp44
 70
     1
102
RTVSPropertyOp45
 70
     1
102
RTVSPropertyOp46
 70
     1
102
RTVSPropertyOp47
 70
     1
102
RTVSPropertyOp48
 70
     1
102
RTVSPropertyOp49
 70
     1
102
RTVSPropertyOp50
 70
     1
102
RTVSPropertyOp51
 70
     0
102
RTVSPropertyOp52
 70
     0
102
RTVSPropertyOp53
 70
     1
102
RTVSPropertyOp54
 70
     1
102
RTVSPropertyOp55
 70
     1
102
RTVSPropertyOp56
 70
     1
102
RTVSPropertyOp57
 70
     1
102
RTVSPropertyOp58
 70
     1
102
RTVSPropertyOp59
 70
     1
102
RTVSPropertyOp60
 70
     1
102
RTVSPropertyOp61
 70
     1
102
RTVSPropertyOp62
 70
     1
  0
XRECORD
  5
B371
102
{ACAD_REACTORS
330
B370
102
}
330
B370
100
AcDbXrecord
280
     1
102
RTVSPost2010Prop28
280
     0
102
RTVSPost2010PropOp28
 70
     1
102
RTVSPost2010Prop29
280
     1
102
RTVSPost2010PropOp29
 70
     1
102
RTVSPost2010Prop30
280
     1
102
RTVSPost2010PropOp30
 70
     1
102
RTVSPost2010Prop31
280
     0
102
RTVSPost2010PropOp31
 70
     1
102
RTVSPost2010Prop32
280
     0
102
RTVSPost2010PropOp32
 70
     1
102
RTVSPost2010Prop33
280
     0
102
RTVSPost2010PropOp33
 70
     1
102
RTVSPost2010Prop34
280
     0
102
RTVSPost2010PropOp34
 70
     1
102
RTVSPost2010Prop35
280
     0
102
RTVSPost2010PropOp35
 70
     1
102
RTVSPost2010Prop36
280
     0
102
RTVSPost2010PropOp36
 70
     1
102
RTVSPost2010Prop37
 90
       50
102
RTVSPost2010PropOp37
 70
     1
102
RTVSPost2010Prop38
140
0.0
102
RTVSPost2010PropOp38
 70
     1
102
RTVSPost2010Prop39
140
1.0
102
RTVSPost2010PropOp39
 70
     1
102
RTVSPost2010Prop40
 90
        0
102
RTVSPost2010PropOp40
 70
     1
102
RTVSPost2010Prop41ColorIndex
 90
       18
102
RTVSPost2010Prop41ColorRGB
 90
        0
102
RTVSPost2010PropOp41
 70
     1
102
RTVSPost2010Prop42
 90
       50
102
RTVSPost2010PropOp42
 70
     1
102
RTVSPost2010Prop43
 90
        3
102
RTVSPost2010PropOp43
 70
     1
102
RTVSPost2010Prop44ColorIndex
 90
        5
102
RTVSPost2010Prop44ColorRGB
 90
      255
102
RTVSPost2010PropOp44
 70
     1
102
RTVSPost2010Prop45
280
     0
102
RTVSPost2010PropOp45
 70
     1
102
RTVSPost2010Prop46
 90
       50
102
RTVSPost2010PropOp46
 70
     1
102
RTVSPost2010Prop47
 90
       50
102
RTVSPost2010PropOp47
 70
     1
102
RTVSPost2010Prop48
 90
       50
102
RTVSPost2010PropOp48
 70
     1
102
RTVSPost2010Prop49
280
     0
102
RTVSPost2010PropOp49
 70
     1
102
RTVSPost2010Prop50
 90
       50
102
RTVSPost2010PropOp50
 70
     1
102
RTVSPost2010Prop51ColorIndex
 90
      256
102
RTVSPost2010Prop51ColorRGB
 90
-16777216
102
RTVSPost2010PropOp51
 70
     0
102
RTVSPost2010Prop52
140
1.0
102
RTVSPost2010PropOp52
 70
     0
102
RTVSPost2010Prop53
 90
        2
102
RTVSPost2010PropOp53
 70
     1
102
RTVSPost2010Prop54
  1
strokes_ogs.tif
102
RTVSPost2010PropOp54
 70
     1
102
RTVSPost2010Prop55
280
     0
102
RTVSPost2010PropOp55
 70
     1
102
RTVSPost2010Prop56
140
1.0
102
RTVSPost2010PropOp56
 70
     1
102
RTVSPost2010Prop57
140
1.0
102
RTVSPost2010PropOp57
 70
     1
102
RTVSPropertyOp0
 70
     1
102
RTVSPropertyOp1
 70
     1
102
RTVSPropertyOp2
 70
     1
102
RTVSPropertyOp3
 70
     1
102
RTVSPropertyOp4
 70
     1
102
RTVSPropertyOp5
 70
     1
102
RTVSPropertyOp6
 70
     1
102
RTVSPropertyOp7
 70
     1
102
RTVSPropertyOp8
 70
     1
102
RTVSPropertyOp9
 70
     1
102
RTVSPropertyOp10
 70
     1
102
RTVSPropertyOp11
 70
     1
102
RTVSPropertyOp12
 70
     1
102
RTVSPropertyOp13
 70
     1
102
RTVSPropertyOp14
 70
     1
102
RTVSPropertyOp15
 70
     1
102
RTVSPropertyOp16
 70
     1
102
RTVSPropertyOp17
 70
     1
102
RTVSPropertyOp18
 70
     1
102
RTVSPropertyOp19
 70
     1
102
RTVSPropertyOp20
 70
     1
102
RTVSPropertyOp21
 70
     1
102
RTVSPropertyOp22
 70
     1
102
RTVSPropertyOp23
 70
     1
102
RTVSPropertyOp24
 70
     1
102
RTVSPropertyOp25
 70
     1
102
RTVSPropertyOp26
 70
     1
102
RTVSPropertyOp27
 70
     1
102
RTVSPropertyOp28
 70
     1
102
RTVSPropertyOp29
 70
     1
102
RTVSPropertyOp30
 70
     1
102
RTVSPropertyOp31
 70
     1
102
RTVSPropertyOp32
 70
     1
102
RTVSPropertyOp33
 70
     1
102
RTVSPropertyOp34
 70
     1
102
RTVSPropertyOp35
 70
     1
102
RTVSPropertyOp36
 70
     1
102
RTVSPropertyOp37
 70
     1
102
RTVSPropertyOp38
 70
     1
102
RTVSPropertyOp39
 70
     1
102
RTVSPropertyOp40
 70
     1
102
RTVSPropertyOp41
 70
     1
102
RTVSPropertyOp42
 70
     1
102
RTVSPropertyOp43
 70
     1
102
RTVSPropertyOp44
 70
     1
102
RTVSPropertyOp45
 70
     1
102
RTVSPropertyOp46
 70
     1
102
RTVSPropertyOp47
 70
     1
102
RTVSPropertyOp48
 70
     1
102
RTVSPropertyOp49
 70
     1
102
RTVSPropertyOp50
 70
     1
102
RTVSPropertyOp51
 70
     0
102
RTVSPropertyOp52
 70
     0
102
RTVSPropertyOp53
 70
     1
102
RTVSPropertyOp54
 70
     1
102
RTVSPropertyOp55
 70
     1
102
RTVSPropertyOp56
 70
     1
102
RTVSPropertyOp57
 70
     1
102
RTVSPropertyOp58
 70
     1
102
RTVSPropertyOp59
 70
     1
102
RTVSPropertyOp60
 70
     1
102
RTVSPropertyOp61
 70
     1
102
RTVSPropertyOp62
 70
     1
  0
XRECORD
  5
B363
102
{ACAD_REACTORS
330
B362
102
}
330
B362
100
AcDbXrecord
280
     1
102
RTVSPost2010Prop28
280
     0
102
RTVSPost2010PropOp28
 70
     1
102
RTVSPost2010Prop29
280
     1
102
RTVSPost2010PropOp29
 70
     1
102
RTVSPost2010Prop30
280
     1
102
RTVSPost2010PropOp30
 70
     1
102
RTVSPost2010Prop31
280
     0
102
RTVSPost2010PropOp31
 70
     1
102
RTVSPost2010Prop32
280
     0
102
RTVSPost2010PropOp32
 70
     1
102
RTVSPost2010Prop33
280
     0
102
RTVSPost2010PropOp33
 70
     1
102
RTVSPost2010Prop34
280
     0
102
RTVSPost2010PropOp34
 70
     1
102
RTVSPost2010Prop35
280
     0
102
RTVSPost2010PropOp35
 70
     1
102
RTVSPost2010Prop36
280
     0
102
RTVSPost2010PropOp36
 70
     1
102
RTVSPost2010Prop37
 90
       50
102
RTVSPost2010PropOp37
 70
     1
102
RTVSPost2010Prop38
140
0.0
102
RTVSPost2010PropOp38
 70
     1
102
RTVSPost2010Prop39
140
1.0
102
RTVSPost2010PropOp39
 70
     1
102
RTVSPost2010Prop40
 90
        0
102
RTVSPost2010PropOp40
 70
     1
102
RTVSPost2010Prop41ColorIndex
 90
       18
102
RTVSPost2010Prop41ColorRGB
 90
        0
102
RTVSPost2010PropOp41
 70
     1
102
RTVSPost2010Prop42
 90
       50
102
RTVSPost2010PropOp42
 70
     1
102
RTVSPost2010Prop43
 90
        3
102
RTVSPost2010PropOp43
 70
     1
102
RTVSPost2010Prop44ColorIndex
 90
        5
102
RTVSPost2010Prop44ColorRGB
 90
      255
102
RTVSPost2010PropOp44
 70
     1
102
RTVSPost2010Prop45
280
     0
102
RTVSPost2010PropOp45
 70
     1
102
RTVSPost2010Prop46
 90
       50
102
RTVSPost2010PropOp46
 70
     1
102
RTVSPost2010Prop47
 90
       50
102
RTVSPost2010PropOp47
 70
     1
102
RTVSPost2010Prop48
 90
       50
102
RTVSPost2010PropOp48
 70
     1
102
RTVSPost2010Prop49
280
     0
102
RTVSPost2010PropOp49
 70
     1
102
RTVSPost2010Prop50
 90
       50
102
RTVSPost2010PropOp50
 70
     1
102
RTVSPost2010Prop51ColorIndex
 90
      256
102
RTVSPost2010Prop51ColorRGB
 90
-16777216
102
RTVSPost2010PropOp51
 70
     0
102
RTVSPost2010Prop52
140
1.0
102
RTVSPost2010PropOp52
 70
     0
102
RTVSPost2010Prop53
 90
        2
102
RTVSPost2010PropOp53
 70
     1
102
RTVSPost2010Prop54
  1
strokes_ogs.tif
102
RTVSPost2010PropOp54
 70
     1
102
RTVSPost2010Prop55
280
     0
102
RTVSPost2010PropOp55
 70
     1
102
RTVSPost2010Prop56
140
1.0
102
RTVSPost2010PropOp56
 70
     1
102
RTVSPost2010Prop57
140
1.0
102
RTVSPost2010PropOp57
 70
     1
102
RTVSPropertyOp0
 70
     1
102
RTVSPropertyOp1
 70
     1
102
RTVSPropertyOp2
 70
     1
102
RTVSPropertyOp3
 70
     1
102
RTVSPropertyOp4
 70
     1
102
RTVSPropertyOp5
 70
     1
102
RTVSPropertyOp6
 70
     1
102
RTVSPropertyOp7
 70
     1
102
RTVSPropertyOp8
 70
     1
102
RTVSPropertyOp9
 70
     1
102
RTVSPropertyOp10
 70
     1
102
RTVSPropertyOp11
 70
     1
102
RTVSPropertyOp12
 70
     1
102
RTVSPropertyOp13
 70
     1
102
RTVSPropertyOp14
 70
     1
102
RTVSPropertyOp15
 70
     1
102
RTVSPropertyOp16
 70
     1
102
RTVSPropertyOp17
 70
     1
102
RTVSPropertyOp18
 70
     1
102
RTVSPropertyOp19
 70
     1
102
RTVSPropertyOp20
 70
     1
102
RTVSPropertyOp21
 70
     1
102
RTVSPropertyOp22
 70
     1
102
RTVSPropertyOp23
 70
     1
102
RTVSPropertyOp24
 70
     1
102
RTVSPropertyOp25
 70
     1
102
RTVSPropertyOp26
 70
     1
102
RTVSPropertyOp27
 70
     1
102
RTVSPropertyOp28
 70
     1
102
RTVSPropertyOp29
 70
     1
102
RTVSPropertyOp30
 70
     1
102
RTVSPropertyOp31
 70
     1
102
RTVSPropertyOp32
 70
     1
102
RTVSPropertyOp33
 70
     1
102
RTVSPropertyOp34
 70
     1
102
RTVSPropertyOp35
 70
     1
102
RTVSPropertyOp36
 70
     1
102
RTVSPropertyOp37
 70
     1
102
RTVSPropertyOp38
 70
     1
102
RTVSPropertyOp39
 70
     1
102
RTVSPropertyOp40
 70
     1
102
RTVSPropertyOp41
 70
     1
102
RTVSPropertyOp42
 70
     1
102
RTVSPropertyOp43
 70
     1
102
RTVSPropertyOp44
 70
     1
102
RTVSPropertyOp45
 70
     1
102
RTVSPropertyOp46
 70
     1
102
RTVSPropertyOp47
 70
     1
102
RTVSPropertyOp48
 70
     1
102
RTVSPropertyOp49
 70
     1
102
RTVSPropertyOp50
 70
     1
102
RTVSPropertyOp51
 70
     0
102
RTVSPropertyOp52
 70
     0
102
RTVSPropertyOp53
 70
     1
102
RTVSPropertyOp54
 70
     1
102
RTVSPropertyOp55
 70
     1
102
RTVSPropertyOp56
 70
     1
102
RTVSPropertyOp57
 70
     1
102
RTVSPropertyOp58
 70
     1
102
RTVSPropertyOp59
 70
     1
102
RTVSPropertyOp60
 70
     1
102
RTVSPropertyOp61
 70
     1
102
RTVSPropertyOp62
 70
     1
  0
XRECORD
  5
B367
102
{ACAD_REACTORS
330
B366
102
}
330
B366
100
AcDbXrecord
280
     1
102
RTVSPost2010Prop28
280
     0
102
RTVSPost2010PropOp28
 70
     1
102
RTVSPost2010Prop29
280
     1
102
RTVSPost2010PropOp29
 70
     1
102
RTVSPost2010Prop30
280
     1
102
RTVSPost2010PropOp30
 70
     1
102
RTVSPost2010Prop31
280
     0
102
RTVSPost2010PropOp31
 70
     1
102
RTVSPost2010Prop32
280
     0
102
RTVSPost2010PropOp32
 70
     1
102
RTVSPost2010Prop33
280
     0
102
RTVSPost2010PropOp33
 70
     1
102
RTVSPost2010Prop34
280
     0
102
RTVSPost2010PropOp34
 70
     1
102
RTVSPost2010Prop35
280
     0
102
RTVSPost2010PropOp35
 70
     1
102
RTVSPost2010Prop36
280
     0
102
RTVSPost2010PropOp36
 70
     1
102
RTVSPost2010Prop37
 90
       50
102
RTVSPost2010PropOp37
 70
     1
102
RTVSPost2010Prop38
140
0.0
102
RTVSPost2010PropOp38
 70
     1
102
RTVSPost2010Prop39
140
1.0
102
RTVSPost2010PropOp39
 70
     1
102
RTVSPost2010Prop40
 90
        0
102
RTVSPost2010PropOp40
 70
     1
102
RTVSPost2010Prop41ColorIndex
 90
       18
102
RTVSPost2010Prop41ColorRGB
 90
        0
102
RTVSPost2010PropOp41
 70
     1
102
RTVSPost2010Prop42
 90
       50
102
RTVSPost2010PropOp42
 70
     1
102
RTVSPost2010Prop43
 90
        3
102
RTVSPost2010PropOp43
 70
     1
102
RTVSPost2010Prop44ColorIndex
 90
        5
102
RTVSPost2010Prop44ColorRGB
 90
      255
102
RTVSPost2010PropOp44
 70
     1
102
RTVSPost2010Prop45
280
     0
102
RTVSPost2010PropOp45
 70
     1
102
RTVSPost2010Prop46
 90
       50
102
RTVSPost2010PropOp46
 70
     1
102
RTVSPost2010Prop47
 90
       50
102
RTVSPost2010PropOp47
 70
     1
102
RTVSPost2010Prop48
 90
       50
102
RTVSPost2010PropOp48
 70
     1
102
RTVSPost2010Prop49
280
     0
102
RTVSPost2010PropOp49
 70
     1
102
RTVSPost2010Prop50
 90
       50
102
RTVSPost2010PropOp50
 70
     1
102
RTVSPost2010Prop51ColorIndex
 90
      256
102
RTVSPost2010Prop51ColorRGB
 90
-16777216
102
RTVSPost2010PropOp51
 70
     0
102
RTVSPost2010Prop52
140
1.0
102
RTVSPost2010PropOp52
 70
     0
102
RTVSPost2010Prop53
 90
        2
102
RTVSPost2010PropOp53
 70
     1
102
RTVSPost2010Prop54
  1
strokes_ogs.tif
102
RTVSPost2010PropOp54
 70
     1
102
RTVSPost2010Prop55
280
     0
102
RTVSPost2010PropOp55
 70
     1
102
RTVSPost2010Prop56
140
1.0
102
RTVSPost2010PropOp56
 70
     1
102
RTVSPost2010Prop57
140
1.0
102
RTVSPost2010PropOp57
 70
     1
102
RTVSPropertyOp0
 70
     1
102
RTVSPropertyOp1
 70
     1
102
RTVSPropertyOp2
 70
     1
102
RTVSPropertyOp3
 70
     1
102
RTVSPropertyOp4
 70
     1
102
RTVSPropertyOp5
 70
     1
102
RTVSPropertyOp6
 70
     1
102
RTVSPropertyOp7
 70
     1
102
RTVSPropertyOp8
 70
     1
102
RTVSPropertyOp9
 70
     1
102
RTVSPropertyOp10
 70
     1
102
RTVSPropertyOp11
 70
     1
102
RTVSPropertyOp12
 70
     1
102
RTVSPropertyOp13
 70
     1
102
RTVSPropertyOp14
 70
     1
102
RTVSPropertyOp15
 70
     1
102
RTVSPropertyOp16
 70
     1
102
RTVSPropertyOp17
 70
     1
102
RTVSPropertyOp18
 70
     1
102
RTVSPropertyOp19
 70
     1
102
RTVSPropertyOp20
 70
     1
102
RTVSPropertyOp21
 70
     1
102
RTVSPropertyOp22
 70
     1
102
RTVSPropertyOp23
 70
     1
102
RTVSPropertyOp24
 70
     1
102
RTVSPropertyOp25
 70
     1
102
RTVSPropertyOp26
 70
     1
102
RTVSPropertyOp27
 70
     1
102
RTVSPropertyOp28
 70
     1
102
RTVSPropertyOp29
 70
     1
102
RTVSPropertyOp30
 70
     1
102
RTVSPropertyOp31
 70
     1
102
RTVSPropertyOp32
 70
     1
102
RTVSPropertyOp33
 70
     1
102
RTVSPropertyOp34
 70
     1
102
RTVSPropertyOp35
 70
     1
102
RTVSPropertyOp36
 70
     1
102
RTVSPropertyOp37
 70
     1
102
RTVSPropertyOp38
 70
     1
102
RTVSPropertyOp39
 70
     1
102
RTVSPropertyOp40
 70
     1
102
RTVSPropertyOp41
 70
     1
102
RTVSPropertyOp42
 70
     1
102
RTVSPropertyOp43
 70
     1
102
RTVSPropertyOp44
 70
     1
102
RTVSPropertyOp45
 70
     1
102
RTVSPropertyOp46
 70
     1
102
RTVSPropertyOp47
 70
     1
102
RTVSPropertyOp48
 70
     1
102
RTVSPropertyOp49
 70
     1
102
RTVSPropertyOp50
 70
     1
102
RTVSPropertyOp51
 70
     0
102
RTVSPropertyOp52
 70
     0
102
RTVSPropertyOp53
 70
     1
102
RTVSPropertyOp54
 70
     1
102
RTVSPropertyOp55
 70
     1
102
RTVSPropertyOp56
 70
     1
102
RTVSPropertyOp57
 70
     1
102
RTVSPropertyOp58
 70
     1
102
RTVSPropertyOp59
 70
     1
102
RTVSPropertyOp60
 70
     1
102
RTVSPropertyOp61
 70
     1
102
RTVSPropertyOp62
 70
     1
  0
XRECORD
  5
B381
102
{ACAD_REACTORS
330
B380
102
}
330
B380
100
AcDbXrecord
280
     1
102
RTVSPost2010Prop28
280
     0
102
RTVSPost2010PropOp28
 70
     1
102
RTVSPost2010Prop29
280
     1
102
RTVSPost2010PropOp29
 70
     1
102
RTVSPost2010Prop30
280
     1
102
RTVSPost2010PropOp30
 70
     1
102
RTVSPost2010Prop31
280
     0
102
RTVSPost2010PropOp31
 70
     1
102
RTVSPost2010Prop32
280
     0
102
RTVSPost2010PropOp32
 70
     1
102
RTVSPost2010Prop33
280
     0
102
RTVSPost2010PropOp33
 70
     1
102
RTVSPost2010Prop34
280
     0
102
RTVSPost2010PropOp34
 70
     1
102
RTVSPost2010Prop35
280
     0
102
RTVSPost2010PropOp35
 70
     1
102
RTVSPost2010Prop36
280
     0
102
RTVSPost2010PropOp36
 70
     1
102
RTVSPost2010Prop37
 90
       50
102
RTVSPost2010PropOp37
 70
     0
102
RTVSPost2010Prop38
140
0.0
102
RTVSPost2010PropOp38
 70
     0
102
RTVSPost2010Prop39
140
1.0
102
RTVSPost2010PropOp39
 70
     0
102
RTVSPost2010Prop40
 90
        0
102
RTVSPost2010PropOp40
 70
     0
102
RTVSPost2010Prop41ColorIndex
 90
       18
102
RTVSPost2010Prop41ColorRGB
 90
        0
102
RTVSPost2010PropOp41
 70
     0
102
RTVSPost2010Prop42
 90
       50
102
RTVSPost2010PropOp42
 70
     0
102
RTVSPost2010Prop43
 90
        3
102
RTVSPost2010PropOp43
 70
     0
102
RTVSPost2010Prop44ColorIndex
 90
        5
102
RTVSPost2010Prop44ColorRGB
 90
      255
102
RTVSPost2010PropOp44
 70
     0
102
RTVSPost2010Prop45
280
     0
102
RTVSPost2010PropOp45
 70
     1
102
RTVSPost2010Prop46
 90
       50
102
RTVSPost2010PropOp46
 70
     0
102
RTVSPost2010Prop47
 90
       50
102
RTVSPost2010PropOp47
 70
     0
102
RTVSPost2010Prop48
 90
       50
102
RTVSPost2010PropOp48
 70
     0
102
RTVSPost2010Prop49
280
     0
102
RTVSPost2010PropOp49
 70
     1
102
RTVSPost2010Prop50
 90
       50
102
RTVSPost2010PropOp50
 70
     0
102
RTVSPost2010Prop51ColorIndex
 90
      256
102
RTVSPost2010Prop51ColorRGB
 90
-16777216
102
RTVSPost2010PropOp51
 70
     0
102
RTVSPost2010Prop52
140
1.0
102
RTVSPost2010PropOp52
 70
     0
102
RTVSPost2010Prop53
 90
        2
102
RTVSPost2010PropOp53
 70
     0
102
RTVSPost2010Prop54
  1
strokes_ogs.tif
102
RTVSPost2010PropOp54
 70
     0
102
RTVSPost2010Prop55
280
     0
102
RTVSPost2010PropOp55
 70
     1
102
RTVSPost2010Prop56
140
1.0
102
RTVSPost2010PropOp56
 70
     0
102
RTVSPost2010Prop57
140
1.0
102
RTVSPost2010PropOp57
 70
     0
102
RTVSPropertyOp0
 70
     0
102
RTVSPropertyOp1
 70
     0
102
RTVSPropertyOp2
 70
     0
102
RTVSPropertyOp3
 70
     0
102
RTVSPropertyOp4
 70
     0
102
RTVSPropertyOp5
 70
     0
102
RTVSPropertyOp6
 70
     0
102
RTVSPropertyOp7
 70
     0
102
RTVSPropertyOp8
 70
     0
102
RTVSPropertyOp9
 70
     0
102
RTVSPropertyOp10
 70
     0
102
RTVSPropertyOp11
 70
     0
102
RTVSPropertyOp12
 70
     0
102
RTVSPropertyOp13
 70
     0
102
RTVSPropertyOp14
 70
     2
102
RTVSPropertyOp15
 70
     0
102
RTVSPropertyOp16
 70
     0
102
RTVSPropertyOp17
 70
     0
102
RTVSPropertyOp18
 70
     0
102
RTVSPropertyOp19
 70
     0
102
RTVSPropertyOp20
 70
     0
102
RTVSPropertyOp21
 70
     0
102
RTVSPropertyOp22
 70
     0
102
RTVSPropertyOp23
 70
     0
102
RTVSPropertyOp24
 70
     0
102
RTVSPropertyOp25
 70
     0
102
RTVSPropertyOp26
 70
     0
102
RTVSPropertyOp27
 70
     0
102
RTVSPropertyOp28
 70
     1
102
RTVSPropertyOp29
 70
     1
102
RTVSPropertyOp30
 70
     1
102
RTVSPropertyOp31
 70
     1
102
RTVSPropertyOp32
 70
     1
102
RTVSPropertyOp33
 70
     1
102
RTVSPropertyOp34
 70
     1
102
RTVSPropertyOp35
 70
     1
102
RTVSPropertyOp36
 70
     1
102
RTVSPropertyOp37
 70
     0
102
RTVSPropertyOp38
 70
     0
102
RTVSPropertyOp39
 70
     0
102
RTVSPropertyOp40
 70
     0
102
RTVSPropertyOp41
 70
     0
102
RTVSPropertyOp42
 70
     0
102
RTVSPropertyOp43
 70
     0
102
RTVSPropertyOp44
 70
     0
102
RTVSPropertyOp45
 70
     1
102
RTVSPropertyOp46
 70
     0
102
RTVSPropertyOp47
 70
     0
102
RTVSPropertyOp48
 70
     0
102
RTVSPropertyOp49
 70
     1
102
RTVSPropertyOp50
 70
     0
102
RTVSPropertyOp51
 70
     0
102
RTVSPropertyOp52
 70
     0
102
RTVSPropertyOp53
 70
     0
102
RTVSPropertyOp54
 70
     0
102
RTVSPropertyOp55
 70
     1
102
RTVSPropertyOp56
 70
     0
102
RTVSPropertyOp57
 70
     0
102
RTVSPropertyOp58
 70
     0
102
RTVSPropertyOp59
 70
     0
102
RTVSPropertyOp60
 70
     0
102
RTVSPropertyOp61
 70
     0
102
RTVSPropertyOp62
 70
     0
  0
XRECORD
  5
B36F
102
{ACAD_REACTORS
330
B36E
102
}
330
B36E
100
AcDbXrecord
280
     1
102
RTVSPost2010Prop28
280
     0
102
RTVSPost2010PropOp28
 70
     1
102
RTVSPost2010Prop29
280
     1
102
RTVSPost2010PropOp29
 70
     1
102
RTVSPost2010Prop30
280
     1
102
RTVSPost2010PropOp30
 70
     1
102
RTVSPost2010Prop31
280
     0
102
RTVSPost2010PropOp31
 70
     1
102
RTVSPost2010Prop32
280
     0
102
RTVSPost2010PropOp32
 70
     1
102
RTVSPost2010Prop33
280
     0
102
RTVSPost2010PropOp33
 70
     1
102
RTVSPost2010Prop34
280
     0
102
RTVSPost2010PropOp34
 70
     1
102
RTVSPost2010Prop35
280
     0
102
RTVSPost2010PropOp35
 70
     1
102
RTVSPost2010Prop36
280
     0
102
RTVSPost2010PropOp36
 70
     1
102
RTVSPost2010Prop37
 90
       50
102
RTVSPost2010PropOp37
 70
     1
102
RTVSPost2010Prop38
140
0.0
102
RTVSPost2010PropOp38
 70
     1
102
RTVSPost2010Prop39
140
1.0
102
RTVSPost2010PropOp39
 70
     1
102
RTVSPost2010Prop40
 90
        0
102
RTVSPost2010PropOp40
 70
     1
102
RTVSPost2010Prop41ColorIndex
 90
       18
102
RTVSPost2010Prop41ColorRGB
 90
        0
102
RTVSPost2010PropOp41
 70
     1
102
RTVSPost2010Prop42
 90
       50
102
RTVSPost2010PropOp42
 70
     1
102
RTVSPost2010Prop43
 90
        3
102
RTVSPost2010PropOp43
 70
     1
102
RTVSPost2010Prop44ColorIndex
 90
        5
102
RTVSPost2010Prop44ColorRGB
 90
      255
102
RTVSPost2010PropOp44
 70
     1
102
RTVSPost2010Prop45
280
     0
102
RTVSPost2010PropOp45
 70
     1
102
RTVSPost2010Prop46
 90
       50
102
RTVSPost2010PropOp46
 70
     1
102
RTVSPost2010Prop47
 90
       50
102
RTVSPost2010PropOp47
 70
     1
102
RTVSPost2010Prop48
 90
       50
102
RTVSPost2010PropOp48
 70
     1
102
RTVSPost2010Prop49
280
     0
102
RTVSPost2010PropOp49
 70
     1
102
RTVSPost2010Prop50
 90
       50
102
RTVSPost2010PropOp50
 70
     1
102
RTVSPost2010Prop51ColorIndex
 90
      256
102
RTVSPost2010Prop51ColorRGB
 90
-16777216
102
RTVSPost2010PropOp51
 70
     0
102
RTVSPost2010Prop52
140
1.0
102
RTVSPost2010PropOp52
 70
     0
102
RTVSPost2010Prop53
 90
        2
102
RTVSPost2010PropOp53
 70
     1
102
RTVSPost2010Prop54
  1
strokes_ogs.tif
102
RTVSPost2010PropOp54
 70
     1
102
RTVSPost2010Prop55
280
     0
102
RTVSPost2010PropOp55
 70
     1
102
RTVSPost2010Prop56
140
1.0
102
RTVSPost2010PropOp56
 70
     1
102
RTVSPost2010Prop57
140
1.0
102
RTVSPost2010PropOp57
 70
     1
102
RTVSPropertyOp0
 70
     1
102
RTVSPropertyOp1
 70
     1
102
RTVSPropertyOp2
 70
     1
102
RTVSPropertyOp3
 70
     1
102
RTVSPropertyOp4
 70
     1
102
RTVSPropertyOp5
 70
     1
102
RTVSPropertyOp6
 70
     1
102
RTVSPropertyOp7
 70
     1
102
RTVSPropertyOp8
 70
     1
102
RTVSPropertyOp9
 70
     1
102
RTVSPropertyOp10
 70
     1
102
RTVSPropertyOp11
 70
     1
102
RTVSPropertyOp12
 70
     1
102
RTVSPropertyOp13
 70
     1
102
RTVSPropertyOp14
 70
     1
102
RTVSPropertyOp15
 70
     1
102
RTVSPropertyOp16
 70
     1
102
RTVSPropertyOp17
 70
     1
102
RTVSPropertyOp18
 70
     1
102
RTVSPropertyOp19
 70
     1
102
RTVSPropertyOp20
 70
     1
102
RTVSPropertyOp21
 70
     1
102
RTVSPropertyOp22
 70
     1
102
RTVSPropertyOp23
 70
     1
102
RTVSPropertyOp24
 70
     1
102
RTVSPropertyOp25
 70
     1
102
RTVSPropertyOp26
 70
     1
102
RTVSPropertyOp27
 70
     1
102
RTVSPropertyOp28
 70
     1
102
RTVSPropertyOp29
 70
     1
102
RTVSPropertyOp30
 70
     1
102
RTVSPropertyOp31
 70
     1
102
RTVSPropertyOp32
 70
     1
102
RTVSPropertyOp33
 70
     1
102
RTVSPropertyOp34
 70
     1
102
RTVSPropertyOp35
 70
     1
102
RTVSPropertyOp36
 70
     1
102
RTVSPropertyOp37
 70
     1
102
RTVSPropertyOp38
 70
     1
102
RTVSPropertyOp39
 70
     1
102
RTVSPropertyOp40
 70
     1
102
RTVSPropertyOp41
 70
     1
102
RTVSPropertyOp42
 70
     1
102
RTVSPropertyOp43
 70
     1
102
RTVSPropertyOp44
 70
     1
102
RTVSPropertyOp45
 70
     1
102
RTVSPropertyOp46
 70
     1
102
RTVSPropertyOp47
 70
     1
102
RTVSPropertyOp48
 70
     1
102
RTVSPropertyOp49
 70
     1
102
RTVSPropertyOp50
 70
     1
102
RTVSPropertyOp51
 70
     0
102
RTVSPropertyOp52
 70
     0
102
RTVSPropertyOp53
 70
     1
102
RTVSPropertyOp54
 70
     1
102
RTVSPropertyOp55
 70
     1
102
RTVSPropertyOp56
 70
     1
102
RTVSPropertyOp57
 70
     1
102
RTVSPropertyOp58
 70
     1
102
RTVSPropertyOp59
 70
     1
102
RTVSPropertyOp60
 70
     1
102
RTVSPropertyOp61
 70
     1
102
RTVSPropertyOp62
 70
     1
  0
XRECORD
  5
B353
102
{ACAD_REACTORS
330
B352
102
}
330
B352
100
AcDbXrecord
280
     1
102
RTVSPost2010Prop28
280
     0
102
RTVSPost2010PropOp28
 70
     1
102
RTVSPost2010Prop29
280
     1
102
RTVSPost2010PropOp29
 70
     1
102
RTVSPost2010Prop30
280
     1
102
RTVSPost2010PropOp30
 70
     1
102
RTVSPost2010Prop31
280
     0
102
RTVSPost2010PropOp31
 70
     1
102
RTVSPost2010Prop32
280
     0
102
RTVSPost2010PropOp32
 70
     1
102
RTVSPost2010Prop33
280
     0
102
RTVSPost2010PropOp33
 70
     1
102
RTVSPost2010Prop34
280
     0
102
RTVSPost2010PropOp34
 70
     1
102
RTVSPost2010Prop35
280
     0
102
RTVSPost2010PropOp35
 70
     1
102
RTVSPost2010Prop36
280
     0
102
RTVSPost2010PropOp36
 70
     1
102
RTVSPost2010Prop37
 90
       50
102
RTVSPost2010PropOp37
 70
     1
102
RTVSPost2010Prop38
140
0.0
102
RTVSPost2010PropOp38
 70
     1
102
RTVSPost2010Prop39
140
1.0
102
RTVSPost2010PropOp39
 70
     1
102
RTVSPost2010Prop40
 90
        0
102
RTVSPost2010PropOp40
 70
     1
102
RTVSPost2010Prop41ColorIndex
 90
       18
102
RTVSPost2010Prop41ColorRGB
 90
        0
102
RTVSPost2010PropOp41
 70
     1
102
RTVSPost2010Prop42
 90
       50
102
RTVSPost2010PropOp42
 70
     1
102
RTVSPost2010Prop43
 90
        3
102
RTVSPost2010PropOp43
 70
     1
102
RTVSPost2010Prop44ColorIndex
 90
        5
102
RTVSPost2010Prop44ColorRGB
 90
      255
102
RTVSPost2010PropOp44
 70
     1
102
RTVSPost2010Prop45
280
     0
102
RTVSPost2010PropOp45
 70
     1
102
RTVSPost2010Prop46
 90
       50
102
RTVSPost2010PropOp46
 70
     1
102
RTVSPost2010Prop47
 90
       50
102
RTVSPost2010PropOp47
 70
     1
102
RTVSPost2010Prop48
 90
       50
102
RTVSPost2010PropOp48
 70
     1
102
RTVSPost2010Prop49
280
     0
102
RTVSPost2010PropOp49
 70
     1
102
RTVSPost2010Prop50
 90
       50
102
RTVSPost2010PropOp50
 70
     1
102
RTVSPost2010Prop51ColorIndex
 90
      256
102
RTVSPost2010Prop51ColorRGB
 90
-16777216
102
RTVSPost2010PropOp51
 70
     0
102
RTVSPost2010Prop52
140
1.0
102
RTVSPost2010PropOp52
 70
     0
102
RTVSPost2010Prop53
 90
        2
102
RTVSPost2010PropOp53
 70
     1
102
RTVSPost2010Prop54
  1
strokes_ogs.tif
102
RTVSPost2010PropOp54
 70
     1
102
RTVSPost2010Prop55
280
     0
102
RTVSPost2010PropOp55
 70
     1
102
RTVSPost2010Prop56
140
1.0
102
RTVSPost2010PropOp56
 70
     1
102
RTVSPost2010Prop57
140
1.0
102
RTVSPost2010PropOp57
 70
     1
102
RTVSPropertyOp0
 70
     1
102
RTVSPropertyOp1
 70
     1
102
RTVSPropertyOp2
 70
     1
102
RTVSPropertyOp3
 70
     1
102
RTVSPropertyOp4
 70
     1
102
RTVSPropertyOp5
 70
     1
102
RTVSPropertyOp6
 70
     1
102
RTVSPropertyOp7
 70
     1
102
RTVSPropertyOp8
 70
     1
102
RTVSPropertyOp9
 70
     1
102
RTVSPropertyOp10
 70
     1
102
RTVSPropertyOp11
 70
     1
102
RTVSPropertyOp12
 70
     1
102
RTVSPropertyOp13
 70
     1
102
RTVSPropertyOp14
 70
     1
102
RTVSPropertyOp15
 70
     1
102
RTVSPropertyOp16
 70
     1
102
RTVSPropertyOp17
 70
     1
102
RTVSPropertyOp18
 70
     1
102
RTVSPropertyOp19
 70
     1
102
RTVSPropertyOp20
 70
     1
102
RTVSPropertyOp21
 70
     1
102
RTVSPropertyOp22
 70
     1
102
RTVSPropertyOp23
 70
     1
102
RTVSPropertyOp24
 70
     1
102
RTVSPropertyOp25
 70
     1
102
RTVSPropertyOp26
 70
     1
102
RTVSPropertyOp27
 70
     1
102
RTVSPropertyOp28
 70
     1
102
RTVSPropertyOp29
 70
     1
102
RTVSPropertyOp30
 70
     1
102
RTVSPropertyOp31
 70
     1
102
RTVSPropertyOp32
 70
     1
102
RTVSPropertyOp33
 70
     1
102
RTVSPropertyOp34
 70
     1
102
RTVSPropertyOp35
 70
     1
102
RTVSPropertyOp36
 70
     1
102
RTVSPropertyOp37
 70
     1
102
RTVSPropertyOp38
 70
     1
102
RTVSPropertyOp39
 70
     1
102
RTVSPropertyOp40
 70
     1
102
RTVSPropertyOp41
 70
     1
102
RTVSPropertyOp42
 70
     1
102
RTVSPropertyOp43
 70
     1
102
RTVSPropertyOp44
 70
     1
102
RTVSPropertyOp45
 70
     1
102
RTVSPropertyOp46
 70
     1
102
RTVSPropertyOp47
 70
     1
102
RTVSPropertyOp48
 70
     1
102
RTVSPropertyOp49
 70
     1
102
RTVSPropertyOp50
 70
     1
102
RTVSPropertyOp51
 70
     0
102
RTVSPropertyOp52
 70
     0
102
RTVSPropertyOp53
 70
     1
102
RTVSPropertyOp54
 70
     1
102
RTVSPropertyOp55
 70
     1
102
RTVSPropertyOp56
 70
     1
102
RTVSPropertyOp57
 70
     1
102
RTVSPropertyOp58
 70
     1
102
RTVSPropertyOp59
 70
     1
102
RTVSPropertyOp60
 70
     1
102
RTVSPropertyOp61
 70
     1
102
RTVSPropertyOp62
 70
     1
  0
XRECORD
  5
B355
102
{ACAD_REACTORS
330
B354
102
}
330
B354
100
AcDbXrecord
280
     1
102
RTVSPost2010Prop28
280
     0
102
RTVSPost2010PropOp28
 70
     1
102
RTVSPost2010Prop29
280
     1
102
RTVSPost2010PropOp29
 70
     1
102
RTVSPost2010Prop30
280
     1
102
RTVSPost2010PropOp30
 70
     1
102
RTVSPost2010Prop31
280
     0
102
RTVSPost2010PropOp31
 70
     1
102
RTVSPost2010Prop32
280
     0
102
RTVSPost2010PropOp32
 70
     1
102
RTVSPost2010Prop33
280
     0
102
RTVSPost2010PropOp33
 70
     1
102
RTVSPost2010Prop34
280
     0
102
RTVSPost2010PropOp34
 70
     1
102
RTVSPost2010Prop35
280
     0
102
RTVSPost2010PropOp35
 70
     1
102
RTVSPost2010Prop36
280
     0
102
RTVSPost2010PropOp36
 70
     1
102
RTVSPost2010Prop37
 90
       50
102
RTVSPost2010PropOp37
 70
     1
102
RTVSPost2010Prop38
140
0.0
102
RTVSPost2010PropOp38
 70
     1
102
RTVSPost2010Prop39
140
1.0
102
RTVSPost2010PropOp39
 70
     1
102
RTVSPost2010Prop40
 90
        0
102
RTVSPost2010PropOp40
 70
     1
102
RTVSPost2010Prop41ColorIndex
 90
       18
102
RTVSPost2010Prop41ColorRGB
 90
        0
102
RTVSPost2010PropOp41
 70
     1
102
RTVSPost2010Prop42
 90
       50
102
RTVSPost2010PropOp42
 70
     1
102
RTVSPost2010Prop43
 90
        3
102
RTVSPost2010PropOp43
 70
     1
102
RTVSPost2010Prop44ColorIndex
 90
        5
102
RTVSPost2010Prop44ColorRGB
 90
      255
102
RTVSPost2010PropOp44
 70
     1
102
RTVSPost2010Prop45
280
     0
102
RTVSPost2010PropOp45
 70
     1
102
RTVSPost2010Prop46
 90
       50
102
RTVSPost2010PropOp46
 70
     1
102
RTVSPost2010Prop47
 90
       50
102
RTVSPost2010PropOp47
 70
     1
102
RTVSPost2010Prop48
 90
       50
102
RTVSPost2010PropOp48
 70
     1
102
RTVSPost2010Prop49
280
     0
102
RTVSPost2010PropOp49
 70
     1
102
RTVSPost2010Prop50
 90
       50
102
RTVSPost2010PropOp50
 70
     1
102
RTVSPost2010Prop51ColorIndex
 90
      256
102
RTVSPost2010Prop51ColorRGB
 90
-16777216
102
RTVSPost2010PropOp51
 70
     0
102
RTVSPost2010Prop52
140
1.0
102
RTVSPost2010PropOp52
 70
     0
102
RTVSPost2010Prop53
 90
        2
102
RTVSPost2010PropOp53
 70
     1
102
RTVSPost2010Prop54
  1
strokes_ogs.tif
102
RTVSPost2010PropOp54
 70
     1
102
RTVSPost2010Prop55
280
     0
102
RTVSPost2010PropOp55
 70
     1
102
RTVSPost2010Prop56
140
1.0
102
RTVSPost2010PropOp56
 70
     1
102
RTVSPost2010Prop57
140
1.0
102
RTVSPost2010PropOp57
 70
     1
102
RTVSPropertyOp0
 70
     1
102
RTVSPropertyOp1
 70
     1
102
RTVSPropertyOp2
 70
     1
102
RTVSPropertyOp3
 70
     1
102
RTVSPropertyOp4
 70
     1
102
RTVSPropertyOp5
 70
     1
102
RTVSPropertyOp6
 70
     1
102
RTVSPropertyOp7
 70
     1
102
RTVSPropertyOp8
 70
     1
102
RTVSPropertyOp9
 70
     1
102
RTVSPropertyOp10
 70
     1
102
RTVSPropertyOp11
 70
     1
102
RTVSPropertyOp12
 70
     1
102
RTVSPropertyOp13
 70
     1
102
RTVSPropertyOp14
 70
     1
102
RTVSPropertyOp15
 70
     1
102
RTVSPropertyOp16
 70
     1
102
RTVSPropertyOp17
 70
     1
102
RTVSPropertyOp18
 70
     1
102
RTVSPropertyOp19
 70
     1
102
RTVSPropertyOp20
 70
     1
102
RTVSPropertyOp21
 70
     1
102
RTVSPropertyOp22
 70
     1
102
RTVSPropertyOp23
 70
     1
102
RTVSPropertyOp24
 70
     1
102
RTVSPropertyOp25
 70
     1
102
RTVSPropertyOp26
 70
     1
102
RTVSPropertyOp27
 70
     1
102
RTVSPropertyOp28
 70
     1
102
RTVSPropertyOp29
 70
     1
102
RTVSPropertyOp30
 70
     1
102
RTVSPropertyOp31
 70
     1
102
RTVSPropertyOp32
 70
     1
102
RTVSPropertyOp33
 70
     1
102
RTVSPropertyOp34
 70
     1
102
RTVSPropertyOp35
 70
     1
102
RTVSPropertyOp36
 70
     1
102
RTVSPropertyOp37
 70
     1
102
RTVSPropertyOp38
 70
     1
102
RTVSPropertyOp39
 70
     1
102
RTVSPropertyOp40
 70
     1
102
RTVSPropertyOp41
 70
     1
102
RTVSPropertyOp42
 70
     1
102
RTVSPropertyOp43
 70
     1
102
RTVSPropertyOp44
 70
     1
102
RTVSPropertyOp45
 70
     1
102
RTVSPropertyOp46
 70
     1
102
RTVSPropertyOp47
 70
     1
102
RTVSPropertyOp48
 70
     1
102
RTVSPropertyOp49
 70
     1
102
RTVSPropertyOp50
 70
     1
102
RTVSPropertyOp51
 70
     0
102
RTVSPropertyOp52
 70
     0
102
RTVSPropertyOp53
 70
     1
102
RTVSPropertyOp54
 70
     1
102
RTVSPropertyOp55
 70
     1
102
RTVSPropertyOp56
 70
     1
102
RTVSPropertyOp57
 70
     1
102
RTVSPropertyOp58
 70
     1
102
RTVSPropertyOp59
 70
     1
102
RTVSPropertyOp60
 70
     1
102
RTVSPropertyOp61
 70
     1
102
RTVSPropertyOp62
 70
     1
  0
XRECORD
  5
B357
102
{ACAD_REACTORS
330
B356
102
}
330
B356
100
AcDbXrecord
280
     1
102
RTVSPost2010Prop28
280
     0
102
RTVSPost2010PropOp28
 70
     1
102
RTVSPost2010Prop29
280
     1
102
RTVSPost2010PropOp29
 70
     1
102
RTVSPost2010Prop30
280
     1
102
RTVSPost2010PropOp30
 70
     1
102
RTVSPost2010Prop31
280
     0
102
RTVSPost2010PropOp31
 70
     1
102
RTVSPost2010Prop32
280
     0
102
RTVSPost2010PropOp32
 70
     1
102
RTVSPost2010Prop33
280
     0
102
RTVSPost2010PropOp33
 70
     1
102
RTVSPost2010Prop34
280
     0
102
RTVSPost2010PropOp34
 70
     1
102
RTVSPost2010Prop35
280
     0
102
RTVSPost2010PropOp35
 70
     1
102
RTVSPost2010Prop36
280
     0
102
RTVSPost2010PropOp36
 70
     1
102
RTVSPost2010Prop37
 90
       50
102
RTVSPost2010PropOp37
 70
     1
102
RTVSPost2010Prop38
140
0.0
102
RTVSPost2010PropOp38
 70
     1
102
RTVSPost2010Prop39
140
1.0
102
RTVSPost2010PropOp39
 70
     1
102
RTVSPost2010Prop40
 90
        0
102
RTVSPost2010PropOp40
 70
     1
102
RTVSPost2010Prop41ColorIndex
 90
       18
102
RTVSPost2010Prop41ColorRGB
 90
        0
102
RTVSPost2010PropOp41
 70
     1
102
RTVSPost2010Prop42
 90
       50
102
RTVSPost2010PropOp42
 70
     1
102
RTVSPost2010Prop43
 90
        3
102
RTVSPost2010PropOp43
 70
     1
102
RTVSPost2010Prop44ColorIndex
 90
        5
102
RTVSPost2010Prop44ColorRGB
 90
      255
102
RTVSPost2010PropOp44
 70
     1
102
RTVSPost2010Prop45
280
     0
102
RTVSPost2010PropOp45
 70
     1
102
RTVSPost2010Prop46
 90
       50
102
RTVSPost2010PropOp46
 70
     1
102
RTVSPost2010Prop47
 90
       50
102
RTVSPost2010PropOp47
 70
     1
102
RTVSPost2010Prop48
 90
       50
102
RTVSPost2010PropOp48
 70
     1
102
RTVSPost2010Prop49
280
     0
102
RTVSPost2010PropOp49
 70
     1
102
RTVSPost2010Prop50
 90
       50
102
RTVSPost2010PropOp50
 70
     1
102
RTVSPost2010Prop51ColorIndex
 90
      256
102
RTVSPost2010Prop51ColorRGB
 90
-16777216
102
RTVSPost2010PropOp51
 70
     0
102
RTVSPost2010Prop52
140
1.0
102
RTVSPost2010PropOp52
 70
     0
102
RTVSPost2010Prop53
 90
        2
102
RTVSPost2010PropOp53
 70
     1
102
RTVSPost2010Prop54
  1
strokes_ogs.tif
102
RTVSPost2010PropOp54
 70
     1
102
RTVSPost2010Prop55
280
     0
102
RTVSPost2010PropOp55
 70
     1
102
RTVSPost2010Prop56
140
1.0
102
RTVSPost2010PropOp56
 70
     1
102
RTVSPost2010Prop57
140
1.0
102
RTVSPost2010PropOp57
 70
     1
102
RTVSPropertyOp0
 70
     1
102
RTVSPropertyOp1
 70
     1
102
RTVSPropertyOp2
 70
     1
102
RTVSPropertyOp3
 70
     1
102
RTVSPropertyOp4
 70
     1
102
RTVSPropertyOp5
 70
     1
102
RTVSPropertyOp6
 70
     1
102
RTVSPropertyOp7
 70
     1
102
RTVSPropertyOp8
 70
     1
102
RTVSPropertyOp9
 70
     1
102
RTVSPropertyOp10
 70
     1
102
RTVSPropertyOp11
 70
     1
102
RTVSPropertyOp12
 70
     1
102
RTVSPropertyOp13
 70
     1
102
RTVSPropertyOp14
 70
     1
102
RTVSPropertyOp15
 70
     1
102
RTVSPropertyOp16
 70
     1
102
RTVSPropertyOp17
 70
     1
102
RTVSPropertyOp18
 70
     1
102
RTVSPropertyOp19
 70
     1
102
RTVSPropertyOp20
 70
     1
102
RTVSPropertyOp21
 70
     1
102
RTVSPropertyOp22
 70
     1
102
RTVSPropertyOp23
 70
     1
102
RTVSPropertyOp24
 70
     1
102
RTVSPropertyOp25
 70
     1
102
RTVSPropertyOp26
 70
     1
102
RTVSPropertyOp27
 70
     1
102
RTVSPropertyOp28
 70
     1
102
RTVSPropertyOp29
 70
     1
102
RTVSPropertyOp30
 70
     1
102
RTVSPropertyOp31
 70
     1
102
RTVSPropertyOp32
 70
     1
102
RTVSPropertyOp33
 70
     1
102
RTVSPropertyOp34
 70
     1
102
RTVSPropertyOp35
 70
     1
102
RTVSPropertyOp36
 70
     1
102
RTVSPropertyOp37
 70
     1
102
RTVSPropertyOp38
 70
     1
102
RTVSPropertyOp39
 70
     1
102
RTVSPropertyOp40
 70
     1
102
RTVSPropertyOp41
 70
     1
102
RTVSPropertyOp42
 70
     1
102
RTVSPropertyOp43
 70
     1
102
RTVSPropertyOp44
 70
     1
102
RTVSPropertyOp45
 70
     1
102
RTVSPropertyOp46
 70
     1
102
RTVSPropertyOp47
 70
     1
102
RTVSPropertyOp48
 70
     1
102
RTVSPropertyOp49
 70
     1
102
RTVSPropertyOp50
 70
     1
102
RTVSPropertyOp51
 70
     0
102
RTVSPropertyOp52
 70
     0
102
RTVSPropertyOp53
 70
     1
102
RTVSPropertyOp54
 70
     1
102
RTVSPropertyOp55
 70
     1
102
RTVSPropertyOp56
 70
     1
102
RTVSPropertyOp57
 70
     1
102
RTVSPropertyOp58
 70
     1
102
RTVSPropertyOp59
 70
     1
102
RTVSPropertyOp60
 70
     1
102
RTVSPropertyOp61
 70
     1
102
RTVSPropertyOp62
 70
     1
  0
XRECORD
  5
B359
102
{ACAD_REACTORS
330
B358
102
}
330
B358
100
AcDbXrecord
280
     1
102
RTVSPost2010Prop28
280
     0
102
RTVSPost2010PropOp28
 70
     1
102
RTVSPost2010Prop29
280
     1
102
RTVSPost2010PropOp29
 70
     1
102
RTVSPost2010Prop30
280
     1
102
RTVSPost2010PropOp30
 70
     1
102
RTVSPost2010Prop31
280
     0
102
RTVSPost2010PropOp31
 70
     1
102
RTVSPost2010Prop32
280
     0
102
RTVSPost2010PropOp32
 70
     1
102
RTVSPost2010Prop33
280
     0
102
RTVSPost2010PropOp33
 70
     1
102
RTVSPost2010Prop34
280
     0
102
RTVSPost2010PropOp34
 70
     1
102
RTVSPost2010Prop35
280
     0
102
RTVSPost2010PropOp35
 70
     1
102
RTVSPost2010Prop36
280
     0
102
RTVSPost2010PropOp36
 70
     1
102
RTVSPost2010Prop37
 90
       50
102
RTVSPost2010PropOp37
 70
     1
102
RTVSPost2010Prop38
140
0.0
102
RTVSPost2010PropOp38
 70
     1
102
RTVSPost2010Prop39
140
1.0
102
RTVSPost2010PropOp39
 70
     1
102
RTVSPost2010Prop40
 90
        0
102
RTVSPost2010PropOp40
 70
     1
102
RTVSPost2010Prop41ColorIndex
 90
       18
102
RTVSPost2010Prop41ColorRGB
 90
        0
102
RTVSPost2010PropOp41
 70
     1
102
RTVSPost2010Prop42
 90
       50
102
RTVSPost2010PropOp42
 70
     1
102
RTVSPost2010Prop43
 90
        3
102
RTVSPost2010PropOp43
 70
     1
102
RTVSPost2010Prop44ColorIndex
 90
        5
102
RTVSPost2010Prop44ColorRGB
 90
      255
102
RTVSPost2010PropOp44
 70
     1
102
RTVSPost2010Prop45
280
     0
102
RTVSPost2010PropOp45
 70
     1
102
RTVSPost2010Prop46
 90
       50
102
RTVSPost2010PropOp46
 70
     1
102
RTVSPost2010Prop47
 90
       50
102
RTVSPost2010PropOp47
 70
     1
102
RTVSPost2010Prop48
 90
       50
102
RTVSPost2010PropOp48
 70
     1
102
RTVSPost2010Prop49
280
     0
102
RTVSPost2010PropOp49
 70
     1
102
RTVSPost2010Prop50
 90
       50
102
RTVSPost2010PropOp50
 70
     1
102
RTVSPost2010Prop51ColorIndex
 90
      256
102
RTVSPost2010Prop51ColorRGB
 90
-16777216
102
RTVSPost2010PropOp51
 70
     0
102
RTVSPost2010Prop52
140
1.0
102
RTVSPost2010PropOp52
 70
     0
102
RTVSPost2010Prop53
 90
        2
102
RTVSPost2010PropOp53
 70
     1
102
RTVSPost2010Prop54
  1
strokes_ogs.tif
102
RTVSPost2010PropOp54
 70
     1
102
RTVSPost2010Prop55
280
     0
102
RTVSPost2010PropOp55
 70
     1
102
RTVSPost2010Prop56
140
1.0
102
RTVSPost2010PropOp56
 70
     1
102
RTVSPost2010Prop57
140
1.0
102
RTVSPost2010PropOp57
 70
     1
102
RTVSPropertyOp0
 70
     1
102
RTVSPropertyOp1
 70
     1
102
RTVSPropertyOp2
 70
     1
102
RTVSPropertyOp3
 70
     1
102
RTVSPropertyOp4
 70
     1
102
RTVSPropertyOp5
 70
     1
102
RTVSPropertyOp6
 70
     1
102
RTVSPropertyOp7
 70
     1
102
RTVSPropertyOp8
 70
     1
102
RTVSPropertyOp9
 70
     1
102
RTVSPropertyOp10
 70
     1
102
RTVSPropertyOp11
 70
     1
102
RTVSPropertyOp12
 70
     1
102
RTVSPropertyOp13
 70
     1
102
RTVSPropertyOp14
 70
     1
102
RTVSPropertyOp15
 70
     1
102
RTVSPropertyOp16
 70
     1
102
RTVSPropertyOp17
 70
     1
102
RTVSPropertyOp18
 70
     1
102
RTVSPropertyOp19
 70
     1
102
RTVSPropertyOp20
 70
     1
102
RTVSPropertyOp21
 70
     1
102
RTVSPropertyOp22
 70
     1
102
RTVSPropertyOp23
 70
     1
102
RTVSPropertyOp24
 70
     1
102
RTVSPropertyOp25
 70
     1
102
RTVSPropertyOp26
 70
     1
102
RTVSPropertyOp27
 70
     1
102
RTVSPropertyOp28
 70
     1
102
RTVSPropertyOp29
 70
     1
102
RTVSPropertyOp30
 70
     1
102
RTVSPropertyOp31
 70
     1
102
RTVSPropertyOp32
 70
     1
102
RTVSPropertyOp33
 70
     1
102
RTVSPropertyOp34
 70
     1
102
RTVSPropertyOp35
 70
     1
102
RTVSPropertyOp36
 70
     1
102
RTVSPropertyOp37
 70
     1
102
RTVSPropertyOp38
 70
     1
102
RTVSPropertyOp39
 70
     1
102
RTVSPropertyOp40
 70
     1
102
RTVSPropertyOp41
 70
     1
102
RTVSPropertyOp42
 70
     1
102
RTVSPropertyOp43
 70
     1
102
RTVSPropertyOp44
 70
     1
102
RTVSPropertyOp45
 70
     1
102
RTVSPropertyOp46
 70
     1
102
RTVSPropertyOp47
 70
     1
102
RTVSPropertyOp48
 70
     1
102
RTVSPropertyOp49
 70
     1
102
RTVSPropertyOp50
 70
     1
102
RTVSPropertyOp51
 70
     0
102
RTVSPropertyOp52
 70
     0
102
RTVSPropertyOp53
 70
     1
102
RTVSPropertyOp54
 70
     1
102
RTVSPropertyOp55
 70
     1
102
RTVSPropertyOp56
 70
     1
102
RTVSPropertyOp57
 70
     1
102
RTVSPropertyOp58
 70
     1
102
RTVSPropertyOp59
 70
     1
102
RTVSPropertyOp60
 70
     1
102
RTVSPropertyOp61
 70
     1
102
RTVSPropertyOp62
 70
     1
  0
XRECORD
  5
B361
102
{ACAD_REACTORS
330
B360
102
}
330
B360
100
AcDbXrecord
280
     1
102
RTVSPost2010Prop28
280
     0
102
RTVSPost2010PropOp28
 70
     1
102
RTVSPost2010Prop29
280
     1
102
RTVSPost2010PropOp29
 70
     1
102
RTVSPost2010Prop30
280
     1
102
RTVSPost2010PropOp30
 70
     1
102
RTVSPost2010Prop31
280
     0
102
RTVSPost2010PropOp31
 70
     1
102
RTVSPost2010Prop32
280
     0
102
RTVSPost2010PropOp32
 70
     1
102
RTVSPost2010Prop33
280
     0
102
RTVSPost2010PropOp33
 70
     1
102
RTVSPost2010Prop34
280
     0
102
RTVSPost2010PropOp34
 70
     1
102
RTVSPost2010Prop35
280
     0
102
RTVSPost2010PropOp35
 70
     1
102
RTVSPost2010Prop36
280
     0
102
RTVSPost2010PropOp36
 70
     1
102
RTVSPost2010Prop37
 90
       50
102
RTVSPost2010PropOp37
 70
     1
102
RTVSPost2010Prop38
140
0.0
102
RTVSPost2010PropOp38
 70
     1
102
RTVSPost2010Prop39
140
1.0
102
RTVSPost2010PropOp39
 70
     1
102
RTVSPost2010Prop40
 90
        0
102
RTVSPost2010PropOp40
 70
     1
102
RTVSPost2010Prop41ColorIndex
 90
       18
102
RTVSPost2010Prop41ColorRGB
 90
        0
102
RTVSPost2010PropOp41
 70
     1
102
RTVSPost2010Prop42
 90
       50
102
RTVSPost2010PropOp42
 70
     1
102
RTVSPost2010Prop43
 90
        3
102
RTVSPost2010PropOp43
 70
     1
102
RTVSPost2010Prop44ColorIndex
 90
        5
102
RTVSPost2010Prop44ColorRGB
 90
      255
102
RTVSPost2010PropOp44
 70
     1
102
RTVSPost2010Prop45
280
     0
102
RTVSPost2010PropOp45
 70
     1
102
RTVSPost2010Prop46
 90
       50
102
RTVSPost2010PropOp46
 70
     1
102
RTVSPost2010Prop47
 90
       50
102
RTVSPost2010PropOp47
 70
     1
102
RTVSPost2010Prop48
 90
       50
102
RTVSPost2010PropOp48
 70
     1
102
RTVSPost2010Prop49
280
     0
102
RTVSPost2010PropOp49
 70
     1
102
RTVSPost2010Prop50
 90
       50
102
RTVSPost2010PropOp50
 70
     1
102
RTVSPost2010Prop51ColorIndex
 90
      256
102
RTVSPost2010Prop51ColorRGB
 90
-16777216
102
RTVSPost2010PropOp51
 70
     0
102
RTVSPost2010Prop52
140
1.0
102
RTVSPost2010PropOp52
 70
     0
102
RTVSPost2010Prop53
 90
        2
102
RTVSPost2010PropOp53
 70
     1
102
RTVSPost2010Prop54
  1
strokes_ogs.tif
102
RTVSPost2010PropOp54
 70
     1
102
RTVSPost2010Prop55
280
     0
102
RTVSPost2010PropOp55
 70
     1
102
RTVSPost2010Prop56
140
1.0
102
RTVSPost2010PropOp56
 70
     1
102
RTVSPost2010Prop57
140
1.0
102
RTVSPost2010PropOp57
 70
     1
102
RTVSPropertyOp0
 70
     1
102
RTVSPropertyOp1
 70
     1
102
RTVSPropertyOp2
 70
     1
102
RTVSPropertyOp3
 70
     1
102
RTVSPropertyOp4
 70
     1
102
RTVSPropertyOp5
 70
     1
102
RTVSPropertyOp6
 70
     1
102
RTVSPropertyOp7
 70
     1
102
RTVSPropertyOp8
 70
     1
102
RTVSPropertyOp9
 70
     1
102
RTVSPropertyOp10
 70
     1
102
RTVSPropertyOp11
 70
     1
102
RTVSPropertyOp12
 70
     1
102
RTVSPropertyOp13
 70
     1
102
RTVSPropertyOp14
 70
     1
102
RTVSPropertyOp15
 70
     1
102
RTVSPropertyOp16
 70
     1
102
RTVSPropertyOp17
 70
     1
102
RTVSPropertyOp18
 70
     1
102
RTVSPropertyOp19
 70
     1
102
RTVSPropertyOp20
 70
     1
102
RTVSPropertyOp21
 70
     1
102
RTVSPropertyOp22
 70
     1
102
RTVSPropertyOp23
 70
     1
102
RTVSPropertyOp24
 70
     1
102
RTVSPropertyOp25
 70
     1
102
RTVSPropertyOp26
 70
     1
102
RTVSPropertyOp27
 70
     1
102
RTVSPropertyOp28
 70
     1
102
RTVSPropertyOp29
 70
     1
102
RTVSPropertyOp30
 70
     1
102
RTVSPropertyOp31
 70
     1
102
RTVSPropertyOp32
 70
     1
102
RTVSPropertyOp33
 70
     1
102
RTVSPropertyOp34
 70
     1
102
RTVSPropertyOp35
 70
     1
102
RTVSPropertyOp36
 70
     1
102
RTVSPropertyOp37
 70
     1
102
RTVSPropertyOp38
 70
     1
102
RTVSPropertyOp39
 70
     1
102
RTVSPropertyOp40
 70
     1
102
RTVSPropertyOp41
 70
     1
102
RTVSPropertyOp42
 70
     1
102
RTVSPropertyOp43
 70
     1
102
RTVSPropertyOp44
 70
     1
102
RTVSPropertyOp45
 70
     1
102
RTVSPropertyOp46
 70
     1
102
RTVSPropertyOp47
 70
     1
102
RTVSPropertyOp48
 70
     1
102
RTVSPropertyOp49
 70
     1
102
RTVSPropertyOp50
 70
     1
102
RTVSPropertyOp51
 70
     0
102
RTVSPropertyOp52
 70
     0
102
RTVSPropertyOp53
 70
     1
102
RTVSPropertyOp54
 70
     1
102
RTVSPropertyOp55
 70
     1
102
RTVSPropertyOp56
 70
     1
102
RTVSPropertyOp57
 70
     1
102
RTVSPropertyOp58
 70
     1
102
RTVSPropertyOp59
 70
     1
102
RTVSPropertyOp60
 70
     1
102
RTVSPropertyOp61
 70
     1
102
RTVSPropertyOp62
 70
     1
  0
XRECORD
  5
B37D
102
{ACAD_REACTORS
330
B37C
102
}
330
B37C
100
AcDbXrecord
280
     1
102
RTVSPost2010Prop28
280
     0
102
RTVSPost2010PropOp28
 70
     1
102
RTVSPost2010Prop29
280
     1
102
RTVSPost2010PropOp29
 70
     1
102
RTVSPost2010Prop30
280
     1
102
RTVSPost2010PropOp30
 70
     1
102
RTVSPost2010Prop31
280
     0
102
RTVSPost2010PropOp31
 70
     1
102
RTVSPost2010Prop32
280
     0
102
RTVSPost2010PropOp32
 70
     1
102
RTVSPost2010Prop33
280
     0
102
RTVSPost2010PropOp33
 70
     1
102
RTVSPost2010Prop34
280
     0
102
RTVSPost2010PropOp34
 70
     1
102
RTVSPost2010Prop35
280
     0
102
RTVSPost2010PropOp35
 70
     1
102
RTVSPost2010Prop36
280
     0
102
RTVSPost2010PropOp36
 70
     1
102
RTVSPost2010Prop37
 90
       50
102
RTVSPost2010PropOp37
 70
     0
102
RTVSPost2010Prop38
140
0.0
102
RTVSPost2010PropOp38
 70
     0
102
RTVSPost2010Prop39
140
1.0
102
RTVSPost2010PropOp39
 70
     0
102
RTVSPost2010Prop40
 90
        0
102
RTVSPost2010PropOp40
 70
     0
102
RTVSPost2010Prop41ColorIndex
 90
       18
102
RTVSPost2010Prop41ColorRGB
 90
        0
102
RTVSPost2010PropOp41
 70
     0
102
RTVSPost2010Prop42
 90
       50
102
RTVSPost2010PropOp42
 70
     0
102
RTVSPost2010Prop43
 90
        3
102
RTVSPost2010PropOp43
 70
     0
102
RTVSPost2010Prop44ColorIndex
 90
        5
102
RTVSPost2010Prop44ColorRGB
 90
      255
102
RTVSPost2010PropOp44
 70
     0
102
RTVSPost2010Prop45
280
     0
102
RTVSPost2010PropOp45
 70
     1
102
RTVSPost2010Prop46
 90
       50
102
RTVSPost2010PropOp46
 70
     0
102
RTVSPost2010Prop47
 90
       50
102
RTVSPost2010PropOp47
 70
     0
102
RTVSPost2010Prop48
 90
       50
102
RTVSPost2010PropOp48
 70
     0
102
RTVSPost2010Prop49
280
     0
102
RTVSPost2010PropOp49
 70
     1
102
RTVSPost2010Prop50
 90
       50
102
RTVSPost2010PropOp50
 70
     0
102
RTVSPost2010Prop51ColorIndex
 90
      256
102
RTVSPost2010Prop51ColorRGB
 90
-16777216
102
RTVSPost2010PropOp51
 70
     0
102
RTVSPost2010Prop52
140
1.0
102
RTVSPost2010PropOp52
 70
     0
102
RTVSPost2010Prop53
 90
        2
102
RTVSPost2010PropOp53
 70
     0
102
RTVSPost2010Prop54
  1
strokes_ogs.tif
102
RTVSPost2010PropOp54
 70
     0
102
RTVSPost2010Prop55
280
     0
102
RTVSPost2010PropOp55
 70
     1
102
RTVSPost2010Prop56
140
1.0
102
RTVSPost2010PropOp56
 70
     0
102
RTVSPost2010Prop57
140
1.0
102
RTVSPost2010PropOp57
 70
     0
102
RTVSPropertyOp0
 70
     0
102
RTVSPropertyOp1
 70
     0
102
RTVSPropertyOp2
 70
     0
102
RTVSPropertyOp3
 70
     0
102
RTVSPropertyOp4
 70
     0
102
RTVSPropertyOp5
 70
     0
102
RTVSPropertyOp6
 70
     0
102
RTVSPropertyOp7
 70
     0
102
RTVSPropertyOp8
 70
     0
102
RTVSPropertyOp9
 70
     0
102
RTVSPropertyOp10
 70
     0
102
RTVSPropertyOp11
 70
     0
102
RTVSPropertyOp12
 70
     0
102
RTVSPropertyOp13
 70
     0
102
RTVSPropertyOp14
 70
     2
102
RTVSPropertyOp15
 70
     0
102
RTVSPropertyOp16
 70
     0
102
RTVSPropertyOp17
 70
     0
102
RTVSPropertyOp18
 70
     0
102
RTVSPropertyOp19
 70
     0
102
RTVSPropertyOp20
 70
     0
102
RTVSPropertyOp21
 70
     0
102
RTVSPropertyOp22
 70
     0
102
RTVSPropertyOp23
 70
     0
102
RTVSPropertyOp24
 70
     0
102
RTVSPropertyOp25
 70
     0
102
RTVSPropertyOp26
 70
     0
102
RTVSPropertyOp27
 70
     0
102
RTVSPropertyOp28
 70
     1
102
RTVSPropertyOp29
 70
     1
102
RTVSPropertyOp30
 70
     1
102
RTVSPropertyOp31
 70
     1
102
RTVSPropertyOp32
 70
     1
102
RTVSPropertyOp33
 70
     1
102
RTVSPropertyOp34
 70
     1
102
RTVSPropertyOp35
 70
     1
102
RTVSPropertyOp36
 70
     1
102
RTVSPropertyOp37
 70
     0
102
RTVSPropertyOp38
 70
     0
102
RTVSPropertyOp39
 70
     0
102
RTVSPropertyOp40
 70
     0
102
RTVSPropertyOp41
 70
     0
102
RTVSPropertyOp42
 70
     0
102
RTVSPropertyOp43
 70
     0
102
RTVSPropertyOp44
 70
     0
102
RTVSPropertyOp45
 70
     1
102
RTVSPropertyOp46
 70
     0
102
RTVSPropertyOp47
 70
     0
102
RTVSPropertyOp48
 70
     0
102
RTVSPropertyOp49
 70
     1
102
RTVSPropertyOp50
 70
     0
102
RTVSPropertyOp51
 70
     0
102
RTVSPropertyOp52
 70
     0
102
RTVSPropertyOp53
 70
     0
102
RTVSPropertyOp54
 70
     0
102
RTVSPropertyOp55
 70
     1
102
RTVSPropertyOp56
 70
     0
102
RTVSPropertyOp57
 70
     0
102
RTVSPropertyOp58
 70
     0
102
RTVSPropertyOp59
 70
     0
102
RTVSPropertyOp60
 70
     0
102
RTVSPropertyOp61
 70
     0
102
RTVSPropertyOp62
 70
     0
  0
XRECORD
  5
B36D
102
{ACAD_REACTORS
330
B36C
102
}
330
B36C
100
AcDbXrecord
280
     1
102
RTVSPost2010Prop28
280
     0
102
RTVSPost2010PropOp28
 70
     1
102
RTVSPost2010Prop29
280
     1
102
RTVSPost2010PropOp29
 70
     1
102
RTVSPost2010Prop30
280
     1
102
RTVSPost2010PropOp30
 70
     1
102
RTVSPost2010Prop31
280
     0
102
RTVSPost2010PropOp31
 70
     1
102
RTVSPost2010Prop32
280
     0
102
RTVSPost2010PropOp32
 70
     1
102
RTVSPost2010Prop33
280
     0
102
RTVSPost2010PropOp33
 70
     1
102
RTVSPost2010Prop34
280
     0
102
RTVSPost2010PropOp34
 70
     1
102
RTVSPost2010Prop35
280
     0
102
RTVSPost2010PropOp35
 70
     1
102
RTVSPost2010Prop36
280
     0
102
RTVSPost2010PropOp36
 70
     1
102
RTVSPost2010Prop37
 90
       50
102
RTVSPost2010PropOp37
 70
     1
102
RTVSPost2010Prop38
140
0.0
102
RTVSPost2010PropOp38
 70
     1
102
RTVSPost2010Prop39
140
1.0
102
RTVSPost2010PropOp39
 70
     1
102
RTVSPost2010Prop40
 90
        0
102
RTVSPost2010PropOp40
 70
     1
102
RTVSPost2010Prop41ColorIndex
 90
       18
102
RTVSPost2010Prop41ColorRGB
 90
        0
102
RTVSPost2010PropOp41
 70
     1
102
RTVSPost2010Prop42
 90
       50
102
RTVSPost2010PropOp42
 70
     1
102
RTVSPost2010Prop43
 90
        3
102
RTVSPost2010PropOp43
 70
     1
102
RTVSPost2010Prop44ColorIndex
 90
        5
102
RTVSPost2010Prop44ColorRGB
 90
      255
102
RTVSPost2010PropOp44
 70
     1
102
RTVSPost2010Prop45
280
     0
102
RTVSPost2010PropOp45
 70
     1
102
RTVSPost2010Prop46
 90
       50
102
RTVSPost2010PropOp46
 70
     1
102
RTVSPost2010Prop47
 90
       50
102
RTVSPost2010PropOp47
 70
     1
102
RTVSPost2010Prop48
 90
       50
102
RTVSPost2010PropOp48
 70
     1
102
RTVSPost2010Prop49
280
     0
102
RTVSPost2010PropOp49
 70
     1
102
RTVSPost2010Prop50
 90
       50
102
RTVSPost2010PropOp50
 70
     1
102
RTVSPost2010Prop51ColorIndex
 90
      256
102
RTVSPost2010Prop51ColorRGB
 90
-16777216
102
RTVSPost2010PropOp51
 70
     0
102
RTVSPost2010Prop52
140
1.0
102
RTVSPost2010PropOp52
 70
     0
102
RTVSPost2010Prop53
 90
        2
102
RTVSPost2010PropOp53
 70
     1
102
RTVSPost2010Prop54
  1
strokes_ogs.tif
102
RTVSPost2010PropOp54
 70
     1
102
RTVSPost2010Prop55
280
     0
102
RTVSPost2010PropOp55
 70
     1
102
RTVSPost2010Prop56
140
1.0
102
RTVSPost2010PropOp56
 70
     1
102
RTVSPost2010Prop57
140
1.0
102
RTVSPost2010PropOp57
 70
     1
102
RTVSPropertyOp0
 70
     1
102
RTVSPropertyOp1
 70
     1
102
RTVSPropertyOp2
 70
     1
102
RTVSPropertyOp3
 70
     1
102
RTVSPropertyOp4
 70
     1
102
RTVSPropertyOp5
 70
     1
102
RTVSPropertyOp6
 70
     1
102
RTVSPropertyOp7
 70
     1
102
RTVSPropertyOp8
 70
     1
102
RTVSPropertyOp9
 70
     1
102
RTVSPropertyOp10
 70
     1
102
RTVSPropertyOp11
 70
     1
102
RTVSPropertyOp12
 70
     1
102
RTVSPropertyOp13
 70
     1
102
RTVSPropertyOp14
 70
     1
102
RTVSPropertyOp15
 70
     1
102
RTVSPropertyOp16
 70
     1
102
RTVSPropertyOp17
 70
     1
102
RTVSPropertyOp18
 70
     1
102
RTVSPropertyOp19
 70
     1
102
RTVSPropertyOp20
 70
     1
102
RTVSPropertyOp21
 70
     1
102
RTVSPropertyOp22
 70
     1
102
RTVSPropertyOp23
 70
     1
102
RTVSPropertyOp24
 70
     1
102
RTVSPropertyOp25
 70
     1
102
RTVSPropertyOp26
 70
     1
102
RTVSPropertyOp27
 70
     1
102
RTVSPropertyOp28
 70
     1
102
RTVSPropertyOp29
 70
     1
102
RTVSPropertyOp30
 70
     1
102
RTVSPropertyOp31
 70
     1
102
RTVSPropertyOp32
 70
     1
102
RTVSPropertyOp33
 70
     1
102
RTVSPropertyOp34
 70
     1
102
RTVSPropertyOp35
 70
     1
102
RTVSPropertyOp36
 70
     1
102
RTVSPropertyOp37
 70
     1
102
RTVSPropertyOp38
 70
     1
102
RTVSPropertyOp39
 70
     1
102
RTVSPropertyOp40
 70
     1
102
RTVSPropertyOp41
 70
     1
102
RTVSPropertyOp42
 70
     1
102
RTVSPropertyOp43
 70
     1
102
RTVSPropertyOp44
 70
     1
102
RTVSPropertyOp45
 70
     1
102
RTVSPropertyOp46
 70
     1
102
RTVSPropertyOp47
 70
     1
102
RTVSPropertyOp48
 70
     1
102
RTVSPropertyOp49
 70
     1
102
RTVSPropertyOp50
 70
     1
102
RTVSPropertyOp51
 70
     0
102
RTVSPropertyOp52
 70
     0
102
RTVSPropertyOp53
 70
     1
102
RTVSPropertyOp54
 70
     1
102
RTVSPropertyOp55
 70
     1
102
RTVSPropertyOp56
 70
     1
102
RTVSPropertyOp57
 70
     1
102
RTVSPropertyOp58
 70
     1
102
RTVSPropertyOp59
 70
     1
102
RTVSPropertyOp60
 70
     1
102
RTVSPropertyOp61
 70
     1
102
RTVSPropertyOp62
 70
     1
  0
XRECORD
  5
B37F
102
{ACAD_REACTORS
330
B37E
102
}
330
B37E
100
AcDbXrecord
280
     1
102
RTVSPost2010Prop28
280
     0
102
RTVSPost2010PropOp28
 70
     1
102
RTVSPost2010Prop29
280
     1
102
RTVSPost2010PropOp29
 70
     1
102
RTVSPost2010Prop30
280
     1
102
RTVSPost2010PropOp30
 70
     1
102
RTVSPost2010Prop31
280
     0
102
RTVSPost2010PropOp31
 70
     1
102
RTVSPost2010Prop32
280
     0
102
RTVSPost2010PropOp32
 70
     1
102
RTVSPost2010Prop33
280
     0
102
RTVSPost2010PropOp33
 70
     1
102
RTVSPost2010Prop34
280
     0
102
RTVSPost2010PropOp34
 70
     1
102
RTVSPost2010Prop35
280
     0
102
RTVSPost2010PropOp35
 70
     1
102
RTVSPost2010Prop36
280
     0
102
RTVSPost2010PropOp36
 70
     1
102
RTVSPost2010Prop37
 90
       50
102
RTVSPost2010PropOp37
 70
     0
102
RTVSPost2010Prop38
140
0.0
102
RTVSPost2010PropOp38
 70
     0
102
RTVSPost2010Prop39
140
1.0
102
RTVSPost2010PropOp39
 70
     0
102
RTVSPost2010Prop40
 90
        0
102
RTVSPost2010PropOp40
 70
     0
102
RTVSPost2010Prop41ColorIndex
 90
       18
102
RTVSPost2010Prop41ColorRGB
 90
        0
102
RTVSPost2010PropOp41
 70
     0
102
RTVSPost2010Prop42
 90
       50
102
RTVSPost2010PropOp42
 70
     0
102
RTVSPost2010Prop43
 90
        3
102
RTVSPost2010PropOp43
 70
     0
102
RTVSPost2010Prop44ColorIndex
 90
        5
102
RTVSPost2010Prop44ColorRGB
 90
      255
102
RTVSPost2010PropOp44
 70
     0
102
RTVSPost2010Prop45
280
     0
102
RTVSPost2010PropOp45
 70
     1
102
RTVSPost2010Prop46
 90
       50
102
RTVSPost2010PropOp46
 70
     0
102
RTVSPost2010Prop47
 90
       50
102
RTVSPost2010PropOp47
 70
     0
102
RTVSPost2010Prop48
 90
       50
102
RTVSPost2010PropOp48
 70
     0
102
RTVSPost2010Prop49
280
     0
102
RTVSPost2010PropOp49
 70
     1
102
RTVSPost2010Prop50
 90
       50
102
RTVSPost2010PropOp50
 70
     0
102
RTVSPost2010Prop51ColorIndex
 90
      256
102
RTVSPost2010Prop51ColorRGB
 90
-16777216
102
RTVSPost2010PropOp51
 70
     0
102
RTVSPost2010Prop52
140
1.0
102
RTVSPost2010PropOp52
 70
     0
102
RTVSPost2010Prop53
 90
        2
102
RTVSPost2010PropOp53
 70
     0
102
RTVSPost2010Prop54
  1
strokes_ogs.tif
102
RTVSPost2010PropOp54
 70
     0
102
RTVSPost2010Prop55
280
     0
102
RTVSPost2010PropOp55
 70
     1
102
RTVSPost2010Prop56
140
1.0
102
RTVSPost2010PropOp56
 70
     0
102
RTVSPost2010Prop57
140
1.0
102
RTVSPost2010PropOp57
 70
     0
102
RTVSPropertyOp0
 70
     0
102
RTVSPropertyOp1
 70
     0
102
RTVSPropertyOp2
 70
     0
102
RTVSPropertyOp3
 70
     0
102
RTVSPropertyOp4
 70
     0
102
RTVSPropertyOp5
 70
     0
102
RTVSPropertyOp6
 70
     0
102
RTVSPropertyOp7
 70
     0
102
RTVSPropertyOp8
 70
     0
102
RTVSPropertyOp9
 70
     0
102
RTVSPropertyOp10
 70
     0
102
RTVSPropertyOp11
 70
     0
102
RTVSPropertyOp12
 70
     0
102
RTVSPropertyOp13
 70
     0
102
RTVSPropertyOp14
 70
     2
102
RTVSPropertyOp15
 70
     0
102
RTVSPropertyOp16
 70
     0
102
RTVSPropertyOp17
 70
     0
102
RTVSPropertyOp18
 70
     0
102
RTVSPropertyOp19
 70
     0
102
RTVSPropertyOp20
 70
     0
102
RTVSPropertyOp21
 70
     0
102
RTVSPropertyOp22
 70
     0
102
RTVSPropertyOp23
 70
     0
102
RTVSPropertyOp24
 70
     0
102
RTVSPropertyOp25
 70
     0
102
RTVSPropertyOp26
 70
     0
102
RTVSPropertyOp27
 70
     0
102
RTVSPropertyOp28
 70
     1
102
RTVSPropertyOp29
 70
     1
102
RTVSPropertyOp30
 70
     1
102
RTVSPropertyOp31
 70
     1
102
RTVSPropertyOp32
 70
     1
102
RTVSPropertyOp33
 70
     1
102
RTVSPropertyOp34
 70
     1
102
RTVSPropertyOp35
 70
     1
102
RTVSPropertyOp36
 70
     1
102
RTVSPropertyOp37
 70
     0
102
RTVSPropertyOp38
 70
     0
102
RTVSPropertyOp39
 70
     0
102
RTVSPropertyOp40
 70
     0
102
RTVSPropertyOp41
 70
     0
102
RTVSPropertyOp42
 70
     0
102
RTVSPropertyOp43
 70
     0
102
RTVSPropertyOp44
 70
     0
102
RTVSPropertyOp45
 70
     1
102
RTVSPropertyOp46
 70
     0
102
RTVSPropertyOp47
 70
     0
102
RTVSPropertyOp48
 70
     0
102
RTVSPropertyOp49
 70
     1
102
RTVSPropertyOp50
 70
     0
102
RTVSPropertyOp51
 70
     0
102
RTVSPropertyOp52
 70
     0
102
RTVSPropertyOp53
 70
     0
102
RTVSPropertyOp54
 70
     0
102
RTVSPropertyOp55
 70
     1
102
RTVSPropertyOp56
 70
     0
102
RTVSPropertyOp57
 70
     0
102
RTVSPropertyOp58
 70
     0
102
RTVSPropertyOp59
 70
     0
102
RTVSPropertyOp60
 70
     0
102
RTVSPropertyOp61
 70
     0
102
RTVSPropertyOp62
 70
     0
  0
XRECORD
  5
B365
102
{ACAD_REACTORS
330
B364
102
}
330
B364
100
AcDbXrecord
280
     1
102
RTVSPost2010Prop28
280
     0
102
RTVSPost2010PropOp28
 70
     1
102
RTVSPost2010Prop29
280
     1
102
RTVSPost2010PropOp29
 70
     1
102
RTVSPost2010Prop30
280
     1
102
RTVSPost2010PropOp30
 70
     1
102
RTVSPost2010Prop31
280
     0
102
RTVSPost2010PropOp31
 70
     1
102
RTVSPost2010Prop32
280
     0
102
RTVSPost2010PropOp32
 70
     1
102
RTVSPost2010Prop33
280
     0
102
RTVSPost2010PropOp33
 70
     1
102
RTVSPost2010Prop34
280
     0
102
RTVSPost2010PropOp34
 70
     1
102
RTVSPost2010Prop35
280
     0
102
RTVSPost2010PropOp35
 70
     1
102
RTVSPost2010Prop36
280
     0
102
RTVSPost2010PropOp36
 70
     1
102
RTVSPost2010Prop37
 90
       50
102
RTVSPost2010PropOp37
 70
     1
102
RTVSPost2010Prop38
140
0.0
102
RTVSPost2010PropOp38
 70
     1
102
RTVSPost2010Prop39
140
1.0
102
RTVSPost2010PropOp39
 70
     1
102
RTVSPost2010Prop40
 90
        0
102
RTVSPost2010PropOp40
 70
     1
102
RTVSPost2010Prop41ColorIndex
 90
       18
102
RTVSPost2010Prop41ColorRGB
 90
        0
102
RTVSPost2010PropOp41
 70
     1
102
RTVSPost2010Prop42
 90
       50
102
RTVSPost2010PropOp42
 70
     1
102
RTVSPost2010Prop43
 90
        3
102
RTVSPost2010PropOp43
 70
     1
102
RTVSPost2010Prop44ColorIndex
 90
        5
102
RTVSPost2010Prop44ColorRGB
 90
      255
102
RTVSPost2010PropOp44
 70
     1
102
RTVSPost2010Prop45
280
     0
102
RTVSPost2010PropOp45
 70
     1
102
RTVSPost2010Prop46
 90
       50
102
RTVSPost2010PropOp46
 70
     1
102
RTVSPost2010Prop47
 90
       50
102
RTVSPost2010PropOp47
 70
     1
102
RTVSPost2010Prop48
 90
       50
102
RTVSPost2010PropOp48
 70
     1
102
RTVSPost2010Prop49
280
     0
102
RTVSPost2010PropOp49
 70
     1
102
RTVSPost2010Prop50
 90
       50
102
RTVSPost2010PropOp50
 70
     1
102
RTVSPost2010Prop51ColorIndex
 90
      256
102
RTVSPost2010Prop51ColorRGB
 90
-16777216
102
RTVSPost2010PropOp51
 70
     0
102
RTVSPost2010Prop52
140
1.0
102
RTVSPost2010PropOp52
 70
     0
102
RTVSPost2010Prop53
 90
        2
102
RTVSPost2010PropOp53
 70
     1
102
RTVSPost2010Prop54
  1
strokes_ogs.tif
102
RTVSPost2010PropOp54
 70
     1
102
RTVSPost2010Prop55
280
     0
102
RTVSPost2010PropOp55
 70
     1
102
RTVSPost2010Prop56
140
1.0
102
RTVSPost2010PropOp56
 70
     1
102
RTVSPost2010Prop57
140
1.0
102
RTVSPost2010PropOp57
 70
     1
102
RTVSPropertyOp0
 70
     1
102
RTVSPropertyOp1
 70
     1
102
RTVSPropertyOp2
 70
     1
102
RTVSPropertyOp3
 70
     1
102
RTVSPropertyOp4
 70
     1
102
RTVSPropertyOp5
 70
     1
102
RTVSPropertyOp6
 70
     1
102
RTVSPropertyOp7
 70
     1
102
RTVSPropertyOp8
 70
     1
102
RTVSPropertyOp9
 70
     1
102
RTVSPropertyOp10
 70
     1
102
RTVSPropertyOp11
 70
     1
102
RTVSPropertyOp12
 70
     1
102
RTVSPropertyOp13
 70
     1
102
RTVSPropertyOp14
 70
     1
102
RTVSPropertyOp15
 70
     1
102
RTVSPropertyOp16
 70
     1
102
RTVSPropertyOp17
 70
     1
102
RTVSPropertyOp18
 70
     1
102
RTVSPropertyOp19
 70
     1
102
RTVSPropertyOp20
 70
     1
102
RTVSPropertyOp21
 70
     1
102
RTVSPropertyOp22
 70
     1
102
RTVSPropertyOp23
 70
     1
102
RTVSPropertyOp24
 70
     1
102
RTVSPropertyOp25
 70
     1
102
RTVSPropertyOp26
 70
     1
102
RTVSPropertyOp27
 70
     1
102
RTVSPropertyOp28
 70
     1
102
RTVSPropertyOp29
 70
     1
102
RTVSPropertyOp30
 70
     1
102
RTVSPropertyOp31
 70
     1
102
RTVSPropertyOp32
 70
     1
102
RTVSPropertyOp33
 70
     1
102
RTVSPropertyOp34
 70
     1
102
RTVSPropertyOp35
 70
     1
102
RTVSPropertyOp36
 70
     1
102
RTVSPropertyOp37
 70
     1
102
RTVSPropertyOp38
 70
     1
102
RTVSPropertyOp39
 70
     1
102
RTVSPropertyOp40
 70
     1
102
RTVSPropertyOp41
 70
     1
102
RTVSPropertyOp42
 70
     1
102
RTVSPropertyOp43
 70
     1
102
RTVSPropertyOp44
 70
     1
102
RTVSPropertyOp45
 70
     1
102
RTVSPropertyOp46
 70
     1
102
RTVSPropertyOp47
 70
     1
102
RTVSPropertyOp48
 70
     1
102
RTVSPropertyOp49
 70
     1
102
RTVSPropertyOp50
 70
     1
102
RTVSPropertyOp51
 70
     0
102
RTVSPropertyOp52
 70
     0
102
RTVSPropertyOp53
 70
     1
102
RTVSPropertyOp54
 70
     1
102
RTVSPropertyOp55
 70
     1
102
RTVSPropertyOp56
 70
     1
102
RTVSPropertyOp57
 70
     1
102
RTVSPropertyOp58
 70
     1
102
RTVSPropertyOp59
 70
     1
102
RTVSPropertyOp60
 70
     1
102
RTVSPropertyOp61
 70
     1
102
RTVSPropertyOp62
 70
     1
  0
XRECORD
  5
B37B
102
{ACAD_REACTORS
330
B37A
102
}
330
B37A
100
AcDbXrecord
280
     1
102
RTVSPost2010Prop28
280
     0
102
RTVSPost2010PropOp28
 70
     1
102
RTVSPost2010Prop29
280
     1
102
RTVSPost2010PropOp29
 70
     1
102
RTVSPost2010Prop30
280
     1
102
RTVSPost2010PropOp30
 70
     1
102
RTVSPost2010Prop31
280
     0
102
RTVSPost2010PropOp31
 70
     1
102
RTVSPost2010Prop32
280
     0
102
RTVSPost2010PropOp32
 70
     1
102
RTVSPost2010Prop33
280
     0
102
RTVSPost2010PropOp33
 70
     1
102
RTVSPost2010Prop34
280
     0
102
RTVSPost2010PropOp34
 70
     1
102
RTVSPost2010Prop35
280
     0
102
RTVSPost2010PropOp35
 70
     1
102
RTVSPost2010Prop36
280
     0
102
RTVSPost2010PropOp36
 70
     1
102
RTVSPost2010Prop37
 90
       50
102
RTVSPost2010PropOp37
 70
     1
102
RTVSPost2010Prop38
140
0.0
102
RTVSPost2010PropOp38
 70
     1
102
RTVSPost2010Prop39
140
1.0
102
RTVSPost2010PropOp39
 70
     1
102
RTVSPost2010Prop40
 90
        0
102
RTVSPost2010PropOp40
 70
     1
102
RTVSPost2010Prop41ColorIndex
 90
       18
102
RTVSPost2010Prop41ColorRGB
 90
        0
102
RTVSPost2010PropOp41
 70
     1
102
RTVSPost2010Prop42
 90
       50
102
RTVSPost2010PropOp42
 70
     1
102
RTVSPost2010Prop43
 90
        3
102
RTVSPost2010PropOp43
 70
     1
102
RTVSPost2010Prop44ColorIndex
 90
        5
102
RTVSPost2010Prop44ColorRGB
 90
      255
102
RTVSPost2010PropOp44
 70
     1
102
RTVSPost2010Prop45
280
     0
102
RTVSPost2010PropOp45
 70
     1
102
RTVSPost2010Prop46
 90
       50
102
RTVSPost2010PropOp46
 70
     1
102
RTVSPost2010Prop47
 90
       50
102
RTVSPost2010PropOp47
 70
     1
102
RTVSPost2010Prop48
 90
       50
102
RTVSPost2010PropOp48
 70
     1
102
RTVSPost2010Prop49
280
     0
102
RTVSPost2010PropOp49
 70
     1
102
RTVSPost2010Prop50
 90
       50
102
RTVSPost2010PropOp50
 70
     1
102
RTVSPost2010Prop51ColorIndex
 90
      256
102
RTVSPost2010Prop51ColorRGB
 90
-16777216
102
RTVSPost2010PropOp51
 70
     0
102
RTVSPost2010Prop52
140
1.0
102
RTVSPost2010PropOp52
 70
     0
102
RTVSPost2010Prop53
 90
        2
102
RTVSPost2010PropOp53
 70
     1
102
RTVSPost2010Prop54
  1
strokes_ogs.tif
102
RTVSPost2010PropOp54
 70
     1
102
RTVSPost2010Prop55
280
     0
102
RTVSPost2010PropOp55
 70
     1
102
RTVSPost2010Prop56
140
1.0
102
RTVSPost2010PropOp56
 70
     1
102
RTVSPost2010Prop57
140
1.0
102
RTVSPost2010PropOp57
 70
     1
102
RTVSPropertyOp0
 70
     1
102
RTVSPropertyOp1
 70
     1
102
RTVSPropertyOp2
 70
     1
102
RTVSPropertyOp3
 70
     1
102
RTVSPropertyOp4
 70
     1
102
RTVSPropertyOp5
 70
     1
102
RTVSPropertyOp6
 70
     1
102
RTVSPropertyOp7
 70
     1
102
RTVSPropertyOp8
 70
     1
102
RTVSPropertyOp9
 70
     1
102
RTVSPropertyOp10
 70
     1
102
RTVSPropertyOp11
 70
     1
102
RTVSPropertyOp12
 70
     1
102
RTVSPropertyOp13
 70
     1
102
RTVSPropertyOp14
 70
     1
102
RTVSPropertyOp15
 70
     1
102
RTVSPropertyOp16
 70
     1
102
RTVSPropertyOp17
 70
     1
102
RTVSPropertyOp18
 70
     1
102
RTVSPropertyOp19
 70
     1
102
RTVSPropertyOp20
 70
     1
102
RTVSPropertyOp21
 70
     1
102
RTVSPropertyOp22
 70
     1
102
RTVSPropertyOp23
 70
     1
102
RTVSPropertyOp24
 70
     1
102
RTVSPropertyOp25
 70
     1
102
RTVSPropertyOp26
 70
     1
102
RTVSPropertyOp27
 70
     1
102
RTVSPropertyOp28
 70
     1
102
RTVSPropertyOp29
 70
     1
102
RTVSPropertyOp30
 70
     1
102
RTVSPropertyOp31
 70
     1
102
RTVSPropertyOp32
 70
     1
102
RTVSPropertyOp33
 70
     1
102
RTVSPropertyOp34
 70
     1
102
RTVSPropertyOp35
 70
     1
102
RTVSPropertyOp36
 70
     1
102
RTVSPropertyOp37
 70
     1
102
RTVSPropertyOp38
 70
     1
102
RTVSPropertyOp39
 70
     1
102
RTVSPropertyOp40
 70
     1
102
RTVSPropertyOp41
 70
     1
102
RTVSPropertyOp42
 70
     1
102
RTVSPropertyOp43
 70
     1
102
RTVSPropertyOp44
 70
     1
102
RTVSPropertyOp45
 70
     1
102
RTVSPropertyOp46
 70
     1
102
RTVSPropertyOp47
 70
     1
102
RTVSPropertyOp48
 70
     1
102
RTVSPropertyOp49
 70
     1
102
RTVSPropertyOp50
 70
     1
102
RTVSPropertyOp51
 70
     0
102
RTVSPropertyOp52
 70
     0
102
RTVSPropertyOp53
 70
     1
102
RTVSPropertyOp54
 70
     1
102
RTVSPropertyOp55
 70
     1
102
RTVSPropertyOp56
 70
     1
102
RTVSPropertyOp57
 70
     1
102
RTVSPropertyOp58
 70
     1
102
RTVSPropertyOp59
 70
     1
102
RTVSPropertyOp60
 70
     1
102
RTVSPropertyOp61
 70
     1
102
RTVSPropertyOp62
 70
     1
  0
XRECORD
  5
B379
102
{ACAD_REACTORS
330
B378
102
}
330
B378
100
AcDbXrecord
280
     1
102
RTVSPost2010Prop28
280
     0
102
RTVSPost2010PropOp28
 70
     1
102
RTVSPost2010Prop29
280
     1
102
RTVSPost2010PropOp29
 70
     1
102
RTVSPost2010Prop30
280
     1
102
RTVSPost2010PropOp30
 70
     1
102
RTVSPost2010Prop31
280
     0
102
RTVSPost2010PropOp31
 70
     1
102
RTVSPost2010Prop32
280
     0
102
RTVSPost2010PropOp32
 70
     1
102
RTVSPost2010Prop33
280
     0
102
RTVSPost2010PropOp33
 70
     1
102
RTVSPost2010Prop34
280
     0
102
RTVSPost2010PropOp34
 70
     1
102
RTVSPost2010Prop35
280
     0
102
RTVSPost2010PropOp35
 70
     1
102
RTVSPost2010Prop36
280
     0
102
RTVSPost2010PropOp36
 70
     1
102
RTVSPost2010Prop37
 90
       50
102
RTVSPost2010PropOp37
 70
     1
102
RTVSPost2010Prop38
140
0.0
102
RTVSPost2010PropOp38
 70
     1
102
RTVSPost2010Prop39
140
1.0
102
RTVSPost2010PropOp39
 70
     1
102
RTVSPost2010Prop40
 90
        0
102
RTVSPost2010PropOp40
 70
     1
102
RTVSPost2010Prop41ColorIndex
 90
       18
102
RTVSPost2010Prop41ColorRGB
 90
        0
102
RTVSPost2010PropOp41
 70
     1
102
RTVSPost2010Prop42
 90
       50
102
RTVSPost2010PropOp42
 70
     1
102
RTVSPost2010Prop43
 90
        3
102
RTVSPost2010PropOp43
 70
     1
102
RTVSPost2010Prop44ColorIndex
 90
        5
102
RTVSPost2010Prop44ColorRGB
 90
      255
102
RTVSPost2010PropOp44
 70
     1
102
RTVSPost2010Prop45
280
     0
102
RTVSPost2010PropOp45
 70
     1
102
RTVSPost2010Prop46
 90
       50
102
RTVSPost2010PropOp46
 70
     1
102
RTVSPost2010Prop47
 90
       50
102
RTVSPost2010PropOp47
 70
     1
102
RTVSPost2010Prop48
 90
       50
102
RTVSPost2010PropOp48
 70
     1
102
RTVSPost2010Prop49
280
     0
102
RTVSPost2010PropOp49
 70
     1
102
RTVSPost2010Prop50
 90
       50
102
RTVSPost2010PropOp50
 70
     1
102
RTVSPost2010Prop51ColorIndex
 90
      256
102
RTVSPost2010Prop51ColorRGB
 90
-16777216
102
RTVSPost2010PropOp51
 70
     0
102
RTVSPost2010Prop52
140
1.0
102
RTVSPost2010PropOp52
 70
     0
102
RTVSPost2010Prop53
 90
        2
102
RTVSPost2010PropOp53
 70
     1
102
RTVSPost2010Prop54
  1
strokes_ogs.tif
102
RTVSPost2010PropOp54
 70
     1
102
RTVSPost2010Prop55
280
     0
102
RTVSPost2010PropOp55
 70
     1
102
RTVSPost2010Prop56
140
1.0
102
RTVSPost2010PropOp56
 70
     1
102
RTVSPost2010Prop57
140
1.0
102
RTVSPost2010PropOp57
 70
     1
102
RTVSPropertyOp0
 70
     1
102
RTVSPropertyOp1
 70
     1
102
RTVSPropertyOp2
 70
     1
102
RTVSPropertyOp3
 70
     1
102
RTVSPropertyOp4
 70
     1
102
RTVSPropertyOp5
 70
     1
102
RTVSPropertyOp6
 70
     1
102
RTVSPropertyOp7
 70
     1
102
RTVSPropertyOp8
 70
     1
102
RTVSPropertyOp9
 70
     1
102
RTVSPropertyOp10
 70
     1
102
RTVSPropertyOp11
 70
     1
102
RTVSPropertyOp12
 70
     1
102
RTVSPropertyOp13
 70
     1
102
RTVSPropertyOp14
 70
     1
102
RTVSPropertyOp15
 70
     1
102
RTVSPropertyOp16
 70
     1
102
RTVSPropertyOp17
 70
     1
102
RTVSPropertyOp18
 70
     1
102
RTVSPropertyOp19
 70
     1
102
RTVSPropertyOp20
 70
     1
102
RTVSPropertyOp21
 70
     1
102
RTVSPropertyOp22
 70
     1
102
RTVSPropertyOp23
 70
     1
102
RTVSPropertyOp24
 70
     1
102
RTVSPropertyOp25
 70
     1
102
RTVSPropertyOp26
 70
     1
102
RTVSPropertyOp27
 70
     1
102
RTVSPropertyOp28
 70
     1
102
RTVSPropertyOp29
 70
     1
102
RTVSPropertyOp30
 70
     1
102
RTVSPropertyOp31
 70
     1
102
RTVSPropertyOp32
 70
     1
102
RTVSPropertyOp33
 70
     1
102
RTVSPropertyOp34
 70
     1
102
RTVSPropertyOp35
 70
     1
102
RTVSPropertyOp36
 70
     1
102
RTVSPropertyOp37
 70
     1
102
RTVSPropertyOp38
 70
     1
102
RTVSPropertyOp39
 70
     1
102
RTVSPropertyOp40
 70
     1
102
RTVSPropertyOp41
 70
     1
102
RTVSPropertyOp42
 70
     1
102
RTVSPropertyOp43
 70
     1
102
RTVSPropertyOp44
 70
     1
102
RTVSPropertyOp45
 70
     1
102
RTVSPropertyOp46
 70
     1
102
RTVSPropertyOp47
 70
     1
102
RTVSPropertyOp48
 70
     1
102
RTVSPropertyOp49
 70
     1
102
RTVSPropertyOp50
 70
     1
102
RTVSPropertyOp51
 70
     0
102
RTVSPropertyOp52
 70
     0
102
RTVSPropertyOp53
 70
     1
102
RTVSPropertyOp54
 70
     1
102
RTVSPropertyOp55
 70
     1
102
RTVSPropertyOp56
 70
     1
102
RTVSPropertyOp57
 70
     1
102
RTVSPropertyOp58
 70
     1
102
RTVSPropertyOp59
 70
     1
102
RTVSPropertyOp60
 70
     1
102
RTVSPropertyOp61
 70
     1
102
RTVSPropertyOp62
 70
     1
  0
XRECORD
  5
B373
102
{ACAD_REACTORS
330
B372
102
}
330
B372
100
AcDbXrecord
280
     1
102
RTVSPost2010Prop28
280
     0
102
RTVSPost2010PropOp28
 70
     1
102
RTVSPost2010Prop29
280
     1
102
RTVSPost2010PropOp29
 70
     1
102
RTVSPost2010Prop30
280
     1
102
RTVSPost2010PropOp30
 70
     1
102
RTVSPost2010Prop31
280
     0
102
RTVSPost2010PropOp31
 70
     1
102
RTVSPost2010Prop32
280
     0
102
RTVSPost2010PropOp32
 70
     1
102
RTVSPost2010Prop33
280
     0
102
RTVSPost2010PropOp33
 70
     1
102
RTVSPost2010Prop34
280
     0
102
RTVSPost2010PropOp34
 70
     1
102
RTVSPost2010Prop35
280
     0
102
RTVSPost2010PropOp35
 70
     1
102
RTVSPost2010Prop36
280
     0
102
RTVSPost2010PropOp36
 70
     1
102
RTVSPost2010Prop37
 90
       50
102
RTVSPost2010PropOp37
 70
     1
102
RTVSPost2010Prop38
140
0.0
102
RTVSPost2010PropOp38
 70
     1
102
RTVSPost2010Prop39
140
1.0
102
RTVSPost2010PropOp39
 70
     1
102
RTVSPost2010Prop40
 90
        0
102
RTVSPost2010PropOp40
 70
     1
102
RTVSPost2010Prop41ColorIndex
 90
       18
102
RTVSPost2010Prop41ColorRGB
 90
        0
102
RTVSPost2010PropOp41
 70
     1
102
RTVSPost2010Prop42
 90
       50
102
RTVSPost2010PropOp42
 70
     1
102
RTVSPost2010Prop43
 90
        3
102
RTVSPost2010PropOp43
 70
     1
102
RTVSPost2010Prop44ColorIndex
 90
        5
102
RTVSPost2010Prop44ColorRGB
 90
      255
102
RTVSPost2010PropOp44
 70
     1
102
RTVSPost2010Prop45
280
     0
102
RTVSPost2010PropOp45
 70
     1
102
RTVSPost2010Prop46
 90
       50
102
RTVSPost2010PropOp46
 70
     1
102
RTVSPost2010Prop47
 90
       50
102
RTVSPost2010PropOp47
 70
     1
102
RTVSPost2010Prop48
 90
       50
102
RTVSPost2010PropOp48
 70
     1
102
RTVSPost2010Prop49
280
     0
102
RTVSPost2010PropOp49
 70
     1
102
RTVSPost2010Prop50
 90
       50
102
RTVSPost2010PropOp50
 70
     1
102
RTVSPost2010Prop51ColorIndex
 90
      256
102
RTVSPost2010Prop51ColorRGB
 90
-16777216
102
RTVSPost2010PropOp51
 70
     0
102
RTVSPost2010Prop52
140
1.0
102
RTVSPost2010PropOp52
 70
     0
102
RTVSPost2010Prop53
 90
        2
102
RTVSPost2010PropOp53
 70
     1
102
RTVSPost2010Prop54
  1
strokes_ogs.tif
102
RTVSPost2010PropOp54
 70
     1
102
RTVSPost2010Prop55
280
     0
102
RTVSPost2010PropOp55
 70
     1
102
RTVSPost2010Prop56
140
1.0
102
RTVSPost2010PropOp56
 70
     1
102
RTVSPost2010Prop57
140
1.0
102
RTVSPost2010PropOp57
 70
     1
102
RTVSPropertyOp0
 70
     1
102
RTVSPropertyOp1
 70
     1
102
RTVSPropertyOp2
 70
     1
102
RTVSPropertyOp3
 70
     1
102
RTVSPropertyOp4
 70
     1
102
RTVSPropertyOp5
 70
     1
102
RTVSPropertyOp6
 70
     1
102
RTVSPropertyOp7
 70
     1
102
RTVSPropertyOp8
 70
     1
102
RTVSPropertyOp9
 70
     1
102
RTVSPropertyOp10
 70
     1
102
RTVSPropertyOp11
 70
     1
102
RTVSPropertyOp12
 70
     1
102
RTVSPropertyOp13
 70
     1
102
RTVSPropertyOp14
 70
     1
102
RTVSPropertyOp15
 70
     1
102
RTVSPropertyOp16
 70
     1
102
RTVSPropertyOp17
 70
     1
102
RTVSPropertyOp18
 70
     1
102
RTVSPropertyOp19
 70
     1
102
RTVSPropertyOp20
 70
     1
102
RTVSPropertyOp21
 70
     1
102
RTVSPropertyOp22
 70
     1
102
RTVSPropertyOp23
 70
     1
102
RTVSPropertyOp24
 70
     1
102
RTVSPropertyOp25
 70
     1
102
RTVSPropertyOp26
 70
     1
102
RTVSPropertyOp27
 70
     1
102
RTVSPropertyOp28
 70
     1
102
RTVSPropertyOp29
 70
     1
102
RTVSPropertyOp30
 70
     1
102
RTVSPropertyOp31
 70
     1
102
RTVSPropertyOp32
 70
     1
102
RTVSPropertyOp33
 70
     1
102
RTVSPropertyOp34
 70
     1
102
RTVSPropertyOp35
 70
     1
102
RTVSPropertyOp36
 70
     1
102
RTVSPropertyOp37
 70
     1
102
RTVSPropertyOp38
 70
     1
102
RTVSPropertyOp39
 70
     1
102
RTVSPropertyOp40
 70
     1
102
RTVSPropertyOp41
 70
     1
102
RTVSPropertyOp42
 70
     1
102
RTVSPropertyOp43
 70
     1
102
RTVSPropertyOp44
 70
     1
102
RTVSPropertyOp45
 70
     1
102
RTVSPropertyOp46
 70
     1
102
RTVSPropertyOp47
 70
     1
102
RTVSPropertyOp48
 70
     1
102
RTVSPropertyOp49
 70
     1
102
RTVSPropertyOp50
 70
     1
102
RTVSPropertyOp51
 70
     0
102
RTVSPropertyOp52
 70
     0
102
RTVSPropertyOp53
 70
     1
102
RTVSPropertyOp54
 70
     1
102
RTVSPropertyOp55
 70
     1
102
RTVSPropertyOp56
 70
     1
102
RTVSPropertyOp57
 70
     1
102
RTVSPropertyOp58
 70
     1
102
RTVSPropertyOp59
 70
     1
102
RTVSPropertyOp60
 70
     1
102
RTVSPropertyOp61
 70
     1
102
RTVSPropertyOp62
 70
     1
  0
XRECORD
  5
B375
102
{ACAD_REACTORS
330
B374
102
}
330
B374
100
AcDbXrecord
280
     1
102
RTVSPost2010Prop28
280
     0
102
RTVSPost2010PropOp28
 70
     1
102
RTVSPost2010Prop29
280
     1
102
RTVSPost2010PropOp29
 70
     1
102
RTVSPost2010Prop30
280
     1
102
RTVSPost2010PropOp30
 70
     1
102
RTVSPost2010Prop31
280
     0
102
RTVSPost2010PropOp31
 70
     1
102
RTVSPost2010Prop32
280
     0
102
RTVSPost2010PropOp32
 70
     1
102
RTVSPost2010Prop33
280
     0
102
RTVSPost2010PropOp33
 70
     1
102
RTVSPost2010Prop34
280
     0
102
RTVSPost2010PropOp34
 70
     1
102
RTVSPost2010Prop35
280
     0
102
RTVSPost2010PropOp35
 70
     1
102
RTVSPost2010Prop36
280
     0
102
RTVSPost2010PropOp36
 70
     1
102
RTVSPost2010Prop37
 90
       50
102
RTVSPost2010PropOp37
 70
     1
102
RTVSPost2010Prop38
140
0.0
102
RTVSPost2010PropOp38
 70
     1
102
RTVSPost2010Prop39
140
1.0
102
RTVSPost2010PropOp39
 70
     1
102
RTVSPost2010Prop40
 90
        0
102
RTVSPost2010PropOp40
 70
     1
102
RTVSPost2010Prop41ColorIndex
 90
       18
102
RTVSPost2010Prop41ColorRGB
 90
        0
102
RTVSPost2010PropOp41
 70
     1
102
RTVSPost2010Prop42
 90
       50
102
RTVSPost2010PropOp42
 70
     1
102
RTVSPost2010Prop43
 90
        3
102
RTVSPost2010PropOp43
 70
     1
102
RTVSPost2010Prop44ColorIndex
 90
        5
102
RTVSPost2010Prop44ColorRGB
 90
      255
102
RTVSPost2010PropOp44
 70
     1
102
RTVSPost2010Prop45
280
     0
102
RTVSPost2010PropOp45
 70
     1
102
RTVSPost2010Prop46
 90
       50
102
RTVSPost2010PropOp46
 70
     1
102
RTVSPost2010Prop47
 90
       50
102
RTVSPost2010PropOp47
 70
     1
102
RTVSPost2010Prop48
 90
       50
102
RTVSPost2010PropOp48
 70
     1
102
RTVSPost2010Prop49
280
     0
102
RTVSPost2010PropOp49
 70
     1
102
RTVSPost2010Prop50
 90
       50
102
RTVSPost2010PropOp50
 70
     1
102
RTVSPost2010Prop51ColorIndex
 90
      256
102
RTVSPost2010Prop51ColorRGB
 90
-16777216
102
RTVSPost2010PropOp51
 70
     0
102
RTVSPost2010Prop52
140
1.0
102
RTVSPost2010PropOp52
 70
     0
102
RTVSPost2010Prop53
 90
        2
102
RTVSPost2010PropOp53
 70
     1
102
RTVSPost2010Prop54
  1
strokes_ogs.tif
102
RTVSPost2010PropOp54
 70
     1
102
RTVSPost2010Prop55
280
     0
102
RTVSPost2010PropOp55
 70
     1
102
RTVSPost2010Prop56
140
1.0
102
RTVSPost2010PropOp56
 70
     1
102
RTVSPost2010Prop57
140
1.0
102
RTVSPost2010PropOp57
 70
     1
102
RTVSPropertyOp0
 70
     1
102
RTVSPropertyOp1
 70
     1
102
RTVSPropertyOp2
 70
     1
102
RTVSPropertyOp3
 70
     1
102
RTVSPropertyOp4
 70
     1
102
RTVSPropertyOp5
 70
     1
102
RTVSPropertyOp6
 70
     1
102
RTVSPropertyOp7
 70
     1
102
RTVSPropertyOp8
 70
     1
102
RTVSPropertyOp9
 70
     1
102
RTVSPropertyOp10
 70
     1
102
RTVSPropertyOp11
 70
     1
102
RTVSPropertyOp12
 70
     1
102
RTVSPropertyOp13
 70
     1
102
RTVSPropertyOp14
 70
     1
102
RTVSPropertyOp15
 70
     1
102
RTVSPropertyOp16
 70
     1
102
RTVSPropertyOp17
 70
     1
102
RTVSPropertyOp18
 70
     1
102
RTVSPropertyOp19
 70
     1
102
RTVSPropertyOp20
 70
     1
102
RTVSPropertyOp21
 70
     1
102
RTVSPropertyOp22
 70
     1
102
RTVSPropertyOp23
 70
     1
102
RTVSPropertyOp24
 70
     1
102
RTVSPropertyOp25
 70
     1
102
RTVSPropertyOp26
 70
     1
102
RTVSPropertyOp27
 70
     1
102
RTVSPropertyOp28
 70
     1
102
RTVSPropertyOp29
 70
     1
102
RTVSPropertyOp30
 70
     1
102
RTVSPropertyOp31
 70
     1
102
RTVSPropertyOp32
 70
     1
102
RTVSPropertyOp33
 70
     1
102
RTVSPropertyOp34
 70
     1
102
RTVSPropertyOp35
 70
     1
102
RTVSPropertyOp36
 70
     1
102
RTVSPropertyOp37
 70
     1
102
RTVSPropertyOp38
 70
     1
102
RTVSPropertyOp39
 70
     1
102
RTVSPropertyOp40
 70
     1
102
RTVSPropertyOp41
 70
     1
102
RTVSPropertyOp42
 70
     1
102
RTVSPropertyOp43
 70
     1
102
RTVSPropertyOp44
 70
     1
102
RTVSPropertyOp45
 70
     1
102
RTVSPropertyOp46
 70
     1
102
RTVSPropertyOp47
 70
     1
102
RTVSPropertyOp48
 70
     1
102
RTVSPropertyOp49
 70
     1
102
RTVSPropertyOp50
 70
     1
102
RTVSPropertyOp51
 70
     0
102
RTVSPropertyOp52
 70
     0
102
RTVSPropertyOp53
 70
     1
102
RTVSPropertyOp54
 70
     1
102
RTVSPropertyOp55
 70
     1
102
RTVSPropertyOp56
 70
     1
102
RTVSPropertyOp57
 70
     1
102
RTVSPropertyOp58
 70
     1
102
RTVSPropertyOp59
 70
     1
102
RTVSPropertyOp60
 70
     1
102
RTVSPropertyOp61
 70
     1
102
RTVSPropertyOp62
 70
     1
  0
XRECORD
  5
B36B
102
{ACAD_REACTORS
330
B36A
102
}
330
B36A
100
AcDbXrecord
280
     1
102
RTVSPost2010Prop28
280
     0
102
RTVSPost2010PropOp28
 70
     1
102
RTVSPost2010Prop29
280
     1
102
RTVSPost2010PropOp29
 70
     1
102
RTVSPost2010Prop30
280
     1
102
RTVSPost2010PropOp30
 70
     1
102
RTVSPost2010Prop31
280
     0
102
RTVSPost2010PropOp31
 70
     1
102
RTVSPost2010Prop32
280
     0
102
RTVSPost2010PropOp32
 70
     1
102
RTVSPost2010Prop33
280
     0
102
RTVSPost2010PropOp33
 70
     1
102
RTVSPost2010Prop34
280
     0
102
RTVSPost2010PropOp34
 70
     1
102
RTVSPost2010Prop35
280
     0
102
RTVSPost2010PropOp35
 70
     1
102
RTVSPost2010Prop36
280
     0
102
RTVSPost2010PropOp36
 70
     1
102
RTVSPost2010Prop37
 90
       50
102
RTVSPost2010PropOp37
 70
     1
102
RTVSPost2010Prop38
140
0.0
102
RTVSPost2010PropOp38
 70
     1
102
RTVSPost2010Prop39
140
1.0
102
RTVSPost2010PropOp39
 70
     1
102
RTVSPost2010Prop40
 90
        0
102
RTVSPost2010PropOp40
 70
     1
102
RTVSPost2010Prop41ColorIndex
 90
       18
102
RTVSPost2010Prop41ColorRGB
 90
        0
102
RTVSPost2010PropOp41
 70
     1
102
RTVSPost2010Prop42
 90
       50
102
RTVSPost2010PropOp42
 70
     1
102
RTVSPost2010Prop43
 90
        3
102
RTVSPost2010PropOp43
 70
     1
102
RTVSPost2010Prop44ColorIndex
 90
        5
102
RTVSPost2010Prop44ColorRGB
 90
      255
102
RTVSPost2010PropOp44
 70
     1
102
RTVSPost2010Prop45
280
     0
102
RTVSPost2010PropOp45
 70
     1
102
RTVSPost2010Prop46
 90
       50
102
RTVSPost2010PropOp46
 70
     1
102
RTVSPost2010Prop47
 90
       50
102
RTVSPost2010PropOp47
 70
     1
102
RTVSPost2010Prop48
 90
       50
102
RTVSPost2010PropOp48
 70
     1
102
RTVSPost2010Prop49
280
     0
102
RTVSPost2010PropOp49
 70
     1
102
RTVSPost2010Prop50
 90
       50
102
RTVSPost2010PropOp50
 70
     1
102
RTVSPost2010Prop51ColorIndex
 90
      256
102
RTVSPost2010Prop51ColorRGB
 90
-16777216
102
RTVSPost2010PropOp51
 70
     0
102
RTVSPost2010Prop52
140
1.0
102
RTVSPost2010PropOp52
 70
     0
102
RTVSPost2010Prop53
 90
        2
102
RTVSPost2010PropOp53
 70
     1
102
RTVSPost2010Prop54
  1
strokes_ogs.tif
102
RTVSPost2010PropOp54
 70
     1
102
RTVSPost2010Prop55
280
     0
102
RTVSPost2010PropOp55
 70
     1
102
RTVSPost2010Prop56
140
1.0
102
RTVSPost2010PropOp56
 70
     1
102
RTVSPost2010Prop57
140
1.0
102
RTVSPost2010PropOp57
 70
     1
102
RTVSPropertyOp0
 70
     1
102
RTVSPropertyOp1
 70
     1
102
RTVSPropertyOp2
 70
     1
102
RTVSPropertyOp3
 70
     1
102
RTVSPropertyOp4
 70
     1
102
RTVSPropertyOp5
 70
     1
102
RTVSPropertyOp6
 70
     1
102
RTVSPropertyOp7
 70
     1
102
RTVSPropertyOp8
 70
     1
102
RTVSPropertyOp9
 70
     1
102
RTVSPropertyOp10
 70
     1
102
RTVSPropertyOp11
 70
     1
102
RTVSPropertyOp12
 70
     1
102
RTVSPropertyOp13
 70
     1
102
RTVSPropertyOp14
 70
     1
102
RTVSPropertyOp15
 70
     1
102
RTVSPropertyOp16
 70
     1
102
RTVSPropertyOp17
 70
     1
102
RTVSPropertyOp18
 70
     1
102
RTVSPropertyOp19
 70
     1
102
RTVSPropertyOp20
 70
     1
102
RTVSPropertyOp21
 70
     1
102
RTVSPropertyOp22
 70
     1
102
RTVSPropertyOp23
 70
     1
102
RTVSPropertyOp24
 70
     1
102
RTVSPropertyOp25
 70
     1
102
RTVSPropertyOp26
 70
     1
102
RTVSPropertyOp27
 70
     1
102
RTVSPropertyOp28
 70
     1
102
RTVSPropertyOp29
 70
     1
102
RTVSPropertyOp30
 70
     1
102
RTVSPropertyOp31
 70
     1
102
RTVSPropertyOp32
 70
     1
102
RTVSPropertyOp33
 70
     1
102
RTVSPropertyOp34
 70
     1
102
RTVSPropertyOp35
 70
     1
102
RTVSPropertyOp36
 70
     1
102
RTVSPropertyOp37
 70
     1
102
RTVSPropertyOp38
 70
     1
102
RTVSPropertyOp39
 70
     1
102
RTVSPropertyOp40
 70
     1
102
RTVSPropertyOp41
 70
     1
102
RTVSPropertyOp42
 70
     1
102
RTVSPropertyOp43
 70
     1
102
RTVSPropertyOp44
 70
     1
102
RTVSPropertyOp45
 70
     1
102
RTVSPropertyOp46
 70
     1
102
RTVSPropertyOp47
 70
     1
102
RTVSPropertyOp48
 70
     1
102
RTVSPropertyOp49
 70
     1
102
RTVSPropertyOp50
 70
     1
102
RTVSPropertyOp51
 70
     0
102
RTVSPropertyOp52
 70
     0
102
RTVSPropertyOp53
 70
     1
102
RTVSPropertyOp54
 70
     1
102
RTVSPropertyOp55
 70
     1
102
RTVSPropertyOp56
 70
     1
102
RTVSPropertyOp57
 70
     1
102
RTVSPropertyOp58
 70
     1
102
RTVSPropertyOp59
 70
     1
102
RTVSPropertyOp60
 70
     1
102
RTVSPropertyOp61
 70
     1
102
RTVSPropertyOp62
 70
     1
  0
XRECORD
  5
B35F
102
{ACAD_REACTORS
330
B35E
102
}
330
B35E
100
AcDbXrecord
280
     1
102
RTVSPost2010Prop28
280
     0
102
RTVSPost2010PropOp28
 70
     1
102
RTVSPost2010Prop29
280
     1
102
RTVSPost2010PropOp29
 70
     1
102
RTVSPost2010Prop30
280
     1
102
RTVSPost2010PropOp30
 70
     1
102
RTVSPost2010Prop31
280
     0
102
RTVSPost2010PropOp31
 70
     1
102
RTVSPost2010Prop32
280
     0
102
RTVSPost2010PropOp32
 70
     1
102
RTVSPost2010Prop33
280
     0
102
RTVSPost2010PropOp33
 70
     1
102
RTVSPost2010Prop34
280
     0
102
RTVSPost2010PropOp34
 70
     1
102
RTVSPost2010Prop35
280
     0
102
RTVSPost2010PropOp35
 70
     1
102
RTVSPost2010Prop36
280
     0
102
RTVSPost2010PropOp36
 70
     1
102
RTVSPost2010Prop37
 90
       50
102
RTVSPost2010PropOp37
 70
     1
102
RTVSPost2010Prop38
140
0.0
102
RTVSPost2010PropOp38
 70
     1
102
RTVSPost2010Prop39
140
1.0
102
RTVSPost2010PropOp39
 70
     1
102
RTVSPost2010Prop40
 90
        0
102
RTVSPost2010PropOp40
 70
     1
102
RTVSPost2010Prop41ColorIndex
 90
       18
102
RTVSPost2010Prop41ColorRGB
 90
        0
102
RTVSPost2010PropOp41
 70
     1
102
RTVSPost2010Prop42
 90
       50
102
RTVSPost2010PropOp42
 70
     1
102
RTVSPost2010Prop43
 90
        3
102
RTVSPost2010PropOp43
 70
     1
102
RTVSPost2010Prop44ColorIndex
 90
        5
102
RTVSPost2010Prop44ColorRGB
 90
      255
102
RTVSPost2010PropOp44
 70
     1
102
RTVSPost2010Prop45
280
     0
102
RTVSPost2010PropOp45
 70
     1
102
RTVSPost2010Prop46
 90
       50
102
RTVSPost2010PropOp46
 70
     1
102
RTVSPost2010Prop47
 90
       50
102
RTVSPost2010PropOp47
 70
     1
102
RTVSPost2010Prop48
 90
       50
102
RTVSPost2010PropOp48
 70
     1
102
RTVSPost2010Prop49
280
     0
102
RTVSPost2010PropOp49
 70
     1
102
RTVSPost2010Prop50
 90
       50
102
RTVSPost2010PropOp50
 70
     1
102
RTVSPost2010Prop51ColorIndex
 90
      256
102
RTVSPost2010Prop51ColorRGB
 90
-16777216
102
RTVSPost2010PropOp51
 70
     0
102
RTVSPost2010Prop52
140
1.0
102
RTVSPost2010PropOp52
 70
     0
102
RTVSPost2010Prop53
 90
        2
102
RTVSPost2010PropOp53
 70
     1
102
RTVSPost2010Prop54
  1
strokes_ogs.tif
102
RTVSPost2010PropOp54
 70
     1
102
RTVSPost2010Prop55
280
     0
102
RTVSPost2010PropOp55
 70
     1
102
RTVSPost2010Prop56
140
1.0
102
RTVSPost2010PropOp56
 70
     1
102
RTVSPost2010Prop57
140
1.0
102
RTVSPost2010PropOp57
 70
     1
102
RTVSPropertyOp0
 70
     1
102
RTVSPropertyOp1
 70
     1
102
RTVSPropertyOp2
 70
     1
102
RTVSPropertyOp3
 70
     1
102
RTVSPropertyOp4
 70
     1
102
RTVSPropertyOp5
 70
     1
102
RTVSPropertyOp6
 70
     1
102
RTVSPropertyOp7
 70
     1
102
RTVSPropertyOp8
 70
     1
102
RTVSPropertyOp9
 70
     1
102
RTVSPropertyOp10
 70
     1
102
RTVSPropertyOp11
 70
     1
102
RTVSPropertyOp12
 70
     1
102
RTVSPropertyOp13
 70
     1
102
RTVSPropertyOp14
 70
     1
102
RTVSPropertyOp15
 70
     1
102
RTVSPropertyOp16
 70
     1
102
RTVSPropertyOp17
 70
     1
102
RTVSPropertyOp18
 70
     1
102
RTVSPropertyOp19
 70
     1
102
RTVSPropertyOp20
 70
     1
102
RTVSPropertyOp21
 70
     1
102
RTVSPropertyOp22
 70
     1
102
RTVSPropertyOp23
 70
     1
102
RTVSPropertyOp24
 70
     1
102
RTVSPropertyOp25
 70
     1
102
RTVSPropertyOp26
 70
     1
102
RTVSPropertyOp27
 70
     1
102
RTVSPropertyOp28
 70
     1
102
RTVSPropertyOp29
 70
     1
102
RTVSPropertyOp30
 70
     1
102
RTVSPropertyOp31
 70
     1
102
RTVSPropertyOp32
 70
     1
102
RTVSPropertyOp33
 70
     1
102
RTVSPropertyOp34
 70
     1
102
RTVSPropertyOp35
 70
     1
102
RTVSPropertyOp36
 70
     1
102
RTVSPropertyOp37
 70
     1
102
RTVSPropertyOp38
 70
     1
102
RTVSPropertyOp39
 70
     1
102
RTVSPropertyOp40
 70
     1
102
RTVSPropertyOp41
 70
     1
102
RTVSPropertyOp42
 70
     1
102
RTVSPropertyOp43
 70
     1
102
RTVSPropertyOp44
 70
     1
102
RTVSPropertyOp45
 70
     1
102
RTVSPropertyOp46
 70
     1
102
RTVSPropertyOp47
 70
     1
102
RTVSPropertyOp48
 70
     1
102
RTVSPropertyOp49
 70
     1
102
RTVSPropertyOp50
 70
     1
102
RTVSPropertyOp51
 70
     0
102
RTVSPropertyOp52
 70
     0
102
RTVSPropertyOp53
 70
     1
102
RTVSPropertyOp54
 70
     1
102
RTVSPropertyOp55
 70
     1
102
RTVSPropertyOp56
 70
     1
102
RTVSPropertyOp57
 70
     1
102
RTVSPropertyOp58
 70
     1
102
RTVSPropertyOp59
 70
     1
102
RTVSPropertyOp60
 70
     1
102
RTVSPropertyOp61
 70
     1
102
RTVSPropertyOp62
 70
     1
  0
XRECORD
  5
B377
102
{ACAD_REACTORS
330
B376
102
}
330
B376
100
AcDbXrecord
280
     1
102
RTVSPost2010Prop28
280
     0
102
RTVSPost2010PropOp28
 70
     1
102
RTVSPost2010Prop29
280
     1
102
RTVSPost2010PropOp29
 70
     1
102
RTVSPost2010Prop30
280
     1
102
RTVSPost2010PropOp30
 70
     1
102
RTVSPost2010Prop31
280
     0
102
RTVSPost2010PropOp31
 70
     1
102
RTVSPost2010Prop32
280
     0
102
RTVSPost2010PropOp32
 70
     1
102
RTVSPost2010Prop33
280
     0
102
RTVSPost2010PropOp33
 70
     1
102
RTVSPost2010Prop34
280
     0
102
RTVSPost2010PropOp34
 70
     1
102
RTVSPost2010Prop35
280
     0
102
RTVSPost2010PropOp35
 70
     1
102
RTVSPost2010Prop36
280
     0
102
RTVSPost2010PropOp36
 70
     1
102
RTVSPost2010Prop37
 90
       50
102
RTVSPost2010PropOp37
 70
     1
102
RTVSPost2010Prop38
140
0.0
102
RTVSPost2010PropOp38
 70
     1
102
RTVSPost2010Prop39
140
1.0
102
RTVSPost2010PropOp39
 70
     1
102
RTVSPost2010Prop40
 90
        0
102
RTVSPost2010PropOp40
 70
     1
102
RTVSPost2010Prop41ColorIndex
 90
       18
102
RTVSPost2010Prop41ColorRGB
 90
        0
102
RTVSPost2010PropOp41
 70
     1
102
RTVSPost2010Prop42
 90
       50
102
RTVSPost2010PropOp42
 70
     1
102
RTVSPost2010Prop43
 90
        3
102
RTVSPost2010PropOp43
 70
     1
102
RTVSPost2010Prop44ColorIndex
 90
        5
102
RTVSPost2010Prop44ColorRGB
 90
      255
102
RTVSPost2010PropOp44
 70
     1
102
RTVSPost2010Prop45
280
     0
102
RTVSPost2010PropOp45
 70
     1
102
RTVSPost2010Prop46
 90
       50
102
RTVSPost2010PropOp46
 70
     1
102
RTVSPost2010Prop47
 90
       50
102
RTVSPost2010PropOp47
 70
     1
102
RTVSPost2010Prop48
 90
       50
102
RTVSPost2010PropOp48
 70
     1
102
RTVSPost2010Prop49
280
     0
102
RTVSPost2010PropOp49
 70
     1
102
RTVSPost2010Prop50
 90
       50
102
RTVSPost2010PropOp50
 70
     1
102
RTVSPost2010Prop51ColorIndex
 90
      256
102
RTVSPost2010Prop51ColorRGB
 90
-16777216
102
RTVSPost2010PropOp51
 70
     0
102
RTVSPost2010Prop52
140
1.0
102
RTVSPost2010PropOp52
 70
     0
102
RTVSPost2010Prop53
 90
        2
102
RTVSPost2010PropOp53
 70
     1
102
RTVSPost2010Prop54
  1
strokes_ogs.tif
102
RTVSPost2010PropOp54
 70
     1
102
RTVSPost2010Prop55
280
     0
102
RTVSPost2010PropOp55
 70
     1
102
RTVSPost2010Prop56
140
1.0
102
RTVSPost2010PropOp56
 70
     1
102
RTVSPost2010Prop57
140
1.0
102
RTVSPost2010PropOp57
 70
     1
102
RTVSPropertyOp0
 70
     1
102
RTVSPropertyOp1
 70
     1
102
RTVSPropertyOp2
 70
     1
102
RTVSPropertyOp3
 70
     1
102
RTVSPropertyOp4
 70
     1
102
RTVSPropertyOp5
 70
     1
102
RTVSPropertyOp6
 70
     1
102
RTVSPropertyOp7
 70
     1
102
RTVSPropertyOp8
 70
     1
102
RTVSPropertyOp9
 70
     1
102
RTVSPropertyOp10
 70
     1
102
RTVSPropertyOp11
 70
     1
102
RTVSPropertyOp12
 70
     1
102
RTVSPropertyOp13
 70
     1
102
RTVSPropertyOp14
 70
     1
102
RTVSPropertyOp15
 70
     1
102
RTVSPropertyOp16
 70
     1
102
RTVSPropertyOp17
 70
     1
102
RTVSPropertyOp18
 70
     1
102
RTVSPropertyOp19
 70
     1
102
RTVSPropertyOp20
 70
     1
102
RTVSPropertyOp21
 70
     1
102
RTVSPropertyOp22
 70
     1
102
RTVSPropertyOp23
 70
     1
102
RTVSPropertyOp24
 70
     1
102
RTVSPropertyOp25
 70
     1
102
RTVSPropertyOp26
 70
     1
102
RTVSPropertyOp27
 70
     1
102
RTVSPropertyOp28
 70
     1
102
RTVSPropertyOp29
 70
     1
102
RTVSPropertyOp30
 70
     1
102
RTVSPropertyOp31
 70
     1
102
RTVSPropertyOp32
 70
     1
102
RTVSPropertyOp33
 70
     1
102
RTVSPropertyOp34
 70
     1
102
RTVSPropertyOp35
 70
     1
102
RTVSPropertyOp36
 70
     1
102
RTVSPropertyOp37
 70
     1
102
RTVSPropertyOp38
 70
     1
102
RTVSPropertyOp39
 70
     1
102
RTVSPropertyOp40
 70
     1
102
RTVSPropertyOp41
 70
     1
102
RTVSPropertyOp42
 70
     1
102
RTVSPropertyOp43
 70
     1
102
RTVSPropertyOp44
 70
     1
102
RTVSPropertyOp45
 70
     1
102
RTVSPropertyOp46
 70
     1
102
RTVSPropertyOp47
 70
     1
102
RTVSPropertyOp48
 70
     1
102
RTVSPropertyOp49
 70
     1
102
RTVSPropertyOp50
 70
     1
102
RTVSPropertyOp51
 70
     0
102
RTVSPropertyOp52
 70
     0
102
RTVSPropertyOp53
 70
     1
102
RTVSPropertyOp54
 70
     1
102
RTVSPropertyOp55
 70
     1
102
RTVSPropertyOp56
 70
     1
102
RTVSPropertyOp57
 70
     1
102
RTVSPropertyOp58
 70
     1
102
RTVSPropertyOp59
 70
     1
102
RTVSPropertyOp60
 70
     1
102
RTVSPropertyOp61
 70
     1
102
RTVSPropertyOp62
 70
     1
  0
ENDSEC
  0
EOF
