  0
SECTION
  2
HEADER
  9
$ACADVER
  1
AC1015
  9
$ACADMAINTVER
 70
    20
  9
$DWGCODEPAGE
  3
ANSI_932
  9
$INSBASE
 10
0.0
 20
0.0
 30
0.0
  9
$EXTMIN
 10
10.0
 20
9.999999999999998
 30
0.0
  9
$EXTMAX
 10
365.802204
 20
319.2008949999999
 30
0.0
  9
$LIMMIN
 10
0.0
 20
0.0
  9
$LIMMAX
 10
495.0
 20
341.25
  9
$ORTHOMODE
 70
     1
  9
$REGENMODE
 70
     1
  9
$FILLMODE
 70
     1
  9
$QTEXTMODE
 70
     0
  9
$MIRRTEXT
 70
     1
  9
$LTSCALE
 40
20.0
  9
$ATTMODE
 70
     1
  9
$TEXTSIZE
 40
5.0
  9
$TRACEWID
 40
1.0
  9
$TEXTSTYLE
  7
STANDARD
  9
$CLAYER
  8
0
  9
$CELTYPE
  6
BYLAYER
  9
$CECOLOR
 62
   256
  9
$CELTSCALE
 40
1.0
  9
$DISPSILH
 70
     0
  9
$DIMSCALE
 40
1.0
  9
$DIMASZ
 40
2.5
  9
$DIMEXO
 40
1.0
  9
$DIMDLI
 40
10.0
  9
$DIMRND
 40
0.0
  9
$DIMDLE
 40
0.0
  9
$DIMEXE
 40
1.0
  9
$DIMTP
 40
0.0
  9
$DIMTM
 40
0.0
  9
$DIMTXT
 40
3.2
  9
$DIMCEN
 40
0.0
  9
$DIMTSZ
 40
0.0
  9
$DIMTOL
 70
     0
  9
$DIMLIM
 70
     0
  9
$DIMTIH
 70
     0
  9
$DIMTOH
 70
     0
  9
$DIMSE1
 70
     0
  9
$DIMSE2
 70
     0
  9
$DIMTAD
 70
     3
  9
$DIMZIN
 70
     8
  9
$DIMBLK
  1

  9
$DIMASO
 70
     1
  9
$DIMSHO
 70
     1
  9
$DIMPOST
  1

  9
$DIMAPOST
  1

  9
$DIMALT
 70
     0
  9
$DIMALTD
 70
     2
  9
$DIMALTF
 40
25.4
  9
$DIMLFAC
 40
1.0
  9
$DIMTOFL
 70
     1
  9
$DIMTVP
 40
0.0
  9
$DIMTIX
 70
     0
  9
$DIMSOXD
 70
     0
  9
$DIMSAH
 70
     1
  9
$DIMBLK1
  1

  9
$DIMBLK2
  1

  9
$DIMSTYLE
  2
STANDARD
  9
$DIMCLRD
 70
     0
  9
$DIMCLRE
 70
     0
  9
$DIMCLRT
 70
     0
  9
$DIMTFAC
 40
1.0
  9
$DIMGAP
 40
1.0
  9
$DIMJUST
 70
     0
  9
$DIMSD1
 70
     0
  9
$DIMSD2
 70
     0
  9
$DIMTOLJ
 70
     1
  9
$DIMTZIN
 70
     0
  9
$DIMALTZ
 70
     0
  9
$DIMALTTZ
 70
     0
  9
$DIMUPT
 70
     0
  9
$DIMDEC
 70
     4
  9
$DIMTDEC
 70
     4
  9
$DIMALTU
 70
     2
  9
$DIMALTTD
 70
     2
  9
$DIMTXSTY
  7
STANDARD
  9
$DIMAUNIT
 70
     0
  9
$DIMADEC
 70
     0
  9
$DIMALTRND
 40
0.0
  9
$DIMAZIN
 70
     0
  9
$DIMDSEP
 70
    46
  9
$DIMATFIT
 70
     3
  9
$DIMFRAC
 70
     0
  9
$DIMLDRBLK
  1

  9
$DIMLUNIT
 70
     2
  9
$DIMLWD
 70
    -2
  9
$DIMLWE
 70
    -2
  9
$DIMTMOVE
 70
     0
  9
$LUNITS
 70
     2
  9
$LUPREC
 70
     4
  9
$SKETCHINC
 40
1.0
  9
$FILLETRAD
 40
1.5
  9
$AUNITS
 70
     0
  9
$AUPREC
 70
     2
  9
$MENU
  1
.
  9
$ELEVATION
 40
0.0
  9
$PELEVATION
 40
0.0
  9
$THICKNESS
 40
0.0
  9
$LIMCHECK
 70
     0
  9
$CHAMFERA
 40
10.0
  9
$CHAMFERB
 40
10.0
  9
$CHAMFERC
 40
0.0
  9
$CHAMFERD
 40
0.0
  9
$SKPOLY
 70
     0
  9
$TDCREATE
 40
2451301.428123148
  9
$TDUCREATE
 40
2451301.053123148
  9
$TDUPDATE
 40
2457192.689893299
  9
$TDUUPDATE
 40
2457192.314893299
  9
$TDINDWG
 40
0.0068691551
  9
$TDUSRTIMER
 40
0.0068690162
  9
$USRTIMER
 70
     1
  9
$ANGBASE
 50
0.0
  9
$ANGDIR
 70
     0
  9
$PDMODE
 70
     0
  9
$PDSIZE
 40
0.0
  9
$PLINEWID
 40
0.0
  9
$SPLFRAME
 70
     0
  9
$SPLINETYPE
 70
     6
  9
$SPLINESEGS
 70
     8
  9
$HANDSEED
  5
AF7B
  9
$SURFTAB1
 70
     6
  9
$SURFTAB2
 70
     6
  9
$SURFTYPE
 70
     6
  9
$SURFU
 70
     6
  9
$SURFV
 70
     6
  9
$UCSBASE
  2

  9
$UCSNAME
  2

  9
$UCSORG
 10
0.0
 20
0.0
 30
0.0
  9
$UCSXDIR
 10
1.0
 20
0.0
 30
0.0
  9
$UCSYDIR
 10
0.0
 20
1.0
 30
0.0
  9
$UCSORTHOREF
  2

  9
$UCSORTHOVIEW
 70
     0
  9
$UCSORGTOP
 10
0.0
 20
0.0
 30
0.0
  9
$UCSORGBOTTOM
 10
0.0
 20
0.0
 30
0.0
  9
$UCSORGLEFT
 10
0.0
 20
0.0
 30
0.0
  9
$UCSORGRIGHT
 10
0.0
 20
0.0
 30
0.0
  9
$UCSORGFRONT
 10
0.0
 20
0.0
 30
0.0
  9
$UCSORGBACK
 10
0.0
 20
0.0
 30
0.0
  9
$PUCSBASE
  2

  9
$PUCSNAME
  2

  9
$PUCSORG
 10
0.0
 20
0.0
 30
0.0
  9
$PUCSXDIR
 10
1.0
 20
0.0
 30
0.0
  9
$PUCSYDIR
 10
0.0
 20
1.0
 30
0.0
  9
$PUCSORTHOREF
  2

  9
$PUCSORTHOVIEW
 70
     0
  9
$PUCSORGTOP
 10
0.0
 20
0.0
 30
0.0
  9
$PUCSORGBOTTOM
 10
0.0
 20
0.0
 30
0.0
  9
$PUCSORGLEFT
 10
0.0
 20
0.0
 30
0.0
  9
$PUCSORGRIGHT
 10
0.0
 20
0.0
 30
0.0
  9
$PUCSORGFRONT
 10
0.0
 20
0.0
 30
0.0
  9
$PUCSORGBACK
 10
0.0
 20
0.0
 30
0.0
  9
$USERI1
 70
     0
  9
$USERI2
 70
     0
  9
$USERI3
 70
     0
  9
$USERI4
 70
     0
  9
$USERI5
 70
     0
  9
$USERR1
 40
0.0
  9
$USERR2
 40
0.0
  9
$USERR3
 40
0.0
  9
$USERR4
 40
0.0
  9
$USERR5
 40
0.0
  9
$WORLDVIEW
 70
     1
  9
$SHADEDGE
 70
     3
  9
$SHADEDIF
 70
    70
  9
$TILEMODE
 70
     1
  9
$MAXACTVP
 70
    16
  9
$PINSBASE
 10
0.0
 20
0.0
 30
0.0
  9
$PLIMCHECK
 70
     0
  9
$PEXTMIN
 10
1.000000000000000E+20
 20
1.000000000000000E+20
 30
1.000000000000000E+20
  9
$PEXTMAX
 10
-1.000000000000000E+20
 20
-1.000000000000000E+20
 30
-1.000000000000000E+20
  9
$PLIMMIN
 10
0.0
 20
0.0
  9
$PLIMMAX
 10
420.0
 20
297.0
  9
$UNITMODE
 70
     0
  9
$VISRETAIN
 70
     0
  9
$PLINEGEN
 70
     0
  9
$PSLTSCALE
 70
     0
  9
$TREEDEPTH
 70
  3020
  9
$CMLSTYLE
  2
STANDARD
  9
$CMLJUST
 70
     0
  9
$CMLSCALE
 40
1.0
  9
$PROXYGRAPHICS
 70
     1
  9
$MEASUREMENT
 70
     0
  9
$CELWEIGHT
370
    -1
  9
$ENDCAPS
280
     0
  9
$JOINSTYLE
280
     0
  9
$LWDISPLAY
290
     0
  9
$INSUNITS
 70
     0
  9
$HYPERLINKBASE
  1

  9
$STYLESHEET
  1

  9
$XEDIT
290
     1
  9
$CEPSNTYPE
380
     0
  9
$PSTYLEMODE
290
     1
  9
$FINGERPRINTGUID
  2
{F687F195-0E24-4757-985F-D2D4C329611D}
  9
$VERSIONGUID
  2
{9DF34843-A130-4457-A5C2-C09B70539570}
  9
$EXTNAMES
290
     1
  9
$PSVPSCALE
 40
0.0
  9
$OLESTARTUP
290
     0
  0
ENDSEC
  0
SECTION
  2
CLASSES
  0
CLASS
  1
ACDBDICTIONARYWDFLT
  2
AcDbDictionaryWithDefault
  3
ObjectDBX Classes
 90
        0
280
     0
281
     0
  0
CLASS
  1
ACDBPLACEHOLDER
  2
AcDbPlaceHolder
  3
ObjectDBX Classes
 90
        0
280
     0
281
     0
  0
CLASS
  1
LAYOUT
  2
AcDbLayout
  3
ObjectDBX Classes
 90
        0
280
     0
281
     0
  0
CLASS
  1
DICTIONARYVAR
  2
AcDbDictionaryVar
  3
ObjectDBX Classes
 90
        0
280
     0
281
     0
  0
CLASS
  1
MATERIAL
  2
AcDbMaterial
  3
ObjectDBX Classes
 90
     1153
280
     0
281
     0
  0
CLASS
  1
VISUALSTYLE
  2
AcDbVisualStyle
  3
ObjectDBX Classes
 90
     4095
280
     0
281
     0
  0
CLASS
  1
TABLESTYLE
  2
AcDbTableStyle
  3
ObjectDBX Classes
 90
     4095
280
     0
281
     0
  0
CLASS
  1
SCALE
  2
AcDbScale
  3
ObjectDBX Classes
 90
     1153
280
     0
281
     0
  0
CLASS
  1
MLEADERSTYLE
  2
AcDbMLeaderStyle
  3
ACDB_MLEADERSTYLE_CLASS
 90
     4095
280
     0
281
     0
  0
CLASS
  1
ACDBSECTIONVIEWSTYLE
  2
AcDbSectionViewStyle
  3
ObjectDBX Classes
 90
     1025
280
     0
281
     0
  0
CLASS
  1
ACDBDETAILVIEWSTYLE
  2
AcDbDetailViewStyle
  3
ObjectDBX Classes
 90
     1025
280
     0
281
     0
  0
CLASS
  1
CELLSTYLEMAP
  2
AcDbCellStyleMap
  3
ObjectDBX Classes
 90
     1152
280
     0
281
     0
  0
ENDSEC
  0
SECTION
  2
TABLES
  0
TABLE
  2
VPORT
  5
AB29
330
0
100
AcDbSymbolTable
 70
     1
  0
VPORT
  5
AEC6
330
AB29
100
AcDbSymbolTableRecord
100
AcDbViewportTableRecord
  2
*ACTIVE
 70
     0
 10
0.0
 20
0.0
 11
1.0
 21
1.0
 12
306.9250369986658
 22
164.5978267915462
 13
0.0
 23
0.0
 14
10.0
 24
10.0
 15
10.0
 25
10.0
 16
0.0
 26
0.0
 36
1.0
 17
0.0
 27
0.0
 37
0.0
 40
311.6625843174223
 41
2.35006605019815
 42
50.0
 43
0.0
 44
0.0
 50
0.0
 51
0.0
 71
     0
 72
   100
 73
     1
 74
     0
 75
     0
 76
     0
 77
     0
 78
     0
281
     0
 65
     1
110
0.0
120
0.0
130
0.0
111
1.0
121
0.0
131
0.0
112
0.0
122
1.0
132
0.0
 79
     0
146
0.0
1001
ACAD_NAV_VCDISPLAY
1070
     3
  0
ENDTAB
  0
TABLE
  2
LTYPE
  5
AB26
330
0
100
AcDbSymbolTable
 70
     4
  0
LTYPE
  5
AB34
330
AB26
100
AcDbSymbolTableRecord
100
AcDbLinetypeTableRecord
  2
BYBLOCK
 70
     0
  3

 72
    65
 73
     0
 40
0.0
  0
LTYPE
  5
AB35
330
AB26
100
AcDbSymbolTableRecord
100
AcDbLinetypeTableRecord
  2
BYLAYER
 70
     0
  3

 72
    65
 73
     0
 40
0.0
  0
LTYPE
  5
AB36
330
AB26
100
AcDbSymbolTableRecord
100
AcDbLinetypeTableRecord
  2
CONTINUOUS
 70
     0
  3
Solid line
 72
    65
 73
     0
 40
0.0
  0
LTYPE
  5
AB44
330
AB26
100
AcDbSymbolTableRecord
100
AcDbLinetypeTableRecord
  2
DASHED
 70
     0
  3
__ __ __ __ __ __ __ __ __ __ __ __ __ __ __ __
 72
    65
 73
     2
 40
0.75
 49
0.5
 74
     0
 49
-0.25
 74
     0
  0
LTYPE
  5
AB45
330
AB26
100
AcDbSymbolTableRecord
100
AcDbLinetypeTableRecord
  2
CENTER
 70
     0
  3
____ _ ____ _ ____ _ ____ _ ____ _ ____ _ ____ 
 72
    65
 73
     4
 40
2.0
 49
1.25
 74
     0
 49
-0.25
 74
     0
 49
0.25
 74
     0
 49
-0.25
 74
     0
  0
LTYPE
  5
AB46
330
AB26
100
AcDbSymbolTableRecord
100
AcDbLinetypeTableRecord
  2
PHANTOM
 70
     0
  3
______  __  __  ______  __  __  ______  __  __ 
 72
    65
 73
     6
 40
2.5
 49
1.25
 74
     0
 49
-0.25
 74
     0
 49
0.25
 74
     0
 49
-0.25
 74
     0
 49
0.25
 74
     0
 49
-0.25
 74
     0
  0
ENDTAB
  0
TABLE
  2
LAYER
  5
AB23
330
0
100
AcDbSymbolTable
 70
     8
  0
LAYER
  5
AB31
102
{ACAD_XDICTIONARY
360
AF1F
102
}
330
AB23
100
AcDbSymbolTableRecord
100
AcDbLayerTableRecord
  2
0
 70
     0
 62
     7
  6
CONTINUOUS
370
    -3
390
AECD
  0
LAYER
  5
AB47
102
{ACAD_XDICTIONARY
360
AF21
102
}
330
AB23
100
AcDbSymbolTableRecord
100
AcDbLayerTableRecord
  2
4
 70
     0
 62
     1
  6
CENTER
370
    -3
390
AECD
  0
LAYER
  5
AB48
102
{ACAD_XDICTIONARY
360
AF23
102
}
330
AB23
100
AcDbSymbolTableRecord
100
AcDbLayerTableRecord
  2
5
 70
     0
 62
     6
  6
PHANTOM
370
    -3
390
AECD
  0
LAYER
  5
AB49
102
{ACAD_XDICTIONARY
360
AF25
102
}
330
AB23
100
AcDbSymbolTableRecord
100
AcDbLayerTableRecord
  2
1
 70
     0
 62
     7
  6
CONTINUOUS
370
    -3
390
AECD
  0
LAYER
  5
AB4A
102
{ACAD_XDICTIONARY
360
AF27
102
}
330
AB23
100
AcDbSymbolTableRecord
100
AcDbLayerTableRecord
  2
2
 70
     0
 62
     4
  6
CONTINUOUS
370
    -3
390
AECD
  0
LAYER
  5
AB4B
102
{ACAD_XDICTIONARY
360
AF29
102
}
330
AB23
100
AcDbSymbolTableRecord
100
AcDbLayerTableRecord
  2
3
 70
     0
 62
     2
  6
DASHED
370
    -3
390
AECD
  0
LAYER
  5
AB4C
102
{ACAD_XDICTIONARY
360
AF2B
102
}
330
AB23
100
AcDbSymbolTableRecord
100
AcDbLayerTableRecord
  2
6
 70
     0
 62
     5
  6
CONTINUOUS
370
    -3
390
AECD
  0
LAYER
  5
AB4D
102
{ACAD_XDICTIONARY
360
AF2D
102
}
330
AB23
100
AcDbSymbolTableRecord
100
AcDbLayerTableRecord
  2
7
 70
     0
 62
     3
  6
CONTINUOUS
370
    -3
390
AECD
  0
ENDTAB
  0
TABLE
  2
STYLE
  5
AB24
330
0
100
AcDbSymbolTable
 70
     1
  0
STYLE
  5
AB32
330
AB24
100
AcDbSymbolTableRecord
100
AcDbTextStyleTableRecord
  2
STANDARD
 70
     0
 40
0.0
 41
1.0
 50
0.0
 71
     0
 42
5.0
  3
txt
  4

  0
ENDTAB
  0
TABLE
  2
VIEW
  5
AB27
330
0
100
AcDbSymbolTable
 70
     0
  0
ENDTAB
  0
TABLE
  2
UCS
  5
AB28
330
0
100
AcDbSymbolTable
 70
     0
  0
ENDTAB
  0
TABLE
  2
APPID
  5
AB2A
330
0
100
AcDbSymbolTable
 70
     3
  0
APPID
  5
AB33
330
AB2A
100
AcDbSymbolTableRecord
100
AcDbRegAppTableRecord
  2
ACAD
 70
     0
  0
APPID
  5
AF39
330
AB2A
100
AcDbSymbolTableRecord
100
AcDbRegAppTableRecord
  2
ACAD_NAV_VCDISPLAY
 70
     0
  0
APPID
  5
AF72
330
AB2A
100
AcDbSymbolTableRecord
100
AcDbRegAppTableRecord
  2
ACAD_MLEADERVER
 70
     0
  0
ENDTAB
  0
TABLE
  2
DIMSTYLE
  5
AB2B
330
0
100
AcDbSymbolTable
 70
     1
100
AcDbDimStyleTable
 71
     0
  0
DIMSTYLE
105
AB4F
330
AB2B
100
AcDbSymbolTableRecord
100
AcDbDimStyleTableRecord
  2
STANDARD
 70
     0
 41
2.5
 42
1.0
 43
10.0
 44
1.0
 73
     0
 74
     0
 77
     3
 78
     8
140
3.2
141
0.0
147
1.0
172
     1
173
     1
284
     8
285
     8
286
     8
340
AB32
  0
ENDTAB
  0
TABLE
  2
BLOCK_RECORD
  5
AB22
330
0
100
AcDbSymbolTable
 70
     0
  0
BLOCK_RECORD
  5
AB3F
102
{ACAD_XDICTIONARY
360
AE39
102
}
330
AB22
100
AcDbSymbolTableRecord
100
AcDbBlockTableRecord
  2
*MODEL_SPACE
340
AF1B
  0
BLOCK_RECORD
  5
AB3B
102
{ACAD_XDICTIONARY
360
AE37
102
}
330
AB22
100
AcDbSymbolTableRecord
100
AcDbBlockTableRecord
  2
*PAPER_SPACE
340
AF1C
  0
ENDTAB
  0
ENDSEC
  0
SECTION
  2
BLOCKS
  0
BLOCK
  5
AB40
330
AB3F
100
AcDbEntity
  8
0
100
AcDbBlockBegin
  2
*MODEL_SPACE
 70
     0
 10
0.0
 20
0.0
 30
0.0
  3
*MODEL_SPACE
  1

  0
ENDBLK
  5
AB41
330
AB3F
100
AcDbEntity
  8
0
100
AcDbBlockEnd
  0
BLOCK
  5
AB3C
330
AB3B
100
AcDbEntity
 67
     1
  8
0
100
AcDbBlockBegin
  2
*PAPER_SPACE
 70
     0
 10
0.0
 20
0.0
 30
0.0
  3
*PAPER_SPACE
  1

  0
ENDBLK
  5
AB3D
330
AB3B
100
AcDbEntity
 67
     1
  8
0
100
AcDbBlockEnd
  0
ENDSEC
  0
SECTION
  2
ENTITIES
  0
TEXT
  5
AB57
330
AB3F
100
AcDbEntity
  8
7
  6
Continuous
100
AcDbText
 10
10.0
 20
18.0
 30
0.0
 40
3.0
  1
TYPE No.TCA-415EA-R50
100
AcDbText
  0
TEXT
  5
AB58
330
AB3F
100
AcDbEntity
  8
7
  6
Continuous
100
AcDbText
 10
10.0
 20
26.0
 30
0.0
 40
3.0
  1
CODE No.9777
100
AcDbText
  0
TEXT
  5
AB59
330
AB3F
100
AcDbEntity
  8
1
  6
Continuous
100
AcDbText
 10
10.0
 20
10.0
 30
0.0
 40
1.399999999999999
  1
LAYER
100
AcDbText
  0
TEXT
  5
AB5A
330
AB3F
100
AcDbEntity
  8
1
  6
Continuous
100
AcDbText
 10
17.97951099999998
 20
10.04873699999998
 30
0.0
 40
1.399999999999999
  1
1
100
AcDbText
  0
TEXT
  5
AB5B
330
AB3F
100
AcDbEntity
  8
7
  6
Continuous
100
AcDbText
 10
29.97951099999999
 20
10.04873699999998
 30
0.0
 40
1.399999999999999
  1
7
100
AcDbText
  0
TEXT
  5
AB5C
330
AB3F
100
AcDbEntity
  8
4
  6
CENTER
100
AcDbText
 10
23.97951099999999
 20
10.04873699999998
 30
0.0
 40
1.399999999999999
  1
4
100
AcDbText
  0
TEXT
  5
AB5D
330
AB3F
100
AcDbEntity
  8
3
  6
DASHED
100
AcDbText
 10
21.979511
 20
10.04873699999998
 30
0.0
 40
1.399999999999999
  1
3
100
AcDbText
  0
TEXT
  5
AB5E
330
AB3F
100
AcDbEntity
  8
2
  6
Continuous
100
AcDbText
 10
19.97951099999998
 20
10.04873699999998
 30
0.0
 40
1.399999999999999
  1
2
100
AcDbText
  0
TEXT
  5
AB5F
330
AB3F
100
AcDbEntity
  8
6
  6
Continuous
100
AcDbText
 10
27.979511
 20
10.04873699999998
 30
0.0
 40
1.399999999999999
  1
6
100
AcDbText
  0
TEXT
  5
AB60
330
AB3F
100
AcDbEntity
  8
5
  6
PHANTOM
100
AcDbText
 10
25.97951099999999
 20
10.04873699999998
 30
0.0
 40
1.399999999999999
  1
5
100
AcDbText
  0
LINE
  5
AB61
330
AB3F
100
AcDbEntity
  8
4
  6
CENTER
 48
0.5
100
AcDbLine
 10
49.033949
 20
236.700895
 30
0.0
 11
49.033949
 21
123.7008949999997
 31
0.0
  0
LINE
  5
AB62
330
AB3F
100
AcDbEntity
  8
4
  6
CENTER
 48
0.5
100
AcDbLine
 10
27.533964
 20
153.700895
 30
0.0
 11
80.33393000000002
 21
153.700895
 31
0.0
  0
LINE
  5
AB63
330
AB3F
100
AcDbEntity
  8
1
  6
Continuous
100
AcDbLine
 10
37.75704000000001
 20
180.393352
 30
0.0
 11
60.31085799999999
 21
180.393352
 31
0.0
  0
LINE
  5
AB64
330
AB3F
100
AcDbEntity
  8
1
  6
Continuous
100
AcDbLine
 10
37.20402299999999
 20
181.627127
 30
0.0
 11
37.75703200000001
 21
180.393347
 31
0.0
  0
LINE
  5
AB65
330
AB3F
100
AcDbEntity
  8
1
  6
Continuous
100
AcDbLine
 10
60.863852
 20
181.627135
 30
0.0
 11
60.310835
 21
180.3933539999999
 31
0.0
  0
LINE
  5
AB66
330
AB3F
100
AcDbEntity
  8
4
  6
CENTER
 48
0.5
100
AcDbLine
 10
158.533949
 20
236.700895
 30
0.0
 11
158.533949
 21
163.967531
 31
0.0
  0
LINE
  5
AB69
330
AB3F
100
AcDbEntity
  8
1
  6
Continuous
100
AcDbLine
 10
33.033949
 20
187.6608939999999
 30
0.0
 11
65.03394899999999
 21
187.6608939999999
 31
0.0
  0
LINE
  5
AB6A
330
AB3F
100
AcDbEntity
  8
1
  6
Continuous
100
AcDbLine
 10
36.033949
 20
142.850895
 30
0.0
 11
36.033949
 21
150.7662139999998
 31
0.0
  0
LINE
  5
AB6B
330
AB3F
100
AcDbEntity
  8
1
  6
Continuous
100
AcDbLine
 10
34.033964
 20
146.75279
 30
0.0
 11
36.03396399999999
 21
146.75279
 31
0.0
  0
LINE
  5
AB6C
330
AB3F
100
AcDbEntity
  8
1
  6
Continuous
100
AcDbLine
 10
34.033964
 20
146.75279
 30
0.0
 11
34.033964
 21
181.7042589999998
 31
0.0
  0
LINE
  5
AB6D
330
AB3F
100
AcDbEntity
  8
1
  6
Continuous
100
AcDbLine
 10
62.033949
 20
146.7527859999998
 30
0.0
 11
62.033949
 21
168.1135219999999
 31
0.0
  0
LINE
  5
AB6E
330
AB3F
100
AcDbEntity
  8
1
  6
Continuous
100
AcDbLine
 10
64.033934
 20
146.75279
 30
0.0
 11
62.03393399999999
 21
146.75279
 31
0.0
  0
LINE
  5
AB6F
330
AB3F
100
AcDbEntity
  8
1
  6
Continuous
100
AcDbLine
 10
64.033934
 20
146.75279
 30
0.0
 11
64.033934
 21
181.7042589999998
 31
0.0
  0
LINE
  5
AB70
330
AB3F
100
AcDbEntity
  8
1
  6
Continuous
100
AcDbLine
 10
131.7812419999998
 20
181.255969
 30
0.0
 11
134.2432599999999
 21
181.690089
 31
0.0
  0
LINE
  5
AB71
330
AB3F
100
AcDbEntity
  8
1
  6
Continuous
100
AcDbLine
 10
131.433941
 20
183.2255849999999
 30
0.0
 11
142.678883
 21
185.208371
 31
0.0
  0
LINE
  5
AB72
330
AB3F
100
AcDbEntity
  8
1
  6
Continuous
100
AcDbLine
 10
131.433945
 20
183.22558
 30
0.0
 11
131.7812419999998
 21
181.2559639999999
 31
0.0
  0
LINE
  5
AB73
330
AB3F
100
AcDbEntity
  8
1
  6
Continuous
100
AcDbLine
 10
139.383951
 20
184.6273789999999
 30
0.0
 11
140.136604
 21
186.057825
 31
0.0
  0
LINE
  5
AB74
330
AB3F
100
AcDbEntity
  8
1
  6
Continuous
100
AcDbLine
 10
142.7915209999999
 20
187.6608939999999
 30
0.0
 11
174.2763809999999
 21
187.6608939999999
 31
0.0
  0
LINE
  5
AB75
330
AB3F
100
AcDbEntity
  8
1
  6
Continuous
100
AcDbLine
 10
133.8959659999999
 20
183.659701
 30
0.0
 11
134.259974
 21
181.595299
 31
0.0
  0
LINE
  5
AB76
330
AB3F
100
AcDbEntity
  8
1
  6
Continuous
100
AcDbLine
 10
145.533949
 20
183.9415149999999
 30
0.0
 11
145.533949
 21
162.6947239999998
 31
0.0
  0
LINE
  5
AB77
330
AB3F
100
AcDbEntity
  8
4
  6
CENTER
 48
0.5
100
AcDbLine
 10
167.5339489999997
 20
153.700895
 30
0.0
 11
107.5339489999997
 21
153.700895
 31
0.0
  0
LINE
  5
AB79
330
AB3F
100
AcDbEntity
  8
1
  6
Continuous
100
AcDbLine
 10
134.2658919999997
 20
181.2857539999999
 30
0.0
 11
132.372296
 21
167.480859
 31
0.0
  0
LINE
  5
AB7A
330
AB3F
100
AcDbEntity
  8
1
  6
Continuous
100
AcDbLine
 10
162.7856509999998
 20
175.94998
 30
0.0
 11
149.6633689999999
 21
158.221866
 31
0.0
  0
LINE
  5
AB7B
330
AB3F
100
AcDbEntity
  8
1
  6
Continuous
100
AcDbLine
 10
168.883993
 20
179.115304
 30
0.0
 11
177.533949
 21
179.4173679999999
 31
0.0
  0
LINE
  5
AB7C
330
AB3F
100
AcDbEntity
  8
1
  6
Continuous
100
AcDbLine
 10
61.033949
 20
163.700895
 30
0.0
 11
61.033949
 21
143.700895
 31
0.0
  0
LINE
  5
AB7D
330
AB3F
100
AcDbEntity
  8
1
  6
Continuous
100
AcDbLine
 10
59.033949
 20
142.700895
 30
0.0
 11
60.03394899999999
 21
142.700895
 31
0.0
  0
LINE
  5
AB7E
330
AB3F
100
AcDbEntity
  8
1
  6
Continuous
100
AcDbLine
 10
39.033949
 20
176.0295349999999
 30
0.0
 11
39.033949
 21
131.372255
 31
0.0
  0
LINE
  5
AB7F
330
AB3F
100
AcDbEntity
  8
1
  6
Continuous
100
AcDbLine
 10
59.033949
 20
176.0295349999999
 30
0.0
 11
59.033949
 21
131.372255
 31
0.0
  0
LINE
  5
AB80
330
AB3F
100
AcDbEntity
  8
1
  6
Continuous
100
AcDbLine
 10
59.033949
 20
164.700895
 30
0.0
 11
60.03394899999999
 21
164.700895
 31
0.0
  0
LINE
  5
AB81
330
AB3F
100
AcDbEntity
  8
1
  6
Continuous
100
AcDbLine
 10
61.033949
 20
156.950895
 30
0.0
 11
62.033949
 21
156.950895
 31
0.0
  0
LINE
  5
AB82
330
AB3F
100
AcDbEntity
  8
1
  6
Continuous
100
AcDbLine
 10
61.033949
 20
150.4508949999998
 30
0.0
 11
62.033949
 21
150.4508949999998
 31
0.0
  0
ARC
  5
AB83
330
AB3F
100
AcDbEntity
  8
1
  6
Continuous
100
AcDbCircle
 10
52.95457299999998
 20
188.745394
 30
0.0
 40
1.984499999999996
100
AcDbArc
 50
189.9969899999999
 51
213.12621
  0
ARC
  5
AB84
330
AB3F
100
AcDbEntity
  8
1
  6
Continuous
100
AcDbCircle
 10
49.033949
 20
188.745394
 30
0.0
 40
1.984499999999996
100
AcDbArc
 50
326.8737799999998
 51
350.00299
  0
ARC
  5
AB85
330
AB3F
100
AcDbEntity
  8
1
  6
Continuous
100
AcDbCircle
 10
56.495268
 20
188.745394
 30
0.0
 40
1.984499999999996
100
AcDbArc
 50
206.86325
 51
213.12621
  0
ARC
  5
AB86
330
AB3F
100
AcDbEntity
  8
1
  6
Continuous
100
AcDbCircle
 10
59.312933
 20
188.745394
 30
0.0
 40
1.984499999999996
100
AcDbArc
 50
326.8737799999998
 51
350.00299
  0
ARC
  5
AB87
330
AB3F
100
AcDbEntity
  8
1
  6
Continuous
100
AcDbCircle
 10
61.134535
 20
188.745394
 30
0.0
 40
1.984499999999996
100
AcDbArc
 50
326.8737799999998
 51
350.00299
  0
ARC
  5
AB88
330
AB3F
100
AcDbEntity
  8
1
  6
Continuous
100
AcDbCircle
 10
61.783949
 20
188.745394
 30
0.0
 40
1.984499999999996
100
AcDbArc
 50
326.8737799999998
 51
350.00299
  0
ARC
  5
AB89
330
AB3F
100
AcDbEntity
  8
1
  6
Continuous
100
AcDbCircle
 10
45.113325
 20
188.745394
 30
0.0
 40
1.984499999999996
100
AcDbArc
 50
189.99704
 51
213.12621
  0
ARC
  5
AB8A
330
AB3F
100
AcDbEntity
  8
1
  6
Continuous
100
AcDbCircle
 10
49.033949
 20
188.745394
 30
0.0
 40
1.984499999999996
100
AcDbArc
 50
189.9970599999999
 51
213.12621
  0
ARC
  5
AB8B
330
AB3F
100
AcDbEntity
  8
1
  6
Continuous
100
AcDbCircle
 10
41.57262999999999
 20
188.745394
 30
0.0
 40
1.984499999999996
100
AcDbArc
 50
189.9970599999999
 51
213.12621
  0
ARC
  5
AB8C
330
AB3F
100
AcDbEntity
  8
1
  6
Continuous
100
AcDbCircle
 10
38.754965
 20
188.745394
 30
0.0
 40
1.984499999999996
100
AcDbArc
 50
189.9970599999999
 51
213.12621
  0
ARC
  5
AB8D
330
AB3F
100
AcDbEntity
  8
1
  6
Continuous
100
AcDbCircle
 10
36.933363
 20
188.745394
 30
0.0
 40
1.984499999999996
100
AcDbArc
 50
189.9970599999999
 51
213.12621
  0
ARC
  5
AB8E
330
AB3F
100
AcDbEntity
  8
1
  6
Continuous
100
AcDbCircle
 10
36.28394899999999
 20
188.745394
 30
0.0
 40
1.984499999999996
100
AcDbArc
 50
189.9970599999999
 51
213.12621
  0
ARC
  5
AB8F
330
AB3F
100
AcDbEntity
  8
1
  6
Continuous
100
AcDbCircle
 10
162.454573
 20
188.745394
 30
0.0
 40
1.984499999999996
100
AcDbArc
 50
189.9969899999999
 51
213.12621
  0
ARC
  5
AB90
330
AB3F
100
AcDbEntity
  8
1
  6
Continuous
100
AcDbCircle
 10
158.533949
 20
188.745394
 30
0.0
 40
1.984499999999996
100
AcDbArc
 50
326.8737699999998
 51
350.00299
  0
ARC
  5
AB91
330
AB3F
100
AcDbEntity
  8
1
  6
Continuous
100
AcDbCircle
 10
165.9952679999999
 20
188.745394
 30
0.0
 40
1.984499999999996
100
AcDbArc
 50
206.86325
 51
213.12621
  0
ARC
  5
AB92
330
AB3F
100
AcDbEntity
  8
1
  6
Continuous
100
AcDbCircle
 10
168.8129329999999
 20
188.745394
 30
0.0
 40
1.984499999999996
100
AcDbArc
 50
326.8737699999998
 51
350.00299
  0
ARC
  5
AB93
330
AB3F
100
AcDbEntity
  8
1
  6
Continuous
100
AcDbCircle
 10
170.634535
 20
188.745394
 30
0.0
 40
1.984499999999996
100
AcDbArc
 50
326.8737699999998
 51
350.00299
  0
ARC
  5
AB94
330
AB3F
100
AcDbEntity
  8
1
  6
Continuous
100
AcDbCircle
 10
171.283949
 20
188.745394
 30
0.0
 40
1.984499999999996
100
AcDbArc
 50
326.8737699999998
 51
350.00299
  0
ARC
  5
AB95
330
AB3F
100
AcDbEntity
  8
1
  6
Continuous
100
AcDbCircle
 10
154.613325
 20
188.745394
 30
0.0
 40
1.984499999999996
100
AcDbArc
 50
189.99704
 51
213.12621
  0
ARC
  5
AB96
330
AB3F
100
AcDbEntity
  8
1
  6
Continuous
100
AcDbCircle
 10
158.533949
 20
188.745394
 30
0.0
 40
1.984499999999996
100
AcDbArc
 50
189.9970599999999
 51
213.12621
  0
ARC
  5
AB97
330
AB3F
100
AcDbEntity
  8
1
  6
Continuous
100
AcDbCircle
 10
151.0726299999998
 20
188.745394
 30
0.0
 40
1.984499999999996
100
AcDbArc
 50
189.9970599999999
 51
213.12621
  0
ARC
  5
AB98
330
AB3F
100
AcDbEntity
  8
1
  6
Continuous
100
AcDbCircle
 10
148.2549649999999
 20
188.745394
 30
0.0
 40
1.984499999999996
100
AcDbArc
 50
189.9970599999999
 51
213.12621
  0
ARC
  5
AB99
330
AB3F
100
AcDbEntity
  8
1
  6
Continuous
100
AcDbCircle
 10
146.4333629999998
 20
188.745394
 30
0.0
 40
1.984499999999996
100
AcDbArc
 50
189.9970599999999
 51
213.12621
  0
ARC
  5
AB9A
330
AB3F
100
AcDbEntity
  8
1
  6
Continuous
100
AcDbCircle
 10
145.783949
 20
188.745394
 30
0.0
 40
1.984499999999996
100
AcDbArc
 50
189.9970599999999
 51
213.12621
  0
ARC
  5
AB9B
330
AB3F
100
AcDbEntity
  8
1
  6
Continuous
100
AcDbCircle
 10
49.033949
 20
369.9722249999999
 30
0.0
 40
188.71625
100
AcDbArc
 50
266.04995
 51
273.9500299999999
  0
ARC
  5
AB9C
330
AB3F
100
AcDbEntity
  8
1
  6
Continuous
100
AcDbCircle
 10
36.033949
 20
181.7042589999998
 30
0.0
 40
2.0
100
AcDbArc
 50
112.0263899999999
 51
179.9999899999999
  0
ARC
  5
AB9D
330
AB3F
100
AcDbEntity
  8
1
  6
Continuous
100
AcDbCircle
 10
49.033949
 20
467.502895
 30
0.0
 40
284.27734
100
AcDbArc
 50
267.2275899999998
 51
272.7723899999999
  0
ARC
  5
AB9E
330
AB3F
100
AcDbEntity
  8
1
  6
Continuous
100
AcDbCircle
 10
49.033949
 20
277.2391489999999
 30
0.0
 40
92.611763
100
AcDbArc
 50
261.46176
 51
278.53822
  0
ARC
  5
AB9F
330
AB3F
100
AcDbEntity
  8
1
  6
Continuous
100
AcDbCircle
 10
61.97495100000001
 20
170.79731
 30
0.0
 40
32.0
100
AcDbArc
 50
183.47975
 51
204.0784949999999
  0
ARC
  5
ABA0
330
AB3F
100
AcDbEntity
  8
1
  6
Continuous
100
AcDbCircle
 10
62.033949
 20
181.7042589999998
 30
0.0
 40
2.0
100
AcDbArc
 50
359.99997
 51
67.97357099999999
  0
ARC
  5
ABA1
330
AB3F
100
AcDbEntity
  8
1
  6
Continuous
100
AcDbCircle
 10
45.113325
 20
188.745394
 30
0.0
 40
1.984499999999996
100
AcDbArc
 50
326.8737799999998
 51
350.0030499999998
  0
ARC
  5
ABA2
330
AB3F
100
AcDbEntity
  8
1
  6
Continuous
100
AcDbCircle
 10
41.57262999999999
 20
188.745394
 30
0.0
 40
1.984499999999996
100
AcDbArc
 50
326.8737799999998
 51
333.1367799999998
  0
ARC
  5
ABA3
330
AB3F
100
AcDbEntity
  8
1
  6
Continuous
100
AcDbCircle
 10
52.95457299999998
 20
188.745394
 30
0.0
 40
1.984499999999996
100
AcDbArc
 50
326.8737799999998
 51
350.00299
  0
ARC
  5
ABA4
330
AB3F
100
AcDbEntity
  8
1
  6
Continuous
100
AcDbCircle
 10
56.495268
 20
188.745394
 30
0.0
 40
1.984499999999996
100
AcDbArc
 50
326.8737799999998
 51
350.00299
  0
ARC
  5
ABA5
330
AB3F
100
AcDbEntity
  8
1
  6
Continuous
100
AcDbCircle
 10
154.613325
 20
188.745394
 30
0.0
 40
1.984499999999996
100
AcDbArc
 50
326.8737699999998
 51
350.0030499999998
  0
ARC
  5
ABA6
330
AB3F
100
AcDbEntity
  8
1
  6
Continuous
100
AcDbCircle
 10
142.7915209999999
 20
184.6608939999999
 30
0.0
 40
3.0
100
AcDbArc
 50
89.99998199999996
 51
152.24815
  0
ARC
  5
ABA7
330
AB3F
100
AcDbEntity
  8
1
  6
Continuous
100
AcDbCircle
 10
174.2763809999999
 20
184.6608939999999
 30
0.0
 40
3.0
100
AcDbArc
 50
6.796801999999997
 51
89.99998199999996
  0
ARC
  5
ABA8
330
AB3F
100
AcDbEntity
  8
1
  6
Continuous
100
AcDbCircle
 10
133.2751679999997
 20
181.42165
 30
0.0
 40
1.0
100
AcDbArc
 50
352.1895799999999
 51
10.0
  0
ARC
  5
ABA9
330
AB3F
100
AcDbEntity
  8
1
  6
Continuous
100
AcDbCircle
 10
162.454573
 20
188.745394
 30
0.0
 40
1.984499999999996
100
AcDbArc
 50
326.8737699999998
 51
350.00299
  0
ARC
  5
ABAA
330
AB3F
100
AcDbEntity
  8
1
  6
Continuous
100
AcDbCircle
 10
165.9952679999999
 20
188.745394
 30
0.0
 40
1.984499999999996
100
AcDbArc
 50
326.8737699999998
 51
350.00299
  0
ARC
  5
ABAB
330
AB3F
100
AcDbEntity
  8
1
  6
Continuous
100
AcDbCircle
 10
151.0726299999998
 20
188.745394
 30
0.0
 40
1.984499999999996
100
AcDbArc
 50
326.8737699999998
 51
333.1367799999998
  0
ARC
  5
ABAC
330
AB3F
100
AcDbEntity
  8
1
  6
Continuous
100
AcDbCircle
 10
169.1631909999999
 20
171.120178
 30
0.0
 40
8.0
100
AcDbArc
 50
92.00003199999995
 51
143.32582
  0
ARC
  5
ABAD
330
AB3F
100
AcDbEntity
  8
1
  6
Continuous
100
AcDbCircle
 10
137.5339489999997
 20
153.700895
 30
0.0
 40
25.0
100
AcDbArc
 50
98.41733600000001
 51
126.659096
  0
ARC
  5
ABAE
330
AB3F
100
AcDbEntity
  8
1
  6
Continuous
100
AcDbCircle
 10
137.5339489999997
 20
153.700895
 30
0.0
 40
18.0
100
AcDbArc
 50
105.0279999999998
 51
118.9342429999999
  0
ARC
  5
ABAF
330
AB3F
100
AcDbEntity
  8
1
  6
Continuous
100
AcDbCircle
 10
137.5339489999997
 20
153.700895
 30
0.0
 40
11.0
100
AcDbArc
 50
198.129269
 51
272.514787
  0
ARC
  5
ABB0
330
AB3F
100
AcDbEntity
  8
1
  6
Continuous
100
AcDbCircle
 10
49.033949
 20
178.700895
 30
0.0
 40
50.0
100
AcDbArc
 50
260.40591
 51
279.59407
  0
ARC
  5
ABB1
330
AB3F
100
AcDbEntity
  8
1
  6
Continuous
100
AcDbCircle
 10
57.033949
 20
131.372255
 30
0.0
 40
2.0
100
AcDbArc
 50
279.59415
 51
0.0
  0
ARC
  5
ABB2
330
AB3F
100
AcDbEntity
  8
1
  6
Continuous
100
AcDbCircle
 10
41.033949
 20
131.372255
 30
0.0
 40
2.0
100
AcDbArc
 50
179.9999799999999
 51
260.4058299999999
  0
ARC
  5
ABB3
330
AB3F
100
AcDbEntity
  8
1
  6
Continuous
100
AcDbCircle
 10
60.03394899999999
 20
143.700895
 30
0.0
 40
1.0
100
AcDbArc
 50
270.00002
 51
0.0
  0
ARC
  5
ABB4
330
AB3F
100
AcDbEntity
  8
1
  6
Continuous
100
AcDbCircle
 10
60.03394899999999
 20
163.700895
 30
0.0
 40
1.0
100
AcDbArc
 50
0.0
 51
89.99998199999996
  0
ARC
  5
ABB5
330
AB3F
100
AcDbEntity
  8
1
  6
Continuous
100
AcDbCircle
 10
57.033949
 20
176.0295349999999
 30
0.0
 40
2.0
100
AcDbArc
 50
0.0
 51
80.40585400000002
  0
ARC
  5
ABB6
330
AB3F
100
AcDbEntity
  8
1
  6
Continuous
100
AcDbCircle
 10
41.033949
 20
176.0295349999999
 30
0.0
 40
2.0
100
AcDbArc
 50
99.59416400000003
 51
180.00002
  0
ARC
  5
ABB7
330
AB3F
100
AcDbEntity
  8
1
  6
Continuous
100
AcDbCircle
 10
49.033949
 20
128.700895
 30
0.0
 40
50.0
100
AcDbArc
 50
80.40592900000001
 51
99.59408899999999
  0
LINE
  5
ABB8
330
AB3F
100
AcDbEntity
  8
1
  6
Continuous
100
AcDbLine
 10
68.03394899999999
 20
184.6608939999999
 30
0.0
 11
68.03394899999999
 21
179.676532
 31
0.0
  0
LINE
  5
ABB9
330
AB3F
100
AcDbEntity
  8
1
  6
Continuous
100
AcDbLine
 10
30.03394899999999
 20
184.6608939999999
 30
0.0
 11
30.03394899999999
 21
168.8550449999999
 31
0.0
  0
ARC
  5
ABBA
330
AB3F
100
AcDbEntity
  8
1
  6
Continuous
100
AcDbCircle
 10
65.03394899999999
 20
184.6608939999999
 30
0.0
 40
3.0
100
AcDbArc
 50
0.0
 51
90.0
  0
ARC
  5
ABBB
330
AB3F
100
AcDbEntity
  8
1
  6
Continuous
100
AcDbCircle
 10
33.033949
 20
184.6608939999999
 30
0.0
 40
3.0
100
AcDbArc
 50
90.0
 51
180.0
  0
LINE
  5
ABBC
330
AB3F
100
AcDbEntity
  8
1
  6
Continuous
100
AcDbLine
 10
177.2552969999999
 20
185.01594
 30
0.0
 11
177.533949
 21
179.4173679999999
 31
0.0
  0
LINE
  5
ABBE
330
AB3F
100
AcDbEntity
  8
4
  6
CENTER
 48
0.5
100
AcDbLine
 10
182.533949
 20
65.20089499999999
 30
0.0
 11
107.5339489999998
 21
65.20089499999999
 31
0.0
  0
LINE
  5
ABBF
330
AB3F
100
AcDbEntity
  8
4
  6
CENTER
 48
0.5
100
AcDbLine
 10
137.5339489999997
 20
43.70091000000001
 30
0.0
 11
137.5339489999997
 21
91.60087950000015
 31
0.0
  0
LINE
  5
ABC0
330
AB3F
100
AcDbEntity
  8
4
  6
CENTER
 48
0.5
100
AcDbLine
 10
158.533949
 20
41.20089499999997
 30
0.0
 11
158.533949
 21
89.20089499999997
 31
0.0
  0
LINE
  5
ABC1
330
AB3F
100
AcDbEntity
  8
1
  6
Continuous
100
AcDbLine
 10
231.033949
 20
176.0295349999999
 30
0.0
 11
231.033949
 21
131.372255
 31
0.0
  0
LINE
  5
ABC2
330
AB3F
100
AcDbEntity
  8
1
  6
Continuous
100
AcDbLine
 10
251.033949
 20
176.0295349999999
 30
0.0
 11
251.033949
 21
131.372255
 31
0.0
  0
LINE
  5
ABC3
330
AB3F
100
AcDbEntity
  8
4
  6
CENTER
 48
0.5
100
AcDbLine
 10
241.0339490000001
 20
236.700895
 30
0.0
 11
241.0339490000001
 21
123.7008949999997
 31
0.0
  0
ARC
  5
ABC4
330
AB3F
100
AcDbEntity
  8
1
  6
Continuous
100
AcDbCircle
 10
241.0339490000001
 20
178.700895
 30
0.0
 40
50.0
100
AcDbArc
 50
260.4059299999998
 51
279.59409
  0
ARC
  5
ABC5
330
AB3F
100
AcDbEntity
  8
1
  6
Continuous
100
AcDbCircle
 10
249.033949
 20
131.372255
 30
0.0
 40
2.0
100
AcDbArc
 50
279.59417
 51
0.00002
  0
ARC
  5
ABC6
330
AB3F
100
AcDbEntity
  8
1
  6
Continuous
100
AcDbCircle
 10
233.033949
 20
131.372255
 30
0.0
 40
2.0
100
AcDbArc
 50
180.0
 51
260.4058499999998
  0
LINE
  5
ABC7
330
AB3F
100
AcDbEntity
  8
1
  6
Continuous
100
AcDbLine
 10
226.033964
 20
146.75279
 30
0.0
 11
228.033964
 21
146.75279
 31
0.0
  0
LINE
  5
ABC8
330
AB3F
100
AcDbEntity
  8
1
  6
Continuous
100
AcDbLine
 10
257.033949
 20
187.6608939999999
 30
0.0
 11
225.0339489999999
 21
187.6608939999999
 31
0.0
  0
LINE
  5
ABC9
330
AB3F
100
AcDbEntity
  8
4
  6
CENTER
 48
0.5
100
AcDbLine
 10
262.533934
 20
153.700895
 30
0.0
 11
209.733949
 21
153.700895
 31
0.0
  0
LINE
  5
ABCA
330
AB3F
100
AcDbEntity
  8
1
  6
Continuous
100
AcDbLine
 10
260.033949
 20
184.6608939999999
 30
0.0
 11
260.033949
 21
168.8550449999999
 31
0.0
  0
LINE
  5
ABCB
330
AB3F
100
AcDbEntity
  8
1
  6
Continuous
100
AcDbLine
 10
228.033949
 20
146.7527859999998
 30
0.0
 11
228.033949
 21
179.4173679999999
 31
0.0
  0
LINE
  5
ABCC
330
AB3F
100
AcDbEntity
  8
1
  6
Continuous
100
AcDbLine
 10
256.033934
 20
146.75279
 30
0.0
 11
256.033934
 21
154.3455789999998
 31
0.0
  0
LINE
  5
ABCD
330
AB3F
100
AcDbEntity
  8
1
  6
Continuous
100
AcDbLine
 10
254.033949
 20
142.850895
 30
0.0
 11
254.033949
 21
145.4716909999999
 31
0.0
  0
LINE
  5
ABCE
330
AB3F
100
AcDbEntity
  8
1
  6
Continuous
100
AcDbLine
 10
229.033949
 20
163.700895
 30
0.0
 11
229.033949
 21
143.700895
 31
0.0
  0
ARC
  5
ABCF
330
AB3F
100
AcDbEntity
  8
1
  6
Continuous
100
AcDbCircle
 10
230.033949
 20
143.700895
 30
0.0
 40
1.0
100
AcDbArc
 50
180.0
 51
269.99998
  0
LINE
  5
ABD0
330
AB3F
100
AcDbEntity
  8
1
  6
Continuous
100
AcDbLine
 10
229.033949
 20
150.4508949999998
 30
0.0
 11
228.033949
 21
150.4508949999998
 31
0.0
  0
LINE
  5
ABD1
330
AB3F
100
AcDbEntity
  8
1
  6
Continuous
100
AcDbLine
 10
229.033949
 20
156.950895
 30
0.0
 11
228.033949
 21
156.950895
 31
0.0
  0
LINE
  5
ABD2
330
AB3F
100
AcDbEntity
  8
1
  6
Continuous
100
AcDbLine
 10
231.033949
 20
142.700895
 30
0.0
 11
230.033949
 21
142.700895
 31
0.0
  0
ARC
  5
ABD3
330
AB3F
100
AcDbEntity
  8
1
  6
Continuous
100
AcDbCircle
 10
241.0339490000001
 20
128.700895
 30
0.0
 40
50.0
100
AcDbArc
 50
80.405911
 51
99.59407099999999
  0
ARC
  5
ABD4
330
AB3F
100
AcDbEntity
  8
1
  6
Continuous
100
AcDbCircle
 10
249.033949
 20
176.0295349999999
 30
0.0
 40
2.0
100
AcDbArc
 50
359.9999799999998
 51
80.40583599999996
  0
ARC
  5
ABD5
330
AB3F
100
AcDbEntity
  8
1
  6
Continuous
100
AcDbCircle
 10
233.033949
 20
176.0295349999999
 30
0.0
 40
2.0
100
AcDbArc
 50
99.594146
 51
180.0
  0
ARC
  5
ABD6
330
AB3F
100
AcDbEntity
  8
1
  6
Continuous
100
AcDbCircle
 10
230.033949
 20
163.700895
 30
0.0
 40
1.0
100
AcDbArc
 50
90.00001800000005
 51
180.0
  0
LINE
  5
ABD7
330
AB3F
100
AcDbEntity
  8
1
  6
Continuous
100
AcDbLine
 10
231.033949
 20
164.700895
 30
0.0
 11
230.033949
 21
164.700895
 31
0.0
  0
ARC
  5
ABD8
330
AB3F
100
AcDbEntity
  8
1
  6
Continuous
100
AcDbCircle
 10
257.033949
 20
184.6608939999999
 30
0.0
 40
3.0
100
AcDbArc
 50
0.0
 51
90.0
  0
ARC
  5
ABD9
330
AB3F
100
AcDbEntity
  8
1
  6
Continuous
100
AcDbCircle
 10
248.495268
 20
188.745394
 30
0.0
 40
1.984499999999996
100
AcDbArc
 50
206.8632199999999
 51
213.12622
  0
ARC
  5
ABDA
330
AB3F
100
AcDbEntity
  8
1
  6
Continuous
100
AcDbCircle
 10
244.954573
 20
188.745394
 30
0.0
 40
1.984499999999996
100
AcDbArc
 50
189.99695
 51
213.12622
  0
ARC
  5
ABDB
330
AB3F
100
AcDbEntity
  8
1
  6
Continuous
100
AcDbCircle
 10
253.783949
 20
188.745394
 30
0.0
 40
1.984499999999996
100
AcDbArc
 50
326.87379
 51
350.0029399999998
  0
ARC
  5
ABDC
330
AB3F
100
AcDbEntity
  8
1
  6
Continuous
100
AcDbCircle
 10
253.134535
 20
188.745394
 30
0.0
 40
1.984499999999996
100
AcDbArc
 50
326.87379
 51
350.0029399999998
  0
ARC
  5
ABDD
330
AB3F
100
AcDbEntity
  8
1
  6
Continuous
100
AcDbCircle
 10
251.3129329999999
 20
188.745394
 30
0.0
 40
1.984499999999996
100
AcDbArc
 50
326.87379
 51
350.0029399999998
  0
ARC
  5
ABDE
330
AB3F
100
AcDbEntity
  8
1
  6
Continuous
100
AcDbCircle
 10
248.495268
 20
188.745394
 30
0.0
 40
1.984499999999996
100
AcDbArc
 50
326.87379
 51
350.0029399999998
  0
ARC
  5
ABDF
330
AB3F
100
AcDbEntity
  8
1
  6
Continuous
100
AcDbCircle
 10
241.0339490000001
 20
188.745394
 30
0.0
 40
1.984499999999996
100
AcDbArc
 50
326.87379
 51
350.0029399999998
  0
ARC
  5
ABE0
330
AB3F
100
AcDbEntity
  8
1
  6
Continuous
100
AcDbCircle
 10
244.954573
 20
188.745394
 30
0.0
 40
1.984499999999996
100
AcDbArc
 50
326.87379
 51
350.0029599999999
  0
ARC
  5
ABE1
330
AB3F
100
AcDbEntity
  8
1
  6
Continuous
100
AcDbCircle
 10
257.8483719999999
 20
191.200859
 30
0.0
 40
2.799999999999998
100
AcDbArc
 50
268.3477899999999
 51
269.99998
  0
ARC
  5
ABE2
330
AB3F
100
AcDbEntity
  8
1
  6
Continuous
100
AcDbCircle
 10
233.5726299999997
 20
188.745394
 30
0.0
 40
1.984499999999996
100
AcDbArc
 50
189.99701
 51
213.12622
  0
ARC
  5
ABE3
330
AB3F
100
AcDbEntity
  8
1
  6
Continuous
100
AcDbCircle
 10
237.113325
 20
188.745394
 30
0.0
 40
1.984499999999996
100
AcDbArc
 50
189.99701
 51
213.12622
  0
ARC
  5
ABE4
330
AB3F
100
AcDbEntity
  8
1
  6
Continuous
100
AcDbCircle
 10
228.283949
 20
188.745394
 30
0.0
 40
1.984499999999996
100
AcDbArc
 50
189.99701
 51
213.12622
  0
ARC
  5
ABE5
330
AB3F
100
AcDbEntity
  8
1
  6
Continuous
100
AcDbCircle
 10
228.9333629999999
 20
188.745394
 30
0.0
 40
1.984499999999996
100
AcDbArc
 50
189.99701
 51
213.12622
  0
ARC
  5
ABE6
330
AB3F
100
AcDbEntity
  8
1
  6
Continuous
100
AcDbCircle
 10
230.7549649999999
 20
188.745394
 30
0.0
 40
1.984499999999996
100
AcDbArc
 50
189.99701
 51
213.12622
  0
ARC
  5
ABE7
330
AB3F
100
AcDbEntity
  8
1
  6
Continuous
100
AcDbCircle
 10
233.5726299999997
 20
188.745394
 30
0.0
 40
1.984499999999996
100
AcDbArc
 50
326.87379
 51
333.13675
  0
ARC
  5
ABE8
330
AB3F
100
AcDbEntity
  8
1
  6
Continuous
100
AcDbCircle
 10
241.0339490000001
 20
188.745394
 30
0.0
 40
1.984499999999996
100
AcDbArc
 50
189.99701
 51
213.12622
  0
ARC
  5
ABE9
330
AB3F
100
AcDbEntity
  8
1
  6
Continuous
100
AcDbCircle
 10
237.113325
 20
188.745394
 30
0.0
 40
1.984499999999996
100
AcDbArc
 50
326.87379
 51
350.00301
  0
LINE
  5
ABEA
330
AB3F
100
AcDbEntity
  8
1
  6
Continuous
100
AcDbLine
 10
226.033964
 20
146.75279
 30
0.0
 11
226.033964
 21
154.3455789999998
 31
0.0
  0
ARC
  5
ABEB
330
AB3F
100
AcDbEntity
  8
1
  6
Continuous
100
AcDbCircle
 10
225.0339489999999
 20
184.6608939999999
 30
0.0
 40
3.0
100
AcDbArc
 50
90.0
 51
180.0
  0
LINE
  5
ABEC
330
AB3F
100
AcDbEntity
  8
1
  6
Continuous
100
AcDbLine
 10
224.125065
 20
179.4173679999999
 30
0.0
 11
257.942832
 21
179.4173679999999
 31
0.0
  0
LINE
  5
ABED
330
AB3F
100
AcDbEntity
  8
1
  6
Continuous
100
AcDbLine
 10
222.033949
 20
184.6608939999999
 30
0.0
 11
222.033949
 21
168.8550449999999
 31
0.0
  0
LINE
  5
ABEE
330
AB3F
100
AcDbEntity
  8
1
  6
Continuous
100
AcDbLine
 10
127.5339489999997
 20
77.20089499999997
 30
0.0
 11
147.533949
 21
77.20089499999997
 31
0.0
  0
LINE
  5
ABEF
330
AB3F
100
AcDbEntity
  8
1
  6
Continuous
100
AcDbLine
 10
115.205309
 20
55.200895
 30
0.0
 11
159.8625889999999
 21
55.200895
 31
0.0
  0
LINE
  5
ABF0
330
AB3F
100
AcDbEntity
  8
1
  6
Continuous
100
AcDbLine
 10
115.205309
 20
75.20089499999997
 30
0.0
 11
159.8625889999999
 21
75.20089499999997
 31
0.0
  0
ARC
  5
ABF1
330
AB3F
100
AcDbEntity
  8
1
  6
Continuous
100
AcDbCircle
 10
162.5339489999998
 20
65.20089499999999
 30
0.0
 40
50.0
100
AcDbArc
 50
170.405929
 51
189.594089
  0
ARC
  5
ABF2
330
AB3F
100
AcDbEntity
  8
1
  6
Continuous
100
AcDbCircle
 10
115.205309
 20
57.200895
 30
0.0
 40
2.0
100
AcDbArc
 50
189.5941639999998
 51
270.00002
  0
ARC
  5
ABF3
330
AB3F
100
AcDbEntity
  8
1
  6
Continuous
100
AcDbCircle
 10
115.205309
 20
73.20089499999998
 30
0.0
 40
2.0
100
AcDbArc
 50
90.0
 51
170.405854
  0
LINE
  5
ABF4
330
AB3F
100
AcDbEntity
  8
1
  6
Continuous
100
AcDbLine
 10
134.283949
 20
77.20089499999997
 30
0.0
 11
134.283949
 21
78.20089499999998
 31
0.0
  0
LINE
  5
ABF5
330
AB3F
100
AcDbEntity
  8
1
  6
Continuous
100
AcDbLine
 10
126.5339489999997
 20
75.20089499999997
 30
0.0
 11
126.5339489999997
 21
76.20089499999997
 31
0.0
  0
ARC
  5
ABF6
330
AB3F
100
AcDbEntity
  8
1
  6
Continuous
100
AcDbCircle
 10
127.5339489999997
 20
76.20089499999997
 30
0.0
 40
1.0
100
AcDbArc
 50
90.0
 51
179.999982
  0
ARC
  5
ABF7
330
AB3F
100
AcDbEntity
  8
1
  6
Continuous
100
AcDbCircle
 10
112.5339489999997
 20
65.20089499999999
 30
0.0
 40
50.0
100
AcDbArc
 50
350.40591
 51
9.59407
  0
ARC
  5
ABF8
330
AB3F
100
AcDbEntity
  8
1
  6
Continuous
100
AcDbCircle
 10
159.8625889999999
 20
57.200895
 30
0.0
 40
2.0
100
AcDbArc
 50
269.99998
 51
350.40583
  0
LINE
  5
ABF9
330
AB3F
100
AcDbEntity
  8
1
  6
Continuous
100
AcDbLine
 10
140.783949
 20
77.20089499999997
 30
0.0
 11
140.783949
 21
78.20089499999998
 31
0.0
  0
LINE
  5
ABFA
330
AB3F
100
AcDbEntity
  8
1
  6
Continuous
100
AcDbLine
 10
148.533949
 20
75.20089499999997
 30
0.0
 11
148.533949
 21
76.20089499999997
 31
0.0
  0
ARC
  5
ABFB
330
AB3F
100
AcDbEntity
  8
1
  6
Continuous
100
AcDbCircle
 10
147.533949
 20
76.20089499999997
 30
0.0
 40
1.0
100
AcDbArc
 50
0.00002
 51
90.0
  0
ARC
  5
ABFC
330
AB3F
100
AcDbEntity
  8
1
  6
Continuous
100
AcDbCircle
 10
159.8625889999999
 20
73.20089499999998
 30
0.0
 40
2.0
100
AcDbArc
 50
9.59415
 51
90.0
  0
LINE
  5
ABFD
330
AB3F
100
AcDbEntity
  8
1
  6
Continuous
100
AcDbLine
 10
145.5724449999999
 20
78.20088
 30
0.0
 11
130.819274
 21
78.20088
 31
0.0
  0
LINE
  5
ABFE
330
AB3F
100
AcDbEntity
  8
1
  6
Continuous
100
AcDbLine
 10
144.5886529999999
 20
52.20091
 30
0.0
 11
129.3372019999999
 21
52.20091
 31
0.0
  0
LINE
  5
ABFF
330
AB3F
100
AcDbEntity
  8
1
  6
Continuous
100
AcDbLine
 10
145.5724449999999
 20
50.20091
 30
0.0
 11
130.534663
 21
50.20091
 31
0.0
  0
LINE
  5
AC00
330
AB3F
100
AcDbEntity
  8
1
  6
Continuous
100
AcDbLine
 10
130.534663
 20
52.20091
 30
0.0
 11
130.534663
 21
50.20091
 31
0.0
  0
ARC
  5
AC01
330
AB3F
100
AcDbEntity
  8
1
  6
Continuous
100
AcDbCircle
 10
158.533949
 20
65.20089499999999
 30
0.0
 40
19.0
100
AcDbArc
 50
235.7944209999997
 51
65.659788
  0
ARC
  5
AC02
330
AB3F
100
AcDbEntity
  8
1
  6
Continuous
100
AcDbCircle
 10
158.533949
 20
65.20089499999999
 30
0.0
 40
17.0
100
AcDbArc
 50
233.746358
 51
76.06923499999997
  0
ARC
  5
AC03
330
AB3F
100
AcDbEntity
  8
1
  6
Continuous
100
AcDbCircle
 10
328.533949
 20
153.700895
 30
0.0
 40
18.0
100
AcDbArc
 50
149.599802
 51
74.97199999999998
  0
ARC
  5
AC04
330
AB3F
100
AcDbEntity
  8
1
  6
Continuous
100
AcDbCircle
 10
328.533949
 20
153.700895
 30
0.0
 40
25.0
100
AcDbArc
 50
142.910997
 51
81.58266399999998
  0
LINE
  5
AC06
330
AB3F
100
AcDbEntity
  8
4
  6
CENTER
 48
0.5
100
AcDbLine
 10
298.533949
 20
153.700895
 30
0.0
 11
358.5339489999999
 21
153.700895
 31
0.0
  0
ARC
  5
AC07
330
AB3F
100
AcDbEntity
  8
1
  6
Continuous
100
AcDbCircle
 10
291.791517
 20
184.6608939999999
 30
0.0
 40
3.0
100
AcDbArc
 50
90.00001800000005
 51
173.2031979999999
  0
LINE
  5
AC08
330
AB3F
100
AcDbEntity
  8
1
  6
Continuous
100
AcDbLine
 10
297.1839049999998
 20
179.115304
 30
0.0
 11
288.533949
 21
179.4173679999999
 31
0.0
  0
LINE
  5
AC09
330
AB3F
100
AcDbEntity
  8
1
  6
Continuous
100
AcDbLine
 10
331.802006
 20
181.2857539999999
 30
0.0
 11
335.46901
 21
154.552168
 31
0.0
  0
LINE
  5
AC0A
330
AB3F
100
AcDbEntity
  8
1
  6
Continuous
100
AcDbLine
 10
320.533949
 20
183.9415149999999
 30
0.0
 11
320.533949
 21
157.5930209999999
 31
0.0
  0
LINE
  5
AC0B
330
AB3F
100
AcDbEntity
  8
4
  6
CENTER
 48
0.5
100
AcDbLine
 10
307.533949
 20
236.700895
 30
0.0
 11
307.533949
 21
163.967531
 31
0.0
  0
ARC
  5
AC0C
330
AB3F
100
AcDbEntity
  8
1
  6
Continuous
100
AcDbCircle
 10
328.533949
 20
153.600897
 30
0.0
 40
7.0
100
AcDbArc
 50
216.50872
 51
7.810410000000001
  0
LINE
  5
AC0D
330
AB3F
100
AcDbEntity
  8
1
  6
Continuous
100
AcDbLine
 10
303.2822459999998
 20
175.94998
 30
0.0
 11
322.9075829999998
 21
149.4362849999999
 31
0.0
  0
ARC
  5
AC0E
330
AB3F
100
AcDbEntity
  8
1
  6
Continuous
100
AcDbCircle
 10
296.9047069999998
 20
171.120178
 30
0.0
 40
8.0
100
AcDbArc
 50
36.67418
 51
87.99996799999998
  0
LINE
  5
AC0F
330
AB3F
100
AcDbEntity
  8
1
  6
Continuous
100
AcDbLine
 10
323.276377
 20
187.6608939999999
 30
0.0
 11
291.791517
 21
187.6608939999999
 31
0.0
  0
ARC
  5
AC10
330
AB3F
100
AcDbEntity
  8
1
  6
Continuous
100
AcDbCircle
 10
332.79273
 20
181.42165
 30
0.0
 40
1.0
100
AcDbArc
 50
170.0
 51
187.8104199999999
  0
ARC
  5
AC11
330
AB3F
100
AcDbEntity
  8
1
  6
Continuous
100
AcDbCircle
 10
323.276377
 20
184.6608939999999
 30
0.0
 40
3.0
100
AcDbArc
 50
27.75185
 51
90.00001800000005
  0
LINE
  5
AC12
330
AB3F
100
AcDbEntity
  8
1
  6
Continuous
100
AcDbLine
 10
332.1719319999999
 20
183.659701
 30
0.0
 11
331.807924
 21
181.595299
 31
0.0
  0
LINE
  5
AC13
330
AB3F
100
AcDbEntity
  8
1
  6
Continuous
100
AcDbLine
 10
326.6839469999998
 20
184.6273789999999
 30
0.0
 11
325.931294
 21
186.057825
 31
0.0
  0
LINE
  5
AC14
330
AB3F
100
AcDbEntity
  8
1
  6
Continuous
100
AcDbLine
 10
334.6339529999998
 20
183.22558
 30
0.0
 11
334.286656
 21
181.2559639999999
 31
0.0
  0
LINE
  5
AC15
330
AB3F
100
AcDbEntity
  8
1
  6
Continuous
100
AcDbLine
 10
334.633957
 20
183.2255849999999
 30
0.0
 11
323.3890149999998
 21
185.208371
 31
0.0
  0
LINE
  5
AC16
330
AB3F
100
AcDbEntity
  8
1
  6
Continuous
100
AcDbLine
 10
334.286656
 20
181.255969
 30
0.0
 11
331.824638
 21
181.690089
 31
0.0
  0
ARC
  5
AC17
330
AB3F
100
AcDbEntity
  8
1
  6
Continuous
100
AcDbCircle
 10
314.995268
 20
188.745394
 30
0.0
 40
1.984499999999996
100
AcDbArc
 50
206.8632199999999
 51
213.1262299999999
  0
ARC
  5
AC18
330
AB3F
100
AcDbEntity
  8
1
  6
Continuous
100
AcDbCircle
 10
311.4545729999998
 20
188.745394
 30
0.0
 40
1.984499999999996
100
AcDbArc
 50
189.99695
 51
213.1262299999999
  0
ARC
  5
AC19
330
AB3F
100
AcDbEntity
  8
1
  6
Continuous
100
AcDbCircle
 10
320.283949
 20
188.745394
 30
0.0
 40
1.984499999999996
100
AcDbArc
 50
326.87379
 51
350.0029399999998
  0
ARC
  5
AC1A
330
AB3F
100
AcDbEntity
  8
1
  6
Continuous
100
AcDbCircle
 10
319.634535
 20
188.745394
 30
0.0
 40
1.984499999999996
100
AcDbArc
 50
326.87379
 51
350.0029399999998
  0
ARC
  5
AC1B
330
AB3F
100
AcDbEntity
  8
1
  6
Continuous
100
AcDbCircle
 10
317.8129329999998
 20
188.745394
 30
0.0
 40
1.984499999999996
100
AcDbArc
 50
326.87379
 51
350.0029399999998
  0
ARC
  5
AC1C
330
AB3F
100
AcDbEntity
  8
1
  6
Continuous
100
AcDbCircle
 10
314.995268
 20
188.745394
 30
0.0
 40
1.984499999999996
100
AcDbArc
 50
326.87379
 51
350.0029399999998
  0
ARC
  5
AC1D
330
AB3F
100
AcDbEntity
  8
1
  6
Continuous
100
AcDbCircle
 10
307.533949
 20
188.745394
 30
0.0
 40
1.984499999999996
100
AcDbArc
 50
326.87379
 51
350.0029399999998
  0
ARC
  5
AC1E
330
AB3F
100
AcDbEntity
  8
1
  6
Continuous
100
AcDbCircle
 10
311.4545729999998
 20
188.745394
 30
0.0
 40
1.984499999999996
100
AcDbArc
 50
326.87379
 51
350.0029599999999
  0
ARC
  5
AC1F
330
AB3F
100
AcDbEntity
  8
1
  6
Continuous
100
AcDbCircle
 10
300.07263
 20
188.745394
 30
0.0
 40
1.984499999999996
100
AcDbArc
 50
189.99701
 51
213.1262299999999
  0
ARC
  5
AC20
330
AB3F
100
AcDbEntity
  8
1
  6
Continuous
100
AcDbCircle
 10
303.6133249999998
 20
188.745394
 30
0.0
 40
1.984499999999996
100
AcDbArc
 50
189.99701
 51
213.1262299999999
  0
ARC
  5
AC21
330
AB3F
100
AcDbEntity
  8
1
  6
Continuous
100
AcDbCircle
 10
294.783949
 20
188.745394
 30
0.0
 40
1.984499999999996
100
AcDbArc
 50
189.99701
 51
213.1262299999999
  0
ARC
  5
AC22
330
AB3F
100
AcDbEntity
  8
1
  6
Continuous
100
AcDbCircle
 10
295.4333629999998
 20
188.745394
 30
0.0
 40
1.984499999999996
100
AcDbArc
 50
189.99701
 51
213.1262299999999
  0
ARC
  5
AC23
330
AB3F
100
AcDbEntity
  8
1
  6
Continuous
100
AcDbCircle
 10
297.2549649999999
 20
188.745394
 30
0.0
 40
1.984499999999996
100
AcDbArc
 50
189.99701
 51
213.1262299999999
  0
ARC
  5
AC24
330
AB3F
100
AcDbEntity
  8
1
  6
Continuous
100
AcDbCircle
 10
300.07263
 20
188.745394
 30
0.0
 40
1.984499999999996
100
AcDbArc
 50
326.87379
 51
333.13675
  0
ARC
  5
AC25
330
AB3F
100
AcDbEntity
  8
1
  6
Continuous
100
AcDbCircle
 10
307.533949
 20
188.745394
 30
0.0
 40
1.984499999999996
100
AcDbArc
 50
189.99701
 51
213.1262299999999
  0
ARC
  5
AC26
330
AB3F
100
AcDbEntity
  8
1
  6
Continuous
100
AcDbCircle
 10
303.6133249999998
 20
188.745394
 30
0.0
 40
1.984499999999996
100
AcDbArc
 50
326.87379
 51
350.00301
  0
LINE
  5
AC27
330
AB3F
100
AcDbEntity
  8
1
  6
Continuous
100
AcDbLine
 10
288.8125999999998
 20
185.01594
 30
0.0
 11
288.533949
 21
179.4173679999999
 31
0.0
  0
ARC
  5
AC28
330
AB3F
100
AcDbEntity
  8
1
  6
Continuous
100
AcDbCircle
 10
158.533949
 20
65.20089499999999
 30
0.0
 40
13.5
100
AcDbArc
 50
234.569055
 51
132.2054459999999
  0
ARC
  5
AC29
330
AB3F
100
AcDbEntity
  8
1
  6
Continuous
100
AcDbCircle
 10
158.533949
 20
65.20089499999999
 30
0.0
 40
10.5
100
AcDbArc
 50
252.2472099999998
 51
107.7527899999999
  0
ARC
  5
AC2A
330
AB3F
100
AcDbEntity
  8
1
  6
Continuous
100
AcDbCircle
 10
159.766274
 20
63.968593
 30
0.0
 40
3.623304
100
AcDbArc
 50
316.5091669999998
 51
358.2470069999998
  0
ARC
  5
AC2B
330
AB3F
100
AcDbEntity
  8
1
  6
Continuous
100
AcDbCircle
 10
159.7663169999998
 20
66.43334399999999
 30
0.0
 40
3.623247999999998
100
AcDbArc
 50
1.753413
 51
43.491106
  0
LINE
  5
AC2C
330
AB3F
100
AcDbEntity
  8
1
  6
Continuous
100
AcDbLine
 10
162.7839189999999
 20
65.200951
 30
0.0
 11
163.3459389999998
 21
66.450955
 31
0.0
  0
LINE
  5
AC2D
330
AB3F
100
AcDbEntity
  8
1
  6
Continuous
100
AcDbLine
 10
163.3459769999998
 20
63.95096999999999
 30
0.0
 11
162.7839569999999
 21
65.20096600000001
 31
0.0
  0
ARC
  5
AC2E
330
AB3F
100
AcDbEntity
  8
1
  6
Continuous
100
AcDbCircle
 10
162.1100219999999
 20
63.100953
 30
0.0
 40
1.5
100
AcDbArc
 50
34.51822999999999
 51
73.756776
  0
ARC
  5
AC2F
330
AB3F
100
AcDbEntity
  8
1
  6
Continuous
100
AcDbCircle
 10
162.1100219999999
 20
67.300949
 30
0.0
 40
1.5
100
AcDbArc
 50
286.2431649999998
 51
325.48158
  0
ARC
  5
AC30
330
AB3F
100
AcDbEntity
  8
1
  6
Continuous
100
AcDbCircle
 10
254.4777939999999
 20
170.205959
 30
0.0
 40
32.44384500000001
100
AcDbArc
 50
164.8619749999998
 51
208.309821
  0
ARC
  5
AC31
330
AB3F
100
AcDbEntity
  8
1
  6
Continuous
100
AcDbCircle
 10
227.5901029999999
 20
170.205959
 30
0.0
 40
32.44384500000001
100
AcDbArc
 50
331.690179
 51
15.138025
  0
ARC
  5
AC32
330
AB3F
100
AcDbEntity
  8
1
  6
Continuous
100
AcDbCircle
 10
227.5901029999999
 20
170.205959
 30
0.0
 40
30.443845
100
AcDbArc
 50
331.690233
 51
17.61205799999998
  0
ARC
  5
AC33
330
AB3F
100
AcDbEntity
  8
1
  6
Continuous
100
AcDbCircle
 10
254.4777939999999
 20
170.205959
 30
0.0
 40
30.443845
100
AcDbArc
 50
162.3879419999999
 51
208.3097669999999
  0
ARC
  5
AC34
330
AB3F
100
AcDbEntity
  8
1
  6
Continuous
100
AcDbCircle
 10
257.942832
 20
178.4173679999999
 30
0.0
 40
1.0
100
AcDbArc
 50
15.138025
 51
90.0
  0
ARC
  5
AC35
330
AB3F
100
AcDbEntity
  8
1
  6
Continuous
100
AcDbCircle
 10
224.125065
 20
178.4173679999999
 30
0.0
 40
1.0
100
AcDbArc
 50
90.0
 51
164.8619749999998
  0
ARC
  5
AC36
330
AB3F
100
AcDbEntity
  8
1
  6
Continuous
100
AcDbCircle
 10
225.033964
 20
154.3455789999998
 30
0.0
 40
1.0
100
AcDbArc
 50
0.0
 51
28.30982099999999
  0
ARC
  5
AC37
330
AB3F
100
AcDbEntity
  8
1
  6
Continuous
100
AcDbCircle
 10
225.0339489999999
 20
154.3456069999997
 30
0.0
 40
3.0
100
AcDbArc
 50
0.0
 51
28.30976699999999
  0
ARC
  5
AC38
330
AB3F
100
AcDbEntity
  8
1
  6
Continuous
100
AcDbCircle
 10
257.0339339999998
 20
154.3455789999998
 30
0.0
 40
1.0
100
AcDbArc
 50
151.690179
 51
180.0
  0
ARC
  5
AC39
330
AB3F
100
AcDbEntity
  8
1
  6
Continuous
100
AcDbCircle
 10
257.033949
 20
154.3456069999997
 30
0.0
 40
3.0
100
AcDbArc
 50
151.690233
 51
162.9837
  0
ARC
  5
AC3A
330
AB3F
100
AcDbEntity
  8
1
  6
Continuous
100
AcDbCircle
 10
145.5724449999999
 20
84.20087999999998
 30
0.0
 40
6.0
100
AcDbArc
 50
270.0
 51
304.301219
  0
ARC
  5
AC3B
330
AB3F
100
AcDbEntity
  8
1
  6
Continuous
100
AcDbCircle
 10
145.5724449999999
 20
46.20091
 30
0.0
 40
4.0
100
AcDbArc
 50
55.698781
 51
90.0
  0
LINE
  5
AC3C
330
AB3F
100
AcDbEntity
  8
5
  6
PHANTOM
100
AcDbLine
 10
101.024672
 20
145.2113139999999
 30
0.0
 11
121.777994
 21
153.723509
 31
0.0
  0
LINE
  5
AC3D
330
AB3F
100
AcDbEntity
  8
5
  6
PHANTOM
100
AcDbLine
 10
100.2657059999999
 20
147.0617129999999
 30
0.0
 11
121.0190399999999
 21
155.573899
 31
0.0
  0
LINE
  5
AC3E
330
AB3F
100
AcDbEntity
  8
5
  6
PHANTOM
100
AcDbLine
 10
101.024672
 20
145.2113139999999
 30
0.0
 11
100.265693
 21
147.061721
 31
0.0
  0
LINE
  5
AC3F
330
AB3F
100
AcDbEntity
  8
5
  6
PHANTOM
100
AcDbLine
 10
122.567451
 20
154.08818
 30
0.0
 11
123.720224
 21
151.2776069999999
 31
0.0
  0
LINE
  5
AC40
330
AB3F
100
AcDbEntity
  8
5
  6
PHANTOM
100
AcDbLine
 10
118.881028
 20
152.535287
 30
0.0
 11
120.0194639999997
 21
149.759704
 31
0.0
  0
LINE
  5
AC41
330
AB3F
100
AcDbEntity
  8
5
  6
PHANTOM
100
AcDbLine
 10
120.0194639999997
 20
149.759704
 30
0.0
 11
123.7202539999999
 21
151.2776239999998
 31
0.0
  0
LINE
  5
AC42
330
AB3F
100
AcDbEntity
  8
5
  6
PHANTOM
100
AcDbLine
 10
155.097644
 20
159.1238779999999
 30
0.0
 11
159.5527859999999
 21
166.627634
 31
0.0
  0
LINE
  5
AC43
330
AB3F
100
AcDbEntity
  8
5
  6
PHANTOM
100
AcDbLine
 10
147.9771429999999
 20
166.6310629999999
 30
0.0
 11
168.7304849999998
 21
175.1432619999999
 31
0.0
  0
LINE
  5
AC44
330
AB3F
100
AcDbEntity
  8
5
  6
PHANTOM
100
AcDbLine
 10
148.7361129999999
 20
164.780642
 30
0.0
 11
169.4894559999999
 21
173.2928409999999
 31
0.0
  0
LINE
  5
AC45
330
AB3F
100
AcDbEntity
  8
5
  6
PHANTOM
100
AcDbLine
 10
152.367905
 20
154.4272829999998
 30
0.0
 11
148.4715669999999
 21
163.9268129999998
 31
0.0
  0
LINE
  5
AC46
330
AB3F
100
AcDbEntity
  8
5
  6
PHANTOM
100
AcDbLine
 10
152.5180599999998
 20
160.6554429999999
 30
0.0
 11
156.973181
 21
168.1591939999998
 31
0.0
  0
LINE
  5
AC47
330
AB3F
100
AcDbEntity
  8
5
  6
PHANTOM
100
AcDbLine
 10
153.017281
 20
160.7815979999998
 30
0.0
 11
154.969771
 21
159.6223599999999
 31
0.0
  0
LINE
  5
AC48
330
AB3F
100
AcDbEntity
  8
5
  6
PHANTOM
100
AcDbLine
 10
154.745628
 20
164.407331
 30
0.0
 11
157.3252339999999
 21
162.8757709999999
 31
0.0
  0
LINE
  5
AC49
330
AB3F
100
AcDbEntity
  8
5
  6
PHANTOM
100
AcDbLine
 10
157.1163529999997
 20
167.651661
 30
0.0
 11
159.0837559999999
 21
166.483586
 31
0.0
  0
LINE
  5
AC4A
330
AB3F
100
AcDbEntity
  8
5
  6
PHANTOM
100
AcDbLine
 10
169.4895399999998
 20
173.2929139999999
 30
0.0
 11
168.730574
 21
175.143314
 31
0.0
  0
LINE
  5
AC4B
330
AB3F
100
AcDbEntity
  8
5
  6
PHANTOM
100
AcDbLine
 10
163.013044
 20
170.636478
 30
0.0
 11
164.436647
 21
167.165666
 31
0.0
  0
LINE
  5
AC4C
330
AB3F
100
AcDbEntity
  8
5
  6
PHANTOM
100
AcDbLine
 10
107.5010629999999
 20
147.8676729999999
 30
0.0
 11
108.9246579999999
 21
144.396848
 31
0.0
  0
LINE
  5
AC4D
330
AB3F
100
AcDbEntity
  8
5
  6
PHANTOM
100
AcDbLine
 10
154.19981
 20
155.231353
 30
0.0
 11
150.3219789999999
 21
164.6857709999999
 31
0.0
  0
LINE
  5
AC4E
330
AB3F
100
AcDbEntity
  8
1
  6
Continuous
100
AcDbLine
 10
132.072753
 20
270.1009029999998
 30
0.0
 11
132.072753
 21
280.200895
 31
0.0
  0
LINE
  5
AC4F
330
AB3F
100
AcDbEntity
  8
1
  6
Continuous
100
AcDbLine
 10
224.533964
 20
138.4485409999997
 30
0.0
 11
224.533964
 21
151.858255
 31
0.0
  0
LINE
  5
AC50
330
AB3F
100
AcDbEntity
  8
1
  6
Continuous
100
AcDbLine
 10
224.533964
 20
138.4485409999997
 30
0.0
 11
222.533964
 21
138.4485409999997
 31
0.0
  0
LINE
  5
AC51
330
AB3F
100
AcDbEntity
  8
1
  6
Continuous
100
AcDbLine
 10
222.533964
 20
138.4485409999997
 30
0.0
 11
222.533964
 21
144.1473479999999
 31
0.0
  0
LINE
  5
AC52
330
AB3F
100
AcDbEntity
  8
1
  6
Continuous
100
AcDbLine
 10
215.9339569999999
 20
153.4352349999998
 30
0.0
 11
206.9968999999999
 21
147.0027859999999
 31
0.0
  0
LINE
  5
AC53
330
AB3F
100
AcDbEntity
  8
1
  6
Continuous
100
AcDbLine
 10
205.533964
 20
142.502634
 30
0.0
 11
205.533964
 21
144.1473479999999
 31
0.0
  0
LINE
  5
AC54
330
AB3F
100
AcDbEntity
  8
1
  6
Continuous
100
AcDbLine
 10
215.933942
 20
165.6457
 30
0.0
 11
208.254285
 21
172.269479
 31
0.0
  0
LINE
  5
AC55
330
AB3F
100
AcDbEntity
  8
1
  6
Continuous
100
AcDbLine
 10
207.0339639999999
 20
174.9494719999999
 30
0.0
 11
207.0339639999999
 21
176.5782869999999
 31
0.0
  0
LINE
  5
AC56
330
AB3F
100
AcDbEntity
  8
1
  6
Continuous
100
AcDbLine
 10
215.9339569999999
 20
167.2904299999999
 30
0.0
 11
208.9938329999998
 21
173.4240659999999
 31
0.0
  0
LINE
  5
AC57
330
AB3F
100
AcDbEntity
  8
1
  6
Continuous
100
AcDbLine
 10
215.9339569999999
 20
167.2905969999999
 30
0.0
 11
222.165199
 21
167.2905969999999
 31
0.0
  0
LINE
  5
AC58
330
AB3F
100
AcDbEntity
  8
1
  6
Continuous
100
AcDbLine
 10
215.9339569999999
 20
153.4352349999998
 30
0.0
 11
222.533964
 21
153.4352349999998
 31
0.0
  0
LINE
  5
AC59
330
AB3F
100
AcDbEntity
  8
1
  6
Continuous
100
AcDbLine
 10
62.983396
 20
144.9668669999998
 30
0.0
 11
64.033934
 21
144.9668669999998
 31
0.0
  0
LINE
  5
AC5A
330
AB3F
100
AcDbEntity
  8
1
  6
Continuous
100
AcDbLine
 10
62.983396
 20
142.680734
 30
0.0
 11
64.033934
 21
142.680734
 31
0.0
  0
LINE
  5
AC5B
330
AB3F
100
AcDbEntity
  8
1
  6
Continuous
100
AcDbLine
 10
62.983396
 20
142.680734
 30
0.0
 11
62.983396
 21
144.9668669999998
 31
0.0
  0
LINE
  5
AC5C
330
AB3F
100
AcDbEntity
  8
1
  6
Continuous
100
AcDbLine
 10
64.033934
 20
170.3504739999999
 30
0.0
 11
64.033934
 21
175.348735
 31
0.0
  0
LINE
  5
AC5D
330
AB3F
100
AcDbEntity
  8
1
  6
Continuous
100
AcDbLine
 10
65.533934
 20
138.36555
 30
0.0
 11
65.533934
 21
140.561015
 31
0.0
  0
LINE
  5
AC5E
330
AB3F
100
AcDbEntity
  8
1
  6
Continuous
100
AcDbLine
 10
74.13393999999998
 20
151.7075
 30
0.0
 11
70.43393399999998
 21
151.7075
 31
0.0
  0
LINE
  5
AC5F
330
AB3F
100
AcDbEntity
  8
1
  6
Continuous
100
AcDbLine
 10
64.033934
 20
141.658854
 30
0.0
 11
64.033934
 21
172.618968
 31
0.0
  0
LINE
  5
AC60
330
AB3F
100
AcDbEntity
  8
1
  6
Continuous
100
AcDbLine
 10
74.13393999999998
 20
165.5626939999999
 30
0.0
 11
66.033934
 21
165.5626939999999
 31
0.0
  0
LINE
  5
AC61
330
AB3F
100
AcDbEntity
  8
1
  6
Continuous
100
AcDbLine
 10
65.533934
 20
138.36555
 30
0.0
 11
67.533934
 21
138.36555
 31
0.0
  0
LINE
  5
AC62
330
AB3F
100
AcDbEntity
  8
1
  6
Continuous
100
AcDbLine
 10
67.533934
 20
138.36555
 30
0.0
 11
67.533934
 21
151.460887
 31
0.0
  0
LINE
  5
AC63
330
AB3F
100
AcDbEntity
  8
1
  6
Continuous
100
AcDbLine
 10
66.033934
 20
141.658854
 30
0.0
 11
66.033934
 21
177.348735
 31
0.0
  0
LINE
  5
AC64
330
AB3F
100
AcDbEntity
  8
1
  6
Continuous
100
AcDbLine
 10
64.033934
 20
172.618968
 30
0.0
 11
66.033934
 21
172.618968
 31
0.0
  0
LINE
  5
AC65
330
AB3F
100
AcDbEntity
  8
1
  6
Continuous
100
AcDbLine
 10
74.13392399999998
 20
151.7075299999999
 30
0.0
 11
83.07098999999999
 21
145.2750809999997
 31
0.0
  0
LINE
  5
AC66
330
AB3F
100
AcDbEntity
  8
1
  6
Continuous
100
AcDbLine
 10
74.133932
 20
153.3522439999998
 30
0.0
 11
83.07098999999999
 21
146.9197949999999
 31
0.0
  0
LINE
  5
AC67
330
AB3F
100
AcDbEntity
  8
1
  6
Continuous
100
AcDbLine
 10
84.53393400000001
 20
142.4196269999999
 30
0.0
 11
84.53393400000001
 21
144.0643419999998
 31
0.0
  0
LINE
  5
AC68
330
AB3F
100
AcDbEntity
  8
1
  6
Continuous
100
AcDbLine
 10
74.13396299999998
 20
165.562709
 30
0.0
 11
81.81361200000003
 21
172.186488
 31
0.0
  0
LINE
  5
AC69
330
AB3F
100
AcDbEntity
  8
1
  6
Continuous
100
AcDbLine
 10
83.033934
 20
174.850566
 30
0.0
 11
83.033934
 21
176.49528
 31
0.0
  0
LINE
  5
AC6A
330
AB3F
100
AcDbEntity
  8
1
  6
Continuous
100
AcDbLine
 10
64.033934
 20
141.658854
 30
0.0
 11
66.033934
 21
141.658854
 31
0.0
  0
LINE
  5
AC6B
330
AB3F
100
AcDbEntity
  8
1
  6
Continuous
100
AcDbLine
 10
64.033934
 20
155.6286419999999
 30
0.0
 11
66.033934
 21
155.6286419999999
 31
0.0
  0
LINE
  5
AC6C
330
AB3F
100
AcDbEntity
  8
1
  6
Continuous
100
AcDbLine
 10
65.533934
 20
140.561015
 30
0.0
 11
67.533934
 21
140.561015
 31
0.0
  0
LINE
  5
AC6D
330
AB3F
100
AcDbEntity
  8
1
  6
Continuous
100
AcDbLine
 10
131.804885
 20
90.510564
 30
0.0
 11
122.4320819999999
 21
97.84792100000002
 31
0.0
  0
LINE
  5
AC6E
330
AB3F
100
AcDbEntity
  8
1
  6
Continuous
100
AcDbLine
 10
150.928557
 20
80.20087999999999
 30
0.0
 11
114.142424
 21
80.20087999999999
 31
0.0
  0
LINE
  5
AC6F
330
AB3F
100
AcDbEntity
  8
1
  6
Continuous
100
AcDbLine
 10
164.7565449999999
 20
81.70087999999998
 30
0.0
 11
148.281844
 21
81.70087999999998
 31
0.0
  0
LINE
  5
AC70
330
AB3F
100
AcDbEntity
  8
1
  6
Continuous
100
AcDbLine
 10
150.9606769999997
 20
90.300878
 30
0.0
 11
160.601332
 21
99.347913
 31
0.0
  0
LINE
  5
AC71
330
AB3F
100
AcDbEntity
  8
1
  6
Continuous
100
AcDbLine
 10
130.6669149999999
 20
90.51061799999999
 30
0.0
 11
121.294158
 21
97.84792100000002
 31
0.0
  0
LINE
  5
AC72
330
AB3F
100
AcDbEntity
  8
1
  6
Continuous
100
AcDbLine
 10
150.9606769999997
 20
90.300886
 30
0.0
 11
150.9606769999997
 21
83.70088
 31
0.0
  0
LINE
  5
AC73
330
AB3F
100
AcDbEntity
  8
1
  6
Continuous
100
AcDbLine
 10
130.9348129999999
 20
90.41984300000001
 30
0.0
 11
130.9348129999999
 21
82.20088
 31
0.0
  0
LINE
  5
AC74
330
AB3F
100
AcDbEntity
  8
1
  6
Continuous
100
AcDbLine
 10
166.7565449999998
 20
83.70088
 30
0.0
 11
148.6645949999999
 21
83.70088
 31
0.0
  0
LINE
  5
AC75
330
AB3F
100
AcDbEntity
  8
1
  6
Continuous
100
AcDbLine
 10
145.843886
 20
82.20088
 30
0.0
 11
114.142424
 21
82.20088
 31
0.0
  0
LINE
  5
AC76
330
AB3F
100
AcDbEntity
  8
1
  6
Continuous
100
AcDbLine
 10
114.142424
 20
80.20087999999999
 30
0.0
 11
114.142424
 21
82.20088
 31
0.0
  0
LINE
  5
AC77
330
AB3F
100
AcDbEntity
  8
1
  6
Continuous
100
AcDbLine
 10
163.4841749999999
 20
81.70087999999998
 30
0.0
 11
163.4841749999999
 21
83.70088
 31
0.0
  0
LINE
  5
AC78
330
AB3F
100
AcDbEntity
  8
1
  6
Continuous
100
AcDbLine
 10
124.5795729999999
 20
80.20087999999999
 30
0.0
 11
124.5795729999999
 21
82.20088
 31
0.0
  0
LINE
  5
AC79
330
AB3F
100
AcDbEntity
  8
1
  6
Continuous
100
AcDbLine
 10
143.905104
 20
80.20087999999999
 30
0.0
 11
143.905104
 21
82.20088
 31
0.0
  0
LINE
  5
AC7A
330
AB3F
100
AcDbEntity
  8
1
  6
Continuous
100
AcDbLine
 10
147.6141649999999
 20
81.44532499999998
 30
0.0
 11
146.7965069999999
 21
80.71197999999998
 31
0.0
  0
LINE
  5
AC7B
330
AB3F
100
AcDbEntity
  8
1
  6
Continuous
100
AcDbLine
 10
147.3292219999999
 20
83.18976399999998
 30
0.0
 11
146.5115649999999
 21
82.45642600000001
 31
0.0
  0
LINE
  5
AC7C
330
AB3F
100
AcDbEntity
  8
1
  6
Continuous
100
AcDbLine
 10
127.52986
 20
77.70088
 30
0.0
 11
127.52986
 21
80.20087999999999
 31
0.0
  0
LINE
  5
AC7D
330
AB3F
100
AcDbEntity
  8
1
  6
Continuous
100
AcDbLine
 10
130.819274
 20
77.70088
 30
0.0
 11
130.819274
 21
80.20087999999999
 31
0.0
  0
LINE
  5
AC7E
330
AB3F
100
AcDbEntity
  8
1
  6
Continuous
100
AcDbLine
 10
129.681349
 20
77.70088
 30
0.0
 11
129.681349
 21
80.20087999999999
 31
0.0
  0
LINE
  5
AC7F
330
AB3F
100
AcDbEntity
  8
1
  6
Continuous
100
AcDbLine
 10
127.52986
 20
77.70088
 30
0.0
 11
130.819274
 21
77.70088
 31
0.0
  0
LINE
  5
AC80
330
AB3F
100
AcDbEntity
  8
1
  6
Continuous
100
AcDbLine
 10
159.902556
 20
81.70087999999998
 30
0.0
 11
156.5057819999998
 21
79.151418
 31
0.0
  0
LINE
  5
AC81
330
AB3F
100
AcDbEntity
  8
1
  6
Continuous
100
AcDbLine
 10
155.3052199999999
 20
79.151426
 30
0.0
 11
151.908431
 21
81.70088699999999
 31
0.0
  0
LINE
  5
AC82
330
AB3F
100
AcDbEntity
  8
1
  6
Continuous
100
AcDbLine
 10
155.9055009999999
 20
81.20154300000001
 30
0.0
 11
155.240202
 21
81.70088699999999
 31
0.0
  0
LINE
  5
AC83
330
AB3F
100
AcDbEntity
  8
1
  6
Continuous
100
AcDbLine
 10
156.5707989999999
 20
81.70087999999998
 30
0.0
 11
155.9055009999999
 21
81.201536
 31
0.0
  0
ARC
  5
AC84
330
AB3F
100
AcDbEntity
  8
5
  6
PHANTOM
100
AcDbCircle
 10
117.9832039999999
 20
162.9755129999998
 30
0.0
 40
10.0
100
AcDbArc
 50
292.301514
 51
323.0070529999998
  0
ARC
  5
AC85
330
AB3F
100
AcDbEntity
  8
5
  6
PHANTOM
100
AcDbCircle
 10
144.9413059999999
 20
174.032677
 30
0.0
 40
8.0
100
AcDbArc
 50
261.5959339999999
 51
292.301514
  0
ARC
  5
AC86
330
AB3F
100
AcDbEntity
  8
5
  6
PHANTOM
100
AcDbCircle
 10
131.4873729999999
 20
185.070825
 30
0.0
 40
37.49999199999999
100
AcDbArc
 50
300.6426499999999
 51
331.4796359999998
  0
ARC
  5
AC87
330
AB3F
100
AcDbEntity
  8
5
  6
PHANTOM
100
AcDbCircle
 10
119.8113669999999
 20
180.281787
 30
0.0
 40
37.49999199999999
100
AcDbArc
 50
253.123344
 51
283.960364
  0
ARC
  5
AC88
330
AB3F
100
AcDbEntity
  8
5
  6
PHANTOM
100
AcDbCircle
 10
144.9413059999999
 20
174.032677
 30
0.0
 40
10.0
100
AcDbArc
 50
261.5959339999999
 51
292.301514
  0
ARC
  5
AC89
330
AB3F
100
AcDbEntity
  8
5
  6
PHANTOM
100
AcDbCircle
 10
134.3136459999997
 20
161.552208
 30
0.0
 40
18.48607099999998
100
AcDbArc
 50
252.8359839999998
 51
331.767023
  0
ARC
  5
AC8A
330
AB3F
100
AcDbEntity
  8
5
  6
PHANTOM
100
AcDbCircle
 10
140.7713939999998
 20
145.807785
 30
0.0
 40
20.53125
100
AcDbArc
 50
81.595949
 51
143.0070639999998
  0
ARC
  5
AC8B
330
AB3F
100
AcDbEntity
  8
5
  6
PHANTOM
100
AcDbCircle
 10
117.9832039999999
 20
162.9755129999998
 30
0.0
 40
8.0
100
AcDbArc
 50
292.301514
 51
323.0070529999998
  0
ARC
  5
AC8C
330
AB3F
100
AcDbEntity
  8
5
  6
PHANTOM
100
AcDbCircle
 10
140.7713939999998
 20
145.807785
 30
0.0
 40
18.53125
100
AcDbArc
 50
81.595949
 51
143.0070639999998
  0
ARC
  5
AC8D
330
AB3F
100
AcDbEntity
  8
1
  6
Continuous
100
AcDbCircle
 10
214.033964
 20
152.903375
 30
0.0
 40
13.592206
100
AcDbArc
 50
240.3616959999999
 51
299.638299
  0
ARC
  5
AC8E
330
AB3F
100
AcDbEntity
  8
1
  6
Continuous
100
AcDbCircle
 10
219.0158209999999
 20
144.1473479999999
 30
0.0
 40
3.518145999999997
100
AcDbArc
 50
299.638299
 51
0.000003
  0
ARC
  5
AC8F
330
AB3F
100
AcDbEntity
  8
1
  6
Continuous
100
AcDbCircle
 10
209.0521059999999
 20
144.1473479999999
 30
0.0
 40
3.518145999999997
100
AcDbArc
 50
125.7444519999999
 51
240.361706
  0
ARC
  5
AC90
330
AB3F
100
AcDbEntity
  8
1
  6
Continuous
100
AcDbCircle
 10
209.0521059999999
 20
144.1473479999999
 30
0.0
 40
3.518145999999997
100
AcDbArc
 50
125.7444519999999
 51
180.000005
  0
ARC
  5
AC91
330
AB3F
100
AcDbEntity
  8
1
  6
Continuous
100
AcDbCircle
 10
215.533964
 20
167.8222749999999
 30
0.0
 40
13.592206
100
AcDbArc
 50
61.43117099999999
 51
119.638304
  0
ARC
  5
AC92
330
AB3F
100
AcDbEntity
  8
1
  6
Continuous
100
AcDbCircle
 10
210.552106
 20
174.9335719999999
 30
0.0
 40
3.518145999999997
100
AcDbArc
 50
179.9999909999999
 51
229.221941
  0
ARC
  5
AC93
330
AB3F
100
AcDbEntity
  8
1
  6
Continuous
100
AcDbCircle
 10
215.9083379999999
 20
163.793069
 30
0.0
 40
1.852803999999999
100
AcDbArc
 50
18.56101299999998
 51
90.00000300000001
  0
ARC
  5
AC94
330
AB3F
100
AcDbEntity
  8
1
  6
Continuous
100
AcDbCircle
 10
210.739759
 20
162.0575649999999
 30
0.0
 40
7.304966999999997
100
AcDbArc
 50
7.903514999999999
 51
17.966712
  0
ARC
  5
AC95
330
AB3F
100
AcDbEntity
  8
1
  6
Continuous
100
AcDbCircle
 10
210.552106
 20
176.5782869999999
 30
0.0
 40
3.518145999999997
100
AcDbArc
 50
119.6382899999999
 51
243.709209
  0
ARC
  5
AC96
330
AB3F
100
AcDbEntity
  8
1
  6
Continuous
100
AcDbCircle
 10
215.9083379999999
 20
165.4377839999999
 30
0.0
 40
1.852803999999999
100
AcDbArc
 50
18.56101299999998
 51
90.00000300000001
  0
ARC
  5
AC97
330
AB3F
100
AcDbEntity
  8
1
  6
Continuous
100
AcDbCircle
 10
210.739759
 20
163.70228
 30
0.0
 40
7.304966999999997
100
AcDbArc
 50
353.536205
 51
17.966712
  0
ARC
  5
AC98
330
AB3F
100
AcDbEntity
  8
1
  6
Continuous
100
AcDbCircle
 10
180.70857
 20
165.934671
 30
0.0
 40
37.37731899999999
100
AcDbArc
 50
340.463209
 51
355.5922009999999
  0
ARC
  5
AC99
330
AB3F
100
AcDbEntity
  8
1
  6
Continuous
100
AcDbCircle
 10
214.033964
 20
151.258645
 30
0.0
 40
13.592206
100
AcDbArc
 50
240.3616959999999
 51
299.638299
  0
ARC
  5
AC9A
330
AB3F
100
AcDbEntity
  8
1
  6
Continuous
100
AcDbCircle
 10
209.0521059999999
 20
142.502634
 30
0.0
 40
3.518145999999997
100
AcDbArc
 50
179.9999909999999
 51
240.361706
  0
ARC
  5
AC9B
330
AB3F
100
AcDbEntity
  8
1
  6
Continuous
100
AcDbCircle
 10
219.0158209999999
 20
142.502634
 30
0.0
 40
3.518145999999997
100
AcDbArc
 50
299.638299
 51
0.000003
  0
ARC
  5
AC9C
330
AB3F
100
AcDbEntity
  8
1
  6
Continuous
100
AcDbCircle
 10
221.033964
 20
146.741861
 30
0.0
 40
5.0
100
AcDbArc
 50
339.2068499999998
 51
0.000003
  0
ARC
  5
AC9D
330
AB3F
100
AcDbEntity
  8
1
  6
Continuous
100
AcDbCircle
 10
221.033964
 20
155.4289639999998
 30
0.0
 40
5.0
100
AcDbArc
 50
314.427004
 51
351.3583949999999
  0
ARC
  5
AC9E
330
AB3F
100
AcDbEntity
  8
1
  6
Continuous
100
AcDbCircle
 10
69.689901
 20
145.074412
 30
0.0
 40
5.0
100
AcDbArc
 50
223.087164
 51
244.5124429999999
  0
ARC
  5
AC9F
330
AB3F
100
AcDbEntity
  8
1
  6
Continuous
100
AcDbCircle
 10
67.689909
 20
145.074412
 30
0.0
 40
5.0
100
AcDbArc
 50
223.087164
 51
244.5124429999999
  0
ARC
  5
ACA0
330
AB3F
100
AcDbEntity
  8
1
  6
Continuous
100
AcDbCircle
 10
66.033934
 20
175.348735
 30
0.0
 40
2.0
100
AcDbArc
 50
90.00000300000001
 51
180.000005
  0
ARC
  5
ACA1
330
AB3F
100
AcDbEntity
  8
1
  6
Continuous
100
AcDbCircle
 10
76.033934
 20
151.1756389999999
 30
0.0
 40
13.592206
100
AcDbArc
 50
240.3616959999999
 51
299.6383059999999
  0
ARC
  5
ACA2
330
AB3F
100
AcDbEntity
  8
1
  6
Continuous
100
AcDbCircle
 10
71.05207599999999
 20
142.4196269999999
 30
0.0
 40
3.518145999999997
100
AcDbArc
 50
180.000005
 51
240.361706
  0
ARC
  5
ACA3
330
AB3F
100
AcDbEntity
  8
1
  6
Continuous
100
AcDbCircle
 10
81.01578299999998
 20
142.4196269999999
 30
0.0
 40
3.518145999999997
100
AcDbArc
 50
299.6383059999999
 51
54.25554599999999
  0
ARC
  5
ACA4
330
AB3F
100
AcDbEntity
  8
1
  6
Continuous
100
AcDbCircle
 10
81.01578299999998
 20
144.0643419999998
 30
0.0
 40
3.518145999999997
100
AcDbArc
 50
359.999997
 51
54.25554599999999
  0
ARC
  5
ACA5
330
AB3F
100
AcDbEntity
  8
1
  6
Continuous
100
AcDbCircle
 10
74.533934
 20
167.7392679999998
 30
0.0
 40
13.592206
100
AcDbArc
 50
60.36170099999999
 51
119.638304
  0
ARC
  5
ACA6
330
AB3F
100
AcDbEntity
  8
1
  6
Continuous
100
AcDbCircle
 10
69.552076
 20
176.49528
 30
0.0
 40
3.518145999999997
100
AcDbArc
 50
119.638304
 51
180.000005
  0
ARC
  5
ACA7
330
AB3F
100
AcDbEntity
  8
1
  6
Continuous
100
AcDbCircle
 10
79.515783
 20
176.49528
 30
0.0
 40
3.518145999999997
100
AcDbArc
 50
359.999997
 51
60.36170099999999
  0
ARC
  5
ACA8
330
AB3F
100
AcDbEntity
  8
1
  6
Continuous
100
AcDbCircle
 10
74.533934
 20
166.0945539999999
 30
0.0
 40
13.592206
100
AcDbArc
 50
60.36170099999999
 51
119.638304
  0
ARC
  5
ACA9
330
AB3F
100
AcDbEntity
  8
1
  6
Continuous
100
AcDbCircle
 10
69.552076
 20
174.850566
 30
0.0
 40
3.518145999999997
100
AcDbArc
 50
119.638304
 51
180.000005
  0
ARC
  5
ACAA
330
AB3F
100
AcDbEntity
  8
1
  6
Continuous
100
AcDbCircle
 10
79.515783
 20
174.850566
 30
0.0
 40
3.518145999999997
100
AcDbArc
 50
309.5937259999999
 51
60.36170099999999
  0
ARC
  5
ACAB
330
AB3F
100
AcDbEntity
  8
1
  6
Continuous
100
AcDbCircle
 10
109.3593199999999
 20
165.8516649999999
 30
0.0
 40
37.37731899999999
100
AcDbArc
 50
184.407803
 51
199.5367949999999
  0
ARC
  5
ACAC
330
AB3F
100
AcDbEntity
  8
1
  6
Continuous
100
AcDbCircle
 10
74.159559
 20
163.7100629999999
 30
0.0
 40
1.852803999999999
100
AcDbArc
 50
90.00000300000001
 51
161.4389799999998
  0
ARC
  5
ACAD
330
AB3F
100
AcDbEntity
  8
1
  6
Continuous
100
AcDbCircle
 10
109.3549249999997
 20
164.220897
 30
0.0
 40
37.37731899999999
100
AcDbArc
 50
183.1994469999999
 51
199.5367949999999
  0
ARC
  5
ACAE
330
AB3F
100
AcDbEntity
  8
1
  6
Continuous
100
AcDbCircle
 10
79.328131
 20
161.9745589999999
 30
0.0
 40
7.304966999999997
100
AcDbArc
 50
162.033288
 51
178.741283
  0
ARC
  5
ACAF
330
AB3F
100
AcDbEntity
  8
1
  6
Continuous
100
AcDbCircle
 10
164.7565449999999
 20
83.70088
 30
0.0
 40
2.0
100
AcDbArc
 50
269.9999969999999
 51
3.561938999999998
  0
ARC
  5
ACB0
330
AB3F
100
AcDbEntity
  8
1
  6
Continuous
100
AcDbCircle
 10
161.523528
 20
92.20088
 30
0.0
 40
9.851650999999996
100
AcDbArc
 50
320.5673269999998
 51
39.432673
  0
ARC
  5
ACB1
330
AB3F
100
AcDbEntity
  8
1
  6
Continuous
100
AcDbCircle
 10
164.3850849999997
 20
94.554121
 30
0.0
 40
6.146760999999997
100
AcDbArc
 50
39.432673
 51
128.2840799999999
  0
ARC
  5
ACB2
330
AB3F
100
AcDbEntity
  8
1
  6
Continuous
100
AcDbCircle
 10
164.3850849999997
 20
89.847639
 30
0.0
 40
6.146760999999997
100
AcDbArc
 50
269.9999969999999
 51
320.5673269999998
  0
ARC
  5
ACB3
330
AB3F
100
AcDbEntity
  8
1
  6
Continuous
100
AcDbCircle
 10
162.6614519999999
 20
92.20088
 30
0.0
 40
9.851650999999996
100
AcDbArc
 50
320.5673269999998
 51
39.432673
  0
ARC
  5
ACB4
330
AB3F
100
AcDbEntity
  8
1
  6
Continuous
100
AcDbCircle
 10
165.523009
 20
94.554121
 30
0.0
 40
6.146760999999997
100
AcDbArc
 50
39.432673
 51
95.31106200000001
  0
ARC
  5
ACB5
330
AB3F
100
AcDbEntity
  8
1
  6
Continuous
100
AcDbCircle
 10
165.523009
 20
89.847639
 30
0.0
 40
6.146760999999997
100
AcDbArc
 50
269.9999969999999
 51
320.5673269999998
  0
ARC
  5
ACB6
330
AB3F
100
AcDbEntity
  8
1
  6
Continuous
100
AcDbCircle
 10
120.371962
 20
90.70088
 30
0.0
 40
9.851650999999996
100
AcDbArc
 50
140.567329
 51
219.432668
  0
ARC
  5
ACB7
330
AB3F
100
AcDbEntity
  8
1
  6
Continuous
100
AcDbCircle
 10
117.510405
 20
93.05412099999999
 30
0.0
 40
6.146760999999997
100
AcDbArc
 50
51.71595599999999
 51
140.567329
  0
ARC
  5
ACB8
330
AB3F
100
AcDbEntity
  8
1
  6
Continuous
100
AcDbCircle
 10
117.510405
 20
88.347639
 30
0.0
 40
6.146760999999997
100
AcDbArc
 50
219.4326709999999
 51
269.9999969999999
  0
ARC
  5
ACB9
330
AB3F
100
AcDbEntity
  8
1
  6
Continuous
100
AcDbCircle
 10
118.6483289999999
 20
93.05412099999999
 30
0.0
 40
6.146760999999997
100
AcDbArc
 50
51.718104
 51
95.31106200000001
  0
ARC
  5
ACBA
330
AB3F
100
AcDbEntity
  8
1
  6
Continuous
100
AcDbCircle
 10
144.8021379999999
 20
128.431219
 30
0.0
 40
40.086208
100
AcDbArc
 50
251.079861
 51
269.1968699999999
  0
ARC
  5
ACBB
330
AB3F
100
AcDbEntity
  8
1
  6
Continuous
100
AcDbCircle
 10
144.634306
 20
99.605466
 30
0.0
 40
11.251592
100
AcDbArc
 50
274.349441
 51
304.2125069999999
  0
ARC
  5
ACBC
330
AB3F
100
AcDbEntity
  8
1
  6
Continuous
100
AcDbCircle
 10
143.6648549999999
 20
128.4310199999999
 30
0.0
 40
40.086208
100
AcDbArc
 50
251.079861
 51
272.6062059999998
  0
ARC
  5
ACBD
330
AB3F
100
AcDbEntity
  8
1
  6
Continuous
100
AcDbCircle
 10
148.281844
 20
80.70088
 30
0.0
 40
1.0
100
AcDbArc
 50
90.00000300000001
 51
131.8883849999997
  0
ARC
  5
ACBE
330
AB3F
100
AcDbEntity
  8
1
  6
Continuous
100
AcDbCircle
 10
145.46115
 20
82.20088
 30
0.0
 40
2.0
100
AcDbArc
 50
269.9999969999999
 51
311.88839
  0
ARC
  5
ACBF
330
AB3F
100
AcDbEntity
  8
1
  6
Continuous
100
AcDbCircle
 10
148.6645949999999
 20
81.70087999999998
 30
0.0
 40
2.0
100
AcDbArc
 50
90.00000300000001
 51
131.8883849999997
  0
ARC
  5
ACC0
330
AB3F
100
AcDbEntity
  8
1
  6
Continuous
100
AcDbCircle
 10
145.843886
 20
83.20088
 30
0.0
 40
1.0
100
AcDbArc
 50
269.9999969999999
 51
311.88839
  0
ARC
  5
ACC1
330
AB3F
100
AcDbEntity
  8
1
  6
Continuous
100
AcDbCircle
 10
150.928557
 20
82.20088
 30
0.0
 40
2.0
100
AcDbArc
 50
269.9999969999999
 51
328.5124009999999
  0
ARC
  5
ACC2
330
AB3F
100
AcDbEntity
  8
1
  6
Continuous
100
AcDbCircle
 10
155.9055009999999
 20
79.951215
 30
0.0
 40
1.0
100
AcDbArc
 50
233.109907
 51
306.8900919999998
  0
ARC
  5
ACC3
330
AB3F
100
AcDbEntity
  8
1
  6
Continuous
100
AcDbCircle
 10
328.533949
 20
153.700895
 30
0.0
 40
16.0
100
AcDbArc
 50
152.690342
 51
71.92005899999998
  0
ARC
  5
ACC4
330
AB3F
100
AcDbEntity
  8
1
  6
Continuous
100
AcDbCircle
 10
328.533949
 20
153.700895
 30
0.0
 40
12.5
100
AcDbArc
 50
160.8942889999999
 51
63.829788
  0
ARC
  5
ACC5
330
AB3F
100
AcDbEntity
  8
1
  6
Continuous
100
AcDbCircle
 10
328.533949
 20
153.700895
 30
0.0
 40
9.75
100
AcDbArc
 50
344.307317
 51
49.03966
  0
ARC
  5
ACC6
330
AB3F
100
AcDbEntity
  8
1
  6
Continuous
100
AcDbCircle
 10
328.533949
 20
153.700895
 30
0.0
 40
10.84999999999999
100
AcDbArc
 50
241.7451310000001
 51
335.042525
  0
LINE
  5
ACC7
330
AB3F
100
AcDbEntity
  8
1
  6
Continuous
100
AcDbLine
 10
335.6774919999998
 20
161.930098
 30
0.0
 11
334.623532
 21
160.7159599999999
 31
0.0
  0
LINE
  5
ACC8
330
AB3F
100
AcDbEntity
  8
1
  6
Continuous
100
AcDbLine
 10
336.986216
 20
151.3262339999999
 30
0.0
 11
339.0250149999999
 21
150.753434
 31
0.0
  0
ARC
  5
ACC9
330
AB3F
100
AcDbEntity
  8
1
  6
Continuous
100
AcDbCircle
 10
337.527171
 20
153.251687
 30
0.0
 40
2.0
100
AcDbArc
 50
177.7763019999999
 51
254.3073169999999
  0
ARC
  5
ACCA
330
AB3F
100
AcDbEntity
  8
1
  6
Continuous
100
AcDbCircle
 10
339.4307309999998
 20
152.1975239999999
 30
0.0
 40
1.5
100
AcDbArc
 50
254.3073169999999
 51
352.144797
  0
ARC
  5
ACCB
330
AB3F
100
AcDbEntity
  8
1
  6
Continuous
100
AcDbCircle
 10
336.8102369999998
 20
160.9467939999998
 30
0.0
 40
1.5
100
AcDbArc
 50
41.20218
 51
139.03966
  0
ARC
  5
ACCC
330
AB3F
100
AcDbEntity
  8
1
  6
Continuous
100
AcDbCircle
 10
328.533949
 20
153.700895
 30
0.0
 40
10.84999999999999
100
AcDbArc
 50
171.9327209999999
 51
229.03966
  0
ARC
  5
ACCD
330
AB3F
100
AcDbEntity
  8
1
  6
Continuous
100
AcDbCircle
 10
328.533949
 20
153.700895
 30
0.0
 40
9.75
100
AcDbArc
 50
174.179899
 51
229.03966
  0
LINE
  5
ACCE
330
AB3F
100
AcDbEntity
  8
1
  6
Continuous
100
AcDbLine
 10
321.3904059999998
 20
145.4716909999999
 30
0.0
 11
323.8958919999999
 21
148.357956
 31
0.0
  0
ARC
  5
ACCF
330
AB3F
100
AcDbEntity
  8
1
  6
Continuous
100
AcDbCircle
 10
320.2576599999998
 20
146.454996
 30
0.0
 40
1.5
100
AcDbArc
 50
221.2021799999999
 51
319.0396600000001
  0
ARC
  5
ACD0
330
AB3F
100
AcDbEntity
  8
1
  6
Continuous
100
AcDbCircle
 10
317.634212
 20
153.6312289999998
 30
0.0
 40
1.600041
100
AcDbArc
 50
41.41151599999999
 51
177.504568
  0
LINE
  5
ACD1
330
AB3F
100
AcDbEntity
  8
1
  6
Continuous
100
AcDbLine
 10
252.033949
 20
137.700895
 30
0.0
 11
251.033949
 21
137.700895
 31
0.0
  0
LINE
  5
ACD2
330
AB3F
100
AcDbEntity
  8
1
  6
Continuous
100
AcDbLine
 10
252.033949
 20
169.700895
 30
0.0
 11
251.033949
 21
169.700895
 31
0.0
  0
LINE
  5
ACD3
330
AB3F
100
AcDbEntity
  8
1
  6
Continuous
100
AcDbLine
 10
252.033949
 20
169.700895
 30
0.0
 11
252.033949
 21
137.700895
 31
0.0
  0
ARC
  5
ACD4
330
AB3F
100
AcDbEntity
  8
1
  6
Continuous
100
AcDbCircle
 10
328.533949
 20
153.700895
 30
0.0
 40
10.84999999999999
100
AcDbArc
 50
344.307317
 51
49.03966
  0
ARC
  5
ACD5
330
AB3F
100
AcDbEntity
  8
1
  6
Continuous
100
AcDbCircle
 10
251.524962
 20
163.54682
 30
0.0
 40
2.702439
100
AcDbArc
 50
21.810854
 51
79.14388399999999
  0
ARC
  5
ACD6
330
AB3F
100
AcDbEntity
  8
1
  6
Continuous
100
AcDbCircle
 10
251.524962
 20
143.8549689999998
 30
0.0
 40
2.702439
100
AcDbArc
 50
280.856116
 51
338.1891459999998
  0
LINE
  5
ACD7
330
AB3F
100
AcDbEntity
  8
1
  6
Continuous
100
AcDbLine
 10
254.835916
 20
155.2235379999999
 30
0.0
 11
252.033949
 21
155.2235379999999
 31
0.0
  0
LINE
  5
ACD8
330
AB3F
100
AcDbEntity
  8
1
  6
Continuous
100
AcDbLine
 10
254.835916
 20
145.4716909999999
 30
0.0
 11
252.033949
 21
145.4716909999999
 31
0.0
  0
ARC
  5
ACD9
330
AB3F
100
AcDbEntity
  8
1
  6
Continuous
100
AcDbCircle
 10
279.5585659999999
 20
150.347615
 30
0.0
 40
24.024632
100
AcDbArc
 50
171.0899109999997
 51
188.9100889999998
  0
ARC
  5
ACDA
330
AB3F
100
AcDbEntity
  8
1
  6
Continuous
100
AcDbCircle
 10
254.835916
 20
154.2235379999999
 30
0.0
 40
1.0
100
AcDbArc
 50
351.0899109999999
 51
90.0
  0
ARC
  5
ACDB
330
AB3F
100
AcDbEntity
  8
1
  6
Continuous
100
AcDbCircle
 10
254.835916
 20
146.4716909999999
 30
0.0
 40
1.0
100
AcDbArc
 50
270.0
 51
8.910088999999997
  0
LINE
  5
ACDC
330
AB3F
100
AcDbEntity
  8
1
  6
Continuous
100
AcDbLine
 10
254.033949
 20
155.2235379999999
 30
0.0
 11
254.033949
 21
179.4173679999999
 31
0.0
  0
LINE
  5
ACDD
330
AB3F
100
AcDbEntity
  8
1
  6
Continuous
100
AcDbLine
 10
255.8044039999999
 20
146.75279
 30
0.0
 11
256.033934
 21
146.75279
 31
0.0
  0
LINE
  5
ACDE
330
AB3F
100
AcDbEntity
  8
1
  6
Continuous
100
AcDbLine
 10
38.033949
 20
169.700895
 30
0.0
 11
38.033949
 21
137.700895
 31
0.0
  0
LINE
  5
ACDF
330
AB3F
100
AcDbEntity
  8
1
  6
Continuous
100
AcDbLine
 10
38.033949
 20
169.700895
 30
0.0
 11
39.033949
 21
169.700895
 31
0.0
  0
ARC
  5
ACE0
330
AB3F
100
AcDbEntity
  8
1
  6
Continuous
100
AcDbCircle
 10
38.542935
 20
163.54682
 30
0.0
 40
2.702439
100
AcDbArc
 50
100.8561159999999
 51
158.189146
  0
ARC
  5
ACE1
330
AB3F
100
AcDbEntity
  8
1
  6
Continuous
100
AcDbCircle
 10
38.542935
 20
143.8549689999998
 30
0.0
 40
2.702439
100
AcDbArc
 50
201.8108539999999
 51
259.1438839999999
  0
LINE
  5
ACE2
330
AB3F
100
AcDbEntity
  8
1
  6
Continuous
100
AcDbLine
 10
38.033949
 20
137.700895
 30
0.0
 11
39.033949
 21
137.700895
 31
0.0
  0
LINE
  5
ACE3
330
AB3F
100
AcDbEntity
  8
1
  6
Continuous
100
AcDbLine
 10
38.033949
 20
150.7662139999998
 30
0.0
 11
35.208425
 21
150.7662139999998
 31
0.0
  0
LINE
  5
ACE4
330
AB3F
100
AcDbEntity
  8
1
  6
Continuous
100
AcDbLine
 10
38.033949
 20
161.930098
 30
0.0
 11
35.208425
 21
161.930098
 31
0.0
  0
LINE
  5
ACE5
330
AB3F
100
AcDbEntity
  8
1
  6
Continuous
100
AcDbLine
 10
36.033949
 20
161.930098
 30
0.0
 11
36.033949
 21
181.70426
 31
0.0
  0
ARC
  5
ACE6
330
AB3F
100
AcDbEntity
  8
1
  6
Continuous
100
AcDbCircle
 10
3.125884
 20
156.3481559999999
 30
0.0
 40
31.40807999999999
100
AcDbArc
 50
351.8721339999999
 51
8.127865999999999
  0
ARC
  5
ACE7
330
AB3F
100
AcDbEntity
  8
1
  6
Continuous
100
AcDbCircle
 10
35.208425
 20
160.9300979999999
 30
0.0
 40
1.0
100
AcDbArc
 50
90.0
 51
188.1278659999999
  0
ARC
  5
ACE8
330
AB3F
100
AcDbEntity
  8
1
  6
Continuous
100
AcDbCircle
 10
35.208425
 20
151.7662139999998
 30
0.0
 40
1.0
100
AcDbArc
 50
171.8721339999999
 51
270.0
  0
LINE
  5
ACE9
330
AB3F
100
AcDbEntity
  8
5
  6
PHANTOM
100
AcDbLine
 10
141.0033689999998
 20
147.5699799999999
 30
0.0
 11
139.9917989999997
 21
148.227416
 31
0.0
  0
LINE
  5
ACEA
330
AB3F
100
AcDbEntity
  8
5
  6
PHANTOM
100
AcDbLine
 10
144.5454729999999
 20
153.020071
 30
0.0
 11
143.533903
 21
153.677507
 31
0.0
  0
ARC
  5
ACEB
330
AB3F
100
AcDbEntity
  8
5
  6
PHANTOM
100
AcDbCircle
 10
142.774421
 20
150.295025
 30
0.0
 40
3.25
100
AcDbArc
 50
236.9795
 51
56.9795
  0
ARC
  5
ACEC
330
AB3F
100
AcDbEntity
  8
5
  6
PHANTOM
100
AcDbCircle
 10
132.293476
 20
157.106764
 30
0.0
 40
3.25
100
AcDbArc
 50
56.9795
 51
236.9795
  0
ARC
  5
ACED
330
AB3F
100
AcDbEntity
  8
1
  6
Continuous
100
AcDbCircle
 10
137.5339489999997
 20
153.700895
 30
0.0
 40
18.0
100
AcDbArc
 50
351.7098049999999
 51
30.400198
  0
ARC
  5
ACEE
330
AB3F
100
AcDbEntity
  8
1
  6
Continuous
100
AcDbCircle
 10
137.5339489999997
 20
153.700895
 30
0.0
 40
18.0
100
AcDbArc
 50
159.784566
 51
310.859462
  0
ARC
  5
ACEF
330
AB3F
100
AcDbEntity
  8
1
  6
Continuous
100
AcDbCircle
 10
137.5339489999997
 20
153.700895
 30
0.0
 40
25.0
100
AcDbArc
 50
148.0946199999999
 51
322.54941
  0
ARC
  5
ACF0
330
AB3F
100
AcDbEntity
  8
1
  6
Continuous
100
AcDbCircle
 10
137.5339489999997
 20
153.700895
 30
0.0
 40
25.0
100
AcDbArc
 50
343.984927
 51
37.08900299999999
  0
LINE
  5
ACF1
330
AB3F
100
AcDbEntity
  8
1
  6
Continuous
100
AcDbLine
 10
67.533934
 20
147.450895
 30
0.0
 11
67.533934
 21
159.950895
 31
0.0
  0
LINE
  5
ACF2
330
AB3F
100
AcDbEntity
  8
1
  6
Continuous
100
AcDbLine
 10
66.033934
 20
155.6286419999999
 30
0.0
 11
67.533934
 21
157.450895
 31
0.0
  0
LINE
  5
ACF3
330
AB3F
100
AcDbEntity
  8
1
  6
Continuous
100
AcDbLine
 10
66.033934
 20
151.8300659999999
 30
0.0
 11
67.533934
 21
149.950895
 31
0.0
  0
ARC
  5
ACF4
330
AB3F
100
AcDbEntity
  8
1
  6
Continuous
100
AcDbCircle
 10
63.2631
 20
159.950895
 30
0.0
 40
4.270832999999997
100
AcDbArc
 50
310.449719
 51
49.55028099999999
  0
ARC
  5
ACF5
330
AB3F
100
AcDbEntity
  8
1
  6
Continuous
100
AcDbCircle
 10
63.2631
 20
147.450895
 30
0.0
 40
4.270832999999997
100
AcDbArc
 50
310.449719
 51
0.0
  0
LINE
  5
ACF6
330
AB3F
100
AcDbEntity
  8
1
  6
Continuous
100
AcDbLine
 10
67.122355
 20
156.950895
 30
0.0
 11
67.533934
 21
156.950895
 31
0.0
  0
LINE
  5
ACF7
330
AB3F
100
AcDbEntity
  8
1
  6
Continuous
100
AcDbLine
 10
67.134821
 20
150.4508949999998
 30
0.0
 11
67.533934
 21
150.4508949999998
 31
0.0
  0
ARC
  5
ACF8
330
AB3F
100
AcDbEntity
  8
1
  6
Continuous
100
AcDbCircle
 10
158.533949
 20
65.20089499999999
 30
0.0
 40
17.0
100
AcDbArc
 50
118.0725939999999
 51
124.3012189999999
  0
ARC
  5
ACF9
330
AB3F
100
AcDbEntity
  8
1
  6
Continuous
100
AcDbCircle
 10
137.5339489999997
 20
79.43004599999998
 30
0.0
 40
4.270832999999997
100
AcDbArc
 50
40.449719
 51
139.550281
  0
LINE
  5
ACFA
330
AB3F
100
AcDbEntity
  8
1
  6
Continuous
100
AcDbLine
 10
134.283949
 20
82.20088
 30
0.0
 11
134.283949
 21
83.70087899999999
 31
0.0
  0
LINE
  5
ACFB
330
AB3F
100
AcDbEntity
  8
1
  6
Continuous
100
AcDbLine
 10
140.783949
 20
82.20088
 30
0.0
 11
140.783949
 21
83.70088
 31
0.0
  0
LINE
  5
ACFC
330
AB3F
100
AcDbEntity
  8
1
  6
Continuous
100
AcDbLine
 10
131.533949
 20
83.70087899999999
 30
0.0
 11
143.533949
 21
83.70088
 31
0.0
  0
LINE
  5
ACFD
330
AB3F
100
AcDbEntity
  8
1
  6
Continuous
100
AcDbLine
 10
61.53393399999998
 20
168.1135219999999
 30
0.0
 11
61.53393399999998
 21
170.350447
 31
0.0
  0
LINE
  5
ACFE
330
AB3F
100
AcDbEntity
  8
1
  6
Continuous
100
AcDbLine
 10
64.033934
 20
168.1135219999999
 30
0.0
 11
61.53393399999998
 21
168.1135219999999
 31
0.0
  0
LINE
  5
ACFF
330
AB3F
100
AcDbEntity
  8
1
  6
Continuous
100
AcDbLine
 10
64.033934
 20
169.7582399999998
 30
0.0
 11
61.53393399999998
 21
169.7582399999998
 31
0.0
  0
LINE
  5
AD00
330
AB3F
100
AcDbEntity
  8
1
  6
Continuous
100
AcDbLine
 10
64.033934
 20
170.350447
 30
0.0
 11
61.53393399999998
 21
170.350447
 31
0.0
  0
LINE
  5
AD01
330
AB3F
100
AcDbEntity
  8
1
  6
Continuous
100
AcDbLine
 10
62.033949
 20
170.350447
 30
0.0
 11
62.033949
 21
181.70426
 31
0.0
  0
LINE
  5
AD02
330
AB3F
100
AcDbEntity
  8
1
  6
Continuous
100
AcDbLine
 10
227.0845009999999
 20
144.9668669999998
 30
0.0
 11
224.533964
 21
144.9668669999998
 31
0.0
  0
LINE
  5
AD03
330
AB3F
100
AcDbEntity
  8
1
  6
Continuous
100
AcDbLine
 10
227.0845009999999
 20
142.680734
 30
0.0
 11
224.533964
 21
142.680734
 31
0.0
  0
LINE
  5
AD04
330
AB3F
100
AcDbEntity
  8
1
  6
Continuous
100
AcDbLine
 10
227.0845009999999
 20
142.680734
 30
0.0
 11
227.0845009999999
 21
144.9668669999998
 31
0.0
  0
LINE
  5
AD05
330
AB3F
100
AcDbEntity
  8
5
  6
PHANTOM
100
AcDbLine
 10
135.0760979999998
 20
159.174373
 30
0.0
 11
134.0645279999999
 21
159.83181
 31
0.0
  0
LINE
  5
AD06
330
AB3F
100
AcDbEntity
  8
5
  6
PHANTOM
100
AcDbLine
 10
131.533994
 20
153.7242819999999
 30
0.0
 11
130.522424
 21
154.381718
 31
0.0
  0
ARC
  5
AD07
330
AB3F
100
AcDbEntity
  8
1
  6
Continuous
100
AcDbCircle
 10
150.163652
 20
183.045815
 30
0.0
 40
37.49999199999999
100
AcDbArc
 50
196.143844
 51
226.980864
  0
LINE
  5
AD08
330
AB3F
100
AcDbEntity
  8
1
  6
Continuous
100
AcDbLine
 10
111.658235
 20
181.331459
 30
0.0
 11
130.1047989999997
 21
168.568916
 31
0.0
  0
LINE
  5
AD09
330
AB3F
100
AcDbEntity
  8
1
  6
Continuous
100
AcDbLine
 10
110.520311
 20
179.686729
 30
0.0
 11
128.9668749999999
 21
166.924202
 31
0.0
  0
LINE
  5
AD0A
330
AB3F
100
AcDbEntity
  8
1
  6
Continuous
100
AcDbLine
 10
116.2768419999999
 20
175.703987
 30
0.0
 11
114.1424119999999
 21
172.61895
 31
0.0
  0
LINE
  5
AD0B
330
AB3F
100
AcDbEntity
  8
1
  6
Continuous
100
AcDbLine
 10
110.520311
 20
179.686729
 30
0.0
 11
111.658235
 21
181.3314739999999
 31
0.0
  0
ARC
  5
AD0C
330
AB3F
100
AcDbEntity
  8
1
  6
Continuous
100
AcDbCircle
 10
132.679979
 20
146.685112
 30
0.0
 40
20.53125
100
AcDbArc
 50
24.616449
 51
86.027564
  0
ARC
  5
AD0D
330
AB3F
100
AcDbEntity
  8
1
  6
Continuous
100
AcDbCircle
 10
158.618211
 20
158.5695879999998
 30
0.0
 40
10.0
100
AcDbArc
 50
204.6164339999999
 51
235.3220140000001
  0
ARC
  5
AD0E
330
AB3F
100
AcDbEntity
  8
1
  6
Continuous
100
AcDbCircle
 10
160.5418559999999
 20
175.865501
 30
0.0
 40
37.49999199999999
100
AcDbArc
 50
243.66315
 51
274.5001359999998
  0
ARC
  5
AD0F
330
AB3F
100
AcDbEntity
  8
1
  6
Continuous
100
AcDbCircle
 10
158.618211
 20
158.5695879999998
 30
0.0
 40
8.0
100
AcDbArc
 50
204.6164339999999
 51
235.3220140000001
  0
LINE
  5
AD10
330
AB3F
100
AcDbEntity
  8
1
  6
Continuous
100
AcDbLine
 10
147.89908
 20
140.560982
 30
0.0
 11
153.713197
 21
148.964531
 31
0.0
  0
LINE
  5
AD11
330
AB3F
100
AcDbEntity
  8
1
  6
Continuous
100
AcDbLine
 10
151.530595
 20
144.9268879999999
 30
0.0
 11
160.2500779999997
 21
145.2804639999999
 31
0.0
  0
LINE
  5
AD12
330
AB3F
100
AcDbEntity
  8
1
  6
Continuous
100
AcDbLine
 10
151.652132
 20
141.929359
 30
0.0
 11
160.371629
 21
142.2829209999999
 31
0.0
  0
ARC
  5
AD13
330
AB3F
100
AcDbEntity
  8
1
  6
Continuous
100
AcDbCircle
 10
142.3622149999999
 20
160.679527
 30
0.0
 40
18.48607099999998
100
AcDbArc
 50
195.856484
 51
274.787523
  0
ARC
  5
AD14
330
AB3F
100
AcDbEntity
  8
1
  6
Continuous
100
AcDbCircle
 10
137.5339489999997
 20
147.450895
 30
0.0
 40
3.25
100
AcDbArc
 50
180.0
 51
0.0
  0
LINE
  5
AD15
330
AB3F
100
AcDbEntity
  8
1
  6
Continuous
100
AcDbLine
 10
134.283949
 20
147.450895
 30
0.0
 11
134.283949
 21
148.6573339999999
 31
0.0
  0
LINE
  5
AD16
330
AB3F
100
AcDbEntity
  8
1
  6
Continuous
100
AcDbLine
 10
140.783949
 20
147.450895
 30
0.0
 11
140.783949
 21
148.6573339999999
 31
0.0
  0
LINE
  5
AD17
330
AB3F
100
AcDbEntity
  8
1
  6
Continuous
100
AcDbLine
 10
151.9084179999999
 20
144.5770489999999
 30
0.0
 11
152.0004129999998
 21
142.30822
 31
0.0
  0
LINE
  5
AD18
330
AB3F
100
AcDbEntity
  8
1
  6
Continuous
100
AcDbLine
 10
146.2266099999999
 20
141.658821
 30
0.0
 11
152.068468
 21
150.1024699999998
 31
0.0
  0
ARC
  5
AD19
330
AB3F
100
AcDbEntity
  8
1
  6
Continuous
100
AcDbCircle
 10
137.5339489999997
 20
159.950895
 30
0.0
 40
3.25
100
AcDbArc
 50
0.0
 51
180.0
  0
ARC
  5
AD1A
330
AB3F
100
AcDbEntity
  8
1
  6
Continuous
100
AcDbCircle
 10
132.679979
 20
146.685112
 30
0.0
 40
18.53125
100
AcDbArc
 50
24.616449
 51
86.027564
  0
LINE
  5
AD1B
330
AB3F
100
AcDbEntity
  8
1
  6
Continuous
100
AcDbLine
 10
134.283949
 20
158.7444549999998
 30
0.0
 11
134.283949
 21
159.950895
 31
0.0
  0
LINE
  5
AD1C
330
AB3F
100
AcDbEntity
  8
1
  6
Continuous
100
AcDbLine
 10
129.7028489999999
 20
166.4609859999998
 30
0.0
 11
127.974443
 21
163.9628219999998
 31
0.0
  0
LINE
  5
AD1D
330
AB3F
100
AcDbEntity
  8
1
  6
Continuous
100
AcDbLine
 10
126.39191
 20
168.705729
 30
0.0
 11
124.6850299999999
 21
166.2386549999999
 31
0.0
  0
ARC
  5
AD1E
330
AB3F
100
AcDbEntity
  8
1
  6
Continuous
100
AcDbCircle
 10
134.656526
 20
175.14782
 30
0.0
 40
8.0
100
AcDbArc
 50
235.3220140000001
 51
266.0275529999998
  0
ARC
  5
AD1F
330
AB3F
100
AcDbEntity
  8
1
  6
Continuous
100
AcDbCircle
 10
134.656526
 20
175.14782
 30
0.0
 40
10.0
100
AcDbArc
 50
235.3220140000001
 51
266.0275529999998
  0
LINE
  5
AD20
330
AB3F
100
AcDbEntity
  8
1
  6
Continuous
100
AcDbLine
 10
124.6850299999999
 20
166.2386549999999
 30
0.0
 11
127.9744739999999
 21
163.962807
 31
0.0
  0
LINE
  5
AD21
330
AB3F
100
AcDbEntity
  8
1
  6
Continuous
100
AcDbLine
 10
140.783949
 20
158.7444549999998
 30
0.0
 11
140.783949
 21
159.950895
 31
0.0
  0
LINE
  5
AD22
330
AB3F
100
AcDbEntity
  8
1
  6
Continuous
100
AcDbLine
 10
154.0664839999998
 20
151.990685
 30
0.0
 11
172.5130629999999
 21
139.2281419999999
 31
0.0
  0
LINE
  5
AD23
330
AB3F
100
AcDbEntity
  8
1
  6
Continuous
100
AcDbLine
 10
152.9285449999999
 20
150.3459399999998
 30
0.0
 11
171.375124
 21
137.5833969999999
 31
0.0
  0
LINE
  5
AD24
330
AB3F
100
AcDbEntity
  8
1
  6
Continuous
100
AcDbLine
 10
165.618578
 20
141.566154
 30
0.0
 11
163.4841629999999
 21
138.4811169999997
 31
0.0
  0
LINE
  5
AD25
330
AB3F
100
AcDbEntity
  8
1
  6
Continuous
100
AcDbLine
 10
159.902544
 20
144.8838419999999
 30
0.0
 11
159.995256
 21
142.5976939999999
 31
0.0
  0
LINE
  5
AD26
330
AB3F
100
AcDbEntity
  8
1
  6
Continuous
100
AcDbLine
 10
155.890352
 20
145.103676
 30
0.0
 11
156.0119029999999
 21
142.106133
 31
0.0
  0
LINE
  5
AD27
330
AB3F
100
AcDbEntity
  8
1
  6
Continuous
100
AcDbLine
 10
171.3752299999999
 20
137.5833659999997
 30
0.0
 11
172.513155
 21
139.2280959999999
 31
0.0
  0
LINE
  5
AD28
330
AB3F
100
AcDbEntity
  8
1
  6
Continuous
100
AcDbLine
 10
300.449322
 20
141.5661509999999
 30
0.0
 11
294.6927739999998
 21
137.5833969999999
 31
0.0
  0
LINE
  5
AD29
330
AB3F
100
AcDbEntity
  8
1
  6
Continuous
100
AcDbLine
 10
304.5042199999998
 20
146.8036389999998
 30
0.0
 11
293.554834
 21
139.2281419999999
 31
0.0
  0
LINE
  5
AD2A
330
AB3F
100
AcDbEntity
  8
1
  6
Continuous
100
AcDbLine
 10
294.6926669999998
 20
137.5833659999997
 30
0.0
 11
293.5547429999998
 21
139.2280959999999
 31
0.0
  0
LINE
  5
AD2B
330
AB3F
100
AcDbEntity
  8
1
  6
Continuous
100
AcDbLine
 10
299.3113859999999
 20
143.210899
 30
0.0
 11
302.5837339999998
 21
138.4811169999997
 31
0.0
  0
ARC
  5
AD2C
330
AB3F
100
AcDbEntity
  8
1
  6
Continuous
100
AcDbCircle
 10
305.526041
 20
175.865501
 30
0.0
 40
37.49999199999999
100
AcDbArc
 50
265.499864
 51
274.835325
  0
ARC
  5
AD2D
330
AB3F
100
AcDbEntity
  8
1
  6
Continuous
100
AcDbCircle
 10
315.904245
 20
183.045815
 30
0.0
 40
37.49999199999999
100
AcDbArc
 50
334.520641
 51
343.856156
  0
LINE
  5
AD2E
330
AB3F
100
AcDbEntity
  8
1
  6
Continuous
100
AcDbLine
 10
354.409662
 20
181.331459
 30
0.0
 11
343.460263
 21
173.7559469999999
 31
0.0
  0
LINE
  5
AD2F
330
AB3F
100
AcDbEntity
  8
1
  6
Continuous
100
AcDbLine
 10
355.5475859999999
 20
179.686729
 30
0.0
 11
349.7910549999998
 21
175.7039879999999
 31
0.0
  0
LINE
  5
AD30
330
AB3F
100
AcDbEntity
  8
1
  6
Continuous
100
AcDbLine
 10
355.5475859999999
 20
179.686729
 30
0.0
 11
354.409662
 21
181.3314739999999
 31
0.0
  0
LINE
  5
AD31
330
AB3F
100
AcDbEntity
  8
1
  6
Continuous
100
AcDbLine
 10
348.6531279999999
 20
177.348711
 30
0.0
 11
351.9254849999999
 21
172.61895
 31
0.0
  0
ARC
  5
AD32
330
AB3F
100
AcDbEntity
  8
5
  6
PHANTOM
100
AcDbCircle
 10
334.580524
 20
185.070825
 30
0.0
 40
37.49999199999999
100
AcDbArc
 50
208.520364
 51
217.855825
  0
LINE
  5
AD33
330
AB3F
100
AcDbEntity
  8
5
  6
PHANTOM
100
AcDbLine
 10
306.731375
 20
171.29023
 30
0.0
 11
297.3374119999998
 21
175.1432619999999
 31
0.0
  0
LINE
  5
AD34
330
AB3F
100
AcDbEntity
  8
5
  6
PHANTOM
100
AcDbLine
 10
303.054851
 20
170.6364739999999
 30
0.0
 11
296.5784409999999
 21
173.2928409999999
 31
0.0
  0
LINE
  5
AD35
330
AB3F
100
AcDbEntity
  8
5
  6
PHANTOM
100
AcDbLine
 10
303.813827
 20
172.4868929999999
 30
0.0
 11
301.63125
 21
167.165666
 31
0.0
  0
LINE
  5
AD36
330
AB3F
100
AcDbEntity
  8
5
  6
PHANTOM
100
AcDbLine
 10
296.5783569999998
 20
173.2929139999999
 30
0.0
 11
297.337323
 21
175.143314
 31
0.0
  0
LINE
  5
AD37
330
AB3F
100
AcDbEntity
  8
5
  6
PHANTOM
100
AcDbLine
 10
365.043225
 20
145.2113139999999
 30
0.0
 11
365.802204
 21
147.061721
 31
0.0
  0
LINE
  5
AD38
330
AB3F
100
AcDbEntity
  8
5
  6
PHANTOM
100
AcDbLine
 10
365.8021909999998
 20
147.0617129999999
 30
0.0
 11
353.483554
 21
152.114325
 31
0.0
  0
ARC
  5
AD39
330
AB3F
100
AcDbEntity
  8
5
  6
PHANTOM
100
AcDbCircle
 10
346.25653
 20
180.281787
 30
0.0
 40
37.49999199999999
100
AcDbArc
 50
277.5411409999999
 51
286.876656
  0
LINE
  5
AD3A
330
AB3F
100
AcDbEntity
  8
5
  6
PHANTOM
100
AcDbLine
 10
365.043225
 20
145.2113139999999
 30
0.0
 11
358.5668339999998
 21
147.867674
 31
0.0
  0
LINE
  5
AD3B
330
AB3F
100
AcDbEntity
  8
5
  6
PHANTOM
100
AcDbLine
 10
359.3257939999999
 20
149.718072
 30
0.0
 11
357.1432399999998
 21
144.396848
 31
0.0
  0
ARC
  5
AD3C
330
AB3F
100
AcDbEntity
  8
5
  6
PHANTOM
100
AcDbCircle
 10
108.129706
 20
268.681868
 30
0.0
 40
7.454571999999997
100
AcDbArc
 50
222.774274
 51
270.0
  0
ARC
  5
AD3D
330
AB3F
100
AcDbEntity
  8
5
  6
PHANTOM
100
AcDbCircle
 10
109.259683
 20
269.727296
 30
0.0
 40
8.993976999999997
100
AcDbArc
 50
137.225726
 51
222.774274
  0
ARC
  5
AD3E
330
AB3F
100
AcDbEntity
  8
5
  6
PHANTOM
100
AcDbCircle
 10
108.129706
 20
270.772724
 30
0.0
 40
7.454571999999997
100
AcDbArc
 50
111.3018899999999
 51
137.225726
  0
LINE
  5
AD3F
330
AB3F
100
AcDbEntity
  8
5
  6
PHANTOM
100
AcDbLine
 10
118.0793669999999
 20
261.227296
 30
0.0
 11
108.129706
 21
261.227296
 31
0.0
  0
ARC
  5
AD40
330
AB3F
100
AcDbEntity
  8
5
  6
PHANTOM
100
AcDbCircle
 10
109.259683
 20
90.67449299999998
 30
0.0
 40
8.993976999999997
100
AcDbArc
 50
137.225726
 51
222.774274
  0
ARC
  5
AD41
330
AB3F
100
AcDbEntity
  8
5
  6
PHANTOM
100
AcDbCircle
 10
108.129706
 20
89.62906499999998
 30
0.0
 40
7.454571999999997
100
AcDbArc
 50
222.774274
 51
248.69811
  0
ARC
  5
AD42
330
AB3F
100
AcDbEntity
  8
5
  6
PHANTOM
100
AcDbCircle
 10
108.129706
 20
91.71992100000002
 30
0.0
 40
7.454571999999997
100
AcDbArc
 50
90.0
 51
137.225726
  0
LINE
  5
AD43
330
AB3F
100
AcDbEntity
  8
5
  6
PHANTOM
100
AcDbLine
 10
118.0793679999997
 20
99.17449300000001
 30
0.0
 11
108.129706
 21
99.17449300000001
 31
0.0
  0
LINE
  5
AD44
330
AB3F
100
AcDbEntity
  8
1
  6
Continuous
100
AcDbLine
 10
121.5339489999997
 20
54.20089499999999
 30
0.0
 11
153.533949
 21
54.20089499999999
 31
0.0
  0
LINE
  5
AD45
330
AB3F
100
AcDbEntity
  8
1
  6
Continuous
100
AcDbLine
 10
153.533949
 20
54.20089499999999
 30
0.0
 11
153.533949
 21
55.200895
 31
0.0
  0
LINE
  5
AD46
330
AB3F
100
AcDbEntity
  8
1
  6
Continuous
100
AcDbLine
 10
121.5339489999997
 20
54.20089499999999
 30
0.0
 11
121.5339489999997
 21
55.200895
 31
0.0
  0
ARC
  5
AD47
330
AB3F
100
AcDbEntity
  8
1
  6
Continuous
100
AcDbCircle
 10
137.5339489999997
 20
153.700895
 30
0.0
 40
18.0
100
AcDbArc
 50
125.850787
 51
134.846722
  0
CIRCLE
  5
AD48
330
AB3F
100
AcDbEntity
  8
1
  6
Continuous
100
AcDbCircle
 10
328.533949
 20
153.700895
 30
0.0
 40
2.25
  0
CIRCLE
  5
AD49
330
AB3F
100
AcDbEntity
  8
1
  6
Continuous
100
AcDbCircle
 10
328.533949
 20
153.700895
 30
0.0
 40
4.75
  0
CIRCLE
  5
AD4A
330
AB3F
100
AcDbEntity
  8
1
  6
Continuous
100
AcDbCircle
 10
137.5339489999997
 20
153.700895
 30
0.0
 40
6.0
  0
LINE
  5
AD4B
330
AB3F
100
AcDbEntity
  8
1
  6
Continuous
100
AcDbLine
 10
134.4339479999999
 20
86.600879
 30
0.0
 11
140.6339479999997
 21
86.60088
 31
0.0
  0
LINE
  5
AD4C
330
AB3F
100
AcDbEntity
  8
1
  6
Continuous
100
AcDbLine
 10
143.533949
 20
83.70088
 30
0.0
 11
143.533949
 21
83.70088
 31
0.0
  0
LINE
  5
AD4D
330
AB3F
100
AcDbEntity
  8
1
  6
Continuous
100
AcDbLine
 10
131.533949
 20
83.70087899999999
 30
0.0
 11
131.533949
 21
83.70087899999999
 31
0.0
  0
ARC
  5
AD4E
330
AB3F
100
AcDbEntity
  8
1
  6
Continuous
100
AcDbCircle
 10
140.633949
 20
83.70088
 30
0.0
 40
2.9
100
AcDbArc
 50
0.0
 51
90.00000500000002
  0
ARC
  5
AD4F
330
AB3F
100
AcDbEntity
  8
1
  6
Continuous
100
AcDbCircle
 10
134.433949
 20
83.70087899999999
 30
0.0
 40
2.9
100
AcDbArc
 50
90.00000500000002
 51
180.0
  0
LINE
  5
AD50
330
AB3F
100
AcDbEntity
  8
1
  6
Continuous
100
AcDbLine
 10
140.783949
 20
48.70091
 30
0.0
 11
134.283949
 21
48.70091
 31
0.0
  0
LINE
  5
AD51
330
AB3F
100
AcDbEntity
  8
1
  6
Continuous
100
AcDbLine
 10
132.783949
 20
50.20091
 30
0.0
 11
132.783949
 21
50.20091
 31
0.0
  0
LINE
  5
AD52
330
AB3F
100
AcDbEntity
  8
1
  6
Continuous
100
AcDbLine
 10
142.283949
 20
50.20091
 30
0.0
 11
142.283949
 21
50.20091
 31
0.0
  0
ARC
  5
AD53
330
AB3F
100
AcDbEntity
  8
1
  6
Continuous
100
AcDbCircle
 10
140.783949
 20
50.20091
 30
0.0
 40
1.5
100
AcDbArc
 50
270.0
 51
0.0
  0
ARC
  5
AD54
330
AB3F
100
AcDbEntity
  8
1
  6
Continuous
100
AcDbCircle
 10
134.283949
 20
50.20091
 30
0.0
 40
1.5
100
AcDbArc
 50
180.0
 51
270.0
  0
LINE
  5
AD55
330
AB3F
100
AcDbEntity
  8
1
  6
Continuous
100
AcDbLine
 10
70.43393399999998
 20
150.600895
 30
0.0
 11
70.43393399999998
 21
156.800895
 31
0.0
  0
LINE
  5
AD56
330
AB3F
100
AcDbEntity
  8
1
  6
Continuous
100
AcDbLine
 10
67.533934
 20
159.700895
 30
0.0
 11
67.533934
 21
159.700895
 31
0.0
  0
LINE
  5
AD57
330
AB3F
100
AcDbEntity
  8
1
  6
Continuous
100
AcDbLine
 10
67.533934
 20
147.700895
 30
0.0
 11
67.533934
 21
147.700895
 31
0.0
  0
ARC
  5
AD58
330
AB3F
100
AcDbEntity
  8
1
  6
Continuous
100
AcDbCircle
 10
67.533934
 20
156.800895
 30
0.0
 40
2.9
100
AcDbArc
 50
0.0
 51
90.0
  0
ARC
  5
AD59
330
AB3F
100
AcDbEntity
  8
1
  6
Continuous
100
AcDbCircle
 10
67.533934
 20
150.600895
 30
0.0
 40
2.9
100
AcDbArc
 50
270.0
 51
0.0
  0
LINE
  5
AD5A
330
AB3F
100
AcDbEntity
  8
1
  6
Continuous
100
AcDbLine
 10
32.53396399999999
 20
150.4508949999998
 30
0.0
 11
32.53396399999999
 21
156.950895
 31
0.0
  0
LINE
  5
AD5B
330
AB3F
100
AcDbEntity
  8
1
  6
Continuous
100
AcDbLine
 10
34.033964
 20
158.450895
 30
0.0
 11
34.033964
 21
158.450895
 31
0.0
  0
LINE
  5
AD5C
330
AB3F
100
AcDbEntity
  8
1
  6
Continuous
100
AcDbLine
 10
34.033964
 20
148.950895
 30
0.0
 11
34.033964
 21
148.950895
 31
0.0
  0
ARC
  5
AD5D
330
AB3F
100
AcDbEntity
  8
1
  6
Continuous
100
AcDbCircle
 10
34.033964
 20
156.950895
 30
0.0
 40
1.5
100
AcDbArc
 50
90.0
 51
180.0
  0
ARC
  5
AD5E
330
AB3F
100
AcDbEntity
  8
1
  6
Continuous
100
AcDbCircle
 10
34.033964
 20
150.4508949999998
 30
0.0
 40
1.5
100
AcDbArc
 50
180.0
 51
270.0
  0
LINE
  5
AD5F
330
AB3F
100
AcDbEntity
  8
1
  6
Continuous
100
AcDbLine
 10
257.5339339999998
 20
156.950895
 30
0.0
 11
257.5339339999998
 21
150.4508949999998
 31
0.0
  0
ARC
  5
AD60
330
AB3F
100
AcDbEntity
  8
1
  6
Continuous
100
AcDbCircle
 10
256.033934
 20
150.4508949999998
 30
0.0
 40
1.5
100
AcDbArc
 50
270.0
 51
0.0
  0
LINE
  5
AD61
330
AB3F
100
AcDbEntity
  8
1
  6
Continuous
100
AcDbLine
 10
256.033934
 20
148.950895
 30
0.0
 11
256.033934
 21
148.950895
 31
0.0
  0
ARC
  5
AD62
330
AB3F
100
AcDbEntity
  8
1
  6
Continuous
100
AcDbCircle
 10
256.033934
 20
156.950895
 30
0.0
 40
1.5
100
AcDbArc
 50
0.0
 51
20.837593
  0
CIRCLE
  5
AD65
330
AB3F
100
AcDbEntity
  8
1
  6
Continuous
100
AcDbCircle
 10
158.533949
 20
295.200895
 30
0.0
 40
16.3
  0
ARC
  5
AD66
330
AB3F
100
AcDbEntity
  8
1
  6
Continuous
100
AcDbCircle
 10
158.533949
 20
295.200895
 30
0.0
 40
19.0
100
AcDbArc
 50
235.6988470000001
 51
124.301153
  0
LINE
  5
AD67
330
AB3F
100
AcDbEntity
  8
1
  6
Continuous
100
AcDbLine
 10
150.163949
 20
301.3184729999998
 30
0.0
 11
157.4027309999999
 21
305.4977859999999
 31
0.0
  0
CIRCLE
  5
AD68
330
AB3F
100
AcDbEntity
  8
2
  6
Continuous
100
AcDbCircle
 10
158.533949
 20
295.200895
 30
0.0
 40
5.052999999999999
  0
CIRCLE
  5
AD69
330
AB3F
100
AcDbEntity
  8
1
  6
Continuous
100
AcDbCircle
 10
158.533949
 20
295.200895
 30
0.0
 40
6.0
  0
CIRCLE
  5
AD6A
330
AB3F
100
AcDbEntity
  8
1
  6
Continuous
100
AcDbCircle
 10
158.533949
 20
295.200895
 30
0.0
 40
4.0
  0
LINE
  5
AD6B
330
AB3F
100
AcDbEntity
  8
1
  6
Continuous
100
AcDbLine
 10
150.163949
 20
289.083316
 30
0.0
 11
157.4027309999999
 21
284.9040029999999
 31
0.0
  0
CIRCLE
  5
AD6C
330
AB3F
100
AcDbEntity
  8
1
  6
Continuous
100
AcDbCircle
 10
158.533949
 20
295.200895
 30
0.0
 40
13.8
  0
ARC
  5
AD6E
330
AB3F
100
AcDbEntity
  8
1
  6
Continuous
100
AcDbCircle
 10
151.2939489999999
 20
291.040534
 30
0.0
 40
2.259999999999998
100
AcDbArc
 50
180.0
 51
239.9999999999999
  0
ARC
  5
AD6F
330
AB3F
100
AcDbEntity
  8
1
  6
Continuous
100
AcDbCircle
 10
178.359046
 20
295.200895
 30
0.0
 40
46.925106
100
AcDbArc
 50
161.3577379999999
 51
198.6422619999999
  0
ARC
  5
AD70
330
AB3F
100
AcDbEntity
  8
1
  6
Continuous
100
AcDbCircle
 10
158.533949
 20
295.200895
 30
0.0
 40
19.0
100
AcDbArc
 50
136.4579239999999
 51
222.873929
  0
LINE
  5
AD71
330
AB3F
100
AcDbEntity
  8
1
  6
Continuous
100
AcDbLine
 10
145.5724669999999
 20
280.200895
 30
0.0
 11
130.8193039999999
 21
280.200895
 31
0.0
  0
LINE
  5
AD72
330
AB3F
100
AcDbEntity
  8
1
  6
Continuous
100
AcDbLine
 10
133.2706269999998
 20
282.200895
 30
0.0
 11
130.8193039999999
 21
282.200895
 31
0.0
  0
ARC
  5
AD73
330
AB3F
100
AcDbEntity
  8
1
  6
Continuous
100
AcDbCircle
 10
145.5724669999999
 20
276.200895
 30
0.0
 40
4.0
100
AcDbArc
 50
55.69884700000001
 51
90.0
  0
LINE
  5
AD74
330
AB3F
100
AcDbEntity
  8
1
  6
Continuous
100
AcDbLine
 10
145.5724669999999
 20
310.200895
 30
0.0
 11
130.534663
 21
310.200895
 31
0.0
  0
LINE
  5
AD75
330
AB3F
100
AcDbEntity
  8
1
  6
Continuous
100
AcDbLine
 10
133.2706269999998
 20
308.200895
 30
0.0
 11
130.534663
 21
308.200895
 31
0.0
  0
LINE
  5
AD76
330
AB3F
100
AcDbEntity
  8
1
  6
Continuous
100
AcDbLine
 10
130.534663
 20
308.200895
 30
0.0
 11
130.534663
 21
309.7716759999999
 31
0.0
  0
ARC
  5
AD77
330
AB3F
100
AcDbEntity
  8
1
  6
Continuous
100
AcDbCircle
 10
145.5724669999999
 20
314.200895
 30
0.0
 40
4.0
100
AcDbArc
 50
270.0
 51
304.301153
  0
LINE
  5
AD78
330
AB3F
100
AcDbEntity
  8
1
  6
Continuous
100
AcDbLine
 10
149.033949
 20
291.040534
 30
0.0
 11
149.033949
 21
299.3612549999998
 31
0.0
  0
ARC
  5
AD79
330
AB3F
100
AcDbEntity
  8
1
  6
Continuous
100
AcDbCircle
 10
151.2939489999999
 20
299.3612549999998
 30
0.0
 40
2.259999999999998
100
AcDbArc
 50
119.9999999999999
 51
180.0
  0
ARC
  5
AD7A
330
AB3F
100
AcDbEntity
  8
1
  6
Continuous
100
AcDbCircle
 10
165.7739489999999
 20
291.040534
 30
0.0
 40
2.259999999999998
100
AcDbArc
 50
300.0
 51
0.0
  0
ARC
  5
AD7B
330
AB3F
100
AcDbEntity
  8
1
  6
Continuous
100
AcDbCircle
 10
158.533949
 20
286.8633299999999
 30
0.0
 40
2.262436
100
AcDbArc
 50
239.9999999999999
 51
300.0
  0
LINE
  5
AD7C
330
AB3F
100
AcDbEntity
  8
1
  6
Continuous
100
AcDbLine
 10
159.665166
 20
284.9040029999999
 30
0.0
 11
166.903949
 21
289.083316
 31
0.0
  0
LINE
  5
AD7D
330
AB3F
100
AcDbEntity
  8
1
  6
Continuous
100
AcDbLine
 10
168.033949
 20
291.040534
 30
0.0
 11
168.033949
 21
299.3612549999998
 31
0.0
  0
LINE
  5
AD7E
330
AB3F
100
AcDbEntity
  8
1
  6
Continuous
100
AcDbLine
 10
159.665166
 20
305.4977859999999
 30
0.0
 11
166.903949
 21
301.3184729999998
 31
0.0
  0
ARC
  5
AD7F
330
AB3F
100
AcDbEntity
  8
1
  6
Continuous
100
AcDbCircle
 10
165.7739489999999
 20
299.3612549999998
 30
0.0
 40
2.259999999999998
100
AcDbArc
 50
0.0
 51
60.0
  0
ARC
  5
AD80
330
AB3F
100
AcDbEntity
  8
1
  6
Continuous
100
AcDbCircle
 10
158.533949
 20
303.538459
 30
0.0
 40
2.262436
100
AcDbArc
 50
60.0
 51
119.9999999999999
  0
LINE
  5
AD81
330
AB3F
100
AcDbEntity
  8
2
  6
Continuous
100
AcDbLine
 10
302.4809489999999
 20
230.647895
 30
0.0
 11
302.4809489999999
 21
198.341147
 31
0.0
  0
LINE
  5
AD82
330
AB3F
100
AcDbEntity
  8
2
  6
Continuous
100
AcDbLine
 10
312.5869489999999
 20
230.647895
 30
0.0
 11
312.5869489999999
 21
198.341147
 31
0.0
  0
LINE
  5
AD83
330
AB3F
100
AcDbEntity
  8
1
  6
Continuous
100
AcDbLine
 10
313.533949
 20
229.700895
 30
0.0
 11
313.533949
 21
196.700895
 31
0.0
  0
LINE
  5
AD84
330
AB3F
100
AcDbEntity
  8
1
  6
Continuous
100
AcDbLine
 10
301.533949
 20
229.700895
 30
0.0
 11
301.533949
 21
196.700895
 31
0.0
  0
LINE
  5
AD85
330
AB3F
100
AcDbEntity
  8
1
  6
Continuous
100
AcDbLine
 10
323.833952
 20
188.400892
 30
0.0
 11
291.233946
 21
188.400892
 31
0.0
  0
LINE
  5
AD86
330
AB3F
100
AcDbEntity
  8
1
  6
Continuous
100
AcDbLine
 10
307.533949
 20
188.400892
 30
0.0
 11
291.233946
 21
188.400892
 31
0.0
  0
LINE
  5
AD87
330
AB3F
100
AcDbEntity
  8
1
  6
Continuous
100
AcDbLine
 10
321.333947
 20
192.50089
 30
0.0
 11
293.733946
 21
192.50089
 31
0.0
  0
LINE
  5
AD88
330
AB3F
100
AcDbEntity
  8
1
  6
Continuous
100
AcDbLine
 10
298.033949
 20
196.700895
 30
0.0
 11
317.0339489999999
 21
196.700895
 31
0.0
  0
LINE
  5
AD89
330
AB3F
100
AcDbEntity
  8
1
  6
Continuous
100
AcDbLine
 10
301.533949
 20
198.341147
 30
0.0
 11
313.533949
 21
198.341147
 31
0.0
  0
LINE
  5
AD8A
330
AB3F
100
AcDbEntity
  8
1
  6
Continuous
100
AcDbLine
 10
323.833952
 20
190.0008899999999
 30
0.0
 11
291.233946
 21
190.0008899999999
 31
0.0
  0
LINE
  5
AD8B
330
AB3F
100
AcDbEntity
  8
1
  6
Continuous
100
AcDbLine
 10
291.233946
 20
190.0008899999999
 30
0.0
 11
291.233946
 21
188.400892
 31
0.0
  0
ARC
  5
AD8C
330
AB3F
100
AcDbEntity
  8
1
  6
Continuous
100
AcDbCircle
 10
301.533949
 20
194.450895
 30
0.0
 40
3.0
100
AcDbArc
 50
131.4096399999999
 51
220.5416599999999
  0
LINE
  5
AD8D
330
AB3F
100
AcDbEntity
  8
1
  6
Continuous
100
AcDbLine
 10
298.033949
 20
196.700895
 30
0.0
 11
298.033949
 21
192.50089
 31
0.0
  0
LINE
  5
AD8E
330
AB3F
100
AcDbEntity
  8
2
  6
Continuous
100
AcDbLine
 10
302.4809489999999
 20
198.341147
 30
0.0
 11
301.533949
 21
196.700895
 31
0.0
  0
ARC
  5
AD8F
330
AB3F
100
AcDbEntity
  8
1
  6
Continuous
100
AcDbCircle
 10
291.233946
 20
190.3008899999999
 30
0.0
 40
0.3
100
AcDbArc
 50
270.00002
 51
342.9964799999999
  0
ARC
  5
AD90
330
AB3F
100
AcDbEntity
  8
1
  6
Continuous
100
AcDbCircle
 10
294.8678419999998
 20
189.1896529999999
 30
0.0
 40
3.5
100
AcDbArc
 50
108.9031
 51
162.9964699999999
  0
ARC
  5
AD91
330
AB3F
100
AcDbEntity
  8
1
  6
Continuous
100
AcDbCircle
 10
320.200056
 20
189.1896529999999
 30
0.0
 40
3.5
100
AcDbArc
 50
17.003496
 51
71.09685999999998
  0
ARC
  5
AD92
330
AB3F
100
AcDbEntity
  8
1
  6
Continuous
100
AcDbCircle
 10
313.533949
 20
194.450895
 30
0.0
 40
3.0
100
AcDbArc
 50
319.45831
 51
48.590321
  0
LINE
  5
AD93
330
AB3F
100
AcDbEntity
  8
1
  6
Continuous
100
AcDbLine
 10
317.0339489999999
 20
196.700895
 30
0.0
 11
317.0339489999999
 21
192.50089
 31
0.0
  0
LINE
  5
AD94
330
AB3F
100
AcDbEntity
  8
2
  6
Continuous
100
AcDbLine
 10
312.5869489999999
 20
198.341147
 30
0.0
 11
313.533949
 21
196.700895
 31
0.0
  0
ARC
  5
AD95
330
AB3F
100
AcDbEntity
  8
1
  6
Continuous
100
AcDbCircle
 10
303.533949
 20
194.450895
 30
0.0
 40
3.5
100
AcDbArc
 50
326.14148
 51
40.005173
  0
ARC
  5
AD96
330
AB3F
100
AcDbEntity
  8
1
  6
Continuous
100
AcDbCircle
 10
311.533949
 20
194.450895
 30
0.0
 40
3.5
100
AcDbArc
 50
139.9947899999999
 51
213.8584799999999
  0
LINE
  5
AD97
330
AB3F
100
AcDbEntity
  8
1
  6
Continuous
100
AcDbLine
 10
323.833952
 20
190.0008899999999
 30
0.0
 11
323.833952
 21
188.400892
 31
0.0
  0
ARC
  5
AD98
330
AB3F
100
AcDbEntity
  8
1
  6
Continuous
100
AcDbCircle
 10
323.833952
 20
190.3008899999999
 30
0.0
 40
0.3
100
AcDbArc
 50
197.00351
 51
269.9999599999998
  0
LINE
  5
AD99
330
AB3F
100
AcDbEntity
  8
1
  6
Continuous
100
AcDbLine
 10
301.533949
 20
229.700895
 30
0.0
 11
313.533949
 21
229.700895
 31
0.0
  0
LINE
  5
AD9A
330
AB3F
100
AcDbEntity
  8
1
  6
Continuous
100
AcDbLine
 10
303.533949
 20
231.700895
 30
0.0
 11
311.533949
 21
231.700895
 31
0.0
  0
LINE
  5
AD9B
330
AB3F
100
AcDbEntity
  8
1
  6
Continuous
100
AcDbLine
 10
303.533949
 20
231.700895
 30
0.0
 11
301.533949
 21
229.700895
 31
0.0
  0
LINE
  5
AD9C
330
AB3F
100
AcDbEntity
  8
1
  6
Continuous
100
AcDbLine
 10
311.533949
 20
231.700895
 30
0.0
 11
313.533949
 21
229.700895
 31
0.0
  0
LINE
  5
AD9D
330
AB3F
100
AcDbEntity
  8
2
  6
Continuous
100
AcDbLine
 10
246.086949
 20
230.647895
 30
0.0
 11
246.086949
 21
198.341147
 31
0.0
  0
LINE
  5
AD9E
330
AB3F
100
AcDbEntity
  8
2
  6
Continuous
100
AcDbLine
 10
235.9809489999999
 20
230.647895
 30
0.0
 11
235.9809489999999
 21
198.341147
 31
0.0
  0
LINE
  5
AD9F
330
AB3F
100
AcDbEntity
  8
1
  6
Continuous
100
AcDbLine
 10
247.033949
 20
229.700895
 30
0.0
 11
247.033949
 21
196.700895
 31
0.0
  0
LINE
  5
ADA0
330
AB3F
100
AcDbEntity
  8
1
  6
Continuous
100
AcDbLine
 10
235.033949
 20
229.700895
 30
0.0
 11
235.033949
 21
196.700895
 31
0.0
  0
LINE
  5
ADA1
330
AB3F
100
AcDbEntity
  8
1
  6
Continuous
100
AcDbLine
 10
257.333952
 20
188.400892
 30
0.0
 11
224.733946
 21
188.400892
 31
0.0
  0
LINE
  5
ADA2
330
AB3F
100
AcDbEntity
  8
1
  6
Continuous
100
AcDbLine
 10
231.2197859999999
 20
196.700895
 30
0.0
 11
250.8481119999999
 21
196.700895
 31
0.0
  0
LINE
  5
ADA3
330
AB3F
100
AcDbEntity
  8
1
  6
Continuous
100
AcDbLine
 10
227.23395
 20
192.50089
 30
0.0
 11
254.833952
 21
192.50089
 31
0.0
  0
LINE
  5
ADA4
330
AB3F
100
AcDbEntity
  8
1
  6
Continuous
100
AcDbLine
 10
257.333952
 20
190.0008899999999
 30
0.0
 11
224.733946
 21
190.0008899999999
 31
0.0
  0
LINE
  5
ADA5
330
AB3F
100
AcDbEntity
  8
1
  6
Continuous
100
AcDbLine
 10
224.733946
 20
190.0008899999999
 30
0.0
 11
224.733946
 21
188.400892
 31
0.0
  0
ARC
  5
ADA6
330
AB3F
100
AcDbEntity
  8
1
  6
Continuous
100
AcDbCircle
 10
224.733946
 20
190.3008899999999
 30
0.0
 40
0.3
100
AcDbArc
 50
270.00002
 51
342.9964799999999
  0
ARC
  5
ADA7
330
AB3F
100
AcDbEntity
  8
1
  6
Continuous
100
AcDbCircle
 10
228.367842
 20
189.1896529999999
 30
0.0
 40
3.5
100
AcDbArc
 50
108.9031
 51
162.9964699999999
  0
ARC
  5
ADA8
330
AB3F
100
AcDbEntity
  8
1
  6
Continuous
100
AcDbCircle
 10
231.2197859999999
 20
196.2008949999997
 30
0.0
 40
0.5
100
AcDbArc
 50
89.99998199999996
 51
161.44681
  0
ARC
  5
ADA9
330
AB3F
100
AcDbEntity
  8
1
  6
Continuous
100
AcDbCircle
 10
236.4339509999997
 20
194.450895
 30
0.0
 40
6.0
100
AcDbArc
 50
161.4469
 51
198.96558
  0
ARC
  5
ADAA
330
AB3F
100
AcDbEntity
  8
1
  6
Continuous
100
AcDbCircle
 10
250.410124
 20
194.450895
 30
0.0
 40
3.5
100
AcDbArc
 50
139.99477
 51
213.8584799999999
  0
ARC
  5
ADAB
330
AB3F
100
AcDbEntity
  8
1
  6
Continuous
100
AcDbCircle
 10
242.2360779999999
 20
194.450895
 30
0.0
 40
3.5
100
AcDbArc
 50
326.14148
 51
40.005224
  0
LINE
  5
ADAC
330
AB3F
100
AcDbEntity
  8
2
  6
Continuous
100
AcDbLine
 10
246.086949
 20
198.341147
 30
0.0
 11
247.033949
 21
196.700895
 31
0.0
  0
ARC
  5
ADAD
330
AB3F
100
AcDbEntity
  8
1
  6
Continuous
100
AcDbCircle
 10
231.657774
 20
194.450895
 30
0.0
 40
3.5
100
AcDbArc
 50
326.14148
 51
40.005169
  0
ARC
  5
ADAE
330
AB3F
100
AcDbEntity
  8
1
  6
Continuous
100
AcDbCircle
 10
239.831823
 20
194.450895
 30
0.0
 40
3.5
100
AcDbArc
 50
139.99471
 51
213.8584799999999
  0
LINE
  5
ADAF
330
AB3F
100
AcDbEntity
  8
2
  6
Continuous
100
AcDbLine
 10
235.9809489999999
 20
198.341147
 30
0.0
 11
235.033949
 21
196.700895
 31
0.0
  0
LINE
  5
ADB0
330
AB3F
100
AcDbEntity
  8
1
  6
Continuous
100
AcDbLine
 10
235.033949
 20
198.341147
 30
0.0
 11
247.033949
 21
198.341147
 31
0.0
  0
LINE
  5
ADB1
330
AB3F
100
AcDbEntity
  8
1
  6
Continuous
100
AcDbLine
 10
257.333952
 20
190.0008899999999
 30
0.0
 11
257.333952
 21
188.400892
 31
0.0
  0
ARC
  5
ADB2
330
AB3F
100
AcDbEntity
  8
1
  6
Continuous
100
AcDbCircle
 10
257.333952
 20
190.3008899999999
 30
0.0
 40
0.3
100
AcDbArc
 50
197.00351
 51
269.9999599999998
  0
ARC
  5
ADB3
330
AB3F
100
AcDbEntity
  8
1
  6
Continuous
100
AcDbCircle
 10
250.8481119999999
 20
196.2008949999997
 30
0.0
 40
0.5
100
AcDbArc
 50
18.55312999999998
 51
89.99996800000003
  0
ARC
  5
ADB4
330
AB3F
100
AcDbEntity
  8
1
  6
Continuous
100
AcDbCircle
 10
245.633947
 20
194.450895
 30
0.0
 40
6.0
100
AcDbArc
 50
341.03438
 51
18.553034
  0
ARC
  5
ADB5
330
AB3F
100
AcDbEntity
  8
1
  6
Continuous
100
AcDbCircle
 10
253.700056
 20
189.1896529999999
 30
0.0
 40
3.5
100
AcDbArc
 50
17.003496
 51
71.09685999999998
  0
LINE
  5
ADB6
330
AB3F
100
AcDbEntity
  8
1
  6
Continuous
100
AcDbLine
 10
245.0339490000001
 20
231.700895
 30
0.0
 11
247.033949
 21
229.700895
 31
0.0
  0
LINE
  5
ADB7
330
AB3F
100
AcDbEntity
  8
1
  6
Continuous
100
AcDbLine
 10
237.033949
 20
231.700895
 30
0.0
 11
235.033949
 21
229.700895
 31
0.0
  0
LINE
  5
ADB8
330
AB3F
100
AcDbEntity
  8
1
  6
Continuous
100
AcDbLine
 10
235.033949
 20
229.700895
 30
0.0
 11
247.033949
 21
229.700895
 31
0.0
  0
LINE
  5
ADB9
330
AB3F
100
AcDbEntity
  8
1
  6
Continuous
100
AcDbLine
 10
237.033949
 20
231.700895
 30
0.0
 11
245.0339490000001
 21
231.700895
 31
0.0
  0
LINE
  5
ADBA
330
AB3F
100
AcDbEntity
  8
1
  6
Continuous
100
AcDbLine
 10
132.0727369999999
 20
270.1009029999998
 30
0.0
 11
122.96176
 21
262.968518
 31
0.0
  0
LINE
  5
ADBB
330
AB3F
100
AcDbEntity
  8
1
  6
Continuous
100
AcDbLine
 10
152.098601
 20
270.1009189999999
 30
0.0
 11
160.724562
 21
262.006116
 31
0.0
  0
LINE
  5
ADBC
330
AB3F
100
AcDbEntity
  8
1
  6
Continuous
100
AcDbLine
 10
149.399291
 20
271.5661589999999
 30
0.0
 11
160.855788
 21
260.815106
 31
0.0
  0
LINE
  5
ADBD
330
AB3F
100
AcDbEntity
  8
1
  6
Continuous
100
AcDbLine
 10
152.098601
 20
270.1009029999998
 30
0.0
 11
152.098601
 21
277.323918
 31
0.0
  0
LINE
  5
ADBE
330
AB3F
100
AcDbEntity
  8
1
  6
Continuous
100
AcDbLine
 10
130.8193039999999
 20
277.70152
 30
0.0
 11
130.8193039999999
 21
282.70091
 31
0.0
  0
LINE
  5
ADBF
330
AB3F
100
AcDbEntity
  8
1
  6
Continuous
100
AcDbLine
 10
127.52986
 20
277.70152
 30
0.0
 11
127.52986
 21
282.70091
 31
0.0
  0
LINE
  5
ADC0
330
AB3F
100
AcDbEntity
  8
1
  6
Continuous
100
AcDbLine
 10
130.8193039999999
 20
282.70091
 30
0.0
 11
126.391936
 21
282.70091
 31
0.0
  0
LINE
  5
ADC1
330
AB3F
100
AcDbEntity
  8
1
  6
Continuous
100
AcDbLine
 10
125.52986
 20
280.20091
 30
0.0
 11
114.142424
 21
280.20091
 31
0.0
  0
LINE
  5
ADC2
330
AB3F
100
AcDbEntity
  8
1
  6
Continuous
100
AcDbLine
 10
131.3713979999999
 20
269.551862
 30
0.0
 11
122.96176
 21
262.968518
 31
0.0
  0
LINE
  5
ADC3
330
AB3F
100
AcDbEntity
  8
1
  6
Continuous
100
AcDbLine
 10
117.4147779999999
 20
278.20091
 30
0.0
 11
114.142424
 21
278.20091
 31
0.0
  0
LINE
  5
ADC4
330
AB3F
100
AcDbEntity
  8
1
  6
Continuous
100
AcDbLine
 10
114.142424
 20
280.20091
 30
0.0
 11
114.142424
 21
278.20091
 31
0.0
  0
LINE
  5
ADC5
330
AB3F
100
AcDbEntity
  8
1
  6
Continuous
100
AcDbLine
 10
166.7565449999998
 20
276.70091
 30
0.0
 11
166.7565449999998
 21
276.575864
 31
0.0
  0
LINE
  5
ADC6
330
AB3F
100
AcDbEntity
  8
1
  6
Continuous
100
AcDbLine
 10
126.391936
 20
282.70091
 30
0.0
 11
126.391936
 21
280.005582
 31
0.0
  0
ARC
  5
ADC7
330
AB3F
100
AcDbEntity
  8
1
  6
Continuous
100
AcDbCircle
 10
120.371962
 20
269.70091
 30
0.0
 40
9.851650999999996
100
AcDbArc
 50
140.567329
 51
219.432668
  0
ARC
  5
ADC8
330
AB3F
100
AcDbEntity
  8
1
  6
Continuous
100
AcDbCircle
 10
117.510405
 20
272.0541509999998
 30
0.0
 40
6.146760999999997
100
AcDbArc
 50
90.89140399999999
 51
140.567329
  0
ARC
  5
ADC9
330
AB3F
100
AcDbEntity
  8
1
  6
Continuous
100
AcDbCircle
 10
117.510405
 20
267.347669
 30
0.0
 40
6.146760999999997
100
AcDbArc
 50
219.4326709999999
 51
275.311064
  0
ARC
  5
ADCA
330
AB3F
100
AcDbEntity
  8
1
  6
Continuous
100
AcDbCircle
 10
121.5098859999999
 20
269.70091
 30
0.0
 40
9.851650999999996
100
AcDbArc
 50
140.567329
 51
219.432668
  0
ARC
  5
ADCB
330
AB3F
100
AcDbEntity
  8
1
  6
Continuous
100
AcDbCircle
 10
118.6483289999999
 20
272.0541509999998
 30
0.0
 40
6.146760999999997
100
AcDbArc
 50
101.6146229999999
 51
140.567329
  0
ARC
  5
ADCC
330
AB3F
100
AcDbEntity
  8
1
  6
Continuous
100
AcDbCircle
 10
118.6483289999999
 20
267.347669
 30
0.0
 40
6.146760999999997
100
AcDbArc
 50
219.4326709999999
 51
314.5668759999998
  0
ARC
  5
ADCD
330
AB3F
100
AcDbEntity
  8
1
  6
Continuous
100
AcDbCircle
 10
162.6614519999999
 20
268.20091
 30
0.0
 40
9.851650999999996
100
AcDbArc
 50
320.5673269999998
 51
39.432673
  0
ARC
  5
ADCE
330
AB3F
100
AcDbEntity
  8
1
  6
Continuous
100
AcDbCircle
 10
165.523009
 20
270.5541509999998
 30
0.0
 40
6.146760999999997
100
AcDbArc
 50
39.432673
 51
78.460002
  0
ARC
  5
ADCF
330
AB3F
100
AcDbEntity
  8
1
  6
Continuous
100
AcDbCircle
 10
165.523009
 20
265.847669
 30
0.0
 40
6.146760999999997
100
AcDbArc
 50
218.68019
 51
320.5673269999998
  0
ARC
  5
ADD0
330
AB3F
100
AcDbEntity
  8
1
  6
Continuous
100
AcDbCircle
 10
164.3850849999997
 20
265.847669
 30
0.0
 40
6.146760999999997
100
AcDbArc
 50
234.95832
 51
275.311064
  0
ARC
  5
ADD1
330
AB3F
100
AcDbEntity
  8
1
  6
Continuous
100
AcDbCircle
 10
115.4147779999999
 20
278.20091
 30
0.0
 40
2.0
100
AcDbArc
 50
356.3919439999998
 51
90.00000300000001
  0
ARC
  5
ADD2
330
AB3F
100
AcDbEntity
  8
1
  6
Continuous
100
AcDbCircle
 10
125.52986
 20
278.20091
 30
0.0
 40
2.0
100
AcDbArc
 50
0.0
 51
90.00000300000001
  0
ARC
  5
ADD3
330
AB3F
100
AcDbEntity
  8
1
  6
Continuous
100
AcDbCircle
 10
144.8027789999999
 20
232.0896419999999
 30
0.0
 40
40.086208
100
AcDbArc
 50
87.393794
 51
107.1556069999999
  0
ARC
  5
ADD4
330
AB3F
100
AcDbEntity
  8
1
  6
Continuous
100
AcDbCircle
 10
145.772231
 20
260.915204
 30
0.0
 40
11.251592
100
AcDbArc
 50
55.78749300000001
 51
85.650559
  0
ARC
  5
ADD5
330
AB3F
100
AcDbEntity
  8
1
  6
Continuous
100
AcDbCircle
 10
134.453475
 20
265.614774
 30
0.0
 40
5.0
100
AcDbArc
 50
107.1556069999999
 51
128.0550499999999
  0
ARC
  5
ADD6
330
AB3F
100
AcDbEntity
  8
1
  6
Continuous
100
AcDbCircle
 10
164.7565449999999
 20
276.70091
 30
0.0
 40
2.0
100
AcDbArc
 50
0.0
 51
36.470389
  0
LINE
  5
ADD7
330
AB3F
100
AcDbEntity
  8
1
  6
Continuous
100
AcDbLine
 10
115.205309
 20
285.200895
 30
0.0
 11
132.5118479999999
 21
285.200895
 31
0.0
  0
ARC
  5
ADD8
330
AB3F
100
AcDbEntity
  8
1
  6
Continuous
100
AcDbCircle
 10
115.205309
 20
287.200895
 30
0.0
 40
2.0
100
AcDbArc
 50
189.5941459999999
 51
270.0
  0
ARC
  5
ADD9
330
AB3F
100
AcDbEntity
  8
1
  6
Continuous
100
AcDbCircle
 10
162.5339489999998
 20
295.200895
 30
0.0
 40
50.0
100
AcDbArc
 50
170.405911
 51
189.5940709999999
  0
LINE
  5
ADDA
330
AB3F
100
AcDbEntity
  8
1
  6
Continuous
100
AcDbLine
 10
115.205309
 20
305.200895
 30
0.0
 11
132.5118479999999
 21
305.200895
 31
0.0
  0
ARC
  5
ADDB
330
AB3F
100
AcDbEntity
  8
1
  6
Continuous
100
AcDbCircle
 10
115.205309
 20
303.200895
 30
0.0
 40
2.0
100
AcDbArc
 50
89.99997999999996
 51
170.405836
  0
LINE
  5
ADDC
330
AB3F
100
AcDbEntity
  8
1
  6
Continuous
100
AcDbLine
 10
127.5339489999997
 20
283.200895
 30
0.0
 11
132.9942409999999
 21
283.200895
 31
0.0
  0
ARC
  5
ADDD
330
AB3F
100
AcDbEntity
  8
1
  6
Continuous
100
AcDbCircle
 10
127.5339489999997
 20
284.2008949999998
 30
0.0
 40
1.0
100
AcDbArc
 50
180.0000179999999
 51
270.0
  0
LINE
  5
ADDE
330
AB3F
100
AcDbEntity
  8
1
  6
Continuous
100
AcDbLine
 10
126.5339489999997
 20
285.200895
 30
0.0
 11
126.5339489999997
 21
284.2008949999998
 31
0.0
  0
ARC
  5
ADDF
330
AB3F
100
AcDbEntity
  8
1
  6
Continuous
100
AcDbCircle
 10
134.283949
 20
310.20088
 30
0.0
 40
1.5
100
AcDbArc
 50
90.0
 51
180.0
  0
LINE
  5
ADE0
330
AB3F
100
AcDbEntity
  8
1
  6
Continuous
100
AcDbLine
 10
132.783949
 20
310.20088
 30
0.0
 11
132.783949
 21
310.20088
 31
0.0
  0
LINE
  5
ADE1
330
AB3F
100
AcDbEntity
  8
1
  6
Continuous
100
AcDbLine
 10
121.5339489999997
 20
306.200895
 30
0.0
 11
121.5339489999997
 21
305.200895
 31
0.0
  0
LINE
  5
ADE2
330
AB3F
100
AcDbEntity
  8
1
  6
Continuous
100
AcDbLine
 10
130.534663
 20
308.20088
 30
0.0
 11
130.534663
 21
309.7716759999999
 31
0.0
  0
LINE
  5
ADE3
330
AB3F
100
AcDbEntity
  8
1
  6
Continuous
100
AcDbLine
 10
140.783949
 20
311.7008799999998
 30
0.0
 11
134.283949
 21
311.7008799999998
 31
0.0
  0
LINE
  5
ADE4
330
AB3F
100
AcDbEntity
  8
1
  6
Continuous
100
AcDbLine
 10
121.5339489999997
 20
306.200895
 30
0.0
 11
132.741445
 21
306.200895
 31
0.0
  0
LINE
  5
ADE5
330
AB3F
100
AcDbEntity
  8
1
  6
Continuous
100
AcDbLine
 10
145.5724449999999
 20
310.20088
 30
0.0
 11
126.506863
 21
310.20088
 31
0.0
  0
LINE
  5
ADE6
330
AB3F
100
AcDbEntity
  8
1
  6
Continuous
100
AcDbLine
 10
133.270623
 20
308.20088
 30
0.0
 11
129.3372019999999
 21
308.20088
 31
0.0
  0
ARC
  5
ADE7
330
AB3F
100
AcDbEntity
  8
1
  6
Continuous
100
AcDbCircle
 10
140.783949
 20
310.20088
 30
0.0
 40
1.5
100
AcDbArc
 50
0.0
 51
90.0
  0
LINE
  5
ADE8
330
AB3F
100
AcDbEntity
  8
1
  6
Continuous
100
AcDbLine
 10
142.283949
 20
310.20088
 30
0.0
 11
142.283949
 21
310.20088
 31
0.0
  0
LINE
  5
ADE9
330
AB3F
100
AcDbEntity
  8
1
  6
Continuous
100
AcDbLine
 10
162.5339489999998
 20
231.700895
 30
0.0
 11
164.533949
 21
229.700895
 31
0.0
  0
LINE
  5
ADEA
330
AB3F
100
AcDbEntity
  8
1
  6
Continuous
100
AcDbLine
 10
152.533949
 20
229.700895
 30
0.0
 11
164.533949
 21
229.700895
 31
0.0
  0
LINE
  5
ADEB
330
AB3F
100
AcDbEntity
  8
2
  6
Continuous
100
AcDbLine
 10
163.586949
 20
198.341147
 30
0.0
 11
164.533949
 21
196.700895
 31
0.0
  0
LINE
  5
ADEC
330
AB3F
100
AcDbEntity
  8
1
  6
Continuous
100
AcDbLine
 10
172.3339469999999
 20
192.50089
 30
0.0
 11
144.733946
 21
192.50089
 31
0.0
  0
LINE
  5
ADED
330
AB3F
100
AcDbEntity
  8
1
  6
Continuous
100
AcDbLine
 10
149.033949
 20
196.700895
 30
0.0
 11
168.033949
 21
196.700895
 31
0.0
  0
LINE
  5
ADEE
330
AB3F
100
AcDbEntity
  8
1
  6
Continuous
100
AcDbLine
 10
152.533949
 20
198.341147
 30
0.0
 11
164.533949
 21
198.341147
 31
0.0
  0
LINE
  5
ADEF
330
AB3F
100
AcDbEntity
  8
1
  6
Continuous
100
AcDbLine
 10
174.833952
 20
188.400892
 30
0.0
 11
142.233946
 21
188.400892
 31
0.0
  0
LINE
  5
ADF0
330
AB3F
100
AcDbEntity
  8
1
  6
Continuous
100
AcDbLine
 10
174.833952
 20
190.0008899999999
 30
0.0
 11
142.233946
 21
190.0008899999999
 31
0.0
  0
LINE
  5
ADF1
330
AB3F
100
AcDbEntity
  8
2
  6
Continuous
100
AcDbLine
 10
153.480949
 20
230.647895
 30
0.0
 11
153.480949
 21
198.341147
 31
0.0
  0
LINE
  5
ADF2
330
AB3F
100
AcDbEntity
  8
2
  6
Continuous
100
AcDbLine
 10
163.586949
 20
230.647895
 30
0.0
 11
163.586949
 21
198.341147
 31
0.0
  0
LINE
  5
ADF3
330
AB3F
100
AcDbEntity
  8
1
  6
Continuous
100
AcDbLine
 10
152.533949
 20
229.700895
 30
0.0
 11
152.533949
 21
196.700895
 31
0.0
  0
LINE
  5
ADF4
330
AB3F
100
AcDbEntity
  8
1
  6
Continuous
100
AcDbLine
 10
158.533949
 20
188.400892
 30
0.0
 11
142.233946
 21
188.400892
 31
0.0
  0
LINE
  5
ADF5
330
AB3F
100
AcDbEntity
  8
1
  6
Continuous
100
AcDbLine
 10
142.233946
 20
190.0008899999999
 30
0.0
 11
142.233946
 21
188.400892
 31
0.0
  0
ARC
  5
ADF6
330
AB3F
100
AcDbEntity
  8
1
  6
Continuous
100
AcDbCircle
 10
142.233946
 20
190.3008899999999
 30
0.0
 40
0.3
100
AcDbArc
 50
270.00002
 51
342.9964799999999
  0
ARC
  5
ADF7
330
AB3F
100
AcDbEntity
  8
1
  6
Continuous
100
AcDbCircle
 10
145.867842
 20
189.1896529999999
 30
0.0
 40
3.5
100
AcDbArc
 50
108.9031
 51
162.9964699999999
  0
ARC
  5
ADF8
330
AB3F
100
AcDbEntity
  8
1
  6
Continuous
100
AcDbCircle
 10
154.533949
 20
194.450895
 30
0.0
 40
3.5
100
AcDbArc
 50
326.14148
 51
40.005173
  0
ARC
  5
ADF9
330
AB3F
100
AcDbEntity
  8
1
  6
Continuous
100
AcDbCircle
 10
162.5339489999998
 20
194.450895
 30
0.0
 40
3.5
100
AcDbArc
 50
139.9947899999999
 51
213.8584799999999
  0
ARC
  5
ADFA
330
AB3F
100
AcDbEntity
  8
1
  6
Continuous
100
AcDbCircle
 10
152.533949
 20
194.450895
 30
0.0
 40
3.0
100
AcDbArc
 50
131.4096399999999
 51
220.5416599999999
  0
LINE
  5
ADFB
330
AB3F
100
AcDbEntity
  8
1
  6
Continuous
100
AcDbLine
 10
149.033949
 20
196.700895
 30
0.0
 11
149.033949
 21
192.50089
 31
0.0
  0
LINE
  5
ADFC
330
AB3F
100
AcDbEntity
  8
2
  6
Continuous
100
AcDbLine
 10
153.480949
 20
198.341147
 30
0.0
 11
152.533949
 21
196.700895
 31
0.0
  0
LINE
  5
ADFD
330
AB3F
100
AcDbEntity
  8
1
  6
Continuous
100
AcDbLine
 10
154.533949
 20
231.700895
 30
0.0
 11
152.533949
 21
229.700895
 31
0.0
  0
LINE
  5
ADFE
330
AB3F
100
AcDbEntity
  8
1
  6
Continuous
100
AcDbLine
 10
154.533949
 20
231.700895
 30
0.0
 11
162.5339489999998
 21
231.700895
 31
0.0
  0
LINE
  5
ADFF
330
AB3F
100
AcDbEntity
  8
1
  6
Continuous
100
AcDbLine
 10
164.533949
 20
229.700895
 30
0.0
 11
164.533949
 21
196.700895
 31
0.0
  0
LINE
  5
AE00
330
AB3F
100
AcDbEntity
  8
1
  6
Continuous
100
AcDbLine
 10
174.833952
 20
190.0008899999999
 30
0.0
 11
174.833952
 21
188.400892
 31
0.0
  0
ARC
  5
AE01
330
AB3F
100
AcDbEntity
  8
1
  6
Continuous
100
AcDbCircle
 10
174.833952
 20
190.3008899999999
 30
0.0
 40
0.3
100
AcDbArc
 50
197.00351
 51
269.9999599999998
  0
ARC
  5
AE02
330
AB3F
100
AcDbEntity
  8
1
  6
Continuous
100
AcDbCircle
 10
164.533949
 20
194.450895
 30
0.0
 40
3.0
100
AcDbArc
 50
319.45831
 51
48.590321
  0
LINE
  5
AE03
330
AB3F
100
AcDbEntity
  8
1
  6
Continuous
100
AcDbLine
 10
168.033949
 20
196.700895
 30
0.0
 11
168.033949
 21
192.50089
 31
0.0
  0
ARC
  5
AE04
330
AB3F
100
AcDbEntity
  8
1
  6
Continuous
100
AcDbCircle
 10
171.2000559999999
 20
189.1896529999999
 30
0.0
 40
3.5
100
AcDbArc
 50
17.003496
 51
71.09685999999998
  0
LINE
  5
AE05
330
AB3F
100
AcDbEntity
  8
2
  6
Continuous
100
AcDbLine
 10
54.086949
 20
230.647895
 30
0.0
 11
54.086949
 21
198.341147
 31
0.0
  0
LINE
  5
AE06
330
AB3F
100
AcDbEntity
  8
2
  6
Continuous
100
AcDbLine
 10
43.980949
 20
230.647895
 30
0.0
 11
43.980949
 21
198.341147
 31
0.0
  0
LINE
  5
AE07
330
AB3F
100
AcDbEntity
  8
1
  6
Continuous
100
AcDbLine
 10
55.03394899999999
 20
229.700895
 30
0.0
 11
55.03394899999999
 21
196.700895
 31
0.0
  0
LINE
  5
AE08
330
AB3F
100
AcDbEntity
  8
1
  6
Continuous
100
AcDbLine
 10
43.03394899999999
 20
229.700895
 30
0.0
 11
43.03394899999999
 21
196.700895
 31
0.0
  0
LINE
  5
AE09
330
AB3F
100
AcDbEntity
  8
1
  6
Continuous
100
AcDbLine
 10
65.333952
 20
188.400892
 30
0.0
 11
32.733946
 21
188.400892
 31
0.0
  0
LINE
  5
AE0A
330
AB3F
100
AcDbEntity
  8
1
  6
Continuous
100
AcDbLine
 10
39.219786
 20
196.700895
 30
0.0
 11
58.848112
 21
196.700895
 31
0.0
  0
LINE
  5
AE0B
330
AB3F
100
AcDbEntity
  8
1
  6
Continuous
100
AcDbLine
 10
35.23395
 20
192.50089
 30
0.0
 11
62.83395200000001
 21
192.50089
 31
0.0
  0
LINE
  5
AE0C
330
AB3F
100
AcDbEntity
  8
1
  6
Continuous
100
AcDbLine
 10
65.333952
 20
190.0008899999999
 30
0.0
 11
32.733946
 21
190.0008899999999
 31
0.0
  0
LINE
  5
AE0D
330
AB3F
100
AcDbEntity
  8
1
  6
Continuous
100
AcDbLine
 10
32.733946
 20
190.0008899999999
 30
0.0
 11
32.733946
 21
188.400892
 31
0.0
  0
ARC
  5
AE0E
330
AB3F
100
AcDbEntity
  8
1
  6
Continuous
100
AcDbCircle
 10
32.733946
 20
190.3008899999999
 30
0.0
 40
0.3
100
AcDbArc
 50
270.00002
 51
342.9964799999999
  0
ARC
  5
AE0F
330
AB3F
100
AcDbEntity
  8
1
  6
Continuous
100
AcDbCircle
 10
36.36784199999999
 20
189.1896529999999
 30
0.0
 40
3.5
100
AcDbArc
 50
108.9031
 51
162.9964699999999
  0
ARC
  5
AE10
330
AB3F
100
AcDbEntity
  8
1
  6
Continuous
100
AcDbCircle
 10
39.219786
 20
196.2008949999997
 30
0.0
 40
0.5
100
AcDbArc
 50
89.99998199999996
 51
161.44681
  0
ARC
  5
AE11
330
AB3F
100
AcDbEntity
  8
1
  6
Continuous
100
AcDbCircle
 10
44.433951
 20
194.450895
 30
0.0
 40
6.0
100
AcDbArc
 50
161.4469
 51
198.96558
  0
ARC
  5
AE12
330
AB3F
100
AcDbEntity
  8
1
  6
Continuous
100
AcDbCircle
 10
58.410124
 20
194.450895
 30
0.0
 40
3.5
100
AcDbArc
 50
139.99477
 51
213.8584799999999
  0
ARC
  5
AE13
330
AB3F
100
AcDbEntity
  8
1
  6
Continuous
100
AcDbCircle
 10
50.236078
 20
194.450895
 30
0.0
 40
3.5
100
AcDbArc
 50
326.14148
 51
40.005224
  0
LINE
  5
AE14
330
AB3F
100
AcDbEntity
  8
2
  6
Continuous
100
AcDbLine
 10
54.086949
 20
198.341147
 30
0.0
 11
55.03394899999999
 21
196.700895
 31
0.0
  0
ARC
  5
AE15
330
AB3F
100
AcDbEntity
  8
1
  6
Continuous
100
AcDbCircle
 10
39.65777399999997
 20
194.450895
 30
0.0
 40
3.5
100
AcDbArc
 50
326.14148
 51
40.005169
  0
ARC
  5
AE16
330
AB3F
100
AcDbEntity
  8
1
  6
Continuous
100
AcDbCircle
 10
47.83182299999999
 20
194.450895
 30
0.0
 40
3.5
100
AcDbArc
 50
139.99471
 51
213.8584799999999
  0
LINE
  5
AE17
330
AB3F
100
AcDbEntity
  8
2
  6
Continuous
100
AcDbLine
 10
43.980949
 20
198.341147
 30
0.0
 11
43.03394899999999
 21
196.700895
 31
0.0
  0
LINE
  5
AE18
330
AB3F
100
AcDbEntity
  8
1
  6
Continuous
100
AcDbLine
 10
43.03394899999999
 20
198.341147
 30
0.0
 11
55.03394899999999
 21
198.341147
 31
0.0
  0
LINE
  5
AE19
330
AB3F
100
AcDbEntity
  8
1
  6
Continuous
100
AcDbLine
 10
65.333952
 20
190.0008899999999
 30
0.0
 11
65.333952
 21
188.400892
 31
0.0
  0
ARC
  5
AE1A
330
AB3F
100
AcDbEntity
  8
1
  6
Continuous
100
AcDbCircle
 10
65.333952
 20
190.3008899999999
 30
0.0
 40
0.3
100
AcDbArc
 50
197.00351
 51
269.9999599999998
  0
ARC
  5
AE1B
330
AB3F
100
AcDbEntity
  8
1
  6
Continuous
100
AcDbCircle
 10
58.848112
 20
196.2008949999997
 30
0.0
 40
0.5
100
AcDbArc
 50
18.55312999999998
 51
89.99996800000003
  0
ARC
  5
AE1C
330
AB3F
100
AcDbEntity
  8
1
  6
Continuous
100
AcDbCircle
 10
53.633947
 20
194.450895
 30
0.0
 40
6.0
100
AcDbArc
 50
341.03438
 51
18.553034
  0
ARC
  5
AE1D
330
AB3F
100
AcDbEntity
  8
1
  6
Continuous
100
AcDbCircle
 10
61.70005599999999
 20
189.1896529999999
 30
0.0
 40
3.5
100
AcDbArc
 50
17.003496
 51
71.09685999999998
  0
LINE
  5
AE1E
330
AB3F
100
AcDbEntity
  8
1
  6
Continuous
100
AcDbLine
 10
53.033949
 20
231.700895
 30
0.0
 11
55.03394899999999
 21
229.700895
 31
0.0
  0
LINE
  5
AE1F
330
AB3F
100
AcDbEntity
  8
1
  6
Continuous
100
AcDbLine
 10
45.03394899999999
 20
231.700895
 30
0.0
 11
43.03394899999999
 21
229.700895
 31
0.0
  0
LINE
  5
AE20
330
AB3F
100
AcDbEntity
  8
1
  6
Continuous
100
AcDbLine
 10
43.03394899999999
 20
229.700895
 30
0.0
 11
55.03394899999999
 21
229.700895
 31
0.0
  0
LINE
  5
AE21
330
AB3F
100
AcDbEntity
  8
1
  6
Continuous
100
AcDbLine
 10
45.03394899999999
 20
231.700895
 30
0.0
 11
53.033949
 21
231.700895
 31
0.0
  0
LINE
  5
AE22
330
AB3F
100
AcDbEntity
  8
1
  6
Continuous
100
AcDbLine
 10
130.8580189999997
 20
50.20088799999999
 30
0.0
 11
126.5068709999999
 21
50.20088799999999
 31
0.0
  0
LINE
  5
AE23
330
AB3F
100
AcDbEntity
  8
1
  6
Continuous
100
AcDbLine
 10
126.0768639999999
 20
54.20089499999999
 30
0.0
 11
127.549758
 21
50.20088799999999
 31
0.0
  0
LINE
  5
AE24
330
AB3F
100
AcDbEntity
  8
1
  6
Continuous
100
AcDbLine
 10
125.0339769999999
 20
54.20089499999999
 30
0.0
 11
126.5068709999999
 21
50.20088799999999
 31
0.0
  0
LINE
  5
AE25
330
AB3F
100
AcDbEntity
  8
1
  6
Continuous
100
AcDbLine
 10
127.844626
 20
54.20089499999999
 30
0.0
 11
130.533949
 21
50.63106099999998
 31
0.0
  0
LINE
  5
AE26
330
AB3F
100
AcDbEntity
  8
1
  6
Continuous
100
AcDbLine
 10
145.5363189999999
 20
50.20088799999999
 30
0.0
 11
147.740566
 21
50.20088799999999
 31
0.0
  0
LINE
  5
AE27
330
AB3F
100
AcDbEntity
  8
1
  6
Continuous
100
AcDbLine
 10
150.033977
 20
54.20089499999999
 30
0.0
 11
147.740566
 21
50.20088799999999
 31
0.0
  0
LINE
  5
AE28
330
AB3F
100
AcDbEntity
  8
1
  6
Continuous
100
AcDbLine
 10
146.2909119999999
 20
54.20089499999999
 30
0.0
 11
144.3930419999998
 21
50.20091
 31
0.0
  0
LINE
  5
AE29
330
AB3F
100
AcDbEntity
  8
1
  6
Continuous
100
AcDbLine
 10
145.5363189999999
 20
54.20089499999999
 30
0.0
 11
143.6409789999999
 21
50.20091
 31
0.0
  0
LINE
  5
AE2A
330
AB3F
100
AcDbEntity
  8
1
  6
Continuous
100
AcDbLine
 10
126.0768639999999
 20
306.200895
 30
0.0
 11
127.549758
 21
310.200902
 31
0.0
  0
LINE
  5
AE2B
330
AB3F
100
AcDbEntity
  8
1
  6
Continuous
100
AcDbLine
 10
125.0339769999999
 20
306.200895
 30
0.0
 11
126.5068709999999
 21
310.200902
 31
0.0
  0
LINE
  5
AE2C
330
AB3F
100
AcDbEntity
  8
1
  6
Continuous
100
AcDbLine
 10
127.844626
 20
306.200895
 30
0.0
 11
130.8580019999999
 21
310.20088
 31
0.0
  0
LINE
  5
AE2D
330
AB3F
100
AcDbEntity
  8
1
  6
Continuous
100
AcDbLine
 10
145.5363189999999
 20
310.200902
 30
0.0
 11
145.5799499999999
 21
310.200902
 31
0.0
  0
ARC
  5
AE2E
330
AB3F
100
AcDbEntity
  8
1
  6
Continuous
100
AcDbCircle
 10
145.5724449999999
 20
276.20091
 30
0.0
 40
4.0
100
AcDbArc
 50
55.698781
 51
90.0
  0
LINE
  5
AE49
330
AB3F
100
AcDbEntity
  8
4
  6
CENTER
 48
0.5
100
AcDbLine
 10
137.5339489999997
 20
183.7008949999999
 30
0.0
 11
137.5339489999997
 21
123.700895
 31
0.0
  0
LINE
  5
AE4A
330
AB3F
100
AcDbEntity
  8
4
  6
CENTER
 48
0.5
100
AcDbLine
 10
328.5339489999998
 20
123.7008950000001
 30
0.0
 11
328.5339489999998
 21
183.7008949999999
 31
0.0
  0
LINE
  5
AEB8
330
AB3F
100
AcDbEntity
  8
4
  6
CENTER
 48
0.5
100
AcDbLine
 10
158.533949
 20
319.2008949999999
 30
0.0
 11
158.533949
 21
271.2008949999999
 31
0.0
  0
LINE
  5
AEB9
330
AB3F
100
AcDbEntity
  8
4
  6
CENTER
 48
0.5
100
AcDbLine
 10
182.533949
 20
295.200895
 30
0.0
 11
107.5339489999998
 21
295.200895
 31
0.0
  0
LINE
  5
AEBA
330
AB3F
100
AcDbEntity
  8
4
  6
CENTER
 48
0.5
100
AcDbLine
 10
137.5339489999997
 20
316.70088
 30
0.0
 11
137.5339489999997
 21
268.8009104999998
 31
0.0
  0
ENDSEC
  0
SECTION
  2
OBJECTS
  0
DICTIONARY
  5
AB2D
330
0
100
AcDbDictionary
281
     1
  3
ACAD_CIP_PREVIOUS_PRODUCT_INFO
350
AF1E
  3
ACAD_COLOR
350
AF00
  3
ACAD_DETAILVIEWSTYLE
350
AF19
  3
ACAD_GROUP
350
AB2E
  3
ACAD_LAYOUT
350
AB3A
  3
ACAD_MATERIAL
350
AECE
  3
ACAD_MLEADERSTYLE
350
AF15
  3
ACAD_MLINESTYLE
350
AB37
  3
ACAD_PLOTSETTINGS
350
AB39
  3
ACAD_PLOTSTYLENAME
350
AECC
  3
ACAD_SCALELIST
350
AF03
  3
ACAD_SECTIONVIEWSTYLE
350
AF17
  3
ACAD_TABLESTYLE
350
AF01
  3
ACAD_VISUALSTYLE
350
AEE7
  3
ACDB_RECOMPOSE_DATA
350
AF3C
  3
AcDbVariableDictionary
350
AF2F
  3
DWGPROPS
350
AF3D
  0
DICTIONARY
  5
AF1F
330
AB31
100
AcDbDictionary
280
     1
281
     1
  3
ADSK_XREC_LAYER_RECONCILED
360
AF20
  0
DICTIONARY
  5
AF21
330
AB47
100
AcDbDictionary
280
     1
281
     1
  3
ADSK_XREC_LAYER_RECONCILED
360
AF22
  0
DICTIONARY
  5
AF23
330
AB48
100
AcDbDictionary
280
     1
281
     1
  3
ADSK_XREC_LAYER_RECONCILED
360
AF24
  0
DICTIONARY
  5
AF25
330
AB49
100
AcDbDictionary
280
     1
281
     1
  3
ADSK_XREC_LAYER_RECONCILED
360
AF26
  0
DICTIONARY
  5
AF27
330
AB4A
100
AcDbDictionary
280
     1
281
     1
  3
ADSK_XREC_LAYER_RECONCILED
360
AF28
  0
DICTIONARY
  5
AF29
330
AB4B
100
AcDbDictionary
280
     1
281
     1
  3
ADSK_XREC_LAYER_RECONCILED
360
AF2A
  0
DICTIONARY
  5
AF2B
330
AB4C
100
AcDbDictionary
280
     1
281
     1
  3
ADSK_XREC_LAYER_RECONCILED
360
AF2C
  0
DICTIONARY
  5
AF2D
330
AB4D
100
AcDbDictionary
280
     1
281
     1
  3
ADSK_XREC_LAYER_RECONCILED
360
AF2E
  0
DICTIONARY
  5
AE39
330
AB3F
100
AcDbDictionary
281
     1
  3
ACAD_LAYOUTSELFREF
350
AEC8
  0
DICTIONARY
  5
AE37
330
AB3B
100
AcDbDictionary
281
     1
  3
ACAD_LAYOUTSELFREF
350
AEC7
  0
XRECORD
  5
AF1E
102
{ACAD_REACTORS
330
AB2D
102
}
330
AB2D
100
AcDbXrecord
280
     1
300
ACDLT
300
2014
300
ACDLT_F_S
  0
DICTIONARY
  5
AF00
102
{ACAD_REACTORS
330
AB2D
102
}
330
AB2D
100
AcDbDictionary
281
     1
  0
DICTIONARY
  5
AF19
102
{ACAD_REACTORS
330
AB2D
102
}
330
AB2D
100
AcDbDictionary
281
     1
  3
Imperial24
350
AF1A
  0
DICTIONARY
  5
AB2E
102
{ACAD_REACTORS
330
AB2D
102
}
330
AB2D
100
AcDbDictionary
281
     1
  0
DICTIONARY
  5
AB3A
102
{ACAD_REACTORS
330
AB2D
102
}
330
AB2D
100
AcDbDictionary
281
     1
  3
Model
350
AF1B
  3
レイアウト1
350
AF1C
  0
DICTIONARY
  5
AECE
102
{ACAD_REACTORS
330
AB2D
102
}
330
AB2D
100
AcDbDictionary
281
     1
  3
ByBlock
350
AED7
  3
ByLayer
350
AECF
  3
Global
350
AEDF
  0
DICTIONARY
  5
AF15
102
{ACAD_REACTORS
330
AB2D
102
}
330
AB2D
100
AcDbDictionary
281
     1
  3
Standard
350
AF16
  0
DICTIONARY
  5
AB37
102
{ACAD_REACTORS
330
AB2D
102
}
330
AB2D
100
AcDbDictionary
281
     1
  3
STANDARD
350
AB38
  0
DICTIONARY
  5
AB39
102
{ACAD_REACTORS
330
AB2D
102
}
330
AB2D
100
AcDbDictionary
281
     1
  0
ACDBDICTIONARYWDFLT
  5
AECC
102
{ACAD_REACTORS
330
AB2D
102
}
330
AB2D
100
AcDbDictionary
281
     1
  3
Normal
350
AECD
100
AcDbDictionaryWithDefault
340
AECD
  0
DICTIONARY
  5
AF03
102
{ACAD_REACTORS
330
AB2D
102
}
330
AB2D
100
AcDbDictionary
281
     1
  3
A0
350
AF04
  3
A1
350
AF05
  3
A2
350
AF06
  3
A3
350
AF07
  3
A4
350
AF08
  3
A5
350
AF09
  3
A6
350
AF0A
  3
A7
350
AF0B
  3
A8
350
AF0C
  3
A9
350
AF0D
  3
B0
350
AF0E
  3
B1
350
AF0F
  3
B2
350
AF10
  3
B3
350
AF11
  3
B4
350
AF12
  3
B5
350
AF13
  3
B6
350
AF14
  0
DICTIONARY
  5
AF17
102
{ACAD_REACTORS
330
AB2D
102
}
330
AB2D
100
AcDbDictionary
281
     1
  3
Imperial24
350
AF18
  0
DICTIONARY
  5
AF01
102
{ACAD_REACTORS
330
AB2D
102
}
330
AB2D
100
AcDbDictionary
281
     1
  3
Standard
350
AF02
  0
DICTIONARY
  5
AEE7
102
{ACAD_REACTORS
330
AB2D
102
}
330
AB2D
100
AcDbDictionary
281
     1
  3
2dWireframe
350
AEED
  3
Basic
350
AEEC
  3
Brighten
350
AEF3
  3
ColorChange
350
AEF7
  3
Conceptual
350
AEF0
  3
Dim
350
AEF2
  3
EdgeColorOff
350
AEFF
  3
Facepattern
350
AEF6
  3
Flat
350
AEE8
  3
FlatWithEdges
350
AEE9
  3
Gouraud
350
AEEA
  3
GouraudWithEdges
350
AEEB
  3
Hidden
350
AEEF
  3
JitterOff
350
AEFD
  3
Linepattern
350
AEF5
  3
OverhangOff
350
AEFE
  3
Realistic
350
AEF1
  3
Shaded
350
AEFC
  3
Shaded with edges
350
AEFB
  3
Shades of Gray
350
AEF8
  3
Sketchy
350
AEF9
  3
Thicken
350
AEF4
  3
Wireframe
350
AEEE
  3
X-Ray
350
AEFA
  0
XRECORD
  5
AF3C
102
{ACAD_REACTORS
330
AB2D
102
}
330
AB2D
100
AcDbXrecord
280
     1
 90
        1
330
AF02
  0
DICTIONARY
  5
AF2F
102
{ACAD_REACTORS
330
AB2D
102
}
330
AB2D
100
AcDbDictionary
281
     1
  3
CANNOSCALE
350
AF34
  3
CMLEADERSTYLE
350
AF31
  3
CTABLESTYLE
350
AF30
  3
CVIEWDETAILSTYLE
350
AF32
  3
CVIEWSECTIONSTYLE
350
AF33
  3
DIMASSOC
350
AF37
  3
INDEXCTL
350
AF36
  3
SORTENTS
350
AF35
  3
XCLIPFRAME
350
AF38
  0
XRECORD
  5
AF3D
102
{ACAD_REACTORS
330
AB2D
102
}
330
AB2D
100
AcDbXrecord
280
     1
  1
DWGPROPS COOKIE
  2

  3

  4

  6

  7

  8
Yoshitsune
  9

300
=
301
=
302
=
303
=
304
=
305
=
306
=
307
=
308
=
309
=
 40
0.0068684953703704
 41
2451301.428123148
 42
2457192.689893299
  1

 90
        0
  0
XRECORD
  5
AF20
102
{ACAD_REACTORS
330
AF1F
102
}
330
AF1F
100
AcDbXrecord
280
     1
290
     1
  0
XRECORD
  5
AF22
102
{ACAD_REACTORS
330
AF21
102
}
330
AF21
100
AcDbXrecord
280
     1
290
     1
  0
XRECORD
  5
AF24
102
{ACAD_REACTORS
330
AF23
102
}
330
AF23
100
AcDbXrecord
280
     1
290
     1
  0
XRECORD
  5
AF26
102
{ACAD_REACTORS
330
AF25
102
}
330
AF25
100
AcDbXrecord
280
     1
290
     1
  0
XRECORD
  5
AF28
102
{ACAD_REACTORS
330
AF27
102
}
330
AF27
100
AcDbXrecord
280
     1
290
     1
  0
XRECORD
  5
AF2A
102
{ACAD_REACTORS
330
AF29
102
}
330
AF29
100
AcDbXrecord
280
     1
290
     1
  0
XRECORD
  5
AF2C
102
{ACAD_REACTORS
330
AF2B
102
}
330
AF2B
100
AcDbXrecord
280
     1
290
     1
  0
XRECORD
  5
AF2E
102
{ACAD_REACTORS
330
AF2D
102
}
330
AF2D
100
AcDbXrecord
280
     1
290
     1
  0
XRECORD
  5
AEC8
102
{ACAD_REACTORS
330
AE39
102
}
330
AE39
100
AcDbXrecord
280
     1
340
AB3F
  0
XRECORD
  5
AEC7
102
{ACAD_REACTORS
330
AE37
102
}
330
AE37
100
AcDbXrecord
280
     1
340
AB3B
  0
ACDBDETAILVIEWSTYLE
  5
AF1A
102
{ACAD_XDICTIONARY
360
AF75
102
}
102
{ACAD_REACTORS
330
AF19
102
}
330
AF19
100
AcDbModelDocViewStyle
 70
     0
  3
Imperial24
290
     0
100
AcDbDetailViewStyle
 70
     0
 71
     0
 90
        3
 71
     1
340
AB32
 40
0.24
340
0
 40
0.24
300

 40
0.36
280
     3
 71
     2
340
AB36
 90
       25
 71
     3
340
AB32
 40
0.24
 90
        1
 40
0.75
 90
        1
300
%<\AcVar ViewType \f "%tc1">% %<\AcVar ViewDetailId>%\PSCALE %<\AcVar ViewScale \f "%sn">%
 71
     4
340
AB36
 90
       25
340
AB36
 90
       25
280
     0
  0
LAYOUT
  5
AF1B
102
{ACAD_XDICTIONARY
360
AF77
102
}
102
{ACAD_REACTORS
330
AB3A
102
}
330
AB3A
100
AcDbPlotSettings
  1

  2
Canon LBP9100C
  4

  6

 40
0.0
 41
0.0
 42
0.0
 43
0.0
 44
0.0
 45
0.0
 46
0.0
 47
0.0
 48
0.0
 49
0.0
140
0.0
141
0.0
142
1.0
143
1.0
 70
  1712
 72
     0
 73
     0
 74
     0
  7

 75
     0
147
1.0
148
0.0
149
0.0
100
AcDbLayout
  1
Model
 70
     1
 71
     0
 10
0.0
 20
0.0
 11
12.0
 21
9.0
 12
0.0
 22
0.0
 32
0.0
 14
0.0
 24
0.0
 34
0.0
 15
0.0
 25
0.0
 35
0.0
146
0.0
 13
0.0
 23
0.0
 33
0.0
 16
1.0
 26
0.0
 36
0.0
 17
0.0
 27
1.0
 37
0.0
 76
     0
330
AB3F
331
AEC6
  0
LAYOUT
  5
AF1C
102
{ACAD_XDICTIONARY
360
AF79
102
}
102
{ACAD_REACTORS
330
AB3A
102
}
330
AB3A
100
AcDbPlotSettings
  1

  2
Canon LBP9100C
  4

  6

 40
0.0
 41
0.0
 42
0.0
 43
0.0
 44
0.0
 45
0.0
 46
0.0
 47
0.0
 48
0.0
 49
0.0
140
0.0
141
0.0
142
1.0
143
1.0
 70
   688
 72
     0
 73
     0
 74
     5
  7

 75
    16
147
1.0
148
0.0
149
0.0
100
AcDbLayout
  1
レイアウト1
 70
     0
 71
     1
 10
0.0
 20
0.0
 11
420.0
 21
297.0
 12
0.0
 22
0.0
 32
0.0
 14
1.000000000000000E+20
 24
1.000000000000000E+20
 34
1.000000000000000E+20
 15
-1.000000000000000E+20
 25
-1.000000000000000E+20
 35
-1.000000000000000E+20
146
0.0
 13
0.0
 23
0.0
 33
0.0
 16
1.0
 26
0.0
 36
0.0
 17
0.0
 27
1.0
 37
0.0
 76
     0
330
AB3B
  0
MATERIAL
  5
AED7
102
{ACAD_XDICTIONARY
360
AED8
102
}
102
{ACAD_REACTORS
330
AECE
102
}
330
AECE
100
AcDbMaterial
  1
ByBlock
 72
     0
 43
0.0208333333333333
 43
0.0
 43
0.0
 43
0.0
 43
0.0
 43
0.0208333333333333
 43
0.0
 43
0.0
 43
0.0
 43
0.0
 43
1.0
 43
0.0
 43
0.0
 43
0.0
 43
0.0
 43
1.0
 77
     0
 47
0.0208333333333333
 47
0.0
 47
0.0
 47
0.0
 47
0.0
 47
0.0208333333333333
 47
0.0
 47
0.0
 47
0.0
 47
0.0
 47
1.0
 47
0.0
 47
0.0
 47
0.0
 47
0.0
 47
1.0
171
     0
 49
0.0208333333333333
 49
0.0
 49
0.0
 49
0.0
 49
0.0
 49
0.0208333333333333
 49
0.0
 49
0.0
 49
0.0
 49
0.0
 49
1.0
 49
0.0
 49
0.0
 49
0.0
 49
0.0
 49
1.0
175
     0
142
0.0208333333333333
142
0.0
142
0.0
142
0.0
142
0.0
142
0.0208333333333333
142
0.0
142
0.0
142
0.0
142
0.0
142
1.0
142
0.0
142
0.0
142
0.0
142
0.0
142
1.0
179
     0
144
0.0208333333333333
144
0.0
144
0.0
144
0.0
144
0.0
144
0.0208333333333333
144
0.0
144
0.0
144
0.0
144
0.0
144
1.0
144
0.0
144
0.0
144
0.0
144
0.0
144
1.0
147
0.0208333333333333
147
0.0
147
0.0
147
0.0
147
0.0
147
0.0208333333333333
147
0.0
147
0.0
147
0.0
147
0.0
147
1.0
147
0.0
147
0.0
147
0.0
147
0.0
147
1.0
  0
MATERIAL
  5
AECF
102
{ACAD_XDICTIONARY
360
AED0
102
}
102
{ACAD_REACTORS
330
AECE
102
}
330
AECE
100
AcDbMaterial
  1
ByLayer
 72
     0
 43
0.0208333333333333
 43
0.0
 43
0.0
 43
0.0
 43
0.0
 43
0.0208333333333333
 43
0.0
 43
0.0
 43
0.0
 43
0.0
 43
1.0
 43
0.0
 43
0.0
 43
0.0
 43
0.0
 43
1.0
 77
     0
 47
0.0208333333333333
 47
0.0
 47
0.0
 47
0.0
 47
0.0
 47
0.0208333333333333
 47
0.0
 47
0.0
 47
0.0
 47
0.0
 47
1.0
 47
0.0
 47
0.0
 47
0.0
 47
0.0
 47
1.0
171
     0
 49
0.0208333333333333
 49
0.0
 49
0.0
 49
0.0
 49
0.0
 49
0.0208333333333333
 49
0.0
 49
0.0
 49
0.0
 49
0.0
 49
1.0
 49
0.0
 49
0.0
 49
0.0
 49
0.0
 49
1.0
175
     0
142
0.0208333333333333
142
0.0
142
0.0
142
0.0
142
0.0
142
0.0208333333333333
142
0.0
142
0.0
142
0.0
142
0.0
142
1.0
142
0.0
142
0.0
142
0.0
142
0.0
142
1.0
179
     0
144
0.0208333333333333
144
0.0
144
0.0
144
0.0
144
0.0
144
0.0208333333333333
144
0.0
144
0.0
144
0.0
144
0.0
144
1.0
144
0.0
144
0.0
144
0.0
144
0.0
144
1.0
147
0.0208333333333333
147
0.0
147
0.0
147
0.0
147
0.0
147
0.0208333333333333
147
0.0
147
0.0
147
0.0
147
0.0
147
1.0
147
0.0
147
0.0
147
0.0
147
0.0
147
1.0
  0
MATERIAL
  5
AEDF
102
{ACAD_XDICTIONARY
360
AEE0
102
}
102
{ACAD_REACTORS
330
AECE
102
}
330
AECE
100
AcDbMaterial
  1
Global
 72
     0
 43
0.0208333333333333
 43
0.0
 43
0.0
 43
0.0
 43
0.0
 43
0.0208333333333333
 43
0.0
 43
0.0
 43
0.0
 43
0.0
 43
1.0
 43
0.0
 43
0.0
 43
0.0
 43
0.0
 43
1.0
 77
     0
 47
0.0208333333333333
 47
0.0
 47
0.0
 47
0.0
 47
0.0
 47
0.0208333333333333
 47
0.0
 47
0.0
 47
0.0
 47
0.0
 47
1.0
 47
0.0
 47
0.0
 47
0.0
 47
0.0
 47
1.0
171
     0
 49
0.0208333333333333
 49
0.0
 49
0.0
 49
0.0
 49
0.0
 49
0.0208333333333333
 49
0.0
 49
0.0
 49
0.0
 49
0.0
 49
1.0
 49
0.0
 49
0.0
 49
0.0
 49
0.0
 49
1.0
175
     0
142
0.0208333333333333
142
0.0
142
0.0
142
0.0
142
0.0
142
0.0208333333333333
142
0.0
142
0.0
142
0.0
142
0.0
142
1.0
142
0.0
142
0.0
142
0.0
142
0.0
142
1.0
179
     0
144
0.0208333333333333
144
0.0
144
0.0
144
0.0
144
0.0
144
0.0208333333333333
144
0.0
144
0.0
144
0.0
144
0.0
144
1.0
144
0.0
144
0.0
144
0.0
144
0.0
144
1.0
147
0.0208333333333333
147
0.0
147
0.0
147
0.0
147
0.0
147
0.0208333333333333
147
0.0
147
0.0
147
0.0
147
0.0
147
1.0
147
0.0
147
0.0
147
0.0
147
0.0
147
1.0
  0
MLEADERSTYLE
  5
AF16
102
{ACAD_REACTORS
330
AF15
102
}
330
AF15
100
AcDbMLeaderStyle
170
     2
171
     1
172
     0
 90
        2
 40
0.0
 41
0.0
173
     1
 91
-1056964608
340
AB34
 92
       -2
290
     1
 42
0.09
291
     1
 43
0.36
  3
Standard
 44
0.18
300

342
AB32
174
     1
178
     6
175
     1
176
     0
 93
-1056964608
 45
0.18
292
     0
297
     0
 46
0.18
 94
-1056964608
 47
1.0
 49
1.0
140
1.0
293
     1
141
0.0
294
     1
177
     0
142
1.0
295
     0
296
     0
143
0.125
1001
ACAD_MLEADERVER
1070
     2
  0
MLINESTYLE
  5
AB38
102
{ACAD_REACTORS
330
AB37
102
}
330
AB37
100
AcDbMlineStyle
  2
STANDARD
 70
     0
  3

 62
   256
 51
90.0
 52
90.0
 71
     2
 49
0.5
 62
   256
  6
BYLAYER
 49
-0.5
 62
   256
  6
BYLAYER
  0
ACDBPLACEHOLDER
  5
AECD
102
{ACAD_REACTORS
330
AECC
102
}
330
AECC
  0
SCALE
  5
AF04
102
{ACAD_REACTORS
330
AF03
102
}
330
AF03
100
AcDbScale
 70
     0
300
1:1
140
1.0
141
1.0
290
     1
  0
SCALE
  5
AF05
102
{ACAD_REACTORS
330
AF03
102
}
330
AF03
100
AcDbScale
 70
     0
300
1/128" = 1'-0"
140
0.0078125
141
12.0
290
     0
  0
SCALE
  5
AF06
102
{ACAD_REACTORS
330
AF03
102
}
330
AF03
100
AcDbScale
 70
     0
300
1/64" = 1'-0"
140
0.015625
141
12.0
290
     0
  0
SCALE
  5
AF07
102
{ACAD_REACTORS
330
AF03
102
}
330
AF03
100
AcDbScale
 70
     0
300
1/32" = 1'-0"
140
0.03125
141
12.0
290
     0
  0
SCALE
  5
AF08
102
{ACAD_REACTORS
330
AF03
102
}
330
AF03
100
AcDbScale
 70
     0
300
1/16" = 1'-0"
140
0.0625
141
12.0
290
     0
  0
SCALE
  5
AF09
102
{ACAD_REACTORS
330
AF03
102
}
330
AF03
100
AcDbScale
 70
     0
300
3/32" = 1'-0"
140
0.09375
141
12.0
290
     0
  0
SCALE
  5
AF0A
102
{ACAD_REACTORS
330
AF03
102
}
330
AF03
100
AcDbScale
 70
     0
300
1/8" = 1'-0"
140
0.125
141
12.0
290
     0
  0
SCALE
  5
AF0B
102
{ACAD_REACTORS
330
AF03
102
}
330
AF03
100
AcDbScale
 70
     0
300
3/16" = 1'-0"
140
0.1875
141
12.0
290
     0
  0
SCALE
  5
AF0C
102
{ACAD_REACTORS
330
AF03
102
}
330
AF03
100
AcDbScale
 70
     0
300
1/4" = 1'-0"
140
0.25
141
12.0
290
     0
  0
SCALE
  5
AF0D
102
{ACAD_REACTORS
330
AF03
102
}
330
AF03
100
AcDbScale
 70
     0
300
3/8" = 1'-0"
140
0.375
141
12.0
290
     0
  0
SCALE
  5
AF0E
102
{ACAD_REACTORS
330
AF03
102
}
330
AF03
100
AcDbScale
 70
     0
300
1/2" = 1'-0"
140
0.5
141
12.0
290
     0
  0
SCALE
  5
AF0F
102
{ACAD_REACTORS
330
AF03
102
}
330
AF03
100
AcDbScale
 70
     0
300
3/4" = 1'-0"
140
0.75
141
12.0
290
     0
  0
SCALE
  5
AF10
102
{ACAD_REACTORS
330
AF03
102
}
330
AF03
100
AcDbScale
 70
     0
300
1" = 1'-0"
140
1.0
141
12.0
290
     0
  0
SCALE
  5
AF11
102
{ACAD_REACTORS
330
AF03
102
}
330
AF03
100
AcDbScale
 70
     0
300
1-1/2" = 1'-0"
140
1.5
141
12.0
290
     0
  0
SCALE
  5
AF12
102
{ACAD_REACTORS
330
AF03
102
}
330
AF03
100
AcDbScale
 70
     0
300
3" = 1'-0"
140
3.0
141
12.0
290
     0
  0
SCALE
  5
AF13
102
{ACAD_REACTORS
330
AF03
102
}
330
AF03
100
AcDbScale
 70
     0
300
6" = 1'-0"
140
6.0
141
12.0
290
     0
  0
SCALE
  5
AF14
102
{ACAD_REACTORS
330
AF03
102
}
330
AF03
100
AcDbScale
 70
     0
300
1'-0" = 1'-0"
140
12.0
141
12.0
290
     0
  0
ACDBSECTIONVIEWSTYLE
  5
AF18
102
{ACAD_XDICTIONARY
360
AF73
102
}
102
{ACAD_REACTORS
330
AF17
102
}
330
AF17
100
AcDbModelDocViewStyle
 70
     0
  3
Imperial24
290
     0
100
AcDbSectionViewStyle
 70
     0
 71
     0
 90
       78
 71
     1
340
AB32
 40
0.24
340
0
340
0
 40
0.24
300
I, O, Q, S, X, Z
 40
0.48
 90
        3
 40
0.18
 90
        1
 71
     2
340
AB36
 90
       25
340
AB36
 90
       50
 40
0.24
 40
0.0
 40
0.24
 71
     3
340
AB32
 40
0.24
 90
        1
 40
0.75
 90
        1
300
%<\AcVar ViewType \f "%tc1">% %<\AcVar ViewSectionStartId>%-%<\AcVar ViewSectionEndId>%\PSCALE %<\AcVar ViewScale \f "%sn">%
 71
     4
300
ANSI31
 40
1.0
 90
        0
290
     0
290
     0
 90
        6
 40
0.0
 40
1.570796326794896
 40
0.2617993877991494
 40
1.308996938995747
 40
-0.2617993877991494
 40
1.832595714594046
  0
TABLESTYLE
  5
AF02
102
{ACAD_XDICTIONARY
360
AF3A
102
}
102
{ACAD_REACTORS
330
AF01
102
}
330
AF01
100
AcDbTableStyle
  3
Standard
 70
     0
 71
     0
 40
0.06
 41
0.06
280
     0
281
     0
  7
STANDARD
140
0.18
170
     2
 62
     0
 63
     7
283
     0
274
    -2
284
     1
 64
     0
275
    -2
285
     1
 65
     0
276
    -2
286
     1
 66
     0
277
    -2
287
     1
 67
     0
278
    -2
288
     1
 68
     0
279
    -2
289
     1
 69
     0
  7
STANDARD
140
0.25
170
     5
 62
     0
 63
     7
283
     0
274
    -2
284
     1
 64
     0
275
    -2
285
     1
 65
     0
276
    -2
286
     1
 66
     0
277
    -2
287
     1
 67
     0
278
    -2
288
     1
 68
     0
279
    -2
289
     1
 69
     0
  7
STANDARD
140
0.18
170
     5
 62
     0
 63
     7
283
     0
274
    -2
284
     1
 64
     0
275
    -2
285
     1
 65
     0
276
    -2
286
     1
 66
     0
277
    -2
287
     1
 67
     0
278
    -2
288
     1
 68
     0
279
    -2
289
     1
 69
     0
  0
VISUALSTYLE
  5
AEED
102
{ACAD_XDICTIONARY
360
AF4B
102
}
102
{ACAD_REACTORS
330
AEE7
102
}
330
AEE7
100
AcDbVisualStyle
  2
2dWireframe
 70
     4
 71
     0
 72
     2
 73
     0
 90
        0
 40
-0.6
 41
-30.0
 62
     5
 63
     7
 74
     1
 91
        4
 64
     7
 65
   257
 75
     1
175
     1
 42
1.0
 92
        0
 66
   257
 43
1.0
 76
     1
 77
     6
 78
     2
 67
     7
 79
     5
170
     0
171
     0
290
     0
174
     0
 93
        1
 44
0.0
173
     0
291
     0
 45
0.0
1001
ACAD
1000
AcDbSavedByObjectVersion
1070
     0
  0
VISUALSTYLE
  5
AEEC
102
{ACAD_XDICTIONARY
360
AF49
102
}
102
{ACAD_REACTORS
330
AEE7
102
}
330
AEE7
100
AcDbVisualStyle
  2
Basic
 70
     7
 71
     1
 72
     0
 73
     1
 90
        0
 40
-0.6
 41
-30.0
 62
     5
 63
     7
 74
     0
 91
        4
 64
     7
 65
   257
 75
     1
175
     1
 42
1.0
 92
        8
 66
     7
 43
1.0
 76
     1
 77
     6
 78
     2
 67
     7
 79
     5
170
     0
171
     0
290
     0
174
     0
 93
        1
 44
0.0
173
     0
291
     1
 45
0.0
1001
ACAD
1000
AcDbSavedByObjectVersion
1070
     0
  0
VISUALSTYLE
  5
AEF3
102
{ACAD_XDICTIONARY
360
AF57
102
}
102
{ACAD_REACTORS
330
AEE7
102
}
330
AEE7
100
AcDbVisualStyle
  2
Brighten
 70
    12
 71
     2
 72
     2
 73
     0
 90
        0
 40
-0.6
 41
-30.0
 62
     5
 63
     7
 74
     1
 91
        4
 64
     7
 65
   257
 75
     1
175
     1
 42
1.0
 92
        8
 66
     7
 43
1.0
 76
     1
 77
     6
 78
     2
 67
     7
 79
     5
170
     0
171
     0
290
     0
174
     0
 93
        1
 44
50.0
173
     0
291
     1
 45
0.0
1001
ACAD
1000
AcDbSavedByObjectVersion
1070
     0
  0
VISUALSTYLE
  5
AEF7
102
{ACAD_XDICTIONARY
360
AF5F
102
}
102
{ACAD_REACTORS
330
AEE7
102
}
330
AEE7
100
AcDbVisualStyle
  2
ColorChange
 70
    16
 71
     2
 72
     2
 73
     3
 90
        0
 40
-0.6
 41
-30.0
 62
     5
 63
     8
 74
     1
 91
        4
 64
     7
 65
   257
 75
     1
175
     1
 42
1.0
 92
        8
 66
     8
 43
1.0
 76
     1
 77
     6
 78
     2
 67
     7
 79
     5
170
     0
171
     0
290
     0
174
     0
 93
        1
 44
0.0
173
     0
291
     1
 45
0.0
1001
ACAD
1000
AcDbSavedByObjectVersion
1070
     0
  0
VISUALSTYLE
  5
AEF0
102
{ACAD_XDICTIONARY
360
AF51
102
}
102
{ACAD_REACTORS
330
AEE7
102
}
330
AEE7
100
AcDbVisualStyle
  2
Conceptual
 70
     9
 71
     3
 72
     2
 73
     0
 90
        0
 40
-0.6
 41
-30.0
 62
     5
 63
     7
 74
     2
 91
        2
 64
     7
 65
   257
 75
     1
175
     1
 42
179.0
 92
        8
 66
     7
 43
1.0
 76
     1
 77
     6
 78
     2
 67
     7
 79
     3
170
     0
171
     0
290
     0
174
     0
 93
        1
 44
0.0
173
     0
291
     0
 45
0.0
1001
ACAD
1000
AcDbSavedByObjectVersion
1070
     0
  0
VISUALSTYLE
  5
AEF2
102
{ACAD_XDICTIONARY
360
AF55
102
}
102
{ACAD_REACTORS
330
AEE7
102
}
330
AEE7
100
AcDbVisualStyle
  2
Dim
 70
    11
 71
     2
 72
     2
 73
     0
 90
        0
 40
-0.6
 41
-30.0
 62
     5
 63
     7
 74
     1
 91
        4
 64
     7
 65
   257
 75
     1
175
     1
 42
1.0
 92
        8
 66
     7
 43
1.0
 76
     1
 77
     6
 78
     2
 67
     7
 79
     5
170
     0
171
     0
290
     0
174
     0
 93
        1
 44
-50.0
173
     0
291
     1
 45
0.0
1001
ACAD
1000
AcDbSavedByObjectVersion
1070
     0
  0
VISUALSTYLE
  5
AEFF
102
{ACAD_XDICTIONARY
360
AF6F
102
}
102
{ACAD_REACTORS
330
AEE7
102
}
330
AEE7
100
AcDbVisualStyle
  2
EdgeColorOff
 70
    22
 71
     2
 72
     2
 73
     0
 90
        0
 40
-0.6
 41
-30.0
 62
     5
 63
     7
 74
     1
 91
        4
 64
     7
 65
   257
 75
     1
175
     1
 42
1.0
 92
        8
 66
     7
 43
1.0
 76
     1
 77
     6
 78
     2
 67
     7
 79
     5
170
     0
171
     0
290
     0
174
     0
 93
        1
 44
0.0
173
     0
291
     1
 45
0.0
1001
ACAD
1000
AcDbSavedByObjectVersion
1070
     0
  0
VISUALSTYLE
  5
AEF6
102
{ACAD_XDICTIONARY
360
AF5D
102
}
102
{ACAD_REACTORS
330
AEE7
102
}
330
AEE7
100
AcDbVisualStyle
  2
Facepattern
 70
    15
 71
     2
 72
     2
 73
     0
 90
        0
 40
-0.6
 41
-30.0
 62
     5
 63
     7
 74
     1
 91
        4
 64
     7
 65
   257
 75
     1
175
     1
 42
1.0
 92
        8
 66
     7
 43
1.0
 76
     1
 77
     6
 78
     2
 67
     7
 79
     5
170
     0
171
     0
290
     0
174
     0
 93
        1
 44
0.0
173
     0
291
     1
 45
0.0
1001
ACAD
1000
AcDbSavedByObjectVersion
1070
     0
  0
VISUALSTYLE
  5
AEE8
102
{ACAD_XDICTIONARY
360
AF41
102
}
102
{ACAD_REACTORS
330
AEE7
102
}
330
AEE7
100
AcDbVisualStyle
  2
Flat
 70
     0
 71
     2
 72
     1
 73
     1
 90
        2
 40
-0.6
 41
30.0
 62
     5
 63
     7
 74
     0
 91
        0
 64
     7
 65
   257
 75
     1
175
     1
 42
1.0
 92
        8
 66
     7
 43
1.0
 76
     1
 77
     6
 78
     2
 67
     7
 79
     5
170
     0
171
     0
290
     0
174
     0
 93
       13
 44
0.0
173
     0
291
     1
 45
0.0
1001
ACAD
1000
AcDbSavedByObjectVersion
1070
     0
  0
VISUALSTYLE
  5
AEE9
102
{ACAD_XDICTIONARY
360
AF43
102
}
102
{ACAD_REACTORS
330
AEE7
102
}
330
AEE7
100
AcDbVisualStyle
  2
FlatWithEdges
 70
     1
 71
     2
 72
     1
 73
     1
 90
        2
 40
-0.6
 41
30.0
 62
     5
 63
     7
 74
     1
 91
        0
 64
     7
 65
   257
 75
     1
175
     1
 42
1.0
 92
        0
 66
   257
 43
1.0
 76
     1
 77
     6
 78
     2
 67
     7
 79
     5
170
     0
171
     0
290
     0
174
     0
 93
       13
 44
0.0
173
     0
291
     1
 45
0.0
1001
ACAD
1000
AcDbSavedByObjectVersion
1070
     0
  0
VISUALSTYLE
  5
AEEA
102
{ACAD_XDICTIONARY
360
AF45
102
}
102
{ACAD_REACTORS
330
AEE7
102
}
330
AEE7
100
AcDbVisualStyle
  2
Gouraud
 70
     2
 71
     2
 72
     2
 73
     1
 90
        2
 40
-0.6
 41
30.0
 62
     5
 63
     7
 74
     0
 91
        0
 64
     7
 65
   257
 75
     1
175
     1
 42
1.0
 92
        0
 66
     7
 43
1.0
 76
     1
 77
     6
 78
     2
 67
     7
 79
     5
170
     0
171
     0
290
     0
174
     0
 93
       13
 44
0.0
173
     0
291
     1
 45
0.0
1001
ACAD
1000
AcDbSavedByObjectVersion
1070
     0
  0
VISUALSTYLE
  5
AEEB
102
{ACAD_XDICTIONARY
360
AF47
102
}
102
{ACAD_REACTORS
330
AEE7
102
}
330
AEE7
100
AcDbVisualStyle
  2
GouraudWithEdges
 70
     3
 71
     2
 72
     2
 73
     1
 90
        2
 40
-0.6
 41
30.0
 62
     5
 63
     7
 74
     1
 91
        0
 64
     7
 65
   257
 75
     1
175
     1
 42
1.0
 92
        0
 66
   257
 43
1.0
 76
     1
 77
     6
 78
     2
 67
     7
 79
     5
170
     0
171
     0
290
     0
174
     0
 93
       13
 44
0.0
173
     0
291
     1
 45
0.0
1001
ACAD
1000
AcDbSavedByObjectVersion
1070
     0
  0
VISUALSTYLE
  5
AEEF
102
{ACAD_XDICTIONARY
360
AF4F
102
}
102
{ACAD_REACTORS
330
AEE7
102
}
330
AEE7
100
AcDbVisualStyle
  2
Hidden
 70
     6
 71
     1
 72
     2
 73
     2
 90
        0
 40
-0.6
 41
-30.0
 62
     5
 63
     7
 74
     2
 91
        2
 64
     7
 65
   257
 75
     2
175
     1
 42
40.0
 92
        0
 66
   257
 43
1.0
 76
     1
 77
     6
 78
     2
 67
     7
 79
     3
170
     0
171
     0
290
     0
174
     0
 93
        1
 44
0.0
173
     0
291
     0
 45
0.0
1001
ACAD
1000
AcDbSavedByObjectVersion
1070
     0
  0
VISUALSTYLE
  5
AEFD
102
{ACAD_XDICTIONARY
360
AF6B
102
}
102
{ACAD_REACTORS
330
AEE7
102
}
330
AEE7
100
AcDbVisualStyle
  2
JitterOff
 70
    20
 71
     2
 72
     2
 73
     0
 90
        0
 40
-0.6
 41
-30.0
 62
     5
 63
     7
 74
     1
 91
        4
 64
     7
 65
   257
 75
     1
175
     1
 42
1.0
 92
       10
 66
     7
 43
1.0
 76
     1
 77
     6
 78
     2
 67
     7
 79
     5
170
     0
171
     0
290
     0
174
     0
 93
        1
 44
0.0
173
     0
291
     1
 45
0.0
1001
ACAD
1000
AcDbSavedByObjectVersion
1070
     0
  0
VISUALSTYLE
  5
AEF5
102
{ACAD_XDICTIONARY
360
AF5B
102
}
102
{ACAD_REACTORS
330
AEE7
102
}
330
AEE7
100
AcDbVisualStyle
  2
Linepattern
 70
    14
 71
     2
 72
     2
 73
     0
 90
        0
 40
-0.6
 41
-30.0
 62
     5
 63
     7
 74
     1
 91
        4
 64
     7
 65
   257
 75
     7
175
     7
 42
1.0
 92
        8
 66
     7
 43
1.0
 76
     1
 77
     6
 78
     2
 67
     7
 79
     5
170
     0
171
     0
290
     0
174
     0
 93
        1
 44
0.0
173
     0
291
     1
 45
0.0
1001
ACAD
1000
AcDbSavedByObjectVersion
1070
     0
  0
VISUALSTYLE
  5
AEFE
102
{ACAD_XDICTIONARY
360
AF6D
102
}
102
{ACAD_REACTORS
330
AEE7
102
}
330
AEE7
100
AcDbVisualStyle
  2
OverhangOff
 70
    21
 71
     2
 72
     2
 73
     0
 90
        0
 40
-0.6
 41
-30.0
 62
     5
 63
     7
 74
     1
 91
        4
 64
     7
 65
   257
 75
     1
175
     1
 42
1.0
 92
        9
 66
     7
 43
1.0
 76
     1
 77
     6
 78
     2
 67
     7
 79
     5
170
     0
171
     0
290
     0
174
     0
 93
        1
 44
0.0
173
     0
291
     1
 45
0.0
1001
ACAD
1000
AcDbSavedByObjectVersion
1070
     0
  0
VISUALSTYLE
  5
AEF1
102
{ACAD_XDICTIONARY
360
AF53
102
}
102
{ACAD_REACTORS
330
AEE7
102
}
330
AEE7
100
AcDbVisualStyle
  2
Realistic
 70
     8
 71
     2
 72
     3
 73
     0
 90
        2
 40
-0.6
 41
30.0
 62
     5
 63
     7
 74
     0
 91
        0
 64
     7
 65
   257
 75
     1
175
     1
 42
1.0
 92
        8
 66
   257
 43
1.0
 76
     1
 77
     6
 78
     2
 67
     7
 79
     3
170
     0
171
     0
290
     0
174
     0
 93
       13
 44
0.0
173
     0
291
     0
 45
0.0
1001
ACAD
1000
AcDbSavedByObjectVersion
1070
     0
  0
VISUALSTYLE
  5
AEFC
102
{ACAD_XDICTIONARY
360
AF69
102
}
102
{ACAD_REACTORS
330
AEE7
102
}
330
AEE7
100
AcDbVisualStyle
  2
Shaded
 70
    27
 71
     2
 72
     2
 73
     1
 90
        2
 40
-0.6
 41
30.0
 62
     5
 63
     7
 74
     0
 91
        4
 64
     7
 65
   257
 75
     1
175
     1
 42
1.0
 92
        8
 66
   257
 43
1.0
 76
     1
 77
     6
 78
     2
 67
     8
 79
     3
170
     0
171
     0
290
     0
174
     0
 93
        5
 44
0.0
173
     0
291
     0
 45
0.0
1001
ACAD
1000
AcDbSavedByObjectVersion
1070
     0
  0
VISUALSTYLE
  5
AEFB
102
{ACAD_XDICTIONARY
360
AF67
102
}
102
{ACAD_REACTORS
330
AEE7
102
}
330
AEE7
100
AcDbVisualStyle
  2
Shaded with edges
 70
    26
 71
     2
 72
     2
 73
     1
 90
        2
 40
-0.6
 41
30.0
 62
     5
 63
     7
 74
     1
 91
       10
 64
     7
 65
   257
 75
     2
175
     1
 42
1.0
 92
        8
 66
   257
 43
1.0
 76
     1
 77
     6
 78
     2
 67
     7
 79
     3
170
     0
171
     0
290
     0
174
     0
 93
        5
 44
0.0
173
     0
291
     0
 45
0.0
1001
ACAD
1000
AcDbSavedByObjectVersion
1070
     0
  0
VISUALSTYLE
  5
AEF8
102
{ACAD_XDICTIONARY
360
AF61
102
}
102
{ACAD_REACTORS
330
AEE7
102
}
330
AEE7
100
AcDbVisualStyle
  2
Shades of Gray
 70
    23
 71
     2
 72
     2
 73
     3
 90
        0
 40
-0.6
 41
-30.0
 62
     5
 63
     7
 74
     2
 91
        2
 64
     7
 65
     7
 75
     1
175
     1
 42
40.0
 92
        8
 66
     7
 43
1.0
 76
     1
 77
     6
 78
     2
 67
     7
 79
     3
170
     0
171
     0
290
     0
174
     0
 93
        1
 44
0.0
173
     0
291
     0
 45
0.0
1001
ACAD
1000
AcDbSavedByObjectVersion
1070
     0
  0
VISUALSTYLE
  5
AEF9
102
{ACAD_XDICTIONARY
360
AF63
102
}
102
{ACAD_REACTORS
330
AEE7
102
}
330
AEE7
100
AcDbVisualStyle
  2
Sketchy
 70
    24
 71
     1
 72
     2
 73
     2
 90
        0
 40
-0.6
 41
-30.0
 62
     5
 63
     7
 74
     2
 91
        2
 64
     7
 65
     7
 75
     1
175
     1
 42
40.0
 92
       11
 66
     7
 43
1.0
 76
     1
 77
     6
 78
     2
 67
     7
 79
     6
170
     0
171
     0
290
     0
174
     0
 93
        1
 44
0.0
173
     0
291
     0
 45
0.0
1001
ACAD
1000
AcDbSavedByObjectVersion
1070
     0
  0
VISUALSTYLE
  5
AEF4
102
{ACAD_XDICTIONARY
360
AF59
102
}
102
{ACAD_REACTORS
330
AEE7
102
}
330
AEE7
100
AcDbVisualStyle
  2
Thicken
 70
    13
 71
     2
 72
     2
 73
     0
 90
        0
 40
-0.6
 41
-30.0
 62
     5
 63
     7
 74
     1
 91
        4
 64
     7
 65
   257
 75
     1
175
     1
 42
1.0
 92
       12
 66
     7
 43
1.0
 76
     1
 77
     6
 78
     2
 67
     7
 79
     5
170
     0
171
     0
290
     0
174
     0
 93
        1
 44
0.0
173
     0
291
     1
 45
0.0
1001
ACAD
1000
AcDbSavedByObjectVersion
1070
     0
  0
VISUALSTYLE
  5
AEEE
102
{ACAD_XDICTIONARY
360
AF4D
102
}
102
{ACAD_REACTORS
330
AEE7
102
}
330
AEE7
100
AcDbVisualStyle
  2
Wireframe
 70
     5
 71
     0
 72
     2
 73
     0
 90
        0
 40
-0.6
 41
-30.0
 62
     5
 63
     7
 74
     1
 91
        4
 64
     7
 65
   257
 75
     1
175
     1
 42
1.0
 92
        0
 66
   257
 43
1.0
 76
     1
 77
     6
 78
     2
 67
     7
 79
     3
170
     0
171
     0
290
     0
174
     0
 93
        1
 44
0.0
173
     0
291
     0
 45
0.0
1001
ACAD
1000
AcDbSavedByObjectVersion
1070
     0
  0
VISUALSTYLE
  5
AEFA
102
{ACAD_XDICTIONARY
360
AF65
102
}
102
{ACAD_REACTORS
330
AEE7
102
}
330
AEE7
100
AcDbVisualStyle
  2
X-Ray
 70
    25
 71
     2
 72
     2
 73
     1
 90
        1
 40
0.5
 41
-30.0
 62
     5
 63
     7
 74
     1
 91
        0
 64
     7
 65
   257
 75
     1
175
     1
 42
1.0
 92
        8
 66
     7
 43
1.0
 76
     1
 77
     6
 78
     2
 67
     7
 79
     3
170
     0
171
     0
290
     0
174
     0
 93
       13
 44
0.0
173
     0
291
     0
 45
0.0
1001
ACAD
1000
AcDbSavedByObjectVersion
1070
     0
  0
DICTIONARYVAR
  5
AF34
102
{ACAD_REACTORS
330
AF2F
102
}
330
AF2F
100
DictionaryVariables
280
     0
  1
1:1
  0
DICTIONARYVAR
  5
AF31
102
{ACAD_REACTORS
330
AF2F
102
}
330
AF2F
100
DictionaryVariables
280
     0
  1
STANDARD
  0
DICTIONARYVAR
  5
AF30
102
{ACAD_REACTORS
330
AF2F
102
}
330
AF2F
100
DictionaryVariables
280
     0
  1
STANDARD
  0
DICTIONARYVAR
  5
AF32
102
{ACAD_REACTORS
330
AF2F
102
}
330
AF2F
100
DictionaryVariables
280
     0
  1
Imperial24
  0
DICTIONARYVAR
  5
AF33
102
{ACAD_REACTORS
330
AF2F
102
}
330
AF2F
100
DictionaryVariables
280
     0
  1
Imperial24
  0
DICTIONARYVAR
  5
AF37
102
{ACAD_REACTORS
330
AF2F
102
}
330
AF2F
100
DictionaryVariables
280
     0
  1
1
  0
DICTIONARYVAR
  5
AF36
102
{ACAD_REACTORS
330
AF2F
102
}
330
AF2F
100
DictionaryVariables
280
     0
  1
0
  0
DICTIONARYVAR
  5
AF35
102
{ACAD_REACTORS
330
AF2F
102
}
330
AF2F
100
DictionaryVariables
280
     0
  1
127
  0
DICTIONARYVAR
  5
AF38
102
{ACAD_REACTORS
330
AF2F
102
}
330
AF2F
100
DictionaryVariables
280
     0
  1
2
  0
DICTIONARY
  5
AF75
330
AF1A
100
AcDbDictionary
280
     1
281
     1
  3
ACAD_XREC_ROUNDTRIP
360
AF76
  0
DICTIONARY
  5
AF77
330
AF1B
100
AcDbDictionary
280
     1
281
     1
  3
ACAD_XREC_ROUNDTRIP
360
AF78
  0
DICTIONARY
  5
AF79
330
AF1C
100
AcDbDictionary
280
     1
281
     1
  3
ACAD_XREC_ROUNDTRIP
360
AF7A
  0
DICTIONARY
  5
AED8
330
AED7
100
AcDbDictionary
280
     1
281
     1
  3
ACAD_XREC_ROUNDTRIP
360
AF3F
  3
BUMPTILE
360
AEDA
  3
DIFFUSETILE
360
AED9
  3
OPACITYTILE
360
AEDD
  3
REFLECTIONTILE
360
AEDC
  3
REFRACTIONTILE
360
AEDE
  3
SPECULARTILE
360
AEDB
  0
DICTIONARY
  5
AED0
330
AECF
100
AcDbDictionary
280
     1
281
     1
  3
ACAD_XREC_ROUNDTRIP
360
AF3E
  3
BUMPTILE
360
AED2
  3
DIFFUSETILE
360
AED1
  3
OPACITYTILE
360
AED5
  3
REFLECTIONTILE
360
AED4
  3
REFRACTIONTILE
360
AED6
  3
SPECULARTILE
360
AED3
  0
DICTIONARY
  5
AEE0
330
AEDF
100
AcDbDictionary
280
     1
281
     1
  3
ACAD_XREC_ROUNDTRIP
360
AF40
  3
BUMPTILE
360
AEE2
  3
DIFFUSETILE
360
AEE1
  3
OPACITYTILE
360
AEE5
  3
REFLECTIONTILE
360
AEE4
  3
REFRACTIONTILE
360
AEE6
  3
SPECULARTILE
360
AEE3
  0
DICTIONARY
  5
AF73
330
AF18
100
AcDbDictionary
280
     1
281
     1
  3
ACAD_XREC_ROUNDTRIP
360
AF74
  0
DICTIONARY
  5
AF3A
330
AF02
100
AcDbDictionary
280
     1
281
     1
  3
ACAD_ROUNDTRIP_2008_TABLESTYLE_CELLSTYLEMAP
360
AF3B
  3
ACAD_XREC_ROUNDTRIP
360
AF71
  0
DICTIONARY
  5
AF4B
330
AEED
100
AcDbDictionary
280
     1
281
     1
  3
ACAD_XREC_ROUNDTRIP
360
AF4C
  0
DICTIONARY
  5
AF49
330
AEEC
100
AcDbDictionary
280
     1
281
     1
  3
ACAD_XREC_ROUNDTRIP
360
AF4A
  0
DICTIONARY
  5
AF57
330
AEF3
100
AcDbDictionary
280
     1
281
     1
  3
ACAD_XREC_ROUNDTRIP
360
AF58
  0
DICTIONARY
  5
AF5F
330
AEF7
100
AcDbDictionary
280
     1
281
     1
  3
ACAD_XREC_ROUNDTRIP
360
AF60
  0
DICTIONARY
  5
AF51
330
AEF0
100
AcDbDictionary
280
     1
281
     1
  3
ACAD_XREC_ROUNDTRIP
360
AF52
  0
DICTIONARY
  5
AF55
330
AEF2
100
AcDbDictionary
280
     1
281
     1
  3
ACAD_XREC_ROUNDTRIP
360
AF56
  0
DICTIONARY
  5
AF6F
330
AEFF
100
AcDbDictionary
280
     1
281
     1
  3
ACAD_XREC_ROUNDTRIP
360
AF70
  0
DICTIONARY
  5
AF5D
330
AEF6
100
AcDbDictionary
280
     1
281
     1
  3
ACAD_XREC_ROUNDTRIP
360
AF5E
  0
DICTIONARY
  5
AF41
330
AEE8
100
AcDbDictionary
280
     1
281
     1
  3
ACAD_XREC_ROUNDTRIP
360
AF42
  0
DICTIONARY
  5
AF43
330
AEE9
100
AcDbDictionary
280
     1
281
     1
  3
ACAD_XREC_ROUNDTRIP
360
AF44
  0
DICTIONARY
  5
AF45
330
AEEA
100
AcDbDictionary
280
     1
281
     1
  3
ACAD_XREC_ROUNDTRIP
360
AF46
  0
DICTIONARY
  5
AF47
330
AEEB
100
AcDbDictionary
280
     1
281
     1
  3
ACAD_XREC_ROUNDTRIP
360
AF48
  0
DICTIONARY
  5
AF4F
330
AEEF
100
AcDbDictionary
280
     1
281
     1
  3
ACAD_XREC_ROUNDTRIP
360
AF50
  0
DICTIONARY
  5
AF6B
330
AEFD
100
AcDbDictionary
280
     1
281
     1
  3
ACAD_XREC_ROUNDTRIP
360
AF6C
  0
DICTIONARY
  5
AF5B
330
AEF5
100
AcDbDictionary
280
     1
281
     1
  3
ACAD_XREC_ROUNDTRIP
360
AF5C
  0
DICTIONARY
  5
AF6D
330
AEFE
100
AcDbDictionary
280
     1
281
     1
  3
ACAD_XREC_ROUNDTRIP
360
AF6E
  0
DICTIONARY
  5
AF53
330
AEF1
100
AcDbDictionary
280
     1
281
     1
  3
ACAD_XREC_ROUNDTRIP
360
AF54
  0
DICTIONARY
  5
AF69
330
AEFC
100
AcDbDictionary
280
     1
281
     1
  3
ACAD_XREC_ROUNDTRIP
360
AF6A
  0
DICTIONARY
  5
AF67
330
AEFB
100
AcDbDictionary
280
     1
281
     1
  3
ACAD_XREC_ROUNDTRIP
360
AF68
  0
DICTIONARY
  5
AF61
330
AEF8
100
AcDbDictionary
280
     1
281
     1
  3
ACAD_XREC_ROUNDTRIP
360
AF62
  0
DICTIONARY
  5
AF63
330
AEF9
100
AcDbDictionary
280
     1
281
     1
  3
ACAD_XREC_ROUNDTRIP
360
AF64
  0
DICTIONARY
  5
AF59
330
AEF4
100
AcDbDictionary
280
     1
281
     1
  3
ACAD_XREC_ROUNDTRIP
360
AF5A
  0
DICTIONARY
  5
AF4D
330
AEEE
100
AcDbDictionary
280
     1
281
     1
  3
ACAD_XREC_ROUNDTRIP
360
AF4E
  0
DICTIONARY
  5
AF65
330
AEFA
100
AcDbDictionary
280
     1
281
     1
  3
ACAD_XREC_ROUNDTRIP
360
AF66
  0
XRECORD
  5
AF76
102
{ACAD_REACTORS
330
AF75
102
}
330
AF75
100
AcDbXrecord
280
     1
102
DISPLAYNAME
  1
Imperial24
102
FLAGS
 90
        0
  0
XRECORD
  5
AF78
102
{ACAD_REACTORS
330
AF77
102
}
330
AF77
100
AcDbXrecord
280
     1
102
SHADEPLOT
 70
     0
102
SHADEPLOTRESLEVEL
 70
     2
102
SHADEPLOTCUSTOMDPI
 70
   300
  0
XRECORD
  5
AF7A
102
{ACAD_REACTORS
330
AF79
102
}
330
AF79
100
AcDbXrecord
280
     1
102
SHADEPLOT
 70
     0
102
SHADEPLOTRESLEVEL
 70
     2
102
SHADEPLOTCUSTOMDPI
 70
   300
  0
XRECORD
  5
AF3F
102
{ACAD_REACTORS
330
AED8
102
}
330
AED8
100
AcDbXrecord
280
     1
102
MATERIAL
148
0.0
149
0.0
149
0.0
 93
        0
 94
      127
282
     0
 72
     0
 77
     0
171
     0
175
     0
179
     0
273
     0
  0
XRECORD
  5
AEDA
102
{ACAD_REACTORS
330
AED8
102
}
330
AED8
100
AcDbXrecord
280
     1
270
     1
271
     1
  0
XRECORD
  5
AED9
102
{ACAD_REACTORS
330
AED8
102
}
330
AED8
100
AcDbXrecord
280
     1
270
     1
271
     1
  0
XRECORD
  5
AEDD
102
{ACAD_REACTORS
330
AED8
102
}
330
AED8
100
AcDbXrecord
280
     1
270
     1
271
     1
  0
XRECORD
  5
AEDC
102
{ACAD_REACTORS
330
AED8
102
}
330
AED8
100
AcDbXrecord
280
     1
270
     1
271
     1
  0
XRECORD
  5
AEDE
102
{ACAD_REACTORS
330
AED8
102
}
330
AED8
100
AcDbXrecord
280
     1
270
     1
271
     1
  0
XRECORD
  5
AEDB
102
{ACAD_REACTORS
330
AED8
102
}
330
AED8
100
AcDbXrecord
280
     1
270
     1
271
     1
  0
XRECORD
  5
AF3E
102
{ACAD_REACTORS
330
AED0
102
}
330
AED0
100
AcDbXrecord
280
     1
102
MATERIAL
148
0.0
149
0.0
149
0.0
 93
        0
 94
      127
282
     0
 72
     0
 77
     0
171
     0
175
     0
179
     0
273
     0
  0
XRECORD
  5
AED2
102
{ACAD_REACTORS
330
AED0
102
}
330
AED0
100
AcDbXrecord
280
     1
270
     1
271
     1
  0
XRECORD
  5
AED1
102
{ACAD_REACTORS
330
AED0
102
}
330
AED0
100
AcDbXrecord
280
     1
270
     1
271
     1
  0
XRECORD
  5
AED5
102
{ACAD_REACTORS
330
AED0
102
}
330
AED0
100
AcDbXrecord
280
     1
270
     1
271
     1
  0
XRECORD
  5
AED4
102
{ACAD_REACTORS
330
AED0
102
}
330
AED0
100
AcDbXrecord
280
     1
270
     1
271
     1
  0
XRECORD
  5
AED6
102
{ACAD_REACTORS
330
AED0
102
}
330
AED0
100
AcDbXrecord
280
     1
270
     1
271
     1
  0
XRECORD
  5
AED3
102
{ACAD_REACTORS
330
AED0
102
}
330
AED0
100
AcDbXrecord
280
     1
270
     1
271
     1
  0
XRECORD
  5
AF40
102
{ACAD_REACTORS
330
AEE0
102
}
330
AEE0
100
AcDbXrecord
280
     1
102
MATERIAL
148
0.0
149
0.0
149
0.0
 93
        0
 94
      127
282
     0
 72
     0
 77
     0
171
     0
175
     0
179
     0
273
     0
  0
XRECORD
  5
AEE2
102
{ACAD_REACTORS
330
AEE0
102
}
330
AEE0
100
AcDbXrecord
280
     1
270
     1
271
     1
  0
XRECORD
  5
AEE1
102
{ACAD_REACTORS
330
AEE0
102
}
330
AEE0
100
AcDbXrecord
280
     1
270
     1
271
     1
  0
XRECORD
  5
AEE5
102
{ACAD_REACTORS
330
AEE0
102
}
330
AEE0
100
AcDbXrecord
280
     1
270
     1
271
     1
  0
XRECORD
  5
AEE4
102
{ACAD_REACTORS
330
AEE0
102
}
330
AEE0
100
AcDbXrecord
280
     1
270
     1
271
     1
  0
XRECORD
  5
AEE6
102
{ACAD_REACTORS
330
AEE0
102
}
330
AEE0
100
AcDbXrecord
280
     1
270
     1
271
     1
  0
XRECORD
  5
AEE3
102
{ACAD_REACTORS
330
AEE0
102
}
330
AEE0
100
AcDbXrecord
280
     1
270
     1
271
     1
  0
XRECORD
  5
AF74
102
{ACAD_REACTORS
330
AF73
102
}
330
AF73
100
AcDbXrecord
280
     1
102
DISPLAYNAME
  1
Imperial24
102
FLAGS
 90
        0
  0
CELLSTYLEMAP
  5
AF3B
102
{ACAD_REACTORS
330
AF3A
102
}
330
AF3A
100
AcDbCellStyleMap
 90
        3
300
CELLSTYLE
  1
TABLEFORMAT_BEGIN
 90
        5
170
     1
 91
        0
 92
    32768
 62
   257
 93
        1
300
CONTENTFORMAT
  1
CONTENTFORMAT_BEGIN
 90
        0
 91
        0
 92
      512
 93
        0
300

 40
0.0
140
1.0
 94
        5
 62
     0
340
AB32
144
0.25
309
CONTENTFORMAT_END
171
     0
 94
        0
309
TABLEFORMAT_END
  1
CELLSTYLE_BEGIN
 90
        1
 91
        1
300
_TITLE
309
CELLSTYLE_END
300
CELLSTYLE
  1
TABLEFORMAT_BEGIN
 90
        5
170
     1
 91
        0
 92
        0
 62
   257
 93
        1
300
CONTENTFORMAT
  1
CONTENTFORMAT_BEGIN
 90
        0
 91
        0
 92
      512
 93
        0
300

 40
0.0
140
1.0
 94
        5
 62
     0
340
AB32
144
0.18
309
CONTENTFORMAT_END
171
     0
 94
        0
309
TABLEFORMAT_END
  1
CELLSTYLE_BEGIN
 90
        2
 91
        1
300
_HEADER
309
CELLSTYLE_END
300
CELLSTYLE
  1
TABLEFORMAT_BEGIN
 90
        5
170
     1
 91
        0
 92
        0
 62
   257
 93
        1
300
CONTENTFORMAT
  1
CONTENTFORMAT_BEGIN
 90
        0
 91
        0
 92
      512
 93
        0
300

 40
0.0
140
1.0
 94
        2
 62
     0
340
AB32
144
0.18
309
CONTENTFORMAT_END
171
     0
 94
        0
309
TABLEFORMAT_END
  1
CELLSTYLE_BEGIN
 90
        3
 91
        2
300
_DATA
309
CELLSTYLE_END
  0
XRECORD
  5
AF71
102
{ACAD_REACTORS
330
AF3A
102
}
330
AF3A
100
AcDbXrecord
280
     1
102
ACAD_ROUNDTRIP_PRE2007_TABLESTYLE
 90
      512
 91
        0
  1

 92
      512
 93
        0
  2

 94
      512
 95
        0
  3

  0
XRECORD
  5
AF4C
102
{ACAD_REACTORS
330
AF4B
102
}
330
AF4B
100
AcDbXrecord
280
     1
102
RTVSPost2010Prop28
280
     1
102
RTVSPost2010PropOp28
 70
     1
102
RTVSPost2010Prop29
280
     1
102
RTVSPost2010PropOp29
 70
     1
102
RTVSPost2010Prop30
280
     0
102
RTVSPost2010PropOp30
 70
     1
102
RTVSPost2010Prop31
280
     0
102
RTVSPost2010PropOp31
 70
     1
102
RTVSPost2010Prop32
280
     0
102
RTVSPost2010PropOp32
 70
     1
102
RTVSPost2010Prop33
280
     0
102
RTVSPost2010PropOp33
 70
     1
102
RTVSPost2010Prop34
280
     0
102
RTVSPost2010PropOp34
 70
     1
102
RTVSPost2010Prop35
280
     0
102
RTVSPost2010PropOp35
 70
     1
102
RTVSPost2010Prop36
280
     0
102
RTVSPost2010PropOp36
 70
     1
102
RTVSPost2010Prop37
 90
       50
102
RTVSPost2010PropOp37
 70
     1
102
RTVSPost2010Prop38
140
0.0
102
RTVSPost2010PropOp38
 70
     1
102
RTVSPost2010Prop39
140
1.0
102
RTVSPost2010PropOp39
 70
     1
102
RTVSPost2010Prop40
 90
        0
102
RTVSPost2010PropOp40
 70
     1
102
RTVSPost2010Prop41ColorIndex
 90
       18
102
RTVSPost2010Prop41ColorRGB
 90
        0
102
RTVSPost2010PropOp41
 70
     1
102
RTVSPost2010Prop42
 90
       50
102
RTVSPost2010PropOp42
 70
     1
102
RTVSPost2010Prop43
 90
        3
102
RTVSPost2010PropOp43
 70
     1
102
RTVSPost2010Prop44ColorIndex
 90
        5
102
RTVSPost2010Prop44ColorRGB
 90
      255
102
RTVSPost2010PropOp44
 70
     1
102
RTVSPost2010Prop45
280
     0
102
RTVSPost2010PropOp45
 70
     1
102
RTVSPost2010Prop46
 90
       50
102
RTVSPost2010PropOp46
 70
     1
102
RTVSPost2010Prop47
 90
       50
102
RTVSPost2010PropOp47
 70
     1
102
RTVSPost2010Prop48
 90
       50
102
RTVSPost2010PropOp48
 70
     1
102
RTVSPost2010Prop49
280
     0
102
RTVSPost2010PropOp49
 70
     1
102
RTVSPost2010Prop50
 90
       50
102
RTVSPost2010PropOp50
 70
     1
102
RTVSPost2010Prop51ColorIndex
 90
      256
102
RTVSPost2010Prop51ColorRGB
 90
-16777216
102
RTVSPost2010PropOp51
 70
     0
102
RTVSPost2010Prop52
140
1.0
102
RTVSPost2010PropOp52
 70
     0
102
RTVSPost2010Prop53
 90
        2
102
RTVSPost2010PropOp53
 70
     1
102
RTVSPost2010Prop54
  1
strokes_ogs.tif
102
RTVSPost2010PropOp54
 70
     1
102
RTVSPost2010Prop55
280
     0
102
RTVSPost2010PropOp55
 70
     1
102
RTVSPost2010Prop56
140
1.0
102
RTVSPost2010PropOp56
 70
     1
102
RTVSPost2010Prop57
140
1.0
102
RTVSPost2010PropOp57
 70
     1
102
RTVSPropertyOp0
 70
     1
102
RTVSPropertyOp1
 70
     1
102
RTVSPropertyOp2
 70
     1
102
RTVSPropertyOp3
 70
     1
102
RTVSPropertyOp4
 70
     1
102
RTVSPropertyOp5
 70
     1
102
RTVSPropertyOp6
 70
     1
102
RTVSPropertyOp7
 70
     1
102
RTVSPropertyOp8
 70
     1
102
RTVSPropertyOp9
 70
     1
102
RTVSPropertyOp10
 70
     1
102
RTVSPropertyOp11
 70
     1
102
RTVSPropertyOp12
 70
     1
102
RTVSPropertyOp13
 70
     1
102
RTVSPropertyOp14
 70
     1
102
RTVSPropertyOp15
 70
     1
102
RTVSPropertyOp16
 70
     1
102
RTVSPropertyOp17
 70
     1
102
RTVSPropertyOp18
 70
     1
102
RTVSPropertyOp19
 70
     1
102
RTVSPropertyOp20
 70
     1
102
RTVSPropertyOp21
 70
     1
102
RTVSPropertyOp22
 70
     1
102
RTVSPropertyOp23
 70
     1
102
RTVSPropertyOp24
 70
     1
102
RTVSPropertyOp25
 70
     1
102
RTVSPropertyOp26
 70
     1
102
RTVSPropertyOp27
 70
     1
102
RTVSPropertyOp28
 70
     1
102
RTVSPropertyOp29
 70
     1
102
RTVSPropertyOp30
 70
     1
102
RTVSPropertyOp31
 70
     1
102
RTVSPropertyOp32
 70
     1
102
RTVSPropertyOp33
 70
     1
102
RTVSPropertyOp34
 70
     1
102
RTVSPropertyOp35
 70
     1
102
RTVSPropertyOp36
 70
     1
102
RTVSPropertyOp37
 70
     1
102
RTVSPropertyOp38
 70
     1
102
RTVSPropertyOp39
 70
     1
102
RTVSPropertyOp40
 70
     1
102
RTVSPropertyOp41
 70
     1
102
RTVSPropertyOp42
 70
     1
102
RTVSPropertyOp43
 70
     1
102
RTVSPropertyOp44
 70
     1
102
RTVSPropertyOp45
 70
     1
102
RTVSPropertyOp46
 70
     1
102
RTVSPropertyOp47
 70
     1
102
RTVSPropertyOp48
 70
     1
102
RTVSPropertyOp49
 70
     1
102
RTVSPropertyOp50
 70
     1
102
RTVSPropertyOp51
 70
     0
102
RTVSPropertyOp52
 70
     0
102
RTVSPropertyOp53
 70
     1
102
RTVSPropertyOp54
 70
     1
102
RTVSPropertyOp55
 70
     1
102
RTVSPropertyOp56
 70
     1
102
RTVSPropertyOp57
 70
     1
102
RTVSPropertyOp58
 70
     1
102
RTVSPropertyOp59
 70
     1
102
RTVSPropertyOp60
 70
     1
102
RTVSPropertyOp61
 70
     1
102
RTVSPropertyOp62
 70
     1
  0
XRECORD
  5
AF4A
102
{ACAD_REACTORS
330
AF49
102
}
330
AF49
100
AcDbXrecord
280
     1
102
RTVSPost2010Prop28
280
     0
102
RTVSPost2010PropOp28
 70
     1
102
RTVSPost2010Prop29
280
     1
102
RTVSPost2010PropOp29
 70
     1
102
RTVSPost2010Prop30
280
     1
102
RTVSPost2010PropOp30
 70
     1
102
RTVSPost2010Prop31
280
     0
102
RTVSPost2010PropOp31
 70
     1
102
RTVSPost2010Prop32
280
     0
102
RTVSPost2010PropOp32
 70
     1
102
RTVSPost2010Prop33
280
     0
102
RTVSPost2010PropOp33
 70
     1
102
RTVSPost2010Prop34
280
     0
102
RTVSPost2010PropOp34
 70
     1
102
RTVSPost2010Prop35
280
     0
102
RTVSPost2010PropOp35
 70
     1
102
RTVSPost2010Prop36
280
     0
102
RTVSPost2010PropOp36
 70
     1
102
RTVSPost2010Prop37
 90
       50
102
RTVSPost2010PropOp37
 70
     1
102
RTVSPost2010Prop38
140
0.0
102
RTVSPost2010PropOp38
 70
     1
102
RTVSPost2010Prop39
140
1.0
102
RTVSPost2010PropOp39
 70
     1
102
RTVSPost2010Prop40
 90
        0
102
RTVSPost2010PropOp40
 70
     1
102
RTVSPost2010Prop41ColorIndex
 90
       18
102
RTVSPost2010Prop41ColorRGB
 90
        0
102
RTVSPost2010PropOp41
 70
     1
102
RTVSPost2010Prop42
 90
       50
102
RTVSPost2010PropOp42
 70
     1
102
RTVSPost2010Prop43
 90
        3
102
RTVSPost2010PropOp43
 70
     1
102
RTVSPost2010Prop44ColorIndex
 90
        5
102
RTVSPost2010Prop44ColorRGB
 90
      255
102
RTVSPost2010PropOp44
 70
     1
102
RTVSPost2010Prop45
280
     0
102
RTVSPost2010PropOp45
 70
     1
102
RTVSPost2010Prop46
 90
       50
102
RTVSPost2010PropOp46
 70
     1
102
RTVSPost2010Prop47
 90
       50
102
RTVSPost2010PropOp47
 70
     1
102
RTVSPost2010Prop48
 90
       50
102
RTVSPost2010PropOp48
 70
     1
102
RTVSPost2010Prop49
280
     0
102
RTVSPost2010PropOp49
 70
     1
102
RTVSPost2010Prop50
 90
       50
102
RTVSPost2010PropOp50
 70
     1
102
RTVSPost2010Prop51ColorIndex
 90
      256
102
RTVSPost2010Prop51ColorRGB
 90
-16777216
102
RTVSPost2010PropOp51
 70
     0
102
RTVSPost2010Prop52
140
1.0
102
RTVSPost2010PropOp52
 70
     0
102
RTVSPost2010Prop53
 90
        2
102
RTVSPost2010PropOp53
 70
     1
102
RTVSPost2010Prop54
  1
strokes_ogs.tif
102
RTVSPost2010PropOp54
 70
     1
102
RTVSPost2010Prop55
280
     0
102
RTVSPost2010PropOp55
 70
     1
102
RTVSPost2010Prop56
140
1.0
102
RTVSPost2010PropOp56
 70
     1
102
RTVSPost2010Prop57
140
1.0
102
RTVSPost2010PropOp57
 70
     1
102
RTVSPropertyOp0
 70
     1
102
RTVSPropertyOp1
 70
     1
102
RTVSPropertyOp2
 70
     1
102
RTVSPropertyOp3
 70
     1
102
RTVSPropertyOp4
 70
     1
102
RTVSPropertyOp5
 70
     1
102
RTVSPropertyOp6
 70
     1
102
RTVSPropertyOp7
 70
     1
102
RTVSPropertyOp8
 70
     1
102
RTVSPropertyOp9
 70
     1
102
RTVSPropertyOp10
 70
     1
102
RTVSPropertyOp11
 70
     1
102
RTVSPropertyOp12
 70
     1
102
RTVSPropertyOp13
 70
     1
102
RTVSPropertyOp14
 70
     1
102
RTVSPropertyOp15
 70
     1
102
RTVSPropertyOp16
 70
     1
102
RTVSPropertyOp17
 70
     1
102
RTVSPropertyOp18
 70
     1
102
RTVSPropertyOp19
 70
     1
102
RTVSPropertyOp20
 70
     1
102
RTVSPropertyOp21
 70
     1
102
RTVSPropertyOp22
 70
     1
102
RTVSPropertyOp23
 70
     1
102
RTVSPropertyOp24
 70
     1
102
RTVSPropertyOp25
 70
     1
102
RTVSPropertyOp26
 70
     1
102
RTVSPropertyOp27
 70
     1
102
RTVSPropertyOp28
 70
     1
102
RTVSPropertyOp29
 70
     1
102
RTVSPropertyOp30
 70
     1
102
RTVSPropertyOp31
 70
     1
102
RTVSPropertyOp32
 70
     1
102
RTVSPropertyOp33
 70
     1
102
RTVSPropertyOp34
 70
     1
102
RTVSPropertyOp35
 70
     1
102
RTVSPropertyOp36
 70
     1
102
RTVSPropertyOp37
 70
     1
102
RTVSPropertyOp38
 70
     1
102
RTVSPropertyOp39
 70
     1
102
RTVSPropertyOp40
 70
     1
102
RTVSPropertyOp41
 70
     1
102
RTVSPropertyOp42
 70
     1
102
RTVSPropertyOp43
 70
     1
102
RTVSPropertyOp44
 70
     1
102
RTVSPropertyOp45
 70
     1
102
RTVSPropertyOp46
 70
     1
102
RTVSPropertyOp47
 70
     1
102
RTVSPropertyOp48
 70
     1
102
RTVSPropertyOp49
 70
     1
102
RTVSPropertyOp50
 70
     1
102
RTVSPropertyOp51
 70
     0
102
RTVSPropertyOp52
 70
     0
102
RTVSPropertyOp53
 70
     1
102
RTVSPropertyOp54
 70
     1
102
RTVSPropertyOp55
 70
     1
102
RTVSPropertyOp56
 70
     1
102
RTVSPropertyOp57
 70
     1
102
RTVSPropertyOp58
 70
     1
102
RTVSPropertyOp59
 70
     1
102
RTVSPropertyOp60
 70
     1
102
RTVSPropertyOp61
 70
     1
102
RTVSPropertyOp62
 70
     1
  0
XRECORD
  5
AF58
102
{ACAD_REACTORS
330
AF57
102
}
330
AF57
100
AcDbXrecord
280
     1
102
RTVSPost2010Prop28
280
     0
102
RTVSPost2010PropOp28
 70
     1
102
RTVSPost2010Prop29
280
     1
102
RTVSPost2010PropOp29
 70
     1
102
RTVSPost2010Prop30
280
     1
102
RTVSPost2010PropOp30
 70
     1
102
RTVSPost2010Prop31
280
     0
102
RTVSPost2010PropOp31
 70
     1
102
RTVSPost2010Prop32
280
     0
102
RTVSPost2010PropOp32
 70
     1
102
RTVSPost2010Prop33
280
     0
102
RTVSPost2010PropOp33
 70
     1
102
RTVSPost2010Prop34
280
     0
102
RTVSPost2010PropOp34
 70
     1
102
RTVSPost2010Prop35
280
     0
102
RTVSPost2010PropOp35
 70
     1
102
RTVSPost2010Prop36
280
     0
102
RTVSPost2010PropOp36
 70
     1
102
RTVSPost2010Prop37
 90
       50
102
RTVSPost2010PropOp37
 70
     1
102
RTVSPost2010Prop38
140
0.0
102
RTVSPost2010PropOp38
 70
     1
102
RTVSPost2010Prop39
140
1.0
102
RTVSPost2010PropOp39
 70
     1
102
RTVSPost2010Prop40
 90
        0
102
RTVSPost2010PropOp40
 70
     1
102
RTVSPost2010Prop41ColorIndex
 90
       18
102
RTVSPost2010Prop41ColorRGB
 90
        0
102
RTVSPost2010PropOp41
 70
     1
102
RTVSPost2010Prop42
 90
       50
102
RTVSPost2010PropOp42
 70
     1
102
RTVSPost2010Prop43
 90
        3
102
RTVSPost2010PropOp43
 70
     1
102
RTVSPost2010Prop44ColorIndex
 90
        5
102
RTVSPost2010Prop44ColorRGB
 90
      255
102
RTVSPost2010PropOp44
 70
     1
102
RTVSPost2010Prop45
280
     0
102
RTVSPost2010PropOp45
 70
     1
102
RTVSPost2010Prop46
 90
       50
102
RTVSPost2010PropOp46
 70
     1
102
RTVSPost2010Prop47
 90
       50
102
RTVSPost2010PropOp47
 70
     1
102
RTVSPost2010Prop48
 90
       50
102
RTVSPost2010PropOp48
 70
     1
102
RTVSPost2010Prop49
280
     0
102
RTVSPost2010PropOp49
 70
     1
102
RTVSPost2010Prop50
 90
       50
102
RTVSPost2010PropOp50
 70
     1
102
RTVSPost2010Prop51ColorIndex
 90
      256
102
RTVSPost2010Prop51ColorRGB
 90
-16777216
102
RTVSPost2010PropOp51
 70
     0
102
RTVSPost2010Prop52
140
1.0
102
RTVSPost2010PropOp52
 70
     0
102
RTVSPost2010Prop53
 90
        2
102
RTVSPost2010PropOp53
 70
     1
102
RTVSPost2010Prop54
  1
strokes_ogs.tif
102
RTVSPost2010PropOp54
 70
     1
102
RTVSPost2010Prop55
280
     0
102
RTVSPost2010PropOp55
 70
     1
102
RTVSPost2010Prop56
140
1.0
102
RTVSPost2010PropOp56
 70
     1
102
RTVSPost2010Prop57
140
1.0
102
RTVSPost2010PropOp57
 70
     1
102
RTVSPropertyOp0
 70
     1
102
RTVSPropertyOp1
 70
     1
102
RTVSPropertyOp2
 70
     1
102
RTVSPropertyOp3
 70
     1
102
RTVSPropertyOp4
 70
     1
102
RTVSPropertyOp5
 70
     1
102
RTVSPropertyOp6
 70
     1
102
RTVSPropertyOp7
 70
     1
102
RTVSPropertyOp8
 70
     1
102
RTVSPropertyOp9
 70
     1
102
RTVSPropertyOp10
 70
     1
102
RTVSPropertyOp11
 70
     1
102
RTVSPropertyOp12
 70
     1
102
RTVSPropertyOp13
 70
     1
102
RTVSPropertyOp14
 70
     1
102
RTVSPropertyOp15
 70
     1
102
RTVSPropertyOp16
 70
     1
102
RTVSPropertyOp17
 70
     1
102
RTVSPropertyOp18
 70
     1
102
RTVSPropertyOp19
 70
     1
102
RTVSPropertyOp20
 70
     1
102
RTVSPropertyOp21
 70
     1
102
RTVSPropertyOp22
 70
     1
102
RTVSPropertyOp23
 70
     1
102
RTVSPropertyOp24
 70
     1
102
RTVSPropertyOp25
 70
     1
102
RTVSPropertyOp26
 70
     1
102
RTVSPropertyOp27
 70
     1
102
RTVSPropertyOp28
 70
     1
102
RTVSPropertyOp29
 70
     1
102
RTVSPropertyOp30
 70
     1
102
RTVSPropertyOp31
 70
     1
102
RTVSPropertyOp32
 70
     1
102
RTVSPropertyOp33
 70
     1
102
RTVSPropertyOp34
 70
     1
102
RTVSPropertyOp35
 70
     1
102
RTVSPropertyOp36
 70
     1
102
RTVSPropertyOp37
 70
     1
102
RTVSPropertyOp38
 70
     1
102
RTVSPropertyOp39
 70
     1
102
RTVSPropertyOp40
 70
     1
102
RTVSPropertyOp41
 70
     1
102
RTVSPropertyOp42
 70
     1
102
RTVSPropertyOp43
 70
     1
102
RTVSPropertyOp44
 70
     1
102
RTVSPropertyOp45
 70
     1
102
RTVSPropertyOp46
 70
     1
102
RTVSPropertyOp47
 70
     1
102
RTVSPropertyOp48
 70
     1
102
RTVSPropertyOp49
 70
     1
102
RTVSPropertyOp50
 70
     1
102
RTVSPropertyOp51
 70
     0
102
RTVSPropertyOp52
 70
     0
102
RTVSPropertyOp53
 70
     1
102
RTVSPropertyOp54
 70
     1
102
RTVSPropertyOp55
 70
     1
102
RTVSPropertyOp56
 70
     1
102
RTVSPropertyOp57
 70
     1
102
RTVSPropertyOp58
 70
     1
102
RTVSPropertyOp59
 70
     1
102
RTVSPropertyOp60
 70
     1
102
RTVSPropertyOp61
 70
     1
102
RTVSPropertyOp62
 70
     1
  0
XRECORD
  5
AF60
102
{ACAD_REACTORS
330
AF5F
102
}
330
AF5F
100
AcDbXrecord
280
     1
102
RTVSPost2010Prop28
280
     0
102
RTVSPost2010PropOp28
 70
     1
102
RTVSPost2010Prop29
280
     1
102
RTVSPost2010PropOp29
 70
     1
102
RTVSPost2010Prop30
280
     1
102
RTVSPost2010PropOp30
 70
     1
102
RTVSPost2010Prop31
280
     0
102
RTVSPost2010PropOp31
 70
     1
102
RTVSPost2010Prop32
280
     0
102
RTVSPost2010PropOp32
 70
     1
102
RTVSPost2010Prop33
280
     0
102
RTVSPost2010PropOp33
 70
     1
102
RTVSPost2010Prop34
280
     0
102
RTVSPost2010PropOp34
 70
     1
102
RTVSPost2010Prop35
280
     0
102
RTVSPost2010PropOp35
 70
     1
102
RTVSPost2010Prop36
280
     0
102
RTVSPost2010PropOp36
 70
     1
102
RTVSPost2010Prop37
 90
       50
102
RTVSPost2010PropOp37
 70
     1
102
RTVSPost2010Prop38
140
0.0
102
RTVSPost2010PropOp38
 70
     1
102
RTVSPost2010Prop39
140
1.0
102
RTVSPost2010PropOp39
 70
     1
102
RTVSPost2010Prop40
 90
        0
102
RTVSPost2010PropOp40
 70
     1
102
RTVSPost2010Prop41ColorIndex
 90
       18
102
RTVSPost2010Prop41ColorRGB
 90
        0
102
RTVSPost2010PropOp41
 70
     1
102
RTVSPost2010Prop42
 90
       50
102
RTVSPost2010PropOp42
 70
     1
102
RTVSPost2010Prop43
 90
        3
102
RTVSPost2010PropOp43
 70
     1
102
RTVSPost2010Prop44ColorIndex
 90
        5
102
RTVSPost2010Prop44ColorRGB
 90
      255
102
RTVSPost2010PropOp44
 70
     1
102
RTVSPost2010Prop45
280
     0
102
RTVSPost2010PropOp45
 70
     1
102
RTVSPost2010Prop46
 90
       50
102
RTVSPost2010PropOp46
 70
     1
102
RTVSPost2010Prop47
 90
       50
102
RTVSPost2010PropOp47
 70
     1
102
RTVSPost2010Prop48
 90
       50
102
RTVSPost2010PropOp48
 70
     1
102
RTVSPost2010Prop49
280
     0
102
RTVSPost2010PropOp49
 70
     1
102
RTVSPost2010Prop50
 90
       50
102
RTVSPost2010PropOp50
 70
     1
102
RTVSPost2010Prop51ColorIndex
 90
      256
102
RTVSPost2010Prop51ColorRGB
 90
-16777216
102
RTVSPost2010PropOp51
 70
     0
102
RTVSPost2010Prop52
140
1.0
102
RTVSPost2010PropOp52
 70
     0
102
RTVSPost2010Prop53
 90
        2
102
RTVSPost2010PropOp53
 70
     1
102
RTVSPost2010Prop54
  1
strokes_ogs.tif
102
RTVSPost2010PropOp54
 70
     1
102
RTVSPost2010Prop55
280
     0
102
RTVSPost2010PropOp55
 70
     1
102
RTVSPost2010Prop56
140
1.0
102
RTVSPost2010PropOp56
 70
     1
102
RTVSPost2010Prop57
140
1.0
102
RTVSPost2010PropOp57
 70
     1
102
RTVSPropertyOp0
 70
     1
102
RTVSPropertyOp1
 70
     1
102
RTVSPropertyOp2
 70
     1
102
RTVSPropertyOp3
 70
     1
102
RTVSPropertyOp4
 70
     1
102
RTVSPropertyOp5
 70
     1
102
RTVSPropertyOp6
 70
     1
102
RTVSPropertyOp7
 70
     1
102
RTVSPropertyOp8
 70
     1
102
RTVSPropertyOp9
 70
     1
102
RTVSPropertyOp10
 70
     1
102
RTVSPropertyOp11
 70
     1
102
RTVSPropertyOp12
 70
     1
102
RTVSPropertyOp13
 70
     1
102
RTVSPropertyOp14
 70
     1
102
RTVSPropertyOp15
 70
     1
102
RTVSPropertyOp16
 70
     1
102
RTVSPropertyOp17
 70
     1
102
RTVSPropertyOp18
 70
     1
102
RTVSPropertyOp19
 70
     1
102
RTVSPropertyOp20
 70
     1
102
RTVSPropertyOp21
 70
     1
102
RTVSPropertyOp22
 70
     1
102
RTVSPropertyOp23
 70
     1
102
RTVSPropertyOp24
 70
     1
102
RTVSPropertyOp25
 70
     1
102
RTVSPropertyOp26
 70
     1
102
RTVSPropertyOp27
 70
     1
102
RTVSPropertyOp28
 70
     1
102
RTVSPropertyOp29
 70
     1
102
RTVSPropertyOp30
 70
     1
102
RTVSPropertyOp31
 70
     1
102
RTVSPropertyOp32
 70
     1
102
RTVSPropertyOp33
 70
     1
102
RTVSPropertyOp34
 70
     1
102
RTVSPropertyOp35
 70
     1
102
RTVSPropertyOp36
 70
     1
102
RTVSPropertyOp37
 70
     1
102
RTVSPropertyOp38
 70
     1
102
RTVSPropertyOp39
 70
     1
102
RTVSPropertyOp40
 70
     1
102
RTVSPropertyOp41
 70
     1
102
RTVSPropertyOp42
 70
     1
102
RTVSPropertyOp43
 70
     1
102
RTVSPropertyOp44
 70
     1
102
RTVSPropertyOp45
 70
     1
102
RTVSPropertyOp46
 70
     1
102
RTVSPropertyOp47
 70
     1
102
RTVSPropertyOp48
 70
     1
102
RTVSPropertyOp49
 70
     1
102
RTVSPropertyOp50
 70
     1
102
RTVSPropertyOp51
 70
     0
102
RTVSPropertyOp52
 70
     0
102
RTVSPropertyOp53
 70
     1
102
RTVSPropertyOp54
 70
     1
102
RTVSPropertyOp55
 70
     1
102
RTVSPropertyOp56
 70
     1
102
RTVSPropertyOp57
 70
     1
102
RTVSPropertyOp58
 70
     1
102
RTVSPropertyOp59
 70
     1
102
RTVSPropertyOp60
 70
     1
102
RTVSPropertyOp61
 70
     1
102
RTVSPropertyOp62
 70
     1
  0
XRECORD
  5
AF52
102
{ACAD_REACTORS
330
AF51
102
}
330
AF51
100
AcDbXrecord
280
     1
102
RTVSPost2010Prop28
280
     0
102
RTVSPost2010PropOp28
 70
     1
102
RTVSPost2010Prop29
280
     1
102
RTVSPost2010PropOp29
 70
     1
102
RTVSPost2010Prop30
280
     1
102
RTVSPost2010PropOp30
 70
     1
102
RTVSPost2010Prop31
280
     0
102
RTVSPost2010PropOp31
 70
     1
102
RTVSPost2010Prop32
280
     0
102
RTVSPost2010PropOp32
 70
     1
102
RTVSPost2010Prop33
280
     0
102
RTVSPost2010PropOp33
 70
     1
102
RTVSPost2010Prop34
280
     0
102
RTVSPost2010PropOp34
 70
     1
102
RTVSPost2010Prop35
280
     0
102
RTVSPost2010PropOp35
 70
     1
102
RTVSPost2010Prop36
280
     0
102
RTVSPost2010PropOp36
 70
     1
102
RTVSPost2010Prop37
 90
       50
102
RTVSPost2010PropOp37
 70
     1
102
RTVSPost2010Prop38
140
0.0
102
RTVSPost2010PropOp38
 70
     1
102
RTVSPost2010Prop39
140
1.0
102
RTVSPost2010PropOp39
 70
     1
102
RTVSPost2010Prop40
 90
        0
102
RTVSPost2010PropOp40
 70
     1
102
RTVSPost2010Prop41ColorIndex
 90
       18
102
RTVSPost2010Prop41ColorRGB
 90
        0
102
RTVSPost2010PropOp41
 70
     1
102
RTVSPost2010Prop42
 90
       50
102
RTVSPost2010PropOp42
 70
     1
102
RTVSPost2010Prop43
 90
        3
102
RTVSPost2010PropOp43
 70
     1
102
RTVSPost2010Prop44ColorIndex
 90
        5
102
RTVSPost2010Prop44ColorRGB
 90
      255
102
RTVSPost2010PropOp44
 70
     1
102
RTVSPost2010Prop45
280
     0
102
RTVSPost2010PropOp45
 70
     1
102
RTVSPost2010Prop46
 90
       50
102
RTVSPost2010PropOp46
 70
     1
102
RTVSPost2010Prop47
 90
       50
102
RTVSPost2010PropOp47
 70
     1
102
RTVSPost2010Prop48
 90
       50
102
RTVSPost2010PropOp48
 70
     1
102
RTVSPost2010Prop49
280
     0
102
RTVSPost2010PropOp49
 70
     1
102
RTVSPost2010Prop50
 90
       50
102
RTVSPost2010PropOp50
 70
     1
102
RTVSPost2010Prop51ColorIndex
 90
      256
102
RTVSPost2010Prop51ColorRGB
 90
-16777216
102
RTVSPost2010PropOp51
 70
     0
102
RTVSPost2010Prop52
140
1.0
102
RTVSPost2010PropOp52
 70
     0
102
RTVSPost2010Prop53
 90
        2
102
RTVSPost2010PropOp53
 70
     1
102
RTVSPost2010Prop54
  1
strokes_ogs.tif
102
RTVSPost2010PropOp54
 70
     1
102
RTVSPost2010Prop55
280
     0
102
RTVSPost2010PropOp55
 70
     1
102
RTVSPost2010Prop56
140
1.0
102
RTVSPost2010PropOp56
 70
     1
102
RTVSPost2010Prop57
140
1.0
102
RTVSPost2010PropOp57
 70
     1
102
RTVSPropertyOp0
 70
     1
102
RTVSPropertyOp1
 70
     1
102
RTVSPropertyOp2
 70
     1
102
RTVSPropertyOp3
 70
     1
102
RTVSPropertyOp4
 70
     1
102
RTVSPropertyOp5
 70
     1
102
RTVSPropertyOp6
 70
     1
102
RTVSPropertyOp7
 70
     1
102
RTVSPropertyOp8
 70
     1
102
RTVSPropertyOp9
 70
     1
102
RTVSPropertyOp10
 70
     1
102
RTVSPropertyOp11
 70
     1
102
RTVSPropertyOp12
 70
     1
102
RTVSPropertyOp13
 70
     1
102
RTVSPropertyOp14
 70
     1
102
RTVSPropertyOp15
 70
     1
102
RTVSPropertyOp16
 70
     1
102
RTVSPropertyOp17
 70
     1
102
RTVSPropertyOp18
 70
     1
102
RTVSPropertyOp19
 70
     1
102
RTVSPropertyOp20
 70
     1
102
RTVSPropertyOp21
 70
     1
102
RTVSPropertyOp22
 70
     1
102
RTVSPropertyOp23
 70
     1
102
RTVSPropertyOp24
 70
     1
102
RTVSPropertyOp25
 70
     1
102
RTVSPropertyOp26
 70
     1
102
RTVSPropertyOp27
 70
     1
102
RTVSPropertyOp28
 70
     1
102
RTVSPropertyOp29
 70
     1
102
RTVSPropertyOp30
 70
     1
102
RTVSPropertyOp31
 70
     1
102
RTVSPropertyOp32
 70
     1
102
RTVSPropertyOp33
 70
     1
102
RTVSPropertyOp34
 70
     1
102
RTVSPropertyOp35
 70
     1
102
RTVSPropertyOp36
 70
     1
102
RTVSPropertyOp37
 70
     1
102
RTVSPropertyOp38
 70
     1
102
RTVSPropertyOp39
 70
     1
102
RTVSPropertyOp40
 70
     1
102
RTVSPropertyOp41
 70
     1
102
RTVSPropertyOp42
 70
     1
102
RTVSPropertyOp43
 70
     1
102
RTVSPropertyOp44
 70
     1
102
RTVSPropertyOp45
 70
     1
102
RTVSPropertyOp46
 70
     1
102
RTVSPropertyOp47
 70
     1
102
RTVSPropertyOp48
 70
     1
102
RTVSPropertyOp49
 70
     1
102
RTVSPropertyOp50
 70
     1
102
RTVSPropertyOp51
 70
     0
102
RTVSPropertyOp52
 70
     0
102
RTVSPropertyOp53
 70
     1
102
RTVSPropertyOp54
 70
     1
102
RTVSPropertyOp55
 70
     1
102
RTVSPropertyOp56
 70
     1
102
RTVSPropertyOp57
 70
     1
102
RTVSPropertyOp58
 70
     1
102
RTVSPropertyOp59
 70
     1
102
RTVSPropertyOp60
 70
     1
102
RTVSPropertyOp61
 70
     1
102
RTVSPropertyOp62
 70
     1
  0
XRECORD
  5
AF56
102
{ACAD_REACTORS
330
AF55
102
}
330
AF55
100
AcDbXrecord
280
     1
102
RTVSPost2010Prop28
280
     0
102
RTVSPost2010PropOp28
 70
     1
102
RTVSPost2010Prop29
280
     1
102
RTVSPost2010PropOp29
 70
     1
102
RTVSPost2010Prop30
280
     1
102
RTVSPost2010PropOp30
 70
     1
102
RTVSPost2010Prop31
280
     0
102
RTVSPost2010PropOp31
 70
     1
102
RTVSPost2010Prop32
280
     0
102
RTVSPost2010PropOp32
 70
     1
102
RTVSPost2010Prop33
280
     0
102
RTVSPost2010PropOp33
 70
     1
102
RTVSPost2010Prop34
280
     0
102
RTVSPost2010PropOp34
 70
     1
102
RTVSPost2010Prop35
280
     0
102
RTVSPost2010PropOp35
 70
     1
102
RTVSPost2010Prop36
280
     0
102
RTVSPost2010PropOp36
 70
     1
102
RTVSPost2010Prop37
 90
       50
102
RTVSPost2010PropOp37
 70
     1
102
RTVSPost2010Prop38
140
0.0
102
RTVSPost2010PropOp38
 70
     1
102
RTVSPost2010Prop39
140
1.0
102
RTVSPost2010PropOp39
 70
     1
102
RTVSPost2010Prop40
 90
        0
102
RTVSPost2010PropOp40
 70
     1
102
RTVSPost2010Prop41ColorIndex
 90
       18
102
RTVSPost2010Prop41ColorRGB
 90
        0
102
RTVSPost2010PropOp41
 70
     1
102
RTVSPost2010Prop42
 90
       50
102
RTVSPost2010PropOp42
 70
     1
102
RTVSPost2010Prop43
 90
        3
102
RTVSPost2010PropOp43
 70
     1
102
RTVSPost2010Prop44ColorIndex
 90
        5
102
RTVSPost2010Prop44ColorRGB
 90
      255
102
RTVSPost2010PropOp44
 70
     1
102
RTVSPost2010Prop45
280
     0
102
RTVSPost2010PropOp45
 70
     1
102
RTVSPost2010Prop46
 90
       50
102
RTVSPost2010PropOp46
 70
     1
102
RTVSPost2010Prop47
 90
       50
102
RTVSPost2010PropOp47
 70
     1
102
RTVSPost2010Prop48
 90
       50
102
RTVSPost2010PropOp48
 70
     1
102
RTVSPost2010Prop49
280
     0
102
RTVSPost2010PropOp49
 70
     1
102
RTVSPost2010Prop50
 90
       50
102
RTVSPost2010PropOp50
 70
     1
102
RTVSPost2010Prop51ColorIndex
 90
      256
102
RTVSPost2010Prop51ColorRGB
 90
-16777216
102
RTVSPost2010PropOp51
 70
     0
102
RTVSPost2010Prop52
140
1.0
102
RTVSPost2010PropOp52
 70
     0
102
RTVSPost2010Prop53
 90
        2
102
RTVSPost2010PropOp53
 70
     1
102
RTVSPost2010Prop54
  1
strokes_ogs.tif
102
RTVSPost2010PropOp54
 70
     1
102
RTVSPost2010Prop55
280
     0
102
RTVSPost2010PropOp55
 70
     1
102
RTVSPost2010Prop56
140
1.0
102
RTVSPost2010PropOp56
 70
     1
102
RTVSPost2010Prop57
140
1.0
102
RTVSPost2010PropOp57
 70
     1
102
RTVSPropertyOp0
 70
     1
102
RTVSPropertyOp1
 70
     1
102
RTVSPropertyOp2
 70
     1
102
RTVSPropertyOp3
 70
     1
102
RTVSPropertyOp4
 70
     1
102
RTVSPropertyOp5
 70
     1
102
RTVSPropertyOp6
 70
     1
102
RTVSPropertyOp7
 70
     1
102
RTVSPropertyOp8
 70
     1
102
RTVSPropertyOp9
 70
     1
102
RTVSPropertyOp10
 70
     1
102
RTVSPropertyOp11
 70
     1
102
RTVSPropertyOp12
 70
     1
102
RTVSPropertyOp13
 70
     1
102
RTVSPropertyOp14
 70
     1
102
RTVSPropertyOp15
 70
     1
102
RTVSPropertyOp16
 70
     1
102
RTVSPropertyOp17
 70
     1
102
RTVSPropertyOp18
 70
     1
102
RTVSPropertyOp19
 70
     1
102
RTVSPropertyOp20
 70
     1
102
RTVSPropertyOp21
 70
     1
102
RTVSPropertyOp22
 70
     1
102
RTVSPropertyOp23
 70
     1
102
RTVSPropertyOp24
 70
     1
102
RTVSPropertyOp25
 70
     1
102
RTVSPropertyOp26
 70
     1
102
RTVSPropertyOp27
 70
     1
102
RTVSPropertyOp28
 70
     1
102
RTVSPropertyOp29
 70
     1
102
RTVSPropertyOp30
 70
     1
102
RTVSPropertyOp31
 70
     1
102
RTVSPropertyOp32
 70
     1
102
RTVSPropertyOp33
 70
     1
102
RTVSPropertyOp34
 70
     1
102
RTVSPropertyOp35
 70
     1
102
RTVSPropertyOp36
 70
     1
102
RTVSPropertyOp37
 70
     1
102
RTVSPropertyOp38
 70
     1
102
RTVSPropertyOp39
 70
     1
102
RTVSPropertyOp40
 70
     1
102
RTVSPropertyOp41
 70
     1
102
RTVSPropertyOp42
 70
     1
102
RTVSPropertyOp43
 70
     1
102
RTVSPropertyOp44
 70
     1
102
RTVSPropertyOp45
 70
     1
102
RTVSPropertyOp46
 70
     1
102
RTVSPropertyOp47
 70
     1
102
RTVSPropertyOp48
 70
     1
102
RTVSPropertyOp49
 70
     1
102
RTVSPropertyOp50
 70
     1
102
RTVSPropertyOp51
 70
     0
102
RTVSPropertyOp52
 70
     0
102
RTVSPropertyOp53
 70
     1
102
RTVSPropertyOp54
 70
     1
102
RTVSPropertyOp55
 70
     1
102
RTVSPropertyOp56
 70
     1
102
RTVSPropertyOp57
 70
     1
102
RTVSPropertyOp58
 70
     1
102
RTVSPropertyOp59
 70
     1
102
RTVSPropertyOp60
 70
     1
102
RTVSPropertyOp61
 70
     1
102
RTVSPropertyOp62
 70
     1
  0
XRECORD
  5
AF70
102
{ACAD_REACTORS
330
AF6F
102
}
330
AF6F
100
AcDbXrecord
280
     1
102
RTVSPost2010Prop28
280
     0
102
RTVSPost2010PropOp28
 70
     1
102
RTVSPost2010Prop29
280
     1
102
RTVSPost2010PropOp29
 70
     1
102
RTVSPost2010Prop30
280
     1
102
RTVSPost2010PropOp30
 70
     1
102
RTVSPost2010Prop31
280
     0
102
RTVSPost2010PropOp31
 70
     1
102
RTVSPost2010Prop32
280
     0
102
RTVSPost2010PropOp32
 70
     1
102
RTVSPost2010Prop33
280
     0
102
RTVSPost2010PropOp33
 70
     1
102
RTVSPost2010Prop34
280
     0
102
RTVSPost2010PropOp34
 70
     1
102
RTVSPost2010Prop35
280
     0
102
RTVSPost2010PropOp35
 70
     1
102
RTVSPost2010Prop36
280
     0
102
RTVSPost2010PropOp36
 70
     1
102
RTVSPost2010Prop37
 90
       50
102
RTVSPost2010PropOp37
 70
     0
102
RTVSPost2010Prop38
140
0.0
102
RTVSPost2010PropOp38
 70
     0
102
RTVSPost2010Prop39
140
1.0
102
RTVSPost2010PropOp39
 70
     0
102
RTVSPost2010Prop40
 90
        0
102
RTVSPost2010PropOp40
 70
     0
102
RTVSPost2010Prop41ColorIndex
 90
       18
102
RTVSPost2010Prop41ColorRGB
 90
        0
102
RTVSPost2010PropOp41
 70
     0
102
RTVSPost2010Prop42
 90
       50
102
RTVSPost2010PropOp42
 70
     0
102
RTVSPost2010Prop43
 90
        3
102
RTVSPost2010PropOp43
 70
     0
102
RTVSPost2010Prop44ColorIndex
 90
        5
102
RTVSPost2010Prop44ColorRGB
 90
      255
102
RTVSPost2010PropOp44
 70
     0
102
RTVSPost2010Prop45
280
     0
102
RTVSPost2010PropOp45
 70
     1
102
RTVSPost2010Prop46
 90
       50
102
RTVSPost2010PropOp46
 70
     0
102
RTVSPost2010Prop47
 90
       50
102
RTVSPost2010PropOp47
 70
     0
102
RTVSPost2010Prop48
 90
       50
102
RTVSPost2010PropOp48
 70
     0
102
RTVSPost2010Prop49
280
     0
102
RTVSPost2010PropOp49
 70
     1
102
RTVSPost2010Prop50
 90
       50
102
RTVSPost2010PropOp50
 70
     0
102
RTVSPost2010Prop51ColorIndex
 90
      256
102
RTVSPost2010Prop51ColorRGB
 90
-16777216
102
RTVSPost2010PropOp51
 70
     0
102
RTVSPost2010Prop52
140
1.0
102
RTVSPost2010PropOp52
 70
     0
102
RTVSPost2010Prop53
 90
        2
102
RTVSPost2010PropOp53
 70
     0
102
RTVSPost2010Prop54
  1
strokes_ogs.tif
102
RTVSPost2010PropOp54
 70
     0
102
RTVSPost2010Prop55
280
     0
102
RTVSPost2010PropOp55
 70
     1
102
RTVSPost2010Prop56
140
1.0
102
RTVSPost2010PropOp56
 70
     0
102
RTVSPost2010Prop57
140
1.0
102
RTVSPost2010PropOp57
 70
     0
102
RTVSPropertyOp0
 70
     0
102
RTVSPropertyOp1
 70
     0
102
RTVSPropertyOp2
 70
     0
102
RTVSPropertyOp3
 70
     0
102
RTVSPropertyOp4
 70
     0
102
RTVSPropertyOp5
 70
     0
102
RTVSPropertyOp6
 70
     0
102
RTVSPropertyOp7
 70
     0
102
RTVSPropertyOp8
 70
     0
102
RTVSPropertyOp9
 70
     0
102
RTVSPropertyOp10
 70
     0
102
RTVSPropertyOp11
 70
     0
102
RTVSPropertyOp12
 70
     0
102
RTVSPropertyOp13
 70
     0
102
RTVSPropertyOp14
 70
     2
102
RTVSPropertyOp15
 70
     0
102
RTVSPropertyOp16
 70
     0
102
RTVSPropertyOp17
 70
     0
102
RTVSPropertyOp18
 70
     0
102
RTVSPropertyOp19
 70
     0
102
RTVSPropertyOp20
 70
     0
102
RTVSPropertyOp21
 70
     0
102
RTVSPropertyOp22
 70
     0
102
RTVSPropertyOp23
 70
     0
102
RTVSPropertyOp24
 70
     0
102
RTVSPropertyOp25
 70
     0
102
RTVSPropertyOp26
 70
     0
102
RTVSPropertyOp27
 70
     0
102
RTVSPropertyOp28
 70
     1
102
RTVSPropertyOp29
 70
     1
102
RTVSPropertyOp30
 70
     1
102
RTVSPropertyOp31
 70
     1
102
RTVSPropertyOp32
 70
     1
102
RTVSPropertyOp33
 70
     1
102
RTVSPropertyOp34
 70
     1
102
RTVSPropertyOp35
 70
     1
102
RTVSPropertyOp36
 70
     1
102
RTVSPropertyOp37
 70
     0
102
RTVSPropertyOp38
 70
     0
102
RTVSPropertyOp39
 70
     0
102
RTVSPropertyOp40
 70
     0
102
RTVSPropertyOp41
 70
     0
102
RTVSPropertyOp42
 70
     0
102
RTVSPropertyOp43
 70
     0
102
RTVSPropertyOp44
 70
     0
102
RTVSPropertyOp45
 70
     1
102
RTVSPropertyOp46
 70
     0
102
RTVSPropertyOp47
 70
     0
102
RTVSPropertyOp48
 70
     0
102
RTVSPropertyOp49
 70
     1
102
RTVSPropertyOp50
 70
     0
102
RTVSPropertyOp51
 70
     0
102
RTVSPropertyOp52
 70
     0
102
RTVSPropertyOp53
 70
     0
102
RTVSPropertyOp54
 70
     0
102
RTVSPropertyOp55
 70
     1
102
RTVSPropertyOp56
 70
     0
102
RTVSPropertyOp57
 70
     0
102
RTVSPropertyOp58
 70
     0
102
RTVSPropertyOp59
 70
     0
102
RTVSPropertyOp60
 70
     0
102
RTVSPropertyOp61
 70
     0
102
RTVSPropertyOp62
 70
     0
  0
XRECORD
  5
AF5E
102
{ACAD_REACTORS
330
AF5D
102
}
330
AF5D
100
AcDbXrecord
280
     1
102
RTVSPost2010Prop28
280
     0
102
RTVSPost2010PropOp28
 70
     1
102
RTVSPost2010Prop29
280
     1
102
RTVSPost2010PropOp29
 70
     1
102
RTVSPost2010Prop30
280
     1
102
RTVSPost2010PropOp30
 70
     1
102
RTVSPost2010Prop31
280
     0
102
RTVSPost2010PropOp31
 70
     1
102
RTVSPost2010Prop32
280
     0
102
RTVSPost2010PropOp32
 70
     1
102
RTVSPost2010Prop33
280
     0
102
RTVSPost2010PropOp33
 70
     1
102
RTVSPost2010Prop34
280
     0
102
RTVSPost2010PropOp34
 70
     1
102
RTVSPost2010Prop35
280
     0
102
RTVSPost2010PropOp35
 70
     1
102
RTVSPost2010Prop36
280
     0
102
RTVSPost2010PropOp36
 70
     1
102
RTVSPost2010Prop37
 90
       50
102
RTVSPost2010PropOp37
 70
     1
102
RTVSPost2010Prop38
140
0.0
102
RTVSPost2010PropOp38
 70
     1
102
RTVSPost2010Prop39
140
1.0
102
RTVSPost2010PropOp39
 70
     1
102
RTVSPost2010Prop40
 90
        0
102
RTVSPost2010PropOp40
 70
     1
102
RTVSPost2010Prop41ColorIndex
 90
       18
102
RTVSPost2010Prop41ColorRGB
 90
        0
102
RTVSPost2010PropOp41
 70
     1
102
RTVSPost2010Prop42
 90
       50
102
RTVSPost2010PropOp42
 70
     1
102
RTVSPost2010Prop43
 90
        3
102
RTVSPost2010PropOp43
 70
     1
102
RTVSPost2010Prop44ColorIndex
 90
        5
102
RTVSPost2010Prop44ColorRGB
 90
      255
102
RTVSPost2010PropOp44
 70
     1
102
RTVSPost2010Prop45
280
     0
102
RTVSPost2010PropOp45
 70
     1
102
RTVSPost2010Prop46
 90
       50
102
RTVSPost2010PropOp46
 70
     1
102
RTVSPost2010Prop47
 90
       50
102
RTVSPost2010PropOp47
 70
     1
102
RTVSPost2010Prop48
 90
       50
102
RTVSPost2010PropOp48
 70
     1
102
RTVSPost2010Prop49
280
     0
102
RTVSPost2010PropOp49
 70
     1
102
RTVSPost2010Prop50
 90
       50
102
RTVSPost2010PropOp50
 70
     1
102
RTVSPost2010Prop51ColorIndex
 90
      256
102
RTVSPost2010Prop51ColorRGB
 90
-16777216
102
RTVSPost2010PropOp51
 70
     0
102
RTVSPost2010Prop52
140
1.0
102
RTVSPost2010PropOp52
 70
     0
102
RTVSPost2010Prop53
 90
        2
102
RTVSPost2010PropOp53
 70
     1
102
RTVSPost2010Prop54
  1
strokes_ogs.tif
102
RTVSPost2010PropOp54
 70
     1
102
RTVSPost2010Prop55
280
     0
102
RTVSPost2010PropOp55
 70
     1
102
RTVSPost2010Prop56
140
1.0
102
RTVSPost2010PropOp56
 70
     1
102
RTVSPost2010Prop57
140
1.0
102
RTVSPost2010PropOp57
 70
     1
102
RTVSPropertyOp0
 70
     1
102
RTVSPropertyOp1
 70
     1
102
RTVSPropertyOp2
 70
     1
102
RTVSPropertyOp3
 70
     1
102
RTVSPropertyOp4
 70
     1
102
RTVSPropertyOp5
 70
     1
102
RTVSPropertyOp6
 70
     1
102
RTVSPropertyOp7
 70
     1
102
RTVSPropertyOp8
 70
     1
102
RTVSPropertyOp9
 70
     1
102
RTVSPropertyOp10
 70
     1
102
RTVSPropertyOp11
 70
     1
102
RTVSPropertyOp12
 70
     1
102
RTVSPropertyOp13
 70
     1
102
RTVSPropertyOp14
 70
     1
102
RTVSPropertyOp15
 70
     1
102
RTVSPropertyOp16
 70
     1
102
RTVSPropertyOp17
 70
     1
102
RTVSPropertyOp18
 70
     1
102
RTVSPropertyOp19
 70
     1
102
RTVSPropertyOp20
 70
     1
102
RTVSPropertyOp21
 70
     1
102
RTVSPropertyOp22
 70
     1
102
RTVSPropertyOp23
 70
     1
102
RTVSPropertyOp24
 70
     1
102
RTVSPropertyOp25
 70
     1
102
RTVSPropertyOp26
 70
     1
102
RTVSPropertyOp27
 70
     1
102
RTVSPropertyOp28
 70
     1
102
RTVSPropertyOp29
 70
     1
102
RTVSPropertyOp30
 70
     1
102
RTVSPropertyOp31
 70
     1
102
RTVSPropertyOp32
 70
     1
102
RTVSPropertyOp33
 70
     1
102
RTVSPropertyOp34
 70
     1
102
RTVSPropertyOp35
 70
     1
102
RTVSPropertyOp36
 70
     1
102
RTVSPropertyOp37
 70
     1
102
RTVSPropertyOp38
 70
     1
102
RTVSPropertyOp39
 70
     1
102
RTVSPropertyOp40
 70
     1
102
RTVSPropertyOp41
 70
     1
102
RTVSPropertyOp42
 70
     1
102
RTVSPropertyOp43
 70
     1
102
RTVSPropertyOp44
 70
     1
102
RTVSPropertyOp45
 70
     1
102
RTVSPropertyOp46
 70
     1
102
RTVSPropertyOp47
 70
     1
102
RTVSPropertyOp48
 70
     1
102
RTVSPropertyOp49
 70
     1
102
RTVSPropertyOp50
 70
     1
102
RTVSPropertyOp51
 70
     0
102
RTVSPropertyOp52
 70
     0
102
RTVSPropertyOp53
 70
     1
102
RTVSPropertyOp54
 70
     1
102
RTVSPropertyOp55
 70
     1
102
RTVSPropertyOp56
 70
     1
102
RTVSPropertyOp57
 70
     1
102
RTVSPropertyOp58
 70
     1
102
RTVSPropertyOp59
 70
     1
102
RTVSPropertyOp60
 70
     1
102
RTVSPropertyOp61
 70
     1
102
RTVSPropertyOp62
 70
     1
  0
XRECORD
  5
AF42
102
{ACAD_REACTORS
330
AF41
102
}
330
AF41
100
AcDbXrecord
280
     1
102
RTVSPost2010Prop28
280
     0
102
RTVSPost2010PropOp28
 70
     1
102
RTVSPost2010Prop29
280
     1
102
RTVSPost2010PropOp29
 70
     1
102
RTVSPost2010Prop30
280
     1
102
RTVSPost2010PropOp30
 70
     1
102
RTVSPost2010Prop31
280
     0
102
RTVSPost2010PropOp31
 70
     1
102
RTVSPost2010Prop32
280
     0
102
RTVSPost2010PropOp32
 70
     1
102
RTVSPost2010Prop33
280
     0
102
RTVSPost2010PropOp33
 70
     1
102
RTVSPost2010Prop34
280
     0
102
RTVSPost2010PropOp34
 70
     1
102
RTVSPost2010Prop35
280
     0
102
RTVSPost2010PropOp35
 70
     1
102
RTVSPost2010Prop36
280
     0
102
RTVSPost2010PropOp36
 70
     1
102
RTVSPost2010Prop37
 90
       50
102
RTVSPost2010PropOp37
 70
     1
102
RTVSPost2010Prop38
140
0.0
102
RTVSPost2010PropOp38
 70
     1
102
RTVSPost2010Prop39
140
1.0
102
RTVSPost2010PropOp39
 70
     1
102
RTVSPost2010Prop40
 90
        0
102
RTVSPost2010PropOp40
 70
     1
102
RTVSPost2010Prop41ColorIndex
 90
       18
102
RTVSPost2010Prop41ColorRGB
 90
        0
102
RTVSPost2010PropOp41
 70
     1
102
RTVSPost2010Prop42
 90
       50
102
RTVSPost2010PropOp42
 70
     1
102
RTVSPost2010Prop43
 90
        3
102
RTVSPost2010PropOp43
 70
     1
102
RTVSPost2010Prop44ColorIndex
 90
        5
102
RTVSPost2010Prop44ColorRGB
 90
      255
102
RTVSPost2010PropOp44
 70
     1
102
RTVSPost2010Prop45
280
     0
102
RTVSPost2010PropOp45
 70
     1
102
RTVSPost2010Prop46
 90
       50
102
RTVSPost2010PropOp46
 70
     1
102
RTVSPost2010Prop47
 90
       50
102
RTVSPost2010PropOp47
 70
     1
102
RTVSPost2010Prop48
 90
       50
102
RTVSPost2010PropOp48
 70
     1
102
RTVSPost2010Prop49
280
     0
102
RTVSPost2010PropOp49
 70
     1
102
RTVSPost2010Prop50
 90
       50
102
RTVSPost2010PropOp50
 70
     1
102
RTVSPost2010Prop51ColorIndex
 90
      256
102
RTVSPost2010Prop51ColorRGB
 90
-16777216
102
RTVSPost2010PropOp51
 70
     0
102
RTVSPost2010Prop52
140
1.0
102
RTVSPost2010PropOp52
 70
     0
102
RTVSPost2010Prop53
 90
        2
102
RTVSPost2010PropOp53
 70
     1
102
RTVSPost2010Prop54
  1
strokes_ogs.tif
102
RTVSPost2010PropOp54
 70
     1
102
RTVSPost2010Prop55
280
     0
102
RTVSPost2010PropOp55
 70
     1
102
RTVSPost2010Prop56
140
1.0
102
RTVSPost2010PropOp56
 70
     1
102
RTVSPost2010Prop57
140
1.0
102
RTVSPost2010PropOp57
 70
     1
102
RTVSPropertyOp0
 70
     1
102
RTVSPropertyOp1
 70
     1
102
RTVSPropertyOp2
 70
     1
102
RTVSPropertyOp3
 70
     1
102
RTVSPropertyOp4
 70
     1
102
RTVSPropertyOp5
 70
     1
102
RTVSPropertyOp6
 70
     1
102
RTVSPropertyOp7
 70
     1
102
RTVSPropertyOp8
 70
     1
102
RTVSPropertyOp9
 70
     1
102
RTVSPropertyOp10
 70
     1
102
RTVSPropertyOp11
 70
     1
102
RTVSPropertyOp12
 70
     1
102
RTVSPropertyOp13
 70
     1
102
RTVSPropertyOp14
 70
     1
102
RTVSPropertyOp15
 70
     1
102
RTVSPropertyOp16
 70
     1
102
RTVSPropertyOp17
 70
     1
102
RTVSPropertyOp18
 70
     1
102
RTVSPropertyOp19
 70
     1
102
RTVSPropertyOp20
 70
     1
102
RTVSPropertyOp21
 70
     1
102
RTVSPropertyOp22
 70
     1
102
RTVSPropertyOp23
 70
     1
102
RTVSPropertyOp24
 70
     1
102
RTVSPropertyOp25
 70
     1
102
RTVSPropertyOp26
 70
     1
102
RTVSPropertyOp27
 70
     1
102
RTVSPropertyOp28
 70
     1
102
RTVSPropertyOp29
 70
     1
102
RTVSPropertyOp30
 70
     1
102
RTVSPropertyOp31
 70
     1
102
RTVSPropertyOp32
 70
     1
102
RTVSPropertyOp33
 70
     1
102
RTVSPropertyOp34
 70
     1
102
RTVSPropertyOp35
 70
     1
102
RTVSPropertyOp36
 70
     1
102
RTVSPropertyOp37
 70
     1
102
RTVSPropertyOp38
 70
     1
102
RTVSPropertyOp39
 70
     1
102
RTVSPropertyOp40
 70
     1
102
RTVSPropertyOp41
 70
     1
102
RTVSPropertyOp42
 70
     1
102
RTVSPropertyOp43
 70
     1
102
RTVSPropertyOp44
 70
     1
102
RTVSPropertyOp45
 70
     1
102
RTVSPropertyOp46
 70
     1
102
RTVSPropertyOp47
 70
     1
102
RTVSPropertyOp48
 70
     1
102
RTVSPropertyOp49
 70
     1
102
RTVSPropertyOp50
 70
     1
102
RTVSPropertyOp51
 70
     0
102
RTVSPropertyOp52
 70
     0
102
RTVSPropertyOp53
 70
     1
102
RTVSPropertyOp54
 70
     1
102
RTVSPropertyOp55
 70
     1
102
RTVSPropertyOp56
 70
     1
102
RTVSPropertyOp57
 70
     1
102
RTVSPropertyOp58
 70
     1
102
RTVSPropertyOp59
 70
     1
102
RTVSPropertyOp60
 70
     1
102
RTVSPropertyOp61
 70
     1
102
RTVSPropertyOp62
 70
     1
  0
XRECORD
  5
AF44
102
{ACAD_REACTORS
330
AF43
102
}
330
AF43
100
AcDbXrecord
280
     1
102
RTVSPost2010Prop28
280
     0
102
RTVSPost2010PropOp28
 70
     1
102
RTVSPost2010Prop29
280
     1
102
RTVSPost2010PropOp29
 70
     1
102
RTVSPost2010Prop30
280
     1
102
RTVSPost2010PropOp30
 70
     1
102
RTVSPost2010Prop31
280
     0
102
RTVSPost2010PropOp31
 70
     1
102
RTVSPost2010Prop32
280
     0
102
RTVSPost2010PropOp32
 70
     1
102
RTVSPost2010Prop33
280
     0
102
RTVSPost2010PropOp33
 70
     1
102
RTVSPost2010Prop34
280
     0
102
RTVSPost2010PropOp34
 70
     1
102
RTVSPost2010Prop35
280
     0
102
RTVSPost2010PropOp35
 70
     1
102
RTVSPost2010Prop36
280
     0
102
RTVSPost2010PropOp36
 70
     1
102
RTVSPost2010Prop37
 90
       50
102
RTVSPost2010PropOp37
 70
     1
102
RTVSPost2010Prop38
140
0.0
102
RTVSPost2010PropOp38
 70
     1
102
RTVSPost2010Prop39
140
1.0
102
RTVSPost2010PropOp39
 70
     1
102
RTVSPost2010Prop40
 90
        0
102
RTVSPost2010PropOp40
 70
     1
102
RTVSPost2010Prop41ColorIndex
 90
       18
102
RTVSPost2010Prop41ColorRGB
 90
        0
102
RTVSPost2010PropOp41
 70
     1
102
RTVSPost2010Prop42
 90
       50
102
RTVSPost2010PropOp42
 70
     1
102
RTVSPost2010Prop43
 90
        3
102
RTVSPost2010PropOp43
 70
     1
102
RTVSPost2010Prop44ColorIndex
 90
        5
102
RTVSPost2010Prop44ColorRGB
 90
      255
102
RTVSPost2010PropOp44
 70
     1
102
RTVSPost2010Prop45
280
     0
102
RTVSPost2010PropOp45
 70
     1
102
RTVSPost2010Prop46
 90
       50
102
RTVSPost2010PropOp46
 70
     1
102
RTVSPost2010Prop47
 90
       50
102
RTVSPost2010PropOp47
 70
     1
102
RTVSPost2010Prop48
 90
       50
102
RTVSPost2010PropOp48
 70
     1
102
RTVSPost2010Prop49
280
     0
102
RTVSPost2010PropOp49
 70
     1
102
RTVSPost2010Prop50
 90
       50
102
RTVSPost2010PropOp50
 70
     1
102
RTVSPost2010Prop51ColorIndex
 90
      256
102
RTVSPost2010Prop51ColorRGB
 90
-16777216
102
RTVSPost2010PropOp51
 70
     0
102
RTVSPost2010Prop52
140
1.0
102
RTVSPost2010PropOp52
 70
     0
102
RTVSPost2010Prop53
 90
        2
102
RTVSPost2010PropOp53
 70
     1
102
RTVSPost2010Prop54
  1
strokes_ogs.tif
102
RTVSPost2010PropOp54
 70
     1
102
RTVSPost2010Prop55
280
     0
102
RTVSPost2010PropOp55
 70
     1
102
RTVSPost2010Prop56
140
1.0
102
RTVSPost2010PropOp56
 70
     1
102
RTVSPost2010Prop57
140
1.0
102
RTVSPost2010PropOp57
 70
     1
102
RTVSPropertyOp0
 70
     1
102
RTVSPropertyOp1
 70
     1
102
RTVSPropertyOp2
 70
     1
102
RTVSPropertyOp3
 70
     1
102
RTVSPropertyOp4
 70
     1
102
RTVSPropertyOp5
 70
     1
102
RTVSPropertyOp6
 70
     1
102
RTVSPropertyOp7
 70
     1
102
RTVSPropertyOp8
 70
     1
102
RTVSPropertyOp9
 70
     1
102
RTVSPropertyOp10
 70
     1
102
RTVSPropertyOp11
 70
     1
102
RTVSPropertyOp12
 70
     1
102
RTVSPropertyOp13
 70
     1
102
RTVSPropertyOp14
 70
     1
102
RTVSPropertyOp15
 70
     1
102
RTVSPropertyOp16
 70
     1
102
RTVSPropertyOp17
 70
     1
102
RTVSPropertyOp18
 70
     1
102
RTVSPropertyOp19
 70
     1
102
RTVSPropertyOp20
 70
     1
102
RTVSPropertyOp21
 70
     1
102
RTVSPropertyOp22
 70
     1
102
RTVSPropertyOp23
 70
     1
102
RTVSPropertyOp24
 70
     1
102
RTVSPropertyOp25
 70
     1
102
RTVSPropertyOp26
 70
     1
102
RTVSPropertyOp27
 70
     1
102
RTVSPropertyOp28
 70
     1
102
RTVSPropertyOp29
 70
     1
102
RTVSPropertyOp30
 70
     1
102
RTVSPropertyOp31
 70
     1
102
RTVSPropertyOp32
 70
     1
102
RTVSPropertyOp33
 70
     1
102
RTVSPropertyOp34
 70
     1
102
RTVSPropertyOp35
 70
     1
102
RTVSPropertyOp36
 70
     1
102
RTVSPropertyOp37
 70
     1
102
RTVSPropertyOp38
 70
     1
102
RTVSPropertyOp39
 70
     1
102
RTVSPropertyOp40
 70
     1
102
RTVSPropertyOp41
 70
     1
102
RTVSPropertyOp42
 70
     1
102
RTVSPropertyOp43
 70
     1
102
RTVSPropertyOp44
 70
     1
102
RTVSPropertyOp45
 70
     1
102
RTVSPropertyOp46
 70
     1
102
RTVSPropertyOp47
 70
     1
102
RTVSPropertyOp48
 70
     1
102
RTVSPropertyOp49
 70
     1
102
RTVSPropertyOp50
 70
     1
102
RTVSPropertyOp51
 70
     0
102
RTVSPropertyOp52
 70
     0
102
RTVSPropertyOp53
 70
     1
102
RTVSPropertyOp54
 70
     1
102
RTVSPropertyOp55
 70
     1
102
RTVSPropertyOp56
 70
     1
102
RTVSPropertyOp57
 70
     1
102
RTVSPropertyOp58
 70
     1
102
RTVSPropertyOp59
 70
     1
102
RTVSPropertyOp60
 70
     1
102
RTVSPropertyOp61
 70
     1
102
RTVSPropertyOp62
 70
     1
  0
XRECORD
  5
AF46
102
{ACAD_REACTORS
330
AF45
102
}
330
AF45
100
AcDbXrecord
280
     1
102
RTVSPost2010Prop28
280
     0
102
RTVSPost2010PropOp28
 70
     1
102
RTVSPost2010Prop29
280
     1
102
RTVSPost2010PropOp29
 70
     1
102
RTVSPost2010Prop30
280
     1
102
RTVSPost2010PropOp30
 70
     1
102
RTVSPost2010Prop31
280
     0
102
RTVSPost2010PropOp31
 70
     1
102
RTVSPost2010Prop32
280
     0
102
RTVSPost2010PropOp32
 70
     1
102
RTVSPost2010Prop33
280
     0
102
RTVSPost2010PropOp33
 70
     1
102
RTVSPost2010Prop34
280
     0
102
RTVSPost2010PropOp34
 70
     1
102
RTVSPost2010Prop35
280
     0
102
RTVSPost2010PropOp35
 70
     1
102
RTVSPost2010Prop36
280
     0
102
RTVSPost2010PropOp36
 70
     1
102
RTVSPost2010Prop37
 90
       50
102
RTVSPost2010PropOp37
 70
     1
102
RTVSPost2010Prop38
140
0.0
102
RTVSPost2010PropOp38
 70
     1
102
RTVSPost2010Prop39
140
1.0
102
RTVSPost2010PropOp39
 70
     1
102
RTVSPost2010Prop40
 90
        0
102
RTVSPost2010PropOp40
 70
     1
102
RTVSPost2010Prop41ColorIndex
 90
       18
102
RTVSPost2010Prop41ColorRGB
 90
        0
102
RTVSPost2010PropOp41
 70
     1
102
RTVSPost2010Prop42
 90
       50
102
RTVSPost2010PropOp42
 70
     1
102
RTVSPost2010Prop43
 90
        3
102
RTVSPost2010PropOp43
 70
     1
102
RTVSPost2010Prop44ColorIndex
 90
        5
102
RTVSPost2010Prop44ColorRGB
 90
      255
102
RTVSPost2010PropOp44
 70
     1
102
RTVSPost2010Prop45
280
     0
102
RTVSPost2010PropOp45
 70
     1
102
RTVSPost2010Prop46
 90
       50
102
RTVSPost2010PropOp46
 70
     1
102
RTVSPost2010Prop47
 90
       50
102
RTVSPost2010PropOp47
 70
     1
102
RTVSPost2010Prop48
 90
       50
102
RTVSPost2010PropOp48
 70
     1
102
RTVSPost2010Prop49
280
     0
102
RTVSPost2010PropOp49
 70
     1
102
RTVSPost2010Prop50
 90
       50
102
RTVSPost2010PropOp50
 70
     1
102
RTVSPost2010Prop51ColorIndex
 90
      256
102
RTVSPost2010Prop51ColorRGB
 90
-16777216
102
RTVSPost2010PropOp51
 70
     0
102
RTVSPost2010Prop52
140
1.0
102
RTVSPost2010PropOp52
 70
     0
102
RTVSPost2010Prop53
 90
        2
102
RTVSPost2010PropOp53
 70
     1
102
RTVSPost2010Prop54
  1
strokes_ogs.tif
102
RTVSPost2010PropOp54
 70
     1
102
RTVSPost2010Prop55
280
     0
102
RTVSPost2010PropOp55
 70
     1
102
RTVSPost2010Prop56
140
1.0
102
RTVSPost2010PropOp56
 70
     1
102
RTVSPost2010Prop57
140
1.0
102
RTVSPost2010PropOp57
 70
     1
102
RTVSPropertyOp0
 70
     1
102
RTVSPropertyOp1
 70
     1
102
RTVSPropertyOp2
 70
     1
102
RTVSPropertyOp3
 70
     1
102
RTVSPropertyOp4
 70
     1
102
RTVSPropertyOp5
 70
     1
102
RTVSPropertyOp6
 70
     1
102
RTVSPropertyOp7
 70
     1
102
RTVSPropertyOp8
 70
     1
102
RTVSPropertyOp9
 70
     1
102
RTVSPropertyOp10
 70
     1
102
RTVSPropertyOp11
 70
     1
102
RTVSPropertyOp12
 70
     1
102
RTVSPropertyOp13
 70
     1
102
RTVSPropertyOp14
 70
     1
102
RTVSPropertyOp15
 70
     1
102
RTVSPropertyOp16
 70
     1
102
RTVSPropertyOp17
 70
     1
102
RTVSPropertyOp18
 70
     1
102
RTVSPropertyOp19
 70
     1
102
RTVSPropertyOp20
 70
     1
102
RTVSPropertyOp21
 70
     1
102
RTVSPropertyOp22
 70
     1
102
RTVSPropertyOp23
 70
     1
102
RTVSPropertyOp24
 70
     1
102
RTVSPropertyOp25
 70
     1
102
RTVSPropertyOp26
 70
     1
102
RTVSPropertyOp27
 70
     1
102
RTVSPropertyOp28
 70
     1
102
RTVSPropertyOp29
 70
     1
102
RTVSPropertyOp30
 70
     1
102
RTVSPropertyOp31
 70
     1
102
RTVSPropertyOp32
 70
     1
102
RTVSPropertyOp33
 70
     1
102
RTVSPropertyOp34
 70
     1
102
RTVSPropertyOp35
 70
     1
102
RTVSPropertyOp36
 70
     1
102
RTVSPropertyOp37
 70
     1
102
RTVSPropertyOp38
 70
     1
102
RTVSPropertyOp39
 70
     1
102
RTVSPropertyOp40
 70
     1
102
RTVSPropertyOp41
 70
     1
102
RTVSPropertyOp42
 70
     1
102
RTVSPropertyOp43
 70
     1
102
RTVSPropertyOp44
 70
     1
102
RTVSPropertyOp45
 70
     1
102
RTVSPropertyOp46
 70
     1
102
RTVSPropertyOp47
 70
     1
102
RTVSPropertyOp48
 70
     1
102
RTVSPropertyOp49
 70
     1
102
RTVSPropertyOp50
 70
     1
102
RTVSPropertyOp51
 70
     0
102
RTVSPropertyOp52
 70
     0
102
RTVSPropertyOp53
 70
     1
102
RTVSPropertyOp54
 70
     1
102
RTVSPropertyOp55
 70
     1
102
RTVSPropertyOp56
 70
     1
102
RTVSPropertyOp57
 70
     1
102
RTVSPropertyOp58
 70
     1
102
RTVSPropertyOp59
 70
     1
102
RTVSPropertyOp60
 70
     1
102
RTVSPropertyOp61
 70
     1
102
RTVSPropertyOp62
 70
     1
  0
XRECORD
  5
AF48
102
{ACAD_REACTORS
330
AF47
102
}
330
AF47
100
AcDbXrecord
280
     1
102
RTVSPost2010Prop28
280
     0
102
RTVSPost2010PropOp28
 70
     1
102
RTVSPost2010Prop29
280
     1
102
RTVSPost2010PropOp29
 70
     1
102
RTVSPost2010Prop30
280
     1
102
RTVSPost2010PropOp30
 70
     1
102
RTVSPost2010Prop31
280
     0
102
RTVSPost2010PropOp31
 70
     1
102
RTVSPost2010Prop32
280
     0
102
RTVSPost2010PropOp32
 70
     1
102
RTVSPost2010Prop33
280
     0
102
RTVSPost2010PropOp33
 70
     1
102
RTVSPost2010Prop34
280
     0
102
RTVSPost2010PropOp34
 70
     1
102
RTVSPost2010Prop35
280
     0
102
RTVSPost2010PropOp35
 70
     1
102
RTVSPost2010Prop36
280
     0
102
RTVSPost2010PropOp36
 70
     1
102
RTVSPost2010Prop37
 90
       50
102
RTVSPost2010PropOp37
 70
     1
102
RTVSPost2010Prop38
140
0.0
102
RTVSPost2010PropOp38
 70
     1
102
RTVSPost2010Prop39
140
1.0
102
RTVSPost2010PropOp39
 70
     1
102
RTVSPost2010Prop40
 90
        0
102
RTVSPost2010PropOp40
 70
     1
102
RTVSPost2010Prop41ColorIndex
 90
       18
102
RTVSPost2010Prop41ColorRGB
 90
        0
102
RTVSPost2010PropOp41
 70
     1
102
RTVSPost2010Prop42
 90
       50
102
RTVSPost2010PropOp42
 70
     1
102
RTVSPost2010Prop43
 90
        3
102
RTVSPost2010PropOp43
 70
     1
102
RTVSPost2010Prop44ColorIndex
 90
        5
102
RTVSPost2010Prop44ColorRGB
 90
      255
102
RTVSPost2010PropOp44
 70
     1
102
RTVSPost2010Prop45
280
     0
102
RTVSPost2010PropOp45
 70
     1
102
RTVSPost2010Prop46
 90
       50
102
RTVSPost2010PropOp46
 70
     1
102
RTVSPost2010Prop47
 90
       50
102
RTVSPost2010PropOp47
 70
     1
102
RTVSPost2010Prop48
 90
       50
102
RTVSPost2010PropOp48
 70
     1
102
RTVSPost2010Prop49
280
     0
102
RTVSPost2010PropOp49
 70
     1
102
RTVSPost2010Prop50
 90
       50
102
RTVSPost2010PropOp50
 70
     1
102
RTVSPost2010Prop51ColorIndex
 90
      256
102
RTVSPost2010Prop51ColorRGB
 90
-16777216
102
RTVSPost2010PropOp51
 70
     0
102
RTVSPost2010Prop52
140
1.0
102
RTVSPost2010PropOp52
 70
     0
102
RTVSPost2010Prop53
 90
        2
102
RTVSPost2010PropOp53
 70
     1
102
RTVSPost2010Prop54
  1
strokes_ogs.tif
102
RTVSPost2010PropOp54
 70
     1
102
RTVSPost2010Prop55
280
     0
102
RTVSPost2010PropOp55
 70
     1
102
RTVSPost2010Prop56
140
1.0
102
RTVSPost2010PropOp56
 70
     1
102
RTVSPost2010Prop57
140
1.0
102
RTVSPost2010PropOp57
 70
     1
102
RTVSPropertyOp0
 70
     1
102
RTVSPropertyOp1
 70
     1
102
RTVSPropertyOp2
 70
     1
102
RTVSPropertyOp3
 70
     1
102
RTVSPropertyOp4
 70
     1
102
RTVSPropertyOp5
 70
     1
102
RTVSPropertyOp6
 70
     1
102
RTVSPropertyOp7
 70
     1
102
RTVSPropertyOp8
 70
     1
102
RTVSPropertyOp9
 70
     1
102
RTVSPropertyOp10
 70
     1
102
RTVSPropertyOp11
 70
     1
102
RTVSPropertyOp12
 70
     1
102
RTVSPropertyOp13
 70
     1
102
RTVSPropertyOp14
 70
     1
102
RTVSPropertyOp15
 70
     1
102
RTVSPropertyOp16
 70
     1
102
RTVSPropertyOp17
 70
     1
102
RTVSPropertyOp18
 70
     1
102
RTVSPropertyOp19
 70
     1
102
RTVSPropertyOp20
 70
     1
102
RTVSPropertyOp21
 70
     1
102
RTVSPropertyOp22
 70
     1
102
RTVSPropertyOp23
 70
     1
102
RTVSPropertyOp24
 70
     1
102
RTVSPropertyOp25
 70
     1
102
RTVSPropertyOp26
 70
     1
102
RTVSPropertyOp27
 70
     1
102
RTVSPropertyOp28
 70
     1
102
RTVSPropertyOp29
 70
     1
102
RTVSPropertyOp30
 70
     1
102
RTVSPropertyOp31
 70
     1
102
RTVSPropertyOp32
 70
     1
102
RTVSPropertyOp33
 70
     1
102
RTVSPropertyOp34
 70
     1
102
RTVSPropertyOp35
 70
     1
102
RTVSPropertyOp36
 70
     1
102
RTVSPropertyOp37
 70
     1
102
RTVSPropertyOp38
 70
     1
102
RTVSPropertyOp39
 70
     1
102
RTVSPropertyOp40
 70
     1
102
RTVSPropertyOp41
 70
     1
102
RTVSPropertyOp42
 70
     1
102
RTVSPropertyOp43
 70
     1
102
RTVSPropertyOp44
 70
     1
102
RTVSPropertyOp45
 70
     1
102
RTVSPropertyOp46
 70
     1
102
RTVSPropertyOp47
 70
     1
102
RTVSPropertyOp48
 70
     1
102
RTVSPropertyOp49
 70
     1
102
RTVSPropertyOp50
 70
     1
102
RTVSPropertyOp51
 70
     0
102
RTVSPropertyOp52
 70
     0
102
RTVSPropertyOp53
 70
     1
102
RTVSPropertyOp54
 70
     1
102
RTVSPropertyOp55
 70
     1
102
RTVSPropertyOp56
 70
     1
102
RTVSPropertyOp57
 70
     1
102
RTVSPropertyOp58
 70
     1
102
RTVSPropertyOp59
 70
     1
102
RTVSPropertyOp60
 70
     1
102
RTVSPropertyOp61
 70
     1
102
RTVSPropertyOp62
 70
     1
  0
XRECORD
  5
AF50
102
{ACAD_REACTORS
330
AF4F
102
}
330
AF4F
100
AcDbXrecord
280
     1
102
RTVSPost2010Prop28
280
     0
102
RTVSPost2010PropOp28
 70
     1
102
RTVSPost2010Prop29
280
     1
102
RTVSPost2010PropOp29
 70
     1
102
RTVSPost2010Prop30
280
     1
102
RTVSPost2010PropOp30
 70
     1
102
RTVSPost2010Prop31
280
     0
102
RTVSPost2010PropOp31
 70
     1
102
RTVSPost2010Prop32
280
     0
102
RTVSPost2010PropOp32
 70
     1
102
RTVSPost2010Prop33
280
     0
102
RTVSPost2010PropOp33
 70
     1
102
RTVSPost2010Prop34
280
     0
102
RTVSPost2010PropOp34
 70
     1
102
RTVSPost2010Prop35
280
     0
102
RTVSPost2010PropOp35
 70
     1
102
RTVSPost2010Prop36
280
     0
102
RTVSPost2010PropOp36
 70
     1
102
RTVSPost2010Prop37
 90
       50
102
RTVSPost2010PropOp37
 70
     1
102
RTVSPost2010Prop38
140
0.0
102
RTVSPost2010PropOp38
 70
     1
102
RTVSPost2010Prop39
140
1.0
102
RTVSPost2010PropOp39
 70
     1
102
RTVSPost2010Prop40
 90
        0
102
RTVSPost2010PropOp40
 70
     1
102
RTVSPost2010Prop41ColorIndex
 90
       18
102
RTVSPost2010Prop41ColorRGB
 90
        0
102
RTVSPost2010PropOp41
 70
     1
102
RTVSPost2010Prop42
 90
       50
102
RTVSPost2010PropOp42
 70
     1
102
RTVSPost2010Prop43
 90
        3
102
RTVSPost2010PropOp43
 70
     1
102
RTVSPost2010Prop44ColorIndex
 90
        5
102
RTVSPost2010Prop44ColorRGB
 90
      255
102
RTVSPost2010PropOp44
 70
     1
102
RTVSPost2010Prop45
280
     0
102
RTVSPost2010PropOp45
 70
     1
102
RTVSPost2010Prop46
 90
       50
102
RTVSPost2010PropOp46
 70
     1
102
RTVSPost2010Prop47
 90
       50
102
RTVSPost2010PropOp47
 70
     1
102
RTVSPost2010Prop48
 90
       50
102
RTVSPost2010PropOp48
 70
     1
102
RTVSPost2010Prop49
280
     0
102
RTVSPost2010PropOp49
 70
     1
102
RTVSPost2010Prop50
 90
       50
102
RTVSPost2010PropOp50
 70
     1
102
RTVSPost2010Prop51ColorIndex
 90
      256
102
RTVSPost2010Prop51ColorRGB
 90
-16777216
102
RTVSPost2010PropOp51
 70
     0
102
RTVSPost2010Prop52
140
1.0
102
RTVSPost2010PropOp52
 70
     0
102
RTVSPost2010Prop53
 90
        2
102
RTVSPost2010PropOp53
 70
     1
102
RTVSPost2010Prop54
  1
strokes_ogs.tif
102
RTVSPost2010PropOp54
 70
     1
102
RTVSPost2010Prop55
280
     0
102
RTVSPost2010PropOp55
 70
     1
102
RTVSPost2010Prop56
140
1.0
102
RTVSPost2010PropOp56
 70
     1
102
RTVSPost2010Prop57
140
1.0
102
RTVSPost2010PropOp57
 70
     1
102
RTVSPropertyOp0
 70
     1
102
RTVSPropertyOp1
 70
     1
102
RTVSPropertyOp2
 70
     1
102
RTVSPropertyOp3
 70
     1
102
RTVSPropertyOp4
 70
     1
102
RTVSPropertyOp5
 70
     1
102
RTVSPropertyOp6
 70
     1
102
RTVSPropertyOp7
 70
     1
102
RTVSPropertyOp8
 70
     1
102
RTVSPropertyOp9
 70
     1
102
RTVSPropertyOp10
 70
     1
102
RTVSPropertyOp11
 70
     1
102
RTVSPropertyOp12
 70
     1
102
RTVSPropertyOp13
 70
     1
102
RTVSPropertyOp14
 70
     1
102
RTVSPropertyOp15
 70
     1
102
RTVSPropertyOp16
 70
     1
102
RTVSPropertyOp17
 70
     1
102
RTVSPropertyOp18
 70
     1
102
RTVSPropertyOp19
 70
     1
102
RTVSPropertyOp20
 70
     1
102
RTVSPropertyOp21
 70
     1
102
RTVSPropertyOp22
 70
     1
102
RTVSPropertyOp23
 70
     1
102
RTVSPropertyOp24
 70
     1
102
RTVSPropertyOp25
 70
     1
102
RTVSPropertyOp26
 70
     1
102
RTVSPropertyOp27
 70
     1
102
RTVSPropertyOp28
 70
     1
102
RTVSPropertyOp29
 70
     1
102
RTVSPropertyOp30
 70
     1
102
RTVSPropertyOp31
 70
     1
102
RTVSPropertyOp32
 70
     1
102
RTVSPropertyOp33
 70
     1
102
RTVSPropertyOp34
 70
     1
102
RTVSPropertyOp35
 70
     1
102
RTVSPropertyOp36
 70
     1
102
RTVSPropertyOp37
 70
     1
102
RTVSPropertyOp38
 70
     1
102
RTVSPropertyOp39
 70
     1
102
RTVSPropertyOp40
 70
     1
102
RTVSPropertyOp41
 70
     1
102
RTVSPropertyOp42
 70
     1
102
RTVSPropertyOp43
 70
     1
102
RTVSPropertyOp44
 70
     1
102
RTVSPropertyOp45
 70
     1
102
RTVSPropertyOp46
 70
     1
102
RTVSPropertyOp47
 70
     1
102
RTVSPropertyOp48
 70
     1
102
RTVSPropertyOp49
 70
     1
102
RTVSPropertyOp50
 70
     1
102
RTVSPropertyOp51
 70
     0
102
RTVSPropertyOp52
 70
     0
102
RTVSPropertyOp53
 70
     1
102
RTVSPropertyOp54
 70
     1
102
RTVSPropertyOp55
 70
     1
102
RTVSPropertyOp56
 70
     1
102
RTVSPropertyOp57
 70
     1
102
RTVSPropertyOp58
 70
     1
102
RTVSPropertyOp59
 70
     1
102
RTVSPropertyOp60
 70
     1
102
RTVSPropertyOp61
 70
     1
102
RTVSPropertyOp62
 70
     1
  0
XRECORD
  5
AF6C
102
{ACAD_REACTORS
330
AF6B
102
}
330
AF6B
100
AcDbXrecord
280
     1
102
RTVSPost2010Prop28
280
     0
102
RTVSPost2010PropOp28
 70
     1
102
RTVSPost2010Prop29
280
     1
102
RTVSPost2010PropOp29
 70
     1
102
RTVSPost2010Prop30
280
     1
102
RTVSPost2010PropOp30
 70
     1
102
RTVSPost2010Prop31
280
     0
102
RTVSPost2010PropOp31
 70
     1
102
RTVSPost2010Prop32
280
     0
102
RTVSPost2010PropOp32
 70
     1
102
RTVSPost2010Prop33
280
     0
102
RTVSPost2010PropOp33
 70
     1
102
RTVSPost2010Prop34
280
     0
102
RTVSPost2010PropOp34
 70
     1
102
RTVSPost2010Prop35
280
     0
102
RTVSPost2010PropOp35
 70
     1
102
RTVSPost2010Prop36
280
     0
102
RTVSPost2010PropOp36
 70
     1
102
RTVSPost2010Prop37
 90
       50
102
RTVSPost2010PropOp37
 70
     0
102
RTVSPost2010Prop38
140
0.0
102
RTVSPost2010PropOp38
 70
     0
102
RTVSPost2010Prop39
140
1.0
102
RTVSPost2010PropOp39
 70
     0
102
RTVSPost2010Prop40
 90
        0
102
RTVSPost2010PropOp40
 70
     0
102
RTVSPost2010Prop41ColorIndex
 90
       18
102
RTVSPost2010Prop41ColorRGB
 90
        0
102
RTVSPost2010PropOp41
 70
     0
102
RTVSPost2010Prop42
 90
       50
102
RTVSPost2010PropOp42
 70
     0
102
RTVSPost2010Prop43
 90
        3
102
RTVSPost2010PropOp43
 70
     0
102
RTVSPost2010Prop44ColorIndex
 90
        5
102
RTVSPost2010Prop44ColorRGB
 90
      255
102
RTVSPost2010PropOp44
 70
     0
102
RTVSPost2010Prop45
280
     0
102
RTVSPost2010PropOp45
 70
     1
102
RTVSPost2010Prop46
 90
       50
102
RTVSPost2010PropOp46
 70
     0
102
RTVSPost2010Prop47
 90
       50
102
RTVSPost2010PropOp47
 70
     0
102
RTVSPost2010Prop48
 90
       50
102
RTVSPost2010PropOp48
 70
     0
102
RTVSPost2010Prop49
280
     0
102
RTVSPost2010PropOp49
 70
     1
102
RTVSPost2010Prop50
 90
       50
102
RTVSPost2010PropOp50
 70
     0
102
RTVSPost2010Prop51ColorIndex
 90
      256
102
RTVSPost2010Prop51ColorRGB
 90
-16777216
102
RTVSPost2010PropOp51
 70
     0
102
RTVSPost2010Prop52
140
1.0
102
RTVSPost2010PropOp52
 70
     0
102
RTVSPost2010Prop53
 90
        2
102
RTVSPost2010PropOp53
 70
     0
102
RTVSPost2010Prop54
  1
strokes_ogs.tif
102
RTVSPost2010PropOp54
 70
     0
102
RTVSPost2010Prop55
280
     0
102
RTVSPost2010PropOp55
 70
     1
102
RTVSPost2010Prop56
140
1.0
102
RTVSPost2010PropOp56
 70
     0
102
RTVSPost2010Prop57
140
1.0
102
RTVSPost2010PropOp57
 70
     0
102
RTVSPropertyOp0
 70
     0
102
RTVSPropertyOp1
 70
     0
102
RTVSPropertyOp2
 70
     0
102
RTVSPropertyOp3
 70
     0
102
RTVSPropertyOp4
 70
     0
102
RTVSPropertyOp5
 70
     0
102
RTVSPropertyOp6
 70
     0
102
RTVSPropertyOp7
 70
     0
102
RTVSPropertyOp8
 70
     0
102
RTVSPropertyOp9
 70
     0
102
RTVSPropertyOp10
 70
     0
102
RTVSPropertyOp11
 70
     0
102
RTVSPropertyOp12
 70
     0
102
RTVSPropertyOp13
 70
     0
102
RTVSPropertyOp14
 70
     2
102
RTVSPropertyOp15
 70
     0
102
RTVSPropertyOp16
 70
     0
102
RTVSPropertyOp17
 70
     0
102
RTVSPropertyOp18
 70
     0
102
RTVSPropertyOp19
 70
     0
102
RTVSPropertyOp20
 70
     0
102
RTVSPropertyOp21
 70
     0
102
RTVSPropertyOp22
 70
     0
102
RTVSPropertyOp23
 70
     0
102
RTVSPropertyOp24
 70
     0
102
RTVSPropertyOp25
 70
     0
102
RTVSPropertyOp26
 70
     0
102
RTVSPropertyOp27
 70
     0
102
RTVSPropertyOp28
 70
     1
102
RTVSPropertyOp29
 70
     1
102
RTVSPropertyOp30
 70
     1
102
RTVSPropertyOp31
 70
     1
102
RTVSPropertyOp32
 70
     1
102
RTVSPropertyOp33
 70
     1
102
RTVSPropertyOp34
 70
     1
102
RTVSPropertyOp35
 70
     1
102
RTVSPropertyOp36
 70
     1
102
RTVSPropertyOp37
 70
     0
102
RTVSPropertyOp38
 70
     0
102
RTVSPropertyOp39
 70
     0
102
RTVSPropertyOp40
 70
     0
102
RTVSPropertyOp41
 70
     0
102
RTVSPropertyOp42
 70
     0
102
RTVSPropertyOp43
 70
     0
102
RTVSPropertyOp44
 70
     0
102
RTVSPropertyOp45
 70
     1
102
RTVSPropertyOp46
 70
     0
102
RTVSPropertyOp47
 70
     0
102
RTVSPropertyOp48
 70
     0
102
RTVSPropertyOp49
 70
     1
102
RTVSPropertyOp50
 70
     0
102
RTVSPropertyOp51
 70
     0
102
RTVSPropertyOp52
 70
     0
102
RTVSPropertyOp53
 70
     0
102
RTVSPropertyOp54
 70
     0
102
RTVSPropertyOp55
 70
     1
102
RTVSPropertyOp56
 70
     0
102
RTVSPropertyOp57
 70
     0
102
RTVSPropertyOp58
 70
     0
102
RTVSPropertyOp59
 70
     0
102
RTVSPropertyOp60
 70
     0
102
RTVSPropertyOp61
 70
     0
102
RTVSPropertyOp62
 70
     0
  0
XRECORD
  5
AF5C
102
{ACAD_REACTORS
330
AF5B
102
}
330
AF5B
100
AcDbXrecord
280
     1
102
RTVSPost2010Prop28
280
     0
102
RTVSPost2010PropOp28
 70
     1
102
RTVSPost2010Prop29
280
     1
102
RTVSPost2010PropOp29
 70
     1
102
RTVSPost2010Prop30
280
     1
102
RTVSPost2010PropOp30
 70
     1
102
RTVSPost2010Prop31
280
     0
102
RTVSPost2010PropOp31
 70
     1
102
RTVSPost2010Prop32
280
     0
102
RTVSPost2010PropOp32
 70
     1
102
RTVSPost2010Prop33
280
     0
102
RTVSPost2010PropOp33
 70
     1
102
RTVSPost2010Prop34
280
     0
102
RTVSPost2010PropOp34
 70
     1
102
RTVSPost2010Prop35
280
     0
102
RTVSPost2010PropOp35
 70
     1
102
RTVSPost2010Prop36
280
     0
102
RTVSPost2010PropOp36
 70
     1
102
RTVSPost2010Prop37
 90
       50
102
RTVSPost2010PropOp37
 70
     1
102
RTVSPost2010Prop38
140
0.0
102
RTVSPost2010PropOp38
 70
     1
102
RTVSPost2010Prop39
140
1.0
102
RTVSPost2010PropOp39
 70
     1
102
RTVSPost2010Prop40
 90
        0
102
RTVSPost2010PropOp40
 70
     1
102
RTVSPost2010Prop41ColorIndex
 90
       18
102
RTVSPost2010Prop41ColorRGB
 90
        0
102
RTVSPost2010PropOp41
 70
     1
102
RTVSPost2010Prop42
 90
       50
102
RTVSPost2010PropOp42
 70
     1
102
RTVSPost2010Prop43
 90
        3
102
RTVSPost2010PropOp43
 70
     1
102
RTVSPost2010Prop44ColorIndex
 90
        5
102
RTVSPost2010Prop44ColorRGB
 90
      255
102
RTVSPost2010PropOp44
 70
     1
102
RTVSPost2010Prop45
280
     0
102
RTVSPost2010PropOp45
 70
     1
102
RTVSPost2010Prop46
 90
       50
102
RTVSPost2010PropOp46
 70
     1
102
RTVSPost2010Prop47
 90
       50
102
RTVSPost2010PropOp47
 70
     1
102
RTVSPost2010Prop48
 90
       50
102
RTVSPost2010PropOp48
 70
     1
102
RTVSPost2010Prop49
280
     0
102
RTVSPost2010PropOp49
 70
     1
102
RTVSPost2010Prop50
 90
       50
102
RTVSPost2010PropOp50
 70
     1
102
RTVSPost2010Prop51ColorIndex
 90
      256
102
RTVSPost2010Prop51ColorRGB
 90
-16777216
102
RTVSPost2010PropOp51
 70
     0
102
RTVSPost2010Prop52
140
1.0
102
RTVSPost2010PropOp52
 70
     0
102
RTVSPost2010Prop53
 90
        2
102
RTVSPost2010PropOp53
 70
     1
102
RTVSPost2010Prop54
  1
strokes_ogs.tif
102
RTVSPost2010PropOp54
 70
     1
102
RTVSPost2010Prop55
280
     0
102
RTVSPost2010PropOp55
 70
     1
102
RTVSPost2010Prop56
140
1.0
102
RTVSPost2010PropOp56
 70
     1
102
RTVSPost2010Prop57
140
1.0
102
RTVSPost2010PropOp57
 70
     1
102
RTVSPropertyOp0
 70
     1
102
RTVSPropertyOp1
 70
     1
102
RTVSPropertyOp2
 70
     1
102
RTVSPropertyOp3
 70
     1
102
RTVSPropertyOp4
 70
     1
102
RTVSPropertyOp5
 70
     1
102
RTVSPropertyOp6
 70
     1
102
RTVSPropertyOp7
 70
     1
102
RTVSPropertyOp8
 70
     1
102
RTVSPropertyOp9
 70
     1
102
RTVSPropertyOp10
 70
     1
102
RTVSPropertyOp11
 70
     1
102
RTVSPropertyOp12
 70
     1
102
RTVSPropertyOp13
 70
     1
102
RTVSPropertyOp14
 70
     1
102
RTVSPropertyOp15
 70
     1
102
RTVSPropertyOp16
 70
     1
102
RTVSPropertyOp17
 70
     1
102
RTVSPropertyOp18
 70
     1
102
RTVSPropertyOp19
 70
     1
102
RTVSPropertyOp20
 70
     1
102
RTVSPropertyOp21
 70
     1
102
RTVSPropertyOp22
 70
     1
102
RTVSPropertyOp23
 70
     1
102
RTVSPropertyOp24
 70
     1
102
RTVSPropertyOp25
 70
     1
102
RTVSPropertyOp26
 70
     1
102
RTVSPropertyOp27
 70
     1
102
RTVSPropertyOp28
 70
     1
102
RTVSPropertyOp29
 70
     1
102
RTVSPropertyOp30
 70
     1
102
RTVSPropertyOp31
 70
     1
102
RTVSPropertyOp32
 70
     1
102
RTVSPropertyOp33
 70
     1
102
RTVSPropertyOp34
 70
     1
102
RTVSPropertyOp35
 70
     1
102
RTVSPropertyOp36
 70
     1
102
RTVSPropertyOp37
 70
     1
102
RTVSPropertyOp38
 70
     1
102
RTVSPropertyOp39
 70
     1
102
RTVSPropertyOp40
 70
     1
102
RTVSPropertyOp41
 70
     1
102
RTVSPropertyOp42
 70
     1
102
RTVSPropertyOp43
 70
     1
102
RTVSPropertyOp44
 70
     1
102
RTVSPropertyOp45
 70
     1
102
RTVSPropertyOp46
 70
     1
102
RTVSPropertyOp47
 70
     1
102
RTVSPropertyOp48
 70
     1
102
RTVSPropertyOp49
 70
     1
102
RTVSPropertyOp50
 70
     1
102
RTVSPropertyOp51
 70
     0
102
RTVSPropertyOp52
 70
     0
102
RTVSPropertyOp53
 70
     1
102
RTVSPropertyOp54
 70
     1
102
RTVSPropertyOp55
 70
     1
102
RTVSPropertyOp56
 70
     1
102
RTVSPropertyOp57
 70
     1
102
RTVSPropertyOp58
 70
     1
102
RTVSPropertyOp59
 70
     1
102
RTVSPropertyOp60
 70
     1
102
RTVSPropertyOp61
 70
     1
102
RTVSPropertyOp62
 70
     1
  0
XRECORD
  5
AF6E
102
{ACAD_REACTORS
330
AF6D
102
}
330
AF6D
100
AcDbXrecord
280
     1
102
RTVSPost2010Prop28
280
     0
102
RTVSPost2010PropOp28
 70
     1
102
RTVSPost2010Prop29
280
     1
102
RTVSPost2010PropOp29
 70
     1
102
RTVSPost2010Prop30
280
     1
102
RTVSPost2010PropOp30
 70
     1
102
RTVSPost2010Prop31
280
     0
102
RTVSPost2010PropOp31
 70
     1
102
RTVSPost2010Prop32
280
     0
102
RTVSPost2010PropOp32
 70
     1
102
RTVSPost2010Prop33
280
     0
102
RTVSPost2010PropOp33
 70
     1
102
RTVSPost2010Prop34
280
     0
102
RTVSPost2010PropOp34
 70
     1
102
RTVSPost2010Prop35
280
     0
102
RTVSPost2010PropOp35
 70
     1
102
RTVSPost2010Prop36
280
     0
102
RTVSPost2010PropOp36
 70
     1
102
RTVSPost2010Prop37
 90
       50
102
RTVSPost2010PropOp37
 70
     0
102
RTVSPost2010Prop38
140
0.0
102
RTVSPost2010PropOp38
 70
     0
102
RTVSPost2010Prop39
140
1.0
102
RTVSPost2010PropOp39
 70
     0
102
RTVSPost2010Prop40
 90
        0
102
RTVSPost2010PropOp40
 70
     0
102
RTVSPost2010Prop41ColorIndex
 90
       18
102
RTVSPost2010Prop41ColorRGB
 90
        0
102
RTVSPost2010PropOp41
 70
     0
102
RTVSPost2010Prop42
 90
       50
102
RTVSPost2010PropOp42
 70
     0
102
RTVSPost2010Prop43
 90
        3
102
RTVSPost2010PropOp43
 70
     0
102
RTVSPost2010Prop44ColorIndex
 90
        5
102
RTVSPost2010Prop44ColorRGB
 90
      255
102
RTVSPost2010PropOp44
 70
     0
102
RTVSPost2010Prop45
280
     0
102
RTVSPost2010PropOp45
 70
     1
102
RTVSPost2010Prop46
 90
       50
102
RTVSPost2010PropOp46
 70
     0
102
RTVSPost2010Prop47
 90
       50
102
RTVSPost2010PropOp47
 70
     0
102
RTVSPost2010Prop48
 90
       50
102
RTVSPost2010PropOp48
 70
     0
102
RTVSPost2010Prop49
280
     0
102
RTVSPost2010PropOp49
 70
     1
102
RTVSPost2010Prop50
 90
       50
102
RTVSPost2010PropOp50
 70
     0
102
RTVSPost2010Prop51ColorIndex
 90
      256
102
RTVSPost2010Prop51ColorRGB
 90
-16777216
102
RTVSPost2010PropOp51
 70
     0
102
RTVSPost2010Prop52
140
1.0
102
RTVSPost2010PropOp52
 70
     0
102
RTVSPost2010Prop53
 90
        2
102
RTVSPost2010PropOp53
 70
     0
102
RTVSPost2010Prop54
  1
strokes_ogs.tif
102
RTVSPost2010PropOp54
 70
     0
102
RTVSPost2010Prop55
280
     0
102
RTVSPost2010PropOp55
 70
     1
102
RTVSPost2010Prop56
140
1.0
102
RTVSPost2010PropOp56
 70
     0
102
RTVSPost2010Prop57
140
1.0
102
RTVSPost2010PropOp57
 70
     0
102
RTVSPropertyOp0
 70
     0
102
RTVSPropertyOp1
 70
     0
102
RTVSPropertyOp2
 70
     0
102
RTVSPropertyOp3
 70
     0
102
RTVSPropertyOp4
 70
     0
102
RTVSPropertyOp5
 70
     0
102
RTVSPropertyOp6
 70
     0
102
RTVSPropertyOp7
 70
     0
102
RTVSPropertyOp8
 70
     0
102
RTVSPropertyOp9
 70
     0
102
RTVSPropertyOp10
 70
     0
102
RTVSPropertyOp11
 70
     0
102
RTVSPropertyOp12
 70
     0
102
RTVSPropertyOp13
 70
     0
102
RTVSPropertyOp14
 70
     2
102
RTVSPropertyOp15
 70
     0
102
RTVSPropertyOp16
 70
     0
102
RTVSPropertyOp17
 70
     0
102
RTVSPropertyOp18
 70
     0
102
RTVSPropertyOp19
 70
     0
102
RTVSPropertyOp20
 70
     0
102
RTVSPropertyOp21
 70
     0
102
RTVSPropertyOp22
 70
     0
102
RTVSPropertyOp23
 70
     0
102
RTVSPropertyOp24
 70
     0
102
RTVSPropertyOp25
 70
     0
102
RTVSPropertyOp26
 70
     0
102
RTVSPropertyOp27
 70
     0
102
RTVSPropertyOp28
 70
     1
102
RTVSPropertyOp29
 70
     1
102
RTVSPropertyOp30
 70
     1
102
RTVSPropertyOp31
 70
     1
102
RTVSPropertyOp32
 70
     1
102
RTVSPropertyOp33
 70
     1
102
RTVSPropertyOp34
 70
     1
102
RTVSPropertyOp35
 70
     1
102
RTVSPropertyOp36
 70
     1
102
RTVSPropertyOp37
 70
     0
102
RTVSPropertyOp38
 70
     0
102
RTVSPropertyOp39
 70
     0
102
RTVSPropertyOp40
 70
     0
102
RTVSPropertyOp41
 70
     0
102
RTVSPropertyOp42
 70
     0
102
RTVSPropertyOp43
 70
     0
102
RTVSPropertyOp44
 70
     0
102
RTVSPropertyOp45
 70
     1
102
RTVSPropertyOp46
 70
     0
102
RTVSPropertyOp47
 70
     0
102
RTVSPropertyOp48
 70
     0
102
RTVSPropertyOp49
 70
     1
102
RTVSPropertyOp50
 70
     0
102
RTVSPropertyOp51
 70
     0
102
RTVSPropertyOp52
 70
     0
102
RTVSPropertyOp53
 70
     0
102
RTVSPropertyOp54
 70
     0
102
RTVSPropertyOp55
 70
     1
102
RTVSPropertyOp56
 70
     0
102
RTVSPropertyOp57
 70
     0
102
RTVSPropertyOp58
 70
     0
102
RTVSPropertyOp59
 70
     0
102
RTVSPropertyOp60
 70
     0
102
RTVSPropertyOp61
 70
     0
102
RTVSPropertyOp62
 70
     0
  0
XRECORD
  5
AF54
102
{ACAD_REACTORS
330
AF53
102
}
330
AF53
100
AcDbXrecord
280
     1
102
RTVSPost2010Prop28
280
     0
102
RTVSPost2010PropOp28
 70
     1
102
RTVSPost2010Prop29
280
     1
102
RTVSPost2010PropOp29
 70
     1
102
RTVSPost2010Prop30
280
     1
102
RTVSPost2010PropOp30
 70
     1
102
RTVSPost2010Prop31
280
     0
102
RTVSPost2010PropOp31
 70
     1
102
RTVSPost2010Prop32
280
     0
102
RTVSPost2010PropOp32
 70
     1
102
RTVSPost2010Prop33
280
     0
102
RTVSPost2010PropOp33
 70
     1
102
RTVSPost2010Prop34
280
     0
102
RTVSPost2010PropOp34
 70
     1
102
RTVSPost2010Prop35
280
     0
102
RTVSPost2010PropOp35
 70
     1
102
RTVSPost2010Prop36
280
     0
102
RTVSPost2010PropOp36
 70
     1
102
RTVSPost2010Prop37
 90
       50
102
RTVSPost2010PropOp37
 70
     1
102
RTVSPost2010Prop38
140
0.0
102
RTVSPost2010PropOp38
 70
     1
102
RTVSPost2010Prop39
140
1.0
102
RTVSPost2010PropOp39
 70
     1
102
RTVSPost2010Prop40
 90
        0
102
RTVSPost2010PropOp40
 70
     1
102
RTVSPost2010Prop41ColorIndex
 90
       18
102
RTVSPost2010Prop41ColorRGB
 90
        0
102
RTVSPost2010PropOp41
 70
     1
102
RTVSPost2010Prop42
 90
       50
102
RTVSPost2010PropOp42
 70
     1
102
RTVSPost2010Prop43
 90
        3
102
RTVSPost2010PropOp43
 70
     1
102
RTVSPost2010Prop44ColorIndex
 90
        5
102
RTVSPost2010Prop44ColorRGB
 90
      255
102
RTVSPost2010PropOp44
 70
     1
102
RTVSPost2010Prop45
280
     0
102
RTVSPost2010PropOp45
 70
     1
102
RTVSPost2010Prop46
 90
       50
102
RTVSPost2010PropOp46
 70
     1
102
RTVSPost2010Prop47
 90
       50
102
RTVSPost2010PropOp47
 70
     1
102
RTVSPost2010Prop48
 90
       50
102
RTVSPost2010PropOp48
 70
     1
102
RTVSPost2010Prop49
280
     0
102
RTVSPost2010PropOp49
 70
     1
102
RTVSPost2010Prop50
 90
       50
102
RTVSPost2010PropOp50
 70
     1
102
RTVSPost2010Prop51ColorIndex
 90
      256
102
RTVSPost2010Prop51ColorRGB
 90
-16777216
102
RTVSPost2010PropOp51
 70
     0
102
RTVSPost2010Prop52
140
1.0
102
RTVSPost2010PropOp52
 70
     0
102
RTVSPost2010Prop53
 90
        2
102
RTVSPost2010PropOp53
 70
     1
102
RTVSPost2010Prop54
  1
strokes_ogs.tif
102
RTVSPost2010PropOp54
 70
     1
102
RTVSPost2010Prop55
280
     0
102
RTVSPost2010PropOp55
 70
     1
102
RTVSPost2010Prop56
140
1.0
102
RTVSPost2010PropOp56
 70
     1
102
RTVSPost2010Prop57
140
1.0
102
RTVSPost2010PropOp57
 70
     1
102
RTVSPropertyOp0
 70
     1
102
RTVSPropertyOp1
 70
     1
102
RTVSPropertyOp2
 70
     1
102
RTVSPropertyOp3
 70
     1
102
RTVSPropertyOp4
 70
     1
102
RTVSPropertyOp5
 70
     1
102
RTVSPropertyOp6
 70
     1
102
RTVSPropertyOp7
 70
     1
102
RTVSPropertyOp8
 70
     1
102
RTVSPropertyOp9
 70
     1
102
RTVSPropertyOp10
 70
     1
102
RTVSPropertyOp11
 70
     1
102
RTVSPropertyOp12
 70
     1
102
RTVSPropertyOp13
 70
     1
102
RTVSPropertyOp14
 70
     1
102
RTVSPropertyOp15
 70
     1
102
RTVSPropertyOp16
 70
     1
102
RTVSPropertyOp17
 70
     1
102
RTVSPropertyOp18
 70
     1
102
RTVSPropertyOp19
 70
     1
102
RTVSPropertyOp20
 70
     1
102
RTVSPropertyOp21
 70
     1
102
RTVSPropertyOp22
 70
     1
102
RTVSPropertyOp23
 70
     1
102
RTVSPropertyOp24
 70
     1
102
RTVSPropertyOp25
 70
     1
102
RTVSPropertyOp26
 70
     1
102
RTVSPropertyOp27
 70
     1
102
RTVSPropertyOp28
 70
     1
102
RTVSPropertyOp29
 70
     1
102
RTVSPropertyOp30
 70
     1
102
RTVSPropertyOp31
 70
     1
102
RTVSPropertyOp32
 70
     1
102
RTVSPropertyOp33
 70
     1
102
RTVSPropertyOp34
 70
     1
102
RTVSPropertyOp35
 70
     1
102
RTVSPropertyOp36
 70
     1
102
RTVSPropertyOp37
 70
     1
102
RTVSPropertyOp38
 70
     1
102
RTVSPropertyOp39
 70
     1
102
RTVSPropertyOp40
 70
     1
102
RTVSPropertyOp41
 70
     1
102
RTVSPropertyOp42
 70
     1
102
RTVSPropertyOp43
 70
     1
102
RTVSPropertyOp44
 70
     1
102
RTVSPropertyOp45
 70
     1
102
RTVSPropertyOp46
 70
     1
102
RTVSPropertyOp47
 70
     1
102
RTVSPropertyOp48
 70
     1
102
RTVSPropertyOp49
 70
     1
102
RTVSPropertyOp50
 70
     1
102
RTVSPropertyOp51
 70
     0
102
RTVSPropertyOp52
 70
     0
102
RTVSPropertyOp53
 70
     1
102
RTVSPropertyOp54
 70
     1
102
RTVSPropertyOp55
 70
     1
102
RTVSPropertyOp56
 70
     1
102
RTVSPropertyOp57
 70
     1
102
RTVSPropertyOp58
 70
     1
102
RTVSPropertyOp59
 70
     1
102
RTVSPropertyOp60
 70
     1
102
RTVSPropertyOp61
 70
     1
102
RTVSPropertyOp62
 70
     1
  0
XRECORD
  5
AF6A
102
{ACAD_REACTORS
330
AF69
102
}
330
AF69
100
AcDbXrecord
280
     1
102
RTVSPost2010Prop28
280
     0
102
RTVSPost2010PropOp28
 70
     1
102
RTVSPost2010Prop29
280
     1
102
RTVSPost2010PropOp29
 70
     1
102
RTVSPost2010Prop30
280
     1
102
RTVSPost2010PropOp30
 70
     1
102
RTVSPost2010Prop31
280
     0
102
RTVSPost2010PropOp31
 70
     1
102
RTVSPost2010Prop32
280
     0
102
RTVSPost2010PropOp32
 70
     1
102
RTVSPost2010Prop33
280
     0
102
RTVSPost2010PropOp33
 70
     1
102
RTVSPost2010Prop34
280
     0
102
RTVSPost2010PropOp34
 70
     1
102
RTVSPost2010Prop35
280
     0
102
RTVSPost2010PropOp35
 70
     1
102
RTVSPost2010Prop36
280
     0
102
RTVSPost2010PropOp36
 70
     1
102
RTVSPost2010Prop37
 90
       50
102
RTVSPost2010PropOp37
 70
     1
102
RTVSPost2010Prop38
140
0.0
102
RTVSPost2010PropOp38
 70
     1
102
RTVSPost2010Prop39
140
1.0
102
RTVSPost2010PropOp39
 70
     1
102
RTVSPost2010Prop40
 90
        0
102
RTVSPost2010PropOp40
 70
     1
102
RTVSPost2010Prop41ColorIndex
 90
       18
102
RTVSPost2010Prop41ColorRGB
 90
        0
102
RTVSPost2010PropOp41
 70
     1
102
RTVSPost2010Prop42
 90
       50
102
RTVSPost2010PropOp42
 70
     1
102
RTVSPost2010Prop43
 90
        3
102
RTVSPost2010PropOp43
 70
     1
102
RTVSPost2010Prop44ColorIndex
 90
        5
102
RTVSPost2010Prop44ColorRGB
 90
      255
102
RTVSPost2010PropOp44
 70
     1
102
RTVSPost2010Prop45
280
     0
102
RTVSPost2010PropOp45
 70
     1
102
RTVSPost2010Prop46
 90
       50
102
RTVSPost2010PropOp46
 70
     1
102
RTVSPost2010Prop47
 90
       50
102
RTVSPost2010PropOp47
 70
     1
102
RTVSPost2010Prop48
 90
       50
102
RTVSPost2010PropOp48
 70
     1
102
RTVSPost2010Prop49
280
     0
102
RTVSPost2010PropOp49
 70
     1
102
RTVSPost2010Prop50
 90
       50
102
RTVSPost2010PropOp50
 70
     1
102
RTVSPost2010Prop51ColorIndex
 90
      256
102
RTVSPost2010Prop51ColorRGB
 90
-16777216
102
RTVSPost2010PropOp51
 70
     0
102
RTVSPost2010Prop52
140
1.0
102
RTVSPost2010PropOp52
 70
     0
102
RTVSPost2010Prop53
 90
        2
102
RTVSPost2010PropOp53
 70
     1
102
RTVSPost2010Prop54
  1
strokes_ogs.tif
102
RTVSPost2010PropOp54
 70
     1
102
RTVSPost2010Prop55
280
     0
102
RTVSPost2010PropOp55
 70
     1
102
RTVSPost2010Prop56
140
1.0
102
RTVSPost2010PropOp56
 70
     1
102
RTVSPost2010Prop57
140
1.0
102
RTVSPost2010PropOp57
 70
     1
102
RTVSPropertyOp0
 70
     1
102
RTVSPropertyOp1
 70
     1
102
RTVSPropertyOp2
 70
     1
102
RTVSPropertyOp3
 70
     1
102
RTVSPropertyOp4
 70
     1
102
RTVSPropertyOp5
 70
     1
102
RTVSPropertyOp6
 70
     1
102
RTVSPropertyOp7
 70
     1
102
RTVSPropertyOp8
 70
     1
102
RTVSPropertyOp9
 70
     1
102
RTVSPropertyOp10
 70
     1
102
RTVSPropertyOp11
 70
     1
102
RTVSPropertyOp12
 70
     1
102
RTVSPropertyOp13
 70
     1
102
RTVSPropertyOp14
 70
     1
102
RTVSPropertyOp15
 70
     1
102
RTVSPropertyOp16
 70
     1
102
RTVSPropertyOp17
 70
     1
102
RTVSPropertyOp18
 70
     1
102
RTVSPropertyOp19
 70
     1
102
RTVSPropertyOp20
 70
     1
102
RTVSPropertyOp21
 70
     1
102
RTVSPropertyOp22
 70
     1
102
RTVSPropertyOp23
 70
     1
102
RTVSPropertyOp24
 70
     1
102
RTVSPropertyOp25
 70
     1
102
RTVSPropertyOp26
 70
     1
102
RTVSPropertyOp27
 70
     1
102
RTVSPropertyOp28
 70
     1
102
RTVSPropertyOp29
 70
     1
102
RTVSPropertyOp30
 70
     1
102
RTVSPropertyOp31
 70
     1
102
RTVSPropertyOp32
 70
     1
102
RTVSPropertyOp33
 70
     1
102
RTVSPropertyOp34
 70
     1
102
RTVSPropertyOp35
 70
     1
102
RTVSPropertyOp36
 70
     1
102
RTVSPropertyOp37
 70
     1
102
RTVSPropertyOp38
 70
     1
102
RTVSPropertyOp39
 70
     1
102
RTVSPropertyOp40
 70
     1
102
RTVSPropertyOp41
 70
     1
102
RTVSPropertyOp42
 70
     1
102
RTVSPropertyOp43
 70
     1
102
RTVSPropertyOp44
 70
     1
102
RTVSPropertyOp45
 70
     1
102
RTVSPropertyOp46
 70
     1
102
RTVSPropertyOp47
 70
     1
102
RTVSPropertyOp48
 70
     1
102
RTVSPropertyOp49
 70
     1
102
RTVSPropertyOp50
 70
     1
102
RTVSPropertyOp51
 70
     0
102
RTVSPropertyOp52
 70
     0
102
RTVSPropertyOp53
 70
     1
102
RTVSPropertyOp54
 70
     1
102
RTVSPropertyOp55
 70
     1
102
RTVSPropertyOp56
 70
     1
102
RTVSPropertyOp57
 70
     1
102
RTVSPropertyOp58
 70
     1
102
RTVSPropertyOp59
 70
     1
102
RTVSPropertyOp60
 70
     1
102
RTVSPropertyOp61
 70
     1
102
RTVSPropertyOp62
 70
     1
  0
XRECORD
  5
AF68
102
{ACAD_REACTORS
330
AF67
102
}
330
AF67
100
AcDbXrecord
280
     1
102
RTVSPost2010Prop28
280
     0
102
RTVSPost2010PropOp28
 70
     1
102
RTVSPost2010Prop29
280
     1
102
RTVSPost2010PropOp29
 70
     1
102
RTVSPost2010Prop30
280
     1
102
RTVSPost2010PropOp30
 70
     1
102
RTVSPost2010Prop31
280
     0
102
RTVSPost2010PropOp31
 70
     1
102
RTVSPost2010Prop32
280
     0
102
RTVSPost2010PropOp32
 70
     1
102
RTVSPost2010Prop33
280
     0
102
RTVSPost2010PropOp33
 70
     1
102
RTVSPost2010Prop34
280
     0
102
RTVSPost2010PropOp34
 70
     1
102
RTVSPost2010Prop35
280
     0
102
RTVSPost2010PropOp35
 70
     1
102
RTVSPost2010Prop36
280
     0
102
RTVSPost2010PropOp36
 70
     1
102
RTVSPost2010Prop37
 90
       50
102
RTVSPost2010PropOp37
 70
     1
102
RTVSPost2010Prop38
140
0.0
102
RTVSPost2010PropOp38
 70
     1
102
RTVSPost2010Prop39
140
1.0
102
RTVSPost2010PropOp39
 70
     1
102
RTVSPost2010Prop40
 90
        0
102
RTVSPost2010PropOp40
 70
     1
102
RTVSPost2010Prop41ColorIndex
 90
       18
102
RTVSPost2010Prop41ColorRGB
 90
        0
102
RTVSPost2010PropOp41
 70
     1
102
RTVSPost2010Prop42
 90
       50
102
RTVSPost2010PropOp42
 70
     1
102
RTVSPost2010Prop43
 90
        3
102
RTVSPost2010PropOp43
 70
     1
102
RTVSPost2010Prop44ColorIndex
 90
        5
102
RTVSPost2010Prop44ColorRGB
 90
      255
102
RTVSPost2010PropOp44
 70
     1
102
RTVSPost2010Prop45
280
     0
102
RTVSPost2010PropOp45
 70
     1
102
RTVSPost2010Prop46
 90
       50
102
RTVSPost2010PropOp46
 70
     1
102
RTVSPost2010Prop47
 90
       50
102
RTVSPost2010PropOp47
 70
     1
102
RTVSPost2010Prop48
 90
       50
102
RTVSPost2010PropOp48
 70
     1
102
RTVSPost2010Prop49
280
     0
102
RTVSPost2010PropOp49
 70
     1
102
RTVSPost2010Prop50
 90
       50
102
RTVSPost2010PropOp50
 70
     1
102
RTVSPost2010Prop51ColorIndex
 90
      256
102
RTVSPost2010Prop51ColorRGB
 90
-16777216
102
RTVSPost2010PropOp51
 70
     0
102
RTVSPost2010Prop52
140
1.0
102
RTVSPost2010PropOp52
 70
     0
102
RTVSPost2010Prop53
 90
        2
102
RTVSPost2010PropOp53
 70
     1
102
RTVSPost2010Prop54
  1
strokes_ogs.tif
102
RTVSPost2010PropOp54
 70
     1
102
RTVSPost2010Prop55
280
     0
102
RTVSPost2010PropOp55
 70
     1
102
RTVSPost2010Prop56
140
1.0
102
RTVSPost2010PropOp56
 70
     1
102
RTVSPost2010Prop57
140
1.0
102
RTVSPost2010PropOp57
 70
     1
102
RTVSPropertyOp0
 70
     1
102
RTVSPropertyOp1
 70
     1
102
RTVSPropertyOp2
 70
     1
102
RTVSPropertyOp3
 70
     1
102
RTVSPropertyOp4
 70
     1
102
RTVSPropertyOp5
 70
     1
102
RTVSPropertyOp6
 70
     1
102
RTVSPropertyOp7
 70
     1
102
RTVSPropertyOp8
 70
     1
102
RTVSPropertyOp9
 70
     1
102
RTVSPropertyOp10
 70
     1
102
RTVSPropertyOp11
 70
     1
102
RTVSPropertyOp12
 70
     1
102
RTVSPropertyOp13
 70
     1
102
RTVSPropertyOp14
 70
     1
102
RTVSPropertyOp15
 70
     1
102
RTVSPropertyOp16
 70
     1
102
RTVSPropertyOp17
 70
     1
102
RTVSPropertyOp18
 70
     1
102
RTVSPropertyOp19
 70
     1
102
RTVSPropertyOp20
 70
     1
102
RTVSPropertyOp21
 70
     1
102
RTVSPropertyOp22
 70
     1
102
RTVSPropertyOp23
 70
     1
102
RTVSPropertyOp24
 70
     1
102
RTVSPropertyOp25
 70
     1
102
RTVSPropertyOp26
 70
     1
102
RTVSPropertyOp27
 70
     1
102
RTVSPropertyOp28
 70
     1
102
RTVSPropertyOp29
 70
     1
102
RTVSPropertyOp30
 70
     1
102
RTVSPropertyOp31
 70
     1
102
RTVSPropertyOp32
 70
     1
102
RTVSPropertyOp33
 70
     1
102
RTVSPropertyOp34
 70
     1
102
RTVSPropertyOp35
 70
     1
102
RTVSPropertyOp36
 70
     1
102
RTVSPropertyOp37
 70
     1
102
RTVSPropertyOp38
 70
     1
102
RTVSPropertyOp39
 70
     1
102
RTVSPropertyOp40
 70
     1
102
RTVSPropertyOp41
 70
     1
102
RTVSPropertyOp42
 70
     1
102
RTVSPropertyOp43
 70
     1
102
RTVSPropertyOp44
 70
     1
102
RTVSPropertyOp45
 70
     1
102
RTVSPropertyOp46
 70
     1
102
RTVSPropertyOp47
 70
     1
102
RTVSPropertyOp48
 70
     1
102
RTVSPropertyOp49
 70
     1
102
RTVSPropertyOp50
 70
     1
102
RTVSPropertyOp51
 70
     0
102
RTVSPropertyOp52
 70
     0
102
RTVSPropertyOp53
 70
     1
102
RTVSPropertyOp54
 70
     1
102
RTVSPropertyOp55
 70
     1
102
RTVSPropertyOp56
 70
     1
102
RTVSPropertyOp57
 70
     1
102
RTVSPropertyOp58
 70
     1
102
RTVSPropertyOp59
 70
     1
102
RTVSPropertyOp60
 70
     1
102
RTVSPropertyOp61
 70
     1
102
RTVSPropertyOp62
 70
     1
  0
XRECORD
  5
AF62
102
{ACAD_REACTORS
330
AF61
102
}
330
AF61
100
AcDbXrecord
280
     1
102
RTVSPost2010Prop28
280
     0
102
RTVSPost2010PropOp28
 70
     1
102
RTVSPost2010Prop29
280
     1
102
RTVSPost2010PropOp29
 70
     1
102
RTVSPost2010Prop30
280
     1
102
RTVSPost2010PropOp30
 70
     1
102
RTVSPost2010Prop31
280
     0
102
RTVSPost2010PropOp31
 70
     1
102
RTVSPost2010Prop32
280
     0
102
RTVSPost2010PropOp32
 70
     1
102
RTVSPost2010Prop33
280
     0
102
RTVSPost2010PropOp33
 70
     1
102
RTVSPost2010Prop34
280
     0
102
RTVSPost2010PropOp34
 70
     1
102
RTVSPost2010Prop35
280
     0
102
RTVSPost2010PropOp35
 70
     1
102
RTVSPost2010Prop36
280
     0
102
RTVSPost2010PropOp36
 70
     1
102
RTVSPost2010Prop37
 90
       50
102
RTVSPost2010PropOp37
 70
     1
102
RTVSPost2010Prop38
140
0.0
102
RTVSPost2010PropOp38
 70
     1
102
RTVSPost2010Prop39
140
1.0
102
RTVSPost2010PropOp39
 70
     1
102
RTVSPost2010Prop40
 90
        0
102
RTVSPost2010PropOp40
 70
     1
102
RTVSPost2010Prop41ColorIndex
 90
       18
102
RTVSPost2010Prop41ColorRGB
 90
        0
102
RTVSPost2010PropOp41
 70
     1
102
RTVSPost2010Prop42
 90
       50
102
RTVSPost2010PropOp42
 70
     1
102
RTVSPost2010Prop43
 90
        3
102
RTVSPost2010PropOp43
 70
     1
102
RTVSPost2010Prop44ColorIndex
 90
        5
102
RTVSPost2010Prop44ColorRGB
 90
      255
102
RTVSPost2010PropOp44
 70
     1
102
RTVSPost2010Prop45
280
     0
102
RTVSPost2010PropOp45
 70
     1
102
RTVSPost2010Prop46
 90
       50
102
RTVSPost2010PropOp46
 70
     1
102
RTVSPost2010Prop47
 90
       50
102
RTVSPost2010PropOp47
 70
     1
102
RTVSPost2010Prop48
 90
       50
102
RTVSPost2010PropOp48
 70
     1
102
RTVSPost2010Prop49
280
     0
102
RTVSPost2010PropOp49
 70
     1
102
RTVSPost2010Prop50
 90
       50
102
RTVSPost2010PropOp50
 70
     1
102
RTVSPost2010Prop51ColorIndex
 90
      256
102
RTVSPost2010Prop51ColorRGB
 90
-16777216
102
RTVSPost2010PropOp51
 70
     0
102
RTVSPost2010Prop52
140
1.0
102
RTVSPost2010PropOp52
 70
     0
102
RTVSPost2010Prop53
 90
        2
102
RTVSPost2010PropOp53
 70
     1
102
RTVSPost2010Prop54
  1
strokes_ogs.tif
102
RTVSPost2010PropOp54
 70
     1
102
RTVSPost2010Prop55
280
     0
102
RTVSPost2010PropOp55
 70
     1
102
RTVSPost2010Prop56
140
1.0
102
RTVSPost2010PropOp56
 70
     1
102
RTVSPost2010Prop57
140
1.0
102
RTVSPost2010PropOp57
 70
     1
102
RTVSPropertyOp0
 70
     1
102
RTVSPropertyOp1
 70
     1
102
RTVSPropertyOp2
 70
     1
102
RTVSPropertyOp3
 70
     1
102
RTVSPropertyOp4
 70
     1
102
RTVSPropertyOp5
 70
     1
102
RTVSPropertyOp6
 70
     1
102
RTVSPropertyOp7
 70
     1
102
RTVSPropertyOp8
 70
     1
102
RTVSPropertyOp9
 70
     1
102
RTVSPropertyOp10
 70
     1
102
RTVSPropertyOp11
 70
     1
102
RTVSPropertyOp12
 70
     1
102
RTVSPropertyOp13
 70
     1
102
RTVSPropertyOp14
 70
     1
102
RTVSPropertyOp15
 70
     1
102
RTVSPropertyOp16
 70
     1
102
RTVSPropertyOp17
 70
     1
102
RTVSPropertyOp18
 70
     1
102
RTVSPropertyOp19
 70
     1
102
RTVSPropertyOp20
 70
     1
102
RTVSPropertyOp21
 70
     1
102
RTVSPropertyOp22
 70
     1
102
RTVSPropertyOp23
 70
     1
102
RTVSPropertyOp24
 70
     1
102
RTVSPropertyOp25
 70
     1
102
RTVSPropertyOp26
 70
     1
102
RTVSPropertyOp27
 70
     1
102
RTVSPropertyOp28
 70
     1
102
RTVSPropertyOp29
 70
     1
102
RTVSPropertyOp30
 70
     1
102
RTVSPropertyOp31
 70
     1
102
RTVSPropertyOp32
 70
     1
102
RTVSPropertyOp33
 70
     1
102
RTVSPropertyOp34
 70
     1
102
RTVSPropertyOp35
 70
     1
102
RTVSPropertyOp36
 70
     1
102
RTVSPropertyOp37
 70
     1
102
RTVSPropertyOp38
 70
     1
102
RTVSPropertyOp39
 70
     1
102
RTVSPropertyOp40
 70
     1
102
RTVSPropertyOp41
 70
     1
102
RTVSPropertyOp42
 70
     1
102
RTVSPropertyOp43
 70
     1
102
RTVSPropertyOp44
 70
     1
102
RTVSPropertyOp45
 70
     1
102
RTVSPropertyOp46
 70
     1
102
RTVSPropertyOp47
 70
     1
102
RTVSPropertyOp48
 70
     1
102
RTVSPropertyOp49
 70
     1
102
RTVSPropertyOp50
 70
     1
102
RTVSPropertyOp51
 70
     0
102
RTVSPropertyOp52
 70
     0
102
RTVSPropertyOp53
 70
     1
102
RTVSPropertyOp54
 70
     1
102
RTVSPropertyOp55
 70
     1
102
RTVSPropertyOp56
 70
     1
102
RTVSPropertyOp57
 70
     1
102
RTVSPropertyOp58
 70
     1
102
RTVSPropertyOp59
 70
     1
102
RTVSPropertyOp60
 70
     1
102
RTVSPropertyOp61
 70
     1
102
RTVSPropertyOp62
 70
     1
  0
XRECORD
  5
AF64
102
{ACAD_REACTORS
330
AF63
102
}
330
AF63
100
AcDbXrecord
280
     1
102
RTVSPost2010Prop28
280
     0
102
RTVSPost2010PropOp28
 70
     1
102
RTVSPost2010Prop29
280
     1
102
RTVSPost2010PropOp29
 70
     1
102
RTVSPost2010Prop30
280
     1
102
RTVSPost2010PropOp30
 70
     1
102
RTVSPost2010Prop31
280
     0
102
RTVSPost2010PropOp31
 70
     1
102
RTVSPost2010Prop32
280
     0
102
RTVSPost2010PropOp32
 70
     1
102
RTVSPost2010Prop33
280
     0
102
RTVSPost2010PropOp33
 70
     1
102
RTVSPost2010Prop34
280
     0
102
RTVSPost2010PropOp34
 70
     1
102
RTVSPost2010Prop35
280
     0
102
RTVSPost2010PropOp35
 70
     1
102
RTVSPost2010Prop36
280
     0
102
RTVSPost2010PropOp36
 70
     1
102
RTVSPost2010Prop37
 90
       50
102
RTVSPost2010PropOp37
 70
     1
102
RTVSPost2010Prop38
140
0.0
102
RTVSPost2010PropOp38
 70
     1
102
RTVSPost2010Prop39
140
1.0
102
RTVSPost2010PropOp39
 70
     1
102
RTVSPost2010Prop40
 90
        0
102
RTVSPost2010PropOp40
 70
     1
102
RTVSPost2010Prop41ColorIndex
 90
       18
102
RTVSPost2010Prop41ColorRGB
 90
        0
102
RTVSPost2010PropOp41
 70
     1
102
RTVSPost2010Prop42
 90
       50
102
RTVSPost2010PropOp42
 70
     1
102
RTVSPost2010Prop43
 90
        3
102
RTVSPost2010PropOp43
 70
     1
102
RTVSPost2010Prop44ColorIndex
 90
        5
102
RTVSPost2010Prop44ColorRGB
 90
      255
102
RTVSPost2010PropOp44
 70
     1
102
RTVSPost2010Prop45
280
     0
102
RTVSPost2010PropOp45
 70
     1
102
RTVSPost2010Prop46
 90
       50
102
RTVSPost2010PropOp46
 70
     1
102
RTVSPost2010Prop47
 90
       50
102
RTVSPost2010PropOp47
 70
     1
102
RTVSPost2010Prop48
 90
       50
102
RTVSPost2010PropOp48
 70
     1
102
RTVSPost2010Prop49
280
     0
102
RTVSPost2010PropOp49
 70
     1
102
RTVSPost2010Prop50
 90
       50
102
RTVSPost2010PropOp50
 70
     1
102
RTVSPost2010Prop51ColorIndex
 90
      256
102
RTVSPost2010Prop51ColorRGB
 90
-16777216
102
RTVSPost2010PropOp51
 70
     0
102
RTVSPost2010Prop52
140
1.0
102
RTVSPost2010PropOp52
 70
     0
102
RTVSPost2010Prop53
 90
        2
102
RTVSPost2010PropOp53
 70
     1
102
RTVSPost2010Prop54
  1
strokes_ogs.tif
102
RTVSPost2010PropOp54
 70
     1
102
RTVSPost2010Prop55
280
     0
102
RTVSPost2010PropOp55
 70
     1
102
RTVSPost2010Prop56
140
1.0
102
RTVSPost2010PropOp56
 70
     1
102
RTVSPost2010Prop57
140
1.0
102
RTVSPost2010PropOp57
 70
     1
102
RTVSPropertyOp0
 70
     1
102
RTVSPropertyOp1
 70
     1
102
RTVSPropertyOp2
 70
     1
102
RTVSPropertyOp3
 70
     1
102
RTVSPropertyOp4
 70
     1
102
RTVSPropertyOp5
 70
     1
102
RTVSPropertyOp6
 70
     1
102
RTVSPropertyOp7
 70
     1
102
RTVSPropertyOp8
 70
     1
102
RTVSPropertyOp9
 70
     1
102
RTVSPropertyOp10
 70
     1
102
RTVSPropertyOp11
 70
     1
102
RTVSPropertyOp12
 70
     1
102
RTVSPropertyOp13
 70
     1
102
RTVSPropertyOp14
 70
     1
102
RTVSPropertyOp15
 70
     1
102
RTVSPropertyOp16
 70
     1
102
RTVSPropertyOp17
 70
     1
102
RTVSPropertyOp18
 70
     1
102
RTVSPropertyOp19
 70
     1
102
RTVSPropertyOp20
 70
     1
102
RTVSPropertyOp21
 70
     1
102
RTVSPropertyOp22
 70
     1
102
RTVSPropertyOp23
 70
     1
102
RTVSPropertyOp24
 70
     1
102
RTVSPropertyOp25
 70
     1
102
RTVSPropertyOp26
 70
     1
102
RTVSPropertyOp27
 70
     1
102
RTVSPropertyOp28
 70
     1
102
RTVSPropertyOp29
 70
     1
102
RTVSPropertyOp30
 70
     1
102
RTVSPropertyOp31
 70
     1
102
RTVSPropertyOp32
 70
     1
102
RTVSPropertyOp33
 70
     1
102
RTVSPropertyOp34
 70
     1
102
RTVSPropertyOp35
 70
     1
102
RTVSPropertyOp36
 70
     1
102
RTVSPropertyOp37
 70
     1
102
RTVSPropertyOp38
 70
     1
102
RTVSPropertyOp39
 70
     1
102
RTVSPropertyOp40
 70
     1
102
RTVSPropertyOp41
 70
     1
102
RTVSPropertyOp42
 70
     1
102
RTVSPropertyOp43
 70
     1
102
RTVSPropertyOp44
 70
     1
102
RTVSPropertyOp45
 70
     1
102
RTVSPropertyOp46
 70
     1
102
RTVSPropertyOp47
 70
     1
102
RTVSPropertyOp48
 70
     1
102
RTVSPropertyOp49
 70
     1
102
RTVSPropertyOp50
 70
     1
102
RTVSPropertyOp51
 70
     0
102
RTVSPropertyOp52
 70
     0
102
RTVSPropertyOp53
 70
     1
102
RTVSPropertyOp54
 70
     1
102
RTVSPropertyOp55
 70
     1
102
RTVSPropertyOp56
 70
     1
102
RTVSPropertyOp57
 70
     1
102
RTVSPropertyOp58
 70
     1
102
RTVSPropertyOp59
 70
     1
102
RTVSPropertyOp60
 70
     1
102
RTVSPropertyOp61
 70
     1
102
RTVSPropertyOp62
 70
     1
  0
XRECORD
  5
AF5A
102
{ACAD_REACTORS
330
AF59
102
}
330
AF59
100
AcDbXrecord
280
     1
102
RTVSPost2010Prop28
280
     0
102
RTVSPost2010PropOp28
 70
     1
102
RTVSPost2010Prop29
280
     1
102
RTVSPost2010PropOp29
 70
     1
102
RTVSPost2010Prop30
280
     1
102
RTVSPost2010PropOp30
 70
     1
102
RTVSPost2010Prop31
280
     0
102
RTVSPost2010PropOp31
 70
     1
102
RTVSPost2010Prop32
280
     0
102
RTVSPost2010PropOp32
 70
     1
102
RTVSPost2010Prop33
280
     0
102
RTVSPost2010PropOp33
 70
     1
102
RTVSPost2010Prop34
280
     0
102
RTVSPost2010PropOp34
 70
     1
102
RTVSPost2010Prop35
280
     0
102
RTVSPost2010PropOp35
 70
     1
102
RTVSPost2010Prop36
280
     0
102
RTVSPost2010PropOp36
 70
     1
102
RTVSPost2010Prop37
 90
       50
102
RTVSPost2010PropOp37
 70
     1
102
RTVSPost2010Prop38
140
0.0
102
RTVSPost2010PropOp38
 70
     1
102
RTVSPost2010Prop39
140
1.0
102
RTVSPost2010PropOp39
 70
     1
102
RTVSPost2010Prop40
 90
        0
102
RTVSPost2010PropOp40
 70
     1
102
RTVSPost2010Prop41ColorIndex
 90
       18
102
RTVSPost2010Prop41ColorRGB
 90
        0
102
RTVSPost2010PropOp41
 70
     1
102
RTVSPost2010Prop42
 90
       50
102
RTVSPost2010PropOp42
 70
     1
102
RTVSPost2010Prop43
 90
        3
102
RTVSPost2010PropOp43
 70
     1
102
RTVSPost2010Prop44ColorIndex
 90
        5
102
RTVSPost2010Prop44ColorRGB
 90
      255
102
RTVSPost2010PropOp44
 70
     1
102
RTVSPost2010Prop45
280
     0
102
RTVSPost2010PropOp45
 70
     1
102
RTVSPost2010Prop46
 90
       50
102
RTVSPost2010PropOp46
 70
     1
102
RTVSPost2010Prop47
 90
       50
102
RTVSPost2010PropOp47
 70
     1
102
RTVSPost2010Prop48
 90
       50
102
RTVSPost2010PropOp48
 70
     1
102
RTVSPost2010Prop49
280
     0
102
RTVSPost2010PropOp49
 70
     1
102
RTVSPost2010Prop50
 90
       50
102
RTVSPost2010PropOp50
 70
     1
102
RTVSPost2010Prop51ColorIndex
 90
      256
102
RTVSPost2010Prop51ColorRGB
 90
-16777216
102
RTVSPost2010PropOp51
 70
     0
102
RTVSPost2010Prop52
140
1.0
102
RTVSPost2010PropOp52
 70
     0
102
RTVSPost2010Prop53
 90
        2
102
RTVSPost2010PropOp53
 70
     1
102
RTVSPost2010Prop54
  1
strokes_ogs.tif
102
RTVSPost2010PropOp54
 70
     1
102
RTVSPost2010Prop55
280
     0
102
RTVSPost2010PropOp55
 70
     1
102
RTVSPost2010Prop56
140
1.0
102
RTVSPost2010PropOp56
 70
     1
102
RTVSPost2010Prop57
140
1.0
102
RTVSPost2010PropOp57
 70
     1
102
RTVSPropertyOp0
 70
     1
102
RTVSPropertyOp1
 70
     1
102
RTVSPropertyOp2
 70
     1
102
RTVSPropertyOp3
 70
     1
102
RTVSPropertyOp4
 70
     1
102
RTVSPropertyOp5
 70
     1
102
RTVSPropertyOp6
 70
     1
102
RTVSPropertyOp7
 70
     1
102
RTVSPropertyOp8
 70
     1
102
RTVSPropertyOp9
 70
     1
102
RTVSPropertyOp10
 70
     1
102
RTVSPropertyOp11
 70
     1
102
RTVSPropertyOp12
 70
     1
102
RTVSPropertyOp13
 70
     1
102
RTVSPropertyOp14
 70
     1
102
RTVSPropertyOp15
 70
     1
102
RTVSPropertyOp16
 70
     1
102
RTVSPropertyOp17
 70
     1
102
RTVSPropertyOp18
 70
     1
102
RTVSPropertyOp19
 70
     1
102
RTVSPropertyOp20
 70
     1
102
RTVSPropertyOp21
 70
     1
102
RTVSPropertyOp22
 70
     1
102
RTVSPropertyOp23
 70
     1
102
RTVSPropertyOp24
 70
     1
102
RTVSPropertyOp25
 70
     1
102
RTVSPropertyOp26
 70
     1
102
RTVSPropertyOp27
 70
     1
102
RTVSPropertyOp28
 70
     1
102
RTVSPropertyOp29
 70
     1
102
RTVSPropertyOp30
 70
     1
102
RTVSPropertyOp31
 70
     1
102
RTVSPropertyOp32
 70
     1
102
RTVSPropertyOp33
 70
     1
102
RTVSPropertyOp34
 70
     1
102
RTVSPropertyOp35
 70
     1
102
RTVSPropertyOp36
 70
     1
102
RTVSPropertyOp37
 70
     1
102
RTVSPropertyOp38
 70
     1
102
RTVSPropertyOp39
 70
     1
102
RTVSPropertyOp40
 70
     1
102
RTVSPropertyOp41
 70
     1
102
RTVSPropertyOp42
 70
     1
102
RTVSPropertyOp43
 70
     1
102
RTVSPropertyOp44
 70
     1
102
RTVSPropertyOp45
 70
     1
102
RTVSPropertyOp46
 70
     1
102
RTVSPropertyOp47
 70
     1
102
RTVSPropertyOp48
 70
     1
102
RTVSPropertyOp49
 70
     1
102
RTVSPropertyOp50
 70
     1
102
RTVSPropertyOp51
 70
     0
102
RTVSPropertyOp52
 70
     0
102
RTVSPropertyOp53
 70
     1
102
RTVSPropertyOp54
 70
     1
102
RTVSPropertyOp55
 70
     1
102
RTVSPropertyOp56
 70
     1
102
RTVSPropertyOp57
 70
     1
102
RTVSPropertyOp58
 70
     1
102
RTVSPropertyOp59
 70
     1
102
RTVSPropertyOp60
 70
     1
102
RTVSPropertyOp61
 70
     1
102
RTVSPropertyOp62
 70
     1
  0
XRECORD
  5
AF4E
102
{ACAD_REACTORS
330
AF4D
102
}
330
AF4D
100
AcDbXrecord
280
     1
102
RTVSPost2010Prop28
280
     0
102
RTVSPost2010PropOp28
 70
     1
102
RTVSPost2010Prop29
280
     1
102
RTVSPost2010PropOp29
 70
     1
102
RTVSPost2010Prop30
280
     1
102
RTVSPost2010PropOp30
 70
     1
102
RTVSPost2010Prop31
280
     0
102
RTVSPost2010PropOp31
 70
     1
102
RTVSPost2010Prop32
280
     0
102
RTVSPost2010PropOp32
 70
     1
102
RTVSPost2010Prop33
280
     0
102
RTVSPost2010PropOp33
 70
     1
102
RTVSPost2010Prop34
280
     0
102
RTVSPost2010PropOp34
 70
     1
102
RTVSPost2010Prop35
280
     0
102
RTVSPost2010PropOp35
 70
     1
102
RTVSPost2010Prop36
280
     0
102
RTVSPost2010PropOp36
 70
     1
102
RTVSPost2010Prop37
 90
       50
102
RTVSPost2010PropOp37
 70
     1
102
RTVSPost2010Prop38
140
0.0
102
RTVSPost2010PropOp38
 70
     1
102
RTVSPost2010Prop39
140
1.0
102
RTVSPost2010PropOp39
 70
     1
102
RTVSPost2010Prop40
 90
        0
102
RTVSPost2010PropOp40
 70
     1
102
RTVSPost2010Prop41ColorIndex
 90
       18
102
RTVSPost2010Prop41ColorRGB
 90
        0
102
RTVSPost2010PropOp41
 70
     1
102
RTVSPost2010Prop42
 90
       50
102
RTVSPost2010PropOp42
 70
     1
102
RTVSPost2010Prop43
 90
        3
102
RTVSPost2010PropOp43
 70
     1
102
RTVSPost2010Prop44ColorIndex
 90
        5
102
RTVSPost2010Prop44ColorRGB
 90
      255
102
RTVSPost2010PropOp44
 70
     1
102
RTVSPost2010Prop45
280
     0
102
RTVSPost2010PropOp45
 70
     1
102
RTVSPost2010Prop46
 90
       50
102
RTVSPost2010PropOp46
 70
     1
102
RTVSPost2010Prop47
 90
       50
102
RTVSPost2010PropOp47
 70
     1
102
RTVSPost2010Prop48
 90
       50
102
RTVSPost2010PropOp48
 70
     1
102
RTVSPost2010Prop49
280
     0
102
RTVSPost2010PropOp49
 70
     1
102
RTVSPost2010Prop50
 90
       50
102
RTVSPost2010PropOp50
 70
     1
102
RTVSPost2010Prop51ColorIndex
 90
      256
102
RTVSPost2010Prop51ColorRGB
 90
-16777216
102
RTVSPost2010PropOp51
 70
     0
102
RTVSPost2010Prop52
140
1.0
102
RTVSPost2010PropOp52
 70
     0
102
RTVSPost2010Prop53
 90
        2
102
RTVSPost2010PropOp53
 70
     1
102
RTVSPost2010Prop54
  1
strokes_ogs.tif
102
RTVSPost2010PropOp54
 70
     1
102
RTVSPost2010Prop55
280
     0
102
RTVSPost2010PropOp55
 70
     1
102
RTVSPost2010Prop56
140
1.0
102
RTVSPost2010PropOp56
 70
     1
102
RTVSPost2010Prop57
140
1.0
102
RTVSPost2010PropOp57
 70
     1
102
RTVSPropertyOp0
 70
     1
102
RTVSPropertyOp1
 70
     1
102
RTVSPropertyOp2
 70
     1
102
RTVSPropertyOp3
 70
     1
102
RTVSPropertyOp4
 70
     1
102
RTVSPropertyOp5
 70
     1
102
RTVSPropertyOp6
 70
     1
102
RTVSPropertyOp7
 70
     1
102
RTVSPropertyOp8
 70
     1
102
RTVSPropertyOp9
 70
     1
102
RTVSPropertyOp10
 70
     1
102
RTVSPropertyOp11
 70
     1
102
RTVSPropertyOp12
 70
     1
102
RTVSPropertyOp13
 70
     1
102
RTVSPropertyOp14
 70
     1
102
RTVSPropertyOp15
 70
     1
102
RTVSPropertyOp16
 70
     1
102
RTVSPropertyOp17
 70
     1
102
RTVSPropertyOp18
 70
     1
102
RTVSPropertyOp19
 70
     1
102
RTVSPropertyOp20
 70
     1
102
RTVSPropertyOp21
 70
     1
102
RTVSPropertyOp22
 70
     1
102
RTVSPropertyOp23
 70
     1
102
RTVSPropertyOp24
 70
     1
102
RTVSPropertyOp25
 70
     1
102
RTVSPropertyOp26
 70
     1
102
RTVSPropertyOp27
 70
     1
102
RTVSPropertyOp28
 70
     1
102
RTVSPropertyOp29
 70
     1
102
RTVSPropertyOp30
 70
     1
102
RTVSPropertyOp31
 70
     1
102
RTVSPropertyOp32
 70
     1
102
RTVSPropertyOp33
 70
     1
102
RTVSPropertyOp34
 70
     1
102
RTVSPropertyOp35
 70
     1
102
RTVSPropertyOp36
 70
     1
102
RTVSPropertyOp37
 70
     1
102
RTVSPropertyOp38
 70
     1
102
RTVSPropertyOp39
 70
     1
102
RTVSPropertyOp40
 70
     1
102
RTVSPropertyOp41
 70
     1
102
RTVSPropertyOp42
 70
     1
102
RTVSPropertyOp43
 70
     1
102
RTVSPropertyOp44
 70
     1
102
RTVSPropertyOp45
 70
     1
102
RTVSPropertyOp46
 70
     1
102
RTVSPropertyOp47
 70
     1
102
RTVSPropertyOp48
 70
     1
102
RTVSPropertyOp49
 70
     1
102
RTVSPropertyOp50
 70
     1
102
RTVSPropertyOp51
 70
     0
102
RTVSPropertyOp52
 70
     0
102
RTVSPropertyOp53
 70
     1
102
RTVSPropertyOp54
 70
     1
102
RTVSPropertyOp55
 70
     1
102
RTVSPropertyOp56
 70
     1
102
RTVSPropertyOp57
 70
     1
102
RTVSPropertyOp58
 70
     1
102
RTVSPropertyOp59
 70
     1
102
RTVSPropertyOp60
 70
     1
102
RTVSPropertyOp61
 70
     1
102
RTVSPropertyOp62
 70
     1
  0
XRECORD
  5
AF66
102
{ACAD_REACTORS
330
AF65
102
}
330
AF65
100
AcDbXrecord
280
     1
102
RTVSPost2010Prop28
280
     0
102
RTVSPost2010PropOp28
 70
     1
102
RTVSPost2010Prop29
280
     1
102
RTVSPost2010PropOp29
 70
     1
102
RTVSPost2010Prop30
280
     1
102
RTVSPost2010PropOp30
 70
     1
102
RTVSPost2010Prop31
280
     0
102
RTVSPost2010PropOp31
 70
     1
102
RTVSPost2010Prop32
280
     0
102
RTVSPost2010PropOp32
 70
     1
102
RTVSPost2010Prop33
280
     0
102
RTVSPost2010PropOp33
 70
     1
102
RTVSPost2010Prop34
280
     0
102
RTVSPost2010PropOp34
 70
     1
102
RTVSPost2010Prop35
280
     0
102
RTVSPost2010PropOp35
 70
     1
102
RTVSPost2010Prop36
280
     0
102
RTVSPost2010PropOp36
 70
     1
102
RTVSPost2010Prop37
 90
       50
102
RTVSPost2010PropOp37
 70
     1
102
RTVSPost2010Prop38
140
0.0
102
RTVSPost2010PropOp38
 70
     1
102
RTVSPost2010Prop39
140
1.0
102
RTVSPost2010PropOp39
 70
     1
102
RTVSPost2010Prop40
 90
        0
102
RTVSPost2010PropOp40
 70
     1
102
RTVSPost2010Prop41ColorIndex
 90
       18
102
RTVSPost2010Prop41ColorRGB
 90
        0
102
RTVSPost2010PropOp41
 70
     1
102
RTVSPost2010Prop42
 90
       50
102
RTVSPost2010PropOp42
 70
     1
102
RTVSPost2010Prop43
 90
        3
102
RTVSPost2010PropOp43
 70
     1
102
RTVSPost2010Prop44ColorIndex
 90
        5
102
RTVSPost2010Prop44ColorRGB
 90
      255
102
RTVSPost2010PropOp44
 70
     1
102
RTVSPost2010Prop45
280
     0
102
RTVSPost2010PropOp45
 70
     1
102
RTVSPost2010Prop46
 90
       50
102
RTVSPost2010PropOp46
 70
     1
102
RTVSPost2010Prop47
 90
       50
102
RTVSPost2010PropOp47
 70
     1
102
RTVSPost2010Prop48
 90
       50
102
RTVSPost2010PropOp48
 70
     1
102
RTVSPost2010Prop49
280
     0
102
RTVSPost2010PropOp49
 70
     1
102
RTVSPost2010Prop50
 90
       50
102
RTVSPost2010PropOp50
 70
     1
102
RTVSPost2010Prop51ColorIndex
 90
      256
102
RTVSPost2010Prop51ColorRGB
 90
-16777216
102
RTVSPost2010PropOp51
 70
     0
102
RTVSPost2010Prop52
140
1.0
102
RTVSPost2010PropOp52
 70
     0
102
RTVSPost2010Prop53
 90
        2
102
RTVSPost2010PropOp53
 70
     1
102
RTVSPost2010Prop54
  1
strokes_ogs.tif
102
RTVSPost2010PropOp54
 70
     1
102
RTVSPost2010Prop55
280
     0
102
RTVSPost2010PropOp55
 70
     1
102
RTVSPost2010Prop56
140
1.0
102
RTVSPost2010PropOp56
 70
     1
102
RTVSPost2010Prop57
140
1.0
102
RTVSPost2010PropOp57
 70
     1
102
RTVSPropertyOp0
 70
     1
102
RTVSPropertyOp1
 70
     1
102
RTVSPropertyOp2
 70
     1
102
RTVSPropertyOp3
 70
     1
102
RTVSPropertyOp4
 70
     1
102
RTVSPropertyOp5
 70
     1
102
RTVSPropertyOp6
 70
     1
102
RTVSPropertyOp7
 70
     1
102
RTVSPropertyOp8
 70
     1
102
RTVSPropertyOp9
 70
     1
102
RTVSPropertyOp10
 70
     1
102
RTVSPropertyOp11
 70
     1
102
RTVSPropertyOp12
 70
     1
102
RTVSPropertyOp13
 70
     1
102
RTVSPropertyOp14
 70
     1
102
RTVSPropertyOp15
 70
     1
102
RTVSPropertyOp16
 70
     1
102
RTVSPropertyOp17
 70
     1
102
RTVSPropertyOp18
 70
     1
102
RTVSPropertyOp19
 70
     1
102
RTVSPropertyOp20
 70
     1
102
RTVSPropertyOp21
 70
     1
102
RTVSPropertyOp22
 70
     1
102
RTVSPropertyOp23
 70
     1
102
RTVSPropertyOp24
 70
     1
102
RTVSPropertyOp25
 70
     1
102
RTVSPropertyOp26
 70
     1
102
RTVSPropertyOp27
 70
     1
102
RTVSPropertyOp28
 70
     1
102
RTVSPropertyOp29
 70
     1
102
RTVSPropertyOp30
 70
     1
102
RTVSPropertyOp31
 70
     1
102
RTVSPropertyOp32
 70
     1
102
RTVSPropertyOp33
 70
     1
102
RTVSPropertyOp34
 70
     1
102
RTVSPropertyOp35
 70
     1
102
RTVSPropertyOp36
 70
     1
102
RTVSPropertyOp37
 70
     1
102
RTVSPropertyOp38
 70
     1
102
RTVSPropertyOp39
 70
     1
102
RTVSPropertyOp40
 70
     1
102
RTVSPropertyOp41
 70
     1
102
RTVSPropertyOp42
 70
     1
102
RTVSPropertyOp43
 70
     1
102
RTVSPropertyOp44
 70
     1
102
RTVSPropertyOp45
 70
     1
102
RTVSPropertyOp46
 70
     1
102
RTVSPropertyOp47
 70
     1
102
RTVSPropertyOp48
 70
     1
102
RTVSPropertyOp49
 70
     1
102
RTVSPropertyOp50
 70
     1
102
RTVSPropertyOp51
 70
     0
102
RTVSPropertyOp52
 70
     0
102
RTVSPropertyOp53
 70
     1
102
RTVSPropertyOp54
 70
     1
102
RTVSPropertyOp55
 70
     1
102
RTVSPropertyOp56
 70
     1
102
RTVSPropertyOp57
 70
     1
102
RTVSPropertyOp58
 70
     1
102
RTVSPropertyOp59
 70
     1
102
RTVSPropertyOp60
 70
     1
102
RTVSPropertyOp61
 70
     1
102
RTVSPropertyOp62
 70
     1
  0
ENDSEC
  0
EOF
