  0
SECTION
  2
HEADER
  9
$ACADVER
  1
AC1015
  9
$ACADMAINTVER
 70
    20
  9
$DWGCODEPAGE
  3
ANSI_932
  9
$INSBASE
 10
0.0
 20
0.0
 30
0.0
  9
$EXTMIN
 10
10.0
 20
9.999999999999998
 30
0.0
  9
$EXTMAX
 10
381.5599209999998
 20
339.2684209999998
 30
0.0
  9
$LIMMIN
 10
0.0
 20
0.0
  9
$LIMMAX
 10
495.0
 20
341.25
  9
$ORTHOMODE
 70
     0
  9
$REGENMODE
 70
     1
  9
$FILLMODE
 70
     1
  9
$QTEXTMODE
 70
     0
  9
$MIRRTEXT
 70
     1
  9
$LTSCALE
 40
20.0
  9
$ATTMODE
 70
     1
  9
$TEXTSIZE
 40
5.0
  9
$TRACEWID
 40
1.0
  9
$TEXTSTYLE
  7
STANDARD
  9
$CLAYER
  8
0
  9
$CELTYPE
  6
BYLAYER
  9
$CECOLOR
 62
   256
  9
$CELTSCALE
 40
1.0
  9
$DISPSILH
 70
     0
  9
$DIMSCALE
 40
1.0
  9
$DIMASZ
 40
2.5
  9
$DIMEXO
 40
1.0
  9
$DIMDLI
 40
10.0
  9
$DIMRND
 40
0.0
  9
$DIMDLE
 40
0.0
  9
$DIMEXE
 40
1.0
  9
$DIMTP
 40
0.0
  9
$DIMTM
 40
0.0
  9
$DIMTXT
 40
3.2
  9
$DIMCEN
 40
0.0
  9
$DIMTSZ
 40
0.0
  9
$DIMTOL
 70
     0
  9
$DIMLIM
 70
     0
  9
$DIMTIH
 70
     0
  9
$DIMTOH
 70
     0
  9
$DIMSE1
 70
     0
  9
$DIMSE2
 70
     0
  9
$DIMTAD
 70
     3
  9
$DIMZIN
 70
     8
  9
$DIMBLK
  1

  9
$DIMASO
 70
     1
  9
$DIMSHO
 70
     1
  9
$DIMPOST
  1

  9
$DIMAPOST
  1

  9
$DIMALT
 70
     0
  9
$DIMALTD
 70
     2
  9
$DIMALTF
 40
25.4
  9
$DIMLFAC
 40
1.0
  9
$DIMTOFL
 70
     1
  9
$DIMTVP
 40
0.0
  9
$DIMTIX
 70
     0
  9
$DIMSOXD
 70
     0
  9
$DIMSAH
 70
     1
  9
$DIMBLK1
  1

  9
$DIMBLK2
  1

  9
$DIMSTYLE
  2
STANDARD
  9
$DIMCLRD
 70
     0
  9
$DIMCLRE
 70
     0
  9
$DIMCLRT
 70
     0
  9
$DIMTFAC
 40
1.0
  9
$DIMGAP
 40
1.0
  9
$DIMJUST
 70
     0
  9
$DIMSD1
 70
     0
  9
$DIMSD2
 70
     0
  9
$DIMTOLJ
 70
     1
  9
$DIMTZIN
 70
     0
  9
$DIMALTZ
 70
     0
  9
$DIMALTTZ
 70
     0
  9
$DIMUPT
 70
     0
  9
$DIMDEC
 70
     4
  9
$DIMTDEC
 70
     4
  9
$DIMALTU
 70
     2
  9
$DIMALTTD
 70
     2
  9
$DIMTXSTY
  7
STANDARD
  9
$DIMAUNIT
 70
     0
  9
$DIMADEC
 70
     0
  9
$DIMALTRND
 40
0.0
  9
$DIMAZIN
 70
     0
  9
$DIMDSEP
 70
    46
  9
$DIMATFIT
 70
     3
  9
$DIMFRAC
 70
     0
  9
$DIMLDRBLK
  1

  9
$DIMLUNIT
 70
     2
  9
$DIMLWD
 70
    -2
  9
$DIMLWE
 70
    -2
  9
$DIMTMOVE
 70
     0
  9
$LUNITS
 70
     2
  9
$LUPREC
 70
     4
  9
$SKETCHINC
 40
1.0
  9
$FILLETRAD
 40
6.0
  9
$AUNITS
 70
     0
  9
$AUPREC
 70
     2
  9
$MENU
  1
.
  9
$ELEVATION
 40
0.0
  9
$PELEVATION
 40
0.0
  9
$THICKNESS
 40
0.0
  9
$LIMCHECK
 70
     0
  9
$CHAMFERA
 40
10.0
  9
$CHAMFERB
 40
10.0
  9
$CHAMFERC
 40
0.0
  9
$CHAMFERD
 40
0.0
  9
$SKPOLY
 70
     0
  9
$TDCREATE
 40
2451301.428516667
  9
$TDUCREATE
 40
2451301.053516667
  9
$TDUPDATE
 40
2457192.689904445
  9
$TDUUPDATE
 40
2457192.314904445
  9
$TDINDWG
 40
0.0037144792
  9
$TDUSRTIMER
 40
0.0037139815
  9
$USRTIMER
 70
     1
  9
$ANGBASE
 50
0.0
  9
$ANGDIR
 70
     0
  9
$PDMODE
 70
     0
  9
$PDSIZE
 40
0.0
  9
$PLINEWID
 40
0.0
  9
$SPLFRAME
 70
     0
  9
$SPLINETYPE
 70
     6
  9
$SPLINESEGS
 70
     8
  9
$HANDSEED
  5
B46C
  9
$SURFTAB1
 70
     6
  9
$SURFTAB2
 70
     6
  9
$SURFTYPE
 70
     6
  9
$SURFU
 70
     6
  9
$SURFV
 70
     6
  9
$UCSBASE
  2

  9
$UCSNAME
  2

  9
$UCSORG
 10
0.0
 20
0.0
 30
0.0
  9
$UCSXDIR
 10
1.0
 20
0.0
 30
0.0
  9
$UCSYDIR
 10
0.0
 20
1.0
 30
0.0
  9
$UCSORTHOREF
  2

  9
$UCSORTHOVIEW
 70
     0
  9
$UCSORGTOP
 10
0.0
 20
0.0
 30
0.0
  9
$UCSORGBOTTOM
 10
0.0
 20
0.0
 30
0.0
  9
$UCSORGLEFT
 10
0.0
 20
0.0
 30
0.0
  9
$UCSORGRIGHT
 10
0.0
 20
0.0
 30
0.0
  9
$UCSORGFRONT
 10
0.0
 20
0.0
 30
0.0
  9
$UCSORGBACK
 10
0.0
 20
0.0
 30
0.0
  9
$PUCSBASE
  2

  9
$PUCSNAME
  2

  9
$PUCSORG
 10
0.0
 20
0.0
 30
0.0
  9
$PUCSXDIR
 10
1.0
 20
0.0
 30
0.0
  9
$PUCSYDIR
 10
0.0
 20
1.0
 30
0.0
  9
$PUCSORTHOREF
  2

  9
$PUCSORTHOVIEW
 70
     0
  9
$PUCSORGTOP
 10
0.0
 20
0.0
 30
0.0
  9
$PUCSORGBOTTOM
 10
0.0
 20
0.0
 30
0.0
  9
$PUCSORGLEFT
 10
0.0
 20
0.0
 30
0.0
  9
$PUCSORGRIGHT
 10
0.0
 20
0.0
 30
0.0
  9
$PUCSORGFRONT
 10
0.0
 20
0.0
 30
0.0
  9
$PUCSORGBACK
 10
0.0
 20
0.0
 30
0.0
  9
$USERI1
 70
     0
  9
$USERI2
 70
     0
  9
$USERI3
 70
     0
  9
$USERI4
 70
     0
  9
$USERI5
 70
     0
  9
$USERR1
 40
0.0
  9
$USERR2
 40
0.0
  9
$USERR3
 40
0.0
  9
$USERR4
 40
0.0
  9
$USERR5
 40
0.0
  9
$WORLDVIEW
 70
     1
  9
$SHADEDGE
 70
     3
  9
$SHADEDIF
 70
    70
  9
$TILEMODE
 70
     1
  9
$MAXACTVP
 70
    16
  9
$PINSBASE
 10
0.0
 20
0.0
 30
0.0
  9
$PLIMCHECK
 70
     0
  9
$PEXTMIN
 10
1.000000000000000E+20
 20
1.000000000000000E+20
 30
1.000000000000000E+20
  9
$PEXTMAX
 10
-1.000000000000000E+20
 20
-1.000000000000000E+20
 30
-1.000000000000000E+20
  9
$PLIMMIN
 10
0.0
 20
0.0
  9
$PLIMMAX
 10
420.0
 20
297.0
  9
$UNITMODE
 70
     0
  9
$VISRETAIN
 70
     0
  9
$PLINEGEN
 70
     0
  9
$PSLTSCALE
 70
     0
  9
$TREEDEPTH
 70
  3020
  9
$CMLSTYLE
  2
STANDARD
  9
$CMLJUST
 70
     0
  9
$CMLSCALE
 40
1.0
  9
$PROXYGRAPHICS
 70
     1
  9
$MEASUREMENT
 70
     0
  9
$CELWEIGHT
370
    -1
  9
$ENDCAPS
280
     0
  9
$JOINSTYLE
280
     0
  9
$LWDISPLAY
290
     0
  9
$INSUNITS
 70
     0
  9
$HYPERLINKBASE
  1

  9
$STYLESHEET
  1

  9
$XEDIT
290
     1
  9
$CEPSNTYPE
380
     0
  9
$PSTYLEMODE
290
     1
  9
$FINGERPRINTGUID
  2
{66C38909-66C7-43AF-A261-C13BE339C7A8}
  9
$VERSIONGUID
  2
{9FFFBC10-431A-4639-8AF5-98EDB0278393}
  9
$EXTNAMES
290
     1
  9
$PSVPSCALE
 40
0.0
  9
$OLESTARTUP
290
     0
  0
ENDSEC
  0
SECTION
  2
CLASSES
  0
CLASS
  1
ACDBDICTIONARYWDFLT
  2
AcDbDictionaryWithDefault
  3
ObjectDBX Classes
 90
        0
280
     0
281
     0
  0
CLASS
  1
ACDBPLACEHOLDER
  2
AcDbPlaceHolder
  3
ObjectDBX Classes
 90
        0
280
     0
281
     0
  0
CLASS
  1
LAYOUT
  2
AcDbLayout
  3
ObjectDBX Classes
 90
        0
280
     0
281
     0
  0
CLASS
  1
DICTIONARYVAR
  2
AcDbDictionaryVar
  3
ObjectDBX Classes
 90
        0
280
     0
281
     0
  0
CLASS
  1
MATERIAL
  2
AcDbMaterial
  3
ObjectDBX Classes
 90
     1153
280
     0
281
     0
  0
CLASS
  1
VISUALSTYLE
  2
AcDbVisualStyle
  3
ObjectDBX Classes
 90
     4095
280
     0
281
     0
  0
CLASS
  1
TABLESTYLE
  2
AcDbTableStyle
  3
ObjectDBX Classes
 90
     4095
280
     0
281
     0
  0
CLASS
  1
SCALE
  2
AcDbScale
  3
ObjectDBX Classes
 90
     1153
280
     0
281
     0
  0
CLASS
  1
MLEADERSTYLE
  2
AcDbMLeaderStyle
  3
ACDB_MLEADERSTYLE_CLASS
 90
     4095
280
     0
281
     0
  0
CLASS
  1
ACDBSECTIONVIEWSTYLE
  2
AcDbSectionViewStyle
  3
ObjectDBX Classes
 90
     1025
280
     0
281
     0
  0
CLASS
  1
ACDBDETAILVIEWSTYLE
  2
AcDbDetailViewStyle
  3
ObjectDBX Classes
 90
     1025
280
     0
281
     0
  0
CLASS
  1
CELLSTYLEMAP
  2
AcDbCellStyleMap
  3
ObjectDBX Classes
 90
     1152
280
     0
281
     0
  0
ENDSEC
  0
SECTION
  2
TABLES
  0
TABLE
  2
VPORT
  5
B066
330
0
100
AcDbSymbolTable
 70
     1
  0
VPORT
  5
B3B7
330
B066
100
AcDbSymbolTableRecord
100
AcDbViewportTableRecord
  2
*ACTIVE
 70
     0
 10
0.0
 20
0.0
 11
1.0
 21
1.0
 12
322.5253082789304
 22
174.6344383602372
 13
0.0
 23
0.0
 14
10.0
 24
10.0
 15
10.0
 25
10.0
 16
0.0
 26
0.0
 36
1.0
 17
0.0
 27
0.0
 37
0.0
 40
331.8942802690466
 41
2.35006605019815
 42
50.0
 43
0.0
 44
0.0
 50
0.0
 51
0.0
 71
     0
 72
   100
 73
     1
 74
     0
 75
     0
 76
     0
 77
     0
 78
     0
281
     0
 65
     1
110
0.0
120
0.0
130
0.0
111
1.0
121
0.0
131
0.0
112
0.0
122
1.0
132
0.0
 79
     0
146
0.0
1001
ACAD_NAV_VCDISPLAY
1070
     3
  0
ENDTAB
  0
TABLE
  2
LTYPE
  5
B063
330
0
100
AcDbSymbolTable
 70
     4
  0
LTYPE
  5
B071
330
B063
100
AcDbSymbolTableRecord
100
AcDbLinetypeTableRecord
  2
BYBLOCK
 70
     0
  3

 72
    65
 73
     0
 40
0.0
  0
LTYPE
  5
B072
330
B063
100
AcDbSymbolTableRecord
100
AcDbLinetypeTableRecord
  2
BYLAYER
 70
     0
  3

 72
    65
 73
     0
 40
0.0
  0
LTYPE
  5
B073
330
B063
100
AcDbSymbolTableRecord
100
AcDbLinetypeTableRecord
  2
CONTINUOUS
 70
     0
  3
Solid line
 72
    65
 73
     0
 40
0.0
  0
LTYPE
  5
B081
330
B063
100
AcDbSymbolTableRecord
100
AcDbLinetypeTableRecord
  2
DASHED
 70
     0
  3
__ __ __ __ __ __ __ __ __ __ __ __ __ __ __ __
 72
    65
 73
     2
 40
0.75
 49
0.5
 74
     0
 49
-0.25
 74
     0
  0
LTYPE
  5
B082
330
B063
100
AcDbSymbolTableRecord
100
AcDbLinetypeTableRecord
  2
CENTER
 70
     0
  3
____ _ ____ _ ____ _ ____ _ ____ _ ____ _ ____ 
 72
    65
 73
     4
 40
2.0
 49
1.25
 74
     0
 49
-0.25
 74
     0
 49
0.25
 74
     0
 49
-0.25
 74
     0
  0
LTYPE
  5
B083
330
B063
100
AcDbSymbolTableRecord
100
AcDbLinetypeTableRecord
  2
PHANTOM
 70
     0
  3
______  __  __  ______  __  __  ______  __  __ 
 72
    65
 73
     6
 40
2.5
 49
1.25
 74
     0
 49
-0.25
 74
     0
 49
0.25
 74
     0
 49
-0.25
 74
     0
 49
0.25
 74
     0
 49
-0.25
 74
     0
  0
ENDTAB
  0
TABLE
  2
LAYER
  5
B060
330
0
100
AcDbSymbolTable
 70
     8
  0
LAYER
  5
B06E
102
{ACAD_XDICTIONARY
360
B410
102
}
330
B060
100
AcDbSymbolTableRecord
100
AcDbLayerTableRecord
  2
0
 70
     0
 62
     7
  6
CONTINUOUS
370
    -3
390
B3BE
  0
LAYER
  5
B084
102
{ACAD_XDICTIONARY
360
B412
102
}
330
B060
100
AcDbSymbolTableRecord
100
AcDbLayerTableRecord
  2
4
 70
     0
 62
     1
  6
CENTER
370
    -3
390
B3BE
  0
LAYER
  5
B085
102
{ACAD_XDICTIONARY
360
B414
102
}
330
B060
100
AcDbSymbolTableRecord
100
AcDbLayerTableRecord
  2
5
 70
     0
 62
     6
  6
PHANTOM
370
    -3
390
B3BE
  0
LAYER
  5
B086
102
{ACAD_XDICTIONARY
360
B416
102
}
330
B060
100
AcDbSymbolTableRecord
100
AcDbLayerTableRecord
  2
1
 70
     0
 62
     7
  6
CONTINUOUS
370
    -3
390
B3BE
  0
LAYER
  5
B087
102
{ACAD_XDICTIONARY
360
B418
102
}
330
B060
100
AcDbSymbolTableRecord
100
AcDbLayerTableRecord
  2
2
 70
     0
 62
     4
  6
CONTINUOUS
370
    -3
390
B3BE
  0
LAYER
  5
B088
102
{ACAD_XDICTIONARY
360
B41A
102
}
330
B060
100
AcDbSymbolTableRecord
100
AcDbLayerTableRecord
  2
3
 70
     0
 62
     2
  6
DASHED
370
    -3
390
B3BE
  0
LAYER
  5
B089
102
{ACAD_XDICTIONARY
360
B41C
102
}
330
B060
100
AcDbSymbolTableRecord
100
AcDbLayerTableRecord
  2
6
 70
     0
 62
     5
  6
CONTINUOUS
370
    -3
390
B3BE
  0
LAYER
  5
B08A
102
{ACAD_XDICTIONARY
360
B41E
102
}
330
B060
100
AcDbSymbolTableRecord
100
AcDbLayerTableRecord
  2
7
 70
     0
 62
     3
  6
CONTINUOUS
370
    -3
390
B3BE
  0
ENDTAB
  0
TABLE
  2
STYLE
  5
B061
330
0
100
AcDbSymbolTable
 70
     1
  0
STYLE
  5
B06F
330
B061
100
AcDbSymbolTableRecord
100
AcDbTextStyleTableRecord
  2
STANDARD
 70
     0
 40
0.0
 41
1.0
 50
0.0
 71
     0
 42
5.0
  3
txt
  4

  0
ENDTAB
  0
TABLE
  2
VIEW
  5
B064
330
0
100
AcDbSymbolTable
 70
     0
  0
ENDTAB
  0
TABLE
  2
UCS
  5
B065
330
0
100
AcDbSymbolTable
 70
     0
  0
ENDTAB
  0
TABLE
  2
APPID
  5
B067
330
0
100
AcDbSymbolTable
 70
     3
  0
APPID
  5
B070
330
B067
100
AcDbSymbolTableRecord
100
AcDbRegAppTableRecord
  2
ACAD
 70
     0
  0
APPID
  5
B42A
330
B067
100
AcDbSymbolTableRecord
100
AcDbRegAppTableRecord
  2
ACAD_NAV_VCDISPLAY
 70
     0
  0
APPID
  5
B463
330
B067
100
AcDbSymbolTableRecord
100
AcDbRegAppTableRecord
  2
ACAD_MLEADERVER
 70
     0
  0
ENDTAB
  0
TABLE
  2
DIMSTYLE
  5
B068
330
0
100
AcDbSymbolTable
 70
     1
100
AcDbDimStyleTable
 71
     0
  0
DIMSTYLE
105
B08C
330
B068
100
AcDbSymbolTableRecord
100
AcDbDimStyleTableRecord
  2
STANDARD
 70
     0
 41
2.5
 42
1.0
 43
10.0
 44
1.0
 73
     0
 74
     0
 77
     3
 78
     8
140
3.2
141
0.0
147
1.0
172
     1
173
     1
284
     8
285
     8
286
     8
340
B06F
  0
ENDTAB
  0
TABLE
  2
BLOCK_RECORD
  5
B05F
330
0
100
AcDbSymbolTable
 70
     0
  0
BLOCK_RECORD
  5
B07C
102
{ACAD_XDICTIONARY
360
B39D
102
}
330
B05F
100
AcDbSymbolTableRecord
100
AcDbBlockTableRecord
  2
*MODEL_SPACE
340
B40C
  0
BLOCK_RECORD
  5
B078
102
{ACAD_XDICTIONARY
360
B39B
102
}
330
B05F
100
AcDbSymbolTableRecord
100
AcDbBlockTableRecord
  2
*PAPER_SPACE
340
B40D
  0
ENDTAB
  0
ENDSEC
  0
SECTION
  2
BLOCKS
  0
BLOCK
  5
B07D
330
B07C
100
AcDbEntity
  8
0
100
AcDbBlockBegin
  2
*MODEL_SPACE
 70
     0
 10
0.0
 20
0.0
 30
0.0
  3
*MODEL_SPACE
  1

  0
ENDBLK
  5
B07E
330
B07C
100
AcDbEntity
  8
0
100
AcDbBlockEnd
  0
BLOCK
  5
B079
330
B078
100
AcDbEntity
 67
     1
  8
0
100
AcDbBlockBegin
  2
*PAPER_SPACE
 70
     0
 10
0.0
 20
0.0
 30
0.0
  3
*PAPER_SPACE
  1

  0
ENDBLK
  5
B07A
330
B078
100
AcDbEntity
 67
     1
  8
0
100
AcDbBlockEnd
  0
ENDSEC
  0
SECTION
  2
ENTITIES
  0
TEXT
  5
B094
330
B07C
100
AcDbEntity
  8
7
  6
Continuous
100
AcDbText
 10
10.0
 20
18.0
 30
0.0
 40
3.0
  1
TYPE No.TCA-415EA-R65
100
AcDbText
  0
TEXT
  5
B095
330
B07C
100
AcDbEntity
  8
7
  6
Continuous
100
AcDbText
 10
10.0
 20
26.0
 30
0.0
 40
3.0
  1
CODE No.9778
100
AcDbText
  0
TEXT
  5
B096
330
B07C
100
AcDbEntity
  8
1
  6
Continuous
100
AcDbText
 10
10.0
 20
10.0
 30
0.0
 40
1.399999999999999
  1
LAYER
100
AcDbText
  0
TEXT
  5
B097
330
B07C
100
AcDbEntity
  8
1
  6
Continuous
100
AcDbText
 10
17.97951099999998
 20
10.04873699999998
 30
0.0
 40
1.399999999999999
  1
1
100
AcDbText
  0
TEXT
  5
B098
330
B07C
100
AcDbEntity
  8
7
  6
Continuous
100
AcDbText
 10
29.97951099999999
 20
10.04873699999998
 30
0.0
 40
1.399999999999999
  1
7
100
AcDbText
  0
TEXT
  5
B099
330
B07C
100
AcDbEntity
  8
4
  6
CENTER
100
AcDbText
 10
23.97951099999999
 20
10.04873699999998
 30
0.0
 40
1.399999999999999
  1
4
100
AcDbText
  0
TEXT
  5
B09A
330
B07C
100
AcDbEntity
  8
3
  6
DASHED
100
AcDbText
 10
21.979511
 20
10.04873699999998
 30
0.0
 40
1.399999999999999
  1
3
100
AcDbText
  0
TEXT
  5
B09B
330
B07C
100
AcDbEntity
  8
2
  6
Continuous
100
AcDbText
 10
19.97951099999998
 20
10.04873699999998
 30
0.0
 40
1.399999999999999
  1
2
100
AcDbText
  0
TEXT
  5
B09C
330
B07C
100
AcDbEntity
  8
6
  6
Continuous
100
AcDbText
 10
27.979511
 20
10.04873699999998
 30
0.0
 40
1.399999999999999
  1
6
100
AcDbText
  0
TEXT
  5
B09D
330
B07C
100
AcDbEntity
  8
5
  6
PHANTOM
100
AcDbText
 10
25.97951099999999
 20
10.04873699999998
 30
0.0
 40
1.399999999999999
  1
5
100
AcDbText
  0
LINE
  5
B09E
330
B07C
100
AcDbEntity
  8
4
  6
CENTER
100
AcDbLine
 10
169.059921
 20
339.2684209999998
 30
0.0
 11
169.059921
 21
282.2684209999997
 31
0.0
  0
LINE
  5
B09F
330
B07C
100
AcDbEntity
  8
4
  6
CENTER
100
AcDbLine
 10
195.059921
 20
310.7684209999998
 30
0.0
 11
107.559921
 21
310.7684209999998
 31
0.0
  0
LINE
  5
B0A0
330
B07C
100
AcDbEntity
  8
4
  6
CENTER
100
AcDbLine
 10
49.559921
 20
250.5734499999999
 30
0.0
 11
49.559921
 21
120.5734459999999
 31
0.0
  0
LINE
  5
B0A1
330
B07C
100
AcDbEntity
  8
4
  6
CENTER
100
AcDbLine
 10
169.059921
 20
250.5734499999999
 30
0.0
 11
169.059921
 21
178.1804979999997
 31
0.0
  0
LINE
  5
B0A2
330
B07C
100
AcDbEntity
  8
1
  6
Continuous
100
AcDbLine
 10
153.059921
 20
201.4734489999999
 30
0.0
 11
185.059921
 21
201.4734489999999
 31
0.0
  0
LINE
  5
B0A3
330
B07C
100
AcDbEntity
  8
1
  6
Continuous
100
AcDbLine
 10
179.409973
 20
194.027858
 30
0.0
 11
188.0599209999997
 21
194.32992
 31
0.0
  0
LINE
  5
B0A4
330
B07C
100
AcDbEntity
  8
1
  6
Continuous
100
AcDbLine
 10
136.85992
 20
196.275405
 30
0.0
 11
154.3383629999999
 21
199.3573259999998
 31
0.0
  0
LINE
  5
B0A5
330
B07C
100
AcDbEntity
  8
1
  6
Continuous
100
AcDbLine
 10
137.2072139999999
 20
194.3057889999998
 30
0.0
 11
139.964681
 21
194.792005
 31
0.0
  0
LINE
  5
B0A6
330
B07C
100
AcDbEntity
  8
1
  6
Continuous
100
AcDbLine
 10
136.859926
 20
196.275404
 30
0.0
 11
137.2072219999997
 21
194.305787
 31
0.0
  0
LINE
  5
B0A7
330
B07C
100
AcDbEntity
  8
1
  6
Continuous
100
AcDbLine
 10
156.6599189999998
 20
198.7967629999999
 30
0.0
 11
156.6599189999998
 21
166.391594
 31
0.0
  0
LINE
  5
B0A8
330
B07C
100
AcDbEntity
  8
4
  6
CENTER
100
AcDbLine
 10
182.559921
 20
158.0734459999999
 30
0.0
 11
107.559921
 21
158.0734459999999
 31
0.0
  0
LINE
  5
B0A9
330
B07C
100
AcDbEntity
  8
4
  6
CENTER
100
AcDbLine
 10
145.059921
 20
191.4662649999999
 30
0.0
 11
145.059921
 21
120.5734459999999
 31
0.0
  0
LINE
  5
B0AA
330
B07C
100
AcDbEntity
  8
1
  6
Continuous
100
AcDbLine
 10
139.789701
 20
196.7920039999999
 30
0.0
 11
139.964679
 21
194.792005
 31
0.0
  0
LINE
  5
B0AB
330
B07C
100
AcDbEntity
  8
1
  6
Continuous
100
AcDbLine
 10
33.559921
 20
201.4734489999999
 30
0.0
 11
65.559921
 21
201.4734489999999
 31
0.0
  0
LINE
  5
B0AC
330
B07C
100
AcDbEntity
  8
4
  6
CENTER
100
AcDbLine
 10
22.961853
 20
158.0734459999999
 30
0.0
 11
83.64938999999997
 21
158.0734459999999
 31
0.0
  0
LINE
  5
B0AD
330
B07C
100
AcDbEntity
  8
1
  6
Continuous
100
AcDbLine
 10
34.57045
 20
149.5734459999999
 30
0.0
 11
36.57045699999999
 21
149.5734459999999
 31
0.0
  0
LINE
  5
B0AE
330
B07C
100
AcDbEntity
  8
1
  6
Continuous
100
AcDbLine
 10
64.549392
 20
149.5734459999999
 30
0.0
 11
62.549385
 21
149.5734459999999
 31
0.0
  0
LINE
  5
B0AF
330
B07C
100
AcDbEntity
  8
1
  6
Continuous
100
AcDbLine
 10
34.57045
 20
163.373445
 30
0.0
 11
34.072471
 21
163.373445
 31
0.0
  0
LINE
  5
B0B0
330
B07C
100
AcDbEntity
  8
1
  6
Continuous
100
AcDbLine
 10
69.449393
 20
163.6734449999998
 30
0.0
 11
72.64938999999998
 21
163.6734449999998
 31
0.0
  0
LINE
  5
B0B1
330
B07C
100
AcDbEntity
  8
1
  6
Continuous
100
AcDbLine
 10
69.449393
 20
161.0734459999999
 30
0.0
 11
72.64938999999998
 21
161.0734459999999
 31
0.0
  0
LINE
  5
B0B2
330
B07C
100
AcDbEntity
  8
1
  6
Continuous
100
AcDbLine
 10
73.64938999999998
 20
161.873449
 30
0.0
 11
73.64938999999998
 21
154.273451
 31
0.0
  0
LINE
  5
B0B3
330
B07C
100
AcDbEntity
  8
1
  6
Continuous
100
AcDbLine
 10
69.449393
 20
152.473448
 30
0.0
 11
72.64938999999998
 21
152.473448
 31
0.0
  0
LINE
  5
B0B4
330
B07C
100
AcDbEntity
  8
1
  6
Continuous
100
AcDbLine
 10
69.52619099999998
 20
155.0734459999999
 30
0.0
 11
72.64938999999998
 21
155.0734459999999
 31
0.0
  0
LINE
  5
B0B5
330
B07C
100
AcDbEntity
  8
1
  6
Continuous
100
AcDbLine
 10
74.64938999999998
 20
161.0734459999999
 30
0.0
 11
73.64938999999998
 21
161.0734459999999
 31
0.0
  0
LINE
  5
B0B6
330
B07C
100
AcDbEntity
  8
1
  6
Continuous
100
AcDbLine
 10
74.64938999999998
 20
155.0734459999999
 30
0.0
 11
73.64938999999998
 21
155.0734459999999
 31
0.0
  0
LINE
  5
B0B7
330
B07C
100
AcDbEntity
  8
1
  6
Continuous
100
AcDbLine
 10
75.64938999999998
 20
160.0734459999999
 30
0.0
 11
75.64938999999998
 21
156.0734459999999
 31
0.0
  0
LINE
  5
B0B8
330
B07C
100
AcDbEntity
  8
1
  6
Continuous
100
AcDbLine
 10
73.64938999999998
 20
154.273371
 30
0.0
 11
72.64938999999998
 21
152.473448
 31
0.0
  0
LINE
  5
B0B9
330
B07C
100
AcDbEntity
  8
1
  6
Continuous
100
AcDbLine
 10
73.64938999999998
 20
161.8734719999999
 30
0.0
 11
72.64938999999998
 21
163.673441
 31
0.0
  0
LINE
  5
B0BA
330
B07C
100
AcDbEntity
  8
1
  6
Continuous
100
AcDbLine
 10
39.059921
 20
128.536302
 30
0.0
 11
39.059921
 21
187.6105899999997
 31
0.0
  0
LINE
  5
B0BB
330
B07C
100
AcDbEntity
  8
1
  6
Continuous
100
AcDbLine
 10
61.55992099999998
 20
148.323446
 30
0.0
 11
61.55992099999998
 21
167.8234459999998
 31
0.0
  0
LINE
  5
B0BC
330
B07C
100
AcDbEntity
  8
1
  6
Continuous
100
AcDbLine
 10
60.059921
 20
147.323446
 30
0.0
 11
60.559921
 21
147.323446
 31
0.0
  0
LINE
  5
B0BD
330
B07C
100
AcDbEntity
  8
1
  6
Continuous
100
AcDbLine
 10
60.059921
 20
128.536302
 30
0.0
 11
60.059921
 21
187.6105899999997
 31
0.0
  0
LINE
  5
B0BE
330
B07C
100
AcDbEntity
  8
1
  6
Continuous
100
AcDbLine
 10
60.059921
 20
168.8234459999998
 30
0.0
 11
60.559921
 21
168.8234459999998
 31
0.0
  0
LINE
  5
B0BF
330
B07C
100
AcDbEntity
  8
1
  6
Continuous
100
AcDbLine
 10
61.55992099999998
 20
161.3234459999999
 30
0.0
 11
62.549385
 21
161.3234459999999
 31
0.0
  0
LINE
  5
B0C0
330
B07C
100
AcDbEntity
  8
1
  6
Continuous
100
AcDbLine
 10
61.55992099999998
 20
154.8234459999999
 30
0.0
 11
62.549385
 21
154.8234459999999
 31
0.0
  0
LINE
  5
B0C1
330
B07C
100
AcDbEntity
  8
1
  6
Continuous
100
AcDbLine
 10
139.964679
 20
194.792005
 30
0.0
 11
138.296679
 21
172.5274879999998
 31
0.0
  0
LINE
  5
B0C2
330
B07C
100
AcDbEntity
  8
1
  6
Continuous
100
AcDbLine
 10
172.7965799999997
 20
190.0938039999997
 30
0.0
 11
156.875829
 21
163.0429659999998
 31
0.0
  0
ARC
  5
B0C3
330
B07C
100
AcDbEntity
  8
1
  6
Continuous
100
AcDbCircle
 10
161.598602
 20
202.6179519999999
 30
0.0
 40
1.984499999999996
100
AcDbArc
 50
324.7797499999998
 51
333.1367799999998
  0
ARC
  5
B0C4
330
B07C
100
AcDbEntity
  8
1
  6
Continuous
100
AcDbCircle
 10
53.48054499999999
 20
202.6179519999999
 30
0.0
 40
1.984499999999996
100
AcDbArc
 50
189.9969899999999
 51
215.2202999999999
  0
ARC
  5
B0C5
330
B07C
100
AcDbEntity
  8
1
  6
Continuous
100
AcDbCircle
 10
49.559921
 20
202.6179519999999
 30
0.0
 40
1.984499999999996
100
AcDbArc
 50
324.7796799999998
 51
350.00299
  0
ARC
  5
B0C6
330
B07C
100
AcDbEntity
  8
1
  6
Continuous
100
AcDbCircle
 10
57.02124
 20
202.6179519999999
 30
0.0
 40
1.984499999999996
100
AcDbArc
 50
206.86325
 51
215.2202999999999
  0
ARC
  5
B0C7
330
B07C
100
AcDbEntity
  8
1
  6
Continuous
100
AcDbCircle
 10
59.83890500000001
 20
202.6179519999999
 30
0.0
 40
1.984499999999996
100
AcDbArc
 50
324.77981
 51
350.00299
  0
ARC
  5
B0C8
330
B07C
100
AcDbEntity
  8
1
  6
Continuous
100
AcDbCircle
 10
61.66050699999999
 20
202.6179519999999
 30
0.0
 40
1.984499999999996
100
AcDbArc
 50
324.7797499999998
 51
350.00299
  0
ARC
  5
B0C9
330
B07C
100
AcDbEntity
  8
1
  6
Continuous
100
AcDbCircle
 10
62.30992099999999
 20
202.6179519999999
 30
0.0
 40
1.984499999999996
100
AcDbArc
 50
324.7797499999998
 51
350.00299
  0
ARC
  5
B0CA
330
B07C
100
AcDbEntity
  8
1
  6
Continuous
100
AcDbCircle
 10
45.639297
 20
202.6179519999999
 30
0.0
 40
1.984499999999996
100
AcDbArc
 50
189.99704
 51
215.2202999999999
  0
ARC
  5
B0CB
330
B07C
100
AcDbEntity
  8
1
  6
Continuous
100
AcDbCircle
 10
49.559921
 20
202.6179519999999
 30
0.0
 40
1.984499999999996
100
AcDbArc
 50
189.9970599999999
 51
215.2202999999999
  0
ARC
  5
B0CC
330
B07C
100
AcDbEntity
  8
1
  6
Continuous
100
AcDbCircle
 10
42.098602
 20
202.6179519999999
 30
0.0
 40
1.984499999999996
100
AcDbArc
 50
189.9970599999999
 51
215.2202999999999
  0
ARC
  5
B0CD
330
B07C
100
AcDbEntity
  8
1
  6
Continuous
100
AcDbCircle
 10
39.280929
 20
202.6179519999999
 30
0.0
 40
1.984499999999996
100
AcDbArc
 50
189.9970599999999
 51
215.2202999999999
  0
ARC
  5
B0CE
330
B07C
100
AcDbEntity
  8
1
  6
Continuous
100
AcDbCircle
 10
37.45933499999999
 20
202.6179519999999
 30
0.0
 40
1.984499999999996
100
AcDbArc
 50
189.9970599999999
 51
215.2202999999999
  0
ARC
  5
B0CF
330
B07C
100
AcDbEntity
  8
1
  6
Continuous
100
AcDbCircle
 10
36.809921
 20
202.6179519999999
 30
0.0
 40
1.984499999999996
100
AcDbArc
 50
189.9970599999999
 51
215.2202999999999
  0
ARC
  5
B0D0
330
B07C
100
AcDbEntity
  8
1
  6
Continuous
100
AcDbCircle
 10
172.980545
 20
202.6179519999999
 30
0.0
 40
1.984499999999996
100
AcDbArc
 50
189.9969899999999
 51
215.2202299999999
  0
ARC
  5
B0D1
330
B07C
100
AcDbEntity
  8
1
  6
Continuous
100
AcDbCircle
 10
169.059921
 20
202.6179519999999
 30
0.0
 40
1.984499999999996
100
AcDbArc
 50
324.7797499999998
 51
350.00299
  0
ARC
  5
B0D2
330
B07C
100
AcDbEntity
  8
1
  6
Continuous
100
AcDbCircle
 10
176.5212399999998
 20
202.6179519999999
 30
0.0
 40
1.984499999999996
100
AcDbArc
 50
206.86325
 51
215.2202299999999
  0
ARC
  5
B0D3
330
B07C
100
AcDbEntity
  8
1
  6
Continuous
100
AcDbCircle
 10
179.338905
 20
202.6179519999999
 30
0.0
 40
1.984499999999996
100
AcDbArc
 50
324.7797499999998
 51
350.00299
  0
ARC
  5
B0D4
330
B07C
100
AcDbEntity
  8
1
  6
Continuous
100
AcDbCircle
 10
181.1605069999997
 20
202.6179519999999
 30
0.0
 40
1.984499999999996
100
AcDbArc
 50
324.7797499999998
 51
350.00299
  0
ARC
  5
B0D5
330
B07C
100
AcDbEntity
  8
1
  6
Continuous
100
AcDbCircle
 10
181.8099209999997
 20
202.6179519999999
 30
0.0
 40
1.984499999999996
100
AcDbArc
 50
324.7796799999998
 51
350.00299
  0
ARC
  5
B0D6
330
B07C
100
AcDbEntity
  8
1
  6
Continuous
100
AcDbCircle
 10
165.139297
 20
202.6179519999999
 30
0.0
 40
1.984499999999996
100
AcDbArc
 50
189.99704
 51
215.2202299999999
  0
ARC
  5
B0D7
330
B07C
100
AcDbEntity
  8
1
  6
Continuous
100
AcDbCircle
 10
169.059921
 20
202.6179519999999
 30
0.0
 40
1.984499999999996
100
AcDbArc
 50
189.9970599999999
 51
215.2202299999999
  0
ARC
  5
B0D8
330
B07C
100
AcDbEntity
  8
1
  6
Continuous
100
AcDbCircle
 10
161.598602
 20
202.6179519999999
 30
0.0
 40
1.984499999999996
100
AcDbArc
 50
189.9970599999999
 51
215.2202299999999
  0
ARC
  5
B0D9
330
B07C
100
AcDbEntity
  8
1
  6
Continuous
100
AcDbCircle
 10
158.7809369999999
 20
202.6179519999999
 30
0.0
 40
1.984499999999996
100
AcDbArc
 50
189.9970599999999
 51
215.2202299999999
  0
ARC
  5
B0DA
330
B07C
100
AcDbEntity
  8
1
  6
Continuous
100
AcDbCircle
 10
156.959335
 20
202.6179519999999
 30
0.0
 40
1.984499999999996
100
AcDbArc
 50
189.99707
 51
215.2202299999999
  0
ARC
  5
B0DB
330
B07C
100
AcDbEntity
  8
1
  6
Continuous
100
AcDbCircle
 10
156.309921
 20
202.6179519999999
 30
0.0
 40
1.984499999999996
100
AcDbArc
 50
189.9970599999999
 51
215.2202299999999
  0
ARC
  5
B0DC
330
B07C
100
AcDbEntity
  8
1
  6
Continuous
100
AcDbCircle
 10
172.980545
 20
202.6179519999999
 30
0.0
 40
1.984499999999996
100
AcDbArc
 50
324.7797499999998
 51
350.00299
  0
ARC
  5
B0DD
330
B07C
100
AcDbEntity
  8
1
  6
Continuous
100
AcDbCircle
 10
176.5212399999998
 20
202.6179519999999
 30
0.0
 40
1.984499999999996
100
AcDbArc
 50
324.7797499999998
 51
350.00299
  0
ARC
  5
B0DE
330
B07C
100
AcDbEntity
  8
1
  6
Continuous
100
AcDbCircle
 10
45.639297
 20
202.6179519999999
 30
0.0
 40
1.984499999999996
100
AcDbArc
 50
324.7796799999998
 51
350.0030499999998
  0
ARC
  5
B0DF
330
B07C
100
AcDbEntity
  8
1
  6
Continuous
100
AcDbCircle
 10
42.098602
 20
202.6179519999999
 30
0.0
 40
1.984499999999996
100
AcDbArc
 50
324.7796799999998
 51
333.1367799999998
  0
ARC
  5
B0E0
330
B07C
100
AcDbEntity
  8
1
  6
Continuous
100
AcDbCircle
 10
53.48054499999999
 20
202.6179519999999
 30
0.0
 40
1.984499999999996
100
AcDbArc
 50
324.7796799999998
 51
350.00299
  0
ARC
  5
B0E1
330
B07C
100
AcDbEntity
  8
1
  6
Continuous
100
AcDbCircle
 10
57.02124
 20
202.6179519999999
 30
0.0
 40
1.984499999999996
100
AcDbArc
 50
324.7796799999998
 51
350.00299
  0
ARC
  5
B0E2
330
B07C
100
AcDbEntity
  8
1
  6
Continuous
100
AcDbCircle
 10
165.139297
 20
202.6179519999999
 30
0.0
 40
1.984499999999996
100
AcDbArc
 50
324.7797499999998
 51
350.0030499999998
  0
ARC
  5
B0E3
330
B07C
100
AcDbEntity
  8
1
  6
Continuous
100
AcDbCircle
 10
179.6891629999999
 20
186.032733
 30
0.0
 40
8.0
100
AcDbArc
 50
92.00003199999995
 51
149.52109
  0
CIRCLE
  5
B0E4
330
B07C
100
AcDbEntity
  8
1
  6
Continuous
100
AcDbCircle
 10
344.0599209999998
 20
158.0734459999999
 30
0.0
 40
5.4
  0
ARC
  5
B0E5
330
B07C
100
AcDbEntity
  8
1
  6
Continuous
100
AcDbCircle
 10
84.49803499999999
 20
182.7341529999999
 30
0.0
 40
54.0
100
AcDbArc
 50
182.743332
 51
201.0100459999999
  0
ARC
  5
B0E6
330
B07C
100
AcDbEntity
  8
1
  6
Continuous
100
AcDbCircle
 10
49.559921
 20
356.27345
 30
0.0
 40
162.0
100
AcDbArc
 50
265.512
 51
274.4879879999999
  0
ARC
  5
B0E7
330
B07C
100
AcDbEntity
  8
1
  6
Continuous
100
AcDbCircle
 10
36.859932
 20
194.471099
 30
0.0
 40
0.3
100
AcDbArc
 50
85.51197399999997
 51
164.7781929999998
  0
ARC
  5
B0E8
330
B07C
100
AcDbEntity
  8
1
  6
Continuous
100
AcDbCircle
 10
49.559921
 20
358.2753999999998
 30
0.0
 40
162.0
100
AcDbArc
 50
265.1518299999997
 51
274.8481579999999
  0
ARC
  5
B0E9
330
B07C
100
AcDbEntity
  8
1
  6
Continuous
100
AcDbCircle
 10
62.25991
 20
194.471099
 30
0.0
 40
0.3
100
AcDbArc
 50
15.221807
 51
94.48798999999999
  0
ARC
  5
B0EA
330
B07C
100
AcDbEntity
  8
1
  6
Continuous
100
AcDbCircle
 10
49.559921
 20
298.67345
 30
0.0
 40
100.0
100
AcDbArc
 50
262.53039
 51
277.4695899999999
  0
ARC
  5
B0EB
330
B07C
100
AcDbEntity
  8
1
  6
Continuous
100
AcDbCircle
 10
36.024132
 20
195.363111
 30
0.0
 40
1.5
100
AcDbArc
 50
95.95749199999996
 51
165.7245169999999
  0
ARC
  5
B0EC
330
B07C
100
AcDbEntity
  8
1
  6
Continuous
100
AcDbCircle
 10
63.09571
 20
195.363111
 30
0.0
 40
1.5
100
AcDbArc
 50
14.27548299999999
 51
84.042472
  0
ARC
  5
B0ED
330
B07C
100
AcDbEntity
  8
1
  6
Continuous
100
AcDbCircle
 10
34.072471
 20
161.373445
 30
0.0
 40
2.0
100
AcDbArc
 50
90.00001800000005
 51
180.0579199999999
  0
ARC
  5
B0EE
330
B07C
100
AcDbEntity
  8
1
  6
Continuous
100
AcDbCircle
 10
67.53689399999998
 20
153.7734429999999
 30
0.0
 40
2.3125
100
AcDbArc
 50
310.847908
 51
34.20541
  0
ARC
  5
B0EF
330
B07C
100
AcDbEntity
  8
1
  6
Continuous
100
AcDbCircle
 10
58.39939399999999
 20
158.0734459999999
 30
0.0
 40
11.450001
100
AcDbArc
 50
344.8107199999999
 51
15.189285
  0
ARC
  5
B0F0
330
B07C
100
AcDbEntity
  8
1
  6
Continuous
100
AcDbCircle
 10
67.53689399999998
 20
162.3734489999999
 30
0.0
 40
2.3125
100
AcDbArc
 50
325.79455
 51
49.15209199999999
  0
ARC
  5
B0F1
330
B07C
100
AcDbEntity
  8
1
  6
Continuous
100
AcDbCircle
 10
70.736892
 20
162.3734489999999
 30
0.0
 40
2.312498999999998
100
AcDbArc
 50
325.79457
 51
34.20545
  0
ARC
  5
B0F2
330
B07C
100
AcDbEntity
  8
1
  6
Continuous
100
AcDbCircle
 10
61.599395
 20
158.0734459999999
 30
0.0
 40
11.44999799999999
100
AcDbArc
 50
344.8107499999999
 51
15.18927
  0
ARC
  5
B0F3
330
B07C
100
AcDbEntity
  8
1
  6
Continuous
100
AcDbCircle
 10
70.736892
 20
153.7734509999999
 30
0.0
 40
2.312498999999998
100
AcDbArc
 50
325.79457
 51
34.20545
  0
ARC
  5
B0F4
330
B07C
100
AcDbEntity
  8
1
  6
Continuous
100
AcDbCircle
 10
145.059921
 20
158.0734459999999
 30
0.0
 40
10.74999999999998
100
AcDbArc
 50
202.986921
 51
267.6570549999999
  0
ARC
  5
B0F5
330
B07C
100
AcDbEntity
  8
1
  6
Continuous
100
AcDbCircle
 10
145.059921
 20
158.0734459999999
 30
0.0
 40
16.0
100
AcDbArc
 50
123.2976949999999
 51
134.515018
  0
ARC
  5
B0F6
330
B07C
100
AcDbEntity
  8
1
  6
Continuous
100
AcDbCircle
 10
145.059921
 20
158.0734459999999
 30
0.0
 40
25.0
100
AcDbArc
 50
103.95368
 51
126.659096
  0
ARC
  5
B0F7
330
B07C
100
AcDbEntity
  8
1
  6
Continuous
100
AcDbCircle
 10
145.059921
 20
158.0734459999999
 30
0.0
 40
32.5
100
AcDbArc
 50
99.64599900000001
 51
131.071976
  0
ARC
  5
B0F8
330
B07C
100
AcDbEntity
  8
1
  6
Continuous
100
AcDbCircle
 10
49.559921
 20
165.5734459999998
 30
0.0
 40
40.0
100
AcDbArc
 50
257.0745099999999
 51
282.9275309999998
  0
ARC
  5
B0F9
330
B07C
100
AcDbEntity
  8
1
  6
Continuous
100
AcDbCircle
 10
41.059921
 20
128.536302
 30
0.0
 40
2.0
100
AcDbArc
 50
180.0000399999998
 51
257.0745099999999
  0
ARC
  5
B0FA
330
B07C
100
AcDbEntity
  8
1
  6
Continuous
100
AcDbCircle
 10
58.059921
 20
128.536302
 30
0.0
 40
2.0
100
AcDbArc
 50
282.92545
 51
359.99995
  0
ARC
  5
B0FB
330
B07C
100
AcDbEntity
  8
1
  6
Continuous
100
AcDbCircle
 10
60.559921
 20
148.323446
 30
0.0
 40
1.0
100
AcDbArc
 50
269.9999599999998
 51
359.99995
  0
ARC
  5
B0FC
330
B07C
100
AcDbEntity
  8
1
  6
Continuous
100
AcDbCircle
 10
60.559921
 20
167.8234459999998
 30
0.0
 40
1.0
100
AcDbArc
 50
0.000055
 51
90.000037
  0
ARC
  5
B0FD
330
B07C
100
AcDbEntity
  8
1
  6
Continuous
100
AcDbCircle
 10
58.059921
 20
187.6105899999997
 30
0.0
 40
2.0
100
AcDbArc
 50
0.000055
 51
77.074546
  0
ARC
  5
B0FE
330
B07C
100
AcDbEntity
  8
1
  6
Continuous
100
AcDbCircle
 10
41.059921
 20
187.6105899999997
 30
0.0
 40
2.0
100
AcDbArc
 50
102.9254899999999
 51
179.9999599999999
  0
ARC
  5
B0FF
330
B07C
100
AcDbEntity
  8
1
  6
Continuous
100
AcDbCircle
 10
49.559921
 20
150.573446
 30
0.0
 40
40.0
100
AcDbArc
 50
77.07269000000002
 51
102.9254899999999
  0
LINE
  5
B100
330
B07C
100
AcDbEntity
  8
4
  6
CENTER
100
AcDbLine
 10
195.059921
 20
62.07345
 30
0.0
 11
107.559921
 21
62.07345
 31
0.0
  0
LINE
  5
B101
330
B07C
100
AcDbEntity
  8
4
  6
CENTER
100
AcDbLine
 10
169.059921
 20
32.0244235
 30
0.0
 11
169.059921
 21
92.1224765
 31
0.0
  0
LINE
  5
B102
330
B07C
100
AcDbEntity
  8
1
  6
Continuous
100
AcDbLine
 10
30.559921
 20
198.4734489999999
 30
0.0
 11
30.559921
 21
180.149611
 31
0.0
  0
LINE
  5
B103
330
B07C
100
AcDbEntity
  8
1
  6
Continuous
100
AcDbLine
 10
68.559921
 20
198.4734489999999
 30
0.0
 11
68.559921
 21
184.054784
 31
0.0
  0
ARC
  5
B104
330
B07C
100
AcDbEntity
  8
1
  6
Continuous
100
AcDbCircle
 10
65.559921
 20
198.4734489999999
 30
0.0
 40
3.0
100
AcDbArc
 50
0.0
 51
90.0
  0
ARC
  5
B105
330
B07C
100
AcDbEntity
  8
1
  6
Continuous
100
AcDbCircle
 10
33.559921
 20
198.4734489999999
 30
0.0
 40
3.0
100
AcDbArc
 50
90.0
 51
180.0
  0
LINE
  5
B106
330
B07C
100
AcDbEntity
  8
1
  6
Continuous
100
AcDbLine
 10
34.57045
 20
149.5734459999999
 30
0.0
 11
34.57045
 21
195.732987
 31
0.0
  0
LINE
  5
B107
330
B07C
100
AcDbEntity
  8
1
  6
Continuous
100
AcDbLine
 10
62.549385
 20
149.5734459999999
 30
0.0
 11
62.549385
 21
172.4860429999999
 31
0.0
  0
LINE
  5
B108
330
B07C
100
AcDbEntity
  8
1
  6
Continuous
100
AcDbLine
 10
64.549392
 20
146.031387
 30
0.0
 11
64.549392
 21
195.732987
 31
0.0
  0
LINE
  5
B109
330
B07C
100
AcDbEntity
  8
1
  6
Continuous
100
AcDbLine
 10
188.0599209999997
 20
198.4734489999999
 30
0.0
 11
188.0599209999997
 21
194.32992
 31
0.0
  0
ARC
  5
B10A
330
B07C
100
AcDbEntity
  8
1
  6
Continuous
100
AcDbCircle
 10
185.059921
 20
198.4734489999999
 30
0.0
 40
3.0
100
AcDbArc
 50
0.0
 51
90.0
  0
ARC
  5
B10B
330
B07C
100
AcDbEntity
  8
1
  6
Continuous
100
AcDbCircle
 10
153.059921
 20
198.4734489999999
 30
0.0
 40
3.0
100
AcDbArc
 50
90.0
 51
180.0
  0
LINE
  5
B10C
330
B07C
100
AcDbEntity
  8
4
  6
CENTER
100
AcDbLine
 10
145.059921
 20
36.06445
 30
0.0
 11
145.059921
 21
96.162503
 31
0.0
  0
ARC
  5
B10D
330
B07C
100
AcDbEntity
  8
1
  6
Continuous
100
AcDbCircle
 10
152.559921
 20
62.07345
 30
0.0
 40
40.0
100
AcDbArc
 50
167.07269
 51
192.92549
  0
ARC
  5
B10E
330
B07C
100
AcDbEntity
  8
1
  6
Continuous
100
AcDbCircle
 10
137.559921
 20
62.07345
 30
0.0
 40
40.0
100
AcDbArc
 50
347.0745100000002
 51
12.927531
  0
LINE
  5
B10F
330
B07C
100
AcDbEntity
  8
1
  6
Continuous
100
AcDbLine
 10
174.5970649999999
 20
51.57345
 30
0.0
 11
115.5227769999999
 21
51.57345
 31
0.0
  0
LINE
  5
B110
330
B07C
100
AcDbEntity
  8
1
  6
Continuous
100
AcDbLine
 10
156.083019
 20
47.083979
 30
0.0
 11
137.213819
 21
47.083979
 31
0.0
  0
ARC
  5
B111
330
B07C
100
AcDbEntity
  8
1
  6
Continuous
100
AcDbCircle
 10
115.5227769999999
 20
53.57345
 30
0.0
 40
2.0
100
AcDbArc
 50
192.92549
 51
269.9999599999998
  0
ARC
  5
B112
330
B07C
100
AcDbEntity
  8
1
  6
Continuous
100
AcDbCircle
 10
174.5970649999999
 20
53.57345
 30
0.0
 40
2.0
100
AcDbArc
 50
270.0000399999999
 51
347.0745100000002
  0
LINE
  5
B113
330
B07C
100
AcDbEntity
  8
1
  6
Continuous
100
AcDbLine
 10
174.5970649999999
 20
72.57344999999998
 30
0.0
 11
115.5227769999999
 21
72.57344999999998
 31
0.0
  0
LINE
  5
B114
330
B07C
100
AcDbEntity
  8
1
  6
Continuous
100
AcDbLine
 10
156.083009
 20
75.06291400000002
 30
0.0
 11
138.3452509999999
 21
75.06291400000002
 31
0.0
  0
LINE
  5
B115
330
B07C
100
AcDbEntity
  8
1
  6
Continuous
100
AcDbLine
 10
154.809921
 20
74.07344999999998
 30
0.0
 11
135.309921
 21
74.07344999999998
 31
0.0
  0
ARC
  5
B116
330
B07C
100
AcDbEntity
  8
1
  6
Continuous
100
AcDbCircle
 10
115.5227769999999
 20
70.57344999999997
 30
0.0
 40
2.0
100
AcDbArc
 50
90.00005499999994
 51
167.074546
  0
LINE
  5
B117
330
B07C
100
AcDbEntity
  8
1
  6
Continuous
100
AcDbLine
 10
141.809921
 20
74.07344999999998
 30
0.0
 11
141.809921
 21
75.06291400000002
 31
0.0
  0
LINE
  5
B118
330
B07C
100
AcDbEntity
  8
1
  6
Continuous
100
AcDbLine
 10
134.309921
 20
72.57344999999998
 30
0.0
 11
134.309921
 21
73.07344999999997
 31
0.0
  0
ARC
  5
B119
330
B07C
100
AcDbEntity
  8
1
  6
Continuous
100
AcDbCircle
 10
135.309921
 20
73.07344999999997
 30
0.0
 40
1.0
100
AcDbArc
 50
90.00005499999994
 51
180.000037
  0
LINE
  5
B11A
330
B07C
100
AcDbEntity
  8
1
  6
Continuous
100
AcDbLine
 10
139.7599219999999
 20
47.08402099999999
 30
0.0
 11
139.7599219999999
 21
46.586042
 31
0.0
  0
ARC
  5
B11B
330
B07C
100
AcDbEntity
  8
1
  6
Continuous
100
AcDbCircle
 10
141.7599219999999
 20
46.586042
 30
0.0
 40
2.0
100
AcDbArc
 50
180.0000179999999
 51
274.7734689999999
  0
LINE
  5
B11C
330
B07C
100
AcDbEntity
  8
1
  6
Continuous
100
AcDbLine
 10
155.8099209999998
 20
72.57344999999998
 30
0.0
 11
155.8099209999998
 21
73.07344999999997
 31
0.0
  0
LINE
  5
B11D
330
B07C
100
AcDbEntity
  8
1
  6
Continuous
100
AcDbLine
 10
148.3099209999998
 20
74.07344999999998
 30
0.0
 11
148.3099209999998
 21
75.06291400000002
 31
0.0
  0
ARC
  5
B11E
330
B07C
100
AcDbEntity
  8
1
  6
Continuous
100
AcDbCircle
 10
154.809921
 20
73.07344999999997
 30
0.0
 40
1.0
100
AcDbArc
 50
359.9999599999999
 51
89.99995000000001
  0
ARC
  5
B11F
330
B07C
100
AcDbEntity
  8
1
  6
Continuous
100
AcDbCircle
 10
174.5970649999999
 20
70.57344999999997
 30
0.0
 40
2.0
100
AcDbArc
 50
12.92545
 51
89.99995000000001
  0
LINE
  5
B120
330
B07C
100
AcDbEntity
  8
1
  6
Continuous
100
AcDbLine
 10
137.213819
 20
49.08398599999999
 30
0.0
 11
137.213819
 21
47.083979
 31
0.0
  0
ARC
  5
B121
330
B07C
100
AcDbEntity
  8
1
  6
Continuous
100
AcDbCircle
 10
169.059921
 20
62.07345
 30
0.0
 40
19.0
100
AcDbArc
 50
235.6523319999999
 51
74.082862
  0
ARC
  5
B122
330
B07C
100
AcDbEntity
  8
1
  6
Continuous
100
AcDbCircle
 10
169.059921
 20
62.07345
 30
0.0
 40
17.0
100
AcDbArc
 50
235.652301
 51
77.11488
  0
ARC
  5
B123
330
B07C
100
AcDbEntity
  8
1
  6
Continuous
100
AcDbCircle
 10
169.059921
 20
62.07345
 30
0.0
 40
13.0
100
AcDbArc
 50
233.8710729999998
 51
126.128927
  0
ARC
  5
B124
330
B07C
100
AcDbEntity
  8
1
  6
Continuous
100
AcDbCircle
 10
169.059921
 20
62.07345
 30
0.0
 40
10.5
100
AcDbArc
 50
318.770756
 51
41.229244
  0
LINE
  5
B125
330
B07C
100
AcDbEntity
  8
4
  6
CENTER
100
AcDbLine
 10
145.059921
 20
336.768421
 30
0.0
 11
145.059921
 21
279.7684209999999
 31
0.0
  0
LINE
  5
B126
330
B07C
100
AcDbEntity
  8
1
  6
Continuous
100
AcDbLine
 10
145.059921
 20
85.67217300000001
 30
0.0
 11
145.059921
 21
81.553921
 31
0.0
  0
LINE
  5
B127
330
B07C
100
AcDbEntity
  8
1
  6
Continuous
100
AcDbLine
 10
150.059921
 20
82.04466899999998
 30
0.0
 11
150.059921
 21
85.67217300000001
 31
0.0
  0
LINE
  5
B128
330
B07C
100
AcDbEntity
  8
1
  6
Continuous
100
AcDbLine
 10
142.559921
 20
86.16292099999999
 30
0.0
 11
147.559921
 21
86.16292099999999
 31
0.0
  0
LINE
  5
B129
330
B07C
100
AcDbEntity
  8
1
  6
Continuous
100
AcDbLine
 10
140.059921
 20
82.04466899999998
 30
0.0
 11
140.059921
 21
85.67217300000001
 31
0.0
  0
ARC
  5
B12A
330
B07C
100
AcDbEntity
  8
1
  6
Continuous
100
AcDbCircle
 10
142.559921
 20
79.54971299999998
 30
0.0
 40
6.613208
100
AcDbArc
 50
67.78820500000001
 51
112.211795
  0
ARC
  5
B12B
330
B07C
100
AcDbEntity
  8
1
  6
Continuous
100
AcDbCircle
 10
147.559921
 20
79.54971299999998
 30
0.0
 40
6.613208
100
AcDbArc
 50
67.78820500000001
 51
112.211795
  0
LINE
  5
B12C
330
B07C
100
AcDbEntity
  8
1
  6
Continuous
100
AcDbLine
 10
140.059921
 20
155.360197
 30
0.0
 11
140.059921
 21
160.786695
 31
0.0
  0
CIRCLE
  5
B12D
330
B07C
100
AcDbEntity
  8
1
  6
Continuous
100
AcDbCircle
 10
145.059921
 20
158.0734459999999
 30
0.0
 40
3.0
  0
CIRCLE
  5
B12E
330
B07C
100
AcDbEntity
  8
2
  6
Continuous
100
AcDbCircle
 10
145.059921
 20
158.0734459999999
 30
0.0
 40
2.458499999999999
  0
CIRCLE
  5
B12F
330
B07C
100
AcDbEntity
  8
1
  6
Continuous
100
AcDbCircle
 10
145.059921
 20
158.0734459999999
 30
0.0
 40
2.0
  0
LINE
  5
B130
330
B07C
100
AcDbEntity
  8
2
  6
Continuous
100
AcDbLine
 10
75.19088999999998
 20
160.531946
 30
0.0
 11
73.64938999999998
 21
160.531946
 31
0.0
  0
LINE
  5
B131
330
B07C
100
AcDbEntity
  8
2
  6
Continuous
100
AcDbLine
 10
75.19088999999998
 20
155.614946
 30
0.0
 11
73.64938999999998
 21
155.614946
 31
0.0
  0
LINE
  5
B132
330
B07C
100
AcDbEntity
  8
1
  6
Continuous
100
AcDbLine
 10
74.64938999999998
 20
161.0734459999999
 30
0.0
 11
74.64938999999998
 21
155.0734459999999
 31
0.0
  0
LINE
  5
B133
330
B07C
100
AcDbEntity
  8
1
  6
Continuous
100
AcDbLine
 10
75.64938999999998
 20
160.0734459999999
 30
0.0
 11
74.64938999999998
 21
161.0734459999999
 31
0.0
  0
LINE
  5
B134
330
B07C
100
AcDbEntity
  8
1
  6
Continuous
100
AcDbLine
 10
75.64938999999998
 20
156.0734459999999
 30
0.0
 11
74.64938999999998
 21
155.0734459999999
 31
0.0
  0
CIRCLE
  5
B135
330
B07C
100
AcDbEntity
  8
1
  6
Continuous
100
AcDbCircle
 10
145.059921
 20
158.0734459999999
 30
0.0
 40
3.799999999999998
  0
LINE
  5
B136
330
B07C
100
AcDbEntity
  8
1
  6
Continuous
100
AcDbLine
 10
140.059921
 20
160.786695
 30
0.0
 11
145.059921
 21
163.6734459999999
 31
0.0
  0
LINE
  5
B137
330
B07C
100
AcDbEntity
  8
1
  6
Continuous
100
AcDbLine
 10
140.059921
 20
155.360197
 30
0.0
 11
145.059921
 21
152.4734459999999
 31
0.0
  0
LINE
  5
B138
330
B07C
100
AcDbEntity
  8
1
  6
Continuous
100
AcDbLine
 10
150.059921
 20
155.360197
 30
0.0
 11
150.059921
 21
160.786695
 31
0.0
  0
LINE
  5
B139
330
B07C
100
AcDbEntity
  8
1
  6
Continuous
100
AcDbLine
 10
150.059921
 20
160.786695
 30
0.0
 11
145.059921
 21
163.6734459999999
 31
0.0
  0
LINE
  5
B13A
330
B07C
100
AcDbEntity
  8
1
  6
Continuous
100
AcDbLine
 10
150.059921
 20
155.360197
 30
0.0
 11
145.059921
 21
152.4734459999999
 31
0.0
  0
ARC
  5
B13B
330
B07C
100
AcDbEntity
  8
1
  6
Continuous
100
AcDbCircle
 10
147.559921
 20
75.93120899999998
 30
0.0
 40
6.613208
100
AcDbArc
 50
58.38454599999999
 51
112.211795
  0
ARC
  5
B13C
330
B07C
100
AcDbEntity
  8
1
  6
Continuous
100
AcDbCircle
 10
142.559921
 20
75.93120899999998
 30
0.0
 40
6.613208
100
AcDbArc
 50
67.78820500000001
 51
121.615454
  0
LINE
  5
B13D
330
B07C
100
AcDbEntity
  8
1
  6
Continuous
100
AcDbLine
 10
143.059921
 20
88.162503
 30
0.0
 11
147.059921
 21
88.162503
 31
0.0
  0
LINE
  5
B13E
330
B07C
100
AcDbEntity
  8
1
  6
Continuous
100
AcDbLine
 10
142.0599209999998
 20
87.162503
 30
0.0
 11
148.059921
 21
87.162503
 31
0.0
  0
LINE
  5
B13F
330
B07C
100
AcDbEntity
  8
1
  6
Continuous
100
AcDbLine
 10
147.059921
 20
88.162503
 30
0.0
 11
148.059921
 21
87.162503
 31
0.0
  0
LINE
  5
B140
330
B07C
100
AcDbEntity
  8
1
  6
Continuous
100
AcDbLine
 10
148.059921
 20
87.162503
 30
0.0
 11
148.059921
 21
86.162503
 31
0.0
  0
LINE
  5
B141
330
B07C
100
AcDbEntity
  8
2
  6
Continuous
100
AcDbLine
 10
147.5184209999999
 20
87.704003
 30
0.0
 11
147.5184209999999
 21
86.162503
 31
0.0
  0
LINE
  5
B142
330
B07C
100
AcDbEntity
  8
1
  6
Continuous
100
AcDbLine
 10
143.059921
 20
88.162503
 30
0.0
 11
142.0599209999998
 21
87.162503
 31
0.0
  0
LINE
  5
B143
330
B07C
100
AcDbEntity
  8
1
  6
Continuous
100
AcDbLine
 10
142.0599209999998
 20
87.162503
 30
0.0
 11
142.0599209999998
 21
86.162503
 31
0.0
  0
LINE
  5
B144
330
B07C
100
AcDbEntity
  8
2
  6
Continuous
100
AcDbLine
 10
142.6014209999999
 20
87.704003
 30
0.0
 11
142.6014209999999
 21
86.162503
 31
0.0
  0
LINE
  5
B145
330
B07C
100
AcDbEntity
  8
1
  6
Continuous
100
AcDbLine
 10
32.078947
 20
161.534262
 30
0.0
 11
32.078947
 21
154.61263
 31
0.0
  0
ARC
  5
B146
330
B07C
100
AcDbEntity
  8
1
  6
Continuous
100
AcDbCircle
 10
34.072471
 20
154.7734469999998
 30
0.0
 40
2.0
100
AcDbArc
 50
179.94208
 51
269.9999819999998
  0
LINE
  5
B147
330
B07C
100
AcDbEntity
  8
1
  6
Continuous
100
AcDbLine
 10
34.57045
 20
152.773447
 30
0.0
 11
34.072471
 21
152.773447
 31
0.0
  0
LINE
  5
B148
330
B07C
100
AcDbEntity
  8
1
  6
Continuous
100
AcDbLine
 10
148.519892
 20
44.59245
 30
0.0
 11
141.59995
 21
44.59245
 31
0.0
  0
ARC
  5
B149
330
B07C
100
AcDbEntity
  8
1
  6
Continuous
100
AcDbCircle
 10
148.35992
 20
46.586042
 30
0.0
 40
2.0
100
AcDbArc
 50
265.226531
 51
359.9999819999999
  0
LINE
  5
B14A
330
B07C
100
AcDbEntity
  8
1
  6
Continuous
100
AcDbLine
 10
150.35992
 20
47.08402099999999
 30
0.0
 11
150.35992
 21
46.586042
 31
0.0
  0
LINE
  5
B14B
330
B07C
100
AcDbEntity
  8
1
  6
Continuous
100
AcDbLine
 10
242.059921
 20
128.536302
 30
0.0
 11
242.059921
 21
187.6105899999997
 31
0.0
  0
LINE
  5
B14C
330
B07C
100
AcDbEntity
  8
1
  6
Continuous
100
AcDbLine
 10
263.0599209999999
 20
128.536302
 30
0.0
 11
263.0599209999999
 21
187.6105899999997
 31
0.0
  0
LINE
  5
B14D
330
B07C
100
AcDbEntity
  8
4
  6
CENTER
100
AcDbLine
 10
252.559921
 20
250.5734499999999
 30
0.0
 11
252.559921
 21
120.5734459999999
 31
0.0
  0
ARC
  5
B14E
330
B07C
100
AcDbEntity
  8
1
  6
Continuous
100
AcDbCircle
 10
252.559921
 20
165.5734459999998
 30
0.0
 40
40.0
100
AcDbArc
 50
257.072469
 51
282.9254899999999
  0
ARC
  5
B14F
330
B07C
100
AcDbEntity
  8
1
  6
Continuous
100
AcDbCircle
 10
261.0599209999999
 20
128.536302
 30
0.0
 40
2.0
100
AcDbArc
 50
282.9254899999999
 51
359.9999599999999
  0
ARC
  5
B150
330
B07C
100
AcDbEntity
  8
1
  6
Continuous
100
AcDbCircle
 10
244.059921
 20
128.536302
 30
0.0
 40
2.0
100
AcDbArc
 50
180.0000499999999
 51
257.07455
  0
LINE
  5
B151
330
B07C
100
AcDbEntity
  8
4
  6
CENTER
100
AcDbLine
 10
279.1579889999998
 20
158.0734459999999
 30
0.0
 11
218.47045
 21
158.0734459999999
 31
0.0
  0
LINE
  5
B152
330
B07C
100
AcDbEntity
  8
1
  6
Continuous
100
AcDbLine
 10
268.5599209999999
 20
201.4734489999999
 30
0.0
 11
236.559921
 21
201.4734489999999
 31
0.0
  0
LINE
  5
B153
330
B07C
100
AcDbEntity
  8
1
  6
Continuous
100
AcDbLine
 10
237.5704499999999
 20
149.5734459999999
 30
0.0
 11
239.5704569999999
 21
149.5734459999999
 31
0.0
  0
LINE
  5
B154
330
B07C
100
AcDbEntity
  8
1
  6
Continuous
100
AcDbLine
 10
265.5493849999999
 20
149.5734459999999
 30
0.0
 11
265.5493849999999
 21
149.8442419999998
 31
0.0
  0
LINE
  5
B155
330
B07C
100
AcDbEntity
  8
1
  6
Continuous
100
AcDbLine
 10
239.5704569999999
 20
149.5734459999999
 30
0.0
 11
239.5704569999999
 21
194.32992
 31
0.0
  0
LINE
  5
B156
330
B07C
100
AcDbEntity
  8
1
  6
Continuous
100
AcDbLine
 10
267.549392
 20
149.5734459999999
 30
0.0
 11
267.549392
 21
164.120295
 31
0.0
  0
LINE
  5
B157
330
B07C
100
AcDbEntity
  8
1
  6
Continuous
100
AcDbLine
 10
228.47045
 20
161.8734719999999
 30
0.0
 11
228.813717
 21
162.491342
 31
0.0
  0
LINE
  5
B158
330
B07C
100
AcDbEntity
  8
2
  6
Continuous
100
AcDbLine
 10
226.9289499999999
 20
160.531946
 30
0.0
 11
228.343869
 21
160.531946
 31
0.0
  0
LINE
  5
B159
330
B07C
100
AcDbEntity
  8
1
  6
Continuous
100
AcDbLine
 10
227.4704499999999
 20
161.0734459999999
 30
0.0
 11
228.47045
 21
161.0734459999999
 31
0.0
  0
LINE
  5
B15A
330
B07C
100
AcDbEntity
  8
1
  6
Continuous
100
AcDbLine
 10
226.47045
 20
160.0734459999999
 30
0.0
 11
227.4704499999999
 21
161.0734459999999
 31
0.0
  0
LINE
  5
B15B
330
B07C
100
AcDbEntity
  8
1
  6
Continuous
100
AcDbLine
 10
227.4704499999999
 20
161.0734459999999
 30
0.0
 11
227.4704499999999
 21
157.724772
 31
0.0
  0
LINE
  5
B15C
330
B07C
100
AcDbEntity
  8
1
  6
Continuous
100
AcDbLine
 10
226.47045
 20
160.0734459999999
 30
0.0
 11
226.47045
 21
157.0050159999999
 31
0.0
  0
LINE
  5
B15D
330
B07C
100
AcDbEntity
  8
1
  6
Continuous
100
AcDbLine
 10
228.47045
 20
161.873449
 30
0.0
 11
228.47045
 21
161.0163279999999
 31
0.0
  0
LINE
  5
B15E
330
B07C
100
AcDbEntity
  8
1
  6
Continuous
100
AcDbLine
 10
240.559921
 20
148.323446
 30
0.0
 11
240.559921
 21
167.8234459999998
 31
0.0
  0
LINE
  5
B15F
330
B07C
100
AcDbEntity
  8
1
  6
Continuous
100
AcDbLine
 10
267.549392
 20
149.5734459999999
 30
0.0
 11
265.5493849999999
 21
149.5734459999999
 31
0.0
  0
ARC
  5
B160
330
B07C
100
AcDbEntity
  8
1
  6
Continuous
100
AcDbCircle
 10
241.5599209999998
 20
148.323446
 30
0.0
 40
1.0
100
AcDbArc
 50
180.0000499999999
 51
270.0000399999999
  0
LINE
  5
B161
330
B07C
100
AcDbEntity
  8
1
  6
Continuous
100
AcDbLine
 10
240.559921
 20
154.8234459999999
 30
0.0
 11
239.565147
 21
154.8234459999999
 31
0.0
  0
LINE
  5
B162
330
B07C
100
AcDbEntity
  8
1
  6
Continuous
100
AcDbLine
 10
240.559921
 20
161.3234459999999
 30
0.0
 11
239.558574
 21
161.3234459999999
 31
0.0
  0
LINE
  5
B163
330
B07C
100
AcDbEntity
  8
1
  6
Continuous
100
AcDbLine
 10
242.059921
 20
147.323446
 30
0.0
 11
241.5599209999998
 21
147.323446
 31
0.0
  0
ARC
  5
B164
330
B07C
100
AcDbEntity
  8
1
  6
Continuous
100
AcDbCircle
 10
241.5599209999998
 20
167.8234459999998
 30
0.0
 40
1.0
100
AcDbArc
 50
89.99996299999997
 51
179.999945
  0
LINE
  5
B165
330
B07C
100
AcDbEntity
  8
1
  6
Continuous
100
AcDbLine
 10
242.059921
 20
168.8234459999998
 30
0.0
 11
241.5599209999998
 21
168.8234459999998
 31
0.0
  0
ARC
  5
B166
330
B07C
100
AcDbEntity
  8
1
  6
Continuous
100
AcDbCircle
 10
268.5599209999999
 20
198.4734489999999
 30
0.0
 40
3.0
100
AcDbArc
 50
0.0
 51
90.0
  0
ARC
  5
B167
330
B07C
100
AcDbEntity
  8
1
  6
Continuous
100
AcDbCircle
 10
252.559921
 20
150.573446
 30
0.0
 40
40.0
100
AcDbArc
 50
77.07451000000003
 51
102.9273099999999
  0
ARC
  5
B168
330
B07C
100
AcDbEntity
  8
1
  6
Continuous
100
AcDbCircle
 10
252.559921
 20
202.6179519999999
 30
0.0
 40
1.984499999999996
100
AcDbArc
 50
324.7796999999998
 51
350.0029399999998
  0
ARC
  5
B169
330
B07C
100
AcDbEntity
  8
1
  6
Continuous
100
AcDbCircle
 10
261.0599209999999
 20
187.6105899999997
 30
0.0
 40
2.0
100
AcDbArc
 50
0.00004
 51
77.07451000000003
  0
ARC
  5
B16A
330
B07C
100
AcDbEntity
  8
1
  6
Continuous
100
AcDbCircle
 10
260.0212399999999
 20
202.6179519999999
 30
0.0
 40
1.984499999999996
100
AcDbArc
 50
206.8632199999999
 51
215.2203199999999
  0
ARC
  5
B16B
330
B07C
100
AcDbEntity
  8
1
  6
Continuous
100
AcDbCircle
 10
256.480545
 20
202.6179519999999
 30
0.0
 40
1.984499999999996
100
AcDbArc
 50
189.99695
 51
215.2203199999999
  0
ARC
  5
B16C
330
B07C
100
AcDbEntity
  8
1
  6
Continuous
100
AcDbCircle
 10
265.3099209999999
 20
202.6179519999999
 30
0.0
 40
1.984499999999996
100
AcDbArc
 50
324.7796999999998
 51
350.0029399999998
  0
ARC
  5
B16D
330
B07C
100
AcDbEntity
  8
1
  6
Continuous
100
AcDbCircle
 10
264.660507
 20
202.6179519999999
 30
0.0
 40
1.984499999999996
100
AcDbArc
 50
324.7796999999998
 51
350.0029399999998
  0
ARC
  5
B16E
330
B07C
100
AcDbEntity
  8
1
  6
Continuous
100
AcDbCircle
 10
262.8389129999998
 20
202.6179519999999
 30
0.0
 40
1.984499999999996
100
AcDbArc
 50
324.7796999999998
 51
350.0029399999998
  0
ARC
  5
B16F
330
B07C
100
AcDbEntity
  8
1
  6
Continuous
100
AcDbCircle
 10
260.0212399999999
 20
202.6179519999999
 30
0.0
 40
1.984499999999996
100
AcDbArc
 50
324.7796999999998
 51
350.0029399999998
  0
ARC
  5
B170
330
B07C
100
AcDbEntity
  8
1
  6
Continuous
100
AcDbCircle
 10
256.480545
 20
202.6179519999999
 30
0.0
 40
1.984499999999996
100
AcDbArc
 50
324.7796999999998
 51
350.0029599999999
  0
ARC
  5
B171
330
B07C
100
AcDbEntity
  8
1
  6
Continuous
100
AcDbCircle
 10
269.3743439999999
 20
205.0734119999999
 30
0.0
 40
2.799999999999998
100
AcDbArc
 50
268.3477899999999
 51
269.99998
  0
ARC
  5
B172
330
B07C
100
AcDbEntity
  8
1
  6
Continuous
100
AcDbCircle
 10
244.059921
 20
187.6105899999997
 30
0.0
 40
2.0
100
AcDbArc
 50
102.9254539999999
 51
179.999945
  0
ARC
  5
B173
330
B07C
100
AcDbEntity
  8
1
  6
Continuous
100
AcDbCircle
 10
245.098602
 20
202.6179519999999
 30
0.0
 40
1.984499999999996
100
AcDbArc
 50
189.99701
 51
215.2203199999999
  0
ARC
  5
B174
330
B07C
100
AcDbEntity
  8
1
  6
Continuous
100
AcDbCircle
 10
248.639297
 20
202.6179519999999
 30
0.0
 40
1.984499999999996
100
AcDbArc
 50
189.99701
 51
215.2203199999999
  0
ARC
  5
B175
330
B07C
100
AcDbEntity
  8
1
  6
Continuous
100
AcDbCircle
 10
240.459335
 20
202.6179519999999
 30
0.0
 40
1.984499999999996
100
AcDbArc
 50
189.99701
 51
215.22025
  0
ARC
  5
B176
330
B07C
100
AcDbEntity
  8
1
  6
Continuous
100
AcDbCircle
 10
242.2809369999999
 20
202.6179519999999
 30
0.0
 40
1.984499999999996
100
AcDbArc
 50
189.99701
 51
215.22019
  0
ARC
  5
B177
330
B07C
100
AcDbEntity
  8
1
  6
Continuous
100
AcDbCircle
 10
245.098602
 20
202.6179519999999
 30
0.0
 40
1.984499999999996
100
AcDbArc
 50
324.7796999999998
 51
333.13675
  0
ARC
  5
B178
330
B07C
100
AcDbEntity
  8
1
  6
Continuous
100
AcDbCircle
 10
252.559921
 20
202.6179519999999
 30
0.0
 40
1.984499999999996
100
AcDbArc
 50
189.99701
 51
215.2203199999999
  0
ARC
  5
B179
330
B07C
100
AcDbEntity
  8
1
  6
Continuous
100
AcDbCircle
 10
248.639297
 20
202.6179519999999
 30
0.0
 40
1.984499999999996
100
AcDbArc
 50
324.7796999999998
 51
350.00301
  0
LINE
  5
B17A
330
B07C
100
AcDbEntity
  8
1
  6
Continuous
100
AcDbLine
 10
237.5704499999999
 20
149.5734459999999
 30
0.0
 11
237.5704499999999
 21
164.120295
 31
0.0
  0
LINE
  5
B17B
330
B07C
100
AcDbEntity
  8
1
  6
Continuous
100
AcDbLine
 10
233.559921
 20
198.4734489999999
 30
0.0
 11
233.559921
 21
183.744873
 31
0.0
  0
ARC
  5
B17C
330
B07C
100
AcDbEntity
  8
1
  6
Continuous
100
AcDbCircle
 10
268.047371
 20
161.373445
 30
0.0
 40
2.0
100
AcDbArc
 50
359.9420799999998
 51
89.99998199999996
  0
LINE
  5
B17D
330
B07C
100
AcDbEntity
  8
1
  6
Continuous
100
AcDbLine
 10
270.0408949999999
 20
161.534262
 30
0.0
 11
270.0408949999999
 21
154.61263
 31
0.0
  0
LINE
  5
B17E
330
B07C
100
AcDbEntity
  8
1
  6
Continuous
100
AcDbLine
 10
267.549392
 20
152.773447
 30
0.0
 11
268.047371
 21
152.773447
 31
0.0
  0
ARC
  5
B17F
330
B07C
100
AcDbEntity
  8
1
  6
Continuous
100
AcDbCircle
 10
268.047371
 20
154.7734469999998
 30
0.0
 40
2.0
100
AcDbArc
 50
270.0000179999999
 51
0.05792
  0
LINE
  5
B180
330
B07C
100
AcDbEntity
  8
1
  6
Continuous
100
AcDbLine
 10
267.549392
 20
163.373445
 30
0.0
 11
268.047371
 21
163.373445
 31
0.0
  0
ARC
  5
B181
330
B07C
100
AcDbEntity
  8
1
  6
Continuous
100
AcDbCircle
 10
236.559921
 20
198.4734489999999
 30
0.0
 40
3.0
100
AcDbArc
 50
90.0
 51
180.0
  0
ARC
  5
B182
330
B07C
100
AcDbEntity
  8
1
  6
Continuous
100
AcDbCircle
 10
239.809921
 20
202.6179519999999
 30
0.0
 40
1.984499999999996
100
AcDbArc
 50
189.99701
 51
215.22025
  0
LINE
  5
B183
330
B07C
100
AcDbEntity
  8
1
  6
Continuous
100
AcDbLine
 10
236.3335839999999
 20
194.32992
 30
0.0
 11
268.786258
 21
194.32992
 31
0.0
  0
LINE
  5
B184
330
B07C
100
AcDbEntity
  8
1
  6
Continuous
100
AcDbLine
 10
271.5599209999999
 20
198.4734489999999
 30
0.0
 11
271.5599209999999
 21
183.744873
 31
0.0
  0
ARC
  5
B185
330
B07C
100
AcDbEntity
  8
1
  6
Continuous
100
AcDbCircle
 10
344.0599209999998
 20
158.0734459999999
 30
0.0
 40
32.5
100
AcDbArc
 50
134.1158719999999
 51
80.35400099999998
  0
ARC
  5
B186
330
B07C
100
AcDbEntity
  8
1
  6
Continuous
100
AcDbCircle
 10
344.0599209999998
 20
158.0734459999999
 30
0.0
 40
25.0
100
AcDbArc
 50
138.327312
 51
76.04631999999998
  0
LINE
  5
B187
330
B07C
100
AcDbEntity
  8
4
  6
CENTER
100
AcDbLine
 10
344.0599209999998
 20
191.4662649999999
 30
0.0
 11
344.0599209999998
 21
120.5734459999999
 31
0.0
  0
LINE
  5
B188
330
B07C
100
AcDbEntity
  8
4
  6
CENTER
100
AcDbLine
 10
306.5599209999998
 20
158.0734459999999
 30
0.0
 11
381.5599209999998
 21
158.0734459999999
 31
0.0
  0
LINE
  5
B189
330
B07C
100
AcDbEntity
  8
1
  6
Continuous
100
AcDbLine
 10
336.0599209999998
 20
201.4734489999999
 30
0.0
 11
304.0599209999998
 21
201.4734489999999
 31
0.0
  0
LINE
  5
B18A
330
B07C
100
AcDbEntity
  8
1
  6
Continuous
100
AcDbLine
 10
309.7098689999999
 20
194.027858
 30
0.0
 11
301.0599209999998
 21
194.32992
 31
0.0
  0
LINE
  5
B18B
330
B07C
100
AcDbEntity
  8
1
  6
Continuous
100
AcDbLine
 10
316.323262
 20
190.0938039999997
 30
0.0
 11
337.9963029999998
 21
153.2692889999998
 31
0.0
  0
LINE
  5
B18C
330
B07C
100
AcDbEntity
  8
1
  6
Continuous
100
AcDbLine
 10
349.155163
 20
194.792005
 30
0.0
 11
351.938963
 21
157.6337569999997
 31
0.0
  0
LINE
  5
B18D
330
B07C
100
AcDbEntity
  8
1
  6
Continuous
100
AcDbLine
 10
332.459923
 20
198.7967629999999
 30
0.0
 11
332.459923
 21
166.391594
 31
0.0
  0
LINE
  5
B18E
330
B07C
100
AcDbEntity
  8
4
  6
CENTER
100
AcDbLine
 10
320.059921
 20
250.5734499999999
 30
0.0
 11
320.059921
 21
178.1804979999997
 31
0.0
  0
ARC
  5
B18F
330
B07C
100
AcDbEntity
  8
1
  6
Continuous
100
AcDbCircle
 10
344.0599209999998
 20
158.0734459999999
 30
0.0
 40
16.0
100
AcDbArc
 50
149.0928649999998
 51
65.00885
  0
ARC
  5
B190
330
B07C
100
AcDbEntity
  8
1
  6
Continuous
100
AcDbCircle
 10
344.459923
 20
157.0734459999999
 30
0.0
 40
7.5
100
AcDbArc
 50
210.47892
 51
4.284449999999996
  0
LINE
  5
B191
330
B07C
100
AcDbEntity
  8
1
  6
Continuous
100
AcDbLine
 10
352.259922
 20
196.275405
 30
0.0
 11
334.781479
 21
199.3573259999998
 31
0.0
  0
LINE
  5
B192
330
B07C
100
AcDbEntity
  8
1
  6
Continuous
100
AcDbLine
 10
352.2599159999999
 20
196.275404
 30
0.0
 11
351.91262
 21
194.305787
 31
0.0
  0
ARC
  5
B193
330
B07C
100
AcDbEntity
  8
1
  6
Continuous
100
AcDbCircle
 10
336.0599209999998
 20
198.4734489999999
 30
0.0
 40
3.0
100
AcDbArc
 50
0.0
 51
90.0
  0
LINE
  5
B194
330
B07C
100
AcDbEntity
  8
1
  6
Continuous
100
AcDbLine
 10
349.330141
 20
196.7920039999999
 30
0.0
 11
349.155163
 21
194.792005
 31
0.0
  0
LINE
  5
B195
330
B07C
100
AcDbEntity
  8
1
  6
Continuous
100
AcDbLine
 10
351.912628
 20
194.3057889999998
 30
0.0
 11
349.1551609999998
 21
194.792005
 31
0.0
  0
ARC
  5
B196
330
B07C
100
AcDbEntity
  8
1
  6
Continuous
100
AcDbCircle
 10
323.9805449999999
 20
202.6179519999999
 30
0.0
 40
1.984499999999996
100
AcDbArc
 50
189.99695
 51
215.22025
  0
ARC
  5
B197
330
B07C
100
AcDbEntity
  8
1
  6
Continuous
100
AcDbCircle
 10
332.8099209999998
 20
202.6179519999999
 30
0.0
 40
1.984499999999996
100
AcDbArc
 50
324.77977
 51
350.0029399999998
  0
ARC
  5
B198
330
B07C
100
AcDbEntity
  8
1
  6
Continuous
100
AcDbCircle
 10
332.1605069999999
 20
202.6179519999999
 30
0.0
 40
1.984499999999996
100
AcDbArc
 50
324.77977
 51
350.00293
  0
ARC
  5
B199
330
B07C
100
AcDbEntity
  8
1
  6
Continuous
100
AcDbCircle
 10
330.3389049999998
 20
202.6179519999999
 30
0.0
 40
1.984499999999996
100
AcDbArc
 50
324.77977
 51
350.0029399999998
  0
ARC
  5
B19A
330
B07C
100
AcDbEntity
  8
1
  6
Continuous
100
AcDbCircle
 10
327.52124
 20
202.6179519999999
 30
0.0
 40
1.984499999999996
100
AcDbArc
 50
324.77977
 51
350.0029399999998
  0
ARC
  5
B19B
330
B07C
100
AcDbEntity
  8
1
  6
Continuous
100
AcDbCircle
 10
320.059921
 20
202.6179519999999
 30
0.0
 40
1.984499999999996
100
AcDbArc
 50
324.77977
 51
350.0029399999998
  0
ARC
  5
B19C
330
B07C
100
AcDbEntity
  8
1
  6
Continuous
100
AcDbCircle
 10
323.9805449999999
 20
202.6179519999999
 30
0.0
 40
1.984499999999996
100
AcDbArc
 50
324.77977
 51
350.0029599999999
  0
ARC
  5
B19D
330
B07C
100
AcDbEntity
  8
1
  6
Continuous
100
AcDbCircle
 10
327.52124
 20
202.6179519999999
 30
0.0
 40
1.984499999999996
100
AcDbArc
 50
206.8632199999999
 51
215.22025
  0
ARC
  5
B19E
330
B07C
100
AcDbEntity
  8
1
  6
Continuous
100
AcDbCircle
 10
309.430679
 20
186.032733
 30
0.0
 40
8.0
100
AcDbArc
 50
30.47891
 51
87.99996799999998
  0
ARC
  5
B19F
330
B07C
100
AcDbEntity
  8
1
  6
Continuous
100
AcDbCircle
 10
312.598602
 20
202.6179519999999
 30
0.0
 40
1.984499999999996
100
AcDbArc
 50
189.99701
 51
215.22025
  0
ARC
  5
B1A0
330
B07C
100
AcDbEntity
  8
1
  6
Continuous
100
AcDbCircle
 10
316.139297
 20
202.6179519999999
 30
0.0
 40
1.984499999999996
100
AcDbArc
 50
189.99701
 51
215.22025
  0
ARC
  5
B1A1
330
B07C
100
AcDbEntity
  8
1
  6
Continuous
100
AcDbCircle
 10
307.3099209999998
 20
202.6179519999999
 30
0.0
 40
1.984499999999996
100
AcDbArc
 50
189.99701
 51
215.2203199999999
  0
ARC
  5
B1A2
330
B07C
100
AcDbEntity
  8
1
  6
Continuous
100
AcDbCircle
 10
307.959335
 20
202.6179519999999
 30
0.0
 40
1.984499999999996
100
AcDbArc
 50
189.99701
 51
215.22025
  0
ARC
  5
B1A3
330
B07C
100
AcDbEntity
  8
1
  6
Continuous
100
AcDbCircle
 10
309.780937
 20
202.6179519999999
 30
0.0
 40
1.984499999999996
100
AcDbArc
 50
189.99701
 51
215.22025
  0
ARC
  5
B1A4
330
B07C
100
AcDbEntity
  8
1
  6
Continuous
100
AcDbCircle
 10
312.598602
 20
202.6179519999999
 30
0.0
 40
1.984499999999996
100
AcDbArc
 50
324.77977
 51
333.13675
  0
ARC
  5
B1A5
330
B07C
100
AcDbEntity
  8
1
  6
Continuous
100
AcDbCircle
 10
320.059921
 20
202.6179519999999
 30
0.0
 40
1.984499999999996
100
AcDbArc
 50
189.99701
 51
215.22025
  0
ARC
  5
B1A6
330
B07C
100
AcDbEntity
  8
1
  6
Continuous
100
AcDbCircle
 10
316.139297
 20
202.6179519999999
 30
0.0
 40
1.984499999999996
100
AcDbArc
 50
324.77977
 51
350.00301
  0
ARC
  5
B1A7
330
B07C
100
AcDbEntity
  8
1
  6
Continuous
100
AcDbCircle
 10
304.0599209999998
 20
198.4734489999999
 30
0.0
 40
3.0
100
AcDbArc
 50
90.0
 51
180.0
  0
LINE
  5
B1A8
330
B07C
100
AcDbEntity
  8
1
  6
Continuous
100
AcDbLine
 10
301.0599209999998
 20
198.4734489999999
 30
0.0
 11
301.0599209999998
 21
194.32992
 31
0.0
  0
ARC
  5
B1A9
330
B07C
100
AcDbEntity
  8
1
  6
Continuous
100
AcDbCircle
 10
283.5793049999998
 20
183.744873
 30
0.0
 40
50.019384
100
AcDbArc
 50
169.701121
 51
203.100145
  0
ARC
  5
B1AA
330
B07C
100
AcDbEntity
  8
1
  6
Continuous
100
AcDbCircle
 10
221.5405379999999
 20
183.744873
 30
0.0
 40
50.019384
100
AcDbArc
 50
336.899855
 51
10.298879
  0
ARC
  5
B1AB
330
B07C
100
AcDbEntity
  8
1
  6
Continuous
100
AcDbCircle
 10
221.5405379999999
 20
183.744873
 30
0.0
 40
48.019384
100
AcDbArc
 50
336.899855
 51
12.734456
  0
ARC
  5
B1AC
330
B07C
100
AcDbEntity
  8
1
  6
Continuous
100
AcDbCircle
 10
283.5793049999998
 20
183.744873
 30
0.0
 40
48.019384
100
AcDbArc
 50
167.2655439999997
 51
203.100145
  0
ARC
  5
B1AD
330
B07C
100
AcDbEntity
  8
1
  6
Continuous
100
AcDbCircle
 10
268.786258
 20
192.3299199999999
 30
0.0
 40
2.0
100
AcDbArc
 50
10.298879
 51
90.0
  0
ARC
  5
B1AE
330
B07C
100
AcDbEntity
  8
1
  6
Continuous
100
AcDbCircle
 10
236.3335839999999
 20
192.3299199999999
 30
0.0
 40
2.0
100
AcDbArc
 50
90.0
 51
169.701121
  0
ARC
  5
B1AF
330
B07C
100
AcDbEntity
  8
1
  6
Continuous
100
AcDbCircle
 10
156.083009
 20
81.06291400000001
 30
0.0
 40
6.0
100
AcDbArc
 50
270.0
 51
304.3476989999998
  0
ARC
  5
B1B0
330
B07C
100
AcDbEntity
  8
1
  6
Continuous
100
AcDbCircle
 10
156.083009
 20
43.08398599999999
 30
0.0
 40
6.0
100
AcDbArc
 50
55.652301
 51
86.893229
  0
ARC
  5
B1B1
330
B07C
100
AcDbEntity
  8
1
  6
Continuous
100
AcDbCircle
 10
156.083019
 20
43.083979
 30
0.0
 40
4.0
100
AcDbArc
 50
55.65233199999998
 51
90.0
  0
LINE
  5
B1B2
330
B07C
100
AcDbEntity
  8
5
  6
PHANTOM
100
AcDbLine
 10
109.331203
 20
146.7394919999998
 30
0.0
 11
129.350974
 21
156.85713
 31
0.0
  0
LINE
  5
B1B3
330
B07C
100
AcDbEntity
  8
5
  6
PHANTOM
100
AcDbLine
 10
108.4290929999999
 20
148.524486
 30
0.0
 11
128.448877
 21
158.6421159999999
 31
0.0
  0
LINE
  5
B1B4
330
B07C
100
AcDbEntity
  8
5
  6
PHANTOM
100
AcDbLine
 10
109.331203
 20
146.7394919999998
 30
0.0
 11
108.4290799999999
 21
148.524493
 31
0.0
  0
LINE
  5
B1B5
330
B07C
100
AcDbEntity
  8
5
  6
PHANTOM
100
AcDbLine
 10
130.1263659999999
 20
157.249002
 30
0.0
 11
131.479508
 21
154.5715149999998
 31
0.0
  0
LINE
  5
B1B6
330
B07C
100
AcDbEntity
  8
5
  6
PHANTOM
100
AcDbLine
 10
126.556406
 20
155.444801
 30
0.0
 11
127.909555
 21
152.767327
 31
0.0
  0
LINE
  5
B1B7
330
B07C
100
AcDbEntity
  8
5
  6
PHANTOM
100
AcDbLine
 10
127.909555
 20
152.767327
 30
0.0
 11
131.479536
 21
154.571534
 31
0.0
  0
LINE
  5
B1B8
330
B07C
100
AcDbEntity
  8
5
  6
PHANTOM
100
AcDbLine
 10
162.1428449999999
 20
164.860645
 30
0.0
 11
165.994187
 21
172.6914689999999
 31
0.0
  0
LINE
  5
B1B9
330
B07C
100
AcDbEntity
  8
5
  6
PHANTOM
100
AcDbLine
 10
154.454112
 20
171.7847149999998
 30
0.0
 11
174.473903
 21
181.902359
 31
0.0
  0
LINE
  5
B1BA
330
B07C
100
AcDbEntity
  8
5
  6
PHANTOM
100
AcDbLine
 10
155.3562279999999
 20
169.9996999999999
 30
0.0
 11
175.3760199999999
 21
180.117344
 31
0.0
  0
LINE
  5
B1BB
330
B07C
100
AcDbEntity
  8
5
  6
PHANTOM
100
AcDbLine
 10
159.7908419999999
 20
159.9639559999999
 30
0.0
 11
155.159636
 21
169.127713
 31
0.0
  0
LINE
  5
B1BC
330
B07C
100
AcDbEntity
  8
5
  6
PHANTOM
100
AcDbLine
 10
159.4508229999999
 20
166.1846399999998
 30
0.0
 11
163.302144
 21
174.015458
 31
0.0
  0
LINE
  5
B1BD
330
B07C
100
AcDbEntity
  8
5
  6
PHANTOM
100
AcDbLine
 10
159.938579
 20
166.349657
 30
0.0
 11
161.976173
 21
165.347529
 31
0.0
  0
LINE
  5
B1BE
330
B07C
100
AcDbEntity
  8
5
  6
PHANTOM
100
AcDbLine
 10
161.3764909999999
 20
170.100062
 30
0.0
 11
164.068533
 21
168.7760729999999
 31
0.0
  0
LINE
  5
B1BF
330
B07C
100
AcDbEntity
  8
5
  6
PHANTOM
100
AcDbLine
 10
163.48478
 20
173.520753
 30
0.0
 11
165.537935
 21
172.5109889999997
 31
0.0
  0
LINE
  5
B1C0
330
B07C
100
AcDbEntity
  8
5
  6
PHANTOM
100
AcDbLine
 10
175.3760979999999
 20
180.1174239999998
 30
0.0
 11
174.473987
 21
181.9024179999999
 31
0.0
  0
LINE
  5
B1C1
330
B07C
100
AcDbEntity
  8
5
  6
PHANTOM
100
AcDbLine
 10
169.128524
 20
176.959976
 30
0.0
 11
170.820623
 21
173.611845
 31
0.0
  0
LINE
  5
B1C2
330
B07C
100
AcDbEntity
  8
5
  6
PHANTOM
100
AcDbLine
 10
115.578679
 20
149.8968539999999
 30
0.0
 11
117.2707699999999
 21
146.548709
 31
0.0
  0
LINE
  5
B1C3
330
B07C
100
AcDbEntity
  8
5
  6
PHANTOM
100
AcDbLine
 10
161.553854
 20
160.9095759999999
 30
0.0
 11
156.9446439999999
 21
170.0298159999999
 31
0.0
  0
LINE
  5
B1C4
330
B07C
100
AcDbEntity
  8
1
  6
Continuous
100
AcDbLine
 10
139.5987299999999
 20
285.678944
 30
0.0
 11
139.5987299999999
 21
289.9226259999998
 31
0.0
  0
LINE
  5
B1C5
330
B07C
100
AcDbEntity
  8
1
  6
Continuous
100
AcDbLine
 10
236.07045
 20
142.7380679999999
 30
0.0
 11
236.07045
 21
156.147781
 31
0.0
  0
LINE
  5
B1C6
330
B07C
100
AcDbEntity
  8
1
  6
Continuous
100
AcDbLine
 10
236.07045
 20
142.7380679999999
 30
0.0
 11
234.07045
 21
142.7380679999999
 31
0.0
  0
LINE
  5
B1C7
330
B07C
100
AcDbEntity
  8
1
  6
Continuous
100
AcDbLine
 10
234.07045
 20
142.7380679999999
 30
0.0
 11
234.07045
 21
148.4368739999998
 31
0.0
  0
LINE
  5
B1C8
330
B07C
100
AcDbEntity
  8
1
  6
Continuous
100
AcDbLine
 10
227.4704439999999
 20
157.724762
 30
0.0
 11
218.5333859999999
 21
151.2923129999998
 31
0.0
  0
LINE
  5
B1C9
330
B07C
100
AcDbEntity
  8
1
  6
Continuous
100
AcDbLine
 10
217.0704499999999
 20
146.7921599999999
 30
0.0
 11
217.0704499999999
 21
148.4368739999998
 31
0.0
  0
LINE
  5
B1CA
330
B07C
100
AcDbEntity
  8
1
  6
Continuous
100
AcDbLine
 10
227.4704289999998
 20
169.9352259999997
 30
0.0
 11
219.790772
 21
176.559006
 31
0.0
  0
LINE
  5
B1CB
330
B07C
100
AcDbEntity
  8
1
  6
Continuous
100
AcDbLine
 10
218.5704499999999
 20
179.238998
 30
0.0
 11
218.5704499999999
 21
180.8678129999999
 31
0.0
  0
LINE
  5
B1CC
330
B07C
100
AcDbEntity
  8
1
  6
Continuous
100
AcDbLine
 10
227.4704439999999
 20
171.579956
 30
0.0
 11
220.5303189999999
 21
177.713592
 31
0.0
  0
LINE
  5
B1CD
330
B07C
100
AcDbEntity
  8
1
  6
Continuous
100
AcDbLine
 10
227.4704439999999
 20
171.580124
 30
0.0
 11
235.0617039999999
 21
171.580124
 31
0.0
  0
LINE
  5
B1CE
330
B07C
100
AcDbEntity
  8
1
  6
Continuous
100
AcDbLine
 10
227.4704439999999
 20
157.724762
 30
0.0
 11
234.07045
 21
157.724762
 31
0.0
  0
LINE
  5
B1CF
330
B07C
100
AcDbEntity
  8
1
  6
Continuous
100
AcDbLine
 10
238.620987
 20
149.256393
 30
0.0
 11
236.07045
 21
149.256393
 31
0.0
  0
LINE
  5
B1D0
330
B07C
100
AcDbEntity
  8
1
  6
Continuous
100
AcDbLine
 10
238.620987
 20
146.9702609999998
 30
0.0
 11
236.07045
 21
146.9702609999998
 31
0.0
  0
LINE
  5
B1D1
330
B07C
100
AcDbEntity
  8
1
  6
Continuous
100
AcDbLine
 10
238.620987
 20
146.9702609999998
 30
0.0
 11
238.620987
 21
149.256393
 31
0.0
  0
LINE
  5
B1D2
330
B07C
100
AcDbEntity
  8
1
  6
Continuous
100
AcDbLine
 10
66.049392
 20
142.7380829999999
 30
0.0
 11
66.049392
 21
144.933548
 31
0.0
  0
LINE
  5
B1D3
330
B07C
100
AcDbEntity
  8
1
  6
Continuous
100
AcDbLine
 10
74.649398
 20
169.9352259999997
 30
0.0
 11
66.549392
 21
169.9352259999997
 31
0.0
  0
LINE
  5
B1D4
330
B07C
100
AcDbEntity
  8
1
  6
Continuous
100
AcDbLine
 10
66.049392
 20
142.7380829999999
 30
0.0
 11
68.04939199999998
 21
142.7380829999999
 31
0.0
  0
LINE
  5
B1D5
330
B07C
100
AcDbEntity
  8
1
  6
Continuous
100
AcDbLine
 10
68.04939199999998
 20
142.7380829999999
 30
0.0
 11
68.04939199999998
 21
155.83342
 31
0.0
  0
LINE
  5
B1D6
330
B07C
100
AcDbEntity
  8
1
  6
Continuous
100
AcDbLine
 10
66.549392
 20
146.031387
 30
0.0
 11
66.549392
 21
181.7212679999999
 31
0.0
  0
LINE
  5
B1D7
330
B07C
100
AcDbEntity
  8
1
  6
Continuous
100
AcDbLine
 10
64.549392
 20
176.991501
 30
0.0
 11
66.549392
 21
176.991501
 31
0.0
  0
LINE
  5
B1D8
330
B07C
100
AcDbEntity
  8
1
  6
Continuous
100
AcDbLine
 10
75.23471499999998
 20
155.658771
 30
0.0
 11
83.586448
 21
149.6476129999997
 31
0.0
  0
LINE
  5
B1D9
330
B07C
100
AcDbEntity
  8
1
  6
Continuous
100
AcDbLine
 10
75.64938999999998
 20
157.005027
 30
0.0
 11
83.586448
 21
151.292328
 31
0.0
  0
LINE
  5
B1DA
330
B07C
100
AcDbEntity
  8
1
  6
Continuous
100
AcDbLine
 10
85.04939199999999
 20
146.7921599999999
 30
0.0
 11
85.04939199999999
 21
148.4368739999998
 31
0.0
  0
LINE
  5
B1DB
330
B07C
100
AcDbEntity
  8
1
  6
Continuous
100
AcDbLine
 10
74.64942099999998
 20
169.9352419999998
 30
0.0
 11
82.32907
 21
176.559021
 31
0.0
  0
LINE
  5
B1DC
330
B07C
100
AcDbEntity
  8
1
  6
Continuous
100
AcDbLine
 10
83.54939199999998
 20
179.223099
 30
0.0
 11
83.54939199999998
 21
180.8678129999999
 31
0.0
  0
LINE
  5
B1DD
330
B07C
100
AcDbEntity
  8
1
  6
Continuous
100
AcDbLine
 10
64.549392
 20
146.031387
 30
0.0
 11
66.549392
 21
146.031387
 31
0.0
  0
LINE
  5
B1DE
330
B07C
100
AcDbEntity
  8
1
  6
Continuous
100
AcDbLine
 10
64.549392
 20
160.0011749999999
 30
0.0
 11
66.549392
 21
160.0011749999999
 31
0.0
  0
LINE
  5
B1DF
330
B07C
100
AcDbEntity
  8
1
  6
Continuous
100
AcDbLine
 10
66.049392
 20
144.933548
 30
0.0
 11
68.04939199999998
 21
144.933548
 31
0.0
  0
LINE
  5
B1E0
330
B07C
100
AcDbEntity
  8
1
  6
Continuous
100
AcDbLine
 10
139.330862
 20
87.372606
 30
0.0
 11
129.9580589999999
 21
94.709962
 31
0.0
  0
LINE
  5
B1E1
330
B07C
100
AcDbEntity
  8
1
  6
Continuous
100
AcDbLine
 10
158.454534
 20
77.062921
 30
0.0
 11
121.6684019999999
 21
77.062921
 31
0.0
  0
LINE
  5
B1E2
330
B07C
100
AcDbEntity
  8
1
  6
Continuous
100
AcDbLine
 10
172.282522
 20
78.562921
 30
0.0
 11
155.8078209999998
 21
78.562921
 31
0.0
  0
LINE
  5
B1E3
330
B07C
100
AcDbEntity
  8
1
  6
Continuous
100
AcDbLine
 10
158.4866539999999
 20
87.16291899999998
 30
0.0
 11
168.12731
 21
96.20995499999999
 31
0.0
  0
LINE
  5
B1E4
330
B07C
100
AcDbEntity
  8
1
  6
Continuous
100
AcDbLine
 10
138.192892
 20
87.372659
 30
0.0
 11
128.820135
 21
94.709962
 31
0.0
  0
LINE
  5
B1E5
330
B07C
100
AcDbEntity
  8
1
  6
Continuous
100
AcDbLine
 10
158.4866539999999
 20
87.16292699999998
 30
0.0
 11
158.4866539999999
 21
80.562921
 31
0.0
  0
LINE
  5
B1E6
330
B07C
100
AcDbEntity
  8
1
  6
Continuous
100
AcDbLine
 10
138.4607899999998
 20
87.28188499999998
 30
0.0
 11
138.4607899999998
 21
79.062921
 31
0.0
  0
LINE
  5
B1E7
330
B07C
100
AcDbEntity
  8
1
  6
Continuous
100
AcDbLine
 10
174.282522
 20
80.562921
 30
0.0
 11
156.190573
 21
80.562921
 31
0.0
  0
LINE
  5
B1E8
330
B07C
100
AcDbEntity
  8
1
  6
Continuous
100
AcDbLine
 10
153.3698629999999
 20
79.062921
 30
0.0
 11
121.6684019999999
 21
79.062921
 31
0.0
  0
LINE
  5
B1E9
330
B07C
100
AcDbEntity
  8
1
  6
Continuous
100
AcDbLine
 10
121.6684019999999
 20
77.062921
 30
0.0
 11
121.6684019999999
 21
79.062921
 31
0.0
  0
LINE
  5
B1EA
330
B07C
100
AcDbEntity
  8
1
  6
Continuous
100
AcDbLine
 10
171.010153
 20
78.562921
 30
0.0
 11
171.010153
 21
80.562921
 31
0.0
  0
LINE
  5
B1EB
330
B07C
100
AcDbEntity
  8
1
  6
Continuous
100
AcDbLine
 10
132.1055509999998
 20
77.062921
 30
0.0
 11
132.1055509999998
 21
79.062921
 31
0.0
  0
LINE
  5
B1EC
330
B07C
100
AcDbEntity
  8
1
  6
Continuous
100
AcDbLine
 10
151.431082
 20
77.062921
 30
0.0
 11
151.431082
 21
79.062921
 31
0.0
  0
LINE
  5
B1ED
330
B07C
100
AcDbEntity
  8
1
  6
Continuous
100
AcDbLine
 10
155.1401419999999
 20
78.307367
 30
0.0
 11
154.322485
 21
77.574022
 31
0.0
  0
LINE
  5
B1EE
330
B07C
100
AcDbEntity
  8
1
  6
Continuous
100
AcDbLine
 10
154.8551999999999
 20
80.05180499999999
 30
0.0
 11
154.037542
 21
79.318467
 31
0.0
  0
LINE
  5
B1EF
330
B07C
100
AcDbEntity
  8
1
  6
Continuous
100
AcDbLine
 10
135.055837
 20
74.562921
 30
0.0
 11
135.055837
 21
77.062921
 31
0.0
  0
LINE
  5
B1F0
330
B07C
100
AcDbEntity
  8
1
  6
Continuous
100
AcDbLine
 10
138.3452509999999
 20
74.562921
 30
0.0
 11
138.3452509999999
 21
77.062921
 31
0.0
  0
LINE
  5
B1F1
330
B07C
100
AcDbEntity
  8
1
  6
Continuous
100
AcDbLine
 10
137.207327
 20
74.562921
 30
0.0
 11
137.207327
 21
77.062921
 31
0.0
  0
LINE
  5
B1F2
330
B07C
100
AcDbEntity
  8
1
  6
Continuous
100
AcDbLine
 10
135.055837
 20
74.562921
 30
0.0
 11
138.3452509999999
 21
74.562921
 31
0.0
  0
LINE
  5
B1F3
330
B07C
100
AcDbEntity
  8
1
  6
Continuous
100
AcDbLine
 10
167.428533
 20
78.562921
 30
0.0
 11
164.0317589999999
 21
76.01345999999998
 31
0.0
  0
LINE
  5
B1F4
330
B07C
100
AcDbEntity
  8
1
  6
Continuous
100
AcDbLine
 10
162.831198
 20
76.013467
 30
0.0
 11
159.4344079999999
 21
78.56292899999998
 31
0.0
  0
LINE
  5
B1F5
330
B07C
100
AcDbEntity
  8
1
  6
Continuous
100
AcDbLine
 10
163.4314779999999
 20
78.063585
 30
0.0
 11
162.76618
 21
78.56292899999998
 31
0.0
  0
LINE
  5
B1F6
330
B07C
100
AcDbEntity
  8
1
  6
Continuous
100
AcDbLine
 10
164.096777
 20
78.562921
 30
0.0
 11
163.4314779999999
 21
78.06357699999998
 31
0.0
  0
ARC
  5
B1F7
330
B07C
100
AcDbEntity
  8
5
  6
PHANTOM
100
AcDbCircle
 10
124.8404639999999
 20
165.7821129999998
 30
0.0
 40
10.0
100
AcDbArc
 50
296.811235
 51
327.516774
  0
ARC
  5
B1F8
330
B07C
100
AcDbEntity
  8
5
  6
PHANTOM
100
AcDbCircle
 10
150.8456989999999
 20
178.9247109999998
 30
0.0
 40
8.0
100
AcDbArc
 50
266.1056549999999
 51
296.811235
  0
ARC
  5
B1F9
330
B07C
100
AcDbEntity
  8
5
  6
PHANTOM
100
AcDbCircle
 10
136.5655089999999
 20
188.870827
 30
0.0
 40
37.49999199999999
100
AcDbArc
 50
305.152371
 51
335.989357
  0
ARC
  5
B1FA
330
B07C
100
AcDbEntity
  8
5
  6
PHANTOM
100
AcDbCircle
 10
125.3022049999999
 20
183.1785509999999
 30
0.0
 40
37.49999199999999
100
AcDbArc
 50
257.633065
 51
288.4700849999998
  0
ARC
  5
B1FB
330
B07C
100
AcDbEntity
  8
5
  6
PHANTOM
100
AcDbCircle
 10
150.8456989999999
 20
178.9247109999998
 30
0.0
 40
10.0
100
AcDbArc
 50
266.1056549999999
 51
296.811235
  0
ARC
  5
B1FC
330
B07C
100
AcDbEntity
  8
5
  6
PHANTOM
100
AcDbCircle
 10
141.232259
 20
165.6472469999999
 30
0.0
 40
18.48607099999998
100
AcDbArc
 50
257.345705
 51
336.276744
  0
ARC
  5
B1FD
330
B07C
100
AcDbEntity
  8
5
  6
PHANTOM
100
AcDbCircle
 10
148.90797
 20
150.4593309999999
 30
0.0
 40
20.53125
100
AcDbArc
 50
86.10567000000001
 51
147.5167859999999
  0
ARC
  5
B1FE
330
B07C
100
AcDbEntity
  8
5
  6
PHANTOM
100
AcDbCircle
 10
124.8404639999999
 20
165.7821129999998
 30
0.0
 40
8.0
100
AcDbArc
 50
296.811235
 51
327.516774
  0
ARC
  5
B1FF
330
B07C
100
AcDbEntity
  8
5
  6
PHANTOM
100
AcDbCircle
 10
148.90797
 20
150.4593309999999
 30
0.0
 40
18.53125
100
AcDbArc
 50
86.10567000000001
 51
147.5167859999999
  0
ARC
  5
B200
330
B07C
100
AcDbEntity
  8
1
  6
Continuous
100
AcDbCircle
 10
225.5704499999999
 20
157.1929019999998
 30
0.0
 40
13.592206
100
AcDbArc
 50
240.3616959999999
 51
299.638299
  0
ARC
  5
B201
330
B07C
100
AcDbEntity
  8
1
  6
Continuous
100
AcDbCircle
 10
230.552307
 20
148.4368739999998
 30
0.0
 40
3.518145999999997
100
AcDbArc
 50
299.638299
 51
0.000003
  0
ARC
  5
B202
330
B07C
100
AcDbEntity
  8
1
  6
Continuous
100
AcDbCircle
 10
220.5885929999999
 20
148.4368739999998
 30
0.0
 40
3.518145999999997
100
AcDbArc
 50
125.7444519999999
 51
240.361706
  0
ARC
  5
B203
330
B07C
100
AcDbEntity
  8
1
  6
Continuous
100
AcDbCircle
 10
220.5885929999999
 20
148.4368739999998
 30
0.0
 40
3.518145999999997
100
AcDbArc
 50
125.7444519999999
 51
180.000005
  0
ARC
  5
B204
330
B07C
100
AcDbEntity
  8
1
  6
Continuous
100
AcDbCircle
 10
227.0704499999999
 20
172.111801
 30
0.0
 40
13.592206
100
AcDbArc
 50
61.477033
 51
119.638304
  0
ARC
  5
B205
330
B07C
100
AcDbEntity
  8
1
  6
Continuous
100
AcDbCircle
 10
222.088593
 20
179.223099
 30
0.0
 40
3.518145999999997
100
AcDbArc
 50
179.9999909999999
 51
229.221941
  0
ARC
  5
B206
330
B07C
100
AcDbEntity
  8
1
  6
Continuous
100
AcDbCircle
 10
227.444824
 20
168.0825959999999
 30
0.0
 40
1.852803999999999
100
AcDbArc
 50
18.56101299999998
 51
90.00000300000001
  0
ARC
  5
B207
330
B07C
100
AcDbEntity
  8
1
  6
Continuous
100
AcDbCircle
 10
222.2762449999999
 20
166.3470919999998
 30
0.0
 40
7.304966999999997
100
AcDbArc
 50
7.903514999999999
 51
17.966712
  0
ARC
  5
B208
330
B07C
100
AcDbEntity
  8
1
  6
Continuous
100
AcDbCircle
 10
222.088593
 20
180.8678129999999
 30
0.0
 40
3.518145999999997
100
AcDbArc
 50
119.6382899999999
 51
243.709209
  0
ARC
  5
B209
330
B07C
100
AcDbEntity
  8
1
  6
Continuous
100
AcDbCircle
 10
227.444824
 20
169.7273099999998
 30
0.0
 40
1.852803999999999
100
AcDbArc
 50
18.56101299999998
 51
90.00000300000001
  0
ARC
  5
B20A
330
B07C
100
AcDbEntity
  8
1
  6
Continuous
100
AcDbCircle
 10
222.2762449999999
 20
167.991806
 30
0.0
 40
7.304966999999997
100
AcDbArc
 50
353.536205
 51
17.966712
  0
ARC
  5
B20B
330
B07C
100
AcDbEntity
  8
1
  6
Continuous
100
AcDbCircle
 10
192.245056
 20
170.224197
 30
0.0
 40
37.37731899999999
100
AcDbArc
 50
340.463209
 51
355.5922009999999
  0
ARC
  5
B20C
330
B07C
100
AcDbEntity
  8
1
  6
Continuous
100
AcDbCircle
 10
225.5704499999999
 20
155.5481719999999
 30
0.0
 40
13.592206
100
AcDbArc
 50
240.3616959999999
 51
299.638299
  0
ARC
  5
B20D
330
B07C
100
AcDbEntity
  8
1
  6
Continuous
100
AcDbCircle
 10
220.5885929999999
 20
146.7921599999999
 30
0.0
 40
3.518145999999997
100
AcDbArc
 50
179.9999909999999
 51
240.361706
  0
ARC
  5
B20E
330
B07C
100
AcDbEntity
  8
1
  6
Continuous
100
AcDbCircle
 10
230.552307
 20
146.7921599999999
 30
0.0
 40
3.518145999999997
100
AcDbArc
 50
299.638299
 51
0.000003
  0
ARC
  5
B20F
330
B07C
100
AcDbEntity
  8
1
  6
Continuous
100
AcDbCircle
 10
232.57045
 20
151.031387
 30
0.0
 40
5.0
100
AcDbArc
 50
339.2068499999998
 51
0.000003
  0
ARC
  5
B210
330
B07C
100
AcDbEntity
  8
1
  6
Continuous
100
AcDbCircle
 10
232.57045
 20
159.71849
 30
0.0
 40
5.0
100
AcDbArc
 50
314.427004
 51
0.000003
  0
ARC
  5
B211
330
B07C
100
AcDbEntity
  8
1
  6
Continuous
100
AcDbCircle
 10
70.20535999999998
 20
149.4469449999997
 30
0.0
 40
5.0
100
AcDbArc
 50
223.087164
 51
244.5124429999999
  0
ARC
  5
B212
330
B07C
100
AcDbEntity
  8
1
  6
Continuous
100
AcDbCircle
 10
68.20536700000001
 20
149.4469449999997
 30
0.0
 40
5.0
100
AcDbArc
 50
223.087164
 51
244.5124429999999
  0
ARC
  5
B213
330
B07C
100
AcDbEntity
  8
1
  6
Continuous
100
AcDbCircle
 10
66.549392
 20
179.7212679999999
 30
0.0
 40
2.0
100
AcDbArc
 50
90.00000300000001
 51
180.000005
  0
ARC
  5
B214
330
B07C
100
AcDbEntity
  8
1
  6
Continuous
100
AcDbCircle
 10
76.54939199999998
 20
155.5481719999999
 30
0.0
 40
13.592206
100
AcDbArc
 50
240.3616959999999
 51
299.6383059999999
  0
ARC
  5
B215
330
B07C
100
AcDbEntity
  8
1
  6
Continuous
100
AcDbCircle
 10
71.56753499999997
 20
146.7921599999999
 30
0.0
 40
3.518145999999997
100
AcDbArc
 50
180.000005
 51
240.361706
  0
ARC
  5
B216
330
B07C
100
AcDbEntity
  8
1
  6
Continuous
100
AcDbCircle
 10
81.531242
 20
146.7921599999999
 30
0.0
 40
3.518145999999997
100
AcDbArc
 50
299.6383059999999
 51
54.25554599999999
  0
ARC
  5
B217
330
B07C
100
AcDbEntity
  8
1
  6
Continuous
100
AcDbCircle
 10
81.531242
 20
148.4368739999998
 30
0.0
 40
3.518145999999997
100
AcDbArc
 50
359.999997
 51
54.25554599999999
  0
ARC
  5
B218
330
B07C
100
AcDbEntity
  8
1
  6
Continuous
100
AcDbCircle
 10
75.04939199999999
 20
172.111801
 30
0.0
 40
13.592206
100
AcDbArc
 50
60.36170099999999
 51
119.638304
  0
ARC
  5
B219
330
B07C
100
AcDbEntity
  8
1
  6
Continuous
100
AcDbCircle
 10
70.06753499999999
 20
180.8678129999999
 30
0.0
 40
3.518145999999997
100
AcDbArc
 50
119.638304
 51
180.000005
  0
ARC
  5
B21A
330
B07C
100
AcDbEntity
  8
1
  6
Continuous
100
AcDbCircle
 10
80.031242
 20
180.8678129999999
 30
0.0
 40
3.518145999999997
100
AcDbArc
 50
359.999997
 51
60.36170099999999
  0
ARC
  5
B21B
330
B07C
100
AcDbEntity
  8
1
  6
Continuous
100
AcDbCircle
 10
75.04939199999999
 20
170.4670869999999
 30
0.0
 40
13.592206
100
AcDbArc
 50
60.36170099999999
 51
119.638304
  0
ARC
  5
B21C
330
B07C
100
AcDbEntity
  8
1
  6
Continuous
100
AcDbCircle
 10
70.06753499999999
 20
179.223099
 30
0.0
 40
3.518145999999997
100
AcDbArc
 50
119.638304
 51
180.000005
  0
ARC
  5
B21D
330
B07C
100
AcDbEntity
  8
1
  6
Continuous
100
AcDbCircle
 10
80.031242
 20
179.223099
 30
0.0
 40
3.518145999999997
100
AcDbArc
 50
309.5937259999999
 51
60.36170099999999
  0
ARC
  5
B21E
330
B07C
100
AcDbEntity
  8
1
  6
Continuous
100
AcDbCircle
 10
109.874778
 20
170.224197
 30
0.0
 40
37.37731899999999
100
AcDbArc
 50
184.407803
 51
191.939919
  0
ARC
  5
B21F
330
B07C
100
AcDbEntity
  8
1
  6
Continuous
100
AcDbCircle
 10
74.67501799999998
 20
168.0825959999999
 30
0.0
 40
1.852803999999999
100
AcDbArc
 50
90.00000300000001
 51
161.4389799999998
  0
ARC
  5
B220
330
B07C
100
AcDbEntity
  8
1
  6
Continuous
100
AcDbCircle
 10
109.8703839999999
 20
168.5934289999998
 30
0.0
 40
37.37731899999999
100
AcDbArc
 50
183.1994469999999
 51
188.1902889999999
  0
ARC
  5
B221
330
B07C
100
AcDbEntity
  8
1
  6
Continuous
100
AcDbCircle
 10
79.84358899999998
 20
166.3470919999998
 30
0.0
 40
7.304966999999997
100
AcDbArc
 50
162.033288
 51
178.741283
  0
ARC
  5
B222
330
B07C
100
AcDbEntity
  8
1
  6
Continuous
100
AcDbCircle
 10
172.282522
 20
80.562921
 30
0.0
 40
2.0
100
AcDbArc
 50
269.9999969999999
 51
3.561938999999998
  0
ARC
  5
B223
330
B07C
100
AcDbEntity
  8
1
  6
Continuous
100
AcDbCircle
 10
169.049505
 20
89.06292099999998
 30
0.0
 40
9.851650999999996
100
AcDbArc
 50
320.5673269999998
 51
39.432673
  0
ARC
  5
B224
330
B07C
100
AcDbEntity
  8
1
  6
Continuous
100
AcDbCircle
 10
171.9110619999999
 20
91.41616199999999
 30
0.0
 40
6.146760999999997
100
AcDbArc
 50
39.432673
 51
128.2840799999999
  0
ARC
  5
B225
330
B07C
100
AcDbEntity
  8
1
  6
Continuous
100
AcDbCircle
 10
171.9110619999999
 20
86.70968
 30
0.0
 40
6.146760999999997
100
AcDbArc
 50
269.9999969999999
 51
320.5673269999998
  0
ARC
  5
B226
330
B07C
100
AcDbEntity
  8
1
  6
Continuous
100
AcDbCircle
 10
170.187429
 20
89.06292099999998
 30
0.0
 40
9.851650999999996
100
AcDbArc
 50
320.5673269999998
 51
39.432673
  0
ARC
  5
B227
330
B07C
100
AcDbEntity
  8
1
  6
Continuous
100
AcDbCircle
 10
173.048986
 20
91.41616199999999
 30
0.0
 40
6.146760999999997
100
AcDbArc
 50
39.432673
 51
95.31106200000001
  0
ARC
  5
B228
330
B07C
100
AcDbEntity
  8
1
  6
Continuous
100
AcDbCircle
 10
173.048986
 20
86.70968
 30
0.0
 40
6.146760999999997
100
AcDbArc
 50
269.9999969999999
 51
320.5673269999998
  0
ARC
  5
B229
330
B07C
100
AcDbEntity
  8
1
  6
Continuous
100
AcDbCircle
 10
127.8979399999998
 20
87.56292100000001
 30
0.0
 40
9.851650999999996
100
AcDbArc
 50
140.567329
 51
219.432668
  0
ARC
  5
B22A
330
B07C
100
AcDbEntity
  8
1
  6
Continuous
100
AcDbCircle
 10
125.0363829999999
 20
89.91616200000001
 30
0.0
 40
6.146760999999997
100
AcDbArc
 50
51.71595599999999
 51
140.567329
  0
ARC
  5
B22B
330
B07C
100
AcDbEntity
  8
1
  6
Continuous
100
AcDbCircle
 10
125.0363829999999
 20
85.20968000000001
 30
0.0
 40
6.146760999999997
100
AcDbArc
 50
219.4326709999999
 51
269.9999969999999
  0
ARC
  5
B22C
330
B07C
100
AcDbEntity
  8
1
  6
Continuous
100
AcDbCircle
 10
126.174307
 20
89.91616200000001
 30
0.0
 40
6.146760999999997
100
AcDbArc
 50
51.718104
 51
95.31106200000001
  0
ARC
  5
B22D
330
B07C
100
AcDbEntity
  8
1
  6
Continuous
100
AcDbCircle
 10
152.328115
 20
125.29326
 30
0.0
 40
40.086208
100
AcDbArc
 50
251.079861
 51
255.1580959999999
  0
ARC
  5
B22E
330
B07C
100
AcDbEntity
  8
1
  6
Continuous
100
AcDbCircle
 10
152.1602839999999
 20
96.46750799999999
 30
0.0
 40
11.251592
100
AcDbArc
 50
274.349441
 51
304.2125069999999
  0
ARC
  5
B22F
330
B07C
100
AcDbEntity
  8
1
  6
Continuous
100
AcDbCircle
 10
151.190832
 20
125.293062
 30
0.0
 40
40.086208
100
AcDbArc
 50
251.079861
 51
256.8334849999998
  0
ARC
  5
B230
330
B07C
100
AcDbEntity
  8
1
  6
Continuous
100
AcDbCircle
 10
155.8078209999998
 20
77.562921
 30
0.0
 40
1.0
100
AcDbArc
 50
90.00000300000001
 51
131.8883849999997
  0
ARC
  5
B231
330
B07C
100
AcDbEntity
  8
1
  6
Continuous
100
AcDbCircle
 10
152.9871269999999
 20
79.062921
 30
0.0
 40
2.0
100
AcDbArc
 50
269.9999969999999
 51
311.88839
  0
ARC
  5
B232
330
B07C
100
AcDbEntity
  8
1
  6
Continuous
100
AcDbCircle
 10
156.190573
 20
78.562921
 30
0.0
 40
2.0
100
AcDbArc
 50
90.00000300000001
 51
131.8883849999997
  0
ARC
  5
B233
330
B07C
100
AcDbEntity
  8
1
  6
Continuous
100
AcDbCircle
 10
153.3698629999999
 20
80.06292100000001
 30
0.0
 40
1.0
100
AcDbArc
 50
269.9999969999999
 51
311.88839
  0
ARC
  5
B234
330
B07C
100
AcDbEntity
  8
1
  6
Continuous
100
AcDbCircle
 10
158.454534
 20
79.062921
 30
0.0
 40
2.0
100
AcDbArc
 50
269.9999969999999
 51
328.5124009999999
  0
ARC
  5
B235
330
B07C
100
AcDbEntity
  8
1
  6
Continuous
100
AcDbCircle
 10
163.4314779999999
 20
76.81325699999998
 30
0.0
 40
1.0
100
AcDbArc
 50
233.109907
 51
306.8900919999998
  0
ARC
  5
B236
330
B07C
100
AcDbEntity
  8
1
  6
Continuous
100
AcDbCircle
 10
145.059921
 20
158.0734459999999
 30
0.0
 40
16.0
100
AcDbArc
 50
355.460853
 51
30.907135
  0
ARC
  5
B237
330
B07C
100
AcDbEntity
  8
1
  6
Continuous
100
AcDbCircle
 10
145.059921
 20
158.0734459999999
 30
0.0
 40
16.0
100
AcDbArc
 50
163.9974559999998
 51
306.646558
  0
ARC
  5
B238
330
B07C
100
AcDbEntity
  8
1
  6
Continuous
100
AcDbCircle
 10
145.059921
 20
158.0734459999999
 30
0.0
 40
25.0
100
AcDbArc
 50
343.984927
 51
41.672688
  0
ARC
  5
B239
330
B07C
100
AcDbEntity
  8
1
  6
Continuous
100
AcDbCircle
 10
145.059921
 20
158.0734459999999
 30
0.0
 40
25.0
100
AcDbArc
 50
148.094612
 51
322.5494019999998
  0
ARC
  5
B23A
330
B07C
100
AcDbEntity
  8
1
  6
Continuous
100
AcDbCircle
 10
145.059921
 20
158.0734459999999
 30
0.0
 40
32.5
100
AcDbArc
 50
339.5720329999998
 51
45.88412799999999
  0
ARC
  5
B23B
330
B07C
100
AcDbEntity
  8
1
  6
Continuous
100
AcDbCircle
 10
145.059921
 20
158.0734459999999
 30
0.0
 40
32.5
100
AcDbArc
 50
134.683297
 51
335.960668
  0
LINE
  5
B23C
330
B07C
100
AcDbEntity
  8
1
  6
Continuous
100
AcDbLine
 10
153.752587
 20
146.0313689999999
 30
0.0
 11
159.594445
 21
154.475018
 31
0.0
  0
LINE
  5
B23D
330
B07C
100
AcDbEntity
  8
1
  6
Continuous
100
AcDbLine
 10
155.425057
 20
144.9335299999999
 30
0.0
 11
161.239175
 21
153.337079
 31
0.0
  0
LINE
  5
B23E
330
B07C
100
AcDbEntity
  8
1
  6
Continuous
100
AcDbLine
 10
161.5924609999999
 20
156.363233
 30
0.0
 11
180.0390399999997
 21
143.6006899999999
 31
0.0
  0
LINE
  5
B23F
330
B07C
100
AcDbEntity
  8
1
  6
Continuous
100
AcDbLine
 10
160.454522
 20
154.7184879999998
 30
0.0
 11
178.901101
 21
141.9559449999999
 31
0.0
  0
ARC
  5
B240
330
B07C
100
AcDbEntity
  8
1
  6
Continuous
100
AcDbCircle
 10
149.888192
 20
165.052075
 30
0.0
 40
18.48607099999998
100
AcDbArc
 50
195.856484
 51
274.787523
  0
LINE
  5
B241
330
B07C
100
AcDbEntity
  8
1
  6
Continuous
100
AcDbLine
 10
159.178109
 20
146.301907
 30
0.0
 11
167.897607
 21
146.6554689999999
 31
0.0
  0
LINE
  5
B242
330
B07C
100
AcDbEntity
  8
1
  6
Continuous
100
AcDbLine
 10
159.0565729999999
 20
149.2994359999999
 30
0.0
 11
167.776055
 21
149.6530119999999
 31
0.0
  0
ARC
  5
B243
330
B07C
100
AcDbEntity
  8
1
  6
Continuous
100
AcDbCircle
 10
168.067834
 20
180.238049
 30
0.0
 40
37.49999199999999
100
AcDbArc
 50
243.66315
 51
274.5001359999998
  0
LINE
  5
B244
330
B07C
100
AcDbEntity
  8
1
  6
Continuous
100
AcDbLine
 10
159.4343959999999
 20
148.949597
 30
0.0
 11
159.5263909999999
 21
146.680768
 31
0.0
  0
LINE
  5
B245
330
B07C
100
AcDbEntity
  8
1
  6
Continuous
100
AcDbLine
 10
163.416329
 20
149.476224
 30
0.0
 11
163.5378809999999
 21
146.4786809999999
 31
0.0
  0
LINE
  5
B246
330
B07C
100
AcDbEntity
  8
1
  6
Continuous
100
AcDbLine
 10
167.4285209999998
 20
149.2563899999999
 30
0.0
 11
167.5212329999999
 21
146.9702419999999
 31
0.0
  0
LINE
  5
B247
330
B07C
100
AcDbEntity
  8
1
  6
Continuous
100
AcDbLine
 10
178.901208
 20
141.9559139999998
 30
0.0
 11
180.0391319999999
 21
143.6006439999998
 31
0.0
  0
LINE
  5
B248
330
B07C
100
AcDbEntity
  8
1
  6
Continuous
100
AcDbLine
 10
173.144555
 20
145.938702
 30
0.0
 11
171.0101399999998
 21
142.8536649999998
 31
0.0
  0
LINE
  5
B249
330
B07C
100
AcDbEntity
  8
1
  6
Continuous
100
AcDbLine
 10
118.0462879999997
 20
184.059277
 30
0.0
 11
136.492852
 21
171.2967499999997
 31
0.0
  0
LINE
  5
B24A
330
B07C
100
AcDbEntity
  8
1
  6
Continuous
100
AcDbLine
 10
119.1842129999999
 20
185.704007
 30
0.0
 11
137.6307759999999
 21
172.9414639999999
 31
0.0
  0
ARC
  5
B24B
330
B07C
100
AcDbEntity
  8
1
  6
Continuous
100
AcDbCircle
 10
157.689629
 20
187.418363
 30
0.0
 40
37.49999199999999
100
AcDbArc
 50
196.143844
 51
226.980864
  0
LINE
  5
B24C
330
B07C
100
AcDbEntity
  8
1
  6
Continuous
100
AcDbLine
 10
123.802819
 20
180.0765349999998
 30
0.0
 11
121.6683889999998
 21
176.991498
 31
0.0
  0
LINE
  5
B24D
330
B07C
100
AcDbEntity
  8
1
  6
Continuous
100
AcDbLine
 10
118.0462879999997
 20
184.059277
 30
0.0
 11
119.1842129999999
 21
185.704022
 31
0.0
  0
ARC
  5
B24E
330
B07C
100
AcDbEntity
  8
1
  6
Continuous
100
AcDbCircle
 10
140.2059559999998
 20
151.05766
 30
0.0
 40
18.53125
100
AcDbArc
 50
24.616449
 51
86.027564
  0
ARC
  5
B24F
330
B07C
100
AcDbEntity
  8
1
  6
Continuous
100
AcDbCircle
 10
140.2059559999998
 20
151.05766
 30
0.0
 40
20.53125
100
AcDbArc
 50
24.616449
 51
86.027564
  0
LINE
  5
B250
330
B07C
100
AcDbEntity
  8
1
  6
Continuous
100
AcDbLine
 10
133.917886
 20
173.0782749999999
 30
0.0
 11
132.2110069999999
 21
170.6112029999999
 31
0.0
  0
ARC
  5
B251
330
B07C
100
AcDbEntity
  8
1
  6
Continuous
100
AcDbCircle
 10
142.1825039999999
 20
179.520368
 30
0.0
 40
10.0
100
AcDbArc
 50
235.3220140000001
 51
266.0275529999998
  0
ARC
  5
B252
330
B07C
100
AcDbEntity
  8
1
  6
Continuous
100
AcDbCircle
 10
142.1825039999999
 20
179.520368
 30
0.0
 40
8.0
100
AcDbArc
 50
235.3220140000001
 51
266.0275529999998
  0
LINE
  5
B253
330
B07C
100
AcDbEntity
  8
1
  6
Continuous
100
AcDbLine
 10
137.2073139999999
 20
170.8024409999999
 30
0.0
 11
135.5004199999999
 21
168.3353699999998
 31
0.0
  0
LINE
  5
B254
330
B07C
100
AcDbEntity
  8
1
  6
Continuous
100
AcDbLine
 10
132.2110069999999
 20
170.6112029999999
 30
0.0
 11
135.500451
 21
168.3353549999999
 31
0.0
  0
ARC
  5
B255
330
B07C
100
AcDbEntity
  8
1
  6
Continuous
100
AcDbCircle
 10
166.1441889999998
 20
162.942136
 30
0.0
 40
8.0
100
AcDbArc
 50
204.6164339999999
 51
235.3220140000001
  0
ARC
  5
B256
330
B07C
100
AcDbEntity
  8
1
  6
Continuous
100
AcDbCircle
 10
166.1441889999998
 20
162.942136
 30
0.0
 40
10.0
100
AcDbArc
 50
204.6164339999999
 51
235.3220140000001
  0
ARC
  5
B257
330
B07C
100
AcDbEntity
  8
1
  6
Continuous
100
AcDbCircle
 10
169.059921
 20
62.07345
 30
0.0
 40
17.0
100
AcDbArc
 50
117.268177
 51
124.347699
  0
LINE
  5
B258
330
B07C
100
AcDbEntity
  8
1
  6
Continuous
100
AcDbLine
 10
68.04939199999998
 20
151.8234459999999
 30
0.0
 11
68.04939199999998
 21
164.3234459999999
 31
0.0
  0
ARC
  5
B259
330
B07C
100
AcDbEntity
  8
1
  6
Continuous
100
AcDbCircle
 10
333.160185
 20
158.003781
 30
0.0
 40
1.600041
100
AcDbArc
 50
41.41151599999999
 51
177.504568
  0
ARC
  5
B25A
330
B07C
100
AcDbEntity
  8
1
  6
Continuous
100
AcDbCircle
 10
344.0599209999998
 20
158.0734459999999
 30
0.0
 40
9.75
100
AcDbArc
 50
174.179899
 51
229.03966
  0
ARC
  5
B25B
330
B07C
100
AcDbEntity
  8
1
  6
Continuous
100
AcDbCircle
 10
344.0599209999998
 20
158.0734459999999
 30
0.0
 40
10.84999999999999
100
AcDbArc
 50
171.9327209999999
 51
229.03966
  0
ARC
  5
B25C
330
B07C
100
AcDbEntity
  8
1
  6
Continuous
100
AcDbCircle
 10
344.0599209999998
 20
158.0734459999999
 30
0.0
 40
10.84999999999999
100
AcDbArc
 50
344.307317
 51
36.187339
  0
ARC
  5
B25D
330
B07C
100
AcDbEntity
  8
1
  6
Continuous
100
AcDbCircle
 10
344.0599209999998
 20
158.0734459999999
 30
0.0
 40
9.75
100
AcDbArc
 50
344.307317
 51
34.83975
  0
ARC
  5
B25E
330
B07C
100
AcDbEntity
  8
1
  6
Continuous
100
AcDbCircle
 10
344.0599209999998
 20
158.0734459999999
 30
0.0
 40
12.5
100
AcDbArc
 50
158.285605
 51
55.533673
  0
LINE
  5
B25F
330
B07C
100
AcDbEntity
  8
1
  6
Continuous
100
AcDbLine
 10
66.549392
 20
156.202617
 30
0.0
 11
68.04939199999998
 21
154.3234459999998
 31
0.0
  0
ARC
  5
B260
330
B07C
100
AcDbEntity
  8
1
  6
Continuous
100
AcDbCircle
 10
63.778559
 20
151.8234459999999
 30
0.0
 40
4.270832999999997
100
AcDbArc
 50
310.449719
 51
0.0
  0
ARC
  5
B261
330
B07C
100
AcDbEntity
  8
1
  6
Continuous
100
AcDbCircle
 10
344.0599209999998
 20
158.0734459999999
 30
0.0
 40
10.84999999999999
100
AcDbArc
 50
241.7451310000001
 51
335.042525
  0
ARC
  5
B262
330
B07C
100
AcDbEntity
  8
1
  6
Continuous
100
AcDbCircle
 10
335.783633
 20
150.827547
 30
0.0
 40
1.5
100
AcDbArc
 50
221.2021799999999
 51
319.0396600000001
  0
LINE
  5
B263
330
B07C
100
AcDbEntity
  8
1
  6
Continuous
100
AcDbLine
 10
336.9163779999999
 20
149.8442419999998
 30
0.0
 11
338.8604919999999
 21
152.083819
 31
0.0
  0
ARC
  5
B264
330
B07C
100
AcDbEntity
  8
1
  6
Continuous
100
AcDbCircle
 10
354.9567039999999
 20
156.5700749999997
 30
0.0
 40
1.5
100
AcDbArc
 50
254.3073169999999
 51
352.144797
  0
ARC
  5
B265
330
B07C
100
AcDbEntity
  8
1
  6
Continuous
100
AcDbCircle
 10
353.0531439999998
 20
157.624238
 30
0.0
 40
2.0
100
AcDbArc
 50
234.19306
 51
254.3073169999999
  0
LINE
  5
B266
330
B07C
100
AcDbEntity
  8
1
  6
Continuous
100
AcDbLine
 10
352.5121889999998
 20
155.6987849999998
 30
0.0
 11
354.5509879999999
 21
155.125986
 31
0.0
  0
ARC
  5
B267
330
B07C
100
AcDbEntity
  8
1
  6
Continuous
100
AcDbCircle
 10
63.778559
 20
164.3234459999999
 30
0.0
 40
4.270832999999997
100
AcDbArc
 50
310.449719
 51
49.55028099999999
  0
LINE
  5
B268
330
B07C
100
AcDbEntity
  8
1
  6
Continuous
100
AcDbLine
 10
66.549392
 20
160.0011929999998
 30
0.0
 11
68.04939199999998
 21
161.823446
 31
0.0
  0
ARC
  5
B269
330
B07C
100
AcDbEntity
  8
1
  6
Continuous
100
AcDbCircle
 10
145.059921
 20
76.292088
 30
0.0
 40
4.270832999999997
100
AcDbArc
 50
40.449719
 51
139.550281
  0
ARC
  5
B26A
330
B07C
100
AcDbEntity
  8
1
  6
Continuous
100
AcDbCircle
 10
353.7664259999999
 20
163.318412
 30
0.0
 40
1.5
100
AcDbArc
 50
41.20218
 51
139.03966
  0
LINE
  5
B26B
330
B07C
100
AcDbEntity
  8
1
  6
Continuous
100
AcDbLine
 10
352.633681
 20
164.301717
 30
0.0
 11
351.579721
 21
163.087578
 31
0.0
  0
LINE
  5
B26C
330
B07C
100
AcDbEntity
  8
1
  6
Continuous
100
AcDbLine
 10
68.046757
 20
164.473446
 30
0.0
 11
69.049392
 21
164.473446
 31
0.0
  0
LINE
  5
B26D
330
B07C
100
AcDbEntity
  8
1
  6
Continuous
100
AcDbLine
 10
68.046757
 20
151.6734459999999
 30
0.0
 11
69.049392
 21
151.6734459999999
 31
0.0
  0
LINE
  5
B26E
330
B07C
100
AcDbEntity
  8
1
  6
Continuous
100
AcDbLine
 10
69.049392
 20
151.6734459999999
 30
0.0
 11
69.049392
 21
164.473446
 31
0.0
  0
LINE
  5
B26F
330
B07C
100
AcDbEntity
  8
1
  6
Continuous
100
AcDbLine
 10
68.04939199999998
 20
161.0734459999999
 30
0.0
 11
67.432024
 21
161.0734459999999
 31
0.0
  0
LINE
  5
B270
330
B07C
100
AcDbEntity
  8
2
  6
Continuous
100
AcDbLine
 10
68.09089200000001
 20
160.531946
 30
0.0
 11
66.98628499999999
 21
160.531946
 31
0.0
  0
LINE
  5
B271
330
B07C
100
AcDbEntity
  8
2
  6
Continuous
100
AcDbLine
 10
68.09089200000001
 20
155.614946
 30
0.0
 11
67.01848599999999
 21
155.614946
 31
0.0
  0
LINE
  5
B272
330
B07C
100
AcDbEntity
  8
1
  6
Continuous
100
AcDbLine
 10
68.04939199999998
 20
155.0734459999999
 30
0.0
 11
67.45072399999999
 21
155.0734459999999
 31
0.0
  0
LINE
  5
B273
330
B07C
100
AcDbEntity
  8
1
  6
Continuous
100
AcDbLine
 10
138.6599209999999
 20
81.56292099999998
 30
0.0
 11
151.459921
 21
81.56292099999998
 31
0.0
  0
LINE
  5
B274
330
B07C
100
AcDbEntity
  8
1
  6
Continuous
100
AcDbLine
 10
138.6599209999999
 20
81.56292099999998
 30
0.0
 11
138.6599209999999
 21
80.562921
 31
0.0
  0
LINE
  5
B275
330
B07C
100
AcDbEntity
  8
1
  6
Continuous
100
AcDbLine
 10
151.459921
 20
81.56292099999998
 30
0.0
 11
151.459921
 21
80.562921
 31
0.0
  0
LINE
  5
B276
330
B07C
100
AcDbEntity
  8
1
  6
Continuous
100
AcDbLine
 10
138.6599209999999
 20
80.562921
 30
0.0
 11
151.459921
 21
80.562921
 31
0.0
  0
ARC
  5
B277
330
B07C
100
AcDbEntity
  8
1
  6
Continuous
100
AcDbCircle
 10
152.328115
 20
125.29326
 30
0.0
 40
40.086208
100
AcDbArc
 50
266.7563059999998
 51
269.1968699999999
  0
ARC
  5
B278
330
B07C
100
AcDbEntity
  8
1
  6
Continuous
100
AcDbCircle
 10
151.190832
 20
125.293062
 30
0.0
 40
40.086208
100
AcDbArc
 50
268.3833589999999
 51
272.6062059999998
  0
LINE
  5
B279
330
B07C
100
AcDbEntity
  8
2
  6
Continuous
100
AcDbLine
 10
147.5184209999999
 20
80.562921
 30
0.0
 11
147.5184209999999
 21
79.784335
 31
0.0
  0
LINE
  5
B27A
330
B07C
100
AcDbEntity
  8
1
  6
Continuous
100
AcDbLine
 10
148.059921
 20
80.562921
 30
0.0
 11
148.059921
 21
79.331827
 31
0.0
  0
LINE
  5
B27B
330
B07C
100
AcDbEntity
  8
2
  6
Continuous
100
AcDbLine
 10
142.6014209999999
 20
80.562921
 30
0.0
 11
142.6014209999999
 21
79.784335
 31
0.0
  0
LINE
  5
B27C
330
B07C
100
AcDbEntity
  8
1
  6
Continuous
100
AcDbLine
 10
142.0599209999998
 20
80.562921
 30
0.0
 11
142.0599209999998
 21
79.331827
 31
0.0
  0
LINE
  5
B27D
330
B07C
100
AcDbEntity
  8
1
  6
Continuous
100
AcDbLine
 10
63.498855
 20
149.3393879999999
 30
0.0
 11
64.549392
 21
149.3393879999999
 31
0.0
  0
LINE
  5
B27E
330
B07C
100
AcDbEntity
  8
1
  6
Continuous
100
AcDbLine
 10
63.498855
 20
147.053255
 30
0.0
 11
64.549392
 21
147.053255
 31
0.0
  0
LINE
  5
B27F
330
B07C
100
AcDbEntity
  8
1
  6
Continuous
100
AcDbLine
 10
63.498855
 20
147.053255
 30
0.0
 11
63.498855
 21
149.3393879999999
 31
0.0
  0
LINE
  5
B280
330
B07C
100
AcDbEntity
  8
1
  6
Continuous
100
AcDbLine
 10
62.049392
 20
172.4860429999999
 30
0.0
 11
62.049392
 21
174.7229679999999
 31
0.0
  0
LINE
  5
B281
330
B07C
100
AcDbEntity
  8
1
  6
Continuous
100
AcDbLine
 10
64.549392
 20
172.4860429999999
 30
0.0
 11
62.049392
 21
172.4860429999999
 31
0.0
  0
LINE
  5
B282
330
B07C
100
AcDbEntity
  8
1
  6
Continuous
100
AcDbLine
 10
64.549392
 20
174.1307609999998
 30
0.0
 11
62.049392
 21
174.1307609999998
 31
0.0
  0
LINE
  5
B283
330
B07C
100
AcDbEntity
  8
1
  6
Continuous
100
AcDbLine
 10
64.549392
 20
174.7229679999999
 30
0.0
 11
62.049392
 21
174.7229679999999
 31
0.0
  0
LINE
  5
B284
330
B07C
100
AcDbEntity
  8
1
  6
Continuous
100
AcDbLine
 10
62.549385
 20
174.7229679999999
 30
0.0
 11
62.549385
 21
194.5498659999999
 31
0.0
  0
LINE
  5
B285
330
B07C
100
AcDbEntity
  8
1
  6
Continuous
100
AcDbLine
 10
263.5493849999999
 20
174.0734459999999
 30
0.0
 11
263.5493849999999
 21
142.073446
 31
0.0
  0
LINE
  5
B286
330
B07C
100
AcDbEntity
  8
1
  6
Continuous
100
AcDbLine
 10
38.570457
 20
174.0734459999999
 30
0.0
 11
38.570457
 21
142.073446
 31
0.0
  0
ARC
  5
B287
330
B07C
100
AcDbEntity
  8
1
  6
Continuous
100
AcDbCircle
 10
3.662391999999998
 20
160.720707
 30
0.0
 40
31.40807999999999
100
AcDbArc
 50
351.8721339999999
 51
8.127865999999999
  0
ARC
  5
B288
330
B07C
100
AcDbEntity
  8
1
  6
Continuous
100
AcDbCircle
 10
266.351352
 20
150.8442419999998
 30
0.0
 40
1.0
100
AcDbArc
 50
270.0
 51
8.910088999999997
  0
ARC
  5
B289
330
B07C
100
AcDbEntity
  8
1
  6
Continuous
100
AcDbCircle
 10
266.351352
 20
158.59609
 30
0.0
 40
1.0
100
AcDbArc
 50
351.0899109999999
 51
90.0
  0
ARC
  5
B28A
330
B07C
100
AcDbEntity
  8
1
  6
Continuous
100
AcDbCircle
 10
291.074002
 20
154.7201659999998
 30
0.0
 40
24.024632
100
AcDbArc
 50
171.0899109999997
 51
188.9100889999998
  0
LINE
  5
B28B
330
B07C
100
AcDbEntity
  8
1
  6
Continuous
100
AcDbLine
 10
266.351352
 20
149.8442419999998
 30
0.0
 11
263.5493849999999
 21
149.8442419999998
 31
0.0
  0
LINE
  5
B28C
330
B07C
100
AcDbEntity
  8
1
  6
Continuous
100
AcDbLine
 10
266.351352
 20
159.59609
 30
0.0
 11
263.5493849999999
 21
159.59609
 31
0.0
  0
ARC
  5
B28D
330
B07C
100
AcDbEntity
  8
1
  6
Continuous
100
AcDbCircle
 10
263.040399
 20
148.2275199999999
 30
0.0
 40
2.702439
100
AcDbArc
 50
280.856116
 51
338.1891459999998
  0
LINE
  5
B28E
330
B07C
100
AcDbEntity
  8
1
  6
Continuous
100
AcDbLine
 10
265.5493849999999
 20
147.2234459999999
 30
0.0
 11
265.5493849999999
 21
149.8442419999998
 31
0.0
  0
LINE
  5
B28F
330
B07C
100
AcDbEntity
  8
1
  6
Continuous
100
AcDbLine
 10
263.5493849999999
 20
142.073446
 30
0.0
 11
263.0599209999999
 21
142.073446
 31
0.0
  0
LINE
  5
B290
330
B07C
100
AcDbEntity
  8
1
  6
Continuous
100
AcDbLine
 10
36.57045699999999
 20
147.2234459999999
 30
0.0
 11
36.57045699999999
 21
155.1387649999998
 31
0.0
  0
ARC
  5
B291
330
B07C
100
AcDbEntity
  8
1
  6
Continuous
100
AcDbCircle
 10
39.079443
 20
148.2275199999999
 30
0.0
 40
2.702439
100
AcDbArc
 50
201.8108539999999
 51
259.1438839999999
  0
LINE
  5
B292
330
B07C
100
AcDbEntity
  8
1
  6
Continuous
100
AcDbLine
 10
38.570457
 20
142.073446
 30
0.0
 11
39.059921
 21
142.073446
 31
0.0
  0
LINE
  5
B293
330
B07C
100
AcDbEntity
  8
1
  6
Continuous
100
AcDbLine
 10
38.570457
 20
155.1387649999998
 30
0.0
 11
35.74493300000001
 21
155.1387649999998
 31
0.0
  0
ARC
  5
B294
330
B07C
100
AcDbEntity
  8
1
  6
Continuous
100
AcDbCircle
 10
35.74493300000001
 20
156.1387649999998
 30
0.0
 40
1.0
100
AcDbArc
 50
171.8721339999999
 51
270.0
  0
ARC
  5
B295
330
B07C
100
AcDbEntity
  8
1
  6
Continuous
100
AcDbCircle
 10
263.040399
 20
167.919372
 30
0.0
 40
2.702439
100
AcDbArc
 50
21.810854
 51
79.14388399999999
  0
LINE
  5
B296
330
B07C
100
AcDbEntity
  8
1
  6
Continuous
100
AcDbLine
 10
263.5493849999999
 20
174.0734459999999
 30
0.0
 11
263.0599209999999
 21
174.0734459999999
 31
0.0
  0
LINE
  5
B297
330
B07C
100
AcDbEntity
  8
1
  6
Continuous
100
AcDbLine
 10
38.570457
 20
174.0734459999999
 30
0.0
 11
39.059921
 21
174.0734459999999
 31
0.0
  0
ARC
  5
B298
330
B07C
100
AcDbEntity
  8
1
  6
Continuous
100
AcDbCircle
 10
39.079443
 20
167.919372
 30
0.0
 40
2.702439
100
AcDbArc
 50
100.8561159999999
 51
158.189146
  0
LINE
  5
B299
330
B07C
100
AcDbEntity
  8
1
  6
Continuous
100
AcDbLine
 10
38.570457
 20
166.3026499999998
 30
0.0
 11
35.74493300000001
 21
166.3026499999998
 31
0.0
  0
ARC
  5
B29A
330
B07C
100
AcDbEntity
  8
1
  6
Continuous
100
AcDbCircle
 10
35.74493300000001
 20
165.3026499999997
 30
0.0
 40
1.0
100
AcDbArc
 50
90.0
 51
188.1278659999999
  0
LINE
  5
B29B
330
B07C
100
AcDbEntity
  8
1
  6
Continuous
100
AcDbLine
 10
36.57045699999999
 20
166.3026499999998
 30
0.0
 11
36.57045699999999
 21
194.5498659999999
 31
0.0
  0
LINE
  5
B29C
330
B07C
100
AcDbEntity
  8
1
  6
Continuous
100
AcDbLine
 10
265.5493849999999
 20
159.59609
 30
0.0
 11
265.5493849999999
 21
194.32992
 31
0.0
  0
LINE
  5
B29D
330
B07C
100
AcDbEntity
  8
1
  6
Continuous
100
AcDbLine
 10
161.059921
 20
51.08398600000001
 30
0.0
 11
129.059921
 21
51.08398600000001
 31
0.0
  0
LINE
  5
B29E
330
B07C
100
AcDbEntity
  8
1
  6
Continuous
100
AcDbLine
 10
129.059921
 20
51.08398600000001
 30
0.0
 11
129.059921
 21
51.57345
 31
0.0
  0
LINE
  5
B29F
330
B07C
100
AcDbEntity
  8
1
  6
Continuous
100
AcDbLine
 10
161.059921
 20
51.08398600000001
 30
0.0
 11
161.059921
 21
51.57345
 31
0.0
  0
LINE
  5
B2A0
330
B07C
100
AcDbEntity
  8
1
  6
Continuous
100
AcDbLine
 10
152.114618
 20
49.08398599999999
 30
0.0
 11
136.863175
 21
49.08398599999999
 31
0.0
  0
ARC
  5
B2A1
330
B07C
100
AcDbEntity
  8
5
  6
PHANTOM
100
AcDbCircle
 10
116.01608
 20
283.8294709999999
 30
0.0
 40
7.024133999999999
100
AcDbArc
 50
221.751726
 51
270.0
  0
ARC
  5
B2A2
330
B07C
100
AcDbEntity
  8
5
  6
PHANTOM
100
AcDbCircle
 10
117.669548
 20
285.3053369999999
 30
0.0
 40
9.240467999999998
100
AcDbArc
 50
138.248274
 51
221.751726
  0
ARC
  5
B2A3
330
B07C
100
AcDbEntity
  8
5
  6
PHANTOM
100
AcDbCircle
 10
116.01608
 20
286.7812029999999
 30
0.0
 40
7.024133999999999
100
AcDbArc
 50
90.0
 51
138.248274
  0
ARC
  5
B2A4
330
B07C
100
AcDbEntity
  8
5
  6
PHANTOM
100
AcDbCircle
 10
117.65651
 20
87.548726
 30
0.0
 40
9.240467999999998
100
AcDbArc
 50
138.160324
 51
221.6637759999999
  0
ARC
  5
B2A5
330
B07C
100
AcDbEntity
  8
5
  6
PHANTOM
100
AcDbCircle
 10
116.005309
 20
89.02712800000001
 30
0.0
 40
7.024133999999999
100
AcDbArc
 50
89.91204999999999
 51
138.160324
  0
ARC
  5
B2A6
330
B07C
100
AcDbEntity
  8
5
  6
PHANTOM
100
AcDbCircle
 10
116.0007779999999
 20
86.0754
 30
0.0
 40
7.024133999999999
100
AcDbArc
 50
221.6637759999999
 51
269.91205
  0
LINE
  5
B2A7
330
B07C
100
AcDbEntity
  8
5
  6
PHANTOM
100
AcDbLine
 10
318.258644
 20
177.835634
 30
0.0
 11
313.743822
 21
180.117344
 31
0.0
  0
LINE
  5
B2A8
330
B07C
100
AcDbEntity
  8
5
  6
PHANTOM
100
AcDbLine
 10
319.554669
 20
179.421575
 30
0.0
 11
314.6459389999999
 21
181.902359
 31
0.0
  0
LINE
  5
B2A9
330
B07C
100
AcDbEntity
  8
5
  6
PHANTOM
100
AcDbLine
 10
313.7437450000001
 20
180.1174239999998
 30
0.0
 11
314.6458549999998
 21
181.9024179999999
 31
0.0
  0
LINE
  5
B2AA
330
B07C
100
AcDbEntity
  8
1
  6
Continuous
100
AcDbLine
 10
314.378775
 20
144.834127
 30
0.0
 11
310.218741
 21
141.9559449999999
 31
0.0
  0
LINE
  5
B2AB
330
B07C
100
AcDbEntity
  8
1
  6
Continuous
100
AcDbLine
 10
313.60379
 20
146.7299869999999
 30
0.0
 11
309.080802
 21
143.6006899999999
 31
0.0
  0
LINE
  5
B2AC
330
B07C
100
AcDbEntity
  8
1
  6
Continuous
100
AcDbLine
 10
310.218634
 20
141.9559139999998
 30
0.0
 11
309.08071
 21
143.6006439999998
 31
0.0
  0
LINE
  5
B2AD
330
B07C
100
AcDbEntity
  8
5
  6
PHANTOM
100
AcDbLine
 10
380.690749
 20
148.524486
 30
0.0
 11
375.7820099999999
 21
151.005272
 31
0.0
  0
LINE
  5
B2AE
330
B07C
100
AcDbEntity
  8
5
  6
PHANTOM
100
AcDbLine
 10
379.7886389999999
 20
146.7394919999998
 30
0.0
 11
375.2738109999999
 21
149.021205
 31
0.0
  0
LINE
  5
B2AF
330
B07C
100
AcDbEntity
  8
5
  6
PHANTOM
100
AcDbLine
 10
379.7886389999999
 20
146.7394919999998
 30
0.0
 11
380.6907629999998
 21
148.524493
 31
0.0
  0
LINE
  5
B2B0
330
B07C
100
AcDbEntity
  8
1
  6
Continuous
100
AcDbLine
 10
369.93563
 20
185.704007
 30
0.0
 11
365.412635
 21
182.574703
 31
0.0
  0
LINE
  5
B2B1
330
B07C
100
AcDbEntity
  8
1
  6
Continuous
100
AcDbLine
 10
371.0735539999998
 20
184.059277
 30
0.0
 11
366.913514
 21
181.181092
 31
0.0
  0
LINE
  5
B2B2
330
B07C
100
AcDbEntity
  8
1
  6
Continuous
100
AcDbLine
 10
371.0735539999998
 20
184.059277
 30
0.0
 11
369.93563
 21
185.704022
 31
0.0
  0
ARC
  5
B2B3
330
B07C
100
AcDbEntity
  8
1
  6
Continuous
100
AcDbCircle
 10
145.059921
 20
151.8234459999999
 30
0.0
 40
3.25
100
AcDbArc
 50
180.0
 51
0.0
  0
LINE
  5
B2B4
330
B07C
100
AcDbEntity
  8
1
  6
Continuous
100
AcDbLine
 10
141.809921
 20
151.8234459999999
 30
0.0
 11
141.809921
 21
152.560053
 31
0.0
  0
LINE
  5
B2B5
330
B07C
100
AcDbEntity
  8
1
  6
Continuous
100
AcDbLine
 10
148.3099209999998
 20
151.8234459999999
 30
0.0
 11
148.3099209999998
 21
152.560053
 31
0.0
  0
ARC
  5
B2B6
330
B07C
100
AcDbEntity
  8
1
  6
Continuous
100
AcDbCircle
 10
145.059921
 20
164.3234459999999
 30
0.0
 40
3.25
100
AcDbArc
 50
0.0
 51
180.0
  0
LINE
  5
B2B7
330
B07C
100
AcDbEntity
  8
1
  6
Continuous
100
AcDbLine
 10
141.809921
 20
163.5868389999999
 30
0.0
 11
141.809921
 21
164.3234459999999
 31
0.0
  0
LINE
  5
B2B8
330
B07C
100
AcDbEntity
  8
1
  6
Continuous
100
AcDbLine
 10
148.3099209999998
 20
163.5868389999999
 30
0.0
 11
148.3099209999998
 21
164.3234459999999
 31
0.0
  0
ARC
  5
B2B9
330
B07C
100
AcDbEntity
  8
5
  6
PHANTOM
100
AcDbCircle
 10
139.5673139999999
 20
161.0556879999998
 30
0.0
 40
3.25
100
AcDbArc
 50
61.50000000000001
 51
241.5
  0
LINE
  5
B2BA
330
B07C
100
AcDbEntity
  8
5
  6
PHANTOM
100
AcDbLine
 10
141.7654229999999
 20
163.560365
 30
0.0
 11
141.1180799999999
 21
163.911844
 31
0.0
  0
LINE
  5
B2BB
330
B07C
100
AcDbEntity
  8
5
  6
PHANTOM
100
AcDbLine
 10
138.6638909999997
 20
157.8480539999999
 30
0.0
 11
138.016548
 21
158.1995329999998
 31
0.0
  0
ARC
  5
B2BC
330
B07C
100
AcDbEntity
  8
5
  6
PHANTOM
100
AcDbCircle
 10
150.552528
 20
155.091204
 30
0.0
 40
3.25
100
AcDbArc
 50
241.5
 51
61.50000000000001
  0
LINE
  5
B2BD
330
B07C
100
AcDbEntity
  8
5
  6
PHANTOM
100
AcDbLine
 10
152.1032939999997
 20
157.947359
 30
0.0
 11
151.4559509999999
 21
158.2988379999999
 31
0.0
  0
LINE
  5
B2BE
330
B07C
100
AcDbEntity
  8
5
  6
PHANTOM
100
AcDbLine
 10
149.001762
 20
152.235048
 30
0.0
 11
148.354419
 21
152.5865269999999
 31
0.0
  0
LINE
  5
B2BF
330
B07C
100
AcDbEntity
  8
1
  6
Continuous
100
AcDbLine
 10
142.0599209999998
 20
285.67035
 30
0.0
 11
148.059921
 21
285.67035
 31
0.0
  0
LINE
  5
B2C0
330
B07C
100
AcDbEntity
  8
1
  6
Continuous
100
AcDbLine
 10
143.059921
 20
284.6703499999998
 30
0.0
 11
147.059921
 21
284.6703499999998
 31
0.0
  0
ARC
  5
B2C1
330
B07C
100
AcDbEntity
  8
1
  6
Continuous
100
AcDbCircle
 10
142.559921
 20
293.2831399999999
 30
0.0
 40
6.613208
100
AcDbArc
 50
275.577465
 51
288.597865
  0
LINE
  5
B2C2
330
B07C
100
AcDbEntity
  8
1
  6
Continuous
100
AcDbLine
 10
143.0697769999999
 20
286.6699319999998
 30
0.0
 11
147.559921
 21
286.6699319999998
 31
0.0
  0
LINE
  5
B2C3
330
B07C
100
AcDbEntity
  8
2
  6
Continuous
100
AcDbLine
 10
142.6014209999999
 20
285.1288499999999
 30
0.0
 11
142.6014209999999
 21
286.555767
 31
0.0
  0
LINE
  5
B2C4
330
B07C
100
AcDbEntity
  8
1
  6
Continuous
100
AcDbLine
 10
142.0599209999998
 20
285.67035
 30
0.0
 11
142.0599209999998
 21
286.4162979999998
 31
0.0
  0
LINE
  5
B2C5
330
B07C
100
AcDbEntity
  8
1
  6
Continuous
100
AcDbLine
 10
143.059921
 20
284.6703499999998
 30
0.0
 11
142.0599209999998
 21
285.67035
 31
0.0
  0
LINE
  5
B2C6
330
B07C
100
AcDbEntity
  8
2
  6
Continuous
100
AcDbLine
 10
147.5184209999999
 20
285.1288499999999
 30
0.0
 11
147.5184209999999
 21
286.6703499999998
 31
0.0
  0
LINE
  5
B2C7
330
B07C
100
AcDbEntity
  8
1
  6
Continuous
100
AcDbLine
 10
148.059921
 20
285.67035
 30
0.0
 11
148.059921
 21
286.6703499999998
 31
0.0
  0
LINE
  5
B2C8
330
B07C
100
AcDbEntity
  8
1
  6
Continuous
100
AcDbLine
 10
147.059921
 20
284.6703499999998
 30
0.0
 11
148.059921
 21
285.67035
 31
0.0
  0
ARC
  5
B2C9
330
B07C
100
AcDbEntity
  8
1
  6
Continuous
100
AcDbCircle
 10
147.559921
 20
293.2831399999999
 30
0.0
 40
6.613208
100
AcDbArc
 50
248.935478
 51
292.211795
  0
LINE
  5
B2CA
330
B07C
100
AcDbEntity
  8
1
  6
Continuous
100
AcDbLine
 10
150.059921
 20
287.689633
 30
0.0
 11
150.059921
 21
287.1606799999998
 31
0.0
  0
CIRCLE
  5
B2CB
330
B07C
100
AcDbEntity
  8
1
  6
Continuous
100
AcDbCircle
 10
145.059921
 20
158.0734459999999
 30
0.0
 40
6.4
  0
LINE
  5
B2CC
330
B07C
100
AcDbEntity
  8
4
  6
CENTER
100
AcDbLine
 10
195.059921
 20
310.7684209999998
 30
0.0
 11
107.559921
 21
310.7684209999998
 31
0.0
  0
LINE
  5
B2CD
330
B07C
100
AcDbEntity
  8
1
  6
Continuous
100
AcDbLine
 10
246.559921
 20
243.57345
 30
0.0
 11
246.559921
 21
210.57345
 31
0.0
  0
LINE
  5
B2CE
330
B07C
100
AcDbEntity
  8
1
  6
Continuous
100
AcDbLine
 10
258.5599209999999
 20
243.57345
 30
0.0
 11
258.5599209999999
 21
210.57345
 31
0.0
  0
LINE
  5
B2CF
330
B07C
100
AcDbEntity
  8
2
  6
Continuous
100
AcDbLine
 10
257.6129209999999
 20
244.52045
 30
0.0
 11
257.6129209999999
 21
212.213702
 31
0.0
  0
LINE
  5
B2D0
330
B07C
100
AcDbEntity
  8
2
  6
Continuous
100
AcDbLine
 10
247.506921
 20
244.52045
 30
0.0
 11
247.506921
 21
212.213702
 31
0.0
  0
LINE
  5
B2D1
330
B07C
100
AcDbEntity
  8
1
  6
Continuous
100
AcDbLine
 10
268.8599239999999
 20
202.273447
 30
0.0
 11
236.259918
 21
202.273447
 31
0.0
  0
LINE
  5
B2D2
330
B07C
100
AcDbEntity
  8
1
  6
Continuous
100
AcDbLine
 10
246.559921
 20
212.213702
 30
0.0
 11
258.5599209999999
 21
212.213702
 31
0.0
  0
ARC
  5
B2D3
330
B07C
100
AcDbEntity
  8
1
  6
Continuous
100
AcDbCircle
 10
256.5599209999999
 20
208.32345
 30
0.0
 40
3.5
100
AcDbArc
 50
139.9947899999999
 51
213.8584799999999
  0
LINE
  5
B2D4
330
B07C
100
AcDbEntity
  8
1
  6
Continuous
100
AcDbLine
 10
268.8599239999999
 20
203.873445
 30
0.0
 11
236.259918
 21
203.873445
 31
0.0
  0
LINE
  5
B2D5
330
B07C
100
AcDbEntity
  8
1
  6
Continuous
100
AcDbLine
 10
243.059921
 20
210.57345
 30
0.0
 11
262.0599209999999
 21
210.57345
 31
0.0
  0
LINE
  5
B2D6
330
B07C
100
AcDbEntity
  8
1
  6
Continuous
100
AcDbLine
 10
266.3599189999998
 20
206.373445
 30
0.0
 11
238.759918
 21
206.373445
 31
0.0
  0
ARC
  5
B2D7
330
B07C
100
AcDbEntity
  8
1
  6
Continuous
100
AcDbCircle
 10
239.8938139999999
 20
203.062208
 30
0.0
 40
3.5
100
AcDbArc
 50
108.9031
 51
162.9964699999999
  0
LINE
  5
B2D8
330
B07C
100
AcDbEntity
  8
1
  6
Continuous
100
AcDbLine
 10
236.259918
 20
203.873445
 30
0.0
 11
236.259918
 21
202.273447
 31
0.0
  0
ARC
  5
B2D9
330
B07C
100
AcDbEntity
  8
1
  6
Continuous
100
AcDbCircle
 10
236.259918
 20
204.1734449999999
 30
0.0
 40
0.3
100
AcDbArc
 50
270.00002
 51
342.9964799999999
  0
LINE
  5
B2DA
330
B07C
100
AcDbEntity
  8
2
  6
Continuous
100
AcDbLine
 10
247.506921
 20
212.213702
 30
0.0
 11
246.559921
 21
210.57345
 31
0.0
  0
ARC
  5
B2DB
330
B07C
100
AcDbEntity
  8
1
  6
Continuous
100
AcDbCircle
 10
248.559921
 20
208.32345
 30
0.0
 40
3.5
100
AcDbArc
 50
326.14148
 51
40.005173
  0
ARC
  5
B2DC
330
B07C
100
AcDbEntity
  8
1
  6
Continuous
100
AcDbCircle
 10
246.559921
 20
208.32345
 30
0.0
 40
3.0
100
AcDbArc
 50
131.4096399999999
 51
220.5416599999999
  0
LINE
  5
B2DD
330
B07C
100
AcDbEntity
  8
1
  6
Continuous
100
AcDbLine
 10
243.059921
 20
210.57345
 30
0.0
 11
243.059921
 21
206.373445
 31
0.0
  0
LINE
  5
B2DE
330
B07C
100
AcDbEntity
  8
1
  6
Continuous
100
AcDbLine
 10
268.8599239999999
 20
203.873445
 30
0.0
 11
268.8599239999999
 21
202.273447
 31
0.0
  0
ARC
  5
B2DF
330
B07C
100
AcDbEntity
  8
1
  6
Continuous
100
AcDbCircle
 10
265.2260279999999
 20
203.062208
 30
0.0
 40
3.5
100
AcDbArc
 50
17.003496
 51
71.09685999999998
  0
LINE
  5
B2E0
330
B07C
100
AcDbEntity
  8
1
  6
Continuous
100
AcDbLine
 10
262.0599209999999
 20
210.57345
 30
0.0
 11
262.0599209999999
 21
206.373445
 31
0.0
  0
ARC
  5
B2E1
330
B07C
100
AcDbEntity
  8
1
  6
Continuous
100
AcDbCircle
 10
258.5599209999999
 20
208.32345
 30
0.0
 40
3.0
100
AcDbArc
 50
319.45831
 51
48.590321
  0
ARC
  5
B2E2
330
B07C
100
AcDbEntity
  8
1
  6
Continuous
100
AcDbCircle
 10
268.8599239999999
 20
204.1734449999999
 30
0.0
 40
0.3
100
AcDbArc
 50
197.00351
 51
269.9999599999998
  0
LINE
  5
B2E3
330
B07C
100
AcDbEntity
  8
2
  6
Continuous
100
AcDbLine
 10
257.6129209999999
 20
212.213702
 30
0.0
 11
258.5599209999999
 21
210.57345
 31
0.0
  0
LINE
  5
B2E4
330
B07C
100
AcDbEntity
  8
1
  6
Continuous
100
AcDbLine
 10
248.559921
 20
245.57345
 30
0.0
 11
256.5599209999999
 21
245.57345
 31
0.0
  0
LINE
  5
B2E5
330
B07C
100
AcDbEntity
  8
1
  6
Continuous
100
AcDbLine
 10
246.559921
 20
243.57345
 30
0.0
 11
258.5599209999999
 21
243.57345
 31
0.0
  0
LINE
  5
B2E6
330
B07C
100
AcDbEntity
  8
1
  6
Continuous
100
AcDbLine
 10
248.559921
 20
245.57345
 30
0.0
 11
246.559921
 21
243.57345
 31
0.0
  0
LINE
  5
B2E7
330
B07C
100
AcDbEntity
  8
1
  6
Continuous
100
AcDbLine
 10
256.5599209999999
 20
245.57345
 30
0.0
 11
258.5599209999999
 21
243.57345
 31
0.0
  0
LINE
  5
B2E8
330
B07C
100
AcDbEntity
  8
1
  6
Continuous
100
AcDbLine
 10
160.6899209999999
 20
304.650843
 30
0.0
 11
167.928703
 21
300.4715299999998
 31
0.0
  0
LINE
  5
B2E9
330
B07C
100
AcDbEntity
  8
1
  6
Continuous
100
AcDbLine
 10
170.191139
 20
300.4715299999998
 30
0.0
 11
177.429921
 21
304.650843
 31
0.0
  0
CIRCLE
  5
B2EA
330
B07C
100
AcDbEntity
  8
1
  6
Continuous
100
AcDbCircle
 10
169.059921
 20
310.7684209999998
 30
0.0
 40
13.8
  0
CIRCLE
  5
B2EB
330
B07C
100
AcDbEntity
  8
1
  6
Continuous
100
AcDbCircle
 10
169.059921
 20
310.7684209999998
 30
0.0
 40
16.3
  0
ARC
  5
B2EC
330
B07C
100
AcDbEntity
  8
1
  6
Continuous
100
AcDbCircle
 10
169.059921
 20
310.7684209999998
 30
0.0
 40
19.0
100
AcDbArc
 50
235.6988470000001
 51
124.301153
  0
ARC
  5
B2ED
330
B07C
100
AcDbEntity
  8
1
  6
Continuous
100
AcDbCircle
 10
176.723585
 20
310.7684209999998
 30
0.0
 40
39.86366499999999
100
AcDbArc
 50
157.896398
 51
202.1036019999999
  0
ARC
  5
B2EE
330
B07C
100
AcDbEntity
  8
1
  6
Continuous
100
AcDbCircle
 10
169.059921
 20
310.7684209999998
 30
0.0
 40
19.0
100
AcDbArc
 50
137.3365599999999
 51
222.971441
  0
ARC
  5
B2EF
330
B07C
100
AcDbEntity
  8
1
  6
Continuous
100
AcDbCircle
 10
156.0984399999999
 20
291.768421
 30
0.0
 40
4.0
100
AcDbArc
 50
55.69884700000001
 51
90.0
  0
LINE
  5
B2F0
330
B07C
100
AcDbEntity
  8
1
  6
Continuous
100
AcDbLine
 10
156.0984399999999
 20
295.768421
 30
0.0
 11
138.345297
 21
295.768421
 31
0.0
  0
LINE
  5
B2F1
330
B07C
100
AcDbEntity
  8
1
  6
Continuous
100
AcDbLine
 10
139.0392139999997
 20
297.7684209999998
 30
0.0
 11
138.345297
 21
297.7684209999998
 31
0.0
  0
ARC
  5
B2F2
330
B07C
100
AcDbEntity
  8
1
  6
Continuous
100
AcDbCircle
 10
169.059921
 20
302.430857
 30
0.0
 40
2.262436
100
AcDbArc
 50
239.9999999999999
 51
300.0
  0
ARC
  5
B2F3
330
B07C
100
AcDbEntity
  8
1
  6
Continuous
100
AcDbCircle
 10
156.0984399999999
 20
329.7684209999999
 30
0.0
 40
4.0
100
AcDbArc
 50
270.0
 51
304.301153
  0
LINE
  5
B2F4
330
B07C
100
AcDbEntity
  8
1
  6
Continuous
100
AcDbLine
 10
137.213819
 20
323.7684209999998
 30
0.0
 11
137.213819
 21
325.7684209999998
 31
0.0
  0
LINE
  5
B2F5
330
B07C
100
AcDbEntity
  8
1
  6
Continuous
100
AcDbLine
 10
139.0392139999997
 20
323.7684209999998
 30
0.0
 11
137.213819
 21
323.7684209999998
 31
0.0
  0
LINE
  5
B2F6
330
B07C
100
AcDbEntity
  8
1
  6
Continuous
100
AcDbLine
 10
156.0984399999999
 20
325.7684209999998
 30
0.0
 11
137.213819
 21
325.7684209999998
 31
0.0
  0
LINE
  5
B2F7
330
B07C
100
AcDbEntity
  8
1
  6
Continuous
100
AcDbLine
 10
170.191139
 20
321.0653119999999
 30
0.0
 11
177.429921
 21
316.8859999999999
 31
0.0
  0
CIRCLE
  5
B2F8
330
B07C
100
AcDbEntity
  8
1
  6
Continuous
100
AcDbCircle
 10
169.059921
 20
310.7684209999998
 30
0.0
 40
4.0
  0
CIRCLE
  5
B2F9
330
B07C
100
AcDbEntity
  8
1
  6
Continuous
100
AcDbCircle
 10
169.059921
 20
310.7684209999998
 30
0.0
 40
6.0
  0
CIRCLE
  5
B2FA
330
B07C
100
AcDbEntity
  8
2
  6
Continuous
100
AcDbCircle
 10
169.059921
 20
310.7684209999998
 30
0.0
 40
5.052999999999999
  0
ARC
  5
B2FB
330
B07C
100
AcDbEntity
  8
1
  6
Continuous
100
AcDbCircle
 10
169.059921
 20
319.1059859999998
 30
0.0
 40
2.262436
100
AcDbArc
 50
60.0
 51
119.9999999999999
  0
LINE
  5
B2FC
330
B07C
100
AcDbEntity
  8
1
  6
Continuous
100
AcDbLine
 10
160.6899209999999
 20
316.8859999999999
 30
0.0
 11
167.928703
 21
321.0653119999999
 31
0.0
  0
ARC
  5
B2FD
330
B07C
100
AcDbEntity
  8
1
  6
Continuous
100
AcDbCircle
 10
161.819921
 20
314.9287819999999
 30
0.0
 40
2.259999999999998
100
AcDbArc
 50
119.9999999999999
 51
180.0
  0
ARC
  5
B2FE
330
B07C
100
AcDbEntity
  8
1
  6
Continuous
100
AcDbCircle
 10
161.819921
 20
306.60806
 30
0.0
 40
2.259999999999998
100
AcDbArc
 50
180.0
 51
239.9999999999999
  0
LINE
  5
B2FF
330
B07C
100
AcDbEntity
  8
1
  6
Continuous
100
AcDbLine
 10
159.559921
 20
306.60806
 30
0.0
 11
159.559921
 21
314.9287819999999
 31
0.0
  0
ARC
  5
B300
330
B07C
100
AcDbEntity
  8
1
  6
Continuous
100
AcDbCircle
 10
176.2999209999999
 20
314.9287819999999
 30
0.0
 40
2.259999999999998
100
AcDbArc
 50
0.0
 51
60.0
  0
ARC
  5
B301
330
B07C
100
AcDbEntity
  8
1
  6
Continuous
100
AcDbCircle
 10
176.2999209999999
 20
306.60806
 30
0.0
 40
2.259999999999998
100
AcDbArc
 50
300.0
 51
0.0
  0
LINE
  5
B302
330
B07C
100
AcDbEntity
  8
1
  6
Continuous
100
AcDbLine
 10
178.5599209999998
 20
306.60806
 30
0.0
 11
178.5599209999998
 21
314.9287819999999
 31
0.0
  0
LINE
  5
B303
330
B07C
100
AcDbEntity
  8
1
  6
Continuous
100
AcDbLine
 10
35.759923
 20
206.373445
 30
0.0
 11
63.359924
 21
206.373445
 31
0.0
  0
LINE
  5
B304
330
B07C
100
AcDbEntity
  8
1
  6
Continuous
100
AcDbLine
 10
65.85992399999999
 20
202.273447
 30
0.0
 11
33.259918
 21
202.273447
 31
0.0
  0
LINE
  5
B305
330
B07C
100
AcDbEntity
  8
1
  6
Continuous
100
AcDbLine
 10
65.85992399999999
 20
203.873445
 30
0.0
 11
33.259918
 21
203.873445
 31
0.0
  0
LINE
  5
B306
330
B07C
100
AcDbEntity
  8
1
  6
Continuous
100
AcDbLine
 10
33.259918
 20
203.873445
 30
0.0
 11
33.259918
 21
202.273447
 31
0.0
  0
ARC
  5
B307
330
B07C
100
AcDbEntity
  8
1
  6
Continuous
100
AcDbCircle
 10
33.259918
 20
204.1734449999999
 30
0.0
 40
0.3
100
AcDbArc
 50
270.00002
 51
342.9964799999999
  0
ARC
  5
B308
330
B07C
100
AcDbEntity
  8
1
  6
Continuous
100
AcDbCircle
 10
36.893814
 20
203.062208
 30
0.0
 40
3.5
100
AcDbArc
 50
108.9031
 51
162.9964699999999
  0
LINE
  5
B309
330
B07C
100
AcDbEntity
  8
1
  6
Continuous
100
AcDbLine
 10
65.85992399999999
 20
203.873445
 30
0.0
 11
65.85992399999999
 21
202.273447
 31
0.0
  0
ARC
  5
B30A
330
B07C
100
AcDbEntity
  8
1
  6
Continuous
100
AcDbCircle
 10
65.85992399999999
 20
204.1734449999999
 30
0.0
 40
0.3
100
AcDbArc
 50
197.00351
 51
269.9999599999998
  0
ARC
  5
B30B
330
B07C
100
AcDbEntity
  8
1
  6
Continuous
100
AcDbCircle
 10
62.226028
 20
203.062208
 30
0.0
 40
3.5
100
AcDbArc
 50
17.003496
 51
71.09685999999998
  0
LINE
  5
B30C
330
B07C
100
AcDbEntity
  8
1
  6
Continuous
100
AcDbLine
 10
326.0599209999998
 20
243.57345
 30
0.0
 11
326.0599209999998
 21
210.57345
 31
0.0
  0
LINE
  5
B30D
330
B07C
100
AcDbEntity
  8
2
  6
Continuous
100
AcDbLine
 10
325.1129209999998
 20
244.52045
 30
0.0
 11
325.1129209999998
 21
212.213702
 31
0.0
  0
LINE
  5
B30E
330
B07C
100
AcDbEntity
  8
1
  6
Continuous
100
AcDbLine
 10
314.0599209999998
 20
243.57345
 30
0.0
 11
314.0599209999998
 21
210.57345
 31
0.0
  0
LINE
  5
B30F
330
B07C
100
AcDbEntity
  8
2
  6
Continuous
100
AcDbLine
 10
315.0069209999998
 20
244.52045
 30
0.0
 11
315.0069209999998
 21
212.213702
 31
0.0
  0
LINE
  5
B310
330
B07C
100
AcDbEntity
  8
1
  6
Continuous
100
AcDbLine
 10
314.0599209999998
 20
212.213702
 30
0.0
 11
326.0599209999998
 21
212.213702
 31
0.0
  0
LINE
  5
B311
330
B07C
100
AcDbEntity
  8
1
  6
Continuous
100
AcDbLine
 10
306.259923
 20
206.373445
 30
0.0
 11
333.8599239999998
 21
206.373445
 31
0.0
  0
LINE
  5
B312
330
B07C
100
AcDbEntity
  8
1
  6
Continuous
100
AcDbLine
 10
310.245758
 20
210.57345
 30
0.0
 11
329.8740839999998
 21
210.57345
 31
0.0
  0
LINE
  5
B313
330
B07C
100
AcDbEntity
  8
1
  6
Continuous
100
AcDbLine
 10
336.3599239999998
 20
202.273447
 30
0.0
 11
303.759918
 21
202.273447
 31
0.0
  0
LINE
  5
B314
330
B07C
100
AcDbEntity
  8
1
  6
Continuous
100
AcDbLine
 10
336.3599239999998
 20
203.873445
 30
0.0
 11
303.759918
 21
203.873445
 31
0.0
  0
LINE
  5
B315
330
B07C
100
AcDbEntity
  8
2
  6
Continuous
100
AcDbLine
 10
315.0069209999998
 20
212.213702
 30
0.0
 11
314.0599209999998
 21
210.57345
 31
0.0
  0
ARC
  5
B316
330
B07C
100
AcDbEntity
  8
1
  6
Continuous
100
AcDbCircle
 10
315.459923
 20
208.32345
 30
0.0
 40
6.0
100
AcDbArc
 50
161.4469
 51
198.96558
  0
ARC
  5
B317
330
B07C
100
AcDbEntity
  8
1
  6
Continuous
100
AcDbCircle
 10
310.245758
 20
210.07345
 30
0.0
 40
0.5
100
AcDbArc
 50
89.99998199999996
 51
161.44681
  0
ARC
  5
B318
330
B07C
100
AcDbEntity
  8
1
  6
Continuous
100
AcDbCircle
 10
318.8577949999999
 20
208.32345
 30
0.0
 40
3.5
100
AcDbArc
 50
139.99471
 51
213.8584799999999
  0
ARC
  5
B319
330
B07C
100
AcDbEntity
  8
1
  6
Continuous
100
AcDbCircle
 10
310.6837459999998
 20
208.32345
 30
0.0
 40
3.5
100
AcDbArc
 50
326.14148
 51
40.005169
  0
LINE
  5
B31A
330
B07C
100
AcDbEntity
  8
1
  6
Continuous
100
AcDbLine
 10
303.759918
 20
203.873445
 30
0.0
 11
303.759918
 21
202.273447
 31
0.0
  0
ARC
  5
B31B
330
B07C
100
AcDbEntity
  8
1
  6
Continuous
100
AcDbCircle
 10
303.759918
 20
204.1734449999999
 30
0.0
 40
0.3
100
AcDbArc
 50
270.00002
 51
342.9964799999999
  0
ARC
  5
B31C
330
B07C
100
AcDbEntity
  8
1
  6
Continuous
100
AcDbCircle
 10
307.393814
 20
203.062208
 30
0.0
 40
3.5
100
AcDbArc
 50
108.9031
 51
162.9964699999999
  0
LINE
  5
B31D
330
B07C
100
AcDbEntity
  8
1
  6
Continuous
100
AcDbLine
 10
336.3599239999998
 20
203.873445
 30
0.0
 11
336.3599239999998
 21
202.273447
 31
0.0
  0
ARC
  5
B31E
330
B07C
100
AcDbEntity
  8
1
  6
Continuous
100
AcDbCircle
 10
336.3599239999998
 20
204.1734449999999
 30
0.0
 40
0.3
100
AcDbArc
 50
197.00351
 51
269.9999599999998
  0
LINE
  5
B31F
330
B07C
100
AcDbEntity
  8
2
  6
Continuous
100
AcDbLine
 10
325.1129209999998
 20
212.213702
 30
0.0
 11
326.0599209999998
 21
210.57345
 31
0.0
  0
ARC
  5
B320
330
B07C
100
AcDbEntity
  8
1
  6
Continuous
100
AcDbCircle
 10
329.436096
 20
208.32345
 30
0.0
 40
3.5
100
AcDbArc
 50
139.99477
 51
213.8584799999999
  0
ARC
  5
B321
330
B07C
100
AcDbEntity
  8
1
  6
Continuous
100
AcDbCircle
 10
324.6599189999999
 20
208.32345
 30
0.0
 40
6.0
100
AcDbArc
 50
341.03438
 51
18.553034
  0
ARC
  5
B322
330
B07C
100
AcDbEntity
  8
1
  6
Continuous
100
AcDbCircle
 10
329.8740839999998
 20
210.07345
 30
0.0
 40
0.5
100
AcDbArc
 50
18.55312999999998
 51
89.99996800000003
  0
ARC
  5
B323
330
B07C
100
AcDbEntity
  8
1
  6
Continuous
100
AcDbCircle
 10
332.7260279999998
 20
203.062208
 30
0.0
 40
3.5
100
AcDbArc
 50
17.003496
 51
71.09685999999998
  0
ARC
  5
B324
330
B07C
100
AcDbEntity
  8
1
  6
Continuous
100
AcDbCircle
 10
321.2620499999998
 20
208.32345
 30
0.0
 40
3.5
100
AcDbArc
 50
326.14148
 51
40.005224
  0
LINE
  5
B325
330
B07C
100
AcDbEntity
  8
1
  6
Continuous
100
AcDbLine
 10
316.0599209999998
 20
245.57345
 30
0.0
 11
314.0599209999998
 21
243.57345
 31
0.0
  0
LINE
  5
B326
330
B07C
100
AcDbEntity
  8
1
  6
Continuous
100
AcDbLine
 10
324.0599209999998
 20
245.57345
 30
0.0
 11
326.0599209999998
 21
243.57345
 31
0.0
  0
LINE
  5
B327
330
B07C
100
AcDbEntity
  8
1
  6
Continuous
100
AcDbLine
 10
314.0599209999998
 20
243.57345
 30
0.0
 11
326.0599209999998
 21
243.57345
 31
0.0
  0
LINE
  5
B328
330
B07C
100
AcDbEntity
  8
1
  6
Continuous
100
AcDbLine
 10
316.0599209999998
 20
245.57345
 30
0.0
 11
324.0599209999998
 21
245.57345
 31
0.0
  0
LINE
  5
B329
330
B07C
100
AcDbEntity
  8
2
  6
Continuous
100
AcDbLine
 10
164.006921
 20
244.52045
 30
0.0
 11
164.006921
 21
212.213702
 31
0.0
  0
LINE
  5
B32A
330
B07C
100
AcDbEntity
  8
1
  6
Continuous
100
AcDbLine
 10
163.0599209999997
 20
243.57345
 30
0.0
 11
163.0599209999997
 21
210.57345
 31
0.0
  0
LINE
  5
B32B
330
B07C
100
AcDbEntity
  8
2
  6
Continuous
100
AcDbLine
 10
174.1129209999997
 20
244.52045
 30
0.0
 11
174.1129209999997
 21
212.213702
 31
0.0
  0
LINE
  5
B32C
330
B07C
100
AcDbEntity
  8
1
  6
Continuous
100
AcDbLine
 10
175.059921
 20
243.57345
 30
0.0
 11
175.059921
 21
210.57345
 31
0.0
  0
LINE
  5
B32D
330
B07C
100
AcDbEntity
  8
1
  6
Continuous
100
AcDbLine
 10
185.359924
 20
203.873445
 30
0.0
 11
152.7599179999999
 21
203.873445
 31
0.0
  0
LINE
  5
B32E
330
B07C
100
AcDbEntity
  8
1
  6
Continuous
100
AcDbLine
 10
185.359924
 20
202.273447
 30
0.0
 11
152.7599179999999
 21
202.273447
 31
0.0
  0
LINE
  5
B32F
330
B07C
100
AcDbEntity
  8
1
  6
Continuous
100
AcDbLine
 10
159.245758
 20
210.57345
 30
0.0
 11
178.874084
 21
210.57345
 31
0.0
  0
LINE
  5
B330
330
B07C
100
AcDbEntity
  8
1
  6
Continuous
100
AcDbLine
 10
155.259923
 20
206.373445
 30
0.0
 11
182.859924
 21
206.373445
 31
0.0
  0
LINE
  5
B331
330
B07C
100
AcDbEntity
  8
1
  6
Continuous
100
AcDbLine
 10
163.0599209999997
 20
212.213702
 30
0.0
 11
175.059921
 21
212.213702
 31
0.0
  0
ARC
  5
B332
330
B07C
100
AcDbEntity
  8
1
  6
Continuous
100
AcDbCircle
 10
156.3938139999999
 20
203.062208
 30
0.0
 40
3.5
100
AcDbArc
 50
108.9031
 51
162.9964699999999
  0
ARC
  5
B333
330
B07C
100
AcDbEntity
  8
1
  6
Continuous
100
AcDbCircle
 10
152.7599179999999
 20
204.1734449999999
 30
0.0
 40
0.3
100
AcDbArc
 50
270.00002
 51
342.9964799999999
  0
LINE
  5
B334
330
B07C
100
AcDbEntity
  8
1
  6
Continuous
100
AcDbLine
 10
152.7599179999999
 20
203.873445
 30
0.0
 11
152.7599179999999
 21
202.273447
 31
0.0
  0
ARC
  5
B335
330
B07C
100
AcDbEntity
  8
1
  6
Continuous
100
AcDbCircle
 10
159.6837459999998
 20
208.32345
 30
0.0
 40
3.5
100
AcDbArc
 50
326.14148
 51
40.005169
  0
ARC
  5
B336
330
B07C
100
AcDbEntity
  8
1
  6
Continuous
100
AcDbCircle
 10
167.8577949999999
 20
208.32345
 30
0.0
 40
3.5
100
AcDbArc
 50
139.99471
 51
213.8584799999999
  0
ARC
  5
B337
330
B07C
100
AcDbEntity
  8
1
  6
Continuous
100
AcDbCircle
 10
159.245758
 20
210.07345
 30
0.0
 40
0.5
100
AcDbArc
 50
89.99998199999996
 51
161.44681
  0
ARC
  5
B338
330
B07C
100
AcDbEntity
  8
1
  6
Continuous
100
AcDbCircle
 10
164.459923
 20
208.32345
 30
0.0
 40
6.0
100
AcDbArc
 50
161.4469
 51
198.96558
  0
LINE
  5
B339
330
B07C
100
AcDbEntity
  8
2
  6
Continuous
100
AcDbLine
 10
164.006921
 20
212.213702
 30
0.0
 11
163.0599209999997
 21
210.57345
 31
0.0
  0
ARC
  5
B33A
330
B07C
100
AcDbEntity
  8
1
  6
Continuous
100
AcDbCircle
 10
170.2620499999999
 20
208.32345
 30
0.0
 40
3.5
100
AcDbArc
 50
326.14148
 51
40.005224
  0
ARC
  5
B33B
330
B07C
100
AcDbEntity
  8
1
  6
Continuous
100
AcDbCircle
 10
181.726028
 20
203.062208
 30
0.0
 40
3.5
100
AcDbArc
 50
17.003496
 51
71.09685999999998
  0
ARC
  5
B33C
330
B07C
100
AcDbEntity
  8
1
  6
Continuous
100
AcDbCircle
 10
178.874084
 20
210.07345
 30
0.0
 40
0.5
100
AcDbArc
 50
18.55312999999998
 51
89.99996800000003
  0
ARC
  5
B33D
330
B07C
100
AcDbEntity
  8
1
  6
Continuous
100
AcDbCircle
 10
173.6599189999997
 20
208.32345
 30
0.0
 40
6.0
100
AcDbArc
 50
341.03438
 51
18.553034
  0
ARC
  5
B33E
330
B07C
100
AcDbEntity
  8
1
  6
Continuous
100
AcDbCircle
 10
178.4360959999999
 20
208.32345
 30
0.0
 40
3.5
100
AcDbArc
 50
139.99477
 51
213.8584799999999
  0
LINE
  5
B33F
330
B07C
100
AcDbEntity
  8
2
  6
Continuous
100
AcDbLine
 10
174.1129209999997
 20
212.213702
 30
0.0
 11
175.059921
 21
210.57345
 31
0.0
  0
ARC
  5
B340
330
B07C
100
AcDbEntity
  8
1
  6
Continuous
100
AcDbCircle
 10
185.359924
 20
204.1734449999999
 30
0.0
 40
0.3
100
AcDbArc
 50
197.00351
 51
269.9999599999998
  0
LINE
  5
B341
330
B07C
100
AcDbEntity
  8
1
  6
Continuous
100
AcDbLine
 10
185.359924
 20
203.873445
 30
0.0
 11
185.359924
 21
202.273447
 31
0.0
  0
LINE
  5
B342
330
B07C
100
AcDbEntity
  8
1
  6
Continuous
100
AcDbLine
 10
165.059921
 20
245.57345
 30
0.0
 11
173.059921
 21
245.57345
 31
0.0
  0
LINE
  5
B343
330
B07C
100
AcDbEntity
  8
1
  6
Continuous
100
AcDbLine
 10
163.0599209999997
 20
243.57345
 30
0.0
 11
175.059921
 21
243.57345
 31
0.0
  0
LINE
  5
B344
330
B07C
100
AcDbEntity
  8
1
  6
Continuous
100
AcDbLine
 10
165.059921
 20
245.57345
 30
0.0
 11
163.0599209999997
 21
243.57345
 31
0.0
  0
LINE
  5
B345
330
B07C
100
AcDbEntity
  8
1
  6
Continuous
100
AcDbLine
 10
173.059921
 20
245.57345
 30
0.0
 11
175.059921
 21
243.57345
 31
0.0
  0
LINE
  5
B346
330
B07C
100
AcDbEntity
  8
1
  6
Continuous
100
AcDbLine
 10
138.2676129999999
 20
300.2684209999998
 30
0.0
 11
115.5227769999999
 21
300.2684209999998
 31
0.0
  0
ARC
  5
B347
330
B07C
100
AcDbEntity
  8
1
  6
Continuous
100
AcDbCircle
 10
152.559921
 20
310.7684209999998
 30
0.0
 40
40.0
100
AcDbArc
 50
167.0745099999997
 51
192.9273099999999
  0
ARC
  5
B348
330
B07C
100
AcDbEntity
  8
1
  6
Continuous
100
AcDbCircle
 10
115.5227769999999
 20
302.2684209999998
 30
0.0
 40
2.0
100
AcDbArc
 50
192.925454
 51
269.999945
  0
LINE
  5
B349
330
B07C
100
AcDbEntity
  8
1
  6
Continuous
100
AcDbLine
 10
138.2676129999999
 20
321.2684209999999
 30
0.0
 11
115.5227769999999
 21
321.2684209999999
 31
0.0
  0
ARC
  5
B34A
330
B07C
100
AcDbEntity
  8
1
  6
Continuous
100
AcDbCircle
 10
115.5227769999999
 20
319.2684209999999
 30
0.0
 40
2.0
100
AcDbArc
 50
90.00004000000002
 51
167.0745099999997
  0
LINE
  5
B34B
330
B07C
100
AcDbEntity
  8
1
  6
Continuous
100
AcDbLine
 10
139.035582
 20
323.7578849999998
 30
0.0
 11
136.8772919999997
 21
323.7578849999998
 31
0.0
  0
LINE
  5
B34C
330
B07C
100
AcDbEntity
  8
1
  6
Continuous
100
AcDbLine
 10
138.4046149999997
 20
321.7578849999998
 30
0.0
 11
129.059921
 21
321.7578849999998
 31
0.0
  0
LINE
  5
B34D
330
B07C
100
AcDbEntity
  8
1
  6
Continuous
100
AcDbLine
 10
137.213819
 20
325.7578919999999
 30
0.0
 11
134.0328439999999
 21
325.7578919999999
 31
0.0
  0
LINE
  5
B34E
330
B07C
100
AcDbEntity
  8
1
  6
Continuous
100
AcDbLine
 10
129.059921
 20
321.7578849999998
 30
0.0
 11
129.059921
 21
321.2684209999999
 31
0.0
  0
LINE
  5
B34F
330
B07C
100
AcDbEntity
  8
1
  6
Continuous
100
AcDbLine
 10
137.213819
 20
323.7578849999998
 30
0.0
 11
137.213819
 21
325.7578919999999
 31
0.0
  0
LINE
  5
B350
330
B07C
100
AcDbEntity
  8
1
  6
Continuous
100
AcDbLine
 10
150.35992
 20
325.7718499999998
 30
0.0
 11
150.35992
 21
326.269829
 31
0.0
  0
ARC
  5
B351
330
B07C
100
AcDbEntity
  8
1
  6
Continuous
100
AcDbCircle
 10
148.35992
 20
326.269829
 30
0.0
 40
2.0
100
AcDbArc
 50
0.000018
 51
94.77346899999997
  0
LINE
  5
B352
330
B07C
100
AcDbEntity
  8
1
  6
Continuous
100
AcDbLine
 10
148.519892
 20
328.2634209999998
 30
0.0
 11
141.59995
 21
328.2634209999998
 31
0.0
  0
ARC
  5
B353
330
B07C
100
AcDbEntity
  8
1
  6
Continuous
100
AcDbCircle
 10
141.7599219999999
 20
326.269829
 30
0.0
 40
2.0
100
AcDbArc
 50
85.22653100000002
 51
179.999982
  0
LINE
  5
B354
330
B07C
100
AcDbEntity
  8
1
  6
Continuous
100
AcDbLine
 10
139.7599219999999
 20
325.7718499999998
 30
0.0
 11
139.7599219999999
 21
326.269829
 31
0.0
  0
ARC
  5
B355
330
B07C
100
AcDbEntity
  8
1
  6
Continuous
100
AcDbCircle
 10
135.309921
 20
300.2684209999998
 30
0.0
 40
1.0
100
AcDbArc
 50
179.9999629999998
 51
269.999945
  0
LINE
  5
B356
330
B07C
100
AcDbEntity
  8
1
  6
Continuous
100
AcDbLine
 10
138.7089589999999
 20
299.268421
 30
0.0
 11
135.309921
 21
299.268421
 31
0.0
  0
ARC
  5
B357
330
B07C
100
AcDbEntity
  8
1
  6
Continuous
100
AcDbCircle
 10
176.723585
 20
62.07345
 30
0.0
 40
39.86366499999999
100
AcDbArc
 50
160.9830889999997
 51
162.480762
  0
LINE
  5
B358
330
B07C
100
AcDbEntity
  8
1
  6
Continuous
100
AcDbLine
 10
139.5987299999999
 20
285.678944
 30
0.0
 11
130.4877529999999
 21
278.546559
 31
0.0
  0
LINE
  5
B359
330
B07C
100
AcDbEntity
  8
1
  6
Continuous
100
AcDbLine
 10
159.624594
 20
285.6789589999999
 30
0.0
 11
168.2505549999999
 21
277.584157
 31
0.0
  0
LINE
  5
B35A
330
B07C
100
AcDbEntity
  8
1
  6
Continuous
100
AcDbLine
 10
156.925283
 20
287.1442
 30
0.0
 11
168.3817799999999
 21
276.393147
 31
0.0
  0
LINE
  5
B35B
330
B07C
100
AcDbEntity
  8
1
  6
Continuous
100
AcDbLine
 10
159.624594
 20
285.678944
 30
0.0
 11
159.624594
 21
293.8305859999998
 31
0.0
  0
LINE
  5
B35C
330
B07C
100
AcDbEntity
  8
1
  6
Continuous
100
AcDbLine
 10
139.598745
 20
285.678944
 30
0.0
 11
139.598745
 21
293.545704
 31
0.0
  0
LINE
  5
B35D
330
B07C
100
AcDbEntity
  8
1
  6
Continuous
100
AcDbLine
 10
138.345297
 20
293.2795609999999
 30
0.0
 11
138.345297
 21
298.2789499999999
 31
0.0
  0
LINE
  5
B35E
330
B07C
100
AcDbEntity
  8
1
  6
Continuous
100
AcDbLine
 10
135.055853
 20
293.2795609999999
 30
0.0
 11
135.055853
 21
298.2789499999999
 31
0.0
  0
LINE
  5
B35F
330
B07C
100
AcDbEntity
  8
1
  6
Continuous
100
AcDbLine
 10
138.345297
 20
298.2789499999999
 30
0.0
 11
133.9179289999999
 21
298.2789499999999
 31
0.0
  0
LINE
  5
B360
330
B07C
100
AcDbEntity
  8
1
  6
Continuous
100
AcDbLine
 10
133.055853
 20
295.77895
 30
0.0
 11
121.6684169999999
 21
295.77895
 31
0.0
  0
LINE
  5
B361
330
B07C
100
AcDbEntity
  8
1
  6
Continuous
100
AcDbLine
 10
138.89739
 20
285.129902
 30
0.0
 11
130.4877529999999
 21
278.546559
 31
0.0
  0
LINE
  5
B362
330
B07C
100
AcDbEntity
  8
1
  6
Continuous
100
AcDbLine
 10
124.940771
 20
293.77895
 30
0.0
 11
121.6684169999999
 21
293.77895
 31
0.0
  0
LINE
  5
B363
330
B07C
100
AcDbEntity
  8
1
  6
Continuous
100
AcDbLine
 10
121.6684169999999
 20
295.77895
 30
0.0
 11
121.6684169999999
 21
293.77895
 31
0.0
  0
LINE
  5
B364
330
B07C
100
AcDbEntity
  8
1
  6
Continuous
100
AcDbLine
 10
174.282537
 20
292.27895
 30
0.0
 11
174.282537
 21
292.153905
 31
0.0
  0
LINE
  5
B365
330
B07C
100
AcDbEntity
  8
1
  6
Continuous
100
AcDbLine
 10
133.9179289999999
 20
298.2789499999999
 30
0.0
 11
133.9179289999999
 21
295.583623
 31
0.0
  0
ARC
  5
B366
330
B07C
100
AcDbEntity
  8
1
  6
Continuous
100
AcDbCircle
 10
127.897955
 20
285.27895
 30
0.0
 40
9.851650999999996
100
AcDbArc
 50
140.567329
 51
219.432668
  0
ARC
  5
B367
330
B07C
100
AcDbEntity
  8
1
  6
Continuous
100
AcDbCircle
 10
125.0363979999999
 20
287.6321909999998
 30
0.0
 40
6.146760999999997
100
AcDbArc
 50
90.89140399999999
 51
140.567329
  0
ARC
  5
B368
330
B07C
100
AcDbEntity
  8
1
  6
Continuous
100
AcDbCircle
 10
125.0363979999999
 20
282.925709
 30
0.0
 40
6.146760999999997
100
AcDbArc
 50
219.4326709999999
 51
275.311064
  0
ARC
  5
B369
330
B07C
100
AcDbEntity
  8
1
  6
Continuous
100
AcDbCircle
 10
129.0358789999999
 20
285.27895
 30
0.0
 40
9.851650999999996
100
AcDbArc
 50
140.567329
 51
219.432668
  0
ARC
  5
B36A
330
B07C
100
AcDbEntity
  8
1
  6
Continuous
100
AcDbCircle
 10
126.174322
 20
287.6321909999998
 30
0.0
 40
6.146760999999997
100
AcDbArc
 50
101.6146229999999
 51
140.567329
  0
ARC
  5
B36B
330
B07C
100
AcDbEntity
  8
1
  6
Continuous
100
AcDbCircle
 10
126.174322
 20
282.925709
 30
0.0
 40
6.146760999999997
100
AcDbArc
 50
219.4326709999999
 51
314.5668759999998
  0
ARC
  5
B36C
330
B07C
100
AcDbEntity
  8
1
  6
Continuous
100
AcDbCircle
 10
170.187445
 20
283.7789499999999
 30
0.0
 40
9.851650999999996
100
AcDbArc
 50
320.5673269999998
 51
39.432673
  0
ARC
  5
B36D
330
B07C
100
AcDbEntity
  8
1
  6
Continuous
100
AcDbCircle
 10
173.0490019999997
 20
286.132191
 30
0.0
 40
6.146760999999997
100
AcDbArc
 50
39.432673
 51
78.460002
  0
ARC
  5
B36E
330
B07C
100
AcDbEntity
  8
1
  6
Continuous
100
AcDbCircle
 10
173.0490019999997
 20
281.4257089999999
 30
0.0
 40
6.146760999999997
100
AcDbArc
 50
218.68019
 51
320.5673269999998
  0
ARC
  5
B36F
330
B07C
100
AcDbEntity
  8
1
  6
Continuous
100
AcDbCircle
 10
171.911077
 20
281.4257089999999
 30
0.0
 40
6.146760999999997
100
AcDbArc
 50
234.95832
 51
275.311064
  0
ARC
  5
B370
330
B07C
100
AcDbEntity
  8
1
  6
Continuous
100
AcDbCircle
 10
122.940771
 20
293.77895
 30
0.0
 40
2.0
100
AcDbArc
 50
356.3919439999998
 51
90.00000300000001
  0
ARC
  5
B371
330
B07C
100
AcDbEntity
  8
1
  6
Continuous
100
AcDbCircle
 10
133.055853
 20
293.77895
 30
0.0
 40
2.0
100
AcDbArc
 50
0.0
 51
90.00000300000001
  0
ARC
  5
B372
330
B07C
100
AcDbEntity
  8
1
  6
Continuous
100
AcDbCircle
 10
152.3287709999999
 20
247.667683
 30
0.0
 40
40.086208
100
AcDbArc
 50
87.393794
 51
107.1556069999999
  0
ARC
  5
B373
330
B07C
100
AcDbEntity
  8
1
  6
Continuous
100
AcDbCircle
 10
153.298223
 20
276.4932449999998
 30
0.0
 40
11.251592
100
AcDbArc
 50
55.78749300000001
 51
85.650559
  0
ARC
  5
B374
330
B07C
100
AcDbEntity
  8
1
  6
Continuous
100
AcDbCircle
 10
141.9794669999997
 20
281.192814
 30
0.0
 40
5.0
100
AcDbArc
 50
107.1556069999999
 51
128.0550499999999
  0
ARC
  5
B375
330
B07C
100
AcDbEntity
  8
1
  6
Continuous
100
AcDbCircle
 10
172.2825369999999
 20
292.27895
 30
0.0
 40
2.0
100
AcDbArc
 50
0.0
 51
6.256177
  0
LINE
  5
B376
330
B07C
100
AcDbEntity
  8
2
  6
Continuous
100
AcDbLine
 10
44.506921
 20
244.52045
 30
0.0
 11
44.506921
 21
212.213702
 31
0.0
  0
LINE
  5
B377
330
B07C
100
AcDbEntity
  8
2
  6
Continuous
100
AcDbLine
 10
54.61292099999999
 20
244.52045
 30
0.0
 11
54.61292099999999
 21
212.213702
 31
0.0
  0
LINE
  5
B378
330
B07C
100
AcDbEntity
  8
1
  6
Continuous
100
AcDbLine
 10
55.559921
 20
243.57345
 30
0.0
 11
55.559921
 21
210.57345
 31
0.0
  0
LINE
  5
B379
330
B07C
100
AcDbEntity
  8
1
  6
Continuous
100
AcDbLine
 10
43.559921
 20
243.57345
 30
0.0
 11
43.559921
 21
210.57345
 31
0.0
  0
ARC
  5
B37A
330
B07C
100
AcDbEntity
  8
1
  6
Continuous
100
AcDbCircle
 10
53.55992099999999
 20
208.32345
 30
0.0
 40
3.5
100
AcDbArc
 50
139.9947899999999
 51
213.8584799999999
  0
LINE
  5
B37B
330
B07C
100
AcDbEntity
  8
1
  6
Continuous
100
AcDbLine
 10
40.059921
 20
210.57345
 30
0.0
 11
59.05992099999998
 21
210.57345
 31
0.0
  0
LINE
  5
B37C
330
B07C
100
AcDbEntity
  8
1
  6
Continuous
100
AcDbLine
 10
43.559921
 20
212.213702
 30
0.0
 11
55.559921
 21
212.213702
 31
0.0
  0
LINE
  5
B37D
330
B07C
100
AcDbEntity
  8
1
  6
Continuous
100
AcDbLine
 10
40.059921
 20
210.57345
 30
0.0
 11
40.059921
 21
206.373445
 31
0.0
  0
ARC
  5
B37E
330
B07C
100
AcDbEntity
  8
1
  6
Continuous
100
AcDbCircle
 10
43.559921
 20
208.32345
 30
0.0
 40
3.0
100
AcDbArc
 50
131.4096399999999
 51
220.5416599999999
  0
ARC
  5
B37F
330
B07C
100
AcDbEntity
  8
1
  6
Continuous
100
AcDbCircle
 10
45.559921
 20
208.32345
 30
0.0
 40
3.5
100
AcDbArc
 50
326.14148
 51
40.005173
  0
LINE
  5
B380
330
B07C
100
AcDbEntity
  8
2
  6
Continuous
100
AcDbLine
 10
44.506921
 20
212.213702
 30
0.0
 11
43.559921
 21
210.57345
 31
0.0
  0
ARC
  5
B381
330
B07C
100
AcDbEntity
  8
1
  6
Continuous
100
AcDbCircle
 10
55.559921
 20
208.32345
 30
0.0
 40
3.0
100
AcDbArc
 50
319.45831
 51
48.590321
  0
LINE
  5
B382
330
B07C
100
AcDbEntity
  8
1
  6
Continuous
100
AcDbLine
 10
59.05992099999998
 20
210.57345
 30
0.0
 11
59.05992099999998
 21
206.373445
 31
0.0
  0
LINE
  5
B383
330
B07C
100
AcDbEntity
  8
2
  6
Continuous
100
AcDbLine
 10
54.61292099999999
 20
212.213702
 30
0.0
 11
55.559921
 21
210.57345
 31
0.0
  0
LINE
  5
B384
330
B07C
100
AcDbEntity
  8
1
  6
Continuous
100
AcDbLine
 10
45.559921
 20
245.57345
 30
0.0
 11
53.55992099999999
 21
245.57345
 31
0.0
  0
LINE
  5
B385
330
B07C
100
AcDbEntity
  8
1
  6
Continuous
100
AcDbLine
 10
43.559921
 20
243.57345
 30
0.0
 11
55.559921
 21
243.57345
 31
0.0
  0
LINE
  5
B386
330
B07C
100
AcDbEntity
  8
1
  6
Continuous
100
AcDbLine
 10
45.559921
 20
245.57345
 30
0.0
 11
43.559921
 21
243.57345
 31
0.0
  0
LINE
  5
B387
330
B07C
100
AcDbEntity
  8
1
  6
Continuous
100
AcDbLine
 10
53.55992099999999
 20
245.57345
 30
0.0
 11
55.559921
 21
243.57345
 31
0.0
  0
LINE
  5
B388
330
B07C
100
AcDbEntity
  8
1
  6
Continuous
100
AcDbLine
 10
138.3839909999997
 20
47.083979
 30
0.0
 11
134.0328439999999
 21
47.083979
 31
0.0
  0
LINE
  5
B389
330
B07C
100
AcDbEntity
  8
1
  6
Continuous
100
AcDbLine
 10
133.602836
 20
51.08398600000001
 30
0.0
 11
135.0757309999998
 21
47.083979
 31
0.0
  0
LINE
  5
B38A
330
B07C
100
AcDbEntity
  8
1
  6
Continuous
100
AcDbLine
 10
132.5599489999997
 20
51.08398600000001
 30
0.0
 11
134.0328439999999
 21
47.083979
 31
0.0
  0
LINE
  5
B38B
330
B07C
100
AcDbEntity
  8
1
  6
Continuous
100
AcDbLine
 10
135.3705979999997
 20
51.08398600000001
 30
0.0
 11
137.213819
 21
48.637276
 31
0.0
  0
LINE
  5
B38C
330
B07C
100
AcDbEntity
  8
1
  6
Continuous
100
AcDbLine
 10
153.0622909999999
 20
47.083979
 30
0.0
 11
155.266538
 21
47.083979
 31
0.0
  0
LINE
  5
B38D
330
B07C
100
AcDbEntity
  8
1
  6
Continuous
100
AcDbLine
 10
157.5599489999999
 20
51.08398600000001
 30
0.0
 11
155.266538
 21
47.083979
 31
0.0
  0
LINE
  5
B38E
330
B07C
100
AcDbEntity
  8
1
  6
Continuous
100
AcDbLine
 10
153.8168839999999
 20
51.08398600000001
 30
0.0
 11
151.9190139999998
 21
47.084001
 31
0.0
  0
LINE
  5
B38F
330
B07C
100
AcDbEntity
  8
1
  6
Continuous
100
AcDbLine
 10
153.0622909999999
 20
51.08398600000001
 30
0.0
 11
151.166952
 21
47.084001
 31
0.0
  0
LINE
  5
B390
330
B07C
100
AcDbEntity
  8
1
  6
Continuous
100
AcDbLine
 10
135.3705979999997
 20
321.7578849999998
 30
0.0
 11
137.213819
 21
324.204595
 31
0.0
  0
LINE
  5
B391
330
B07C
100
AcDbEntity
  8
1
  6
Continuous
100
AcDbLine
 10
132.5599489999997
 20
321.7578849999998
 30
0.0
 11
134.0328439999999
 21
325.7578919999999
 31
0.0
  0
LINE
  5
B392
330
B07C
100
AcDbEntity
  8
1
  6
Continuous
100
AcDbLine
 10
133.602836
 20
321.7578849999998
 30
0.0
 11
135.0757309999998
 21
325.7578919999999
 31
0.0
  0
ENDSEC
  0
SECTION
  2
OBJECTS
  0
DICTIONARY
  5
B06A
330
0
100
AcDbDictionary
281
     1
  3
ACAD_CIP_PREVIOUS_PRODUCT_INFO
350
B40F
  3
ACAD_COLOR
350
B3F1
  3
ACAD_DETAILVIEWSTYLE
350
B40A
  3
ACAD_GROUP
350
B06B
  3
ACAD_LAYOUT
350
B077
  3
ACAD_MATERIAL
350
B3BF
  3
ACAD_MLEADERSTYLE
350
B406
  3
ACAD_MLINESTYLE
350
B074
  3
ACAD_PLOTSETTINGS
350
B076
  3
ACAD_PLOTSTYLENAME
350
B3BD
  3
ACAD_SCALELIST
350
B3F4
  3
ACAD_SECTIONVIEWSTYLE
350
B408
  3
ACAD_TABLESTYLE
350
B3F2
  3
ACAD_VISUALSTYLE
350
B3D8
  3
ACDB_RECOMPOSE_DATA
350
B42D
  3
AcDbVariableDictionary
350
B420
  3
DWGPROPS
350
B42E
  0
DICTIONARY
  5
B410
330
B06E
100
AcDbDictionary
280
     1
281
     1
  3
ADSK_XREC_LAYER_RECONCILED
360
B411
  0
DICTIONARY
  5
B412
330
B084
100
AcDbDictionary
280
     1
281
     1
  3
ADSK_XREC_LAYER_RECONCILED
360
B413
  0
DICTIONARY
  5
B414
330
B085
100
AcDbDictionary
280
     1
281
     1
  3
ADSK_XREC_LAYER_RECONCILED
360
B415
  0
DICTIONARY
  5
B416
330
B086
100
AcDbDictionary
280
     1
281
     1
  3
ADSK_XREC_LAYER_RECONCILED
360
B417
  0
DICTIONARY
  5
B418
330
B087
100
AcDbDictionary
280
     1
281
     1
  3
ADSK_XREC_LAYER_RECONCILED
360
B419
  0
DICTIONARY
  5
B41A
330
B088
100
AcDbDictionary
280
     1
281
     1
  3
ADSK_XREC_LAYER_RECONCILED
360
B41B
  0
DICTIONARY
  5
B41C
330
B089
100
AcDbDictionary
280
     1
281
     1
  3
ADSK_XREC_LAYER_RECONCILED
360
B41D
  0
DICTIONARY
  5
B41E
330
B08A
100
AcDbDictionary
280
     1
281
     1
  3
ADSK_XREC_LAYER_RECONCILED
360
B41F
  0
DICTIONARY
  5
B39D
330
B07C
100
AcDbDictionary
281
     1
  3
ACAD_LAYOUTSELFREF
350
B3B9
  0
DICTIONARY
  5
B39B
330
B078
100
AcDbDictionary
281
     1
  3
ACAD_LAYOUTSELFREF
350
B3B8
  0
XRECORD
  5
B40F
102
{ACAD_REACTORS
330
B06A
102
}
330
B06A
100
AcDbXrecord
280
     1
300
ACDLT
300
2014
300
ACDLT_F_S
  0
DICTIONARY
  5
B3F1
102
{ACAD_REACTORS
330
B06A
102
}
330
B06A
100
AcDbDictionary
281
     1
  0
DICTIONARY
  5
B40A
102
{ACAD_REACTORS
330
B06A
102
}
330
B06A
100
AcDbDictionary
281
     1
  3
Imperial24
350
B40B
  0
DICTIONARY
  5
B06B
102
{ACAD_REACTORS
330
B06A
102
}
330
B06A
100
AcDbDictionary
281
     1
  0
DICTIONARY
  5
B077
102
{ACAD_REACTORS
330
B06A
102
}
330
B06A
100
AcDbDictionary
281
     1
  3
Model
350
B40C
  3
レイアウト1
350
B40D
  0
DICTIONARY
  5
B3BF
102
{ACAD_REACTORS
330
B06A
102
}
330
B06A
100
AcDbDictionary
281
     1
  3
ByBlock
350
B3C8
  3
ByLayer
350
B3C0
  3
Global
350
B3D0
  0
DICTIONARY
  5
B406
102
{ACAD_REACTORS
330
B06A
102
}
330
B06A
100
AcDbDictionary
281
     1
  3
Standard
350
B407
  0
DICTIONARY
  5
B074
102
{ACAD_REACTORS
330
B06A
102
}
330
B06A
100
AcDbDictionary
281
     1
  3
STANDARD
350
B075
  0
DICTIONARY
  5
B076
102
{ACAD_REACTORS
330
B06A
102
}
330
B06A
100
AcDbDictionary
281
     1
  0
ACDBDICTIONARYWDFLT
  5
B3BD
102
{ACAD_REACTORS
330
B06A
102
}
330
B06A
100
AcDbDictionary
281
     1
  3
Normal
350
B3BE
100
AcDbDictionaryWithDefault
340
B3BE
  0
DICTIONARY
  5
B3F4
102
{ACAD_REACTORS
330
B06A
102
}
330
B06A
100
AcDbDictionary
281
     1
  3
A0
350
B3F5
  3
A1
350
B3F6
  3
A2
350
B3F7
  3
A3
350
B3F8
  3
A4
350
B3F9
  3
A5
350
B3FA
  3
A6
350
B3FB
  3
A7
350
B3FC
  3
A8
350
B3FD
  3
A9
350
B3FE
  3
B0
350
B3FF
  3
B1
350
B400
  3
B2
350
B401
  3
B3
350
B402
  3
B4
350
B403
  3
B5
350
B404
  3
B6
350
B405
  0
DICTIONARY
  5
B408
102
{ACAD_REACTORS
330
B06A
102
}
330
B06A
100
AcDbDictionary
281
     1
  3
Imperial24
350
B409
  0
DICTIONARY
  5
B3F2
102
{ACAD_REACTORS
330
B06A
102
}
330
B06A
100
AcDbDictionary
281
     1
  3
Standard
350
B3F3
  0
DICTIONARY
  5
B3D8
102
{ACAD_REACTORS
330
B06A
102
}
330
B06A
100
AcDbDictionary
281
     1
  3
2dWireframe
350
B3DE
  3
Basic
350
B3DD
  3
Brighten
350
B3E4
  3
ColorChange
350
B3E8
  3
Conceptual
350
B3E1
  3
Dim
350
B3E3
  3
EdgeColorOff
350
B3F0
  3
Facepattern
350
B3E7
  3
Flat
350
B3D9
  3
FlatWithEdges
350
B3DA
  3
Gouraud
350
B3DB
  3
GouraudWithEdges
350
B3DC
  3
Hidden
350
B3E0
  3
JitterOff
350
B3EE
  3
Linepattern
350
B3E6
  3
OverhangOff
350
B3EF
  3
Realistic
350
B3E2
  3
Shaded
350
B3ED
  3
Shaded with edges
350
B3EC
  3
Shades of Gray
350
B3E9
  3
Sketchy
350
B3EA
  3
Thicken
350
B3E5
  3
Wireframe
350
B3DF
  3
X-Ray
350
B3EB
  0
XRECORD
  5
B42D
102
{ACAD_REACTORS
330
B06A
102
}
330
B06A
100
AcDbXrecord
280
     1
 90
        1
330
B3F3
  0
DICTIONARY
  5
B420
102
{ACAD_REACTORS
330
B06A
102
}
330
B06A
100
AcDbDictionary
281
     1
  3
CANNOSCALE
350
B425
  3
CMLEADERSTYLE
350
B422
  3
CTABLESTYLE
350
B421
  3
CVIEWDETAILSTYLE
350
B423
  3
CVIEWSECTIONSTYLE
350
B424
  3
DIMASSOC
350
B428
  3
INDEXCTL
350
B427
  3
SORTENTS
350
B426
  3
XCLIPFRAME
350
B429
  0
XRECORD
  5
B42E
102
{ACAD_REACTORS
330
B06A
102
}
330
B06A
100
AcDbXrecord
280
     1
  1
DWGPROPS COOKIE
  2

  3

  4

  6

  7

  8
Yoshitsune
  9

300
=
301
=
302
=
303
=
304
=
305
=
306
=
307
=
308
=
309
=
 40
0.0037138078703704
 41
2451301.428516667
 42
2457192.689904445
  1

 90
        0
  0
XRECORD
  5
B411
102
{ACAD_REACTORS
330
B410
102
}
330
B410
100
AcDbXrecord
280
     1
290
     1
  0
XRECORD
  5
B413
102
{ACAD_REACTORS
330
B412
102
}
330
B412
100
AcDbXrecord
280
     1
290
     1
  0
XRECORD
  5
B415
102
{ACAD_REACTORS
330
B414
102
}
330
B414
100
AcDbXrecord
280
     1
290
     1
  0
XRECORD
  5
B417
102
{ACAD_REACTORS
330
B416
102
}
330
B416
100
AcDbXrecord
280
     1
290
     1
  0
XRECORD
  5
B419
102
{ACAD_REACTORS
330
B418
102
}
330
B418
100
AcDbXrecord
280
     1
290
     1
  0
XRECORD
  5
B41B
102
{ACAD_REACTORS
330
B41A
102
}
330
B41A
100
AcDbXrecord
280
     1
290
     1
  0
XRECORD
  5
B41D
102
{ACAD_REACTORS
330
B41C
102
}
330
B41C
100
AcDbXrecord
280
     1
290
     1
  0
XRECORD
  5
B41F
102
{ACAD_REACTORS
330
B41E
102
}
330
B41E
100
AcDbXrecord
280
     1
290
     1
  0
XRECORD
  5
B3B9
102
{ACAD_REACTORS
330
B39D
102
}
330
B39D
100
AcDbXrecord
280
     1
340
B07C
  0
XRECORD
  5
B3B8
102
{ACAD_REACTORS
330
B39B
102
}
330
B39B
100
AcDbXrecord
280
     1
340
B078
  0
ACDBDETAILVIEWSTYLE
  5
B40B
102
{ACAD_XDICTIONARY
360
B466
102
}
102
{ACAD_REACTORS
330
B40A
102
}
330
B40A
100
AcDbModelDocViewStyle
 70
     0
  3
Imperial24
290
     0
100
AcDbDetailViewStyle
 70
     0
 71
     0
 90
        3
 71
     1
340
B06F
 40
0.24
340
0
 40
0.24
300

 40
0.36
280
     3
 71
     2
340
B073
 90
       25
 71
     3
340
B06F
 40
0.24
 90
        1
 40
0.75
 90
        1
300
%<\AcVar ViewType \f "%tc1">% %<\AcVar ViewDetailId>%\PSCALE %<\AcVar ViewScale \f "%sn">%
 71
     4
340
B073
 90
       25
340
B073
 90
       25
280
     0
  0
LAYOUT
  5
B40C
102
{ACAD_XDICTIONARY
360
B468
102
}
102
{ACAD_REACTORS
330
B077
102
}
330
B077
100
AcDbPlotSettings
  1

  2
Canon LBP9100C
  4

  6

 40
0.0
 41
0.0
 42
0.0
 43
0.0
 44
0.0
 45
0.0
 46
0.0
 47
0.0
 48
0.0
 49
0.0
140
0.0
141
0.0
142
1.0
143
1.0
 70
  1712
 72
     0
 73
     0
 74
     0
  7

 75
     0
147
1.0
148
0.0
149
0.0
100
AcDbLayout
  1
Model
 70
     1
 71
     0
 10
0.0
 20
0.0
 11
12.0
 21
9.0
 12
0.0
 22
0.0
 32
0.0
 14
0.0
 24
0.0
 34
0.0
 15
0.0
 25
0.0
 35
0.0
146
0.0
 13
0.0
 23
0.0
 33
0.0
 16
1.0
 26
0.0
 36
0.0
 17
0.0
 27
1.0
 37
0.0
 76
     0
330
B07C
331
B3B7
  0
LAYOUT
  5
B40D
102
{ACAD_XDICTIONARY
360
B46A
102
}
102
{ACAD_REACTORS
330
B077
102
}
330
B077
100
AcDbPlotSettings
  1

  2
Canon LBP9100C
  4

  6

 40
0.0
 41
0.0
 42
0.0
 43
0.0
 44
0.0
 45
0.0
 46
0.0
 47
0.0
 48
0.0
 49
0.0
140
0.0
141
0.0
142
1.0
143
1.0
 70
   688
 72
     0
 73
     0
 74
     5
  7

 75
    16
147
1.0
148
0.0
149
0.0
100
AcDbLayout
  1
レイアウト1
 70
     0
 71
     1
 10
0.0
 20
0.0
 11
420.0
 21
297.0
 12
0.0
 22
0.0
 32
0.0
 14
1.000000000000000E+20
 24
1.000000000000000E+20
 34
1.000000000000000E+20
 15
-1.000000000000000E+20
 25
-1.000000000000000E+20
 35
-1.000000000000000E+20
146
0.0
 13
0.0
 23
0.0
 33
0.0
 16
1.0
 26
0.0
 36
0.0
 17
0.0
 27
1.0
 37
0.0
 76
     0
330
B078
  0
MATERIAL
  5
B3C8
102
{ACAD_XDICTIONARY
360
B3C9
102
}
102
{ACAD_REACTORS
330
B3BF
102
}
330
B3BF
100
AcDbMaterial
  1
ByBlock
 72
     0
 43
0.0208333333333333
 43
0.0
 43
0.0
 43
0.0
 43
0.0
 43
0.0208333333333333
 43
0.0
 43
0.0
 43
0.0
 43
0.0
 43
1.0
 43
0.0
 43
0.0
 43
0.0
 43
0.0
 43
1.0
 77
     0
 47
0.0208333333333333
 47
0.0
 47
0.0
 47
0.0
 47
0.0
 47
0.0208333333333333
 47
0.0
 47
0.0
 47
0.0
 47
0.0
 47
1.0
 47
0.0
 47
0.0
 47
0.0
 47
0.0
 47
1.0
171
     0
 49
0.0208333333333333
 49
0.0
 49
0.0
 49
0.0
 49
0.0
 49
0.0208333333333333
 49
0.0
 49
0.0
 49
0.0
 49
0.0
 49
1.0
 49
0.0
 49
0.0
 49
0.0
 49
0.0
 49
1.0
175
     0
142
0.0208333333333333
142
0.0
142
0.0
142
0.0
142
0.0
142
0.0208333333333333
142
0.0
142
0.0
142
0.0
142
0.0
142
1.0
142
0.0
142
0.0
142
0.0
142
0.0
142
1.0
179
     0
144
0.0208333333333333
144
0.0
144
0.0
144
0.0
144
0.0
144
0.0208333333333333
144
0.0
144
0.0
144
0.0
144
0.0
144
1.0
144
0.0
144
0.0
144
0.0
144
0.0
144
1.0
147
0.0208333333333333
147
0.0
147
0.0
147
0.0
147
0.0
147
0.0208333333333333
147
0.0
147
0.0
147
0.0
147
0.0
147
1.0
147
0.0
147
0.0
147
0.0
147
0.0
147
1.0
  0
MATERIAL
  5
B3C0
102
{ACAD_XDICTIONARY
360
B3C1
102
}
102
{ACAD_REACTORS
330
B3BF
102
}
330
B3BF
100
AcDbMaterial
  1
ByLayer
 72
     0
 43
0.0208333333333333
 43
0.0
 43
0.0
 43
0.0
 43
0.0
 43
0.0208333333333333
 43
0.0
 43
0.0
 43
0.0
 43
0.0
 43
1.0
 43
0.0
 43
0.0
 43
0.0
 43
0.0
 43
1.0
 77
     0
 47
0.0208333333333333
 47
0.0
 47
0.0
 47
0.0
 47
0.0
 47
0.0208333333333333
 47
0.0
 47
0.0
 47
0.0
 47
0.0
 47
1.0
 47
0.0
 47
0.0
 47
0.0
 47
0.0
 47
1.0
171
     0
 49
0.0208333333333333
 49
0.0
 49
0.0
 49
0.0
 49
0.0
 49
0.0208333333333333
 49
0.0
 49
0.0
 49
0.0
 49
0.0
 49
1.0
 49
0.0
 49
0.0
 49
0.0
 49
0.0
 49
1.0
175
     0
142
0.0208333333333333
142
0.0
142
0.0
142
0.0
142
0.0
142
0.0208333333333333
142
0.0
142
0.0
142
0.0
142
0.0
142
1.0
142
0.0
142
0.0
142
0.0
142
0.0
142
1.0
179
     0
144
0.0208333333333333
144
0.0
144
0.0
144
0.0
144
0.0
144
0.0208333333333333
144
0.0
144
0.0
144
0.0
144
0.0
144
1.0
144
0.0
144
0.0
144
0.0
144
0.0
144
1.0
147
0.0208333333333333
147
0.0
147
0.0
147
0.0
147
0.0
147
0.0208333333333333
147
0.0
147
0.0
147
0.0
147
0.0
147
1.0
147
0.0
147
0.0
147
0.0
147
0.0
147
1.0
  0
MATERIAL
  5
B3D0
102
{ACAD_XDICTIONARY
360
B3D1
102
}
102
{ACAD_REACTORS
330
B3BF
102
}
330
B3BF
100
AcDbMaterial
  1
Global
 72
     0
 43
0.0208333333333333
 43
0.0
 43
0.0
 43
0.0
 43
0.0
 43
0.0208333333333333
 43
0.0
 43
0.0
 43
0.0
 43
0.0
 43
1.0
 43
0.0
 43
0.0
 43
0.0
 43
0.0
 43
1.0
 77
     0
 47
0.0208333333333333
 47
0.0
 47
0.0
 47
0.0
 47
0.0
 47
0.0208333333333333
 47
0.0
 47
0.0
 47
0.0
 47
0.0
 47
1.0
 47
0.0
 47
0.0
 47
0.0
 47
0.0
 47
1.0
171
     0
 49
0.0208333333333333
 49
0.0
 49
0.0
 49
0.0
 49
0.0
 49
0.0208333333333333
 49
0.0
 49
0.0
 49
0.0
 49
0.0
 49
1.0
 49
0.0
 49
0.0
 49
0.0
 49
0.0
 49
1.0
175
     0
142
0.0208333333333333
142
0.0
142
0.0
142
0.0
142
0.0
142
0.0208333333333333
142
0.0
142
0.0
142
0.0
142
0.0
142
1.0
142
0.0
142
0.0
142
0.0
142
0.0
142
1.0
179
     0
144
0.0208333333333333
144
0.0
144
0.0
144
0.0
144
0.0
144
0.0208333333333333
144
0.0
144
0.0
144
0.0
144
0.0
144
1.0
144
0.0
144
0.0
144
0.0
144
0.0
144
1.0
147
0.0208333333333333
147
0.0
147
0.0
147
0.0
147
0.0
147
0.0208333333333333
147
0.0
147
0.0
147
0.0
147
0.0
147
1.0
147
0.0
147
0.0
147
0.0
147
0.0
147
1.0
  0
MLEADERSTYLE
  5
B407
102
{ACAD_REACTORS
330
B406
102
}
330
B406
100
AcDbMLeaderStyle
170
     2
171
     1
172
     0
 90
        2
 40
0.0
 41
0.0
173
     1
 91
-1056964608
340
B071
 92
       -2
290
     1
 42
0.09
291
     1
 43
0.36
  3
Standard
 44
0.18
300

342
B06F
174
     1
178
     6
175
     1
176
     0
 93
-1056964608
 45
0.18
292
     0
297
     0
 46
0.18
 94
-1056964608
 47
1.0
 49
1.0
140
1.0
293
     1
141
0.0
294
     1
177
     0
142
1.0
295
     0
296
     0
143
0.125
1001
ACAD_MLEADERVER
1070
     2
  0
MLINESTYLE
  5
B075
102
{ACAD_REACTORS
330
B074
102
}
330
B074
100
AcDbMlineStyle
  2
STANDARD
 70
     0
  3

 62
   256
 51
90.0
 52
90.0
 71
     2
 49
0.5
 62
   256
  6
BYLAYER
 49
-0.5
 62
   256
  6
BYLAYER
  0
ACDBPLACEHOLDER
  5
B3BE
102
{ACAD_REACTORS
330
B3BD
102
}
330
B3BD
  0
SCALE
  5
B3F5
102
{ACAD_REACTORS
330
B3F4
102
}
330
B3F4
100
AcDbScale
 70
     0
300
1:1
140
1.0
141
1.0
290
     1
  0
SCALE
  5
B3F6
102
{ACAD_REACTORS
330
B3F4
102
}
330
B3F4
100
AcDbScale
 70
     0
300
1/128" = 1'-0"
140
0.0078125
141
12.0
290
     0
  0
SCALE
  5
B3F7
102
{ACAD_REACTORS
330
B3F4
102
}
330
B3F4
100
AcDbScale
 70
     0
300
1/64" = 1'-0"
140
0.015625
141
12.0
290
     0
  0
SCALE
  5
B3F8
102
{ACAD_REACTORS
330
B3F4
102
}
330
B3F4
100
AcDbScale
 70
     0
300
1/32" = 1'-0"
140
0.03125
141
12.0
290
     0
  0
SCALE
  5
B3F9
102
{ACAD_REACTORS
330
B3F4
102
}
330
B3F4
100
AcDbScale
 70
     0
300
1/16" = 1'-0"
140
0.0625
141
12.0
290
     0
  0
SCALE
  5
B3FA
102
{ACAD_REACTORS
330
B3F4
102
}
330
B3F4
100
AcDbScale
 70
     0
300
3/32" = 1'-0"
140
0.09375
141
12.0
290
     0
  0
SCALE
  5
B3FB
102
{ACAD_REACTORS
330
B3F4
102
}
330
B3F4
100
AcDbScale
 70
     0
300
1/8" = 1'-0"
140
0.125
141
12.0
290
     0
  0
SCALE
  5
B3FC
102
{ACAD_REACTORS
330
B3F4
102
}
330
B3F4
100
AcDbScale
 70
     0
300
3/16" = 1'-0"
140
0.1875
141
12.0
290
     0
  0
SCALE
  5
B3FD
102
{ACAD_REACTORS
330
B3F4
102
}
330
B3F4
100
AcDbScale
 70
     0
300
1/4" = 1'-0"
140
0.25
141
12.0
290
     0
  0
SCALE
  5
B3FE
102
{ACAD_REACTORS
330
B3F4
102
}
330
B3F4
100
AcDbScale
 70
     0
300
3/8" = 1'-0"
140
0.375
141
12.0
290
     0
  0
SCALE
  5
B3FF
102
{ACAD_REACTORS
330
B3F4
102
}
330
B3F4
100
AcDbScale
 70
     0
300
1/2" = 1'-0"
140
0.5
141
12.0
290
     0
  0
SCALE
  5
B400
102
{ACAD_REACTORS
330
B3F4
102
}
330
B3F4
100
AcDbScale
 70
     0
300
3/4" = 1'-0"
140
0.75
141
12.0
290
     0
  0
SCALE
  5
B401
102
{ACAD_REACTORS
330
B3F4
102
}
330
B3F4
100
AcDbScale
 70
     0
300
1" = 1'-0"
140
1.0
141
12.0
290
     0
  0
SCALE
  5
B402
102
{ACAD_REACTORS
330
B3F4
102
}
330
B3F4
100
AcDbScale
 70
     0
300
1-1/2" = 1'-0"
140
1.5
141
12.0
290
     0
  0
SCALE
  5
B403
102
{ACAD_REACTORS
330
B3F4
102
}
330
B3F4
100
AcDbScale
 70
     0
300
3" = 1'-0"
140
3.0
141
12.0
290
     0
  0
SCALE
  5
B404
102
{ACAD_REACTORS
330
B3F4
102
}
330
B3F4
100
AcDbScale
 70
     0
300
6" = 1'-0"
140
6.0
141
12.0
290
     0
  0
SCALE
  5
B405
102
{ACAD_REACTORS
330
B3F4
102
}
330
B3F4
100
AcDbScale
 70
     0
300
1'-0" = 1'-0"
140
12.0
141
12.0
290
     0
  0
ACDBSECTIONVIEWSTYLE
  5
B409
102
{ACAD_XDICTIONARY
360
B464
102
}
102
{ACAD_REACTORS
330
B408
102
}
330
B408
100
AcDbModelDocViewStyle
 70
     0
  3
Imperial24
290
     0
100
AcDbSectionViewStyle
 70
     0
 71
     0
 90
       78
 71
     1
340
B06F
 40
0.24
340
0
340
0
 40
0.24
300
I, O, Q, S, X, Z
 40
0.48
 90
        3
 40
0.18
 90
        1
 71
     2
340
B073
 90
       25
340
B073
 90
       50
 40
0.24
 40
0.0
 40
0.24
 71
     3
340
B06F
 40
0.24
 90
        1
 40
0.75
 90
        1
300
%<\AcVar ViewType \f "%tc1">% %<\AcVar ViewSectionStartId>%-%<\AcVar ViewSectionEndId>%\PSCALE %<\AcVar ViewScale \f "%sn">%
 71
     4
300
ANSI31
 40
1.0
 90
        0
290
     0
290
     0
 90
        6
 40
0.0
 40
1.570796326794896
 40
0.2617993877991494
 40
1.308996938995747
 40
-0.2617993877991494
 40
1.832595714594046
  0
TABLESTYLE
  5
B3F3
102
{ACAD_XDICTIONARY
360
B42B
102
}
102
{ACAD_REACTORS
330
B3F2
102
}
330
B3F2
100
AcDbTableStyle
  3
Standard
 70
     0
 71
     0
 40
0.06
 41
0.06
280
     0
281
     0
  7
STANDARD
140
0.18
170
     2
 62
     0
 63
     7
283
     0
274
    -2
284
     1
 64
     0
275
    -2
285
     1
 65
     0
276
    -2
286
     1
 66
     0
277
    -2
287
     1
 67
     0
278
    -2
288
     1
 68
     0
279
    -2
289
     1
 69
     0
  7
STANDARD
140
0.25
170
     5
 62
     0
 63
     7
283
     0
274
    -2
284
     1
 64
     0
275
    -2
285
     1
 65
     0
276
    -2
286
     1
 66
     0
277
    -2
287
     1
 67
     0
278
    -2
288
     1
 68
     0
279
    -2
289
     1
 69
     0
  7
STANDARD
140
0.18
170
     5
 62
     0
 63
     7
283
     0
274
    -2
284
     1
 64
     0
275
    -2
285
     1
 65
     0
276
    -2
286
     1
 66
     0
277
    -2
287
     1
 67
     0
278
    -2
288
     1
 68
     0
279
    -2
289
     1
 69
     0
  0
VISUALSTYLE
  5
B3DE
102
{ACAD_XDICTIONARY
360
B43C
102
}
102
{ACAD_REACTORS
330
B3D8
102
}
330
B3D8
100
AcDbVisualStyle
  2
2dWireframe
 70
     4
 71
     0
 72
     2
 73
     0
 90
        0
 40
-0.6
 41
-30.0
 62
     5
 63
     7
 74
     1
 91
        4
 64
     7
 65
   257
 75
     1
175
     1
 42
1.0
 92
        0
 66
   257
 43
1.0
 76
     1
 77
     6
 78
     2
 67
     7
 79
     5
170
     0
171
     0
290
     0
174
     0
 93
        1
 44
0.0
173
     0
291
     0
 45
0.0
1001
ACAD
1000
AcDbSavedByObjectVersion
1070
     0
  0
VISUALSTYLE
  5
B3DD
102
{ACAD_XDICTIONARY
360
B43A
102
}
102
{ACAD_REACTORS
330
B3D8
102
}
330
B3D8
100
AcDbVisualStyle
  2
Basic
 70
     7
 71
     1
 72
     0
 73
     1
 90
        0
 40
-0.6
 41
-30.0
 62
     5
 63
     7
 74
     0
 91
        4
 64
     7
 65
   257
 75
     1
175
     1
 42
1.0
 92
        8
 66
     7
 43
1.0
 76
     1
 77
     6
 78
     2
 67
     7
 79
     5
170
     0
171
     0
290
     0
174
     0
 93
        1
 44
0.0
173
     0
291
     1
 45
0.0
1001
ACAD
1000
AcDbSavedByObjectVersion
1070
     0
  0
VISUALSTYLE
  5
B3E4
102
{ACAD_XDICTIONARY
360
B448
102
}
102
{ACAD_REACTORS
330
B3D8
102
}
330
B3D8
100
AcDbVisualStyle
  2
Brighten
 70
    12
 71
     2
 72
     2
 73
     0
 90
        0
 40
-0.6
 41
-30.0
 62
     5
 63
     7
 74
     1
 91
        4
 64
     7
 65
   257
 75
     1
175
     1
 42
1.0
 92
        8
 66
     7
 43
1.0
 76
     1
 77
     6
 78
     2
 67
     7
 79
     5
170
     0
171
     0
290
     0
174
     0
 93
        1
 44
50.0
173
     0
291
     1
 45
0.0
1001
ACAD
1000
AcDbSavedByObjectVersion
1070
     0
  0
VISUALSTYLE
  5
B3E8
102
{ACAD_XDICTIONARY
360
B450
102
}
102
{ACAD_REACTORS
330
B3D8
102
}
330
B3D8
100
AcDbVisualStyle
  2
ColorChange
 70
    16
 71
     2
 72
     2
 73
     3
 90
        0
 40
-0.6
 41
-30.0
 62
     5
 63
     8
 74
     1
 91
        4
 64
     7
 65
   257
 75
     1
175
     1
 42
1.0
 92
        8
 66
     8
 43
1.0
 76
     1
 77
     6
 78
     2
 67
     7
 79
     5
170
     0
171
     0
290
     0
174
     0
 93
        1
 44
0.0
173
     0
291
     1
 45
0.0
1001
ACAD
1000
AcDbSavedByObjectVersion
1070
     0
  0
VISUALSTYLE
  5
B3E1
102
{ACAD_XDICTIONARY
360
B442
102
}
102
{ACAD_REACTORS
330
B3D8
102
}
330
B3D8
100
AcDbVisualStyle
  2
Conceptual
 70
     9
 71
     3
 72
     2
 73
     0
 90
        0
 40
-0.6
 41
-30.0
 62
     5
 63
     7
 74
     2
 91
        2
 64
     7
 65
   257
 75
     1
175
     1
 42
179.0
 92
        8
 66
     7
 43
1.0
 76
     1
 77
     6
 78
     2
 67
     7
 79
     3
170
     0
171
     0
290
     0
174
     0
 93
        1
 44
0.0
173
     0
291
     0
 45
0.0
1001
ACAD
1000
AcDbSavedByObjectVersion
1070
     0
  0
VISUALSTYLE
  5
B3E3
102
{ACAD_XDICTIONARY
360
B446
102
}
102
{ACAD_REACTORS
330
B3D8
102
}
330
B3D8
100
AcDbVisualStyle
  2
Dim
 70
    11
 71
     2
 72
     2
 73
     0
 90
        0
 40
-0.6
 41
-30.0
 62
     5
 63
     7
 74
     1
 91
        4
 64
     7
 65
   257
 75
     1
175
     1
 42
1.0
 92
        8
 66
     7
 43
1.0
 76
     1
 77
     6
 78
     2
 67
     7
 79
     5
170
     0
171
     0
290
     0
174
     0
 93
        1
 44
-50.0
173
     0
291
     1
 45
0.0
1001
ACAD
1000
AcDbSavedByObjectVersion
1070
     0
  0
VISUALSTYLE
  5
B3F0
102
{ACAD_XDICTIONARY
360
B460
102
}
102
{ACAD_REACTORS
330
B3D8
102
}
330
B3D8
100
AcDbVisualStyle
  2
EdgeColorOff
 70
    22
 71
     2
 72
     2
 73
     0
 90
        0
 40
-0.6
 41
-30.0
 62
     5
 63
     7
 74
     1
 91
        4
 64
     7
 65
   257
 75
     1
175
     1
 42
1.0
 92
        8
 66
     7
 43
1.0
 76
     1
 77
     6
 78
     2
 67
     7
 79
     5
170
     0
171
     0
290
     0
174
     0
 93
        1
 44
0.0
173
     0
291
     1
 45
0.0
1001
ACAD
1000
AcDbSavedByObjectVersion
1070
     0
  0
VISUALSTYLE
  5
B3E7
102
{ACAD_XDICTIONARY
360
B44E
102
}
102
{ACAD_REACTORS
330
B3D8
102
}
330
B3D8
100
AcDbVisualStyle
  2
Facepattern
 70
    15
 71
     2
 72
     2
 73
     0
 90
        0
 40
-0.6
 41
-30.0
 62
     5
 63
     7
 74
     1
 91
        4
 64
     7
 65
   257
 75
     1
175
     1
 42
1.0
 92
        8
 66
     7
 43
1.0
 76
     1
 77
     6
 78
     2
 67
     7
 79
     5
170
     0
171
     0
290
     0
174
     0
 93
        1
 44
0.0
173
     0
291
     1
 45
0.0
1001
ACAD
1000
AcDbSavedByObjectVersion
1070
     0
  0
VISUALSTYLE
  5
B3D9
102
{ACAD_XDICTIONARY
360
B432
102
}
102
{ACAD_REACTORS
330
B3D8
102
}
330
B3D8
100
AcDbVisualStyle
  2
Flat
 70
     0
 71
     2
 72
     1
 73
     1
 90
        2
 40
-0.6
 41
30.0
 62
     5
 63
     7
 74
     0
 91
        0
 64
     7
 65
   257
 75
     1
175
     1
 42
1.0
 92
        8
 66
     7
 43
1.0
 76
     1
 77
     6
 78
     2
 67
     7
 79
     5
170
     0
171
     0
290
     0
174
     0
 93
       13
 44
0.0
173
     0
291
     1
 45
0.0
1001
ACAD
1000
AcDbSavedByObjectVersion
1070
     0
  0
VISUALSTYLE
  5
B3DA
102
{ACAD_XDICTIONARY
360
B434
102
}
102
{ACAD_REACTORS
330
B3D8
102
}
330
B3D8
100
AcDbVisualStyle
  2
FlatWithEdges
 70
     1
 71
     2
 72
     1
 73
     1
 90
        2
 40
-0.6
 41
30.0
 62
     5
 63
     7
 74
     1
 91
        0
 64
     7
 65
   257
 75
     1
175
     1
 42
1.0
 92
        0
 66
   257
 43
1.0
 76
     1
 77
     6
 78
     2
 67
     7
 79
     5
170
     0
171
     0
290
     0
174
     0
 93
       13
 44
0.0
173
     0
291
     1
 45
0.0
1001
ACAD
1000
AcDbSavedByObjectVersion
1070
     0
  0
VISUALSTYLE
  5
B3DB
102
{ACAD_XDICTIONARY
360
B436
102
}
102
{ACAD_REACTORS
330
B3D8
102
}
330
B3D8
100
AcDbVisualStyle
  2
Gouraud
 70
     2
 71
     2
 72
     2
 73
     1
 90
        2
 40
-0.6
 41
30.0
 62
     5
 63
     7
 74
     0
 91
        0
 64
     7
 65
   257
 75
     1
175
     1
 42
1.0
 92
        0
 66
     7
 43
1.0
 76
     1
 77
     6
 78
     2
 67
     7
 79
     5
170
     0
171
     0
290
     0
174
     0
 93
       13
 44
0.0
173
     0
291
     1
 45
0.0
1001
ACAD
1000
AcDbSavedByObjectVersion
1070
     0
  0
VISUALSTYLE
  5
B3DC
102
{ACAD_XDICTIONARY
360
B438
102
}
102
{ACAD_REACTORS
330
B3D8
102
}
330
B3D8
100
AcDbVisualStyle
  2
GouraudWithEdges
 70
     3
 71
     2
 72
     2
 73
     1
 90
        2
 40
-0.6
 41
30.0
 62
     5
 63
     7
 74
     1
 91
        0
 64
     7
 65
   257
 75
     1
175
     1
 42
1.0
 92
        0
 66
   257
 43
1.0
 76
     1
 77
     6
 78
     2
 67
     7
 79
     5
170
     0
171
     0
290
     0
174
     0
 93
       13
 44
0.0
173
     0
291
     1
 45
0.0
1001
ACAD
1000
AcDbSavedByObjectVersion
1070
     0
  0
VISUALSTYLE
  5
B3E0
102
{ACAD_XDICTIONARY
360
B440
102
}
102
{ACAD_REACTORS
330
B3D8
102
}
330
B3D8
100
AcDbVisualStyle
  2
Hidden
 70
     6
 71
     1
 72
     2
 73
     2
 90
        0
 40
-0.6
 41
-30.0
 62
     5
 63
     7
 74
     2
 91
        2
 64
     7
 65
   257
 75
     2
175
     1
 42
40.0
 92
        0
 66
   257
 43
1.0
 76
     1
 77
     6
 78
     2
 67
     7
 79
     3
170
     0
171
     0
290
     0
174
     0
 93
        1
 44
0.0
173
     0
291
     0
 45
0.0
1001
ACAD
1000
AcDbSavedByObjectVersion
1070
     0
  0
VISUALSTYLE
  5
B3EE
102
{ACAD_XDICTIONARY
360
B45C
102
}
102
{ACAD_REACTORS
330
B3D8
102
}
330
B3D8
100
AcDbVisualStyle
  2
JitterOff
 70
    20
 71
     2
 72
     2
 73
     0
 90
        0
 40
-0.6
 41
-30.0
 62
     5
 63
     7
 74
     1
 91
        4
 64
     7
 65
   257
 75
     1
175
     1
 42
1.0
 92
       10
 66
     7
 43
1.0
 76
     1
 77
     6
 78
     2
 67
     7
 79
     5
170
     0
171
     0
290
     0
174
     0
 93
        1
 44
0.0
173
     0
291
     1
 45
0.0
1001
ACAD
1000
AcDbSavedByObjectVersion
1070
     0
  0
VISUALSTYLE
  5
B3E6
102
{ACAD_XDICTIONARY
360
B44C
102
}
102
{ACAD_REACTORS
330
B3D8
102
}
330
B3D8
100
AcDbVisualStyle
  2
Linepattern
 70
    14
 71
     2
 72
     2
 73
     0
 90
        0
 40
-0.6
 41
-30.0
 62
     5
 63
     7
 74
     1
 91
        4
 64
     7
 65
   257
 75
     7
175
     7
 42
1.0
 92
        8
 66
     7
 43
1.0
 76
     1
 77
     6
 78
     2
 67
     7
 79
     5
170
     0
171
     0
290
     0
174
     0
 93
        1
 44
0.0
173
     0
291
     1
 45
0.0
1001
ACAD
1000
AcDbSavedByObjectVersion
1070
     0
  0
VISUALSTYLE
  5
B3EF
102
{ACAD_XDICTIONARY
360
B45E
102
}
102
{ACAD_REACTORS
330
B3D8
102
}
330
B3D8
100
AcDbVisualStyle
  2
OverhangOff
 70
    21
 71
     2
 72
     2
 73
     0
 90
        0
 40
-0.6
 41
-30.0
 62
     5
 63
     7
 74
     1
 91
        4
 64
     7
 65
   257
 75
     1
175
     1
 42
1.0
 92
        9
 66
     7
 43
1.0
 76
     1
 77
     6
 78
     2
 67
     7
 79
     5
170
     0
171
     0
290
     0
174
     0
 93
        1
 44
0.0
173
     0
291
     1
 45
0.0
1001
ACAD
1000
AcDbSavedByObjectVersion
1070
     0
  0
VISUALSTYLE
  5
B3E2
102
{ACAD_XDICTIONARY
360
B444
102
}
102
{ACAD_REACTORS
330
B3D8
102
}
330
B3D8
100
AcDbVisualStyle
  2
Realistic
 70
     8
 71
     2
 72
     3
 73
     0
 90
        2
 40
-0.6
 41
30.0
 62
     5
 63
     7
 74
     0
 91
        0
 64
     7
 65
   257
 75
     1
175
     1
 42
1.0
 92
        8
 66
   257
 43
1.0
 76
     1
 77
     6
 78
     2
 67
     7
 79
     3
170
     0
171
     0
290
     0
174
     0
 93
       13
 44
0.0
173
     0
291
     0
 45
0.0
1001
ACAD
1000
AcDbSavedByObjectVersion
1070
     0
  0
VISUALSTYLE
  5
B3ED
102
{ACAD_XDICTIONARY
360
B45A
102
}
102
{ACAD_REACTORS
330
B3D8
102
}
330
B3D8
100
AcDbVisualStyle
  2
Shaded
 70
    27
 71
     2
 72
     2
 73
     1
 90
        2
 40
-0.6
 41
30.0
 62
     5
 63
     7
 74
     0
 91
        4
 64
     7
 65
   257
 75
     1
175
     1
 42
1.0
 92
        8
 66
   257
 43
1.0
 76
     1
 77
     6
 78
     2
 67
     8
 79
     3
170
     0
171
     0
290
     0
174
     0
 93
        5
 44
0.0
173
     0
291
     0
 45
0.0
1001
ACAD
1000
AcDbSavedByObjectVersion
1070
     0
  0
VISUALSTYLE
  5
B3EC
102
{ACAD_XDICTIONARY
360
B458
102
}
102
{ACAD_REACTORS
330
B3D8
102
}
330
B3D8
100
AcDbVisualStyle
  2
Shaded with edges
 70
    26
 71
     2
 72
     2
 73
     1
 90
        2
 40
-0.6
 41
30.0
 62
     5
 63
     7
 74
     1
 91
       10
 64
     7
 65
   257
 75
     2
175
     1
 42
1.0
 92
        8
 66
   257
 43
1.0
 76
     1
 77
     6
 78
     2
 67
     7
 79
     3
170
     0
171
     0
290
     0
174
     0
 93
        5
 44
0.0
173
     0
291
     0
 45
0.0
1001
ACAD
1000
AcDbSavedByObjectVersion
1070
     0
  0
VISUALSTYLE
  5
B3E9
102
{ACAD_XDICTIONARY
360
B452
102
}
102
{ACAD_REACTORS
330
B3D8
102
}
330
B3D8
100
AcDbVisualStyle
  2
Shades of Gray
 70
    23
 71
     2
 72
     2
 73
     3
 90
        0
 40
-0.6
 41
-30.0
 62
     5
 63
     7
 74
     2
 91
        2
 64
     7
 65
     7
 75
     1
175
     1
 42
40.0
 92
        8
 66
     7
 43
1.0
 76
     1
 77
     6
 78
     2
 67
     7
 79
     3
170
     0
171
     0
290
     0
174
     0
 93
        1
 44
0.0
173
     0
291
     0
 45
0.0
1001
ACAD
1000
AcDbSavedByObjectVersion
1070
     0
  0
VISUALSTYLE
  5
B3EA
102
{ACAD_XDICTIONARY
360
B454
102
}
102
{ACAD_REACTORS
330
B3D8
102
}
330
B3D8
100
AcDbVisualStyle
  2
Sketchy
 70
    24
 71
     1
 72
     2
 73
     2
 90
        0
 40
-0.6
 41
-30.0
 62
     5
 63
     7
 74
     2
 91
        2
 64
     7
 65
     7
 75
     1
175
     1
 42
40.0
 92
       11
 66
     7
 43
1.0
 76
     1
 77
     6
 78
     2
 67
     7
 79
     6
170
     0
171
     0
290
     0
174
     0
 93
        1
 44
0.0
173
     0
291
     0
 45
0.0
1001
ACAD
1000
AcDbSavedByObjectVersion
1070
     0
  0
VISUALSTYLE
  5
B3E5
102
{ACAD_XDICTIONARY
360
B44A
102
}
102
{ACAD_REACTORS
330
B3D8
102
}
330
B3D8
100
AcDbVisualStyle
  2
Thicken
 70
    13
 71
     2
 72
     2
 73
     0
 90
        0
 40
-0.6
 41
-30.0
 62
     5
 63
     7
 74
     1
 91
        4
 64
     7
 65
   257
 75
     1
175
     1
 42
1.0
 92
       12
 66
     7
 43
1.0
 76
     1
 77
     6
 78
     2
 67
     7
 79
     5
170
     0
171
     0
290
     0
174
     0
 93
        1
 44
0.0
173
     0
291
     1
 45
0.0
1001
ACAD
1000
AcDbSavedByObjectVersion
1070
     0
  0
VISUALSTYLE
  5
B3DF
102
{ACAD_XDICTIONARY
360
B43E
102
}
102
{ACAD_REACTORS
330
B3D8
102
}
330
B3D8
100
AcDbVisualStyle
  2
Wireframe
 70
     5
 71
     0
 72
     2
 73
     0
 90
        0
 40
-0.6
 41
-30.0
 62
     5
 63
     7
 74
     1
 91
        4
 64
     7
 65
   257
 75
     1
175
     1
 42
1.0
 92
        0
 66
   257
 43
1.0
 76
     1
 77
     6
 78
     2
 67
     7
 79
     3
170
     0
171
     0
290
     0
174
     0
 93
        1
 44
0.0
173
     0
291
     0
 45
0.0
1001
ACAD
1000
AcDbSavedByObjectVersion
1070
     0
  0
VISUALSTYLE
  5
B3EB
102
{ACAD_XDICTIONARY
360
B456
102
}
102
{ACAD_REACTORS
330
B3D8
102
}
330
B3D8
100
AcDbVisualStyle
  2
X-Ray
 70
    25
 71
     2
 72
     2
 73
     1
 90
        1
 40
0.5
 41
-30.0
 62
     5
 63
     7
 74
     1
 91
        0
 64
     7
 65
   257
 75
     1
175
     1
 42
1.0
 92
        8
 66
     7
 43
1.0
 76
     1
 77
     6
 78
     2
 67
     7
 79
     3
170
     0
171
     0
290
     0
174
     0
 93
       13
 44
0.0
173
     0
291
     0
 45
0.0
1001
ACAD
1000
AcDbSavedByObjectVersion
1070
     0
  0
DICTIONARYVAR
  5
B425
102
{ACAD_REACTORS
330
B420
102
}
330
B420
100
DictionaryVariables
280
     0
  1
1:1
  0
DICTIONARYVAR
  5
B422
102
{ACAD_REACTORS
330
B420
102
}
330
B420
100
DictionaryVariables
280
     0
  1
STANDARD
  0
DICTIONARYVAR
  5
B421
102
{ACAD_REACTORS
330
B420
102
}
330
B420
100
DictionaryVariables
280
     0
  1
STANDARD
  0
DICTIONARYVAR
  5
B423
102
{ACAD_REACTORS
330
B420
102
}
330
B420
100
DictionaryVariables
280
     0
  1
Imperial24
  0
DICTIONARYVAR
  5
B424
102
{ACAD_REACTORS
330
B420
102
}
330
B420
100
DictionaryVariables
280
     0
  1
Imperial24
  0
DICTIONARYVAR
  5
B428
102
{ACAD_REACTORS
330
B420
102
}
330
B420
100
DictionaryVariables
280
     0
  1
1
  0
DICTIONARYVAR
  5
B427
102
{ACAD_REACTORS
330
B420
102
}
330
B420
100
DictionaryVariables
280
     0
  1
0
  0
DICTIONARYVAR
  5
B426
102
{ACAD_REACTORS
330
B420
102
}
330
B420
100
DictionaryVariables
280
     0
  1
127
  0
DICTIONARYVAR
  5
B429
102
{ACAD_REACTORS
330
B420
102
}
330
B420
100
DictionaryVariables
280
     0
  1
2
  0
DICTIONARY
  5
B466
330
B40B
100
AcDbDictionary
280
     1
281
     1
  3
ACAD_XREC_ROUNDTRIP
360
B467
  0
DICTIONARY
  5
B468
330
B40C
100
AcDbDictionary
280
     1
281
     1
  3
ACAD_XREC_ROUNDTRIP
360
B469
  0
DICTIONARY
  5
B46A
330
B40D
100
AcDbDictionary
280
     1
281
     1
  3
ACAD_XREC_ROUNDTRIP
360
B46B
  0
DICTIONARY
  5
B3C9
330
B3C8
100
AcDbDictionary
280
     1
281
     1
  3
ACAD_XREC_ROUNDTRIP
360
B430
  3
BUMPTILE
360
B3CB
  3
DIFFUSETILE
360
B3CA
  3
OPACITYTILE
360
B3CE
  3
REFLECTIONTILE
360
B3CD
  3
REFRACTIONTILE
360
B3CF
  3
SPECULARTILE
360
B3CC
  0
DICTIONARY
  5
B3C1
330
B3C0
100
AcDbDictionary
280
     1
281
     1
  3
ACAD_XREC_ROUNDTRIP
360
B42F
  3
BUMPTILE
360
B3C3
  3
DIFFUSETILE
360
B3C2
  3
OPACITYTILE
360
B3C6
  3
REFLECTIONTILE
360
B3C5
  3
REFRACTIONTILE
360
B3C7
  3
SPECULARTILE
360
B3C4
  0
DICTIONARY
  5
B3D1
330
B3D0
100
AcDbDictionary
280
     1
281
     1
  3
ACAD_XREC_ROUNDTRIP
360
B431
  3
BUMPTILE
360
B3D3
  3
DIFFUSETILE
360
B3D2
  3
OPACITYTILE
360
B3D6
  3
REFLECTIONTILE
360
B3D5
  3
REFRACTIONTILE
360
B3D7
  3
SPECULARTILE
360
B3D4
  0
DICTIONARY
  5
B464
330
B409
100
AcDbDictionary
280
     1
281
     1
  3
ACAD_XREC_ROUNDTRIP
360
B465
  0
DICTIONARY
  5
B42B
330
B3F3
100
AcDbDictionary
280
     1
281
     1
  3
ACAD_ROUNDTRIP_2008_TABLESTYLE_CELLSTYLEMAP
360
B42C
  3
ACAD_XREC_ROUNDTRIP
360
B462
  0
DICTIONARY
  5
B43C
330
B3DE
100
AcDbDictionary
280
     1
281
     1
  3
ACAD_XREC_ROUNDTRIP
360
B43D
  0
DICTIONARY
  5
B43A
330
B3DD
100
AcDbDictionary
280
     1
281
     1
  3
ACAD_XREC_ROUNDTRIP
360
B43B
  0
DICTIONARY
  5
B448
330
B3E4
100
AcDbDictionary
280
     1
281
     1
  3
ACAD_XREC_ROUNDTRIP
360
B449
  0
DICTIONARY
  5
B450
330
B3E8
100
AcDbDictionary
280
     1
281
     1
  3
ACAD_XREC_ROUNDTRIP
360
B451
  0
DICTIONARY
  5
B442
330
B3E1
100
AcDbDictionary
280
     1
281
     1
  3
ACAD_XREC_ROUNDTRIP
360
B443
  0
DICTIONARY
  5
B446
330
B3E3
100
AcDbDictionary
280
     1
281
     1
  3
ACAD_XREC_ROUNDTRIP
360
B447
  0
DICTIONARY
  5
B460
330
B3F0
100
AcDbDictionary
280
     1
281
     1
  3
ACAD_XREC_ROUNDTRIP
360
B461
  0
DICTIONARY
  5
B44E
330
B3E7
100
AcDbDictionary
280
     1
281
     1
  3
ACAD_XREC_ROUNDTRIP
360
B44F
  0
DICTIONARY
  5
B432
330
B3D9
100
AcDbDictionary
280
     1
281
     1
  3
ACAD_XREC_ROUNDTRIP
360
B433
  0
DICTIONARY
  5
B434
330
B3DA
100
AcDbDictionary
280
     1
281
     1
  3
ACAD_XREC_ROUNDTRIP
360
B435
  0
DICTIONARY
  5
B436
330
B3DB
100
AcDbDictionary
280
     1
281
     1
  3
ACAD_XREC_ROUNDTRIP
360
B437
  0
DICTIONARY
  5
B438
330
B3DC
100
AcDbDictionary
280
     1
281
     1
  3
ACAD_XREC_ROUNDTRIP
360
B439
  0
DICTIONARY
  5
B440
330
B3E0
100
AcDbDictionary
280
     1
281
     1
  3
ACAD_XREC_ROUNDTRIP
360
B441
  0
DICTIONARY
  5
B45C
330
B3EE
100
AcDbDictionary
280
     1
281
     1
  3
ACAD_XREC_ROUNDTRIP
360
B45D
  0
DICTIONARY
  5
B44C
330
B3E6
100
AcDbDictionary
280
     1
281
     1
  3
ACAD_XREC_ROUNDTRIP
360
B44D
  0
DICTIONARY
  5
B45E
330
B3EF
100
AcDbDictionary
280
     1
281
     1
  3
ACAD_XREC_ROUNDTRIP
360
B45F
  0
DICTIONARY
  5
B444
330
B3E2
100
AcDbDictionary
280
     1
281
     1
  3
ACAD_XREC_ROUNDTRIP
360
B445
  0
DICTIONARY
  5
B45A
330
B3ED
100
AcDbDictionary
280
     1
281
     1
  3
ACAD_XREC_ROUNDTRIP
360
B45B
  0
DICTIONARY
  5
B458
330
B3EC
100
AcDbDictionary
280
     1
281
     1
  3
ACAD_XREC_ROUNDTRIP
360
B459
  0
DICTIONARY
  5
B452
330
B3E9
100
AcDbDictionary
280
     1
281
     1
  3
ACAD_XREC_ROUNDTRIP
360
B453
  0
DICTIONARY
  5
B454
330
B3EA
100
AcDbDictionary
280
     1
281
     1
  3
ACAD_XREC_ROUNDTRIP
360
B455
  0
DICTIONARY
  5
B44A
330
B3E5
100
AcDbDictionary
280
     1
281
     1
  3
ACAD_XREC_ROUNDTRIP
360
B44B
  0
DICTIONARY
  5
B43E
330
B3DF
100
AcDbDictionary
280
     1
281
     1
  3
ACAD_XREC_ROUNDTRIP
360
B43F
  0
DICTIONARY
  5
B456
330
B3EB
100
AcDbDictionary
280
     1
281
     1
  3
ACAD_XREC_ROUNDTRIP
360
B457
  0
XRECORD
  5
B467
102
{ACAD_REACTORS
330
B466
102
}
330
B466
100
AcDbXrecord
280
     1
102
DISPLAYNAME
  1
Imperial24
102
FLAGS
 90
        0
  0
XRECORD
  5
B469
102
{ACAD_REACTORS
330
B468
102
}
330
B468
100
AcDbXrecord
280
     1
102
SHADEPLOT
 70
     0
102
SHADEPLOTRESLEVEL
 70
     2
102
SHADEPLOTCUSTOMDPI
 70
   300
  0
XRECORD
  5
B46B
102
{ACAD_REACTORS
330
B46A
102
}
330
B46A
100
AcDbXrecord
280
     1
102
SHADEPLOT
 70
     0
102
SHADEPLOTRESLEVEL
 70
     2
102
SHADEPLOTCUSTOMDPI
 70
   300
  0
XRECORD
  5
B430
102
{ACAD_REACTORS
330
B3C9
102
}
330
B3C9
100
AcDbXrecord
280
     1
102
MATERIAL
148
0.0
149
0.0
149
0.0
 93
        0
 94
      127
282
     0
 72
     0
 77
     0
171
     0
175
     0
179
     0
273
     0
  0
XRECORD
  5
B3CB
102
{ACAD_REACTORS
330
B3C9
102
}
330
B3C9
100
AcDbXrecord
280
     1
270
     1
271
     1
  0
XRECORD
  5
B3CA
102
{ACAD_REACTORS
330
B3C9
102
}
330
B3C9
100
AcDbXrecord
280
     1
270
     1
271
     1
  0
XRECORD
  5
B3CE
102
{ACAD_REACTORS
330
B3C9
102
}
330
B3C9
100
AcDbXrecord
280
     1
270
     1
271
     1
  0
XRECORD
  5
B3CD
102
{ACAD_REACTORS
330
B3C9
102
}
330
B3C9
100
AcDbXrecord
280
     1
270
     1
271
     1
  0
XRECORD
  5
B3CF
102
{ACAD_REACTORS
330
B3C9
102
}
330
B3C9
100
AcDbXrecord
280
     1
270
     1
271
     1
  0
XRECORD
  5
B3CC
102
{ACAD_REACTORS
330
B3C9
102
}
330
B3C9
100
AcDbXrecord
280
     1
270
     1
271
     1
  0
XRECORD
  5
B42F
102
{ACAD_REACTORS
330
B3C1
102
}
330
B3C1
100
AcDbXrecord
280
     1
102
MATERIAL
148
0.0
149
0.0
149
0.0
 93
        0
 94
      127
282
     0
 72
     0
 77
     0
171
     0
175
     0
179
     0
273
     0
  0
XRECORD
  5
B3C3
102
{ACAD_REACTORS
330
B3C1
102
}
330
B3C1
100
AcDbXrecord
280
     1
270
     1
271
     1
  0
XRECORD
  5
B3C2
102
{ACAD_REACTORS
330
B3C1
102
}
330
B3C1
100
AcDbXrecord
280
     1
270
     1
271
     1
  0
XRECORD
  5
B3C6
102
{ACAD_REACTORS
330
B3C1
102
}
330
B3C1
100
AcDbXrecord
280
     1
270
     1
271
     1
  0
XRECORD
  5
B3C5
102
{ACAD_REACTORS
330
B3C1
102
}
330
B3C1
100
AcDbXrecord
280
     1
270
     1
271
     1
  0
XRECORD
  5
B3C7
102
{ACAD_REACTORS
330
B3C1
102
}
330
B3C1
100
AcDbXrecord
280
     1
270
     1
271
     1
  0
XRECORD
  5
B3C4
102
{ACAD_REACTORS
330
B3C1
102
}
330
B3C1
100
AcDbXrecord
280
     1
270
     1
271
     1
  0
XRECORD
  5
B431
102
{ACAD_REACTORS
330
B3D1
102
}
330
B3D1
100
AcDbXrecord
280
     1
102
MATERIAL
148
0.0
149
0.0
149
0.0
 93
        0
 94
      127
282
     0
 72
     0
 77
     0
171
     0
175
     0
179
     0
273
     0
  0
XRECORD
  5
B3D3
102
{ACAD_REACTORS
330
B3D1
102
}
330
B3D1
100
AcDbXrecord
280
     1
270
     1
271
     1
  0
XRECORD
  5
B3D2
102
{ACAD_REACTORS
330
B3D1
102
}
330
B3D1
100
AcDbXrecord
280
     1
270
     1
271
     1
  0
XRECORD
  5
B3D6
102
{ACAD_REACTORS
330
B3D1
102
}
330
B3D1
100
AcDbXrecord
280
     1
270
     1
271
     1
  0
XRECORD
  5
B3D5
102
{ACAD_REACTORS
330
B3D1
102
}
330
B3D1
100
AcDbXrecord
280
     1
270
     1
271
     1
  0
XRECORD
  5
B3D7
102
{ACAD_REACTORS
330
B3D1
102
}
330
B3D1
100
AcDbXrecord
280
     1
270
     1
271
     1
  0
XRECORD
  5
B3D4
102
{ACAD_REACTORS
330
B3D1
102
}
330
B3D1
100
AcDbXrecord
280
     1
270
     1
271
     1
  0
XRECORD
  5
B465
102
{ACAD_REACTORS
330
B464
102
}
330
B464
100
AcDbXrecord
280
     1
102
DISPLAYNAME
  1
Imperial24
102
FLAGS
 90
        0
  0
CELLSTYLEMAP
  5
B42C
102
{ACAD_REACTORS
330
B42B
102
}
330
B42B
100
AcDbCellStyleMap
 90
        3
300
CELLSTYLE
  1
TABLEFORMAT_BEGIN
 90
        5
170
     1
 91
        0
 92
    32768
 62
   257
 93
        1
300
CONTENTFORMAT
  1
CONTENTFORMAT_BEGIN
 90
        0
 91
        0
 92
      512
 93
        0
300

 40
0.0
140
1.0
 94
        5
 62
     0
340
B06F
144
0.25
309
CONTENTFORMAT_END
171
     0
 94
        0
309
TABLEFORMAT_END
  1
CELLSTYLE_BEGIN
 90
        1
 91
        1
300
_TITLE
309
CELLSTYLE_END
300
CELLSTYLE
  1
TABLEFORMAT_BEGIN
 90
        5
170
     1
 91
        0
 92
        0
 62
   257
 93
        1
300
CONTENTFORMAT
  1
CONTENTFORMAT_BEGIN
 90
        0
 91
        0
 92
      512
 93
        0
300

 40
0.0
140
1.0
 94
        5
 62
     0
340
B06F
144
0.18
309
CONTENTFORMAT_END
171
     0
 94
        0
309
TABLEFORMAT_END
  1
CELLSTYLE_BEGIN
 90
        2
 91
        1
300
_HEADER
309
CELLSTYLE_END
300
CELLSTYLE
  1
TABLEFORMAT_BEGIN
 90
        5
170
     1
 91
        0
 92
        0
 62
   257
 93
        1
300
CONTENTFORMAT
  1
CONTENTFORMAT_BEGIN
 90
        0
 91
        0
 92
      512
 93
        0
300

 40
0.0
140
1.0
 94
        2
 62
     0
340
B06F
144
0.18
309
CONTENTFORMAT_END
171
     0
 94
        0
309
TABLEFORMAT_END
  1
CELLSTYLE_BEGIN
 90
        3
 91
        2
300
_DATA
309
CELLSTYLE_END
  0
XRECORD
  5
B462
102
{ACAD_REACTORS
330
B42B
102
}
330
B42B
100
AcDbXrecord
280
     1
102
ACAD_ROUNDTRIP_PRE2007_TABLESTYLE
 90
      512
 91
        0
  1

 92
      512
 93
        0
  2

 94
      512
 95
        0
  3

  0
XRECORD
  5
B43D
102
{ACAD_REACTORS
330
B43C
102
}
330
B43C
100
AcDbXrecord
280
     1
102
RTVSPost2010Prop28
280
     1
102
RTVSPost2010PropOp28
 70
     1
102
RTVSPost2010Prop29
280
     1
102
RTVSPost2010PropOp29
 70
     1
102
RTVSPost2010Prop30
280
     0
102
RTVSPost2010PropOp30
 70
     1
102
RTVSPost2010Prop31
280
     0
102
RTVSPost2010PropOp31
 70
     1
102
RTVSPost2010Prop32
280
     0
102
RTVSPost2010PropOp32
 70
     1
102
RTVSPost2010Prop33
280
     0
102
RTVSPost2010PropOp33
 70
     1
102
RTVSPost2010Prop34
280
     0
102
RTVSPost2010PropOp34
 70
     1
102
RTVSPost2010Prop35
280
     0
102
RTVSPost2010PropOp35
 70
     1
102
RTVSPost2010Prop36
280
     0
102
RTVSPost2010PropOp36
 70
     1
102
RTVSPost2010Prop37
 90
       50
102
RTVSPost2010PropOp37
 70
     1
102
RTVSPost2010Prop38
140
0.0
102
RTVSPost2010PropOp38
 70
     1
102
RTVSPost2010Prop39
140
1.0
102
RTVSPost2010PropOp39
 70
     1
102
RTVSPost2010Prop40
 90
        0
102
RTVSPost2010PropOp40
 70
     1
102
RTVSPost2010Prop41ColorIndex
 90
       18
102
RTVSPost2010Prop41ColorRGB
 90
        0
102
RTVSPost2010PropOp41
 70
     1
102
RTVSPost2010Prop42
 90
       50
102
RTVSPost2010PropOp42
 70
     1
102
RTVSPost2010Prop43
 90
        3
102
RTVSPost2010PropOp43
 70
     1
102
RTVSPost2010Prop44ColorIndex
 90
        5
102
RTVSPost2010Prop44ColorRGB
 90
      255
102
RTVSPost2010PropOp44
 70
     1
102
RTVSPost2010Prop45
280
     0
102
RTVSPost2010PropOp45
 70
     1
102
RTVSPost2010Prop46
 90
       50
102
RTVSPost2010PropOp46
 70
     1
102
RTVSPost2010Prop47
 90
       50
102
RTVSPost2010PropOp47
 70
     1
102
RTVSPost2010Prop48
 90
       50
102
RTVSPost2010PropOp48
 70
     1
102
RTVSPost2010Prop49
280
     0
102
RTVSPost2010PropOp49
 70
     1
102
RTVSPost2010Prop50
 90
       50
102
RTVSPost2010PropOp50
 70
     1
102
RTVSPost2010Prop51ColorIndex
 90
      256
102
RTVSPost2010Prop51ColorRGB
 90
-16777216
102
RTVSPost2010PropOp51
 70
     0
102
RTVSPost2010Prop52
140
1.0
102
RTVSPost2010PropOp52
 70
     0
102
RTVSPost2010Prop53
 90
        2
102
RTVSPost2010PropOp53
 70
     1
102
RTVSPost2010Prop54
  1
strokes_ogs.tif
102
RTVSPost2010PropOp54
 70
     1
102
RTVSPost2010Prop55
280
     0
102
RTVSPost2010PropOp55
 70
     1
102
RTVSPost2010Prop56
140
1.0
102
RTVSPost2010PropOp56
 70
     1
102
RTVSPost2010Prop57
140
1.0
102
RTVSPost2010PropOp57
 70
     1
102
RTVSPropertyOp0
 70
     1
102
RTVSPropertyOp1
 70
     1
102
RTVSPropertyOp2
 70
     1
102
RTVSPropertyOp3
 70
     1
102
RTVSPropertyOp4
 70
     1
102
RTVSPropertyOp5
 70
     1
102
RTVSPropertyOp6
 70
     1
102
RTVSPropertyOp7
 70
     1
102
RTVSPropertyOp8
 70
     1
102
RTVSPropertyOp9
 70
     1
102
RTVSPropertyOp10
 70
     1
102
RTVSPropertyOp11
 70
     1
102
RTVSPropertyOp12
 70
     1
102
RTVSPropertyOp13
 70
     1
102
RTVSPropertyOp14
 70
     1
102
RTVSPropertyOp15
 70
     1
102
RTVSPropertyOp16
 70
     1
102
RTVSPropertyOp17
 70
     1
102
RTVSPropertyOp18
 70
     1
102
RTVSPropertyOp19
 70
     1
102
RTVSPropertyOp20
 70
     1
102
RTVSPropertyOp21
 70
     1
102
RTVSPropertyOp22
 70
     1
102
RTVSPropertyOp23
 70
     1
102
RTVSPropertyOp24
 70
     1
102
RTVSPropertyOp25
 70
     1
102
RTVSPropertyOp26
 70
     1
102
RTVSPropertyOp27
 70
     1
102
RTVSPropertyOp28
 70
     1
102
RTVSPropertyOp29
 70
     1
102
RTVSPropertyOp30
 70
     1
102
RTVSPropertyOp31
 70
     1
102
RTVSPropertyOp32
 70
     1
102
RTVSPropertyOp33
 70
     1
102
RTVSPropertyOp34
 70
     1
102
RTVSPropertyOp35
 70
     1
102
RTVSPropertyOp36
 70
     1
102
RTVSPropertyOp37
 70
     1
102
RTVSPropertyOp38
 70
     1
102
RTVSPropertyOp39
 70
     1
102
RTVSPropertyOp40
 70
     1
102
RTVSPropertyOp41
 70
     1
102
RTVSPropertyOp42
 70
     1
102
RTVSPropertyOp43
 70
     1
102
RTVSPropertyOp44
 70
     1
102
RTVSPropertyOp45
 70
     1
102
RTVSPropertyOp46
 70
     1
102
RTVSPropertyOp47
 70
     1
102
RTVSPropertyOp48
 70
     1
102
RTVSPropertyOp49
 70
     1
102
RTVSPropertyOp50
 70
     1
102
RTVSPropertyOp51
 70
     0
102
RTVSPropertyOp52
 70
     0
102
RTVSPropertyOp53
 70
     1
102
RTVSPropertyOp54
 70
     1
102
RTVSPropertyOp55
 70
     1
102
RTVSPropertyOp56
 70
     1
102
RTVSPropertyOp57
 70
     1
102
RTVSPropertyOp58
 70
     1
102
RTVSPropertyOp59
 70
     1
102
RTVSPropertyOp60
 70
     1
102
RTVSPropertyOp61
 70
     1
102
RTVSPropertyOp62
 70
     1
  0
XRECORD
  5
B43B
102
{ACAD_REACTORS
330
B43A
102
}
330
B43A
100
AcDbXrecord
280
     1
102
RTVSPost2010Prop28
280
     0
102
RTVSPost2010PropOp28
 70
     1
102
RTVSPost2010Prop29
280
     1
102
RTVSPost2010PropOp29
 70
     1
102
RTVSPost2010Prop30
280
     1
102
RTVSPost2010PropOp30
 70
     1
102
RTVSPost2010Prop31
280
     0
102
RTVSPost2010PropOp31
 70
     1
102
RTVSPost2010Prop32
280
     0
102
RTVSPost2010PropOp32
 70
     1
102
RTVSPost2010Prop33
280
     0
102
RTVSPost2010PropOp33
 70
     1
102
RTVSPost2010Prop34
280
     0
102
RTVSPost2010PropOp34
 70
     1
102
RTVSPost2010Prop35
280
     0
102
RTVSPost2010PropOp35
 70
     1
102
RTVSPost2010Prop36
280
     0
102
RTVSPost2010PropOp36
 70
     1
102
RTVSPost2010Prop37
 90
       50
102
RTVSPost2010PropOp37
 70
     1
102
RTVSPost2010Prop38
140
0.0
102
RTVSPost2010PropOp38
 70
     1
102
RTVSPost2010Prop39
140
1.0
102
RTVSPost2010PropOp39
 70
     1
102
RTVSPost2010Prop40
 90
        0
102
RTVSPost2010PropOp40
 70
     1
102
RTVSPost2010Prop41ColorIndex
 90
       18
102
RTVSPost2010Prop41ColorRGB
 90
        0
102
RTVSPost2010PropOp41
 70
     1
102
RTVSPost2010Prop42
 90
       50
102
RTVSPost2010PropOp42
 70
     1
102
RTVSPost2010Prop43
 90
        3
102
RTVSPost2010PropOp43
 70
     1
102
RTVSPost2010Prop44ColorIndex
 90
        5
102
RTVSPost2010Prop44ColorRGB
 90
      255
102
RTVSPost2010PropOp44
 70
     1
102
RTVSPost2010Prop45
280
     0
102
RTVSPost2010PropOp45
 70
     1
102
RTVSPost2010Prop46
 90
       50
102
RTVSPost2010PropOp46
 70
     1
102
RTVSPost2010Prop47
 90
       50
102
RTVSPost2010PropOp47
 70
     1
102
RTVSPost2010Prop48
 90
       50
102
RTVSPost2010PropOp48
 70
     1
102
RTVSPost2010Prop49
280
     0
102
RTVSPost2010PropOp49
 70
     1
102
RTVSPost2010Prop50
 90
       50
102
RTVSPost2010PropOp50
 70
     1
102
RTVSPost2010Prop51ColorIndex
 90
      256
102
RTVSPost2010Prop51ColorRGB
 90
-16777216
102
RTVSPost2010PropOp51
 70
     0
102
RTVSPost2010Prop52
140
1.0
102
RTVSPost2010PropOp52
 70
     0
102
RTVSPost2010Prop53
 90
        2
102
RTVSPost2010PropOp53
 70
     1
102
RTVSPost2010Prop54
  1
strokes_ogs.tif
102
RTVSPost2010PropOp54
 70
     1
102
RTVSPost2010Prop55
280
     0
102
RTVSPost2010PropOp55
 70
     1
102
RTVSPost2010Prop56
140
1.0
102
RTVSPost2010PropOp56
 70
     1
102
RTVSPost2010Prop57
140
1.0
102
RTVSPost2010PropOp57
 70
     1
102
RTVSPropertyOp0
 70
     1
102
RTVSPropertyOp1
 70
     1
102
RTVSPropertyOp2
 70
     1
102
RTVSPropertyOp3
 70
     1
102
RTVSPropertyOp4
 70
     1
102
RTVSPropertyOp5
 70
     1
102
RTVSPropertyOp6
 70
     1
102
RTVSPropertyOp7
 70
     1
102
RTVSPropertyOp8
 70
     1
102
RTVSPropertyOp9
 70
     1
102
RTVSPropertyOp10
 70
     1
102
RTVSPropertyOp11
 70
     1
102
RTVSPropertyOp12
 70
     1
102
RTVSPropertyOp13
 70
     1
102
RTVSPropertyOp14
 70
     1
102
RTVSPropertyOp15
 70
     1
102
RTVSPropertyOp16
 70
     1
102
RTVSPropertyOp17
 70
     1
102
RTVSPropertyOp18
 70
     1
102
RTVSPropertyOp19
 70
     1
102
RTVSPropertyOp20
 70
     1
102
RTVSPropertyOp21
 70
     1
102
RTVSPropertyOp22
 70
     1
102
RTVSPropertyOp23
 70
     1
102
RTVSPropertyOp24
 70
     1
102
RTVSPropertyOp25
 70
     1
102
RTVSPropertyOp26
 70
     1
102
RTVSPropertyOp27
 70
     1
102
RTVSPropertyOp28
 70
     1
102
RTVSPropertyOp29
 70
     1
102
RTVSPropertyOp30
 70
     1
102
RTVSPropertyOp31
 70
     1
102
RTVSPropertyOp32
 70
     1
102
RTVSPropertyOp33
 70
     1
102
RTVSPropertyOp34
 70
     1
102
RTVSPropertyOp35
 70
     1
102
RTVSPropertyOp36
 70
     1
102
RTVSPropertyOp37
 70
     1
102
RTVSPropertyOp38
 70
     1
102
RTVSPropertyOp39
 70
     1
102
RTVSPropertyOp40
 70
     1
102
RTVSPropertyOp41
 70
     1
102
RTVSPropertyOp42
 70
     1
102
RTVSPropertyOp43
 70
     1
102
RTVSPropertyOp44
 70
     1
102
RTVSPropertyOp45
 70
     1
102
RTVSPropertyOp46
 70
     1
102
RTVSPropertyOp47
 70
     1
102
RTVSPropertyOp48
 70
     1
102
RTVSPropertyOp49
 70
     1
102
RTVSPropertyOp50
 70
     1
102
RTVSPropertyOp51
 70
     0
102
RTVSPropertyOp52
 70
     0
102
RTVSPropertyOp53
 70
     1
102
RTVSPropertyOp54
 70
     1
102
RTVSPropertyOp55
 70
     1
102
RTVSPropertyOp56
 70
     1
102
RTVSPropertyOp57
 70
     1
102
RTVSPropertyOp58
 70
     1
102
RTVSPropertyOp59
 70
     1
102
RTVSPropertyOp60
 70
     1
102
RTVSPropertyOp61
 70
     1
102
RTVSPropertyOp62
 70
     1
  0
XRECORD
  5
B449
102
{ACAD_REACTORS
330
B448
102
}
330
B448
100
AcDbXrecord
280
     1
102
RTVSPost2010Prop28
280
     0
102
RTVSPost2010PropOp28
 70
     1
102
RTVSPost2010Prop29
280
     1
102
RTVSPost2010PropOp29
 70
     1
102
RTVSPost2010Prop30
280
     1
102
RTVSPost2010PropOp30
 70
     1
102
RTVSPost2010Prop31
280
     0
102
RTVSPost2010PropOp31
 70
     1
102
RTVSPost2010Prop32
280
     0
102
RTVSPost2010PropOp32
 70
     1
102
RTVSPost2010Prop33
280
     0
102
RTVSPost2010PropOp33
 70
     1
102
RTVSPost2010Prop34
280
     0
102
RTVSPost2010PropOp34
 70
     1
102
RTVSPost2010Prop35
280
     0
102
RTVSPost2010PropOp35
 70
     1
102
RTVSPost2010Prop36
280
     0
102
RTVSPost2010PropOp36
 70
     1
102
RTVSPost2010Prop37
 90
       50
102
RTVSPost2010PropOp37
 70
     1
102
RTVSPost2010Prop38
140
0.0
102
RTVSPost2010PropOp38
 70
     1
102
RTVSPost2010Prop39
140
1.0
102
RTVSPost2010PropOp39
 70
     1
102
RTVSPost2010Prop40
 90
        0
102
RTVSPost2010PropOp40
 70
     1
102
RTVSPost2010Prop41ColorIndex
 90
       18
102
RTVSPost2010Prop41ColorRGB
 90
        0
102
RTVSPost2010PropOp41
 70
     1
102
RTVSPost2010Prop42
 90
       50
102
RTVSPost2010PropOp42
 70
     1
102
RTVSPost2010Prop43
 90
        3
102
RTVSPost2010PropOp43
 70
     1
102
RTVSPost2010Prop44ColorIndex
 90
        5
102
RTVSPost2010Prop44ColorRGB
 90
      255
102
RTVSPost2010PropOp44
 70
     1
102
RTVSPost2010Prop45
280
     0
102
RTVSPost2010PropOp45
 70
     1
102
RTVSPost2010Prop46
 90
       50
102
RTVSPost2010PropOp46
 70
     1
102
RTVSPost2010Prop47
 90
       50
102
RTVSPost2010PropOp47
 70
     1
102
RTVSPost2010Prop48
 90
       50
102
RTVSPost2010PropOp48
 70
     1
102
RTVSPost2010Prop49
280
     0
102
RTVSPost2010PropOp49
 70
     1
102
RTVSPost2010Prop50
 90
       50
102
RTVSPost2010PropOp50
 70
     1
102
RTVSPost2010Prop51ColorIndex
 90
      256
102
RTVSPost2010Prop51ColorRGB
 90
-16777216
102
RTVSPost2010PropOp51
 70
     0
102
RTVSPost2010Prop52
140
1.0
102
RTVSPost2010PropOp52
 70
     0
102
RTVSPost2010Prop53
 90
        2
102
RTVSPost2010PropOp53
 70
     1
102
RTVSPost2010Prop54
  1
strokes_ogs.tif
102
RTVSPost2010PropOp54
 70
     1
102
RTVSPost2010Prop55
280
     0
102
RTVSPost2010PropOp55
 70
     1
102
RTVSPost2010Prop56
140
1.0
102
RTVSPost2010PropOp56
 70
     1
102
RTVSPost2010Prop57
140
1.0
102
RTVSPost2010PropOp57
 70
     1
102
RTVSPropertyOp0
 70
     1
102
RTVSPropertyOp1
 70
     1
102
RTVSPropertyOp2
 70
     1
102
RTVSPropertyOp3
 70
     1
102
RTVSPropertyOp4
 70
     1
102
RTVSPropertyOp5
 70
     1
102
RTVSPropertyOp6
 70
     1
102
RTVSPropertyOp7
 70
     1
102
RTVSPropertyOp8
 70
     1
102
RTVSPropertyOp9
 70
     1
102
RTVSPropertyOp10
 70
     1
102
RTVSPropertyOp11
 70
     1
102
RTVSPropertyOp12
 70
     1
102
RTVSPropertyOp13
 70
     1
102
RTVSPropertyOp14
 70
     1
102
RTVSPropertyOp15
 70
     1
102
RTVSPropertyOp16
 70
     1
102
RTVSPropertyOp17
 70
     1
102
RTVSPropertyOp18
 70
     1
102
RTVSPropertyOp19
 70
     1
102
RTVSPropertyOp20
 70
     1
102
RTVSPropertyOp21
 70
     1
102
RTVSPropertyOp22
 70
     1
102
RTVSPropertyOp23
 70
     1
102
RTVSPropertyOp24
 70
     1
102
RTVSPropertyOp25
 70
     1
102
RTVSPropertyOp26
 70
     1
102
RTVSPropertyOp27
 70
     1
102
RTVSPropertyOp28
 70
     1
102
RTVSPropertyOp29
 70
     1
102
RTVSPropertyOp30
 70
     1
102
RTVSPropertyOp31
 70
     1
102
RTVSPropertyOp32
 70
     1
102
RTVSPropertyOp33
 70
     1
102
RTVSPropertyOp34
 70
     1
102
RTVSPropertyOp35
 70
     1
102
RTVSPropertyOp36
 70
     1
102
RTVSPropertyOp37
 70
     1
102
RTVSPropertyOp38
 70
     1
102
RTVSPropertyOp39
 70
     1
102
RTVSPropertyOp40
 70
     1
102
RTVSPropertyOp41
 70
     1
102
RTVSPropertyOp42
 70
     1
102
RTVSPropertyOp43
 70
     1
102
RTVSPropertyOp44
 70
     1
102
RTVSPropertyOp45
 70
     1
102
RTVSPropertyOp46
 70
     1
102
RTVSPropertyOp47
 70
     1
102
RTVSPropertyOp48
 70
     1
102
RTVSPropertyOp49
 70
     1
102
RTVSPropertyOp50
 70
     1
102
RTVSPropertyOp51
 70
     0
102
RTVSPropertyOp52
 70
     0
102
RTVSPropertyOp53
 70
     1
102
RTVSPropertyOp54
 70
     1
102
RTVSPropertyOp55
 70
     1
102
RTVSPropertyOp56
 70
     1
102
RTVSPropertyOp57
 70
     1
102
RTVSPropertyOp58
 70
     1
102
RTVSPropertyOp59
 70
     1
102
RTVSPropertyOp60
 70
     1
102
RTVSPropertyOp61
 70
     1
102
RTVSPropertyOp62
 70
     1
  0
XRECORD
  5
B451
102
{ACAD_REACTORS
330
B450
102
}
330
B450
100
AcDbXrecord
280
     1
102
RTVSPost2010Prop28
280
     0
102
RTVSPost2010PropOp28
 70
     1
102
RTVSPost2010Prop29
280
     1
102
RTVSPost2010PropOp29
 70
     1
102
RTVSPost2010Prop30
280
     1
102
RTVSPost2010PropOp30
 70
     1
102
RTVSPost2010Prop31
280
     0
102
RTVSPost2010PropOp31
 70
     1
102
RTVSPost2010Prop32
280
     0
102
RTVSPost2010PropOp32
 70
     1
102
RTVSPost2010Prop33
280
     0
102
RTVSPost2010PropOp33
 70
     1
102
RTVSPost2010Prop34
280
     0
102
RTVSPost2010PropOp34
 70
     1
102
RTVSPost2010Prop35
280
     0
102
RTVSPost2010PropOp35
 70
     1
102
RTVSPost2010Prop36
280
     0
102
RTVSPost2010PropOp36
 70
     1
102
RTVSPost2010Prop37
 90
       50
102
RTVSPost2010PropOp37
 70
     1
102
RTVSPost2010Prop38
140
0.0
102
RTVSPost2010PropOp38
 70
     1
102
RTVSPost2010Prop39
140
1.0
102
RTVSPost2010PropOp39
 70
     1
102
RTVSPost2010Prop40
 90
        0
102
RTVSPost2010PropOp40
 70
     1
102
RTVSPost2010Prop41ColorIndex
 90
       18
102
RTVSPost2010Prop41ColorRGB
 90
        0
102
RTVSPost2010PropOp41
 70
     1
102
RTVSPost2010Prop42
 90
       50
102
RTVSPost2010PropOp42
 70
     1
102
RTVSPost2010Prop43
 90
        3
102
RTVSPost2010PropOp43
 70
     1
102
RTVSPost2010Prop44ColorIndex
 90
        5
102
RTVSPost2010Prop44ColorRGB
 90
      255
102
RTVSPost2010PropOp44
 70
     1
102
RTVSPost2010Prop45
280
     0
102
RTVSPost2010PropOp45
 70
     1
102
RTVSPost2010Prop46
 90
       50
102
RTVSPost2010PropOp46
 70
     1
102
RTVSPost2010Prop47
 90
       50
102
RTVSPost2010PropOp47
 70
     1
102
RTVSPost2010Prop48
 90
       50
102
RTVSPost2010PropOp48
 70
     1
102
RTVSPost2010Prop49
280
     0
102
RTVSPost2010PropOp49
 70
     1
102
RTVSPost2010Prop50
 90
       50
102
RTVSPost2010PropOp50
 70
     1
102
RTVSPost2010Prop51ColorIndex
 90
      256
102
RTVSPost2010Prop51ColorRGB
 90
-16777216
102
RTVSPost2010PropOp51
 70
     0
102
RTVSPost2010Prop52
140
1.0
102
RTVSPost2010PropOp52
 70
     0
102
RTVSPost2010Prop53
 90
        2
102
RTVSPost2010PropOp53
 70
     1
102
RTVSPost2010Prop54
  1
strokes_ogs.tif
102
RTVSPost2010PropOp54
 70
     1
102
RTVSPost2010Prop55
280
     0
102
RTVSPost2010PropOp55
 70
     1
102
RTVSPost2010Prop56
140
1.0
102
RTVSPost2010PropOp56
 70
     1
102
RTVSPost2010Prop57
140
1.0
102
RTVSPost2010PropOp57
 70
     1
102
RTVSPropertyOp0
 70
     1
102
RTVSPropertyOp1
 70
     1
102
RTVSPropertyOp2
 70
     1
102
RTVSPropertyOp3
 70
     1
102
RTVSPropertyOp4
 70
     1
102
RTVSPropertyOp5
 70
     1
102
RTVSPropertyOp6
 70
     1
102
RTVSPropertyOp7
 70
     1
102
RTVSPropertyOp8
 70
     1
102
RTVSPropertyOp9
 70
     1
102
RTVSPropertyOp10
 70
     1
102
RTVSPropertyOp11
 70
     1
102
RTVSPropertyOp12
 70
     1
102
RTVSPropertyOp13
 70
     1
102
RTVSPropertyOp14
 70
     1
102
RTVSPropertyOp15
 70
     1
102
RTVSPropertyOp16
 70
     1
102
RTVSPropertyOp17
 70
     1
102
RTVSPropertyOp18
 70
     1
102
RTVSPropertyOp19
 70
     1
102
RTVSPropertyOp20
 70
     1
102
RTVSPropertyOp21
 70
     1
102
RTVSPropertyOp22
 70
     1
102
RTVSPropertyOp23
 70
     1
102
RTVSPropertyOp24
 70
     1
102
RTVSPropertyOp25
 70
     1
102
RTVSPropertyOp26
 70
     1
102
RTVSPropertyOp27
 70
     1
102
RTVSPropertyOp28
 70
     1
102
RTVSPropertyOp29
 70
     1
102
RTVSPropertyOp30
 70
     1
102
RTVSPropertyOp31
 70
     1
102
RTVSPropertyOp32
 70
     1
102
RTVSPropertyOp33
 70
     1
102
RTVSPropertyOp34
 70
     1
102
RTVSPropertyOp35
 70
     1
102
RTVSPropertyOp36
 70
     1
102
RTVSPropertyOp37
 70
     1
102
RTVSPropertyOp38
 70
     1
102
RTVSPropertyOp39
 70
     1
102
RTVSPropertyOp40
 70
     1
102
RTVSPropertyOp41
 70
     1
102
RTVSPropertyOp42
 70
     1
102
RTVSPropertyOp43
 70
     1
102
RTVSPropertyOp44
 70
     1
102
RTVSPropertyOp45
 70
     1
102
RTVSPropertyOp46
 70
     1
102
RTVSPropertyOp47
 70
     1
102
RTVSPropertyOp48
 70
     1
102
RTVSPropertyOp49
 70
     1
102
RTVSPropertyOp50
 70
     1
102
RTVSPropertyOp51
 70
     0
102
RTVSPropertyOp52
 70
     0
102
RTVSPropertyOp53
 70
     1
102
RTVSPropertyOp54
 70
     1
102
RTVSPropertyOp55
 70
     1
102
RTVSPropertyOp56
 70
     1
102
RTVSPropertyOp57
 70
     1
102
RTVSPropertyOp58
 70
     1
102
RTVSPropertyOp59
 70
     1
102
RTVSPropertyOp60
 70
     1
102
RTVSPropertyOp61
 70
     1
102
RTVSPropertyOp62
 70
     1
  0
XRECORD
  5
B443
102
{ACAD_REACTORS
330
B442
102
}
330
B442
100
AcDbXrecord
280
     1
102
RTVSPost2010Prop28
280
     0
102
RTVSPost2010PropOp28
 70
     1
102
RTVSPost2010Prop29
280
     1
102
RTVSPost2010PropOp29
 70
     1
102
RTVSPost2010Prop30
280
     1
102
RTVSPost2010PropOp30
 70
     1
102
RTVSPost2010Prop31
280
     0
102
RTVSPost2010PropOp31
 70
     1
102
RTVSPost2010Prop32
280
     0
102
RTVSPost2010PropOp32
 70
     1
102
RTVSPost2010Prop33
280
     0
102
RTVSPost2010PropOp33
 70
     1
102
RTVSPost2010Prop34
280
     0
102
RTVSPost2010PropOp34
 70
     1
102
RTVSPost2010Prop35
280
     0
102
RTVSPost2010PropOp35
 70
     1
102
RTVSPost2010Prop36
280
     0
102
RTVSPost2010PropOp36
 70
     1
102
RTVSPost2010Prop37
 90
       50
102
RTVSPost2010PropOp37
 70
     1
102
RTVSPost2010Prop38
140
0.0
102
RTVSPost2010PropOp38
 70
     1
102
RTVSPost2010Prop39
140
1.0
102
RTVSPost2010PropOp39
 70
     1
102
RTVSPost2010Prop40
 90
        0
102
RTVSPost2010PropOp40
 70
     1
102
RTVSPost2010Prop41ColorIndex
 90
       18
102
RTVSPost2010Prop41ColorRGB
 90
        0
102
RTVSPost2010PropOp41
 70
     1
102
RTVSPost2010Prop42
 90
       50
102
RTVSPost2010PropOp42
 70
     1
102
RTVSPost2010Prop43
 90
        3
102
RTVSPost2010PropOp43
 70
     1
102
RTVSPost2010Prop44ColorIndex
 90
        5
102
RTVSPost2010Prop44ColorRGB
 90
      255
102
RTVSPost2010PropOp44
 70
     1
102
RTVSPost2010Prop45
280
     0
102
RTVSPost2010PropOp45
 70
     1
102
RTVSPost2010Prop46
 90
       50
102
RTVSPost2010PropOp46
 70
     1
102
RTVSPost2010Prop47
 90
       50
102
RTVSPost2010PropOp47
 70
     1
102
RTVSPost2010Prop48
 90
       50
102
RTVSPost2010PropOp48
 70
     1
102
RTVSPost2010Prop49
280
     0
102
RTVSPost2010PropOp49
 70
     1
102
RTVSPost2010Prop50
 90
       50
102
RTVSPost2010PropOp50
 70
     1
102
RTVSPost2010Prop51ColorIndex
 90
      256
102
RTVSPost2010Prop51ColorRGB
 90
-16777216
102
RTVSPost2010PropOp51
 70
     0
102
RTVSPost2010Prop52
140
1.0
102
RTVSPost2010PropOp52
 70
     0
102
RTVSPost2010Prop53
 90
        2
102
RTVSPost2010PropOp53
 70
     1
102
RTVSPost2010Prop54
  1
strokes_ogs.tif
102
RTVSPost2010PropOp54
 70
     1
102
RTVSPost2010Prop55
280
     0
102
RTVSPost2010PropOp55
 70
     1
102
RTVSPost2010Prop56
140
1.0
102
RTVSPost2010PropOp56
 70
     1
102
RTVSPost2010Prop57
140
1.0
102
RTVSPost2010PropOp57
 70
     1
102
RTVSPropertyOp0
 70
     1
102
RTVSPropertyOp1
 70
     1
102
RTVSPropertyOp2
 70
     1
102
RTVSPropertyOp3
 70
     1
102
RTVSPropertyOp4
 70
     1
102
RTVSPropertyOp5
 70
     1
102
RTVSPropertyOp6
 70
     1
102
RTVSPropertyOp7
 70
     1
102
RTVSPropertyOp8
 70
     1
102
RTVSPropertyOp9
 70
     1
102
RTVSPropertyOp10
 70
     1
102
RTVSPropertyOp11
 70
     1
102
RTVSPropertyOp12
 70
     1
102
RTVSPropertyOp13
 70
     1
102
RTVSPropertyOp14
 70
     1
102
RTVSPropertyOp15
 70
     1
102
RTVSPropertyOp16
 70
     1
102
RTVSPropertyOp17
 70
     1
102
RTVSPropertyOp18
 70
     1
102
RTVSPropertyOp19
 70
     1
102
RTVSPropertyOp20
 70
     1
102
RTVSPropertyOp21
 70
     1
102
RTVSPropertyOp22
 70
     1
102
RTVSPropertyOp23
 70
     1
102
RTVSPropertyOp24
 70
     1
102
RTVSPropertyOp25
 70
     1
102
RTVSPropertyOp26
 70
     1
102
RTVSPropertyOp27
 70
     1
102
RTVSPropertyOp28
 70
     1
102
RTVSPropertyOp29
 70
     1
102
RTVSPropertyOp30
 70
     1
102
RTVSPropertyOp31
 70
     1
102
RTVSPropertyOp32
 70
     1
102
RTVSPropertyOp33
 70
     1
102
RTVSPropertyOp34
 70
     1
102
RTVSPropertyOp35
 70
     1
102
RTVSPropertyOp36
 70
     1
102
RTVSPropertyOp37
 70
     1
102
RTVSPropertyOp38
 70
     1
102
RTVSPropertyOp39
 70
     1
102
RTVSPropertyOp40
 70
     1
102
RTVSPropertyOp41
 70
     1
102
RTVSPropertyOp42
 70
     1
102
RTVSPropertyOp43
 70
     1
102
RTVSPropertyOp44
 70
     1
102
RTVSPropertyOp45
 70
     1
102
RTVSPropertyOp46
 70
     1
102
RTVSPropertyOp47
 70
     1
102
RTVSPropertyOp48
 70
     1
102
RTVSPropertyOp49
 70
     1
102
RTVSPropertyOp50
 70
     1
102
RTVSPropertyOp51
 70
     0
102
RTVSPropertyOp52
 70
     0
102
RTVSPropertyOp53
 70
     1
102
RTVSPropertyOp54
 70
     1
102
RTVSPropertyOp55
 70
     1
102
RTVSPropertyOp56
 70
     1
102
RTVSPropertyOp57
 70
     1
102
RTVSPropertyOp58
 70
     1
102
RTVSPropertyOp59
 70
     1
102
RTVSPropertyOp60
 70
     1
102
RTVSPropertyOp61
 70
     1
102
RTVSPropertyOp62
 70
     1
  0
XRECORD
  5
B447
102
{ACAD_REACTORS
330
B446
102
}
330
B446
100
AcDbXrecord
280
     1
102
RTVSPost2010Prop28
280
     0
102
RTVSPost2010PropOp28
 70
     1
102
RTVSPost2010Prop29
280
     1
102
RTVSPost2010PropOp29
 70
     1
102
RTVSPost2010Prop30
280
     1
102
RTVSPost2010PropOp30
 70
     1
102
RTVSPost2010Prop31
280
     0
102
RTVSPost2010PropOp31
 70
     1
102
RTVSPost2010Prop32
280
     0
102
RTVSPost2010PropOp32
 70
     1
102
RTVSPost2010Prop33
280
     0
102
RTVSPost2010PropOp33
 70
     1
102
RTVSPost2010Prop34
280
     0
102
RTVSPost2010PropOp34
 70
     1
102
RTVSPost2010Prop35
280
     0
102
RTVSPost2010PropOp35
 70
     1
102
RTVSPost2010Prop36
280
     0
102
RTVSPost2010PropOp36
 70
     1
102
RTVSPost2010Prop37
 90
       50
102
RTVSPost2010PropOp37
 70
     1
102
RTVSPost2010Prop38
140
0.0
102
RTVSPost2010PropOp38
 70
     1
102
RTVSPost2010Prop39
140
1.0
102
RTVSPost2010PropOp39
 70
     1
102
RTVSPost2010Prop40
 90
        0
102
RTVSPost2010PropOp40
 70
     1
102
RTVSPost2010Prop41ColorIndex
 90
       18
102
RTVSPost2010Prop41ColorRGB
 90
        0
102
RTVSPost2010PropOp41
 70
     1
102
RTVSPost2010Prop42
 90
       50
102
RTVSPost2010PropOp42
 70
     1
102
RTVSPost2010Prop43
 90
        3
102
RTVSPost2010PropOp43
 70
     1
102
RTVSPost2010Prop44ColorIndex
 90
        5
102
RTVSPost2010Prop44ColorRGB
 90
      255
102
RTVSPost2010PropOp44
 70
     1
102
RTVSPost2010Prop45
280
     0
102
RTVSPost2010PropOp45
 70
     1
102
RTVSPost2010Prop46
 90
       50
102
RTVSPost2010PropOp46
 70
     1
102
RTVSPost2010Prop47
 90
       50
102
RTVSPost2010PropOp47
 70
     1
102
RTVSPost2010Prop48
 90
       50
102
RTVSPost2010PropOp48
 70
     1
102
RTVSPost2010Prop49
280
     0
102
RTVSPost2010PropOp49
 70
     1
102
RTVSPost2010Prop50
 90
       50
102
RTVSPost2010PropOp50
 70
     1
102
RTVSPost2010Prop51ColorIndex
 90
      256
102
RTVSPost2010Prop51ColorRGB
 90
-16777216
102
RTVSPost2010PropOp51
 70
     0
102
RTVSPost2010Prop52
140
1.0
102
RTVSPost2010PropOp52
 70
     0
102
RTVSPost2010Prop53
 90
        2
102
RTVSPost2010PropOp53
 70
     1
102
RTVSPost2010Prop54
  1
strokes_ogs.tif
102
RTVSPost2010PropOp54
 70
     1
102
RTVSPost2010Prop55
280
     0
102
RTVSPost2010PropOp55
 70
     1
102
RTVSPost2010Prop56
140
1.0
102
RTVSPost2010PropOp56
 70
     1
102
RTVSPost2010Prop57
140
1.0
102
RTVSPost2010PropOp57
 70
     1
102
RTVSPropertyOp0
 70
     1
102
RTVSPropertyOp1
 70
     1
102
RTVSPropertyOp2
 70
     1
102
RTVSPropertyOp3
 70
     1
102
RTVSPropertyOp4
 70
     1
102
RTVSPropertyOp5
 70
     1
102
RTVSPropertyOp6
 70
     1
102
RTVSPropertyOp7
 70
     1
102
RTVSPropertyOp8
 70
     1
102
RTVSPropertyOp9
 70
     1
102
RTVSPropertyOp10
 70
     1
102
RTVSPropertyOp11
 70
     1
102
RTVSPropertyOp12
 70
     1
102
RTVSPropertyOp13
 70
     1
102
RTVSPropertyOp14
 70
     1
102
RTVSPropertyOp15
 70
     1
102
RTVSPropertyOp16
 70
     1
102
RTVSPropertyOp17
 70
     1
102
RTVSPropertyOp18
 70
     1
102
RTVSPropertyOp19
 70
     1
102
RTVSPropertyOp20
 70
     1
102
RTVSPropertyOp21
 70
     1
102
RTVSPropertyOp22
 70
     1
102
RTVSPropertyOp23
 70
     1
102
RTVSPropertyOp24
 70
     1
102
RTVSPropertyOp25
 70
     1
102
RTVSPropertyOp26
 70
     1
102
RTVSPropertyOp27
 70
     1
102
RTVSPropertyOp28
 70
     1
102
RTVSPropertyOp29
 70
     1
102
RTVSPropertyOp30
 70
     1
102
RTVSPropertyOp31
 70
     1
102
RTVSPropertyOp32
 70
     1
102
RTVSPropertyOp33
 70
     1
102
RTVSPropertyOp34
 70
     1
102
RTVSPropertyOp35
 70
     1
102
RTVSPropertyOp36
 70
     1
102
RTVSPropertyOp37
 70
     1
102
RTVSPropertyOp38
 70
     1
102
RTVSPropertyOp39
 70
     1
102
RTVSPropertyOp40
 70
     1
102
RTVSPropertyOp41
 70
     1
102
RTVSPropertyOp42
 70
     1
102
RTVSPropertyOp43
 70
     1
102
RTVSPropertyOp44
 70
     1
102
RTVSPropertyOp45
 70
     1
102
RTVSPropertyOp46
 70
     1
102
RTVSPropertyOp47
 70
     1
102
RTVSPropertyOp48
 70
     1
102
RTVSPropertyOp49
 70
     1
102
RTVSPropertyOp50
 70
     1
102
RTVSPropertyOp51
 70
     0
102
RTVSPropertyOp52
 70
     0
102
RTVSPropertyOp53
 70
     1
102
RTVSPropertyOp54
 70
     1
102
RTVSPropertyOp55
 70
     1
102
RTVSPropertyOp56
 70
     1
102
RTVSPropertyOp57
 70
     1
102
RTVSPropertyOp58
 70
     1
102
RTVSPropertyOp59
 70
     1
102
RTVSPropertyOp60
 70
     1
102
RTVSPropertyOp61
 70
     1
102
RTVSPropertyOp62
 70
     1
  0
XRECORD
  5
B461
102
{ACAD_REACTORS
330
B460
102
}
330
B460
100
AcDbXrecord
280
     1
102
RTVSPost2010Prop28
280
     0
102
RTVSPost2010PropOp28
 70
     1
102
RTVSPost2010Prop29
280
     1
102
RTVSPost2010PropOp29
 70
     1
102
RTVSPost2010Prop30
280
     1
102
RTVSPost2010PropOp30
 70
     1
102
RTVSPost2010Prop31
280
     0
102
RTVSPost2010PropOp31
 70
     1
102
RTVSPost2010Prop32
280
     0
102
RTVSPost2010PropOp32
 70
     1
102
RTVSPost2010Prop33
280
     0
102
RTVSPost2010PropOp33
 70
     1
102
RTVSPost2010Prop34
280
     0
102
RTVSPost2010PropOp34
 70
     1
102
RTVSPost2010Prop35
280
     0
102
RTVSPost2010PropOp35
 70
     1
102
RTVSPost2010Prop36
280
     0
102
RTVSPost2010PropOp36
 70
     1
102
RTVSPost2010Prop37
 90
       50
102
RTVSPost2010PropOp37
 70
     0
102
RTVSPost2010Prop38
140
0.0
102
RTVSPost2010PropOp38
 70
     0
102
RTVSPost2010Prop39
140
1.0
102
RTVSPost2010PropOp39
 70
     0
102
RTVSPost2010Prop40
 90
        0
102
RTVSPost2010PropOp40
 70
     0
102
RTVSPost2010Prop41ColorIndex
 90
       18
102
RTVSPost2010Prop41ColorRGB
 90
        0
102
RTVSPost2010PropOp41
 70
     0
102
RTVSPost2010Prop42
 90
       50
102
RTVSPost2010PropOp42
 70
     0
102
RTVSPost2010Prop43
 90
        3
102
RTVSPost2010PropOp43
 70
     0
102
RTVSPost2010Prop44ColorIndex
 90
        5
102
RTVSPost2010Prop44ColorRGB
 90
      255
102
RTVSPost2010PropOp44
 70
     0
102
RTVSPost2010Prop45
280
     0
102
RTVSPost2010PropOp45
 70
     1
102
RTVSPost2010Prop46
 90
       50
102
RTVSPost2010PropOp46
 70
     0
102
RTVSPost2010Prop47
 90
       50
102
RTVSPost2010PropOp47
 70
     0
102
RTVSPost2010Prop48
 90
       50
102
RTVSPost2010PropOp48
 70
     0
102
RTVSPost2010Prop49
280
     0
102
RTVSPost2010PropOp49
 70
     1
102
RTVSPost2010Prop50
 90
       50
102
RTVSPost2010PropOp50
 70
     0
102
RTVSPost2010Prop51ColorIndex
 90
      256
102
RTVSPost2010Prop51ColorRGB
 90
-16777216
102
RTVSPost2010PropOp51
 70
     0
102
RTVSPost2010Prop52
140
1.0
102
RTVSPost2010PropOp52
 70
     0
102
RTVSPost2010Prop53
 90
        2
102
RTVSPost2010PropOp53
 70
     0
102
RTVSPost2010Prop54
  1
strokes_ogs.tif
102
RTVSPost2010PropOp54
 70
     0
102
RTVSPost2010Prop55
280
     0
102
RTVSPost2010PropOp55
 70
     1
102
RTVSPost2010Prop56
140
1.0
102
RTVSPost2010PropOp56
 70
     0
102
RTVSPost2010Prop57
140
1.0
102
RTVSPost2010PropOp57
 70
     0
102
RTVSPropertyOp0
 70
     0
102
RTVSPropertyOp1
 70
     0
102
RTVSPropertyOp2
 70
     0
102
RTVSPropertyOp3
 70
     0
102
RTVSPropertyOp4
 70
     0
102
RTVSPropertyOp5
 70
     0
102
RTVSPropertyOp6
 70
     0
102
RTVSPropertyOp7
 70
     0
102
RTVSPropertyOp8
 70
     0
102
RTVSPropertyOp9
 70
     0
102
RTVSPropertyOp10
 70
     0
102
RTVSPropertyOp11
 70
     0
102
RTVSPropertyOp12
 70
     0
102
RTVSPropertyOp13
 70
     0
102
RTVSPropertyOp14
 70
     2
102
RTVSPropertyOp15
 70
     0
102
RTVSPropertyOp16
 70
     0
102
RTVSPropertyOp17
 70
     0
102
RTVSPropertyOp18
 70
     0
102
RTVSPropertyOp19
 70
     0
102
RTVSPropertyOp20
 70
     0
102
RTVSPropertyOp21
 70
     0
102
RTVSPropertyOp22
 70
     0
102
RTVSPropertyOp23
 70
     0
102
RTVSPropertyOp24
 70
     0
102
RTVSPropertyOp25
 70
     0
102
RTVSPropertyOp26
 70
     0
102
RTVSPropertyOp27
 70
     0
102
RTVSPropertyOp28
 70
     1
102
RTVSPropertyOp29
 70
     1
102
RTVSPropertyOp30
 70
     1
102
RTVSPropertyOp31
 70
     1
102
RTVSPropertyOp32
 70
     1
102
RTVSPropertyOp33
 70
     1
102
RTVSPropertyOp34
 70
     1
102
RTVSPropertyOp35
 70
     1
102
RTVSPropertyOp36
 70
     1
102
RTVSPropertyOp37
 70
     0
102
RTVSPropertyOp38
 70
     0
102
RTVSPropertyOp39
 70
     0
102
RTVSPropertyOp40
 70
     0
102
RTVSPropertyOp41
 70
     0
102
RTVSPropertyOp42
 70
     0
102
RTVSPropertyOp43
 70
     0
102
RTVSPropertyOp44
 70
     0
102
RTVSPropertyOp45
 70
     1
102
RTVSPropertyOp46
 70
     0
102
RTVSPropertyOp47
 70
     0
102
RTVSPropertyOp48
 70
     0
102
RTVSPropertyOp49
 70
     1
102
RTVSPropertyOp50
 70
     0
102
RTVSPropertyOp51
 70
     0
102
RTVSPropertyOp52
 70
     0
102
RTVSPropertyOp53
 70
     0
102
RTVSPropertyOp54
 70
     0
102
RTVSPropertyOp55
 70
     1
102
RTVSPropertyOp56
 70
     0
102
RTVSPropertyOp57
 70
     0
102
RTVSPropertyOp58
 70
     0
102
RTVSPropertyOp59
 70
     0
102
RTVSPropertyOp60
 70
     0
102
RTVSPropertyOp61
 70
     0
102
RTVSPropertyOp62
 70
     0
  0
XRECORD
  5
B44F
102
{ACAD_REACTORS
330
B44E
102
}
330
B44E
100
AcDbXrecord
280
     1
102
RTVSPost2010Prop28
280
     0
102
RTVSPost2010PropOp28
 70
     1
102
RTVSPost2010Prop29
280
     1
102
RTVSPost2010PropOp29
 70
     1
102
RTVSPost2010Prop30
280
     1
102
RTVSPost2010PropOp30
 70
     1
102
RTVSPost2010Prop31
280
     0
102
RTVSPost2010PropOp31
 70
     1
102
RTVSPost2010Prop32
280
     0
102
RTVSPost2010PropOp32
 70
     1
102
RTVSPost2010Prop33
280
     0
102
RTVSPost2010PropOp33
 70
     1
102
RTVSPost2010Prop34
280
     0
102
RTVSPost2010PropOp34
 70
     1
102
RTVSPost2010Prop35
280
     0
102
RTVSPost2010PropOp35
 70
     1
102
RTVSPost2010Prop36
280
     0
102
RTVSPost2010PropOp36
 70
     1
102
RTVSPost2010Prop37
 90
       50
102
RTVSPost2010PropOp37
 70
     1
102
RTVSPost2010Prop38
140
0.0
102
RTVSPost2010PropOp38
 70
     1
102
RTVSPost2010Prop39
140
1.0
102
RTVSPost2010PropOp39
 70
     1
102
RTVSPost2010Prop40
 90
        0
102
RTVSPost2010PropOp40
 70
     1
102
RTVSPost2010Prop41ColorIndex
 90
       18
102
RTVSPost2010Prop41ColorRGB
 90
        0
102
RTVSPost2010PropOp41
 70
     1
102
RTVSPost2010Prop42
 90
       50
102
RTVSPost2010PropOp42
 70
     1
102
RTVSPost2010Prop43
 90
        3
102
RTVSPost2010PropOp43
 70
     1
102
RTVSPost2010Prop44ColorIndex
 90
        5
102
RTVSPost2010Prop44ColorRGB
 90
      255
102
RTVSPost2010PropOp44
 70
     1
102
RTVSPost2010Prop45
280
     0
102
RTVSPost2010PropOp45
 70
     1
102
RTVSPost2010Prop46
 90
       50
102
RTVSPost2010PropOp46
 70
     1
102
RTVSPost2010Prop47
 90
       50
102
RTVSPost2010PropOp47
 70
     1
102
RTVSPost2010Prop48
 90
       50
102
RTVSPost2010PropOp48
 70
     1
102
RTVSPost2010Prop49
280
     0
102
RTVSPost2010PropOp49
 70
     1
102
RTVSPost2010Prop50
 90
       50
102
RTVSPost2010PropOp50
 70
     1
102
RTVSPost2010Prop51ColorIndex
 90
      256
102
RTVSPost2010Prop51ColorRGB
 90
-16777216
102
RTVSPost2010PropOp51
 70
     0
102
RTVSPost2010Prop52
140
1.0
102
RTVSPost2010PropOp52
 70
     0
102
RTVSPost2010Prop53
 90
        2
102
RTVSPost2010PropOp53
 70
     1
102
RTVSPost2010Prop54
  1
strokes_ogs.tif
102
RTVSPost2010PropOp54
 70
     1
102
RTVSPost2010Prop55
280
     0
102
RTVSPost2010PropOp55
 70
     1
102
RTVSPost2010Prop56
140
1.0
102
RTVSPost2010PropOp56
 70
     1
102
RTVSPost2010Prop57
140
1.0
102
RTVSPost2010PropOp57
 70
     1
102
RTVSPropertyOp0
 70
     1
102
RTVSPropertyOp1
 70
     1
102
RTVSPropertyOp2
 70
     1
102
RTVSPropertyOp3
 70
     1
102
RTVSPropertyOp4
 70
     1
102
RTVSPropertyOp5
 70
     1
102
RTVSPropertyOp6
 70
     1
102
RTVSPropertyOp7
 70
     1
102
RTVSPropertyOp8
 70
     1
102
RTVSPropertyOp9
 70
     1
102
RTVSPropertyOp10
 70
     1
102
RTVSPropertyOp11
 70
     1
102
RTVSPropertyOp12
 70
     1
102
RTVSPropertyOp13
 70
     1
102
RTVSPropertyOp14
 70
     1
102
RTVSPropertyOp15
 70
     1
102
RTVSPropertyOp16
 70
     1
102
RTVSPropertyOp17
 70
     1
102
RTVSPropertyOp18
 70
     1
102
RTVSPropertyOp19
 70
     1
102
RTVSPropertyOp20
 70
     1
102
RTVSPropertyOp21
 70
     1
102
RTVSPropertyOp22
 70
     1
102
RTVSPropertyOp23
 70
     1
102
RTVSPropertyOp24
 70
     1
102
RTVSPropertyOp25
 70
     1
102
RTVSPropertyOp26
 70
     1
102
RTVSPropertyOp27
 70
     1
102
RTVSPropertyOp28
 70
     1
102
RTVSPropertyOp29
 70
     1
102
RTVSPropertyOp30
 70
     1
102
RTVSPropertyOp31
 70
     1
102
RTVSPropertyOp32
 70
     1
102
RTVSPropertyOp33
 70
     1
102
RTVSPropertyOp34
 70
     1
102
RTVSPropertyOp35
 70
     1
102
RTVSPropertyOp36
 70
     1
102
RTVSPropertyOp37
 70
     1
102
RTVSPropertyOp38
 70
     1
102
RTVSPropertyOp39
 70
     1
102
RTVSPropertyOp40
 70
     1
102
RTVSPropertyOp41
 70
     1
102
RTVSPropertyOp42
 70
     1
102
RTVSPropertyOp43
 70
     1
102
RTVSPropertyOp44
 70
     1
102
RTVSPropertyOp45
 70
     1
102
RTVSPropertyOp46
 70
     1
102
RTVSPropertyOp47
 70
     1
102
RTVSPropertyOp48
 70
     1
102
RTVSPropertyOp49
 70
     1
102
RTVSPropertyOp50
 70
     1
102
RTVSPropertyOp51
 70
     0
102
RTVSPropertyOp52
 70
     0
102
RTVSPropertyOp53
 70
     1
102
RTVSPropertyOp54
 70
     1
102
RTVSPropertyOp55
 70
     1
102
RTVSPropertyOp56
 70
     1
102
RTVSPropertyOp57
 70
     1
102
RTVSPropertyOp58
 70
     1
102
RTVSPropertyOp59
 70
     1
102
RTVSPropertyOp60
 70
     1
102
RTVSPropertyOp61
 70
     1
102
RTVSPropertyOp62
 70
     1
  0
XRECORD
  5
B433
102
{ACAD_REACTORS
330
B432
102
}
330
B432
100
AcDbXrecord
280
     1
102
RTVSPost2010Prop28
280
     0
102
RTVSPost2010PropOp28
 70
     1
102
RTVSPost2010Prop29
280
     1
102
RTVSPost2010PropOp29
 70
     1
102
RTVSPost2010Prop30
280
     1
102
RTVSPost2010PropOp30
 70
     1
102
RTVSPost2010Prop31
280
     0
102
RTVSPost2010PropOp31
 70
     1
102
RTVSPost2010Prop32
280
     0
102
RTVSPost2010PropOp32
 70
     1
102
RTVSPost2010Prop33
280
     0
102
RTVSPost2010PropOp33
 70
     1
102
RTVSPost2010Prop34
280
     0
102
RTVSPost2010PropOp34
 70
     1
102
RTVSPost2010Prop35
280
     0
102
RTVSPost2010PropOp35
 70
     1
102
RTVSPost2010Prop36
280
     0
102
RTVSPost2010PropOp36
 70
     1
102
RTVSPost2010Prop37
 90
       50
102
RTVSPost2010PropOp37
 70
     1
102
RTVSPost2010Prop38
140
0.0
102
RTVSPost2010PropOp38
 70
     1
102
RTVSPost2010Prop39
140
1.0
102
RTVSPost2010PropOp39
 70
     1
102
RTVSPost2010Prop40
 90
        0
102
RTVSPost2010PropOp40
 70
     1
102
RTVSPost2010Prop41ColorIndex
 90
       18
102
RTVSPost2010Prop41ColorRGB
 90
        0
102
RTVSPost2010PropOp41
 70
     1
102
RTVSPost2010Prop42
 90
       50
102
RTVSPost2010PropOp42
 70
     1
102
RTVSPost2010Prop43
 90
        3
102
RTVSPost2010PropOp43
 70
     1
102
RTVSPost2010Prop44ColorIndex
 90
        5
102
RTVSPost2010Prop44ColorRGB
 90
      255
102
RTVSPost2010PropOp44
 70
     1
102
RTVSPost2010Prop45
280
     0
102
RTVSPost2010PropOp45
 70
     1
102
RTVSPost2010Prop46
 90
       50
102
RTVSPost2010PropOp46
 70
     1
102
RTVSPost2010Prop47
 90
       50
102
RTVSPost2010PropOp47
 70
     1
102
RTVSPost2010Prop48
 90
       50
102
RTVSPost2010PropOp48
 70
     1
102
RTVSPost2010Prop49
280
     0
102
RTVSPost2010PropOp49
 70
     1
102
RTVSPost2010Prop50
 90
       50
102
RTVSPost2010PropOp50
 70
     1
102
RTVSPost2010Prop51ColorIndex
 90
      256
102
RTVSPost2010Prop51ColorRGB
 90
-16777216
102
RTVSPost2010PropOp51
 70
     0
102
RTVSPost2010Prop52
140
1.0
102
RTVSPost2010PropOp52
 70
     0
102
RTVSPost2010Prop53
 90
        2
102
RTVSPost2010PropOp53
 70
     1
102
RTVSPost2010Prop54
  1
strokes_ogs.tif
102
RTVSPost2010PropOp54
 70
     1
102
RTVSPost2010Prop55
280
     0
102
RTVSPost2010PropOp55
 70
     1
102
RTVSPost2010Prop56
140
1.0
102
RTVSPost2010PropOp56
 70
     1
102
RTVSPost2010Prop57
140
1.0
102
RTVSPost2010PropOp57
 70
     1
102
RTVSPropertyOp0
 70
     1
102
RTVSPropertyOp1
 70
     1
102
RTVSPropertyOp2
 70
     1
102
RTVSPropertyOp3
 70
     1
102
RTVSPropertyOp4
 70
     1
102
RTVSPropertyOp5
 70
     1
102
RTVSPropertyOp6
 70
     1
102
RTVSPropertyOp7
 70
     1
102
RTVSPropertyOp8
 70
     1
102
RTVSPropertyOp9
 70
     1
102
RTVSPropertyOp10
 70
     1
102
RTVSPropertyOp11
 70
     1
102
RTVSPropertyOp12
 70
     1
102
RTVSPropertyOp13
 70
     1
102
RTVSPropertyOp14
 70
     1
102
RTVSPropertyOp15
 70
     1
102
RTVSPropertyOp16
 70
     1
102
RTVSPropertyOp17
 70
     1
102
RTVSPropertyOp18
 70
     1
102
RTVSPropertyOp19
 70
     1
102
RTVSPropertyOp20
 70
     1
102
RTVSPropertyOp21
 70
     1
102
RTVSPropertyOp22
 70
     1
102
RTVSPropertyOp23
 70
     1
102
RTVSPropertyOp24
 70
     1
102
RTVSPropertyOp25
 70
     1
102
RTVSPropertyOp26
 70
     1
102
RTVSPropertyOp27
 70
     1
102
RTVSPropertyOp28
 70
     1
102
RTVSPropertyOp29
 70
     1
102
RTVSPropertyOp30
 70
     1
102
RTVSPropertyOp31
 70
     1
102
RTVSPropertyOp32
 70
     1
102
RTVSPropertyOp33
 70
     1
102
RTVSPropertyOp34
 70
     1
102
RTVSPropertyOp35
 70
     1
102
RTVSPropertyOp36
 70
     1
102
RTVSPropertyOp37
 70
     1
102
RTVSPropertyOp38
 70
     1
102
RTVSPropertyOp39
 70
     1
102
RTVSPropertyOp40
 70
     1
102
RTVSPropertyOp41
 70
     1
102
RTVSPropertyOp42
 70
     1
102
RTVSPropertyOp43
 70
     1
102
RTVSPropertyOp44
 70
     1
102
RTVSPropertyOp45
 70
     1
102
RTVSPropertyOp46
 70
     1
102
RTVSPropertyOp47
 70
     1
102
RTVSPropertyOp48
 70
     1
102
RTVSPropertyOp49
 70
     1
102
RTVSPropertyOp50
 70
     1
102
RTVSPropertyOp51
 70
     0
102
RTVSPropertyOp52
 70
     0
102
RTVSPropertyOp53
 70
     1
102
RTVSPropertyOp54
 70
     1
102
RTVSPropertyOp55
 70
     1
102
RTVSPropertyOp56
 70
     1
102
RTVSPropertyOp57
 70
     1
102
RTVSPropertyOp58
 70
     1
102
RTVSPropertyOp59
 70
     1
102
RTVSPropertyOp60
 70
     1
102
RTVSPropertyOp61
 70
     1
102
RTVSPropertyOp62
 70
     1
  0
XRECORD
  5
B435
102
{ACAD_REACTORS
330
B434
102
}
330
B434
100
AcDbXrecord
280
     1
102
RTVSPost2010Prop28
280
     0
102
RTVSPost2010PropOp28
 70
     1
102
RTVSPost2010Prop29
280
     1
102
RTVSPost2010PropOp29
 70
     1
102
RTVSPost2010Prop30
280
     1
102
RTVSPost2010PropOp30
 70
     1
102
RTVSPost2010Prop31
280
     0
102
RTVSPost2010PropOp31
 70
     1
102
RTVSPost2010Prop32
280
     0
102
RTVSPost2010PropOp32
 70
     1
102
RTVSPost2010Prop33
280
     0
102
RTVSPost2010PropOp33
 70
     1
102
RTVSPost2010Prop34
280
     0
102
RTVSPost2010PropOp34
 70
     1
102
RTVSPost2010Prop35
280
     0
102
RTVSPost2010PropOp35
 70
     1
102
RTVSPost2010Prop36
280
     0
102
RTVSPost2010PropOp36
 70
     1
102
RTVSPost2010Prop37
 90
       50
102
RTVSPost2010PropOp37
 70
     1
102
RTVSPost2010Prop38
140
0.0
102
RTVSPost2010PropOp38
 70
     1
102
RTVSPost2010Prop39
140
1.0
102
RTVSPost2010PropOp39
 70
     1
102
RTVSPost2010Prop40
 90
        0
102
RTVSPost2010PropOp40
 70
     1
102
RTVSPost2010Prop41ColorIndex
 90
       18
102
RTVSPost2010Prop41ColorRGB
 90
        0
102
RTVSPost2010PropOp41
 70
     1
102
RTVSPost2010Prop42
 90
       50
102
RTVSPost2010PropOp42
 70
     1
102
RTVSPost2010Prop43
 90
        3
102
RTVSPost2010PropOp43
 70
     1
102
RTVSPost2010Prop44ColorIndex
 90
        5
102
RTVSPost2010Prop44ColorRGB
 90
      255
102
RTVSPost2010PropOp44
 70
     1
102
RTVSPost2010Prop45
280
     0
102
RTVSPost2010PropOp45
 70
     1
102
RTVSPost2010Prop46
 90
       50
102
RTVSPost2010PropOp46
 70
     1
102
RTVSPost2010Prop47
 90
       50
102
RTVSPost2010PropOp47
 70
     1
102
RTVSPost2010Prop48
 90
       50
102
RTVSPost2010PropOp48
 70
     1
102
RTVSPost2010Prop49
280
     0
102
RTVSPost2010PropOp49
 70
     1
102
RTVSPost2010Prop50
 90
       50
102
RTVSPost2010PropOp50
 70
     1
102
RTVSPost2010Prop51ColorIndex
 90
      256
102
RTVSPost2010Prop51ColorRGB
 90
-16777216
102
RTVSPost2010PropOp51
 70
     0
102
RTVSPost2010Prop52
140
1.0
102
RTVSPost2010PropOp52
 70
     0
102
RTVSPost2010Prop53
 90
        2
102
RTVSPost2010PropOp53
 70
     1
102
RTVSPost2010Prop54
  1
strokes_ogs.tif
102
RTVSPost2010PropOp54
 70
     1
102
RTVSPost2010Prop55
280
     0
102
RTVSPost2010PropOp55
 70
     1
102
RTVSPost2010Prop56
140
1.0
102
RTVSPost2010PropOp56
 70
     1
102
RTVSPost2010Prop57
140
1.0
102
RTVSPost2010PropOp57
 70
     1
102
RTVSPropertyOp0
 70
     1
102
RTVSPropertyOp1
 70
     1
102
RTVSPropertyOp2
 70
     1
102
RTVSPropertyOp3
 70
     1
102
RTVSPropertyOp4
 70
     1
102
RTVSPropertyOp5
 70
     1
102
RTVSPropertyOp6
 70
     1
102
RTVSPropertyOp7
 70
     1
102
RTVSPropertyOp8
 70
     1
102
RTVSPropertyOp9
 70
     1
102
RTVSPropertyOp10
 70
     1
102
RTVSPropertyOp11
 70
     1
102
RTVSPropertyOp12
 70
     1
102
RTVSPropertyOp13
 70
     1
102
RTVSPropertyOp14
 70
     1
102
RTVSPropertyOp15
 70
     1
102
RTVSPropertyOp16
 70
     1
102
RTVSPropertyOp17
 70
     1
102
RTVSPropertyOp18
 70
     1
102
RTVSPropertyOp19
 70
     1
102
RTVSPropertyOp20
 70
     1
102
RTVSPropertyOp21
 70
     1
102
RTVSPropertyOp22
 70
     1
102
RTVSPropertyOp23
 70
     1
102
RTVSPropertyOp24
 70
     1
102
RTVSPropertyOp25
 70
     1
102
RTVSPropertyOp26
 70
     1
102
RTVSPropertyOp27
 70
     1
102
RTVSPropertyOp28
 70
     1
102
RTVSPropertyOp29
 70
     1
102
RTVSPropertyOp30
 70
     1
102
RTVSPropertyOp31
 70
     1
102
RTVSPropertyOp32
 70
     1
102
RTVSPropertyOp33
 70
     1
102
RTVSPropertyOp34
 70
     1
102
RTVSPropertyOp35
 70
     1
102
RTVSPropertyOp36
 70
     1
102
RTVSPropertyOp37
 70
     1
102
RTVSPropertyOp38
 70
     1
102
RTVSPropertyOp39
 70
     1
102
RTVSPropertyOp40
 70
     1
102
RTVSPropertyOp41
 70
     1
102
RTVSPropertyOp42
 70
     1
102
RTVSPropertyOp43
 70
     1
102
RTVSPropertyOp44
 70
     1
102
RTVSPropertyOp45
 70
     1
102
RTVSPropertyOp46
 70
     1
102
RTVSPropertyOp47
 70
     1
102
RTVSPropertyOp48
 70
     1
102
RTVSPropertyOp49
 70
     1
102
RTVSPropertyOp50
 70
     1
102
RTVSPropertyOp51
 70
     0
102
RTVSPropertyOp52
 70
     0
102
RTVSPropertyOp53
 70
     1
102
RTVSPropertyOp54
 70
     1
102
RTVSPropertyOp55
 70
     1
102
RTVSPropertyOp56
 70
     1
102
RTVSPropertyOp57
 70
     1
102
RTVSPropertyOp58
 70
     1
102
RTVSPropertyOp59
 70
     1
102
RTVSPropertyOp60
 70
     1
102
RTVSPropertyOp61
 70
     1
102
RTVSPropertyOp62
 70
     1
  0
XRECORD
  5
B437
102
{ACAD_REACTORS
330
B436
102
}
330
B436
100
AcDbXrecord
280
     1
102
RTVSPost2010Prop28
280
     0
102
RTVSPost2010PropOp28
 70
     1
102
RTVSPost2010Prop29
280
     1
102
RTVSPost2010PropOp29
 70
     1
102
RTVSPost2010Prop30
280
     1
102
RTVSPost2010PropOp30
 70
     1
102
RTVSPost2010Prop31
280
     0
102
RTVSPost2010PropOp31
 70
     1
102
RTVSPost2010Prop32
280
     0
102
RTVSPost2010PropOp32
 70
     1
102
RTVSPost2010Prop33
280
     0
102
RTVSPost2010PropOp33
 70
     1
102
RTVSPost2010Prop34
280
     0
102
RTVSPost2010PropOp34
 70
     1
102
RTVSPost2010Prop35
280
     0
102
RTVSPost2010PropOp35
 70
     1
102
RTVSPost2010Prop36
280
     0
102
RTVSPost2010PropOp36
 70
     1
102
RTVSPost2010Prop37
 90
       50
102
RTVSPost2010PropOp37
 70
     1
102
RTVSPost2010Prop38
140
0.0
102
RTVSPost2010PropOp38
 70
     1
102
RTVSPost2010Prop39
140
1.0
102
RTVSPost2010PropOp39
 70
     1
102
RTVSPost2010Prop40
 90
        0
102
RTVSPost2010PropOp40
 70
     1
102
RTVSPost2010Prop41ColorIndex
 90
       18
102
RTVSPost2010Prop41ColorRGB
 90
        0
102
RTVSPost2010PropOp41
 70
     1
102
RTVSPost2010Prop42
 90
       50
102
RTVSPost2010PropOp42
 70
     1
102
RTVSPost2010Prop43
 90
        3
102
RTVSPost2010PropOp43
 70
     1
102
RTVSPost2010Prop44ColorIndex
 90
        5
102
RTVSPost2010Prop44ColorRGB
 90
      255
102
RTVSPost2010PropOp44
 70
     1
102
RTVSPost2010Prop45
280
     0
102
RTVSPost2010PropOp45
 70
     1
102
RTVSPost2010Prop46
 90
       50
102
RTVSPost2010PropOp46
 70
     1
102
RTVSPost2010Prop47
 90
       50
102
RTVSPost2010PropOp47
 70
     1
102
RTVSPost2010Prop48
 90
       50
102
RTVSPost2010PropOp48
 70
     1
102
RTVSPost2010Prop49
280
     0
102
RTVSPost2010PropOp49
 70
     1
102
RTVSPost2010Prop50
 90
       50
102
RTVSPost2010PropOp50
 70
     1
102
RTVSPost2010Prop51ColorIndex
 90
      256
102
RTVSPost2010Prop51ColorRGB
 90
-16777216
102
RTVSPost2010PropOp51
 70
     0
102
RTVSPost2010Prop52
140
1.0
102
RTVSPost2010PropOp52
 70
     0
102
RTVSPost2010Prop53
 90
        2
102
RTVSPost2010PropOp53
 70
     1
102
RTVSPost2010Prop54
  1
strokes_ogs.tif
102
RTVSPost2010PropOp54
 70
     1
102
RTVSPost2010Prop55
280
     0
102
RTVSPost2010PropOp55
 70
     1
102
RTVSPost2010Prop56
140
1.0
102
RTVSPost2010PropOp56
 70
     1
102
RTVSPost2010Prop57
140
1.0
102
RTVSPost2010PropOp57
 70
     1
102
RTVSPropertyOp0
 70
     1
102
RTVSPropertyOp1
 70
     1
102
RTVSPropertyOp2
 70
     1
102
RTVSPropertyOp3
 70
     1
102
RTVSPropertyOp4
 70
     1
102
RTVSPropertyOp5
 70
     1
102
RTVSPropertyOp6
 70
     1
102
RTVSPropertyOp7
 70
     1
102
RTVSPropertyOp8
 70
     1
102
RTVSPropertyOp9
 70
     1
102
RTVSPropertyOp10
 70
     1
102
RTVSPropertyOp11
 70
     1
102
RTVSPropertyOp12
 70
     1
102
RTVSPropertyOp13
 70
     1
102
RTVSPropertyOp14
 70
     1
102
RTVSPropertyOp15
 70
     1
102
RTVSPropertyOp16
 70
     1
102
RTVSPropertyOp17
 70
     1
102
RTVSPropertyOp18
 70
     1
102
RTVSPropertyOp19
 70
     1
102
RTVSPropertyOp20
 70
     1
102
RTVSPropertyOp21
 70
     1
102
RTVSPropertyOp22
 70
     1
102
RTVSPropertyOp23
 70
     1
102
RTVSPropertyOp24
 70
     1
102
RTVSPropertyOp25
 70
     1
102
RTVSPropertyOp26
 70
     1
102
RTVSPropertyOp27
 70
     1
102
RTVSPropertyOp28
 70
     1
102
RTVSPropertyOp29
 70
     1
102
RTVSPropertyOp30
 70
     1
102
RTVSPropertyOp31
 70
     1
102
RTVSPropertyOp32
 70
     1
102
RTVSPropertyOp33
 70
     1
102
RTVSPropertyOp34
 70
     1
102
RTVSPropertyOp35
 70
     1
102
RTVSPropertyOp36
 70
     1
102
RTVSPropertyOp37
 70
     1
102
RTVSPropertyOp38
 70
     1
102
RTVSPropertyOp39
 70
     1
102
RTVSPropertyOp40
 70
     1
102
RTVSPropertyOp41
 70
     1
102
RTVSPropertyOp42
 70
     1
102
RTVSPropertyOp43
 70
     1
102
RTVSPropertyOp44
 70
     1
102
RTVSPropertyOp45
 70
     1
102
RTVSPropertyOp46
 70
     1
102
RTVSPropertyOp47
 70
     1
102
RTVSPropertyOp48
 70
     1
102
RTVSPropertyOp49
 70
     1
102
RTVSPropertyOp50
 70
     1
102
RTVSPropertyOp51
 70
     0
102
RTVSPropertyOp52
 70
     0
102
RTVSPropertyOp53
 70
     1
102
RTVSPropertyOp54
 70
     1
102
RTVSPropertyOp55
 70
     1
102
RTVSPropertyOp56
 70
     1
102
RTVSPropertyOp57
 70
     1
102
RTVSPropertyOp58
 70
     1
102
RTVSPropertyOp59
 70
     1
102
RTVSPropertyOp60
 70
     1
102
RTVSPropertyOp61
 70
     1
102
RTVSPropertyOp62
 70
     1
  0
XRECORD
  5
B439
102
{ACAD_REACTORS
330
B438
102
}
330
B438
100
AcDbXrecord
280
     1
102
RTVSPost2010Prop28
280
     0
102
RTVSPost2010PropOp28
 70
     1
102
RTVSPost2010Prop29
280
     1
102
RTVSPost2010PropOp29
 70
     1
102
RTVSPost2010Prop30
280
     1
102
RTVSPost2010PropOp30
 70
     1
102
RTVSPost2010Prop31
280
     0
102
RTVSPost2010PropOp31
 70
     1
102
RTVSPost2010Prop32
280
     0
102
RTVSPost2010PropOp32
 70
     1
102
RTVSPost2010Prop33
280
     0
102
RTVSPost2010PropOp33
 70
     1
102
RTVSPost2010Prop34
280
     0
102
RTVSPost2010PropOp34
 70
     1
102
RTVSPost2010Prop35
280
     0
102
RTVSPost2010PropOp35
 70
     1
102
RTVSPost2010Prop36
280
     0
102
RTVSPost2010PropOp36
 70
     1
102
RTVSPost2010Prop37
 90
       50
102
RTVSPost2010PropOp37
 70
     1
102
RTVSPost2010Prop38
140
0.0
102
RTVSPost2010PropOp38
 70
     1
102
RTVSPost2010Prop39
140
1.0
102
RTVSPost2010PropOp39
 70
     1
102
RTVSPost2010Prop40
 90
        0
102
RTVSPost2010PropOp40
 70
     1
102
RTVSPost2010Prop41ColorIndex
 90
       18
102
RTVSPost2010Prop41ColorRGB
 90
        0
102
RTVSPost2010PropOp41
 70
     1
102
RTVSPost2010Prop42
 90
       50
102
RTVSPost2010PropOp42
 70
     1
102
RTVSPost2010Prop43
 90
        3
102
RTVSPost2010PropOp43
 70
     1
102
RTVSPost2010Prop44ColorIndex
 90
        5
102
RTVSPost2010Prop44ColorRGB
 90
      255
102
RTVSPost2010PropOp44
 70
     1
102
RTVSPost2010Prop45
280
     0
102
RTVSPost2010PropOp45
 70
     1
102
RTVSPost2010Prop46
 90
       50
102
RTVSPost2010PropOp46
 70
     1
102
RTVSPost2010Prop47
 90
       50
102
RTVSPost2010PropOp47
 70
     1
102
RTVSPost2010Prop48
 90
       50
102
RTVSPost2010PropOp48
 70
     1
102
RTVSPost2010Prop49
280
     0
102
RTVSPost2010PropOp49
 70
     1
102
RTVSPost2010Prop50
 90
       50
102
RTVSPost2010PropOp50
 70
     1
102
RTVSPost2010Prop51ColorIndex
 90
      256
102
RTVSPost2010Prop51ColorRGB
 90
-16777216
102
RTVSPost2010PropOp51
 70
     0
102
RTVSPost2010Prop52
140
1.0
102
RTVSPost2010PropOp52
 70
     0
102
RTVSPost2010Prop53
 90
        2
102
RTVSPost2010PropOp53
 70
     1
102
RTVSPost2010Prop54
  1
strokes_ogs.tif
102
RTVSPost2010PropOp54
 70
     1
102
RTVSPost2010Prop55
280
     0
102
RTVSPost2010PropOp55
 70
     1
102
RTVSPost2010Prop56
140
1.0
102
RTVSPost2010PropOp56
 70
     1
102
RTVSPost2010Prop57
140
1.0
102
RTVSPost2010PropOp57
 70
     1
102
RTVSPropertyOp0
 70
     1
102
RTVSPropertyOp1
 70
     1
102
RTVSPropertyOp2
 70
     1
102
RTVSPropertyOp3
 70
     1
102
RTVSPropertyOp4
 70
     1
102
RTVSPropertyOp5
 70
     1
102
RTVSPropertyOp6
 70
     1
102
RTVSPropertyOp7
 70
     1
102
RTVSPropertyOp8
 70
     1
102
RTVSPropertyOp9
 70
     1
102
RTVSPropertyOp10
 70
     1
102
RTVSPropertyOp11
 70
     1
102
RTVSPropertyOp12
 70
     1
102
RTVSPropertyOp13
 70
     1
102
RTVSPropertyOp14
 70
     1
102
RTVSPropertyOp15
 70
     1
102
RTVSPropertyOp16
 70
     1
102
RTVSPropertyOp17
 70
     1
102
RTVSPropertyOp18
 70
     1
102
RTVSPropertyOp19
 70
     1
102
RTVSPropertyOp20
 70
     1
102
RTVSPropertyOp21
 70
     1
102
RTVSPropertyOp22
 70
     1
102
RTVSPropertyOp23
 70
     1
102
RTVSPropertyOp24
 70
     1
102
RTVSPropertyOp25
 70
     1
102
RTVSPropertyOp26
 70
     1
102
RTVSPropertyOp27
 70
     1
102
RTVSPropertyOp28
 70
     1
102
RTVSPropertyOp29
 70
     1
102
RTVSPropertyOp30
 70
     1
102
RTVSPropertyOp31
 70
     1
102
RTVSPropertyOp32
 70
     1
102
RTVSPropertyOp33
 70
     1
102
RTVSPropertyOp34
 70
     1
102
RTVSPropertyOp35
 70
     1
102
RTVSPropertyOp36
 70
     1
102
RTVSPropertyOp37
 70
     1
102
RTVSPropertyOp38
 70
     1
102
RTVSPropertyOp39
 70
     1
102
RTVSPropertyOp40
 70
     1
102
RTVSPropertyOp41
 70
     1
102
RTVSPropertyOp42
 70
     1
102
RTVSPropertyOp43
 70
     1
102
RTVSPropertyOp44
 70
     1
102
RTVSPropertyOp45
 70
     1
102
RTVSPropertyOp46
 70
     1
102
RTVSPropertyOp47
 70
     1
102
RTVSPropertyOp48
 70
     1
102
RTVSPropertyOp49
 70
     1
102
RTVSPropertyOp50
 70
     1
102
RTVSPropertyOp51
 70
     0
102
RTVSPropertyOp52
 70
     0
102
RTVSPropertyOp53
 70
     1
102
RTVSPropertyOp54
 70
     1
102
RTVSPropertyOp55
 70
     1
102
RTVSPropertyOp56
 70
     1
102
RTVSPropertyOp57
 70
     1
102
RTVSPropertyOp58
 70
     1
102
RTVSPropertyOp59
 70
     1
102
RTVSPropertyOp60
 70
     1
102
RTVSPropertyOp61
 70
     1
102
RTVSPropertyOp62
 70
     1
  0
XRECORD
  5
B441
102
{ACAD_REACTORS
330
B440
102
}
330
B440
100
AcDbXrecord
280
     1
102
RTVSPost2010Prop28
280
     0
102
RTVSPost2010PropOp28
 70
     1
102
RTVSPost2010Prop29
280
     1
102
RTVSPost2010PropOp29
 70
     1
102
RTVSPost2010Prop30
280
     1
102
RTVSPost2010PropOp30
 70
     1
102
RTVSPost2010Prop31
280
     0
102
RTVSPost2010PropOp31
 70
     1
102
RTVSPost2010Prop32
280
     0
102
RTVSPost2010PropOp32
 70
     1
102
RTVSPost2010Prop33
280
     0
102
RTVSPost2010PropOp33
 70
     1
102
RTVSPost2010Prop34
280
     0
102
RTVSPost2010PropOp34
 70
     1
102
RTVSPost2010Prop35
280
     0
102
RTVSPost2010PropOp35
 70
     1
102
RTVSPost2010Prop36
280
     0
102
RTVSPost2010PropOp36
 70
     1
102
RTVSPost2010Prop37
 90
       50
102
RTVSPost2010PropOp37
 70
     1
102
RTVSPost2010Prop38
140
0.0
102
RTVSPost2010PropOp38
 70
     1
102
RTVSPost2010Prop39
140
1.0
102
RTVSPost2010PropOp39
 70
     1
102
RTVSPost2010Prop40
 90
        0
102
RTVSPost2010PropOp40
 70
     1
102
RTVSPost2010Prop41ColorIndex
 90
       18
102
RTVSPost2010Prop41ColorRGB
 90
        0
102
RTVSPost2010PropOp41
 70
     1
102
RTVSPost2010Prop42
 90
       50
102
RTVSPost2010PropOp42
 70
     1
102
RTVSPost2010Prop43
 90
        3
102
RTVSPost2010PropOp43
 70
     1
102
RTVSPost2010Prop44ColorIndex
 90
        5
102
RTVSPost2010Prop44ColorRGB
 90
      255
102
RTVSPost2010PropOp44
 70
     1
102
RTVSPost2010Prop45
280
     0
102
RTVSPost2010PropOp45
 70
     1
102
RTVSPost2010Prop46
 90
       50
102
RTVSPost2010PropOp46
 70
     1
102
RTVSPost2010Prop47
 90
       50
102
RTVSPost2010PropOp47
 70
     1
102
RTVSPost2010Prop48
 90
       50
102
RTVSPost2010PropOp48
 70
     1
102
RTVSPost2010Prop49
280
     0
102
RTVSPost2010PropOp49
 70
     1
102
RTVSPost2010Prop50
 90
       50
102
RTVSPost2010PropOp50
 70
     1
102
RTVSPost2010Prop51ColorIndex
 90
      256
102
RTVSPost2010Prop51ColorRGB
 90
-16777216
102
RTVSPost2010PropOp51
 70
     0
102
RTVSPost2010Prop52
140
1.0
102
RTVSPost2010PropOp52
 70
     0
102
RTVSPost2010Prop53
 90
        2
102
RTVSPost2010PropOp53
 70
     1
102
RTVSPost2010Prop54
  1
strokes_ogs.tif
102
RTVSPost2010PropOp54
 70
     1
102
RTVSPost2010Prop55
280
     0
102
RTVSPost2010PropOp55
 70
     1
102
RTVSPost2010Prop56
140
1.0
102
RTVSPost2010PropOp56
 70
     1
102
RTVSPost2010Prop57
140
1.0
102
RTVSPost2010PropOp57
 70
     1
102
RTVSPropertyOp0
 70
     1
102
RTVSPropertyOp1
 70
     1
102
RTVSPropertyOp2
 70
     1
102
RTVSPropertyOp3
 70
     1
102
RTVSPropertyOp4
 70
     1
102
RTVSPropertyOp5
 70
     1
102
RTVSPropertyOp6
 70
     1
102
RTVSPropertyOp7
 70
     1
102
RTVSPropertyOp8
 70
     1
102
RTVSPropertyOp9
 70
     1
102
RTVSPropertyOp10
 70
     1
102
RTVSPropertyOp11
 70
     1
102
RTVSPropertyOp12
 70
     1
102
RTVSPropertyOp13
 70
     1
102
RTVSPropertyOp14
 70
     1
102
RTVSPropertyOp15
 70
     1
102
RTVSPropertyOp16
 70
     1
102
RTVSPropertyOp17
 70
     1
102
RTVSPropertyOp18
 70
     1
102
RTVSPropertyOp19
 70
     1
102
RTVSPropertyOp20
 70
     1
102
RTVSPropertyOp21
 70
     1
102
RTVSPropertyOp22
 70
     1
102
RTVSPropertyOp23
 70
     1
102
RTVSPropertyOp24
 70
     1
102
RTVSPropertyOp25
 70
     1
102
RTVSPropertyOp26
 70
     1
102
RTVSPropertyOp27
 70
     1
102
RTVSPropertyOp28
 70
     1
102
RTVSPropertyOp29
 70
     1
102
RTVSPropertyOp30
 70
     1
102
RTVSPropertyOp31
 70
     1
102
RTVSPropertyOp32
 70
     1
102
RTVSPropertyOp33
 70
     1
102
RTVSPropertyOp34
 70
     1
102
RTVSPropertyOp35
 70
     1
102
RTVSPropertyOp36
 70
     1
102
RTVSPropertyOp37
 70
     1
102
RTVSPropertyOp38
 70
     1
102
RTVSPropertyOp39
 70
     1
102
RTVSPropertyOp40
 70
     1
102
RTVSPropertyOp41
 70
     1
102
RTVSPropertyOp42
 70
     1
102
RTVSPropertyOp43
 70
     1
102
RTVSPropertyOp44
 70
     1
102
RTVSPropertyOp45
 70
     1
102
RTVSPropertyOp46
 70
     1
102
RTVSPropertyOp47
 70
     1
102
RTVSPropertyOp48
 70
     1
102
RTVSPropertyOp49
 70
     1
102
RTVSPropertyOp50
 70
     1
102
RTVSPropertyOp51
 70
     0
102
RTVSPropertyOp52
 70
     0
102
RTVSPropertyOp53
 70
     1
102
RTVSPropertyOp54
 70
     1
102
RTVSPropertyOp55
 70
     1
102
RTVSPropertyOp56
 70
     1
102
RTVSPropertyOp57
 70
     1
102
RTVSPropertyOp58
 70
     1
102
RTVSPropertyOp59
 70
     1
102
RTVSPropertyOp60
 70
     1
102
RTVSPropertyOp61
 70
     1
102
RTVSPropertyOp62
 70
     1
  0
XRECORD
  5
B45D
102
{ACAD_REACTORS
330
B45C
102
}
330
B45C
100
AcDbXrecord
280
     1
102
RTVSPost2010Prop28
280
     0
102
RTVSPost2010PropOp28
 70
     1
102
RTVSPost2010Prop29
280
     1
102
RTVSPost2010PropOp29
 70
     1
102
RTVSPost2010Prop30
280
     1
102
RTVSPost2010PropOp30
 70
     1
102
RTVSPost2010Prop31
280
     0
102
RTVSPost2010PropOp31
 70
     1
102
RTVSPost2010Prop32
280
     0
102
RTVSPost2010PropOp32
 70
     1
102
RTVSPost2010Prop33
280
     0
102
RTVSPost2010PropOp33
 70
     1
102
RTVSPost2010Prop34
280
     0
102
RTVSPost2010PropOp34
 70
     1
102
RTVSPost2010Prop35
280
     0
102
RTVSPost2010PropOp35
 70
     1
102
RTVSPost2010Prop36
280
     0
102
RTVSPost2010PropOp36
 70
     1
102
RTVSPost2010Prop37
 90
       50
102
RTVSPost2010PropOp37
 70
     0
102
RTVSPost2010Prop38
140
0.0
102
RTVSPost2010PropOp38
 70
     0
102
RTVSPost2010Prop39
140
1.0
102
RTVSPost2010PropOp39
 70
     0
102
RTVSPost2010Prop40
 90
        0
102
RTVSPost2010PropOp40
 70
     0
102
RTVSPost2010Prop41ColorIndex
 90
       18
102
RTVSPost2010Prop41ColorRGB
 90
        0
102
RTVSPost2010PropOp41
 70
     0
102
RTVSPost2010Prop42
 90
       50
102
RTVSPost2010PropOp42
 70
     0
102
RTVSPost2010Prop43
 90
        3
102
RTVSPost2010PropOp43
 70
     0
102
RTVSPost2010Prop44ColorIndex
 90
        5
102
RTVSPost2010Prop44ColorRGB
 90
      255
102
RTVSPost2010PropOp44
 70
     0
102
RTVSPost2010Prop45
280
     0
102
RTVSPost2010PropOp45
 70
     1
102
RTVSPost2010Prop46
 90
       50
102
RTVSPost2010PropOp46
 70
     0
102
RTVSPost2010Prop47
 90
       50
102
RTVSPost2010PropOp47
 70
     0
102
RTVSPost2010Prop48
 90
       50
102
RTVSPost2010PropOp48
 70
     0
102
RTVSPost2010Prop49
280
     0
102
RTVSPost2010PropOp49
 70
     1
102
RTVSPost2010Prop50
 90
       50
102
RTVSPost2010PropOp50
 70
     0
102
RTVSPost2010Prop51ColorIndex
 90
      256
102
RTVSPost2010Prop51ColorRGB
 90
-16777216
102
RTVSPost2010PropOp51
 70
     0
102
RTVSPost2010Prop52
140
1.0
102
RTVSPost2010PropOp52
 70
     0
102
RTVSPost2010Prop53
 90
        2
102
RTVSPost2010PropOp53
 70
     0
102
RTVSPost2010Prop54
  1
strokes_ogs.tif
102
RTVSPost2010PropOp54
 70
     0
102
RTVSPost2010Prop55
280
     0
102
RTVSPost2010PropOp55
 70
     1
102
RTVSPost2010Prop56
140
1.0
102
RTVSPost2010PropOp56
 70
     0
102
RTVSPost2010Prop57
140
1.0
102
RTVSPost2010PropOp57
 70
     0
102
RTVSPropertyOp0
 70
     0
102
RTVSPropertyOp1
 70
     0
102
RTVSPropertyOp2
 70
     0
102
RTVSPropertyOp3
 70
     0
102
RTVSPropertyOp4
 70
     0
102
RTVSPropertyOp5
 70
     0
102
RTVSPropertyOp6
 70
     0
102
RTVSPropertyOp7
 70
     0
102
RTVSPropertyOp8
 70
     0
102
RTVSPropertyOp9
 70
     0
102
RTVSPropertyOp10
 70
     0
102
RTVSPropertyOp11
 70
     0
102
RTVSPropertyOp12
 70
     0
102
RTVSPropertyOp13
 70
     0
102
RTVSPropertyOp14
 70
     2
102
RTVSPropertyOp15
 70
     0
102
RTVSPropertyOp16
 70
     0
102
RTVSPropertyOp17
 70
     0
102
RTVSPropertyOp18
 70
     0
102
RTVSPropertyOp19
 70
     0
102
RTVSPropertyOp20
 70
     0
102
RTVSPropertyOp21
 70
     0
102
RTVSPropertyOp22
 70
     0
102
RTVSPropertyOp23
 70
     0
102
RTVSPropertyOp24
 70
     0
102
RTVSPropertyOp25
 70
     0
102
RTVSPropertyOp26
 70
     0
102
RTVSPropertyOp27
 70
     0
102
RTVSPropertyOp28
 70
     1
102
RTVSPropertyOp29
 70
     1
102
RTVSPropertyOp30
 70
     1
102
RTVSPropertyOp31
 70
     1
102
RTVSPropertyOp32
 70
     1
102
RTVSPropertyOp33
 70
     1
102
RTVSPropertyOp34
 70
     1
102
RTVSPropertyOp35
 70
     1
102
RTVSPropertyOp36
 70
     1
102
RTVSPropertyOp37
 70
     0
102
RTVSPropertyOp38
 70
     0
102
RTVSPropertyOp39
 70
     0
102
RTVSPropertyOp40
 70
     0
102
RTVSPropertyOp41
 70
     0
102
RTVSPropertyOp42
 70
     0
102
RTVSPropertyOp43
 70
     0
102
RTVSPropertyOp44
 70
     0
102
RTVSPropertyOp45
 70
     1
102
RTVSPropertyOp46
 70
     0
102
RTVSPropertyOp47
 70
     0
102
RTVSPropertyOp48
 70
     0
102
RTVSPropertyOp49
 70
     1
102
RTVSPropertyOp50
 70
     0
102
RTVSPropertyOp51
 70
     0
102
RTVSPropertyOp52
 70
     0
102
RTVSPropertyOp53
 70
     0
102
RTVSPropertyOp54
 70
     0
102
RTVSPropertyOp55
 70
     1
102
RTVSPropertyOp56
 70
     0
102
RTVSPropertyOp57
 70
     0
102
RTVSPropertyOp58
 70
     0
102
RTVSPropertyOp59
 70
     0
102
RTVSPropertyOp60
 70
     0
102
RTVSPropertyOp61
 70
     0
102
RTVSPropertyOp62
 70
     0
  0
XRECORD
  5
B44D
102
{ACAD_REACTORS
330
B44C
102
}
330
B44C
100
AcDbXrecord
280
     1
102
RTVSPost2010Prop28
280
     0
102
RTVSPost2010PropOp28
 70
     1
102
RTVSPost2010Prop29
280
     1
102
RTVSPost2010PropOp29
 70
     1
102
RTVSPost2010Prop30
280
     1
102
RTVSPost2010PropOp30
 70
     1
102
RTVSPost2010Prop31
280
     0
102
RTVSPost2010PropOp31
 70
     1
102
RTVSPost2010Prop32
280
     0
102
RTVSPost2010PropOp32
 70
     1
102
RTVSPost2010Prop33
280
     0
102
RTVSPost2010PropOp33
 70
     1
102
RTVSPost2010Prop34
280
     0
102
RTVSPost2010PropOp34
 70
     1
102
RTVSPost2010Prop35
280
     0
102
RTVSPost2010PropOp35
 70
     1
102
RTVSPost2010Prop36
280
     0
102
RTVSPost2010PropOp36
 70
     1
102
RTVSPost2010Prop37
 90
       50
102
RTVSPost2010PropOp37
 70
     1
102
RTVSPost2010Prop38
140
0.0
102
RTVSPost2010PropOp38
 70
     1
102
RTVSPost2010Prop39
140
1.0
102
RTVSPost2010PropOp39
 70
     1
102
RTVSPost2010Prop40
 90
        0
102
RTVSPost2010PropOp40
 70
     1
102
RTVSPost2010Prop41ColorIndex
 90
       18
102
RTVSPost2010Prop41ColorRGB
 90
        0
102
RTVSPost2010PropOp41
 70
     1
102
RTVSPost2010Prop42
 90
       50
102
RTVSPost2010PropOp42
 70
     1
102
RTVSPost2010Prop43
 90
        3
102
RTVSPost2010PropOp43
 70
     1
102
RTVSPost2010Prop44ColorIndex
 90
        5
102
RTVSPost2010Prop44ColorRGB
 90
      255
102
RTVSPost2010PropOp44
 70
     1
102
RTVSPost2010Prop45
280
     0
102
RTVSPost2010PropOp45
 70
     1
102
RTVSPost2010Prop46
 90
       50
102
RTVSPost2010PropOp46
 70
     1
102
RTVSPost2010Prop47
 90
       50
102
RTVSPost2010PropOp47
 70
     1
102
RTVSPost2010Prop48
 90
       50
102
RTVSPost2010PropOp48
 70
     1
102
RTVSPost2010Prop49
280
     0
102
RTVSPost2010PropOp49
 70
     1
102
RTVSPost2010Prop50
 90
       50
102
RTVSPost2010PropOp50
 70
     1
102
RTVSPost2010Prop51ColorIndex
 90
      256
102
RTVSPost2010Prop51ColorRGB
 90
-16777216
102
RTVSPost2010PropOp51
 70
     0
102
RTVSPost2010Prop52
140
1.0
102
RTVSPost2010PropOp52
 70
     0
102
RTVSPost2010Prop53
 90
        2
102
RTVSPost2010PropOp53
 70
     1
102
RTVSPost2010Prop54
  1
strokes_ogs.tif
102
RTVSPost2010PropOp54
 70
     1
102
RTVSPost2010Prop55
280
     0
102
RTVSPost2010PropOp55
 70
     1
102
RTVSPost2010Prop56
140
1.0
102
RTVSPost2010PropOp56
 70
     1
102
RTVSPost2010Prop57
140
1.0
102
RTVSPost2010PropOp57
 70
     1
102
RTVSPropertyOp0
 70
     1
102
RTVSPropertyOp1
 70
     1
102
RTVSPropertyOp2
 70
     1
102
RTVSPropertyOp3
 70
     1
102
RTVSPropertyOp4
 70
     1
102
RTVSPropertyOp5
 70
     1
102
RTVSPropertyOp6
 70
     1
102
RTVSPropertyOp7
 70
     1
102
RTVSPropertyOp8
 70
     1
102
RTVSPropertyOp9
 70
     1
102
RTVSPropertyOp10
 70
     1
102
RTVSPropertyOp11
 70
     1
102
RTVSPropertyOp12
 70
     1
102
RTVSPropertyOp13
 70
     1
102
RTVSPropertyOp14
 70
     1
102
RTVSPropertyOp15
 70
     1
102
RTVSPropertyOp16
 70
     1
102
RTVSPropertyOp17
 70
     1
102
RTVSPropertyOp18
 70
     1
102
RTVSPropertyOp19
 70
     1
102
RTVSPropertyOp20
 70
     1
102
RTVSPropertyOp21
 70
     1
102
RTVSPropertyOp22
 70
     1
102
RTVSPropertyOp23
 70
     1
102
RTVSPropertyOp24
 70
     1
102
RTVSPropertyOp25
 70
     1
102
RTVSPropertyOp26
 70
     1
102
RTVSPropertyOp27
 70
     1
102
RTVSPropertyOp28
 70
     1
102
RTVSPropertyOp29
 70
     1
102
RTVSPropertyOp30
 70
     1
102
RTVSPropertyOp31
 70
     1
102
RTVSPropertyOp32
 70
     1
102
RTVSPropertyOp33
 70
     1
102
RTVSPropertyOp34
 70
     1
102
RTVSPropertyOp35
 70
     1
102
RTVSPropertyOp36
 70
     1
102
RTVSPropertyOp37
 70
     1
102
RTVSPropertyOp38
 70
     1
102
RTVSPropertyOp39
 70
     1
102
RTVSPropertyOp40
 70
     1
102
RTVSPropertyOp41
 70
     1
102
RTVSPropertyOp42
 70
     1
102
RTVSPropertyOp43
 70
     1
102
RTVSPropertyOp44
 70
     1
102
RTVSPropertyOp45
 70
     1
102
RTVSPropertyOp46
 70
     1
102
RTVSPropertyOp47
 70
     1
102
RTVSPropertyOp48
 70
     1
102
RTVSPropertyOp49
 70
     1
102
RTVSPropertyOp50
 70
     1
102
RTVSPropertyOp51
 70
     0
102
RTVSPropertyOp52
 70
     0
102
RTVSPropertyOp53
 70
     1
102
RTVSPropertyOp54
 70
     1
102
RTVSPropertyOp55
 70
     1
102
RTVSPropertyOp56
 70
     1
102
RTVSPropertyOp57
 70
     1
102
RTVSPropertyOp58
 70
     1
102
RTVSPropertyOp59
 70
     1
102
RTVSPropertyOp60
 70
     1
102
RTVSPropertyOp61
 70
     1
102
RTVSPropertyOp62
 70
     1
  0
XRECORD
  5
B45F
102
{ACAD_REACTORS
330
B45E
102
}
330
B45E
100
AcDbXrecord
280
     1
102
RTVSPost2010Prop28
280
     0
102
RTVSPost2010PropOp28
 70
     1
102
RTVSPost2010Prop29
280
     1
102
RTVSPost2010PropOp29
 70
     1
102
RTVSPost2010Prop30
280
     1
102
RTVSPost2010PropOp30
 70
     1
102
RTVSPost2010Prop31
280
     0
102
RTVSPost2010PropOp31
 70
     1
102
RTVSPost2010Prop32
280
     0
102
RTVSPost2010PropOp32
 70
     1
102
RTVSPost2010Prop33
280
     0
102
RTVSPost2010PropOp33
 70
     1
102
RTVSPost2010Prop34
280
     0
102
RTVSPost2010PropOp34
 70
     1
102
RTVSPost2010Prop35
280
     0
102
RTVSPost2010PropOp35
 70
     1
102
RTVSPost2010Prop36
280
     0
102
RTVSPost2010PropOp36
 70
     1
102
RTVSPost2010Prop37
 90
       50
102
RTVSPost2010PropOp37
 70
     0
102
RTVSPost2010Prop38
140
0.0
102
RTVSPost2010PropOp38
 70
     0
102
RTVSPost2010Prop39
140
1.0
102
RTVSPost2010PropOp39
 70
     0
102
RTVSPost2010Prop40
 90
        0
102
RTVSPost2010PropOp40
 70
     0
102
RTVSPost2010Prop41ColorIndex
 90
       18
102
RTVSPost2010Prop41ColorRGB
 90
        0
102
RTVSPost2010PropOp41
 70
     0
102
RTVSPost2010Prop42
 90
       50
102
RTVSPost2010PropOp42
 70
     0
102
RTVSPost2010Prop43
 90
        3
102
RTVSPost2010PropOp43
 70
     0
102
RTVSPost2010Prop44ColorIndex
 90
        5
102
RTVSPost2010Prop44ColorRGB
 90
      255
102
RTVSPost2010PropOp44
 70
     0
102
RTVSPost2010Prop45
280
     0
102
RTVSPost2010PropOp45
 70
     1
102
RTVSPost2010Prop46
 90
       50
102
RTVSPost2010PropOp46
 70
     0
102
RTVSPost2010Prop47
 90
       50
102
RTVSPost2010PropOp47
 70
     0
102
RTVSPost2010Prop48
 90
       50
102
RTVSPost2010PropOp48
 70
     0
102
RTVSPost2010Prop49
280
     0
102
RTVSPost2010PropOp49
 70
     1
102
RTVSPost2010Prop50
 90
       50
102
RTVSPost2010PropOp50
 70
     0
102
RTVSPost2010Prop51ColorIndex
 90
      256
102
RTVSPost2010Prop51ColorRGB
 90
-16777216
102
RTVSPost2010PropOp51
 70
     0
102
RTVSPost2010Prop52
140
1.0
102
RTVSPost2010PropOp52
 70
     0
102
RTVSPost2010Prop53
 90
        2
102
RTVSPost2010PropOp53
 70
     0
102
RTVSPost2010Prop54
  1
strokes_ogs.tif
102
RTVSPost2010PropOp54
 70
     0
102
RTVSPost2010Prop55
280
     0
102
RTVSPost2010PropOp55
 70
     1
102
RTVSPost2010Prop56
140
1.0
102
RTVSPost2010PropOp56
 70
     0
102
RTVSPost2010Prop57
140
1.0
102
RTVSPost2010PropOp57
 70
     0
102
RTVSPropertyOp0
 70
     0
102
RTVSPropertyOp1
 70
     0
102
RTVSPropertyOp2
 70
     0
102
RTVSPropertyOp3
 70
     0
102
RTVSPropertyOp4
 70
     0
102
RTVSPropertyOp5
 70
     0
102
RTVSPropertyOp6
 70
     0
102
RTVSPropertyOp7
 70
     0
102
RTVSPropertyOp8
 70
     0
102
RTVSPropertyOp9
 70
     0
102
RTVSPropertyOp10
 70
     0
102
RTVSPropertyOp11
 70
     0
102
RTVSPropertyOp12
 70
     0
102
RTVSPropertyOp13
 70
     0
102
RTVSPropertyOp14
 70
     2
102
RTVSPropertyOp15
 70
     0
102
RTVSPropertyOp16
 70
     0
102
RTVSPropertyOp17
 70
     0
102
RTVSPropertyOp18
 70
     0
102
RTVSPropertyOp19
 70
     0
102
RTVSPropertyOp20
 70
     0
102
RTVSPropertyOp21
 70
     0
102
RTVSPropertyOp22
 70
     0
102
RTVSPropertyOp23
 70
     0
102
RTVSPropertyOp24
 70
     0
102
RTVSPropertyOp25
 70
     0
102
RTVSPropertyOp26
 70
     0
102
RTVSPropertyOp27
 70
     0
102
RTVSPropertyOp28
 70
     1
102
RTVSPropertyOp29
 70
     1
102
RTVSPropertyOp30
 70
     1
102
RTVSPropertyOp31
 70
     1
102
RTVSPropertyOp32
 70
     1
102
RTVSPropertyOp33
 70
     1
102
RTVSPropertyOp34
 70
     1
102
RTVSPropertyOp35
 70
     1
102
RTVSPropertyOp36
 70
     1
102
RTVSPropertyOp37
 70
     0
102
RTVSPropertyOp38
 70
     0
102
RTVSPropertyOp39
 70
     0
102
RTVSPropertyOp40
 70
     0
102
RTVSPropertyOp41
 70
     0
102
RTVSPropertyOp42
 70
     0
102
RTVSPropertyOp43
 70
     0
102
RTVSPropertyOp44
 70
     0
102
RTVSPropertyOp45
 70
     1
102
RTVSPropertyOp46
 70
     0
102
RTVSPropertyOp47
 70
     0
102
RTVSPropertyOp48
 70
     0
102
RTVSPropertyOp49
 70
     1
102
RTVSPropertyOp50
 70
     0
102
RTVSPropertyOp51
 70
     0
102
RTVSPropertyOp52
 70
     0
102
RTVSPropertyOp53
 70
     0
102
RTVSPropertyOp54
 70
     0
102
RTVSPropertyOp55
 70
     1
102
RTVSPropertyOp56
 70
     0
102
RTVSPropertyOp57
 70
     0
102
RTVSPropertyOp58
 70
     0
102
RTVSPropertyOp59
 70
     0
102
RTVSPropertyOp60
 70
     0
102
RTVSPropertyOp61
 70
     0
102
RTVSPropertyOp62
 70
     0
  0
XRECORD
  5
B445
102
{ACAD_REACTORS
330
B444
102
}
330
B444
100
AcDbXrecord
280
     1
102
RTVSPost2010Prop28
280
     0
102
RTVSPost2010PropOp28
 70
     1
102
RTVSPost2010Prop29
280
     1
102
RTVSPost2010PropOp29
 70
     1
102
RTVSPost2010Prop30
280
     1
102
RTVSPost2010PropOp30
 70
     1
102
RTVSPost2010Prop31
280
     0
102
RTVSPost2010PropOp31
 70
     1
102
RTVSPost2010Prop32
280
     0
102
RTVSPost2010PropOp32
 70
     1
102
RTVSPost2010Prop33
280
     0
102
RTVSPost2010PropOp33
 70
     1
102
RTVSPost2010Prop34
280
     0
102
RTVSPost2010PropOp34
 70
     1
102
RTVSPost2010Prop35
280
     0
102
RTVSPost2010PropOp35
 70
     1
102
RTVSPost2010Prop36
280
     0
102
RTVSPost2010PropOp36
 70
     1
102
RTVSPost2010Prop37
 90
       50
102
RTVSPost2010PropOp37
 70
     1
102
RTVSPost2010Prop38
140
0.0
102
RTVSPost2010PropOp38
 70
     1
102
RTVSPost2010Prop39
140
1.0
102
RTVSPost2010PropOp39
 70
     1
102
RTVSPost2010Prop40
 90
        0
102
RTVSPost2010PropOp40
 70
     1
102
RTVSPost2010Prop41ColorIndex
 90
       18
102
RTVSPost2010Prop41ColorRGB
 90
        0
102
RTVSPost2010PropOp41
 70
     1
102
RTVSPost2010Prop42
 90
       50
102
RTVSPost2010PropOp42
 70
     1
102
RTVSPost2010Prop43
 90
        3
102
RTVSPost2010PropOp43
 70
     1
102
RTVSPost2010Prop44ColorIndex
 90
        5
102
RTVSPost2010Prop44ColorRGB
 90
      255
102
RTVSPost2010PropOp44
 70
     1
102
RTVSPost2010Prop45
280
     0
102
RTVSPost2010PropOp45
 70
     1
102
RTVSPost2010Prop46
 90
       50
102
RTVSPost2010PropOp46
 70
     1
102
RTVSPost2010Prop47
 90
       50
102
RTVSPost2010PropOp47
 70
     1
102
RTVSPost2010Prop48
 90
       50
102
RTVSPost2010PropOp48
 70
     1
102
RTVSPost2010Prop49
280
     0
102
RTVSPost2010PropOp49
 70
     1
102
RTVSPost2010Prop50
 90
       50
102
RTVSPost2010PropOp50
 70
     1
102
RTVSPost2010Prop51ColorIndex
 90
      256
102
RTVSPost2010Prop51ColorRGB
 90
-16777216
102
RTVSPost2010PropOp51
 70
     0
102
RTVSPost2010Prop52
140
1.0
102
RTVSPost2010PropOp52
 70
     0
102
RTVSPost2010Prop53
 90
        2
102
RTVSPost2010PropOp53
 70
     1
102
RTVSPost2010Prop54
  1
strokes_ogs.tif
102
RTVSPost2010PropOp54
 70
     1
102
RTVSPost2010Prop55
280
     0
102
RTVSPost2010PropOp55
 70
     1
102
RTVSPost2010Prop56
140
1.0
102
RTVSPost2010PropOp56
 70
     1
102
RTVSPost2010Prop57
140
1.0
102
RTVSPost2010PropOp57
 70
     1
102
RTVSPropertyOp0
 70
     1
102
RTVSPropertyOp1
 70
     1
102
RTVSPropertyOp2
 70
     1
102
RTVSPropertyOp3
 70
     1
102
RTVSPropertyOp4
 70
     1
102
RTVSPropertyOp5
 70
     1
102
RTVSPropertyOp6
 70
     1
102
RTVSPropertyOp7
 70
     1
102
RTVSPropertyOp8
 70
     1
102
RTVSPropertyOp9
 70
     1
102
RTVSPropertyOp10
 70
     1
102
RTVSPropertyOp11
 70
     1
102
RTVSPropertyOp12
 70
     1
102
RTVSPropertyOp13
 70
     1
102
RTVSPropertyOp14
 70
     1
102
RTVSPropertyOp15
 70
     1
102
RTVSPropertyOp16
 70
     1
102
RTVSPropertyOp17
 70
     1
102
RTVSPropertyOp18
 70
     1
102
RTVSPropertyOp19
 70
     1
102
RTVSPropertyOp20
 70
     1
102
RTVSPropertyOp21
 70
     1
102
RTVSPropertyOp22
 70
     1
102
RTVSPropertyOp23
 70
     1
102
RTVSPropertyOp24
 70
     1
102
RTVSPropertyOp25
 70
     1
102
RTVSPropertyOp26
 70
     1
102
RTVSPropertyOp27
 70
     1
102
RTVSPropertyOp28
 70
     1
102
RTVSPropertyOp29
 70
     1
102
RTVSPropertyOp30
 70
     1
102
RTVSPropertyOp31
 70
     1
102
RTVSPropertyOp32
 70
     1
102
RTVSPropertyOp33
 70
     1
102
RTVSPropertyOp34
 70
     1
102
RTVSPropertyOp35
 70
     1
102
RTVSPropertyOp36
 70
     1
102
RTVSPropertyOp37
 70
     1
102
RTVSPropertyOp38
 70
     1
102
RTVSPropertyOp39
 70
     1
102
RTVSPropertyOp40
 70
     1
102
RTVSPropertyOp41
 70
     1
102
RTVSPropertyOp42
 70
     1
102
RTVSPropertyOp43
 70
     1
102
RTVSPropertyOp44
 70
     1
102
RTVSPropertyOp45
 70
     1
102
RTVSPropertyOp46
 70
     1
102
RTVSPropertyOp47
 70
     1
102
RTVSPropertyOp48
 70
     1
102
RTVSPropertyOp49
 70
     1
102
RTVSPropertyOp50
 70
     1
102
RTVSPropertyOp51
 70
     0
102
RTVSPropertyOp52
 70
     0
102
RTVSPropertyOp53
 70
     1
102
RTVSPropertyOp54
 70
     1
102
RTVSPropertyOp55
 70
     1
102
RTVSPropertyOp56
 70
     1
102
RTVSPropertyOp57
 70
     1
102
RTVSPropertyOp58
 70
     1
102
RTVSPropertyOp59
 70
     1
102
RTVSPropertyOp60
 70
     1
102
RTVSPropertyOp61
 70
     1
102
RTVSPropertyOp62
 70
     1
  0
XRECORD
  5
B45B
102
{ACAD_REACTORS
330
B45A
102
}
330
B45A
100
AcDbXrecord
280
     1
102
RTVSPost2010Prop28
280
     0
102
RTVSPost2010PropOp28
 70
     1
102
RTVSPost2010Prop29
280
     1
102
RTVSPost2010PropOp29
 70
     1
102
RTVSPost2010Prop30
280
     1
102
RTVSPost2010PropOp30
 70
     1
102
RTVSPost2010Prop31
280
     0
102
RTVSPost2010PropOp31
 70
     1
102
RTVSPost2010Prop32
280
     0
102
RTVSPost2010PropOp32
 70
     1
102
RTVSPost2010Prop33
280
     0
102
RTVSPost2010PropOp33
 70
     1
102
RTVSPost2010Prop34
280
     0
102
RTVSPost2010PropOp34
 70
     1
102
RTVSPost2010Prop35
280
     0
102
RTVSPost2010PropOp35
 70
     1
102
RTVSPost2010Prop36
280
     0
102
RTVSPost2010PropOp36
 70
     1
102
RTVSPost2010Prop37
 90
       50
102
RTVSPost2010PropOp37
 70
     1
102
RTVSPost2010Prop38
140
0.0
102
RTVSPost2010PropOp38
 70
     1
102
RTVSPost2010Prop39
140
1.0
102
RTVSPost2010PropOp39
 70
     1
102
RTVSPost2010Prop40
 90
        0
102
RTVSPost2010PropOp40
 70
     1
102
RTVSPost2010Prop41ColorIndex
 90
       18
102
RTVSPost2010Prop41ColorRGB
 90
        0
102
RTVSPost2010PropOp41
 70
     1
102
RTVSPost2010Prop42
 90
       50
102
RTVSPost2010PropOp42
 70
     1
102
RTVSPost2010Prop43
 90
        3
102
RTVSPost2010PropOp43
 70
     1
102
RTVSPost2010Prop44ColorIndex
 90
        5
102
RTVSPost2010Prop44ColorRGB
 90
      255
102
RTVSPost2010PropOp44
 70
     1
102
RTVSPost2010Prop45
280
     0
102
RTVSPost2010PropOp45
 70
     1
102
RTVSPost2010Prop46
 90
       50
102
RTVSPost2010PropOp46
 70
     1
102
RTVSPost2010Prop47
 90
       50
102
RTVSPost2010PropOp47
 70
     1
102
RTVSPost2010Prop48
 90
       50
102
RTVSPost2010PropOp48
 70
     1
102
RTVSPost2010Prop49
280
     0
102
RTVSPost2010PropOp49
 70
     1
102
RTVSPost2010Prop50
 90
       50
102
RTVSPost2010PropOp50
 70
     1
102
RTVSPost2010Prop51ColorIndex
 90
      256
102
RTVSPost2010Prop51ColorRGB
 90
-16777216
102
RTVSPost2010PropOp51
 70
     0
102
RTVSPost2010Prop52
140
1.0
102
RTVSPost2010PropOp52
 70
     0
102
RTVSPost2010Prop53
 90
        2
102
RTVSPost2010PropOp53
 70
     1
102
RTVSPost2010Prop54
  1
strokes_ogs.tif
102
RTVSPost2010PropOp54
 70
     1
102
RTVSPost2010Prop55
280
     0
102
RTVSPost2010PropOp55
 70
     1
102
RTVSPost2010Prop56
140
1.0
102
RTVSPost2010PropOp56
 70
     1
102
RTVSPost2010Prop57
140
1.0
102
RTVSPost2010PropOp57
 70
     1
102
RTVSPropertyOp0
 70
     1
102
RTVSPropertyOp1
 70
     1
102
RTVSPropertyOp2
 70
     1
102
RTVSPropertyOp3
 70
     1
102
RTVSPropertyOp4
 70
     1
102
RTVSPropertyOp5
 70
     1
102
RTVSPropertyOp6
 70
     1
102
RTVSPropertyOp7
 70
     1
102
RTVSPropertyOp8
 70
     1
102
RTVSPropertyOp9
 70
     1
102
RTVSPropertyOp10
 70
     1
102
RTVSPropertyOp11
 70
     1
102
RTVSPropertyOp12
 70
     1
102
RTVSPropertyOp13
 70
     1
102
RTVSPropertyOp14
 70
     1
102
RTVSPropertyOp15
 70
     1
102
RTVSPropertyOp16
 70
     1
102
RTVSPropertyOp17
 70
     1
102
RTVSPropertyOp18
 70
     1
102
RTVSPropertyOp19
 70
     1
102
RTVSPropertyOp20
 70
     1
102
RTVSPropertyOp21
 70
     1
102
RTVSPropertyOp22
 70
     1
102
RTVSPropertyOp23
 70
     1
102
RTVSPropertyOp24
 70
     1
102
RTVSPropertyOp25
 70
     1
102
RTVSPropertyOp26
 70
     1
102
RTVSPropertyOp27
 70
     1
102
RTVSPropertyOp28
 70
     1
102
RTVSPropertyOp29
 70
     1
102
RTVSPropertyOp30
 70
     1
102
RTVSPropertyOp31
 70
     1
102
RTVSPropertyOp32
 70
     1
102
RTVSPropertyOp33
 70
     1
102
RTVSPropertyOp34
 70
     1
102
RTVSPropertyOp35
 70
     1
102
RTVSPropertyOp36
 70
     1
102
RTVSPropertyOp37
 70
     1
102
RTVSPropertyOp38
 70
     1
102
RTVSPropertyOp39
 70
     1
102
RTVSPropertyOp40
 70
     1
102
RTVSPropertyOp41
 70
     1
102
RTVSPropertyOp42
 70
     1
102
RTVSPropertyOp43
 70
     1
102
RTVSPropertyOp44
 70
     1
102
RTVSPropertyOp45
 70
     1
102
RTVSPropertyOp46
 70
     1
102
RTVSPropertyOp47
 70
     1
102
RTVSPropertyOp48
 70
     1
102
RTVSPropertyOp49
 70
     1
102
RTVSPropertyOp50
 70
     1
102
RTVSPropertyOp51
 70
     0
102
RTVSPropertyOp52
 70
     0
102
RTVSPropertyOp53
 70
     1
102
RTVSPropertyOp54
 70
     1
102
RTVSPropertyOp55
 70
     1
102
RTVSPropertyOp56
 70
     1
102
RTVSPropertyOp57
 70
     1
102
RTVSPropertyOp58
 70
     1
102
RTVSPropertyOp59
 70
     1
102
RTVSPropertyOp60
 70
     1
102
RTVSPropertyOp61
 70
     1
102
RTVSPropertyOp62
 70
     1
  0
XRECORD
  5
B459
102
{ACAD_REACTORS
330
B458
102
}
330
B458
100
AcDbXrecord
280
     1
102
RTVSPost2010Prop28
280
     0
102
RTVSPost2010PropOp28
 70
     1
102
RTVSPost2010Prop29
280
     1
102
RTVSPost2010PropOp29
 70
     1
102
RTVSPost2010Prop30
280
     1
102
RTVSPost2010PropOp30
 70
     1
102
RTVSPost2010Prop31
280
     0
102
RTVSPost2010PropOp31
 70
     1
102
RTVSPost2010Prop32
280
     0
102
RTVSPost2010PropOp32
 70
     1
102
RTVSPost2010Prop33
280
     0
102
RTVSPost2010PropOp33
 70
     1
102
RTVSPost2010Prop34
280
     0
102
RTVSPost2010PropOp34
 70
     1
102
RTVSPost2010Prop35
280
     0
102
RTVSPost2010PropOp35
 70
     1
102
RTVSPost2010Prop36
280
     0
102
RTVSPost2010PropOp36
 70
     1
102
RTVSPost2010Prop37
 90
       50
102
RTVSPost2010PropOp37
 70
     1
102
RTVSPost2010Prop38
140
0.0
102
RTVSPost2010PropOp38
 70
     1
102
RTVSPost2010Prop39
140
1.0
102
RTVSPost2010PropOp39
 70
     1
102
RTVSPost2010Prop40
 90
        0
102
RTVSPost2010PropOp40
 70
     1
102
RTVSPost2010Prop41ColorIndex
 90
       18
102
RTVSPost2010Prop41ColorRGB
 90
        0
102
RTVSPost2010PropOp41
 70
     1
102
RTVSPost2010Prop42
 90
       50
102
RTVSPost2010PropOp42
 70
     1
102
RTVSPost2010Prop43
 90
        3
102
RTVSPost2010PropOp43
 70
     1
102
RTVSPost2010Prop44ColorIndex
 90
        5
102
RTVSPost2010Prop44ColorRGB
 90
      255
102
RTVSPost2010PropOp44
 70
     1
102
RTVSPost2010Prop45
280
     0
102
RTVSPost2010PropOp45
 70
     1
102
RTVSPost2010Prop46
 90
       50
102
RTVSPost2010PropOp46
 70
     1
102
RTVSPost2010Prop47
 90
       50
102
RTVSPost2010PropOp47
 70
     1
102
RTVSPost2010Prop48
 90
       50
102
RTVSPost2010PropOp48
 70
     1
102
RTVSPost2010Prop49
280
     0
102
RTVSPost2010PropOp49
 70
     1
102
RTVSPost2010Prop50
 90
       50
102
RTVSPost2010PropOp50
 70
     1
102
RTVSPost2010Prop51ColorIndex
 90
      256
102
RTVSPost2010Prop51ColorRGB
 90
-16777216
102
RTVSPost2010PropOp51
 70
     0
102
RTVSPost2010Prop52
140
1.0
102
RTVSPost2010PropOp52
 70
     0
102
RTVSPost2010Prop53
 90
        2
102
RTVSPost2010PropOp53
 70
     1
102
RTVSPost2010Prop54
  1
strokes_ogs.tif
102
RTVSPost2010PropOp54
 70
     1
102
RTVSPost2010Prop55
280
     0
102
RTVSPost2010PropOp55
 70
     1
102
RTVSPost2010Prop56
140
1.0
102
RTVSPost2010PropOp56
 70
     1
102
RTVSPost2010Prop57
140
1.0
102
RTVSPost2010PropOp57
 70
     1
102
RTVSPropertyOp0
 70
     1
102
RTVSPropertyOp1
 70
     1
102
RTVSPropertyOp2
 70
     1
102
RTVSPropertyOp3
 70
     1
102
RTVSPropertyOp4
 70
     1
102
RTVSPropertyOp5
 70
     1
102
RTVSPropertyOp6
 70
     1
102
RTVSPropertyOp7
 70
     1
102
RTVSPropertyOp8
 70
     1
102
RTVSPropertyOp9
 70
     1
102
RTVSPropertyOp10
 70
     1
102
RTVSPropertyOp11
 70
     1
102
RTVSPropertyOp12
 70
     1
102
RTVSPropertyOp13
 70
     1
102
RTVSPropertyOp14
 70
     1
102
RTVSPropertyOp15
 70
     1
102
RTVSPropertyOp16
 70
     1
102
RTVSPropertyOp17
 70
     1
102
RTVSPropertyOp18
 70
     1
102
RTVSPropertyOp19
 70
     1
102
RTVSPropertyOp20
 70
     1
102
RTVSPropertyOp21
 70
     1
102
RTVSPropertyOp22
 70
     1
102
RTVSPropertyOp23
 70
     1
102
RTVSPropertyOp24
 70
     1
102
RTVSPropertyOp25
 70
     1
102
RTVSPropertyOp26
 70
     1
102
RTVSPropertyOp27
 70
     1
102
RTVSPropertyOp28
 70
     1
102
RTVSPropertyOp29
 70
     1
102
RTVSPropertyOp30
 70
     1
102
RTVSPropertyOp31
 70
     1
102
RTVSPropertyOp32
 70
     1
102
RTVSPropertyOp33
 70
     1
102
RTVSPropertyOp34
 70
     1
102
RTVSPropertyOp35
 70
     1
102
RTVSPropertyOp36
 70
     1
102
RTVSPropertyOp37
 70
     1
102
RTVSPropertyOp38
 70
     1
102
RTVSPropertyOp39
 70
     1
102
RTVSPropertyOp40
 70
     1
102
RTVSPropertyOp41
 70
     1
102
RTVSPropertyOp42
 70
     1
102
RTVSPropertyOp43
 70
     1
102
RTVSPropertyOp44
 70
     1
102
RTVSPropertyOp45
 70
     1
102
RTVSPropertyOp46
 70
     1
102
RTVSPropertyOp47
 70
     1
102
RTVSPropertyOp48
 70
     1
102
RTVSPropertyOp49
 70
     1
102
RTVSPropertyOp50
 70
     1
102
RTVSPropertyOp51
 70
     0
102
RTVSPropertyOp52
 70
     0
102
RTVSPropertyOp53
 70
     1
102
RTVSPropertyOp54
 70
     1
102
RTVSPropertyOp55
 70
     1
102
RTVSPropertyOp56
 70
     1
102
RTVSPropertyOp57
 70
     1
102
RTVSPropertyOp58
 70
     1
102
RTVSPropertyOp59
 70
     1
102
RTVSPropertyOp60
 70
     1
102
RTVSPropertyOp61
 70
     1
102
RTVSPropertyOp62
 70
     1
  0
XRECORD
  5
B453
102
{ACAD_REACTORS
330
B452
102
}
330
B452
100
AcDbXrecord
280
     1
102
RTVSPost2010Prop28
280
     0
102
RTVSPost2010PropOp28
 70
     1
102
RTVSPost2010Prop29
280
     1
102
RTVSPost2010PropOp29
 70
     1
102
RTVSPost2010Prop30
280
     1
102
RTVSPost2010PropOp30
 70
     1
102
RTVSPost2010Prop31
280
     0
102
RTVSPost2010PropOp31
 70
     1
102
RTVSPost2010Prop32
280
     0
102
RTVSPost2010PropOp32
 70
     1
102
RTVSPost2010Prop33
280
     0
102
RTVSPost2010PropOp33
 70
     1
102
RTVSPost2010Prop34
280
     0
102
RTVSPost2010PropOp34
 70
     1
102
RTVSPost2010Prop35
280
     0
102
RTVSPost2010PropOp35
 70
     1
102
RTVSPost2010Prop36
280
     0
102
RTVSPost2010PropOp36
 70
     1
102
RTVSPost2010Prop37
 90
       50
102
RTVSPost2010PropOp37
 70
     1
102
RTVSPost2010Prop38
140
0.0
102
RTVSPost2010PropOp38
 70
     1
102
RTVSPost2010Prop39
140
1.0
102
RTVSPost2010PropOp39
 70
     1
102
RTVSPost2010Prop40
 90
        0
102
RTVSPost2010PropOp40
 70
     1
102
RTVSPost2010Prop41ColorIndex
 90
       18
102
RTVSPost2010Prop41ColorRGB
 90
        0
102
RTVSPost2010PropOp41
 70
     1
102
RTVSPost2010Prop42
 90
       50
102
RTVSPost2010PropOp42
 70
     1
102
RTVSPost2010Prop43
 90
        3
102
RTVSPost2010PropOp43
 70
     1
102
RTVSPost2010Prop44ColorIndex
 90
        5
102
RTVSPost2010Prop44ColorRGB
 90
      255
102
RTVSPost2010PropOp44
 70
     1
102
RTVSPost2010Prop45
280
     0
102
RTVSPost2010PropOp45
 70
     1
102
RTVSPost2010Prop46
 90
       50
102
RTVSPost2010PropOp46
 70
     1
102
RTVSPost2010Prop47
 90
       50
102
RTVSPost2010PropOp47
 70
     1
102
RTVSPost2010Prop48
 90
       50
102
RTVSPost2010PropOp48
 70
     1
102
RTVSPost2010Prop49
280
     0
102
RTVSPost2010PropOp49
 70
     1
102
RTVSPost2010Prop50
 90
       50
102
RTVSPost2010PropOp50
 70
     1
102
RTVSPost2010Prop51ColorIndex
 90
      256
102
RTVSPost2010Prop51ColorRGB
 90
-16777216
102
RTVSPost2010PropOp51
 70
     0
102
RTVSPost2010Prop52
140
1.0
102
RTVSPost2010PropOp52
 70
     0
102
RTVSPost2010Prop53
 90
        2
102
RTVSPost2010PropOp53
 70
     1
102
RTVSPost2010Prop54
  1
strokes_ogs.tif
102
RTVSPost2010PropOp54
 70
     1
102
RTVSPost2010Prop55
280
     0
102
RTVSPost2010PropOp55
 70
     1
102
RTVSPost2010Prop56
140
1.0
102
RTVSPost2010PropOp56
 70
     1
102
RTVSPost2010Prop57
140
1.0
102
RTVSPost2010PropOp57
 70
     1
102
RTVSPropertyOp0
 70
     1
102
RTVSPropertyOp1
 70
     1
102
RTVSPropertyOp2
 70
     1
102
RTVSPropertyOp3
 70
     1
102
RTVSPropertyOp4
 70
     1
102
RTVSPropertyOp5
 70
     1
102
RTVSPropertyOp6
 70
     1
102
RTVSPropertyOp7
 70
     1
102
RTVSPropertyOp8
 70
     1
102
RTVSPropertyOp9
 70
     1
102
RTVSPropertyOp10
 70
     1
102
RTVSPropertyOp11
 70
     1
102
RTVSPropertyOp12
 70
     1
102
RTVSPropertyOp13
 70
     1
102
RTVSPropertyOp14
 70
     1
102
RTVSPropertyOp15
 70
     1
102
RTVSPropertyOp16
 70
     1
102
RTVSPropertyOp17
 70
     1
102
RTVSPropertyOp18
 70
     1
102
RTVSPropertyOp19
 70
     1
102
RTVSPropertyOp20
 70
     1
102
RTVSPropertyOp21
 70
     1
102
RTVSPropertyOp22
 70
     1
102
RTVSPropertyOp23
 70
     1
102
RTVSPropertyOp24
 70
     1
102
RTVSPropertyOp25
 70
     1
102
RTVSPropertyOp26
 70
     1
102
RTVSPropertyOp27
 70
     1
102
RTVSPropertyOp28
 70
     1
102
RTVSPropertyOp29
 70
     1
102
RTVSPropertyOp30
 70
     1
102
RTVSPropertyOp31
 70
     1
102
RTVSPropertyOp32
 70
     1
102
RTVSPropertyOp33
 70
     1
102
RTVSPropertyOp34
 70
     1
102
RTVSPropertyOp35
 70
     1
102
RTVSPropertyOp36
 70
     1
102
RTVSPropertyOp37
 70
     1
102
RTVSPropertyOp38
 70
     1
102
RTVSPropertyOp39
 70
     1
102
RTVSPropertyOp40
 70
     1
102
RTVSPropertyOp41
 70
     1
102
RTVSPropertyOp42
 70
     1
102
RTVSPropertyOp43
 70
     1
102
RTVSPropertyOp44
 70
     1
102
RTVSPropertyOp45
 70
     1
102
RTVSPropertyOp46
 70
     1
102
RTVSPropertyOp47
 70
     1
102
RTVSPropertyOp48
 70
     1
102
RTVSPropertyOp49
 70
     1
102
RTVSPropertyOp50
 70
     1
102
RTVSPropertyOp51
 70
     0
102
RTVSPropertyOp52
 70
     0
102
RTVSPropertyOp53
 70
     1
102
RTVSPropertyOp54
 70
     1
102
RTVSPropertyOp55
 70
     1
102
RTVSPropertyOp56
 70
     1
102
RTVSPropertyOp57
 70
     1
102
RTVSPropertyOp58
 70
     1
102
RTVSPropertyOp59
 70
     1
102
RTVSPropertyOp60
 70
     1
102
RTVSPropertyOp61
 70
     1
102
RTVSPropertyOp62
 70
     1
  0
XRECORD
  5
B455
102
{ACAD_REACTORS
330
B454
102
}
330
B454
100
AcDbXrecord
280
     1
102
RTVSPost2010Prop28
280
     0
102
RTVSPost2010PropOp28
 70
     1
102
RTVSPost2010Prop29
280
     1
102
RTVSPost2010PropOp29
 70
     1
102
RTVSPost2010Prop30
280
     1
102
RTVSPost2010PropOp30
 70
     1
102
RTVSPost2010Prop31
280
     0
102
RTVSPost2010PropOp31
 70
     1
102
RTVSPost2010Prop32
280
     0
102
RTVSPost2010PropOp32
 70
     1
102
RTVSPost2010Prop33
280
     0
102
RTVSPost2010PropOp33
 70
     1
102
RTVSPost2010Prop34
280
     0
102
RTVSPost2010PropOp34
 70
     1
102
RTVSPost2010Prop35
280
     0
102
RTVSPost2010PropOp35
 70
     1
102
RTVSPost2010Prop36
280
     0
102
RTVSPost2010PropOp36
 70
     1
102
RTVSPost2010Prop37
 90
       50
102
RTVSPost2010PropOp37
 70
     1
102
RTVSPost2010Prop38
140
0.0
102
RTVSPost2010PropOp38
 70
     1
102
RTVSPost2010Prop39
140
1.0
102
RTVSPost2010PropOp39
 70
     1
102
RTVSPost2010Prop40
 90
        0
102
RTVSPost2010PropOp40
 70
     1
102
RTVSPost2010Prop41ColorIndex
 90
       18
102
RTVSPost2010Prop41ColorRGB
 90
        0
102
RTVSPost2010PropOp41
 70
     1
102
RTVSPost2010Prop42
 90
       50
102
RTVSPost2010PropOp42
 70
     1
102
RTVSPost2010Prop43
 90
        3
102
RTVSPost2010PropOp43
 70
     1
102
RTVSPost2010Prop44ColorIndex
 90
        5
102
RTVSPost2010Prop44ColorRGB
 90
      255
102
RTVSPost2010PropOp44
 70
     1
102
RTVSPost2010Prop45
280
     0
102
RTVSPost2010PropOp45
 70
     1
102
RTVSPost2010Prop46
 90
       50
102
RTVSPost2010PropOp46
 70
     1
102
RTVSPost2010Prop47
 90
       50
102
RTVSPost2010PropOp47
 70
     1
102
RTVSPost2010Prop48
 90
       50
102
RTVSPost2010PropOp48
 70
     1
102
RTVSPost2010Prop49
280
     0
102
RTVSPost2010PropOp49
 70
     1
102
RTVSPost2010Prop50
 90
       50
102
RTVSPost2010PropOp50
 70
     1
102
RTVSPost2010Prop51ColorIndex
 90
      256
102
RTVSPost2010Prop51ColorRGB
 90
-16777216
102
RTVSPost2010PropOp51
 70
     0
102
RTVSPost2010Prop52
140
1.0
102
RTVSPost2010PropOp52
 70
     0
102
RTVSPost2010Prop53
 90
        2
102
RTVSPost2010PropOp53
 70
     1
102
RTVSPost2010Prop54
  1
strokes_ogs.tif
102
RTVSPost2010PropOp54
 70
     1
102
RTVSPost2010Prop55
280
     0
102
RTVSPost2010PropOp55
 70
     1
102
RTVSPost2010Prop56
140
1.0
102
RTVSPost2010PropOp56
 70
     1
102
RTVSPost2010Prop57
140
1.0
102
RTVSPost2010PropOp57
 70
     1
102
RTVSPropertyOp0
 70
     1
102
RTVSPropertyOp1
 70
     1
102
RTVSPropertyOp2
 70
     1
102
RTVSPropertyOp3
 70
     1
102
RTVSPropertyOp4
 70
     1
102
RTVSPropertyOp5
 70
     1
102
RTVSPropertyOp6
 70
     1
102
RTVSPropertyOp7
 70
     1
102
RTVSPropertyOp8
 70
     1
102
RTVSPropertyOp9
 70
     1
102
RTVSPropertyOp10
 70
     1
102
RTVSPropertyOp11
 70
     1
102
RTVSPropertyOp12
 70
     1
102
RTVSPropertyOp13
 70
     1
102
RTVSPropertyOp14
 70
     1
102
RTVSPropertyOp15
 70
     1
102
RTVSPropertyOp16
 70
     1
102
RTVSPropertyOp17
 70
     1
102
RTVSPropertyOp18
 70
     1
102
RTVSPropertyOp19
 70
     1
102
RTVSPropertyOp20
 70
     1
102
RTVSPropertyOp21
 70
     1
102
RTVSPropertyOp22
 70
     1
102
RTVSPropertyOp23
 70
     1
102
RTVSPropertyOp24
 70
     1
102
RTVSPropertyOp25
 70
     1
102
RTVSPropertyOp26
 70
     1
102
RTVSPropertyOp27
 70
     1
102
RTVSPropertyOp28
 70
     1
102
RTVSPropertyOp29
 70
     1
102
RTVSPropertyOp30
 70
     1
102
RTVSPropertyOp31
 70
     1
102
RTVSPropertyOp32
 70
     1
102
RTVSPropertyOp33
 70
     1
102
RTVSPropertyOp34
 70
     1
102
RTVSPropertyOp35
 70
     1
102
RTVSPropertyOp36
 70
     1
102
RTVSPropertyOp37
 70
     1
102
RTVSPropertyOp38
 70
     1
102
RTVSPropertyOp39
 70
     1
102
RTVSPropertyOp40
 70
     1
102
RTVSPropertyOp41
 70
     1
102
RTVSPropertyOp42
 70
     1
102
RTVSPropertyOp43
 70
     1
102
RTVSPropertyOp44
 70
     1
102
RTVSPropertyOp45
 70
     1
102
RTVSPropertyOp46
 70
     1
102
RTVSPropertyOp47
 70
     1
102
RTVSPropertyOp48
 70
     1
102
RTVSPropertyOp49
 70
     1
102
RTVSPropertyOp50
 70
     1
102
RTVSPropertyOp51
 70
     0
102
RTVSPropertyOp52
 70
     0
102
RTVSPropertyOp53
 70
     1
102
RTVSPropertyOp54
 70
     1
102
RTVSPropertyOp55
 70
     1
102
RTVSPropertyOp56
 70
     1
102
RTVSPropertyOp57
 70
     1
102
RTVSPropertyOp58
 70
     1
102
RTVSPropertyOp59
 70
     1
102
RTVSPropertyOp60
 70
     1
102
RTVSPropertyOp61
 70
     1
102
RTVSPropertyOp62
 70
     1
  0
XRECORD
  5
B44B
102
{ACAD_REACTORS
330
B44A
102
}
330
B44A
100
AcDbXrecord
280
     1
102
RTVSPost2010Prop28
280
     0
102
RTVSPost2010PropOp28
 70
     1
102
RTVSPost2010Prop29
280
     1
102
RTVSPost2010PropOp29
 70
     1
102
RTVSPost2010Prop30
280
     1
102
RTVSPost2010PropOp30
 70
     1
102
RTVSPost2010Prop31
280
     0
102
RTVSPost2010PropOp31
 70
     1
102
RTVSPost2010Prop32
280
     0
102
RTVSPost2010PropOp32
 70
     1
102
RTVSPost2010Prop33
280
     0
102
RTVSPost2010PropOp33
 70
     1
102
RTVSPost2010Prop34
280
     0
102
RTVSPost2010PropOp34
 70
     1
102
RTVSPost2010Prop35
280
     0
102
RTVSPost2010PropOp35
 70
     1
102
RTVSPost2010Prop36
280
     0
102
RTVSPost2010PropOp36
 70
     1
102
RTVSPost2010Prop37
 90
       50
102
RTVSPost2010PropOp37
 70
     1
102
RTVSPost2010Prop38
140
0.0
102
RTVSPost2010PropOp38
 70
     1
102
RTVSPost2010Prop39
140
1.0
102
RTVSPost2010PropOp39
 70
     1
102
RTVSPost2010Prop40
 90
        0
102
RTVSPost2010PropOp40
 70
     1
102
RTVSPost2010Prop41ColorIndex
 90
       18
102
RTVSPost2010Prop41ColorRGB
 90
        0
102
RTVSPost2010PropOp41
 70
     1
102
RTVSPost2010Prop42
 90
       50
102
RTVSPost2010PropOp42
 70
     1
102
RTVSPost2010Prop43
 90
        3
102
RTVSPost2010PropOp43
 70
     1
102
RTVSPost2010Prop44ColorIndex
 90
        5
102
RTVSPost2010Prop44ColorRGB
 90
      255
102
RTVSPost2010PropOp44
 70
     1
102
RTVSPost2010Prop45
280
     0
102
RTVSPost2010PropOp45
 70
     1
102
RTVSPost2010Prop46
 90
       50
102
RTVSPost2010PropOp46
 70
     1
102
RTVSPost2010Prop47
 90
       50
102
RTVSPost2010PropOp47
 70
     1
102
RTVSPost2010Prop48
 90
       50
102
RTVSPost2010PropOp48
 70
     1
102
RTVSPost2010Prop49
280
     0
102
RTVSPost2010PropOp49
 70
     1
102
RTVSPost2010Prop50
 90
       50
102
RTVSPost2010PropOp50
 70
     1
102
RTVSPost2010Prop51ColorIndex
 90
      256
102
RTVSPost2010Prop51ColorRGB
 90
-16777216
102
RTVSPost2010PropOp51
 70
     0
102
RTVSPost2010Prop52
140
1.0
102
RTVSPost2010PropOp52
 70
     0
102
RTVSPost2010Prop53
 90
        2
102
RTVSPost2010PropOp53
 70
     1
102
RTVSPost2010Prop54
  1
strokes_ogs.tif
102
RTVSPost2010PropOp54
 70
     1
102
RTVSPost2010Prop55
280
     0
102
RTVSPost2010PropOp55
 70
     1
102
RTVSPost2010Prop56
140
1.0
102
RTVSPost2010PropOp56
 70
     1
102
RTVSPost2010Prop57
140
1.0
102
RTVSPost2010PropOp57
 70
     1
102
RTVSPropertyOp0
 70
     1
102
RTVSPropertyOp1
 70
     1
102
RTVSPropertyOp2
 70
     1
102
RTVSPropertyOp3
 70
     1
102
RTVSPropertyOp4
 70
     1
102
RTVSPropertyOp5
 70
     1
102
RTVSPropertyOp6
 70
     1
102
RTVSPropertyOp7
 70
     1
102
RTVSPropertyOp8
 70
     1
102
RTVSPropertyOp9
 70
     1
102
RTVSPropertyOp10
 70
     1
102
RTVSPropertyOp11
 70
     1
102
RTVSPropertyOp12
 70
     1
102
RTVSPropertyOp13
 70
     1
102
RTVSPropertyOp14
 70
     1
102
RTVSPropertyOp15
 70
     1
102
RTVSPropertyOp16
 70
     1
102
RTVSPropertyOp17
 70
     1
102
RTVSPropertyOp18
 70
     1
102
RTVSPropertyOp19
 70
     1
102
RTVSPropertyOp20
 70
     1
102
RTVSPropertyOp21
 70
     1
102
RTVSPropertyOp22
 70
     1
102
RTVSPropertyOp23
 70
     1
102
RTVSPropertyOp24
 70
     1
102
RTVSPropertyOp25
 70
     1
102
RTVSPropertyOp26
 70
     1
102
RTVSPropertyOp27
 70
     1
102
RTVSPropertyOp28
 70
     1
102
RTVSPropertyOp29
 70
     1
102
RTVSPropertyOp30
 70
     1
102
RTVSPropertyOp31
 70
     1
102
RTVSPropertyOp32
 70
     1
102
RTVSPropertyOp33
 70
     1
102
RTVSPropertyOp34
 70
     1
102
RTVSPropertyOp35
 70
     1
102
RTVSPropertyOp36
 70
     1
102
RTVSPropertyOp37
 70
     1
102
RTVSPropertyOp38
 70
     1
102
RTVSPropertyOp39
 70
     1
102
RTVSPropertyOp40
 70
     1
102
RTVSPropertyOp41
 70
     1
102
RTVSPropertyOp42
 70
     1
102
RTVSPropertyOp43
 70
     1
102
RTVSPropertyOp44
 70
     1
102
RTVSPropertyOp45
 70
     1
102
RTVSPropertyOp46
 70
     1
102
RTVSPropertyOp47
 70
     1
102
RTVSPropertyOp48
 70
     1
102
RTVSPropertyOp49
 70
     1
102
RTVSPropertyOp50
 70
     1
102
RTVSPropertyOp51
 70
     0
102
RTVSPropertyOp52
 70
     0
102
RTVSPropertyOp53
 70
     1
102
RTVSPropertyOp54
 70
     1
102
RTVSPropertyOp55
 70
     1
102
RTVSPropertyOp56
 70
     1
102
RTVSPropertyOp57
 70
     1
102
RTVSPropertyOp58
 70
     1
102
RTVSPropertyOp59
 70
     1
102
RTVSPropertyOp60
 70
     1
102
RTVSPropertyOp61
 70
     1
102
RTVSPropertyOp62
 70
     1
  0
XRECORD
  5
B43F
102
{ACAD_REACTORS
330
B43E
102
}
330
B43E
100
AcDbXrecord
280
     1
102
RTVSPost2010Prop28
280
     0
102
RTVSPost2010PropOp28
 70
     1
102
RTVSPost2010Prop29
280
     1
102
RTVSPost2010PropOp29
 70
     1
102
RTVSPost2010Prop30
280
     1
102
RTVSPost2010PropOp30
 70
     1
102
RTVSPost2010Prop31
280
     0
102
RTVSPost2010PropOp31
 70
     1
102
RTVSPost2010Prop32
280
     0
102
RTVSPost2010PropOp32
 70
     1
102
RTVSPost2010Prop33
280
     0
102
RTVSPost2010PropOp33
 70
     1
102
RTVSPost2010Prop34
280
     0
102
RTVSPost2010PropOp34
 70
     1
102
RTVSPost2010Prop35
280
     0
102
RTVSPost2010PropOp35
 70
     1
102
RTVSPost2010Prop36
280
     0
102
RTVSPost2010PropOp36
 70
     1
102
RTVSPost2010Prop37
 90
       50
102
RTVSPost2010PropOp37
 70
     1
102
RTVSPost2010Prop38
140
0.0
102
RTVSPost2010PropOp38
 70
     1
102
RTVSPost2010Prop39
140
1.0
102
RTVSPost2010PropOp39
 70
     1
102
RTVSPost2010Prop40
 90
        0
102
RTVSPost2010PropOp40
 70
     1
102
RTVSPost2010Prop41ColorIndex
 90
       18
102
RTVSPost2010Prop41ColorRGB
 90
        0
102
RTVSPost2010PropOp41
 70
     1
102
RTVSPost2010Prop42
 90
       50
102
RTVSPost2010PropOp42
 70
     1
102
RTVSPost2010Prop43
 90
        3
102
RTVSPost2010PropOp43
 70
     1
102
RTVSPost2010Prop44ColorIndex
 90
        5
102
RTVSPost2010Prop44ColorRGB
 90
      255
102
RTVSPost2010PropOp44
 70
     1
102
RTVSPost2010Prop45
280
     0
102
RTVSPost2010PropOp45
 70
     1
102
RTVSPost2010Prop46
 90
       50
102
RTVSPost2010PropOp46
 70
     1
102
RTVSPost2010Prop47
 90
       50
102
RTVSPost2010PropOp47
 70
     1
102
RTVSPost2010Prop48
 90
       50
102
RTVSPost2010PropOp48
 70
     1
102
RTVSPost2010Prop49
280
     0
102
RTVSPost2010PropOp49
 70
     1
102
RTVSPost2010Prop50
 90
       50
102
RTVSPost2010PropOp50
 70
     1
102
RTVSPost2010Prop51ColorIndex
 90
      256
102
RTVSPost2010Prop51ColorRGB
 90
-16777216
102
RTVSPost2010PropOp51
 70
     0
102
RTVSPost2010Prop52
140
1.0
102
RTVSPost2010PropOp52
 70
     0
102
RTVSPost2010Prop53
 90
        2
102
RTVSPost2010PropOp53
 70
     1
102
RTVSPost2010Prop54
  1
strokes_ogs.tif
102
RTVSPost2010PropOp54
 70
     1
102
RTVSPost2010Prop55
280
     0
102
RTVSPost2010PropOp55
 70
     1
102
RTVSPost2010Prop56
140
1.0
102
RTVSPost2010PropOp56
 70
     1
102
RTVSPost2010Prop57
140
1.0
102
RTVSPost2010PropOp57
 70
     1
102
RTVSPropertyOp0
 70
     1
102
RTVSPropertyOp1
 70
     1
102
RTVSPropertyOp2
 70
     1
102
RTVSPropertyOp3
 70
     1
102
RTVSPropertyOp4
 70
     1
102
RTVSPropertyOp5
 70
     1
102
RTVSPropertyOp6
 70
     1
102
RTVSPropertyOp7
 70
     1
102
RTVSPropertyOp8
 70
     1
102
RTVSPropertyOp9
 70
     1
102
RTVSPropertyOp10
 70
     1
102
RTVSPropertyOp11
 70
     1
102
RTVSPropertyOp12
 70
     1
102
RTVSPropertyOp13
 70
     1
102
RTVSPropertyOp14
 70
     1
102
RTVSPropertyOp15
 70
     1
102
RTVSPropertyOp16
 70
     1
102
RTVSPropertyOp17
 70
     1
102
RTVSPropertyOp18
 70
     1
102
RTVSPropertyOp19
 70
     1
102
RTVSPropertyOp20
 70
     1
102
RTVSPropertyOp21
 70
     1
102
RTVSPropertyOp22
 70
     1
102
RTVSPropertyOp23
 70
     1
102
RTVSPropertyOp24
 70
     1
102
RTVSPropertyOp25
 70
     1
102
RTVSPropertyOp26
 70
     1
102
RTVSPropertyOp27
 70
     1
102
RTVSPropertyOp28
 70
     1
102
RTVSPropertyOp29
 70
     1
102
RTVSPropertyOp30
 70
     1
102
RTVSPropertyOp31
 70
     1
102
RTVSPropertyOp32
 70
     1
102
RTVSPropertyOp33
 70
     1
102
RTVSPropertyOp34
 70
     1
102
RTVSPropertyOp35
 70
     1
102
RTVSPropertyOp36
 70
     1
102
RTVSPropertyOp37
 70
     1
102
RTVSPropertyOp38
 70
     1
102
RTVSPropertyOp39
 70
     1
102
RTVSPropertyOp40
 70
     1
102
RTVSPropertyOp41
 70
     1
102
RTVSPropertyOp42
 70
     1
102
RTVSPropertyOp43
 70
     1
102
RTVSPropertyOp44
 70
     1
102
RTVSPropertyOp45
 70
     1
102
RTVSPropertyOp46
 70
     1
102
RTVSPropertyOp47
 70
     1
102
RTVSPropertyOp48
 70
     1
102
RTVSPropertyOp49
 70
     1
102
RTVSPropertyOp50
 70
     1
102
RTVSPropertyOp51
 70
     0
102
RTVSPropertyOp52
 70
     0
102
RTVSPropertyOp53
 70
     1
102
RTVSPropertyOp54
 70
     1
102
RTVSPropertyOp55
 70
     1
102
RTVSPropertyOp56
 70
     1
102
RTVSPropertyOp57
 70
     1
102
RTVSPropertyOp58
 70
     1
102
RTVSPropertyOp59
 70
     1
102
RTVSPropertyOp60
 70
     1
102
RTVSPropertyOp61
 70
     1
102
RTVSPropertyOp62
 70
     1
  0
XRECORD
  5
B457
102
{ACAD_REACTORS
330
B456
102
}
330
B456
100
AcDbXrecord
280
     1
102
RTVSPost2010Prop28
280
     0
102
RTVSPost2010PropOp28
 70
     1
102
RTVSPost2010Prop29
280
     1
102
RTVSPost2010PropOp29
 70
     1
102
RTVSPost2010Prop30
280
     1
102
RTVSPost2010PropOp30
 70
     1
102
RTVSPost2010Prop31
280
     0
102
RTVSPost2010PropOp31
 70
     1
102
RTVSPost2010Prop32
280
     0
102
RTVSPost2010PropOp32
 70
     1
102
RTVSPost2010Prop33
280
     0
102
RTVSPost2010PropOp33
 70
     1
102
RTVSPost2010Prop34
280
     0
102
RTVSPost2010PropOp34
 70
     1
102
RTVSPost2010Prop35
280
     0
102
RTVSPost2010PropOp35
 70
     1
102
RTVSPost2010Prop36
280
     0
102
RTVSPost2010PropOp36
 70
     1
102
RTVSPost2010Prop37
 90
       50
102
RTVSPost2010PropOp37
 70
     1
102
RTVSPost2010Prop38
140
0.0
102
RTVSPost2010PropOp38
 70
     1
102
RTVSPost2010Prop39
140
1.0
102
RTVSPost2010PropOp39
 70
     1
102
RTVSPost2010Prop40
 90
        0
102
RTVSPost2010PropOp40
 70
     1
102
RTVSPost2010Prop41ColorIndex
 90
       18
102
RTVSPost2010Prop41ColorRGB
 90
        0
102
RTVSPost2010PropOp41
 70
     1
102
RTVSPost2010Prop42
 90
       50
102
RTVSPost2010PropOp42
 70
     1
102
RTVSPost2010Prop43
 90
        3
102
RTVSPost2010PropOp43
 70
     1
102
RTVSPost2010Prop44ColorIndex
 90
        5
102
RTVSPost2010Prop44ColorRGB
 90
      255
102
RTVSPost2010PropOp44
 70
     1
102
RTVSPost2010Prop45
280
     0
102
RTVSPost2010PropOp45
 70
     1
102
RTVSPost2010Prop46
 90
       50
102
RTVSPost2010PropOp46
 70
     1
102
RTVSPost2010Prop47
 90
       50
102
RTVSPost2010PropOp47
 70
     1
102
RTVSPost2010Prop48
 90
       50
102
RTVSPost2010PropOp48
 70
     1
102
RTVSPost2010Prop49
280
     0
102
RTVSPost2010PropOp49
 70
     1
102
RTVSPost2010Prop50
 90
       50
102
RTVSPost2010PropOp50
 70
     1
102
RTVSPost2010Prop51ColorIndex
 90
      256
102
RTVSPost2010Prop51ColorRGB
 90
-16777216
102
RTVSPost2010PropOp51
 70
     0
102
RTVSPost2010Prop52
140
1.0
102
RTVSPost2010PropOp52
 70
     0
102
RTVSPost2010Prop53
 90
        2
102
RTVSPost2010PropOp53
 70
     1
102
RTVSPost2010Prop54
  1
strokes_ogs.tif
102
RTVSPost2010PropOp54
 70
     1
102
RTVSPost2010Prop55
280
     0
102
RTVSPost2010PropOp55
 70
     1
102
RTVSPost2010Prop56
140
1.0
102
RTVSPost2010PropOp56
 70
     1
102
RTVSPost2010Prop57
140
1.0
102
RTVSPost2010PropOp57
 70
     1
102
RTVSPropertyOp0
 70
     1
102
RTVSPropertyOp1
 70
     1
102
RTVSPropertyOp2
 70
     1
102
RTVSPropertyOp3
 70
     1
102
RTVSPropertyOp4
 70
     1
102
RTVSPropertyOp5
 70
     1
102
RTVSPropertyOp6
 70
     1
102
RTVSPropertyOp7
 70
     1
102
RTVSPropertyOp8
 70
     1
102
RTVSPropertyOp9
 70
     1
102
RTVSPropertyOp10
 70
     1
102
RTVSPropertyOp11
 70
     1
102
RTVSPropertyOp12
 70
     1
102
RTVSPropertyOp13
 70
     1
102
RTVSPropertyOp14
 70
     1
102
RTVSPropertyOp15
 70
     1
102
RTVSPropertyOp16
 70
     1
102
RTVSPropertyOp17
 70
     1
102
RTVSPropertyOp18
 70
     1
102
RTVSPropertyOp19
 70
     1
102
RTVSPropertyOp20
 70
     1
102
RTVSPropertyOp21
 70
     1
102
RTVSPropertyOp22
 70
     1
102
RTVSPropertyOp23
 70
     1
102
RTVSPropertyOp24
 70
     1
102
RTVSPropertyOp25
 70
     1
102
RTVSPropertyOp26
 70
     1
102
RTVSPropertyOp27
 70
     1
102
RTVSPropertyOp28
 70
     1
102
RTVSPropertyOp29
 70
     1
102
RTVSPropertyOp30
 70
     1
102
RTVSPropertyOp31
 70
     1
102
RTVSPropertyOp32
 70
     1
102
RTVSPropertyOp33
 70
     1
102
RTVSPropertyOp34
 70
     1
102
RTVSPropertyOp35
 70
     1
102
RTVSPropertyOp36
 70
     1
102
RTVSPropertyOp37
 70
     1
102
RTVSPropertyOp38
 70
     1
102
RTVSPropertyOp39
 70
     1
102
RTVSPropertyOp40
 70
     1
102
RTVSPropertyOp41
 70
     1
102
RTVSPropertyOp42
 70
     1
102
RTVSPropertyOp43
 70
     1
102
RTVSPropertyOp44
 70
     1
102
RTVSPropertyOp45
 70
     1
102
RTVSPropertyOp46
 70
     1
102
RTVSPropertyOp47
 70
     1
102
RTVSPropertyOp48
 70
     1
102
RTVSPropertyOp49
 70
     1
102
RTVSPropertyOp50
 70
     1
102
RTVSPropertyOp51
 70
     0
102
RTVSPropertyOp52
 70
     0
102
RTVSPropertyOp53
 70
     1
102
RTVSPropertyOp54
 70
     1
102
RTVSPropertyOp55
 70
     1
102
RTVSPropertyOp56
 70
     1
102
RTVSPropertyOp57
 70
     1
102
RTVSPropertyOp58
 70
     1
102
RTVSPropertyOp59
 70
     1
102
RTVSPropertyOp60
 70
     1
102
RTVSPropertyOp61
 70
     1
102
RTVSPropertyOp62
 70
     1
  0
ENDSEC
  0
EOF
