  0
SECTION
  2
HEADER
  9
$ACADVER
  1
AC1015
  9
$ACADMAINTVER
 70
    20
  9
$DWGCODEPAGE
  3
ANSI_932
  9
$INSBASE
 10
0.0
 20
0.0
 30
0.0
  9
$EXTMIN
 10
10.0
 20
9.999999999999998
 30
0.0
  9
$EXTMAX
 10
404.352946
 20
351.7797109999997
 30
0.0
  9
$LIMMIN
 10
0.0
 20
0.0
  9
$LIMMAX
 10
543.47
 20
374.6649239999999
  9
$ORTHOMODE
 70
     1
  9
$REGENMODE
 70
     1
  9
$FILLMODE
 70
     1
  9
$QTEXTMODE
 70
     0
  9
$MIRRTEXT
 70
     1
  9
$LTSCALE
 40
20.0
  9
$ATTMODE
 70
     1
  9
$TEXTSIZE
 40
5.0
  9
$TRACEWID
 40
1.0
  9
$TEXTSTYLE
  7
STANDARD
  9
$CLAYER
  8
0
  9
$CELTYPE
  6
BYLAYER
  9
$CECOLOR
 62
   256
  9
$CELTSCALE
 40
1.0
  9
$DISPSILH
 70
     0
  9
$DIMSCALE
 40
1.0
  9
$DIMASZ
 40
2.5
  9
$DIMEXO
 40
1.0
  9
$DIMDLI
 40
10.0
  9
$DIMRND
 40
0.0
  9
$DIMDLE
 40
0.0
  9
$DIMEXE
 40
1.0
  9
$DIMTP
 40
0.0
  9
$DIMTM
 40
0.0
  9
$DIMTXT
 40
3.2
  9
$DIMCEN
 40
0.0
  9
$DIMTSZ
 40
0.0
  9
$DIMTOL
 70
     0
  9
$DIMLIM
 70
     0
  9
$DIMTIH
 70
     0
  9
$DIMTOH
 70
     0
  9
$DIMSE1
 70
     0
  9
$DIMSE2
 70
     0
  9
$DIMTAD
 70
     3
  9
$DIMZIN
 70
     8
  9
$DIMBLK
  1

  9
$DIMASO
 70
     1
  9
$DIMSHO
 70
     1
  9
$DIMPOST
  1

  9
$DIMAPOST
  1

  9
$DIMALT
 70
     0
  9
$DIMALTD
 70
     2
  9
$DIMALTF
 40
25.4
  9
$DIMLFAC
 40
1.0
  9
$DIMTOFL
 70
     1
  9
$DIMTVP
 40
0.0
  9
$DIMTIX
 70
     0
  9
$DIMSOXD
 70
     0
  9
$DIMSAH
 70
     1
  9
$DIMBLK1
  1

  9
$DIMBLK2
  1

  9
$DIMSTYLE
  2
STANDARD
  9
$DIMCLRD
 70
     0
  9
$DIMCLRE
 70
     0
  9
$DIMCLRT
 70
     0
  9
$DIMTFAC
 40
1.0
  9
$DIMGAP
 40
1.0
  9
$DIMJUST
 70
     0
  9
$DIMSD1
 70
     0
  9
$DIMSD2
 70
     0
  9
$DIMTOLJ
 70
     1
  9
$DIMTZIN
 70
     0
  9
$DIMALTZ
 70
     0
  9
$DIMALTTZ
 70
     0
  9
$DIMUPT
 70
     0
  9
$DIMDEC
 70
     4
  9
$DIMTDEC
 70
     4
  9
$DIMALTU
 70
     2
  9
$DIMALTTD
 70
     2
  9
$DIMTXSTY
  7
STANDARD
  9
$DIMAUNIT
 70
     0
  9
$DIMADEC
 70
     0
  9
$DIMALTRND
 40
0.0
  9
$DIMAZIN
 70
     0
  9
$DIMDSEP
 70
    46
  9
$DIMATFIT
 70
     3
  9
$DIMFRAC
 70
     0
  9
$DIMLDRBLK
  1

  9
$DIMLUNIT
 70
     2
  9
$DIMLWD
 70
    -2
  9
$DIMLWE
 70
    -2
  9
$DIMTMOVE
 70
     0
  9
$LUNITS
 70
     2
  9
$LUPREC
 70
     4
  9
$SKETCHINC
 40
1.0
  9
$FILLETRAD
 40
6.0
  9
$AUNITS
 70
     0
  9
$AUPREC
 70
     2
  9
$MENU
  1
.
  9
$ELEVATION
 40
0.0
  9
$PELEVATION
 40
0.0
  9
$THICKNESS
 40
0.0
  9
$LIMCHECK
 70
     0
  9
$CHAMFERA
 40
10.0
  9
$CHAMFERB
 40
10.0
  9
$CHAMFERC
 40
0.0
  9
$CHAMFERD
 40
0.0
  9
$SKPOLY
 70
     0
  9
$TDCREATE
 40
2451301.428930440
  9
$TDUCREATE
 40
2451301.053930440
  9
$TDUPDATE
 40
2457192.689913438
  9
$TDUUPDATE
 40
2457192.314913438
  9
$TDINDWG
 40
0.0520853241
  9
$TDUSRTIMER
 40
0.0520850000
  9
$USRTIMER
 70
     1
  9
$ANGBASE
 50
0.0
  9
$ANGDIR
 70
     0
  9
$PDMODE
 70
     0
  9
$PDSIZE
 40
0.0
  9
$PLINEWID
 40
0.0
  9
$SPLFRAME
 70
     0
  9
$SPLINETYPE
 70
     6
  9
$SPLINESEGS
 70
     8
  9
$HANDSEED
  5
A9E6
  9
$SURFTAB1
 70
     6
  9
$SURFTAB2
 70
     6
  9
$SURFTYPE
 70
     6
  9
$SURFU
 70
     6
  9
$SURFV
 70
     6
  9
$UCSBASE
  2

  9
$UCSNAME
  2

  9
$UCSORG
 10
0.0
 20
0.0
 30
0.0
  9
$UCSXDIR
 10
1.0
 20
0.0
 30
0.0
  9
$UCSYDIR
 10
0.0
 20
1.0
 30
0.0
  9
$UCSORTHOREF
  2

  9
$UCSORTHOVIEW
 70
     0
  9
$UCSORGTOP
 10
0.0
 20
0.0
 30
0.0
  9
$UCSORGBOTTOM
 10
0.0
 20
0.0
 30
0.0
  9
$UCSORGLEFT
 10
0.0
 20
0.0
 30
0.0
  9
$UCSORGRIGHT
 10
0.0
 20
0.0
 30
0.0
  9
$UCSORGFRONT
 10
0.0
 20
0.0
 30
0.0
  9
$UCSORGBACK
 10
0.0
 20
0.0
 30
0.0
  9
$PUCSBASE
  2

  9
$PUCSNAME
  2

  9
$PUCSORG
 10
0.0
 20
0.0
 30
0.0
  9
$PUCSXDIR
 10
1.0
 20
0.0
 30
0.0
  9
$PUCSYDIR
 10
0.0
 20
1.0
 30
0.0
  9
$PUCSORTHOREF
  2

  9
$PUCSORTHOVIEW
 70
     0
  9
$PUCSORGTOP
 10
0.0
 20
0.0
 30
0.0
  9
$PUCSORGBOTTOM
 10
0.0
 20
0.0
 30
0.0
  9
$PUCSORGLEFT
 10
0.0
 20
0.0
 30
0.0
  9
$PUCSORGRIGHT
 10
0.0
 20
0.0
 30
0.0
  9
$PUCSORGFRONT
 10
0.0
 20
0.0
 30
0.0
  9
$PUCSORGBACK
 10
0.0
 20
0.0
 30
0.0
  9
$USERI1
 70
     0
  9
$USERI2
 70
     0
  9
$USERI3
 70
     0
  9
$USERI4
 70
     0
  9
$USERI5
 70
     0
  9
$USERR1
 40
0.0
  9
$USERR2
 40
0.0
  9
$USERR3
 40
0.0
  9
$USERR4
 40
0.0
  9
$USERR5
 40
0.0
  9
$WORLDVIEW
 70
     1
  9
$SHADEDGE
 70
     3
  9
$SHADEDIF
 70
    70
  9
$TILEMODE
 70
     1
  9
$MAXACTVP
 70
    16
  9
$PINSBASE
 10
0.0
 20
0.0
 30
0.0
  9
$PLIMCHECK
 70
     0
  9
$PEXTMIN
 10
1.000000000000000E+20
 20
1.000000000000000E+20
 30
1.000000000000000E+20
  9
$PEXTMAX
 10
-1.000000000000000E+20
 20
-1.000000000000000E+20
 30
-1.000000000000000E+20
  9
$PLIMMIN
 10
0.0
 20
0.0
  9
$PLIMMAX
 10
420.0
 20
297.0
  9
$UNITMODE
 70
     0
  9
$VISRETAIN
 70
     0
  9
$PLINEGEN
 70
     0
  9
$PSLTSCALE
 70
     0
  9
$TREEDEPTH
 70
  3020
  9
$CMLSTYLE
  2
STANDARD
  9
$CMLJUST
 70
     0
  9
$CMLSCALE
 40
1.0
  9
$PROXYGRAPHICS
 70
     1
  9
$MEASUREMENT
 70
     0
  9
$CELWEIGHT
370
    -1
  9
$ENDCAPS
280
     0
  9
$JOINSTYLE
280
     0
  9
$LWDISPLAY
290
     0
  9
$INSUNITS
 70
     0
  9
$HYPERLINKBASE
  1

  9
$STYLESHEET
  1

  9
$XEDIT
290
     1
  9
$CEPSNTYPE
380
     0
  9
$PSTYLEMODE
290
     1
  9
$FINGERPRINTGUID
  2
{DA5546F3-A7CD-468D-B492-C76CBFA39A2F}
  9
$VERSIONGUID
  2
{8DF1E0F0-75B3-4756-96C9-4382860988D1}
  9
$EXTNAMES
290
     1
  9
$PSVPSCALE
 40
0.0
  9
$OLESTARTUP
290
     0
  0
ENDSEC
  0
SECTION
  2
CLASSES
  0
CLASS
  1
ACDBDICTIONARYWDFLT
  2
AcDbDictionaryWithDefault
  3
ObjectDBX Classes
 90
        0
280
     0
281
     0
  0
CLASS
  1
ACDBPLACEHOLDER
  2
AcDbPlaceHolder
  3
ObjectDBX Classes
 90
        0
280
     0
281
     0
  0
CLASS
  1
LAYOUT
  2
AcDbLayout
  3
ObjectDBX Classes
 90
        0
280
     0
281
     0
  0
CLASS
  1
DICTIONARYVAR
  2
AcDbDictionaryVar
  3
ObjectDBX Classes
 90
        0
280
     0
281
     0
  0
CLASS
  1
MATERIAL
  2
AcDbMaterial
  3
ObjectDBX Classes
 90
     1153
280
     0
281
     0
  0
CLASS
  1
VISUALSTYLE
  2
AcDbVisualStyle
  3
ObjectDBX Classes
 90
     4095
280
     0
281
     0
  0
CLASS
  1
TABLESTYLE
  2
AcDbTableStyle
  3
ObjectDBX Classes
 90
     4095
280
     0
281
     0
  0
CLASS
  1
SCALE
  2
AcDbScale
  3
ObjectDBX Classes
 90
     1153
280
     0
281
     0
  0
CLASS
  1
MLEADERSTYLE
  2
AcDbMLeaderStyle
  3
ACDB_MLEADERSTYLE_CLASS
 90
     4095
280
     0
281
     0
  0
CLASS
  1
ACDBSECTIONVIEWSTYLE
  2
AcDbSectionViewStyle
  3
ObjectDBX Classes
 90
     1025
280
     0
281
     0
  0
CLASS
  1
ACDBDETAILVIEWSTYLE
  2
AcDbDetailViewStyle
  3
ObjectDBX Classes
 90
     1025
280
     0
281
     0
  0
CLASS
  1
CELLSTYLEMAP
  2
AcDbCellStyleMap
  3
ObjectDBX Classes
 90
     1152
280
     0
281
     0
  0
ENDSEC
  0
SECTION
  2
TABLES
  0
TABLE
  2
VPORT
  5
A570
330
0
100
AcDbSymbolTable
 70
     1
  0
VPORT
  5
A931
330
A570
100
AcDbSymbolTableRecord
100
AcDbViewportTableRecord
  2
*ACTIVE
 70
     0
 10
0.0
 20
0.0
 11
1.0
 21
1.0
 12
338.7297981685467
 22
180.886620857232
 13
0.0
 23
0.0
 14
10.0
 24
10.0
 15
10.0
 25
10.0
 16
0.0
 26
0.0
 36
1.0
 17
0.0
 27
0.0
 37
0.0
 40
344.4851591970544
 41
2.35006605019815
 42
50.0
 43
0.0
 44
0.0
 50
0.0
 51
0.0
 71
     0
 72
   100
 73
     1
 74
     0
 75
     0
 76
     0
 77
     0
 78
     0
281
     0
 65
     1
110
0.0
120
0.0
130
0.0
111
1.0
121
0.0
131
0.0
112
0.0
122
1.0
132
0.0
 79
     0
146
0.0
1001
ACAD_NAV_VCDISPLAY
1070
     3
  0
ENDTAB
  0
TABLE
  2
LTYPE
  5
A56D
330
0
100
AcDbSymbolTable
 70
     4
  0
LTYPE
  5
A57B
330
A56D
100
AcDbSymbolTableRecord
100
AcDbLinetypeTableRecord
  2
BYBLOCK
 70
     0
  3

 72
    65
 73
     0
 40
0.0
  0
LTYPE
  5
A57C
330
A56D
100
AcDbSymbolTableRecord
100
AcDbLinetypeTableRecord
  2
BYLAYER
 70
     0
  3

 72
    65
 73
     0
 40
0.0
  0
LTYPE
  5
A57D
330
A56D
100
AcDbSymbolTableRecord
100
AcDbLinetypeTableRecord
  2
CONTINUOUS
 70
     0
  3
Solid line
 72
    65
 73
     0
 40
0.0
  0
LTYPE
  5
A58B
330
A56D
100
AcDbSymbolTableRecord
100
AcDbLinetypeTableRecord
  2
DASHED
 70
     0
  3
__ __ __ __ __ __ __ __ __ __ __ __ __ __ __ __
 72
    65
 73
     2
 40
0.75
 49
0.5
 74
     0
 49
-0.25
 74
     0
  0
LTYPE
  5
A58C
330
A56D
100
AcDbSymbolTableRecord
100
AcDbLinetypeTableRecord
  2
CENTER
 70
     0
  3
____ _ ____ _ ____ _ ____ _ ____ _ ____ _ ____ 
 72
    65
 73
     4
 40
2.0
 49
1.25
 74
     0
 49
-0.25
 74
     0
 49
0.25
 74
     0
 49
-0.25
 74
     0
  0
LTYPE
  5
A58D
330
A56D
100
AcDbSymbolTableRecord
100
AcDbLinetypeTableRecord
  2
PHANTOM
 70
     0
  3
______  __  __  ______  __  __  ______  __  __ 
 72
    65
 73
     6
 40
2.5
 49
1.25
 74
     0
 49
-0.25
 74
     0
 49
0.25
 74
     0
 49
-0.25
 74
     0
 49
0.25
 74
     0
 49
-0.25
 74
     0
  0
ENDTAB
  0
TABLE
  2
LAYER
  5
A56A
330
0
100
AcDbSymbolTable
 70
     8
  0
LAYER
  5
A578
102
{ACAD_XDICTIONARY
360
A98A
102
}
330
A56A
100
AcDbSymbolTableRecord
100
AcDbLayerTableRecord
  2
0
 70
     0
 62
     7
  6
CONTINUOUS
370
    -3
390
A938
  0
LAYER
  5
A58E
102
{ACAD_XDICTIONARY
360
A98C
102
}
330
A56A
100
AcDbSymbolTableRecord
100
AcDbLayerTableRecord
  2
4
 70
     0
 62
     1
  6
CENTER
370
    -3
390
A938
  0
LAYER
  5
A58F
102
{ACAD_XDICTIONARY
360
A98E
102
}
330
A56A
100
AcDbSymbolTableRecord
100
AcDbLayerTableRecord
  2
5
 70
     0
 62
     6
  6
PHANTOM
370
    -3
390
A938
  0
LAYER
  5
A590
102
{ACAD_XDICTIONARY
360
A990
102
}
330
A56A
100
AcDbSymbolTableRecord
100
AcDbLayerTableRecord
  2
1
 70
     0
 62
     7
  6
CONTINUOUS
370
    -3
390
A938
  0
LAYER
  5
A591
102
{ACAD_XDICTIONARY
360
A992
102
}
330
A56A
100
AcDbSymbolTableRecord
100
AcDbLayerTableRecord
  2
2
 70
     0
 62
     4
  6
CONTINUOUS
370
    -3
390
A938
  0
LAYER
  5
A592
102
{ACAD_XDICTIONARY
360
A994
102
}
330
A56A
100
AcDbSymbolTableRecord
100
AcDbLayerTableRecord
  2
3
 70
     0
 62
     2
  6
DASHED
370
    -3
390
A938
  0
LAYER
  5
A593
102
{ACAD_XDICTIONARY
360
A996
102
}
330
A56A
100
AcDbSymbolTableRecord
100
AcDbLayerTableRecord
  2
6
 70
     0
 62
     5
  6
CONTINUOUS
370
    -3
390
A938
  0
LAYER
  5
A594
102
{ACAD_XDICTIONARY
360
A998
102
}
330
A56A
100
AcDbSymbolTableRecord
100
AcDbLayerTableRecord
  2
7
 70
     0
 62
     3
  6
CONTINUOUS
370
    -3
390
A938
  0
ENDTAB
  0
TABLE
  2
STYLE
  5
A56B
330
0
100
AcDbSymbolTable
 70
     1
  0
STYLE
  5
A579
330
A56B
100
AcDbSymbolTableRecord
100
AcDbTextStyleTableRecord
  2
STANDARD
 70
     0
 40
0.0
 41
1.0
 50
0.0
 71
     0
 42
5.0
  3
txt
  4

  0
ENDTAB
  0
TABLE
  2
VIEW
  5
A56E
330
0
100
AcDbSymbolTable
 70
     0
  0
ENDTAB
  0
TABLE
  2
UCS
  5
A56F
330
0
100
AcDbSymbolTable
 70
     0
  0
ENDTAB
  0
TABLE
  2
APPID
  5
A571
330
0
100
AcDbSymbolTable
 70
     3
  0
APPID
  5
A57A
330
A571
100
AcDbSymbolTableRecord
100
AcDbRegAppTableRecord
  2
ACAD
 70
     0
  0
APPID
  5
A9A4
330
A571
100
AcDbSymbolTableRecord
100
AcDbRegAppTableRecord
  2
ACAD_NAV_VCDISPLAY
 70
     0
  0
APPID
  5
A9DD
330
A571
100
AcDbSymbolTableRecord
100
AcDbRegAppTableRecord
  2
ACAD_MLEADERVER
 70
     0
  0
ENDTAB
  0
TABLE
  2
DIMSTYLE
  5
A572
330
0
100
AcDbSymbolTable
 70
     1
100
AcDbDimStyleTable
 71
     0
  0
DIMSTYLE
105
A596
330
A572
100
AcDbSymbolTableRecord
100
AcDbDimStyleTableRecord
  2
STANDARD
 70
     0
 41
2.5
 42
1.0
 43
10.0
 44
1.0
 73
     0
 74
     0
 77
     3
 78
     8
140
3.2
141
0.0
147
1.0
172
     1
173
     1
284
     8
285
     8
286
     8
340
A579
  0
ENDTAB
  0
TABLE
  2
BLOCK_RECORD
  5
A569
330
0
100
AcDbSymbolTable
 70
     0
  0
BLOCK_RECORD
  5
A586
102
{ACAD_XDICTIONARY
360
A8B0
102
}
330
A569
100
AcDbSymbolTableRecord
100
AcDbBlockTableRecord
  2
*MODEL_SPACE
340
A986
  0
BLOCK_RECORD
  5
A582
102
{ACAD_XDICTIONARY
360
A8AE
102
}
330
A569
100
AcDbSymbolTableRecord
100
AcDbBlockTableRecord
  2
*PAPER_SPACE
340
A987
  0
ENDTAB
  0
ENDSEC
  0
SECTION
  2
BLOCKS
  0
BLOCK
  5
A587
330
A586
100
AcDbEntity
  8
0
100
AcDbBlockBegin
  2
*MODEL_SPACE
 70
     0
 10
0.0
 20
0.0
 30
0.0
  3
*MODEL_SPACE
  1

  0
ENDBLK
  5
A588
330
A586
100
AcDbEntity
  8
0
100
AcDbBlockEnd
  0
BLOCK
  5
A583
330
A582
100
AcDbEntity
 67
     1
  8
0
100
AcDbBlockBegin
  2
*PAPER_SPACE
 70
     0
 10
0.0
 20
0.0
 30
0.0
  3
*PAPER_SPACE
  1

  0
ENDBLK
  5
A584
330
A582
100
AcDbEntity
 67
     1
  8
0
100
AcDbBlockEnd
  0
ENDSEC
  0
SECTION
  2
ENTITIES
  0
TEXT
  5
A59E
330
A586
100
AcDbEntity
  8
7
  6
Continuous
100
AcDbText
 10
10.0
 20
18.0
 30
0.0
 40
3.0
  1
TYPE No.TCA-415EA-R75
100
AcDbText
  0
TEXT
  5
A59F
330
A586
100
AcDbEntity
  8
7
  6
Continuous
100
AcDbText
 10
10.0
 20
26.0
 30
0.0
 40
3.0
  1
CODE No.9779
100
AcDbText
  0
TEXT
  5
A5A0
330
A586
100
AcDbEntity
  8
1
  6
Continuous
100
AcDbText
 10
10.0
 20
10.0
 30
0.0
 40
1.399999999999999
  1
LAYER
100
AcDbText
  0
TEXT
  5
A5A1
330
A586
100
AcDbEntity
  8
1
  6
Continuous
100
AcDbText
 10
17.97951099999998
 20
10.04873699999998
 30
0.0
 40
1.399999999999999
  1
1
100
AcDbText
  0
TEXT
  5
A5A2
330
A586
100
AcDbEntity
  8
7
  6
Continuous
100
AcDbText
 10
29.97951099999999
 20
10.04873699999998
 30
0.0
 40
1.399999999999999
  1
7
100
AcDbText
  0
TEXT
  5
A5A3
330
A586
100
AcDbEntity
  8
4
  6
CENTER
100
AcDbText
 10
23.97951099999999
 20
10.04873699999998
 30
0.0
 40
1.399999999999999
  1
4
100
AcDbText
  0
TEXT
  5
A5A4
330
A586
100
AcDbEntity
  8
3
  6
DASHED
100
AcDbText
 10
21.979511
 20
10.04873699999998
 30
0.0
 40
1.399999999999999
  1
3
100
AcDbText
  0
TEXT
  5
A5A5
330
A586
100
AcDbEntity
  8
2
  6
Continuous
100
AcDbText
 10
19.97951099999998
 20
10.04873699999998
 30
0.0
 40
1.399999999999999
  1
2
100
AcDbText
  0
TEXT
  5
A5A6
330
A586
100
AcDbEntity
  8
6
  6
Continuous
100
AcDbText
 10
27.979511
 20
10.04873699999998
 30
0.0
 40
1.399999999999999
  1
6
100
AcDbText
  0
TEXT
  5
A5A7
330
A586
100
AcDbEntity
  8
5
  6
PHANTOM
100
AcDbText
 10
25.97951099999999
 20
10.04873699999998
 30
0.0
 40
1.399999999999999
  1
5
100
AcDbText
  0
LINE
  5
A5A8
330
A586
100
AcDbEntity
  8
4
  6
CENTER
100
AcDbLine
 10
179.852946
 20
267.2797109999998
 30
0.0
 11
179.852946
 21
187.4330389999999
 31
0.0
  0
LINE
  5
A5A9
330
A586
100
AcDbEntity
  8
4
  6
CENTER
100
AcDbLine
 10
108.352946
 20
169.7797109999999
 30
0.0
 11
193.352946
 21
169.7797109999999
 31
0.0
  0
LINE
  5
A5AA
330
A586
100
AcDbEntity
  8
4
  6
CENTER
100
AcDbLine
 10
150.852946
 20
207.831686
 30
0.0
 11
150.852946
 21
127.279711
 31
0.0
  0
LINE
  5
A5AB
330
A586
100
AcDbEntity
  8
4
  6
CENTER
100
AcDbLine
 10
49.852946
 20
267.2797109999998
 30
0.0
 11
49.852946
 21
127.279711
 31
0.0
  0
LINE
  5
A5AC
330
A586
100
AcDbEntity
  8
4
  6
CENTER
100
AcDbLine
 10
27.35486296280786
 20
169.7797109999998
 30
0.0
 11
81.55294599999997
 21
169.7797109999998
 31
0.0
  0
LINE
  5
A5AD
330
A586
100
AcDbEntity
  8
1
  6
Continuous
100
AcDbLine
 10
70.352946
 20
175.379706
 30
0.0
 11
73.55294599999997
 21
175.379706
 31
0.0
  0
LINE
  5
A5AE
330
A586
100
AcDbEntity
  8
1
  6
Continuous
100
AcDbLine
 10
70.352946
 20
172.779708
 30
0.0
 11
73.55294599999997
 21
172.779708
 31
0.0
  0
LINE
  5
A5AF
330
A586
100
AcDbEntity
  8
1
  6
Continuous
100
AcDbLine
 10
74.55294599999998
 20
173.579711
 30
0.0
 11
74.55294599999998
 21
165.9797129999998
 31
0.0
  0
LINE
  5
A5B0
330
A586
100
AcDbEntity
  8
1
  6
Continuous
100
AcDbLine
 10
70.352946
 20
164.1797099999998
 30
0.0
 11
73.55294599999997
 21
164.1797099999998
 31
0.0
  0
LINE
  5
A5B1
330
A586
100
AcDbEntity
  8
1
  6
Continuous
100
AcDbLine
 10
70.42974599999998
 20
166.7797079999999
 30
0.0
 11
73.55294599999997
 21
166.7797079999999
 31
0.0
  0
LINE
  5
A5B2
330
A586
100
AcDbEntity
  8
1
  6
Continuous
100
AcDbLine
 10
74.55295600000003
 20
165.979625
 30
0.0
 11
73.55295600000002
 21
164.179702
 31
0.0
  0
LINE
  5
A5B3
330
A586
100
AcDbEntity
  8
1
  6
Continuous
100
AcDbLine
 10
74.55295600000003
 20
173.5797419999999
 30
0.0
 11
73.55295600000002
 21
175.3797139999998
 31
0.0
  0
LINE
  5
A5B4
330
A586
100
AcDbEntity
  8
4
  6
CENTER
100
AcDbLine
 10
179.852946
 20
351.7797109999997
 30
0.0
 11
179.852946
 21
303.7797109999997
 31
0.0
  0
LINE
  5
A5B5
330
A586
100
AcDbEntity
  8
4
  6
CENTER
100
AcDbLine
 10
203.8529459999999
 20
327.7797109999998
 30
0.0
 11
108.352946
 21
327.7797109999998
 31
0.0
  0
LINE
  5
A5B6
330
A586
100
AcDbEntity
  8
1
  6
Continuous
100
AcDbLine
 10
163.8529459999998
 20
218.17971
 30
0.0
 11
195.852946
 21
218.17971
 31
0.0
  0
LINE
  5
A5B7
330
A586
100
AcDbEntity
  8
1
  6
Continuous
100
AcDbLine
 10
143.352946
 20
212.22346
 30
0.0
 11
163.665803
 21
215.8051649999999
 31
0.0
  0
LINE
  5
A5B8
330
A586
100
AcDbEntity
  8
1
  6
Continuous
100
AcDbLine
 10
143.7002379999998
 20
210.253844
 30
0.0
 11
147.0215419999999
 21
210.8394799999999
 31
0.0
  0
LINE
  5
A5B9
330
A586
100
AcDbEntity
  8
1
  6
Continuous
100
AcDbLine
 10
195.1760779999999
 20
209.7501199999999
 30
0.0
 11
198.852946
 21
210.1473069999999
 31
0.0
  0
LINE
  5
A5BA
330
A586
100
AcDbEntity
  8
1
  6
Continuous
100
AcDbLine
 10
143.352947
 20
212.2234579999999
 30
0.0
 11
143.700244
 21
210.253841
 31
0.0
  0
LINE
  5
A5BB
330
A586
100
AcDbEntity
  8
1
  6
Continuous
100
AcDbLine
 10
166.852946
 20
215.279736
 30
0.0
 11
166.852946
 21
180.212679
 31
0.0
  0
LINE
  5
A5BC
330
A586
100
AcDbEntity
  8
1
  6
Continuous
100
AcDbLine
 10
146.6742469999998
 20
212.809095
 30
0.0
 11
147.0215429999998
 21
210.8394799999999
 31
0.0
  0
LINE
  5
A5BD
330
A586
100
AcDbEntity
  8
1
  6
Continuous
100
AcDbLine
 10
33.852946
 20
218.17971
 30
0.0
 11
65.852946
 21
218.17971
 31
0.0
  0
LINE
  5
A5BE
330
A586
100
AcDbEntity
  8
1
  6
Continuous
100
AcDbLine
 10
34.852946
 20
160.8797089999999
 30
0.0
 11
36.85294600000001
 21
160.8797089999999
 31
0.0
  0
LINE
  5
A5BF
330
A586
100
AcDbEntity
  8
1
  6
Continuous
100
AcDbLine
 10
36.85294600000001
 20
210.5394759999998
 30
0.0
 11
36.85294600000001
 21
177.0441769999999
 31
0.0
  0
LINE
  5
A5C0
330
A586
100
AcDbEntity
  8
1
  6
Continuous
100
AcDbLine
 10
34.852946
 20
211.379646
 30
0.0
 11
34.852946
 21
160.8797089999999
 31
0.0
  0
LINE
  5
A5C1
330
A586
100
AcDbEntity
  8
1
  6
Continuous
100
AcDbLine
 10
64.852946
 20
211.379646
 30
0.0
 11
64.852946
 21
154.55668
 31
0.0
  0
LINE
  5
A5C2
330
A586
100
AcDbEntity
  8
1
  6
Continuous
100
AcDbLine
 10
62.852946
 20
210.5394759999998
 30
0.0
 11
62.852946
 21
186.0305239999999
 31
0.0
  0
LINE
  5
A5C3
330
A586
100
AcDbEntity
  8
1
  6
Continuous
100
AcDbLine
 10
64.852946
 20
160.8797089999999
 30
0.0
 11
62.852946
 21
160.8797089999999
 31
0.0
  0
LINE
  5
A5C4
330
A586
100
AcDbEntity
  8
1
  6
Continuous
100
AcDbLine
 10
32.35152699999999
 20
173.077696
 30
0.0
 11
32.358203
 21
166.477698
 31
0.0
  0
LINE
  5
A5C5
330
A586
100
AcDbEntity
  8
1
  6
Continuous
100
AcDbLine
 10
34.86024
 20
164.479708
 30
0.0
 11
34.35821
 21
164.479708
 31
0.0
  0
LINE
  5
A5C6
330
A586
100
AcDbEntity
  8
1
  6
Continuous
100
AcDbLine
 10
34.849513
 20
175.0797099999997
 30
0.0
 11
34.35154199999999
 21
175.0797099999997
 31
0.0
  0
LINE
  5
A5C7
330
A586
100
AcDbEntity
  8
1
  6
Continuous
100
AcDbLine
 10
39.352946
 20
135.038309
 30
0.0
 11
39.352946
 21
204.5211129999999
 31
0.0
  0
LINE
  5
A5C8
330
A586
100
AcDbEntity
  8
1
  6
Continuous
100
AcDbLine
 10
61.85294599999998
 20
160.0297109999999
 30
0.0
 11
61.85294599999998
 21
160.979711
 31
0.0
  0
LINE
  5
A5C9
330
A586
100
AcDbEntity
  8
1
  6
Continuous
100
AcDbLine
 10
60.352946
 20
159.0297109999999
 30
0.0
 11
60.852946
 21
159.0297109999999
 31
0.0
  0
LINE
  5
A5CA
330
A586
100
AcDbEntity
  8
1
  6
Continuous
100
AcDbLine
 10
60.352946
 20
135.038309
 30
0.0
 11
60.352946
 21
204.5211129999999
 31
0.0
  0
LINE
  5
A5CB
330
A586
100
AcDbEntity
  8
1
  6
Continuous
100
AcDbLine
 10
60.352946
 20
180.5297109999999
 30
0.0
 11
60.852946
 21
180.5297109999999
 31
0.0
  0
LINE
  5
A5CC
330
A586
100
AcDbEntity
  8
1
  6
Continuous
100
AcDbLine
 10
61.85294599999998
 20
173.0297109999999
 30
0.0
 11
62.852946
 21
173.0297109999999
 31
0.0
  0
LINE
  5
A5CD
330
A586
100
AcDbEntity
  8
1
  6
Continuous
100
AcDbLine
 10
61.85294599999998
 20
166.529711
 30
0.0
 11
62.852946
 21
166.529711
 31
0.0
  0
LINE
  5
A5CE
330
A586
100
AcDbEntity
  8
1
  6
Continuous
100
AcDbLine
 10
147.0215409999999
 20
210.839493
 30
0.0
 11
144.474919
 21
183.115304
 31
0.0
  0
LINE
  5
A5CF
330
A586
100
AcDbEntity
  8
1
  6
Continuous
100
AcDbLine
 10
164.0526869999999
 20
173.462758
 30
0.0
 11
189.705554
 21
206.688705
 31
0.0
  0
ARC
  5
A5D0
330
A586
100
AcDbEntity
  8
1
  6
Continuous
100
AcDbCircle
 10
68.440446
 20
165.4797049999999
 30
0.0
 40
2.3125
100
AcDbArc
 50
325.794488
 51
34.20540799999999
  0
ARC
  5
A5D1
330
A586
100
AcDbEntity
  8
1
  6
Continuous
100
AcDbCircle
 10
59.30294700000001
 20
169.7797089999999
 30
0.0
 40
11.450001
100
AcDbArc
 50
344.810718
 51
15.18928299999999
  0
ARC
  5
A5D2
330
A586
100
AcDbEntity
  8
1
  6
Continuous
100
AcDbCircle
 10
68.44044699999999
 20
174.079711
 30
0.0
 40
2.3125
100
AcDbArc
 50
325.794548
 51
34.205459
  0
ARC
  5
A5D3
330
A586
100
AcDbEntity
  8
1
  6
Continuous
100
AcDbCircle
 10
71.640446
 20
174.079711
 30
0.0
 40
2.312498999999998
100
AcDbArc
 50
325.79457
 51
34.20545
  0
ARC
  5
A5D4
330
A586
100
AcDbEntity
  8
1
  6
Continuous
100
AcDbCircle
 10
62.502946
 20
169.7797079999999
 30
0.0
 40
11.44999799999999
100
AcDbArc
 50
344.8107499999999
 51
15.18927
  0
ARC
  5
A5D5
330
A586
100
AcDbEntity
  8
1
  6
Continuous
100
AcDbCircle
 10
71.640446
 20
165.4797129999998
 30
0.0
 40
2.312498999999998
100
AcDbArc
 50
325.79457
 51
34.20545
  0
ARC
  5
A5D6
330
A586
100
AcDbEntity
  8
1
  6
Continuous
100
AcDbCircle
 10
57.314265
 20
219.3242129999999
 30
0.0
 40
1.984499999999996
100
AcDbArc
 50
324.7796799999998
 51
350.00299
  0
ARC
  5
A5D7
330
A586
100
AcDbEntity
  8
1
  6
Continuous
100
AcDbCircle
 10
45.932322
 20
219.3242129999999
 30
0.0
 40
1.984499999999996
100
AcDbArc
 50
324.7796799999998
 51
350.0030499999998
  0
ARC
  5
A5D8
330
A586
100
AcDbEntity
  8
1
  6
Continuous
100
AcDbCircle
 10
175.9323219999999
 20
219.3242129999999
 30
0.0
 40
1.984499999999996
100
AcDbArc
 50
324.7797499999998
 51
350.0030499999998
  0
ARC
  5
A5D9
330
A586
100
AcDbEntity
  8
1
  6
Continuous
100
AcDbCircle
 10
53.77356999999999
 20
219.3242129999999
 30
0.0
 40
1.984499999999996
100
AcDbArc
 50
324.7796799999998
 51
350.00299
  0
ARC
  5
A5DA
330
A586
100
AcDbEntity
  8
1
  6
Continuous
100
AcDbCircle
 10
42.391626
 20
219.3242129999999
 30
0.0
 40
1.984499999999996
100
AcDbArc
 50
324.7796799999998
 51
333.1367799999998
  0
ARC
  5
A5DB
330
A586
100
AcDbEntity
  8
1
  6
Continuous
100
AcDbCircle
 10
172.391627
 20
219.3242129999999
 30
0.0
 40
1.984499999999996
100
AcDbArc
 50
324.7797499999998
 51
333.1367799999998
  0
ARC
  5
A5DC
330
A586
100
AcDbEntity
  8
1
  6
Continuous
100
AcDbCircle
 10
53.77356999999999
 20
219.3242129999999
 30
0.0
 40
1.984499999999996
100
AcDbArc
 50
189.9969899999999
 51
215.2202999999999
  0
ARC
  5
A5DD
330
A586
100
AcDbEntity
  8
1
  6
Continuous
100
AcDbCircle
 10
49.852946
 20
219.3242129999999
 30
0.0
 40
1.984499999999996
100
AcDbArc
 50
324.7796799999998
 51
350.00299
  0
ARC
  5
A5DE
330
A586
100
AcDbEntity
  8
1
  6
Continuous
100
AcDbCircle
 10
57.314265
 20
219.3242129999999
 30
0.0
 40
1.984499999999996
100
AcDbArc
 50
206.86325
 51
215.2202999999999
  0
ARC
  5
A5DF
330
A586
100
AcDbEntity
  8
1
  6
Continuous
100
AcDbCircle
 10
60.13193000000001
 20
219.3242129999999
 30
0.0
 40
1.984499999999996
100
AcDbArc
 50
324.77981
 51
350.00299
  0
ARC
  5
A5E0
330
A586
100
AcDbEntity
  8
1
  6
Continuous
100
AcDbCircle
 10
61.95353199999999
 20
219.3242129999999
 30
0.0
 40
1.984499999999996
100
AcDbArc
 50
324.7797499999998
 51
350.00299
  0
ARC
  5
A5E1
330
A586
100
AcDbEntity
  8
1
  6
Continuous
100
AcDbCircle
 10
62.60294599999999
 20
219.3242129999999
 30
0.0
 40
1.984499999999996
100
AcDbArc
 50
324.7797499999998
 51
350.00299
  0
ARC
  5
A5E2
330
A586
100
AcDbEntity
  8
1
  6
Continuous
100
AcDbCircle
 10
45.932322
 20
219.3242129999999
 30
0.0
 40
1.984499999999996
100
AcDbArc
 50
189.99704
 51
215.2202999999999
  0
ARC
  5
A5E3
330
A586
100
AcDbEntity
  8
1
  6
Continuous
100
AcDbCircle
 10
49.852946
 20
219.3242129999999
 30
0.0
 40
1.984499999999996
100
AcDbArc
 50
189.9970599999999
 51
215.2202999999999
  0
ARC
  5
A5E4
330
A586
100
AcDbEntity
  8
1
  6
Continuous
100
AcDbCircle
 10
42.391626
 20
219.3242129999999
 30
0.0
 40
1.984499999999996
100
AcDbArc
 50
189.9970599999999
 51
215.2202999999999
  0
ARC
  5
A5E5
330
A586
100
AcDbEntity
  8
1
  6
Continuous
100
AcDbCircle
 10
39.573956
 20
219.3242129999999
 30
0.0
 40
1.984499999999996
100
AcDbArc
 50
189.9970599999999
 51
215.2202999999999
  0
ARC
  5
A5E6
330
A586
100
AcDbEntity
  8
1
  6
Continuous
100
AcDbCircle
 10
37.752356
 20
219.3242129999999
 30
0.0
 40
1.984499999999996
100
AcDbArc
 50
189.9970599999999
 51
215.2202999999999
  0
ARC
  5
A5E7
330
A586
100
AcDbEntity
  8
1
  6
Continuous
100
AcDbCircle
 10
37.102946
 20
219.3242129999999
 30
0.0
 40
1.984499999999996
100
AcDbArc
 50
189.9970599999999
 51
215.2202999999999
  0
ARC
  5
A5E8
330
A586
100
AcDbEntity
  8
1
  6
Continuous
100
AcDbCircle
 10
163.0385229999999
 20
221.7796729999998
 30
0.0
 40
2.799999999999998
100
AcDbArc
 50
270.00002
 51
271.65221
  0
ARC
  5
A5E9
330
A586
100
AcDbEntity
  8
1
  6
Continuous
100
AcDbCircle
 10
183.7735699999998
 20
219.3242129999999
 30
0.0
 40
1.984499999999996
100
AcDbArc
 50
189.9969899999999
 51
215.2202299999999
  0
ARC
  5
A5EA
330
A586
100
AcDbEntity
  8
1
  6
Continuous
100
AcDbCircle
 10
179.852946
 20
219.3242129999999
 30
0.0
 40
1.984499999999996
100
AcDbArc
 50
324.7797499999998
 51
350.00299
  0
ARC
  5
A5EB
330
A586
100
AcDbEntity
  8
1
  6
Continuous
100
AcDbCircle
 10
187.3142649999999
 20
219.3242129999999
 30
0.0
 40
1.984499999999996
100
AcDbArc
 50
206.86325
 51
215.2202299999999
  0
ARC
  5
A5EC
330
A586
100
AcDbEntity
  8
1
  6
Continuous
100
AcDbCircle
 10
190.13193
 20
219.3242129999999
 30
0.0
 40
1.984499999999996
100
AcDbArc
 50
324.7797499999998
 51
350.00299
  0
ARC
  5
A5ED
330
A586
100
AcDbEntity
  8
1
  6
Continuous
100
AcDbCircle
 10
191.9535319999999
 20
219.3242129999999
 30
0.0
 40
1.984499999999996
100
AcDbArc
 50
324.7797499999998
 51
350.00299
  0
ARC
  5
A5EE
330
A586
100
AcDbEntity
  8
1
  6
Continuous
100
AcDbCircle
 10
192.602946
 20
219.3242129999999
 30
0.0
 40
1.984499999999996
100
AcDbArc
 50
324.7796799999998
 51
350.00299
  0
ARC
  5
A5EF
330
A586
100
AcDbEntity
  8
1
  6
Continuous
100
AcDbCircle
 10
175.9323219999999
 20
219.3242129999999
 30
0.0
 40
1.984499999999996
100
AcDbArc
 50
189.99704
 51
215.2202299999999
  0
ARC
  5
A5F0
330
A586
100
AcDbEntity
  8
1
  6
Continuous
100
AcDbCircle
 10
179.852946
 20
219.3242129999999
 30
0.0
 40
1.984499999999996
100
AcDbArc
 50
189.9970599999999
 51
215.2202299999999
  0
ARC
  5
A5F1
330
A586
100
AcDbEntity
  8
1
  6
Continuous
100
AcDbCircle
 10
172.391627
 20
219.3242129999999
 30
0.0
 40
1.984499999999996
100
AcDbArc
 50
189.9970599999999
 51
215.2202299999999
  0
ARC
  5
A5F2
330
A586
100
AcDbEntity
  8
1
  6
Continuous
100
AcDbCircle
 10
169.5739619999999
 20
219.3242129999999
 30
0.0
 40
1.984499999999996
100
AcDbArc
 50
189.9970599999999
 51
215.2202299999999
  0
ARC
  5
A5F3
330
A586
100
AcDbEntity
  8
1
  6
Continuous
100
AcDbCircle
 10
167.75236
 20
219.3242129999999
 30
0.0
 40
1.984499999999996
100
AcDbArc
 50
189.99707
 51
215.2202299999999
  0
ARC
  5
A5F4
330
A586
100
AcDbEntity
  8
1
  6
Continuous
100
AcDbCircle
 10
167.1029459999997
 20
219.3242129999999
 30
0.0
 40
1.984499999999996
100
AcDbArc
 50
189.9970599999999
 51
215.2202299999999
  0
ARC
  5
A5F5
330
A586
100
AcDbEntity
  8
1
  6
Continuous
100
AcDbCircle
 10
183.7735699999998
 20
219.3242129999999
 30
0.0
 40
1.984499999999996
100
AcDbArc
 50
324.7797499999998
 51
350.00299
  0
ARC
  5
A5F6
330
A586
100
AcDbEntity
  8
1
  6
Continuous
100
AcDbCircle
 10
187.3142649999999
 20
219.3242129999999
 30
0.0
 40
1.984499999999996
100
AcDbArc
 50
324.7797499999998
 51
350.00299
  0
ARC
  5
A5F7
330
A586
100
AcDbEntity
  8
1
  6
Continuous
100
AcDbCircle
 10
196.0352659999998
 20
201.796391
 30
0.0
 40
8.0
100
AcDbArc
 50
96.16536199999998
 51
142.32923
  0
ARC
  5
A5F8
330
A586
100
AcDbEntity
  8
1
  6
Continuous
100
AcDbCircle
 10
49.852946
 20
349.9214609999999
 30
0.0
 40
137.69801
100
AcDbArc
 50
264.43445
 51
275.5655299999999
  0
ARC
  5
A5F9
330
A586
100
AcDbEntity
  8
1
  6
Continuous
100
AcDbCircle
 10
63.352946
 20
211.379646
 30
0.0
 40
1.5
100
AcDbArc
 50
0.0
 51
95.56557500000003
  0
ARC
  5
A5FA
330
A586
100
AcDbEntity
  8
1
  6
Continuous
100
AcDbCircle
 10
36.352946
 20
211.379646
 30
0.0
 40
1.5
100
AcDbArc
 50
84.43444300000001
 51
179.9999599999999
  0
ARC
  5
A5FB
330
A586
100
AcDbEntity
  8
1
  6
Continuous
100
AcDbCircle
 10
49.852946
 20
315.3797089999998
 30
0.0
 40
100.0
100
AcDbArc
 50
262.53039
 51
277.4695899999999
  0
ARC
  5
A5FC
330
A586
100
AcDbEntity
  8
1
  6
Continuous
100
AcDbCircle
 10
65.85132900000001
 20
193.780977
 30
0.0
 40
35.0
100
AcDbArc
 50
179.4492899999999
 51
207.66612
  0
ARC
  5
A5FD
330
A586
100
AcDbEntity
  8
1
  6
Continuous
100
AcDbCircle
 10
62.552943
 20
210.5394759999998
 30
0.0
 40
0.3
100
AcDbArc
 50
0.0
 51
95.28068799999999
  0
ARC
  5
A5FE
330
A586
100
AcDbEntity
  8
1
  6
Continuous
100
AcDbCircle
 10
37.152946
 20
210.5394759999998
 30
0.0
 40
0.3
100
AcDbArc
 50
84.71933100000002
 51
179.9999599999999
  0
ARC
  5
A5FF
330
A586
100
AcDbEntity
  8
1
  6
Continuous
100
AcDbCircle
 10
49.852946
 20
347.9518609999999
 30
0.0
 40
137.69801
100
AcDbArc
 50
264.7195599999998
 51
275.28041
  0
ARC
  5
A600
330
A586
100
AcDbEntity
  8
1
  6
Continuous
100
AcDbCircle
 10
34.35821
 20
166.479712
 30
0.0
 40
2.0
100
AcDbArc
 50
180.0579199999999
 51
269.99998
  0
ARC
  5
A601
330
A586
100
AcDbEntity
  8
1
  6
Continuous
100
AcDbCircle
 10
34.35154199999999
 20
173.07971
 30
0.0
 40
2.0
100
AcDbArc
 50
90.00001800000005
 51
180.0579199999999
  0
ARC
  5
A602
330
A586
100
AcDbEntity
  8
1
  6
Continuous
100
AcDbCircle
 10
150.852946
 20
169.7797109999999
 30
0.0
 40
18.200001
100
AcDbArc
 50
109.33376
 51
124.275178
  0
ARC
  5
A603
330
A586
100
AcDbEntity
  8
1
  6
Continuous
100
AcDbCircle
 10
150.852946
 20
169.7797109999999
 30
0.0
 40
27.700001
100
AcDbArc
 50
100.6140099999997
 51
133.2307329999999
  0
ARC
  5
A604
330
A586
100
AcDbEntity
  8
1
  6
Continuous
100
AcDbCircle
 10
150.852946
 20
169.7797109999999
 30
0.0
 40
37.5
100
AcDbArc
 50
96.39965100000001
 51
137.550924
  0
ARC
  5
A605
330
A586
100
AcDbEntity
  8
1
  6
Continuous
100
AcDbCircle
 10
49.852946
 20
182.2797109999999
 30
0.0
 40
50.0
100
AcDbArc
 50
259.8000099999998
 51
280.2018119999999
  0
ARC
  5
A606
330
A586
100
AcDbEntity
  8
1
  6
Continuous
100
AcDbCircle
 10
58.352946
 20
135.038309
 30
0.0
 40
2.0
100
AcDbArc
 50
280.19985
 51
359.99995
  0
ARC
  5
A607
330
A586
100
AcDbEntity
  8
1
  6
Continuous
100
AcDbCircle
 10
41.352946
 20
135.038309
 30
0.0
 40
2.0
100
AcDbArc
 50
179.9999799999999
 51
259.80007
  0
ARC
  5
A608
330
A586
100
AcDbEntity
  8
1
  6
Continuous
100
AcDbCircle
 10
60.852946
 20
160.0297109999999
 30
0.0
 40
1.0
100
AcDbArc
 50
269.9999599999998
 51
359.99995
  0
ARC
  5
A609
330
A586
100
AcDbEntity
  8
1
  6
Continuous
100
AcDbCircle
 10
60.852946
 20
179.5297109999999
 30
0.0
 40
1.0
100
AcDbArc
 50
0.000055
 51
90.000037
  0
ARC
  5
A60A
330
A586
100
AcDbEntity
  8
1
  6
Continuous
100
AcDbCircle
 10
41.352946
 20
204.5211129999999
 30
0.0
 40
2.0
100
AcDbArc
 50
100.1999199999999
 51
180.00002
  0
ARC
  5
A60B
330
A586
100
AcDbEntity
  8
1
  6
Continuous
100
AcDbCircle
 10
58.352946
 20
204.5211129999999
 30
0.0
 40
2.0
100
AcDbArc
 50
0.000055
 51
79.80015300000005
  0
ARC
  5
A60C
330
A586
100
AcDbEntity
  8
1
  6
Continuous
100
AcDbCircle
 10
49.852946
 20
157.2797109999999
 30
0.0
 40
50.0
100
AcDbArc
 50
79.79818799999998
 51
100.1999899999999
  0
LINE
  5
A60D
330
A586
100
AcDbEntity
  8
1
  6
Continuous
100
AcDbLine
 10
30.852946
 20
215.17971
 30
0.0
 11
30.852946
 21
193.4445429999999
 31
0.0
  0
LINE
  5
A60E
330
A586
100
AcDbEntity
  8
1
  6
Continuous
100
AcDbLine
 10
68.852946
 20
215.17971
 30
0.0
 11
68.852946
 21
195.775461
 31
0.0
  0
ARC
  5
A60F
330
A586
100
AcDbEntity
  8
1
  6
Continuous
100
AcDbCircle
 10
65.852946
 20
215.17971
 30
0.0
 40
3.0
100
AcDbArc
 50
0.0
 51
90.0
  0
ARC
  5
A610
330
A586
100
AcDbEntity
  8
1
  6
Continuous
100
AcDbCircle
 10
33.852946
 20
215.17971
 30
0.0
 40
3.0
100
AcDbArc
 50
90.0
 51
180.0
  0
LINE
  5
A611
330
A586
100
AcDbEntity
  8
1
  6
Continuous
100
AcDbLine
 10
198.852946
 20
215.17971
 30
0.0
 11
198.852946
 21
210.1473069999999
 31
0.0
  0
ARC
  5
A612
330
A586
100
AcDbEntity
  8
1
  6
Continuous
100
AcDbCircle
 10
195.852946
 20
215.17971
 30
0.0
 40
3.0
100
AcDbArc
 50
0.0
 51
90.0
  0
ARC
  5
A613
330
A586
100
AcDbEntity
  8
1
  6
Continuous
100
AcDbCircle
 10
163.8529459999998
 20
215.17971
 30
0.0
 40
3.0
100
AcDbArc
 50
90.0
 51
177.517007
  0
LINE
  5
A614
330
A586
100
AcDbEntity
  8
1
  6
Continuous
100
AcDbLine
 10
252.852946
 20
135.038309
 30
0.0
 11
252.852946
 21
204.5211129999999
 31
0.0
  0
LINE
  5
A615
330
A586
100
AcDbEntity
  8
1
  6
Continuous
100
AcDbLine
 10
273.8529459999999
 20
135.038309
 30
0.0
 11
273.8529459999999
 21
204.5211129999999
 31
0.0
  0
LINE
  5
A616
330
A586
100
AcDbEntity
  8
4
  6
CENTER
100
AcDbLine
 10
263.3529459999999
 20
267.2797109999998
 30
0.0
 11
263.3529459999999
 21
127.279711
 31
0.0
  0
ARC
  5
A617
330
A586
100
AcDbEntity
  8
1
  6
Continuous
100
AcDbCircle
 10
263.3529459999999
 20
182.2797109999999
 30
0.0
 40
50.0
100
AcDbArc
 50
259.7981879999999
 51
280.19999
  0
ARC
  5
A618
330
A586
100
AcDbEntity
  8
1
  6
Continuous
100
AcDbCircle
 10
271.8529459999999
 20
135.038309
 30
0.0
 40
2.0
100
AcDbArc
 50
280.1999299999998
 51
0.00002
  0
ARC
  5
A619
330
A586
100
AcDbEntity
  8
1
  6
Continuous
100
AcDbCircle
 10
254.852946
 20
135.038309
 30
0.0
 40
2.0
100
AcDbArc
 50
180.0000499999999
 51
259.8001499999999
  0
LINE
  5
A61A
330
A586
100
AcDbEntity
  8
1
  6
Continuous
100
AcDbLine
 10
279.3529459999999
 20
218.17971
 30
0.0
 11
247.3529459999999
 21
218.17971
 31
0.0
  0
ARC
  5
A61B
330
A586
100
AcDbEntity
  8
1
  6
Continuous
100
AcDbCircle
 10
251.25236
 20
219.3242129999999
 30
0.0
 40
1.984499999999996
100
AcDbArc
 50
189.99701
 51
215.22025
  0
LINE
  5
A61C
330
A586
100
AcDbEntity
  8
1
  6
Continuous
100
AcDbLine
 10
248.352946
 20
160.8797089999999
 30
0.0
 11
250.352946
 21
160.8797089999999
 31
0.0
  0
LINE
  5
A61D
330
A586
100
AcDbEntity
  8
4
  6
CENTER
100
AcDbLine
 10
285.8510290371921
 20
169.7797109999999
 30
0.0
 11
231.6529459999999
 21
169.7797109999999
 31
0.0
  0
LINE
  5
A61E
330
A586
100
AcDbEntity
  8
1
  6
Continuous
100
AcDbLine
 10
250.352946
 20
208.356925
 30
0.0
 11
250.352946
 21
163.979711
 31
0.0
  0
LINE
  5
A61F
330
A586
100
AcDbEntity
  8
1
  6
Continuous
100
AcDbLine
 10
278.352946
 20
178.6890629999998
 30
0.0
 11
278.352946
 21
160.8797089999999
 31
0.0
  0
LINE
  5
A620
330
A586
100
AcDbEntity
  8
1
  6
Continuous
100
AcDbLine
 10
276.3529459999999
 20
208.356925
 30
0.0
 11
276.3529459999999
 21
168.4742599999998
 31
0.0
  0
LINE
  5
A621
330
A586
100
AcDbEntity
  8
1
  6
Continuous
100
AcDbLine
 10
240.89673
 20
172.779711
 30
0.0
 11
239.652946
 21
172.779711
 31
0.0
  0
LINE
  5
A622
330
A586
100
AcDbEntity
  8
1
  6
Continuous
100
AcDbLine
 10
241.3272479999999
 20
175.3797089999999
 30
0.0
 11
239.652946
 21
175.3797089999999
 31
0.0
  0
LINE
  5
A623
330
A586
100
AcDbEntity
  8
1
  6
Continuous
100
AcDbLine
 10
238.6529459999999
 20
173.579714
 30
0.0
 11
238.6529459999999
 21
168.157047
 31
0.0
  0
ARC
  5
A624
330
A586
100
AcDbEntity
  8
1
  6
Continuous
100
AcDbCircle
 10
250.702946
 20
169.7797109999999
 30
0.0
 40
11.44999799999999
100
AcDbArc
 50
164.81073
 51
186.103196
  0
ARC
  5
A625
330
A586
100
AcDbEntity
  8
1
  6
Continuous
100
AcDbCircle
 10
241.565446
 20
174.0797139999999
 30
0.0
 40
2.312498999999998
100
AcDbArc
 50
145.7945499999999
 51
214.2054299999998
  0
LINE
  5
A626
330
A586
100
AcDbEntity
  8
1
  6
Continuous
100
AcDbLine
 10
238.6529359999999
 20
173.5797449999997
 30
0.0
 11
239.6529359999999
 21
175.379717
 31
0.0
  0
LINE
  5
A627
330
A586
100
AcDbEntity
  8
1
  6
Continuous
100
AcDbLine
 10
251.3529459999999
 20
160.0297109999999
 30
0.0
 11
251.3529459999999
 21
160.979711
 31
0.0
  0
LINE
  5
A628
330
A586
100
AcDbEntity
  8
1
  6
Continuous
100
AcDbLine
 10
278.352946
 20
160.8797089999999
 30
0.0
 11
278.0072469999999
 21
160.8797089999999
 31
0.0
  0
ARC
  5
A629
330
A586
100
AcDbEntity
  8
1
  6
Continuous
100
AcDbCircle
 10
252.352946
 20
160.0297109999999
 30
0.0
 40
1.0
100
AcDbArc
 50
180.0000499999999
 51
270.0000399999999
  0
LINE
  5
A62A
330
A586
100
AcDbEntity
  8
1
  6
Continuous
100
AcDbLine
 10
252.852946
 20
159.0297109999999
 30
0.0
 11
252.352946
 21
159.0297109999999
 31
0.0
  0
ARC
  5
A62B
330
A586
100
AcDbEntity
  8
1
  6
Continuous
100
AcDbCircle
 10
252.352946
 20
179.5297109999999
 30
0.0
 40
1.0
100
AcDbArc
 50
89.99996299999997
 51
179.999945
  0
LINE
  5
A62C
330
A586
100
AcDbEntity
  8
1
  6
Continuous
100
AcDbLine
 10
251.3529459999999
 20
166.529711
 30
0.0
 11
250.352946
 21
166.529711
 31
0.0
  0
LINE
  5
A62D
330
A586
100
AcDbEntity
  8
1
  6
Continuous
100
AcDbLine
 10
251.3529459999999
 20
173.0297109999999
 30
0.0
 11
250.352946
 21
173.0297109999999
 31
0.0
  0
LINE
  5
A62E
330
A586
100
AcDbEntity
  8
1
  6
Continuous
100
AcDbLine
 10
252.852946
 20
180.5297109999999
 30
0.0
 11
252.352946
 21
180.5297109999999
 31
0.0
  0
ARC
  5
A62F
330
A586
100
AcDbEntity
  8
1
  6
Continuous
100
AcDbCircle
 10
279.3529459999999
 20
215.17971
 30
0.0
 40
3.0
100
AcDbArc
 50
0.0
 51
90.0
  0
LINE
  5
A630
330
A586
100
AcDbEntity
  8
1
  6
Continuous
100
AcDbLine
 10
282.3529459999998
 20
215.17971
 30
0.0
 11
282.3529459999998
 21
193.4445429999999
 31
0.0
  0
ARC
  5
A631
330
A586
100
AcDbEntity
  8
1
  6
Continuous
100
AcDbCircle
 10
263.3529459999999
 20
157.2797109999999
 30
0.0
 40
50.0
100
AcDbArc
 50
79.80001
 51
100.201812
  0
ARC
  5
A632
330
A586
100
AcDbEntity
  8
1
  6
Continuous
100
AcDbCircle
 10
271.8529459999999
 20
204.5211129999999
 30
0.0
 40
2.0
100
AcDbArc
 50
359.9999799999998
 51
79.80007999999997
  0
ARC
  5
A633
330
A586
100
AcDbEntity
  8
1
  6
Continuous
100
AcDbCircle
 10
254.852946
 20
204.5211129999999
 30
0.0
 40
2.0
100
AcDbArc
 50
100.1998469999999
 51
179.999945
  0
ARC
  5
A634
330
A586
100
AcDbEntity
  8
1
  6
Continuous
100
AcDbCircle
 10
263.3529459999999
 20
219.3242129999999
 30
0.0
 40
1.984499999999996
100
AcDbArc
 50
324.7796999999998
 51
350.0029399999998
  0
ARC
  5
A635
330
A586
100
AcDbEntity
  8
1
  6
Continuous
100
AcDbCircle
 10
267.27357
 20
219.3242129999999
 30
0.0
 40
1.984499999999996
100
AcDbArc
 50
189.99695
 51
215.2203199999999
  0
ARC
  5
A636
330
A586
100
AcDbEntity
  8
1
  6
Continuous
100
AcDbCircle
 10
276.1029459999999
 20
219.3242129999999
 30
0.0
 40
1.984499999999996
100
AcDbArc
 50
324.7796999999998
 51
350.0029399999998
  0
ARC
  5
A637
330
A586
100
AcDbEntity
  8
1
  6
Continuous
100
AcDbCircle
 10
275.4535359999997
 20
219.3242129999999
 30
0.0
 40
1.984499999999996
100
AcDbArc
 50
324.7796999999998
 51
350.0029399999998
  0
ARC
  5
A638
330
A586
100
AcDbEntity
  8
1
  6
Continuous
100
AcDbCircle
 10
273.6319359999999
 20
219.3242129999999
 30
0.0
 40
1.984499999999996
100
AcDbArc
 50
324.7796999999998
 51
350.0029399999998
  0
ARC
  5
A639
330
A586
100
AcDbEntity
  8
1
  6
Continuous
100
AcDbCircle
 10
270.8142659999999
 20
219.3242129999999
 30
0.0
 40
1.984499999999996
100
AcDbArc
 50
324.7796999999998
 51
350.0029399999998
  0
ARC
  5
A63A
330
A586
100
AcDbEntity
  8
1
  6
Continuous
100
AcDbCircle
 10
267.27357
 20
219.3242129999999
 30
0.0
 40
1.984499999999996
100
AcDbArc
 50
324.7796999999998
 51
350.0029599999999
  0
ARC
  5
A63B
330
A586
100
AcDbEntity
  8
1
  6
Continuous
100
AcDbCircle
 10
280.167366
 20
221.7796729999998
 30
0.0
 40
2.799999999999998
100
AcDbArc
 50
268.3477899999999
 51
269.99998
  0
ARC
  5
A63C
330
A586
100
AcDbEntity
  8
1
  6
Continuous
100
AcDbCircle
 10
270.8142659999999
 20
219.3242129999999
 30
0.0
 40
1.984499999999996
100
AcDbArc
 50
206.8632199999999
 51
215.2203199999999
  0
ARC
  5
A63D
330
A586
100
AcDbEntity
  8
1
  6
Continuous
100
AcDbCircle
 10
253.0739619999999
 20
219.3242129999999
 30
0.0
 40
1.984499999999996
100
AcDbArc
 50
189.99701
 51
215.22019
  0
ARC
  5
A63E
330
A586
100
AcDbEntity
  8
1
  6
Continuous
100
AcDbCircle
 10
255.891627
 20
219.3242129999999
 30
0.0
 40
1.984499999999996
100
AcDbArc
 50
324.7796999999998
 51
333.13675
  0
ARC
  5
A63F
330
A586
100
AcDbEntity
  8
1
  6
Continuous
100
AcDbCircle
 10
263.3529459999999
 20
219.3242129999999
 30
0.0
 40
1.984499999999996
100
AcDbArc
 50
189.99701
 51
215.2203199999999
  0
ARC
  5
A640
330
A586
100
AcDbEntity
  8
1
  6
Continuous
100
AcDbCircle
 10
259.432322
 20
219.3242129999999
 30
0.0
 40
1.984499999999996
100
AcDbArc
 50
324.7796999999998
 51
350.00301
  0
ARC
  5
A641
330
A586
100
AcDbEntity
  8
1
  6
Continuous
100
AcDbCircle
 10
259.432322
 20
219.3242129999999
 30
0.0
 40
1.984499999999996
100
AcDbArc
 50
189.99701
 51
215.2203199999999
  0
ARC
  5
A642
330
A586
100
AcDbEntity
  8
1
  6
Continuous
100
AcDbCircle
 10
255.891627
 20
219.3242129999999
 30
0.0
 40
1.984499999999996
100
AcDbArc
 50
189.99701
 51
215.2203199999999
  0
LINE
  5
A643
330
A586
100
AcDbEntity
  8
1
  6
Continuous
100
AcDbLine
 10
248.352946
 20
178.6890629999998
 30
0.0
 11
248.352946
 21
154.5567069999998
 31
0.0
  0
ARC
  5
A644
330
A586
100
AcDbEntity
  8
1
  6
Continuous
100
AcDbCircle
 10
278.8476819999999
 20
166.479712
 30
0.0
 40
2.0
100
AcDbArc
 50
270.00002
 51
359.9420799999998
  0
LINE
  5
A645
330
A586
100
AcDbEntity
  8
1
  6
Continuous
100
AcDbLine
 10
278.3456519999999
 20
164.479708
 30
0.0
 11
278.8476819999999
 21
164.479708
 31
0.0
  0
ARC
  5
A646
330
A586
100
AcDbEntity
  8
1
  6
Continuous
100
AcDbCircle
 10
278.85435
 20
173.07971
 30
0.0
 40
2.0
100
AcDbArc
 50
359.9420799999998
 51
89.99998199999996
  0
LINE
  5
A647
330
A586
100
AcDbEntity
  8
1
  6
Continuous
100
AcDbLine
 10
278.356379
 20
175.0797099999997
 30
0.0
 11
278.85435
 21
175.0797099999997
 31
0.0
  0
LINE
  5
A648
330
A586
100
AcDbEntity
  8
1
  6
Continuous
100
AcDbLine
 10
280.8543649999999
 20
173.077696
 30
0.0
 11
280.847689
 21
166.477698
 31
0.0
  0
LINE
  5
A649
330
A586
100
AcDbEntity
  8
1
  6
Continuous
100
AcDbLine
 10
244.352946
 20
215.17971
 30
0.0
 11
244.352946
 21
193.444232
 31
0.0
  0
ARC
  5
A64A
330
A586
100
AcDbEntity
  8
1
  6
Continuous
100
AcDbCircle
 10
247.3529459999999
 20
215.17971
 30
0.0
 40
3.0
100
AcDbArc
 50
90.0
 51
180.0
  0
ARC
  5
A64B
330
A586
100
AcDbEntity
  8
1
  6
Continuous
100
AcDbCircle
 10
250.602946
 20
219.3242129999999
 30
0.0
 40
1.984499999999996
100
AcDbArc
 50
189.99701
 51
215.22025
  0
ARC
  5
A64C
330
A586
100
AcDbEntity
  8
1
  6
Continuous
100
AcDbCircle
 10
274.3790849999999
 20
193.927472
 30
0.0
 40
30.026139
100
AcDbArc
 50
149.5106899999998
 51
209.416028
  0
ARC
  5
A64D
330
A586
100
AcDbEntity
  8
1
  6
Continuous
100
AcDbCircle
 10
252.326808
 20
193.927472
 30
0.0
 40
30.026139
100
AcDbArc
 50
330.583972
 51
30.48931
  0
LINE
  5
A64E
330
A586
100
AcDbEntity
  8
1
  6
Continuous
100
AcDbLine
 10
250.228293
 20
210.1473069999999
 30
0.0
 11
276.4775999999999
 21
210.1473069999999
 31
0.0
  0
ARC
  5
A64F
330
A586
100
AcDbEntity
  8
1
  6
Continuous
100
AcDbCircle
 10
247.3529459999999
 20
178.6890629999998
 30
0.0
 40
1.0
100
AcDbArc
 50
0.0
 51
29.416028
  0
ARC
  5
A650
330
A586
100
AcDbEntity
  8
1
  6
Continuous
100
AcDbCircle
 10
279.3529459999999
 20
178.6890629999998
 30
0.0
 40
1.0
100
AcDbArc
 50
150.583972
 51
180.0
  0
ARC
  5
A651
330
A586
100
AcDbEntity
  8
1
  6
Continuous
100
AcDbCircle
 10
252.326808
 20
193.927472
 30
0.0
 40
28.026139
100
AcDbArc
 50
330.583972
 51
35.361938
  0
ARC
  5
A652
330
A586
100
AcDbEntity
  8
1
  6
Continuous
100
AcDbCircle
 10
274.3790849999999
 20
193.927472
 30
0.0
 40
28.026139
100
AcDbArc
 50
144.638062
 51
209.416028
  0
ARC
  5
A653
330
A586
100
AcDbEntity
  8
1
  6
Continuous
100
AcDbCircle
 10
276.4775999999999
 20
208.147307
 30
0.0
 40
2.0
100
AcDbArc
 50
30.48931
 51
90.0
  0
ARC
  5
A654
330
A586
100
AcDbEntity
  8
1
  6
Continuous
100
AcDbCircle
 10
250.228293
 20
208.147307
 30
0.0
 40
2.0
100
AcDbArc
 50
90.0
 51
149.5106899999998
  0
ARC
  5
A655
330
A586
100
AcDbEntity
  8
1
  6
Continuous
100
AcDbCircle
 10
279.3529459999999
 20
178.6890629999998
 30
0.0
 40
3.0
100
AcDbArc
 50
150.583972
 51
180.0
  0
ARC
  5
A656
330
A586
100
AcDbEntity
  8
1
  6
Continuous
100
AcDbCircle
 10
247.3529459999999
 20
178.6890629999998
 30
0.0
 40
3.0
100
AcDbArc
 50
0.0
 51
29.416028
  0
LINE
  5
A659
330
A586
100
AcDbEntity
  8
1
  6
Continuous
100
AcDbLine
 10
144.9397559999999
 20
317.2797109999998
 30
0.0
 11
116.1115439999999
 21
317.2797109999998
 31
0.0
  0
LINE
  5
A65A
330
A586
100
AcDbEntity
  8
1
  6
Continuous
100
AcDbLine
 10
144.9397559999999
 20
338.2797109999998
 30
0.0
 11
116.1115439999999
 21
338.2797109999998
 31
0.0
  0
LINE
  5
A65B
330
A586
100
AcDbEntity
  8
1
  6
Continuous
100
AcDbLine
 10
143.1529459999999
 20
342.7797109999999
 30
0.0
 11
144.924744
 21
342.7797109999999
 31
0.0
  0
ARC
  5
A65C
330
A586
100
AcDbEntity
  8
1
  6
Continuous
100
AcDbCircle
 10
141.1029459999998
 20
316.7797109999999
 30
0.0
 40
1.0
100
AcDbArc
 50
179.9999629999998
 51
210.0
  0
LINE
  5
A65D
330
A586
100
AcDbEntity
  8
1
  6
Continuous
100
AcDbLine
 10
140.1029459999998
 20
317.2797109999998
 30
0.0
 11
140.1029459999998
 21
316.7797109999999
 31
0.0
  0
ARC
  5
A65E
330
A586
100
AcDbEntity
  8
1
  6
Continuous
100
AcDbCircle
 10
163.352946
 20
327.7797109999998
 30
0.0
 40
50.0
100
AcDbArc
 50
169.8000099999999
 51
190.2018119999999
  0
ARC
  5
A65F
330
A586
100
AcDbEntity
  8
1
  6
Continuous
100
AcDbCircle
 10
116.1115439999999
 20
336.2797109999998
 30
0.0
 40
2.0
100
AcDbArc
 50
89.99997999999996
 51
169.80008
  0
ARC
  5
A660
330
A586
100
AcDbEntity
  8
1
  6
Continuous
100
AcDbCircle
 10
116.1115439999999
 20
319.2797109999998
 30
0.0
 40
2.0
100
AcDbArc
 50
190.199847
 51
269.999945
  0
LINE
  5
A661
330
A586
100
AcDbEntity
  8
1
  6
Continuous
100
AcDbLine
 10
143.1529459999999
 20
312.7797109999999
 30
0.0
 11
144.9247469999999
 21
312.7797109999999
 31
0.0
  0
LINE
  5
A663
330
A586
100
AcDbEntity
  8
1
  6
Continuous
100
AcDbLine
 10
147.5549609999999
 20
51.281292
 30
0.0
 11
154.1549589999999
 21
51.28796799999999
 31
0.0
  0
LINE
  5
A664
330
A586
100
AcDbEntity
  8
1
  6
Continuous
100
AcDbLine
 10
160.602946
 20
80.77971099999997
 30
0.0
 11
141.995508
 21
80.77971099999997
 31
0.0
  0
LINE
  5
A665
330
A586
100
AcDbEntity
  8
1
  6
Continuous
100
AcDbLine
 10
185.594348
 20
79.27971099999997
 30
0.0
 11
116.1115439999999
 21
79.27971099999997
 31
0.0
  0
LINE
  5
A666
330
A586
100
AcDbEntity
  8
1
  6
Continuous
100
AcDbLine
 10
185.594348
 20
58.279711
 30
0.0
 11
116.1115439999999
 21
58.279711
 31
0.0
  0
LINE
  5
A667
330
A586
100
AcDbEntity
  8
1
  6
Continuous
100
AcDbLine
 10
143.2499699999999
 20
81.77971099999998
 30
0.0
 11
166.8914649999998
 21
81.77971099999998
 31
0.0
  0
LINE
  5
A668
330
A586
100
AcDbEntity
  8
1
  6
Continuous
100
AcDbLine
 10
128.7465819999999
 20
83.77971099999998
 30
0.0
 11
179.852946
 21
83.77971099999998
 31
0.0
  0
LINE
  5
A669
330
A586
100
AcDbEntity
  8
1
  6
Continuous
100
AcDbLine
 10
143.2499699999999
 20
53.77971099999999
 30
0.0
 11
166.852946
 21
53.77971099999999
 31
0.0
  0
LINE
  5
A66A
330
A586
100
AcDbEntity
  8
1
  6
Continuous
100
AcDbLine
 10
144.461466
 20
55.779711
 30
0.0
 11
158.9132999999999
 21
55.779711
 31
0.0
  0
ARC
  5
A66B
330
A586
100
AcDbEntity
  8
1
  6
Continuous
100
AcDbCircle
 10
147.5529469999998
 20
53.28130699999999
 30
0.0
 40
2.0
100
AcDbArc
 50
180.0000179999999
 51
270.05792
  0
ARC
  5
A66C
330
A586
100
AcDbEntity
  8
1
  6
Continuous
100
AcDbCircle
 10
163.352946
 20
68.77971099999999
 30
0.0
 40
50.0
100
AcDbArc
 50
169.7981879999999
 51
190.1999899999999
  0
ARC
  5
A66D
330
A586
100
AcDbEntity
  8
1
  6
Continuous
100
AcDbCircle
 10
116.1115439999999
 20
60.279711
 30
0.0
 40
2.0
100
AcDbArc
 50
190.1999199999999
 51
270.00002
  0
ARC
  5
A66E
330
A586
100
AcDbEntity
  8
1
  6
Continuous
100
AcDbCircle
 10
116.1115439999999
 20
77.27971099999997
 30
0.0
 40
2.0
100
AcDbArc
 50
90.00005499999994
 51
169.8001529999999
  0
LINE
  5
A66F
330
A586
100
AcDbEntity
  8
1
  6
Continuous
100
AcDbLine
 10
147.602946
 20
80.77971099999997
 30
0.0
 11
147.602946
 21
81.77971099999998
 31
0.0
  0
LINE
  5
A670
330
A586
100
AcDbEntity
  8
1
  6
Continuous
100
AcDbLine
 10
145.5529469999999
 20
53.77927800000001
 30
0.0
 11
145.5529469999999
 21
53.28130699999999
 31
0.0
  0
LINE
  5
A671
330
A586
100
AcDbEntity
  8
1
  6
Continuous
100
AcDbLine
 10
140.1029459999998
 20
79.27971099999997
 30
0.0
 11
140.1029459999998
 21
79.77971099999997
 31
0.0
  0
ARC
  5
A672
330
A586
100
AcDbEntity
  8
1
  6
Continuous
100
AcDbCircle
 10
141.1029459999998
 20
79.77971099999997
 30
0.0
 40
1.0
100
AcDbArc
 50
150.0
 51
180.000037
  0
ARC
  5
A673
330
A586
100
AcDbEntity
  8
1
  6
Continuous
100
AcDbCircle
 10
154.1529449999998
 20
53.287975
 30
0.0
 40
2.0
100
AcDbArc
 50
270.05792
 51
359.9999799999998
  0
LINE
  5
A674
330
A586
100
AcDbEntity
  8
1
  6
Continuous
100
AcDbLine
 10
161.602946
 20
79.27971099999997
 30
0.0
 11
161.602946
 21
79.77971099999997
 31
0.0
  0
ARC
  5
A675
330
A586
100
AcDbEntity
  8
1
  6
Continuous
100
AcDbCircle
 10
160.602946
 20
79.77971099999997
 30
0.0
 40
1.0
100
AcDbArc
 50
359.9999599999999
 51
89.99995000000001
  0
LINE
  5
A676
330
A586
100
AcDbEntity
  8
1
  6
Continuous
100
AcDbLine
 10
154.102946
 20
80.77971099999997
 30
0.0
 11
154.102946
 21
81.77971099999998
 31
0.0
  0
LINE
  5
A677
330
A586
100
AcDbEntity
  8
1
  6
Continuous
100
AcDbLine
 10
156.152949
 20
53.790005
 30
0.0
 11
156.152949
 21
53.287975
 31
0.0
  0
ARC
  5
A678
330
A586
100
AcDbEntity
  8
1
  6
Continuous
100
AcDbCircle
 10
138.352946
 20
68.77971099999999
 30
0.0
 40
50.0
100
AcDbArc
 50
349.80001
 51
10.201812
  0
ARC
  5
A679
330
A586
100
AcDbEntity
  8
1
  6
Continuous
100
AcDbCircle
 10
185.594348
 20
60.279711
 30
0.0
 40
2.0
100
AcDbArc
 50
269.99998
 51
349.8000699999999
  0
ARC
  5
A67A
330
A586
100
AcDbEntity
  8
1
  6
Continuous
100
AcDbCircle
 10
185.594348
 20
77.27971099999997
 30
0.0
 40
2.0
100
AcDbArc
 50
10.19984999999999
 51
89.99995000000001
  0
ARC
  5
A67B
330
A586
100
AcDbEntity
  8
1
  6
Continuous
100
AcDbCircle
 10
179.852946
 20
68.77971099999999
 30
0.0
 40
19.0
100
AcDbArc
 50
235.6988470000001
 51
69.384495
  0
ARC
  5
A67C
330
A586
100
AcDbEntity
  8
1
  6
Continuous
100
AcDbCircle
 10
179.852946
 20
68.77971099999999
 30
0.0
 40
17.0
100
AcDbArc
 50
235.6988470000001
 51
72.775064
  0
LINE
  5
A67D
330
A586
100
AcDbEntity
  8
1
  6
Continuous
100
AcDbLine
 10
143.2499699999999
 20
83.77971099999998
 30
0.0
 11
143.2499699999999
 21
81.77971099999998
 31
0.0
  0
LINE
  5
A67E
330
A586
100
AcDbEntity
  8
1
  6
Continuous
100
AcDbLine
 10
143.2499699999999
 20
55.779711
 30
0.0
 11
143.2499699999999
 21
53.77971099999999
 31
0.0
  0
ARC
  5
A67F
330
A586
100
AcDbEntity
  8
1
  6
Continuous
100
AcDbCircle
 10
166.8914649999998
 20
87.779711
 30
0.0
 40
6.0
100
AcDbArc
 50
270.0
 51
288.889327
  0
ARC
  5
A680
330
A586
100
AcDbEntity
  8
1
  6
Continuous
100
AcDbCircle
 10
166.8914649999998
 20
49.779711
 30
0.0
 40
4.0
100
AcDbArc
 50
55.69884700000001
 51
90.0
  0
ARC
  5
A681
330
A586
100
AcDbEntity
  8
1
  6
Continuous
100
AcDbCircle
 10
166.8914649999998
 20
49.779711
 30
0.0
 40
6.0
100
AcDbArc
 50
55.69884700000001
 51
90.0
  0
ARC
  5
A682
330
A586
100
AcDbEntity
  8
1
  6
Continuous
100
AcDbCircle
 10
179.852946
 20
68.77971099999999
 30
0.0
 40
13.0
100
AcDbArc
 50
233.8710729999998
 51
126.128927
  0
ARC
  5
A683
330
A586
100
AcDbEntity
  8
1
  6
Continuous
100
AcDbCircle
 10
179.852946
 20
68.77971099999999
 30
0.0
 40
10.0
100
AcDbArc
 50
324.7425259999999
 51
35.257474
  0
LINE
  5
A684
330
A586
100
AcDbEntity
  8
4
  6
CENTER
100
AcDbLine
 10
150.852946
 20
350.2777940371918
 30
0.0
 11
150.852946
 21
296.0797109999998
 31
0.0
  0
LINE
  5
A685
330
A586
100
AcDbEntity
  8
1
  6
Continuous
100
AcDbLine
 10
148.7606149999997
 20
312.7797109999999
 30
0.0
 11
154.945278
 21
312.7797109999999
 31
0.0
  0
LINE
  5
A686
330
A586
100
AcDbEntity
  8
1
  6
Continuous
100
AcDbLine
 10
145.440561
 20
315.7797109999999
 30
0.0
 11
141.995508
 21
315.7797109999999
 31
0.0
  0
LINE
  5
A687
330
A586
100
AcDbEntity
  8
1
  6
Continuous
100
AcDbLine
 10
143.1529459999999
 20
342.6052349999999
 30
0.0
 11
143.1529459999999
 21
342.7797109999999
 31
0.0
  0
ARC
  5
A688
330
A586
100
AcDbEntity
  8
1
  6
Continuous
100
AcDbCircle
 10
178.885863
 20
68.77971099999999
 30
0.0
 40
35.53291699999999
100
AcDbArc
 50
158.539609
 51
160.262278
  0
ARC
  5
A689
330
A586
100
AcDbEntity
  8
1
  6
Continuous
100
AcDbCircle
 10
361.8529459999999
 20
169.7797109999999
 30
0.0
 40
37.5
100
AcDbArc
 50
140.2972199999997
 51
83.60034899999998
  0
ARC
  5
A68A
330
A586
100
AcDbEntity
  8
1
  6
Continuous
100
AcDbCircle
 10
361.8529459999999
 20
169.7797109999999
 30
0.0
 40
27.700001
100
AcDbArc
 50
144.884102
 51
79.38599
  0
LINE
  5
A68B
330
A586
100
AcDbEntity
  8
4
  6
CENTER
100
AcDbLine
 10
361.8529459999999
 20
207.831686
 30
0.0
 11
361.8529459999999
 21
127.279711
 31
0.0
  0
LINE
  5
A68C
330
A586
100
AcDbEntity
  8
4
  6
CENTER
100
AcDbLine
 10
404.352946
 20
169.7797109999999
 30
0.0
 11
319.3529459999998
 21
169.7797109999999
 31
0.0
  0
LINE
  5
A68D
330
A586
100
AcDbEntity
  8
1
  6
Continuous
100
AcDbLine
 10
356.1164309999999
 20
163.796286
 30
0.0
 11
323.000339
 21
206.688705
 31
0.0
  0
LINE
  5
A68E
330
A586
100
AcDbEntity
  8
1
  6
Continuous
100
AcDbLine
 10
348.8529459999999
 20
218.17971
 30
0.0
 11
316.8529459999998
 21
218.17971
 31
0.0
  0
LINE
  5
A68F
330
A586
100
AcDbEntity
  8
1
  6
Continuous
100
AcDbLine
 10
365.6843519999998
 20
210.839493
 30
0.0
 11
369.5215059999999
 21
169.065737
 31
0.0
  0
LINE
  5
A690
330
A586
100
AcDbEntity
  8
1
  6
Continuous
100
AcDbLine
 10
345.8529459999998
 20
215.279736
 30
0.0
 11
345.8529459999998
 21
180.212679
 31
0.0
  0
LINE
  5
A691
330
A586
100
AcDbEntity
  8
4
  6
CENTER
100
AcDbLine
 10
332.8529459999998
 20
267.2797109999998
 30
0.0
 11
332.8529459999998
 21
187.4330389999999
 31
0.0
  0
ARC
  5
A692
330
A586
100
AcDbEntity
  8
1
  6
Continuous
100
AcDbCircle
 10
361.8529459999999
 20
169.7797109999999
 30
0.0
 40
18.200001
100
AcDbArc
 50
154.4400829999998
 51
70.66624
  0
ARC
  5
A693
330
A586
100
AcDbEntity
  8
1
  6
Continuous
100
AcDbCircle
 10
362.052947
 20
168.3797089999998
 30
0.0
 40
7.5
100
AcDbArc
 50
217.6707799999999
 51
5.248219999999998
  0
LINE
  5
A694
330
A586
100
AcDbEntity
  8
1
  6
Continuous
100
AcDbLine
 10
369.3529469999999
 20
212.22346
 30
0.0
 11
349.040089
 21
215.8051649999999
 31
0.0
  0
LINE
  5
A695
330
A586
100
AcDbEntity
  8
1
  6
Continuous
100
AcDbLine
 10
366.031646
 20
212.809095
 30
0.0
 11
365.6843489999998
 21
210.8394799999999
 31
0.0
  0
LINE
  5
A696
330
A586
100
AcDbEntity
  8
1
  6
Continuous
100
AcDbLine
 10
369.3529459999999
 20
212.2234579999999
 30
0.0
 11
369.0056489999999
 21
210.253841
 31
0.0
  0
LINE
  5
A697
330
A586
100
AcDbEntity
  8
1
  6
Continuous
100
AcDbLine
 10
369.0056549999998
 20
210.253844
 30
0.0
 11
365.6843509999998
 21
210.8394799999999
 31
0.0
  0
ARC
  5
A698
330
A586
100
AcDbEntity
  8
1
  6
Continuous
100
AcDbCircle
 10
348.8529459999999
 20
215.17971
 30
0.0
 40
3.0
100
AcDbArc
 50
2.482993
 51
90.0
  0
ARC
  5
A699
330
A586
100
AcDbEntity
  8
1
  6
Continuous
100
AcDbCircle
 10
345.6029459999998
 20
219.3242129999999
 30
0.0
 40
1.984499999999996
100
AcDbArc
 50
324.77977
 51
350.0029399999998
  0
ARC
  5
A69A
330
A586
100
AcDbEntity
  8
1
  6
Continuous
100
AcDbCircle
 10
344.9535319999998
 20
219.3242129999999
 30
0.0
 40
1.984499999999996
100
AcDbArc
 50
324.77977
 51
350.00293
  0
ARC
  5
A69B
330
A586
100
AcDbEntity
  8
1
  6
Continuous
100
AcDbCircle
 10
343.1319299999997
 20
219.3242129999999
 30
0.0
 40
1.984499999999996
100
AcDbArc
 50
324.77977
 51
350.0029399999998
  0
ARC
  5
A69C
330
A586
100
AcDbEntity
  8
1
  6
Continuous
100
AcDbCircle
 10
340.3142649999998
 20
219.3242129999999
 30
0.0
 40
1.984499999999996
100
AcDbArc
 50
324.77977
 51
350.0029399999998
  0
ARC
  5
A69D
330
A586
100
AcDbEntity
  8
1
  6
Continuous
100
AcDbCircle
 10
332.8529459999998
 20
219.3242129999999
 30
0.0
 40
1.984499999999996
100
AcDbArc
 50
324.77977
 51
350.0029399999998
  0
ARC
  5
A69E
330
A586
100
AcDbEntity
  8
1
  6
Continuous
100
AcDbCircle
 10
336.77357
 20
219.3242129999999
 30
0.0
 40
1.984499999999996
100
AcDbArc
 50
324.77977
 51
350.0029599999999
  0
ARC
  5
A69F
330
A586
100
AcDbEntity
  8
1
  6
Continuous
100
AcDbCircle
 10
332.8529459999998
 20
219.3242129999999
 30
0.0
 40
1.984499999999996
100
AcDbArc
 50
189.99701
 51
215.22025
  0
ARC
  5
A6A0
330
A586
100
AcDbEntity
  8
1
  6
Continuous
100
AcDbCircle
 10
328.9323219999999
 20
219.3242129999999
 30
0.0
 40
1.984499999999996
100
AcDbArc
 50
324.77977
 51
350.00301
  0
ARC
  5
A6A1
330
A586
100
AcDbEntity
  8
1
  6
Continuous
100
AcDbCircle
 10
340.3142649999998
 20
219.3242129999999
 30
0.0
 40
1.984499999999996
100
AcDbArc
 50
206.8632199999999
 51
215.22025
  0
ARC
  5
A6A2
330
A586
100
AcDbEntity
  8
1
  6
Continuous
100
AcDbCircle
 10
336.77357
 20
219.3242129999999
 30
0.0
 40
1.984499999999996
100
AcDbArc
 50
189.99695
 51
215.22025
  0
LINE
  5
A6A3
330
A586
100
AcDbEntity
  8
1
  6
Continuous
100
AcDbLine
 10
317.5298139999998
 20
209.7501199999999
 30
0.0
 11
313.8529459999998
 21
210.1473069999999
 31
0.0
  0
ARC
  5
A6A4
330
A586
100
AcDbEntity
  8
1
  6
Continuous
100
AcDbCircle
 10
316.6706259999999
 20
201.796391
 30
0.0
 40
8.0
100
AcDbArc
 50
37.67077
 51
83.83463799999999
  0
LINE
  5
A6A5
330
A586
100
AcDbEntity
  8
1
  6
Continuous
100
AcDbLine
 10
313.8529459999998
 20
215.17971
 30
0.0
 11
313.8529459999998
 21
210.1473069999999
 31
0.0
  0
ARC
  5
A6A6
330
A586
100
AcDbEntity
  8
1
  6
Continuous
100
AcDbCircle
 10
316.8529459999998
 20
215.17971
 30
0.0
 40
3.0
100
AcDbArc
 50
90.0
 51
180.0
  0
ARC
  5
A6A7
330
A586
100
AcDbEntity
  8
1
  6
Continuous
100
AcDbCircle
 10
325.391627
 20
219.3242129999999
 30
0.0
 40
1.984499999999996
100
AcDbArc
 50
189.99701
 51
215.22025
  0
ARC
  5
A6A8
330
A586
100
AcDbEntity
  8
1
  6
Continuous
100
AcDbCircle
 10
328.9323219999999
 20
219.3242129999999
 30
0.0
 40
1.984499999999996
100
AcDbArc
 50
189.99701
 51
215.22025
  0
ARC
  5
A6A9
330
A586
100
AcDbEntity
  8
1
  6
Continuous
100
AcDbCircle
 10
320.1029459999998
 20
219.3242129999999
 30
0.0
 40
1.984499999999996
100
AcDbArc
 50
189.99701
 51
215.2203199999999
  0
ARC
  5
A6AA
330
A586
100
AcDbEntity
  8
1
  6
Continuous
100
AcDbCircle
 10
320.75236
 20
219.3242129999999
 30
0.0
 40
1.984499999999996
100
AcDbArc
 50
189.99701
 51
215.22025
  0
ARC
  5
A6AB
330
A586
100
AcDbEntity
  8
1
  6
Continuous
100
AcDbCircle
 10
322.573962
 20
219.3242129999999
 30
0.0
 40
1.984499999999996
100
AcDbArc
 50
189.99701
 51
215.22025
  0
ARC
  5
A6AC
330
A586
100
AcDbEntity
  8
1
  6
Continuous
100
AcDbCircle
 10
325.391627
 20
219.3242129999999
 30
0.0
 40
1.984499999999996
100
AcDbArc
 50
324.77977
 51
333.13675
  0
LINE
  5
A6AD
330
A586
100
AcDbEntity
  8
1
  6
Continuous
100
AcDbLine
 10
237.6529459999999
 20
172.779711
 30
0.0
 11
238.6529459999999
 21
172.779711
 31
0.0
  0
LINE
  5
A6AE
330
A586
100
AcDbEntity
  8
1
  6
Continuous
100
AcDbLine
 10
236.6529459999999
 20
171.779711
 30
0.0
 11
236.6529459999999
 21
167.779711
 31
0.0
  0
LINE
  5
A6AF
330
A586
100
AcDbEntity
  8
2
  6
Continuous
100
AcDbLine
 10
237.111446
 20
172.238211
 30
0.0
 11
238.6529459999999
 21
172.238211
 31
0.0
  0
LINE
  5
A6B0
330
A586
100
AcDbEntity
  8
2
  6
Continuous
100
AcDbLine
 10
237.111446
 20
167.321211
 30
0.0
 11
237.281631
 21
167.321211
 31
0.0
  0
LINE
  5
A6B1
330
A586
100
AcDbEntity
  8
1
  6
Continuous
100
AcDbLine
 10
237.6529459999999
 20
172.779711
 30
0.0
 11
237.6529459999999
 21
167.5475329999999
 31
0.0
  0
LINE
  5
A6B2
330
A586
100
AcDbEntity
  8
1
  6
Continuous
100
AcDbLine
 10
236.6529459999999
 20
171.779711
 30
0.0
 11
237.6529459999999
 21
172.779711
 31
0.0
  0
LINE
  5
A6B3
330
A586
100
AcDbEntity
  8
1
  6
Continuous
100
AcDbLine
 10
236.6529459999999
 20
167.779711
 30
0.0
 11
237.1758939999998
 21
167.2567629999998
 31
0.0
  0
LINE
  5
A6B4
330
A586
100
AcDbEntity
  8
1
  6
Continuous
100
AcDbLine
 10
76.55294599999997
 20
167.7797079999999
 30
0.0
 11
75.55294599999998
 21
166.7797079999999
 31
0.0
  0
LINE
  5
A6B5
330
A586
100
AcDbEntity
  8
1
  6
Continuous
100
AcDbLine
 10
76.55294599999997
 20
171.7797079999999
 30
0.0
 11
75.55294599999998
 21
172.779708
 31
0.0
  0
LINE
  5
A6B6
330
A586
100
AcDbEntity
  8
1
  6
Continuous
100
AcDbLine
 10
75.55294599999998
 20
172.779708
 30
0.0
 11
75.55294599999998
 21
166.7797079999999
 31
0.0
  0
LINE
  5
A6B7
330
A586
100
AcDbEntity
  8
1
  6
Continuous
100
AcDbLine
 10
76.55294599999997
 20
171.7797079999999
 30
0.0
 11
76.55294599999997
 21
167.7797079999999
 31
0.0
  0
LINE
  5
A6B8
330
A586
100
AcDbEntity
  8
2
  6
Continuous
100
AcDbLine
 10
76.09444599999998
 20
167.321208
 30
0.0
 11
74.55294599999998
 21
167.321208
 31
0.0
  0
LINE
  5
A6B9
330
A586
100
AcDbEntity
  8
1
  6
Continuous
100
AcDbLine
 10
75.55294599999998
 20
166.7797079999999
 30
0.0
 11
74.55294599999998
 21
166.7797079999999
 31
0.0
  0
LINE
  5
A6BA
330
A586
100
AcDbEntity
  8
2
  6
Continuous
100
AcDbLine
 10
76.09444599999998
 20
172.2382079999999
 30
0.0
 11
74.55294599999998
 21
172.2382079999999
 31
0.0
  0
LINE
  5
A6BB
330
A586
100
AcDbEntity
  8
1
  6
Continuous
100
AcDbLine
 10
75.55294599999998
 20
172.779708
 30
0.0
 11
74.55294599999998
 21
172.779708
 31
0.0
  0
LINE
  5
A6BC
330
A586
100
AcDbEntity
  8
1
  6
Continuous
100
AcDbLine
 10
148.3529459999997
 20
93.480129
 30
0.0
 11
153.352946
 21
93.480129
 31
0.0
  0
LINE
  5
A6BD
330
A586
100
AcDbEntity
  8
1
  6
Continuous
100
AcDbLine
 10
148.852946
 20
95.47971099999999
 30
0.0
 11
152.852946
 21
95.47971099999999
 31
0.0
  0
LINE
  5
A6BE
330
A586
100
AcDbEntity
  8
1
  6
Continuous
100
AcDbLine
 10
147.852946
 20
94.479711
 30
0.0
 11
153.852946
 21
94.479711
 31
0.0
  0
ARC
  5
A6BF
330
A586
100
AcDbEntity
  8
1
  6
Continuous
100
AcDbCircle
 10
153.352946
 20
83.239417
 30
0.0
 40
6.613208
100
AcDbArc
 50
65.975049
 51
112.211795
  0
ARC
  5
A6C0
330
A586
100
AcDbEntity
  8
1
  6
Continuous
100
AcDbCircle
 10
153.352946
 20
86.866921
 30
0.0
 40
6.613208
100
AcDbArc
 50
67.78820500000001
 51
112.211795
  0
ARC
  5
A6C1
330
A586
100
AcDbEntity
  8
1
  6
Continuous
100
AcDbCircle
 10
148.3529459999997
 20
83.239417
 30
0.0
 40
6.613208
100
AcDbArc
 50
67.78820500000001
 51
114.024951
  0
ARC
  5
A6C2
330
A586
100
AcDbEntity
  8
1
  6
Continuous
100
AcDbCircle
 10
148.3529459999997
 20
86.866921
 30
0.0
 40
6.613208
100
AcDbArc
 50
67.78820500000001
 51
112.211795
  0
LINE
  5
A6C3
330
A586
100
AcDbEntity
  8
1
  6
Continuous
100
AcDbLine
 10
148.852946
 20
95.47971099999999
 30
0.0
 11
147.852946
 21
94.479711
 31
0.0
  0
LINE
  5
A6C4
330
A586
100
AcDbEntity
  8
1
  6
Continuous
100
AcDbLine
 10
147.852946
 20
94.479711
 30
0.0
 11
147.852946
 21
93.479711
 31
0.0
  0
LINE
  5
A6C5
330
A586
100
AcDbEntity
  8
2
  6
Continuous
100
AcDbLine
 10
148.3944459999999
 20
95.021211
 30
0.0
 11
148.3944459999999
 21
93.479711
 31
0.0
  0
LINE
  5
A6C6
330
A586
100
AcDbEntity
  8
1
  6
Continuous
100
AcDbLine
 10
150.852946
 20
92.98938099999999
 30
0.0
 11
150.852946
 21
89.27971099999997
 31
0.0
  0
LINE
  5
A6C7
330
A586
100
AcDbEntity
  8
1
  6
Continuous
100
AcDbLine
 10
145.852946
 20
89.36187700000003
 30
0.0
 11
145.852946
 21
92.98938099999999
 31
0.0
  0
LINE
  5
A6C8
330
A586
100
AcDbEntity
  8
1
  6
Continuous
100
AcDbLine
 10
155.852946
 20
89.36187700000003
 30
0.0
 11
155.852946
 21
92.98938099999999
 31
0.0
  0
LINE
  5
A6C9
330
A586
100
AcDbEntity
  8
1
  6
Continuous
100
AcDbLine
 10
152.852946
 20
95.47971099999999
 30
0.0
 11
153.852946
 21
94.479711
 31
0.0
  0
LINE
  5
A6CA
330
A586
100
AcDbEntity
  8
1
  6
Continuous
100
AcDbLine
 10
153.852946
 20
94.479711
 30
0.0
 11
153.852946
 21
93.479711
 31
0.0
  0
LINE
  5
A6CB
330
A586
100
AcDbEntity
  8
2
  6
Continuous
100
AcDbLine
 10
153.311446
 20
95.021211
 30
0.0
 11
153.311446
 21
93.479711
 31
0.0
  0
LINE
  5
A6CC
330
A586
100
AcDbEntity
  8
5
  6
PHANTOM
100
AcDbLine
 10
166.888827
 20
177.872333
 30
0.0
 11
169.032852
 21
175.773962
 31
0.0
  0
LINE
  5
A6CD
330
A586
100
AcDbEntity
  8
5
  6
PHANTOM
100
AcDbLine
 10
166.888827
 20
177.872333
 30
0.0
 11
169.7982939999999
 21
180.8451009999997
 31
0.0
  0
LINE
  5
A6CE
330
A586
100
AcDbEntity
  8
5
  6
PHANTOM
100
AcDbLine
 10
173.763701
 20
181.914645
 30
0.0
 11
174.417002
 21
181.2752549999999
 31
0.0
  0
LINE
  5
A6CF
330
A586
100
AcDbEntity
  8
5
  6
PHANTOM
100
AcDbLine
 10
131.986895
 20
167.331397
 30
0.0
 11
135.848885
 21
168.373048
 31
0.0
  0
LINE
  5
A6D0
330
A586
100
AcDbEntity
  8
5
  6
PHANTOM
100
AcDbLine
 10
135.848885
 20
168.373048
 30
0.0
 11
135.014845
 21
171.465306
 31
0.0
  0
LINE
  5
A6D1
330
A586
100
AcDbEntity
  8
5
  6
PHANTOM
100
AcDbLine
 10
131.986895
 20
167.331397
 30
0.0
 11
131.153347
 21
170.4218339999999
 31
0.0
  0
LINE
  5
A6D2
330
A586
100
AcDbEntity
  8
5
  6
PHANTOM
100
AcDbLine
 10
110.697595
 20
166.976006
 30
0.0
 11
134.3069779999999
 21
173.343898
 31
0.0
  0
LINE
  5
A6D3
330
A586
100
AcDbEntity
  8
5
  6
PHANTOM
100
AcDbLine
 10
111.2184209999999
 20
165.0450109999999
 30
0.0
 11
134.8278029999999
 21
171.412903
 31
0.0
  0
LINE
  5
A6D4
330
A586
100
AcDbEntity
  8
5
  6
PHANTOM
100
AcDbLine
 10
111.218419
 20
165.045025
 30
0.0
 11
110.697595
 21
166.9760199999998
 31
0.0
  0
LINE
  5
A6D5
330
A586
100
AcDbEntity
  8
5
  6
PHANTOM
100
AcDbLine
 10
163.3625199999999
 20
181.180723
 30
0.0
 11
186.971883
 21
187.5486109999999
 31
0.0
  0
LINE
  5
A6D6
330
A586
100
AcDbEntity
  8
5
  6
PHANTOM
100
AcDbLine
 10
163.8833449999999
 20
179.249728
 30
0.0
 11
187.4927089999999
 21
185.617616
 31
0.0
  0
ARC
  5
A6D7
330
A586
100
AcDbEntity
  8
5
  6
PHANTOM
100
AcDbCircle
 10
148.514237
 20
178.4506309999999
 30
0.0
 40
21.730781
100
AcDbArc
 50
239.592632
 51
330.596476
  0
ARC
  5
A6D8
330
A586
100
AcDbEntity
  8
5
  6
PHANTOM
100
AcDbCircle
 10
163.0465209999998
 20
182.6700889999999
 30
0.0
 40
15.524686
100
AcDbArc
 50
286.4613849999999
 51
346.498694
  0
ARC
  5
A6D9
330
A586
100
AcDbEntity
  8
5
  6
PHANTOM
100
AcDbCircle
 10
185.434911
 20
177.2945719999999
 30
0.0
 40
7.5
100
AcDbArc
 50
105.0945539999997
 51
166.498694
  0
LINE
  5
A6DA
330
A586
100
AcDbEntity
  8
5
  6
PHANTOM
100
AcDbLine
 10
187.492717
 20
185.617634
 30
0.0
 11
186.971892
 21
187.5486289999997
 31
0.0
  0
ARC
  5
A6DB
330
A586
100
AcDbEntity
  8
5
  6
PHANTOM
100
AcDbCircle
 10
151.9964159999998
 20
165.5402249999999
 30
0.0
 40
15.14098699999999
100
AcDbArc
 50
68.331873
 51
141.857238
  0
ARC
  5
A6DC
330
A586
100
AcDbEntity
  8
5
  6
PHANTOM
100
AcDbCircle
 10
151.9964159999998
 20
165.5402249999999
 30
0.0
 40
17.140987
100
AcDbArc
 50
68.331873
 51
141.857238
  0
ARC
  5
A6DD
330
A586
100
AcDbEntity
  8
5
  6
PHANTOM
100
AcDbCircle
 10
161.2792179999999
 20
188.9047019999999
 30
0.0
 40
10.0
100
AcDbArc
 50
248.331873
 51
285.094554
  0
ARC
  5
A6DE
330
A586
100
AcDbEntity
  8
5
  6
PHANTOM
100
AcDbCircle
 10
132.223676
 20
181.067877
 30
0.0
 40
10.0
100
AcDbArc
 50
285.094552
 51
321.8572379999999
  0
ARC
  5
A6DF
330
A586
100
AcDbEntity
  8
5
  6
PHANTOM
100
AcDbCircle
 10
132.223676
 20
181.067877
 30
0.0
 40
8.0
100
AcDbArc
 50
285.094552
 51
321.8572379999999
  0
ARC
  5
A6E0
330
A586
100
AcDbEntity
  8
5
  6
PHANTOM
100
AcDbCircle
 10
161.2792179999999
 20
188.9047019999999
 30
0.0
 40
8.0
100
AcDbArc
 50
248.331873
 51
285.094554
  0
LINE
  5
A6E1
330
A586
100
AcDbEntity
  8
1
  6
Continuous
100
AcDbLine
 10
128.3002729999997
 20
312.7797109999999
 30
0.0
 11
137.534076
 21
312.7797109999999
 31
0.0
  0
LINE
  5
A6E2
330
A586
100
AcDbEntity
  8
1
  6
Continuous
100
AcDbLine
 10
163.4759479999999
 20
304.9677219999998
 30
0.0
 11
174.596149
 21
296.590227
 31
0.0
  0
ARC
  5
A6E3
330
A586
100
AcDbEntity
  8
1
  6
Continuous
100
AcDbCircle
 10
157.780292
 20
281.1974129999999
 30
0.0
 40
25.08635899999999
100
AcDbArc
 50
70.00588
 51
91.18625599999999
  0
LINE
  5
A6E4
330
A586
100
AcDbEntity
  8
1
  6
Continuous
100
AcDbLine
 10
66.852946
 20
185.837998
 30
0.0
 11
66.852946
 21
154.5560089999999
 31
0.0
  0
LINE
  5
A6E5
330
A586
100
AcDbEntity
  8
1
  6
Continuous
100
AcDbLine
 10
81.92187
 20
188.7960409999998
 30
0.0
 11
72.214915
 21
180.3135049999999
 31
0.0
  0
LINE
  5
A6E6
330
A586
100
AcDbEntity
  8
1
  6
Continuous
100
AcDbLine
 10
82.60141299999999
 20
161.406778
 30
0.0
 11
74.89232300000002
 21
166.7797079999999
 31
0.0
  0
LINE
  5
A6E7
330
A586
100
AcDbEntity
  8
1
  6
Continuous
100
AcDbLine
 10
82.79526099999998
 20
162.994543
 30
0.0
 11
76.29688799999998
 21
167.52365
 31
0.0
  0
ARC
  5
A6E8
330
A586
100
AcDbEntity
  8
1
  6
Continuous
100
AcDbCircle
 10
74.102946
 20
171.15315
 30
0.0
 40
16.481396
100
AcDbArc
 50
243.995644
 51
296.9256409999998
  0
LINE
  5
A6E9
330
A586
100
AcDbEntity
  8
1
  6
Continuous
100
AcDbLine
 10
66.83507099999999
 20
154.55668
 30
0.0
 11
64.852946
 21
154.55668
 31
0.0
  0
LINE
  5
A6EA
330
A586
100
AcDbEntity
  8
1
  6
Continuous
100
AcDbLine
 10
66.852946
 20
156.5235989999998
 30
0.0
 11
64.852946
 21
156.5235989999998
 31
0.0
  0
LINE
  5
A6EB
330
A586
100
AcDbEntity
  8
1
  6
Continuous
100
AcDbLine
 10
83.352946
 20
159.36976
 30
0.0
 11
83.352946
 21
161.09263
 31
0.0
  0
ARC
  5
A6EC
330
A586
100
AcDbEntity
  8
1
  6
Continuous
100
AcDbCircle
 10
80.087638
 20
161.0928439999999
 30
0.0
 40
3.265308999999998
100
AcDbArc
 50
359.9963159999999
 51
36.009782
  0
ARC
  5
A6ED
330
A586
100
AcDbEntity
  8
1
  6
Continuous
100
AcDbCircle
 10
80.087638
 20
159.36976
 30
0.0
 40
3.265308999999998
100
AcDbArc
 50
296.925655
 51
37.775239
  0
LINE
  5
A6EE
330
A586
100
AcDbEntity
  8
1
  6
Continuous
100
AcDbLine
 10
66.852946
 20
172.267561
 30
0.0
 11
64.852946
 21
172.267561
 31
0.0
  0
LINE
  5
A6EF
330
A586
100
AcDbEntity
  8
1
  6
Continuous
100
AcDbLine
 10
71.43660699999998
 20
179.9430059999999
 30
0.0
 11
66.87959599999999
 21
179.9430059999999
 31
0.0
  0
ARC
  5
A6F0
330
A586
100
AcDbEntity
  8
1
  6
Continuous
100
AcDbCircle
 10
117.7983389999997
 20
181.647596
 30
0.0
 40
46.34549299999998
100
AcDbArc
 50
182.0790639999999
 51
187.7726539999999
  0
ARC
  5
A6F1
330
A586
100
AcDbEntity
  8
1
  6
Continuous
100
AcDbCircle
 10
120.864425
 20
179.968122
 30
0.0
 40
49.439144
100
AcDbArc
 50
180.0123989999999
 51
185.3252489999999
  0
ARC
  5
A6F2
330
A586
100
AcDbEntity
  8
1
  6
Continuous
100
AcDbCircle
 10
71.227885
 20
181.443006
 30
0.0
 40
1.5
100
AcDbArc
 50
277.5908309999999
 51
311.148981
  0
ARC
  5
A6F3
330
A586
100
AcDbEntity
  8
1
  6
Continuous
100
AcDbCircle
 10
73.602946
 20
179.202955
 30
0.0
 40
15.590692
100
AcDbArc
 50
63.07463900000001
 51
116.925366
  0
ARC
  5
A6F4
330
A586
100
AcDbEntity
  8
1
  6
Continuous
100
AcDbCircle
 10
73.602946
 20
180.9259769999999
 30
0.0
 40
15.590692
100
AcDbArc
 50
63.07463900000001
 51
116.925366
  0
LINE
  5
A6F5
330
A586
100
AcDbEntity
  8
1
  6
Continuous
100
AcDbLine
 10
65.065402
 20
189.4516429999999
 30
0.0
 11
64.852946
 21
189.4516429999999
 31
0.0
  0
ARC
  5
A6F6
330
A586
100
AcDbEntity
  8
1
  6
Continuous
100
AcDbCircle
 10
67.94169899999999
 20
190.3496529999999
 30
0.0
 40
3.088754
100
AcDbArc
 50
116.925366
 51
227.8151009999998
  0
ARC
  5
A6F7
330
A586
100
AcDbEntity
  8
1
  6
Continuous
100
AcDbCircle
 10
67.94169899999999
 20
192.072645
 30
0.0
 40
3.088754
100
AcDbArc
 50
116.925366
 51
180.000005
  0
LINE
  5
A6F8
330
A586
100
AcDbEntity
  8
1
  6
Continuous
100
AcDbLine
 10
82.35294600000001
 20
190.3497749999999
 30
0.0
 11
82.35294600000001
 21
192.072645
 31
0.0
  0
ARC
  5
A6F9
330
A586
100
AcDbEntity
  8
1
  6
Continuous
100
AcDbCircle
 10
79.26419399999997
 20
190.3496529999999
 30
0.0
 40
3.088754
100
AcDbArc
 50
330.441192
 51
63.07463900000001
  0
ARC
  5
A6FA
330
A586
100
AcDbEntity
  8
1
  6
Continuous
100
AcDbCircle
 10
79.26419399999997
 20
192.072645
 30
0.0
 40
3.088754
100
AcDbArc
 50
359.999997
 51
63.07463900000001
  0
ARC
  5
A6FB
330
A586
100
AcDbEntity
  8
1
  6
Continuous
100
AcDbCircle
 10
128.300281
 20
302.101786
 30
0.0
 40
6.822074999999999
100
AcDbArc
 50
220.7444229999999
 51
313.504321
  0
ARC
  5
A6FC
330
A586
100
AcDbEntity
  8
1
  6
Continuous
100
AcDbCircle
 10
130.5381879999998
 20
304.0297109999999
 30
0.0
 40
9.775907
100
AcDbArc
 50
139.2555769999999
 51
220.7444329999999
  0
ARC
  5
A6FD
330
A586
100
AcDbEntity
  8
1
  6
Continuous
100
AcDbCircle
 10
129.5224409999997
 20
304.0297109999999
 30
0.0
 40
9.775907
100
AcDbArc
 50
139.2555769999999
 51
220.7444329999999
  0
LINE
  5
A6FE
330
A586
100
AcDbEntity
  8
1
  6
Continuous
100
AcDbLine
 10
127.2845339999999
 20
295.2797109999999
 30
0.0
 11
128.3002729999997
 21
295.2797109999999
 31
0.0
  0
ARC
  5
A6FF
330
A586
100
AcDbEntity
  8
1
  6
Continuous
100
AcDbCircle
 10
127.2845339999999
 20
302.101786
 30
0.0
 40
6.822074999999999
100
AcDbArc
 50
220.7444229999999
 51
269.9999969999999
  0
LINE
  5
A700
330
A586
100
AcDbEntity
  8
1
  6
Continuous
100
AcDbLine
 10
127.2845339999999
 20
312.7797109999999
 30
0.0
 11
128.3002729999997
 21
312.7797109999999
 31
0.0
  0
ARC
  5
A701
330
A586
100
AcDbEntity
  8
1
  6
Continuous
100
AcDbCircle
 10
128.300281
 20
305.9576359999998
 30
0.0
 40
6.822074999999999
100
AcDbArc
 50
90.00006399999998
 51
139.2555769999999
  0
ARC
  5
A702
330
A586
100
AcDbEntity
  8
1
  6
Continuous
100
AcDbCircle
 10
127.2845339999999
 20
305.9576359999998
 30
0.0
 40
6.822074999999999
100
AcDbArc
 50
90.00000300000001
 51
139.2555769999999
  0
LINE
  5
A703
330
A586
100
AcDbEntity
  8
1
  6
Continuous
100
AcDbLine
 10
132.9966609999999
 20
297.1535819999998
 30
0.0
 11
143.7115689999999
 21
304.333219
 31
0.0
  0
ARC
  5
A704
330
A586
100
AcDbEntity
  8
1
  6
Continuous
100
AcDbCircle
 10
159.093929
 20
234.636423
 30
0.0
 40
71.66503099999999
100
AcDbArc
 50
91.46818600000001
 51
101.211121
  0
LINE
  5
A705
330
A586
100
AcDbEntity
  8
1
  6
Continuous
100
AcDbLine
 10
145.952007
 20
307.7791839999998
 30
0.0
 11
145.952007
 21
310.014227
 31
0.0
  0
ARC
  5
A707
330
A586
100
AcDbEntity
  8
1
  6
Continuous
100
AcDbCircle
 10
157.770831
 20
293.2533359999998
 30
0.0
 40
13.033875
100
AcDbArc
 50
64.08327299999999
 51
91.053914
  0
LINE
  5
A708
330
A586
100
AcDbEntity
  8
1
  6
Continuous
100
AcDbLine
 10
138.549769
 20
316.2797109999999
 30
0.0
 11
141.995508
 21
316.2797109999999
 31
0.0
  0
LINE
  5
A709
330
A586
100
AcDbEntity
  8
1
  6
Continuous
100
AcDbLine
 10
137.534037
 20
316.2797109999999
 30
0.0
 11
141.995508
 21
316.2797109999999
 31
0.0
  0
LINE
  5
A70A
330
A586
100
AcDbEntity
  8
1
  6
Continuous
100
AcDbLine
 10
138.549776
 20
309.7797109999999
 30
0.0
 11
138.549776
 21
316.2797109999999
 31
0.0
  0
LINE
  5
A70B
330
A586
100
AcDbEntity
  8
1
  6
Continuous
100
AcDbLine
 10
141.995508
 20
309.7797109999999
 30
0.0
 11
141.995508
 21
316.2797109999999
 31
0.0
  0
LINE
  5
A70C
330
A586
100
AcDbEntity
  8
1
  6
Continuous
100
AcDbLine
 10
137.534037
 20
312.7797109999999
 30
0.0
 11
137.534037
 21
316.2797109999999
 31
0.0
  0
LINE
  5
A70D
330
A586
100
AcDbEntity
  8
1
  6
Continuous
100
AcDbLine
 10
166.357913
 20
304.771769
 30
0.0
 11
175.3844479999999
 21
296.78438
 31
0.0
  0
LINE
  5
A70E
330
A586
100
AcDbEntity
  8
1
  6
Continuous
100
AcDbLine
 10
179.832034
 20
294.2797109999998
 30
0.0
 11
180.8477659999999
 21
294.2797109999998
 31
0.0
  0
ARC
  5
A70F
330
A586
100
AcDbEntity
  8
1
  6
Continuous
100
AcDbCircle
 10
180.8477659999999
 20
301.490519
 30
0.0
 40
7.210811999999998
100
AcDbArc
 50
220.741787
 51
319.258212
  0
ARC
  5
A710
330
A586
100
AcDbEntity
  8
1
  6
Continuous
100
AcDbCircle
 10
179.832034
 20
301.490519
 30
0.0
 40
7.210811999999998
100
AcDbArc
 50
221.442414
 51
269.9999969999999
  0
LINE
  5
A711
330
A586
100
AcDbEntity
  8
1
  6
Continuous
100
AcDbLine
 10
231.3700209999999
 20
190.3328529999997
 30
0.0
 11
239.2821759999999
 21
182.9604469999999
 31
0.0
  0
ARC
  5
A712
330
A586
100
AcDbEntity
  8
1
  6
Continuous
100
AcDbCircle
 10
233.9417069999999
 20
190.3496529999999
 30
0.0
 40
3.088754
100
AcDbArc
 50
179.9999909999999
 51
243.07463
  0
LINE
  5
A713
330
A586
100
AcDbEntity
  8
1
  6
Continuous
100
AcDbLine
 10
240.1388589999999
 20
169.522634
 30
0.0
 11
247.032893
 21
169.522634
 31
0.0
  0
LINE
  5
A714
330
A586
100
AcDbEntity
  8
1
  6
Continuous
100
AcDbLine
 10
240.8491549999999
 20
183.05676
 30
0.0
 11
246.389862
 21
183.05676
 31
0.0
  0
ARC
  5
A715
330
A586
100
AcDbEntity
  8
1
  6
Continuous
100
AcDbCircle
 10
239.1029459999999
 20
171.153173
 30
0.0
 40
16.481396
100
AcDbArc
 50
243.07436
 51
296.925648
  0
ARC
  5
A716
330
A586
100
AcDbEntity
  8
1
  6
Continuous
100
AcDbCircle
 10
239.1029459999999
 20
172.8760349999998
 30
0.0
 40
16.481396
100
AcDbArc
 50
243.07436
 51
296.925648
  0
LINE
  5
A717
330
A586
100
AcDbEntity
  8
1
  6
Continuous
100
AcDbLine
 10
239.307981
 20
168.556299
 30
0.0
 11
232.51971
 21
164.418752
 31
0.0
  0
LINE
  5
A718
330
A586
100
AcDbEntity
  8
1
  6
Continuous
100
AcDbLine
 10
229.852946
 20
161.0926409999999
 30
0.0
 11
229.852946
 21
159.369779
 31
0.0
  0
ARC
  5
A719
330
A586
100
AcDbEntity
  8
1
  6
Continuous
100
AcDbCircle
 10
233.118266
 20
159.369779
 30
0.0
 40
3.265308999999998
100
AcDbArc
 50
179.9999909999999
 51
243.074357
  0
ARC
  5
A71A
330
A586
100
AcDbEntity
  8
1
  6
Continuous
100
AcDbCircle
 10
239.1029459999999
 20
149.309248
 30
0.0
 40
16.481396
100
AcDbArc
 50
113.5428179999999
 51
116.9256399999999
  0
ARC
  5
A71B
330
A586
100
AcDbEntity
  8
1
  6
Continuous
100
AcDbCircle
 10
233.118266
 20
161.0926409999999
 30
0.0
 40
3.265308999999998
100
AcDbArc
 50
116.9256529999999
 51
243.074357
  0
LINE
  5
A71C
330
A586
100
AcDbEntity
  8
1
  6
Continuous
100
AcDbLine
 10
232.503108
 20
187.6315129999999
 30
0.0
 11
239.7087049999999
 21
181.170278
 31
0.0
  0
ARC
  5
A71D
330
A586
100
AcDbEntity
  8
1
  6
Continuous
100
AcDbCircle
 10
241.2009839999999
 20
180.4871569999999
 30
0.0
 40
0.6487020000000002
100
AcDbArc
 50
27.07078
 51
120.0123389999999
  0
ARC
  5
A71E
330
A586
100
AcDbEntity
  8
1
  6
Continuous
100
AcDbCircle
 10
241.0313519999998
 20
182.312139
 30
0.0
 40
0.74462
100
AcDbArc
 50
16.70499799999999
 51
127.7239769999999
  0
ARC
  5
A71F
330
A586
100
AcDbEntity
  8
1
  6
Continuous
100
AcDbCircle
 10
195.4075579999999
 20
181.647627
 30
0.0
 40
46.34549299999998
100
AcDbArc
 50
345.1255739999999
 51
1.085982
  0
ARC
  5
A720
330
A586
100
AcDbEntity
  8
1
  6
Continuous
100
AcDbCircle
 10
239.963893
 20
183.6920749999999
 30
0.0
 40
1.0
100
AcDbArc
 50
227.0224729999999
 51
307.723979
  0
ARC
  5
A721
330
A586
100
AcDbEntity
  8
1
  6
Continuous
100
AcDbCircle
 10
240.376323
 20
181.9148
 30
0.0
 40
1.0
100
AcDbArc
 50
228.1175439999999
 51
300.012334
  0
LINE
  5
A722
330
A586
100
AcDbEntity
  8
1
  6
Continuous
100
AcDbLine
 10
246.352946
 20
154.5567069999998
 30
0.0
 11
248.352946
 21
154.5567069999998
 31
0.0
  0
LINE
  5
A723
330
A586
100
AcDbEntity
  8
1
  6
Continuous
100
AcDbLine
 10
246.3528849999999
 20
156.351987
 30
0.0
 11
246.352962
 21
154.5567069999998
 31
0.0
  0
ARC
  5
A724
330
A586
100
AcDbEntity
  8
1
  6
Continuous
100
AcDbCircle
 10
245.0876419999999
 20
159.369779
 30
0.0
 40
3.265308999999998
100
AcDbArc
 50
296.925648
 51
0.000003
  0
ARC
  5
A725
330
A586
100
AcDbEntity
  8
1
  6
Continuous
100
AcDbCircle
 10
245.0876419999999
 20
161.0926409999999
 30
0.0
 40
3.265308999999998
100
AcDbArc
 50
296.925648
 51
0.000003
  0
ARC
  5
A727
330
A586
100
AcDbEntity
  8
1
  6
Continuous
100
AcDbCircle
 10
239.602946
 20
180.9259769999999
 30
0.0
 40
15.590692
100
AcDbArc
 50
72.26175000000002
 51
116.925366
  0
LINE
  5
A728
330
A586
100
AcDbEntity
  8
1
  6
Continuous
100
AcDbLine
 10
230.8529459999999
 20
192.07266
 30
0.0
 11
230.8529459999999
 21
190.3497899999999
 31
0.0
  0
ARC
  5
A729
330
A586
100
AcDbEntity
  8
1
  6
Continuous
100
AcDbCircle
 10
233.9417069999999
 20
192.07266
 30
0.0
 40
3.088754
100
AcDbArc
 50
116.925366
 51
215.4550529999999
  0
LINE
  5
A72A
330
A586
100
AcDbEntity
  8
1
  6
Continuous
100
AcDbLine
 10
61.35294599999999
 20
186.0305239999999
 30
0.0
 11
61.35294599999999
 21
183.9990599999999
 31
0.0
  0
LINE
  5
A72B
330
A586
100
AcDbEntity
  8
1
  6
Continuous
100
AcDbLine
 10
64.852946
 20
184.3076619999999
 30
0.0
 11
61.35294599999999
 21
184.3076619999999
 31
0.0
  0
LINE
  5
A72C
330
A586
100
AcDbEntity
  8
1
  6
Continuous
100
AcDbLine
 10
61.35294599999999
 20
184.3076619999999
 30
0.0
 11
61.35294599999999
 21
182.2761899999999
 31
0.0
  0
LINE
  5
A72D
330
A586
100
AcDbEntity
  8
1
  6
Continuous
100
AcDbLine
 10
64.852946
 20
182.2761899999999
 30
0.0
 11
61.35294599999999
 21
182.2761899999999
 31
0.0
  0
LINE
  5
A72E
330
A586
100
AcDbEntity
  8
1
  6
Continuous
100
AcDbLine
 10
64.852946
 20
186.0305239999999
 30
0.0
 11
61.35294599999999
 21
186.0305239999999
 31
0.0
  0
ARC
  5
A730
330
A586
100
AcDbEntity
  8
1
  6
Continuous
100
AcDbCircle
 10
159.093929
 20
161.922998
 30
0.0
 40
71.66503099999999
100
AcDbArc
 50
258.621456
 51
259.3527369999999
  0
LINE
  5
A731
330
A586
100
AcDbEntity
  8
1
  6
Continuous
100
AcDbLine
 10
132.9966609999999
 20
99.40584000000001
 30
0.0
 11
143.877036
 21
92.11533000000001
 31
0.0
  0
LINE
  5
A732
330
A586
100
AcDbEntity
  8
1
  6
Continuous
100
AcDbLine
 10
137.534037
 20
80.279711
 30
0.0
 11
141.995508
 21
80.279711
 31
0.0
  0
LINE
  5
A733
330
A586
100
AcDbEntity
  8
1
  6
Continuous
100
AcDbLine
 10
138.549776
 20
80.279711
 30
0.0
 11
141.995508
 21
80.279711
 31
0.0
  0
LINE
  5
A734
330
A586
100
AcDbEntity
  8
1
  6
Continuous
100
AcDbLine
 10
141.995508
 20
83.77971099999998
 30
0.0
 11
141.995508
 21
80.279711
 31
0.0
  0
LINE
  5
A735
330
A586
100
AcDbEntity
  8
1
  6
Continuous
100
AcDbLine
 10
137.534037
 20
83.77971099999998
 30
0.0
 11
137.534037
 21
80.279711
 31
0.0
  0
ARC
  5
A736
330
A586
100
AcDbEntity
  8
1
  6
Continuous
100
AcDbCircle
 10
128.300281
 20
94.45763599999999
 30
0.0
 40
6.822074999999999
100
AcDbArc
 50
46.495679
 51
90.02142199999999
  0
ARC
  5
A737
330
A586
100
AcDbEntity
  8
1
  6
Continuous
100
AcDbCircle
 10
178.480487
 20
93.02971099999997
 30
0.0
 40
10.33528
100
AcDbArc
 50
319.258212
 51
40.741788
  0
ARC
  5
A738
330
A586
100
AcDbEntity
  8
1
  6
Continuous
100
AcDbCircle
 10
171.701755
 20
84.494293
 30
0.0
 40
3.914581999999997
100
AcDbArc
 50
230.137025
 51
309.862975
  0
LINE
  5
A739
330
A586
100
AcDbEntity
  8
1
  6
Continuous
100
AcDbLine
 10
170.710077
 20
82.85655
 30
0.0
 11
170.170032
 21
83.77971099999998
 31
0.0
  0
ARC
  5
A73A
330
A586
100
AcDbEntity
  8
1
  6
Continuous
100
AcDbCircle
 10
157.780292
 20
115.362009
 30
0.0
 40
25.08635899999999
100
AcDbArc
 50
268.8137439999997
 51
268.8400209999999
  0
LINE
  5
A73B
330
A586
100
AcDbEntity
  8
1
  6
Continuous
100
AcDbLine
 10
169.1926889999997
 20
81.48954000000001
 30
0.0
 11
167.852946
 21
83.77971099999998
 31
0.0
  0
ARC
  5
A73C
330
A586
100
AcDbEntity
  8
1
  6
Continuous
100
AcDbCircle
 10
180.8477659999999
 20
90.990526
 30
0.0
 40
7.210811999999998
100
AcDbArc
 50
269.9999969999999
 51
319.258212
  0
LINE
  5
A73D
330
A586
100
AcDbEntity
  8
1
  6
Continuous
100
AcDbLine
 10
174.210821
 20
81.48954000000001
 30
0.0
 11
175.5505629999999
 21
83.77971099999998
 31
0.0
  0
ARC
  5
A73E
330
A586
100
AcDbEntity
  8
1
  6
Continuous
100
AcDbCircle
 10
171.701755
 20
84.494293
 30
0.0
 40
1.914582
100
AcDbArc
 50
238.8044779999999
 51
301.1955219999998
  0
LINE
  5
A73F
330
A586
100
AcDbEntity
  8
1
  6
Continuous
100
AcDbLine
 10
172.6934319999998
 20
82.85655
 30
0.0
 11
173.2334779999999
 21
83.77971099999998
 31
0.0
  0
ARC
  5
A740
330
A586
100
AcDbEntity
  8
1
  6
Continuous
100
AcDbCircle
 10
180.8477659999999
 20
95.068903
 30
0.0
 40
7.210811999999998
100
AcDbArc
 50
40.741788
 51
90.05893499999997
  0
ARC
  5
A741
330
A586
100
AcDbEntity
  8
1
  6
Continuous
100
AcDbCircle
 10
158.0782289999999
 20
161.922998
 30
0.0
 40
71.66503099999999
100
AcDbArc
 50
258.788879
 51
260.1779199999999
  0
LINE
  5
A742
330
A586
100
AcDbEntity
  8
1
  6
Continuous
100
AcDbLine
 10
131.980961
 20
99.40584000000001
 30
0.0
 11
142.695869
 21
92.226203
 31
0.0
  0
ARC
  5
A743
330
A586
100
AcDbEntity
  8
1
  6
Continuous
100
AcDbCircle
 10
129.5224879999999
 20
92.52971100000001
 30
0.0
 40
9.775907
100
AcDbArc
 50
139.2555669999999
 51
220.7444229999999
  0
ARC
  5
A744
330
A586
100
AcDbEntity
  8
1
  6
Continuous
100
AcDbCircle
 10
127.2845809999999
 20
90.601786
 30
0.0
 40
6.822074999999999
100
AcDbArc
 50
220.7444229999999
 51
269.999936
  0
LINE
  5
A745
330
A586
100
AcDbEntity
  8
1
  6
Continuous
100
AcDbLine
 10
144.9363069999999
 20
87.779711
 30
0.0
 11
144.9363069999999
 21
86.51962500000001
 31
0.0
  0
ARC
  5
A746
330
A586
100
AcDbEntity
  8
1
  6
Continuous
100
AcDbCircle
 10
127.2845809999999
 20
94.45763599999999
 30
0.0
 40
6.822074999999999
100
AcDbArc
 50
46.495679
 51
139.2555769999999
  0
ARC
  5
A747
330
A586
100
AcDbEntity
  8
1
  6
Continuous
100
AcDbCircle
 10
177.464787
 20
93.02971099999997
 30
0.0
 40
10.33528
100
AcDbArc
 50
319.258212
 51
40.741788
  0
LINE
  5
A748
330
A586
100
AcDbEntity
  8
1
  6
Continuous
100
AcDbLine
 10
162.6110659999999
 20
89.909367
 30
0.0
 11
162.6110659999999
 21
86.51962500000001
 31
0.0
  0
ARC
  5
A749
330
A586
100
AcDbEntity
  8
1
  6
Continuous
100
AcDbCircle
 10
179.8320659999999
 20
90.990526
 30
0.0
 40
7.210811999999998
100
AcDbArc
 50
269.9999969999999
 51
319.258212
  0
ARC
  5
A74A
330
A586
100
AcDbEntity
  8
1
  6
Continuous
100
AcDbCircle
 10
179.8320659999999
 20
95.068903
 30
0.0
 40
7.210811999999998
100
AcDbArc
 50
40.741788
 51
139.2582129999997
  0
LINE
  5
A74B
330
A586
100
AcDbEntity
  8
1
  6
Continuous
100
AcDbLine
 10
128.7465819999999
 20
85.77971099999997
 30
0.0
 11
179.3460179999999
 21
85.77971099999997
 31
0.0
  0
LINE
  5
A74C
330
A586
100
AcDbEntity
  8
1
  6
Continuous
100
AcDbLine
 10
127.2845809999999
 20
101.2797109999999
 30
0.0
 11
128.300281
 21
101.2797109999999
 31
0.0
  0
LINE
  5
A74D
330
A586
100
AcDbEntity
  8
1
  6
Continuous
100
AcDbLine
 10
180.8477659999999
 20
102.2797149999999
 30
0.0
 11
179.8320659999999
 21
102.2797149999999
 31
0.0
  0
LINE
  5
A74E
330
A586
100
AcDbEntity
  8
1
  6
Continuous
100
AcDbLine
 10
161.0309919999999
 20
85.77971099999997
 30
0.0
 11
161.0309919999999
 21
83.77971099999998
 31
0.0
  0
LINE
  5
A74F
330
A586
100
AcDbEntity
  8
1
  6
Continuous
100
AcDbLine
 10
134.3265319999999
 20
85.77971099999997
 30
0.0
 11
134.3265319999999
 21
83.77971099999998
 31
0.0
  0
LINE
  5
A750
330
A586
100
AcDbEntity
  8
1
  6
Continuous
100
AcDbLine
 10
127.2845339999999
 20
83.77971099999998
 30
0.0
 11
128.7465819999999
 21
83.77971099999998
 31
0.0
  0
LINE
  5
A752
330
A586
100
AcDbEntity
  8
1
  6
Continuous
100
AcDbLine
 10
163.4759479999999
 20
91.59170000000001
 30
0.0
 11
174.596149
 21
99.96919400000001
 31
0.0
  0
ARC
  5
A753
330
A586
100
AcDbEntity
  8
1
  6
Continuous
100
AcDbCircle
 10
157.770831
 20
103.3060859999997
 30
0.0
 40
13.033875
100
AcDbArc
 50
268.946086
 51
295.916727
  0
LINE
  5
A754
330
A586
100
AcDbEntity
  8
1
  6
Continuous
100
AcDbLine
 10
251.8529459999998
 20
163.979711
 30
0.0
 11
251.8529459999998
 21
160.979711
 31
0.0
  0
LINE
  5
A755
330
A586
100
AcDbEntity
  8
1
  6
Continuous
100
AcDbLine
 10
248.352946
 20
163.979711
 30
0.0
 11
251.8529459999998
 21
163.979711
 31
0.0
  0
LINE
  5
A756
330
A586
100
AcDbEntity
  8
1
  6
Continuous
100
AcDbLine
 10
64.852946
 20
163.979711
 30
0.0
 11
61.35294599999999
 21
163.979711
 31
0.0
  0
LINE
  5
A757
330
A586
100
AcDbEntity
  8
1
  6
Continuous
100
AcDbLine
 10
61.35294599999999
 20
163.979711
 30
0.0
 11
61.35294599999999
 21
160.979711
 31
0.0
  0
LINE
  5
A758
330
A586
100
AcDbEntity
  8
1
  6
Continuous
100
AcDbLine
 10
140.9797689999997
 20
83.77971099999998
 30
0.0
 11
140.9797689999997
 21
80.279711
 31
0.0
  0
LINE
  5
A759
330
A586
100
AcDbEntity
  8
5
  6
PHANTOM
100
AcDbLine
 10
169.032852
 20
175.773962
 30
0.0
 11
174.417002
 21
181.2752549999999
 31
0.0
  0
LINE
  5
A75A
330
A586
100
AcDbEntity
  8
1
  6
Continuous
100
AcDbLine
 10
248.352946
 20
160.979711
 30
0.0
 11
251.8529459999998
 21
160.979711
 31
0.0
  0
LINE
  5
A75B
330
A586
100
AcDbEntity
  8
1
  6
Continuous
100
AcDbLine
 10
64.852946
 20
160.979711
 30
0.0
 11
61.35294599999999
 21
160.979711
 31
0.0
  0
LINE
  5
A75C
330
A586
100
AcDbEntity
  8
1
  6
Continuous
100
AcDbLine
 10
141.995508
 20
312.7797109999999
 30
0.0
 11
144.9247469999999
 21
312.7797109999999
 31
0.0
  0
LINE
  5
A75D
330
A586
100
AcDbEntity
  8
1
  6
Continuous
100
AcDbLine
 10
128.7465819999999
 20
83.77971099999998
 30
0.0
 11
128.7465819999999
 21
85.77971099999997
 31
0.0
  0
ARC
  5
A75E
330
A586
100
AcDbEntity
  8
1
  6
Continuous
100
AcDbCircle
 10
128.6511229999999
 20
70.617547
 30
0.0
 40
15.162465
100
AcDbArc
 50
89.63927899999999
 51
109.6732959999997
  0
ARC
  5
A75F
330
A586
100
AcDbEntity
  8
5
  6
PHANTOM
100
AcDbCircle
 10
136.365609
 20
176.7113929999999
 30
0.0
 40
17.04127
100
AcDbArc
 50
232.255572
 51
273.8684629999998
  0
ARC
  5
A760
330
A586
100
AcDbEntity
  8
5
  6
PHANTOM
100
AcDbCircle
 10
123.837349
 20
175.785982
 30
0.0
 40
12.72388499999999
100
AcDbArc
 50
228.9271209999999
 51
279.4843119999999
  0
LINE
  5
A761
330
A586
100
AcDbEntity
  8
1
  6
Continuous
100
AcDbLine
 10
66.852946
 20
183.011656
 30
0.0
 11
64.852946
 21
183.011656
 31
0.0
  0
ARC
  5
A762
330
A586
100
AcDbEntity
  8
1
  6
Continuous
100
AcDbCircle
 10
238.2670669999999
 20
170.264075
 30
0.0
 40
2.0
100
AcDbArc
 50
301.362899
 51
345.1255739999999
  0
ARC
  5
A763
330
A586
100
AcDbEntity
  8
1
  6
Continuous
100
AcDbCircle
 10
179.3460179999999
 20
83.77971099999998
 30
0.0
 40
2.0
100
AcDbArc
 50
4.570284
 51
90.0
  0
LINE
  5
A764
330
A586
100
AcDbEntity
  8
5
  6
PHANTOM
100
AcDbLine
 10
171.724927
 20
178.524609
 30
0.0
 11
169.580902
 21
180.6229789999999
 31
0.0
  0
ARC
  5
A765
330
A586
100
AcDbEntity
  8
1
  6
Continuous
100
AcDbCircle
 10
145.938172
 20
301.0102319999998
 30
0.0
 40
4.0
100
AcDbArc
 50
101.211121
 51
123.824482
  0
ARC
  5
A766
330
A586
100
AcDbEntity
  8
1
  6
Continuous
100
AcDbCircle
 10
63.85294599999999
 20
185.837998
 30
0.0
 40
3.0
100
AcDbArc
 50
0.0
 51
47.815101
  0
ARC
  5
A767
330
A586
100
AcDbEntity
  8
1
  6
Continuous
100
AcDbCircle
 10
145.546988
 20
94.60756999999999
 30
0.0
 40
3.0
100
AcDbArc
 50
236.175518
 51
258.621456
  0
ARC
  5
A768
330
A586
100
AcDbEntity
  8
1
  6
Continuous
100
AcDbCircle
 10
144.9224719999999
 20
95.549189
 30
0.0
 40
4.0
100
AcDbArc
 50
236.175518
 51
258.788879
  0
ARC
  5
A769
330
A586
100
AcDbEntity
  8
1
  6
Continuous
100
AcDbCircle
 10
137.534076
 20
311.7640109999998
 30
0.0
 40
1.0157
100
AcDbArc
 50
0.0
 51
90.0
  0
ARC
  5
A76A
330
A586
100
AcDbEntity
  8
1
  6
Continuous
100
AcDbCircle
 10
150.852946
 20
169.7797109999999
 30
0.0
 40
18.200001
100
AcDbArc
 50
168.079003
 51
309.8156599999998
  0
ARC
  5
A76B
330
A586
100
AcDbEntity
  8
1
  6
Continuous
100
AcDbCircle
 10
150.852946
 20
169.7797109999999
 30
0.0
 40
27.700001
100
AcDbArc
 50
148.416661
 51
329.806957
  0
ARC
  5
A76C
330
A586
100
AcDbEntity
  8
1
  6
Continuous
100
AcDbCircle
 10
150.852946
 20
169.7797109999999
 30
0.0
 40
37.5
100
AcDbArc
 50
140.657858
 51
338.2981389999998
  0
ARC
  5
A76D
330
A586
100
AcDbEntity
  8
1
  6
Continuous
100
AcDbCircle
 10
150.852946
 20
169.7797109999999
 30
0.0
 40
37.5
100
AcDbArc
 50
341.405072
 51
39.70278
  0
ARC
  5
A76E
330
A586
100
AcDbEntity
  8
1
  6
Continuous
100
AcDbCircle
 10
150.852946
 20
169.7797109999999
 30
0.0
 40
27.700001
100
AcDbArc
 50
345.725264
 51
35.115898
  0
ARC
  5
A76F
330
A586
100
AcDbEntity
  8
1
  6
Continuous
100
AcDbCircle
 10
150.852946
 20
169.7797109999999
 30
0.0
 40
18.200001
100
AcDbArc
 50
354.6808219999999
 51
25.55991699999999
  0
ARC
  5
A770
330
A586
100
AcDbEntity
  8
1
  6
Continuous
100
AcDbCircle
 10
150.852946
 20
169.7797109999999
 30
0.0
 40
18.200001
100
AcDbArc
 50
131.060807
 51
141.426592
  0
ARC
  5
A771
330
A586
100
AcDbEntity
  8
1
  6
Continuous
100
AcDbCircle
 10
148.6228999999999
 20
165.997164
 30
0.0
 40
15.14098699999999
100
AcDbArc
 50
22.71531799999999
 51
96.24068199999996
  0
ARC
  5
A772
330
A586
100
AcDbEntity
  8
1
  6
Continuous
100
AcDbCircle
 10
145.6735779999999
 20
184.9818579999999
 30
0.0
 40
17.04127
100
AcDbArc
 50
186.639017
 51
228.2519069999999
  0
ARC
  5
A773
330
A586
100
AcDbEntity
  8
1
  6
Continuous
100
AcDbCircle
 10
148.6228999999999
 20
165.997164
 30
0.0
 40
17.140987
100
AcDbArc
 50
22.71531799999999
 51
96.24068199999996
  0
ARC
  5
A774
330
A586
100
AcDbEntity
  8
1
  6
Continuous
100
AcDbCircle
 10
155.4140079999999
 20
177.516062
 30
0.0
 40
21.730781
100
AcDbArc
 50
193.976076
 51
284.97992
  0
LINE
  5
A775
330
A586
100
AcDbEntity
  8
1
  6
Continuous
100
AcDbLine
 10
167.852946
 20
160.979711
 30
0.0
 11
175.5505629999999
 21
160.979711
 31
0.0
  0
LINE
  5
A776
330
A586
100
AcDbEntity
  8
1
  6
Continuous
100
AcDbLine
 10
167.7508699999999
 20
168.81395
 30
0.0
 11
188.81557
 21
156.394995
 31
0.0
  0
ARC
  5
A777
330
A586
100
AcDbEntity
  8
1
  6
Continuous
100
AcDbCircle
 10
168.594254
 20
170.081533
 30
0.0
 40
15.524686
100
AcDbArc
 50
240.8448289999999
 51
300.882139
  0
LINE
  5
A778
330
A586
100
AcDbEntity
  8
1
  6
Continuous
100
AcDbLine
 10
166.7351309999999
 20
167.091081
 30
0.0
 11
187.799831
 21
154.6721269999999
 31
0.0
  0
LINE
  5
A779
330
A586
100
AcDbEntity
  8
1
  6
Continuous
100
AcDbLine
 10
167.852946
 20
163.979711
 30
0.0
 11
172.0125549999999
 21
163.979711
 31
0.0
  0
LINE
  5
A77A
330
A586
100
AcDbEntity
  8
1
  6
Continuous
100
AcDbLine
 10
171.701755
 20
160.979711
 30
0.0
 11
171.701755
 21
163.979711
 31
0.0
  0
LINE
  5
A77B
330
A586
100
AcDbEntity
  8
1
  6
Continuous
100
AcDbLine
 10
167.852946
 20
163.979711
 30
0.0
 11
167.852946
 21
160.979711
 31
0.0
  0
ARC
  5
A77C
330
A586
100
AcDbEntity
  8
1
  6
Continuous
100
AcDbCircle
 10
171.8138229999999
 20
175.705423
 30
0.0
 40
10.0
100
AcDbArc
 50
202.7153179999998
 51
239.477998
  0
ARC
  5
A77D
330
A586
100
AcDbEntity
  8
1
  6
Continuous
100
AcDbCircle
 10
171.8138229999999
 20
175.705423
 30
0.0
 40
8.0
100
AcDbArc
 50
202.7153179999998
 51
239.477998
  0
LINE
  5
A77E
330
A586
100
AcDbEntity
  8
1
  6
Continuous
100
AcDbLine
 10
187.7998499999999
 20
154.6721339999997
 30
0.0
 11
188.8155889999999
 21
156.395002
 31
0.0
  0
LINE
  5
A77F
330
A586
100
AcDbEntity
  8
1
  6
Continuous
100
AcDbLine
 10
175.5505629999999
 20
161.893835
 30
0.0
 11
175.5505629999999
 21
160.979711
 31
0.0
  0
ARC
  5
A780
330
A586
100
AcDbEntity
  8
1
  6
Continuous
100
AcDbCircle
 10
180.4122209999999
 20
150.3211729999998
 30
0.0
 40
7.5
100
AcDbArc
 50
59.477998
 51
120.8821389999999
  0
ARC
  5
A781
330
A586
100
AcDbEntity
  8
1
  6
Continuous
100
AcDbCircle
 10
136.249233
 20
193.288205
 30
0.0
 40
12.72388499999999
100
AcDbArc
 50
183.310565
 51
233.8677569999999
  0
LINE
  5
A782
330
A586
100
AcDbEntity
  8
1
  6
Continuous
100
AcDbLine
 10
119.7465349999999
 20
194.79379
 30
0.0
 11
140.811251
 21
182.3748249999999
 31
0.0
  0
LINE
  5
A783
330
A586
100
AcDbEntity
  8
1
  6
Continuous
100
AcDbLine
 10
120.7622729999997
 20
196.516658
 30
0.0
 11
141.82699
 21
184.097693
 31
0.0
  0
LINE
  5
A784
330
A586
100
AcDbEntity
  8
1
  6
Continuous
100
AcDbLine
 10
119.7465429999999
 20
194.793801
 30
0.0
 11
120.762283
 21
196.516669
 31
0.0
  0
ARC
  5
A785
330
A586
100
AcDbEntity
  8
1
  6
Continuous
100
AcDbCircle
 10
145.8899429999999
 20
190.989167
 30
0.0
 40
10.0
100
AcDbArc
 50
239.477996
 51
276.2406819999998
  0
ARC
  5
A786
330
A586
100
AcDbEntity
  8
1
  6
Continuous
100
AcDbCircle
 10
145.8899429999999
 20
190.989167
 30
0.0
 40
8.0
100
AcDbArc
 50
239.477996
 51
276.2406819999998
  0
ARC
  5
A787
330
A586
100
AcDbEntity
  8
1
  6
Continuous
100
AcDbCircle
 10
150.852946
 20
169.7797109999999
 30
0.0
 40
18.200001
100
AcDbArc
 50
131.060807
 51
141.426592
  0
LINE
  5
A788
330
A586
100
AcDbEntity
  8
1
  6
Continuous
100
AcDbLine
 10
135.9072099999999
 20
181.5503129999999
 30
0.0
 11
137.5328349999997
 21
184.307655
 31
0.0
  0
LINE
  5
A789
330
A586
100
AcDbEntity
  8
1
  6
Continuous
100
AcDbLine
 10
139.352946
 20
179.518836
 30
0.0
 11
140.97953
 21
182.277804
 31
0.0
  0
LINE
  5
A78A
330
A586
100
AcDbEntity
  8
1
  6
Continuous
100
AcDbLine
 10
135.9072099999999
 20
181.5503129999999
 30
0.0
 11
139.352946
 21
179.518836
 31
0.0
  0
CIRCLE
  5
A78B
330
A586
100
AcDbEntity
  8
1
  6
Continuous
100
AcDbCircle
 10
150.852946
 20
169.7797109999999
 30
0.0
 40
3.0
  0
CIRCLE
  5
A78C
330
A586
100
AcDbEntity
  8
1
  6
Continuous
100
AcDbCircle
 10
150.852946
 20
169.7797109999999
 30
0.0
 40
3.799999999999998
  0
LINE
  5
A78D
330
A586
100
AcDbEntity
  8
1
  6
Continuous
100
AcDbLine
 10
155.852946
 20
167.066462
 30
0.0
 11
150.852946
 21
164.1797109999999
 31
0.0
  0
LINE
  5
A78E
330
A586
100
AcDbEntity
  8
1
  6
Continuous
100
AcDbLine
 10
145.852946
 20
167.066462
 30
0.0
 11
145.852946
 21
172.492959
 31
0.0
  0
CIRCLE
  5
A78F
330
A586
100
AcDbEntity
  8
2
  6
Continuous
100
AcDbCircle
 10
150.852946
 20
169.7797109999999
 30
0.0
 40
2.458499999999999
  0
CIRCLE
  5
A790
330
A586
100
AcDbEntity
  8
1
  6
Continuous
100
AcDbCircle
 10
150.852946
 20
169.7797109999999
 30
0.0
 40
2.0
  0
LINE
  5
A791
330
A586
100
AcDbEntity
  8
1
  6
Continuous
100
AcDbLine
 10
145.852946
 20
167.066462
 30
0.0
 11
150.852946
 21
164.1797109999999
 31
0.0
  0
LINE
  5
A792
330
A586
100
AcDbEntity
  8
1
  6
Continuous
100
AcDbLine
 10
155.852946
 20
167.066462
 30
0.0
 11
155.852946
 21
172.492959
 31
0.0
  0
LINE
  5
A793
330
A586
100
AcDbEntity
  8
1
  6
Continuous
100
AcDbLine
 10
155.852946
 20
172.492959
 30
0.0
 11
150.852946
 21
175.3797109999999
 31
0.0
  0
LINE
  5
A794
330
A586
100
AcDbEntity
  8
1
  6
Continuous
100
AcDbLine
 10
145.852946
 20
172.492959
 30
0.0
 11
150.852946
 21
175.3797109999999
 31
0.0
  0
CIRCLE
  5
A795
330
A586
100
AcDbEntity
  8
1
  6
Continuous
100
AcDbCircle
 10
361.8529459999999
 20
169.7797109999999
 30
0.0
 40
5.299999999999998
  0
LINE
  5
A796
330
A586
100
AcDbEntity
  8
1
  6
Continuous
100
AcDbLine
 10
62.852946
 20
182.2761899999999
 30
0.0
 11
62.852946
 21
163.979711
 31
0.0
  0
LINE
  5
A797
330
A586
100
AcDbEntity
  8
1
  6
Continuous
100
AcDbLine
 10
62.852946
 20
160.979711
 30
0.0
 11
62.852946
 21
160.8797089999999
 31
0.0
  0
LINE
  5
A798
330
A586
100
AcDbEntity
  8
1
  6
Continuous
100
AcDbLine
 10
61.85294599999998
 20
163.979711
 30
0.0
 11
61.85294599999998
 21
179.5297109999999
 31
0.0
  0
LINE
  5
A799
330
A586
100
AcDbEntity
  8
1
  6
Continuous
100
AcDbLine
 10
68.852946
 20
176.179711
 30
0.0
 11
70.352946
 21
176.179711
 31
0.0
  0
LINE
  5
A79A
330
A586
100
AcDbEntity
  8
1
  6
Continuous
100
AcDbLine
 10
68.852946
 20
163.3797109999999
 30
0.0
 11
70.352946
 21
163.3797109999999
 31
0.0
  0
LINE
  5
A79B
330
A586
100
AcDbEntity
  8
1
  6
Continuous
100
AcDbLine
 10
68.852946
 20
176.0297109999999
 30
0.0
 11
68.852946
 21
163.5297109999999
 31
0.0
  0
LINE
  5
A79C
330
A586
100
AcDbEntity
  8
1
  6
Continuous
100
AcDbLine
 10
70.352946
 20
176.179711
 30
0.0
 11
70.352946
 21
163.3797109999999
 31
0.0
  0
ARC
  5
A79D
330
A586
100
AcDbEntity
  8
1
  6
Continuous
100
AcDbCircle
 10
65.602946
 20
176.0297109999999
 30
0.0
 40
3.25
100
AcDbArc
 50
292.6198649999999
 51
67.380135
  0
ARC
  5
A79E
330
A586
100
AcDbEntity
  8
1
  6
Continuous
100
AcDbCircle
 10
65.602946
 20
163.5297109999999
 30
0.0
 40
3.25
100
AcDbArc
 50
292.6198649999999
 51
0.0
  0
LINE
  5
A79F
330
A586
100
AcDbEntity
  8
1
  6
Continuous
100
AcDbLine
 10
147.852946
 20
176.0297109999999
 30
0.0
 11
147.852946
 21
175.433028
 31
0.0
  0
LINE
  5
A7A0
330
A586
100
AcDbEntity
  8
1
  6
Continuous
100
AcDbLine
 10
153.852946
 20
176.0297109999999
 30
0.0
 11
153.852946
 21
175.433028
 31
0.0
  0
ARC
  5
A7A1
330
A586
100
AcDbEntity
  8
1
  6
Continuous
100
AcDbCircle
 10
150.852946
 20
176.0297109999999
 30
0.0
 40
3.0
100
AcDbArc
 50
0.0
 51
180.0
  0
ARC
  5
A7A2
330
A586
100
AcDbEntity
  8
1
  6
Continuous
100
AcDbCircle
 10
150.852946
 20
163.5297109999999
 30
0.0
 40
3.0
100
AcDbArc
 50
180.0
 51
0.0
  0
LINE
  5
A7A3
330
A586
100
AcDbEntity
  8
1
  6
Continuous
100
AcDbLine
 10
66.852946
 20
170.5607359999999
 30
0.0
 11
68.852946
 21
172.8797109999999
 31
0.0
  0
LINE
  5
A7A4
330
A586
100
AcDbEntity
  8
1
  6
Continuous
100
AcDbLine
 10
66.852946
 20
168.9986859999999
 30
0.0
 11
68.852946
 21
166.679711
 31
0.0
  0
LINE
  5
A7A5
330
A586
100
AcDbEntity
  8
2
  6
Continuous
100
AcDbLine
 10
68.852946
 20
172.2382079999999
 30
0.0
 11
68.299683
 21
172.2382079999999
 31
0.0
  0
LINE
  5
A7A6
330
A586
100
AcDbEntity
  8
1
  6
Continuous
100
AcDbLine
 10
68.852946
 20
172.779708
 30
0.0
 11
68.766699
 21
172.779708
 31
0.0
  0
LINE
  5
A7A7
330
A586
100
AcDbEntity
  8
2
  6
Continuous
100
AcDbLine
 10
68.852946
 20
167.321208
 30
0.0
 11
68.29968700000001
 21
167.321208
 31
0.0
  0
LINE
  5
A7A8
330
A586
100
AcDbEntity
  8
1
  6
Continuous
100
AcDbLine
 10
68.852946
 20
166.7797079999999
 30
0.0
 11
68.766704
 21
166.7797079999999
 31
0.0
  0
LINE
  5
A7A9
330
A586
100
AcDbEntity
  8
1
  6
Continuous
100
AcDbLine
 10
153.852946
 20
164.126393
 30
0.0
 11
153.852946
 21
163.5297109999999
 31
0.0
  0
LINE
  5
A7AA
330
A586
100
AcDbEntity
  8
1
  6
Continuous
100
AcDbLine
 10
147.852946
 20
164.126393
 30
0.0
 11
147.852946
 21
163.5297109999999
 31
0.0
  0
LINE
  5
A7AB
330
A586
100
AcDbEntity
  8
5
  6
PHANTOM
100
AcDbLine
 10
148.486482
 20
176.2960249999999
 30
0.0
 11
148.9127949999998
 21
175.878548
 31
0.0
  0
ARC
  5
A7AC
330
A586
100
AcDbEntity
  8
5
  6
PHANTOM
100
AcDbCircle
 10
146.3874919999998
 20
174.1526069999999
 30
0.0
 40
3.0
100
AcDbArc
 50
45.6
 51
225.5999999999999
  0
LINE
  5
A7AD
330
A586
100
AcDbEntity
  8
5
  6
PHANTOM
100
AcDbLine
 10
144.288502
 20
172.0091889999999
 30
0.0
 11
144.7148149999998
 21
171.591712
 31
0.0
  0
LINE
  5
A7AE
330
A586
100
AcDbEntity
  8
5
  6
PHANTOM
100
AcDbLine
 10
152.7930969999999
 20
163.680874
 30
0.0
 11
153.219411
 21
163.263397
 31
0.0
  0
ARC
  5
A7AF
330
A586
100
AcDbEntity
  8
5
  6
PHANTOM
100
AcDbCircle
 10
155.318401
 20
165.406815
 30
0.0
 40
3.0
100
AcDbArc
 50
225.5999999999999
 51
45.6
  0
LINE
  5
A7B0
330
A586
100
AcDbEntity
  8
5
  6
PHANTOM
100
AcDbLine
 10
156.9910769999999
 20
167.96771
 30
0.0
 11
157.4173909999998
 21
167.550233
 31
0.0
  0
LINE
  5
A7B1
330
A586
100
AcDbEntity
  8
1
  6
Continuous
100
AcDbLine
 10
250.352946
 20
160.979711
 30
0.0
 11
250.352946
 21
160.8797089999999
 31
0.0
  0
LINE
  5
A7B2
330
A586
100
AcDbEntity
  8
1
  6
Continuous
100
AcDbLine
 10
251.3529459999999
 20
163.979711
 30
0.0
 11
251.3529459999999
 21
179.5297109999999
 31
0.0
  0
LINE
  5
A7B3
330
A586
100
AcDbEntity
  8
1
  6
Continuous
100
AcDbLine
 10
144.452946
 20
87.779711
 30
0.0
 11
157.252946
 21
87.779711
 31
0.0
  0
ARC
  5
A7B4
330
A586
100
AcDbEntity
  8
1
  6
Continuous
100
AcDbCircle
 10
150.852946
 20
84.52971099999997
 30
0.0
 40
3.25
100
AcDbArc
 50
22.619865
 51
157.380135
  0
LINE
  5
A7B5
330
A586
100
AcDbEntity
  8
1
  6
Continuous
100
AcDbLine
 10
144.452946
 20
89.27971099999997
 30
0.0
 11
157.252946
 21
89.27971099999997
 31
0.0
  0
LINE
  5
A7B6
330
A586
100
AcDbEntity
  8
1
  6
Continuous
100
AcDbLine
 10
144.452946
 20
87.779711
 30
0.0
 11
144.452946
 21
89.27971099999997
 31
0.0
  0
LINE
  5
A7B7
330
A586
100
AcDbEntity
  8
1
  6
Continuous
100
AcDbLine
 10
157.252946
 20
87.779711
 30
0.0
 11
157.252946
 21
89.27971099999997
 31
0.0
  0
ARC
  5
A7B8
330
A586
100
AcDbEntity
  8
1
  6
Continuous
100
AcDbCircle
 10
159.093929
 20
161.922998
 30
0.0
 40
71.66503099999999
100
AcDbArc
 50
267.4079689999999
 51
268.531814
  0
ARC
  5
A7B9
330
A586
100
AcDbEntity
  8
1
  6
Continuous
100
AcDbCircle
 10
158.0782289999999
 20
161.922998
 30
0.0
 40
71.66503099999999
100
AcDbArc
 50
268.220614
 51
268.531814
  0
LINE
  5
A7BA
330
A586
100
AcDbEntity
  8
1
  6
Continuous
100
AcDbLine
 10
150.852946
 20
303.57004
 30
0.0
 11
150.852946
 21
305.82605
 31
0.0
  0
LINE
  5
A7BB
330
A586
100
AcDbEntity
  8
1
  6
Continuous
100
AcDbLine
 10
145.852946
 20
305.067617
 30
0.0
 11
145.852946
 21
303.57004
 31
0.0
  0
LINE
  5
A7BC
330
A586
100
AcDbEntity
  8
1
  6
Continuous
100
AcDbLine
 10
155.852946
 20
306.2281319999998
 30
0.0
 11
155.852946
 21
303.57004
 31
0.0
  0
LINE
  5
A7BD
330
A586
100
AcDbEntity
  8
1
  6
Continuous
100
AcDbLine
 10
148.3529459999997
 20
303.079292
 30
0.0
 11
153.352946
 21
303.079292
 31
0.0
  0
LINE
  5
A7BE
330
A586
100
AcDbEntity
  8
1
  6
Continuous
100
AcDbLine
 10
148.852946
 20
301.0797109999998
 30
0.0
 11
152.852946
 21
301.0797109999998
 31
0.0
  0
LINE
  5
A7BF
330
A586
100
AcDbEntity
  8
1
  6
Continuous
100
AcDbLine
 10
147.852946
 20
302.0797109999998
 30
0.0
 11
153.852946
 21
302.0797109999998
 31
0.0
  0
LINE
  5
A7C0
330
A586
100
AcDbEntity
  8
1
  6
Continuous
100
AcDbLine
 10
148.852946
 20
301.0797109999998
 30
0.0
 11
147.852946
 21
302.0797109999998
 31
0.0
  0
LINE
  5
A7C1
330
A586
100
AcDbEntity
  8
1
  6
Continuous
100
AcDbLine
 10
147.852946
 20
302.0797109999998
 30
0.0
 11
147.852946
 21
303.0797109999998
 31
0.0
  0
LINE
  5
A7C2
330
A586
100
AcDbEntity
  8
2
  6
Continuous
100
AcDbLine
 10
148.3944459999999
 20
301.538211
 30
0.0
 11
148.3944459999999
 21
303.0797109999998
 31
0.0
  0
LINE
  5
A7C3
330
A586
100
AcDbEntity
  8
1
  6
Continuous
100
AcDbLine
 10
152.852946
 20
301.0797109999998
 30
0.0
 11
153.852946
 21
302.0797109999998
 31
0.0
  0
LINE
  5
A7C4
330
A586
100
AcDbEntity
  8
1
  6
Continuous
100
AcDbLine
 10
153.852946
 20
302.0797109999998
 30
0.0
 11
153.852946
 21
303.0797109999998
 31
0.0
  0
LINE
  5
A7C5
330
A586
100
AcDbEntity
  8
2
  6
Continuous
100
AcDbLine
 10
153.311446
 20
301.538211
 30
0.0
 11
153.311446
 21
303.0797109999998
 31
0.0
  0
ARC
  5
A7C6
330
A586
100
AcDbEntity
  8
1
  6
Continuous
100
AcDbCircle
 10
153.352946
 20
309.6925
 30
0.0
 40
6.613208
100
AcDbArc
 50
247.7882049999999
 51
292.211795
  0
ARC
  5
A7C7
330
A586
100
AcDbEntity
  8
1
  6
Continuous
100
AcDbCircle
 10
148.3529459999997
 20
309.6925
 30
0.0
 40
6.613208
100
AcDbArc
 50
247.7882049999999
 51
292.211795
  0
LINE
  5
A7C8
330
A586
100
AcDbEntity
  8
5
  6
PHANTOM
100
AcDbLine
 10
327.5723209999998
 20
184.981312
 30
0.0
 11
325.213184
 21
185.617616
 31
0.0
  0
LINE
  5
A7C9
330
A586
100
AcDbEntity
  8
5
  6
PHANTOM
100
AcDbLine
 10
328.446631
 20
186.8169659999999
 30
0.0
 11
325.73401
 21
187.5486109999999
 31
0.0
  0
LINE
  5
A7CA
330
A586
100
AcDbEntity
  8
5
  6
PHANTOM
100
AcDbLine
 10
325.2131759999998
 20
185.617634
 30
0.0
 11
325.734001
 21
187.5486289999997
 31
0.0
  0
LINE
  5
A7CB
330
A586
100
AcDbEntity
  8
1
  6
Continuous
100
AcDbLine
 10
326.3105719999998
 20
157.821883
 30
0.0
 11
323.890323
 21
156.394995
 31
0.0
  0
LINE
  5
A7CC
330
A586
100
AcDbEntity
  8
1
  6
Continuous
100
AcDbLine
 10
327.0109249999998
 20
155.913075
 30
0.0
 11
324.9060609999999
 21
154.6721269999999
 31
0.0
  0
LINE
  5
A7CD
330
A586
100
AcDbEntity
  8
1
  6
Continuous
100
AcDbLine
 10
324.906043
 20
154.6721339999997
 30
0.0
 11
323.890304
 21
156.395002
 31
0.0
  0
LINE
  5
A7CE
330
A586
100
AcDbEntity
  8
5
  6
PHANTOM
100
AcDbLine
 10
401.4874719999999
 20
165.0450109999999
 30
0.0
 11
399.128316
 21
165.68132
 31
0.0
  0
LINE
  5
A7CF
330
A586
100
AcDbEntity
  8
5
  6
PHANTOM
100
AcDbLine
 10
402.008298
 20
166.976006
 30
0.0
 11
399.295657
 21
167.7076559999999
 31
0.0
  0
LINE
  5
A7D0
330
A586
100
AcDbEntity
  8
5
  6
PHANTOM
100
AcDbLine
 10
401.487474
 20
165.045025
 30
0.0
 11
402.008298
 21
166.9760199999998
 31
0.0
  0
LINE
  5
A7D1
330
A586
100
AcDbEntity
  8
1
  6
Continuous
100
AcDbLine
 10
392.959358
 20
194.79379
 30
0.0
 11
390.8544769999999
 21
193.552831
 31
0.0
  0
LINE
  5
A7D2
330
A586
100
AcDbEntity
  8
1
  6
Continuous
100
AcDbLine
 10
392.9593489999999
 20
194.793801
 30
0.0
 11
391.94361
 21
196.516669
 31
0.0
  0
LINE
  5
A7D3
330
A586
100
AcDbEntity
  8
1
  6
Continuous
100
AcDbLine
 10
391.94362
 20
196.516658
 30
0.0
 11
389.523353
 21
195.08976
 31
0.0
  0
ARC
  5
A7D4
330
A586
100
AcDbEntity
  8
1
  6
Continuous
100
AcDbCircle
 10
361.8529459999999
 20
169.7797109999999
 30
0.0
 40
9.75
100
AcDbArc
 50
187.6710329999999
 51
239.916923
  0
ARC
  5
A7D5
330
A586
100
AcDbEntity
  8
1
  6
Continuous
100
AcDbCircle
 10
361.8529459999999
 20
169.7797109999999
 30
0.0
 40
10.84999999999999
100
AcDbArc
 50
186.91046
 51
238.802729
  0
ARC
  5
A7D6
330
A586
100
AcDbEntity
  8
1
  6
Continuous
100
AcDbCircle
 10
361.8529459999999
 20
169.7797109999999
 30
0.0
 40
10.84999999999999
100
AcDbArc
 50
344.307317
 51
42.031264
  0
ARC
  5
A7D7
330
A586
100
AcDbEntity
  8
1
  6
Continuous
100
AcDbCircle
 10
361.8529459999999
 20
169.7797109999999
 30
0.0
 40
9.75
100
AcDbArc
 50
344.307317
 51
41.267342
  0
ARC
  5
A7D8
330
A586
100
AcDbEntity
  8
1
  6
Continuous
100
AcDbCircle
 10
361.8529459999999
 20
169.7797109999999
 30
0.0
 40
12.5
100
AcDbArc
 50
168.649686
 51
57.96982599999999
  0
ARC
  5
A7D9
330
A586
100
AcDbEntity
  8
1
  6
Continuous
100
AcDbCircle
 10
361.8529459999999
 20
169.7797109999999
 30
0.0
 40
16.0
100
AcDbArc
 50
158.489866
 51
67.006387
  0
ARC
  5
A7DA
330
A586
100
AcDbEntity
  8
1
  6
Continuous
100
AcDbCircle
 10
361.8529459999999
 20
169.7797109999999
 30
0.0
 40
10.84999999999999
100
AcDbArc
 50
244.603434
 51
335.042525
  0
LINE
  5
A7DB
330
A586
100
AcDbEntity
  8
1
  6
Continuous
100
AcDbLine
 10
356.232795
 20
160.4987409999999
 30
0.0
 11
357.7447809999999
 21
162.2405149999998
 31
0.0
  0
ARC
  5
A7DC
330
A586
100
AcDbEntity
  8
1
  6
Continuous
100
AcDbCircle
 10
372.749729
 20
168.2763399999998
 30
0.0
 40
1.5
100
AcDbArc
 50
254.3073169999999
 51
352.144797
  0
ARC
  5
A7DD
330
A586
100
AcDbEntity
  8
1
  6
Continuous
100
AcDbCircle
 10
370.846169
 20
169.3305029999999
 30
0.0
 40
2.0
100
AcDbArc
 50
228.9309269999999
 51
254.3073169999999
  0
LINE
  5
A7DE
330
A586
100
AcDbEntity
  8
1
  6
Continuous
100
AcDbLine
 10
370.305214
 20
167.4050499999998
 30
0.0
 11
372.3440129999998
 21
166.832251
 31
0.0
  0
ARC
  5
A7DF
330
A586
100
AcDbEntity
  8
1
  6
Continuous
100
AcDbCircle
 10
370.9582529999999
 20
175.9692
 30
0.0
 40
1.5
100
AcDbArc
 50
41.20218
 51
139.03966
  0
LINE
  5
A7E0
330
A586
100
AcDbEntity
  8
1
  6
Continuous
100
AcDbLine
 10
369.825508
 20
176.952505
 30
0.0
 11
368.8954739999999
 21
175.8811259999999
 31
0.0
  0
LINE
  5
A7E1
330
A586
100
AcDbEntity
  8
1
  6
Continuous
100
AcDbLine
 10
356.1164309999999
 20
163.796286
 30
0.0
 11
351.0204979999999
 21
170.396609
 31
0.0
  0
LINE
  5
A7E2
330
A586
100
AcDbEntity
  8
1
  6
Continuous
100
AcDbLine
 10
352.5007679999998
 20
168.479343
 30
0.0
 11
351.081767
 21
168.4742599999998
 31
0.0
  0
ARC
  5
A7E3
330
A586
100
AcDbEntity
  8
1
  6
Continuous
100
AcDbCircle
 10
351.276895
 20
166.8259459999999
 30
0.0
 40
1.659823
100
AcDbArc
 50
96.75127500000002
 51
170.1632349999998
  0
ARC
  5
A7E4
330
A586
100
AcDbEntity
  8
1
  6
Continuous
100
AcDbCircle
 10
354.759177
 20
161.7066189999999
 30
0.0
 40
1.905392999999999
100
AcDbArc
 50
253.6746509999999
 51
320.659609
  0
LINE
  5
A7E5
330
A586
100
AcDbEntity
  8
1
  6
Continuous
100
AcDbLine
 10
274.3529459999999
 20
185.7797109999999
 30
0.0
 11
274.3529459999999
 21
153.7797109999999
 31
0.0
  0
LINE
  5
A7E6
330
A586
100
AcDbEntity
  8
1
  6
Continuous
100
AcDbLine
 10
38.852946
 20
185.7797109999999
 30
0.0
 11
38.852946
 21
153.7797109999999
 31
0.0
  0
ARC
  5
A7E7
330
A586
100
AcDbEntity
  8
1
  6
Continuous
100
AcDbCircle
 10
3.944881999999998
 20
171.462234
 30
0.0
 40
31.40807999999999
100
AcDbArc
 50
351.8721339999999
 51
8.127865999999999
  0
ARC
  5
A7E8
330
A586
100
AcDbEntity
  8
1
  6
Continuous
100
AcDbCircle
 10
277.1549129999999
 20
159.7224119999999
 30
0.0
 40
1.0
100
AcDbArc
 50
270.0
 51
8.910088999999997
  0
ARC
  5
A7E9
330
A586
100
AcDbEntity
  8
1
  6
Continuous
100
AcDbCircle
 10
277.1549129999999
 20
167.4742599999999
 30
0.0
 40
1.0
100
AcDbArc
 50
351.0899109999999
 51
90.0
  0
ARC
  5
A7EA
330
A586
100
AcDbEntity
  8
1
  6
Continuous
100
AcDbCircle
 10
301.877563
 20
163.5983359999999
 30
0.0
 40
24.024632
100
AcDbArc
 50
171.0899109999997
 51
188.9100889999998
  0
LINE
  5
A7EB
330
A586
100
AcDbEntity
  8
1
  6
Continuous
100
AcDbLine
 10
277.1549129999999
 20
158.7224119999999
 30
0.0
 11
274.3529459999999
 21
158.7224119999999
 31
0.0
  0
LINE
  5
A7EC
330
A586
100
AcDbEntity
  8
1
  6
Continuous
100
AcDbLine
 10
277.1549129999999
 20
168.4742599999998
 30
0.0
 11
274.3529459999999
 21
168.4742599999998
 31
0.0
  0
ARC
  5
A7ED
330
A586
100
AcDbEntity
  8
1
  6
Continuous
100
AcDbCircle
 10
273.8439599999999
 20
159.9337849999997
 30
0.0
 40
2.702439
100
AcDbArc
 50
280.856116
 51
333.368434
  0
LINE
  5
A7EE
330
A586
100
AcDbEntity
  8
1
  6
Continuous
100
AcDbLine
 10
274.3529459999999
 20
153.7797109999999
 30
0.0
 11
273.8529459999999
 21
153.7797109999999
 31
0.0
  0
ARC
  5
A7EF
330
A586
100
AcDbEntity
  8
1
  6
Continuous
100
AcDbCircle
 10
39.361933
 20
159.9337849999997
 30
0.0
 40
2.702439
100
AcDbArc
 50
201.8108539999999
 51
259.1438839999999
  0
LINE
  5
A7F0
330
A586
100
AcDbEntity
  8
1
  6
Continuous
100
AcDbLine
 10
38.852946
 20
153.7797109999999
 30
0.0
 11
39.352946
 21
153.7797109999999
 31
0.0
  0
LINE
  5
A7F1
330
A586
100
AcDbEntity
  8
1
  6
Continuous
100
AcDbLine
 10
38.852946
 20
165.880292
 30
0.0
 11
36.027423
 21
165.880292
 31
0.0
  0
ARC
  5
A7F2
330
A586
100
AcDbEntity
  8
1
  6
Continuous
100
AcDbCircle
 10
36.027423
 20
166.880292
 30
0.0
 40
1.0
100
AcDbArc
 50
171.8721339999999
 51
270.0
  0
ARC
  5
A7F3
330
A586
100
AcDbEntity
  8
1
  6
Continuous
100
AcDbCircle
 10
273.8439599999999
 20
179.625637
 30
0.0
 40
2.702439
100
AcDbArc
 50
21.810854
 51
79.14388399999999
  0
LINE
  5
A7F4
330
A586
100
AcDbEntity
  8
1
  6
Continuous
100
AcDbLine
 10
274.3529459999999
 20
185.7797109999999
 30
0.0
 11
273.8529459999999
 21
185.7797109999999
 31
0.0
  0
LINE
  5
A7F5
330
A586
100
AcDbEntity
  8
1
  6
Continuous
100
AcDbLine
 10
38.852946
 20
185.7797109999999
 30
0.0
 11
39.352946
 21
185.7797109999999
 31
0.0
  0
ARC
  5
A7F6
330
A586
100
AcDbEntity
  8
1
  6
Continuous
100
AcDbCircle
 10
39.361933
 20
179.625637
 30
0.0
 40
2.702439
100
AcDbArc
 50
100.8561159999999
 51
158.189146
  0
LINE
  5
A7F7
330
A586
100
AcDbEntity
  8
1
  6
Continuous
100
AcDbLine
 10
38.852946
 20
177.0441769999999
 30
0.0
 11
36.027423
 21
177.0441769999999
 31
0.0
  0
ARC
  5
A7F8
330
A586
100
AcDbEntity
  8
1
  6
Continuous
100
AcDbCircle
 10
36.027423
 20
176.0441769999999
 30
0.0
 40
1.0
100
AcDbArc
 50
90.0
 51
188.1278659999999
  0
LINE
  5
A7F9
330
A586
100
AcDbEntity
  8
1
  6
Continuous
100
AcDbLine
 10
36.85294600000001
 20
165.880292
 30
0.0
 11
36.85294600000001
 21
158.9297109999999
 31
0.0
  0
LINE
  5
A7FA
330
A586
100
AcDbEntity
  8
1
  6
Continuous
100
AcDbLine
 10
134.8529459999997
 20
57.779711
 30
0.0
 11
166.852946
 21
57.779711
 31
0.0
  0
LINE
  5
A7FB
330
A586
100
AcDbEntity
  8
1
  6
Continuous
100
AcDbLine
 10
158.9132999999999
 20
55.779711
 30
0.0
 11
143.2499699999999
 21
55.779711
 31
0.0
  0
LINE
  5
A7FC
330
A586
100
AcDbEntity
  8
1
  6
Continuous
100
AcDbLine
 10
166.852946
 20
57.779711
 30
0.0
 11
166.852946
 21
58.279711
 31
0.0
  0
LINE
  5
A7FD
330
A586
100
AcDbEntity
  8
1
  6
Continuous
100
AcDbLine
 10
134.8529459999997
 20
57.779711
 30
0.0
 11
134.8529459999997
 21
58.279711
 31
0.0
  0
LINE
  5
A7FE
330
A586
100
AcDbEntity
  8
1
  6
Continuous
100
AcDbLine
 10
161.512603
 20
53.954187
 30
0.0
 11
158.3955149999999
 21
53.954187
 31
0.0
  0
LINE
  5
A7FF
330
A586
100
AcDbEntity
  8
1
  6
Continuous
100
AcDbLine
 10
143.2499699999999
 20
53.954187
 30
0.0
 11
140.2958439999999
 21
53.954187
 31
0.0
  0
LINE
  5
A800
330
A586
100
AcDbEntity
  8
1
  6
Continuous
100
AcDbLine
 10
162.4929639999997
 20
55.779711
 30
0.0
 11
166.852946
 21
55.779711
 31
0.0
  0
LINE
  5
A801
330
A586
100
AcDbEntity
  8
1
  6
Continuous
100
AcDbLine
 10
134.8529459999997
 20
338.7797109999999
 30
0.0
 11
134.8529459999997
 21
338.2797109999998
 31
0.0
  0
LINE
  5
A802
330
A586
100
AcDbEntity
  8
1
  6
Continuous
100
AcDbLine
 10
145.098466
 20
338.7797109999999
 30
0.0
 11
134.8529459999997
 21
338.7797109999999
 31
0.0
  0
ARC
  5
A803
330
A586
100
AcDbEntity
  8
5
  6
PHANTOM
100
AcDbCircle
 10
119.1455949999999
 20
303.523029
 30
0.0
 40
8.243317999999996
100
AcDbArc
 50
223.993979
 51
270.0
  0
ARC
  5
A804
330
A586
100
AcDbEntity
  8
5
  6
PHANTOM
100
AcDbCircle
 10
119.670389
 20
304.02971
 30
0.0
 40
8.972794999999997
100
AcDbArc
 50
136.006021
 51
223.993979
  0
ARC
  5
A805
330
A586
100
AcDbEntity
  8
5
  6
PHANTOM
100
AcDbCircle
 10
119.1455949999999
 20
304.5363919999998
 30
0.0
 40
8.243317999999996
100
AcDbArc
 50
90.0
 51
136.006021
  0
ARC
  5
A806
330
A586
100
AcDbEntity
  8
5
  6
PHANTOM
100
AcDbCircle
 10
119.670389
 20
92.52971100000001
 30
0.0
 40
8.972794999999997
100
AcDbArc
 50
136.006021
 51
223.993979
  0
ARC
  5
A807
330
A586
100
AcDbEntity
  8
5
  6
PHANTOM
100
AcDbCircle
 10
119.1455949999999
 20
93.036393
 30
0.0
 40
8.243317999999996
100
AcDbArc
 50
90.0
 51
136.006021
  0
ARC
  5
A808
330
A586
100
AcDbEntity
  8
5
  6
PHANTOM
100
AcDbCircle
 10
119.1455949999999
 20
92.02303
 30
0.0
 40
8.243317999999996
100
AcDbArc
 50
223.993979
 51
270.0
  0
LINE
  5
A809
330
A586
100
AcDbEntity
  8
1
  6
Continuous
100
AcDbLine
 10
160.211241
 20
57.779711
 30
0.0
 11
159.1261819999997
 21
53.954187
 31
0.0
  0
LINE
  5
A80A
330
A586
100
AcDbEntity
  8
1
  6
Continuous
100
AcDbLine
 10
159.4805739999999
 20
57.779711
 30
0.0
 11
158.3955149999999
 21
53.954187
 31
0.0
  0
LINE
  5
A80B
330
A586
100
AcDbEntity
  8
1
  6
Continuous
100
AcDbLine
 10
163.567023
 20
57.779711
 30
0.0
 11
161.512603
 21
53.954187
 31
0.0
  0
LINE
  5
A80C
330
A586
100
AcDbEntity
  8
1
  6
Continuous
100
AcDbLine
 10
138.8555509999999
 20
57.779711
 30
0.0
 11
140.2958439999999
 21
53.954187
 31
0.0
  0
LINE
  5
A80D
330
A586
100
AcDbEntity
  8
1
  6
Continuous
100
AcDbLine
 10
139.963985
 20
57.779711
 30
0.0
 11
141.404277
 21
53.954187
 31
0.0
  0
LINE
  5
A80E
330
A586
100
AcDbEntity
  8
1
  6
Continuous
100
AcDbLine
 10
143.4376639999999
 20
57.779711
 30
0.0
 11
144.8712559999998
 21
55.779711
 31
0.0
  0
LINE
  5
A80F
330
A586
100
AcDbEntity
  8
1
  6
Continuous
100
AcDbLine
 10
140.0817439999999
 20
342.6052349999999
 30
0.0
 11
145.965685
 21
342.6052349999999
 31
0.0
  0
LINE
  5
A810
330
A586
100
AcDbEntity
  8
1
  6
Continuous
100
AcDbLine
 10
145.232772
 20
342.6052349999999
 30
0.0
 11
143.2235639999998
 21
338.7797109999999
 31
0.0
  0
LINE
  5
A811
330
A586
100
AcDbEntity
  8
1
  6
Continuous
100
AcDbLine
 10
145.965685
 20
342.6052349999999
 30
0.0
 11
143.956477
 21
338.7797109999999
 31
0.0
  0
LINE
  5
A812
330
A586
100
AcDbEntity
  8
1
  6
Continuous
100
AcDbLine
 10
138.8555509999999
 20
338.7797109999999
 30
0.0
 11
140.0817439999999
 21
342.6052349999999
 31
0.0
  0
CIRCLE
  5
A813
330
A586
100
AcDbEntity
  8
1
  6
Continuous
100
AcDbCircle
 10
150.852946
 20
169.7797109999999
 30
0.0
 40
6.4
  0
LINE
  5
A814
330
A586
100
AcDbEntity
  8
1
  6
Continuous
100
AcDbLine
 10
349.152949
 20
220.579706
 30
0.0
 11
349.152949
 21
218.9797079999999
 31
0.0
  0
LINE
  5
A815
330
A586
100
AcDbEntity
  8
1
  6
Continuous
100
AcDbLine
 10
316.552943
 20
220.579706
 30
0.0
 11
316.552943
 21
218.9797079999999
 31
0.0
  0
LINE
  5
A816
330
A586
100
AcDbEntity
  8
1
  6
Continuous
100
AcDbLine
 10
349.152949
 20
218.9797079999999
 30
0.0
 11
316.552943
 21
218.9797079999999
 31
0.0
  0
LINE
  5
A817
330
A586
100
AcDbEntity
  8
1
  6
Continuous
100
AcDbLine
 10
328.8529459999998
 20
262.2797109999999
 30
0.0
 11
336.8529459999998
 21
262.2797109999999
 31
0.0
  0
LINE
  5
A818
330
A586
100
AcDbEntity
  8
1
  6
Continuous
100
AcDbLine
 10
326.8529459999998
 20
260.2797109999999
 30
0.0
 11
338.8529459999998
 21
260.2797109999999
 31
0.0
  0
LINE
  5
A819
330
A586
100
AcDbEntity
  8
1
  6
Continuous
100
AcDbLine
 10
323.3529459999998
 20
227.2797109999999
 30
0.0
 11
342.3529459999998
 21
227.2797109999999
 31
0.0
  0
LINE
  5
A81A
330
A586
100
AcDbEntity
  8
1
  6
Continuous
100
AcDbLine
 10
326.8529459999998
 20
228.919963
 30
0.0
 11
338.8529459999998
 21
228.919963
 31
0.0
  0
LINE
  5
A81B
330
A586
100
AcDbEntity
  8
1
  6
Continuous
100
AcDbLine
 10
346.6529449999999
 20
223.0797059999999
 30
0.0
 11
319.0529430000001
 21
223.0797059999999
 31
0.0
  0
LINE
  5
A81C
330
A586
100
AcDbEntity
  8
1
  6
Continuous
100
AcDbLine
 10
349.152949
 20
220.579706
 30
0.0
 11
316.552943
 21
220.579706
 31
0.0
  0
LINE
  5
A81D
330
A586
100
AcDbEntity
  8
2
  6
Continuous
100
AcDbLine
 10
327.7999459999998
 20
261.2267109999999
 30
0.0
 11
327.7999459999998
 21
228.919963
 31
0.0
  0
LINE
  5
A81E
330
A586
100
AcDbEntity
  8
1
  6
Continuous
100
AcDbLine
 10
326.8529459999998
 20
260.2797109999999
 30
0.0
 11
326.8529459999998
 21
227.2797109999999
 31
0.0
  0
ARC
  5
A81F
330
A586
100
AcDbEntity
  8
1
  6
Continuous
100
AcDbCircle
 10
320.186839
 20
219.7684689999999
 30
0.0
 40
3.5
100
AcDbArc
 50
108.9031
 51
162.9964699999999
  0
ARC
  5
A820
330
A586
100
AcDbEntity
  8
1
  6
Continuous
100
AcDbCircle
 10
316.552943
 20
220.879706
 30
0.0
 40
0.3
100
AcDbArc
 50
270.00002
 51
342.9964799999999
  0
ARC
  5
A821
330
A586
100
AcDbEntity
  8
1
  6
Continuous
100
AcDbCircle
 10
328.8529459999998
 20
225.0297109999999
 30
0.0
 40
3.5
100
AcDbArc
 50
326.14148
 51
40.005173
  0
ARC
  5
A822
330
A586
100
AcDbEntity
  8
1
  6
Continuous
100
AcDbCircle
 10
326.8529459999998
 20
225.0297109999999
 30
0.0
 40
3.0
100
AcDbArc
 50
131.4096399999999
 51
220.5416599999999
  0
LINE
  5
A823
330
A586
100
AcDbEntity
  8
1
  6
Continuous
100
AcDbLine
 10
323.3529459999998
 20
227.2797109999999
 30
0.0
 11
323.3529459999998
 21
223.0797059999999
 31
0.0
  0
LINE
  5
A824
330
A586
100
AcDbEntity
  8
2
  6
Continuous
100
AcDbLine
 10
327.7999459999998
 20
228.919963
 30
0.0
 11
326.8529459999998
 21
227.2797109999999
 31
0.0
  0
LINE
  5
A825
330
A586
100
AcDbEntity
  8
1
  6
Continuous
100
AcDbLine
 10
328.8529459999998
 20
262.2797109999999
 30
0.0
 11
326.8529459999998
 21
260.2797109999999
 31
0.0
  0
LINE
  5
A826
330
A586
100
AcDbEntity
  8
2
  6
Continuous
100
AcDbLine
 10
337.9059459999998
 20
261.2267109999999
 30
0.0
 11
337.9059459999998
 21
228.919963
 31
0.0
  0
LINE
  5
A827
330
A586
100
AcDbEntity
  8
1
  6
Continuous
100
AcDbLine
 10
338.8529459999998
 20
260.2797109999999
 30
0.0
 11
338.8529459999998
 21
227.2797109999999
 31
0.0
  0
ARC
  5
A828
330
A586
100
AcDbEntity
  8
1
  6
Continuous
100
AcDbCircle
 10
349.152949
 20
220.879706
 30
0.0
 40
0.3
100
AcDbArc
 50
197.00351
 51
269.9999599999998
  0
ARC
  5
A829
330
A586
100
AcDbEntity
  8
1
  6
Continuous
100
AcDbCircle
 10
345.5190529999999
 20
219.7684689999999
 30
0.0
 40
3.5
100
AcDbArc
 50
17.003496
 51
71.09685999999998
  0
LINE
  5
A82A
330
A586
100
AcDbEntity
  8
2
  6
Continuous
100
AcDbLine
 10
337.9059459999998
 20
228.919963
 30
0.0
 11
338.8529459999998
 21
227.2797109999999
 31
0.0
  0
ARC
  5
A82B
330
A586
100
AcDbEntity
  8
1
  6
Continuous
100
AcDbCircle
 10
336.8529459999998
 20
225.0297109999999
 30
0.0
 40
3.5
100
AcDbArc
 50
139.9947899999999
 51
213.8584799999999
  0
ARC
  5
A82C
330
A586
100
AcDbEntity
  8
1
  6
Continuous
100
AcDbCircle
 10
338.8529459999998
 20
225.0297109999999
 30
0.0
 40
3.0
100
AcDbArc
 50
319.45831
 51
48.590321
  0
LINE
  5
A82D
330
A586
100
AcDbEntity
  8
1
  6
Continuous
100
AcDbLine
 10
342.3529459999998
 20
227.2797109999999
 30
0.0
 11
342.3529459999998
 21
223.0797059999999
 31
0.0
  0
LINE
  5
A82E
330
A586
100
AcDbEntity
  8
1
  6
Continuous
100
AcDbLine
 10
336.8529459999998
 20
262.2797109999999
 30
0.0
 11
338.8529459999998
 21
260.2797109999999
 31
0.0
  0
LINE
  5
A82F
330
A586
100
AcDbEntity
  8
1
  6
Continuous
100
AcDbLine
 10
279.6529489999999
 20
220.579706
 30
0.0
 11
279.6529489999999
 21
218.9797079999999
 31
0.0
  0
LINE
  5
A830
330
A586
100
AcDbEntity
  8
1
  6
Continuous
100
AcDbLine
 10
247.052943
 20
220.579706
 30
0.0
 11
247.052943
 21
218.9797079999999
 31
0.0
  0
LINE
  5
A831
330
A586
100
AcDbEntity
  8
1
  6
Continuous
100
AcDbLine
 10
279.6529489999999
 20
218.9797079999999
 30
0.0
 11
247.052943
 21
218.9797079999999
 31
0.0
  0
LINE
  5
A832
330
A586
100
AcDbEntity
  8
1
  6
Continuous
100
AcDbLine
 10
253.5387829999999
 20
227.2797109999999
 30
0.0
 11
273.1671089999999
 21
227.2797109999999
 31
0.0
  0
LINE
  5
A833
330
A586
100
AcDbEntity
  8
1
  6
Continuous
100
AcDbLine
 10
249.552948
 20
223.0797059999999
 30
0.0
 11
277.1529489999999
 21
223.0797059999999
 31
0.0
  0
LINE
  5
A834
330
A586
100
AcDbEntity
  8
1
  6
Continuous
100
AcDbLine
 10
279.6529489999999
 20
220.579706
 30
0.0
 11
247.052943
 21
220.579706
 31
0.0
  0
ARC
  5
A835
330
A586
100
AcDbEntity
  8
1
  6
Continuous
100
AcDbCircle
 10
253.5387829999999
 20
226.779711
 30
0.0
 40
0.5
100
AcDbArc
 50
89.99998199999996
 51
161.44681
  0
ARC
  5
A836
330
A586
100
AcDbEntity
  8
1
  6
Continuous
100
AcDbCircle
 10
258.752948
 20
225.0297109999999
 30
0.0
 40
6.0
100
AcDbArc
 50
161.4469
 51
198.96558
  0
ARC
  5
A837
330
A586
100
AcDbEntity
  8
1
  6
Continuous
100
AcDbCircle
 10
247.052943
 20
220.879706
 30
0.0
 40
0.3
100
AcDbArc
 50
270.00002
 51
342.9964799999999
  0
ARC
  5
A838
330
A586
100
AcDbEntity
  8
1
  6
Continuous
100
AcDbCircle
 10
250.686839
 20
219.7684689999999
 30
0.0
 40
3.5
100
AcDbArc
 50
108.9031
 51
162.9964699999999
  0
LINE
  5
A839
330
A586
100
AcDbEntity
  8
2
  6
Continuous
100
AcDbLine
 10
258.2999459999999
 20
261.2267109999999
 30
0.0
 11
258.2999459999999
 21
228.919963
 31
0.0
  0
LINE
  5
A83A
330
A586
100
AcDbEntity
  8
1
  6
Continuous
100
AcDbLine
 10
257.3529459999999
 20
260.2797109999999
 30
0.0
 11
257.3529459999999
 21
227.2797109999999
 31
0.0
  0
LINE
  5
A83B
330
A586
100
AcDbEntity
  8
2
  6
Continuous
100
AcDbLine
 10
268.4059459999999
 20
261.2267109999999
 30
0.0
 11
268.4059459999999
 21
228.919963
 31
0.0
  0
LINE
  5
A83C
330
A586
100
AcDbEntity
  8
1
  6
Continuous
100
AcDbLine
 10
269.3529459999999
 20
260.2797109999999
 30
0.0
 11
269.3529459999999
 21
227.2797109999999
 31
0.0
  0
ARC
  5
A83D
330
A586
100
AcDbEntity
  8
1
  6
Continuous
100
AcDbCircle
 10
272.729121
 20
225.0297109999999
 30
0.0
 40
3.5
100
AcDbArc
 50
139.99477
 51
213.8584799999999
  0
ARC
  5
A83E
330
A586
100
AcDbEntity
  8
1
  6
Continuous
100
AcDbCircle
 10
264.5550749999998
 20
225.0297109999999
 30
0.0
 40
3.5
100
AcDbArc
 50
326.14148
 51
40.005224
  0
LINE
  5
A83F
330
A586
100
AcDbEntity
  8
2
  6
Continuous
100
AcDbLine
 10
268.4059459999999
 20
228.919963
 30
0.0
 11
269.3529459999999
 21
227.2797109999999
 31
0.0
  0
ARC
  5
A840
330
A586
100
AcDbEntity
  8
1
  6
Continuous
100
AcDbCircle
 10
253.976771
 20
225.0297109999999
 30
0.0
 40
3.5
100
AcDbArc
 50
326.14148
 51
40.005169
  0
ARC
  5
A841
330
A586
100
AcDbEntity
  8
1
  6
Continuous
100
AcDbCircle
 10
262.15082
 20
225.0297109999999
 30
0.0
 40
3.5
100
AcDbArc
 50
139.99471
 51
213.8584799999999
  0
LINE
  5
A842
330
A586
100
AcDbEntity
  8
2
  6
Continuous
100
AcDbLine
 10
258.2999459999999
 20
228.919963
 30
0.0
 11
257.3529459999999
 21
227.2797109999999
 31
0.0
  0
LINE
  5
A843
330
A586
100
AcDbEntity
  8
1
  6
Continuous
100
AcDbLine
 10
257.3529459999999
 20
228.919963
 30
0.0
 11
269.3529459999999
 21
228.919963
 31
0.0
  0
ARC
  5
A844
330
A586
100
AcDbEntity
  8
1
  6
Continuous
100
AcDbCircle
 10
279.6529489999999
 20
220.879706
 30
0.0
 40
0.3
100
AcDbArc
 50
197.00351
 51
269.9999599999998
  0
ARC
  5
A845
330
A586
100
AcDbEntity
  8
1
  6
Continuous
100
AcDbCircle
 10
273.1671089999999
 20
226.779711
 30
0.0
 40
0.5
100
AcDbArc
 50
18.55312999999998
 51
89.99996800000003
  0
ARC
  5
A846
330
A586
100
AcDbEntity
  8
1
  6
Continuous
100
AcDbCircle
 10
267.952944
 20
225.0297109999999
 30
0.0
 40
6.0
100
AcDbArc
 50
341.03438
 51
18.553034
  0
ARC
  5
A847
330
A586
100
AcDbEntity
  8
1
  6
Continuous
100
AcDbCircle
 10
276.019053
 20
219.7684689999999
 30
0.0
 40
3.5
100
AcDbArc
 50
17.003496
 51
71.09685999999998
  0
LINE
  5
A848
330
A586
100
AcDbEntity
  8
1
  6
Continuous
100
AcDbLine
 10
267.3529459999999
 20
262.2797109999999
 30
0.0
 11
269.3529459999999
 21
260.2797109999999
 31
0.0
  0
LINE
  5
A849
330
A586
100
AcDbEntity
  8
1
  6
Continuous
100
AcDbLine
 10
259.3529459999999
 20
262.2797109999999
 30
0.0
 11
257.3529459999999
 21
260.2797109999999
 31
0.0
  0
LINE
  5
A84A
330
A586
100
AcDbEntity
  8
1
  6
Continuous
100
AcDbLine
 10
257.3529459999999
 20
260.2797109999999
 30
0.0
 11
269.3529459999999
 21
260.2797109999999
 31
0.0
  0
LINE
  5
A84B
330
A586
100
AcDbEntity
  8
1
  6
Continuous
100
AcDbLine
 10
259.3529459999999
 20
262.2797109999999
 30
0.0
 11
267.3529459999999
 21
262.2797109999999
 31
0.0
  0
LINE
  5
A84C
330
A586
100
AcDbEntity
  8
1
  6
Continuous
100
AcDbLine
 10
166.8914649999998
 20
312.7797109999999
 30
0.0
 11
143.1529459999999
 21
312.7797109999999
 31
0.0
  0
LINE
  5
A84D
330
A586
100
AcDbEntity
  8
1
  6
Continuous
100
AcDbLine
 10
166.8914649999998
 20
342.7797109999999
 30
0.0
 11
143.1529459999999
 21
342.7797109999999
 31
0.0
  0
ARC
  5
A84E
330
A586
100
AcDbEntity
  8
1
  6
Continuous
100
AcDbCircle
 10
178.885863
 20
327.7797109999998
 30
0.0
 40
35.53291699999999
100
AcDbArc
 50
155.0299929999999
 51
204.970007
  0
LINE
  5
A84F
330
A586
100
AcDbEntity
  8
1
  6
Continuous
100
AcDbLine
 10
143.1529459999999
 20
312.7797109999999
 30
0.0
 11
143.1529459999999
 21
314.7797109999999
 31
0.0
  0
LINE
  5
A850
330
A586
100
AcDbEntity
  8
1
  6
Continuous
100
AcDbLine
 10
143.1529459999999
 20
314.7797109999999
 30
0.0
 11
145.8164179999999
 21
314.7797109999999
 31
0.0
  0
LINE
  5
A851
330
A586
100
AcDbEntity
  8
1
  6
Continuous
100
AcDbLine
 10
143.1529459999999
 20
312.7797109999999
 30
0.0
 11
144.9247469999999
 21
312.7797109999999
 31
0.0
  0
LINE
  5
A852
330
A586
100
AcDbEntity
  8
1
  6
Continuous
100
AcDbLine
 10
143.1529459999999
 20
342.6052349999999
 30
0.0
 11
143.1529459999999
 21
342.7797109999999
 31
0.0
  0
ARC
  5
A853
330
A586
100
AcDbEntity
  8
1
  6
Continuous
100
AcDbCircle
 10
166.8914649999998
 20
346.7797109999998
 30
0.0
 40
4.0
100
AcDbArc
 50
270.0
 51
304.301153
  0
CIRCLE
  5
A854
330
A586
100
AcDbEntity
  8
1
  6
Continuous
100
AcDbCircle
 10
179.852946
 20
327.7797109999998
 30
0.0
 40
16.3
  0
ARC
  5
A855
330
A586
100
AcDbEntity
  8
1
  6
Continuous
100
AcDbCircle
 10
179.852946
 20
327.7797109999998
 30
0.0
 40
19.0
100
AcDbArc
 50
235.6988470000001
 51
124.301153
  0
LINE
  5
A856
330
A586
100
AcDbEntity
  8
1
  6
Continuous
100
AcDbLine
 10
180.9841639999999
 20
338.0766019999998
 30
0.0
 11
188.2229459999997
 21
333.8972889999999
 31
0.0
  0
LINE
  5
A857
330
A586
100
AcDbEntity
  8
1
  6
Continuous
100
AcDbLine
 10
180.9841639999999
 20
317.48282
 30
0.0
 11
188.2229459999997
 21
321.6621329999998
 31
0.0
  0
CIRCLE
  5
A858
330
A586
100
AcDbEntity
  8
1
  6
Continuous
100
AcDbCircle
 10
179.852946
 20
327.7797109999998
 30
0.0
 40
4.0
  0
CIRCLE
  5
A859
330
A586
100
AcDbEntity
  8
1
  6
Continuous
100
AcDbCircle
 10
179.852946
 20
327.7797109999998
 30
0.0
 40
6.0
  0
CIRCLE
  5
A85A
330
A586
100
AcDbEntity
  8
2
  6
Continuous
100
AcDbCircle
 10
179.852946
 20
327.7797109999998
 30
0.0
 40
5.052999999999999
  0
CIRCLE
  5
A85B
330
A586
100
AcDbEntity
  8
1
  6
Continuous
100
AcDbCircle
 10
179.852946
 20
327.7797109999998
 30
0.0
 40
13.8
  0
LINE
  5
A85C
330
A586
100
AcDbEntity
  8
1
  6
Continuous
100
AcDbLine
 10
171.4829459999999
 20
321.6621329999998
 30
0.0
 11
178.721729
 21
317.48282
 31
0.0
  0
ARC
  5
A85D
330
A586
100
AcDbEntity
  8
1
  6
Continuous
100
AcDbCircle
 10
179.852946
 20
327.7797109999998
 30
0.0
 40
19.0
100
AcDbArc
 50
137.044631
 51
222.9270399999998
  0
ARC
  5
A85E
330
A586
100
AcDbEntity
  8
1
  6
Continuous
100
AcDbCircle
 10
166.8914649999998
 20
308.7797109999999
 30
0.0
 40
4.0
100
AcDbArc
 50
55.69884700000001
 51
90.0
  0
ARC
  5
A85F
330
A586
100
AcDbEntity
  8
1
  6
Continuous
100
AcDbCircle
 10
179.852946
 20
319.442146
 30
0.0
 40
2.262436
100
AcDbArc
 50
239.9999999999999
 51
300.0
  0
ARC
  5
A860
330
A586
100
AcDbEntity
  8
1
  6
Continuous
100
AcDbCircle
 10
179.852946
 20
336.117275
 30
0.0
 40
2.262436
100
AcDbArc
 50
60.0
 51
119.9999999999999
  0
LINE
  5
A861
330
A586
100
AcDbEntity
  8
1
  6
Continuous
100
AcDbLine
 10
171.4829459999999
 20
333.8972889999999
 30
0.0
 11
178.721729
 21
338.0766019999998
 31
0.0
  0
LINE
  5
A862
330
A586
100
AcDbEntity
  8
1
  6
Continuous
100
AcDbLine
 10
170.352946
 20
323.61935
 30
0.0
 11
170.352946
 21
331.9400719999998
 31
0.0
  0
ARC
  5
A863
330
A586
100
AcDbEntity
  8
1
  6
Continuous
100
AcDbCircle
 10
172.6129459999999
 20
323.61935
 30
0.0
 40
2.259999999999998
100
AcDbArc
 50
180.0
 51
239.9999999999999
  0
ARC
  5
A864
330
A586
100
AcDbEntity
  8
1
  6
Continuous
100
AcDbCircle
 10
172.6129459999999
 20
331.9400719999998
 30
0.0
 40
2.259999999999998
100
AcDbArc
 50
119.9999999999999
 51
180.0
  0
LINE
  5
A865
330
A586
100
AcDbEntity
  8
1
  6
Continuous
100
AcDbLine
 10
189.352946
 20
323.61935
 30
0.0
 11
189.352946
 21
331.9400719999998
 31
0.0
  0
ARC
  5
A866
330
A586
100
AcDbEntity
  8
1
  6
Continuous
100
AcDbCircle
 10
187.0929459999999
 20
323.61935
 30
0.0
 40
2.259999999999998
100
AcDbArc
 50
300.0
 51
0.0
  0
ARC
  5
A867
330
A586
100
AcDbEntity
  8
1
  6
Continuous
100
AcDbCircle
 10
187.0929459999999
 20
331.9400719999998
 30
0.0
 40
2.259999999999998
100
AcDbArc
 50
0.0
 51
60.0
  0
ARC
  5
A868
330
A586
100
AcDbEntity
  8
1
  6
Continuous
100
AcDbCircle
 10
154.1529449999998
 20
343.274447
 30
0.0
 40
2.0
100
AcDbArc
 50
0.00002
 51
89.94208
  0
LINE
  5
A869
330
A586
100
AcDbEntity
  8
1
  6
Continuous
100
AcDbLine
 10
147.5549609999999
 20
345.2811299999999
 30
0.0
 11
154.1549589999999
 21
345.2744539999998
 31
0.0
  0
LINE
  5
A86A
330
A586
100
AcDbEntity
  8
1
  6
Continuous
100
AcDbLine
 10
145.5529469999999
 20
342.7831439999998
 30
0.0
 11
145.5529469999999
 21
343.281115
 31
0.0
  0
ARC
  5
A86B
330
A586
100
AcDbEntity
  8
1
  6
Continuous
100
AcDbCircle
 10
147.5529469999998
 20
343.281115
 30
0.0
 40
2.0
100
AcDbArc
 50
89.94208
 51
179.999982
  0
LINE
  5
A86C
330
A586
100
AcDbEntity
  8
1
  6
Continuous
100
AcDbLine
 10
156.1529449999999
 20
342.7831439999998
 30
0.0
 11
156.1529449999999
 21
343.281115
 31
0.0
  0
ARC
  5
A86D
330
A586
100
AcDbEntity
  8
1
  6
Continuous
100
AcDbCircle
 10
178.480487
 20
303.5297109999999
 30
0.0
 40
10.33528
100
AcDbArc
 50
319.258212
 51
38.73282800000001
  0
ARC
  5
A86E
330
A586
100
AcDbEntity
  8
1
  6
Continuous
100
AcDbCircle
 10
62.519053
 20
219.7684689999999
 30
0.0
 40
3.5
100
AcDbArc
 50
17.003496
 51
71.09685999999998
  0
LINE
  5
A86F
330
A586
100
AcDbEntity
  8
1
  6
Continuous
100
AcDbLine
 10
66.15294899999999
 20
218.9797079999999
 30
0.0
 11
33.552943
 21
218.9797079999999
 31
0.0
  0
LINE
  5
A870
330
A586
100
AcDbEntity
  8
1
  6
Continuous
100
AcDbLine
 10
66.15294899999999
 20
220.579706
 30
0.0
 11
33.552943
 21
220.579706
 31
0.0
  0
LINE
  5
A871
330
A586
100
AcDbEntity
  8
2
  6
Continuous
100
AcDbLine
 10
44.799946
 20
261.2267109999999
 30
0.0
 11
44.799946
 21
228.919963
 31
0.0
  0
LINE
  5
A872
330
A586
100
AcDbEntity
  8
1
  6
Continuous
100
AcDbLine
 10
43.852946
 20
260.2797109999999
 30
0.0
 11
43.852946
 21
227.2797109999999
 31
0.0
  0
LINE
  5
A873
330
A586
100
AcDbEntity
  8
2
  6
Continuous
100
AcDbLine
 10
54.90594599999999
 20
261.2267109999999
 30
0.0
 11
54.90594599999999
 21
228.919963
 31
0.0
  0
LINE
  5
A874
330
A586
100
AcDbEntity
  8
1
  6
Continuous
100
AcDbLine
 10
55.852946
 20
260.2797109999999
 30
0.0
 11
55.852946
 21
227.2797109999999
 31
0.0
  0
LINE
  5
A875
330
A586
100
AcDbEntity
  8
2
  6
Continuous
100
AcDbLine
 10
54.90594599999999
 20
228.919963
 30
0.0
 11
55.852946
 21
227.2797109999999
 31
0.0
  0
LINE
  5
A876
330
A586
100
AcDbEntity
  8
2
  6
Continuous
100
AcDbLine
 10
44.799946
 20
228.919963
 30
0.0
 11
43.852946
 21
227.2797109999999
 31
0.0
  0
LINE
  5
A877
330
A586
100
AcDbEntity
  8
1
  6
Continuous
100
AcDbLine
 10
40.038783
 20
227.2797109999999
 30
0.0
 11
59.66710899999998
 21
227.2797109999999
 31
0.0
  0
LINE
  5
A878
330
A586
100
AcDbEntity
  8
1
  6
Continuous
100
AcDbLine
 10
36.052948
 20
223.0797059999999
 30
0.0
 11
63.652949
 21
223.0797059999999
 31
0.0
  0
ARC
  5
A879
330
A586
100
AcDbEntity
  8
1
  6
Continuous
100
AcDbCircle
 10
40.476771
 20
225.0297109999999
 30
0.0
 40
3.5
100
AcDbArc
 50
326.14148
 51
40.005169
  0
LINE
  5
A87A
330
A586
100
AcDbEntity
  8
1
  6
Continuous
100
AcDbLine
 10
33.552943
 20
220.579706
 30
0.0
 11
33.552943
 21
218.9797079999999
 31
0.0
  0
ARC
  5
A87B
330
A586
100
AcDbEntity
  8
1
  6
Continuous
100
AcDbCircle
 10
40.038783
 20
226.779711
 30
0.0
 40
0.5
100
AcDbArc
 50
89.99998199999996
 51
161.44681
  0
ARC
  5
A87C
330
A586
100
AcDbEntity
  8
1
  6
Continuous
100
AcDbCircle
 10
45.252948
 20
225.0297109999999
 30
0.0
 40
6.0
100
AcDbArc
 50
161.4469
 51
198.96558
  0
ARC
  5
A87D
330
A586
100
AcDbEntity
  8
1
  6
Continuous
100
AcDbCircle
 10
33.552943
 20
220.879706
 30
0.0
 40
0.3
100
AcDbArc
 50
270.00002
 51
342.9964799999999
  0
ARC
  5
A87E
330
A586
100
AcDbEntity
  8
1
  6
Continuous
100
AcDbCircle
 10
37.186839
 20
219.7684689999999
 30
0.0
 40
3.5
100
AcDbArc
 50
108.9031
 51
162.9964699999999
  0
ARC
  5
A87F
330
A586
100
AcDbEntity
  8
1
  6
Continuous
100
AcDbCircle
 10
59.229121
 20
225.0297109999999
 30
0.0
 40
3.5
100
AcDbArc
 50
139.99477
 51
213.8584799999999
  0
ARC
  5
A880
330
A586
100
AcDbEntity
  8
1
  6
Continuous
100
AcDbCircle
 10
51.055075
 20
225.0297109999999
 30
0.0
 40
3.5
100
AcDbArc
 50
326.14148
 51
40.005224
  0
ARC
  5
A881
330
A586
100
AcDbEntity
  8
1
  6
Continuous
100
AcDbCircle
 10
48.65082000000001
 20
225.0297109999999
 30
0.0
 40
3.5
100
AcDbArc
 50
139.99471
 51
213.8584799999999
  0
ARC
  5
A882
330
A586
100
AcDbEntity
  8
1
  6
Continuous
100
AcDbCircle
 10
59.66710899999998
 20
226.779711
 30
0.0
 40
0.5
100
AcDbArc
 50
18.55312999999998
 51
89.99996800000003
  0
ARC
  5
A883
330
A586
100
AcDbEntity
  8
1
  6
Continuous
100
AcDbCircle
 10
54.45294399999998
 20
225.0297109999999
 30
0.0
 40
6.0
100
AcDbArc
 50
341.03438
 51
18.553034
  0
LINE
  5
A884
330
A586
100
AcDbEntity
  8
1
  6
Continuous
100
AcDbLine
 10
43.852946
 20
228.919963
 30
0.0
 11
55.852946
 21
228.919963
 31
0.0
  0
LINE
  5
A885
330
A586
100
AcDbEntity
  8
1
  6
Continuous
100
AcDbLine
 10
45.852946
 20
262.2797109999999
 30
0.0
 11
43.852946
 21
260.2797109999999
 31
0.0
  0
LINE
  5
A886
330
A586
100
AcDbEntity
  8
1
  6
Continuous
100
AcDbLine
 10
43.852946
 20
260.2797109999999
 30
0.0
 11
55.852946
 21
260.2797109999999
 31
0.0
  0
LINE
  5
A887
330
A586
100
AcDbEntity
  8
1
  6
Continuous
100
AcDbLine
 10
53.85294599999999
 20
262.2797109999999
 30
0.0
 11
55.852946
 21
260.2797109999999
 31
0.0
  0
LINE
  5
A888
330
A586
100
AcDbEntity
  8
1
  6
Continuous
100
AcDbLine
 10
45.852946
 20
262.2797109999999
 30
0.0
 11
53.85294599999999
 21
262.2797109999999
 31
0.0
  0
LINE
  5
A889
330
A586
100
AcDbEntity
  8
1
  6
Continuous
100
AcDbLine
 10
66.15294899999999
 20
220.579706
 30
0.0
 11
66.15294899999999
 21
218.9797079999999
 31
0.0
  0
ARC
  5
A88A
330
A586
100
AcDbEntity
  8
1
  6
Continuous
100
AcDbCircle
 10
66.15294899999999
 20
220.879706
 30
0.0
 40
0.3
100
AcDbArc
 50
197.00351
 51
269.9999599999998
  0
LINE
  5
A88B
330
A586
100
AcDbEntity
  8
2
  6
Continuous
100
AcDbLine
 10
174.799946
 20
261.2267109999999
 30
0.0
 11
174.799946
 21
228.919963
 31
0.0
  0
LINE
  5
A88C
330
A586
100
AcDbEntity
  8
1
  6
Continuous
100
AcDbLine
 10
173.852946
 20
260.2797109999999
 30
0.0
 11
173.852946
 21
227.2797109999999
 31
0.0
  0
LINE
  5
A88D
330
A586
100
AcDbEntity
  8
2
  6
Continuous
100
AcDbLine
 10
184.905946
 20
261.2267109999999
 30
0.0
 11
184.905946
 21
228.919963
 31
0.0
  0
LINE
  5
A88E
330
A586
100
AcDbEntity
  8
1
  6
Continuous
100
AcDbLine
 10
185.8529459999997
 20
260.2797109999999
 30
0.0
 11
185.8529459999997
 21
227.2797109999999
 31
0.0
  0
LINE
  5
A88F
330
A586
100
AcDbEntity
  8
1
  6
Continuous
100
AcDbLine
 10
196.152949
 20
218.9797079999999
 30
0.0
 11
163.552943
 21
218.9797079999999
 31
0.0
  0
LINE
  5
A890
330
A586
100
AcDbEntity
  8
1
  6
Continuous
100
AcDbLine
 10
170.352946
 20
227.2797109999999
 30
0.0
 11
189.352946
 21
227.2797109999999
 31
0.0
  0
LINE
  5
A891
330
A586
100
AcDbEntity
  8
1
  6
Continuous
100
AcDbLine
 10
173.852946
 20
228.919963
 30
0.0
 11
185.8529459999997
 21
228.919963
 31
0.0
  0
LINE
  5
A892
330
A586
100
AcDbEntity
  8
1
  6
Continuous
100
AcDbLine
 10
193.6529449999999
 20
223.0797059999999
 30
0.0
 11
166.0529429999999
 21
223.0797059999999
 31
0.0
  0
LINE
  5
A893
330
A586
100
AcDbEntity
  8
1
  6
Continuous
100
AcDbLine
 10
196.152949
 20
220.579706
 30
0.0
 11
163.552943
 21
220.579706
 31
0.0
  0
LINE
  5
A894
330
A586
100
AcDbEntity
  8
2
  6
Continuous
100
AcDbLine
 10
174.799946
 20
228.919963
 30
0.0
 11
173.852946
 21
227.2797109999999
 31
0.0
  0
LINE
  5
A895
330
A586
100
AcDbEntity
  8
1
  6
Continuous
100
AcDbLine
 10
163.552943
 20
220.579706
 30
0.0
 11
163.552943
 21
218.9797079999999
 31
0.0
  0
ARC
  5
A896
330
A586
100
AcDbEntity
  8
1
  6
Continuous
100
AcDbCircle
 10
167.186839
 20
219.7684689999999
 30
0.0
 40
3.5
100
AcDbArc
 50
108.9031
 51
162.9964699999999
  0
ARC
  5
A897
330
A586
100
AcDbEntity
  8
1
  6
Continuous
100
AcDbCircle
 10
163.552943
 20
220.879706
 30
0.0
 40
0.3
100
AcDbArc
 50
270.00002
 51
342.9964799999999
  0
ARC
  5
A898
330
A586
100
AcDbEntity
  8
1
  6
Continuous
100
AcDbCircle
 10
175.852946
 20
225.0297109999999
 30
0.0
 40
3.5
100
AcDbArc
 50
326.14148
 51
40.005173
  0
ARC
  5
A899
330
A586
100
AcDbEntity
  8
1
  6
Continuous
100
AcDbCircle
 10
173.852946
 20
225.0297109999999
 30
0.0
 40
3.0
100
AcDbArc
 50
131.4096399999999
 51
220.5416599999999
  0
LINE
  5
A89A
330
A586
100
AcDbEntity
  8
1
  6
Continuous
100
AcDbLine
 10
170.352946
 20
227.2797109999999
 30
0.0
 11
170.352946
 21
223.0797059999999
 31
0.0
  0
ARC
  5
A89B
330
A586
100
AcDbEntity
  8
1
  6
Continuous
100
AcDbCircle
 10
183.852946
 20
225.0297109999999
 30
0.0
 40
3.5
100
AcDbArc
 50
139.9947899999999
 51
213.8584799999999
  0
LINE
  5
A89C
330
A586
100
AcDbEntity
  8
2
  6
Continuous
100
AcDbLine
 10
184.905946
 20
228.919963
 30
0.0
 11
185.8529459999997
 21
227.2797109999999
 31
0.0
  0
LINE
  5
A89D
330
A586
100
AcDbEntity
  8
1
  6
Continuous
100
AcDbLine
 10
196.152949
 20
220.579706
 30
0.0
 11
196.152949
 21
218.9797079999999
 31
0.0
  0
ARC
  5
A89E
330
A586
100
AcDbEntity
  8
1
  6
Continuous
100
AcDbCircle
 10
196.152949
 20
220.879706
 30
0.0
 40
0.3
100
AcDbArc
 50
197.00351
 51
269.9999599999998
  0
ARC
  5
A89F
330
A586
100
AcDbEntity
  8
1
  6
Continuous
100
AcDbCircle
 10
192.519053
 20
219.7684689999999
 30
0.0
 40
3.5
100
AcDbArc
 50
17.003496
 51
71.09685999999998
  0
ARC
  5
A8A0
330
A586
100
AcDbEntity
  8
1
  6
Continuous
100
AcDbCircle
 10
185.8529459999997
 20
225.0297109999999
 30
0.0
 40
3.0
100
AcDbArc
 50
319.45831
 51
48.590321
  0
LINE
  5
A8A1
330
A586
100
AcDbEntity
  8
1
  6
Continuous
100
AcDbLine
 10
189.352946
 20
227.2797109999999
 30
0.0
 11
189.352946
 21
223.0797059999999
 31
0.0
  0
LINE
  5
A8A2
330
A586
100
AcDbEntity
  8
1
  6
Continuous
100
AcDbLine
 10
175.852946
 20
262.2797109999999
 30
0.0
 11
183.852946
 21
262.2797109999999
 31
0.0
  0
LINE
  5
A8A3
330
A586
100
AcDbEntity
  8
1
  6
Continuous
100
AcDbLine
 10
173.852946
 20
260.2797109999999
 30
0.0
 11
185.8529459999997
 21
260.2797109999999
 31
0.0
  0
LINE
  5
A8A4
330
A586
100
AcDbEntity
  8
1
  6
Continuous
100
AcDbLine
 10
175.852946
 20
262.2797109999999
 30
0.0
 11
173.852946
 21
260.2797109999999
 31
0.0
  0
LINE
  5
A8A5
330
A586
100
AcDbEntity
  8
1
  6
Continuous
100
AcDbLine
 10
183.852946
 20
262.2797109999999
 30
0.0
 11
185.8529459999997
 21
260.2797109999999
 31
0.0
  0
LINE
  5
A924
330
A586
100
AcDbEntity
  8
4
  6
CENTER
100
AcDbLine
 10
179.852946
 20
44.77971099999999
 30
0.0
 11
179.852946
 21
92.779711
 31
0.0
  0
LINE
  5
A925
330
A586
100
AcDbEntity
  8
4
  6
CENTER
100
AcDbLine
 10
150.852946
 20
46.28162796280778
 30
0.0
 11
150.852946
 21
100.4797109999999
 31
0.0
  0
LINE
  5
A926
330
A586
100
AcDbEntity
  8
4
  6
CENTER
100
AcDbLine
 10
203.8529459999999
 20
68.77971099999999
 30
0.0
 11
108.352946
 21
68.77971099999999
 31
0.0
  0
ENDSEC
  0
SECTION
  2
OBJECTS
  0
DICTIONARY
  5
A574
330
0
100
AcDbDictionary
281
     1
  3
ACAD_CIP_PREVIOUS_PRODUCT_INFO
350
A989
  3
ACAD_COLOR
350
A96B
  3
ACAD_DETAILVIEWSTYLE
350
A984
  3
ACAD_GROUP
350
A575
  3
ACAD_LAYOUT
350
A581
  3
ACAD_MATERIAL
350
A939
  3
ACAD_MLEADERSTYLE
350
A980
  3
ACAD_MLINESTYLE
350
A57E
  3
ACAD_PLOTSETTINGS
350
A580
  3
ACAD_PLOTSTYLENAME
350
A937
  3
ACAD_SCALELIST
350
A96E
  3
ACAD_SECTIONVIEWSTYLE
350
A982
  3
ACAD_TABLESTYLE
350
A96C
  3
ACAD_VISUALSTYLE
350
A952
  3
ACDB_RECOMPOSE_DATA
350
A9A7
  3
AcDbVariableDictionary
350
A99A
  3
DWGPROPS
350
A9A8
  0
DICTIONARY
  5
A98A
330
A578
100
AcDbDictionary
280
     1
281
     1
  3
ADSK_XREC_LAYER_RECONCILED
360
A98B
  0
DICTIONARY
  5
A98C
330
A58E
100
AcDbDictionary
280
     1
281
     1
  3
ADSK_XREC_LAYER_RECONCILED
360
A98D
  0
DICTIONARY
  5
A98E
330
A58F
100
AcDbDictionary
280
     1
281
     1
  3
ADSK_XREC_LAYER_RECONCILED
360
A98F
  0
DICTIONARY
  5
A990
330
A590
100
AcDbDictionary
280
     1
281
     1
  3
ADSK_XREC_LAYER_RECONCILED
360
A991
  0
DICTIONARY
  5
A992
330
A591
100
AcDbDictionary
280
     1
281
     1
  3
ADSK_XREC_LAYER_RECONCILED
360
A993
  0
DICTIONARY
  5
A994
330
A592
100
AcDbDictionary
280
     1
281
     1
  3
ADSK_XREC_LAYER_RECONCILED
360
A995
  0
DICTIONARY
  5
A996
330
A593
100
AcDbDictionary
280
     1
281
     1
  3
ADSK_XREC_LAYER_RECONCILED
360
A997
  0
DICTIONARY
  5
A998
330
A594
100
AcDbDictionary
280
     1
281
     1
  3
ADSK_XREC_LAYER_RECONCILED
360
A999
  0
DICTIONARY
  5
A8B0
330
A586
100
AcDbDictionary
281
     1
  3
ACAD_LAYOUTSELFREF
350
A933
  0
DICTIONARY
  5
A8AE
330
A582
100
AcDbDictionary
281
     1
  3
ACAD_LAYOUTSELFREF
350
A932
  0
XRECORD
  5
A989
102
{ACAD_REACTORS
330
A574
102
}
330
A574
100
AcDbXrecord
280
     1
300
ACDLT
300
2014
300
ACDLT_F_S
  0
DICTIONARY
  5
A96B
102
{ACAD_REACTORS
330
A574
102
}
330
A574
100
AcDbDictionary
281
     1
  0
DICTIONARY
  5
A984
102
{ACAD_REACTORS
330
A574
102
}
330
A574
100
AcDbDictionary
281
     1
  3
Imperial24
350
A985
  0
DICTIONARY
  5
A575
102
{ACAD_REACTORS
330
A574
102
}
330
A574
100
AcDbDictionary
281
     1
  0
DICTIONARY
  5
A581
102
{ACAD_REACTORS
330
A574
102
}
330
A574
100
AcDbDictionary
281
     1
  3
Model
350
A986
  3
レイアウト1
350
A987
  0
DICTIONARY
  5
A939
102
{ACAD_REACTORS
330
A574
102
}
330
A574
100
AcDbDictionary
281
     1
  3
ByBlock
350
A942
  3
ByLayer
350
A93A
  3
Global
350
A94A
  0
DICTIONARY
  5
A980
102
{ACAD_REACTORS
330
A574
102
}
330
A574
100
AcDbDictionary
281
     1
  3
Standard
350
A981
  0
DICTIONARY
  5
A57E
102
{ACAD_REACTORS
330
A574
102
}
330
A574
100
AcDbDictionary
281
     1
  3
STANDARD
350
A57F
  0
DICTIONARY
  5
A580
102
{ACAD_REACTORS
330
A574
102
}
330
A574
100
AcDbDictionary
281
     1
  0
ACDBDICTIONARYWDFLT
  5
A937
102
{ACAD_REACTORS
330
A574
102
}
330
A574
100
AcDbDictionary
281
     1
  3
Normal
350
A938
100
AcDbDictionaryWithDefault
340
A938
  0
DICTIONARY
  5
A96E
102
{ACAD_REACTORS
330
A574
102
}
330
A574
100
AcDbDictionary
281
     1
  3
A0
350
A96F
  3
A1
350
A970
  3
A2
350
A971
  3
A3
350
A972
  3
A4
350
A973
  3
A5
350
A974
  3
A6
350
A975
  3
A7
350
A976
  3
A8
350
A977
  3
A9
350
A978
  3
B0
350
A979
  3
B1
350
A97A
  3
B2
350
A97B
  3
B3
350
A97C
  3
B4
350
A97D
  3
B5
350
A97E
  3
B6
350
A97F
  0
DICTIONARY
  5
A982
102
{ACAD_REACTORS
330
A574
102
}
330
A574
100
AcDbDictionary
281
     1
  3
Imperial24
350
A983
  0
DICTIONARY
  5
A96C
102
{ACAD_REACTORS
330
A574
102
}
330
A574
100
AcDbDictionary
281
     1
  3
Standard
350
A96D
  0
DICTIONARY
  5
A952
102
{ACAD_REACTORS
330
A574
102
}
330
A574
100
AcDbDictionary
281
     1
  3
2dWireframe
350
A958
  3
Basic
350
A957
  3
Brighten
350
A95E
  3
ColorChange
350
A962
  3
Conceptual
350
A95B
  3
Dim
350
A95D
  3
EdgeColorOff
350
A96A
  3
Facepattern
350
A961
  3
Flat
350
A953
  3
FlatWithEdges
350
A954
  3
Gouraud
350
A955
  3
GouraudWithEdges
350
A956
  3
Hidden
350
A95A
  3
JitterOff
350
A968
  3
Linepattern
350
A960
  3
OverhangOff
350
A969
  3
Realistic
350
A95C
  3
Shaded
350
A967
  3
Shaded with edges
350
A966
  3
Shades of Gray
350
A963
  3
Sketchy
350
A964
  3
Thicken
350
A95F
  3
Wireframe
350
A959
  3
X-Ray
350
A965
  0
XRECORD
  5
A9A7
102
{ACAD_REACTORS
330
A574
102
}
330
A574
100
AcDbXrecord
280
     1
 90
        1
330
A96D
  0
DICTIONARY
  5
A99A
102
{ACAD_REACTORS
330
A574
102
}
330
A574
100
AcDbDictionary
281
     1
  3
CANNOSCALE
350
A99F
  3
CMLEADERSTYLE
350
A99C
  3
CTABLESTYLE
350
A99B
  3
CVIEWDETAILSTYLE
350
A99D
  3
CVIEWSECTIONSTYLE
350
A99E
  3
DIMASSOC
350
A9A2
  3
INDEXCTL
350
A9A1
  3
SORTENTS
350
A9A0
  3
XCLIPFRAME
350
A9A3
  0
XRECORD
  5
A9A8
102
{ACAD_REACTORS
330
A574
102
}
330
A574
100
AcDbXrecord
280
     1
  1
DWGPROPS COOKIE
  2

  3

  4

  6

  7

  8
Yoshitsune
  9

300
=
301
=
302
=
303
=
304
=
305
=
306
=
307
=
308
=
309
=
 40
0.0520846527777778
 41
2451301.42893044
 42
2457192.689913438
  1

 90
        0
  0
XRECORD
  5
A98B
102
{ACAD_REACTORS
330
A98A
102
}
330
A98A
100
AcDbXrecord
280
     1
290
     1
  0
XRECORD
  5
A98D
102
{ACAD_REACTORS
330
A98C
102
}
330
A98C
100
AcDbXrecord
280
     1
290
     1
  0
XRECORD
  5
A98F
102
{ACAD_REACTORS
330
A98E
102
}
330
A98E
100
AcDbXrecord
280
     1
290
     1
  0
XRECORD
  5
A991
102
{ACAD_REACTORS
330
A990
102
}
330
A990
100
AcDbXrecord
280
     1
290
     1
  0
XRECORD
  5
A993
102
{ACAD_REACTORS
330
A992
102
}
330
A992
100
AcDbXrecord
280
     1
290
     1
  0
XRECORD
  5
A995
102
{ACAD_REACTORS
330
A994
102
}
330
A994
100
AcDbXrecord
280
     1
290
     1
  0
XRECORD
  5
A997
102
{ACAD_REACTORS
330
A996
102
}
330
A996
100
AcDbXrecord
280
     1
290
     1
  0
XRECORD
  5
A999
102
{ACAD_REACTORS
330
A998
102
}
330
A998
100
AcDbXrecord
280
     1
290
     1
  0
XRECORD
  5
A933
102
{ACAD_REACTORS
330
A8B0
102
}
330
A8B0
100
AcDbXrecord
280
     1
340
A586
  0
XRECORD
  5
A932
102
{ACAD_REACTORS
330
A8AE
102
}
330
A8AE
100
AcDbXrecord
280
     1
340
A582
  0
ACDBDETAILVIEWSTYLE
  5
A985
102
{ACAD_XDICTIONARY
360
A9E0
102
}
102
{ACAD_REACTORS
330
A984
102
}
330
A984
100
AcDbModelDocViewStyle
 70
     0
  3
Imperial24
290
     0
100
AcDbDetailViewStyle
 70
     0
 71
     0
 90
        3
 71
     1
340
A579
 40
0.24
340
0
 40
0.24
300

 40
0.36
280
     3
 71
     2
340
A57D
 90
       25
 71
     3
340
A579
 40
0.24
 90
        1
 40
0.75
 90
        1
300
%<\AcVar ViewType \f "%tc1">% %<\AcVar ViewDetailId>%\PSCALE %<\AcVar ViewScale \f "%sn">%
 71
     4
340
A57D
 90
       25
340
A57D
 90
       25
280
     0
  0
LAYOUT
  5
A986
102
{ACAD_XDICTIONARY
360
A9E2
102
}
102
{ACAD_REACTORS
330
A581
102
}
330
A581
100
AcDbPlotSettings
  1

  2
Canon LBP9100C
  4

  6

 40
0.0
 41
0.0
 42
0.0
 43
0.0
 44
0.0
 45
0.0
 46
0.0
 47
0.0
 48
0.0
 49
0.0
140
0.0
141
0.0
142
1.0
143
1.0
 70
  1712
 72
     0
 73
     0
 74
     0
  7

 75
     0
147
1.0
148
0.0
149
0.0
100
AcDbLayout
  1
Model
 70
     1
 71
     0
 10
0.0
 20
0.0
 11
12.0
 21
9.0
 12
0.0
 22
0.0
 32
0.0
 14
0.0
 24
0.0
 34
0.0
 15
0.0
 25
0.0
 35
0.0
146
0.0
 13
0.0
 23
0.0
 33
0.0
 16
1.0
 26
0.0
 36
0.0
 17
0.0
 27
1.0
 37
0.0
 76
     0
330
A586
331
A931
  0
LAYOUT
  5
A987
102
{ACAD_XDICTIONARY
360
A9E4
102
}
102
{ACAD_REACTORS
330
A581
102
}
330
A581
100
AcDbPlotSettings
  1

  2
Canon LBP9100C
  4

  6

 40
0.0
 41
0.0
 42
0.0
 43
0.0
 44
0.0
 45
0.0
 46
0.0
 47
0.0
 48
0.0
 49
0.0
140
0.0
141
0.0
142
1.0
143
1.0
 70
   688
 72
     0
 73
     0
 74
     5
  7

 75
    16
147
1.0
148
0.0
149
0.0
100
AcDbLayout
  1
レイアウト1
 70
     0
 71
     1
 10
0.0
 20
0.0
 11
420.0
 21
297.0
 12
0.0
 22
0.0
 32
0.0
 14
1.000000000000000E+20
 24
1.000000000000000E+20
 34
1.000000000000000E+20
 15
-1.000000000000000E+20
 25
-1.000000000000000E+20
 35
-1.000000000000000E+20
146
0.0
 13
0.0
 23
0.0
 33
0.0
 16
1.0
 26
0.0
 36
0.0
 17
0.0
 27
1.0
 37
0.0
 76
     0
330
A582
  0
MATERIAL
  5
A942
102
{ACAD_XDICTIONARY
360
A943
102
}
102
{ACAD_REACTORS
330
A939
102
}
330
A939
100
AcDbMaterial
  1
ByBlock
 72
     0
 43
0.0208333333333333
 43
0.0
 43
0.0
 43
0.0
 43
0.0
 43
0.0208333333333333
 43
0.0
 43
0.0
 43
0.0
 43
0.0
 43
1.0
 43
0.0
 43
0.0
 43
0.0
 43
0.0
 43
1.0
 77
     0
 47
0.0208333333333333
 47
0.0
 47
0.0
 47
0.0
 47
0.0
 47
0.0208333333333333
 47
0.0
 47
0.0
 47
0.0
 47
0.0
 47
1.0
 47
0.0
 47
0.0
 47
0.0
 47
0.0
 47
1.0
171
     0
 49
0.0208333333333333
 49
0.0
 49
0.0
 49
0.0
 49
0.0
 49
0.0208333333333333
 49
0.0
 49
0.0
 49
0.0
 49
0.0
 49
1.0
 49
0.0
 49
0.0
 49
0.0
 49
0.0
 49
1.0
175
     0
142
0.0208333333333333
142
0.0
142
0.0
142
0.0
142
0.0
142
0.0208333333333333
142
0.0
142
0.0
142
0.0
142
0.0
142
1.0
142
0.0
142
0.0
142
0.0
142
0.0
142
1.0
179
     0
144
0.0208333333333333
144
0.0
144
0.0
144
0.0
144
0.0
144
0.0208333333333333
144
0.0
144
0.0
144
0.0
144
0.0
144
1.0
144
0.0
144
0.0
144
0.0
144
0.0
144
1.0
147
0.0208333333333333
147
0.0
147
0.0
147
0.0
147
0.0
147
0.0208333333333333
147
0.0
147
0.0
147
0.0
147
0.0
147
1.0
147
0.0
147
0.0
147
0.0
147
0.0
147
1.0
  0
MATERIAL
  5
A93A
102
{ACAD_XDICTIONARY
360
A93B
102
}
102
{ACAD_REACTORS
330
A939
102
}
330
A939
100
AcDbMaterial
  1
ByLayer
 72
     0
 43
0.0208333333333333
 43
0.0
 43
0.0
 43
0.0
 43
0.0
 43
0.0208333333333333
 43
0.0
 43
0.0
 43
0.0
 43
0.0
 43
1.0
 43
0.0
 43
0.0
 43
0.0
 43
0.0
 43
1.0
 77
     0
 47
0.0208333333333333
 47
0.0
 47
0.0
 47
0.0
 47
0.0
 47
0.0208333333333333
 47
0.0
 47
0.0
 47
0.0
 47
0.0
 47
1.0
 47
0.0
 47
0.0
 47
0.0
 47
0.0
 47
1.0
171
     0
 49
0.0208333333333333
 49
0.0
 49
0.0
 49
0.0
 49
0.0
 49
0.0208333333333333
 49
0.0
 49
0.0
 49
0.0
 49
0.0
 49
1.0
 49
0.0
 49
0.0
 49
0.0
 49
0.0
 49
1.0
175
     0
142
0.0208333333333333
142
0.0
142
0.0
142
0.0
142
0.0
142
0.0208333333333333
142
0.0
142
0.0
142
0.0
142
0.0
142
1.0
142
0.0
142
0.0
142
0.0
142
0.0
142
1.0
179
     0
144
0.0208333333333333
144
0.0
144
0.0
144
0.0
144
0.0
144
0.0208333333333333
144
0.0
144
0.0
144
0.0
144
0.0
144
1.0
144
0.0
144
0.0
144
0.0
144
0.0
144
1.0
147
0.0208333333333333
147
0.0
147
0.0
147
0.0
147
0.0
147
0.0208333333333333
147
0.0
147
0.0
147
0.0
147
0.0
147
1.0
147
0.0
147
0.0
147
0.0
147
0.0
147
1.0
  0
MATERIAL
  5
A94A
102
{ACAD_XDICTIONARY
360
A94B
102
}
102
{ACAD_REACTORS
330
A939
102
}
330
A939
100
AcDbMaterial
  1
Global
 72
     0
 43
0.0208333333333333
 43
0.0
 43
0.0
 43
0.0
 43
0.0
 43
0.0208333333333333
 43
0.0
 43
0.0
 43
0.0
 43
0.0
 43
1.0
 43
0.0
 43
0.0
 43
0.0
 43
0.0
 43
1.0
 77
     0
 47
0.0208333333333333
 47
0.0
 47
0.0
 47
0.0
 47
0.0
 47
0.0208333333333333
 47
0.0
 47
0.0
 47
0.0
 47
0.0
 47
1.0
 47
0.0
 47
0.0
 47
0.0
 47
0.0
 47
1.0
171
     0
 49
0.0208333333333333
 49
0.0
 49
0.0
 49
0.0
 49
0.0
 49
0.0208333333333333
 49
0.0
 49
0.0
 49
0.0
 49
0.0
 49
1.0
 49
0.0
 49
0.0
 49
0.0
 49
0.0
 49
1.0
175
     0
142
0.0208333333333333
142
0.0
142
0.0
142
0.0
142
0.0
142
0.0208333333333333
142
0.0
142
0.0
142
0.0
142
0.0
142
1.0
142
0.0
142
0.0
142
0.0
142
0.0
142
1.0
179
     0
144
0.0208333333333333
144
0.0
144
0.0
144
0.0
144
0.0
144
0.0208333333333333
144
0.0
144
0.0
144
0.0
144
0.0
144
1.0
144
0.0
144
0.0
144
0.0
144
0.0
144
1.0
147
0.0208333333333333
147
0.0
147
0.0
147
0.0
147
0.0
147
0.0208333333333333
147
0.0
147
0.0
147
0.0
147
0.0
147
1.0
147
0.0
147
0.0
147
0.0
147
0.0
147
1.0
  0
MLEADERSTYLE
  5
A981
102
{ACAD_REACTORS
330
A980
102
}
330
A980
100
AcDbMLeaderStyle
170
     2
171
     1
172
     0
 90
        2
 40
0.0
 41
0.0
173
     1
 91
-1056964608
340
A57B
 92
       -2
290
     1
 42
0.09
291
     1
 43
0.36
  3
Standard
 44
0.18
300

342
A579
174
     1
178
     6
175
     1
176
     0
 93
-1056964608
 45
0.18
292
     0
297
     0
 46
0.18
 94
-1056964608
 47
1.0
 49
1.0
140
1.0
293
     1
141
0.0
294
     1
177
     0
142
1.0
295
     0
296
     0
143
0.125
1001
ACAD_MLEADERVER
1070
     2
  0
MLINESTYLE
  5
A57F
102
{ACAD_REACTORS
330
A57E
102
}
330
A57E
100
AcDbMlineStyle
  2
STANDARD
 70
     0
  3

 62
   256
 51
90.0
 52
90.0
 71
     2
 49
0.5
 62
   256
  6
BYLAYER
 49
-0.5
 62
   256
  6
BYLAYER
  0
ACDBPLACEHOLDER
  5
A938
102
{ACAD_REACTORS
330
A937
102
}
330
A937
  0
SCALE
  5
A96F
102
{ACAD_REACTORS
330
A96E
102
}
330
A96E
100
AcDbScale
 70
     0
300
1:1
140
1.0
141
1.0
290
     1
  0
SCALE
  5
A970
102
{ACAD_REACTORS
330
A96E
102
}
330
A96E
100
AcDbScale
 70
     0
300
1/128" = 1'-0"
140
0.0078125
141
12.0
290
     0
  0
SCALE
  5
A971
102
{ACAD_REACTORS
330
A96E
102
}
330
A96E
100
AcDbScale
 70
     0
300
1/64" = 1'-0"
140
0.015625
141
12.0
290
     0
  0
SCALE
  5
A972
102
{ACAD_REACTORS
330
A96E
102
}
330
A96E
100
AcDbScale
 70
     0
300
1/32" = 1'-0"
140
0.03125
141
12.0
290
     0
  0
SCALE
  5
A973
102
{ACAD_REACTORS
330
A96E
102
}
330
A96E
100
AcDbScale
 70
     0
300
1/16" = 1'-0"
140
0.0625
141
12.0
290
     0
  0
SCALE
  5
A974
102
{ACAD_REACTORS
330
A96E
102
}
330
A96E
100
AcDbScale
 70
     0
300
3/32" = 1'-0"
140
0.09375
141
12.0
290
     0
  0
SCALE
  5
A975
102
{ACAD_REACTORS
330
A96E
102
}
330
A96E
100
AcDbScale
 70
     0
300
1/8" = 1'-0"
140
0.125
141
12.0
290
     0
  0
SCALE
  5
A976
102
{ACAD_REACTORS
330
A96E
102
}
330
A96E
100
AcDbScale
 70
     0
300
3/16" = 1'-0"
140
0.1875
141
12.0
290
     0
  0
SCALE
  5
A977
102
{ACAD_REACTORS
330
A96E
102
}
330
A96E
100
AcDbScale
 70
     0
300
1/4" = 1'-0"
140
0.25
141
12.0
290
     0
  0
SCALE
  5
A978
102
{ACAD_REACTORS
330
A96E
102
}
330
A96E
100
AcDbScale
 70
     0
300
3/8" = 1'-0"
140
0.375
141
12.0
290
     0
  0
SCALE
  5
A979
102
{ACAD_REACTORS
330
A96E
102
}
330
A96E
100
AcDbScale
 70
     0
300
1/2" = 1'-0"
140
0.5
141
12.0
290
     0
  0
SCALE
  5
A97A
102
{ACAD_REACTORS
330
A96E
102
}
330
A96E
100
AcDbScale
 70
     0
300
3/4" = 1'-0"
140
0.75
141
12.0
290
     0
  0
SCALE
  5
A97B
102
{ACAD_REACTORS
330
A96E
102
}
330
A96E
100
AcDbScale
 70
     0
300
1" = 1'-0"
140
1.0
141
12.0
290
     0
  0
SCALE
  5
A97C
102
{ACAD_REACTORS
330
A96E
102
}
330
A96E
100
AcDbScale
 70
     0
300
1-1/2" = 1'-0"
140
1.5
141
12.0
290
     0
  0
SCALE
  5
A97D
102
{ACAD_REACTORS
330
A96E
102
}
330
A96E
100
AcDbScale
 70
     0
300
3" = 1'-0"
140
3.0
141
12.0
290
     0
  0
SCALE
  5
A97E
102
{ACAD_REACTORS
330
A96E
102
}
330
A96E
100
AcDbScale
 70
     0
300
6" = 1'-0"
140
6.0
141
12.0
290
     0
  0
SCALE
  5
A97F
102
{ACAD_REACTORS
330
A96E
102
}
330
A96E
100
AcDbScale
 70
     0
300
1'-0" = 1'-0"
140
12.0
141
12.0
290
     0
  0
ACDBSECTIONVIEWSTYLE
  5
A983
102
{ACAD_XDICTIONARY
360
A9DE
102
}
102
{ACAD_REACTORS
330
A982
102
}
330
A982
100
AcDbModelDocViewStyle
 70
     0
  3
Imperial24
290
     0
100
AcDbSectionViewStyle
 70
     0
 71
     0
 90
       78
 71
     1
340
A579
 40
0.24
340
0
340
0
 40
0.24
300
I, O, Q, S, X, Z
 40
0.48
 90
        3
 40
0.18
 90
        1
 71
     2
340
A57D
 90
       25
340
A57D
 90
       50
 40
0.24
 40
0.0
 40
0.24
 71
     3
340
A579
 40
0.24
 90
        1
 40
0.75
 90
        1
300
%<\AcVar ViewType \f "%tc1">% %<\AcVar ViewSectionStartId>%-%<\AcVar ViewSectionEndId>%\PSCALE %<\AcVar ViewScale \f "%sn">%
 71
     4
300
ANSI31
 40
1.0
 90
        0
290
     0
290
     0
 90
        6
 40
0.0
 40
1.570796326794896
 40
0.2617993877991494
 40
1.308996938995747
 40
-0.2617993877991494
 40
1.832595714594046
  0
TABLESTYLE
  5
A96D
102
{ACAD_XDICTIONARY
360
A9A5
102
}
102
{ACAD_REACTORS
330
A96C
102
}
330
A96C
100
AcDbTableStyle
  3
Standard
 70
     0
 71
     0
 40
0.06
 41
0.06
280
     0
281
     0
  7
STANDARD
140
0.18
170
     2
 62
     0
 63
     7
283
     0
274
    -2
284
     1
 64
     0
275
    -2
285
     1
 65
     0
276
    -2
286
     1
 66
     0
277
    -2
287
     1
 67
     0
278
    -2
288
     1
 68
     0
279
    -2
289
     1
 69
     0
  7
STANDARD
140
0.25
170
     5
 62
     0
 63
     7
283
     0
274
    -2
284
     1
 64
     0
275
    -2
285
     1
 65
     0
276
    -2
286
     1
 66
     0
277
    -2
287
     1
 67
     0
278
    -2
288
     1
 68
     0
279
    -2
289
     1
 69
     0
  7
STANDARD
140
0.18
170
     5
 62
     0
 63
     7
283
     0
274
    -2
284
     1
 64
     0
275
    -2
285
     1
 65
     0
276
    -2
286
     1
 66
     0
277
    -2
287
     1
 67
     0
278
    -2
288
     1
 68
     0
279
    -2
289
     1
 69
     0
  0
VISUALSTYLE
  5
A958
102
{ACAD_XDICTIONARY
360
A9B6
102
}
102
{ACAD_REACTORS
330
A952
102
}
330
A952
100
AcDbVisualStyle
  2
2dWireframe
 70
     4
 71
     0
 72
     2
 73
     0
 90
        0
 40
-0.6
 41
-30.0
 62
     5
 63
     7
 74
     1
 91
        4
 64
     7
 65
   257
 75
     1
175
     1
 42
1.0
 92
        0
 66
   257
 43
1.0
 76
     1
 77
     6
 78
     2
 67
     7
 79
     5
170
     0
171
     0
290
     0
174
     0
 93
        1
 44
0.0
173
     0
291
     0
 45
0.0
1001
ACAD
1000
AcDbSavedByObjectVersion
1070
     0
  0
VISUALSTYLE
  5
A957
102
{ACAD_XDICTIONARY
360
A9B4
102
}
102
{ACAD_REACTORS
330
A952
102
}
330
A952
100
AcDbVisualStyle
  2
Basic
 70
     7
 71
     1
 72
     0
 73
     1
 90
        0
 40
-0.6
 41
-30.0
 62
     5
 63
     7
 74
     0
 91
        4
 64
     7
 65
   257
 75
     1
175
     1
 42
1.0
 92
        8
 66
     7
 43
1.0
 76
     1
 77
     6
 78
     2
 67
     7
 79
     5
170
     0
171
     0
290
     0
174
     0
 93
        1
 44
0.0
173
     0
291
     1
 45
0.0
1001
ACAD
1000
AcDbSavedByObjectVersion
1070
     0
  0
VISUALSTYLE
  5
A95E
102
{ACAD_XDICTIONARY
360
A9C2
102
}
102
{ACAD_REACTORS
330
A952
102
}
330
A952
100
AcDbVisualStyle
  2
Brighten
 70
    12
 71
     2
 72
     2
 73
     0
 90
        0
 40
-0.6
 41
-30.0
 62
     5
 63
     7
 74
     1
 91
        4
 64
     7
 65
   257
 75
     1
175
     1
 42
1.0
 92
        8
 66
     7
 43
1.0
 76
     1
 77
     6
 78
     2
 67
     7
 79
     5
170
     0
171
     0
290
     0
174
     0
 93
        1
 44
50.0
173
     0
291
     1
 45
0.0
1001
ACAD
1000
AcDbSavedByObjectVersion
1070
     0
  0
VISUALSTYLE
  5
A962
102
{ACAD_XDICTIONARY
360
A9CA
102
}
102
{ACAD_REACTORS
330
A952
102
}
330
A952
100
AcDbVisualStyle
  2
ColorChange
 70
    16
 71
     2
 72
     2
 73
     3
 90
        0
 40
-0.6
 41
-30.0
 62
     5
 63
     8
 74
     1
 91
        4
 64
     7
 65
   257
 75
     1
175
     1
 42
1.0
 92
        8
 66
     8
 43
1.0
 76
     1
 77
     6
 78
     2
 67
     7
 79
     5
170
     0
171
     0
290
     0
174
     0
 93
        1
 44
0.0
173
     0
291
     1
 45
0.0
1001
ACAD
1000
AcDbSavedByObjectVersion
1070
     0
  0
VISUALSTYLE
  5
A95B
102
{ACAD_XDICTIONARY
360
A9BC
102
}
102
{ACAD_REACTORS
330
A952
102
}
330
A952
100
AcDbVisualStyle
  2
Conceptual
 70
     9
 71
     3
 72
     2
 73
     0
 90
        0
 40
-0.6
 41
-30.0
 62
     5
 63
     7
 74
     2
 91
        2
 64
     7
 65
   257
 75
     1
175
     1
 42
179.0
 92
        8
 66
     7
 43
1.0
 76
     1
 77
     6
 78
     2
 67
     7
 79
     3
170
     0
171
     0
290
     0
174
     0
 93
        1
 44
0.0
173
     0
291
     0
 45
0.0
1001
ACAD
1000
AcDbSavedByObjectVersion
1070
     0
  0
VISUALSTYLE
  5
A95D
102
{ACAD_XDICTIONARY
360
A9C0
102
}
102
{ACAD_REACTORS
330
A952
102
}
330
A952
100
AcDbVisualStyle
  2
Dim
 70
    11
 71
     2
 72
     2
 73
     0
 90
        0
 40
-0.6
 41
-30.0
 62
     5
 63
     7
 74
     1
 91
        4
 64
     7
 65
   257
 75
     1
175
     1
 42
1.0
 92
        8
 66
     7
 43
1.0
 76
     1
 77
     6
 78
     2
 67
     7
 79
     5
170
     0
171
     0
290
     0
174
     0
 93
        1
 44
-50.0
173
     0
291
     1
 45
0.0
1001
ACAD
1000
AcDbSavedByObjectVersion
1070
     0
  0
VISUALSTYLE
  5
A96A
102
{ACAD_XDICTIONARY
360
A9DA
102
}
102
{ACAD_REACTORS
330
A952
102
}
330
A952
100
AcDbVisualStyle
  2
EdgeColorOff
 70
    22
 71
     2
 72
     2
 73
     0
 90
        0
 40
-0.6
 41
-30.0
 62
     5
 63
     7
 74
     1
 91
        4
 64
     7
 65
   257
 75
     1
175
     1
 42
1.0
 92
        8
 66
     7
 43
1.0
 76
     1
 77
     6
 78
     2
 67
     7
 79
     5
170
     0
171
     0
290
     0
174
     0
 93
        1
 44
0.0
173
     0
291
     1
 45
0.0
1001
ACAD
1000
AcDbSavedByObjectVersion
1070
     0
  0
VISUALSTYLE
  5
A961
102
{ACAD_XDICTIONARY
360
A9C8
102
}
102
{ACAD_REACTORS
330
A952
102
}
330
A952
100
AcDbVisualStyle
  2
Facepattern
 70
    15
 71
     2
 72
     2
 73
     0
 90
        0
 40
-0.6
 41
-30.0
 62
     5
 63
     7
 74
     1
 91
        4
 64
     7
 65
   257
 75
     1
175
     1
 42
1.0
 92
        8
 66
     7
 43
1.0
 76
     1
 77
     6
 78
     2
 67
     7
 79
     5
170
     0
171
     0
290
     0
174
     0
 93
        1
 44
0.0
173
     0
291
     1
 45
0.0
1001
ACAD
1000
AcDbSavedByObjectVersion
1070
     0
  0
VISUALSTYLE
  5
A953
102
{ACAD_XDICTIONARY
360
A9AC
102
}
102
{ACAD_REACTORS
330
A952
102
}
330
A952
100
AcDbVisualStyle
  2
Flat
 70
     0
 71
     2
 72
     1
 73
     1
 90
        2
 40
-0.6
 41
30.0
 62
     5
 63
     7
 74
     0
 91
        0
 64
     7
 65
   257
 75
     1
175
     1
 42
1.0
 92
        8
 66
     7
 43
1.0
 76
     1
 77
     6
 78
     2
 67
     7
 79
     5
170
     0
171
     0
290
     0
174
     0
 93
       13
 44
0.0
173
     0
291
     1
 45
0.0
1001
ACAD
1000
AcDbSavedByObjectVersion
1070
     0
  0
VISUALSTYLE
  5
A954
102
{ACAD_XDICTIONARY
360
A9AE
102
}
102
{ACAD_REACTORS
330
A952
102
}
330
A952
100
AcDbVisualStyle
  2
FlatWithEdges
 70
     1
 71
     2
 72
     1
 73
     1
 90
        2
 40
-0.6
 41
30.0
 62
     5
 63
     7
 74
     1
 91
        0
 64
     7
 65
   257
 75
     1
175
     1
 42
1.0
 92
        0
 66
   257
 43
1.0
 76
     1
 77
     6
 78
     2
 67
     7
 79
     5
170
     0
171
     0
290
     0
174
     0
 93
       13
 44
0.0
173
     0
291
     1
 45
0.0
1001
ACAD
1000
AcDbSavedByObjectVersion
1070
     0
  0
VISUALSTYLE
  5
A955
102
{ACAD_XDICTIONARY
360
A9B0
102
}
102
{ACAD_REACTORS
330
A952
102
}
330
A952
100
AcDbVisualStyle
  2
Gouraud
 70
     2
 71
     2
 72
     2
 73
     1
 90
        2
 40
-0.6
 41
30.0
 62
     5
 63
     7
 74
     0
 91
        0
 64
     7
 65
   257
 75
     1
175
     1
 42
1.0
 92
        0
 66
     7
 43
1.0
 76
     1
 77
     6
 78
     2
 67
     7
 79
     5
170
     0
171
     0
290
     0
174
     0
 93
       13
 44
0.0
173
     0
291
     1
 45
0.0
1001
ACAD
1000
AcDbSavedByObjectVersion
1070
     0
  0
VISUALSTYLE
  5
A956
102
{ACAD_XDICTIONARY
360
A9B2
102
}
102
{ACAD_REACTORS
330
A952
102
}
330
A952
100
AcDbVisualStyle
  2
GouraudWithEdges
 70
     3
 71
     2
 72
     2
 73
     1
 90
        2
 40
-0.6
 41
30.0
 62
     5
 63
     7
 74
     1
 91
        0
 64
     7
 65
   257
 75
     1
175
     1
 42
1.0
 92
        0
 66
   257
 43
1.0
 76
     1
 77
     6
 78
     2
 67
     7
 79
     5
170
     0
171
     0
290
     0
174
     0
 93
       13
 44
0.0
173
     0
291
     1
 45
0.0
1001
ACAD
1000
AcDbSavedByObjectVersion
1070
     0
  0
VISUALSTYLE
  5
A95A
102
{ACAD_XDICTIONARY
360
A9BA
102
}
102
{ACAD_REACTORS
330
A952
102
}
330
A952
100
AcDbVisualStyle
  2
Hidden
 70
     6
 71
     1
 72
     2
 73
     2
 90
        0
 40
-0.6
 41
-30.0
 62
     5
 63
     7
 74
     2
 91
        2
 64
     7
 65
   257
 75
     2
175
     1
 42
40.0
 92
        0
 66
   257
 43
1.0
 76
     1
 77
     6
 78
     2
 67
     7
 79
     3
170
     0
171
     0
290
     0
174
     0
 93
        1
 44
0.0
173
     0
291
     0
 45
0.0
1001
ACAD
1000
AcDbSavedByObjectVersion
1070
     0
  0
VISUALSTYLE
  5
A968
102
{ACAD_XDICTIONARY
360
A9D6
102
}
102
{ACAD_REACTORS
330
A952
102
}
330
A952
100
AcDbVisualStyle
  2
JitterOff
 70
    20
 71
     2
 72
     2
 73
     0
 90
        0
 40
-0.6
 41
-30.0
 62
     5
 63
     7
 74
     1
 91
        4
 64
     7
 65
   257
 75
     1
175
     1
 42
1.0
 92
       10
 66
     7
 43
1.0
 76
     1
 77
     6
 78
     2
 67
     7
 79
     5
170
     0
171
     0
290
     0
174
     0
 93
        1
 44
0.0
173
     0
291
     1
 45
0.0
1001
ACAD
1000
AcDbSavedByObjectVersion
1070
     0
  0
VISUALSTYLE
  5
A960
102
{ACAD_XDICTIONARY
360
A9C6
102
}
102
{ACAD_REACTORS
330
A952
102
}
330
A952
100
AcDbVisualStyle
  2
Linepattern
 70
    14
 71
     2
 72
     2
 73
     0
 90
        0
 40
-0.6
 41
-30.0
 62
     5
 63
     7
 74
     1
 91
        4
 64
     7
 65
   257
 75
     7
175
     7
 42
1.0
 92
        8
 66
     7
 43
1.0
 76
     1
 77
     6
 78
     2
 67
     7
 79
     5
170
     0
171
     0
290
     0
174
     0
 93
        1
 44
0.0
173
     0
291
     1
 45
0.0
1001
ACAD
1000
AcDbSavedByObjectVersion
1070
     0
  0
VISUALSTYLE
  5
A969
102
{ACAD_XDICTIONARY
360
A9D8
102
}
102
{ACAD_REACTORS
330
A952
102
}
330
A952
100
AcDbVisualStyle
  2
OverhangOff
 70
    21
 71
     2
 72
     2
 73
     0
 90
        0
 40
-0.6
 41
-30.0
 62
     5
 63
     7
 74
     1
 91
        4
 64
     7
 65
   257
 75
     1
175
     1
 42
1.0
 92
        9
 66
     7
 43
1.0
 76
     1
 77
     6
 78
     2
 67
     7
 79
     5
170
     0
171
     0
290
     0
174
     0
 93
        1
 44
0.0
173
     0
291
     1
 45
0.0
1001
ACAD
1000
AcDbSavedByObjectVersion
1070
     0
  0
VISUALSTYLE
  5
A95C
102
{ACAD_XDICTIONARY
360
A9BE
102
}
102
{ACAD_REACTORS
330
A952
102
}
330
A952
100
AcDbVisualStyle
  2
Realistic
 70
     8
 71
     2
 72
     3
 73
     0
 90
        2
 40
-0.6
 41
30.0
 62
     5
 63
     7
 74
     0
 91
        0
 64
     7
 65
   257
 75
     1
175
     1
 42
1.0
 92
        8
 66
   257
 43
1.0
 76
     1
 77
     6
 78
     2
 67
     7
 79
     3
170
     0
171
     0
290
     0
174
     0
 93
       13
 44
0.0
173
     0
291
     0
 45
0.0
1001
ACAD
1000
AcDbSavedByObjectVersion
1070
     0
  0
VISUALSTYLE
  5
A967
102
{ACAD_XDICTIONARY
360
A9D4
102
}
102
{ACAD_REACTORS
330
A952
102
}
330
A952
100
AcDbVisualStyle
  2
Shaded
 70
    27
 71
     2
 72
     2
 73
     1
 90
        2
 40
-0.6
 41
30.0
 62
     5
 63
     7
 74
     0
 91
        4
 64
     7
 65
   257
 75
     1
175
     1
 42
1.0
 92
        8
 66
   257
 43
1.0
 76
     1
 77
     6
 78
     2
 67
     8
 79
     3
170
     0
171
     0
290
     0
174
     0
 93
        5
 44
0.0
173
     0
291
     0
 45
0.0
1001
ACAD
1000
AcDbSavedByObjectVersion
1070
     0
  0
VISUALSTYLE
  5
A966
102
{ACAD_XDICTIONARY
360
A9D2
102
}
102
{ACAD_REACTORS
330
A952
102
}
330
A952
100
AcDbVisualStyle
  2
Shaded with edges
 70
    26
 71
     2
 72
     2
 73
     1
 90
        2
 40
-0.6
 41
30.0
 62
     5
 63
     7
 74
     1
 91
       10
 64
     7
 65
   257
 75
     2
175
     1
 42
1.0
 92
        8
 66
   257
 43
1.0
 76
     1
 77
     6
 78
     2
 67
     7
 79
     3
170
     0
171
     0
290
     0
174
     0
 93
        5
 44
0.0
173
     0
291
     0
 45
0.0
1001
ACAD
1000
AcDbSavedByObjectVersion
1070
     0
  0
VISUALSTYLE
  5
A963
102
{ACAD_XDICTIONARY
360
A9CC
102
}
102
{ACAD_REACTORS
330
A952
102
}
330
A952
100
AcDbVisualStyle
  2
Shades of Gray
 70
    23
 71
     2
 72
     2
 73
     3
 90
        0
 40
-0.6
 41
-30.0
 62
     5
 63
     7
 74
     2
 91
        2
 64
     7
 65
     7
 75
     1
175
     1
 42
40.0
 92
        8
 66
     7
 43
1.0
 76
     1
 77
     6
 78
     2
 67
     7
 79
     3
170
     0
171
     0
290
     0
174
     0
 93
        1
 44
0.0
173
     0
291
     0
 45
0.0
1001
ACAD
1000
AcDbSavedByObjectVersion
1070
     0
  0
VISUALSTYLE
  5
A964
102
{ACAD_XDICTIONARY
360
A9CE
102
}
102
{ACAD_REACTORS
330
A952
102
}
330
A952
100
AcDbVisualStyle
  2
Sketchy
 70
    24
 71
     1
 72
     2
 73
     2
 90
        0
 40
-0.6
 41
-30.0
 62
     5
 63
     7
 74
     2
 91
        2
 64
     7
 65
     7
 75
     1
175
     1
 42
40.0
 92
       11
 66
     7
 43
1.0
 76
     1
 77
     6
 78
     2
 67
     7
 79
     6
170
     0
171
     0
290
     0
174
     0
 93
        1
 44
0.0
173
     0
291
     0
 45
0.0
1001
ACAD
1000
AcDbSavedByObjectVersion
1070
     0
  0
VISUALSTYLE
  5
A95F
102
{ACAD_XDICTIONARY
360
A9C4
102
}
102
{ACAD_REACTORS
330
A952
102
}
330
A952
100
AcDbVisualStyle
  2
Thicken
 70
    13
 71
     2
 72
     2
 73
     0
 90
        0
 40
-0.6
 41
-30.0
 62
     5
 63
     7
 74
     1
 91
        4
 64
     7
 65
   257
 75
     1
175
     1
 42
1.0
 92
       12
 66
     7
 43
1.0
 76
     1
 77
     6
 78
     2
 67
     7
 79
     5
170
     0
171
     0
290
     0
174
     0
 93
        1
 44
0.0
173
     0
291
     1
 45
0.0
1001
ACAD
1000
AcDbSavedByObjectVersion
1070
     0
  0
VISUALSTYLE
  5
A959
102
{ACAD_XDICTIONARY
360
A9B8
102
}
102
{ACAD_REACTORS
330
A952
102
}
330
A952
100
AcDbVisualStyle
  2
Wireframe
 70
     5
 71
     0
 72
     2
 73
     0
 90
        0
 40
-0.6
 41
-30.0
 62
     5
 63
     7
 74
     1
 91
        4
 64
     7
 65
   257
 75
     1
175
     1
 42
1.0
 92
        0
 66
   257
 43
1.0
 76
     1
 77
     6
 78
     2
 67
     7
 79
     3
170
     0
171
     0
290
     0
174
     0
 93
        1
 44
0.0
173
     0
291
     0
 45
0.0
1001
ACAD
1000
AcDbSavedByObjectVersion
1070
     0
  0
VISUALSTYLE
  5
A965
102
{ACAD_XDICTIONARY
360
A9D0
102
}
102
{ACAD_REACTORS
330
A952
102
}
330
A952
100
AcDbVisualStyle
  2
X-Ray
 70
    25
 71
     2
 72
     2
 73
     1
 90
        1
 40
0.5
 41
-30.0
 62
     5
 63
     7
 74
     1
 91
        0
 64
     7
 65
   257
 75
     1
175
     1
 42
1.0
 92
        8
 66
     7
 43
1.0
 76
     1
 77
     6
 78
     2
 67
     7
 79
     3
170
     0
171
     0
290
     0
174
     0
 93
       13
 44
0.0
173
     0
291
     0
 45
0.0
1001
ACAD
1000
AcDbSavedByObjectVersion
1070
     0
  0
DICTIONARYVAR
  5
A99F
102
{ACAD_REACTORS
330
A99A
102
}
330
A99A
100
DictionaryVariables
280
     0
  1
1:1
  0
DICTIONARYVAR
  5
A99C
102
{ACAD_REACTORS
330
A99A
102
}
330
A99A
100
DictionaryVariables
280
     0
  1
STANDARD
  0
DICTIONARYVAR
  5
A99B
102
{ACAD_REACTORS
330
A99A
102
}
330
A99A
100
DictionaryVariables
280
     0
  1
STANDARD
  0
DICTIONARYVAR
  5
A99D
102
{ACAD_REACTORS
330
A99A
102
}
330
A99A
100
DictionaryVariables
280
     0
  1
Imperial24
  0
DICTIONARYVAR
  5
A99E
102
{ACAD_REACTORS
330
A99A
102
}
330
A99A
100
DictionaryVariables
280
     0
  1
Imperial24
  0
DICTIONARYVAR
  5
A9A2
102
{ACAD_REACTORS
330
A99A
102
}
330
A99A
100
DictionaryVariables
280
     0
  1
1
  0
DICTIONARYVAR
  5
A9A1
102
{ACAD_REACTORS
330
A99A
102
}
330
A99A
100
DictionaryVariables
280
     0
  1
0
  0
DICTIONARYVAR
  5
A9A0
102
{ACAD_REACTORS
330
A99A
102
}
330
A99A
100
DictionaryVariables
280
     0
  1
127
  0
DICTIONARYVAR
  5
A9A3
102
{ACAD_REACTORS
330
A99A
102
}
330
A99A
100
DictionaryVariables
280
     0
  1
2
  0
DICTIONARY
  5
A9E0
330
A985
100
AcDbDictionary
280
     1
281
     1
  3
ACAD_XREC_ROUNDTRIP
360
A9E1
  0
DICTIONARY
  5
A9E2
330
A986
100
AcDbDictionary
280
     1
281
     1
  3
ACAD_XREC_ROUNDTRIP
360
A9E3
  0
DICTIONARY
  5
A9E4
330
A987
100
AcDbDictionary
280
     1
281
     1
  3
ACAD_XREC_ROUNDTRIP
360
A9E5
  0
DICTIONARY
  5
A943
330
A942
100
AcDbDictionary
280
     1
281
     1
  3
ACAD_XREC_ROUNDTRIP
360
A9AA
  3
BUMPTILE
360
A945
  3
DIFFUSETILE
360
A944
  3
OPACITYTILE
360
A948
  3
REFLECTIONTILE
360
A947
  3
REFRACTIONTILE
360
A949
  3
SPECULARTILE
360
A946
  0
DICTIONARY
  5
A93B
330
A93A
100
AcDbDictionary
280
     1
281
     1
  3
ACAD_XREC_ROUNDTRIP
360
A9A9
  3
BUMPTILE
360
A93D
  3
DIFFUSETILE
360
A93C
  3
OPACITYTILE
360
A940
  3
REFLECTIONTILE
360
A93F
  3
REFRACTIONTILE
360
A941
  3
SPECULARTILE
360
A93E
  0
DICTIONARY
  5
A94B
330
A94A
100
AcDbDictionary
280
     1
281
     1
  3
ACAD_XREC_ROUNDTRIP
360
A9AB
  3
BUMPTILE
360
A94D
  3
DIFFUSETILE
360
A94C
  3
OPACITYTILE
360
A950
  3
REFLECTIONTILE
360
A94F
  3
REFRACTIONTILE
360
A951
  3
SPECULARTILE
360
A94E
  0
DICTIONARY
  5
A9DE
330
A983
100
AcDbDictionary
280
     1
281
     1
  3
ACAD_XREC_ROUNDTRIP
360
A9DF
  0
DICTIONARY
  5
A9A5
330
A96D
100
AcDbDictionary
280
     1
281
     1
  3
ACAD_ROUNDTRIP_2008_TABLESTYLE_CELLSTYLEMAP
360
A9A6
  3
ACAD_XREC_ROUNDTRIP
360
A9DC
  0
DICTIONARY
  5
A9B6
330
A958
100
AcDbDictionary
280
     1
281
     1
  3
ACAD_XREC_ROUNDTRIP
360
A9B7
  0
DICTIONARY
  5
A9B4
330
A957
100
AcDbDictionary
280
     1
281
     1
  3
ACAD_XREC_ROUNDTRIP
360
A9B5
  0
DICTIONARY
  5
A9C2
330
A95E
100
AcDbDictionary
280
     1
281
     1
  3
ACAD_XREC_ROUNDTRIP
360
A9C3
  0
DICTIONARY
  5
A9CA
330
A962
100
AcDbDictionary
280
     1
281
     1
  3
ACAD_XREC_ROUNDTRIP
360
A9CB
  0
DICTIONARY
  5
A9BC
330
A95B
100
AcDbDictionary
280
     1
281
     1
  3
ACAD_XREC_ROUNDTRIP
360
A9BD
  0
DICTIONARY
  5
A9C0
330
A95D
100
AcDbDictionary
280
     1
281
     1
  3
ACAD_XREC_ROUNDTRIP
360
A9C1
  0
DICTIONARY
  5
A9DA
330
A96A
100
AcDbDictionary
280
     1
281
     1
  3
ACAD_XREC_ROUNDTRIP
360
A9DB
  0
DICTIONARY
  5
A9C8
330
A961
100
AcDbDictionary
280
     1
281
     1
  3
ACAD_XREC_ROUNDTRIP
360
A9C9
  0
DICTIONARY
  5
A9AC
330
A953
100
AcDbDictionary
280
     1
281
     1
  3
ACAD_XREC_ROUNDTRIP
360
A9AD
  0
DICTIONARY
  5
A9AE
330
A954
100
AcDbDictionary
280
     1
281
     1
  3
ACAD_XREC_ROUNDTRIP
360
A9AF
  0
DICTIONARY
  5
A9B0
330
A955
100
AcDbDictionary
280
     1
281
     1
  3
ACAD_XREC_ROUNDTRIP
360
A9B1
  0
DICTIONARY
  5
A9B2
330
A956
100
AcDbDictionary
280
     1
281
     1
  3
ACAD_XREC_ROUNDTRIP
360
A9B3
  0
DICTIONARY
  5
A9BA
330
A95A
100
AcDbDictionary
280
     1
281
     1
  3
ACAD_XREC_ROUNDTRIP
360
A9BB
  0
DICTIONARY
  5
A9D6
330
A968
100
AcDbDictionary
280
     1
281
     1
  3
ACAD_XREC_ROUNDTRIP
360
A9D7
  0
DICTIONARY
  5
A9C6
330
A960
100
AcDbDictionary
280
     1
281
     1
  3
ACAD_XREC_ROUNDTRIP
360
A9C7
  0
DICTIONARY
  5
A9D8
330
A969
100
AcDbDictionary
280
     1
281
     1
  3
ACAD_XREC_ROUNDTRIP
360
A9D9
  0
DICTIONARY
  5
A9BE
330
A95C
100
AcDbDictionary
280
     1
281
     1
  3
ACAD_XREC_ROUNDTRIP
360
A9BF
  0
DICTIONARY
  5
A9D4
330
A967
100
AcDbDictionary
280
     1
281
     1
  3
ACAD_XREC_ROUNDTRIP
360
A9D5
  0
DICTIONARY
  5
A9D2
330
A966
100
AcDbDictionary
280
     1
281
     1
  3
ACAD_XREC_ROUNDTRIP
360
A9D3
  0
DICTIONARY
  5
A9CC
330
A963
100
AcDbDictionary
280
     1
281
     1
  3
ACAD_XREC_ROUNDTRIP
360
A9CD
  0
DICTIONARY
  5
A9CE
330
A964
100
AcDbDictionary
280
     1
281
     1
  3
ACAD_XREC_ROUNDTRIP
360
A9CF
  0
DICTIONARY
  5
A9C4
330
A95F
100
AcDbDictionary
280
     1
281
     1
  3
ACAD_XREC_ROUNDTRIP
360
A9C5
  0
DICTIONARY
  5
A9B8
330
A959
100
AcDbDictionary
280
     1
281
     1
  3
ACAD_XREC_ROUNDTRIP
360
A9B9
  0
DICTIONARY
  5
A9D0
330
A965
100
AcDbDictionary
280
     1
281
     1
  3
ACAD_XREC_ROUNDTRIP
360
A9D1
  0
XRECORD
  5
A9E1
102
{ACAD_REACTORS
330
A9E0
102
}
330
A9E0
100
AcDbXrecord
280
     1
102
DISPLAYNAME
  1
Imperial24
102
FLAGS
 90
        0
  0
XRECORD
  5
A9E3
102
{ACAD_REACTORS
330
A9E2
102
}
330
A9E2
100
AcDbXrecord
280
     1
102
SHADEPLOT
 70
     0
102
SHADEPLOTRESLEVEL
 70
     2
102
SHADEPLOTCUSTOMDPI
 70
   300
  0
XRECORD
  5
A9E5
102
{ACAD_REACTORS
330
A9E4
102
}
330
A9E4
100
AcDbXrecord
280
     1
102
SHADEPLOT
 70
     0
102
SHADEPLOTRESLEVEL
 70
     2
102
SHADEPLOTCUSTOMDPI
 70
   300
  0
XRECORD
  5
A9AA
102
{ACAD_REACTORS
330
A943
102
}
330
A943
100
AcDbXrecord
280
     1
102
MATERIAL
148
0.0
149
0.0
149
0.0
 93
        0
 94
      127
282
     0
 72
     0
 77
     0
171
     0
175
     0
179
     0
273
     0
  0
XRECORD
  5
A945
102
{ACAD_REACTORS
330
A943
102
}
330
A943
100
AcDbXrecord
280
     1
270
     1
271
     1
  0
XRECORD
  5
A944
102
{ACAD_REACTORS
330
A943
102
}
330
A943
100
AcDbXrecord
280
     1
270
     1
271
     1
  0
XRECORD
  5
A948
102
{ACAD_REACTORS
330
A943
102
}
330
A943
100
AcDbXrecord
280
     1
270
     1
271
     1
  0
XRECORD
  5
A947
102
{ACAD_REACTORS
330
A943
102
}
330
A943
100
AcDbXrecord
280
     1
270
     1
271
     1
  0
XRECORD
  5
A949
102
{ACAD_REACTORS
330
A943
102
}
330
A943
100
AcDbXrecord
280
     1
270
     1
271
     1
  0
XRECORD
  5
A946
102
{ACAD_REACTORS
330
A943
102
}
330
A943
100
AcDbXrecord
280
     1
270
     1
271
     1
  0
XRECORD
  5
A9A9
102
{ACAD_REACTORS
330
A93B
102
}
330
A93B
100
AcDbXrecord
280
     1
102
MATERIAL
148
0.0
149
0.0
149
0.0
 93
        0
 94
      127
282
     0
 72
     0
 77
     0
171
     0
175
     0
179
     0
273
     0
  0
XRECORD
  5
A93D
102
{ACAD_REACTORS
330
A93B
102
}
330
A93B
100
AcDbXrecord
280
     1
270
     1
271
     1
  0
XRECORD
  5
A93C
102
{ACAD_REACTORS
330
A93B
102
}
330
A93B
100
AcDbXrecord
280
     1
270
     1
271
     1
  0
XRECORD
  5
A940
102
{ACAD_REACTORS
330
A93B
102
}
330
A93B
100
AcDbXrecord
280
     1
270
     1
271
     1
  0
XRECORD
  5
A93F
102
{ACAD_REACTORS
330
A93B
102
}
330
A93B
100
AcDbXrecord
280
     1
270
     1
271
     1
  0
XRECORD
  5
A941
102
{ACAD_REACTORS
330
A93B
102
}
330
A93B
100
AcDbXrecord
280
     1
270
     1
271
     1
  0
XRECORD
  5
A93E
102
{ACAD_REACTORS
330
A93B
102
}
330
A93B
100
AcDbXrecord
280
     1
270
     1
271
     1
  0
XRECORD
  5
A9AB
102
{ACAD_REACTORS
330
A94B
102
}
330
A94B
100
AcDbXrecord
280
     1
102
MATERIAL
148
0.0
149
0.0
149
0.0
 93
        0
 94
      127
282
     0
 72
     0
 77
     0
171
     0
175
     0
179
     0
273
     0
  0
XRECORD
  5
A94D
102
{ACAD_REACTORS
330
A94B
102
}
330
A94B
100
AcDbXrecord
280
     1
270
     1
271
     1
  0
XRECORD
  5
A94C
102
{ACAD_REACTORS
330
A94B
102
}
330
A94B
100
AcDbXrecord
280
     1
270
     1
271
     1
  0
XRECORD
  5
A950
102
{ACAD_REACTORS
330
A94B
102
}
330
A94B
100
AcDbXrecord
280
     1
270
     1
271
     1
  0
XRECORD
  5
A94F
102
{ACAD_REACTORS
330
A94B
102
}
330
A94B
100
AcDbXrecord
280
     1
270
     1
271
     1
  0
XRECORD
  5
A951
102
{ACAD_REACTORS
330
A94B
102
}
330
A94B
100
AcDbXrecord
280
     1
270
     1
271
     1
  0
XRECORD
  5
A94E
102
{ACAD_REACTORS
330
A94B
102
}
330
A94B
100
AcDbXrecord
280
     1
270
     1
271
     1
  0
XRECORD
  5
A9DF
102
{ACAD_REACTORS
330
A9DE
102
}
330
A9DE
100
AcDbXrecord
280
     1
102
DISPLAYNAME
  1
Imperial24
102
FLAGS
 90
        0
  0
CELLSTYLEMAP
  5
A9A6
102
{ACAD_REACTORS
330
A9A5
102
}
330
A9A5
100
AcDbCellStyleMap
 90
        3
300
CELLSTYLE
  1
TABLEFORMAT_BEGIN
 90
        5
170
     1
 91
        0
 92
    32768
 62
   257
 93
        1
300
CONTENTFORMAT
  1
CONTENTFORMAT_BEGIN
 90
        0
 91
        0
 92
      512
 93
        0
300

 40
0.0
140
1.0
 94
        5
 62
     0
340
A579
144
0.25
309
CONTENTFORMAT_END
171
     0
 94
        0
309
TABLEFORMAT_END
  1
CELLSTYLE_BEGIN
 90
        1
 91
        1
300
_TITLE
309
CELLSTYLE_END
300
CELLSTYLE
  1
TABLEFORMAT_BEGIN
 90
        5
170
     1
 91
        0
 92
        0
 62
   257
 93
        1
300
CONTENTFORMAT
  1
CONTENTFORMAT_BEGIN
 90
        0
 91
        0
 92
      512
 93
        0
300

 40
0.0
140
1.0
 94
        5
 62
     0
340
A579
144
0.18
309
CONTENTFORMAT_END
171
     0
 94
        0
309
TABLEFORMAT_END
  1
CELLSTYLE_BEGIN
 90
        2
 91
        1
300
_HEADER
309
CELLSTYLE_END
300
CELLSTYLE
  1
TABLEFORMAT_BEGIN
 90
        5
170
     1
 91
        0
 92
        0
 62
   257
 93
        1
300
CONTENTFORMAT
  1
CONTENTFORMAT_BEGIN
 90
        0
 91
        0
 92
      512
 93
        0
300

 40
0.0
140
1.0
 94
        2
 62
     0
340
A579
144
0.18
309
CONTENTFORMAT_END
171
     0
 94
        0
309
TABLEFORMAT_END
  1
CELLSTYLE_BEGIN
 90
        3
 91
        2
300
_DATA
309
CELLSTYLE_END
  0
XRECORD
  5
A9DC
102
{ACAD_REACTORS
330
A9A5
102
}
330
A9A5
100
AcDbXrecord
280
     1
102
ACAD_ROUNDTRIP_PRE2007_TABLESTYLE
 90
      512
 91
        0
  1

 92
      512
 93
        0
  2

 94
      512
 95
        0
  3

  0
XRECORD
  5
A9B7
102
{ACAD_REACTORS
330
A9B6
102
}
330
A9B6
100
AcDbXrecord
280
     1
102
RTVSPost2010Prop28
280
     1
102
RTVSPost2010PropOp28
 70
     1
102
RTVSPost2010Prop29
280
     1
102
RTVSPost2010PropOp29
 70
     1
102
RTVSPost2010Prop30
280
     0
102
RTVSPost2010PropOp30
 70
     1
102
RTVSPost2010Prop31
280
     0
102
RTVSPost2010PropOp31
 70
     1
102
RTVSPost2010Prop32
280
     0
102
RTVSPost2010PropOp32
 70
     1
102
RTVSPost2010Prop33
280
     0
102
RTVSPost2010PropOp33
 70
     1
102
RTVSPost2010Prop34
280
     0
102
RTVSPost2010PropOp34
 70
     1
102
RTVSPost2010Prop35
280
     0
102
RTVSPost2010PropOp35
 70
     1
102
RTVSPost2010Prop36
280
     0
102
RTVSPost2010PropOp36
 70
     1
102
RTVSPost2010Prop37
 90
       50
102
RTVSPost2010PropOp37
 70
     1
102
RTVSPost2010Prop38
140
0.0
102
RTVSPost2010PropOp38
 70
     1
102
RTVSPost2010Prop39
140
1.0
102
RTVSPost2010PropOp39
 70
     1
102
RTVSPost2010Prop40
 90
        0
102
RTVSPost2010PropOp40
 70
     1
102
RTVSPost2010Prop41ColorIndex
 90
       18
102
RTVSPost2010Prop41ColorRGB
 90
        0
102
RTVSPost2010PropOp41
 70
     1
102
RTVSPost2010Prop42
 90
       50
102
RTVSPost2010PropOp42
 70
     1
102
RTVSPost2010Prop43
 90
        3
102
RTVSPost2010PropOp43
 70
     1
102
RTVSPost2010Prop44ColorIndex
 90
        5
102
RTVSPost2010Prop44ColorRGB
 90
      255
102
RTVSPost2010PropOp44
 70
     1
102
RTVSPost2010Prop45
280
     0
102
RTVSPost2010PropOp45
 70
     1
102
RTVSPost2010Prop46
 90
       50
102
RTVSPost2010PropOp46
 70
     1
102
RTVSPost2010Prop47
 90
       50
102
RTVSPost2010PropOp47
 70
     1
102
RTVSPost2010Prop48
 90
       50
102
RTVSPost2010PropOp48
 70
     1
102
RTVSPost2010Prop49
280
     0
102
RTVSPost2010PropOp49
 70
     1
102
RTVSPost2010Prop50
 90
       50
102
RTVSPost2010PropOp50
 70
     1
102
RTVSPost2010Prop51ColorIndex
 90
      256
102
RTVSPost2010Prop51ColorRGB
 90
-16777216
102
RTVSPost2010PropOp51
 70
     0
102
RTVSPost2010Prop52
140
1.0
102
RTVSPost2010PropOp52
 70
     0
102
RTVSPost2010Prop53
 90
        2
102
RTVSPost2010PropOp53
 70
     1
102
RTVSPost2010Prop54
  1
strokes_ogs.tif
102
RTVSPost2010PropOp54
 70
     1
102
RTVSPost2010Prop55
280
     0
102
RTVSPost2010PropOp55
 70
     1
102
RTVSPost2010Prop56
140
1.0
102
RTVSPost2010PropOp56
 70
     1
102
RTVSPost2010Prop57
140
1.0
102
RTVSPost2010PropOp57
 70
     1
102
RTVSPropertyOp0
 70
     1
102
RTVSPropertyOp1
 70
     1
102
RTVSPropertyOp2
 70
     1
102
RTVSPropertyOp3
 70
     1
102
RTVSPropertyOp4
 70
     1
102
RTVSPropertyOp5
 70
     1
102
RTVSPropertyOp6
 70
     1
102
RTVSPropertyOp7
 70
     1
102
RTVSPropertyOp8
 70
     1
102
RTVSPropertyOp9
 70
     1
102
RTVSPropertyOp10
 70
     1
102
RTVSPropertyOp11
 70
     1
102
RTVSPropertyOp12
 70
     1
102
RTVSPropertyOp13
 70
     1
102
RTVSPropertyOp14
 70
     1
102
RTVSPropertyOp15
 70
     1
102
RTVSPropertyOp16
 70
     1
102
RTVSPropertyOp17
 70
     1
102
RTVSPropertyOp18
 70
     1
102
RTVSPropertyOp19
 70
     1
102
RTVSPropertyOp20
 70
     1
102
RTVSPropertyOp21
 70
     1
102
RTVSPropertyOp22
 70
     1
102
RTVSPropertyOp23
 70
     1
102
RTVSPropertyOp24
 70
     1
102
RTVSPropertyOp25
 70
     1
102
RTVSPropertyOp26
 70
     1
102
RTVSPropertyOp27
 70
     1
102
RTVSPropertyOp28
 70
     1
102
RTVSPropertyOp29
 70
     1
102
RTVSPropertyOp30
 70
     1
102
RTVSPropertyOp31
 70
     1
102
RTVSPropertyOp32
 70
     1
102
RTVSPropertyOp33
 70
     1
102
RTVSPropertyOp34
 70
     1
102
RTVSPropertyOp35
 70
     1
102
RTVSPropertyOp36
 70
     1
102
RTVSPropertyOp37
 70
     1
102
RTVSPropertyOp38
 70
     1
102
RTVSPropertyOp39
 70
     1
102
RTVSPropertyOp40
 70
     1
102
RTVSPropertyOp41
 70
     1
102
RTVSPropertyOp42
 70
     1
102
RTVSPropertyOp43
 70
     1
102
RTVSPropertyOp44
 70
     1
102
RTVSPropertyOp45
 70
     1
102
RTVSPropertyOp46
 70
     1
102
RTVSPropertyOp47
 70
     1
102
RTVSPropertyOp48
 70
     1
102
RTVSPropertyOp49
 70
     1
102
RTVSPropertyOp50
 70
     1
102
RTVSPropertyOp51
 70
     0
102
RTVSPropertyOp52
 70
     0
102
RTVSPropertyOp53
 70
     1
102
RTVSPropertyOp54
 70
     1
102
RTVSPropertyOp55
 70
     1
102
RTVSPropertyOp56
 70
     1
102
RTVSPropertyOp57
 70
     1
102
RTVSPropertyOp58
 70
     1
102
RTVSPropertyOp59
 70
     1
102
RTVSPropertyOp60
 70
     1
102
RTVSPropertyOp61
 70
     1
102
RTVSPropertyOp62
 70
     1
  0
XRECORD
  5
A9B5
102
{ACAD_REACTORS
330
A9B4
102
}
330
A9B4
100
AcDbXrecord
280
     1
102
RTVSPost2010Prop28
280
     0
102
RTVSPost2010PropOp28
 70
     1
102
RTVSPost2010Prop29
280
     1
102
RTVSPost2010PropOp29
 70
     1
102
RTVSPost2010Prop30
280
     1
102
RTVSPost2010PropOp30
 70
     1
102
RTVSPost2010Prop31
280
     0
102
RTVSPost2010PropOp31
 70
     1
102
RTVSPost2010Prop32
280
     0
102
RTVSPost2010PropOp32
 70
     1
102
RTVSPost2010Prop33
280
     0
102
RTVSPost2010PropOp33
 70
     1
102
RTVSPost2010Prop34
280
     0
102
RTVSPost2010PropOp34
 70
     1
102
RTVSPost2010Prop35
280
     0
102
RTVSPost2010PropOp35
 70
     1
102
RTVSPost2010Prop36
280
     0
102
RTVSPost2010PropOp36
 70
     1
102
RTVSPost2010Prop37
 90
       50
102
RTVSPost2010PropOp37
 70
     1
102
RTVSPost2010Prop38
140
0.0
102
RTVSPost2010PropOp38
 70
     1
102
RTVSPost2010Prop39
140
1.0
102
RTVSPost2010PropOp39
 70
     1
102
RTVSPost2010Prop40
 90
        0
102
RTVSPost2010PropOp40
 70
     1
102
RTVSPost2010Prop41ColorIndex
 90
       18
102
RTVSPost2010Prop41ColorRGB
 90
        0
102
RTVSPost2010PropOp41
 70
     1
102
RTVSPost2010Prop42
 90
       50
102
RTVSPost2010PropOp42
 70
     1
102
RTVSPost2010Prop43
 90
        3
102
RTVSPost2010PropOp43
 70
     1
102
RTVSPost2010Prop44ColorIndex
 90
        5
102
RTVSPost2010Prop44ColorRGB
 90
      255
102
RTVSPost2010PropOp44
 70
     1
102
RTVSPost2010Prop45
280
     0
102
RTVSPost2010PropOp45
 70
     1
102
RTVSPost2010Prop46
 90
       50
102
RTVSPost2010PropOp46
 70
     1
102
RTVSPost2010Prop47
 90
       50
102
RTVSPost2010PropOp47
 70
     1
102
RTVSPost2010Prop48
 90
       50
102
RTVSPost2010PropOp48
 70
     1
102
RTVSPost2010Prop49
280
     0
102
RTVSPost2010PropOp49
 70
     1
102
RTVSPost2010Prop50
 90
       50
102
RTVSPost2010PropOp50
 70
     1
102
RTVSPost2010Prop51ColorIndex
 90
      256
102
RTVSPost2010Prop51ColorRGB
 90
-16777216
102
RTVSPost2010PropOp51
 70
     0
102
RTVSPost2010Prop52
140
1.0
102
RTVSPost2010PropOp52
 70
     0
102
RTVSPost2010Prop53
 90
        2
102
RTVSPost2010PropOp53
 70
     1
102
RTVSPost2010Prop54
  1
strokes_ogs.tif
102
RTVSPost2010PropOp54
 70
     1
102
RTVSPost2010Prop55
280
     0
102
RTVSPost2010PropOp55
 70
     1
102
RTVSPost2010Prop56
140
1.0
102
RTVSPost2010PropOp56
 70
     1
102
RTVSPost2010Prop57
140
1.0
102
RTVSPost2010PropOp57
 70
     1
102
RTVSPropertyOp0
 70
     1
102
RTVSPropertyOp1
 70
     1
102
RTVSPropertyOp2
 70
     1
102
RTVSPropertyOp3
 70
     1
102
RTVSPropertyOp4
 70
     1
102
RTVSPropertyOp5
 70
     1
102
RTVSPropertyOp6
 70
     1
102
RTVSPropertyOp7
 70
     1
102
RTVSPropertyOp8
 70
     1
102
RTVSPropertyOp9
 70
     1
102
RTVSPropertyOp10
 70
     1
102
RTVSPropertyOp11
 70
     1
102
RTVSPropertyOp12
 70
     1
102
RTVSPropertyOp13
 70
     1
102
RTVSPropertyOp14
 70
     1
102
RTVSPropertyOp15
 70
     1
102
RTVSPropertyOp16
 70
     1
102
RTVSPropertyOp17
 70
     1
102
RTVSPropertyOp18
 70
     1
102
RTVSPropertyOp19
 70
     1
102
RTVSPropertyOp20
 70
     1
102
RTVSPropertyOp21
 70
     1
102
RTVSPropertyOp22
 70
     1
102
RTVSPropertyOp23
 70
     1
102
RTVSPropertyOp24
 70
     1
102
RTVSPropertyOp25
 70
     1
102
RTVSPropertyOp26
 70
     1
102
RTVSPropertyOp27
 70
     1
102
RTVSPropertyOp28
 70
     1
102
RTVSPropertyOp29
 70
     1
102
RTVSPropertyOp30
 70
     1
102
RTVSPropertyOp31
 70
     1
102
RTVSPropertyOp32
 70
     1
102
RTVSPropertyOp33
 70
     1
102
RTVSPropertyOp34
 70
     1
102
RTVSPropertyOp35
 70
     1
102
RTVSPropertyOp36
 70
     1
102
RTVSPropertyOp37
 70
     1
102
RTVSPropertyOp38
 70
     1
102
RTVSPropertyOp39
 70
     1
102
RTVSPropertyOp40
 70
     1
102
RTVSPropertyOp41
 70
     1
102
RTVSPropertyOp42
 70
     1
102
RTVSPropertyOp43
 70
     1
102
RTVSPropertyOp44
 70
     1
102
RTVSPropertyOp45
 70
     1
102
RTVSPropertyOp46
 70
     1
102
RTVSPropertyOp47
 70
     1
102
RTVSPropertyOp48
 70
     1
102
RTVSPropertyOp49
 70
     1
102
RTVSPropertyOp50
 70
     1
102
RTVSPropertyOp51
 70
     0
102
RTVSPropertyOp52
 70
     0
102
RTVSPropertyOp53
 70
     1
102
RTVSPropertyOp54
 70
     1
102
RTVSPropertyOp55
 70
     1
102
RTVSPropertyOp56
 70
     1
102
RTVSPropertyOp57
 70
     1
102
RTVSPropertyOp58
 70
     1
102
RTVSPropertyOp59
 70
     1
102
RTVSPropertyOp60
 70
     1
102
RTVSPropertyOp61
 70
     1
102
RTVSPropertyOp62
 70
     1
  0
XRECORD
  5
A9C3
102
{ACAD_REACTORS
330
A9C2
102
}
330
A9C2
100
AcDbXrecord
280
     1
102
RTVSPost2010Prop28
280
     0
102
RTVSPost2010PropOp28
 70
     1
102
RTVSPost2010Prop29
280
     1
102
RTVSPost2010PropOp29
 70
     1
102
RTVSPost2010Prop30
280
     1
102
RTVSPost2010PropOp30
 70
     1
102
RTVSPost2010Prop31
280
     0
102
RTVSPost2010PropOp31
 70
     1
102
RTVSPost2010Prop32
280
     0
102
RTVSPost2010PropOp32
 70
     1
102
RTVSPost2010Prop33
280
     0
102
RTVSPost2010PropOp33
 70
     1
102
RTVSPost2010Prop34
280
     0
102
RTVSPost2010PropOp34
 70
     1
102
RTVSPost2010Prop35
280
     0
102
RTVSPost2010PropOp35
 70
     1
102
RTVSPost2010Prop36
280
     0
102
RTVSPost2010PropOp36
 70
     1
102
RTVSPost2010Prop37
 90
       50
102
RTVSPost2010PropOp37
 70
     1
102
RTVSPost2010Prop38
140
0.0
102
RTVSPost2010PropOp38
 70
     1
102
RTVSPost2010Prop39
140
1.0
102
RTVSPost2010PropOp39
 70
     1
102
RTVSPost2010Prop40
 90
        0
102
RTVSPost2010PropOp40
 70
     1
102
RTVSPost2010Prop41ColorIndex
 90
       18
102
RTVSPost2010Prop41ColorRGB
 90
        0
102
RTVSPost2010PropOp41
 70
     1
102
RTVSPost2010Prop42
 90
       50
102
RTVSPost2010PropOp42
 70
     1
102
RTVSPost2010Prop43
 90
        3
102
RTVSPost2010PropOp43
 70
     1
102
RTVSPost2010Prop44ColorIndex
 90
        5
102
RTVSPost2010Prop44ColorRGB
 90
      255
102
RTVSPost2010PropOp44
 70
     1
102
RTVSPost2010Prop45
280
     0
102
RTVSPost2010PropOp45
 70
     1
102
RTVSPost2010Prop46
 90
       50
102
RTVSPost2010PropOp46
 70
     1
102
RTVSPost2010Prop47
 90
       50
102
RTVSPost2010PropOp47
 70
     1
102
RTVSPost2010Prop48
 90
       50
102
RTVSPost2010PropOp48
 70
     1
102
RTVSPost2010Prop49
280
     0
102
RTVSPost2010PropOp49
 70
     1
102
RTVSPost2010Prop50
 90
       50
102
RTVSPost2010PropOp50
 70
     1
102
RTVSPost2010Prop51ColorIndex
 90
      256
102
RTVSPost2010Prop51ColorRGB
 90
-16777216
102
RTVSPost2010PropOp51
 70
     0
102
RTVSPost2010Prop52
140
1.0
102
RTVSPost2010PropOp52
 70
     0
102
RTVSPost2010Prop53
 90
        2
102
RTVSPost2010PropOp53
 70
     1
102
RTVSPost2010Prop54
  1
strokes_ogs.tif
102
RTVSPost2010PropOp54
 70
     1
102
RTVSPost2010Prop55
280
     0
102
RTVSPost2010PropOp55
 70
     1
102
RTVSPost2010Prop56
140
1.0
102
RTVSPost2010PropOp56
 70
     1
102
RTVSPost2010Prop57
140
1.0
102
RTVSPost2010PropOp57
 70
     1
102
RTVSPropertyOp0
 70
     1
102
RTVSPropertyOp1
 70
     1
102
RTVSPropertyOp2
 70
     1
102
RTVSPropertyOp3
 70
     1
102
RTVSPropertyOp4
 70
     1
102
RTVSPropertyOp5
 70
     1
102
RTVSPropertyOp6
 70
     1
102
RTVSPropertyOp7
 70
     1
102
RTVSPropertyOp8
 70
     1
102
RTVSPropertyOp9
 70
     1
102
RTVSPropertyOp10
 70
     1
102
RTVSPropertyOp11
 70
     1
102
RTVSPropertyOp12
 70
     1
102
RTVSPropertyOp13
 70
     1
102
RTVSPropertyOp14
 70
     1
102
RTVSPropertyOp15
 70
     1
102
RTVSPropertyOp16
 70
     1
102
RTVSPropertyOp17
 70
     1
102
RTVSPropertyOp18
 70
     1
102
RTVSPropertyOp19
 70
     1
102
RTVSPropertyOp20
 70
     1
102
RTVSPropertyOp21
 70
     1
102
RTVSPropertyOp22
 70
     1
102
RTVSPropertyOp23
 70
     1
102
RTVSPropertyOp24
 70
     1
102
RTVSPropertyOp25
 70
     1
102
RTVSPropertyOp26
 70
     1
102
RTVSPropertyOp27
 70
     1
102
RTVSPropertyOp28
 70
     1
102
RTVSPropertyOp29
 70
     1
102
RTVSPropertyOp30
 70
     1
102
RTVSPropertyOp31
 70
     1
102
RTVSPropertyOp32
 70
     1
102
RTVSPropertyOp33
 70
     1
102
RTVSPropertyOp34
 70
     1
102
RTVSPropertyOp35
 70
     1
102
RTVSPropertyOp36
 70
     1
102
RTVSPropertyOp37
 70
     1
102
RTVSPropertyOp38
 70
     1
102
RTVSPropertyOp39
 70
     1
102
RTVSPropertyOp40
 70
     1
102
RTVSPropertyOp41
 70
     1
102
RTVSPropertyOp42
 70
     1
102
RTVSPropertyOp43
 70
     1
102
RTVSPropertyOp44
 70
     1
102
RTVSPropertyOp45
 70
     1
102
RTVSPropertyOp46
 70
     1
102
RTVSPropertyOp47
 70
     1
102
RTVSPropertyOp48
 70
     1
102
RTVSPropertyOp49
 70
     1
102
RTVSPropertyOp50
 70
     1
102
RTVSPropertyOp51
 70
     0
102
RTVSPropertyOp52
 70
     0
102
RTVSPropertyOp53
 70
     1
102
RTVSPropertyOp54
 70
     1
102
RTVSPropertyOp55
 70
     1
102
RTVSPropertyOp56
 70
     1
102
RTVSPropertyOp57
 70
     1
102
RTVSPropertyOp58
 70
     1
102
RTVSPropertyOp59
 70
     1
102
RTVSPropertyOp60
 70
     1
102
RTVSPropertyOp61
 70
     1
102
RTVSPropertyOp62
 70
     1
  0
XRECORD
  5
A9CB
102
{ACAD_REACTORS
330
A9CA
102
}
330
A9CA
100
AcDbXrecord
280
     1
102
RTVSPost2010Prop28
280
     0
102
RTVSPost2010PropOp28
 70
     1
102
RTVSPost2010Prop29
280
     1
102
RTVSPost2010PropOp29
 70
     1
102
RTVSPost2010Prop30
280
     1
102
RTVSPost2010PropOp30
 70
     1
102
RTVSPost2010Prop31
280
     0
102
RTVSPost2010PropOp31
 70
     1
102
RTVSPost2010Prop32
280
     0
102
RTVSPost2010PropOp32
 70
     1
102
RTVSPost2010Prop33
280
     0
102
RTVSPost2010PropOp33
 70
     1
102
RTVSPost2010Prop34
280
     0
102
RTVSPost2010PropOp34
 70
     1
102
RTVSPost2010Prop35
280
     0
102
RTVSPost2010PropOp35
 70
     1
102
RTVSPost2010Prop36
280
     0
102
RTVSPost2010PropOp36
 70
     1
102
RTVSPost2010Prop37
 90
       50
102
RTVSPost2010PropOp37
 70
     1
102
RTVSPost2010Prop38
140
0.0
102
RTVSPost2010PropOp38
 70
     1
102
RTVSPost2010Prop39
140
1.0
102
RTVSPost2010PropOp39
 70
     1
102
RTVSPost2010Prop40
 90
        0
102
RTVSPost2010PropOp40
 70
     1
102
RTVSPost2010Prop41ColorIndex
 90
       18
102
RTVSPost2010Prop41ColorRGB
 90
        0
102
RTVSPost2010PropOp41
 70
     1
102
RTVSPost2010Prop42
 90
       50
102
RTVSPost2010PropOp42
 70
     1
102
RTVSPost2010Prop43
 90
        3
102
RTVSPost2010PropOp43
 70
     1
102
RTVSPost2010Prop44ColorIndex
 90
        5
102
RTVSPost2010Prop44ColorRGB
 90
      255
102
RTVSPost2010PropOp44
 70
     1
102
RTVSPost2010Prop45
280
     0
102
RTVSPost2010PropOp45
 70
     1
102
RTVSPost2010Prop46
 90
       50
102
RTVSPost2010PropOp46
 70
     1
102
RTVSPost2010Prop47
 90
       50
102
RTVSPost2010PropOp47
 70
     1
102
RTVSPost2010Prop48
 90
       50
102
RTVSPost2010PropOp48
 70
     1
102
RTVSPost2010Prop49
280
     0
102
RTVSPost2010PropOp49
 70
     1
102
RTVSPost2010Prop50
 90
       50
102
RTVSPost2010PropOp50
 70
     1
102
RTVSPost2010Prop51ColorIndex
 90
      256
102
RTVSPost2010Prop51ColorRGB
 90
-16777216
102
RTVSPost2010PropOp51
 70
     0
102
RTVSPost2010Prop52
140
1.0
102
RTVSPost2010PropOp52
 70
     0
102
RTVSPost2010Prop53
 90
        2
102
RTVSPost2010PropOp53
 70
     1
102
RTVSPost2010Prop54
  1
strokes_ogs.tif
102
RTVSPost2010PropOp54
 70
     1
102
RTVSPost2010Prop55
280
     0
102
RTVSPost2010PropOp55
 70
     1
102
RTVSPost2010Prop56
140
1.0
102
RTVSPost2010PropOp56
 70
     1
102
RTVSPost2010Prop57
140
1.0
102
RTVSPost2010PropOp57
 70
     1
102
RTVSPropertyOp0
 70
     1
102
RTVSPropertyOp1
 70
     1
102
RTVSPropertyOp2
 70
     1
102
RTVSPropertyOp3
 70
     1
102
RTVSPropertyOp4
 70
     1
102
RTVSPropertyOp5
 70
     1
102
RTVSPropertyOp6
 70
     1
102
RTVSPropertyOp7
 70
     1
102
RTVSPropertyOp8
 70
     1
102
RTVSPropertyOp9
 70
     1
102
RTVSPropertyOp10
 70
     1
102
RTVSPropertyOp11
 70
     1
102
RTVSPropertyOp12
 70
     1
102
RTVSPropertyOp13
 70
     1
102
RTVSPropertyOp14
 70
     1
102
RTVSPropertyOp15
 70
     1
102
RTVSPropertyOp16
 70
     1
102
RTVSPropertyOp17
 70
     1
102
RTVSPropertyOp18
 70
     1
102
RTVSPropertyOp19
 70
     1
102
RTVSPropertyOp20
 70
     1
102
RTVSPropertyOp21
 70
     1
102
RTVSPropertyOp22
 70
     1
102
RTVSPropertyOp23
 70
     1
102
RTVSPropertyOp24
 70
     1
102
RTVSPropertyOp25
 70
     1
102
RTVSPropertyOp26
 70
     1
102
RTVSPropertyOp27
 70
     1
102
RTVSPropertyOp28
 70
     1
102
RTVSPropertyOp29
 70
     1
102
RTVSPropertyOp30
 70
     1
102
RTVSPropertyOp31
 70
     1
102
RTVSPropertyOp32
 70
     1
102
RTVSPropertyOp33
 70
     1
102
RTVSPropertyOp34
 70
     1
102
RTVSPropertyOp35
 70
     1
102
RTVSPropertyOp36
 70
     1
102
RTVSPropertyOp37
 70
     1
102
RTVSPropertyOp38
 70
     1
102
RTVSPropertyOp39
 70
     1
102
RTVSPropertyOp40
 70
     1
102
RTVSPropertyOp41
 70
     1
102
RTVSPropertyOp42
 70
     1
102
RTVSPropertyOp43
 70
     1
102
RTVSPropertyOp44
 70
     1
102
RTVSPropertyOp45
 70
     1
102
RTVSPropertyOp46
 70
     1
102
RTVSPropertyOp47
 70
     1
102
RTVSPropertyOp48
 70
     1
102
RTVSPropertyOp49
 70
     1
102
RTVSPropertyOp50
 70
     1
102
RTVSPropertyOp51
 70
     0
102
RTVSPropertyOp52
 70
     0
102
RTVSPropertyOp53
 70
     1
102
RTVSPropertyOp54
 70
     1
102
RTVSPropertyOp55
 70
     1
102
RTVSPropertyOp56
 70
     1
102
RTVSPropertyOp57
 70
     1
102
RTVSPropertyOp58
 70
     1
102
RTVSPropertyOp59
 70
     1
102
RTVSPropertyOp60
 70
     1
102
RTVSPropertyOp61
 70
     1
102
RTVSPropertyOp62
 70
     1
  0
XRECORD
  5
A9BD
102
{ACAD_REACTORS
330
A9BC
102
}
330
A9BC
100
AcDbXrecord
280
     1
102
RTVSPost2010Prop28
280
     0
102
RTVSPost2010PropOp28
 70
     1
102
RTVSPost2010Prop29
280
     1
102
RTVSPost2010PropOp29
 70
     1
102
RTVSPost2010Prop30
280
     1
102
RTVSPost2010PropOp30
 70
     1
102
RTVSPost2010Prop31
280
     0
102
RTVSPost2010PropOp31
 70
     1
102
RTVSPost2010Prop32
280
     0
102
RTVSPost2010PropOp32
 70
     1
102
RTVSPost2010Prop33
280
     0
102
RTVSPost2010PropOp33
 70
     1
102
RTVSPost2010Prop34
280
     0
102
RTVSPost2010PropOp34
 70
     1
102
RTVSPost2010Prop35
280
     0
102
RTVSPost2010PropOp35
 70
     1
102
RTVSPost2010Prop36
280
     0
102
RTVSPost2010PropOp36
 70
     1
102
RTVSPost2010Prop37
 90
       50
102
RTVSPost2010PropOp37
 70
     1
102
RTVSPost2010Prop38
140
0.0
102
RTVSPost2010PropOp38
 70
     1
102
RTVSPost2010Prop39
140
1.0
102
RTVSPost2010PropOp39
 70
     1
102
RTVSPost2010Prop40
 90
        0
102
RTVSPost2010PropOp40
 70
     1
102
RTVSPost2010Prop41ColorIndex
 90
       18
102
RTVSPost2010Prop41ColorRGB
 90
        0
102
RTVSPost2010PropOp41
 70
     1
102
RTVSPost2010Prop42
 90
       50
102
RTVSPost2010PropOp42
 70
     1
102
RTVSPost2010Prop43
 90
        3
102
RTVSPost2010PropOp43
 70
     1
102
RTVSPost2010Prop44ColorIndex
 90
        5
102
RTVSPost2010Prop44ColorRGB
 90
      255
102
RTVSPost2010PropOp44
 70
     1
102
RTVSPost2010Prop45
280
     0
102
RTVSPost2010PropOp45
 70
     1
102
RTVSPost2010Prop46
 90
       50
102
RTVSPost2010PropOp46
 70
     1
102
RTVSPost2010Prop47
 90
       50
102
RTVSPost2010PropOp47
 70
     1
102
RTVSPost2010Prop48
 90
       50
102
RTVSPost2010PropOp48
 70
     1
102
RTVSPost2010Prop49
280
     0
102
RTVSPost2010PropOp49
 70
     1
102
RTVSPost2010Prop50
 90
       50
102
RTVSPost2010PropOp50
 70
     1
102
RTVSPost2010Prop51ColorIndex
 90
      256
102
RTVSPost2010Prop51ColorRGB
 90
-16777216
102
RTVSPost2010PropOp51
 70
     0
102
RTVSPost2010Prop52
140
1.0
102
RTVSPost2010PropOp52
 70
     0
102
RTVSPost2010Prop53
 90
        2
102
RTVSPost2010PropOp53
 70
     1
102
RTVSPost2010Prop54
  1
strokes_ogs.tif
102
RTVSPost2010PropOp54
 70
     1
102
RTVSPost2010Prop55
280
     0
102
RTVSPost2010PropOp55
 70
     1
102
RTVSPost2010Prop56
140
1.0
102
RTVSPost2010PropOp56
 70
     1
102
RTVSPost2010Prop57
140
1.0
102
RTVSPost2010PropOp57
 70
     1
102
RTVSPropertyOp0
 70
     1
102
RTVSPropertyOp1
 70
     1
102
RTVSPropertyOp2
 70
     1
102
RTVSPropertyOp3
 70
     1
102
RTVSPropertyOp4
 70
     1
102
RTVSPropertyOp5
 70
     1
102
RTVSPropertyOp6
 70
     1
102
RTVSPropertyOp7
 70
     1
102
RTVSPropertyOp8
 70
     1
102
RTVSPropertyOp9
 70
     1
102
RTVSPropertyOp10
 70
     1
102
RTVSPropertyOp11
 70
     1
102
RTVSPropertyOp12
 70
     1
102
RTVSPropertyOp13
 70
     1
102
RTVSPropertyOp14
 70
     1
102
RTVSPropertyOp15
 70
     1
102
RTVSPropertyOp16
 70
     1
102
RTVSPropertyOp17
 70
     1
102
RTVSPropertyOp18
 70
     1
102
RTVSPropertyOp19
 70
     1
102
RTVSPropertyOp20
 70
     1
102
RTVSPropertyOp21
 70
     1
102
RTVSPropertyOp22
 70
     1
102
RTVSPropertyOp23
 70
     1
102
RTVSPropertyOp24
 70
     1
102
RTVSPropertyOp25
 70
     1
102
RTVSPropertyOp26
 70
     1
102
RTVSPropertyOp27
 70
     1
102
RTVSPropertyOp28
 70
     1
102
RTVSPropertyOp29
 70
     1
102
RTVSPropertyOp30
 70
     1
102
RTVSPropertyOp31
 70
     1
102
RTVSPropertyOp32
 70
     1
102
RTVSPropertyOp33
 70
     1
102
RTVSPropertyOp34
 70
     1
102
RTVSPropertyOp35
 70
     1
102
RTVSPropertyOp36
 70
     1
102
RTVSPropertyOp37
 70
     1
102
RTVSPropertyOp38
 70
     1
102
RTVSPropertyOp39
 70
     1
102
RTVSPropertyOp40
 70
     1
102
RTVSPropertyOp41
 70
     1
102
RTVSPropertyOp42
 70
     1
102
RTVSPropertyOp43
 70
     1
102
RTVSPropertyOp44
 70
     1
102
RTVSPropertyOp45
 70
     1
102
RTVSPropertyOp46
 70
     1
102
RTVSPropertyOp47
 70
     1
102
RTVSPropertyOp48
 70
     1
102
RTVSPropertyOp49
 70
     1
102
RTVSPropertyOp50
 70
     1
102
RTVSPropertyOp51
 70
     0
102
RTVSPropertyOp52
 70
     0
102
RTVSPropertyOp53
 70
     1
102
RTVSPropertyOp54
 70
     1
102
RTVSPropertyOp55
 70
     1
102
RTVSPropertyOp56
 70
     1
102
RTVSPropertyOp57
 70
     1
102
RTVSPropertyOp58
 70
     1
102
RTVSPropertyOp59
 70
     1
102
RTVSPropertyOp60
 70
     1
102
RTVSPropertyOp61
 70
     1
102
RTVSPropertyOp62
 70
     1
  0
XRECORD
  5
A9C1
102
{ACAD_REACTORS
330
A9C0
102
}
330
A9C0
100
AcDbXrecord
280
     1
102
RTVSPost2010Prop28
280
     0
102
RTVSPost2010PropOp28
 70
     1
102
RTVSPost2010Prop29
280
     1
102
RTVSPost2010PropOp29
 70
     1
102
RTVSPost2010Prop30
280
     1
102
RTVSPost2010PropOp30
 70
     1
102
RTVSPost2010Prop31
280
     0
102
RTVSPost2010PropOp31
 70
     1
102
RTVSPost2010Prop32
280
     0
102
RTVSPost2010PropOp32
 70
     1
102
RTVSPost2010Prop33
280
     0
102
RTVSPost2010PropOp33
 70
     1
102
RTVSPost2010Prop34
280
     0
102
RTVSPost2010PropOp34
 70
     1
102
RTVSPost2010Prop35
280
     0
102
RTVSPost2010PropOp35
 70
     1
102
RTVSPost2010Prop36
280
     0
102
RTVSPost2010PropOp36
 70
     1
102
RTVSPost2010Prop37
 90
       50
102
RTVSPost2010PropOp37
 70
     1
102
RTVSPost2010Prop38
140
0.0
102
RTVSPost2010PropOp38
 70
     1
102
RTVSPost2010Prop39
140
1.0
102
RTVSPost2010PropOp39
 70
     1
102
RTVSPost2010Prop40
 90
        0
102
RTVSPost2010PropOp40
 70
     1
102
RTVSPost2010Prop41ColorIndex
 90
       18
102
RTVSPost2010Prop41ColorRGB
 90
        0
102
RTVSPost2010PropOp41
 70
     1
102
RTVSPost2010Prop42
 90
       50
102
RTVSPost2010PropOp42
 70
     1
102
RTVSPost2010Prop43
 90
        3
102
RTVSPost2010PropOp43
 70
     1
102
RTVSPost2010Prop44ColorIndex
 90
        5
102
RTVSPost2010Prop44ColorRGB
 90
      255
102
RTVSPost2010PropOp44
 70
     1
102
RTVSPost2010Prop45
280
     0
102
RTVSPost2010PropOp45
 70
     1
102
RTVSPost2010Prop46
 90
       50
102
RTVSPost2010PropOp46
 70
     1
102
RTVSPost2010Prop47
 90
       50
102
RTVSPost2010PropOp47
 70
     1
102
RTVSPost2010Prop48
 90
       50
102
RTVSPost2010PropOp48
 70
     1
102
RTVSPost2010Prop49
280
     0
102
RTVSPost2010PropOp49
 70
     1
102
RTVSPost2010Prop50
 90
       50
102
RTVSPost2010PropOp50
 70
     1
102
RTVSPost2010Prop51ColorIndex
 90
      256
102
RTVSPost2010Prop51ColorRGB
 90
-16777216
102
RTVSPost2010PropOp51
 70
     0
102
RTVSPost2010Prop52
140
1.0
102
RTVSPost2010PropOp52
 70
     0
102
RTVSPost2010Prop53
 90
        2
102
RTVSPost2010PropOp53
 70
     1
102
RTVSPost2010Prop54
  1
strokes_ogs.tif
102
RTVSPost2010PropOp54
 70
     1
102
RTVSPost2010Prop55
280
     0
102
RTVSPost2010PropOp55
 70
     1
102
RTVSPost2010Prop56
140
1.0
102
RTVSPost2010PropOp56
 70
     1
102
RTVSPost2010Prop57
140
1.0
102
RTVSPost2010PropOp57
 70
     1
102
RTVSPropertyOp0
 70
     1
102
RTVSPropertyOp1
 70
     1
102
RTVSPropertyOp2
 70
     1
102
RTVSPropertyOp3
 70
     1
102
RTVSPropertyOp4
 70
     1
102
RTVSPropertyOp5
 70
     1
102
RTVSPropertyOp6
 70
     1
102
RTVSPropertyOp7
 70
     1
102
RTVSPropertyOp8
 70
     1
102
RTVSPropertyOp9
 70
     1
102
RTVSPropertyOp10
 70
     1
102
RTVSPropertyOp11
 70
     1
102
RTVSPropertyOp12
 70
     1
102
RTVSPropertyOp13
 70
     1
102
RTVSPropertyOp14
 70
     1
102
RTVSPropertyOp15
 70
     1
102
RTVSPropertyOp16
 70
     1
102
RTVSPropertyOp17
 70
     1
102
RTVSPropertyOp18
 70
     1
102
RTVSPropertyOp19
 70
     1
102
RTVSPropertyOp20
 70
     1
102
RTVSPropertyOp21
 70
     1
102
RTVSPropertyOp22
 70
     1
102
RTVSPropertyOp23
 70
     1
102
RTVSPropertyOp24
 70
     1
102
RTVSPropertyOp25
 70
     1
102
RTVSPropertyOp26
 70
     1
102
RTVSPropertyOp27
 70
     1
102
RTVSPropertyOp28
 70
     1
102
RTVSPropertyOp29
 70
     1
102
RTVSPropertyOp30
 70
     1
102
RTVSPropertyOp31
 70
     1
102
RTVSPropertyOp32
 70
     1
102
RTVSPropertyOp33
 70
     1
102
RTVSPropertyOp34
 70
     1
102
RTVSPropertyOp35
 70
     1
102
RTVSPropertyOp36
 70
     1
102
RTVSPropertyOp37
 70
     1
102
RTVSPropertyOp38
 70
     1
102
RTVSPropertyOp39
 70
     1
102
RTVSPropertyOp40
 70
     1
102
RTVSPropertyOp41
 70
     1
102
RTVSPropertyOp42
 70
     1
102
RTVSPropertyOp43
 70
     1
102
RTVSPropertyOp44
 70
     1
102
RTVSPropertyOp45
 70
     1
102
RTVSPropertyOp46
 70
     1
102
RTVSPropertyOp47
 70
     1
102
RTVSPropertyOp48
 70
     1
102
RTVSPropertyOp49
 70
     1
102
RTVSPropertyOp50
 70
     1
102
RTVSPropertyOp51
 70
     0
102
RTVSPropertyOp52
 70
     0
102
RTVSPropertyOp53
 70
     1
102
RTVSPropertyOp54
 70
     1
102
RTVSPropertyOp55
 70
     1
102
RTVSPropertyOp56
 70
     1
102
RTVSPropertyOp57
 70
     1
102
RTVSPropertyOp58
 70
     1
102
RTVSPropertyOp59
 70
     1
102
RTVSPropertyOp60
 70
     1
102
RTVSPropertyOp61
 70
     1
102
RTVSPropertyOp62
 70
     1
  0
XRECORD
  5
A9DB
102
{ACAD_REACTORS
330
A9DA
102
}
330
A9DA
100
AcDbXrecord
280
     1
102
RTVSPost2010Prop28
280
     0
102
RTVSPost2010PropOp28
 70
     1
102
RTVSPost2010Prop29
280
     1
102
RTVSPost2010PropOp29
 70
     1
102
RTVSPost2010Prop30
280
     1
102
RTVSPost2010PropOp30
 70
     1
102
RTVSPost2010Prop31
280
     0
102
RTVSPost2010PropOp31
 70
     1
102
RTVSPost2010Prop32
280
     0
102
RTVSPost2010PropOp32
 70
     1
102
RTVSPost2010Prop33
280
     0
102
RTVSPost2010PropOp33
 70
     1
102
RTVSPost2010Prop34
280
     0
102
RTVSPost2010PropOp34
 70
     1
102
RTVSPost2010Prop35
280
     0
102
RTVSPost2010PropOp35
 70
     1
102
RTVSPost2010Prop36
280
     0
102
RTVSPost2010PropOp36
 70
     1
102
RTVSPost2010Prop37
 90
       50
102
RTVSPost2010PropOp37
 70
     0
102
RTVSPost2010Prop38
140
0.0
102
RTVSPost2010PropOp38
 70
     0
102
RTVSPost2010Prop39
140
1.0
102
RTVSPost2010PropOp39
 70
     0
102
RTVSPost2010Prop40
 90
        0
102
RTVSPost2010PropOp40
 70
     0
102
RTVSPost2010Prop41ColorIndex
 90
       18
102
RTVSPost2010Prop41ColorRGB
 90
        0
102
RTVSPost2010PropOp41
 70
     0
102
RTVSPost2010Prop42
 90
       50
102
RTVSPost2010PropOp42
 70
     0
102
RTVSPost2010Prop43
 90
        3
102
RTVSPost2010PropOp43
 70
     0
102
RTVSPost2010Prop44ColorIndex
 90
        5
102
RTVSPost2010Prop44ColorRGB
 90
      255
102
RTVSPost2010PropOp44
 70
     0
102
RTVSPost2010Prop45
280
     0
102
RTVSPost2010PropOp45
 70
     1
102
RTVSPost2010Prop46
 90
       50
102
RTVSPost2010PropOp46
 70
     0
102
RTVSPost2010Prop47
 90
       50
102
RTVSPost2010PropOp47
 70
     0
102
RTVSPost2010Prop48
 90
       50
102
RTVSPost2010PropOp48
 70
     0
102
RTVSPost2010Prop49
280
     0
102
RTVSPost2010PropOp49
 70
     1
102
RTVSPost2010Prop50
 90
       50
102
RTVSPost2010PropOp50
 70
     0
102
RTVSPost2010Prop51ColorIndex
 90
      256
102
RTVSPost2010Prop51ColorRGB
 90
-16777216
102
RTVSPost2010PropOp51
 70
     0
102
RTVSPost2010Prop52
140
1.0
102
RTVSPost2010PropOp52
 70
     0
102
RTVSPost2010Prop53
 90
        2
102
RTVSPost2010PropOp53
 70
     0
102
RTVSPost2010Prop54
  1
strokes_ogs.tif
102
RTVSPost2010PropOp54
 70
     0
102
RTVSPost2010Prop55
280
     0
102
RTVSPost2010PropOp55
 70
     1
102
RTVSPost2010Prop56
140
1.0
102
RTVSPost2010PropOp56
 70
     0
102
RTVSPost2010Prop57
140
1.0
102
RTVSPost2010PropOp57
 70
     0
102
RTVSPropertyOp0
 70
     0
102
RTVSPropertyOp1
 70
     0
102
RTVSPropertyOp2
 70
     0
102
RTVSPropertyOp3
 70
     0
102
RTVSPropertyOp4
 70
     0
102
RTVSPropertyOp5
 70
     0
102
RTVSPropertyOp6
 70
     0
102
RTVSPropertyOp7
 70
     0
102
RTVSPropertyOp8
 70
     0
102
RTVSPropertyOp9
 70
     0
102
RTVSPropertyOp10
 70
     0
102
RTVSPropertyOp11
 70
     0
102
RTVSPropertyOp12
 70
     0
102
RTVSPropertyOp13
 70
     0
102
RTVSPropertyOp14
 70
     2
102
RTVSPropertyOp15
 70
     0
102
RTVSPropertyOp16
 70
     0
102
RTVSPropertyOp17
 70
     0
102
RTVSPropertyOp18
 70
     0
102
RTVSPropertyOp19
 70
     0
102
RTVSPropertyOp20
 70
     0
102
RTVSPropertyOp21
 70
     0
102
RTVSPropertyOp22
 70
     0
102
RTVSPropertyOp23
 70
     0
102
RTVSPropertyOp24
 70
     0
102
RTVSPropertyOp25
 70
     0
102
RTVSPropertyOp26
 70
     0
102
RTVSPropertyOp27
 70
     0
102
RTVSPropertyOp28
 70
     1
102
RTVSPropertyOp29
 70
     1
102
RTVSPropertyOp30
 70
     1
102
RTVSPropertyOp31
 70
     1
102
RTVSPropertyOp32
 70
     1
102
RTVSPropertyOp33
 70
     1
102
RTVSPropertyOp34
 70
     1
102
RTVSPropertyOp35
 70
     1
102
RTVSPropertyOp36
 70
     1
102
RTVSPropertyOp37
 70
     0
102
RTVSPropertyOp38
 70
     0
102
RTVSPropertyOp39
 70
     0
102
RTVSPropertyOp40
 70
     0
102
RTVSPropertyOp41
 70
     0
102
RTVSPropertyOp42
 70
     0
102
RTVSPropertyOp43
 70
     0
102
RTVSPropertyOp44
 70
     0
102
RTVSPropertyOp45
 70
     1
102
RTVSPropertyOp46
 70
     0
102
RTVSPropertyOp47
 70
     0
102
RTVSPropertyOp48
 70
     0
102
RTVSPropertyOp49
 70
     1
102
RTVSPropertyOp50
 70
     0
102
RTVSPropertyOp51
 70
     0
102
RTVSPropertyOp52
 70
     0
102
RTVSPropertyOp53
 70
     0
102
RTVSPropertyOp54
 70
     0
102
RTVSPropertyOp55
 70
     1
102
RTVSPropertyOp56
 70
     0
102
RTVSPropertyOp57
 70
     0
102
RTVSPropertyOp58
 70
     0
102
RTVSPropertyOp59
 70
     0
102
RTVSPropertyOp60
 70
     0
102
RTVSPropertyOp61
 70
     0
102
RTVSPropertyOp62
 70
     0
  0
XRECORD
  5
A9C9
102
{ACAD_REACTORS
330
A9C8
102
}
330
A9C8
100
AcDbXrecord
280
     1
102
RTVSPost2010Prop28
280
     0
102
RTVSPost2010PropOp28
 70
     1
102
RTVSPost2010Prop29
280
     1
102
RTVSPost2010PropOp29
 70
     1
102
RTVSPost2010Prop30
280
     1
102
RTVSPost2010PropOp30
 70
     1
102
RTVSPost2010Prop31
280
     0
102
RTVSPost2010PropOp31
 70
     1
102
RTVSPost2010Prop32
280
     0
102
RTVSPost2010PropOp32
 70
     1
102
RTVSPost2010Prop33
280
     0
102
RTVSPost2010PropOp33
 70
     1
102
RTVSPost2010Prop34
280
     0
102
RTVSPost2010PropOp34
 70
     1
102
RTVSPost2010Prop35
280
     0
102
RTVSPost2010PropOp35
 70
     1
102
RTVSPost2010Prop36
280
     0
102
RTVSPost2010PropOp36
 70
     1
102
RTVSPost2010Prop37
 90
       50
102
RTVSPost2010PropOp37
 70
     1
102
RTVSPost2010Prop38
140
0.0
102
RTVSPost2010PropOp38
 70
     1
102
RTVSPost2010Prop39
140
1.0
102
RTVSPost2010PropOp39
 70
     1
102
RTVSPost2010Prop40
 90
        0
102
RTVSPost2010PropOp40
 70
     1
102
RTVSPost2010Prop41ColorIndex
 90
       18
102
RTVSPost2010Prop41ColorRGB
 90
        0
102
RTVSPost2010PropOp41
 70
     1
102
RTVSPost2010Prop42
 90
       50
102
RTVSPost2010PropOp42
 70
     1
102
RTVSPost2010Prop43
 90
        3
102
RTVSPost2010PropOp43
 70
     1
102
RTVSPost2010Prop44ColorIndex
 90
        5
102
RTVSPost2010Prop44ColorRGB
 90
      255
102
RTVSPost2010PropOp44
 70
     1
102
RTVSPost2010Prop45
280
     0
102
RTVSPost2010PropOp45
 70
     1
102
RTVSPost2010Prop46
 90
       50
102
RTVSPost2010PropOp46
 70
     1
102
RTVSPost2010Prop47
 90
       50
102
RTVSPost2010PropOp47
 70
     1
102
RTVSPost2010Prop48
 90
       50
102
RTVSPost2010PropOp48
 70
     1
102
RTVSPost2010Prop49
280
     0
102
RTVSPost2010PropOp49
 70
     1
102
RTVSPost2010Prop50
 90
       50
102
RTVSPost2010PropOp50
 70
     1
102
RTVSPost2010Prop51ColorIndex
 90
      256
102
RTVSPost2010Prop51ColorRGB
 90
-16777216
102
RTVSPost2010PropOp51
 70
     0
102
RTVSPost2010Prop52
140
1.0
102
RTVSPost2010PropOp52
 70
     0
102
RTVSPost2010Prop53
 90
        2
102
RTVSPost2010PropOp53
 70
     1
102
RTVSPost2010Prop54
  1
strokes_ogs.tif
102
RTVSPost2010PropOp54
 70
     1
102
RTVSPost2010Prop55
280
     0
102
RTVSPost2010PropOp55
 70
     1
102
RTVSPost2010Prop56
140
1.0
102
RTVSPost2010PropOp56
 70
     1
102
RTVSPost2010Prop57
140
1.0
102
RTVSPost2010PropOp57
 70
     1
102
RTVSPropertyOp0
 70
     1
102
RTVSPropertyOp1
 70
     1
102
RTVSPropertyOp2
 70
     1
102
RTVSPropertyOp3
 70
     1
102
RTVSPropertyOp4
 70
     1
102
RTVSPropertyOp5
 70
     1
102
RTVSPropertyOp6
 70
     1
102
RTVSPropertyOp7
 70
     1
102
RTVSPropertyOp8
 70
     1
102
RTVSPropertyOp9
 70
     1
102
RTVSPropertyOp10
 70
     1
102
RTVSPropertyOp11
 70
     1
102
RTVSPropertyOp12
 70
     1
102
RTVSPropertyOp13
 70
     1
102
RTVSPropertyOp14
 70
     1
102
RTVSPropertyOp15
 70
     1
102
RTVSPropertyOp16
 70
     1
102
RTVSPropertyOp17
 70
     1
102
RTVSPropertyOp18
 70
     1
102
RTVSPropertyOp19
 70
     1
102
RTVSPropertyOp20
 70
     1
102
RTVSPropertyOp21
 70
     1
102
RTVSPropertyOp22
 70
     1
102
RTVSPropertyOp23
 70
     1
102
RTVSPropertyOp24
 70
     1
102
RTVSPropertyOp25
 70
     1
102
RTVSPropertyOp26
 70
     1
102
RTVSPropertyOp27
 70
     1
102
RTVSPropertyOp28
 70
     1
102
RTVSPropertyOp29
 70
     1
102
RTVSPropertyOp30
 70
     1
102
RTVSPropertyOp31
 70
     1
102
RTVSPropertyOp32
 70
     1
102
RTVSPropertyOp33
 70
     1
102
RTVSPropertyOp34
 70
     1
102
RTVSPropertyOp35
 70
     1
102
RTVSPropertyOp36
 70
     1
102
RTVSPropertyOp37
 70
     1
102
RTVSPropertyOp38
 70
     1
102
RTVSPropertyOp39
 70
     1
102
RTVSPropertyOp40
 70
     1
102
RTVSPropertyOp41
 70
     1
102
RTVSPropertyOp42
 70
     1
102
RTVSPropertyOp43
 70
     1
102
RTVSPropertyOp44
 70
     1
102
RTVSPropertyOp45
 70
     1
102
RTVSPropertyOp46
 70
     1
102
RTVSPropertyOp47
 70
     1
102
RTVSPropertyOp48
 70
     1
102
RTVSPropertyOp49
 70
     1
102
RTVSPropertyOp50
 70
     1
102
RTVSPropertyOp51
 70
     0
102
RTVSPropertyOp52
 70
     0
102
RTVSPropertyOp53
 70
     1
102
RTVSPropertyOp54
 70
     1
102
RTVSPropertyOp55
 70
     1
102
RTVSPropertyOp56
 70
     1
102
RTVSPropertyOp57
 70
     1
102
RTVSPropertyOp58
 70
     1
102
RTVSPropertyOp59
 70
     1
102
RTVSPropertyOp60
 70
     1
102
RTVSPropertyOp61
 70
     1
102
RTVSPropertyOp62
 70
     1
  0
XRECORD
  5
A9AD
102
{ACAD_REACTORS
330
A9AC
102
}
330
A9AC
100
AcDbXrecord
280
     1
102
RTVSPost2010Prop28
280
     0
102
RTVSPost2010PropOp28
 70
     1
102
RTVSPost2010Prop29
280
     1
102
RTVSPost2010PropOp29
 70
     1
102
RTVSPost2010Prop30
280
     1
102
RTVSPost2010PropOp30
 70
     1
102
RTVSPost2010Prop31
280
     0
102
RTVSPost2010PropOp31
 70
     1
102
RTVSPost2010Prop32
280
     0
102
RTVSPost2010PropOp32
 70
     1
102
RTVSPost2010Prop33
280
     0
102
RTVSPost2010PropOp33
 70
     1
102
RTVSPost2010Prop34
280
     0
102
RTVSPost2010PropOp34
 70
     1
102
RTVSPost2010Prop35
280
     0
102
RTVSPost2010PropOp35
 70
     1
102
RTVSPost2010Prop36
280
     0
102
RTVSPost2010PropOp36
 70
     1
102
RTVSPost2010Prop37
 90
       50
102
RTVSPost2010PropOp37
 70
     1
102
RTVSPost2010Prop38
140
0.0
102
RTVSPost2010PropOp38
 70
     1
102
RTVSPost2010Prop39
140
1.0
102
RTVSPost2010PropOp39
 70
     1
102
RTVSPost2010Prop40
 90
        0
102
RTVSPost2010PropOp40
 70
     1
102
RTVSPost2010Prop41ColorIndex
 90
       18
102
RTVSPost2010Prop41ColorRGB
 90
        0
102
RTVSPost2010PropOp41
 70
     1
102
RTVSPost2010Prop42
 90
       50
102
RTVSPost2010PropOp42
 70
     1
102
RTVSPost2010Prop43
 90
        3
102
RTVSPost2010PropOp43
 70
     1
102
RTVSPost2010Prop44ColorIndex
 90
        5
102
RTVSPost2010Prop44ColorRGB
 90
      255
102
RTVSPost2010PropOp44
 70
     1
102
RTVSPost2010Prop45
280
     0
102
RTVSPost2010PropOp45
 70
     1
102
RTVSPost2010Prop46
 90
       50
102
RTVSPost2010PropOp46
 70
     1
102
RTVSPost2010Prop47
 90
       50
102
RTVSPost2010PropOp47
 70
     1
102
RTVSPost2010Prop48
 90
       50
102
RTVSPost2010PropOp48
 70
     1
102
RTVSPost2010Prop49
280
     0
102
RTVSPost2010PropOp49
 70
     1
102
RTVSPost2010Prop50
 90
       50
102
RTVSPost2010PropOp50
 70
     1
102
RTVSPost2010Prop51ColorIndex
 90
      256
102
RTVSPost2010Prop51ColorRGB
 90
-16777216
102
RTVSPost2010PropOp51
 70
     0
102
RTVSPost2010Prop52
140
1.0
102
RTVSPost2010PropOp52
 70
     0
102
RTVSPost2010Prop53
 90
        2
102
RTVSPost2010PropOp53
 70
     1
102
RTVSPost2010Prop54
  1
strokes_ogs.tif
102
RTVSPost2010PropOp54
 70
     1
102
RTVSPost2010Prop55
280
     0
102
RTVSPost2010PropOp55
 70
     1
102
RTVSPost2010Prop56
140
1.0
102
RTVSPost2010PropOp56
 70
     1
102
RTVSPost2010Prop57
140
1.0
102
RTVSPost2010PropOp57
 70
     1
102
RTVSPropertyOp0
 70
     1
102
RTVSPropertyOp1
 70
     1
102
RTVSPropertyOp2
 70
     1
102
RTVSPropertyOp3
 70
     1
102
RTVSPropertyOp4
 70
     1
102
RTVSPropertyOp5
 70
     1
102
RTVSPropertyOp6
 70
     1
102
RTVSPropertyOp7
 70
     1
102
RTVSPropertyOp8
 70
     1
102
RTVSPropertyOp9
 70
     1
102
RTVSPropertyOp10
 70
     1
102
RTVSPropertyOp11
 70
     1
102
RTVSPropertyOp12
 70
     1
102
RTVSPropertyOp13
 70
     1
102
RTVSPropertyOp14
 70
     1
102
RTVSPropertyOp15
 70
     1
102
RTVSPropertyOp16
 70
     1
102
RTVSPropertyOp17
 70
     1
102
RTVSPropertyOp18
 70
     1
102
RTVSPropertyOp19
 70
     1
102
RTVSPropertyOp20
 70
     1
102
RTVSPropertyOp21
 70
     1
102
RTVSPropertyOp22
 70
     1
102
RTVSPropertyOp23
 70
     1
102
RTVSPropertyOp24
 70
     1
102
RTVSPropertyOp25
 70
     1
102
RTVSPropertyOp26
 70
     1
102
RTVSPropertyOp27
 70
     1
102
RTVSPropertyOp28
 70
     1
102
RTVSPropertyOp29
 70
     1
102
RTVSPropertyOp30
 70
     1
102
RTVSPropertyOp31
 70
     1
102
RTVSPropertyOp32
 70
     1
102
RTVSPropertyOp33
 70
     1
102
RTVSPropertyOp34
 70
     1
102
RTVSPropertyOp35
 70
     1
102
RTVSPropertyOp36
 70
     1
102
RTVSPropertyOp37
 70
     1
102
RTVSPropertyOp38
 70
     1
102
RTVSPropertyOp39
 70
     1
102
RTVSPropertyOp40
 70
     1
102
RTVSPropertyOp41
 70
     1
102
RTVSPropertyOp42
 70
     1
102
RTVSPropertyOp43
 70
     1
102
RTVSPropertyOp44
 70
     1
102
RTVSPropertyOp45
 70
     1
102
RTVSPropertyOp46
 70
     1
102
RTVSPropertyOp47
 70
     1
102
RTVSPropertyOp48
 70
     1
102
RTVSPropertyOp49
 70
     1
102
RTVSPropertyOp50
 70
     1
102
RTVSPropertyOp51
 70
     0
102
RTVSPropertyOp52
 70
     0
102
RTVSPropertyOp53
 70
     1
102
RTVSPropertyOp54
 70
     1
102
RTVSPropertyOp55
 70
     1
102
RTVSPropertyOp56
 70
     1
102
RTVSPropertyOp57
 70
     1
102
RTVSPropertyOp58
 70
     1
102
RTVSPropertyOp59
 70
     1
102
RTVSPropertyOp60
 70
     1
102
RTVSPropertyOp61
 70
     1
102
RTVSPropertyOp62
 70
     1
  0
XRECORD
  5
A9AF
102
{ACAD_REACTORS
330
A9AE
102
}
330
A9AE
100
AcDbXrecord
280
     1
102
RTVSPost2010Prop28
280
     0
102
RTVSPost2010PropOp28
 70
     1
102
RTVSPost2010Prop29
280
     1
102
RTVSPost2010PropOp29
 70
     1
102
RTVSPost2010Prop30
280
     1
102
RTVSPost2010PropOp30
 70
     1
102
RTVSPost2010Prop31
280
     0
102
RTVSPost2010PropOp31
 70
     1
102
RTVSPost2010Prop32
280
     0
102
RTVSPost2010PropOp32
 70
     1
102
RTVSPost2010Prop33
280
     0
102
RTVSPost2010PropOp33
 70
     1
102
RTVSPost2010Prop34
280
     0
102
RTVSPost2010PropOp34
 70
     1
102
RTVSPost2010Prop35
280
     0
102
RTVSPost2010PropOp35
 70
     1
102
RTVSPost2010Prop36
280
     0
102
RTVSPost2010PropOp36
 70
     1
102
RTVSPost2010Prop37
 90
       50
102
RTVSPost2010PropOp37
 70
     1
102
RTVSPost2010Prop38
140
0.0
102
RTVSPost2010PropOp38
 70
     1
102
RTVSPost2010Prop39
140
1.0
102
RTVSPost2010PropOp39
 70
     1
102
RTVSPost2010Prop40
 90
        0
102
RTVSPost2010PropOp40
 70
     1
102
RTVSPost2010Prop41ColorIndex
 90
       18
102
RTVSPost2010Prop41ColorRGB
 90
        0
102
RTVSPost2010PropOp41
 70
     1
102
RTVSPost2010Prop42
 90
       50
102
RTVSPost2010PropOp42
 70
     1
102
RTVSPost2010Prop43
 90
        3
102
RTVSPost2010PropOp43
 70
     1
102
RTVSPost2010Prop44ColorIndex
 90
        5
102
RTVSPost2010Prop44ColorRGB
 90
      255
102
RTVSPost2010PropOp44
 70
     1
102
RTVSPost2010Prop45
280
     0
102
RTVSPost2010PropOp45
 70
     1
102
RTVSPost2010Prop46
 90
       50
102
RTVSPost2010PropOp46
 70
     1
102
RTVSPost2010Prop47
 90
       50
102
RTVSPost2010PropOp47
 70
     1
102
RTVSPost2010Prop48
 90
       50
102
RTVSPost2010PropOp48
 70
     1
102
RTVSPost2010Prop49
280
     0
102
RTVSPost2010PropOp49
 70
     1
102
RTVSPost2010Prop50
 90
       50
102
RTVSPost2010PropOp50
 70
     1
102
RTVSPost2010Prop51ColorIndex
 90
      256
102
RTVSPost2010Prop51ColorRGB
 90
-16777216
102
RTVSPost2010PropOp51
 70
     0
102
RTVSPost2010Prop52
140
1.0
102
RTVSPost2010PropOp52
 70
     0
102
RTVSPost2010Prop53
 90
        2
102
RTVSPost2010PropOp53
 70
     1
102
RTVSPost2010Prop54
  1
strokes_ogs.tif
102
RTVSPost2010PropOp54
 70
     1
102
RTVSPost2010Prop55
280
     0
102
RTVSPost2010PropOp55
 70
     1
102
RTVSPost2010Prop56
140
1.0
102
RTVSPost2010PropOp56
 70
     1
102
RTVSPost2010Prop57
140
1.0
102
RTVSPost2010PropOp57
 70
     1
102
RTVSPropertyOp0
 70
     1
102
RTVSPropertyOp1
 70
     1
102
RTVSPropertyOp2
 70
     1
102
RTVSPropertyOp3
 70
     1
102
RTVSPropertyOp4
 70
     1
102
RTVSPropertyOp5
 70
     1
102
RTVSPropertyOp6
 70
     1
102
RTVSPropertyOp7
 70
     1
102
RTVSPropertyOp8
 70
     1
102
RTVSPropertyOp9
 70
     1
102
RTVSPropertyOp10
 70
     1
102
RTVSPropertyOp11
 70
     1
102
RTVSPropertyOp12
 70
     1
102
RTVSPropertyOp13
 70
     1
102
RTVSPropertyOp14
 70
     1
102
RTVSPropertyOp15
 70
     1
102
RTVSPropertyOp16
 70
     1
102
RTVSPropertyOp17
 70
     1
102
RTVSPropertyOp18
 70
     1
102
RTVSPropertyOp19
 70
     1
102
RTVSPropertyOp20
 70
     1
102
RTVSPropertyOp21
 70
     1
102
RTVSPropertyOp22
 70
     1
102
RTVSPropertyOp23
 70
     1
102
RTVSPropertyOp24
 70
     1
102
RTVSPropertyOp25
 70
     1
102
RTVSPropertyOp26
 70
     1
102
RTVSPropertyOp27
 70
     1
102
RTVSPropertyOp28
 70
     1
102
RTVSPropertyOp29
 70
     1
102
RTVSPropertyOp30
 70
     1
102
RTVSPropertyOp31
 70
     1
102
RTVSPropertyOp32
 70
     1
102
RTVSPropertyOp33
 70
     1
102
RTVSPropertyOp34
 70
     1
102
RTVSPropertyOp35
 70
     1
102
RTVSPropertyOp36
 70
     1
102
RTVSPropertyOp37
 70
     1
102
RTVSPropertyOp38
 70
     1
102
RTVSPropertyOp39
 70
     1
102
RTVSPropertyOp40
 70
     1
102
RTVSPropertyOp41
 70
     1
102
RTVSPropertyOp42
 70
     1
102
RTVSPropertyOp43
 70
     1
102
RTVSPropertyOp44
 70
     1
102
RTVSPropertyOp45
 70
     1
102
RTVSPropertyOp46
 70
     1
102
RTVSPropertyOp47
 70
     1
102
RTVSPropertyOp48
 70
     1
102
RTVSPropertyOp49
 70
     1
102
RTVSPropertyOp50
 70
     1
102
RTVSPropertyOp51
 70
     0
102
RTVSPropertyOp52
 70
     0
102
RTVSPropertyOp53
 70
     1
102
RTVSPropertyOp54
 70
     1
102
RTVSPropertyOp55
 70
     1
102
RTVSPropertyOp56
 70
     1
102
RTVSPropertyOp57
 70
     1
102
RTVSPropertyOp58
 70
     1
102
RTVSPropertyOp59
 70
     1
102
RTVSPropertyOp60
 70
     1
102
RTVSPropertyOp61
 70
     1
102
RTVSPropertyOp62
 70
     1
  0
XRECORD
  5
A9B1
102
{ACAD_REACTORS
330
A9B0
102
}
330
A9B0
100
AcDbXrecord
280
     1
102
RTVSPost2010Prop28
280
     0
102
RTVSPost2010PropOp28
 70
     1
102
RTVSPost2010Prop29
280
     1
102
RTVSPost2010PropOp29
 70
     1
102
RTVSPost2010Prop30
280
     1
102
RTVSPost2010PropOp30
 70
     1
102
RTVSPost2010Prop31
280
     0
102
RTVSPost2010PropOp31
 70
     1
102
RTVSPost2010Prop32
280
     0
102
RTVSPost2010PropOp32
 70
     1
102
RTVSPost2010Prop33
280
     0
102
RTVSPost2010PropOp33
 70
     1
102
RTVSPost2010Prop34
280
     0
102
RTVSPost2010PropOp34
 70
     1
102
RTVSPost2010Prop35
280
     0
102
RTVSPost2010PropOp35
 70
     1
102
RTVSPost2010Prop36
280
     0
102
RTVSPost2010PropOp36
 70
     1
102
RTVSPost2010Prop37
 90
       50
102
RTVSPost2010PropOp37
 70
     1
102
RTVSPost2010Prop38
140
0.0
102
RTVSPost2010PropOp38
 70
     1
102
RTVSPost2010Prop39
140
1.0
102
RTVSPost2010PropOp39
 70
     1
102
RTVSPost2010Prop40
 90
        0
102
RTVSPost2010PropOp40
 70
     1
102
RTVSPost2010Prop41ColorIndex
 90
       18
102
RTVSPost2010Prop41ColorRGB
 90
        0
102
RTVSPost2010PropOp41
 70
     1
102
RTVSPost2010Prop42
 90
       50
102
RTVSPost2010PropOp42
 70
     1
102
RTVSPost2010Prop43
 90
        3
102
RTVSPost2010PropOp43
 70
     1
102
RTVSPost2010Prop44ColorIndex
 90
        5
102
RTVSPost2010Prop44ColorRGB
 90
      255
102
RTVSPost2010PropOp44
 70
     1
102
RTVSPost2010Prop45
280
     0
102
RTVSPost2010PropOp45
 70
     1
102
RTVSPost2010Prop46
 90
       50
102
RTVSPost2010PropOp46
 70
     1
102
RTVSPost2010Prop47
 90
       50
102
RTVSPost2010PropOp47
 70
     1
102
RTVSPost2010Prop48
 90
       50
102
RTVSPost2010PropOp48
 70
     1
102
RTVSPost2010Prop49
280
     0
102
RTVSPost2010PropOp49
 70
     1
102
RTVSPost2010Prop50
 90
       50
102
RTVSPost2010PropOp50
 70
     1
102
RTVSPost2010Prop51ColorIndex
 90
      256
102
RTVSPost2010Prop51ColorRGB
 90
-16777216
102
RTVSPost2010PropOp51
 70
     0
102
RTVSPost2010Prop52
140
1.0
102
RTVSPost2010PropOp52
 70
     0
102
RTVSPost2010Prop53
 90
        2
102
RTVSPost2010PropOp53
 70
     1
102
RTVSPost2010Prop54
  1
strokes_ogs.tif
102
RTVSPost2010PropOp54
 70
     1
102
RTVSPost2010Prop55
280
     0
102
RTVSPost2010PropOp55
 70
     1
102
RTVSPost2010Prop56
140
1.0
102
RTVSPost2010PropOp56
 70
     1
102
RTVSPost2010Prop57
140
1.0
102
RTVSPost2010PropOp57
 70
     1
102
RTVSPropertyOp0
 70
     1
102
RTVSPropertyOp1
 70
     1
102
RTVSPropertyOp2
 70
     1
102
RTVSPropertyOp3
 70
     1
102
RTVSPropertyOp4
 70
     1
102
RTVSPropertyOp5
 70
     1
102
RTVSPropertyOp6
 70
     1
102
RTVSPropertyOp7
 70
     1
102
RTVSPropertyOp8
 70
     1
102
RTVSPropertyOp9
 70
     1
102
RTVSPropertyOp10
 70
     1
102
RTVSPropertyOp11
 70
     1
102
RTVSPropertyOp12
 70
     1
102
RTVSPropertyOp13
 70
     1
102
RTVSPropertyOp14
 70
     1
102
RTVSPropertyOp15
 70
     1
102
RTVSPropertyOp16
 70
     1
102
RTVSPropertyOp17
 70
     1
102
RTVSPropertyOp18
 70
     1
102
RTVSPropertyOp19
 70
     1
102
RTVSPropertyOp20
 70
     1
102
RTVSPropertyOp21
 70
     1
102
RTVSPropertyOp22
 70
     1
102
RTVSPropertyOp23
 70
     1
102
RTVSPropertyOp24
 70
     1
102
RTVSPropertyOp25
 70
     1
102
RTVSPropertyOp26
 70
     1
102
RTVSPropertyOp27
 70
     1
102
RTVSPropertyOp28
 70
     1
102
RTVSPropertyOp29
 70
     1
102
RTVSPropertyOp30
 70
     1
102
RTVSPropertyOp31
 70
     1
102
RTVSPropertyOp32
 70
     1
102
RTVSPropertyOp33
 70
     1
102
RTVSPropertyOp34
 70
     1
102
RTVSPropertyOp35
 70
     1
102
RTVSPropertyOp36
 70
     1
102
RTVSPropertyOp37
 70
     1
102
RTVSPropertyOp38
 70
     1
102
RTVSPropertyOp39
 70
     1
102
RTVSPropertyOp40
 70
     1
102
RTVSPropertyOp41
 70
     1
102
RTVSPropertyOp42
 70
     1
102
RTVSPropertyOp43
 70
     1
102
RTVSPropertyOp44
 70
     1
102
RTVSPropertyOp45
 70
     1
102
RTVSPropertyOp46
 70
     1
102
RTVSPropertyOp47
 70
     1
102
RTVSPropertyOp48
 70
     1
102
RTVSPropertyOp49
 70
     1
102
RTVSPropertyOp50
 70
     1
102
RTVSPropertyOp51
 70
     0
102
RTVSPropertyOp52
 70
     0
102
RTVSPropertyOp53
 70
     1
102
RTVSPropertyOp54
 70
     1
102
RTVSPropertyOp55
 70
     1
102
RTVSPropertyOp56
 70
     1
102
RTVSPropertyOp57
 70
     1
102
RTVSPropertyOp58
 70
     1
102
RTVSPropertyOp59
 70
     1
102
RTVSPropertyOp60
 70
     1
102
RTVSPropertyOp61
 70
     1
102
RTVSPropertyOp62
 70
     1
  0
XRECORD
  5
A9B3
102
{ACAD_REACTORS
330
A9B2
102
}
330
A9B2
100
AcDbXrecord
280
     1
102
RTVSPost2010Prop28
280
     0
102
RTVSPost2010PropOp28
 70
     1
102
RTVSPost2010Prop29
280
     1
102
RTVSPost2010PropOp29
 70
     1
102
RTVSPost2010Prop30
280
     1
102
RTVSPost2010PropOp30
 70
     1
102
RTVSPost2010Prop31
280
     0
102
RTVSPost2010PropOp31
 70
     1
102
RTVSPost2010Prop32
280
     0
102
RTVSPost2010PropOp32
 70
     1
102
RTVSPost2010Prop33
280
     0
102
RTVSPost2010PropOp33
 70
     1
102
RTVSPost2010Prop34
280
     0
102
RTVSPost2010PropOp34
 70
     1
102
RTVSPost2010Prop35
280
     0
102
RTVSPost2010PropOp35
 70
     1
102
RTVSPost2010Prop36
280
     0
102
RTVSPost2010PropOp36
 70
     1
102
RTVSPost2010Prop37
 90
       50
102
RTVSPost2010PropOp37
 70
     1
102
RTVSPost2010Prop38
140
0.0
102
RTVSPost2010PropOp38
 70
     1
102
RTVSPost2010Prop39
140
1.0
102
RTVSPost2010PropOp39
 70
     1
102
RTVSPost2010Prop40
 90
        0
102
RTVSPost2010PropOp40
 70
     1
102
RTVSPost2010Prop41ColorIndex
 90
       18
102
RTVSPost2010Prop41ColorRGB
 90
        0
102
RTVSPost2010PropOp41
 70
     1
102
RTVSPost2010Prop42
 90
       50
102
RTVSPost2010PropOp42
 70
     1
102
RTVSPost2010Prop43
 90
        3
102
RTVSPost2010PropOp43
 70
     1
102
RTVSPost2010Prop44ColorIndex
 90
        5
102
RTVSPost2010Prop44ColorRGB
 90
      255
102
RTVSPost2010PropOp44
 70
     1
102
RTVSPost2010Prop45
280
     0
102
RTVSPost2010PropOp45
 70
     1
102
RTVSPost2010Prop46
 90
       50
102
RTVSPost2010PropOp46
 70
     1
102
RTVSPost2010Prop47
 90
       50
102
RTVSPost2010PropOp47
 70
     1
102
RTVSPost2010Prop48
 90
       50
102
RTVSPost2010PropOp48
 70
     1
102
RTVSPost2010Prop49
280
     0
102
RTVSPost2010PropOp49
 70
     1
102
RTVSPost2010Prop50
 90
       50
102
RTVSPost2010PropOp50
 70
     1
102
RTVSPost2010Prop51ColorIndex
 90
      256
102
RTVSPost2010Prop51ColorRGB
 90
-16777216
102
RTVSPost2010PropOp51
 70
     0
102
RTVSPost2010Prop52
140
1.0
102
RTVSPost2010PropOp52
 70
     0
102
RTVSPost2010Prop53
 90
        2
102
RTVSPost2010PropOp53
 70
     1
102
RTVSPost2010Prop54
  1
strokes_ogs.tif
102
RTVSPost2010PropOp54
 70
     1
102
RTVSPost2010Prop55
280
     0
102
RTVSPost2010PropOp55
 70
     1
102
RTVSPost2010Prop56
140
1.0
102
RTVSPost2010PropOp56
 70
     1
102
RTVSPost2010Prop57
140
1.0
102
RTVSPost2010PropOp57
 70
     1
102
RTVSPropertyOp0
 70
     1
102
RTVSPropertyOp1
 70
     1
102
RTVSPropertyOp2
 70
     1
102
RTVSPropertyOp3
 70
     1
102
RTVSPropertyOp4
 70
     1
102
RTVSPropertyOp5
 70
     1
102
RTVSPropertyOp6
 70
     1
102
RTVSPropertyOp7
 70
     1
102
RTVSPropertyOp8
 70
     1
102
RTVSPropertyOp9
 70
     1
102
RTVSPropertyOp10
 70
     1
102
RTVSPropertyOp11
 70
     1
102
RTVSPropertyOp12
 70
     1
102
RTVSPropertyOp13
 70
     1
102
RTVSPropertyOp14
 70
     1
102
RTVSPropertyOp15
 70
     1
102
RTVSPropertyOp16
 70
     1
102
RTVSPropertyOp17
 70
     1
102
RTVSPropertyOp18
 70
     1
102
RTVSPropertyOp19
 70
     1
102
RTVSPropertyOp20
 70
     1
102
RTVSPropertyOp21
 70
     1
102
RTVSPropertyOp22
 70
     1
102
RTVSPropertyOp23
 70
     1
102
RTVSPropertyOp24
 70
     1
102
RTVSPropertyOp25
 70
     1
102
RTVSPropertyOp26
 70
     1
102
RTVSPropertyOp27
 70
     1
102
RTVSPropertyOp28
 70
     1
102
RTVSPropertyOp29
 70
     1
102
RTVSPropertyOp30
 70
     1
102
RTVSPropertyOp31
 70
     1
102
RTVSPropertyOp32
 70
     1
102
RTVSPropertyOp33
 70
     1
102
RTVSPropertyOp34
 70
     1
102
RTVSPropertyOp35
 70
     1
102
RTVSPropertyOp36
 70
     1
102
RTVSPropertyOp37
 70
     1
102
RTVSPropertyOp38
 70
     1
102
RTVSPropertyOp39
 70
     1
102
RTVSPropertyOp40
 70
     1
102
RTVSPropertyOp41
 70
     1
102
RTVSPropertyOp42
 70
     1
102
RTVSPropertyOp43
 70
     1
102
RTVSPropertyOp44
 70
     1
102
RTVSPropertyOp45
 70
     1
102
RTVSPropertyOp46
 70
     1
102
RTVSPropertyOp47
 70
     1
102
RTVSPropertyOp48
 70
     1
102
RTVSPropertyOp49
 70
     1
102
RTVSPropertyOp50
 70
     1
102
RTVSPropertyOp51
 70
     0
102
RTVSPropertyOp52
 70
     0
102
RTVSPropertyOp53
 70
     1
102
RTVSPropertyOp54
 70
     1
102
RTVSPropertyOp55
 70
     1
102
RTVSPropertyOp56
 70
     1
102
RTVSPropertyOp57
 70
     1
102
RTVSPropertyOp58
 70
     1
102
RTVSPropertyOp59
 70
     1
102
RTVSPropertyOp60
 70
     1
102
RTVSPropertyOp61
 70
     1
102
RTVSPropertyOp62
 70
     1
  0
XRECORD
  5
A9BB
102
{ACAD_REACTORS
330
A9BA
102
}
330
A9BA
100
AcDbXrecord
280
     1
102
RTVSPost2010Prop28
280
     0
102
RTVSPost2010PropOp28
 70
     1
102
RTVSPost2010Prop29
280
     1
102
RTVSPost2010PropOp29
 70
     1
102
RTVSPost2010Prop30
280
     1
102
RTVSPost2010PropOp30
 70
     1
102
RTVSPost2010Prop31
280
     0
102
RTVSPost2010PropOp31
 70
     1
102
RTVSPost2010Prop32
280
     0
102
RTVSPost2010PropOp32
 70
     1
102
RTVSPost2010Prop33
280
     0
102
RTVSPost2010PropOp33
 70
     1
102
RTVSPost2010Prop34
280
     0
102
RTVSPost2010PropOp34
 70
     1
102
RTVSPost2010Prop35
280
     0
102
RTVSPost2010PropOp35
 70
     1
102
RTVSPost2010Prop36
280
     0
102
RTVSPost2010PropOp36
 70
     1
102
RTVSPost2010Prop37
 90
       50
102
RTVSPost2010PropOp37
 70
     1
102
RTVSPost2010Prop38
140
0.0
102
RTVSPost2010PropOp38
 70
     1
102
RTVSPost2010Prop39
140
1.0
102
RTVSPost2010PropOp39
 70
     1
102
RTVSPost2010Prop40
 90
        0
102
RTVSPost2010PropOp40
 70
     1
102
RTVSPost2010Prop41ColorIndex
 90
       18
102
RTVSPost2010Prop41ColorRGB
 90
        0
102
RTVSPost2010PropOp41
 70
     1
102
RTVSPost2010Prop42
 90
       50
102
RTVSPost2010PropOp42
 70
     1
102
RTVSPost2010Prop43
 90
        3
102
RTVSPost2010PropOp43
 70
     1
102
RTVSPost2010Prop44ColorIndex
 90
        5
102
RTVSPost2010Prop44ColorRGB
 90
      255
102
RTVSPost2010PropOp44
 70
     1
102
RTVSPost2010Prop45
280
     0
102
RTVSPost2010PropOp45
 70
     1
102
RTVSPost2010Prop46
 90
       50
102
RTVSPost2010PropOp46
 70
     1
102
RTVSPost2010Prop47
 90
       50
102
RTVSPost2010PropOp47
 70
     1
102
RTVSPost2010Prop48
 90
       50
102
RTVSPost2010PropOp48
 70
     1
102
RTVSPost2010Prop49
280
     0
102
RTVSPost2010PropOp49
 70
     1
102
RTVSPost2010Prop50
 90
       50
102
RTVSPost2010PropOp50
 70
     1
102
RTVSPost2010Prop51ColorIndex
 90
      256
102
RTVSPost2010Prop51ColorRGB
 90
-16777216
102
RTVSPost2010PropOp51
 70
     0
102
RTVSPost2010Prop52
140
1.0
102
RTVSPost2010PropOp52
 70
     0
102
RTVSPost2010Prop53
 90
        2
102
RTVSPost2010PropOp53
 70
     1
102
RTVSPost2010Prop54
  1
strokes_ogs.tif
102
RTVSPost2010PropOp54
 70
     1
102
RTVSPost2010Prop55
280
     0
102
RTVSPost2010PropOp55
 70
     1
102
RTVSPost2010Prop56
140
1.0
102
RTVSPost2010PropOp56
 70
     1
102
RTVSPost2010Prop57
140
1.0
102
RTVSPost2010PropOp57
 70
     1
102
RTVSPropertyOp0
 70
     1
102
RTVSPropertyOp1
 70
     1
102
RTVSPropertyOp2
 70
     1
102
RTVSPropertyOp3
 70
     1
102
RTVSPropertyOp4
 70
     1
102
RTVSPropertyOp5
 70
     1
102
RTVSPropertyOp6
 70
     1
102
RTVSPropertyOp7
 70
     1
102
RTVSPropertyOp8
 70
     1
102
RTVSPropertyOp9
 70
     1
102
RTVSPropertyOp10
 70
     1
102
RTVSPropertyOp11
 70
     1
102
RTVSPropertyOp12
 70
     1
102
RTVSPropertyOp13
 70
     1
102
RTVSPropertyOp14
 70
     1
102
RTVSPropertyOp15
 70
     1
102
RTVSPropertyOp16
 70
     1
102
RTVSPropertyOp17
 70
     1
102
RTVSPropertyOp18
 70
     1
102
RTVSPropertyOp19
 70
     1
102
RTVSPropertyOp20
 70
     1
102
RTVSPropertyOp21
 70
     1
102
RTVSPropertyOp22
 70
     1
102
RTVSPropertyOp23
 70
     1
102
RTVSPropertyOp24
 70
     1
102
RTVSPropertyOp25
 70
     1
102
RTVSPropertyOp26
 70
     1
102
RTVSPropertyOp27
 70
     1
102
RTVSPropertyOp28
 70
     1
102
RTVSPropertyOp29
 70
     1
102
RTVSPropertyOp30
 70
     1
102
RTVSPropertyOp31
 70
     1
102
RTVSPropertyOp32
 70
     1
102
RTVSPropertyOp33
 70
     1
102
RTVSPropertyOp34
 70
     1
102
RTVSPropertyOp35
 70
     1
102
RTVSPropertyOp36
 70
     1
102
RTVSPropertyOp37
 70
     1
102
RTVSPropertyOp38
 70
     1
102
RTVSPropertyOp39
 70
     1
102
RTVSPropertyOp40
 70
     1
102
RTVSPropertyOp41
 70
     1
102
RTVSPropertyOp42
 70
     1
102
RTVSPropertyOp43
 70
     1
102
RTVSPropertyOp44
 70
     1
102
RTVSPropertyOp45
 70
     1
102
RTVSPropertyOp46
 70
     1
102
RTVSPropertyOp47
 70
     1
102
RTVSPropertyOp48
 70
     1
102
RTVSPropertyOp49
 70
     1
102
RTVSPropertyOp50
 70
     1
102
RTVSPropertyOp51
 70
     0
102
RTVSPropertyOp52
 70
     0
102
RTVSPropertyOp53
 70
     1
102
RTVSPropertyOp54
 70
     1
102
RTVSPropertyOp55
 70
     1
102
RTVSPropertyOp56
 70
     1
102
RTVSPropertyOp57
 70
     1
102
RTVSPropertyOp58
 70
     1
102
RTVSPropertyOp59
 70
     1
102
RTVSPropertyOp60
 70
     1
102
RTVSPropertyOp61
 70
     1
102
RTVSPropertyOp62
 70
     1
  0
XRECORD
  5
A9D7
102
{ACAD_REACTORS
330
A9D6
102
}
330
A9D6
100
AcDbXrecord
280
     1
102
RTVSPost2010Prop28
280
     0
102
RTVSPost2010PropOp28
 70
     1
102
RTVSPost2010Prop29
280
     1
102
RTVSPost2010PropOp29
 70
     1
102
RTVSPost2010Prop30
280
     1
102
RTVSPost2010PropOp30
 70
     1
102
RTVSPost2010Prop31
280
     0
102
RTVSPost2010PropOp31
 70
     1
102
RTVSPost2010Prop32
280
     0
102
RTVSPost2010PropOp32
 70
     1
102
RTVSPost2010Prop33
280
     0
102
RTVSPost2010PropOp33
 70
     1
102
RTVSPost2010Prop34
280
     0
102
RTVSPost2010PropOp34
 70
     1
102
RTVSPost2010Prop35
280
     0
102
RTVSPost2010PropOp35
 70
     1
102
RTVSPost2010Prop36
280
     0
102
RTVSPost2010PropOp36
 70
     1
102
RTVSPost2010Prop37
 90
       50
102
RTVSPost2010PropOp37
 70
     0
102
RTVSPost2010Prop38
140
0.0
102
RTVSPost2010PropOp38
 70
     0
102
RTVSPost2010Prop39
140
1.0
102
RTVSPost2010PropOp39
 70
     0
102
RTVSPost2010Prop40
 90
        0
102
RTVSPost2010PropOp40
 70
     0
102
RTVSPost2010Prop41ColorIndex
 90
       18
102
RTVSPost2010Prop41ColorRGB
 90
        0
102
RTVSPost2010PropOp41
 70
     0
102
RTVSPost2010Prop42
 90
       50
102
RTVSPost2010PropOp42
 70
     0
102
RTVSPost2010Prop43
 90
        3
102
RTVSPost2010PropOp43
 70
     0
102
RTVSPost2010Prop44ColorIndex
 90
        5
102
RTVSPost2010Prop44ColorRGB
 90
      255
102
RTVSPost2010PropOp44
 70
     0
102
RTVSPost2010Prop45
280
     0
102
RTVSPost2010PropOp45
 70
     1
102
RTVSPost2010Prop46
 90
       50
102
RTVSPost2010PropOp46
 70
     0
102
RTVSPost2010Prop47
 90
       50
102
RTVSPost2010PropOp47
 70
     0
102
RTVSPost2010Prop48
 90
       50
102
RTVSPost2010PropOp48
 70
     0
102
RTVSPost2010Prop49
280
     0
102
RTVSPost2010PropOp49
 70
     1
102
RTVSPost2010Prop50
 90
       50
102
RTVSPost2010PropOp50
 70
     0
102
RTVSPost2010Prop51ColorIndex
 90
      256
102
RTVSPost2010Prop51ColorRGB
 90
-16777216
102
RTVSPost2010PropOp51
 70
     0
102
RTVSPost2010Prop52
140
1.0
102
RTVSPost2010PropOp52
 70
     0
102
RTVSPost2010Prop53
 90
        2
102
RTVSPost2010PropOp53
 70
     0
102
RTVSPost2010Prop54
  1
strokes_ogs.tif
102
RTVSPost2010PropOp54
 70
     0
102
RTVSPost2010Prop55
280
     0
102
RTVSPost2010PropOp55
 70
     1
102
RTVSPost2010Prop56
140
1.0
102
RTVSPost2010PropOp56
 70
     0
102
RTVSPost2010Prop57
140
1.0
102
RTVSPost2010PropOp57
 70
     0
102
RTVSPropertyOp0
 70
     0
102
RTVSPropertyOp1
 70
     0
102
RTVSPropertyOp2
 70
     0
102
RTVSPropertyOp3
 70
     0
102
RTVSPropertyOp4
 70
     0
102
RTVSPropertyOp5
 70
     0
102
RTVSPropertyOp6
 70
     0
102
RTVSPropertyOp7
 70
     0
102
RTVSPropertyOp8
 70
     0
102
RTVSPropertyOp9
 70
     0
102
RTVSPropertyOp10
 70
     0
102
RTVSPropertyOp11
 70
     0
102
RTVSPropertyOp12
 70
     0
102
RTVSPropertyOp13
 70
     0
102
RTVSPropertyOp14
 70
     2
102
RTVSPropertyOp15
 70
     0
102
RTVSPropertyOp16
 70
     0
102
RTVSPropertyOp17
 70
     0
102
RTVSPropertyOp18
 70
     0
102
RTVSPropertyOp19
 70
     0
102
RTVSPropertyOp20
 70
     0
102
RTVSPropertyOp21
 70
     0
102
RTVSPropertyOp22
 70
     0
102
RTVSPropertyOp23
 70
     0
102
RTVSPropertyOp24
 70
     0
102
RTVSPropertyOp25
 70
     0
102
RTVSPropertyOp26
 70
     0
102
RTVSPropertyOp27
 70
     0
102
RTVSPropertyOp28
 70
     1
102
RTVSPropertyOp29
 70
     1
102
RTVSPropertyOp30
 70
     1
102
RTVSPropertyOp31
 70
     1
102
RTVSPropertyOp32
 70
     1
102
RTVSPropertyOp33
 70
     1
102
RTVSPropertyOp34
 70
     1
102
RTVSPropertyOp35
 70
     1
102
RTVSPropertyOp36
 70
     1
102
RTVSPropertyOp37
 70
     0
102
RTVSPropertyOp38
 70
     0
102
RTVSPropertyOp39
 70
     0
102
RTVSPropertyOp40
 70
     0
102
RTVSPropertyOp41
 70
     0
102
RTVSPropertyOp42
 70
     0
102
RTVSPropertyOp43
 70
     0
102
RTVSPropertyOp44
 70
     0
102
RTVSPropertyOp45
 70
     1
102
RTVSPropertyOp46
 70
     0
102
RTVSPropertyOp47
 70
     0
102
RTVSPropertyOp48
 70
     0
102
RTVSPropertyOp49
 70
     1
102
RTVSPropertyOp50
 70
     0
102
RTVSPropertyOp51
 70
     0
102
RTVSPropertyOp52
 70
     0
102
RTVSPropertyOp53
 70
     0
102
RTVSPropertyOp54
 70
     0
102
RTVSPropertyOp55
 70
     1
102
RTVSPropertyOp56
 70
     0
102
RTVSPropertyOp57
 70
     0
102
RTVSPropertyOp58
 70
     0
102
RTVSPropertyOp59
 70
     0
102
RTVSPropertyOp60
 70
     0
102
RTVSPropertyOp61
 70
     0
102
RTVSPropertyOp62
 70
     0
  0
XRECORD
  5
A9C7
102
{ACAD_REACTORS
330
A9C6
102
}
330
A9C6
100
AcDbXrecord
280
     1
102
RTVSPost2010Prop28
280
     0
102
RTVSPost2010PropOp28
 70
     1
102
RTVSPost2010Prop29
280
     1
102
RTVSPost2010PropOp29
 70
     1
102
RTVSPost2010Prop30
280
     1
102
RTVSPost2010PropOp30
 70
     1
102
RTVSPost2010Prop31
280
     0
102
RTVSPost2010PropOp31
 70
     1
102
RTVSPost2010Prop32
280
     0
102
RTVSPost2010PropOp32
 70
     1
102
RTVSPost2010Prop33
280
     0
102
RTVSPost2010PropOp33
 70
     1
102
RTVSPost2010Prop34
280
     0
102
RTVSPost2010PropOp34
 70
     1
102
RTVSPost2010Prop35
280
     0
102
RTVSPost2010PropOp35
 70
     1
102
RTVSPost2010Prop36
280
     0
102
RTVSPost2010PropOp36
 70
     1
102
RTVSPost2010Prop37
 90
       50
102
RTVSPost2010PropOp37
 70
     1
102
RTVSPost2010Prop38
140
0.0
102
RTVSPost2010PropOp38
 70
     1
102
RTVSPost2010Prop39
140
1.0
102
RTVSPost2010PropOp39
 70
     1
102
RTVSPost2010Prop40
 90
        0
102
RTVSPost2010PropOp40
 70
     1
102
RTVSPost2010Prop41ColorIndex
 90
       18
102
RTVSPost2010Prop41ColorRGB
 90
        0
102
RTVSPost2010PropOp41
 70
     1
102
RTVSPost2010Prop42
 90
       50
102
RTVSPost2010PropOp42
 70
     1
102
RTVSPost2010Prop43
 90
        3
102
RTVSPost2010PropOp43
 70
     1
102
RTVSPost2010Prop44ColorIndex
 90
        5
102
RTVSPost2010Prop44ColorRGB
 90
      255
102
RTVSPost2010PropOp44
 70
     1
102
RTVSPost2010Prop45
280
     0
102
RTVSPost2010PropOp45
 70
     1
102
RTVSPost2010Prop46
 90
       50
102
RTVSPost2010PropOp46
 70
     1
102
RTVSPost2010Prop47
 90
       50
102
RTVSPost2010PropOp47
 70
     1
102
RTVSPost2010Prop48
 90
       50
102
RTVSPost2010PropOp48
 70
     1
102
RTVSPost2010Prop49
280
     0
102
RTVSPost2010PropOp49
 70
     1
102
RTVSPost2010Prop50
 90
       50
102
RTVSPost2010PropOp50
 70
     1
102
RTVSPost2010Prop51ColorIndex
 90
      256
102
RTVSPost2010Prop51ColorRGB
 90
-16777216
102
RTVSPost2010PropOp51
 70
     0
102
RTVSPost2010Prop52
140
1.0
102
RTVSPost2010PropOp52
 70
     0
102
RTVSPost2010Prop53
 90
        2
102
RTVSPost2010PropOp53
 70
     1
102
RTVSPost2010Prop54
  1
strokes_ogs.tif
102
RTVSPost2010PropOp54
 70
     1
102
RTVSPost2010Prop55
280
     0
102
RTVSPost2010PropOp55
 70
     1
102
RTVSPost2010Prop56
140
1.0
102
RTVSPost2010PropOp56
 70
     1
102
RTVSPost2010Prop57
140
1.0
102
RTVSPost2010PropOp57
 70
     1
102
RTVSPropertyOp0
 70
     1
102
RTVSPropertyOp1
 70
     1
102
RTVSPropertyOp2
 70
     1
102
RTVSPropertyOp3
 70
     1
102
RTVSPropertyOp4
 70
     1
102
RTVSPropertyOp5
 70
     1
102
RTVSPropertyOp6
 70
     1
102
RTVSPropertyOp7
 70
     1
102
RTVSPropertyOp8
 70
     1
102
RTVSPropertyOp9
 70
     1
102
RTVSPropertyOp10
 70
     1
102
RTVSPropertyOp11
 70
     1
102
RTVSPropertyOp12
 70
     1
102
RTVSPropertyOp13
 70
     1
102
RTVSPropertyOp14
 70
     1
102
RTVSPropertyOp15
 70
     1
102
RTVSPropertyOp16
 70
     1
102
RTVSPropertyOp17
 70
     1
102
RTVSPropertyOp18
 70
     1
102
RTVSPropertyOp19
 70
     1
102
RTVSPropertyOp20
 70
     1
102
RTVSPropertyOp21
 70
     1
102
RTVSPropertyOp22
 70
     1
102
RTVSPropertyOp23
 70
     1
102
RTVSPropertyOp24
 70
     1
102
RTVSPropertyOp25
 70
     1
102
RTVSPropertyOp26
 70
     1
102
RTVSPropertyOp27
 70
     1
102
RTVSPropertyOp28
 70
     1
102
RTVSPropertyOp29
 70
     1
102
RTVSPropertyOp30
 70
     1
102
RTVSPropertyOp31
 70
     1
102
RTVSPropertyOp32
 70
     1
102
RTVSPropertyOp33
 70
     1
102
RTVSPropertyOp34
 70
     1
102
RTVSPropertyOp35
 70
     1
102
RTVSPropertyOp36
 70
     1
102
RTVSPropertyOp37
 70
     1
102
RTVSPropertyOp38
 70
     1
102
RTVSPropertyOp39
 70
     1
102
RTVSPropertyOp40
 70
     1
102
RTVSPropertyOp41
 70
     1
102
RTVSPropertyOp42
 70
     1
102
RTVSPropertyOp43
 70
     1
102
RTVSPropertyOp44
 70
     1
102
RTVSPropertyOp45
 70
     1
102
RTVSPropertyOp46
 70
     1
102
RTVSPropertyOp47
 70
     1
102
RTVSPropertyOp48
 70
     1
102
RTVSPropertyOp49
 70
     1
102
RTVSPropertyOp50
 70
     1
102
RTVSPropertyOp51
 70
     0
102
RTVSPropertyOp52
 70
     0
102
RTVSPropertyOp53
 70
     1
102
RTVSPropertyOp54
 70
     1
102
RTVSPropertyOp55
 70
     1
102
RTVSPropertyOp56
 70
     1
102
RTVSPropertyOp57
 70
     1
102
RTVSPropertyOp58
 70
     1
102
RTVSPropertyOp59
 70
     1
102
RTVSPropertyOp60
 70
     1
102
RTVSPropertyOp61
 70
     1
102
RTVSPropertyOp62
 70
     1
  0
XRECORD
  5
A9D9
102
{ACAD_REACTORS
330
A9D8
102
}
330
A9D8
100
AcDbXrecord
280
     1
102
RTVSPost2010Prop28
280
     0
102
RTVSPost2010PropOp28
 70
     1
102
RTVSPost2010Prop29
280
     1
102
RTVSPost2010PropOp29
 70
     1
102
RTVSPost2010Prop30
280
     1
102
RTVSPost2010PropOp30
 70
     1
102
RTVSPost2010Prop31
280
     0
102
RTVSPost2010PropOp31
 70
     1
102
RTVSPost2010Prop32
280
     0
102
RTVSPost2010PropOp32
 70
     1
102
RTVSPost2010Prop33
280
     0
102
RTVSPost2010PropOp33
 70
     1
102
RTVSPost2010Prop34
280
     0
102
RTVSPost2010PropOp34
 70
     1
102
RTVSPost2010Prop35
280
     0
102
RTVSPost2010PropOp35
 70
     1
102
RTVSPost2010Prop36
280
     0
102
RTVSPost2010PropOp36
 70
     1
102
RTVSPost2010Prop37
 90
       50
102
RTVSPost2010PropOp37
 70
     0
102
RTVSPost2010Prop38
140
0.0
102
RTVSPost2010PropOp38
 70
     0
102
RTVSPost2010Prop39
140
1.0
102
RTVSPost2010PropOp39
 70
     0
102
RTVSPost2010Prop40
 90
        0
102
RTVSPost2010PropOp40
 70
     0
102
RTVSPost2010Prop41ColorIndex
 90
       18
102
RTVSPost2010Prop41ColorRGB
 90
        0
102
RTVSPost2010PropOp41
 70
     0
102
RTVSPost2010Prop42
 90
       50
102
RTVSPost2010PropOp42
 70
     0
102
RTVSPost2010Prop43
 90
        3
102
RTVSPost2010PropOp43
 70
     0
102
RTVSPost2010Prop44ColorIndex
 90
        5
102
RTVSPost2010Prop44ColorRGB
 90
      255
102
RTVSPost2010PropOp44
 70
     0
102
RTVSPost2010Prop45
280
     0
102
RTVSPost2010PropOp45
 70
     1
102
RTVSPost2010Prop46
 90
       50
102
RTVSPost2010PropOp46
 70
     0
102
RTVSPost2010Prop47
 90
       50
102
RTVSPost2010PropOp47
 70
     0
102
RTVSPost2010Prop48
 90
       50
102
RTVSPost2010PropOp48
 70
     0
102
RTVSPost2010Prop49
280
     0
102
RTVSPost2010PropOp49
 70
     1
102
RTVSPost2010Prop50
 90
       50
102
RTVSPost2010PropOp50
 70
     0
102
RTVSPost2010Prop51ColorIndex
 90
      256
102
RTVSPost2010Prop51ColorRGB
 90
-16777216
102
RTVSPost2010PropOp51
 70
     0
102
RTVSPost2010Prop52
140
1.0
102
RTVSPost2010PropOp52
 70
     0
102
RTVSPost2010Prop53
 90
        2
102
RTVSPost2010PropOp53
 70
     0
102
RTVSPost2010Prop54
  1
strokes_ogs.tif
102
RTVSPost2010PropOp54
 70
     0
102
RTVSPost2010Prop55
280
     0
102
RTVSPost2010PropOp55
 70
     1
102
RTVSPost2010Prop56
140
1.0
102
RTVSPost2010PropOp56
 70
     0
102
RTVSPost2010Prop57
140
1.0
102
RTVSPost2010PropOp57
 70
     0
102
RTVSPropertyOp0
 70
     0
102
RTVSPropertyOp1
 70
     0
102
RTVSPropertyOp2
 70
     0
102
RTVSPropertyOp3
 70
     0
102
RTVSPropertyOp4
 70
     0
102
RTVSPropertyOp5
 70
     0
102
RTVSPropertyOp6
 70
     0
102
RTVSPropertyOp7
 70
     0
102
RTVSPropertyOp8
 70
     0
102
RTVSPropertyOp9
 70
     0
102
RTVSPropertyOp10
 70
     0
102
RTVSPropertyOp11
 70
     0
102
RTVSPropertyOp12
 70
     0
102
RTVSPropertyOp13
 70
     0
102
RTVSPropertyOp14
 70
     2
102
RTVSPropertyOp15
 70
     0
102
RTVSPropertyOp16
 70
     0
102
RTVSPropertyOp17
 70
     0
102
RTVSPropertyOp18
 70
     0
102
RTVSPropertyOp19
 70
     0
102
RTVSPropertyOp20
 70
     0
102
RTVSPropertyOp21
 70
     0
102
RTVSPropertyOp22
 70
     0
102
RTVSPropertyOp23
 70
     0
102
RTVSPropertyOp24
 70
     0
102
RTVSPropertyOp25
 70
     0
102
RTVSPropertyOp26
 70
     0
102
RTVSPropertyOp27
 70
     0
102
RTVSPropertyOp28
 70
     1
102
RTVSPropertyOp29
 70
     1
102
RTVSPropertyOp30
 70
     1
102
RTVSPropertyOp31
 70
     1
102
RTVSPropertyOp32
 70
     1
102
RTVSPropertyOp33
 70
     1
102
RTVSPropertyOp34
 70
     1
102
RTVSPropertyOp35
 70
     1
102
RTVSPropertyOp36
 70
     1
102
RTVSPropertyOp37
 70
     0
102
RTVSPropertyOp38
 70
     0
102
RTVSPropertyOp39
 70
     0
102
RTVSPropertyOp40
 70
     0
102
RTVSPropertyOp41
 70
     0
102
RTVSPropertyOp42
 70
     0
102
RTVSPropertyOp43
 70
     0
102
RTVSPropertyOp44
 70
     0
102
RTVSPropertyOp45
 70
     1
102
RTVSPropertyOp46
 70
     0
102
RTVSPropertyOp47
 70
     0
102
RTVSPropertyOp48
 70
     0
102
RTVSPropertyOp49
 70
     1
102
RTVSPropertyOp50
 70
     0
102
RTVSPropertyOp51
 70
     0
102
RTVSPropertyOp52
 70
     0
102
RTVSPropertyOp53
 70
     0
102
RTVSPropertyOp54
 70
     0
102
RTVSPropertyOp55
 70
     1
102
RTVSPropertyOp56
 70
     0
102
RTVSPropertyOp57
 70
     0
102
RTVSPropertyOp58
 70
     0
102
RTVSPropertyOp59
 70
     0
102
RTVSPropertyOp60
 70
     0
102
RTVSPropertyOp61
 70
     0
102
RTVSPropertyOp62
 70
     0
  0
XRECORD
  5
A9BF
102
{ACAD_REACTORS
330
A9BE
102
}
330
A9BE
100
AcDbXrecord
280
     1
102
RTVSPost2010Prop28
280
     0
102
RTVSPost2010PropOp28
 70
     1
102
RTVSPost2010Prop29
280
     1
102
RTVSPost2010PropOp29
 70
     1
102
RTVSPost2010Prop30
280
     1
102
RTVSPost2010PropOp30
 70
     1
102
RTVSPost2010Prop31
280
     0
102
RTVSPost2010PropOp31
 70
     1
102
RTVSPost2010Prop32
280
     0
102
RTVSPost2010PropOp32
 70
     1
102
RTVSPost2010Prop33
280
     0
102
RTVSPost2010PropOp33
 70
     1
102
RTVSPost2010Prop34
280
     0
102
RTVSPost2010PropOp34
 70
     1
102
RTVSPost2010Prop35
280
     0
102
RTVSPost2010PropOp35
 70
     1
102
RTVSPost2010Prop36
280
     0
102
RTVSPost2010PropOp36
 70
     1
102
RTVSPost2010Prop37
 90
       50
102
RTVSPost2010PropOp37
 70
     1
102
RTVSPost2010Prop38
140
0.0
102
RTVSPost2010PropOp38
 70
     1
102
RTVSPost2010Prop39
140
1.0
102
RTVSPost2010PropOp39
 70
     1
102
RTVSPost2010Prop40
 90
        0
102
RTVSPost2010PropOp40
 70
     1
102
RTVSPost2010Prop41ColorIndex
 90
       18
102
RTVSPost2010Prop41ColorRGB
 90
        0
102
RTVSPost2010PropOp41
 70
     1
102
RTVSPost2010Prop42
 90
       50
102
RTVSPost2010PropOp42
 70
     1
102
RTVSPost2010Prop43
 90
        3
102
RTVSPost2010PropOp43
 70
     1
102
RTVSPost2010Prop44ColorIndex
 90
        5
102
RTVSPost2010Prop44ColorRGB
 90
      255
102
RTVSPost2010PropOp44
 70
     1
102
RTVSPost2010Prop45
280
     0
102
RTVSPost2010PropOp45
 70
     1
102
RTVSPost2010Prop46
 90
       50
102
RTVSPost2010PropOp46
 70
     1
102
RTVSPost2010Prop47
 90
       50
102
RTVSPost2010PropOp47
 70
     1
102
RTVSPost2010Prop48
 90
       50
102
RTVSPost2010PropOp48
 70
     1
102
RTVSPost2010Prop49
280
     0
102
RTVSPost2010PropOp49
 70
     1
102
RTVSPost2010Prop50
 90
       50
102
RTVSPost2010PropOp50
 70
     1
102
RTVSPost2010Prop51ColorIndex
 90
      256
102
RTVSPost2010Prop51ColorRGB
 90
-16777216
102
RTVSPost2010PropOp51
 70
     0
102
RTVSPost2010Prop52
140
1.0
102
RTVSPost2010PropOp52
 70
     0
102
RTVSPost2010Prop53
 90
        2
102
RTVSPost2010PropOp53
 70
     1
102
RTVSPost2010Prop54
  1
strokes_ogs.tif
102
RTVSPost2010PropOp54
 70
     1
102
RTVSPost2010Prop55
280
     0
102
RTVSPost2010PropOp55
 70
     1
102
RTVSPost2010Prop56
140
1.0
102
RTVSPost2010PropOp56
 70
     1
102
RTVSPost2010Prop57
140
1.0
102
RTVSPost2010PropOp57
 70
     1
102
RTVSPropertyOp0
 70
     1
102
RTVSPropertyOp1
 70
     1
102
RTVSPropertyOp2
 70
     1
102
RTVSPropertyOp3
 70
     1
102
RTVSPropertyOp4
 70
     1
102
RTVSPropertyOp5
 70
     1
102
RTVSPropertyOp6
 70
     1
102
RTVSPropertyOp7
 70
     1
102
RTVSPropertyOp8
 70
     1
102
RTVSPropertyOp9
 70
     1
102
RTVSPropertyOp10
 70
     1
102
RTVSPropertyOp11
 70
     1
102
RTVSPropertyOp12
 70
     1
102
RTVSPropertyOp13
 70
     1
102
RTVSPropertyOp14
 70
     1
102
RTVSPropertyOp15
 70
     1
102
RTVSPropertyOp16
 70
     1
102
RTVSPropertyOp17
 70
     1
102
RTVSPropertyOp18
 70
     1
102
RTVSPropertyOp19
 70
     1
102
RTVSPropertyOp20
 70
     1
102
RTVSPropertyOp21
 70
     1
102
RTVSPropertyOp22
 70
     1
102
RTVSPropertyOp23
 70
     1
102
RTVSPropertyOp24
 70
     1
102
RTVSPropertyOp25
 70
     1
102
RTVSPropertyOp26
 70
     1
102
RTVSPropertyOp27
 70
     1
102
RTVSPropertyOp28
 70
     1
102
RTVSPropertyOp29
 70
     1
102
RTVSPropertyOp30
 70
     1
102
RTVSPropertyOp31
 70
     1
102
RTVSPropertyOp32
 70
     1
102
RTVSPropertyOp33
 70
     1
102
RTVSPropertyOp34
 70
     1
102
RTVSPropertyOp35
 70
     1
102
RTVSPropertyOp36
 70
     1
102
RTVSPropertyOp37
 70
     1
102
RTVSPropertyOp38
 70
     1
102
RTVSPropertyOp39
 70
     1
102
RTVSPropertyOp40
 70
     1
102
RTVSPropertyOp41
 70
     1
102
RTVSPropertyOp42
 70
     1
102
RTVSPropertyOp43
 70
     1
102
RTVSPropertyOp44
 70
     1
102
RTVSPropertyOp45
 70
     1
102
RTVSPropertyOp46
 70
     1
102
RTVSPropertyOp47
 70
     1
102
RTVSPropertyOp48
 70
     1
102
RTVSPropertyOp49
 70
     1
102
RTVSPropertyOp50
 70
     1
102
RTVSPropertyOp51
 70
     0
102
RTVSPropertyOp52
 70
     0
102
RTVSPropertyOp53
 70
     1
102
RTVSPropertyOp54
 70
     1
102
RTVSPropertyOp55
 70
     1
102
RTVSPropertyOp56
 70
     1
102
RTVSPropertyOp57
 70
     1
102
RTVSPropertyOp58
 70
     1
102
RTVSPropertyOp59
 70
     1
102
RTVSPropertyOp60
 70
     1
102
RTVSPropertyOp61
 70
     1
102
RTVSPropertyOp62
 70
     1
  0
XRECORD
  5
A9D5
102
{ACAD_REACTORS
330
A9D4
102
}
330
A9D4
100
AcDbXrecord
280
     1
102
RTVSPost2010Prop28
280
     0
102
RTVSPost2010PropOp28
 70
     1
102
RTVSPost2010Prop29
280
     1
102
RTVSPost2010PropOp29
 70
     1
102
RTVSPost2010Prop30
280
     1
102
RTVSPost2010PropOp30
 70
     1
102
RTVSPost2010Prop31
280
     0
102
RTVSPost2010PropOp31
 70
     1
102
RTVSPost2010Prop32
280
     0
102
RTVSPost2010PropOp32
 70
     1
102
RTVSPost2010Prop33
280
     0
102
RTVSPost2010PropOp33
 70
     1
102
RTVSPost2010Prop34
280
     0
102
RTVSPost2010PropOp34
 70
     1
102
RTVSPost2010Prop35
280
     0
102
RTVSPost2010PropOp35
 70
     1
102
RTVSPost2010Prop36
280
     0
102
RTVSPost2010PropOp36
 70
     1
102
RTVSPost2010Prop37
 90
       50
102
RTVSPost2010PropOp37
 70
     1
102
RTVSPost2010Prop38
140
0.0
102
RTVSPost2010PropOp38
 70
     1
102
RTVSPost2010Prop39
140
1.0
102
RTVSPost2010PropOp39
 70
     1
102
RTVSPost2010Prop40
 90
        0
102
RTVSPost2010PropOp40
 70
     1
102
RTVSPost2010Prop41ColorIndex
 90
       18
102
RTVSPost2010Prop41ColorRGB
 90
        0
102
RTVSPost2010PropOp41
 70
     1
102
RTVSPost2010Prop42
 90
       50
102
RTVSPost2010PropOp42
 70
     1
102
RTVSPost2010Prop43
 90
        3
102
RTVSPost2010PropOp43
 70
     1
102
RTVSPost2010Prop44ColorIndex
 90
        5
102
RTVSPost2010Prop44ColorRGB
 90
      255
102
RTVSPost2010PropOp44
 70
     1
102
RTVSPost2010Prop45
280
     0
102
RTVSPost2010PropOp45
 70
     1
102
RTVSPost2010Prop46
 90
       50
102
RTVSPost2010PropOp46
 70
     1
102
RTVSPost2010Prop47
 90
       50
102
RTVSPost2010PropOp47
 70
     1
102
RTVSPost2010Prop48
 90
       50
102
RTVSPost2010PropOp48
 70
     1
102
RTVSPost2010Prop49
280
     0
102
RTVSPost2010PropOp49
 70
     1
102
RTVSPost2010Prop50
 90
       50
102
RTVSPost2010PropOp50
 70
     1
102
RTVSPost2010Prop51ColorIndex
 90
      256
102
RTVSPost2010Prop51ColorRGB
 90
-16777216
102
RTVSPost2010PropOp51
 70
     0
102
RTVSPost2010Prop52
140
1.0
102
RTVSPost2010PropOp52
 70
     0
102
RTVSPost2010Prop53
 90
        2
102
RTVSPost2010PropOp53
 70
     1
102
RTVSPost2010Prop54
  1
strokes_ogs.tif
102
RTVSPost2010PropOp54
 70
     1
102
RTVSPost2010Prop55
280
     0
102
RTVSPost2010PropOp55
 70
     1
102
RTVSPost2010Prop56
140
1.0
102
RTVSPost2010PropOp56
 70
     1
102
RTVSPost2010Prop57
140
1.0
102
RTVSPost2010PropOp57
 70
     1
102
RTVSPropertyOp0
 70
     1
102
RTVSPropertyOp1
 70
     1
102
RTVSPropertyOp2
 70
     1
102
RTVSPropertyOp3
 70
     1
102
RTVSPropertyOp4
 70
     1
102
RTVSPropertyOp5
 70
     1
102
RTVSPropertyOp6
 70
     1
102
RTVSPropertyOp7
 70
     1
102
RTVSPropertyOp8
 70
     1
102
RTVSPropertyOp9
 70
     1
102
RTVSPropertyOp10
 70
     1
102
RTVSPropertyOp11
 70
     1
102
RTVSPropertyOp12
 70
     1
102
RTVSPropertyOp13
 70
     1
102
RTVSPropertyOp14
 70
     1
102
RTVSPropertyOp15
 70
     1
102
RTVSPropertyOp16
 70
     1
102
RTVSPropertyOp17
 70
     1
102
RTVSPropertyOp18
 70
     1
102
RTVSPropertyOp19
 70
     1
102
RTVSPropertyOp20
 70
     1
102
RTVSPropertyOp21
 70
     1
102
RTVSPropertyOp22
 70
     1
102
RTVSPropertyOp23
 70
     1
102
RTVSPropertyOp24
 70
     1
102
RTVSPropertyOp25
 70
     1
102
RTVSPropertyOp26
 70
     1
102
RTVSPropertyOp27
 70
     1
102
RTVSPropertyOp28
 70
     1
102
RTVSPropertyOp29
 70
     1
102
RTVSPropertyOp30
 70
     1
102
RTVSPropertyOp31
 70
     1
102
RTVSPropertyOp32
 70
     1
102
RTVSPropertyOp33
 70
     1
102
RTVSPropertyOp34
 70
     1
102
RTVSPropertyOp35
 70
     1
102
RTVSPropertyOp36
 70
     1
102
RTVSPropertyOp37
 70
     1
102
RTVSPropertyOp38
 70
     1
102
RTVSPropertyOp39
 70
     1
102
RTVSPropertyOp40
 70
     1
102
RTVSPropertyOp41
 70
     1
102
RTVSPropertyOp42
 70
     1
102
RTVSPropertyOp43
 70
     1
102
RTVSPropertyOp44
 70
     1
102
RTVSPropertyOp45
 70
     1
102
RTVSPropertyOp46
 70
     1
102
RTVSPropertyOp47
 70
     1
102
RTVSPropertyOp48
 70
     1
102
RTVSPropertyOp49
 70
     1
102
RTVSPropertyOp50
 70
     1
102
RTVSPropertyOp51
 70
     0
102
RTVSPropertyOp52
 70
     0
102
RTVSPropertyOp53
 70
     1
102
RTVSPropertyOp54
 70
     1
102
RTVSPropertyOp55
 70
     1
102
RTVSPropertyOp56
 70
     1
102
RTVSPropertyOp57
 70
     1
102
RTVSPropertyOp58
 70
     1
102
RTVSPropertyOp59
 70
     1
102
RTVSPropertyOp60
 70
     1
102
RTVSPropertyOp61
 70
     1
102
RTVSPropertyOp62
 70
     1
  0
XRECORD
  5
A9D3
102
{ACAD_REACTORS
330
A9D2
102
}
330
A9D2
100
AcDbXrecord
280
     1
102
RTVSPost2010Prop28
280
     0
102
RTVSPost2010PropOp28
 70
     1
102
RTVSPost2010Prop29
280
     1
102
RTVSPost2010PropOp29
 70
     1
102
RTVSPost2010Prop30
280
     1
102
RTVSPost2010PropOp30
 70
     1
102
RTVSPost2010Prop31
280
     0
102
RTVSPost2010PropOp31
 70
     1
102
RTVSPost2010Prop32
280
     0
102
RTVSPost2010PropOp32
 70
     1
102
RTVSPost2010Prop33
280
     0
102
RTVSPost2010PropOp33
 70
     1
102
RTVSPost2010Prop34
280
     0
102
RTVSPost2010PropOp34
 70
     1
102
RTVSPost2010Prop35
280
     0
102
RTVSPost2010PropOp35
 70
     1
102
RTVSPost2010Prop36
280
     0
102
RTVSPost2010PropOp36
 70
     1
102
RTVSPost2010Prop37
 90
       50
102
RTVSPost2010PropOp37
 70
     1
102
RTVSPost2010Prop38
140
0.0
102
RTVSPost2010PropOp38
 70
     1
102
RTVSPost2010Prop39
140
1.0
102
RTVSPost2010PropOp39
 70
     1
102
RTVSPost2010Prop40
 90
        0
102
RTVSPost2010PropOp40
 70
     1
102
RTVSPost2010Prop41ColorIndex
 90
       18
102
RTVSPost2010Prop41ColorRGB
 90
        0
102
RTVSPost2010PropOp41
 70
     1
102
RTVSPost2010Prop42
 90
       50
102
RTVSPost2010PropOp42
 70
     1
102
RTVSPost2010Prop43
 90
        3
102
RTVSPost2010PropOp43
 70
     1
102
RTVSPost2010Prop44ColorIndex
 90
        5
102
RTVSPost2010Prop44ColorRGB
 90
      255
102
RTVSPost2010PropOp44
 70
     1
102
RTVSPost2010Prop45
280
     0
102
RTVSPost2010PropOp45
 70
     1
102
RTVSPost2010Prop46
 90
       50
102
RTVSPost2010PropOp46
 70
     1
102
RTVSPost2010Prop47
 90
       50
102
RTVSPost2010PropOp47
 70
     1
102
RTVSPost2010Prop48
 90
       50
102
RTVSPost2010PropOp48
 70
     1
102
RTVSPost2010Prop49
280
     0
102
RTVSPost2010PropOp49
 70
     1
102
RTVSPost2010Prop50
 90
       50
102
RTVSPost2010PropOp50
 70
     1
102
RTVSPost2010Prop51ColorIndex
 90
      256
102
RTVSPost2010Prop51ColorRGB
 90
-16777216
102
RTVSPost2010PropOp51
 70
     0
102
RTVSPost2010Prop52
140
1.0
102
RTVSPost2010PropOp52
 70
     0
102
RTVSPost2010Prop53
 90
        2
102
RTVSPost2010PropOp53
 70
     1
102
RTVSPost2010Prop54
  1
strokes_ogs.tif
102
RTVSPost2010PropOp54
 70
     1
102
RTVSPost2010Prop55
280
     0
102
RTVSPost2010PropOp55
 70
     1
102
RTVSPost2010Prop56
140
1.0
102
RTVSPost2010PropOp56
 70
     1
102
RTVSPost2010Prop57
140
1.0
102
RTVSPost2010PropOp57
 70
     1
102
RTVSPropertyOp0
 70
     1
102
RTVSPropertyOp1
 70
     1
102
RTVSPropertyOp2
 70
     1
102
RTVSPropertyOp3
 70
     1
102
RTVSPropertyOp4
 70
     1
102
RTVSPropertyOp5
 70
     1
102
RTVSPropertyOp6
 70
     1
102
RTVSPropertyOp7
 70
     1
102
RTVSPropertyOp8
 70
     1
102
RTVSPropertyOp9
 70
     1
102
RTVSPropertyOp10
 70
     1
102
RTVSPropertyOp11
 70
     1
102
RTVSPropertyOp12
 70
     1
102
RTVSPropertyOp13
 70
     1
102
RTVSPropertyOp14
 70
     1
102
RTVSPropertyOp15
 70
     1
102
RTVSPropertyOp16
 70
     1
102
RTVSPropertyOp17
 70
     1
102
RTVSPropertyOp18
 70
     1
102
RTVSPropertyOp19
 70
     1
102
RTVSPropertyOp20
 70
     1
102
RTVSPropertyOp21
 70
     1
102
RTVSPropertyOp22
 70
     1
102
RTVSPropertyOp23
 70
     1
102
RTVSPropertyOp24
 70
     1
102
RTVSPropertyOp25
 70
     1
102
RTVSPropertyOp26
 70
     1
102
RTVSPropertyOp27
 70
     1
102
RTVSPropertyOp28
 70
     1
102
RTVSPropertyOp29
 70
     1
102
RTVSPropertyOp30
 70
     1
102
RTVSPropertyOp31
 70
     1
102
RTVSPropertyOp32
 70
     1
102
RTVSPropertyOp33
 70
     1
102
RTVSPropertyOp34
 70
     1
102
RTVSPropertyOp35
 70
     1
102
RTVSPropertyOp36
 70
     1
102
RTVSPropertyOp37
 70
     1
102
RTVSPropertyOp38
 70
     1
102
RTVSPropertyOp39
 70
     1
102
RTVSPropertyOp40
 70
     1
102
RTVSPropertyOp41
 70
     1
102
RTVSPropertyOp42
 70
     1
102
RTVSPropertyOp43
 70
     1
102
RTVSPropertyOp44
 70
     1
102
RTVSPropertyOp45
 70
     1
102
RTVSPropertyOp46
 70
     1
102
RTVSPropertyOp47
 70
     1
102
RTVSPropertyOp48
 70
     1
102
RTVSPropertyOp49
 70
     1
102
RTVSPropertyOp50
 70
     1
102
RTVSPropertyOp51
 70
     0
102
RTVSPropertyOp52
 70
     0
102
RTVSPropertyOp53
 70
     1
102
RTVSPropertyOp54
 70
     1
102
RTVSPropertyOp55
 70
     1
102
RTVSPropertyOp56
 70
     1
102
RTVSPropertyOp57
 70
     1
102
RTVSPropertyOp58
 70
     1
102
RTVSPropertyOp59
 70
     1
102
RTVSPropertyOp60
 70
     1
102
RTVSPropertyOp61
 70
     1
102
RTVSPropertyOp62
 70
     1
  0
XRECORD
  5
A9CD
102
{ACAD_REACTORS
330
A9CC
102
}
330
A9CC
100
AcDbXrecord
280
     1
102
RTVSPost2010Prop28
280
     0
102
RTVSPost2010PropOp28
 70
     1
102
RTVSPost2010Prop29
280
     1
102
RTVSPost2010PropOp29
 70
     1
102
RTVSPost2010Prop30
280
     1
102
RTVSPost2010PropOp30
 70
     1
102
RTVSPost2010Prop31
280
     0
102
RTVSPost2010PropOp31
 70
     1
102
RTVSPost2010Prop32
280
     0
102
RTVSPost2010PropOp32
 70
     1
102
RTVSPost2010Prop33
280
     0
102
RTVSPost2010PropOp33
 70
     1
102
RTVSPost2010Prop34
280
     0
102
RTVSPost2010PropOp34
 70
     1
102
RTVSPost2010Prop35
280
     0
102
RTVSPost2010PropOp35
 70
     1
102
RTVSPost2010Prop36
280
     0
102
RTVSPost2010PropOp36
 70
     1
102
RTVSPost2010Prop37
 90
       50
102
RTVSPost2010PropOp37
 70
     1
102
RTVSPost2010Prop38
140
0.0
102
RTVSPost2010PropOp38
 70
     1
102
RTVSPost2010Prop39
140
1.0
102
RTVSPost2010PropOp39
 70
     1
102
RTVSPost2010Prop40
 90
        0
102
RTVSPost2010PropOp40
 70
     1
102
RTVSPost2010Prop41ColorIndex
 90
       18
102
RTVSPost2010Prop41ColorRGB
 90
        0
102
RTVSPost2010PropOp41
 70
     1
102
RTVSPost2010Prop42
 90
       50
102
RTVSPost2010PropOp42
 70
     1
102
RTVSPost2010Prop43
 90
        3
102
RTVSPost2010PropOp43
 70
     1
102
RTVSPost2010Prop44ColorIndex
 90
        5
102
RTVSPost2010Prop44ColorRGB
 90
      255
102
RTVSPost2010PropOp44
 70
     1
102
RTVSPost2010Prop45
280
     0
102
RTVSPost2010PropOp45
 70
     1
102
RTVSPost2010Prop46
 90
       50
102
RTVSPost2010PropOp46
 70
     1
102
RTVSPost2010Prop47
 90
       50
102
RTVSPost2010PropOp47
 70
     1
102
RTVSPost2010Prop48
 90
       50
102
RTVSPost2010PropOp48
 70
     1
102
RTVSPost2010Prop49
280
     0
102
RTVSPost2010PropOp49
 70
     1
102
RTVSPost2010Prop50
 90
       50
102
RTVSPost2010PropOp50
 70
     1
102
RTVSPost2010Prop51ColorIndex
 90
      256
102
RTVSPost2010Prop51ColorRGB
 90
-16777216
102
RTVSPost2010PropOp51
 70
     0
102
RTVSPost2010Prop52
140
1.0
102
RTVSPost2010PropOp52
 70
     0
102
RTVSPost2010Prop53
 90
        2
102
RTVSPost2010PropOp53
 70
     1
102
RTVSPost2010Prop54
  1
strokes_ogs.tif
102
RTVSPost2010PropOp54
 70
     1
102
RTVSPost2010Prop55
280
     0
102
RTVSPost2010PropOp55
 70
     1
102
RTVSPost2010Prop56
140
1.0
102
RTVSPost2010PropOp56
 70
     1
102
RTVSPost2010Prop57
140
1.0
102
RTVSPost2010PropOp57
 70
     1
102
RTVSPropertyOp0
 70
     1
102
RTVSPropertyOp1
 70
     1
102
RTVSPropertyOp2
 70
     1
102
RTVSPropertyOp3
 70
     1
102
RTVSPropertyOp4
 70
     1
102
RTVSPropertyOp5
 70
     1
102
RTVSPropertyOp6
 70
     1
102
RTVSPropertyOp7
 70
     1
102
RTVSPropertyOp8
 70
     1
102
RTVSPropertyOp9
 70
     1
102
RTVSPropertyOp10
 70
     1
102
RTVSPropertyOp11
 70
     1
102
RTVSPropertyOp12
 70
     1
102
RTVSPropertyOp13
 70
     1
102
RTVSPropertyOp14
 70
     1
102
RTVSPropertyOp15
 70
     1
102
RTVSPropertyOp16
 70
     1
102
RTVSPropertyOp17
 70
     1
102
RTVSPropertyOp18
 70
     1
102
RTVSPropertyOp19
 70
     1
102
RTVSPropertyOp20
 70
     1
102
RTVSPropertyOp21
 70
     1
102
RTVSPropertyOp22
 70
     1
102
RTVSPropertyOp23
 70
     1
102
RTVSPropertyOp24
 70
     1
102
RTVSPropertyOp25
 70
     1
102
RTVSPropertyOp26
 70
     1
102
RTVSPropertyOp27
 70
     1
102
RTVSPropertyOp28
 70
     1
102
RTVSPropertyOp29
 70
     1
102
RTVSPropertyOp30
 70
     1
102
RTVSPropertyOp31
 70
     1
102
RTVSPropertyOp32
 70
     1
102
RTVSPropertyOp33
 70
     1
102
RTVSPropertyOp34
 70
     1
102
RTVSPropertyOp35
 70
     1
102
RTVSPropertyOp36
 70
     1
102
RTVSPropertyOp37
 70
     1
102
RTVSPropertyOp38
 70
     1
102
RTVSPropertyOp39
 70
     1
102
RTVSPropertyOp40
 70
     1
102
RTVSPropertyOp41
 70
     1
102
RTVSPropertyOp42
 70
     1
102
RTVSPropertyOp43
 70
     1
102
RTVSPropertyOp44
 70
     1
102
RTVSPropertyOp45
 70
     1
102
RTVSPropertyOp46
 70
     1
102
RTVSPropertyOp47
 70
     1
102
RTVSPropertyOp48
 70
     1
102
RTVSPropertyOp49
 70
     1
102
RTVSPropertyOp50
 70
     1
102
RTVSPropertyOp51
 70
     0
102
RTVSPropertyOp52
 70
     0
102
RTVSPropertyOp53
 70
     1
102
RTVSPropertyOp54
 70
     1
102
RTVSPropertyOp55
 70
     1
102
RTVSPropertyOp56
 70
     1
102
RTVSPropertyOp57
 70
     1
102
RTVSPropertyOp58
 70
     1
102
RTVSPropertyOp59
 70
     1
102
RTVSPropertyOp60
 70
     1
102
RTVSPropertyOp61
 70
     1
102
RTVSPropertyOp62
 70
     1
  0
XRECORD
  5
A9CF
102
{ACAD_REACTORS
330
A9CE
102
}
330
A9CE
100
AcDbXrecord
280
     1
102
RTVSPost2010Prop28
280
     0
102
RTVSPost2010PropOp28
 70
     1
102
RTVSPost2010Prop29
280
     1
102
RTVSPost2010PropOp29
 70
     1
102
RTVSPost2010Prop30
280
     1
102
RTVSPost2010PropOp30
 70
     1
102
RTVSPost2010Prop31
280
     0
102
RTVSPost2010PropOp31
 70
     1
102
RTVSPost2010Prop32
280
     0
102
RTVSPost2010PropOp32
 70
     1
102
RTVSPost2010Prop33
280
     0
102
RTVSPost2010PropOp33
 70
     1
102
RTVSPost2010Prop34
280
     0
102
RTVSPost2010PropOp34
 70
     1
102
RTVSPost2010Prop35
280
     0
102
RTVSPost2010PropOp35
 70
     1
102
RTVSPost2010Prop36
280
     0
102
RTVSPost2010PropOp36
 70
     1
102
RTVSPost2010Prop37
 90
       50
102
RTVSPost2010PropOp37
 70
     1
102
RTVSPost2010Prop38
140
0.0
102
RTVSPost2010PropOp38
 70
     1
102
RTVSPost2010Prop39
140
1.0
102
RTVSPost2010PropOp39
 70
     1
102
RTVSPost2010Prop40
 90
        0
102
RTVSPost2010PropOp40
 70
     1
102
RTVSPost2010Prop41ColorIndex
 90
       18
102
RTVSPost2010Prop41ColorRGB
 90
        0
102
RTVSPost2010PropOp41
 70
     1
102
RTVSPost2010Prop42
 90
       50
102
RTVSPost2010PropOp42
 70
     1
102
RTVSPost2010Prop43
 90
        3
102
RTVSPost2010PropOp43
 70
     1
102
RTVSPost2010Prop44ColorIndex
 90
        5
102
RTVSPost2010Prop44ColorRGB
 90
      255
102
RTVSPost2010PropOp44
 70
     1
102
RTVSPost2010Prop45
280
     0
102
RTVSPost2010PropOp45
 70
     1
102
RTVSPost2010Prop46
 90
       50
102
RTVSPost2010PropOp46
 70
     1
102
RTVSPost2010Prop47
 90
       50
102
RTVSPost2010PropOp47
 70
     1
102
RTVSPost2010Prop48
 90
       50
102
RTVSPost2010PropOp48
 70
     1
102
RTVSPost2010Prop49
280
     0
102
RTVSPost2010PropOp49
 70
     1
102
RTVSPost2010Prop50
 90
       50
102
RTVSPost2010PropOp50
 70
     1
102
RTVSPost2010Prop51ColorIndex
 90
      256
102
RTVSPost2010Prop51ColorRGB
 90
-16777216
102
RTVSPost2010PropOp51
 70
     0
102
RTVSPost2010Prop52
140
1.0
102
RTVSPost2010PropOp52
 70
     0
102
RTVSPost2010Prop53
 90
        2
102
RTVSPost2010PropOp53
 70
     1
102
RTVSPost2010Prop54
  1
strokes_ogs.tif
102
RTVSPost2010PropOp54
 70
     1
102
RTVSPost2010Prop55
280
     0
102
RTVSPost2010PropOp55
 70
     1
102
RTVSPost2010Prop56
140
1.0
102
RTVSPost2010PropOp56
 70
     1
102
RTVSPost2010Prop57
140
1.0
102
RTVSPost2010PropOp57
 70
     1
102
RTVSPropertyOp0
 70
     1
102
RTVSPropertyOp1
 70
     1
102
RTVSPropertyOp2
 70
     1
102
RTVSPropertyOp3
 70
     1
102
RTVSPropertyOp4
 70
     1
102
RTVSPropertyOp5
 70
     1
102
RTVSPropertyOp6
 70
     1
102
RTVSPropertyOp7
 70
     1
102
RTVSPropertyOp8
 70
     1
102
RTVSPropertyOp9
 70
     1
102
RTVSPropertyOp10
 70
     1
102
RTVSPropertyOp11
 70
     1
102
RTVSPropertyOp12
 70
     1
102
RTVSPropertyOp13
 70
     1
102
RTVSPropertyOp14
 70
     1
102
RTVSPropertyOp15
 70
     1
102
RTVSPropertyOp16
 70
     1
102
RTVSPropertyOp17
 70
     1
102
RTVSPropertyOp18
 70
     1
102
RTVSPropertyOp19
 70
     1
102
RTVSPropertyOp20
 70
     1
102
RTVSPropertyOp21
 70
     1
102
RTVSPropertyOp22
 70
     1
102
RTVSPropertyOp23
 70
     1
102
RTVSPropertyOp24
 70
     1
102
RTVSPropertyOp25
 70
     1
102
RTVSPropertyOp26
 70
     1
102
RTVSPropertyOp27
 70
     1
102
RTVSPropertyOp28
 70
     1
102
RTVSPropertyOp29
 70
     1
102
RTVSPropertyOp30
 70
     1
102
RTVSPropertyOp31
 70
     1
102
RTVSPropertyOp32
 70
     1
102
RTVSPropertyOp33
 70
     1
102
RTVSPropertyOp34
 70
     1
102
RTVSPropertyOp35
 70
     1
102
RTVSPropertyOp36
 70
     1
102
RTVSPropertyOp37
 70
     1
102
RTVSPropertyOp38
 70
     1
102
RTVSPropertyOp39
 70
     1
102
RTVSPropertyOp40
 70
     1
102
RTVSPropertyOp41
 70
     1
102
RTVSPropertyOp42
 70
     1
102
RTVSPropertyOp43
 70
     1
102
RTVSPropertyOp44
 70
     1
102
RTVSPropertyOp45
 70
     1
102
RTVSPropertyOp46
 70
     1
102
RTVSPropertyOp47
 70
     1
102
RTVSPropertyOp48
 70
     1
102
RTVSPropertyOp49
 70
     1
102
RTVSPropertyOp50
 70
     1
102
RTVSPropertyOp51
 70
     0
102
RTVSPropertyOp52
 70
     0
102
RTVSPropertyOp53
 70
     1
102
RTVSPropertyOp54
 70
     1
102
RTVSPropertyOp55
 70
     1
102
RTVSPropertyOp56
 70
     1
102
RTVSPropertyOp57
 70
     1
102
RTVSPropertyOp58
 70
     1
102
RTVSPropertyOp59
 70
     1
102
RTVSPropertyOp60
 70
     1
102
RTVSPropertyOp61
 70
     1
102
RTVSPropertyOp62
 70
     1
  0
XRECORD
  5
A9C5
102
{ACAD_REACTORS
330
A9C4
102
}
330
A9C4
100
AcDbXrecord
280
     1
102
RTVSPost2010Prop28
280
     0
102
RTVSPost2010PropOp28
 70
     1
102
RTVSPost2010Prop29
280
     1
102
RTVSPost2010PropOp29
 70
     1
102
RTVSPost2010Prop30
280
     1
102
RTVSPost2010PropOp30
 70
     1
102
RTVSPost2010Prop31
280
     0
102
RTVSPost2010PropOp31
 70
     1
102
RTVSPost2010Prop32
280
     0
102
RTVSPost2010PropOp32
 70
     1
102
RTVSPost2010Prop33
280
     0
102
RTVSPost2010PropOp33
 70
     1
102
RTVSPost2010Prop34
280
     0
102
RTVSPost2010PropOp34
 70
     1
102
RTVSPost2010Prop35
280
     0
102
RTVSPost2010PropOp35
 70
     1
102
RTVSPost2010Prop36
280
     0
102
RTVSPost2010PropOp36
 70
     1
102
RTVSPost2010Prop37
 90
       50
102
RTVSPost2010PropOp37
 70
     1
102
RTVSPost2010Prop38
140
0.0
102
RTVSPost2010PropOp38
 70
     1
102
RTVSPost2010Prop39
140
1.0
102
RTVSPost2010PropOp39
 70
     1
102
RTVSPost2010Prop40
 90
        0
102
RTVSPost2010PropOp40
 70
     1
102
RTVSPost2010Prop41ColorIndex
 90
       18
102
RTVSPost2010Prop41ColorRGB
 90
        0
102
RTVSPost2010PropOp41
 70
     1
102
RTVSPost2010Prop42
 90
       50
102
RTVSPost2010PropOp42
 70
     1
102
RTVSPost2010Prop43
 90
        3
102
RTVSPost2010PropOp43
 70
     1
102
RTVSPost2010Prop44ColorIndex
 90
        5
102
RTVSPost2010Prop44ColorRGB
 90
      255
102
RTVSPost2010PropOp44
 70
     1
102
RTVSPost2010Prop45
280
     0
102
RTVSPost2010PropOp45
 70
     1
102
RTVSPost2010Prop46
 90
       50
102
RTVSPost2010PropOp46
 70
     1
102
RTVSPost2010Prop47
 90
       50
102
RTVSPost2010PropOp47
 70
     1
102
RTVSPost2010Prop48
 90
       50
102
RTVSPost2010PropOp48
 70
     1
102
RTVSPost2010Prop49
280
     0
102
RTVSPost2010PropOp49
 70
     1
102
RTVSPost2010Prop50
 90
       50
102
RTVSPost2010PropOp50
 70
     1
102
RTVSPost2010Prop51ColorIndex
 90
      256
102
RTVSPost2010Prop51ColorRGB
 90
-16777216
102
RTVSPost2010PropOp51
 70
     0
102
RTVSPost2010Prop52
140
1.0
102
RTVSPost2010PropOp52
 70
     0
102
RTVSPost2010Prop53
 90
        2
102
RTVSPost2010PropOp53
 70
     1
102
RTVSPost2010Prop54
  1
strokes_ogs.tif
102
RTVSPost2010PropOp54
 70
     1
102
RTVSPost2010Prop55
280
     0
102
RTVSPost2010PropOp55
 70
     1
102
RTVSPost2010Prop56
140
1.0
102
RTVSPost2010PropOp56
 70
     1
102
RTVSPost2010Prop57
140
1.0
102
RTVSPost2010PropOp57
 70
     1
102
RTVSPropertyOp0
 70
     1
102
RTVSPropertyOp1
 70
     1
102
RTVSPropertyOp2
 70
     1
102
RTVSPropertyOp3
 70
     1
102
RTVSPropertyOp4
 70
     1
102
RTVSPropertyOp5
 70
     1
102
RTVSPropertyOp6
 70
     1
102
RTVSPropertyOp7
 70
     1
102
RTVSPropertyOp8
 70
     1
102
RTVSPropertyOp9
 70
     1
102
RTVSPropertyOp10
 70
     1
102
RTVSPropertyOp11
 70
     1
102
RTVSPropertyOp12
 70
     1
102
RTVSPropertyOp13
 70
     1
102
RTVSPropertyOp14
 70
     1
102
RTVSPropertyOp15
 70
     1
102
RTVSPropertyOp16
 70
     1
102
RTVSPropertyOp17
 70
     1
102
RTVSPropertyOp18
 70
     1
102
RTVSPropertyOp19
 70
     1
102
RTVSPropertyOp20
 70
     1
102
RTVSPropertyOp21
 70
     1
102
RTVSPropertyOp22
 70
     1
102
RTVSPropertyOp23
 70
     1
102
RTVSPropertyOp24
 70
     1
102
RTVSPropertyOp25
 70
     1
102
RTVSPropertyOp26
 70
     1
102
RTVSPropertyOp27
 70
     1
102
RTVSPropertyOp28
 70
     1
102
RTVSPropertyOp29
 70
     1
102
RTVSPropertyOp30
 70
     1
102
RTVSPropertyOp31
 70
     1
102
RTVSPropertyOp32
 70
     1
102
RTVSPropertyOp33
 70
     1
102
RTVSPropertyOp34
 70
     1
102
RTVSPropertyOp35
 70
     1
102
RTVSPropertyOp36
 70
     1
102
RTVSPropertyOp37
 70
     1
102
RTVSPropertyOp38
 70
     1
102
RTVSPropertyOp39
 70
     1
102
RTVSPropertyOp40
 70
     1
102
RTVSPropertyOp41
 70
     1
102
RTVSPropertyOp42
 70
     1
102
RTVSPropertyOp43
 70
     1
102
RTVSPropertyOp44
 70
     1
102
RTVSPropertyOp45
 70
     1
102
RTVSPropertyOp46
 70
     1
102
RTVSPropertyOp47
 70
     1
102
RTVSPropertyOp48
 70
     1
102
RTVSPropertyOp49
 70
     1
102
RTVSPropertyOp50
 70
     1
102
RTVSPropertyOp51
 70
     0
102
RTVSPropertyOp52
 70
     0
102
RTVSPropertyOp53
 70
     1
102
RTVSPropertyOp54
 70
     1
102
RTVSPropertyOp55
 70
     1
102
RTVSPropertyOp56
 70
     1
102
RTVSPropertyOp57
 70
     1
102
RTVSPropertyOp58
 70
     1
102
RTVSPropertyOp59
 70
     1
102
RTVSPropertyOp60
 70
     1
102
RTVSPropertyOp61
 70
     1
102
RTVSPropertyOp62
 70
     1
  0
XRECORD
  5
A9B9
102
{ACAD_REACTORS
330
A9B8
102
}
330
A9B8
100
AcDbXrecord
280
     1
102
RTVSPost2010Prop28
280
     0
102
RTVSPost2010PropOp28
 70
     1
102
RTVSPost2010Prop29
280
     1
102
RTVSPost2010PropOp29
 70
     1
102
RTVSPost2010Prop30
280
     1
102
RTVSPost2010PropOp30
 70
     1
102
RTVSPost2010Prop31
280
     0
102
RTVSPost2010PropOp31
 70
     1
102
RTVSPost2010Prop32
280
     0
102
RTVSPost2010PropOp32
 70
     1
102
RTVSPost2010Prop33
280
     0
102
RTVSPost2010PropOp33
 70
     1
102
RTVSPost2010Prop34
280
     0
102
RTVSPost2010PropOp34
 70
     1
102
RTVSPost2010Prop35
280
     0
102
RTVSPost2010PropOp35
 70
     1
102
RTVSPost2010Prop36
280
     0
102
RTVSPost2010PropOp36
 70
     1
102
RTVSPost2010Prop37
 90
       50
102
RTVSPost2010PropOp37
 70
     1
102
RTVSPost2010Prop38
140
0.0
102
RTVSPost2010PropOp38
 70
     1
102
RTVSPost2010Prop39
140
1.0
102
RTVSPost2010PropOp39
 70
     1
102
RTVSPost2010Prop40
 90
        0
102
RTVSPost2010PropOp40
 70
     1
102
RTVSPost2010Prop41ColorIndex
 90
       18
102
RTVSPost2010Prop41ColorRGB
 90
        0
102
RTVSPost2010PropOp41
 70
     1
102
RTVSPost2010Prop42
 90
       50
102
RTVSPost2010PropOp42
 70
     1
102
RTVSPost2010Prop43
 90
        3
102
RTVSPost2010PropOp43
 70
     1
102
RTVSPost2010Prop44ColorIndex
 90
        5
102
RTVSPost2010Prop44ColorRGB
 90
      255
102
RTVSPost2010PropOp44
 70
     1
102
RTVSPost2010Prop45
280
     0
102
RTVSPost2010PropOp45
 70
     1
102
RTVSPost2010Prop46
 90
       50
102
RTVSPost2010PropOp46
 70
     1
102
RTVSPost2010Prop47
 90
       50
102
RTVSPost2010PropOp47
 70
     1
102
RTVSPost2010Prop48
 90
       50
102
RTVSPost2010PropOp48
 70
     1
102
RTVSPost2010Prop49
280
     0
102
RTVSPost2010PropOp49
 70
     1
102
RTVSPost2010Prop50
 90
       50
102
RTVSPost2010PropOp50
 70
     1
102
RTVSPost2010Prop51ColorIndex
 90
      256
102
RTVSPost2010Prop51ColorRGB
 90
-16777216
102
RTVSPost2010PropOp51
 70
     0
102
RTVSPost2010Prop52
140
1.0
102
RTVSPost2010PropOp52
 70
     0
102
RTVSPost2010Prop53
 90
        2
102
RTVSPost2010PropOp53
 70
     1
102
RTVSPost2010Prop54
  1
strokes_ogs.tif
102
RTVSPost2010PropOp54
 70
     1
102
RTVSPost2010Prop55
280
     0
102
RTVSPost2010PropOp55
 70
     1
102
RTVSPost2010Prop56
140
1.0
102
RTVSPost2010PropOp56
 70
     1
102
RTVSPost2010Prop57
140
1.0
102
RTVSPost2010PropOp57
 70
     1
102
RTVSPropertyOp0
 70
     1
102
RTVSPropertyOp1
 70
     1
102
RTVSPropertyOp2
 70
     1
102
RTVSPropertyOp3
 70
     1
102
RTVSPropertyOp4
 70
     1
102
RTVSPropertyOp5
 70
     1
102
RTVSPropertyOp6
 70
     1
102
RTVSPropertyOp7
 70
     1
102
RTVSPropertyOp8
 70
     1
102
RTVSPropertyOp9
 70
     1
102
RTVSPropertyOp10
 70
     1
102
RTVSPropertyOp11
 70
     1
102
RTVSPropertyOp12
 70
     1
102
RTVSPropertyOp13
 70
     1
102
RTVSPropertyOp14
 70
     1
102
RTVSPropertyOp15
 70
     1
102
RTVSPropertyOp16
 70
     1
102
RTVSPropertyOp17
 70
     1
102
RTVSPropertyOp18
 70
     1
102
RTVSPropertyOp19
 70
     1
102
RTVSPropertyOp20
 70
     1
102
RTVSPropertyOp21
 70
     1
102
RTVSPropertyOp22
 70
     1
102
RTVSPropertyOp23
 70
     1
102
RTVSPropertyOp24
 70
     1
102
RTVSPropertyOp25
 70
     1
102
RTVSPropertyOp26
 70
     1
102
RTVSPropertyOp27
 70
     1
102
RTVSPropertyOp28
 70
     1
102
RTVSPropertyOp29
 70
     1
102
RTVSPropertyOp30
 70
     1
102
RTVSPropertyOp31
 70
     1
102
RTVSPropertyOp32
 70
     1
102
RTVSPropertyOp33
 70
     1
102
RTVSPropertyOp34
 70
     1
102
RTVSPropertyOp35
 70
     1
102
RTVSPropertyOp36
 70
     1
102
RTVSPropertyOp37
 70
     1
102
RTVSPropertyOp38
 70
     1
102
RTVSPropertyOp39
 70
     1
102
RTVSPropertyOp40
 70
     1
102
RTVSPropertyOp41
 70
     1
102
RTVSPropertyOp42
 70
     1
102
RTVSPropertyOp43
 70
     1
102
RTVSPropertyOp44
 70
     1
102
RTVSPropertyOp45
 70
     1
102
RTVSPropertyOp46
 70
     1
102
RTVSPropertyOp47
 70
     1
102
RTVSPropertyOp48
 70
     1
102
RTVSPropertyOp49
 70
     1
102
RTVSPropertyOp50
 70
     1
102
RTVSPropertyOp51
 70
     0
102
RTVSPropertyOp52
 70
     0
102
RTVSPropertyOp53
 70
     1
102
RTVSPropertyOp54
 70
     1
102
RTVSPropertyOp55
 70
     1
102
RTVSPropertyOp56
 70
     1
102
RTVSPropertyOp57
 70
     1
102
RTVSPropertyOp58
 70
     1
102
RTVSPropertyOp59
 70
     1
102
RTVSPropertyOp60
 70
     1
102
RTVSPropertyOp61
 70
     1
102
RTVSPropertyOp62
 70
     1
  0
XRECORD
  5
A9D1
102
{ACAD_REACTORS
330
A9D0
102
}
330
A9D0
100
AcDbXrecord
280
     1
102
RTVSPost2010Prop28
280
     0
102
RTVSPost2010PropOp28
 70
     1
102
RTVSPost2010Prop29
280
     1
102
RTVSPost2010PropOp29
 70
     1
102
RTVSPost2010Prop30
280
     1
102
RTVSPost2010PropOp30
 70
     1
102
RTVSPost2010Prop31
280
     0
102
RTVSPost2010PropOp31
 70
     1
102
RTVSPost2010Prop32
280
     0
102
RTVSPost2010PropOp32
 70
     1
102
RTVSPost2010Prop33
280
     0
102
RTVSPost2010PropOp33
 70
     1
102
RTVSPost2010Prop34
280
     0
102
RTVSPost2010PropOp34
 70
     1
102
RTVSPost2010Prop35
280
     0
102
RTVSPost2010PropOp35
 70
     1
102
RTVSPost2010Prop36
280
     0
102
RTVSPost2010PropOp36
 70
     1
102
RTVSPost2010Prop37
 90
       50
102
RTVSPost2010PropOp37
 70
     1
102
RTVSPost2010Prop38
140
0.0
102
RTVSPost2010PropOp38
 70
     1
102
RTVSPost2010Prop39
140
1.0
102
RTVSPost2010PropOp39
 70
     1
102
RTVSPost2010Prop40
 90
        0
102
RTVSPost2010PropOp40
 70
     1
102
RTVSPost2010Prop41ColorIndex
 90
       18
102
RTVSPost2010Prop41ColorRGB
 90
        0
102
RTVSPost2010PropOp41
 70
     1
102
RTVSPost2010Prop42
 90
       50
102
RTVSPost2010PropOp42
 70
     1
102
RTVSPost2010Prop43
 90
        3
102
RTVSPost2010PropOp43
 70
     1
102
RTVSPost2010Prop44ColorIndex
 90
        5
102
RTVSPost2010Prop44ColorRGB
 90
      255
102
RTVSPost2010PropOp44
 70
     1
102
RTVSPost2010Prop45
280
     0
102
RTVSPost2010PropOp45
 70
     1
102
RTVSPost2010Prop46
 90
       50
102
RTVSPost2010PropOp46
 70
     1
102
RTVSPost2010Prop47
 90
       50
102
RTVSPost2010PropOp47
 70
     1
102
RTVSPost2010Prop48
 90
       50
102
RTVSPost2010PropOp48
 70
     1
102
RTVSPost2010Prop49
280
     0
102
RTVSPost2010PropOp49
 70
     1
102
RTVSPost2010Prop50
 90
       50
102
RTVSPost2010PropOp50
 70
     1
102
RTVSPost2010Prop51ColorIndex
 90
      256
102
RTVSPost2010Prop51ColorRGB
 90
-16777216
102
RTVSPost2010PropOp51
 70
     0
102
RTVSPost2010Prop52
140
1.0
102
RTVSPost2010PropOp52
 70
     0
102
RTVSPost2010Prop53
 90
        2
102
RTVSPost2010PropOp53
 70
     1
102
RTVSPost2010Prop54
  1
strokes_ogs.tif
102
RTVSPost2010PropOp54
 70
     1
102
RTVSPost2010Prop55
280
     0
102
RTVSPost2010PropOp55
 70
     1
102
RTVSPost2010Prop56
140
1.0
102
RTVSPost2010PropOp56
 70
     1
102
RTVSPost2010Prop57
140
1.0
102
RTVSPost2010PropOp57
 70
     1
102
RTVSPropertyOp0
 70
     1
102
RTVSPropertyOp1
 70
     1
102
RTVSPropertyOp2
 70
     1
102
RTVSPropertyOp3
 70
     1
102
RTVSPropertyOp4
 70
     1
102
RTVSPropertyOp5
 70
     1
102
RTVSPropertyOp6
 70
     1
102
RTVSPropertyOp7
 70
     1
102
RTVSPropertyOp8
 70
     1
102
RTVSPropertyOp9
 70
     1
102
RTVSPropertyOp10
 70
     1
102
RTVSPropertyOp11
 70
     1
102
RTVSPropertyOp12
 70
     1
102
RTVSPropertyOp13
 70
     1
102
RTVSPropertyOp14
 70
     1
102
RTVSPropertyOp15
 70
     1
102
RTVSPropertyOp16
 70
     1
102
RTVSPropertyOp17
 70
     1
102
RTVSPropertyOp18
 70
     1
102
RTVSPropertyOp19
 70
     1
102
RTVSPropertyOp20
 70
     1
102
RTVSPropertyOp21
 70
     1
102
RTVSPropertyOp22
 70
     1
102
RTVSPropertyOp23
 70
     1
102
RTVSPropertyOp24
 70
     1
102
RTVSPropertyOp25
 70
     1
102
RTVSPropertyOp26
 70
     1
102
RTVSPropertyOp27
 70
     1
102
RTVSPropertyOp28
 70
     1
102
RTVSPropertyOp29
 70
     1
102
RTVSPropertyOp30
 70
     1
102
RTVSPropertyOp31
 70
     1
102
RTVSPropertyOp32
 70
     1
102
RTVSPropertyOp33
 70
     1
102
RTVSPropertyOp34
 70
     1
102
RTVSPropertyOp35
 70
     1
102
RTVSPropertyOp36
 70
     1
102
RTVSPropertyOp37
 70
     1
102
RTVSPropertyOp38
 70
     1
102
RTVSPropertyOp39
 70
     1
102
RTVSPropertyOp40
 70
     1
102
RTVSPropertyOp41
 70
     1
102
RTVSPropertyOp42
 70
     1
102
RTVSPropertyOp43
 70
     1
102
RTVSPropertyOp44
 70
     1
102
RTVSPropertyOp45
 70
     1
102
RTVSPropertyOp46
 70
     1
102
RTVSPropertyOp47
 70
     1
102
RTVSPropertyOp48
 70
     1
102
RTVSPropertyOp49
 70
     1
102
RTVSPropertyOp50
 70
     1
102
RTVSPropertyOp51
 70
     0
102
RTVSPropertyOp52
 70
     0
102
RTVSPropertyOp53
 70
     1
102
RTVSPropertyOp54
 70
     1
102
RTVSPropertyOp55
 70
     1
102
RTVSPropertyOp56
 70
     1
102
RTVSPropertyOp57
 70
     1
102
RTVSPropertyOp58
 70
     1
102
RTVSPropertyOp59
 70
     1
102
RTVSPropertyOp60
 70
     1
102
RTVSPropertyOp61
 70
     1
102
RTVSPropertyOp62
 70
     1
  0
ENDSEC
  0
EOF
