  0
SECTION
  2
HEADER
  9
$ACADVER
  1
AC1015
  9
$ACADMAINTVER
 70
    20
  9
$DWGCODEPAGE
  3
ANSI_932
  9
$INSBASE
 10
0.0
 20
0.0
 30
0.0
  9
$EXTMIN
 10
10.0
 20
9.999999999999998
 30
0.0
  9
$EXTMAX
 10
546.220223
 20
375.871609
 30
0.0
  9
$LIMMIN
 10
0.0
 20
0.0
  9
$LIMMAX
 10
572.552
 20
394.713879
  9
$ORTHOMODE
 70
     1
  9
$REGENMODE
 70
     1
  9
$FILLMODE
 70
     1
  9
$QTEXTMODE
 70
     0
  9
$MIRRTEXT
 70
     1
  9
$LTSCALE
 40
20.0
  9
$ATTMODE
 70
     1
  9
$TEXTSIZE
 40
5.0
  9
$TRACEWID
 40
1.0
  9
$TEXTSTYLE
  7
STANDARD
  9
$CLAYER
  8
0
  9
$CELTYPE
  6
BYLAYER
  9
$CECOLOR
 62
   256
  9
$CELTSCALE
 40
1.0
  9
$DISPSILH
 70
     0
  9
$DIMSCALE
 40
1.0
  9
$DIMASZ
 40
2.5
  9
$DIMEXO
 40
1.0
  9
$DIMDLI
 40
10.0
  9
$DIMRND
 40
0.0
  9
$DIMDLE
 40
0.0
  9
$DIMEXE
 40
1.0
  9
$DIMTP
 40
0.0
  9
$DIMTM
 40
0.0
  9
$DIMTXT
 40
3.2
  9
$DIMCEN
 40
0.0
  9
$DIMTSZ
 40
0.0
  9
$DIMTOL
 70
     0
  9
$DIMLIM
 70
     0
  9
$DIMTIH
 70
     0
  9
$DIMTOH
 70
     0
  9
$DIMSE1
 70
     0
  9
$DIMSE2
 70
     0
  9
$DIMTAD
 70
     3
  9
$DIMZIN
 70
     8
  9
$DIMBLK
  1

  9
$DIMASO
 70
     1
  9
$DIMSHO
 70
     1
  9
$DIMPOST
  1

  9
$DIMAPOST
  1

  9
$DIMALT
 70
     0
  9
$DIMALTD
 70
     2
  9
$DIMALTF
 40
25.4
  9
$DIMLFAC
 40
1.0
  9
$DIMTOFL
 70
     1
  9
$DIMTVP
 40
0.0
  9
$DIMTIX
 70
     0
  9
$DIMSOXD
 70
     0
  9
$DIMSAH
 70
     1
  9
$DIMBLK1
  1

  9
$DIMBLK2
  1

  9
$DIMSTYLE
  2
STANDARD
  9
$DIMCLRD
 70
     0
  9
$DIMCLRE
 70
     0
  9
$DIMCLRT
 70
     0
  9
$DIMTFAC
 40
1.0
  9
$DIMGAP
 40
1.0
  9
$DIMJUST
 70
     0
  9
$DIMSD1
 70
     0
  9
$DIMSD2
 70
     0
  9
$DIMTOLJ
 70
     1
  9
$DIMTZIN
 70
     0
  9
$DIMALTZ
 70
     0
  9
$DIMALTTZ
 70
     0
  9
$DIMUPT
 70
     0
  9
$DIMDEC
 70
     4
  9
$DIMTDEC
 70
     4
  9
$DIMALTU
 70
     2
  9
$DIMALTTD
 70
     2
  9
$DIMTXSTY
  7
STANDARD
  9
$DIMAUNIT
 70
     0
  9
$DIMADEC
 70
     0
  9
$DIMALTRND
 40
0.0
  9
$DIMAZIN
 70
     0
  9
$DIMDSEP
 70
    46
  9
$DIMATFIT
 70
     3
  9
$DIMFRAC
 70
     0
  9
$DIMLDRBLK
  1

  9
$DIMLUNIT
 70
     2
  9
$DIMLWD
 70
    -2
  9
$DIMLWE
 70
    -2
  9
$DIMTMOVE
 70
     0
  9
$LUNITS
 70
     2
  9
$LUPREC
 70
     4
  9
$SKETCHINC
 40
1.0
  9
$FILLETRAD
 40
2.0
  9
$AUNITS
 70
     0
  9
$AUPREC
 70
     2
  9
$MENU
  1
.
  9
$ELEVATION
 40
0.0
  9
$PELEVATION
 40
0.0
  9
$THICKNESS
 40
0.0
  9
$LIMCHECK
 70
     0
  9
$CHAMFERA
 40
10.0
  9
$CHAMFERB
 40
10.0
  9
$CHAMFERC
 40
0.0
  9
$CHAMFERD
 40
0.0
  9
$SKPOLY
 70
     0
  9
$TDCREATE
 40
2451301.429375000
  9
$TDUCREATE
 40
2451301.054375000
  9
$TDUPDATE
 40
2457192.689924097
  9
$TDUUPDATE
 40
2457192.314924097
  9
$TDINDWG
 40
0.0089533449
  9
$TDUSRTIMER
 40
0.0089530324
  9
$USRTIMER
 70
     1
  9
$ANGBASE
 50
0.0
  9
$ANGDIR
 70
     0
  9
$PDMODE
 70
     0
  9
$PDSIZE
 40
0.0
  9
$PLINEWID
 40
0.0
  9
$SPLFRAME
 70
     0
  9
$SPLINETYPE
 70
     6
  9
$SPLINESEGS
 70
     8
  9
$HANDSEED
  5
A3F7
  9
$SURFTAB1
 70
     6
  9
$SURFTAB2
 70
     6
  9
$SURFTYPE
 70
     6
  9
$SURFU
 70
     6
  9
$SURFV
 70
     6
  9
$UCSBASE
  2

  9
$UCSNAME
  2

  9
$UCSORG
 10
0.0
 20
0.0
 30
0.0
  9
$UCSXDIR
 10
1.0
 20
0.0
 30
0.0
  9
$UCSYDIR
 10
0.0
 20
1.0
 30
0.0
  9
$UCSORTHOREF
  2

  9
$UCSORTHOVIEW
 70
     0
  9
$UCSORGTOP
 10
0.0
 20
0.0
 30
0.0
  9
$UCSORGBOTTOM
 10
0.0
 20
0.0
 30
0.0
  9
$UCSORGLEFT
 10
0.0
 20
0.0
 30
0.0
  9
$UCSORGRIGHT
 10
0.0
 20
0.0
 30
0.0
  9
$UCSORGFRONT
 10
0.0
 20
0.0
 30
0.0
  9
$UCSORGBACK
 10
0.0
 20
0.0
 30
0.0
  9
$PUCSBASE
  2

  9
$PUCSNAME
  2

  9
$PUCSORG
 10
0.0
 20
0.0
 30
0.0
  9
$PUCSXDIR
 10
1.0
 20
0.0
 30
0.0
  9
$PUCSYDIR
 10
0.0
 20
1.0
 30
0.0
  9
$PUCSORTHOREF
  2

  9
$PUCSORTHOVIEW
 70
     0
  9
$PUCSORGTOP
 10
0.0
 20
0.0
 30
0.0
  9
$PUCSORGBOTTOM
 10
0.0
 20
0.0
 30
0.0
  9
$PUCSORGLEFT
 10
0.0
 20
0.0
 30
0.0
  9
$PUCSORGRIGHT
 10
0.0
 20
0.0
 30
0.0
  9
$PUCSORGFRONT
 10
0.0
 20
0.0
 30
0.0
  9
$PUCSORGBACK
 10
0.0
 20
0.0
 30
0.0
  9
$USERI1
 70
     0
  9
$USERI2
 70
     0
  9
$USERI3
 70
     0
  9
$USERI4
 70
     0
  9
$USERI5
 70
     0
  9
$USERR1
 40
0.0
  9
$USERR2
 40
0.0
  9
$USERR3
 40
0.0
  9
$USERR4
 40
0.0
  9
$USERR5
 40
0.0
  9
$WORLDVIEW
 70
     1
  9
$SHADEDGE
 70
     3
  9
$SHADEDIF
 70
    70
  9
$TILEMODE
 70
     1
  9
$MAXACTVP
 70
    16
  9
$PINSBASE
 10
0.0
 20
0.0
 30
0.0
  9
$PLIMCHECK
 70
     0
  9
$PEXTMIN
 10
1.000000000000000E+20
 20
1.000000000000000E+20
 30
1.000000000000000E+20
  9
$PEXTMAX
 10
-1.000000000000000E+20
 20
-1.000000000000000E+20
 30
-1.000000000000000E+20
  9
$PLIMMIN
 10
0.0
 20
0.0
  9
$PLIMMAX
 10
420.0
 20
297.0
  9
$UNITMODE
 70
     0
  9
$VISRETAIN
 70
     0
  9
$PLINEGEN
 70
     0
  9
$PSLTSCALE
 70
     0
  9
$TREEDEPTH
 70
  3020
  9
$CMLSTYLE
  2
STANDARD
  9
$CMLJUST
 70
     0
  9
$CMLSCALE
 40
1.0
  9
$PROXYGRAPHICS
 70
     1
  9
$MEASUREMENT
 70
     0
  9
$CELWEIGHT
370
    -1
  9
$ENDCAPS
280
     0
  9
$JOINSTYLE
280
     0
  9
$LWDISPLAY
290
     0
  9
$INSUNITS
 70
     0
  9
$HYPERLINKBASE
  1

  9
$STYLESHEET
  1

  9
$XEDIT
290
     1
  9
$CEPSNTYPE
380
     0
  9
$PSTYLEMODE
290
     1
  9
$FINGERPRINTGUID
  2
{BB878561-8FF5-4A21-B685-4ACF608379E5}
  9
$VERSIONGUID
  2
{606C8C46-ECA8-4981-8AE0-F8271228A284}
  9
$EXTNAMES
290
     1
  9
$PSVPSCALE
 40
0.0
  9
$OLESTARTUP
290
     0
  0
ENDSEC
  0
SECTION
  2
CLASSES
  0
CLASS
  1
ACDBDICTIONARYWDFLT
  2
AcDbDictionaryWithDefault
  3
ObjectDBX Classes
 90
        0
280
     0
281
     0
  0
CLASS
  1
ACDBPLACEHOLDER
  2
AcDbPlaceHolder
  3
ObjectDBX Classes
 90
        0
280
     0
281
     0
  0
CLASS
  1
LAYOUT
  2
AcDbLayout
  3
ObjectDBX Classes
 90
        0
280
     0
281
     0
  0
CLASS
  1
DICTIONARYVAR
  2
AcDbDictionaryVar
  3
ObjectDBX Classes
 90
        0
280
     0
281
     0
  0
CLASS
  1
MATERIAL
  2
AcDbMaterial
  3
ObjectDBX Classes
 90
     1153
280
     0
281
     0
  0
CLASS
  1
VISUALSTYLE
  2
AcDbVisualStyle
  3
ObjectDBX Classes
 90
     4095
280
     0
281
     0
  0
CLASS
  1
TABLESTYLE
  2
AcDbTableStyle
  3
ObjectDBX Classes
 90
     4095
280
     0
281
     0
  0
CLASS
  1
SCALE
  2
AcDbScale
  3
ObjectDBX Classes
 90
     1153
280
     0
281
     0
  0
CLASS
  1
MLEADERSTYLE
  2
AcDbMLeaderStyle
  3
ACDB_MLEADERSTYLE_CLASS
 90
     4095
280
     0
281
     0
  0
CLASS
  1
ACDBSECTIONVIEWSTYLE
  2
AcDbSectionViewStyle
  3
ObjectDBX Classes
 90
     1025
280
     0
281
     0
  0
CLASS
  1
ACDBDETAILVIEWSTYLE
  2
AcDbDetailViewStyle
  3
ObjectDBX Classes
 90
     1025
280
     0
281
     0
  0
CLASS
  1
CELLSTYLEMAP
  2
AcDbCellStyleMap
  3
ObjectDBX Classes
 90
     1152
280
     0
281
     0
  0
ENDSEC
  0
SECTION
  2
TABLES
  0
TABLE
  2
VPORT
  5
9F7A
330
0
100
AcDbSymbolTable
 70
     1
  0
VPORT
  5
A342
330
9F7A
100
AcDbSymbolTableRecord
100
AcDbViewportTableRecord
  2
*ACTIVE
 70
     0
 10
0.0
 20
0.0
 11
1.0
 21
1.0
 12
418.9375419463472
 22
192.9301413863802
 13
0.0
 23
0.0
 14
10.0
 24
10.0
 15
10.0
 25
10.0
 16
0.0
 26
0.0
 36
1.0
 17
0.0
 27
0.0
 37
0.0
 40
368.7770843634535
 41
2.35006605019815
 42
50.0
 43
0.0
 44
0.0
 50
0.0
 51
0.0
 71
     0
 72
   100
 73
     1
 74
     0
 75
     0
 76
     0
 77
     0
 78
     0
281
     0
 65
     1
110
0.0
120
0.0
130
0.0
111
1.0
121
0.0
131
0.0
112
0.0
122
1.0
132
0.0
 79
     0
146
0.0
1001
ACAD_NAV_VCDISPLAY
1070
     3
  0
ENDTAB
  0
TABLE
  2
LTYPE
  5
9F77
330
0
100
AcDbSymbolTable
 70
     4
  0
LTYPE
  5
9F85
330
9F77
100
AcDbSymbolTableRecord
100
AcDbLinetypeTableRecord
  2
BYBLOCK
 70
     0
  3

 72
    65
 73
     0
 40
0.0
  0
LTYPE
  5
9F86
330
9F77
100
AcDbSymbolTableRecord
100
AcDbLinetypeTableRecord
  2
BYLAYER
 70
     0
  3

 72
    65
 73
     0
 40
0.0
  0
LTYPE
  5
9F87
330
9F77
100
AcDbSymbolTableRecord
100
AcDbLinetypeTableRecord
  2
CONTINUOUS
 70
     0
  3
Solid line
 72
    65
 73
     0
 40
0.0
  0
LTYPE
  5
9F95
330
9F77
100
AcDbSymbolTableRecord
100
AcDbLinetypeTableRecord
  2
DASHED
 70
     0
  3
__ __ __ __ __ __ __ __ __ __ __ __ __ __ __ __
 72
    65
 73
     2
 40
0.75
 49
0.5
 74
     0
 49
-0.25
 74
     0
  0
LTYPE
  5
9F96
330
9F77
100
AcDbSymbolTableRecord
100
AcDbLinetypeTableRecord
  2
CENTER
 70
     0
  3
____ _ ____ _ ____ _ ____ _ ____ _ ____ _ ____ 
 72
    65
 73
     4
 40
2.0
 49
1.25
 74
     0
 49
-0.25
 74
     0
 49
0.25
 74
     0
 49
-0.25
 74
     0
  0
LTYPE
  5
9F97
330
9F77
100
AcDbSymbolTableRecord
100
AcDbLinetypeTableRecord
  2
PHANTOM
 70
     0
  3
______  __  __  ______  __  __  ______  __  __ 
 72
    65
 73
     6
 40
2.5
 49
1.25
 74
     0
 49
-0.25
 74
     0
 49
0.25
 74
     0
 49
-0.25
 74
     0
 49
0.25
 74
     0
 49
-0.25
 74
     0
  0
ENDTAB
  0
TABLE
  2
LAYER
  5
9F74
330
0
100
AcDbSymbolTable
 70
     8
  0
LAYER
  5
9F82
102
{ACAD_XDICTIONARY
360
A39B
102
}
330
9F74
100
AcDbSymbolTableRecord
100
AcDbLayerTableRecord
  2
0
 70
     0
 62
     7
  6
CONTINUOUS
370
    -3
390
A349
  0
LAYER
  5
9F98
102
{ACAD_XDICTIONARY
360
A39D
102
}
330
9F74
100
AcDbSymbolTableRecord
100
AcDbLayerTableRecord
  2
4
 70
     0
 62
     1
  6
CENTER
370
    -3
390
A349
  0
LAYER
  5
9F99
102
{ACAD_XDICTIONARY
360
A39F
102
}
330
9F74
100
AcDbSymbolTableRecord
100
AcDbLayerTableRecord
  2
5
 70
     0
 62
     6
  6
PHANTOM
370
    -3
390
A349
  0
LAYER
  5
9F9A
102
{ACAD_XDICTIONARY
360
A3A1
102
}
330
9F74
100
AcDbSymbolTableRecord
100
AcDbLayerTableRecord
  2
1
 70
     0
 62
     7
  6
CONTINUOUS
370
    -3
390
A349
  0
LAYER
  5
9F9B
102
{ACAD_XDICTIONARY
360
A3A3
102
}
330
9F74
100
AcDbSymbolTableRecord
100
AcDbLayerTableRecord
  2
2
 70
     0
 62
     4
  6
CONTINUOUS
370
    -3
390
A349
  0
LAYER
  5
9F9C
102
{ACAD_XDICTIONARY
360
A3A5
102
}
330
9F74
100
AcDbSymbolTableRecord
100
AcDbLayerTableRecord
  2
3
 70
     0
 62
     2
  6
DASHED
370
    -3
390
A349
  0
LAYER
  5
9F9D
102
{ACAD_XDICTIONARY
360
A3A7
102
}
330
9F74
100
AcDbSymbolTableRecord
100
AcDbLayerTableRecord
  2
6
 70
     0
 62
     5
  6
CONTINUOUS
370
    -3
390
A349
  0
LAYER
  5
9F9E
102
{ACAD_XDICTIONARY
360
A3A9
102
}
330
9F74
100
AcDbSymbolTableRecord
100
AcDbLayerTableRecord
  2
7
 70
     0
 62
     3
  6
CONTINUOUS
370
    -3
390
A349
  0
ENDTAB
  0
TABLE
  2
STYLE
  5
9F75
330
0
100
AcDbSymbolTable
 70
     1
  0
STYLE
  5
9F83
330
9F75
100
AcDbSymbolTableRecord
100
AcDbTextStyleTableRecord
  2
STANDARD
 70
     0
 40
0.0
 41
1.0
 50
0.0
 71
     0
 42
5.0
  3
txt
  4

  0
ENDTAB
  0
TABLE
  2
VIEW
  5
9F78
330
0
100
AcDbSymbolTable
 70
     0
  0
ENDTAB
  0
TABLE
  2
UCS
  5
9F79
330
0
100
AcDbSymbolTable
 70
     0
  0
ENDTAB
  0
TABLE
  2
APPID
  5
9F7B
330
0
100
AcDbSymbolTable
 70
     3
  0
APPID
  5
9F84
330
9F7B
100
AcDbSymbolTableRecord
100
AcDbRegAppTableRecord
  2
ACAD
 70
     0
  0
APPID
  5
A3B5
330
9F7B
100
AcDbSymbolTableRecord
100
AcDbRegAppTableRecord
  2
ACAD_NAV_VCDISPLAY
 70
     0
  0
APPID
  5
A3EE
330
9F7B
100
AcDbSymbolTableRecord
100
AcDbRegAppTableRecord
  2
ACAD_MLEADERVER
 70
     0
  0
ENDTAB
  0
TABLE
  2
DIMSTYLE
  5
9F7C
330
0
100
AcDbSymbolTable
 70
     1
100
AcDbDimStyleTable
 71
     0
  0
DIMSTYLE
105
9FA0
330
9F7C
100
AcDbSymbolTableRecord
100
AcDbDimStyleTableRecord
  2
STANDARD
 70
     0
 41
2.5
 42
1.0
 43
10.0
 44
1.0
 73
     0
 74
     0
 77
     3
 78
     8
140
3.2
141
0.0
147
1.0
172
     1
173
     1
284
     8
285
     8
286
     8
340
9F83
  0
ENDTAB
  0
TABLE
  2
BLOCK_RECORD
  5
9F73
330
0
100
AcDbSymbolTable
 70
     0
  0
BLOCK_RECORD
  5
9F90
102
{ACAD_XDICTIONARY
360
A30C
102
}
330
9F73
100
AcDbSymbolTableRecord
100
AcDbBlockTableRecord
  2
*MODEL_SPACE
340
A397
  0
BLOCK_RECORD
  5
9F8C
102
{ACAD_XDICTIONARY
360
A30A
102
}
330
9F73
100
AcDbSymbolTableRecord
100
AcDbBlockTableRecord
  2
*PAPER_SPACE
340
A398
  0
ENDTAB
  0
ENDSEC
  0
SECTION
  2
BLOCKS
  0
BLOCK
  5
9F91
330
9F90
100
AcDbEntity
  8
0
100
AcDbBlockBegin
  2
*MODEL_SPACE
 70
     0
 10
0.0
 20
0.0
 30
0.0
  3
*MODEL_SPACE
  1

  0
ENDBLK
  5
9F92
330
9F90
100
AcDbEntity
  8
0
100
AcDbBlockEnd
  0
BLOCK
  5
9F8D
330
9F8C
100
AcDbEntity
 67
     1
  8
0
100
AcDbBlockBegin
  2
*PAPER_SPACE
 70
     0
 10
0.0
 20
0.0
 30
0.0
  3
*PAPER_SPACE
  1

  0
ENDBLK
  5
9F8E
330
9F8C
100
AcDbEntity
 67
     1
  8
0
100
AcDbBlockEnd
  0
ENDSEC
  0
SECTION
  2
ENTITIES
  0
TEXT
  5
9FA8
330
9F90
100
AcDbEntity
  8
7
  6
Continuous
100
AcDbText
 10
10.0
 20
18.0
 30
0.0
 40
3.0
  1
TYPE No.TCA-415E-N100
100
AcDbText
  0
TEXT
  5
9FA9
330
9F90
100
AcDbEntity
  8
7
  6
Continuous
100
AcDbText
 10
10.0
 20
26.0
 30
0.0
 40
3.0
  1
CODE No.9762
100
AcDbText
  0
TEXT
  5
9FAA
330
9F90
100
AcDbEntity
  8
1
  6
Continuous
100
AcDbText
 10
10.0
 20
10.0
 30
0.0
 40
1.399999999999999
  1
LAYER
100
AcDbText
  0
TEXT
  5
9FAB
330
9F90
100
AcDbEntity
  8
1
  6
Continuous
100
AcDbText
 10
17.97951099999998
 20
10.04873699999998
 30
0.0
 40
1.399999999999999
  1
1
100
AcDbText
  0
TEXT
  5
9FAC
330
9F90
100
AcDbEntity
  8
7
  6
Continuous
100
AcDbText
 10
29.97951099999999
 20
10.04873699999998
 30
0.0
 40
1.399999999999999
  1
7
100
AcDbText
  0
TEXT
  5
9FAD
330
9F90
100
AcDbEntity
  8
4
  6
CENTER
100
AcDbText
 10
23.97951099999999
 20
10.04873699999998
 30
0.0
 40
1.399999999999999
  1
4
100
AcDbText
  0
TEXT
  5
9FAE
330
9F90
100
AcDbEntity
  8
3
  6
DASHED
100
AcDbText
 10
21.979511
 20
10.04873699999998
 30
0.0
 40
1.399999999999999
  1
3
100
AcDbText
  0
TEXT
  5
9FAF
330
9F90
100
AcDbEntity
  8
2
  6
Continuous
100
AcDbText
 10
19.97951099999998
 20
10.04873699999998
 30
0.0
 40
1.399999999999999
  1
2
100
AcDbText
  0
TEXT
  5
9FB0
330
9F90
100
AcDbEntity
  8
6
  6
Continuous
100
AcDbText
 10
27.979511
 20
10.04873699999998
 30
0.0
 40
1.399999999999999
  1
6
100
AcDbText
  0
TEXT
  5
9FB1
330
9F90
100
AcDbEntity
  8
5
  6
PHANTOM
100
AcDbText
 10
25.97951099999999
 20
10.04873699999998
 30
0.0
 40
1.399999999999999
  1
5
100
AcDbText
  0
LINE
  5
9FB2
330
9F90
100
AcDbEntity
  8
4
  6
CENTER
100
AcDbLine
 10
57.22022299999999
 20
273.871609
 30
0.0
 11
57.22022299999999
 21
141.871609
 31
0.0
  0
LINE
  5
9FB3
330
9F90
100
AcDbEntity
  8
4
  6
CENTER
100
AcDbLine
 10
26.92023300000001
 20
196.871609
 30
0.0
 11
97.20049799999999
 21
196.871609
 31
0.0
  0
LINE
  5
9FB4
330
9F90
100
AcDbEntity
  8
1
  6
Continuous
100
AcDbLine
 10
73.220223
 20
250.97366
 30
0.0
 11
73.220223
 21
185.871609
 31
0.0
  0
LINE
  5
9FB5
330
9F90
100
AcDbEntity
  8
1
  6
Continuous
100
AcDbLine
 10
41.220223
 20
250.97366
 30
0.0
 11
41.220223
 21
203.304796
 31
0.0
  0
LINE
  5
9FB6
330
9F90
100
AcDbEntity
  8
1
  6
Continuous
100
AcDbLine
 10
38.920233
 20
185.871609
 30
0.0
 11
41.220223
 21
185.871609
 31
0.0
  0
LINE
  5
9FB7
330
9F90
100
AcDbEntity
  8
1
  6
Continuous
100
AcDbLine
 10
75.520218
 20
185.871609
 30
0.0
 11
73.220223
 21
185.871609
 31
0.0
  0
LINE
  5
9FB8
330
9F90
100
AcDbEntity
  8
1
  6
Continuous
100
AcDbLine
 10
32.22022299999999
 20
255.9716009999999
 30
0.0
 11
32.22022299999999
 21
229.5590939999999
 31
0.0
  0
LINE
  5
9FB9
330
9F90
100
AcDbEntity
  8
1
  6
Continuous
100
AcDbLine
 10
82.220223
 20
255.9716009999999
 30
0.0
 11
82.220223
 21
229.5590939999999
 31
0.0
  0
LINE
  5
9FBA
330
9F90
100
AcDbEntity
  8
4
  6
CENTER
100
AcDbLine
 10
212.220223
 20
274.335335
 30
0.0
 11
212.220223
 21
214.6049389999999
 31
0.0
  0
LINE
  5
9FBB
330
9F90
100
AcDbEntity
  8
1
  6
Continuous
100
AcDbLine
 10
233.1957099999999
 20
252.071608
 30
0.0
 11
237.220223
 21
252.071608
 31
0.0
  0
LINE
  5
9FBC
330
9F90
100
AcDbEntity
  8
4
  6
CENTER
100
AcDbLine
 10
125.2202229999999
 20
196.871609
 30
0.0
 11
235.220223
 21
196.871609
 31
0.0
  0
LINE
  5
9FBD
330
9F90
100
AcDbEntity
  8
4
  6
CENTER
100
AcDbLine
 10
180.2202229999998
 20
256.3725949999999
 30
0.0
 11
180.2202229999998
 21
141.871609
 31
0.0
  0
LINE
  5
9FBE
330
9F90
100
AcDbEntity
  8
1
  6
Continuous
100
AcDbLine
 10
191.220223
 20
251.771612
 30
0.0
 11
191.220223
 21
209.0701759999999
 31
0.0
  0
LINE
  5
9FBF
330
9F90
100
AcDbEntity
  8
1
  6
Continuous
100
AcDbLine
 10
196.449916
 20
203.0798669999998
 30
0.0
 11
220.1782389999999
 21
244.524497
 31
0.0
  0
LINE
  5
9FC0
330
9F90
100
AcDbEntity
  8
1
  6
Continuous
100
AcDbLine
 10
174.912256
 20
250.8315
 30
0.0
 11
171.1439839999999
 21
215.4958759999999
 31
0.0
  0
LINE
  5
9FC1
330
9F90
100
AcDbEntity
  8
4
  6
CENTER
100
AcDbLine
 10
125.2202229999999
 20
341.8716089999998
 30
0.0
 11
264.686883
 21
341.8716089999998
 31
0.0
  0
LINE
  5
9FC2
330
9F90
100
AcDbEntity
  8
4
  6
CENTER
100
AcDbLine
 10
212.220223
 20
375.871609
 30
0.0
 11
212.220223
 21
301.669614
 31
0.0
  0
LINE
  5
9FC3
330
9F90
100
AcDbEntity
  8
1
  6
Continuous
100
AcDbLine
 10
170.931713
 20
253.371624
 30
0.0
 11
189.823926
 21
256.70283
 31
0.0
  0
LINE
  5
9FC4
330
9F90
100
AcDbEntity
  8
1
  6
Continuous
100
AcDbLine
 10
170.931713
 20
253.371624
 30
0.0
 11
171.331104
 21
251.1065659999999
 31
0.0
  0
LINE
  5
9FC5
330
9F90
100
AcDbEntity
  8
1
  6
Continuous
100
AcDbLine
 10
171.331104
 20
251.1065659999999
 30
0.0
 11
173.701828
 21
251.524589
 31
0.0
  0
LINE
  5
9FC6
330
9F90
100
AcDbEntity
  8
1
  6
Continuous
100
AcDbLine
 10
87.42223199999996
 20
201.9736219999999
 30
0.0
 11
87.42223199999996
 21
191.7695959999998
 31
0.0
  0
LINE
  5
9FC7
330
9F90
100
AcDbEntity
  8
1
  6
Continuous
100
AcDbLine
 10
85.947282
 20
193.621609
 30
0.0
 11
82.897172
 21
193.621609
 31
0.0
  0
LINE
  5
9FC8
330
9F90
100
AcDbEntity
  8
1
  6
Continuous
100
AcDbLine
 10
85.973742
 20
200.121609
 30
0.0
 11
82.87071199999997
 21
200.121609
 31
0.0
  0
LINE
  5
9FC9
330
9F90
100
AcDbEntity
  8
1
  6
Continuous
100
AcDbLine
 10
86.024232
 20
190.3716089999998
 30
0.0
 11
82.820222
 21
190.3716089999998
 31
0.0
  0
LINE
  5
9FCA
330
9F90
100
AcDbEntity
  8
1
  6
Continuous
100
AcDbLine
 10
86.024232
 20
203.3716089999999
 30
0.0
 11
82.820222
 21
203.3716089999999
 31
0.0
  0
LINE
  5
9FCB
330
9F90
100
AcDbEntity
  8
1
  6
Continuous
100
AcDbLine
 10
86.024232
 20
190.371613
 30
0.0
 11
87.42223199999996
 21
191.7696
 31
0.0
  0
LINE
  5
9FCC
330
9F90
100
AcDbEntity
  8
1
  6
Continuous
100
AcDbLine
 10
87.42221200000001
 20
201.973625
 30
0.0
 11
86.024232
 21
203.371613
 31
0.0
  0
LINE
  5
9FCD
330
9F90
100
AcDbEntity
  8
1
  6
Continuous
100
AcDbLine
 10
35.720231
 20
201.121609
 30
0.0
 11
35.720231
 21
192.621609
 31
0.0
  0
LINE
  5
9FCE
330
9F90
100
AcDbEntity
  8
1
  6
Continuous
100
AcDbLine
 10
38.920228
 20
190.621609
 30
0.0
 11
37.720231
 21
190.621609
 31
0.0
  0
LINE
  5
9FCF
330
9F90
100
AcDbEntity
  8
1
  6
Continuous
100
AcDbLine
 10
38.920228
 20
203.121609
 30
0.0
 11
37.720231
 21
203.121609
 31
0.0
  0
LINE
  5
9FD0
330
9F90
100
AcDbEntity
  8
1
  6
Continuous
100
AcDbLine
 10
75.520218
 20
250.9432789999999
 30
0.0
 11
75.520218
 21
183.979137
 31
0.0
  0
LINE
  5
9FD1
330
9F90
100
AcDbEntity
  8
1
  6
Continuous
100
AcDbLine
 10
38.920233
 20
250.9432789999999
 30
0.0
 11
38.920233
 21
202.224775
 31
0.0
  0
LINE
  5
9FD2
330
9F90
100
AcDbEntity
  8
1
  6
Continuous
100
AcDbLine
 10
169.720223
 20
370.8716089999999
 30
0.0
 11
254.7202229999999
 21
370.8716089999999
 31
0.0
  0
LINE
  5
9FD3
330
9F90
100
AcDbEntity
  8
4
  6
CENTER
100
AcDbLine
 10
171.220223
 20
367.8716089999999
 30
0.0
 11
171.220223
 21
355.8716089999998
 31
0.0
  0
LINE
  5
9FD4
330
9F90
100
AcDbEntity
  8
4
  6
CENTER
100
AcDbLine
 10
165.220223
 20
361.8716089999999
 30
0.0
 11
177.2202229999997
 21
361.8716089999999
 31
0.0
  0
LINE
  5
9FD5
330
9F90
100
AcDbEntity
  8
1
  6
Continuous
100
AcDbLine
 10
169.720223
 20
312.8716089999998
 30
0.0
 11
254.7202229999999
 21
312.8716089999998
 31
0.0
  0
LINE
  5
9FD6
330
9F90
100
AcDbEntity
  8
4
  6
CENTER
100
AcDbLine
 10
171.220223
 20
315.8716089999998
 30
0.0
 11
171.220223
 21
327.8716089999998
 31
0.0
  0
LINE
  5
9FD7
330
9F90
100
AcDbEntity
  8
4
  6
CENTER
100
AcDbLine
 10
165.220223
 20
321.871609
 30
0.0
 11
177.2202229999997
 21
321.871609
 31
0.0
  0
LINE
  5
9FD8
330
9F90
100
AcDbEntity
  8
4
  6
CENTER
100
AcDbLine
 10
253.220223
 20
367.8716089999999
 30
0.0
 11
253.220223
 21
355.8716089999998
 31
0.0
  0
LINE
  5
9FD9
330
9F90
100
AcDbEntity
  8
4
  6
CENTER
100
AcDbLine
 10
259.2202229999999
 20
361.8716089999999
 30
0.0
 11
247.220223
 21
361.8716089999999
 31
0.0
  0
LINE
  5
9FDA
330
9F90
100
AcDbEntity
  8
4
  6
CENTER
100
AcDbLine
 10
253.220223
 20
315.8716089999998
 30
0.0
 11
253.220223
 21
327.8716089999998
 31
0.0
  0
LINE
  5
9FDB
330
9F90
100
AcDbEntity
  8
4
  6
CENTER
100
AcDbLine
 10
259.2202229999999
 20
321.871609
 30
0.0
 11
247.220223
 21
321.871609
 31
0.0
  0
LINE
  5
9FDC
330
9F90
100
AcDbEntity
  8
1
  6
Continuous
100
AcDbLine
 10
191.220223
 20
260.9716049999998
 30
0.0
 11
232.220223
 21
260.9716049999998
 31
0.0
  0
LINE
  5
9FDD
330
9F90
100
AcDbEntity
  8
1
  6
Continuous
100
AcDbLine
 10
262.220208
 20
266.5715979999998
 30
0.0
 11
262.220208
 21
268.8716089999999
 31
0.0
  0
LINE
  5
9FDE
330
9F90
100
AcDbEntity
  8
1
  6
Continuous
100
AcDbLine
 10
162.220223
 20
268.8716089999999
 30
0.0
 11
262.220208
 21
268.8716089999999
 31
0.0
  0
LINE
  5
9FDF
330
9F90
100
AcDbEntity
  8
1
  6
Continuous
100
AcDbLine
 10
162.220208
 20
266.571614
 30
0.0
 11
162.220208
 21
268.871617
 31
0.0
  0
LINE
  5
9FE0
330
9F90
100
AcDbEntity
  8
1
  6
Continuous
100
AcDbLine
 10
162.220223
 20
266.5716059999999
 30
0.0
 11
262.220208
 21
266.5716059999999
 31
0.0
  0
LINE
  5
9FE1
330
9F90
100
AcDbEntity
  8
1
  6
Continuous
100
AcDbLine
 10
189.220221
 20
261.9716069999999
 30
0.0
 11
235.220223
 21
261.9716069999999
 31
0.0
  0
LINE
  5
9FE2
330
9F90
100
AcDbEntity
  8
1
  6
Continuous
100
AcDbLine
 10
184.720225
 20
266.5716269999999
 30
0.0
 11
186.6626779999998
 21
263.4035169999999
 31
0.0
  0
LINE
  5
9FE3
330
9F90
100
AcDbEntity
  8
4
  6
CENTER
100
AcDbLine
 10
171.220223
 20
271.871609
 30
0.0
 11
171.220223
 21
263.571606
 31
0.0
  0
LINE
  5
9FE4
330
9F90
100
AcDbEntity
  8
4
  6
CENTER
100
AcDbLine
 10
253.220223
 20
271.871609
 30
0.0
 11
253.220223
 21
263.571606
 31
0.0
  0
LINE
  5
9FE5
330
9F90
100
AcDbEntity
  8
1
  6
Continuous
100
AcDbLine
 10
37.22022299999999
 20
260.9716009999999
 30
0.0
 11
77.220223
 21
260.9716009999999
 31
0.0
  0
LINE
  5
9FE6
330
9F90
100
AcDbEntity
  8
1
  6
Continuous
100
AcDbLine
 10
28.220223
 20
268.8716089999999
 30
0.0
 11
28.220223
 21
266.57161
 31
0.0
  0
LINE
  5
9FE7
330
9F90
100
AcDbEntity
  8
1
  6
Continuous
100
AcDbLine
 10
86.22022300000002
 20
268.8716089999999
 30
0.0
 11
86.22022300000002
 21
266.5716059999999
 31
0.0
  0
LINE
  5
9FE8
330
9F90
100
AcDbEntity
  8
4
  6
CENTER
100
AcDbLine
 10
37.22022299999999
 20
271.871609
 30
0.0
 11
37.22022299999999
 21
263.571606
 31
0.0
  0
LINE
  5
9FE9
330
9F90
100
AcDbEntity
  8
4
  6
CENTER
100
AcDbLine
 10
77.220223
 20
271.871609
 30
0.0
 11
77.220223
 21
263.571606
 31
0.0
  0
LINE
  5
9FEA
330
9F90
100
AcDbEntity
  8
1
  6
Continuous
100
AcDbLine
 10
84.720185
 20
266.5716289999999
 30
0.0
 11
82.77773299999998
 21
263.403525
 31
0.0
  0
LINE
  5
9FEB
330
9F90
100
AcDbEntity
  8
1
  6
Continuous
100
AcDbLine
 10
28.220223
 20
268.8716089999999
 30
0.0
 11
86.22022300000002
 21
268.8716089999999
 31
0.0
  0
LINE
  5
9FEC
330
9F90
100
AcDbEntity
  8
1
  6
Continuous
100
AcDbLine
 10
28.220223
 20
266.5716059999999
 30
0.0
 11
86.22022300000002
 21
266.5716059999999
 31
0.0
  0
LINE
  5
9FED
330
9F90
100
AcDbEntity
  8
1
  6
Continuous
100
AcDbLine
 10
34.220223
 20
261.9716069999999
 30
0.0
 11
80.22022300000001
 21
261.9716069999999
 31
0.0
  0
LINE
  5
9FEE
330
9F90
100
AcDbEntity
  8
1
  6
Continuous
100
AcDbLine
 10
29.720173
 20
266.571617
 30
0.0
 11
31.66263300000001
 21
263.4035069999999
 31
0.0
  0
LINE
  5
9FEF
330
9F90
100
AcDbEntity
  8
1
  6
Continuous
100
AcDbLine
 10
72.220223
 20
200.871609
 30
0.0
 11
73.22023100000001
 21
200.871609
 31
0.0
  0
LINE
  5
9FF0
330
9F90
100
AcDbEntity
  8
1
  6
Continuous
100
AcDbLine
 10
72.220223
 20
192.871609
 30
0.0
 11
73.22023100000001
 21
192.871609
 31
0.0
  0
ARC
  5
9FF1
330
9F90
100
AcDbEntity
  8
1
  6
Continuous
100
AcDbCircle
 10
57.22022299999999
 20
379.571619
 30
0.0
 40
126.2
100
AcDbArc
 50
263.34848
 51
276.6515
  0
ARC
  5
9FF2
330
9F90
100
AcDbEntity
  8
1
  6
Continuous
100
AcDbCircle
 10
233.1957099999999
 20
237.071608
 30
0.0
 40
15.0
100
AcDbArc
 50
89.99998199999996
 51
150.2075699999998
  0
ARC
  5
9FF3
330
9F90
100
AcDbEntity
  8
1
  6
Continuous
100
AcDbCircle
 10
172.426352
 20
251.096602
 30
0.0
 40
2.5
100
AcDbArc
 50
353.9128499999998
 51
100.0000199999999
  0
ARC
  5
9FF4
330
9F90
100
AcDbEntity
  8
1
  6
Continuous
100
AcDbCircle
 10
57.22022299999999
 20
384.573819
 30
0.0
 40
128.4999999999998
100
AcDbArc
 50
262.8473099999999
 51
277.1526699999999
  0
ARC
  5
9FF5
330
9F90
100
AcDbEntity
  8
1
  6
Continuous
100
AcDbCircle
 10
173.8754769999999
 20
250.539781
 30
0.0
 40
1.0
100
AcDbArc
 50
353.9128499999998
 51
100.00003
  0
ARC
  5
9FF6
330
9F90
100
AcDbEntity
  8
1
  6
Continuous
100
AcDbCircle
 10
57.22022299999999
 20
379.601999
 30
0.0
 40
128.4999999999998
100
AcDbArc
 50
263.34847
 51
276.6515
  0
ARC
  5
9FF7
330
9F90
100
AcDbEntity
  8
1
  6
Continuous
100
AcDbCircle
 10
72.220223
 20
250.97366
 30
0.0
 40
1.0
100
AcDbArc
 50
0.0
 51
96.65148000000002
  0
ARC
  5
9FF8
330
9F90
100
AcDbEntity
  8
1
  6
Continuous
100
AcDbCircle
 10
42.22022299999999
 20
250.97366
 30
0.0
 40
1.0
100
AcDbArc
 50
83.348539
 51
179.9999599999999
  0
ARC
  5
9FF9
330
9F90
100
AcDbEntity
  8
1
  6
Continuous
100
AcDbCircle
 10
74.42223199999998
 20
196.871609
 30
0.0
 40
12.0
100
AcDbArc
 50
344.28617
 51
15.71384
  0
ARC
  5
9FFA
330
9F90
100
AcDbEntity
  8
1
  6
Continuous
100
AcDbCircle
 10
71.218211
 20
196.87161
 30
0.0
 40
12.0
100
AcDbArc
 50
344.286135
 51
15.713856
  0
ARC
  5
9FFB
330
9F90
100
AcDbEntity
  8
1
  6
Continuous
100
AcDbCircle
 10
83.17223199999999
 20
201.813237
 30
0.0
 40
3.25
100
AcDbArc
 50
328.6342499999999
 51
28.65275
  0
ARC
  5
9FFC
330
9F90
100
AcDbEntity
  8
1
  6
Continuous
100
AcDbCircle
 10
79.96821099999998
 20
201.813237
 30
0.0
 40
3.25
100
AcDbArc
 50
328.6341949999998
 51
55.26029799999999
  0
ARC
  5
9FFD
330
9F90
100
AcDbEntity
  8
1
  6
Continuous
100
AcDbCircle
 10
79.96821
 20
191.929981
 30
0.0
 40
3.25
100
AcDbArc
 50
304.7397219999998
 51
31.365788
  0
ARC
  5
9FFE
330
9F90
100
AcDbEntity
  8
1
  6
Continuous
100
AcDbCircle
 10
83.17223199999999
 20
191.929981
 30
0.0
 40
3.25
100
AcDbArc
 50
331.3472699999998
 51
31.36577
  0
ARC
  5
9FFF
330
9F90
100
AcDbEntity
  8
1
  6
Continuous
100
AcDbCircle
 10
37.720231
 20
201.121609
 30
0.0
 40
2.0
100
AcDbArc
 50
90.00001800000005
 51
180.0
  0
ARC
  5
A000
330
9F90
100
AcDbEntity
  8
1
  6
Continuous
100
AcDbCircle
 10
37.720231
 20
192.621609
 30
0.0
 40
2.0
100
AcDbArc
 50
180.0
 51
269.99998
  0
ARC
  5
A001
330
9F90
100
AcDbEntity
  8
1
  6
Continuous
100
AcDbCircle
 10
92.220223
 20
229.5590939999999
 30
0.0
 40
60.0
100
AcDbArc
 50
179.9999799999999
 51
205.8780899999999
  0
ARC
  5
A002
330
9F90
100
AcDbEntity
  8
1
  6
Continuous
100
AcDbCircle
 10
72.22021499999998
 20
250.9432789999999
 30
0.0
 40
3.299999999999998
100
AcDbArc
 50
0.0
 51
96.65153400000001
  0
ARC
  5
A003
330
9F90
100
AcDbEntity
  8
1
  6
Continuous
100
AcDbCircle
 10
42.220243
 20
250.9432789999999
 30
0.0
 40
3.299999999999998
100
AcDbArc
 50
83.348484
 51
179.9999599999999
  0
ARC
  5
A004
330
9F90
100
AcDbEntity
  8
1
  6
Continuous
100
AcDbCircle
 10
169.720223
 20
363.371609
 30
0.0
 40
7.5
100
AcDbArc
 50
89.99998199999996
 51
193.44029
  0
CIRCLE
  5
A005
330
9F90
100
AcDbEntity
  8
1
  6
Continuous
100
AcDbCircle
 10
171.220223
 20
361.8716089999999
 30
0.0
 40
4.4
  0
CIRCLE
  5
A006
330
9F90
100
AcDbEntity
  8
1
  6
Continuous
100
AcDbCircle
 10
171.220223
 20
321.871609
 30
0.0
 40
4.4
  0
ARC
  5
A007
330
9F90
100
AcDbEntity
  8
1
  6
Continuous
100
AcDbCircle
 10
169.720223
 20
320.3716089999998
 30
0.0
 40
7.5
100
AcDbArc
 50
166.5596799999998
 51
269.99995
  0
ARC
  5
A008
330
9F90
100
AcDbEntity
  8
1
  6
Continuous
100
AcDbCircle
 10
79.753563
 20
341.8716089999998
 30
0.0
 40
85.0
100
AcDbArc
 50
346.5596799999998
 51
13.44032099999999
  0
ARC
  5
A009
330
9F90
100
AcDbEntity
  8
1
  6
Continuous
100
AcDbCircle
 10
344.686883
 20
341.8716089999998
 30
0.0
 40
85.0
100
AcDbArc
 50
166.55964
 51
193.44029
  0
ARC
  5
A00A
330
9F90
100
AcDbEntity
  8
1
  6
Continuous
100
AcDbCircle
 10
254.7202229999999
 20
363.371609
 30
0.0
 40
7.5
100
AcDbArc
 50
346.5596799999998
 51
89.99998199999996
  0
CIRCLE
  5
A00B
330
9F90
100
AcDbEntity
  8
1
  6
Continuous
100
AcDbCircle
 10
253.220223
 20
361.8716089999999
 30
0.0
 40
4.4
  0
CIRCLE
  5
A00C
330
9F90
100
AcDbEntity
  8
1
  6
Continuous
100
AcDbCircle
 10
253.220223
 20
321.871609
 30
0.0
 40
4.4
  0
ARC
  5
A00D
330
9F90
100
AcDbEntity
  8
1
  6
Continuous
100
AcDbCircle
 10
254.7202229999999
 20
320.3716089999998
 30
0.0
 40
7.5
100
AcDbArc
 50
270.00002
 51
13.440282
  0
CIRCLE
  5
A00E
330
9F90
100
AcDbEntity
  8
1
  6
Continuous
100
AcDbCircle
 10
212.220223
 20
341.8716089999998
 30
0.0
 40
9.5
  0
CIRCLE
  5
A00F
330
9F90
100
AcDbEntity
  8
1
  6
Continuous
100
AcDbCircle
 10
212.220223
 20
341.8716089999998
 30
0.0
 40
12.5
  0
CIRCLE
  5
A010
330
9F90
100
AcDbEntity
  8
1
  6
Continuous
100
AcDbCircle
 10
212.220223
 20
341.8716089999998
 30
0.0
 40
24.0
  0
CIRCLE
  5
A011
330
9F90
100
AcDbEntity
  8
1
  6
Continuous
100
AcDbCircle
 10
212.220223
 20
341.8716089999998
 30
0.0
 40
22.0
  0
ARC
  5
A012
330
9F90
100
AcDbEntity
  8
1
  6
Continuous
100
AcDbCircle
 10
230.020218
 20
262.4496119999998
 30
0.0
 40
2.778
100
AcDbArc
 50
327.85663
 51
350.09193
  0
ARC
  5
A013
330
9F90
100
AcDbEntity
  8
1
  6
Continuous
100
AcDbCircle
 10
235.220223
 20
264.971607
 30
0.0
 40
3.0
100
AcDbArc
 50
270.00002
 51
328.48644
  0
ARC
  5
A014
330
9F90
100
AcDbEntity
  8
1
  6
Continuous
100
AcDbCircle
 10
189.220223
 20
264.971607
 30
0.0
 40
3.0
100
AcDbArc
 50
211.5135899999999
 51
270.00002
  0
ARC
  5
A015
330
9F90
100
AcDbEntity
  8
1
  6
Continuous
100
AcDbCircle
 10
212.220208
 20
262.4496119999998
 30
0.0
 40
2.778
100
AcDbArc
 50
327.8565799999999
 51
350.09193
  0
ARC
  5
A016
330
9F90
100
AcDbEntity
  8
1
  6
Continuous
100
AcDbCircle
 10
217.708123
 20
262.4496119999998
 30
0.0
 40
2.778
100
AcDbArc
 50
189.90804
 51
212.1434
  0
ARC
  5
A017
330
9F90
100
AcDbEntity
  8
1
  6
Continuous
100
AcDbCircle
 10
226.5973359999999
 20
262.4496119999998
 30
0.0
 40
2.778
100
AcDbArc
 50
327.85663
 51
350.09193
  0
ARC
  5
A018
330
9F90
100
AcDbEntity
  8
1
  6
Continuous
100
AcDbCircle
 10
229.1325769999999
 20
262.4496119999998
 30
0.0
 40
2.778
100
AcDbArc
 50
327.85663
 51
350.09193
  0
ARC
  5
A019
330
9F90
100
AcDbEntity
  8
1
  6
Continuous
100
AcDbCircle
 10
194.420197
 20
262.4496119999998
 30
0.0
 40
2.778
100
AcDbArc
 50
189.9080999999999
 51
212.1433699999999
  0
ARC
  5
A01A
330
9F90
100
AcDbEntity
  8
1
  6
Continuous
100
AcDbCircle
 10
212.220208
 20
262.4496119999998
 30
0.0
 40
2.778
100
AcDbArc
 50
189.9080999999999
 51
212.1434
  0
ARC
  5
A01B
330
9F90
100
AcDbEntity
  8
1
  6
Continuous
100
AcDbCircle
 10
206.732293
 20
262.4496119999998
 30
0.0
 40
2.778
100
AcDbArc
 50
189.9080999999999
 51
212.1434
  0
ARC
  5
A01C
330
9F90
100
AcDbEntity
  8
1
  6
Continuous
100
AcDbCircle
 10
201.779053
 20
262.4496119999998
 30
0.0
 40
2.778
100
AcDbArc
 50
189.9080999999999
 51
212.1434
  0
ARC
  5
A01D
330
9F90
100
AcDbEntity
  8
1
  6
Continuous
100
AcDbCircle
 10
197.8430789999999
 20
262.4496119999998
 30
0.0
 40
2.778
100
AcDbArc
 50
189.9080999999999
 51
212.1434
  0
ARC
  5
A01E
330
9F90
100
AcDbEntity
  8
1
  6
Continuous
100
AcDbCircle
 10
195.307839
 20
262.4496119999998
 30
0.0
 40
2.778
100
AcDbArc
 50
189.9080999999999
 51
212.1433699999999
  0
ARC
  5
A01F
330
9F90
100
AcDbEntity
  8
1
  6
Continuous
100
AcDbCircle
 10
206.732293
 20
262.4496119999998
 30
0.0
 40
2.778
100
AcDbArc
 50
327.8565799999999
 51
350.0919899999999
  0
ARC
  5
A020
330
9F90
100
AcDbEntity
  8
1
  6
Continuous
100
AcDbCircle
 10
217.708123
 20
262.4496119999998
 30
0.0
 40
2.778
100
AcDbArc
 50
327.8565799999999
 51
350.09193
  0
ARC
  5
A021
330
9F90
100
AcDbEntity
  8
1
  6
Continuous
100
AcDbCircle
 10
222.661362
 20
262.4496119999998
 30
0.0
 40
2.778
100
AcDbArc
 50
327.8565799999999
 51
350.09193
  0
ARC
  5
A022
330
9F90
100
AcDbEntity
  8
1
  6
Continuous
100
AcDbCircle
 10
191.220223
 20
255.971604
 30
0.0
 40
5.0
100
AcDbArc
 50
89.99998199999996
 51
178.90034
  0
ARC
  5
A023
330
9F90
100
AcDbEntity
  8
1
  6
Continuous
100
AcDbCircle
 10
46.779063
 20
262.4496119999998
 30
0.0
 40
2.778
100
AcDbArc
 50
327.8564799999998
 51
333.0638399999999
  0
ARC
  5
A024
330
9F90
100
AcDbEntity
  8
1
  6
Continuous
100
AcDbCircle
 10
67.661355
 20
262.4496119999998
 30
0.0
 40
2.778
100
AcDbArc
 50
327.8564799999998
 51
350.09193
  0
ARC
  5
A025
330
9F90
100
AcDbEntity
  8
1
  6
Continuous
100
AcDbCircle
 10
77.220223
 20
255.9716009999999
 30
0.0
 40
5.0
100
AcDbArc
 50
0.0
 51
89.99998199999996
  0
ARC
  5
A026
330
9F90
100
AcDbEntity
  8
1
  6
Continuous
100
AcDbCircle
 10
37.22022299999999
 20
255.9716009999999
 30
0.0
 40
5.0
100
AcDbArc
 50
89.99998199999996
 51
179.9999599999999
  0
ARC
  5
A027
330
9F90
100
AcDbEntity
  8
1
  6
Continuous
100
AcDbCircle
 10
62.708123
 20
262.4496119999998
 30
0.0
 40
2.778
100
AcDbArc
 50
327.8564799999998
 51
350.09193
  0
ARC
  5
A028
330
9F90
100
AcDbEntity
  8
1
  6
Continuous
100
AcDbCircle
 10
75.020218
 20
262.4496119999998
 30
0.0
 40
2.778
100
AcDbArc
 50
327.80113
 51
350.09193
  0
ARC
  5
A029
330
9F90
100
AcDbEntity
  8
1
  6
Continuous
100
AcDbCircle
 10
80.22022300000001
 20
264.971607
 30
0.0
 40
3.0
100
AcDbArc
 50
270.00002
 51
328.48644
  0
ARC
  5
A02A
330
9F90
100
AcDbEntity
  8
1
  6
Continuous
100
AcDbCircle
 10
34.220223
 20
264.971607
 30
0.0
 40
3.0
100
AcDbArc
 50
211.5135899999999
 51
270.00002
  0
ARC
  5
A02B
330
9F90
100
AcDbEntity
  8
1
  6
Continuous
100
AcDbCircle
 10
57.220203
 20
262.4496119999998
 30
0.0
 40
2.778
100
AcDbArc
 50
327.8564799999998
 51
350.09193
  0
ARC
  5
A02C
330
9F90
100
AcDbEntity
  8
1
  6
Continuous
100
AcDbCircle
 10
62.708123
 20
262.4496119999998
 30
0.0
 40
2.778
100
AcDbArc
 50
189.90804
 51
212.14351
  0
ARC
  5
A02D
330
9F90
100
AcDbEntity
  8
1
  6
Continuous
100
AcDbCircle
 10
67.661355
 20
262.4496119999998
 30
0.0
 40
2.778
100
AcDbArc
 50
206.9362
 51
212.14351
  0
ARC
  5
A02E
330
9F90
100
AcDbEntity
  8
1
  6
Continuous
100
AcDbCircle
 10
71.597329
 20
262.4496119999998
 30
0.0
 40
2.778
100
AcDbArc
 50
327.8564799999998
 51
350.09193
  0
ARC
  5
A02F
330
9F90
100
AcDbEntity
  8
1
  6
Continuous
100
AcDbCircle
 10
74.13257699999999
 20
262.4496119999998
 30
0.0
 40
2.778
100
AcDbArc
 50
327.8564799999998
 51
350.09193
  0
ARC
  5
A030
330
9F90
100
AcDbEntity
  8
1
  6
Continuous
100
AcDbCircle
 10
39.420203
 20
262.4496119999998
 30
0.0
 40
2.778
100
AcDbArc
 50
189.9080999999999
 51
212.14351
  0
ARC
  5
A031
330
9F90
100
AcDbEntity
  8
1
  6
Continuous
100
AcDbCircle
 10
57.220203
 20
262.4496119999998
 30
0.0
 40
2.778
100
AcDbArc
 50
189.9080999999999
 51
212.14351
  0
ARC
  5
A032
330
9F90
100
AcDbEntity
  8
1
  6
Continuous
100
AcDbCircle
 10
51.732293
 20
262.4496119999998
 30
0.0
 40
2.778
100
AcDbArc
 50
189.9080999999999
 51
212.14351
  0
ARC
  5
A033
330
9F90
100
AcDbEntity
  8
1
  6
Continuous
100
AcDbCircle
 10
46.779063
 20
262.4496119999998
 30
0.0
 40
2.778
100
AcDbArc
 50
189.9080999999999
 51
212.14351
  0
ARC
  5
A034
330
9F90
100
AcDbEntity
  8
1
  6
Continuous
100
AcDbCircle
 10
42.843083
 20
262.4496119999998
 30
0.0
 40
2.778
100
AcDbArc
 50
189.9080999999999
 51
212.14351
  0
ARC
  5
A035
330
9F90
100
AcDbEntity
  8
1
  6
Continuous
100
AcDbCircle
 10
40.30784299999999
 20
262.4496119999998
 30
0.0
 40
2.778
100
AcDbArc
 50
189.9080999999999
 51
212.14351
  0
ARC
  5
A036
330
9F90
100
AcDbEntity
  8
1
  6
Continuous
100
AcDbCircle
 10
51.732293
 20
262.4496119999998
 30
0.0
 40
2.778
100
AcDbArc
 50
327.8564799999998
 51
350.0919899999999
  0
LINE
  5
A037
330
9F90
100
AcDbEntity
  8
1
  6
Continuous
100
AcDbLine
 10
239.720221
 20
266.5716269999999
 30
0.0
 11
237.777768
 21
263.4035169999999
 31
0.0
  0
LINE
  5
A038
330
9F90
100
AcDbEntity
  8
1
  6
Continuous
100
AcDbLine
 10
237.220223
 20
255.971605
 30
0.0
 11
237.220223
 21
252.071608
 31
0.0
  0
ARC
  5
A039
330
9F90
100
AcDbEntity
  8
1
  6
Continuous
100
AcDbCircle
 10
232.220223
 20
255.971605
 30
0.0
 40
5.0
100
AcDbArc
 50
0.0
 51
90.0
  0
LINE
  5
A03A
330
9F90
100
AcDbEntity
  8
4
  6
CENTER
100
AcDbLine
 10
180.2202229999998
 20
375.871609
 30
0.0
 11
180.2202229999998
 21
301.669614
 31
0.0
  0
LINE
  5
A03B
330
9F90
100
AcDbEntity
  8
4
  6
CENTER
100
AcDbLine
 10
180.2202229999998
 20
39.871609
 30
0.0
 11
180.2202229999998
 21
114.0736039999999
 31
0.0
  0
LINE
  5
A03C
330
9F90
100
AcDbEntity
  8
4
  6
CENTER
100
AcDbLine
 10
212.220223
 20
39.871609
 30
0.0
 11
212.220223
 21
114.0736039999999
 31
0.0
  0
LINE
  5
A03D
330
9F90
100
AcDbEntity
  8
4
  6
CENTER
100
AcDbLine
 10
253.220223
 20
99.87160900000001
 30
0.0
 11
253.220223
 21
87.87160899999998
 31
0.0
  0
LINE
  5
A03E
330
9F90
100
AcDbEntity
  8
4
  6
CENTER
100
AcDbLine
 10
171.220223
 20
99.87160900000001
 30
0.0
 11
171.220223
 21
87.87160899999998
 31
0.0
  0
ARC
  5
A03F
330
9F90
100
AcDbEntity
  8
1
  6
Continuous
100
AcDbCircle
 10
171.220223
 20
93.87160900000001
 30
0.0
 40
4.4
100
AcDbArc
 50
202.7284929999999
 51
243.8180330000001
  0
CIRCLE
  5
A040
330
9F90
100
AcDbEntity
  8
1
  6
Continuous
100
AcDbCircle
 10
253.220223
 20
93.87160900000001
 30
0.0
 40
4.4
  0
ARC
  5
A041
330
9F90
100
AcDbEntity
  8
1
  6
Continuous
100
AcDbCircle
 10
79.753563
 20
73.87160899999997
 30
0.0
 40
85.0
100
AcDbArc
 50
346.559679
 51
348.6399229999999
  0
ARC
  5
A042
330
9F90
100
AcDbEntity
  8
1
  6
Continuous
100
AcDbCircle
 10
344.686883
 20
73.87160899999997
 30
0.0
 40
85.0
100
AcDbArc
 50
166.55971
 51
193.4403599999999
  0
ARC
  5
A043
330
9F90
100
AcDbEntity
  8
1
  6
Continuous
100
AcDbCircle
 10
254.7202229999999
 20
95.37160900000001
 30
0.0
 40
7.5
100
AcDbArc
 50
346.5597179999999
 51
89.99997999999996
  0
LINE
  5
A044
330
9F90
100
AcDbEntity
  8
4
  6
CENTER
100
AcDbLine
 10
259.2202229999999
 20
93.87160900000001
 30
0.0
 11
247.220223
 21
93.87160900000001
 31
0.0
  0
LINE
  5
A045
330
9F90
100
AcDbEntity
  8
1
  6
Continuous
100
AcDbLine
 10
229.2415599999999
 20
102.8716089999999
 30
0.0
 11
254.7202229999999
 21
102.8716089999999
 31
0.0
  0
LINE
  5
A046
330
9F90
100
AcDbEntity
  8
4
  6
CENTER
100
AcDbLine
 10
165.220223
 20
93.87160900000001
 30
0.0
 11
177.2202229999997
 21
93.87160900000001
 31
0.0
  0
LINE
  5
A047
330
9F90
100
AcDbEntity
  8
4
  6
CENTER
100
AcDbLine
 10
125.2202229999999
 20
73.87160899999997
 30
0.0
 11
264.686883
 21
73.87160899999997
 31
0.0
  0
CIRCLE
  5
A048
330
9F90
100
AcDbEntity
  8
1
  6
Continuous
100
AcDbCircle
 10
253.220223
 20
53.871609
 30
0.0
 40
4.4
  0
ARC
  5
A049
330
9F90
100
AcDbEntity
  8
1
  6
Continuous
100
AcDbCircle
 10
254.7202229999999
 20
52.371609
 30
0.0
 40
7.5
100
AcDbArc
 50
270.0000179999999
 51
13.44032
  0
LINE
  5
A04A
330
9F90
100
AcDbEntity
  8
4
  6
CENTER
100
AcDbLine
 10
259.2202229999999
 20
53.871609
 30
0.0
 11
247.220223
 21
53.871609
 31
0.0
  0
LINE
  5
A04B
330
9F90
100
AcDbEntity
  8
1
  6
Continuous
100
AcDbLine
 10
169.720223
 20
44.871609
 30
0.0
 11
254.7202229999999
 21
44.871609
 31
0.0
  0
ARC
  5
A04C
330
9F90
100
AcDbEntity
  8
1
  6
Continuous
100
AcDbCircle
 10
169.720223
 20
52.371609
 30
0.0
 40
7.5
100
AcDbArc
 50
166.55971
 51
270.0000179999999
  0
LINE
  5
A04D
330
9F90
100
AcDbEntity
  8
4
  6
CENTER
100
AcDbLine
 10
165.220223
 20
53.871609
 30
0.0
 11
177.2202229999997
 21
53.871609
 31
0.0
  0
ARC
  5
A04E
330
9F90
100
AcDbEntity
  8
1
  6
Continuous
100
AcDbCircle
 10
171.220223
 20
53.871609
 30
0.0
 40
4.4
100
AcDbArc
 50
116.3674389999999
 51
164.173245
  0
LINE
  5
A04F
330
9F90
100
AcDbEntity
  8
4
  6
CENTER
100
AcDbLine
 10
171.220223
 20
47.87160899999999
 30
0.0
 11
171.220223
 21
59.871609
 31
0.0
  0
LINE
  5
A050
330
9F90
100
AcDbEntity
  8
4
  6
CENTER
100
AcDbLine
 10
253.220223
 20
47.87160899999999
 30
0.0
 11
253.220223
 21
59.871609
 31
0.0
  0
LINE
  5
A051
330
9F90
100
AcDbEntity
  8
1
  6
Continuous
100
AcDbLine
 10
169.220223
 20
89.87160899999997
 30
0.0
 11
193.6808049999999
 21
89.87160899999997
 31
0.0
  0
LINE
  5
A052
330
9F90
100
AcDbEntity
  8
1
  6
Continuous
100
AcDbLine
 10
169.220223
 20
92.171604
 30
0.0
 11
193.680799
 21
92.171604
 31
0.0
  0
LINE
  5
A053
330
9F90
100
AcDbEntity
  8
1
  6
Continuous
100
AcDbLine
 10
164.7202059999998
 20
57.87160899999999
 30
0.0
 11
195.7202389999999
 21
57.87160899999999
 31
0.0
  0
LINE
  5
A054
330
9F90
100
AcDbEntity
  8
1
  6
Continuous
100
AcDbLine
 10
169.220223
 20
55.57161899999999
 30
0.0
 11
192.9409019999999
 21
55.57161899999999
 31
0.0
  0
LINE
  5
A055
330
9F90
100
AcDbEntity
  8
1
  6
Continuous
100
AcDbLine
 10
186.4702229999998
 20
55.571614
 30
0.0
 11
186.4702229999998
 21
54.371617
 31
0.0
  0
LINE
  5
A056
330
9F90
100
AcDbEntity
  8
1
  6
Continuous
100
AcDbLine
 10
173.9702229999998
 20
55.571614
 30
0.0
 11
173.9702229999998
 21
54.371617
 31
0.0
  0
LINE
  5
A057
330
9F90
100
AcDbEntity
  8
1
  6
Continuous
100
AcDbLine
 10
176.2202229999997
 20
88.87160899999996
 30
0.0
 11
176.2202229999997
 21
89.87161699999999
 31
0.0
  0
LINE
  5
A058
330
9F90
100
AcDbEntity
  8
1
  6
Continuous
100
AcDbLine
 10
184.220223
 20
88.87160899999996
 30
0.0
 11
184.220223
 21
89.87161699999999
 31
0.0
  0
LINE
  5
A059
330
9F90
100
AcDbEntity
  8
1
  6
Continuous
100
AcDbLine
 10
175.970223
 20
52.371617
 30
0.0
 11
184.470223
 21
52.371617
 31
0.0
  0
ARC
  5
A05A
330
9F90
100
AcDbEntity
  8
1
  6
Continuous
100
AcDbCircle
 10
175.970223
 20
54.371617
 30
0.0
 40
2.0
100
AcDbArc
 50
180.0000179999999
 51
270.0
  0
ARC
  5
A05B
330
9F90
100
AcDbEntity
  8
1
  6
Continuous
100
AcDbCircle
 10
184.470223
 20
54.371617
 30
0.0
 40
2.0
100
AcDbArc
 50
270.0
 51
359.9999799999998
  0
LINE
  5
A05C
330
9F90
100
AcDbEntity
  8
1
  6
Continuous
100
AcDbLine
 10
169.220223
 20
92.171604
 30
0.0
 11
169.220223
 21
89.87160899999997
 31
0.0
  0
LINE
  5
A05D
330
9F90
100
AcDbEntity
  8
1
  6
Continuous
100
AcDbLine
 10
169.220223
 20
57.87160899999999
 30
0.0
 11
169.220223
 21
55.57161899999999
 31
0.0
  0
ARC
  5
A05E
330
9F90
100
AcDbEntity
  8
1
  6
Continuous
100
AcDbCircle
 10
214.8902839999998
 20
73.86203899999998
 30
0.0
 40
43.958572
100
AcDbArc
 50
158.641841
 51
160.0348759999999
  0
ARC
  5
A05F
330
9F90
100
AcDbEntity
  8
1
  6
Continuous
100
AcDbCircle
 10
212.220223
 20
73.87160899999997
 30
0.0
 40
25.0
100
AcDbArc
 50
230.2610529999999
 51
65.11944799999999
  0
ARC
  5
A060
330
9F90
100
AcDbEntity
  8
1
  6
Continuous
100
AcDbCircle
 10
212.220223
 20
73.87160899999997
 30
0.0
 40
22.7
100
AcDbArc
 50
230.2610839999999
 51
64.56380300000001
  0
ARC
  5
A061
330
9F90
100
AcDbEntity
  8
1
  6
Continuous
100
AcDbCircle
 10
212.220223
 20
73.87160899999997
 30
0.0
 40
17.0
100
AcDbArc
 50
231.425669
 51
312.667925
  0
ARC
  5
A062
330
9F90
100
AcDbEntity
  8
1
  6
Continuous
100
AcDbCircle
 10
212.220223
 20
73.87160899999997
 30
0.0
 40
20.69999999999998
100
AcDbArc
 50
227.415458
 51
323.606027
  0
ARC
  5
A063
330
9F90
100
AcDbEntity
  8
1
  6
Continuous
100
AcDbCircle
 10
212.220223
 20
73.87160899999997
 30
0.0
 40
17.0
100
AcDbArc
 50
47.33207500000001
 51
73.50070599999998
  0
ARC
  5
A064
330
9F90
100
AcDbEntity
  8
1
  6
Continuous
100
AcDbCircle
 10
212.220223
 20
73.87160899999997
 30
0.0
 40
20.69999999999998
100
AcDbArc
 50
36.39397299999999
 51
61.90051999999998
  0
ARC
  5
A065
330
9F90
100
AcDbEntity
  8
1
  6
Continuous
100
AcDbCircle
 10
212.220223
 20
73.87160899999997
 30
0.0
 40
20.69999999999998
100
AcDbArc
 50
326.9866819999998
 51
33.01331799999999
  0
CIRCLE
  5
A066
330
9F90
100
AcDbEntity
  8
2
  6
Continuous
100
AcDbCircle
 10
180.2202229999998
 20
196.871609
 30
0.0
 40
3.3235
  0
CIRCLE
  5
A067
330
9F90
100
AcDbEntity
  8
1
  6
Continuous
100
AcDbCircle
 10
180.2202229999998
 20
196.871609
 30
0.0
 40
4.0
  0
ARC
  5
A068
330
9F90
100
AcDbEntity
  8
1
  6
Continuous
100
AcDbCircle
 10
177.2202229999997
 20
93.617644
 30
0.0
 40
6.841600999999998
100
AcDbArc
 50
63.992176
 51
134.8075649999999
  0
ARC
  5
A069
330
9F90
100
AcDbEntity
  8
1
  6
Continuous
100
AcDbCircle
 10
177.2202229999997
 20
97.23200300000002
 30
0.0
 40
6.841600999999998
100
AcDbArc
 50
63.992176
 51
116.007824
  0
LINE
  5
A06A
330
9F90
100
AcDbEntity
  8
1
  6
Continuous
100
AcDbLine
 10
177.470223
 20
104.073604
 30
0.0
 11
182.970223
 21
104.073604
 31
0.0
  0
LINE
  5
A06B
330
9F90
100
AcDbEntity
  8
1
  6
Continuous
100
AcDbLine
 10
174.220223
 20
99.76642400000001
 30
0.0
 11
174.220223
 21
103.3807829999997
 31
0.0
  0
LINE
  5
A06C
330
9F90
100
AcDbEntity
  8
1
  6
Continuous
100
AcDbLine
 10
180.2202229999998
 20
99.07360400000001
 30
0.0
 11
180.2202229999998
 21
103.3807829999997
 31
0.0
  0
LINE
  5
A06D
330
9F90
100
AcDbEntity
  8
1
  6
Continuous
100
AcDbLine
 10
186.220223
 20
99.76642400000001
 30
0.0
 11
186.220223
 21
103.3807829999997
 31
0.0
  0
ARC
  5
A06E
330
9F90
100
AcDbEntity
  8
1
  6
Continuous
100
AcDbCircle
 10
183.220223
 20
93.617644
 30
0.0
 40
6.841600999999998
100
AcDbArc
 50
45.19243499999999
 51
116.007824
  0
ARC
  5
A06F
330
9F90
100
AcDbEntity
  8
1
  6
Continuous
100
AcDbCircle
 10
183.220223
 20
97.23200300000002
 30
0.0
 40
6.841600999999998
100
AcDbArc
 50
63.992176
 51
116.007824
  0
LINE
  5
A070
330
9F90
100
AcDbEntity
  8
4
  6
CENTER
100
AcDbLine
 10
335.3197999999999
 20
273.8716249999999
 30
0.0
 11
335.3197999999999
 21
141.8716249999999
 31
0.0
  0
LINE
  5
A071
330
9F90
100
AcDbEntity
  8
1
  6
Continuous
100
AcDbLine
 10
310.3197999999999
 20
255.9716169999999
 30
0.0
 11
310.3197999999999
 21
231.823477
 31
0.0
  0
LINE
  5
A072
330
9F90
100
AcDbEntity
  8
1
  6
Continuous
100
AcDbLine
 10
317.0198049999999
 20
201.845008
 30
0.0
 11
317.0198049999999
 21
191.936222
 31
0.0
  0
LINE
  5
A073
330
9F90
100
AcDbEntity
  8
1
  6
Continuous
100
AcDbLine
 10
319.3197999999998
 20
250.973676
 30
0.0
 11
319.3197999999998
 21
185.871625
 31
0.0
  0
LINE
  5
A074
330
9F90
100
AcDbEntity
  8
1
  6
Continuous
100
AcDbLine
 10
353.6197899999999
 20
201.844997
 30
0.0
 11
353.6197899999999
 21
197.975582
 31
0.0
  0
LINE
  5
A075
330
9F90
100
AcDbEntity
  8
1
  6
Continuous
100
AcDbLine
 10
351.3198
 20
250.973676
 30
0.0
 11
351.3198
 21
198.1983119999999
 31
0.0
  0
LINE
  5
A076
330
9F90
100
AcDbEntity
  8
4
  6
CENTER
100
AcDbLine
 10
365.6197899999999
 20
196.8716249999999
 30
0.0
 11
295.1178049999998
 21
196.8716249999999
 31
0.0
  0
LINE
  5
A077
330
9F90
100
AcDbEntity
  8
1
  6
Continuous
100
AcDbLine
 10
353.6197899999999
 20
185.871625
 30
0.0
 11
351.3198
 21
185.871625
 31
0.0
  0
LINE
  5
A078
330
9F90
100
AcDbEntity
  8
1
  6
Continuous
100
AcDbLine
 10
356.819792
 20
201.1216249999999
 30
0.0
 11
356.819792
 21
192.6216249999999
 31
0.0
  0
LINE
  5
A079
330
9F90
100
AcDbEntity
  8
1
  6
Continuous
100
AcDbLine
 10
320.3197999999998
 20
192.8716249999999
 30
0.0
 11
319.319792
 21
192.8716249999999
 31
0.0
  0
LINE
  5
A07A
330
9F90
100
AcDbEntity
  8
1
  6
Continuous
100
AcDbLine
 10
353.619795
 20
190.6216249999999
 30
0.0
 11
354.819792
 21
190.6216249999999
 31
0.0
  0
LINE
  5
A07B
330
9F90
100
AcDbEntity
  8
1
  6
Continuous
100
AcDbLine
 10
317.0198049999999
 20
185.871625
 30
0.0
 11
319.3197999999998
 21
185.871625
 31
0.0
  0
ARC
  5
A07C
330
9F90
100
AcDbEntity
  8
1
  6
Continuous
100
AcDbCircle
 10
354.819792
 20
192.6216249999999
 30
0.0
 40
2.0
100
AcDbArc
 50
270.00002
 51
0.0
  0
ARC
  5
A07D
330
9F90
100
AcDbEntity
  8
1
  6
Continuous
100
AcDbCircle
 10
354.819792
 20
201.1216249999999
 30
0.0
 40
2.0
100
AcDbArc
 50
0.0
 51
90.0
  0
LINE
  5
A07E
330
9F90
100
AcDbEntity
  8
1
  6
Continuous
100
AcDbLine
 10
320.3197999999998
 20
200.8716249999999
 30
0.0
 11
319.319792
 21
200.8716249999999
 31
0.0
  0
LINE
  5
A07F
330
9F90
100
AcDbEntity
  8
1
  6
Continuous
100
AcDbLine
 10
358.3197999999999
 20
261.971623
 30
0.0
 11
312.3197999999998
 21
261.971623
 31
0.0
  0
LINE
  5
A080
330
9F90
100
AcDbEntity
  8
1
  6
Continuous
100
AcDbLine
 10
364.3197999999999
 20
266.5716219999999
 30
0.0
 11
306.3197999999998
 21
266.5716219999999
 31
0.0
  0
LINE
  5
A081
330
9F90
100
AcDbEntity
  8
1
  6
Continuous
100
AcDbLine
 10
364.3197999999999
 20
268.871625
 30
0.0
 11
306.3197999999998
 21
268.871625
 31
0.0
  0
LINE
  5
A082
330
9F90
100
AcDbEntity
  8
1
  6
Continuous
100
AcDbLine
 10
355.3198
 20
260.971617
 30
0.0
 11
315.3197999999998
 21
260.971617
 31
0.0
  0
ARC
  5
A083
330
9F90
100
AcDbEntity
  8
1
  6
Continuous
100
AcDbCircle
 10
358.3197999999999
 20
264.971623
 30
0.0
 40
3.0
100
AcDbArc
 50
269.99998
 51
328.48641
  0
ARC
  5
A084
330
9F90
100
AcDbEntity
  8
1
  6
Continuous
100
AcDbCircle
 10
355.3198
 20
255.9716169999999
 30
0.0
 40
5.0
100
AcDbArc
 50
0.00004
 51
90.00001800000005
  0
LINE
  5
A085
330
9F90
100
AcDbEntity
  8
1
  6
Continuous
100
AcDbLine
 10
362.8198499999998
 20
266.571633
 30
0.0
 11
360.87739
 21
263.403523
 31
0.0
  0
LINE
  5
A086
330
9F90
100
AcDbEntity
  8
1
  6
Continuous
100
AcDbLine
 10
364.3197999999999
 20
268.871625
 30
0.0
 11
364.3197999999999
 21
266.5716259999999
 31
0.0
  0
LINE
  5
A087
330
9F90
100
AcDbEntity
  8
4
  6
CENTER
100
AcDbLine
 10
355.3198
 20
271.8716249999999
 30
0.0
 11
355.3198
 21
263.5716219999999
 31
0.0
  0
ARC
  5
A088
330
9F90
100
AcDbEntity
  8
1
  6
Continuous
100
AcDbCircle
 10
352.2321799999998
 20
262.4496279999998
 30
0.0
 40
2.778
100
AcDbArc
 50
327.85649
 51
350.0919
  0
ARC
  5
A089
330
9F90
100
AcDbEntity
  8
1
  6
Continuous
100
AcDbCircle
 10
349.6969399999999
 20
262.4496279999998
 30
0.0
 40
2.778
100
AcDbArc
 50
327.85649
 51
350.0919
  0
ARC
  5
A08A
330
9F90
100
AcDbEntity
  8
1
  6
Continuous
100
AcDbCircle
 10
345.76096
 20
262.4496279999998
 30
0.0
 40
2.778
100
AcDbArc
 50
327.85649
 51
350.0919
  0
ARC
  5
A08B
330
9F90
100
AcDbEntity
  8
1
  6
Continuous
100
AcDbCircle
 10
353.1198199999999
 20
262.4496279999998
 30
0.0
 40
2.778
100
AcDbArc
 50
327.85649
 51
350.0919
  0
ARC
  5
A08C
330
9F90
100
AcDbEntity
  8
1
  6
Continuous
100
AcDbCircle
 10
340.8077299999998
 20
262.4496279999998
 30
0.0
 40
2.778
100
AcDbArc
 50
327.85649
 51
350.0919
  0
ARC
  5
A08D
330
9F90
100
AcDbEntity
  8
1
  6
Continuous
100
AcDbCircle
 10
345.76096
 20
262.4496279999998
 30
0.0
 40
2.778
100
AcDbArc
 50
206.93616
 51
212.14352
  0
ARC
  5
A08E
330
9F90
100
AcDbEntity
  8
1
  6
Continuous
100
AcDbCircle
 10
329.8319
 20
262.4496279999998
 30
0.0
 40
2.778
100
AcDbArc
 50
327.85649
 51
350.0919599999999
  0
ARC
  5
A08F
330
9F90
100
AcDbEntity
  8
1
  6
Continuous
100
AcDbCircle
 10
335.31982
 20
262.4496279999998
 30
0.0
 40
2.778
100
AcDbArc
 50
189.90807
 51
212.14352
  0
ARC
  5
A090
330
9F90
100
AcDbEntity
  8
1
  6
Continuous
100
AcDbCircle
 10
340.8077299999998
 20
262.4496279999998
 30
0.0
 40
2.778
100
AcDbArc
 50
189.9080099999999
 51
212.14352
  0
ARC
  5
A091
330
9F90
100
AcDbEntity
  8
1
  6
Continuous
100
AcDbCircle
 10
335.31982
 20
262.4496279999998
 30
0.0
 40
2.778
100
AcDbArc
 50
327.85649
 51
350.0919
  0
ARC
  5
A092
330
9F90
100
AcDbEntity
  8
1
  6
Continuous
100
AcDbCircle
 10
315.3197999999998
 20
255.9716169999999
 30
0.0
 40
5.0
100
AcDbArc
 50
90.00001800000005
 51
180.0
  0
LINE
  5
A093
330
9F90
100
AcDbEntity
  8
4
  6
CENTER
100
AcDbLine
 10
315.3197999999998
 20
271.8716249999999
 30
0.0
 11
315.3197999999998
 21
263.5716219999999
 31
0.0
  0
ARC
  5
A094
330
9F90
100
AcDbEntity
  8
1
  6
Continuous
100
AcDbCircle
 10
318.407446
 20
262.4496279999998
 30
0.0
 40
2.778
100
AcDbArc
 50
189.90807
 51
212.14352
  0
ARC
  5
A095
330
9F90
100
AcDbEntity
  8
1
  6
Continuous
100
AcDbCircle
 10
320.942694
 20
262.4496279999998
 30
0.0
 40
2.778
100
AcDbArc
 50
189.90807
 51
212.14352
  0
ARC
  5
A096
330
9F90
100
AcDbEntity
  8
1
  6
Continuous
100
AcDbCircle
 10
324.878668
 20
262.4496279999998
 30
0.0
 40
2.778
100
AcDbArc
 50
327.85649
 51
333.0638
  0
ARC
  5
A097
330
9F90
100
AcDbEntity
  8
1
  6
Continuous
100
AcDbCircle
 10
317.5198049999999
 20
262.4496279999998
 30
0.0
 40
2.778
100
AcDbArc
 50
189.90807
 51
212.19887
  0
ARC
  5
A098
330
9F90
100
AcDbEntity
  8
1
  6
Continuous
100
AcDbCircle
 10
329.8319
 20
262.4496279999998
 30
0.0
 40
2.778
100
AcDbArc
 50
189.90807
 51
212.14352
  0
ARC
  5
A099
330
9F90
100
AcDbEntity
  8
1
  6
Continuous
100
AcDbCircle
 10
324.878668
 20
262.4496279999998
 30
0.0
 40
2.778
100
AcDbArc
 50
189.90807
 51
212.14352
  0
LINE
  5
A09A
330
9F90
100
AcDbEntity
  8
1
  6
Continuous
100
AcDbLine
 10
306.3197999999998
 20
268.871625
 30
0.0
 11
306.3197999999998
 21
266.5716219999999
 31
0.0
  0
ARC
  5
A09B
330
9F90
100
AcDbEntity
  8
1
  6
Continuous
100
AcDbCircle
 10
312.3197999999998
 20
264.971623
 30
0.0
 40
3.0
100
AcDbArc
 50
211.5135599999999
 51
269.99998
  0
LINE
  5
A09C
330
9F90
100
AcDbEntity
  8
1
  6
Continuous
100
AcDbLine
 10
307.8198379999999
 20
266.5716450000001
 30
0.0
 11
309.76229
 21
263.403541
 31
0.0
  0
LINE
  5
A09D
330
9F90
100
AcDbEntity
  8
1
  6
Continuous
100
AcDbLine
 10
360.3197999999999
 20
255.9716169999999
 30
0.0
 11
360.3197999999999
 21
231.823477
 31
0.0
  0
LINE
  5
A09E
330
9F90
100
AcDbEntity
  8
1
  6
Continuous
100
AcDbLine
 10
509.2202229999998
 20
268.8716089999999
 30
0.0
 11
409.2202379999998
 21
268.8716089999999
 31
0.0
  0
LINE
  5
A09F
330
9F90
100
AcDbEntity
  8
1
  6
Continuous
100
AcDbLine
 10
509.2202229999998
 20
266.5716059999999
 30
0.0
 11
409.2202379999998
 21
266.5716059999999
 31
0.0
  0
LINE
  5
A0A0
330
9F90
100
AcDbEntity
  8
4
  6
CENTER
100
AcDbLine
 10
491.220223
 20
256.3725949999999
 30
0.0
 11
491.220223
 21
141.871609
 31
0.0
  0
LINE
  5
A0A1
330
9F90
100
AcDbEntity
  8
4
  6
CENTER
100
AcDbLine
 10
546.220223
 20
196.871609
 30
0.0
 11
436.220223
 21
196.871609
 31
0.0
  0
LINE
  5
A0A2
330
9F90
100
AcDbEntity
  8
1
  6
Continuous
100
AcDbLine
 10
481.679512
 20
191.3966819999999
 30
0.0
 11
481.2158649999998
 21
192.2065
 31
0.0
  0
LINE
  5
A0A3
330
9F90
100
AcDbEntity
  8
1
  6
Continuous
100
AcDbLine
 10
496.52819
 20
250.8315
 30
0.0
 11
501.758545
 21
201.785709
 31
0.0
  0
LINE
  5
A0A4
330
9F90
100
AcDbEntity
  8
1
  6
Continuous
100
AcDbLine
 10
480.2202229999998
 20
251.771612
 30
0.0
 11
480.2202229999998
 21
199.371609
 31
0.0
  0
LINE
  5
A0A5
330
9F90
100
AcDbEntity
  8
4
  6
CENTER
100
AcDbLine
 10
459.2202229999998
 20
274.335335
 30
0.0
 11
459.2202229999998
 21
214.6049389999999
 31
0.0
  0
ARC
  5
A0A6
330
9F90
100
AcDbEntity
  8
1
  6
Continuous
100
AcDbCircle
 10
491.220223
 20
196.871609
 30
0.0
 40
11.0
100
AcDbArc
 50
209.7924799999999
 51
6.08713
  0
LINE
  5
A0A7
330
9F90
100
AcDbEntity
  8
1
  6
Continuous
100
AcDbLine
 10
480.2202229999998
 20
260.9716049999998
 30
0.0
 11
439.2202229999998
 21
260.9716049999998
 31
0.0
  0
LINE
  5
A0A8
330
9F90
100
AcDbEntity
  8
1
  6
Continuous
100
AcDbLine
 10
482.220225
 20
261.9716069999999
 30
0.0
 11
436.220223
 21
261.9716069999999
 31
0.0
  0
ARC
  5
A0A9
330
9F90
100
AcDbEntity
  8
1
  6
Continuous
100
AcDbCircle
 10
480.2202229999998
 20
255.971604
 30
0.0
 40
5.0
100
AcDbArc
 50
1.09966
 51
90.00001800000005
  0
ARC
  5
A0AA
330
9F90
100
AcDbEntity
  8
1
  6
Continuous
100
AcDbCircle
 10
499.014094
 20
251.096602
 30
0.0
 40
2.5
100
AcDbArc
 50
79.99997999999997
 51
186.08715
  0
LINE
  5
A0AB
330
9F90
100
AcDbEntity
  8
1
  6
Continuous
100
AcDbLine
 10
500.508732
 20
253.371624
 30
0.0
 11
481.6165199999998
 21
256.70283
 31
0.0
  0
ARC
  5
A0AC
330
9F90
100
AcDbEntity
  8
1
  6
Continuous
100
AcDbCircle
 10
497.564969
 20
250.539781
 30
0.0
 40
1.0
100
AcDbArc
 50
79.99996999999997
 51
186.08715
  0
LINE
  5
A0AD
330
9F90
100
AcDbEntity
  8
1
  6
Continuous
100
AcDbLine
 10
500.109342
 20
251.1065659999999
 30
0.0
 11
497.7386169999999
 21
251.524589
 31
0.0
  0
LINE
  5
A0AE
330
9F90
100
AcDbEntity
  8
1
  6
Continuous
100
AcDbLine
 10
500.508732
 20
253.371624
 30
0.0
 11
500.109342
 21
251.1065659999999
 31
0.0
  0
LINE
  5
A0AF
330
9F90
100
AcDbEntity
  8
4
  6
CENTER
100
AcDbLine
 10
500.2202229999999
 20
271.871609
 30
0.0
 11
500.2202229999999
 21
263.571606
 31
0.0
  0
LINE
  5
A0B0
330
9F90
100
AcDbEntity
  8
1
  6
Continuous
100
AcDbLine
 10
509.2202379999998
 20
266.571614
 30
0.0
 11
509.2202379999998
 21
268.871617
 31
0.0
  0
ARC
  5
A0B1
330
9F90
100
AcDbEntity
  8
1
  6
Continuous
100
AcDbCircle
 10
482.220223
 20
264.971607
 30
0.0
 40
3.0
100
AcDbArc
 50
269.99998
 51
328.48641
  0
LINE
  5
A0B2
330
9F90
100
AcDbEntity
  8
1
  6
Continuous
100
AcDbLine
 10
486.720221
 20
266.5716269999999
 30
0.0
 11
484.777768
 21
263.4035169999999
 31
0.0
  0
ARC
  5
A0B3
330
9F90
100
AcDbEntity
  8
1
  6
Continuous
100
AcDbCircle
 10
438.2447359999998
 20
237.071608
 30
0.0
 40
15.0
100
AcDbArc
 50
29.79243
 51
90.00001800000005
  0
ARC
  5
A0B4
330
9F90
100
AcDbEntity
  8
1
  6
Continuous
100
AcDbCircle
 10
476.1326069999998
 20
262.4496119999998
 30
0.0
 40
2.778
100
AcDbArc
 50
327.85663
 51
350.0919
  0
ARC
  5
A0B5
330
9F90
100
AcDbEntity
  8
1
  6
Continuous
100
AcDbCircle
 10
473.5973669999999
 20
262.4496119999998
 30
0.0
 40
2.778
100
AcDbArc
 50
327.8566
 51
350.0919
  0
ARC
  5
A0B6
330
9F90
100
AcDbEntity
  8
1
  6
Continuous
100
AcDbCircle
 10
469.6613929999998
 20
262.4496119999998
 30
0.0
 40
2.778
100
AcDbArc
 50
327.8566
 51
350.0919
  0
ARC
  5
A0B7
330
9F90
100
AcDbEntity
  8
1
  6
Continuous
100
AcDbCircle
 10
464.708153
 20
262.4496119999998
 30
0.0
 40
2.778
100
AcDbArc
 50
327.8566
 51
350.0919
  0
ARC
  5
A0B8
330
9F90
100
AcDbEntity
  8
1
  6
Continuous
100
AcDbCircle
 10
477.0202489999999
 20
262.4496119999998
 30
0.0
 40
2.778
100
AcDbArc
 50
327.85663
 51
350.0919
  0
ARC
  5
A0B9
330
9F90
100
AcDbEntity
  8
1
  6
Continuous
100
AcDbCircle
 10
453.7323230000001
 20
262.4496119999998
 30
0.0
 40
2.778
100
AcDbArc
 50
189.90807
 51
212.1434199999999
  0
ARC
  5
A0BA
330
9F90
100
AcDbEntity
  8
1
  6
Continuous
100
AcDbCircle
 10
464.708153
 20
262.4496119999998
 30
0.0
 40
2.778
100
AcDbArc
 50
189.9080099999999
 51
212.1434199999999
  0
ARC
  5
A0BB
330
9F90
100
AcDbEntity
  8
1
  6
Continuous
100
AcDbCircle
 10
459.2202379999998
 20
262.4496119999998
 30
0.0
 40
2.778
100
AcDbArc
 50
327.8566
 51
350.0919
  0
ARC
  5
A0BC
330
9F90
100
AcDbEntity
  8
1
  6
Continuous
100
AcDbCircle
 10
453.7323230000001
 20
262.4496119999998
 30
0.0
 40
2.778
100
AcDbArc
 50
327.8566
 51
350.0919599999999
  0
ARC
  5
A0BD
330
9F90
100
AcDbEntity
  8
1
  6
Continuous
100
AcDbCircle
 10
459.2202379999998
 20
262.4496119999998
 30
0.0
 40
2.778
100
AcDbArc
 50
189.90807
 51
212.1434199999999
  0
ARC
  5
A0BE
330
9F90
100
AcDbEntity
  8
1
  6
Continuous
100
AcDbCircle
 10
439.2202229999998
 20
255.971605
 30
0.0
 40
5.0
100
AcDbArc
 50
90.0
 51
180.0
  0
LINE
  5
A0BF
330
9F90
100
AcDbEntity
  8
1
  6
Continuous
100
AcDbLine
 10
434.2202229999998
 20
255.971605
 30
0.0
 11
434.2202229999998
 21
252.071608
 31
0.0
  0
LINE
  5
A0C0
330
9F90
100
AcDbEntity
  8
1
  6
Continuous
100
AcDbLine
 10
438.2447359999998
 20
252.071608
 30
0.0
 11
434.2202229999998
 21
252.071608
 31
0.0
  0
LINE
  5
A0C1
330
9F90
100
AcDbEntity
  8
1
  6
Continuous
100
AcDbLine
 10
431.720225
 20
266.5716269999999
 30
0.0
 11
433.662678
 21
263.4035169999999
 31
0.0
  0
ARC
  5
A0C2
330
9F90
100
AcDbEntity
  8
1
  6
Continuous
100
AcDbCircle
 10
448.779084
 20
262.4496119999998
 30
0.0
 40
2.778
100
AcDbArc
 50
189.90807
 51
212.1434199999999
  0
ARC
  5
A0C3
330
9F90
100
AcDbEntity
  8
1
  6
Continuous
100
AcDbCircle
 10
442.3078689999998
 20
262.4496119999998
 30
0.0
 40
2.778
100
AcDbArc
 50
189.90807
 51
212.1433699999999
  0
ARC
  5
A0C4
330
9F90
100
AcDbEntity
  8
1
  6
Continuous
100
AcDbCircle
 10
444.8431099999998
 20
262.4496119999998
 30
0.0
 40
2.778
100
AcDbArc
 50
189.90807
 51
212.1433699999999
  0
ARC
  5
A0C5
330
9F90
100
AcDbEntity
  8
1
  6
Continuous
100
AcDbCircle
 10
436.220223
 20
264.971607
 30
0.0
 40
3.0
100
AcDbArc
 50
211.5135599999999
 51
269.99998
  0
ARC
  5
A0C6
330
9F90
100
AcDbEntity
  8
1
  6
Continuous
100
AcDbCircle
 10
441.420228
 20
262.4496119999998
 30
0.0
 40
2.778
100
AcDbArc
 50
189.90807
 51
212.1433699999999
  0
LINE
  5
A0C7
330
9F90
100
AcDbEntity
  8
4
  6
CENTER
100
AcDbLine
 10
418.2202229999998
 20
271.871609
 30
0.0
 11
418.2202229999998
 21
263.571606
 31
0.0
  0
LINE
  5
A0C8
330
9F90
100
AcDbEntity
  8
1
  6
Continuous
100
AcDbLine
 10
409.2202379999998
 20
266.5715979999998
 30
0.0
 11
409.2202379999998
 21
268.8716089999999
 31
0.0
  0
LINE
  5
A0C9
330
9F90
100
AcDbEntity
  8
1
  6
Continuous
100
AcDbLine
 10
180.2202229999998
 20
203.3716029999999
 30
0.0
 11
174.591062
 21
200.1216059999999
 31
0.0
  0
LINE
  5
A0CA
330
9F90
100
AcDbEntity
  8
1
  6
Continuous
100
AcDbLine
 10
174.591062
 20
200.1216059999999
 30
0.0
 11
174.591062
 21
193.621611
 31
0.0
  0
LINE
  5
A0CB
330
9F90
100
AcDbEntity
  8
1
  6
Continuous
100
AcDbLine
 10
174.591062
 20
193.621611
 30
0.0
 11
180.2202229999998
 21
190.371614
 31
0.0
  0
LINE
  5
A0CC
330
9F90
100
AcDbEntity
  8
1
  6
Continuous
100
AcDbLine
 10
180.2202229999998
 20
190.371614
 30
0.0
 11
185.849383
 21
193.621611
 31
0.0
  0
LINE
  5
A0CD
330
9F90
100
AcDbEntity
  8
1
  6
Continuous
100
AcDbLine
 10
185.849383
 20
193.621611
 30
0.0
 11
185.849383
 21
200.1216059999999
 31
0.0
  0
LINE
  5
A0CE
330
9F90
100
AcDbEntity
  8
1
  6
Continuous
100
AcDbLine
 10
185.849383
 20
200.1216059999999
 30
0.0
 11
180.2202229999998
 21
203.3716029999999
 31
0.0
  0
LINE
  5
A0CF
330
9F90
100
AcDbEntity
  8
1
  6
Continuous
100
AcDbLine
 10
88.22223199999998
 20
192.871609
 30
0.0
 11
87.42223199999996
 21
192.871609
 31
0.0
  0
LINE
  5
A0D0
330
9F90
100
AcDbEntity
  8
2
  6
Continuous
100
AcDbLine
 10
88.89873199999998
 20
193.548109
 30
0.0
 11
87.42223199999996
 21
193.548109
 31
0.0
  0
LINE
  5
A0D1
330
9F90
100
AcDbEntity
  8
1
  6
Continuous
100
AcDbLine
 10
88.22223199999998
 20
200.871609
 30
0.0
 11
87.42223199999996
 21
200.871609
 31
0.0
  0
LINE
  5
A0D2
330
9F90
100
AcDbEntity
  8
2
  6
Continuous
100
AcDbLine
 10
88.89873199999998
 20
200.1951089999999
 30
0.0
 11
87.42223199999996
 21
200.1951089999999
 31
0.0
  0
LINE
  5
A0D3
330
9F90
100
AcDbEntity
  8
1
  6
Continuous
100
AcDbLine
 10
89.42223199999999
 20
194.071609
 30
0.0
 11
88.22223199999998
 21
192.871609
 31
0.0
  0
LINE
  5
A0D4
330
9F90
100
AcDbEntity
  8
1
  6
Continuous
100
AcDbLine
 10
88.22223199999998
 20
192.871609
 30
0.0
 11
88.22223199999998
 21
200.871609
 31
0.0
  0
LINE
  5
A0D5
330
9F90
100
AcDbEntity
  8
1
  6
Continuous
100
AcDbLine
 10
89.42223199999999
 20
199.6716089999999
 30
0.0
 11
88.22223199999998
 21
200.871609
 31
0.0
  0
LINE
  5
A0D6
330
9F90
100
AcDbEntity
  8
1
  6
Continuous
100
AcDbLine
 10
89.42223199999999
 20
194.071609
 30
0.0
 11
89.42223199999999
 21
199.6716089999999
 31
0.0
  0
LINE
  5
A0D7
330
9F90
100
AcDbEntity
  8
1
  6
Continuous
100
AcDbLine
 10
184.220223
 20
104.873604
 30
0.0
 11
184.220223
 21
104.073604
 31
0.0
  0
LINE
  5
A0D8
330
9F90
100
AcDbEntity
  8
2
  6
Continuous
100
AcDbLine
 10
183.543723
 20
105.550104
 30
0.0
 11
183.543723
 21
104.073604
 31
0.0
  0
LINE
  5
A0D9
330
9F90
100
AcDbEntity
  8
1
  6
Continuous
100
AcDbLine
 10
176.2202229999997
 20
104.873604
 30
0.0
 11
176.2202229999997
 21
104.073604
 31
0.0
  0
LINE
  5
A0DA
330
9F90
100
AcDbEntity
  8
2
  6
Continuous
100
AcDbLine
 10
176.896723
 20
105.550104
 30
0.0
 11
176.896723
 21
104.073604
 31
0.0
  0
LINE
  5
A0DB
330
9F90
100
AcDbEntity
  8
1
  6
Continuous
100
AcDbLine
 10
183.0202229999999
 20
106.073604
 30
0.0
 11
184.220223
 21
104.873604
 31
0.0
  0
LINE
  5
A0DC
330
9F90
100
AcDbEntity
  8
1
  6
Continuous
100
AcDbLine
 10
184.220223
 20
104.873604
 30
0.0
 11
176.2202229999997
 21
104.873604
 31
0.0
  0
LINE
  5
A0DD
330
9F90
100
AcDbEntity
  8
1
  6
Continuous
100
AcDbLine
 10
177.420223
 20
106.073604
 30
0.0
 11
176.2202229999997
 21
104.873604
 31
0.0
  0
LINE
  5
A0DE
330
9F90
100
AcDbEntity
  8
1
  6
Continuous
100
AcDbLine
 10
183.0202229999999
 20
106.073604
 30
0.0
 11
177.420223
 21
106.073604
 31
0.0
  0
CIRCLE
  5
A0DF
330
9F90
100
AcDbEntity
  8
1
  6
Continuous
100
AcDbCircle
 10
180.2202229999998
 20
196.871609
 30
0.0
 40
2.799999999999998
  0
CIRCLE
  5
A0E0
330
9F90
100
AcDbEntity
  8
1
  6
Continuous
100
AcDbCircle
 10
180.2202229999998
 20
196.871609
 30
0.0
 40
5.102012999999998
  0
ARC
  5
A0E9
330
9F90
100
AcDbEntity
  8
1
  6
Continuous
100
AcDbCircle
 10
379.7375599999999
 20
231.823477
 30
0.0
 40
69.417761
100
AcDbArc
 50
164.295714
 51
205.1964439999999
  0
ARC
  5
A0EA
330
9F90
100
AcDbEntity
  8
1
  6
Continuous
100
AcDbCircle
 10
290.902039
 20
231.823477
 30
0.0
 40
69.417761
100
AcDbArc
 50
334.8035469999998
 51
15.70428599999999
  0
LINE
  5
A0EB
330
9F90
100
AcDbEntity
  8
1
  6
Continuous
100
AcDbLine
 10
354.1082819999999
 20
203.1216249999999
 30
0.0
 11
354.819792
 21
203.1216249999999
 31
0.0
  0
ARC
  5
A0EC
330
9F90
100
AcDbEntity
  8
1
  6
Continuous
100
AcDbCircle
 10
290.902039
 20
231.823477
 30
0.0
 40
67.117761
100
AcDbArc
 50
334.8035659999998
 51
17.55857599999999
  0
ARC
  5
A0ED
330
9F90
100
AcDbEntity
  8
1
  6
Continuous
100
AcDbCircle
 10
379.7375599999999
 20
231.823477
 30
0.0
 40
67.117761
100
AcDbArc
 50
162.441424
 51
205.196434
  0
ARC
  5
A0EE
330
9F90
100
AcDbEntity
  8
1
  6
Continuous
100
AcDbCircle
 10
335.3197999999999
 20
379.6020149999998
 30
0.0
 40
128.4999999999998
100
AcDbArc
 50
263.34847
 51
276.6515
  0
ARC
  5
A0EF
330
9F90
100
AcDbEntity
  8
1
  6
Continuous
100
AcDbCircle
 10
320.3197999999998
 20
250.973676
 30
0.0
 40
1.0
100
AcDbArc
 50
83.348539
 51
179.9999599999999
  0
ARC
  5
A0F0
330
9F90
100
AcDbEntity
  8
1
  6
Continuous
100
AcDbCircle
 10
350.3197999999999
 20
250.973676
 30
0.0
 40
1.0
100
AcDbArc
 50
0.00004
 51
96.65146100000001
  0
LINE
  5
A0F1
330
9F90
100
AcDbEntity
  8
1
  6
Continuous
100
AcDbLine
 10
314.8364029999999
 20
252.071608
 30
0.0
 11
355.803196
 21
252.071608
 31
0.0
  0
ARC
  5
A0F2
330
9F90
100
AcDbEntity
  8
1
  6
Continuous
100
AcDbCircle
 10
355.803196
 20
250.071608
 30
0.0
 40
2.0
100
AcDbArc
 50
15.70428599999999
 51
90.0
  0
ARC
  5
A0F3
330
9F90
100
AcDbEntity
  8
1
  6
Continuous
100
AcDbCircle
 10
314.8364029999999
 20
250.071608
 30
0.0
 40
2.0
100
AcDbArc
 50
90.0
 51
164.295714
  0
ARC
  5
A0F4
330
9F90
100
AcDbEntity
  8
1
  6
Continuous
100
AcDbCircle
 10
193.6808049999999
 20
96.17160900000001
 30
0.0
 40
6.299999999999998
100
AcDbArc
 50
270.0
 51
309.738916
  0
ARC
  5
A0F5
330
9F90
100
AcDbEntity
  8
1
  6
Continuous
100
AcDbCircle
 10
193.6808049999999
 20
51.571609
 30
0.0
 40
6.299999999999998
100
AcDbArc
 50
50.261084
 51
57.58579499999999
  0
ARC
  5
A0F6
330
9F90
100
AcDbEntity
  8
1
  6
Continuous
100
AcDbCircle
 10
193.680793
 20
51.571619
 30
0.0
 40
4.0
100
AcDbArc
 50
50.26105300000001
 51
68.288744
  0
ARC
  5
A0F7
330
9F90
100
AcDbEntity
  8
1
  6
Continuous
100
AcDbCircle
 10
316.0197999999998
 20
201.8450179999999
 30
0.0
 40
3.299999999999998
100
AcDbArc
 50
0.0
 51
25.196434
  0
ARC
  5
A0F8
330
9F90
100
AcDbEntity
  8
1
  6
Continuous
100
AcDbCircle
 10
354.6197999999998
 20
201.8450179999999
 30
0.0
 40
3.299999999999998
100
AcDbArc
 50
154.803566
 51
180.0
  0
LINE
  5
A0F9
330
9F90
100
AcDbEntity
  8
1
  6
Continuous
100
AcDbLine
 10
304.5198199999998
 20
201.980709
 30
0.0
 11
315.1310409999998
 21
201.980709
 31
0.0
  0
LINE
  5
A0FA
330
9F90
100
AcDbEntity
  8
1
  6
Continuous
100
AcDbLine
 10
305.838301
 20
213.7464249999999
 30
0.0
 11
312.714835
 21
213.7464249999999
 31
0.0
  0
ARC
  5
A0FB
330
9F90
100
AcDbEntity
  8
1
  6
Continuous
100
AcDbCircle
 10
302.8698109999999
 20
202.7801469999999
 30
0.0
 40
19.97969399999998
100
AcDbArc
 50
245.1419
 51
294.8581019999998
  0
ARC
  5
A0FC
330
9F90
100
AcDbEntity
  8
1
  6
Continuous
100
AcDbCircle
 10
302.8698109999999
 20
204.8184159999999
 30
0.0
 40
19.97969399999998
100
AcDbArc
 50
245.1419
 51
294.8581019999998
  0
ARC
  5
A0FD
330
9F90
100
AcDbEntity
  8
1
  6
Continuous
100
AcDbCircle
 10
306.7698199999998
 20
210.725414
 30
0.0
 40
19.97969399999998
100
AcDbArc
 50
79.72191099999998
 51
114.8581139999999
  0
LINE
  5
A0FE
330
9F90
100
AcDbEntity
  8
1
  6
Continuous
100
AcDbLine
 10
195.9307569999998
 20
311.071599
 30
0.0
 11
215.590135
 21
300.214741
 31
0.0
  0
LINE
  5
A0FF
330
9F90
100
AcDbEntity
  8
1
  6
Continuous
100
AcDbLine
 10
153.9677899999998
 20
303.5654339999998
 30
0.0
 11
174.8412649999999
 21
310.932225
 31
0.0
  0
LINE
  5
A100
330
9F90
100
AcDbEntity
  8
1
  6
Continuous
100
AcDbLine
 10
196.995699
 20
311.072316
 30
0.0
 11
216.6556259999999
 21
300.214802
 31
0.0
  0
ARC
  5
A101
330
9F90
100
AcDbEntity
  8
1
  6
Continuous
100
AcDbCircle
 10
153.2558459999999
 20
313.321614
 30
0.0
 40
11.20420599999998
100
AcDbArc
 50
138.4524829999998
 51
221.5475129999999
  0
ARC
  5
A102
330
9F90
100
AcDbEntity
  8
1
  6
Continuous
100
AcDbCircle
 10
152.1902639999999
 20
313.321614
 30
0.0
 40
11.20420599999998
100
AcDbArc
 50
138.4524829999998
 51
221.5475129999999
  0
ARC
  5
A103
330
9F90
100
AcDbEntity
  8
1
  6
Continuous
100
AcDbCircle
 10
218.581758
 20
309.4216049999999
 30
0.0
 40
11.20420599999998
100
AcDbArc
 50
318.452482
 51
17.933953
  0
LINE
  5
A104
330
9F90
100
AcDbEntity
  8
1
  6
Continuous
100
AcDbLine
 10
77.82022099999998
 20
183.537181
 30
0.0
 11
77.82022099999998
 21
223.9180409999999
 31
0.0
  0
LINE
  5
A105
330
9F90
100
AcDbEntity
  8
1
  6
Continuous
100
AcDbLine
 10
98.89019799999999
 20
191.936573
 30
0.0
 11
89.23230699999995
 21
200.8317219999999
 31
0.0
  0
LINE
  5
A106
330
9F90
100
AcDbEntity
  8
1
  6
Continuous
100
AcDbLine
 10
77.46900899999999
 20
182.2286489999999
 30
0.0
 11
80.02775600000003
 21
182.2286489999999
 31
0.0
  0
LINE
  5
A11A
330
9F90
100
AcDbEntity
  8
1
  6
Continuous
100
AcDbLine
 10
75.520218
 20
191.936229
 30
0.0
 11
73.520218
 21
191.936229
 31
0.0
  0
LINE
  5
A11B
330
9F90
100
AcDbEntity
  8
1
  6
Continuous
100
AcDbLine
 10
73.520218
 20
191.936229
 30
0.0
 11
73.520218
 21
186.886516
 31
0.0
  0
LINE
  5
A11C
330
9F90
100
AcDbEntity
  8
1
  6
Continuous
100
AcDbLine
 10
75.520218
 20
189.89793
 30
0.0
 11
73.520218
 21
189.89793
 31
0.0
  0
LINE
  5
A11D
330
9F90
100
AcDbEntity
  8
1
  6
Continuous
100
AcDbLine
 10
75.520218
 20
186.886516
 30
0.0
 11
73.520218
 21
186.886516
 31
0.0
  0
LINE
  5
A11E
330
9F90
100
AcDbEntity
  8
1
  6
Continuous
100
AcDbLine
 10
75.520218
 20
183.979137
 30
0.0
 11
77.82022099999998
 21
183.979137
 31
0.0
  0
ARC
  5
A11F
330
9F90
100
AcDbEntity
  8
1
  6
Continuous
100
AcDbCircle
 10
76.52022499999998
 20
183.4250290872663
 30
0.0
 40
1.0
100
AcDbArc
 50
180.000005
 51
248.765079
  0
ARC
  5
A120
330
9F90
100
AcDbEntity
  8
1
  6
Continuous
100
AcDbCircle
 10
78.82022099999997
 20
183.5371810872664
 30
0.0
 40
1.0
100
AcDbArc
 50
180.000005
 51
244.6392619999998
  0
LINE
  5
A134
330
9F90
100
AcDbEntity
  8
1
  6
Continuous
100
AcDbLine
 10
89.42223199999999
 20
198.618537
 30
0.0
 11
98.890205
 21
189.8982879999999
 31
0.0
  0
ARC
  5
A135
330
9F90
100
AcDbEntity
  8
1
  6
Continuous
100
AcDbCircle
 10
89.67022699999999
 20
202.780132
 30
0.0
 40
19.97969399999998
100
AcDbArc
 50
246.5527779999999
 51
294.8581159999998
  0
LINE
  5
A136
330
9F90
100
AcDbEntity
  8
1
  6
Continuous
100
AcDbLine
 10
79.42022699999998
 20
180.1423139999999
 30
0.0
 11
79.42022699999998
 21
182.2286489999999
 31
0.0
  0
LINE
  5
A137
330
9F90
100
AcDbEntity
  8
1
  6
Continuous
100
AcDbLine
 10
79.42022699999998
 20
180.1423139999999
 30
0.0
 11
81.72022199999998
 21
180.1423139999999
 31
0.0
  0
LINE
  5
A138
330
9F90
100
AcDbEntity
  8
1
  6
Continuous
100
AcDbLine
 10
81.72022199999998
 20
180.1423139999999
 30
0.0
 11
81.72022199999998
 21
188.4716089999997
 31
0.0
  0
ARC
  5
A139
330
9F90
100
AcDbEntity
  8
1
  6
Continuous
100
AcDbCircle
 10
81.22013800000003
 20
181.949474
 30
0.0
 40
0.5
100
AcDbArc
 50
359.999997
 51
111.2173639999999
  0
LINE
  5
A13A
330
9F90
100
AcDbEntity
  8
1
  6
Continuous
100
AcDbLine
 10
99.92022699999999
 20
187.549236
 30
0.0
 11
99.92022699999999
 21
189.5875049999999
 31
0.0
  0
ARC
  5
A13B
330
9F90
100
AcDbEntity
  8
1
  6
Continuous
100
AcDbCircle
 10
96.726646
 20
187.549236
 30
0.0
 40
3.193579
100
AcDbArc
 50
294.8581019999998
 51
47.354091
  0
ARC
  5
A13C
330
9F90
100
AcDbEntity
  8
1
  6
Continuous
100
AcDbCircle
 10
96.726646
 20
189.5875049999999
 30
0.0
 40
3.193579
100
AcDbArc
 50
359.999997
 51
47.354176
  0
LINE
  5
A13D
330
9F90
100
AcDbEntity
  8
1
  6
Continuous
100
AcDbLine
 10
87.63788599999998
 20
210.967754
 30
0.0
 11
77.82022099999998
 21
210.967754
 31
0.0
  0
ARC
  5
A13E
330
9F90
100
AcDbEntity
  8
1
  6
Continuous
100
AcDbCircle
 10
85.770218
 20
210.725414
 30
0.0
 40
19.97969399999998
100
AcDbArc
 50
65.14189800000001
 51
114.8580999999998
  0
ARC
  5
A13F
330
9F90
100
AcDbEntity
  8
1
  6
Continuous
100
AcDbCircle
 10
85.770218
 20
208.6871449999999
 30
0.0
 40
19.97969399999998
100
AcDbArc
 50
65.14189800000001
 51
114.8580999999998
  0
LINE
  5
A140
330
9F90
100
AcDbEntity
  8
1
  6
Continuous
100
AcDbLine
 10
73.520218
 20
217.233867
 30
0.0
 11
73.520218
 21
222.0519519999998
 31
0.0
  0
LINE
  5
A141
330
9F90
100
AcDbEntity
  8
1
  6
Continuous
100
AcDbLine
 10
75.520218
 20
220.0136829999999
 30
0.0
 11
73.520218
 21
220.0136829999999
 31
0.0
  0
LINE
  5
A142
330
9F90
100
AcDbEntity
  8
1
  6
Continuous
100
AcDbLine
 10
75.520218
 20
217.233867
 30
0.0
 11
73.520218
 21
217.233867
 31
0.0
  0
LINE
  5
A143
330
9F90
100
AcDbEntity
  8
1
  6
Continuous
100
AcDbLine
 10
75.520218
 20
208.2555649999999
 30
0.0
 11
77.82022099999998
 21
208.2555649999999
 31
0.0
  0
LINE
  5
A144
330
9F90
100
AcDbEntity
  8
1
  6
Continuous
100
AcDbLine
 10
75.520218
 20
222.0519519999998
 30
0.0
 11
73.520218
 21
222.0519519999998
 31
0.0
  0
LINE
  5
A145
330
9F90
100
AcDbEntity
  8
1
  6
Continuous
100
AcDbLine
 10
75.520218
 20
223.9180409999999
 30
0.0
 11
77.82022099999998
 21
223.9180409999999
 31
0.0
  0
ARC
  5
A146
330
9F90
100
AcDbEntity
  8
1
  6
Continuous
100
AcDbCircle
 10
78.71379799999998
 20
225.95631
 30
0.0
 40
3.193579
100
AcDbArc
 50
114.8580999999998
 51
180.000005
  0
ARC
  5
A147
330
9F90
100
AcDbEntity
  8
1
  6
Continuous
100
AcDbCircle
 10
78.71379799999998
 20
223.9180409999999
 30
0.0
 40
3.193579
100
AcDbArc
 50
114.8580999999998
 51
180.000005
  0
LINE
  5
A148
330
9F90
100
AcDbEntity
  8
1
  6
Continuous
100
AcDbLine
 10
87.63789399999996
 20
210.967769
 30
0.0
 11
95.440521
 21
222.0832169999999
 31
0.0
  0
ARC
  5
A149
330
9F90
100
AcDbEntity
  8
1
  6
Continuous
100
AcDbCircle
 10
96.00692700000001
 20
208.187267
 30
0.0
 40
10.0
100
AcDbArc
 50
207.5165319999999
 51
227.4797379999999
  0
ARC
  5
A14A
330
9F90
100
AcDbEntity
  8
1
  6
Continuous
100
AcDbCircle
 10
116.76458
 20
219.000652
 30
0.0
 40
33.40532299999999
100
AcDbArc
 50
195.562253
 51
207.5165319999999
  0
ARC
  5
A14B
330
9F90
100
AcDbEntity
  8
1
  6
Continuous
100
AcDbCircle
 10
91.87738799999999
 20
209.2263599999999
 30
0.0
 40
7.346719999999997
100
AcDbArc
 50
175.5108769999999
 51
197.296189
  0
ARC
  5
A14C
330
9F90
100
AcDbEntity
  8
1
  6
Continuous
100
AcDbCircle
 10
86.91598499999996
 20
209.615886
 30
0.0
 40
2.370054
100
AcDbArc
 50
145.2214469999999
 51
175.5108769999999
  0
ARC
  5
A14D
330
9F90
100
AcDbEntity
  8
1
  6
Continuous
100
AcDbCircle
 10
116.7580339999999
 20
216.9739799999999
 30
0.0
 40
33.40532299999999
100
AcDbArc
 50
196.4368179999999
 51
204.7987319999998
  0
ARC
  5
A14E
330
9F90
100
AcDbEntity
  8
1
  6
Continuous
100
AcDbCircle
 10
92.826637
 20
225.95631
 30
0.0
 40
3.193579
100
AcDbArc
 50
359.999997
 51
65.14189800000001
  0
ARC
  5
A14F
330
9F90
100
AcDbEntity
  8
1
  6
Continuous
100
AcDbCircle
 10
92.826637
 20
223.9180409999999
 30
0.0
 40
3.193579
100
AcDbArc
 50
324.932596
 51
65.14189800000001
  0
LINE
  5
A150
330
9F90
100
AcDbEntity
  8
1
  6
Continuous
100
AcDbLine
 10
96.02021800000001
 20
223.9180409999999
 30
0.0
 11
96.02021800000001
 21
225.95631
 31
0.0
  0
LINE
  5
A151
330
9F90
100
AcDbEntity
  8
1
  6
Continuous
100
AcDbLine
 10
222.7384199999999
 20
96.07161300000001
 30
0.0
 11
222.7384199999999
 21
98.37161600000001
 31
0.0
  0
LINE
  5
A152
330
9F90
100
AcDbEntity
  8
1
  6
Continuous
100
AcDbLine
 10
195.9307569999998
 20
102.7659639999999
 30
0.0
 11
195.9307569999998
 21
95.67151200000001
 31
0.0
  0
LINE
  5
A153
330
9F90
100
AcDbEntity
  8
1
  6
Continuous
100
AcDbLine
 10
173.775667
 20
103.711887
 30
0.0
 11
173.775667
 21
99.52886499999999
 31
0.0
  0
LINE
  5
A154
330
9F90
100
AcDbEntity
  8
1
  6
Continuous
100
AcDbLine
 10
196.3684409999999
 20
94.47160700000001
 30
0.0
 11
203.4580709999999
 21
98.37160799999999
 31
0.0
  0
ARC
  5
A155
330
9F90
100
AcDbEntity
  8
1
  6
Continuous
100
AcDbCircle
 10
220.702349
 20
104.4423249999999
 30
0.0
 40
8.370708999999997
100
AcDbArc
 50
284.077735
 51
318.452482
  0
ARC
  5
A156
330
9F90
100
AcDbEntity
  8
1
  6
Continuous
100
AcDbCircle
 10
219.6367659999999
 20
104.4423249999999
 30
0.0
 40
8.370708999999997
100
AcDbArc
 50
291.7487679999998
 51
318.452482
  0
ARC
  5
A157
330
9F90
100
AcDbEntity
  8
1
  6
Continuous
100
AcDbCircle
 10
152.190248
 20
102.4216039999999
 30
0.0
 40
11.20420599999998
100
AcDbArc
 50
138.4524829999998
 51
221.5475129999999
  0
LINE
  5
A158
330
9F90
100
AcDbEntity
  8
1
  6
Continuous
100
AcDbLine
 10
196.9593069999999
 20
92.171604
 30
0.0
 11
145.99164
 21
92.171604
 31
0.0
  0
LINE
  5
A159
330
9F90
100
AcDbEntity
  8
1
  6
Continuous
100
AcDbLine
 10
196.3684409999999
 20
94.47160700000001
 30
0.0
 11
145.99164
 21
94.47160700000001
 31
0.0
  0
LINE
  5
A15A
330
9F90
100
AcDbEntity
  8
1
  6
Continuous
100
AcDbLine
 10
163.92087
 20
90.17160399999999
 30
0.0
 11
157.538027
 21
90.17160399999999
 31
0.0
  0
LINE
  5
A15B
330
9F90
100
AcDbEntity
  8
1
  6
Continuous
100
AcDbLine
 10
145.99164
 20
92.171604
 30
0.0
 11
145.99164
 21
94.47160700000001
 31
0.0
  0
ARC
  5
A15C
330
9F90
100
AcDbEntity
  8
1
  6
Continuous
100
AcDbCircle
 10
150.0696429999998
 20
100.542316
 30
0.0
 40
8.370708999999997
100
AcDbArc
 50
221.547517
 51
240.844905
  0
LINE
  5
A15D
330
9F90
100
AcDbEntity
  8
1
  6
Continuous
100
AcDbLine
 10
157.538027
 20
92.171604
 30
0.0
 11
157.538027
 21
90.17160399999999
 31
0.0
  0
LINE
  5
A15E
330
9F90
100
AcDbEntity
  8
1
  6
Continuous
100
AcDbLine
 10
162.855287
 20
92.171604
 30
0.0
 11
162.855287
 21
90.17160399999999
 31
0.0
  0
LINE
  5
A15F
330
9F90
100
AcDbEntity
  8
1
  6
Continuous
100
AcDbLine
 10
155.843599
 20
92.171604
 30
0.0
 11
155.843599
 21
94.47160700000001
 31
0.0
  0
LINE
  5
A160
330
9F90
100
AcDbEntity
  8
1
  6
Continuous
100
AcDbLine
 10
163.92087
 20
92.171604
 30
0.0
 11
163.92087
 21
90.17160399999999
 31
0.0
  0
LINE
  5
A161
330
9F90
100
AcDbEntity
  8
1
  6
Continuous
100
AcDbLine
 10
165.1524219999997
 20
92.171604
 30
0.0
 11
165.1524219999997
 21
94.47160700000001
 31
0.0
  0
LINE
  5
A162
330
9F90
100
AcDbEntity
  8
1
  6
Continuous
100
AcDbLine
 10
189.079927
 20
92.171604
 30
0.0
 11
189.079927
 21
94.47160700000001
 31
0.0
  0
LINE
  5
A163
330
9F90
100
AcDbEntity
  8
1
  6
Continuous
100
AcDbLine
 10
222.7384199999999
 20
96.07161300000001
 30
0.0
 11
204.048952
 21
96.07161300000001
 31
0.0
  0
LINE
  5
A164
330
9F90
100
AcDbEntity
  8
1
  6
Continuous
100
AcDbLine
 10
196.9593069999999
 20
92.171604
 30
0.0
 11
204.048937
 21
96.071605
 31
0.0
  0
LINE
  5
A165
330
9F90
100
AcDbEntity
  8
1
  6
Continuous
100
AcDbLine
 10
215.144091
 20
90.17160399999999
 30
0.0
 11
221.9700029999999
 21
90.17160399999999
 31
0.0
  0
LINE
  5
A166
330
9F90
100
AcDbEntity
  8
1
  6
Continuous
100
AcDbLine
 10
221.9700029999999
 20
96.07161300000001
 30
0.0
 11
221.9700029999999
 21
90.17160399999999
 31
0.0
  0
LINE
  5
A167
330
9F90
100
AcDbEntity
  8
1
  6
Continuous
100
AcDbLine
 10
215.144091
 20
96.07161300000001
 30
0.0
 11
215.144091
 21
90.17160399999999
 31
0.0
  0
LINE
  5
A168
330
9F90
100
AcDbEntity
  8
1
  6
Continuous
100
AcDbLine
 10
220.904421
 20
96.07161300000001
 30
0.0
 11
220.904421
 21
90.17160399999999
 31
0.0
  0
LINE
  5
A169
330
9F90
100
AcDbEntity
  8
5
  6
PHANTOM
100
AcDbLine
 10
194.8035329999999
 20
210.3261929999999
 30
0.0
 11
199.4878809999999
 21
196.7847319999999
 31
0.0
  0
ARC
  5
A16A
330
9F90
100
AcDbEntity
  8
1
  6
Continuous
100
AcDbCircle
 10
186.882631
 20
113.1372409999999
 30
0.0
 40
12.391586
100
AcDbArc
 50
266.9357189999999
 51
316.9144149999999
  0
ARC
  5
A16B
330
9F90
100
AcDbEntity
  8
5
  6
PHANTOM
100
AcDbCircle
 10
187.6306199999999
 20
220.597848
 30
0.0
 40
10.0
100
AcDbArc
 50
258.754791
 51
289.0818689999998
  0
ARC
  5
A16C
330
9F90
100
AcDbEntity
  8
5
  6
PHANTOM
100
AcDbCircle
 10
181.9303439999999
 20
191.9280159999999
 30
0.0
 40
21.531025
100
AcDbArc
 50
78.75481999999998
 51
139.408898
  0
ARC
  5
A16D
330
9F90
100
AcDbEntity
  8
5
  6
PHANTOM
100
AcDbCircle
 10
191.147834
 20
210.442791
 30
0.0
 40
16.003084
100
AcDbArc
 50
284.5521969999998
 51
338.274872
  0
ARC
  5
A16E
330
9F90
100
AcDbEntity
  8
5
  6
PHANTOM
100
AcDbCircle
 10
177.6559959999999
 20
204.284208
 30
0.0
 40
19.84358
100
AcDbArc
 50
246.213143
 51
331.9505819999998
  0
ARC
  5
A16F
330
9F90
100
AcDbEntity
  8
5
  6
PHANTOM
100
AcDbCircle
 10
163.242635
 20
200.7896479999998
 30
0.0
 40
16.003084
100
AcDbArc
 50
239.888825
 51
293.6114939999999
  0
LINE
  5
A170
330
9F90
100
AcDbEntity
  8
1
  6
Continuous
100
AcDbLine
 10
153.3284659999999
 20
112.0111999999999
 30
0.0
 11
173.8311629999999
 21
104.7833669999999
 31
0.0
  0
LINE
  5
A171
330
9F90
100
AcDbEntity
  8
1
  6
Continuous
100
AcDbLine
 10
154.394155
 20
112.011154
 30
0.0
 11
174.896761
 21
104.7833589999999
 31
0.0
  0
ARC
  5
A172
330
9F90
100
AcDbEntity
  8
1
  6
Continuous
100
AcDbCircle
 10
150.0696429999998
 20
104.3008909999999
 30
0.0
 40
8.370708999999997
100
AcDbArc
 50
67.088265
 51
138.4524829999998
  0
ARC
  5
A173
330
9F90
100
AcDbEntity
  8
1
  6
Continuous
100
AcDbCircle
 10
151.1352249999999
 20
104.3008909999999
 30
0.0
 40
8.370708999999997
100
AcDbArc
 50
67.08746999999999
 51
90.00000300000001
  0
LINE
  5
A174
330
9F90
100
AcDbEntity
  8
1
  6
Continuous
100
AcDbLine
 10
150.0696429999998
 20
112.671604
 30
0.0
 11
151.1352249999999
 21
112.671604
 31
0.0
  0
ARC
  5
A175
330
9F90
100
AcDbEntity
  8
1
  6
Continuous
100
AcDbCircle
 10
196.3827379999999
 20
148.038372
 30
0.0
 40
48.297459
100
AcDbArc
 50
243.5851219999999
 51
245.6616009999999
  0
ARC
  5
A176
330
9F90
100
AcDbEntity
  8
1
  6
Continuous
100
AcDbCircle
 10
195.317156
 20
148.038387
 30
0.0
 40
48.297459
100
AcDbArc
 50
243.5851219999999
 51
246.0387809999999
  0
ARC
  5
A177
330
9F90
100
AcDbEntity
  8
1
  6
Continuous
100
AcDbCircle
 10
187.948229
 20
113.137226
 30
0.0
 40
12.391586
100
AcDbArc
 50
261.9839819999999
 51
267.5354399999998
  0
LINE
  5
A178
330
9F90
100
AcDbEntity
  8
5
  6
PHANTOM
100
AcDbLine
 10
130.170964
 20
190.1395729999999
 30
0.0
 11
163.002306
 21
201.496792
 31
0.0
  0
LINE
  5
A179
330
9F90
100
AcDbEntity
  8
5
  6
PHANTOM
100
AcDbLine
 10
129.4190519999999
 20
192.313195
 30
0.0
 11
162.250404
 21
203.670426
 31
0.0
  0
LINE
  5
A17A
330
9F90
100
AcDbEntity
  8
5
  6
PHANTOM
100
AcDbLine
 10
147.8220279999999
 20
196.245651
 30
0.0
 11
148.802807
 21
193.410423
 31
0.0
  0
ARC
  5
A17B
330
9F90
100
AcDbEntity
  8
5
  6
PHANTOM
100
AcDbCircle
 10
147.942441
 20
197.3814909999999
 30
0.0
 40
12.45549699999999
100
AcDbArc
 50
203.844424
 51
260.2368699999999
  0
LINE
  5
A17C
330
9F90
100
AcDbEntity
  8
5
  6
PHANTOM
100
AcDbLine
 10
153.4923339999997
 20
198.207162
 30
0.0
 11
154.4731129999999
 21
195.371934
 31
0.0
  0
LINE
  5
A17D
330
9F90
100
AcDbEntity
  8
5
  6
PHANTOM
100
AcDbLine
 10
148.802765
 20
193.410378
 30
0.0
 11
154.473125
 21
195.371902
 31
0.0
  0
LINE
  5
A17E
330
9F90
100
AcDbEntity
  8
5
  6
PHANTOM
100
AcDbLine
 10
155.214211
 20
186.946109
 30
0.0
 11
145.8302939999998
 21
185.106371
 31
0.0
  0
LINE
  5
A17F
330
9F90
100
AcDbEntity
  8
5
  6
PHANTOM
100
AcDbLine
 10
130.1708649999999
 20
190.139645
 30
0.0
 11
129.4189529999999
 21
192.3132679999999
 31
0.0
  0
ARC
  5
A180
330
9F90
100
AcDbEntity
  8
1
  6
Continuous
100
AcDbCircle
 10
151.1352399999998
 20
311.4423259999998
 30
0.0
 40
8.370708999999997
100
AcDbArc
 50
221.547517
 51
289.7786679999999
  0
ARC
  5
A181
330
9F90
100
AcDbEntity
  8
1
  6
Continuous
100
AcDbCircle
 10
150.069658
 20
311.4423259999998
 30
0.0
 40
8.370708999999997
100
AcDbArc
 50
221.547517
 51
273.6493129999999
  0
ARC
  5
A182
330
9F90
100
AcDbEntity
  8
5
  6
PHANTOM
100
AcDbCircle
 10
181.9303439999999
 20
191.9280159999999
 30
0.0
 40
19.23102399999998
100
AcDbArc
 50
78.7548
 51
139.408925
  0
ARC
  5
A183
330
9F90
100
AcDbEntity
  8
5
  6
PHANTOM
100
AcDbCircle
 10
159.733105
 20
210.9473589999999
 30
0.0
 40
10.0
100
AcDbArc
 50
289.0818689999998
 51
319.40892
  0
ARC
  5
A184
330
9F90
100
AcDbEntity
  8
5
  6
PHANTOM
100
AcDbCircle
 10
159.733105
 20
210.9473589999999
 30
0.0
 40
7.7
100
AcDbArc
 50
289.0818689999998
 51
319.4089
  0
LINE
  5
A185
330
9F90
100
AcDbEntity
  8
5
  6
PHANTOM
100
AcDbLine
 10
190.147909
 20
213.3209029999999
 30
0.0
 11
222.979246
 21
224.6781279999999
 31
0.0
  0
LINE
  5
A186
330
9F90
100
AcDbEntity
  8
5
  6
PHANTOM
100
AcDbLine
 10
190.899832
 20
211.1472919999999
 30
0.0
 11
223.731158
 21
222.5045059999999
 31
0.0
  0
ARC
  5
A19A
330
9F90
100
AcDbEntity
  8
1
  6
Continuous
100
AcDbCircle
 10
220.702349
 20
108.2009009999999
 30
0.0
 40
8.370708999999997
100
AcDbArc
 50
41.54751799999998
 51
90.00000300000001
  0
ARC
  5
A19B
330
9F90
100
AcDbEntity
  8
1
  6
Continuous
100
AcDbCircle
 10
217.5161609999999
 20
106.3216129999997
 30
0.0
 40
11.20420599999998
100
AcDbArc
 50
318.452482
 51
41.54751799999998
  0
LINE
  5
A19C
330
9F90
100
AcDbEntity
  8
1
  6
Continuous
100
AcDbLine
 10
222.7384199999999
 20
98.37161600000001
 30
0.0
 11
203.458086
 21
98.37161600000001
 31
0.0
  0
LINE
  5
A19D
330
9F90
100
AcDbEntity
  8
1
  6
Continuous
100
AcDbLine
 10
195.9311689999999
 20
104.671749
 30
0.0
 11
215.59009
 21
115.528461
 31
0.0
  0
LINE
  5
A19E
330
9F90
100
AcDbEntity
  8
1
  6
Continuous
100
AcDbLine
 10
219.6367659999999
 20
116.5716129999997
 30
0.0
 11
220.702349
 21
116.5716129999997
 31
0.0
  0
ARC
  5
A19F
330
9F90
100
AcDbEntity
  8
1
  6
Continuous
100
AcDbCircle
 10
219.6367659999999
 20
108.2009009999999
 30
0.0
 40
8.370708999999997
100
AcDbArc
 50
41.54751799999998
 51
118.9098639999997
  0
LINE
  5
A1A0
330
9F90
100
AcDbEntity
  8
5
  6
PHANTOM
100
AcDbLine
 10
206.0142139999999
 20
204.5191879999999
 30
0.0
 11
214.5291009999999
 21
208.871126
 31
0.0
  0
LINE
  5
A1A1
330
9F90
100
AcDbEntity
  8
5
  6
PHANTOM
100
AcDbLine
 10
205.214738
 20
210.8084999999999
 30
0.0
 11
211.357571
 21
212.9334669999999
 31
0.0
  0
LINE
  5
A1A2
330
9F90
100
AcDbEntity
  8
5
  6
PHANTOM
100
AcDbLine
 10
202.3639699999999
 20
212.9415499999999
 30
0.0
 11
205.6033649999998
 21
203.57712
 31
0.0
  0
LINE
  5
A1A3
330
9F90
100
AcDbEntity
  8
5
  6
PHANTOM
100
AcDbLine
 10
203.580108
 20
215.533842
 30
0.0
 11
205.214731
 21
210.808527
 31
0.0
  0
LINE
  5
A1A4
330
9F90
100
AcDbEntity
  8
5
  6
PHANTOM
100
AcDbLine
 10
209.723006
 20
217.6588329999999
 30
0.0
 11
211.3576129999999
 21
212.9335119999999
 31
0.0
  0
ARC
  5
A1A5
330
9F90
100
AcDbEntity
  8
5
  6
PHANTOM
100
AcDbCircle
 10
205.283512
 20
217.2172859999998
 30
0.0
 40
12.45549699999999
100
AcDbArc
 50
317.9268299999999
 51
14.31928
  0
ARC
  5
A1A6
330
9F90
100
AcDbEntity
  8
1
  6
Continuous
100
AcDbCircle
 10
218.5817429999999
 20
106.3216129999997
 30
0.0
 40
11.20420599999998
100
AcDbArc
 50
318.452482
 51
41.54751799999998
  0
ARC
  5
A1A7
330
9F90
100
AcDbEntity
  8
1
  6
Continuous
100
AcDbCircle
 10
295.8133839999998
 20
187.5492429999999
 30
0.0
 40
3.193579
100
AcDbArc
 50
179.9999909999999
 51
245.1419099999999
  0
ARC
  5
A1A8
330
9F90
100
AcDbEntity
  8
1
  6
Continuous
100
AcDbCircle
 10
295.8133839999998
 20
189.587513
 30
0.0
 40
3.193579
100
AcDbArc
 50
132.738812
 51
245.1419099999999
  0
LINE
  5
A1A9
330
9F90
100
AcDbEntity
  8
5
  6
PHANTOM
100
AcDbLine
 10
223.7316729999998
 20
222.5047959999999
 30
0.0
 11
222.979766
 21
224.6784139999999
 31
0.0
  0
LINE
  5
A1AA
330
9F90
100
AcDbEntity
  8
1
  6
Continuous
100
AcDbLine
 10
304.5198049999999
 20
201.980724
 30
0.0
 11
293.646025
 21
191.9330399999997
 31
0.0
  0
LINE
  5
A1AB
330
9F90
100
AcDbEntity
  8
1
  6
Continuous
100
AcDbLine
 10
292.6198109999999
 20
189.587513
 30
0.0
 11
292.6198109999999
 21
187.5492429999999
 31
0.0
  0
ARC
  5
A1AC
330
9F90
100
AcDbEntity
  8
5
  6
PHANTOM
100
AcDbCircle
 10
187.6306199999999
 20
220.597848
 30
0.0
 40
7.7
100
AcDbArc
 50
258.754818
 51
289.0818689999998
  0
LINE
  5
A1AD
330
9F90
100
AcDbEntity
  8
1
  6
Continuous
100
AcDbLine
 10
219.6367819999999
 20
299.1716049999999
 30
0.0
 11
220.702364
 21
299.1716049999999
 31
0.0
  0
ARC
  5
A1AE
330
9F90
100
AcDbEntity
  8
1
  6
Continuous
100
AcDbCircle
 10
220.702364
 20
307.5423169999999
 30
0.0
 40
8.370708999999997
100
AcDbArc
 50
241.0895889999999
 51
318.452482
  0
ARC
  5
A1AF
330
9F90
100
AcDbEntity
  8
1
  6
Continuous
100
AcDbCircle
 10
219.6367819999999
 20
307.5423169999999
 30
0.0
 40
8.370708999999997
100
AcDbArc
 50
241.090368
 51
273.6493129999999
  0
ARC
  5
A1B0
330
9F90
100
AcDbEntity
  8
1
  6
Continuous
100
AcDbCircle
 10
299.713393
 20
225.9563249999999
 30
0.0
 40
3.193579
100
AcDbArc
 50
114.858087
 51
215.0990769999999
  0
LINE
  5
A1B1
330
9F90
100
AcDbEntity
  8
1
  6
Continuous
100
AcDbLine
 10
304.5198199999998
 20
213.563121
 30
0.0
 11
297.1005390000001
 21
224.120037
 31
0.0
  0
LINE
  5
A1B2
330
9F90
100
AcDbEntity
  8
1
  6
Continuous
100
AcDbLine
 10
304.5198049999999
 20
211.5248369999999
 30
0.0
 11
297.100524
 21
222.081768
 31
0.0
  0
LINE
  5
A1B3
330
9F90
100
AcDbEntity
  8
1
  6
Continuous
100
AcDbLine
 10
296.5198199999998
 20
225.9563249999999
 30
0.0
 11
296.5198199999998
 21
223.918056
 31
0.0
  0
ARC
  5
A1B4
330
9F90
100
AcDbEntity
  8
1
  6
Continuous
100
AcDbCircle
 10
299.713393
 20
223.918056
 30
0.0
 40
3.193579
100
AcDbArc
 50
179.9999909999999
 51
215.0990769999999
  0
LINE
  5
A1CA
330
9F90
100
AcDbEntity
  8
1
  6
Continuous
100
AcDbLine
 10
157.603624
 20
323.571614
 30
0.0
 11
145.991655
 21
323.571614
 31
0.0
  0
LINE
  5
A1CB
330
9F90
100
AcDbEntity
  8
1
  6
Continuous
100
AcDbLine
 10
145.991655
 20
323.571614
 30
0.0
 11
145.991655
 21
322.5110819999998
 31
0.0
  0
ARC
  5
A1CC
330
9F90
100
AcDbEntity
  8
1
  6
Continuous
100
AcDbCircle
 10
151.1352399999998
 20
315.2009169999999
 30
0.0
 40
8.370708999999997
100
AcDbArc
 50
90.00000300000001
 51
138.4524829999998
  0
ARC
  5
A1CD
330
9F90
100
AcDbEntity
  8
1
  6
Continuous
100
AcDbCircle
 10
150.069658
 20
315.2009169999999
 30
0.0
 40
8.370708999999997
100
AcDbArc
 50
90.00000300000001
 51
138.4524829999998
  0
LINE
  5
A1CE
330
9F90
100
AcDbEntity
  8
1
  6
Continuous
100
AcDbLine
 10
158.603624
 20
319.071614
 30
0.0
 11
158.603624
 21
325.571614
 31
0.0
  0
LINE
  5
A1CF
330
9F90
100
AcDbEntity
  8
1
  6
Continuous
100
AcDbLine
 10
163.1760429999999
 20
325.571614
 30
0.0
 11
157.5380419999999
 21
325.571614
 31
0.0
  0
LINE
  5
A1D0
330
9F90
100
AcDbEntity
  8
1
  6
Continuous
100
AcDbLine
 10
157.5380419999999
 20
323.571614
 30
0.0
 11
157.5380419999999
 21
325.571614
 31
0.0
  0
ARC
  5
A1D1
330
9F90
100
AcDbEntity
  8
1
  6
Continuous
100
AcDbCircle
 10
157.603624
 20
322.571614
 30
0.0
 40
1.0
100
AcDbArc
 50
0.0
 51
90.00000300000001
  0
ARC
  5
A1D2
330
9F90
100
AcDbEntity
  8
1
  6
Continuous
100
AcDbCircle
 10
186.8824629999997
 20
302.605214
 30
0.0
 40
12.391586
100
AcDbArc
 50
43.097111
 51
55.944677
  0
ARC
  5
A1D3
330
9F90
100
AcDbEntity
  8
1
  6
Continuous
100
AcDbCircle
 10
187.948061
 20
302.60587
 30
0.0
 40
12.391586
100
AcDbArc
 50
43.097111
 51
55.93925999999999
  0
LINE
  5
A1D4
330
9F90
100
AcDbEntity
  8
1
  6
Continuous
100
AcDbLine
 10
174.8412649999999
 20
310.932209
 30
0.0
 11
174.8412649999999
 21
312.8716089999998
 31
0.0
  0
ARC
  5
A1D5
330
9F90
100
AcDbEntity
  8
1
  6
Continuous
100
AcDbCircle
 10
196.3825699999999
 20
267.704716
 30
0.0
 40
48.297459
100
AcDbArc
 50
110.7425029999999
 51
116.4881929999999
  0
LINE
  5
A1D6
330
9F90
100
AcDbEntity
  8
1
  6
Continuous
100
AcDbLine
 10
196.9963549999999
 20
311.071614
 30
0.0
 11
196.9963549999999
 21
312.8716089999998
 31
0.0
  0
LINE
  5
A1D7
330
9F90
100
AcDbEntity
  8
1
  6
Continuous
100
AcDbLine
 10
310.819792
 20
180.139385
 30
0.0
 11
310.819792
 21
184.450227
 31
0.0
  0
LINE
  5
A1D8
330
9F90
100
AcDbEntity
  8
1
  6
Continuous
100
AcDbLine
 10
313.1198109999999
 20
180.139385
 30
0.0
 11
313.1198109999999
 21
188.9248
 31
0.0
  0
LINE
  5
A1D9
330
9F90
100
AcDbEntity
  8
1
  6
Continuous
100
AcDbLine
 10
317.0198049999999
 20
182.228656
 30
0.0
 11
317.0198049999999
 21
186.886524
 31
0.0
  0
LINE
  5
A1DA
330
9F90
100
AcDbEntity
  8
1
  6
Continuous
100
AcDbLine
 10
313.1198109999999
 20
180.139385
 30
0.0
 11
310.819792
 21
180.139385
 31
0.0
  0
LINE
  5
A1DB
330
9F90
100
AcDbEntity
  8
1
  6
Continuous
100
AcDbLine
 10
317.0198049999999
 20
182.2286489999999
 30
0.0
 11
313.1198109999999
 21
180.1393769999999
 31
0.0
  0
LINE
  5
A1DC
330
9F90
100
AcDbEntity
  8
1
  6
Continuous
100
AcDbLine
 10
311.695067
 20
188.9248
 30
0.0
 11
319.0198049999999
 21
188.9248
 31
0.0
  0
LINE
  5
A1DD
330
9F90
100
AcDbEntity
  8
1
  6
Continuous
100
AcDbLine
 10
311.6198109999999
 20
191.936222
 30
0.0
 11
319.0198049999999
 21
191.936222
 31
0.0
  0
LINE
  5
A1DE
330
9F90
100
AcDbEntity
  8
1
  6
Continuous
100
AcDbLine
 10
319.0198049999999
 20
191.936222
 30
0.0
 11
319.0198049999999
 21
186.886524
 31
0.0
  0
LINE
  5
A1DF
330
9F90
100
AcDbEntity
  8
1
  6
Continuous
100
AcDbLine
 10
313.1198109999999
 20
186.886524
 30
0.0
 11
319.0198049999999
 21
186.886524
 31
0.0
  0
LINE
  5
A1E0
330
9F90
100
AcDbEntity
  8
1
  6
Continuous
100
AcDbLine
 10
313.1198109999999
 20
191.936222
 30
0.0
 11
313.1198109999999
 21
194.546695
 31
0.0
  0
ARC
  5
A1E1
330
9F90
100
AcDbEntity
  8
1
  6
Continuous
100
AcDbCircle
 10
309.926238
 20
189.587513
 30
0.0
 40
3.193579
100
AcDbArc
 50
294.8581019999998
 51
348.0232389999998
  0
ARC
  5
A1E2
330
9F90
100
AcDbEntity
  8
1
  6
Continuous
100
AcDbCircle
 10
309.926238
 20
187.5492429999999
 30
0.0
 40
3.193579
100
AcDbArc
 50
294.8581019999998
 51
348.0232389999998
  0
LINE
  5
A1F6
330
9F90
100
AcDbEntity
  8
5
  6
PHANTOM
100
AcDbLine
 10
186.8765409999998
 20
203.9358449999999
 30
0.0
 11
185.452303
 21
203.443164
 31
0.0
  0
LINE
  5
A1F7
330
9F90
100
AcDbEntity
  8
5
  6
PHANTOM
100
AcDbLine
 10
189.8188079999999
 20
195.430372
 30
0.0
 11
188.3945709999999
 21
194.9376909999998
 31
0.0
  0
ARC
  5
A1F8
330
9F90
100
AcDbEntity
  8
5
  6
PHANTOM
100
AcDbCircle
 10
188.347674
 20
199.683109
 30
0.0
 40
4.5
100
AcDbArc
 50
289.081852
 51
109.081852
  0
ARC
  5
A1F9
330
9F90
100
AcDbEntity
  8
5
  6
PHANTOM
100
AcDbCircle
 10
172.0927709999999
 20
194.060109
 30
0.0
 40
4.5
100
AcDbArc
 50
109.081852
 51
289.081852
  0
LINE
  5
A1FA
330
9F90
100
AcDbEntity
  8
5
  6
PHANTOM
100
AcDbLine
 10
172.0458749999997
 20
198.805527
 30
0.0
 11
170.6216379999998
 21
198.3128449999999
 31
0.0
  0
LINE
  5
A1FB
330
9F90
100
AcDbEntity
  8
5
  6
PHANTOM
100
AcDbLine
 10
174.9881419999999
 20
190.3000539999999
 30
0.0
 11
173.563905
 21
189.8073729999999
 31
0.0
  0
ARC
  5
A1FC
330
9F90
100
AcDbEntity
  8
1
  6
Continuous
100
AcDbCircle
 10
187.841574
 20
192.8872629999999
 30
0.0
 40
4.5
100
AcDbArc
 50
242.3999989999999
 51
62.39999899999999
  0
ARC
  5
A1FD
330
9F90
100
AcDbEntity
  8
1
  6
Continuous
100
AcDbCircle
 10
177.796712
 20
192.235855
 30
0.0
 40
19.23102399999998
100
AcDbArc
 50
32.072946
 51
92.72707200000001
  0
ARC
  5
A1FE
330
9F90
100
AcDbEntity
  8
1
  6
Continuous
100
AcDbCircle
 10
197.590886
 20
198.231658
 30
0.0
 40
16.003084
100
AcDbArc
 50
237.870344
 51
291.5930189999999
  0
ARC
  5
A1FF
330
9F90
100
AcDbEntity
  8
1
  6
Continuous
100
AcDbCircle
 10
177.796712
 20
192.235855
 30
0.0
 40
21.531025
100
AcDbArc
 50
32.072967
 51
92.727044
  0
ARC
  5
A200
330
9F90
100
AcDbEntity
  8
1
  6
Continuous
100
AcDbCircle
 10
158.447057
 20
220.7052909999999
 30
0.0
 40
12.45549699999999
100
AcDbArc
 50
157.1625709999999
 51
213.555017
  0
LINE
  5
A201
330
9F90
100
AcDbEntity
  8
1
  6
Continuous
100
AcDbLine
 10
157.53806
 20
220.013656
 30
0.0
 11
156.1481369999999
 21
217.3549799999999
 31
0.0
  0
LINE
  5
A202
330
9F90
100
AcDbEntity
  8
1
  6
Continuous
100
AcDbLine
 10
142.0516399999999
 20
230.7049859999999
 30
0.0
 11
172.8385669999999
 21
214.60997
 31
0.0
  0
LINE
  5
A203
330
9F90
100
AcDbEntity
  8
1
  6
Continuous
100
AcDbLine
 10
140.986058
 20
228.666717
 30
0.0
 11
171.7729689999998
 21
212.5717009999999
 31
0.0
  0
LINE
  5
A204
330
9F90
100
AcDbEntity
  8
1
  6
Continuous
100
AcDbLine
 10
156.148076
 20
217.3549799999999
 30
0.0
 11
161.465337
 21
214.5751799999999
 31
0.0
  0
ARC
  5
A205
330
9F90
100
AcDbEntity
  8
1
  6
Continuous
100
AcDbCircle
 10
171.42336
 20
211.9117119999999
 30
0.0
 40
16.003084
100
AcDbArc
 50
193.206972
 51
246.9296399999999
  0
LINE
  5
A206
330
9F90
100
AcDbEntity
  8
1
  6
Continuous
100
AcDbLine
 10
155.8435259999999
 20
208.255493
 30
0.0
 11
148.0671889999999
 21
213.8206629999999
 31
0.0
  0
ARC
  5
A207
330
9F90
100
AcDbEntity
  8
1
  6
Continuous
100
AcDbCircle
 10
172.598872
 20
200.855955
 30
0.0
 40
4.5
100
AcDbArc
 50
62.39999899999999
 51
242.3999989999999
  0
LINE
  5
A208
330
9F90
100
AcDbEntity
  8
1
  6
Continuous
100
AcDbLine
 10
189.9264059999999
 20
196.8751789999998
 30
0.0
 11
188.590856
 21
197.573387
 31
0.0
  0
ARC
  5
A209
330
9F90
100
AcDbEntity
  8
1
  6
Continuous
100
AcDbCircle
 10
183.8541149999999
 20
203.822631
 30
0.0
 40
19.84358
100
AcDbArc
 50
199.5312899999999
 51
285.2687279999999
  0
LINE
  5
A20A
330
9F90
100
AcDbEntity
  8
1
  6
Continuous
100
AcDbLine
 10
171.8495889999999
 20
196.1698299999999
 30
0.0
 11
170.5140399999999
 21
196.8680389999999
 31
0.0
  0
LINE
  5
A20B
330
9F90
100
AcDbEntity
  8
1
  6
Continuous
100
AcDbLine
 10
185.756741
 20
188.899347
 30
0.0
 11
184.421192
 21
189.5975549999997
 31
0.0
  0
LINE
  5
A20C
330
9F90
100
AcDbEntity
  8
1
  6
Continuous
100
AcDbLine
 10
176.019254
 20
204.1456629999999
 30
0.0
 11
174.683704
 21
204.843871
 31
0.0
  0
ARC
  5
A20D
330
9F90
100
AcDbEntity
  8
1
  6
Continuous
100
AcDbCircle
 10
176.4059489999999
 20
221.4337759999999
 30
0.0
 40
7.7
100
AcDbArc
 50
242.4000159999999
 51
272.7270459999999
  0
ARC
  5
A20E
330
9F90
100
AcDbEntity
  8
1
  6
Continuous
100
AcDbCircle
 10
176.4059489999999
 20
221.4337759999999
 30
0.0
 40
10.0
100
AcDbArc
 50
242.4000159999999
 51
272.7270669999999
  0
LINE
  5
A20F
330
9F90
100
AcDbEntity
  8
1
  6
Continuous
100
AcDbLine
 10
162.855275
 20
217.2338859999999
 30
0.0
 11
161.465352
 21
214.57521
 31
0.0
  0
LINE
  5
A210
330
9F90
100
AcDbEntity
  8
1
  6
Continuous
100
AcDbLine
 10
140.9860429999999
 20
228.6668389999999
 30
0.0
 11
142.051625
 21
230.7051079999999
 31
0.0
  0
ARC
  5
A211
330
9F90
100
AcDbEntity
  8
1
  6
Continuous
100
AcDbCircle
 10
212.2174729999999
 20
192.5948019999999
 30
0.0
 40
12.45549699999999
100
AcDbArc
 50
271.244977
 51
327.637426
  0
LINE
  5
A212
330
9F90
100
AcDbEntity
  8
1
  6
Continuous
100
AcDbLine
 10
197.933308
 20
198.8954159999999
 30
0.0
 11
228.7202039999999
 21
182.800407
 31
0.0
  0
LINE
  5
A213
330
9F90
100
AcDbEntity
  8
1
  6
Continuous
100
AcDbLine
 10
198.9988759999999
 20
200.9336849999999
 30
0.0
 11
229.785787
 21
184.8386759999999
 31
0.0
  0
LINE
  5
A214
330
9F90
100
AcDbEntity
  8
1
  6
Continuous
100
AcDbLine
 10
203.480199
 20
183.351661
 30
0.0
 11
212.4881029999999
 21
180.1422499999999
 31
0.0
  0
LINE
  5
A215
330
9F90
100
AcDbEntity
  8
1
  6
Continuous
100
AcDbLine
 10
207.1036879999998
 20
191.7855679999999
 30
0.0
 11
202.512929
 21
183.0042719999999
 31
0.0
  0
LINE
  5
A216
330
9F90
100
AcDbEntity
  8
1
  6
Continuous
100
AcDbLine
 10
200.014043
 20
195.4919429999999
 30
0.0
 11
193.3755689999999
 21
182.7937159999999
 31
0.0
  0
LINE
  5
A217
330
9F90
100
AcDbEntity
  8
1
  6
Continuous
100
AcDbLine
 10
215.5844319999999
 20
189.667747
 30
0.0
 11
213.267918
 21
185.2366789999999
 31
0.0
  0
LINE
  5
A218
330
9F90
100
AcDbEntity
  8
1
  6
Continuous
100
AcDbLine
 10
209.824056
 20
192.679199
 30
0.0
 11
207.507558
 21
188.2481229999999
 31
0.0
  0
LINE
  5
A219
330
9F90
100
AcDbEntity
  8
1
  6
Continuous
100
AcDbLine
 10
207.507543
 20
188.2481
 30
0.0
 11
213.2678569999999
 21
185.2366789999999
 31
0.0
  0
ARC
  5
A21A
330
9F90
100
AcDbEntity
  8
1
  6
Continuous
100
AcDbCircle
 10
202.566274
 20
207.7574919999999
 30
0.0
 40
7.7
100
AcDbArc
 50
212.0729649999999
 51
242.4000159999999
  0
ARC
  5
A21B
330
9F90
100
AcDbEntity
  8
1
  6
Continuous
100
AcDbCircle
 10
202.566274
 20
207.7574919999999
 30
0.0
 40
10.0
100
AcDbArc
 50
212.0729379999999
 51
242.4000159999999
  0
LINE
  5
A21C
330
9F90
100
AcDbEntity
  8
1
  6
Continuous
100
AcDbLine
 10
228.7207689999999
 20
182.800231
 30
0.0
 11
229.7863509999999
 21
184.8384929999998
 31
0.0
  0
ARC
  5
A21D
330
9F90
100
AcDbEntity
  8
1
  6
Continuous
100
AcDbCircle
 10
354.6197899999999
 20
201.844997
 30
0.0
 40
1.0
100
AcDbArc
 50
154.803547
 51
180.0
  0
ARC
  5
A21E
330
9F90
100
AcDbEntity
  8
1
  6
Continuous
100
AcDbCircle
 10
316.0198049999999
 20
201.845008
 30
0.0
 40
1.0
100
AcDbArc
 50
0.0
 51
25.196444
  0
LINE
  5
A21F
330
9F90
100
AcDbEntity
  8
1
  6
Continuous
100
AcDbLine
 10
75.520218
 20
183.979137
 30
0.0
 11
75.52022499999998
 21
183.4250289999999
 31
0.0
  0
CIRCLE
  5
A220
330
9F90
100
AcDbEntity
  8
1
  6
Continuous
100
AcDbCircle
 10
491.220223
 20
196.871609
 30
0.0
 40
1.5
  0
CIRCLE
  5
A221
330
9F90
100
AcDbEntity
  8
1
  6
Continuous
100
AcDbCircle
 10
491.220223
 20
196.871609
 30
0.0
 40
6.25
  0
LINE
  5
A222
330
9F90
100
AcDbEntity
  8
1
  6
Continuous
100
AcDbLine
 10
80.82022100000001
 20
188.4716089999997
 30
0.0
 11
80.82022100000001
 21
205.271609
 31
0.0
  0
LINE
  5
A223
330
9F90
100
AcDbEntity
  8
1
  6
Continuous
100
AcDbLine
 10
80.82022100000001
 20
198.99079
 30
0.0
 11
77.82022099999998
 21
193.3256489999999
 31
0.0
  0
LINE
  5
A224
330
9F90
100
AcDbEntity
  8
1
  6
Continuous
100
AcDbLine
 10
77.82022099999998
 20
192.4417359999999
 30
0.0
 11
80.82022100000001
 21
192.271609
 31
0.0
  0
ARC
  5
A225
330
9F90
100
AcDbEntity
  8
1
  6
Continuous
100
AcDbCircle
 10
76.32022099999997
 20
201.113314
 30
0.0
 40
4.5
100
AcDbArc
 50
289.471221
 51
70.528779
  0
ARC
  5
A226
330
9F90
100
AcDbEntity
  8
1
  6
Continuous
100
AcDbCircle
 10
76.32022099999997
 20
192.629903
 30
0.0
 40
4.5
100
AcDbArc
 50
289.471221
 51
0.0
  0
LINE
  5
A227
330
9F90
100
AcDbEntity
  8
1
  6
Continuous
100
AcDbLine
 10
81.82022100000002
 20
188.4716089999997
 30
0.0
 11
81.82022100000002
 21
205.271609
 31
0.0
  0
LINE
  5
A228
330
9F90
100
AcDbEntity
  8
1
  6
Continuous
100
AcDbLine
 10
80.82022100000001
 20
205.271609
 30
0.0
 11
81.82022100000002
 21
205.271609
 31
0.0
  0
LINE
  5
A229
330
9F90
100
AcDbEntity
  8
1
  6
Continuous
100
AcDbLine
 10
80.82022100000001
 20
188.4716089999997
 30
0.0
 11
81.82022100000002
 21
188.4716089999997
 31
0.0
  0
LINE
  5
A22A
330
9F90
100
AcDbEntity
  8
1
  6
Continuous
100
AcDbLine
 10
80.82022100000001
 20
192.871609
 30
0.0
 11
77.82022099999998
 21
192.871609
 31
0.0
  0
LINE
  5
A22B
330
9F90
100
AcDbEntity
  8
1
  6
Continuous
100
AcDbLine
 10
80.82022100000001
 20
193.548109
 30
0.0
 11
77.93802499999998
 21
193.548109
 31
0.0
  0
ARC
  5
A22C
330
9F90
100
AcDbEntity
  8
1
  6
Continuous
100
AcDbCircle
 10
212.220223
 20
73.87160899999997
 30
0.0
 40
20.69999999999998
100
AcDbArc
 50
81.87983599999999
 51
142.852807
  0
ARC
  5
A22D
330
9F90
100
AcDbEntity
  8
1
  6
Continuous
100
AcDbCircle
 10
212.220223
 20
73.87160899999997
 30
0.0
 40
22.7
100
AcDbArc
 50
102.0478149999999
 51
129.7389159999999
  0
ARC
  5
A22E
330
9F90
100
AcDbEntity
  8
1
  6
Continuous
100
AcDbCircle
 10
212.220223
 20
73.87160899999997
 30
0.0
 40
17.0
100
AcDbArc
 50
80.09632899999997
 51
132.6679249999999
  0
LINE
  5
A22F
330
9F90
100
AcDbEntity
  8
1
  6
Continuous
100
AcDbLine
 10
188.620223
 20
97.47160700000002
 30
0.0
 11
171.8202229999999
 21
97.47160700000002
 31
0.0
  0
LINE
  5
A230
330
9F90
100
AcDbEntity
  8
1
  6
Continuous
100
AcDbLine
 10
188.620223
 20
98.47160700000001
 30
0.0
 11
171.8202229999999
 21
98.47160700000001
 31
0.0
  0
LINE
  5
A231
330
9F90
100
AcDbEntity
  8
1
  6
Continuous
100
AcDbLine
 10
188.620223
 20
97.47160700000002
 30
0.0
 11
188.620223
 21
98.47160700000001
 31
0.0
  0
LINE
  5
A232
330
9F90
100
AcDbEntity
  8
1
  6
Continuous
100
AcDbLine
 10
171.8202229999999
 20
97.47160700000002
 30
0.0
 11
171.8202229999999
 21
98.47160700000001
 31
0.0
  0
ARC
  5
A233
330
9F90
100
AcDbEntity
  8
1
  6
Continuous
100
AcDbCircle
 10
172.853597
 20
92.971607
 30
0.0
 40
4.5
100
AcDbArc
 50
19.47122099999998
 51
160.528779
  0
ARC
  5
A234
330
9F90
100
AcDbEntity
  8
1
  6
Continuous
100
AcDbCircle
 10
187.586849
 20
92.971607
 30
0.0
 40
4.5
100
AcDbArc
 50
19.47122099999998
 51
90.0
  0
LINE
  5
A235
330
9F90
100
AcDbEntity
  8
1
  6
Continuous
100
AcDbLine
 10
178.980775
 20
94.47160700000001
 30
0.0
 11
184.296759
 21
97.47160700000002
 31
0.0
  0
LINE
  5
A236
330
9F90
100
AcDbEntity
  8
1
  6
Continuous
100
AcDbLine
 10
177.2900059999997
 20
94.47160700000001
 30
0.0
 11
176.143686
 21
97.47160700000002
 31
0.0
  0
LINE
  5
A237
330
9F90
100
AcDbEntity
  8
2
  6
Continuous
100
AcDbLine
 10
183.543723
 20
97.47160700000002
 30
0.0
 11
183.543723
 21
97.04664100000002
 31
0.0
  0
LINE
  5
A238
330
9F90
100
AcDbEntity
  8
1
  6
Continuous
100
AcDbLine
 10
184.220223
 20
97.47160700000002
 30
0.0
 11
184.220223
 21
97.428415
 31
0.0
  0
LINE
  5
A239
330
9F90
100
AcDbEntity
  8
2
  6
Continuous
100
AcDbLine
 10
176.896723
 20
97.47160700000002
 30
0.0
 11
176.896723
 21
95.500857
 31
0.0
  0
LINE
  5
A23A
330
9F90
100
AcDbEntity
  8
1
  6
Continuous
100
AcDbLine
 10
176.2202229999997
 20
97.47160700000002
 30
0.0
 11
176.2202229999997
 21
97.27130600000002
 31
0.0
  0
ARC
  5
A23B
330
9F90
100
AcDbEntity
  8
1
  6
Continuous
100
AcDbCircle
 10
177.2202229999997
 20
318.511214
 30
0.0
 40
6.841600999999998
100
AcDbArc
 50
263.77393
 51
296.0078240000001
  0
LINE
  5
A23C
330
9F90
100
AcDbEntity
  8
1
  6
Continuous
100
AcDbLine
 10
183.0202229999999
 20
106.073604
 30
0.0
 11
177.420223
 21
106.073604
 31
0.0
  0
LINE
  5
A23D
330
9F90
100
AcDbEntity
  8
1
  6
Continuous
100
AcDbLine
 10
177.420223
 20
309.669614
 30
0.0
 11
176.2202229999997
 21
310.869614
 31
0.0
  0
LINE
  5
A23E
330
9F90
100
AcDbEntity
  8
1
  6
Continuous
100
AcDbLine
 10
184.220223
 20
310.869614
 30
0.0
 11
176.2202229999997
 21
310.869614
 31
0.0
  0
LINE
  5
A23F
330
9F90
100
AcDbEntity
  8
1
  6
Continuous
100
AcDbLine
 10
183.0202229999999
 20
309.669614
 30
0.0
 11
184.220223
 21
310.869614
 31
0.0
  0
LINE
  5
A240
330
9F90
100
AcDbEntity
  8
2
  6
Continuous
100
AcDbLine
 10
176.896723
 20
310.193114
 30
0.0
 11
176.896723
 21
311.669614
 31
0.0
  0
LINE
  5
A241
330
9F90
100
AcDbEntity
  8
1
  6
Continuous
100
AcDbLine
 10
176.2202229999997
 20
310.869614
 30
0.0
 11
176.2202229999997
 21
311.592348
 31
0.0
  0
LINE
  5
A242
330
9F90
100
AcDbEntity
  8
2
  6
Continuous
100
AcDbLine
 10
183.543723
 20
310.193114
 30
0.0
 11
183.543723
 21
311.669614
 31
0.0
  0
LINE
  5
A243
330
9F90
100
AcDbEntity
  8
1
  6
Continuous
100
AcDbLine
 10
184.220223
 20
310.869614
 30
0.0
 11
184.220223
 21
311.669614
 31
0.0
  0
ARC
  5
A244
330
9F90
100
AcDbEntity
  8
1
  6
Continuous
100
AcDbCircle
 10
183.220223
 20
318.511214
 30
0.0
 40
6.841600999999998
100
AcDbArc
 50
243.992176
 51
296.0078240000001
  0
LINE
  5
A245
330
9F90
100
AcDbEntity
  8
1
  6
Continuous
100
AcDbLine
 10
177.470223
 20
311.669614
 30
0.0
 11
182.970223
 21
311.669614
 31
0.0
  0
LINE
  5
A246
330
9F90
100
AcDbEntity
  8
1
  6
Continuous
100
AcDbLine
 10
180.2202229999998
 20
312.8716089999998
 30
0.0
 11
180.2202229999998
 21
312.362434
 31
0.0
  0
LINE
  5
A247
330
9F90
100
AcDbEntity
  8
1
  6
Continuous
100
AcDbLine
 10
186.220223
 20
312.8716089999998
 30
0.0
 11
186.220223
 21
312.362434
 31
0.0
  0
LINE
  5
A248
330
9F90
100
AcDbEntity
  8
1
  6
Continuous
100
AcDbLine
 10
177.420223
 20
309.669614
 30
0.0
 11
183.0202229999999
 21
309.669614
 31
0.0
  0
ARC
  5
A249
330
9F90
100
AcDbEntity
  8
1
  6
Continuous
100
AcDbCircle
 10
491.220223
 20
196.871609
 30
0.0
 40
16.5
100
AcDbArc
 50
205.0
 51
355.0
  0
ARC
  5
A24A
330
9F90
100
AcDbEntity
  8
1
  6
Continuous
100
AcDbCircle
 10
491.220223
 20
196.871609
 30
0.0
 40
18.0
100
AcDbArc
 50
157.462327
 51
58.417258
  0
ARC
  5
A24B
330
9F90
100
AcDbEntity
  8
1
  6
Continuous
100
AcDbCircle
 10
491.220223
 20
196.871609
 30
0.0
 40
21.4
100
AcDbArc
 50
150.72433
 51
65.15526
  0
LINE
  5
A24C
330
9F90
100
AcDbEntity
  8
1
  6
Continuous
100
AcDbLine
 10
507.5337629999999
 20
204.478737
 30
0.0
 11
501.189608
 21
201.52041
 31
0.0
  0
LINE
  5
A24D
330
9F90
100
AcDbEntity
  8
1
  6
Continuous
100
AcDbLine
 10
509.1517269999997
 20
195.302805
 30
0.0
 11
502.1783649999998
 21
195.9128959999999
 31
0.0
  0
ARC
  5
A24E
330
9F90
100
AcDbEntity
  8
1
  6
Continuous
100
AcDbCircle
 10
491.220223
 20
196.871609
 30
0.0
 40
11.0
100
AcDbArc
 50
175.0
 51
205.0
  0
ARC
  5
A24F
330
9F90
100
AcDbEntity
  8
1
  6
Continuous
100
AcDbCircle
 10
491.220223
 20
196.871609
 30
0.0
 40
11.0
100
AcDbArc
 50
355.0
 51
25.0
  0
LINE
  5
A250
330
9F90
100
AcDbEntity
  8
1
  6
Continuous
100
AcDbLine
 10
480.2620809999998
 20
197.8303219999999
 30
0.0
 11
473.2887179999998
 21
198.440412
 31
0.0
  0
LINE
  5
A251
330
9F90
100
AcDbEntity
  8
1
  6
Continuous
100
AcDbLine
 10
481.2508369999997
 20
192.222808
 30
0.0
 11
474.906683
 21
189.26448
 31
0.0
  0
ARC
  5
A252
330
9F90
100
AcDbEntity
  8
1
  6
Continuous
100
AcDbCircle
 10
491.220223
 20
196.871609
 30
0.0
 40
13.5
100
AcDbArc
 50
175.0
 51
205.0
  0
ARC
  5
A253
330
9F90
100
AcDbEntity
  8
1
  6
Continuous
100
AcDbCircle
 10
491.220223
 20
196.871609
 30
0.0
 40
13.5
100
AcDbArc
 50
355.0
 51
25.0
  0
ARC
  5
A254
330
9F90
100
AcDbEntity
  8
1
  6
Continuous
100
AcDbCircle
 10
491.220223
 20
196.871609
 30
0.0
 40
16.5
100
AcDbArc
 50
25.0
 51
54.27683
  0
LINE
  5
A255
330
9F90
100
AcDbEntity
  8
1
  6
Continuous
100
AcDbLine
 10
477.846691
 20
198.0912059999998
 30
0.0
 11
451.2622059999998
 21
244.524497
 31
0.0
  0
ARC
  5
A256
330
9F90
100
AcDbEntity
  8
1
  6
Continuous
100
AcDbCircle
 10
491.220223
 20
196.871609
 30
0.0
 40
16.5
100
AcDbArc
 50
161.602751
 51
175.0
  0
ARC
  5
A257
330
9F90
100
AcDbEntity
  8
1
  6
Continuous
100
AcDbCircle
 10
348.8198
 20
212.371642
 30
0.0
 40
2.5
100
AcDbArc
 50
0.0
 51
90.0
  0
ARC
  5
A258
330
9F90
100
AcDbEntity
  8
1
  6
Continuous
100
AcDbCircle
 10
348.8198
 20
181.3716089999998
 30
0.0
 40
2.5
100
AcDbArc
 50
270.0
 51
0.0
  0
LINE
  5
A259
330
9F90
100
AcDbEntity
  8
1
  6
Continuous
100
AcDbLine
 10
355.1197899999999
 20
197.8303219999999
 30
0.0
 11
355.1197899999999
 21
192.2065
 31
0.0
  0
LINE
  5
A25A
330
9F90
100
AcDbEntity
  8
1
  6
Continuous
100
AcDbLine
 10
348.8198
 20
198.440412
 30
0.0
 11
355.1197899999999
 21
197.8303219999999
 31
0.0
  0
LINE
  5
A25B
330
9F90
100
AcDbEntity
  8
1
  6
Continuous
100
AcDbLine
 10
348.8198
 20
189.26448
 30
0.0
 11
355.1197899999999
 21
192.2065
 31
0.0
  0
LINE
  5
A25C
330
9F90
100
AcDbEntity
  8
1
  6
Continuous
100
AcDbLine
 10
351.3198
 20
190.4319499999997
 30
0.0
 11
351.3198
 21
181.3716089999998
 31
0.0
  0
LINE
  5
A25D
330
9F90
100
AcDbEntity
  8
1
  6
Continuous
100
AcDbLine
 10
353.6197899999999
 20
191.5060179999999
 30
0.0
 11
353.6197899999999
 21
185.871625
 31
0.0
  0
ARC
  5
A25E
330
9F90
100
AcDbEntity
  8
1
  6
Continuous
100
AcDbCircle
 10
43.720223
 20
181.3715919999999
 30
0.0
 40
2.5
100
AcDbArc
 50
180.0
 51
270.0
  0
ARC
  5
A25F
330
9F90
100
AcDbEntity
  8
1
  6
Continuous
100
AcDbCircle
 10
43.720223
 20
212.371625
 30
0.0
 40
2.5
100
AcDbArc
 50
90.0
 51
180.0
  0
LINE
  5
A260
330
9F90
100
AcDbEntity
  8
1
  6
Continuous
100
AcDbLine
 10
37.420233
 20
201.52041
 30
0.0
 11
37.420233
 21
195.9128959999999
 31
0.0
  0
LINE
  5
A261
330
9F90
100
AcDbEntity
  8
1
  6
Continuous
100
AcDbLine
 10
43.720223
 20
204.478737
 30
0.0
 11
37.420233
 21
201.52041
 31
0.0
  0
LINE
  5
A262
330
9F90
100
AcDbEntity
  8
1
  6
Continuous
100
AcDbLine
 10
43.720223
 20
195.302805
 30
0.0
 11
37.420233
 21
195.9128959999999
 31
0.0
  0
LINE
  5
A263
330
9F90
100
AcDbEntity
  8
1
  6
Continuous
100
AcDbLine
 10
38.920233
 20
195.767636
 30
0.0
 11
38.920233
 21
185.871609
 31
0.0
  0
LINE
  5
A264
330
9F90
100
AcDbEntity
  8
1
  6
Continuous
100
AcDbLine
 10
41.220223
 20
195.544905
 30
0.0
 11
41.220223
 21
181.3715919999999
 31
0.0
  0
ARC
  5
A265
330
9F90
100
AcDbEntity
  8
1
  6
Continuous
100
AcDbCircle
 10
195.7202389999999
 20
60.37160899999999
 30
0.0
 40
2.5
100
AcDbArc
 50
270.0
 51
0.0
  0
ARC
  5
A266
330
9F90
100
AcDbEntity
  8
1
  6
Continuous
100
AcDbCircle
 10
164.7202059999998
 20
60.37160899999999
 30
0.0
 40
2.5
100
AcDbArc
 50
180.0
 51
270.0
  0
LINE
  5
A267
330
9F90
100
AcDbEntity
  8
1
  6
Continuous
100
AcDbLine
 10
165.4417169999998
 20
54.07161899999999
 30
0.0
 11
169.262081
 21
54.07161899999999
 31
0.0
  0
LINE
  5
A268
330
9F90
100
AcDbEntity
  8
1
  6
Continuous
100
AcDbLine
 10
190.189608
 20
54.07161899999999
 30
0.0
 11
190.189608
 21
55.07161899999999
 31
0.0
  0
LINE
  5
A269
330
9F90
100
AcDbEntity
  8
1
  6
Continuous
100
AcDbLine
 10
166.0336619999999
 20
55.07161899999999
 30
0.0
 11
169.262081
 21
55.07161899999999
 31
0.0
  0
LINE
  5
A26A
330
9F90
100
AcDbEntity
  8
1
  6
Continuous
100
AcDbLine
 10
190.189608
 20
54.07161899999999
 30
0.0
 11
192.9887389999999
 21
54.07161899999999
 31
0.0
  0
LINE
  5
A26B
330
9F90
100
AcDbEntity
  8
1
  6
Continuous
100
AcDbLine
 10
190.189608
 20
55.07161899999999
 30
0.0
 11
192.0325339999999
 21
55.07161899999999
 31
0.0
  0
LINE
  5
A26C
330
9F90
100
AcDbEntity
  8
1
  6
Continuous
100
AcDbLine
 10
169.262081
 20
54.07161899999999
 30
0.0
 11
169.262081
 21
55.07161899999999
 31
0.0
  0
LINE
  5
A26D
330
9F90
100
AcDbEntity
  8
1
  6
Continuous
100
AcDbLine
 10
166.7715939999999
 20
54.07161899999999
 30
0.0
 11
166.7715939999999
 21
55.07161899999999
 31
0.0
  0
ARC
  5
A26E
330
9F90
100
AcDbEntity
  8
1
  6
Continuous
100
AcDbCircle
 10
171.220223
 20
53.871609
 30
0.0
 40
4.4
100
AcDbArc
 50
177.3946179999998
 51
341.266882
  0
ARC
  5
A272
330
9F90
100
AcDbEntity
  8
5
  6
PHANTOM
100
AcDbCircle
 10
139.106052
 20
312.4037289999999
 30
0.0
 40
9.315139999999999
100
AcDbArc
 50
223.3824569999999
 51
270.0
  0
ARC
  5
A273
330
9F90
100
AcDbEntity
  8
5
  6
PHANTOM
100
AcDbCircle
 10
140.095245
 20
313.33859
 30
0.0
 40
10.676194
100
AcDbArc
 50
136.6175429999999
 51
223.3824569999999
  0
ARC
  5
A274
330
9F90
100
AcDbEntity
  8
5
  6
PHANTOM
100
AcDbCircle
 10
139.106052
 20
314.27345
 30
0.0
 40
9.315139999999999
100
AcDbArc
 50
90.0
 51
136.6175429999999
  0
ARC
  5
A275
330
9F90
100
AcDbEntity
  8
5
  6
PHANTOM
100
AcDbCircle
 10
140.095245
 20
102.4216039999999
 30
0.0
 40
10.676194
100
AcDbArc
 50
136.6175429999999
 51
223.3824569999999
  0
ARC
  5
A276
330
9F90
100
AcDbEntity
  8
5
  6
PHANTOM
100
AcDbCircle
 10
139.106052
 20
103.356464
 30
0.0
 40
9.315139999999999
100
AcDbArc
 50
90.0
 51
136.6175429999999
  0
ARC
  5
A277
330
9F90
100
AcDbEntity
  8
5
  6
PHANTOM
100
AcDbCircle
 10
139.106052
 20
101.486743
 30
0.0
 40
9.315139999999999
100
AcDbArc
 50
223.3824569999999
 51
270.0
  0
LINE
  5
A278
330
9F90
100
AcDbEntity
  8
5
  6
PHANTOM
100
AcDbLine
 10
447.708773
 20
222.5047959999999
 30
0.0
 11
448.4606789999999
 21
224.6784139999999
 31
0.0
  0
LINE
  5
A279
330
9F90
100
AcDbEntity
  8
5
  6
PHANTOM
100
AcDbLine
 10
449.440722
 20
224.3392859999999
 30
0.0
 11
448.4612
 21
224.6781279999999
 31
0.0
  0
LINE
  5
A27A
330
9F90
100
AcDbEntity
  8
5
  6
PHANTOM
100
AcDbLine
 10
448.191429
 20
222.3377209999999
 30
0.0
 11
447.7092879999998
 21
222.5045059999999
 31
0.0
  0
LINE
  5
A27B
330
9F90
100
AcDbEntity
  8
1
  6
Continuous
100
AcDbLine
 10
530.4544029999998
 20
228.6668389999999
 30
0.0
 11
529.388821
 21
230.7051079999999
 31
0.0
  0
LINE
  5
A27C
330
9F90
100
AcDbEntity
  8
1
  6
Continuous
100
AcDbLine
 10
529.3888049999998
 20
230.7049859999999
 30
0.0
 11
528.470265
 21
230.224785
 31
0.0
  0
LINE
  5
A27D
330
9F90
100
AcDbEntity
  8
1
  6
Continuous
100
AcDbLine
 10
530.4543879999998
 20
228.666717
 30
0.0
 11
530.002255
 21
228.430348
 31
0.0
  0
LINE
  5
A27E
330
9F90
100
AcDbEntity
  8
5
  6
PHANTOM
100
AcDbLine
 10
541.2695809999997
 20
190.139645
 30
0.0
 11
542.0214929999998
 21
192.3132679999999
 31
0.0
  0
LINE
  5
A27F
330
9F90
100
AcDbEntity
  8
5
  6
PHANTOM
100
AcDbLine
 10
541.2694809999996
 20
190.1395729999999
 30
0.0
 11
540.7873239999998
 21
190.3063629999999
 31
0.0
  0
LINE
  5
A280
330
9F90
100
AcDbEntity
  8
5
  6
PHANTOM
100
AcDbLine
 10
542.021394
 20
192.313195
 30
0.0
 11
541.041857
 21
192.6520419999999
 31
0.0
  0
LINE
  5
A281
330
9F90
100
AcDbEntity
  8
1
  6
Continuous
100
AcDbLine
 10
442.5731859999998
 20
185.31887
 30
0.0
 11
441.654659
 21
184.8386759999999
 31
0.0
  0
LINE
  5
A282
330
9F90
100
AcDbEntity
  8
1
  6
Continuous
100
AcDbLine
 10
443.1723589999998
 20
183.0367689999999
 30
0.0
 11
442.7202409999998
 21
182.800407
 31
0.0
  0
LINE
  5
A283
330
9F90
100
AcDbEntity
  8
1
  6
Continuous
100
AcDbLine
 10
442.7196769999998
 20
182.800231
 30
0.0
 11
441.6540949999999
 21
184.8384929999998
 31
0.0
  0
LINE
  5
A284
330
9F90
100
AcDbEntity
  8
1
  6
Continuous
100
AcDbLine
 10
194.2790989999997
 20
54.54355699999999
 30
0.0
 11
197.5105819999999
 21
57.272359
 31
0.0
  0
LINE
  5
A285
330
9F90
100
AcDbEntity
  8
1
  6
Continuous
100
AcDbLine
 10
192.7434019999998
 20
54.33998199999999
 30
0.0
 11
196.533763
 21
57.87160899999999
 31
0.0
  0
LINE
  5
A286
330
9F90
100
AcDbEntity
  8
1
  6
Continuous
100
AcDbLine
 10
192.74995
 20
55.374974
 30
0.0
 11
195.174301
 21
57.87160899999999
 31
0.0
  0
LINE
  5
A287
330
9F90
100
AcDbEntity
  8
1
  6
Continuous
100
AcDbLine
 10
196.533763
 20
57.87160899999999
 30
0.0
 11
196.533763
 21
58.007676
 31
0.0
  0
LINE
  5
A288
330
9F90
100
AcDbEntity
  8
1
  6
Continuous
100
AcDbLine
 10
198.220223
 20
58.80041999999999
 30
0.0
 11
198.220223
 21
60.37160899999999
 31
0.0
  0
ARC
  5
A289
330
9F90
100
AcDbEntity
  8
1
  6
Continuous
100
AcDbCircle
 10
192.0325339999999
 20
56.07161899999999
 30
0.0
 40
1.0
100
AcDbArc
 50
270.0
 51
315.8415499999998
  0
ARC
  5
A28A
330
9F90
100
AcDbEntity
  8
1
  6
Continuous
100
AcDbCircle
 10
192.061707
 20
55.07161899999999
 30
0.0
 40
1.0
100
AcDbArc
 50
270.0
 51
312.976204
  0
ARC
  5
A28B
330
9F90
100
AcDbEntity
  8
1
  6
Continuous
100
AcDbCircle
 10
192.9887389999999
 20
56.07161899999999
 30
0.0
 40
2.0
100
AcDbArc
 50
270.0
 51
310.17916
  0
ARC
  5
A28C
330
9F90
100
AcDbEntity
  8
1
  6
Continuous
100
AcDbCircle
 10
196.220223
 20
58.80041999999999
 30
0.0
 40
2.0
100
AcDbArc
 50
310.17916
 51
0.0
  0
LINE
  5
A28D
330
9F90
100
AcDbEntity
  8
1
  6
Continuous
100
AcDbLine
 10
169.262081
 20
54.07161899999999
 30
0.0
 11
169.262081
 21
55.07161899999999
 31
0.0
  0
LINE
  5
A28E
330
9F90
100
AcDbEntity
  8
1
  6
Continuous
100
AcDbLine
 10
162.554575
 20
59.12259200000001
 30
0.0
 11
163.5097419999999
 21
55.55444300000001
 31
0.0
  0
LINE
  5
A28F
330
9F90
100
AcDbEntity
  8
1
  6
Continuous
100
AcDbLine
 10
164.5143349999998
 20
57.88009999999999
 30
0.0
 11
165.067674
 21
55.813031
 31
0.0
  0
LINE
  5
A290
330
9F90
100
AcDbEntity
  8
1
  6
Continuous
100
AcDbLine
 10
166.019785
 20
57.88009999999999
 30
0.0
 11
166.7715939999999
 21
55.07161899999999
 31
0.0
  0
ARC
  5
A291
330
9F90
100
AcDbEntity
  8
1
  6
Continuous
100
AcDbCircle
 10
166.0336619999999
 20
56.07161899999999
 30
0.0
 40
1.0
100
AcDbArc
 50
194.986275
 51
270.0
  0
ARC
  5
A292
330
9F90
100
AcDbEntity
  8
1
  6
Continuous
100
AcDbCircle
 10
165.4417169999998
 20
56.07161899999999
 30
0.0
 40
2.0
100
AcDbArc
 50
194.986275
 51
270.0
  0
CIRCLE
  5
A293
330
9F90
100
AcDbEntity
  8
1
  6
Continuous
100
AcDbCircle
 10
180.2202229999998
 20
196.871609
 30
0.0
 40
8.4
  0
LINE
  5
A294
330
9F90
100
AcDbEntity
  8
1
  6
Continuous
100
AcDbLine
 10
199.4041949999999
 20
182.331639
 30
0.0
 11
213.8450089999998
 21
173.994232
 31
0.0
  0
LINE
  5
A295
330
9F90
100
AcDbEntity
  8
1
  6
Continuous
100
AcDbLine
 10
214.7505759999999
 20
180.399607
 30
0.0
 11
216.8450089999998
 21
179.1903859999999
 31
0.0
  0
LINE
  5
A296
330
9F90
100
AcDbEntity
  8
1
  6
Continuous
100
AcDbLine
 10
196.614179
 20
202.872558
 30
0.0
 11
216.8450089999998
 21
214.5528319999999
 31
0.0
  0
LINE
  5
A297
330
9F90
100
AcDbEntity
  8
1
  6
Continuous
100
AcDbLine
 10
202.1166959999999
 20
212.977641
 30
0.0
 11
213.8450089999998
 21
219.7489859999997
 31
0.0
  0
ARC
  5
A298
330
9F90
100
AcDbEntity
  8
1
  6
Continuous
100
AcDbCircle
 10
180.2202229999998
 20
196.871609
 30
0.0
 40
44.0
100
AcDbArc
 50
98.390366
 51
136.1670479999999
  0
ARC
  5
A299
330
9F90
100
AcDbEntity
  8
1
  6
Continuous
100
AcDbCircle
 10
180.2202229999998
 20
196.871609
 30
0.0
 40
50.0
100
AcDbArc
 50
96.62188700000001
 51
138.1591709999999
  0
LINE
  5
A29A
330
9F90
100
AcDbEntity
  8
1
  6
Continuous
100
AcDbLine
 10
143.595446
 20
214.5528319999999
 30
0.0
 11
156.086929
 21
207.3408709999999
 31
0.0
  0
LINE
  5
A29B
330
9F90
100
AcDbEntity
  8
1
  6
Continuous
100
AcDbLine
 10
132.336365
 20
329.3716089999998
 30
0.0
 11
163.8294209999999
 21
329.3716089999998
 31
0.0
  0
LINE
  5
A29C
330
9F90
100
AcDbEntity
  8
1
  6
Continuous
100
AcDbLine
 10
132.336365
 20
354.3716089999999
 30
0.0
 11
163.8294209999999
 21
354.3716089999999
 31
0.0
  0
LINE
  5
A29D
330
9F90
100
AcDbEntity
  8
1
  6
Continuous
100
AcDbLine
 10
143.595446
 20
179.1903859999999
 30
0.0
 11
167.3020779999999
 21
192.8774159999999
 31
0.0
  0
ARC
  5
A29E
330
9F90
100
AcDbEntity
  8
1
  6
Continuous
100
AcDbCircle
 10
142.0954439999998
 20
181.7884629999998
 30
0.0
 40
3.0
100
AcDbArc
 50
201.58502
 51
299.9999899999999
  0
LINE
  5
A29F
330
9F90
100
AcDbEntity
  8
1
  6
Continuous
100
AcDbLine
 10
177.2202229999997
 20
185.1207829999999
 30
0.0
 11
177.2202229999997
 21
156.313008
 31
0.0
  0
LINE
  5
A2A0
330
9F90
100
AcDbEntity
  8
1
  6
Continuous
100
AcDbLine
 10
183.220223
 20
183.989178
 30
0.0
 11
183.220223
 21
156.313008
 31
0.0
  0
ARC
  5
A2A1
330
9F90
100
AcDbEntity
  8
1
  6
Continuous
100
AcDbCircle
 10
174.220223
 20
156.313008
 30
0.0
 40
3.0
100
AcDbArc
 50
261.58499
 51
0.0
  0
ARC
  5
A2A2
330
9F90
100
AcDbEntity
  8
1
  6
Continuous
100
AcDbCircle
 10
186.220223
 20
156.313008
 30
0.0
 40
3.0
100
AcDbArc
 50
179.9999799999999
 51
278.4149799999999
  0
LINE
  5
A2A3
330
9F90
100
AcDbEntity
  8
1
  6
Continuous
100
AcDbLine
 10
146.595446
 20
173.994232
 30
0.0
 11
171.44255
 21
188.3397139999999
 31
0.0
  0
ARC
  5
A2A4
330
9F90
100
AcDbEntity
  8
1
  6
Continuous
100
AcDbCircle
 10
148.0954439999998
 20
171.3961569999999
 30
0.0
 40
3.0
100
AcDbArc
 50
119.9999999999999
 51
218.4149399999999
  0
LINE
  5
A2A5
330
9F90
100
AcDbEntity
  8
1
  6
Continuous
100
AcDbLine
 10
165.4725
 20
190.6664089999999
 30
0.0
 11
167.8766919999999
 21
192.05447
 31
0.0
  0
LINE
  5
A2A6
330
9F90
100
AcDbEntity
  8
1
  6
Continuous
100
AcDbLine
 10
167.4725
 20
187.202306
 30
0.0
 11
170.631629
 21
189.026229
 31
0.0
  0
ARC
  5
A2A7
330
9F90
100
AcDbEntity
  8
1
  6
Continuous
100
AcDbCircle
 10
180.2202229999998
 20
196.871609
 30
0.0
 40
16.0
100
AcDbArc
 50
202.8192199999999
 51
217.1807299999999
  0
ARC
  5
A2A8
330
9F90
100
AcDbEntity
  8
1
  6
Continuous
100
AcDbCircle
 10
230.220223
 20
341.8716089999998
 30
0.0
 40
100.0
100
AcDbArc
 50
173.588108
 51
186.4119109999999
  0
ARC
  5
A2A9
330
9F90
100
AcDbEntity
  8
1
  6
Continuous
100
AcDbCircle
 10
132.336365
 20
330.8716089999998
 30
0.0
 40
1.5
100
AcDbArc
 50
186.4118969999998
 51
270.00002
  0
ARC
  5
A2AA
330
9F90
100
AcDbEntity
  8
1
  6
Continuous
100
AcDbCircle
 10
132.336365
 20
352.8716089999999
 30
0.0
 40
1.5
100
AcDbArc
 50
90.0
 51
173.588121
  0
ARC
  5
A2AB
330
9F90
100
AcDbEntity
  8
1
  6
Continuous
100
AcDbCircle
 10
142.0954439999998
 20
211.9547549999999
 30
0.0
 40
3.0
100
AcDbArc
 50
60.00000799999997
 51
158.41498
  0
ARC
  5
A2AC
330
9F90
100
AcDbEntity
  8
1
  6
Continuous
100
AcDbCircle
 10
148.0954439999998
 20
222.347061
 30
0.0
 40
3.0
100
AcDbArc
 50
141.5850399999999
 51
225.7448899999999
  0
ARC
  5
A2AD
330
9F90
100
AcDbEntity
  8
1
  6
Continuous
100
AcDbCircle
 10
218.3450019999999
 20
181.788462
 30
0.0
 40
3.0
100
AcDbArc
 50
239.99997
 51
338.41497
  0
ARC
  5
A2AE
330
9F90
100
AcDbEntity
  8
1
  6
Continuous
100
AcDbCircle
 10
212.3450019999999
 20
171.3961569999999
 30
0.0
 40
3.0
100
AcDbArc
 50
321.5849999999998
 51
60.000015
  0
ARC
  5
A2AF
330
9F90
100
AcDbEntity
  8
1
  6
Continuous
100
AcDbCircle
 10
212.3450019999999
 20
222.347061
 30
0.0
 40
3.0
100
AcDbArc
 50
299.9999799999999
 51
38.41499499999999
  0
ARC
  5
A2B0
330
9F90
100
AcDbEntity
  8
1
  6
Continuous
100
AcDbCircle
 10
218.3450019999999
 20
211.9547559999999
 30
0.0
 40
3.0
100
AcDbArc
 50
21.585028
 51
120.00003
  0
ARC
  5
A2B1
330
9F90
100
AcDbEntity
  8
1
  6
Continuous
100
AcDbCircle
 10
180.2202229999998
 20
196.871609
 30
0.0
 40
44.0
100
AcDbArc
 50
139.263569
 51
345.536427
  0
ARC
  5
A2B2
330
9F90
100
AcDbEntity
  8
1
  6
Continuous
100
AcDbCircle
 10
180.2202229999998
 20
196.871609
 30
0.0
 40
50.0
100
AcDbArc
 50
140.863151
 51
343.936842
  0
ARC
  5
A2B3
330
9F90
100
AcDbEntity
  8
1
  6
Continuous
100
AcDbCircle
 10
180.2202229999998
 20
196.871609
 30
0.0
 40
44.0
100
AcDbArc
 50
348.632944
 51
45.73003299999998
  0
ARC
  5
A2B4
330
9F90
100
AcDbEntity
  8
1
  6
Continuous
100
AcDbCircle
 10
180.2202229999998
 20
196.871609
 30
0.0
 40
50.0
100
AcDbArc
 50
346.640821
 51
47.498512
  0
ARC
  5
A2B5
330
9F90
100
AcDbEntity
  8
1
  6
Continuous
100
AcDbCircle
 10
491.220223
 20
196.871609
 30
0.0
 40
50.0
100
AcDbArc
 50
132.5014879999999
 51
83.378113
  0
ARC
  5
A2B6
330
9F90
100
AcDbEntity
  8
1
  6
Continuous
100
AcDbCircle
 10
491.220223
 20
196.871609
 30
0.0
 40
44.0
100
AcDbArc
 50
134.2699669999997
 51
81.60963399999998
  0
LINE
  5
A2B7
330
9F90
100
AcDbEntity
  8
1
  6
Continuous
100
AcDbLine
 10
457.595446
 20
173.994232
 30
0.0
 11
474.370292
 21
183.6791939999999
 31
0.0
  0
ARC
  5
A2B8
330
9F90
100
AcDbEntity
  8
1
  6
Continuous
100
AcDbCircle
 10
459.0954439999999
 20
171.3961569999999
 30
0.0
 40
3.0
100
AcDbArc
 50
119.9999999999999
 51
218.4149399999999
  0
LINE
  5
A2B9
330
9F90
100
AcDbEntity
  8
1
  6
Continuous
100
AcDbLine
 10
454.5954459999999
 20
179.1903859999999
 30
0.0
 11
471.370291
 21
188.875347
 31
0.0
  0
ARC
  5
A2BA
330
9F90
100
AcDbEntity
  8
1
  6
Continuous
100
AcDbCircle
 10
453.095444
 20
181.7884629999998
 30
0.0
 40
3.0
100
AcDbArc
 50
201.58502
 51
299.9999899999999
  0
ARC
  5
A2BB
330
9F90
100
AcDbEntity
  8
1
  6
Continuous
100
AcDbCircle
 10
485.2202209999998
 20
156.313009
 30
0.0
 40
3.0
100
AcDbArc
 50
261.5850200000001
 51
359.9999899999998
  0
ARC
  5
A2BC
330
9F90
100
AcDbEntity
  8
1
  6
Continuous
100
AcDbCircle
 10
497.2202219999998
 20
156.313008
 30
0.0
 40
3.0
100
AcDbArc
 50
180.0
 51
278.4149399999999
  0
LINE
  5
A2BD
330
9F90
100
AcDbEntity
  8
1
  6
Continuous
100
AcDbLine
 10
494.2202239999998
 20
156.313009
 30
0.0
 11
494.2202239999998
 21
175.6829329999999
 31
0.0
  0
LINE
  5
A2BE
330
9F90
100
AcDbEntity
  8
1
  6
Continuous
100
AcDbLine
 10
488.2202229999998
 20
156.3130099999999
 30
0.0
 11
488.2202229999998
 21
175.6829329999999
 31
0.0
  0
ARC
  5
A2BF
330
9F90
100
AcDbEntity
  8
1
  6
Continuous
100
AcDbCircle
 10
523.345
 20
171.396155
 30
0.0
 40
3.0
100
AcDbArc
 50
321.5850199999998
 51
59.99998999999999
  0
ARC
  5
A2C0
330
9F90
100
AcDbEntity
  8
1
  6
Continuous
100
AcDbCircle
 10
529.3450009999998
 20
181.78846
 30
0.0
 40
3.0
100
AcDbArc
 50
239.9999999999999
 51
338.41494
  0
LINE
  5
A2C1
330
9F90
100
AcDbEntity
  8
1
  6
Continuous
100
AcDbLine
 10
527.845001
 20
179.1903859999999
 30
0.0
 11
511.0701549999998
 21
188.875348
 31
0.0
  0
LINE
  5
A2C2
330
9F90
100
AcDbEntity
  8
1
  6
Continuous
100
AcDbLine
 10
524.845
 20
173.994233
 30
0.0
 11
508.0701549999998
 21
183.679195
 31
0.0
  0
ARC
  5
A2C3
330
9F90
100
AcDbEntity
  8
1
  6
Continuous
100
AcDbCircle
 10
529.3450019999998
 20
211.9547549999999
 30
0.0
 40
3.0
100
AcDbArc
 50
21.58501999999999
 51
119.9999899999999
  0
ARC
  5
A2C4
330
9F90
100
AcDbEntity
  8
1
  6
Continuous
100
AcDbCircle
 10
523.3450019999998
 20
222.347061
 30
0.0
 40
3.0
100
AcDbArc
 50
300.0
 51
38.41494
  0
LINE
  5
A2C5
330
9F90
100
AcDbEntity
  8
1
  6
Continuous
100
AcDbLine
 10
524.845
 20
219.7489859999997
 30
0.0
 11
508.0701539999998
 21
210.0640239999999
 31
0.0
  0
LINE
  5
A2C6
330
9F90
100
AcDbEntity
  8
1
  6
Continuous
100
AcDbLine
 10
527.845
 20
214.5528319999999
 30
0.0
 11
511.0701549999998
 21
204.8678709999999
 31
0.0
  0
ARC
  5
A2C7
330
9F90
100
AcDbEntity
  8
1
  6
Continuous
100
AcDbCircle
 10
459.0954459999998
 20
222.347063
 30
0.0
 40
3.0
100
AcDbArc
 50
141.5850199999999
 51
239.99999
  0
ARC
  5
A2C8
330
9F90
100
AcDbEntity
  8
1
  6
Continuous
100
AcDbCircle
 10
453.095445
 20
211.9547569999999
 30
0.0
 40
3.0
100
AcDbArc
 50
60.0
 51
158.41494
  0
LINE
  5
A2C9
330
9F90
100
AcDbEntity
  8
1
  6
Continuous
100
AcDbLine
 10
454.5954449999999
 20
214.5528309999999
 30
0.0
 11
471.370291
 21
204.8678699999999
 31
0.0
  0
LINE
  5
A2CA
330
9F90
100
AcDbEntity
  8
1
  6
Continuous
100
AcDbLine
 10
457.595446
 20
219.748985
 30
0.0
 11
469.3237469999998
 21
212.9776469999999
 31
0.0
  0
ARC
  5
A2CB
330
9F90
100
AcDbEntity
  8
1
  6
Continuous
100
AcDbCircle
 10
57.22022299999999
 20
246.871609
 30
0.0
 40
100.0
100
AcDbArc
 50
263.5880899999999
 51
276.4118899999999
  0
ARC
  5
A2CC
330
9F90
100
AcDbEntity
  8
1
  6
Continuous
100
AcDbCircle
 10
46.220223
 20
148.987751
 30
0.0
 40
1.5
100
AcDbArc
 50
179.9999799999999
 51
263.5880899999999
  0
ARC
  5
A2CD
330
9F90
100
AcDbEntity
  8
1
  6
Continuous
100
AcDbCircle
 10
68.220223
 20
148.987751
 30
0.0
 40
1.5
100
AcDbArc
 50
276.4118799999998
 51
0.0
  0
LINE
  5
A2CE
330
9F90
100
AcDbEntity
  8
1
  6
Continuous
100
AcDbLine
 10
44.72022299999999
 20
148.987751
 30
0.0
 11
44.72022299999999
 21
244.7554669999999
 31
0.0
  0
LINE
  5
A2CF
330
9F90
100
AcDbEntity
  8
1
  6
Continuous
100
AcDbLine
 10
69.720223
 20
148.987751
 30
0.0
 11
69.720223
 21
244.7554669999999
 31
0.0
  0
LINE
  5
A2D0
330
9F90
100
AcDbEntity
  8
1
  6
Continuous
100
AcDbLine
 10
72.220223
 20
205.8716089999998
 30
0.0
 11
72.220223
 21
187.871609
 31
0.0
  0
ARC
  5
A2D1
330
9F90
100
AcDbEntity
  8
1
  6
Continuous
100
AcDbCircle
 10
71.22022300000002
 20
187.871609
 30
0.0
 40
1.0
100
AcDbArc
 50
274.2534799999999
 51
0.0
  0
LINE
  5
A2D2
330
9F90
100
AcDbEntity
  8
1
  6
Continuous
100
AcDbLine
 10
71.29439599999997
 20
186.8743629999999
 30
0.0
 11
69.720223
 21
186.7572859999999
 31
0.0
  0
ARC
  5
A2D3
330
9F90
100
AcDbEntity
  8
1
  6
Continuous
100
AcDbCircle
 10
71.22022300000002
 20
205.8716089999998
 30
0.0
 40
1.0
100
AcDbArc
 50
0.0
 51
85.74651600000001
  0
LINE
  5
A2D4
330
9F90
100
AcDbEntity
  8
1
  6
Continuous
100
AcDbLine
 10
71.29439599999997
 20
206.868855
 30
0.0
 11
69.720223
 21
206.9859319999999
 31
0.0
  0
ARC
  5
A2D5
330
9F90
100
AcDbEntity
  8
1
  6
Continuous
100
AcDbCircle
 10
57.22022299999999
 20
146.871609
 30
0.0
 40
100.0
100
AcDbArc
 50
83.58810799999998
 51
96.411911
  0
ARC
  5
A2D6
330
9F90
100
AcDbEntity
  8
1
  6
Continuous
100
AcDbCircle
 10
46.220223
 20
244.7554669999999
 30
0.0
 40
1.5
100
AcDbArc
 50
96.41189699999999
 51
180.00002
  0
ARC
  5
A2D7
330
9F90
100
AcDbEntity
  8
1
  6
Continuous
100
AcDbCircle
 10
68.220223
 20
244.7554669999999
 30
0.0
 40
1.5
100
AcDbArc
 50
0.0
 51
83.58812099999999
  0
LINE
  5
A2D8
330
9F90
100
AcDbEntity
  8
1
  6
Continuous
100
AcDbLine
 10
43.720223
 20
218.2716089999999
 30
0.0
 11
43.720223
 21
175.471609
 31
0.0
  0
LINE
  5
A2D9
330
9F90
100
AcDbEntity
  8
1
  6
Continuous
100
AcDbLine
 10
43.720223
 20
218.2716089999999
 30
0.0
 11
44.72022299999999
 21
218.2716089999999
 31
0.0
  0
LINE
  5
A2DA
330
9F90
100
AcDbEntity
  8
1
  6
Continuous
100
AcDbLine
 10
43.720223
 20
175.471609
 30
0.0
 11
44.72022299999999
 21
175.471609
 31
0.0
  0
LINE
  5
A2DB
330
9F90
100
AcDbEntity
  8
1
  6
Continuous
100
AcDbLine
 10
347.8197999999999
 20
244.755483
 30
0.0
 11
347.8197999999999
 21
148.987767
 31
0.0
  0
LINE
  5
A2DC
330
9F90
100
AcDbEntity
  8
1
  6
Continuous
100
AcDbLine
 10
322.8197999999999
 20
244.755483
 30
0.0
 11
322.8197999999999
 21
148.987767
 31
0.0
  0
ARC
  5
A2DD
330
9F90
100
AcDbEntity
  8
1
  6
Continuous
100
AcDbCircle
 10
335.3197999999999
 20
246.8716249999999
 30
0.0
 40
100.0
100
AcDbArc
 50
263.5880899999999
 51
276.4118899999999
  0
ARC
  5
A2DE
330
9F90
100
AcDbEntity
  8
1
  6
Continuous
100
AcDbCircle
 10
324.3198
 20
148.987767
 30
0.0
 40
1.5
100
AcDbArc
 50
179.9999799999999
 51
263.5880899999999
  0
ARC
  5
A2DF
330
9F90
100
AcDbEntity
  8
1
  6
Continuous
100
AcDbCircle
 10
346.3197999999999
 20
148.987767
 30
0.0
 40
1.5
100
AcDbArc
 50
276.4118799999998
 51
0.0
  0
LINE
  5
A2E0
330
9F90
100
AcDbEntity
  8
1
  6
Continuous
100
AcDbLine
 10
321.245627
 20
206.8688719999999
 30
0.0
 11
322.819808
 21
206.985949
 31
0.0
  0
LINE
  5
A2E1
330
9F90
100
AcDbEntity
  8
1
  6
Continuous
100
AcDbLine
 10
321.245627
 20
186.874379
 30
0.0
 11
322.819808
 21
186.757301
 31
0.0
  0
LINE
  5
A2E2
330
9F90
100
AcDbEntity
  8
1
  6
Continuous
100
AcDbLine
 10
320.3197999999998
 20
205.8716249999999
 30
0.0
 11
320.3197999999998
 21
187.871625
 31
0.0
  0
ARC
  5
A2E3
330
9F90
100
AcDbEntity
  8
1
  6
Continuous
100
AcDbCircle
 10
321.3197999999998
 20
187.871625
 30
0.0
 40
1.0
100
AcDbArc
 50
179.9999799999999
 51
265.74649
  0
ARC
  5
A2E4
330
9F90
100
AcDbEntity
  8
1
  6
Continuous
100
AcDbCircle
 10
321.3197999999998
 20
205.8716249999999
 30
0.0
 40
1.0
100
AcDbArc
 50
94.25350299999999
 51
180.00002
  0
ARC
  5
A2E5
330
9F90
100
AcDbEntity
  8
1
  6
Continuous
100
AcDbCircle
 10
335.3197999999999
 20
146.8716249999999
 30
0.0
 40
100.0
100
AcDbArc
 50
83.58810799999998
 51
96.411911
  0
ARC
  5
A2E6
330
9F90
100
AcDbEntity
  8
1
  6
Continuous
100
AcDbCircle
 10
324.3198
 20
244.755483
 30
0.0
 40
1.5
100
AcDbArc
 50
96.41189699999999
 51
180.00002
  0
ARC
  5
A2E7
330
9F90
100
AcDbEntity
  8
1
  6
Continuous
100
AcDbCircle
 10
346.3197999999999
 20
244.755483
 30
0.0
 40
1.5
100
AcDbArc
 50
0.0
 51
83.58812099999999
  0
LINE
  5
A2E8
330
9F90
100
AcDbEntity
  8
1
  6
Continuous
100
AcDbLine
 10
348.8198
 20
218.2716249999999
 30
0.0
 11
348.8198
 21
175.4716249999999
 31
0.0
  0
LINE
  5
A2E9
330
9F90
100
AcDbEntity
  8
1
  6
Continuous
100
AcDbLine
 10
348.8198
 20
218.2716249999999
 30
0.0
 11
347.8197999999999
 21
218.2716249999999
 31
0.0
  0
LINE
  5
A2EA
330
9F90
100
AcDbEntity
  8
1
  6
Continuous
100
AcDbLine
 10
348.8198
 20
175.4716249999999
 30
0.0
 11
347.8197999999999
 21
175.4716249999999
 31
0.0
  0
LINE
  5
A2EB
330
9F90
100
AcDbEntity
  8
1
  6
Continuous
100
AcDbLine
 10
132.336365
 20
86.37160899999996
 30
0.0
 11
228.1040809999999
 21
86.37160899999996
 31
0.0
  0
LINE
  5
A2EC
330
9F90
100
AcDbEntity
  8
1
  6
Continuous
100
AcDbLine
 10
132.336365
 20
61.371609
 30
0.0
 11
228.1040809999999
 21
61.371609
 31
0.0
  0
ARC
  5
A2ED
330
9F90
100
AcDbEntity
  8
1
  6
Continuous
100
AcDbCircle
 10
230.220223
 20
73.87160899999997
 30
0.0
 40
100.0
100
AcDbArc
 50
173.588108
 51
186.4119109999999
  0
ARC
  5
A2EE
330
9F90
100
AcDbEntity
  8
1
  6
Continuous
100
AcDbCircle
 10
132.336365
 20
62.87160899999999
 30
0.0
 40
1.5
100
AcDbArc
 50
186.4118969999998
 51
270.00002
  0
ARC
  5
A2EF
330
9F90
100
AcDbEntity
  8
1
  6
Continuous
100
AcDbCircle
 10
132.336365
 20
84.87160899999997
 30
0.0
 40
1.5
100
AcDbArc
 50
90.0
 51
173.588121
  0
ARC
  5
A2F0
330
9F90
100
AcDbEntity
  8
1
  6
Continuous
100
AcDbCircle
 10
130.220223
 20
73.87160899999997
 30
0.0
 40
100.0
100
AcDbArc
 50
353.5880899999999
 51
6.411889999999998
  0
ARC
  5
A2F1
330
9F90
100
AcDbEntity
  8
1
  6
Continuous
100
AcDbCircle
 10
228.1040809999999
 20
62.87160899999999
 30
0.0
 40
1.5
100
AcDbArc
 50
269.99998
 51
353.5880899999999
  0
LINE
  5
A2F2
330
9F90
100
AcDbEntity
  8
1
  6
Continuous
100
AcDbLine
 10
171.220223
 20
88.87160899999996
 30
0.0
 11
189.220223
 21
88.87160899999996
 31
0.0
  0
ARC
  5
A2F3
330
9F90
100
AcDbEntity
  8
1
  6
Continuous
100
AcDbCircle
 10
171.220223
 20
87.87160899999998
 30
0.0
 40
1.0
100
AcDbArc
 50
90.0
 51
175.7465159999999
  0
LINE
  5
A2F4
330
9F90
100
AcDbEntity
  8
1
  6
Continuous
100
AcDbLine
 10
170.2229769999999
 20
87.94578199999998
 30
0.0
 11
170.1058999999998
 21
86.37160899999996
 31
0.0
  0
ARC
  5
A2F5
330
9F90
100
AcDbEntity
  8
1
  6
Continuous
100
AcDbCircle
 10
189.220223
 20
87.87160899999998
 30
0.0
 40
1.0
100
AcDbArc
 50
4.253479999999997
 51
90.0
  0
LINE
  5
A2F6
330
9F90
100
AcDbEntity
  8
1
  6
Continuous
100
AcDbLine
 10
190.217469
 20
87.94578199999998
 30
0.0
 11
190.3345459999999
 21
86.37160899999996
 31
0.0
  0
ARC
  5
A2F7
330
9F90
100
AcDbEntity
  8
1
  6
Continuous
100
AcDbCircle
 10
228.1040809999999
 20
84.87160899999997
 30
0.0
 40
1.5
100
AcDbArc
 50
6.41188
 51
90.0
  0
ARC
  5
A2F8
330
9F90
100
AcDbEntity
  8
1
  6
Continuous
100
AcDbCircle
 10
79.753563
 20
73.87160899999997
 30
0.0
 40
85.0
100
AcDbArc
 50
8.456519
 51
11.055785
  0
LINE
  5
A2F9
330
9F90
100
AcDbEntity
  8
1
  6
Continuous
100
AcDbLine
 10
158.820223
 20
60.372471
 30
0.0
 11
201.620223
 21
60.361621
 31
0.0
  0
LINE
  5
A2FA
330
9F90
100
AcDbEntity
  8
1
  6
Continuous
100
AcDbLine
 10
158.820223
 20
60.372471
 30
0.0
 11
158.820223
 21
61.371609
 31
0.0
  0
LINE
  5
A2FB
330
9F90
100
AcDbEntity
  8
1
  6
Continuous
100
AcDbLine
 10
201.620223
 20
60.361621
 30
0.0
 11
201.620223
 21
61.371609
 31
0.0
  0
LINE
  5
A2FE
330
9F90
100
AcDbEntity
  8
1
  6
Continuous
100
AcDbLine
 10
158.820223
 20
355.3707469999998
 30
0.0
 11
163.6745969999997
 21
355.371977
 31
0.0
  0
LINE
  5
A2FF
330
9F90
100
AcDbEntity
  8
1
  6
Continuous
100
AcDbLine
 10
158.820223
 20
355.3707469999998
 30
0.0
 11
158.820223
 21
354.3716089999999
 31
0.0
  0
ARC
  5
A300
330
9F90
100
AcDbEntity
  8
1
  6
Continuous
100
AcDbCircle
 10
164.7202059999998
 20
355.3716089999999
 30
0.0
 40
2.5
100
AcDbArc
 50
124.1803879999997
 51
180.0
  0
LINE
  5
A301
330
9F90
100
AcDbEntity
  8
1
  6
Continuous
100
AcDbLine
 10
162.554575
 20
356.620625
 30
0.0
 11
163.088299
 21
358.61442
 31
0.0
  0
ARC
  5
A331
330
9F90
100
AcDbEntity
  8
1
  6
Continuous
100
AcDbCircle
 10
77.51198964186862
 20
185.8256258400351
 30
0.0
 40
3.597233620898943
100
AcDbArc
 50
247.88984307241
 51
269.3153994883055
  0
ARC
  5
A332
330
9F90
100
AcDbEntity
  8
1
  6
Continuous
100
AcDbCircle
 10
79.96012650596771
 20
185.4950368248849
 30
0.0
 40
3.263037498043361
100
AcDbArc
 50
241.2752894642737
 51
289.3107367962274
  0
ARC
  5
A333
330
9F90
100
AcDbEntity
  8
1
  6
Continuous
100
AcDbCircle
 10
310.9452242847198
 20
203.4213196679818
 30
0.0
 40
8.076972188960741
100
AcDbArc
 50
285.6176532835311
 51
308.535262114238
  0
ARC
  5
A334
330
9F90
100
AcDbEntity
  8
1
  6
Continuous
100
AcDbCircle
 10
305.5245320008914
 20
209.0831101270841
 30
0.0
 40
2.640361048841534
100
AcDbArc
 50
24.91878909104796
 51
112.3662909278987
  0
ARC
  5
A335
330
9F90
100
AcDbEntity
  8
1
  6
Continuous
100
AcDbCircle
 10
305.5940398203785
 20
210.6698826031056
 30
0.0
 40
3.086223686604437
100
AcDbArc
 50
57.51326361905256
 51
110.3692722861516
  0
ARC
  5
A336
330
9F90
100
AcDbEntity
  8
1
  6
Continuous
100
AcDbCircle
 10
304.7770009986801
 20
211.1253258265056
 30
0.0
 40
3.276759551648488
100
AcDbArc
 50
343.5165245949982
 51
40.95570610358527
  0
ARC
  5
A337
330
9F90
100
AcDbEntity
  8
1
  6
Continuous
100
AcDbCircle
 10
280.1445241289534
 20
216.8778141944021
 30
0.0
 40
28.56709281628317
100
AcDbArc
 50
328.5685671710026
 51
346.472406740822
  0
ENDSEC
  0
SECTION
  2
OBJECTS
  0
DICTIONARY
  5
9F7E
330
0
100
AcDbDictionary
281
     1
  3
ACAD_CIP_PREVIOUS_PRODUCT_INFO
350
A39A
  3
ACAD_COLOR
350
A37C
  3
ACAD_DETAILVIEWSTYLE
350
A395
  3
ACAD_GROUP
350
9F7F
  3
ACAD_LAYOUT
350
9F8B
  3
ACAD_MATERIAL
350
A34A
  3
ACAD_MLEADERSTYLE
350
A391
  3
ACAD_MLINESTYLE
350
9F88
  3
ACAD_PLOTSETTINGS
350
9F8A
  3
ACAD_PLOTSTYLENAME
350
A348
  3
ACAD_SCALELIST
350
A37F
  3
ACAD_SECTIONVIEWSTYLE
350
A393
  3
ACAD_TABLESTYLE
350
A37D
  3
ACAD_VISUALSTYLE
350
A363
  3
ACDB_RECOMPOSE_DATA
350
A3B8
  3
AcDbVariableDictionary
350
A3AB
  3
DWGPROPS
350
A3B9
  0
DICTIONARY
  5
A39B
330
9F82
100
AcDbDictionary
280
     1
281
     1
  3
ADSK_XREC_LAYER_RECONCILED
360
A39C
  0
DICTIONARY
  5
A39D
330
9F98
100
AcDbDictionary
280
     1
281
     1
  3
ADSK_XREC_LAYER_RECONCILED
360
A39E
  0
DICTIONARY
  5
A39F
330
9F99
100
AcDbDictionary
280
     1
281
     1
  3
ADSK_XREC_LAYER_RECONCILED
360
A3A0
  0
DICTIONARY
  5
A3A1
330
9F9A
100
AcDbDictionary
280
     1
281
     1
  3
ADSK_XREC_LAYER_RECONCILED
360
A3A2
  0
DICTIONARY
  5
A3A3
330
9F9B
100
AcDbDictionary
280
     1
281
     1
  3
ADSK_XREC_LAYER_RECONCILED
360
A3A4
  0
DICTIONARY
  5
A3A5
330
9F9C
100
AcDbDictionary
280
     1
281
     1
  3
ADSK_XREC_LAYER_RECONCILED
360
A3A6
  0
DICTIONARY
  5
A3A7
330
9F9D
100
AcDbDictionary
280
     1
281
     1
  3
ADSK_XREC_LAYER_RECONCILED
360
A3A8
  0
DICTIONARY
  5
A3A9
330
9F9E
100
AcDbDictionary
280
     1
281
     1
  3
ADSK_XREC_LAYER_RECONCILED
360
A3AA
  0
DICTIONARY
  5
A30C
330
9F90
100
AcDbDictionary
281
     1
  3
ACAD_LAYOUTSELFREF
350
A344
  0
DICTIONARY
  5
A30A
330
9F8C
100
AcDbDictionary
281
     1
  3
ACAD_LAYOUTSELFREF
350
A343
  0
XRECORD
  5
A39A
102
{ACAD_REACTORS
330
9F7E
102
}
330
9F7E
100
AcDbXrecord
280
     1
300
ACDLT
300
2014
300
ACDLT_F_S
  0
DICTIONARY
  5
A37C
102
{ACAD_REACTORS
330
9F7E
102
}
330
9F7E
100
AcDbDictionary
281
     1
  0
DICTIONARY
  5
A395
102
{ACAD_REACTORS
330
9F7E
102
}
330
9F7E
100
AcDbDictionary
281
     1
  3
Imperial24
350
A396
  0
DICTIONARY
  5
9F7F
102
{ACAD_REACTORS
330
9F7E
102
}
330
9F7E
100
AcDbDictionary
281
     1
  0
DICTIONARY
  5
9F8B
102
{ACAD_REACTORS
330
9F7E
102
}
330
9F7E
100
AcDbDictionary
281
     1
  3
Model
350
A397
  3
レイアウト1
350
A398
  0
DICTIONARY
  5
A34A
102
{ACAD_REACTORS
330
9F7E
102
}
330
9F7E
100
AcDbDictionary
281
     1
  3
ByBlock
350
A353
  3
ByLayer
350
A34B
  3
Global
350
A35B
  0
DICTIONARY
  5
A391
102
{ACAD_REACTORS
330
9F7E
102
}
330
9F7E
100
AcDbDictionary
281
     1
  3
Standard
350
A392
  0
DICTIONARY
  5
9F88
102
{ACAD_REACTORS
330
9F7E
102
}
330
9F7E
100
AcDbDictionary
281
     1
  3
STANDARD
350
9F89
  0
DICTIONARY
  5
9F8A
102
{ACAD_REACTORS
330
9F7E
102
}
330
9F7E
100
AcDbDictionary
281
     1
  0
ACDBDICTIONARYWDFLT
  5
A348
102
{ACAD_REACTORS
330
9F7E
102
}
330
9F7E
100
AcDbDictionary
281
     1
  3
Normal
350
A349
100
AcDbDictionaryWithDefault
340
A349
  0
DICTIONARY
  5
A37F
102
{ACAD_REACTORS
330
9F7E
102
}
330
9F7E
100
AcDbDictionary
281
     1
  3
A0
350
A380
  3
A1
350
A381
  3
A2
350
A382
  3
A3
350
A383
  3
A4
350
A384
  3
A5
350
A385
  3
A6
350
A386
  3
A7
350
A387
  3
A8
350
A388
  3
A9
350
A389
  3
B0
350
A38A
  3
B1
350
A38B
  3
B2
350
A38C
  3
B3
350
A38D
  3
B4
350
A38E
  3
B5
350
A38F
  3
B6
350
A390
  0
DICTIONARY
  5
A393
102
{ACAD_REACTORS
330
9F7E
102
}
330
9F7E
100
AcDbDictionary
281
     1
  3
Imperial24
350
A394
  0
DICTIONARY
  5
A37D
102
{ACAD_REACTORS
330
9F7E
102
}
330
9F7E
100
AcDbDictionary
281
     1
  3
Standard
350
A37E
  0
DICTIONARY
  5
A363
102
{ACAD_REACTORS
330
9F7E
102
}
330
9F7E
100
AcDbDictionary
281
     1
  3
2dWireframe
350
A369
  3
Basic
350
A368
  3
Brighten
350
A36F
  3
ColorChange
350
A373
  3
Conceptual
350
A36C
  3
Dim
350
A36E
  3
EdgeColorOff
350
A37B
  3
Facepattern
350
A372
  3
Flat
350
A364
  3
FlatWithEdges
350
A365
  3
Gouraud
350
A366
  3
GouraudWithEdges
350
A367
  3
Hidden
350
A36B
  3
JitterOff
350
A379
  3
Linepattern
350
A371
  3
OverhangOff
350
A37A
  3
Realistic
350
A36D
  3
Shaded
350
A378
  3
Shaded with edges
350
A377
  3
Shades of Gray
350
A374
  3
Sketchy
350
A375
  3
Thicken
350
A370
  3
Wireframe
350
A36A
  3
X-Ray
350
A376
  0
XRECORD
  5
A3B8
102
{ACAD_REACTORS
330
9F7E
102
}
330
9F7E
100
AcDbXrecord
280
     1
 90
        1
330
A37E
  0
DICTIONARY
  5
A3AB
102
{ACAD_REACTORS
330
9F7E
102
}
330
9F7E
100
AcDbDictionary
281
     1
  3
CANNOSCALE
350
A3B0
  3
CMLEADERSTYLE
350
A3AD
  3
CTABLESTYLE
350
A3AC
  3
CVIEWDETAILSTYLE
350
A3AE
  3
CVIEWSECTIONSTYLE
350
A3AF
  3
DIMASSOC
350
A3B3
  3
INDEXCTL
350
A3B2
  3
SORTENTS
350
A3B1
  3
XCLIPFRAME
350
A3B4
  0
XRECORD
  5
A3B9
102
{ACAD_REACTORS
330
9F7E
102
}
330
9F7E
100
AcDbXrecord
280
     1
  1
DWGPROPS COOKIE
  2

  3

  4

  6

  7

  8
Yoshitsune
  9

300
=
301
=
302
=
303
=
304
=
305
=
306
=
307
=
308
=
309
=
 40
0.008952662037037
 41
2451301.429375
 42
2457192.689924097
  1

 90
        0
  0
XRECORD
  5
A39C
102
{ACAD_REACTORS
330
A39B
102
}
330
A39B
100
AcDbXrecord
280
     1
290
     1
  0
XRECORD
  5
A39E
102
{ACAD_REACTORS
330
A39D
102
}
330
A39D
100
AcDbXrecord
280
     1
290
     1
  0
XRECORD
  5
A3A0
102
{ACAD_REACTORS
330
A39F
102
}
330
A39F
100
AcDbXrecord
280
     1
290
     1
  0
XRECORD
  5
A3A2
102
{ACAD_REACTORS
330
A3A1
102
}
330
A3A1
100
AcDbXrecord
280
     1
290
     1
  0
XRECORD
  5
A3A4
102
{ACAD_REACTORS
330
A3A3
102
}
330
A3A3
100
AcDbXrecord
280
     1
290
     1
  0
XRECORD
  5
A3A6
102
{ACAD_REACTORS
330
A3A5
102
}
330
A3A5
100
AcDbXrecord
280
     1
290
     1
  0
XRECORD
  5
A3A8
102
{ACAD_REACTORS
330
A3A7
102
}
330
A3A7
100
AcDbXrecord
280
     1
290
     1
  0
XRECORD
  5
A3AA
102
{ACAD_REACTORS
330
A3A9
102
}
330
A3A9
100
AcDbXrecord
280
     1
290
     1
  0
XRECORD
  5
A344
102
{ACAD_REACTORS
330
A30C
102
}
330
A30C
100
AcDbXrecord
280
     1
340
9F90
  0
XRECORD
  5
A343
102
{ACAD_REACTORS
330
A30A
102
}
330
A30A
100
AcDbXrecord
280
     1
340
9F8C
  0
ACDBDETAILVIEWSTYLE
  5
A396
102
{ACAD_XDICTIONARY
360
A3F1
102
}
102
{ACAD_REACTORS
330
A395
102
}
330
A395
100
AcDbModelDocViewStyle
 70
     0
  3
Imperial24
290
     0
100
AcDbDetailViewStyle
 70
     0
 71
     0
 90
        3
 71
     1
340
9F83
 40
0.24
340
0
 40
0.24
300

 40
0.36
280
     3
 71
     2
340
9F87
 90
       25
 71
     3
340
9F83
 40
0.24
 90
        1
 40
0.75
 90
        1
300
%<\AcVar ViewType \f "%tc1">% %<\AcVar ViewDetailId>%\PSCALE %<\AcVar ViewScale \f "%sn">%
 71
     4
340
9F87
 90
       25
340
9F87
 90
       25
280
     0
  0
LAYOUT
  5
A397
102
{ACAD_XDICTIONARY
360
A3F3
102
}
102
{ACAD_REACTORS
330
9F8B
102
}
330
9F8B
100
AcDbPlotSettings
  1

  2
Canon LBP9100C
  4

  6

 40
0.0
 41
0.0
 42
0.0
 43
0.0
 44
0.0
 45
0.0
 46
0.0
 47
0.0
 48
0.0
 49
0.0
140
0.0
141
0.0
142
1.0
143
1.0
 70
  1712
 72
     0
 73
     0
 74
     0
  7

 75
     0
147
1.0
148
0.0
149
0.0
100
AcDbLayout
  1
Model
 70
     1
 71
     0
 10
0.0
 20
0.0
 11
12.0
 21
9.0
 12
0.0
 22
0.0
 32
0.0
 14
0.0
 24
0.0
 34
0.0
 15
0.0
 25
0.0
 35
0.0
146
0.0
 13
0.0
 23
0.0
 33
0.0
 16
1.0
 26
0.0
 36
0.0
 17
0.0
 27
1.0
 37
0.0
 76
     0
330
9F90
331
A342
  0
LAYOUT
  5
A398
102
{ACAD_XDICTIONARY
360
A3F5
102
}
102
{ACAD_REACTORS
330
9F8B
102
}
330
9F8B
100
AcDbPlotSettings
  1

  2
Canon LBP9100C
  4

  6

 40
0.0
 41
0.0
 42
0.0
 43
0.0
 44
0.0
 45
0.0
 46
0.0
 47
0.0
 48
0.0
 49
0.0
140
0.0
141
0.0
142
1.0
143
1.0
 70
   688
 72
     0
 73
     0
 74
     5
  7

 75
    16
147
1.0
148
0.0
149
0.0
100
AcDbLayout
  1
レイアウト1
 70
     0
 71
     1
 10
0.0
 20
0.0
 11
420.0
 21
297.0
 12
0.0
 22
0.0
 32
0.0
 14
1.000000000000000E+20
 24
1.000000000000000E+20
 34
1.000000000000000E+20
 15
-1.000000000000000E+20
 25
-1.000000000000000E+20
 35
-1.000000000000000E+20
146
0.0
 13
0.0
 23
0.0
 33
0.0
 16
1.0
 26
0.0
 36
0.0
 17
0.0
 27
1.0
 37
0.0
 76
     0
330
9F8C
  0
MATERIAL
  5
A353
102
{ACAD_XDICTIONARY
360
A354
102
}
102
{ACAD_REACTORS
330
A34A
102
}
330
A34A
100
AcDbMaterial
  1
ByBlock
 72
     0
 43
0.0208333333333333
 43
0.0
 43
0.0
 43
0.0
 43
0.0
 43
0.0208333333333333
 43
0.0
 43
0.0
 43
0.0
 43
0.0
 43
1.0
 43
0.0
 43
0.0
 43
0.0
 43
0.0
 43
1.0
 77
     0
 47
0.0208333333333333
 47
0.0
 47
0.0
 47
0.0
 47
0.0
 47
0.0208333333333333
 47
0.0
 47
0.0
 47
0.0
 47
0.0
 47
1.0
 47
0.0
 47
0.0
 47
0.0
 47
0.0
 47
1.0
171
     0
 49
0.0208333333333333
 49
0.0
 49
0.0
 49
0.0
 49
0.0
 49
0.0208333333333333
 49
0.0
 49
0.0
 49
0.0
 49
0.0
 49
1.0
 49
0.0
 49
0.0
 49
0.0
 49
0.0
 49
1.0
175
     0
142
0.0208333333333333
142
0.0
142
0.0
142
0.0
142
0.0
142
0.0208333333333333
142
0.0
142
0.0
142
0.0
142
0.0
142
1.0
142
0.0
142
0.0
142
0.0
142
0.0
142
1.0
179
     0
144
0.0208333333333333
144
0.0
144
0.0
144
0.0
144
0.0
144
0.0208333333333333
144
0.0
144
0.0
144
0.0
144
0.0
144
1.0
144
0.0
144
0.0
144
0.0
144
0.0
144
1.0
147
0.0208333333333333
147
0.0
147
0.0
147
0.0
147
0.0
147
0.0208333333333333
147
0.0
147
0.0
147
0.0
147
0.0
147
1.0
147
0.0
147
0.0
147
0.0
147
0.0
147
1.0
  0
MATERIAL
  5
A34B
102
{ACAD_XDICTIONARY
360
A34C
102
}
102
{ACAD_REACTORS
330
A34A
102
}
330
A34A
100
AcDbMaterial
  1
ByLayer
 72
     0
 43
0.0208333333333333
 43
0.0
 43
0.0
 43
0.0
 43
0.0
 43
0.0208333333333333
 43
0.0
 43
0.0
 43
0.0
 43
0.0
 43
1.0
 43
0.0
 43
0.0
 43
0.0
 43
0.0
 43
1.0
 77
     0
 47
0.0208333333333333
 47
0.0
 47
0.0
 47
0.0
 47
0.0
 47
0.0208333333333333
 47
0.0
 47
0.0
 47
0.0
 47
0.0
 47
1.0
 47
0.0
 47
0.0
 47
0.0
 47
0.0
 47
1.0
171
     0
 49
0.0208333333333333
 49
0.0
 49
0.0
 49
0.0
 49
0.0
 49
0.0208333333333333
 49
0.0
 49
0.0
 49
0.0
 49
0.0
 49
1.0
 49
0.0
 49
0.0
 49
0.0
 49
0.0
 49
1.0
175
     0
142
0.0208333333333333
142
0.0
142
0.0
142
0.0
142
0.0
142
0.0208333333333333
142
0.0
142
0.0
142
0.0
142
0.0
142
1.0
142
0.0
142
0.0
142
0.0
142
0.0
142
1.0
179
     0
144
0.0208333333333333
144
0.0
144
0.0
144
0.0
144
0.0
144
0.0208333333333333
144
0.0
144
0.0
144
0.0
144
0.0
144
1.0
144
0.0
144
0.0
144
0.0
144
0.0
144
1.0
147
0.0208333333333333
147
0.0
147
0.0
147
0.0
147
0.0
147
0.0208333333333333
147
0.0
147
0.0
147
0.0
147
0.0
147
1.0
147
0.0
147
0.0
147
0.0
147
0.0
147
1.0
  0
MATERIAL
  5
A35B
102
{ACAD_XDICTIONARY
360
A35C
102
}
102
{ACAD_REACTORS
330
A34A
102
}
330
A34A
100
AcDbMaterial
  1
Global
 72
     0
 43
0.0208333333333333
 43
0.0
 43
0.0
 43
0.0
 43
0.0
 43
0.0208333333333333
 43
0.0
 43
0.0
 43
0.0
 43
0.0
 43
1.0
 43
0.0
 43
0.0
 43
0.0
 43
0.0
 43
1.0
 77
     0
 47
0.0208333333333333
 47
0.0
 47
0.0
 47
0.0
 47
0.0
 47
0.0208333333333333
 47
0.0
 47
0.0
 47
0.0
 47
0.0
 47
1.0
 47
0.0
 47
0.0
 47
0.0
 47
0.0
 47
1.0
171
     0
 49
0.0208333333333333
 49
0.0
 49
0.0
 49
0.0
 49
0.0
 49
0.0208333333333333
 49
0.0
 49
0.0
 49
0.0
 49
0.0
 49
1.0
 49
0.0
 49
0.0
 49
0.0
 49
0.0
 49
1.0
175
     0
142
0.0208333333333333
142
0.0
142
0.0
142
0.0
142
0.0
142
0.0208333333333333
142
0.0
142
0.0
142
0.0
142
0.0
142
1.0
142
0.0
142
0.0
142
0.0
142
0.0
142
1.0
179
     0
144
0.0208333333333333
144
0.0
144
0.0
144
0.0
144
0.0
144
0.0208333333333333
144
0.0
144
0.0
144
0.0
144
0.0
144
1.0
144
0.0
144
0.0
144
0.0
144
0.0
144
1.0
147
0.0208333333333333
147
0.0
147
0.0
147
0.0
147
0.0
147
0.0208333333333333
147
0.0
147
0.0
147
0.0
147
0.0
147
1.0
147
0.0
147
0.0
147
0.0
147
0.0
147
1.0
  0
MLEADERSTYLE
  5
A392
102
{ACAD_REACTORS
330
A391
102
}
330
A391
100
AcDbMLeaderStyle
170
     2
171
     1
172
     0
 90
        2
 40
0.0
 41
0.0
173
     1
 91
-1056964608
340
9F85
 92
       -2
290
     1
 42
0.09
291
     1
 43
0.36
  3
Standard
 44
0.18
300

342
9F83
174
     1
178
     6
175
     1
176
     0
 93
-1056964608
 45
0.18
292
     0
297
     0
 46
0.18
 94
-1056964608
 47
1.0
 49
1.0
140
1.0
293
     1
141
0.0
294
     1
177
     0
142
1.0
295
     0
296
     0
143
0.125
1001
ACAD_MLEADERVER
1070
     2
  0
MLINESTYLE
  5
9F89
102
{ACAD_REACTORS
330
9F88
102
}
330
9F88
100
AcDbMlineStyle
  2
STANDARD
 70
     0
  3

 62
   256
 51
90.0
 52
90.0
 71
     2
 49
0.5
 62
   256
  6
BYLAYER
 49
-0.5
 62
   256
  6
BYLAYER
  0
ACDBPLACEHOLDER
  5
A349
102
{ACAD_REACTORS
330
A348
102
}
330
A348
  0
SCALE
  5
A380
102
{ACAD_REACTORS
330
A37F
102
}
330
A37F
100
AcDbScale
 70
     0
300
1:1
140
1.0
141
1.0
290
     1
  0
SCALE
  5
A381
102
{ACAD_REACTORS
330
A37F
102
}
330
A37F
100
AcDbScale
 70
     0
300
1/128" = 1'-0"
140
0.0078125
141
12.0
290
     0
  0
SCALE
  5
A382
102
{ACAD_REACTORS
330
A37F
102
}
330
A37F
100
AcDbScale
 70
     0
300
1/64" = 1'-0"
140
0.015625
141
12.0
290
     0
  0
SCALE
  5
A383
102
{ACAD_REACTORS
330
A37F
102
}
330
A37F
100
AcDbScale
 70
     0
300
1/32" = 1'-0"
140
0.03125
141
12.0
290
     0
  0
SCALE
  5
A384
102
{ACAD_REACTORS
330
A37F
102
}
330
A37F
100
AcDbScale
 70
     0
300
1/16" = 1'-0"
140
0.0625
141
12.0
290
     0
  0
SCALE
  5
A385
102
{ACAD_REACTORS
330
A37F
102
}
330
A37F
100
AcDbScale
 70
     0
300
3/32" = 1'-0"
140
0.09375
141
12.0
290
     0
  0
SCALE
  5
A386
102
{ACAD_REACTORS
330
A37F
102
}
330
A37F
100
AcDbScale
 70
     0
300
1/8" = 1'-0"
140
0.125
141
12.0
290
     0
  0
SCALE
  5
A387
102
{ACAD_REACTORS
330
A37F
102
}
330
A37F
100
AcDbScale
 70
     0
300
3/16" = 1'-0"
140
0.1875
141
12.0
290
     0
  0
SCALE
  5
A388
102
{ACAD_REACTORS
330
A37F
102
}
330
A37F
100
AcDbScale
 70
     0
300
1/4" = 1'-0"
140
0.25
141
12.0
290
     0
  0
SCALE
  5
A389
102
{ACAD_REACTORS
330
A37F
102
}
330
A37F
100
AcDbScale
 70
     0
300
3/8" = 1'-0"
140
0.375
141
12.0
290
     0
  0
SCALE
  5
A38A
102
{ACAD_REACTORS
330
A37F
102
}
330
A37F
100
AcDbScale
 70
     0
300
1/2" = 1'-0"
140
0.5
141
12.0
290
     0
  0
SCALE
  5
A38B
102
{ACAD_REACTORS
330
A37F
102
}
330
A37F
100
AcDbScale
 70
     0
300
3/4" = 1'-0"
140
0.75
141
12.0
290
     0
  0
SCALE
  5
A38C
102
{ACAD_REACTORS
330
A37F
102
}
330
A37F
100
AcDbScale
 70
     0
300
1" = 1'-0"
140
1.0
141
12.0
290
     0
  0
SCALE
  5
A38D
102
{ACAD_REACTORS
330
A37F
102
}
330
A37F
100
AcDbScale
 70
     0
300
1-1/2" = 1'-0"
140
1.5
141
12.0
290
     0
  0
SCALE
  5
A38E
102
{ACAD_REACTORS
330
A37F
102
}
330
A37F
100
AcDbScale
 70
     0
300
3" = 1'-0"
140
3.0
141
12.0
290
     0
  0
SCALE
  5
A38F
102
{ACAD_REACTORS
330
A37F
102
}
330
A37F
100
AcDbScale
 70
     0
300
6" = 1'-0"
140
6.0
141
12.0
290
     0
  0
SCALE
  5
A390
102
{ACAD_REACTORS
330
A37F
102
}
330
A37F
100
AcDbScale
 70
     0
300
1'-0" = 1'-0"
140
12.0
141
12.0
290
     0
  0
ACDBSECTIONVIEWSTYLE
  5
A394
102
{ACAD_XDICTIONARY
360
A3EF
102
}
102
{ACAD_REACTORS
330
A393
102
}
330
A393
100
AcDbModelDocViewStyle
 70
     0
  3
Imperial24
290
     0
100
AcDbSectionViewStyle
 70
     0
 71
     0
 90
       78
 71
     1
340
9F83
 40
0.24
340
0
340
0
 40
0.24
300
I, O, Q, S, X, Z
 40
0.48
 90
        3
 40
0.18
 90
        1
 71
     2
340
9F87
 90
       25
340
9F87
 90
       50
 40
0.24
 40
0.0
 40
0.24
 71
     3
340
9F83
 40
0.24
 90
        1
 40
0.75
 90
        1
300
%<\AcVar ViewType \f "%tc1">% %<\AcVar ViewSectionStartId>%-%<\AcVar ViewSectionEndId>%\PSCALE %<\AcVar ViewScale \f "%sn">%
 71
     4
300
ANSI31
 40
1.0
 90
        0
290
     0
290
     0
 90
        6
 40
0.0
 40
1.570796326794896
 40
0.2617993877991494
 40
1.308996938995747
 40
-0.2617993877991494
 40
1.832595714594046
  0
TABLESTYLE
  5
A37E
102
{ACAD_XDICTIONARY
360
A3B6
102
}
102
{ACAD_REACTORS
330
A37D
102
}
330
A37D
100
AcDbTableStyle
  3
Standard
 70
     0
 71
     0
 40
0.06
 41
0.06
280
     0
281
     0
  7
STANDARD
140
0.18
170
     2
 62
     0
 63
     7
283
     0
274
    -2
284
     1
 64
     0
275
    -2
285
     1
 65
     0
276
    -2
286
     1
 66
     0
277
    -2
287
     1
 67
     0
278
    -2
288
     1
 68
     0
279
    -2
289
     1
 69
     0
  7
STANDARD
140
0.25
170
     5
 62
     0
 63
     7
283
     0
274
    -2
284
     1
 64
     0
275
    -2
285
     1
 65
     0
276
    -2
286
     1
 66
     0
277
    -2
287
     1
 67
     0
278
    -2
288
     1
 68
     0
279
    -2
289
     1
 69
     0
  7
STANDARD
140
0.18
170
     5
 62
     0
 63
     7
283
     0
274
    -2
284
     1
 64
     0
275
    -2
285
     1
 65
     0
276
    -2
286
     1
 66
     0
277
    -2
287
     1
 67
     0
278
    -2
288
     1
 68
     0
279
    -2
289
     1
 69
     0
  0
VISUALSTYLE
  5
A369
102
{ACAD_XDICTIONARY
360
A3C7
102
}
102
{ACAD_REACTORS
330
A363
102
}
330
A363
100
AcDbVisualStyle
  2
2dWireframe
 70
     4
 71
     0
 72
     2
 73
     0
 90
        0
 40
-0.6
 41
-30.0
 62
     5
 63
     7
 74
     1
 91
        4
 64
     7
 65
   257
 75
     1
175
     1
 42
1.0
 92
        0
 66
   257
 43
1.0
 76
     1
 77
     6
 78
     2
 67
     7
 79
     5
170
     0
171
     0
290
     0
174
     0
 93
        1
 44
0.0
173
     0
291
     0
 45
0.0
1001
ACAD
1000
AcDbSavedByObjectVersion
1070
     0
  0
VISUALSTYLE
  5
A368
102
{ACAD_XDICTIONARY
360
A3C5
102
}
102
{ACAD_REACTORS
330
A363
102
}
330
A363
100
AcDbVisualStyle
  2
Basic
 70
     7
 71
     1
 72
     0
 73
     1
 90
        0
 40
-0.6
 41
-30.0
 62
     5
 63
     7
 74
     0
 91
        4
 64
     7
 65
   257
 75
     1
175
     1
 42
1.0
 92
        8
 66
     7
 43
1.0
 76
     1
 77
     6
 78
     2
 67
     7
 79
     5
170
     0
171
     0
290
     0
174
     0
 93
        1
 44
0.0
173
     0
291
     1
 45
0.0
1001
ACAD
1000
AcDbSavedByObjectVersion
1070
     0
  0
VISUALSTYLE
  5
A36F
102
{ACAD_XDICTIONARY
360
A3D3
102
}
102
{ACAD_REACTORS
330
A363
102
}
330
A363
100
AcDbVisualStyle
  2
Brighten
 70
    12
 71
     2
 72
     2
 73
     0
 90
        0
 40
-0.6
 41
-30.0
 62
     5
 63
     7
 74
     1
 91
        4
 64
     7
 65
   257
 75
     1
175
     1
 42
1.0
 92
        8
 66
     7
 43
1.0
 76
     1
 77
     6
 78
     2
 67
     7
 79
     5
170
     0
171
     0
290
     0
174
     0
 93
        1
 44
50.0
173
     0
291
     1
 45
0.0
1001
ACAD
1000
AcDbSavedByObjectVersion
1070
     0
  0
VISUALSTYLE
  5
A373
102
{ACAD_XDICTIONARY
360
A3DB
102
}
102
{ACAD_REACTORS
330
A363
102
}
330
A363
100
AcDbVisualStyle
  2
ColorChange
 70
    16
 71
     2
 72
     2
 73
     3
 90
        0
 40
-0.6
 41
-30.0
 62
     5
 63
     8
 74
     1
 91
        4
 64
     7
 65
   257
 75
     1
175
     1
 42
1.0
 92
        8
 66
     8
 43
1.0
 76
     1
 77
     6
 78
     2
 67
     7
 79
     5
170
     0
171
     0
290
     0
174
     0
 93
        1
 44
0.0
173
     0
291
     1
 45
0.0
1001
ACAD
1000
AcDbSavedByObjectVersion
1070
     0
  0
VISUALSTYLE
  5
A36C
102
{ACAD_XDICTIONARY
360
A3CD
102
}
102
{ACAD_REACTORS
330
A363
102
}
330
A363
100
AcDbVisualStyle
  2
Conceptual
 70
     9
 71
     3
 72
     2
 73
     0
 90
        0
 40
-0.6
 41
-30.0
 62
     5
 63
     7
 74
     2
 91
        2
 64
     7
 65
   257
 75
     1
175
     1
 42
179.0
 92
        8
 66
     7
 43
1.0
 76
     1
 77
     6
 78
     2
 67
     7
 79
     3
170
     0
171
     0
290
     0
174
     0
 93
        1
 44
0.0
173
     0
291
     0
 45
0.0
1001
ACAD
1000
AcDbSavedByObjectVersion
1070
     0
  0
VISUALSTYLE
  5
A36E
102
{ACAD_XDICTIONARY
360
A3D1
102
}
102
{ACAD_REACTORS
330
A363
102
}
330
A363
100
AcDbVisualStyle
  2
Dim
 70
    11
 71
     2
 72
     2
 73
     0
 90
        0
 40
-0.6
 41
-30.0
 62
     5
 63
     7
 74
     1
 91
        4
 64
     7
 65
   257
 75
     1
175
     1
 42
1.0
 92
        8
 66
     7
 43
1.0
 76
     1
 77
     6
 78
     2
 67
     7
 79
     5
170
     0
171
     0
290
     0
174
     0
 93
        1
 44
-50.0
173
     0
291
     1
 45
0.0
1001
ACAD
1000
AcDbSavedByObjectVersion
1070
     0
  0
VISUALSTYLE
  5
A37B
102
{ACAD_XDICTIONARY
360
A3EB
102
}
102
{ACAD_REACTORS
330
A363
102
}
330
A363
100
AcDbVisualStyle
  2
EdgeColorOff
 70
    22
 71
     2
 72
     2
 73
     0
 90
        0
 40
-0.6
 41
-30.0
 62
     5
 63
     7
 74
     1
 91
        4
 64
     7
 65
   257
 75
     1
175
     1
 42
1.0
 92
        8
 66
     7
 43
1.0
 76
     1
 77
     6
 78
     2
 67
     7
 79
     5
170
     0
171
     0
290
     0
174
     0
 93
        1
 44
0.0
173
     0
291
     1
 45
0.0
1001
ACAD
1000
AcDbSavedByObjectVersion
1070
     0
  0
VISUALSTYLE
  5
A372
102
{ACAD_XDICTIONARY
360
A3D9
102
}
102
{ACAD_REACTORS
330
A363
102
}
330
A363
100
AcDbVisualStyle
  2
Facepattern
 70
    15
 71
     2
 72
     2
 73
     0
 90
        0
 40
-0.6
 41
-30.0
 62
     5
 63
     7
 74
     1
 91
        4
 64
     7
 65
   257
 75
     1
175
     1
 42
1.0
 92
        8
 66
     7
 43
1.0
 76
     1
 77
     6
 78
     2
 67
     7
 79
     5
170
     0
171
     0
290
     0
174
     0
 93
        1
 44
0.0
173
     0
291
     1
 45
0.0
1001
ACAD
1000
AcDbSavedByObjectVersion
1070
     0
  0
VISUALSTYLE
  5
A364
102
{ACAD_XDICTIONARY
360
A3BD
102
}
102
{ACAD_REACTORS
330
A363
102
}
330
A363
100
AcDbVisualStyle
  2
Flat
 70
     0
 71
     2
 72
     1
 73
     1
 90
        2
 40
-0.6
 41
30.0
 62
     5
 63
     7
 74
     0
 91
        0
 64
     7
 65
   257
 75
     1
175
     1
 42
1.0
 92
        8
 66
     7
 43
1.0
 76
     1
 77
     6
 78
     2
 67
     7
 79
     5
170
     0
171
     0
290
     0
174
     0
 93
       13
 44
0.0
173
     0
291
     1
 45
0.0
1001
ACAD
1000
AcDbSavedByObjectVersion
1070
     0
  0
VISUALSTYLE
  5
A365
102
{ACAD_XDICTIONARY
360
A3BF
102
}
102
{ACAD_REACTORS
330
A363
102
}
330
A363
100
AcDbVisualStyle
  2
FlatWithEdges
 70
     1
 71
     2
 72
     1
 73
     1
 90
        2
 40
-0.6
 41
30.0
 62
     5
 63
     7
 74
     1
 91
        0
 64
     7
 65
   257
 75
     1
175
     1
 42
1.0
 92
        0
 66
   257
 43
1.0
 76
     1
 77
     6
 78
     2
 67
     7
 79
     5
170
     0
171
     0
290
     0
174
     0
 93
       13
 44
0.0
173
     0
291
     1
 45
0.0
1001
ACAD
1000
AcDbSavedByObjectVersion
1070
     0
  0
VISUALSTYLE
  5
A366
102
{ACAD_XDICTIONARY
360
A3C1
102
}
102
{ACAD_REACTORS
330
A363
102
}
330
A363
100
AcDbVisualStyle
  2
Gouraud
 70
     2
 71
     2
 72
     2
 73
     1
 90
        2
 40
-0.6
 41
30.0
 62
     5
 63
     7
 74
     0
 91
        0
 64
     7
 65
   257
 75
     1
175
     1
 42
1.0
 92
        0
 66
     7
 43
1.0
 76
     1
 77
     6
 78
     2
 67
     7
 79
     5
170
     0
171
     0
290
     0
174
     0
 93
       13
 44
0.0
173
     0
291
     1
 45
0.0
1001
ACAD
1000
AcDbSavedByObjectVersion
1070
     0
  0
VISUALSTYLE
  5
A367
102
{ACAD_XDICTIONARY
360
A3C3
102
}
102
{ACAD_REACTORS
330
A363
102
}
330
A363
100
AcDbVisualStyle
  2
GouraudWithEdges
 70
     3
 71
     2
 72
     2
 73
     1
 90
        2
 40
-0.6
 41
30.0
 62
     5
 63
     7
 74
     1
 91
        0
 64
     7
 65
   257
 75
     1
175
     1
 42
1.0
 92
        0
 66
   257
 43
1.0
 76
     1
 77
     6
 78
     2
 67
     7
 79
     5
170
     0
171
     0
290
     0
174
     0
 93
       13
 44
0.0
173
     0
291
     1
 45
0.0
1001
ACAD
1000
AcDbSavedByObjectVersion
1070
     0
  0
VISUALSTYLE
  5
A36B
102
{ACAD_XDICTIONARY
360
A3CB
102
}
102
{ACAD_REACTORS
330
A363
102
}
330
A363
100
AcDbVisualStyle
  2
Hidden
 70
     6
 71
     1
 72
     2
 73
     2
 90
        0
 40
-0.6
 41
-30.0
 62
     5
 63
     7
 74
     2
 91
        2
 64
     7
 65
   257
 75
     2
175
     1
 42
40.0
 92
        0
 66
   257
 43
1.0
 76
     1
 77
     6
 78
     2
 67
     7
 79
     3
170
     0
171
     0
290
     0
174
     0
 93
        1
 44
0.0
173
     0
291
     0
 45
0.0
1001
ACAD
1000
AcDbSavedByObjectVersion
1070
     0
  0
VISUALSTYLE
  5
A379
102
{ACAD_XDICTIONARY
360
A3E7
102
}
102
{ACAD_REACTORS
330
A363
102
}
330
A363
100
AcDbVisualStyle
  2
JitterOff
 70
    20
 71
     2
 72
     2
 73
     0
 90
        0
 40
-0.6
 41
-30.0
 62
     5
 63
     7
 74
     1
 91
        4
 64
     7
 65
   257
 75
     1
175
     1
 42
1.0
 92
       10
 66
     7
 43
1.0
 76
     1
 77
     6
 78
     2
 67
     7
 79
     5
170
     0
171
     0
290
     0
174
     0
 93
        1
 44
0.0
173
     0
291
     1
 45
0.0
1001
ACAD
1000
AcDbSavedByObjectVersion
1070
     0
  0
VISUALSTYLE
  5
A371
102
{ACAD_XDICTIONARY
360
A3D7
102
}
102
{ACAD_REACTORS
330
A363
102
}
330
A363
100
AcDbVisualStyle
  2
Linepattern
 70
    14
 71
     2
 72
     2
 73
     0
 90
        0
 40
-0.6
 41
-30.0
 62
     5
 63
     7
 74
     1
 91
        4
 64
     7
 65
   257
 75
     7
175
     7
 42
1.0
 92
        8
 66
     7
 43
1.0
 76
     1
 77
     6
 78
     2
 67
     7
 79
     5
170
     0
171
     0
290
     0
174
     0
 93
        1
 44
0.0
173
     0
291
     1
 45
0.0
1001
ACAD
1000
AcDbSavedByObjectVersion
1070
     0
  0
VISUALSTYLE
  5
A37A
102
{ACAD_XDICTIONARY
360
A3E9
102
}
102
{ACAD_REACTORS
330
A363
102
}
330
A363
100
AcDbVisualStyle
  2
OverhangOff
 70
    21
 71
     2
 72
     2
 73
     0
 90
        0
 40
-0.6
 41
-30.0
 62
     5
 63
     7
 74
     1
 91
        4
 64
     7
 65
   257
 75
     1
175
     1
 42
1.0
 92
        9
 66
     7
 43
1.0
 76
     1
 77
     6
 78
     2
 67
     7
 79
     5
170
     0
171
     0
290
     0
174
     0
 93
        1
 44
0.0
173
     0
291
     1
 45
0.0
1001
ACAD
1000
AcDbSavedByObjectVersion
1070
     0
  0
VISUALSTYLE
  5
A36D
102
{ACAD_XDICTIONARY
360
A3CF
102
}
102
{ACAD_REACTORS
330
A363
102
}
330
A363
100
AcDbVisualStyle
  2
Realistic
 70
     8
 71
     2
 72
     3
 73
     0
 90
        2
 40
-0.6
 41
30.0
 62
     5
 63
     7
 74
     0
 91
        0
 64
     7
 65
   257
 75
     1
175
     1
 42
1.0
 92
        8
 66
   257
 43
1.0
 76
     1
 77
     6
 78
     2
 67
     7
 79
     3
170
     0
171
     0
290
     0
174
     0
 93
       13
 44
0.0
173
     0
291
     0
 45
0.0
1001
ACAD
1000
AcDbSavedByObjectVersion
1070
     0
  0
VISUALSTYLE
  5
A378
102
{ACAD_XDICTIONARY
360
A3E5
102
}
102
{ACAD_REACTORS
330
A363
102
}
330
A363
100
AcDbVisualStyle
  2
Shaded
 70
    27
 71
     2
 72
     2
 73
     1
 90
        2
 40
-0.6
 41
30.0
 62
     5
 63
     7
 74
     0
 91
        4
 64
     7
 65
   257
 75
     1
175
     1
 42
1.0
 92
        8
 66
   257
 43
1.0
 76
     1
 77
     6
 78
     2
 67
     8
 79
     3
170
     0
171
     0
290
     0
174
     0
 93
        5
 44
0.0
173
     0
291
     0
 45
0.0
1001
ACAD
1000
AcDbSavedByObjectVersion
1070
     0
  0
VISUALSTYLE
  5
A377
102
{ACAD_XDICTIONARY
360
A3E3
102
}
102
{ACAD_REACTORS
330
A363
102
}
330
A363
100
AcDbVisualStyle
  2
Shaded with edges
 70
    26
 71
     2
 72
     2
 73
     1
 90
        2
 40
-0.6
 41
30.0
 62
     5
 63
     7
 74
     1
 91
       10
 64
     7
 65
   257
 75
     2
175
     1
 42
1.0
 92
        8
 66
   257
 43
1.0
 76
     1
 77
     6
 78
     2
 67
     7
 79
     3
170
     0
171
     0
290
     0
174
     0
 93
        5
 44
0.0
173
     0
291
     0
 45
0.0
1001
ACAD
1000
AcDbSavedByObjectVersion
1070
     0
  0
VISUALSTYLE
  5
A374
102
{ACAD_XDICTIONARY
360
A3DD
102
}
102
{ACAD_REACTORS
330
A363
102
}
330
A363
100
AcDbVisualStyle
  2
Shades of Gray
 70
    23
 71
     2
 72
     2
 73
     3
 90
        0
 40
-0.6
 41
-30.0
 62
     5
 63
     7
 74
     2
 91
        2
 64
     7
 65
     7
 75
     1
175
     1
 42
40.0
 92
        8
 66
     7
 43
1.0
 76
     1
 77
     6
 78
     2
 67
     7
 79
     3
170
     0
171
     0
290
     0
174
     0
 93
        1
 44
0.0
173
     0
291
     0
 45
0.0
1001
ACAD
1000
AcDbSavedByObjectVersion
1070
     0
  0
VISUALSTYLE
  5
A375
102
{ACAD_XDICTIONARY
360
A3DF
102
}
102
{ACAD_REACTORS
330
A363
102
}
330
A363
100
AcDbVisualStyle
  2
Sketchy
 70
    24
 71
     1
 72
     2
 73
     2
 90
        0
 40
-0.6
 41
-30.0
 62
     5
 63
     7
 74
     2
 91
        2
 64
     7
 65
     7
 75
     1
175
     1
 42
40.0
 92
       11
 66
     7
 43
1.0
 76
     1
 77
     6
 78
     2
 67
     7
 79
     6
170
     0
171
     0
290
     0
174
     0
 93
        1
 44
0.0
173
     0
291
     0
 45
0.0
1001
ACAD
1000
AcDbSavedByObjectVersion
1070
     0
  0
VISUALSTYLE
  5
A370
102
{ACAD_XDICTIONARY
360
A3D5
102
}
102
{ACAD_REACTORS
330
A363
102
}
330
A363
100
AcDbVisualStyle
  2
Thicken
 70
    13
 71
     2
 72
     2
 73
     0
 90
        0
 40
-0.6
 41
-30.0
 62
     5
 63
     7
 74
     1
 91
        4
 64
     7
 65
   257
 75
     1
175
     1
 42
1.0
 92
       12
 66
     7
 43
1.0
 76
     1
 77
     6
 78
     2
 67
     7
 79
     5
170
     0
171
     0
290
     0
174
     0
 93
        1
 44
0.0
173
     0
291
     1
 45
0.0
1001
ACAD
1000
AcDbSavedByObjectVersion
1070
     0
  0
VISUALSTYLE
  5
A36A
102
{ACAD_XDICTIONARY
360
A3C9
102
}
102
{ACAD_REACTORS
330
A363
102
}
330
A363
100
AcDbVisualStyle
  2
Wireframe
 70
     5
 71
     0
 72
     2
 73
     0
 90
        0
 40
-0.6
 41
-30.0
 62
     5
 63
     7
 74
     1
 91
        4
 64
     7
 65
   257
 75
     1
175
     1
 42
1.0
 92
        0
 66
   257
 43
1.0
 76
     1
 77
     6
 78
     2
 67
     7
 79
     3
170
     0
171
     0
290
     0
174
     0
 93
        1
 44
0.0
173
     0
291
     0
 45
0.0
1001
ACAD
1000
AcDbSavedByObjectVersion
1070
     0
  0
VISUALSTYLE
  5
A376
102
{ACAD_XDICTIONARY
360
A3E1
102
}
102
{ACAD_REACTORS
330
A363
102
}
330
A363
100
AcDbVisualStyle
  2
X-Ray
 70
    25
 71
     2
 72
     2
 73
     1
 90
        1
 40
0.5
 41
-30.0
 62
     5
 63
     7
 74
     1
 91
        0
 64
     7
 65
   257
 75
     1
175
     1
 42
1.0
 92
        8
 66
     7
 43
1.0
 76
     1
 77
     6
 78
     2
 67
     7
 79
     3
170
     0
171
     0
290
     0
174
     0
 93
       13
 44
0.0
173
     0
291
     0
 45
0.0
1001
ACAD
1000
AcDbSavedByObjectVersion
1070
     0
  0
DICTIONARYVAR
  5
A3B0
102
{ACAD_REACTORS
330
A3AB
102
}
330
A3AB
100
DictionaryVariables
280
     0
  1
1:1
  0
DICTIONARYVAR
  5
A3AD
102
{ACAD_REACTORS
330
A3AB
102
}
330
A3AB
100
DictionaryVariables
280
     0
  1
STANDARD
  0
DICTIONARYVAR
  5
A3AC
102
{ACAD_REACTORS
330
A3AB
102
}
330
A3AB
100
DictionaryVariables
280
     0
  1
STANDARD
  0
DICTIONARYVAR
  5
A3AE
102
{ACAD_REACTORS
330
A3AB
102
}
330
A3AB
100
DictionaryVariables
280
     0
  1
Imperial24
  0
DICTIONARYVAR
  5
A3AF
102
{ACAD_REACTORS
330
A3AB
102
}
330
A3AB
100
DictionaryVariables
280
     0
  1
Imperial24
  0
DICTIONARYVAR
  5
A3B3
102
{ACAD_REACTORS
330
A3AB
102
}
330
A3AB
100
DictionaryVariables
280
     0
  1
1
  0
DICTIONARYVAR
  5
A3B2
102
{ACAD_REACTORS
330
A3AB
102
}
330
A3AB
100
DictionaryVariables
280
     0
  1
0
  0
DICTIONARYVAR
  5
A3B1
102
{ACAD_REACTORS
330
A3AB
102
}
330
A3AB
100
DictionaryVariables
280
     0
  1
127
  0
DICTIONARYVAR
  5
A3B4
102
{ACAD_REACTORS
330
A3AB
102
}
330
A3AB
100
DictionaryVariables
280
     0
  1
2
  0
DICTIONARY
  5
A3F1
330
A396
100
AcDbDictionary
280
     1
281
     1
  3
ACAD_XREC_ROUNDTRIP
360
A3F2
  0
DICTIONARY
  5
A3F3
330
A397
100
AcDbDictionary
280
     1
281
     1
  3
ACAD_XREC_ROUNDTRIP
360
A3F4
  0
DICTIONARY
  5
A3F5
330
A398
100
AcDbDictionary
280
     1
281
     1
  3
ACAD_XREC_ROUNDTRIP
360
A3F6
  0
DICTIONARY
  5
A354
330
A353
100
AcDbDictionary
280
     1
281
     1
  3
ACAD_XREC_ROUNDTRIP
360
A3BB
  3
BUMPTILE
360
A356
  3
DIFFUSETILE
360
A355
  3
OPACITYTILE
360
A359
  3
REFLECTIONTILE
360
A358
  3
REFRACTIONTILE
360
A35A
  3
SPECULARTILE
360
A357
  0
DICTIONARY
  5
A34C
330
A34B
100
AcDbDictionary
280
     1
281
     1
  3
ACAD_XREC_ROUNDTRIP
360
A3BA
  3
BUMPTILE
360
A34E
  3
DIFFUSETILE
360
A34D
  3
OPACITYTILE
360
A351
  3
REFLECTIONTILE
360
A350
  3
REFRACTIONTILE
360
A352
  3
SPECULARTILE
360
A34F
  0
DICTIONARY
  5
A35C
330
A35B
100
AcDbDictionary
280
     1
281
     1
  3
ACAD_XREC_ROUNDTRIP
360
A3BC
  3
BUMPTILE
360
A35E
  3
DIFFUSETILE
360
A35D
  3
OPACITYTILE
360
A361
  3
REFLECTIONTILE
360
A360
  3
REFRACTIONTILE
360
A362
  3
SPECULARTILE
360
A35F
  0
DICTIONARY
  5
A3EF
330
A394
100
AcDbDictionary
280
     1
281
     1
  3
ACAD_XREC_ROUNDTRIP
360
A3F0
  0
DICTIONARY
  5
A3B6
330
A37E
100
AcDbDictionary
280
     1
281
     1
  3
ACAD_ROUNDTRIP_2008_TABLESTYLE_CELLSTYLEMAP
360
A3B7
  3
ACAD_XREC_ROUNDTRIP
360
A3ED
  0
DICTIONARY
  5
A3C7
330
A369
100
AcDbDictionary
280
     1
281
     1
  3
ACAD_XREC_ROUNDTRIP
360
A3C8
  0
DICTIONARY
  5
A3C5
330
A368
100
AcDbDictionary
280
     1
281
     1
  3
ACAD_XREC_ROUNDTRIP
360
A3C6
  0
DICTIONARY
  5
A3D3
330
A36F
100
AcDbDictionary
280
     1
281
     1
  3
ACAD_XREC_ROUNDTRIP
360
A3D4
  0
DICTIONARY
  5
A3DB
330
A373
100
AcDbDictionary
280
     1
281
     1
  3
ACAD_XREC_ROUNDTRIP
360
A3DC
  0
DICTIONARY
  5
A3CD
330
A36C
100
AcDbDictionary
280
     1
281
     1
  3
ACAD_XREC_ROUNDTRIP
360
A3CE
  0
DICTIONARY
  5
A3D1
330
A36E
100
AcDbDictionary
280
     1
281
     1
  3
ACAD_XREC_ROUNDTRIP
360
A3D2
  0
DICTIONARY
  5
A3EB
330
A37B
100
AcDbDictionary
280
     1
281
     1
  3
ACAD_XREC_ROUNDTRIP
360
A3EC
  0
DICTIONARY
  5
A3D9
330
A372
100
AcDbDictionary
280
     1
281
     1
  3
ACAD_XREC_ROUNDTRIP
360
A3DA
  0
DICTIONARY
  5
A3BD
330
A364
100
AcDbDictionary
280
     1
281
     1
  3
ACAD_XREC_ROUNDTRIP
360
A3BE
  0
DICTIONARY
  5
A3BF
330
A365
100
AcDbDictionary
280
     1
281
     1
  3
ACAD_XREC_ROUNDTRIP
360
A3C0
  0
DICTIONARY
  5
A3C1
330
A366
100
AcDbDictionary
280
     1
281
     1
  3
ACAD_XREC_ROUNDTRIP
360
A3C2
  0
DICTIONARY
  5
A3C3
330
A367
100
AcDbDictionary
280
     1
281
     1
  3
ACAD_XREC_ROUNDTRIP
360
A3C4
  0
DICTIONARY
  5
A3CB
330
A36B
100
AcDbDictionary
280
     1
281
     1
  3
ACAD_XREC_ROUNDTRIP
360
A3CC
  0
DICTIONARY
  5
A3E7
330
A379
100
AcDbDictionary
280
     1
281
     1
  3
ACAD_XREC_ROUNDTRIP
360
A3E8
  0
DICTIONARY
  5
A3D7
330
A371
100
AcDbDictionary
280
     1
281
     1
  3
ACAD_XREC_ROUNDTRIP
360
A3D8
  0
DICTIONARY
  5
A3E9
330
A37A
100
AcDbDictionary
280
     1
281
     1
  3
ACAD_XREC_ROUNDTRIP
360
A3EA
  0
DICTIONARY
  5
A3CF
330
A36D
100
AcDbDictionary
280
     1
281
     1
  3
ACAD_XREC_ROUNDTRIP
360
A3D0
  0
DICTIONARY
  5
A3E5
330
A378
100
AcDbDictionary
280
     1
281
     1
  3
ACAD_XREC_ROUNDTRIP
360
A3E6
  0
DICTIONARY
  5
A3E3
330
A377
100
AcDbDictionary
280
     1
281
     1
  3
ACAD_XREC_ROUNDTRIP
360
A3E4
  0
DICTIONARY
  5
A3DD
330
A374
100
AcDbDictionary
280
     1
281
     1
  3
ACAD_XREC_ROUNDTRIP
360
A3DE
  0
DICTIONARY
  5
A3DF
330
A375
100
AcDbDictionary
280
     1
281
     1
  3
ACAD_XREC_ROUNDTRIP
360
A3E0
  0
DICTIONARY
  5
A3D5
330
A370
100
AcDbDictionary
280
     1
281
     1
  3
ACAD_XREC_ROUNDTRIP
360
A3D6
  0
DICTIONARY
  5
A3C9
330
A36A
100
AcDbDictionary
280
     1
281
     1
  3
ACAD_XREC_ROUNDTRIP
360
A3CA
  0
DICTIONARY
  5
A3E1
330
A376
100
AcDbDictionary
280
     1
281
     1
  3
ACAD_XREC_ROUNDTRIP
360
A3E2
  0
XRECORD
  5
A3F2
102
{ACAD_REACTORS
330
A3F1
102
}
330
A3F1
100
AcDbXrecord
280
     1
102
DISPLAYNAME
  1
Imperial24
102
FLAGS
 90
        0
  0
XRECORD
  5
A3F4
102
{ACAD_REACTORS
330
A3F3
102
}
330
A3F3
100
AcDbXrecord
280
     1
102
SHADEPLOT
 70
     0
102
SHADEPLOTRESLEVEL
 70
     2
102
SHADEPLOTCUSTOMDPI
 70
   300
  0
XRECORD
  5
A3F6
102
{ACAD_REACTORS
330
A3F5
102
}
330
A3F5
100
AcDbXrecord
280
     1
102
SHADEPLOT
 70
     0
102
SHADEPLOTRESLEVEL
 70
     2
102
SHADEPLOTCUSTOMDPI
 70
   300
  0
XRECORD
  5
A3BB
102
{ACAD_REACTORS
330
A354
102
}
330
A354
100
AcDbXrecord
280
     1
102
MATERIAL
148
0.0
149
0.0
149
0.0
 93
        0
 94
      127
282
     0
 72
     0
 77
     0
171
     0
175
     0
179
     0
273
     0
  0
XRECORD
  5
A356
102
{ACAD_REACTORS
330
A354
102
}
330
A354
100
AcDbXrecord
280
     1
270
     1
271
     1
  0
XRECORD
  5
A355
102
{ACAD_REACTORS
330
A354
102
}
330
A354
100
AcDbXrecord
280
     1
270
     1
271
     1
  0
XRECORD
  5
A359
102
{ACAD_REACTORS
330
A354
102
}
330
A354
100
AcDbXrecord
280
     1
270
     1
271
     1
  0
XRECORD
  5
A358
102
{ACAD_REACTORS
330
A354
102
}
330
A354
100
AcDbXrecord
280
     1
270
     1
271
     1
  0
XRECORD
  5
A35A
102
{ACAD_REACTORS
330
A354
102
}
330
A354
100
AcDbXrecord
280
     1
270
     1
271
     1
  0
XRECORD
  5
A357
102
{ACAD_REACTORS
330
A354
102
}
330
A354
100
AcDbXrecord
280
     1
270
     1
271
     1
  0
XRECORD
  5
A3BA
102
{ACAD_REACTORS
330
A34C
102
}
330
A34C
100
AcDbXrecord
280
     1
102
MATERIAL
148
0.0
149
0.0
149
0.0
 93
        0
 94
      127
282
     0
 72
     0
 77
     0
171
     0
175
     0
179
     0
273
     0
  0
XRECORD
  5
A34E
102
{ACAD_REACTORS
330
A34C
102
}
330
A34C
100
AcDbXrecord
280
     1
270
     1
271
     1
  0
XRECORD
  5
A34D
102
{ACAD_REACTORS
330
A34C
102
}
330
A34C
100
AcDbXrecord
280
     1
270
     1
271
     1
  0
XRECORD
  5
A351
102
{ACAD_REACTORS
330
A34C
102
}
330
A34C
100
AcDbXrecord
280
     1
270
     1
271
     1
  0
XRECORD
  5
A350
102
{ACAD_REACTORS
330
A34C
102
}
330
A34C
100
AcDbXrecord
280
     1
270
     1
271
     1
  0
XRECORD
  5
A352
102
{ACAD_REACTORS
330
A34C
102
}
330
A34C
100
AcDbXrecord
280
     1
270
     1
271
     1
  0
XRECORD
  5
A34F
102
{ACAD_REACTORS
330
A34C
102
}
330
A34C
100
AcDbXrecord
280
     1
270
     1
271
     1
  0
XRECORD
  5
A3BC
102
{ACAD_REACTORS
330
A35C
102
}
330
A35C
100
AcDbXrecord
280
     1
102
MATERIAL
148
0.0
149
0.0
149
0.0
 93
        0
 94
      127
282
     0
 72
     0
 77
     0
171
     0
175
     0
179
     0
273
     0
  0
XRECORD
  5
A35E
102
{ACAD_REACTORS
330
A35C
102
}
330
A35C
100
AcDbXrecord
280
     1
270
     1
271
     1
  0
XRECORD
  5
A35D
102
{ACAD_REACTORS
330
A35C
102
}
330
A35C
100
AcDbXrecord
280
     1
270
     1
271
     1
  0
XRECORD
  5
A361
102
{ACAD_REACTORS
330
A35C
102
}
330
A35C
100
AcDbXrecord
280
     1
270
     1
271
     1
  0
XRECORD
  5
A360
102
{ACAD_REACTORS
330
A35C
102
}
330
A35C
100
AcDbXrecord
280
     1
270
     1
271
     1
  0
XRECORD
  5
A362
102
{ACAD_REACTORS
330
A35C
102
}
330
A35C
100
AcDbXrecord
280
     1
270
     1
271
     1
  0
XRECORD
  5
A35F
102
{ACAD_REACTORS
330
A35C
102
}
330
A35C
100
AcDbXrecord
280
     1
270
     1
271
     1
  0
XRECORD
  5
A3F0
102
{ACAD_REACTORS
330
A3EF
102
}
330
A3EF
100
AcDbXrecord
280
     1
102
DISPLAYNAME
  1
Imperial24
102
FLAGS
 90
        0
  0
CELLSTYLEMAP
  5
A3B7
102
{ACAD_REACTORS
330
A3B6
102
}
330
A3B6
100
AcDbCellStyleMap
 90
        3
300
CELLSTYLE
  1
TABLEFORMAT_BEGIN
 90
        5
170
     1
 91
        0
 92
    32768
 62
   257
 93
        1
300
CONTENTFORMAT
  1
CONTENTFORMAT_BEGIN
 90
        0
 91
        0
 92
      512
 93
        0
300

 40
0.0
140
1.0
 94
        5
 62
     0
340
9F83
144
0.25
309
CONTENTFORMAT_END
171
     0
 94
        0
309
TABLEFORMAT_END
  1
CELLSTYLE_BEGIN
 90
        1
 91
        1
300
_TITLE
309
CELLSTYLE_END
300
CELLSTYLE
  1
TABLEFORMAT_BEGIN
 90
        5
170
     1
 91
        0
 92
        0
 62
   257
 93
        1
300
CONTENTFORMAT
  1
CONTENTFORMAT_BEGIN
 90
        0
 91
        0
 92
      512
 93
        0
300

 40
0.0
140
1.0
 94
        5
 62
     0
340
9F83
144
0.18
309
CONTENTFORMAT_END
171
     0
 94
        0
309
TABLEFORMAT_END
  1
CELLSTYLE_BEGIN
 90
        2
 91
        1
300
_HEADER
309
CELLSTYLE_END
300
CELLSTYLE
  1
TABLEFORMAT_BEGIN
 90
        5
170
     1
 91
        0
 92
        0
 62
   257
 93
        1
300
CONTENTFORMAT
  1
CONTENTFORMAT_BEGIN
 90
        0
 91
        0
 92
      512
 93
        0
300

 40
0.0
140
1.0
 94
        2
 62
     0
340
9F83
144
0.18
309
CONTENTFORMAT_END
171
     0
 94
        0
309
TABLEFORMAT_END
  1
CELLSTYLE_BEGIN
 90
        3
 91
        2
300
_DATA
309
CELLSTYLE_END
  0
XRECORD
  5
A3ED
102
{ACAD_REACTORS
330
A3B6
102
}
330
A3B6
100
AcDbXrecord
280
     1
102
ACAD_ROUNDTRIP_PRE2007_TABLESTYLE
 90
      512
 91
        0
  1

 92
      512
 93
        0
  2

 94
      512
 95
        0
  3

  0
XRECORD
  5
A3C8
102
{ACAD_REACTORS
330
A3C7
102
}
330
A3C7
100
AcDbXrecord
280
     1
102
RTVSPost2010Prop28
280
     1
102
RTVSPost2010PropOp28
 70
     1
102
RTVSPost2010Prop29
280
     1
102
RTVSPost2010PropOp29
 70
     1
102
RTVSPost2010Prop30
280
     0
102
RTVSPost2010PropOp30
 70
     1
102
RTVSPost2010Prop31
280
     0
102
RTVSPost2010PropOp31
 70
     1
102
RTVSPost2010Prop32
280
     0
102
RTVSPost2010PropOp32
 70
     1
102
RTVSPost2010Prop33
280
     0
102
RTVSPost2010PropOp33
 70
     1
102
RTVSPost2010Prop34
280
     0
102
RTVSPost2010PropOp34
 70
     1
102
RTVSPost2010Prop35
280
     0
102
RTVSPost2010PropOp35
 70
     1
102
RTVSPost2010Prop36
280
     0
102
RTVSPost2010PropOp36
 70
     1
102
RTVSPost2010Prop37
 90
       50
102
RTVSPost2010PropOp37
 70
     1
102
RTVSPost2010Prop38
140
0.0
102
RTVSPost2010PropOp38
 70
     1
102
RTVSPost2010Prop39
140
1.0
102
RTVSPost2010PropOp39
 70
     1
102
RTVSPost2010Prop40
 90
        0
102
RTVSPost2010PropOp40
 70
     1
102
RTVSPost2010Prop41ColorIndex
 90
       18
102
RTVSPost2010Prop41ColorRGB
 90
        0
102
RTVSPost2010PropOp41
 70
     1
102
RTVSPost2010Prop42
 90
       50
102
RTVSPost2010PropOp42
 70
     1
102
RTVSPost2010Prop43
 90
        3
102
RTVSPost2010PropOp43
 70
     1
102
RTVSPost2010Prop44ColorIndex
 90
        5
102
RTVSPost2010Prop44ColorRGB
 90
      255
102
RTVSPost2010PropOp44
 70
     1
102
RTVSPost2010Prop45
280
     0
102
RTVSPost2010PropOp45
 70
     1
102
RTVSPost2010Prop46
 90
       50
102
RTVSPost2010PropOp46
 70
     1
102
RTVSPost2010Prop47
 90
       50
102
RTVSPost2010PropOp47
 70
     1
102
RTVSPost2010Prop48
 90
       50
102
RTVSPost2010PropOp48
 70
     1
102
RTVSPost2010Prop49
280
     0
102
RTVSPost2010PropOp49
 70
     1
102
RTVSPost2010Prop50
 90
       50
102
RTVSPost2010PropOp50
 70
     1
102
RTVSPost2010Prop51ColorIndex
 90
      256
102
RTVSPost2010Prop51ColorRGB
 90
-16777216
102
RTVSPost2010PropOp51
 70
     0
102
RTVSPost2010Prop52
140
1.0
102
RTVSPost2010PropOp52
 70
     0
102
RTVSPost2010Prop53
 90
        2
102
RTVSPost2010PropOp53
 70
     1
102
RTVSPost2010Prop54
  1
strokes_ogs.tif
102
RTVSPost2010PropOp54
 70
     1
102
RTVSPost2010Prop55
280
     0
102
RTVSPost2010PropOp55
 70
     1
102
RTVSPost2010Prop56
140
1.0
102
RTVSPost2010PropOp56
 70
     1
102
RTVSPost2010Prop57
140
1.0
102
RTVSPost2010PropOp57
 70
     1
102
RTVSPropertyOp0
 70
     1
102
RTVSPropertyOp1
 70
     1
102
RTVSPropertyOp2
 70
     1
102
RTVSPropertyOp3
 70
     1
102
RTVSPropertyOp4
 70
     1
102
RTVSPropertyOp5
 70
     1
102
RTVSPropertyOp6
 70
     1
102
RTVSPropertyOp7
 70
     1
102
RTVSPropertyOp8
 70
     1
102
RTVSPropertyOp9
 70
     1
102
RTVSPropertyOp10
 70
     1
102
RTVSPropertyOp11
 70
     1
102
RTVSPropertyOp12
 70
     1
102
RTVSPropertyOp13
 70
     1
102
RTVSPropertyOp14
 70
     1
102
RTVSPropertyOp15
 70
     1
102
RTVSPropertyOp16
 70
     1
102
RTVSPropertyOp17
 70
     1
102
RTVSPropertyOp18
 70
     1
102
RTVSPropertyOp19
 70
     1
102
RTVSPropertyOp20
 70
     1
102
RTVSPropertyOp21
 70
     1
102
RTVSPropertyOp22
 70
     1
102
RTVSPropertyOp23
 70
     1
102
RTVSPropertyOp24
 70
     1
102
RTVSPropertyOp25
 70
     1
102
RTVSPropertyOp26
 70
     1
102
RTVSPropertyOp27
 70
     1
102
RTVSPropertyOp28
 70
     1
102
RTVSPropertyOp29
 70
     1
102
RTVSPropertyOp30
 70
     1
102
RTVSPropertyOp31
 70
     1
102
RTVSPropertyOp32
 70
     1
102
RTVSPropertyOp33
 70
     1
102
RTVSPropertyOp34
 70
     1
102
RTVSPropertyOp35
 70
     1
102
RTVSPropertyOp36
 70
     1
102
RTVSPropertyOp37
 70
     1
102
RTVSPropertyOp38
 70
     1
102
RTVSPropertyOp39
 70
     1
102
RTVSPropertyOp40
 70
     1
102
RTVSPropertyOp41
 70
     1
102
RTVSPropertyOp42
 70
     1
102
RTVSPropertyOp43
 70
     1
102
RTVSPropertyOp44
 70
     1
102
RTVSPropertyOp45
 70
     1
102
RTVSPropertyOp46
 70
     1
102
RTVSPropertyOp47
 70
     1
102
RTVSPropertyOp48
 70
     1
102
RTVSPropertyOp49
 70
     1
102
RTVSPropertyOp50
 70
     1
102
RTVSPropertyOp51
 70
     0
102
RTVSPropertyOp52
 70
     0
102
RTVSPropertyOp53
 70
     1
102
RTVSPropertyOp54
 70
     1
102
RTVSPropertyOp55
 70
     1
102
RTVSPropertyOp56
 70
     1
102
RTVSPropertyOp57
 70
     1
102
RTVSPropertyOp58
 70
     1
102
RTVSPropertyOp59
 70
     1
102
RTVSPropertyOp60
 70
     1
102
RTVSPropertyOp61
 70
     1
102
RTVSPropertyOp62
 70
     1
  0
XRECORD
  5
A3C6
102
{ACAD_REACTORS
330
A3C5
102
}
330
A3C5
100
AcDbXrecord
280
     1
102
RTVSPost2010Prop28
280
     0
102
RTVSPost2010PropOp28
 70
     1
102
RTVSPost2010Prop29
280
     1
102
RTVSPost2010PropOp29
 70
     1
102
RTVSPost2010Prop30
280
     1
102
RTVSPost2010PropOp30
 70
     1
102
RTVSPost2010Prop31
280
     0
102
RTVSPost2010PropOp31
 70
     1
102
RTVSPost2010Prop32
280
     0
102
RTVSPost2010PropOp32
 70
     1
102
RTVSPost2010Prop33
280
     0
102
RTVSPost2010PropOp33
 70
     1
102
RTVSPost2010Prop34
280
     0
102
RTVSPost2010PropOp34
 70
     1
102
RTVSPost2010Prop35
280
     0
102
RTVSPost2010PropOp35
 70
     1
102
RTVSPost2010Prop36
280
     0
102
RTVSPost2010PropOp36
 70
     1
102
RTVSPost2010Prop37
 90
       50
102
RTVSPost2010PropOp37
 70
     1
102
RTVSPost2010Prop38
140
0.0
102
RTVSPost2010PropOp38
 70
     1
102
RTVSPost2010Prop39
140
1.0
102
RTVSPost2010PropOp39
 70
     1
102
RTVSPost2010Prop40
 90
        0
102
RTVSPost2010PropOp40
 70
     1
102
RTVSPost2010Prop41ColorIndex
 90
       18
102
RTVSPost2010Prop41ColorRGB
 90
        0
102
RTVSPost2010PropOp41
 70
     1
102
RTVSPost2010Prop42
 90
       50
102
RTVSPost2010PropOp42
 70
     1
102
RTVSPost2010Prop43
 90
        3
102
RTVSPost2010PropOp43
 70
     1
102
RTVSPost2010Prop44ColorIndex
 90
        5
102
RTVSPost2010Prop44ColorRGB
 90
      255
102
RTVSPost2010PropOp44
 70
     1
102
RTVSPost2010Prop45
280
     0
102
RTVSPost2010PropOp45
 70
     1
102
RTVSPost2010Prop46
 90
       50
102
RTVSPost2010PropOp46
 70
     1
102
RTVSPost2010Prop47
 90
       50
102
RTVSPost2010PropOp47
 70
     1
102
RTVSPost2010Prop48
 90
       50
102
RTVSPost2010PropOp48
 70
     1
102
RTVSPost2010Prop49
280
     0
102
RTVSPost2010PropOp49
 70
     1
102
RTVSPost2010Prop50
 90
       50
102
RTVSPost2010PropOp50
 70
     1
102
RTVSPost2010Prop51ColorIndex
 90
      256
102
RTVSPost2010Prop51ColorRGB
 90
-16777216
102
RTVSPost2010PropOp51
 70
     0
102
RTVSPost2010Prop52
140
1.0
102
RTVSPost2010PropOp52
 70
     0
102
RTVSPost2010Prop53
 90
        2
102
RTVSPost2010PropOp53
 70
     1
102
RTVSPost2010Prop54
  1
strokes_ogs.tif
102
RTVSPost2010PropOp54
 70
     1
102
RTVSPost2010Prop55
280
     0
102
RTVSPost2010PropOp55
 70
     1
102
RTVSPost2010Prop56
140
1.0
102
RTVSPost2010PropOp56
 70
     1
102
RTVSPost2010Prop57
140
1.0
102
RTVSPost2010PropOp57
 70
     1
102
RTVSPropertyOp0
 70
     1
102
RTVSPropertyOp1
 70
     1
102
RTVSPropertyOp2
 70
     1
102
RTVSPropertyOp3
 70
     1
102
RTVSPropertyOp4
 70
     1
102
RTVSPropertyOp5
 70
     1
102
RTVSPropertyOp6
 70
     1
102
RTVSPropertyOp7
 70
     1
102
RTVSPropertyOp8
 70
     1
102
RTVSPropertyOp9
 70
     1
102
RTVSPropertyOp10
 70
     1
102
RTVSPropertyOp11
 70
     1
102
RTVSPropertyOp12
 70
     1
102
RTVSPropertyOp13
 70
     1
102
RTVSPropertyOp14
 70
     1
102
RTVSPropertyOp15
 70
     1
102
RTVSPropertyOp16
 70
     1
102
RTVSPropertyOp17
 70
     1
102
RTVSPropertyOp18
 70
     1
102
RTVSPropertyOp19
 70
     1
102
RTVSPropertyOp20
 70
     1
102
RTVSPropertyOp21
 70
     1
102
RTVSPropertyOp22
 70
     1
102
RTVSPropertyOp23
 70
     1
102
RTVSPropertyOp24
 70
     1
102
RTVSPropertyOp25
 70
     1
102
RTVSPropertyOp26
 70
     1
102
RTVSPropertyOp27
 70
     1
102
RTVSPropertyOp28
 70
     1
102
RTVSPropertyOp29
 70
     1
102
RTVSPropertyOp30
 70
     1
102
RTVSPropertyOp31
 70
     1
102
RTVSPropertyOp32
 70
     1
102
RTVSPropertyOp33
 70
     1
102
RTVSPropertyOp34
 70
     1
102
RTVSPropertyOp35
 70
     1
102
RTVSPropertyOp36
 70
     1
102
RTVSPropertyOp37
 70
     1
102
RTVSPropertyOp38
 70
     1
102
RTVSPropertyOp39
 70
     1
102
RTVSPropertyOp40
 70
     1
102
RTVSPropertyOp41
 70
     1
102
RTVSPropertyOp42
 70
     1
102
RTVSPropertyOp43
 70
     1
102
RTVSPropertyOp44
 70
     1
102
RTVSPropertyOp45
 70
     1
102
RTVSPropertyOp46
 70
     1
102
RTVSPropertyOp47
 70
     1
102
RTVSPropertyOp48
 70
     1
102
RTVSPropertyOp49
 70
     1
102
RTVSPropertyOp50
 70
     1
102
RTVSPropertyOp51
 70
     0
102
RTVSPropertyOp52
 70
     0
102
RTVSPropertyOp53
 70
     1
102
RTVSPropertyOp54
 70
     1
102
RTVSPropertyOp55
 70
     1
102
RTVSPropertyOp56
 70
     1
102
RTVSPropertyOp57
 70
     1
102
RTVSPropertyOp58
 70
     1
102
RTVSPropertyOp59
 70
     1
102
RTVSPropertyOp60
 70
     1
102
RTVSPropertyOp61
 70
     1
102
RTVSPropertyOp62
 70
     1
  0
XRECORD
  5
A3D4
102
{ACAD_REACTORS
330
A3D3
102
}
330
A3D3
100
AcDbXrecord
280
     1
102
RTVSPost2010Prop28
280
     0
102
RTVSPost2010PropOp28
 70
     1
102
RTVSPost2010Prop29
280
     1
102
RTVSPost2010PropOp29
 70
     1
102
RTVSPost2010Prop30
280
     1
102
RTVSPost2010PropOp30
 70
     1
102
RTVSPost2010Prop31
280
     0
102
RTVSPost2010PropOp31
 70
     1
102
RTVSPost2010Prop32
280
     0
102
RTVSPost2010PropOp32
 70
     1
102
RTVSPost2010Prop33
280
     0
102
RTVSPost2010PropOp33
 70
     1
102
RTVSPost2010Prop34
280
     0
102
RTVSPost2010PropOp34
 70
     1
102
RTVSPost2010Prop35
280
     0
102
RTVSPost2010PropOp35
 70
     1
102
RTVSPost2010Prop36
280
     0
102
RTVSPost2010PropOp36
 70
     1
102
RTVSPost2010Prop37
 90
       50
102
RTVSPost2010PropOp37
 70
     1
102
RTVSPost2010Prop38
140
0.0
102
RTVSPost2010PropOp38
 70
     1
102
RTVSPost2010Prop39
140
1.0
102
RTVSPost2010PropOp39
 70
     1
102
RTVSPost2010Prop40
 90
        0
102
RTVSPost2010PropOp40
 70
     1
102
RTVSPost2010Prop41ColorIndex
 90
       18
102
RTVSPost2010Prop41ColorRGB
 90
        0
102
RTVSPost2010PropOp41
 70
     1
102
RTVSPost2010Prop42
 90
       50
102
RTVSPost2010PropOp42
 70
     1
102
RTVSPost2010Prop43
 90
        3
102
RTVSPost2010PropOp43
 70
     1
102
RTVSPost2010Prop44ColorIndex
 90
        5
102
RTVSPost2010Prop44ColorRGB
 90
      255
102
RTVSPost2010PropOp44
 70
     1
102
RTVSPost2010Prop45
280
     0
102
RTVSPost2010PropOp45
 70
     1
102
RTVSPost2010Prop46
 90
       50
102
RTVSPost2010PropOp46
 70
     1
102
RTVSPost2010Prop47
 90
       50
102
RTVSPost2010PropOp47
 70
     1
102
RTVSPost2010Prop48
 90
       50
102
RTVSPost2010PropOp48
 70
     1
102
RTVSPost2010Prop49
280
     0
102
RTVSPost2010PropOp49
 70
     1
102
RTVSPost2010Prop50
 90
       50
102
RTVSPost2010PropOp50
 70
     1
102
RTVSPost2010Prop51ColorIndex
 90
      256
102
RTVSPost2010Prop51ColorRGB
 90
-16777216
102
RTVSPost2010PropOp51
 70
     0
102
RTVSPost2010Prop52
140
1.0
102
RTVSPost2010PropOp52
 70
     0
102
RTVSPost2010Prop53
 90
        2
102
RTVSPost2010PropOp53
 70
     1
102
RTVSPost2010Prop54
  1
strokes_ogs.tif
102
RTVSPost2010PropOp54
 70
     1
102
RTVSPost2010Prop55
280
     0
102
RTVSPost2010PropOp55
 70
     1
102
RTVSPost2010Prop56
140
1.0
102
RTVSPost2010PropOp56
 70
     1
102
RTVSPost2010Prop57
140
1.0
102
RTVSPost2010PropOp57
 70
     1
102
RTVSPropertyOp0
 70
     1
102
RTVSPropertyOp1
 70
     1
102
RTVSPropertyOp2
 70
     1
102
RTVSPropertyOp3
 70
     1
102
RTVSPropertyOp4
 70
     1
102
RTVSPropertyOp5
 70
     1
102
RTVSPropertyOp6
 70
     1
102
RTVSPropertyOp7
 70
     1
102
RTVSPropertyOp8
 70
     1
102
RTVSPropertyOp9
 70
     1
102
RTVSPropertyOp10
 70
     1
102
RTVSPropertyOp11
 70
     1
102
RTVSPropertyOp12
 70
     1
102
RTVSPropertyOp13
 70
     1
102
RTVSPropertyOp14
 70
     1
102
RTVSPropertyOp15
 70
     1
102
RTVSPropertyOp16
 70
     1
102
RTVSPropertyOp17
 70
     1
102
RTVSPropertyOp18
 70
     1
102
RTVSPropertyOp19
 70
     1
102
RTVSPropertyOp20
 70
     1
102
RTVSPropertyOp21
 70
     1
102
RTVSPropertyOp22
 70
     1
102
RTVSPropertyOp23
 70
     1
102
RTVSPropertyOp24
 70
     1
102
RTVSPropertyOp25
 70
     1
102
RTVSPropertyOp26
 70
     1
102
RTVSPropertyOp27
 70
     1
102
RTVSPropertyOp28
 70
     1
102
RTVSPropertyOp29
 70
     1
102
RTVSPropertyOp30
 70
     1
102
RTVSPropertyOp31
 70
     1
102
RTVSPropertyOp32
 70
     1
102
RTVSPropertyOp33
 70
     1
102
RTVSPropertyOp34
 70
     1
102
RTVSPropertyOp35
 70
     1
102
RTVSPropertyOp36
 70
     1
102
RTVSPropertyOp37
 70
     1
102
RTVSPropertyOp38
 70
     1
102
RTVSPropertyOp39
 70
     1
102
RTVSPropertyOp40
 70
     1
102
RTVSPropertyOp41
 70
     1
102
RTVSPropertyOp42
 70
     1
102
RTVSPropertyOp43
 70
     1
102
RTVSPropertyOp44
 70
     1
102
RTVSPropertyOp45
 70
     1
102
RTVSPropertyOp46
 70
     1
102
RTVSPropertyOp47
 70
     1
102
RTVSPropertyOp48
 70
     1
102
RTVSPropertyOp49
 70
     1
102
RTVSPropertyOp50
 70
     1
102
RTVSPropertyOp51
 70
     0
102
RTVSPropertyOp52
 70
     0
102
RTVSPropertyOp53
 70
     1
102
RTVSPropertyOp54
 70
     1
102
RTVSPropertyOp55
 70
     1
102
RTVSPropertyOp56
 70
     1
102
RTVSPropertyOp57
 70
     1
102
RTVSPropertyOp58
 70
     1
102
RTVSPropertyOp59
 70
     1
102
RTVSPropertyOp60
 70
     1
102
RTVSPropertyOp61
 70
     1
102
RTVSPropertyOp62
 70
     1
  0
XRECORD
  5
A3DC
102
{ACAD_REACTORS
330
A3DB
102
}
330
A3DB
100
AcDbXrecord
280
     1
102
RTVSPost2010Prop28
280
     0
102
RTVSPost2010PropOp28
 70
     1
102
RTVSPost2010Prop29
280
     1
102
RTVSPost2010PropOp29
 70
     1
102
RTVSPost2010Prop30
280
     1
102
RTVSPost2010PropOp30
 70
     1
102
RTVSPost2010Prop31
280
     0
102
RTVSPost2010PropOp31
 70
     1
102
RTVSPost2010Prop32
280
     0
102
RTVSPost2010PropOp32
 70
     1
102
RTVSPost2010Prop33
280
     0
102
RTVSPost2010PropOp33
 70
     1
102
RTVSPost2010Prop34
280
     0
102
RTVSPost2010PropOp34
 70
     1
102
RTVSPost2010Prop35
280
     0
102
RTVSPost2010PropOp35
 70
     1
102
RTVSPost2010Prop36
280
     0
102
RTVSPost2010PropOp36
 70
     1
102
RTVSPost2010Prop37
 90
       50
102
RTVSPost2010PropOp37
 70
     1
102
RTVSPost2010Prop38
140
0.0
102
RTVSPost2010PropOp38
 70
     1
102
RTVSPost2010Prop39
140
1.0
102
RTVSPost2010PropOp39
 70
     1
102
RTVSPost2010Prop40
 90
        0
102
RTVSPost2010PropOp40
 70
     1
102
RTVSPost2010Prop41ColorIndex
 90
       18
102
RTVSPost2010Prop41ColorRGB
 90
        0
102
RTVSPost2010PropOp41
 70
     1
102
RTVSPost2010Prop42
 90
       50
102
RTVSPost2010PropOp42
 70
     1
102
RTVSPost2010Prop43
 90
        3
102
RTVSPost2010PropOp43
 70
     1
102
RTVSPost2010Prop44ColorIndex
 90
        5
102
RTVSPost2010Prop44ColorRGB
 90
      255
102
RTVSPost2010PropOp44
 70
     1
102
RTVSPost2010Prop45
280
     0
102
RTVSPost2010PropOp45
 70
     1
102
RTVSPost2010Prop46
 90
       50
102
RTVSPost2010PropOp46
 70
     1
102
RTVSPost2010Prop47
 90
       50
102
RTVSPost2010PropOp47
 70
     1
102
RTVSPost2010Prop48
 90
       50
102
RTVSPost2010PropOp48
 70
     1
102
RTVSPost2010Prop49
280
     0
102
RTVSPost2010PropOp49
 70
     1
102
RTVSPost2010Prop50
 90
       50
102
RTVSPost2010PropOp50
 70
     1
102
RTVSPost2010Prop51ColorIndex
 90
      256
102
RTVSPost2010Prop51ColorRGB
 90
-16777216
102
RTVSPost2010PropOp51
 70
     0
102
RTVSPost2010Prop52
140
1.0
102
RTVSPost2010PropOp52
 70
     0
102
RTVSPost2010Prop53
 90
        2
102
RTVSPost2010PropOp53
 70
     1
102
RTVSPost2010Prop54
  1
strokes_ogs.tif
102
RTVSPost2010PropOp54
 70
     1
102
RTVSPost2010Prop55
280
     0
102
RTVSPost2010PropOp55
 70
     1
102
RTVSPost2010Prop56
140
1.0
102
RTVSPost2010PropOp56
 70
     1
102
RTVSPost2010Prop57
140
1.0
102
RTVSPost2010PropOp57
 70
     1
102
RTVSPropertyOp0
 70
     1
102
RTVSPropertyOp1
 70
     1
102
RTVSPropertyOp2
 70
     1
102
RTVSPropertyOp3
 70
     1
102
RTVSPropertyOp4
 70
     1
102
RTVSPropertyOp5
 70
     1
102
RTVSPropertyOp6
 70
     1
102
RTVSPropertyOp7
 70
     1
102
RTVSPropertyOp8
 70
     1
102
RTVSPropertyOp9
 70
     1
102
RTVSPropertyOp10
 70
     1
102
RTVSPropertyOp11
 70
     1
102
RTVSPropertyOp12
 70
     1
102
RTVSPropertyOp13
 70
     1
102
RTVSPropertyOp14
 70
     1
102
RTVSPropertyOp15
 70
     1
102
RTVSPropertyOp16
 70
     1
102
RTVSPropertyOp17
 70
     1
102
RTVSPropertyOp18
 70
     1
102
RTVSPropertyOp19
 70
     1
102
RTVSPropertyOp20
 70
     1
102
RTVSPropertyOp21
 70
     1
102
RTVSPropertyOp22
 70
     1
102
RTVSPropertyOp23
 70
     1
102
RTVSPropertyOp24
 70
     1
102
RTVSPropertyOp25
 70
     1
102
RTVSPropertyOp26
 70
     1
102
RTVSPropertyOp27
 70
     1
102
RTVSPropertyOp28
 70
     1
102
RTVSPropertyOp29
 70
     1
102
RTVSPropertyOp30
 70
     1
102
RTVSPropertyOp31
 70
     1
102
RTVSPropertyOp32
 70
     1
102
RTVSPropertyOp33
 70
     1
102
RTVSPropertyOp34
 70
     1
102
RTVSPropertyOp35
 70
     1
102
RTVSPropertyOp36
 70
     1
102
RTVSPropertyOp37
 70
     1
102
RTVSPropertyOp38
 70
     1
102
RTVSPropertyOp39
 70
     1
102
RTVSPropertyOp40
 70
     1
102
RTVSPropertyOp41
 70
     1
102
RTVSPropertyOp42
 70
     1
102
RTVSPropertyOp43
 70
     1
102
RTVSPropertyOp44
 70
     1
102
RTVSPropertyOp45
 70
     1
102
RTVSPropertyOp46
 70
     1
102
RTVSPropertyOp47
 70
     1
102
RTVSPropertyOp48
 70
     1
102
RTVSPropertyOp49
 70
     1
102
RTVSPropertyOp50
 70
     1
102
RTVSPropertyOp51
 70
     0
102
RTVSPropertyOp52
 70
     0
102
RTVSPropertyOp53
 70
     1
102
RTVSPropertyOp54
 70
     1
102
RTVSPropertyOp55
 70
     1
102
RTVSPropertyOp56
 70
     1
102
RTVSPropertyOp57
 70
     1
102
RTVSPropertyOp58
 70
     1
102
RTVSPropertyOp59
 70
     1
102
RTVSPropertyOp60
 70
     1
102
RTVSPropertyOp61
 70
     1
102
RTVSPropertyOp62
 70
     1
  0
XRECORD
  5
A3CE
102
{ACAD_REACTORS
330
A3CD
102
}
330
A3CD
100
AcDbXrecord
280
     1
102
RTVSPost2010Prop28
280
     0
102
RTVSPost2010PropOp28
 70
     1
102
RTVSPost2010Prop29
280
     1
102
RTVSPost2010PropOp29
 70
     1
102
RTVSPost2010Prop30
280
     1
102
RTVSPost2010PropOp30
 70
     1
102
RTVSPost2010Prop31
280
     0
102
RTVSPost2010PropOp31
 70
     1
102
RTVSPost2010Prop32
280
     0
102
RTVSPost2010PropOp32
 70
     1
102
RTVSPost2010Prop33
280
     0
102
RTVSPost2010PropOp33
 70
     1
102
RTVSPost2010Prop34
280
     0
102
RTVSPost2010PropOp34
 70
     1
102
RTVSPost2010Prop35
280
     0
102
RTVSPost2010PropOp35
 70
     1
102
RTVSPost2010Prop36
280
     0
102
RTVSPost2010PropOp36
 70
     1
102
RTVSPost2010Prop37
 90
       50
102
RTVSPost2010PropOp37
 70
     1
102
RTVSPost2010Prop38
140
0.0
102
RTVSPost2010PropOp38
 70
     1
102
RTVSPost2010Prop39
140
1.0
102
RTVSPost2010PropOp39
 70
     1
102
RTVSPost2010Prop40
 90
        0
102
RTVSPost2010PropOp40
 70
     1
102
RTVSPost2010Prop41ColorIndex
 90
       18
102
RTVSPost2010Prop41ColorRGB
 90
        0
102
RTVSPost2010PropOp41
 70
     1
102
RTVSPost2010Prop42
 90
       50
102
RTVSPost2010PropOp42
 70
     1
102
RTVSPost2010Prop43
 90
        3
102
RTVSPost2010PropOp43
 70
     1
102
RTVSPost2010Prop44ColorIndex
 90
        5
102
RTVSPost2010Prop44ColorRGB
 90
      255
102
RTVSPost2010PropOp44
 70
     1
102
RTVSPost2010Prop45
280
     0
102
RTVSPost2010PropOp45
 70
     1
102
RTVSPost2010Prop46
 90
       50
102
RTVSPost2010PropOp46
 70
     1
102
RTVSPost2010Prop47
 90
       50
102
RTVSPost2010PropOp47
 70
     1
102
RTVSPost2010Prop48
 90
       50
102
RTVSPost2010PropOp48
 70
     1
102
RTVSPost2010Prop49
280
     0
102
RTVSPost2010PropOp49
 70
     1
102
RTVSPost2010Prop50
 90
       50
102
RTVSPost2010PropOp50
 70
     1
102
RTVSPost2010Prop51ColorIndex
 90
      256
102
RTVSPost2010Prop51ColorRGB
 90
-16777216
102
RTVSPost2010PropOp51
 70
     0
102
RTVSPost2010Prop52
140
1.0
102
RTVSPost2010PropOp52
 70
     0
102
RTVSPost2010Prop53
 90
        2
102
RTVSPost2010PropOp53
 70
     1
102
RTVSPost2010Prop54
  1
strokes_ogs.tif
102
RTVSPost2010PropOp54
 70
     1
102
RTVSPost2010Prop55
280
     0
102
RTVSPost2010PropOp55
 70
     1
102
RTVSPost2010Prop56
140
1.0
102
RTVSPost2010PropOp56
 70
     1
102
RTVSPost2010Prop57
140
1.0
102
RTVSPost2010PropOp57
 70
     1
102
RTVSPropertyOp0
 70
     1
102
RTVSPropertyOp1
 70
     1
102
RTVSPropertyOp2
 70
     1
102
RTVSPropertyOp3
 70
     1
102
RTVSPropertyOp4
 70
     1
102
RTVSPropertyOp5
 70
     1
102
RTVSPropertyOp6
 70
     1
102
RTVSPropertyOp7
 70
     1
102
RTVSPropertyOp8
 70
     1
102
RTVSPropertyOp9
 70
     1
102
RTVSPropertyOp10
 70
     1
102
RTVSPropertyOp11
 70
     1
102
RTVSPropertyOp12
 70
     1
102
RTVSPropertyOp13
 70
     1
102
RTVSPropertyOp14
 70
     1
102
RTVSPropertyOp15
 70
     1
102
RTVSPropertyOp16
 70
     1
102
RTVSPropertyOp17
 70
     1
102
RTVSPropertyOp18
 70
     1
102
RTVSPropertyOp19
 70
     1
102
RTVSPropertyOp20
 70
     1
102
RTVSPropertyOp21
 70
     1
102
RTVSPropertyOp22
 70
     1
102
RTVSPropertyOp23
 70
     1
102
RTVSPropertyOp24
 70
     1
102
RTVSPropertyOp25
 70
     1
102
RTVSPropertyOp26
 70
     1
102
RTVSPropertyOp27
 70
     1
102
RTVSPropertyOp28
 70
     1
102
RTVSPropertyOp29
 70
     1
102
RTVSPropertyOp30
 70
     1
102
RTVSPropertyOp31
 70
     1
102
RTVSPropertyOp32
 70
     1
102
RTVSPropertyOp33
 70
     1
102
RTVSPropertyOp34
 70
     1
102
RTVSPropertyOp35
 70
     1
102
RTVSPropertyOp36
 70
     1
102
RTVSPropertyOp37
 70
     1
102
RTVSPropertyOp38
 70
     1
102
RTVSPropertyOp39
 70
     1
102
RTVSPropertyOp40
 70
     1
102
RTVSPropertyOp41
 70
     1
102
RTVSPropertyOp42
 70
     1
102
RTVSPropertyOp43
 70
     1
102
RTVSPropertyOp44
 70
     1
102
RTVSPropertyOp45
 70
     1
102
RTVSPropertyOp46
 70
     1
102
RTVSPropertyOp47
 70
     1
102
RTVSPropertyOp48
 70
     1
102
RTVSPropertyOp49
 70
     1
102
RTVSPropertyOp50
 70
     1
102
RTVSPropertyOp51
 70
     0
102
RTVSPropertyOp52
 70
     0
102
RTVSPropertyOp53
 70
     1
102
RTVSPropertyOp54
 70
     1
102
RTVSPropertyOp55
 70
     1
102
RTVSPropertyOp56
 70
     1
102
RTVSPropertyOp57
 70
     1
102
RTVSPropertyOp58
 70
     1
102
RTVSPropertyOp59
 70
     1
102
RTVSPropertyOp60
 70
     1
102
RTVSPropertyOp61
 70
     1
102
RTVSPropertyOp62
 70
     1
  0
XRECORD
  5
A3D2
102
{ACAD_REACTORS
330
A3D1
102
}
330
A3D1
100
AcDbXrecord
280
     1
102
RTVSPost2010Prop28
280
     0
102
RTVSPost2010PropOp28
 70
     1
102
RTVSPost2010Prop29
280
     1
102
RTVSPost2010PropOp29
 70
     1
102
RTVSPost2010Prop30
280
     1
102
RTVSPost2010PropOp30
 70
     1
102
RTVSPost2010Prop31
280
     0
102
RTVSPost2010PropOp31
 70
     1
102
RTVSPost2010Prop32
280
     0
102
RTVSPost2010PropOp32
 70
     1
102
RTVSPost2010Prop33
280
     0
102
RTVSPost2010PropOp33
 70
     1
102
RTVSPost2010Prop34
280
     0
102
RTVSPost2010PropOp34
 70
     1
102
RTVSPost2010Prop35
280
     0
102
RTVSPost2010PropOp35
 70
     1
102
RTVSPost2010Prop36
280
     0
102
RTVSPost2010PropOp36
 70
     1
102
RTVSPost2010Prop37
 90
       50
102
RTVSPost2010PropOp37
 70
     1
102
RTVSPost2010Prop38
140
0.0
102
RTVSPost2010PropOp38
 70
     1
102
RTVSPost2010Prop39
140
1.0
102
RTVSPost2010PropOp39
 70
     1
102
RTVSPost2010Prop40
 90
        0
102
RTVSPost2010PropOp40
 70
     1
102
RTVSPost2010Prop41ColorIndex
 90
       18
102
RTVSPost2010Prop41ColorRGB
 90
        0
102
RTVSPost2010PropOp41
 70
     1
102
RTVSPost2010Prop42
 90
       50
102
RTVSPost2010PropOp42
 70
     1
102
RTVSPost2010Prop43
 90
        3
102
RTVSPost2010PropOp43
 70
     1
102
RTVSPost2010Prop44ColorIndex
 90
        5
102
RTVSPost2010Prop44ColorRGB
 90
      255
102
RTVSPost2010PropOp44
 70
     1
102
RTVSPost2010Prop45
280
     0
102
RTVSPost2010PropOp45
 70
     1
102
RTVSPost2010Prop46
 90
       50
102
RTVSPost2010PropOp46
 70
     1
102
RTVSPost2010Prop47
 90
       50
102
RTVSPost2010PropOp47
 70
     1
102
RTVSPost2010Prop48
 90
       50
102
RTVSPost2010PropOp48
 70
     1
102
RTVSPost2010Prop49
280
     0
102
RTVSPost2010PropOp49
 70
     1
102
RTVSPost2010Prop50
 90
       50
102
RTVSPost2010PropOp50
 70
     1
102
RTVSPost2010Prop51ColorIndex
 90
      256
102
RTVSPost2010Prop51ColorRGB
 90
-16777216
102
RTVSPost2010PropOp51
 70
     0
102
RTVSPost2010Prop52
140
1.0
102
RTVSPost2010PropOp52
 70
     0
102
RTVSPost2010Prop53
 90
        2
102
RTVSPost2010PropOp53
 70
     1
102
RTVSPost2010Prop54
  1
strokes_ogs.tif
102
RTVSPost2010PropOp54
 70
     1
102
RTVSPost2010Prop55
280
     0
102
RTVSPost2010PropOp55
 70
     1
102
RTVSPost2010Prop56
140
1.0
102
RTVSPost2010PropOp56
 70
     1
102
RTVSPost2010Prop57
140
1.0
102
RTVSPost2010PropOp57
 70
     1
102
RTVSPropertyOp0
 70
     1
102
RTVSPropertyOp1
 70
     1
102
RTVSPropertyOp2
 70
     1
102
RTVSPropertyOp3
 70
     1
102
RTVSPropertyOp4
 70
     1
102
RTVSPropertyOp5
 70
     1
102
RTVSPropertyOp6
 70
     1
102
RTVSPropertyOp7
 70
     1
102
RTVSPropertyOp8
 70
     1
102
RTVSPropertyOp9
 70
     1
102
RTVSPropertyOp10
 70
     1
102
RTVSPropertyOp11
 70
     1
102
RTVSPropertyOp12
 70
     1
102
RTVSPropertyOp13
 70
     1
102
RTVSPropertyOp14
 70
     1
102
RTVSPropertyOp15
 70
     1
102
RTVSPropertyOp16
 70
     1
102
RTVSPropertyOp17
 70
     1
102
RTVSPropertyOp18
 70
     1
102
RTVSPropertyOp19
 70
     1
102
RTVSPropertyOp20
 70
     1
102
RTVSPropertyOp21
 70
     1
102
RTVSPropertyOp22
 70
     1
102
RTVSPropertyOp23
 70
     1
102
RTVSPropertyOp24
 70
     1
102
RTVSPropertyOp25
 70
     1
102
RTVSPropertyOp26
 70
     1
102
RTVSPropertyOp27
 70
     1
102
RTVSPropertyOp28
 70
     1
102
RTVSPropertyOp29
 70
     1
102
RTVSPropertyOp30
 70
     1
102
RTVSPropertyOp31
 70
     1
102
RTVSPropertyOp32
 70
     1
102
RTVSPropertyOp33
 70
     1
102
RTVSPropertyOp34
 70
     1
102
RTVSPropertyOp35
 70
     1
102
RTVSPropertyOp36
 70
     1
102
RTVSPropertyOp37
 70
     1
102
RTVSPropertyOp38
 70
     1
102
RTVSPropertyOp39
 70
     1
102
RTVSPropertyOp40
 70
     1
102
RTVSPropertyOp41
 70
     1
102
RTVSPropertyOp42
 70
     1
102
RTVSPropertyOp43
 70
     1
102
RTVSPropertyOp44
 70
     1
102
RTVSPropertyOp45
 70
     1
102
RTVSPropertyOp46
 70
     1
102
RTVSPropertyOp47
 70
     1
102
RTVSPropertyOp48
 70
     1
102
RTVSPropertyOp49
 70
     1
102
RTVSPropertyOp50
 70
     1
102
RTVSPropertyOp51
 70
     0
102
RTVSPropertyOp52
 70
     0
102
RTVSPropertyOp53
 70
     1
102
RTVSPropertyOp54
 70
     1
102
RTVSPropertyOp55
 70
     1
102
RTVSPropertyOp56
 70
     1
102
RTVSPropertyOp57
 70
     1
102
RTVSPropertyOp58
 70
     1
102
RTVSPropertyOp59
 70
     1
102
RTVSPropertyOp60
 70
     1
102
RTVSPropertyOp61
 70
     1
102
RTVSPropertyOp62
 70
     1
  0
XRECORD
  5
A3EC
102
{ACAD_REACTORS
330
A3EB
102
}
330
A3EB
100
AcDbXrecord
280
     1
102
RTVSPost2010Prop28
280
     0
102
RTVSPost2010PropOp28
 70
     1
102
RTVSPost2010Prop29
280
     1
102
RTVSPost2010PropOp29
 70
     1
102
RTVSPost2010Prop30
280
     1
102
RTVSPost2010PropOp30
 70
     1
102
RTVSPost2010Prop31
280
     0
102
RTVSPost2010PropOp31
 70
     1
102
RTVSPost2010Prop32
280
     0
102
RTVSPost2010PropOp32
 70
     1
102
RTVSPost2010Prop33
280
     0
102
RTVSPost2010PropOp33
 70
     1
102
RTVSPost2010Prop34
280
     0
102
RTVSPost2010PropOp34
 70
     1
102
RTVSPost2010Prop35
280
     0
102
RTVSPost2010PropOp35
 70
     1
102
RTVSPost2010Prop36
280
     0
102
RTVSPost2010PropOp36
 70
     1
102
RTVSPost2010Prop37
 90
       50
102
RTVSPost2010PropOp37
 70
     0
102
RTVSPost2010Prop38
140
0.0
102
RTVSPost2010PropOp38
 70
     0
102
RTVSPost2010Prop39
140
1.0
102
RTVSPost2010PropOp39
 70
     0
102
RTVSPost2010Prop40
 90
        0
102
RTVSPost2010PropOp40
 70
     0
102
RTVSPost2010Prop41ColorIndex
 90
       18
102
RTVSPost2010Prop41ColorRGB
 90
        0
102
RTVSPost2010PropOp41
 70
     0
102
RTVSPost2010Prop42
 90
       50
102
RTVSPost2010PropOp42
 70
     0
102
RTVSPost2010Prop43
 90
        3
102
RTVSPost2010PropOp43
 70
     0
102
RTVSPost2010Prop44ColorIndex
 90
        5
102
RTVSPost2010Prop44ColorRGB
 90
      255
102
RTVSPost2010PropOp44
 70
     0
102
RTVSPost2010Prop45
280
     0
102
RTVSPost2010PropOp45
 70
     1
102
RTVSPost2010Prop46
 90
       50
102
RTVSPost2010PropOp46
 70
     0
102
RTVSPost2010Prop47
 90
       50
102
RTVSPost2010PropOp47
 70
     0
102
RTVSPost2010Prop48
 90
       50
102
RTVSPost2010PropOp48
 70
     0
102
RTVSPost2010Prop49
280
     0
102
RTVSPost2010PropOp49
 70
     1
102
RTVSPost2010Prop50
 90
       50
102
RTVSPost2010PropOp50
 70
     0
102
RTVSPost2010Prop51ColorIndex
 90
      256
102
RTVSPost2010Prop51ColorRGB
 90
-16777216
102
RTVSPost2010PropOp51
 70
     0
102
RTVSPost2010Prop52
140
1.0
102
RTVSPost2010PropOp52
 70
     0
102
RTVSPost2010Prop53
 90
        2
102
RTVSPost2010PropOp53
 70
     0
102
RTVSPost2010Prop54
  1
strokes_ogs.tif
102
RTVSPost2010PropOp54
 70
     0
102
RTVSPost2010Prop55
280
     0
102
RTVSPost2010PropOp55
 70
     1
102
RTVSPost2010Prop56
140
1.0
102
RTVSPost2010PropOp56
 70
     0
102
RTVSPost2010Prop57
140
1.0
102
RTVSPost2010PropOp57
 70
     0
102
RTVSPropertyOp0
 70
     0
102
RTVSPropertyOp1
 70
     0
102
RTVSPropertyOp2
 70
     0
102
RTVSPropertyOp3
 70
     0
102
RTVSPropertyOp4
 70
     0
102
RTVSPropertyOp5
 70
     0
102
RTVSPropertyOp6
 70
     0
102
RTVSPropertyOp7
 70
     0
102
RTVSPropertyOp8
 70
     0
102
RTVSPropertyOp9
 70
     0
102
RTVSPropertyOp10
 70
     0
102
RTVSPropertyOp11
 70
     0
102
RTVSPropertyOp12
 70
     0
102
RTVSPropertyOp13
 70
     0
102
RTVSPropertyOp14
 70
     2
102
RTVSPropertyOp15
 70
     0
102
RTVSPropertyOp16
 70
     0
102
RTVSPropertyOp17
 70
     0
102
RTVSPropertyOp18
 70
     0
102
RTVSPropertyOp19
 70
     0
102
RTVSPropertyOp20
 70
     0
102
RTVSPropertyOp21
 70
     0
102
RTVSPropertyOp22
 70
     0
102
RTVSPropertyOp23
 70
     0
102
RTVSPropertyOp24
 70
     0
102
RTVSPropertyOp25
 70
     0
102
RTVSPropertyOp26
 70
     0
102
RTVSPropertyOp27
 70
     0
102
RTVSPropertyOp28
 70
     1
102
RTVSPropertyOp29
 70
     1
102
RTVSPropertyOp30
 70
     1
102
RTVSPropertyOp31
 70
     1
102
RTVSPropertyOp32
 70
     1
102
RTVSPropertyOp33
 70
     1
102
RTVSPropertyOp34
 70
     1
102
RTVSPropertyOp35
 70
     1
102
RTVSPropertyOp36
 70
     1
102
RTVSPropertyOp37
 70
     0
102
RTVSPropertyOp38
 70
     0
102
RTVSPropertyOp39
 70
     0
102
RTVSPropertyOp40
 70
     0
102
RTVSPropertyOp41
 70
     0
102
RTVSPropertyOp42
 70
     0
102
RTVSPropertyOp43
 70
     0
102
RTVSPropertyOp44
 70
     0
102
RTVSPropertyOp45
 70
     1
102
RTVSPropertyOp46
 70
     0
102
RTVSPropertyOp47
 70
     0
102
RTVSPropertyOp48
 70
     0
102
RTVSPropertyOp49
 70
     1
102
RTVSPropertyOp50
 70
     0
102
RTVSPropertyOp51
 70
     0
102
RTVSPropertyOp52
 70
     0
102
RTVSPropertyOp53
 70
     0
102
RTVSPropertyOp54
 70
     0
102
RTVSPropertyOp55
 70
     1
102
RTVSPropertyOp56
 70
     0
102
RTVSPropertyOp57
 70
     0
102
RTVSPropertyOp58
 70
     0
102
RTVSPropertyOp59
 70
     0
102
RTVSPropertyOp60
 70
     0
102
RTVSPropertyOp61
 70
     0
102
RTVSPropertyOp62
 70
     0
  0
XRECORD
  5
A3DA
102
{ACAD_REACTORS
330
A3D9
102
}
330
A3D9
100
AcDbXrecord
280
     1
102
RTVSPost2010Prop28
280
     0
102
RTVSPost2010PropOp28
 70
     1
102
RTVSPost2010Prop29
280
     1
102
RTVSPost2010PropOp29
 70
     1
102
RTVSPost2010Prop30
280
     1
102
RTVSPost2010PropOp30
 70
     1
102
RTVSPost2010Prop31
280
     0
102
RTVSPost2010PropOp31
 70
     1
102
RTVSPost2010Prop32
280
     0
102
RTVSPost2010PropOp32
 70
     1
102
RTVSPost2010Prop33
280
     0
102
RTVSPost2010PropOp33
 70
     1
102
RTVSPost2010Prop34
280
     0
102
RTVSPost2010PropOp34
 70
     1
102
RTVSPost2010Prop35
280
     0
102
RTVSPost2010PropOp35
 70
     1
102
RTVSPost2010Prop36
280
     0
102
RTVSPost2010PropOp36
 70
     1
102
RTVSPost2010Prop37
 90
       50
102
RTVSPost2010PropOp37
 70
     1
102
RTVSPost2010Prop38
140
0.0
102
RTVSPost2010PropOp38
 70
     1
102
RTVSPost2010Prop39
140
1.0
102
RTVSPost2010PropOp39
 70
     1
102
RTVSPost2010Prop40
 90
        0
102
RTVSPost2010PropOp40
 70
     1
102
RTVSPost2010Prop41ColorIndex
 90
       18
102
RTVSPost2010Prop41ColorRGB
 90
        0
102
RTVSPost2010PropOp41
 70
     1
102
RTVSPost2010Prop42
 90
       50
102
RTVSPost2010PropOp42
 70
     1
102
RTVSPost2010Prop43
 90
        3
102
RTVSPost2010PropOp43
 70
     1
102
RTVSPost2010Prop44ColorIndex
 90
        5
102
RTVSPost2010Prop44ColorRGB
 90
      255
102
RTVSPost2010PropOp44
 70
     1
102
RTVSPost2010Prop45
280
     0
102
RTVSPost2010PropOp45
 70
     1
102
RTVSPost2010Prop46
 90
       50
102
RTVSPost2010PropOp46
 70
     1
102
RTVSPost2010Prop47
 90
       50
102
RTVSPost2010PropOp47
 70
     1
102
RTVSPost2010Prop48
 90
       50
102
RTVSPost2010PropOp48
 70
     1
102
RTVSPost2010Prop49
280
     0
102
RTVSPost2010PropOp49
 70
     1
102
RTVSPost2010Prop50
 90
       50
102
RTVSPost2010PropOp50
 70
     1
102
RTVSPost2010Prop51ColorIndex
 90
      256
102
RTVSPost2010Prop51ColorRGB
 90
-16777216
102
RTVSPost2010PropOp51
 70
     0
102
RTVSPost2010Prop52
140
1.0
102
RTVSPost2010PropOp52
 70
     0
102
RTVSPost2010Prop53
 90
        2
102
RTVSPost2010PropOp53
 70
     1
102
RTVSPost2010Prop54
  1
strokes_ogs.tif
102
RTVSPost2010PropOp54
 70
     1
102
RTVSPost2010Prop55
280
     0
102
RTVSPost2010PropOp55
 70
     1
102
RTVSPost2010Prop56
140
1.0
102
RTVSPost2010PropOp56
 70
     1
102
RTVSPost2010Prop57
140
1.0
102
RTVSPost2010PropOp57
 70
     1
102
RTVSPropertyOp0
 70
     1
102
RTVSPropertyOp1
 70
     1
102
RTVSPropertyOp2
 70
     1
102
RTVSPropertyOp3
 70
     1
102
RTVSPropertyOp4
 70
     1
102
RTVSPropertyOp5
 70
     1
102
RTVSPropertyOp6
 70
     1
102
RTVSPropertyOp7
 70
     1
102
RTVSPropertyOp8
 70
     1
102
RTVSPropertyOp9
 70
     1
102
RTVSPropertyOp10
 70
     1
102
RTVSPropertyOp11
 70
     1
102
RTVSPropertyOp12
 70
     1
102
RTVSPropertyOp13
 70
     1
102
RTVSPropertyOp14
 70
     1
102
RTVSPropertyOp15
 70
     1
102
RTVSPropertyOp16
 70
     1
102
RTVSPropertyOp17
 70
     1
102
RTVSPropertyOp18
 70
     1
102
RTVSPropertyOp19
 70
     1
102
RTVSPropertyOp20
 70
     1
102
RTVSPropertyOp21
 70
     1
102
RTVSPropertyOp22
 70
     1
102
RTVSPropertyOp23
 70
     1
102
RTVSPropertyOp24
 70
     1
102
RTVSPropertyOp25
 70
     1
102
RTVSPropertyOp26
 70
     1
102
RTVSPropertyOp27
 70
     1
102
RTVSPropertyOp28
 70
     1
102
RTVSPropertyOp29
 70
     1
102
RTVSPropertyOp30
 70
     1
102
RTVSPropertyOp31
 70
     1
102
RTVSPropertyOp32
 70
     1
102
RTVSPropertyOp33
 70
     1
102
RTVSPropertyOp34
 70
     1
102
RTVSPropertyOp35
 70
     1
102
RTVSPropertyOp36
 70
     1
102
RTVSPropertyOp37
 70
     1
102
RTVSPropertyOp38
 70
     1
102
RTVSPropertyOp39
 70
     1
102
RTVSPropertyOp40
 70
     1
102
RTVSPropertyOp41
 70
     1
102
RTVSPropertyOp42
 70
     1
102
RTVSPropertyOp43
 70
     1
102
RTVSPropertyOp44
 70
     1
102
RTVSPropertyOp45
 70
     1
102
RTVSPropertyOp46
 70
     1
102
RTVSPropertyOp47
 70
     1
102
RTVSPropertyOp48
 70
     1
102
RTVSPropertyOp49
 70
     1
102
RTVSPropertyOp50
 70
     1
102
RTVSPropertyOp51
 70
     0
102
RTVSPropertyOp52
 70
     0
102
RTVSPropertyOp53
 70
     1
102
RTVSPropertyOp54
 70
     1
102
RTVSPropertyOp55
 70
     1
102
RTVSPropertyOp56
 70
     1
102
RTVSPropertyOp57
 70
     1
102
RTVSPropertyOp58
 70
     1
102
RTVSPropertyOp59
 70
     1
102
RTVSPropertyOp60
 70
     1
102
RTVSPropertyOp61
 70
     1
102
RTVSPropertyOp62
 70
     1
  0
XRECORD
  5
A3BE
102
{ACAD_REACTORS
330
A3BD
102
}
330
A3BD
100
AcDbXrecord
280
     1
102
RTVSPost2010Prop28
280
     0
102
RTVSPost2010PropOp28
 70
     1
102
RTVSPost2010Prop29
280
     1
102
RTVSPost2010PropOp29
 70
     1
102
RTVSPost2010Prop30
280
     1
102
RTVSPost2010PropOp30
 70
     1
102
RTVSPost2010Prop31
280
     0
102
RTVSPost2010PropOp31
 70
     1
102
RTVSPost2010Prop32
280
     0
102
RTVSPost2010PropOp32
 70
     1
102
RTVSPost2010Prop33
280
     0
102
RTVSPost2010PropOp33
 70
     1
102
RTVSPost2010Prop34
280
     0
102
RTVSPost2010PropOp34
 70
     1
102
RTVSPost2010Prop35
280
     0
102
RTVSPost2010PropOp35
 70
     1
102
RTVSPost2010Prop36
280
     0
102
RTVSPost2010PropOp36
 70
     1
102
RTVSPost2010Prop37
 90
       50
102
RTVSPost2010PropOp37
 70
     1
102
RTVSPost2010Prop38
140
0.0
102
RTVSPost2010PropOp38
 70
     1
102
RTVSPost2010Prop39
140
1.0
102
RTVSPost2010PropOp39
 70
     1
102
RTVSPost2010Prop40
 90
        0
102
RTVSPost2010PropOp40
 70
     1
102
RTVSPost2010Prop41ColorIndex
 90
       18
102
RTVSPost2010Prop41ColorRGB
 90
        0
102
RTVSPost2010PropOp41
 70
     1
102
RTVSPost2010Prop42
 90
       50
102
RTVSPost2010PropOp42
 70
     1
102
RTVSPost2010Prop43
 90
        3
102
RTVSPost2010PropOp43
 70
     1
102
RTVSPost2010Prop44ColorIndex
 90
        5
102
RTVSPost2010Prop44ColorRGB
 90
      255
102
RTVSPost2010PropOp44
 70
     1
102
RTVSPost2010Prop45
280
     0
102
RTVSPost2010PropOp45
 70
     1
102
RTVSPost2010Prop46
 90
       50
102
RTVSPost2010PropOp46
 70
     1
102
RTVSPost2010Prop47
 90
       50
102
RTVSPost2010PropOp47
 70
     1
102
RTVSPost2010Prop48
 90
       50
102
RTVSPost2010PropOp48
 70
     1
102
RTVSPost2010Prop49
280
     0
102
RTVSPost2010PropOp49
 70
     1
102
RTVSPost2010Prop50
 90
       50
102
RTVSPost2010PropOp50
 70
     1
102
RTVSPost2010Prop51ColorIndex
 90
      256
102
RTVSPost2010Prop51ColorRGB
 90
-16777216
102
RTVSPost2010PropOp51
 70
     0
102
RTVSPost2010Prop52
140
1.0
102
RTVSPost2010PropOp52
 70
     0
102
RTVSPost2010Prop53
 90
        2
102
RTVSPost2010PropOp53
 70
     1
102
RTVSPost2010Prop54
  1
strokes_ogs.tif
102
RTVSPost2010PropOp54
 70
     1
102
RTVSPost2010Prop55
280
     0
102
RTVSPost2010PropOp55
 70
     1
102
RTVSPost2010Prop56
140
1.0
102
RTVSPost2010PropOp56
 70
     1
102
RTVSPost2010Prop57
140
1.0
102
RTVSPost2010PropOp57
 70
     1
102
RTVSPropertyOp0
 70
     1
102
RTVSPropertyOp1
 70
     1
102
RTVSPropertyOp2
 70
     1
102
RTVSPropertyOp3
 70
     1
102
RTVSPropertyOp4
 70
     1
102
RTVSPropertyOp5
 70
     1
102
RTVSPropertyOp6
 70
     1
102
RTVSPropertyOp7
 70
     1
102
RTVSPropertyOp8
 70
     1
102
RTVSPropertyOp9
 70
     1
102
RTVSPropertyOp10
 70
     1
102
RTVSPropertyOp11
 70
     1
102
RTVSPropertyOp12
 70
     1
102
RTVSPropertyOp13
 70
     1
102
RTVSPropertyOp14
 70
     1
102
RTVSPropertyOp15
 70
     1
102
RTVSPropertyOp16
 70
     1
102
RTVSPropertyOp17
 70
     1
102
RTVSPropertyOp18
 70
     1
102
RTVSPropertyOp19
 70
     1
102
RTVSPropertyOp20
 70
     1
102
RTVSPropertyOp21
 70
     1
102
RTVSPropertyOp22
 70
     1
102
RTVSPropertyOp23
 70
     1
102
RTVSPropertyOp24
 70
     1
102
RTVSPropertyOp25
 70
     1
102
RTVSPropertyOp26
 70
     1
102
RTVSPropertyOp27
 70
     1
102
RTVSPropertyOp28
 70
     1
102
RTVSPropertyOp29
 70
     1
102
RTVSPropertyOp30
 70
     1
102
RTVSPropertyOp31
 70
     1
102
RTVSPropertyOp32
 70
     1
102
RTVSPropertyOp33
 70
     1
102
RTVSPropertyOp34
 70
     1
102
RTVSPropertyOp35
 70
     1
102
RTVSPropertyOp36
 70
     1
102
RTVSPropertyOp37
 70
     1
102
RTVSPropertyOp38
 70
     1
102
RTVSPropertyOp39
 70
     1
102
RTVSPropertyOp40
 70
     1
102
RTVSPropertyOp41
 70
     1
102
RTVSPropertyOp42
 70
     1
102
RTVSPropertyOp43
 70
     1
102
RTVSPropertyOp44
 70
     1
102
RTVSPropertyOp45
 70
     1
102
RTVSPropertyOp46
 70
     1
102
RTVSPropertyOp47
 70
     1
102
RTVSPropertyOp48
 70
     1
102
RTVSPropertyOp49
 70
     1
102
RTVSPropertyOp50
 70
     1
102
RTVSPropertyOp51
 70
     0
102
RTVSPropertyOp52
 70
     0
102
RTVSPropertyOp53
 70
     1
102
RTVSPropertyOp54
 70
     1
102
RTVSPropertyOp55
 70
     1
102
RTVSPropertyOp56
 70
     1
102
RTVSPropertyOp57
 70
     1
102
RTVSPropertyOp58
 70
     1
102
RTVSPropertyOp59
 70
     1
102
RTVSPropertyOp60
 70
     1
102
RTVSPropertyOp61
 70
     1
102
RTVSPropertyOp62
 70
     1
  0
XRECORD
  5
A3C0
102
{ACAD_REACTORS
330
A3BF
102
}
330
A3BF
100
AcDbXrecord
280
     1
102
RTVSPost2010Prop28
280
     0
102
RTVSPost2010PropOp28
 70
     1
102
RTVSPost2010Prop29
280
     1
102
RTVSPost2010PropOp29
 70
     1
102
RTVSPost2010Prop30
280
     1
102
RTVSPost2010PropOp30
 70
     1
102
RTVSPost2010Prop31
280
     0
102
RTVSPost2010PropOp31
 70
     1
102
RTVSPost2010Prop32
280
     0
102
RTVSPost2010PropOp32
 70
     1
102
RTVSPost2010Prop33
280
     0
102
RTVSPost2010PropOp33
 70
     1
102
RTVSPost2010Prop34
280
     0
102
RTVSPost2010PropOp34
 70
     1
102
RTVSPost2010Prop35
280
     0
102
RTVSPost2010PropOp35
 70
     1
102
RTVSPost2010Prop36
280
     0
102
RTVSPost2010PropOp36
 70
     1
102
RTVSPost2010Prop37
 90
       50
102
RTVSPost2010PropOp37
 70
     1
102
RTVSPost2010Prop38
140
0.0
102
RTVSPost2010PropOp38
 70
     1
102
RTVSPost2010Prop39
140
1.0
102
RTVSPost2010PropOp39
 70
     1
102
RTVSPost2010Prop40
 90
        0
102
RTVSPost2010PropOp40
 70
     1
102
RTVSPost2010Prop41ColorIndex
 90
       18
102
RTVSPost2010Prop41ColorRGB
 90
        0
102
RTVSPost2010PropOp41
 70
     1
102
RTVSPost2010Prop42
 90
       50
102
RTVSPost2010PropOp42
 70
     1
102
RTVSPost2010Prop43
 90
        3
102
RTVSPost2010PropOp43
 70
     1
102
RTVSPost2010Prop44ColorIndex
 90
        5
102
RTVSPost2010Prop44ColorRGB
 90
      255
102
RTVSPost2010PropOp44
 70
     1
102
RTVSPost2010Prop45
280
     0
102
RTVSPost2010PropOp45
 70
     1
102
RTVSPost2010Prop46
 90
       50
102
RTVSPost2010PropOp46
 70
     1
102
RTVSPost2010Prop47
 90
       50
102
RTVSPost2010PropOp47
 70
     1
102
RTVSPost2010Prop48
 90
       50
102
RTVSPost2010PropOp48
 70
     1
102
RTVSPost2010Prop49
280
     0
102
RTVSPost2010PropOp49
 70
     1
102
RTVSPost2010Prop50
 90
       50
102
RTVSPost2010PropOp50
 70
     1
102
RTVSPost2010Prop51ColorIndex
 90
      256
102
RTVSPost2010Prop51ColorRGB
 90
-16777216
102
RTVSPost2010PropOp51
 70
     0
102
RTVSPost2010Prop52
140
1.0
102
RTVSPost2010PropOp52
 70
     0
102
RTVSPost2010Prop53
 90
        2
102
RTVSPost2010PropOp53
 70
     1
102
RTVSPost2010Prop54
  1
strokes_ogs.tif
102
RTVSPost2010PropOp54
 70
     1
102
RTVSPost2010Prop55
280
     0
102
RTVSPost2010PropOp55
 70
     1
102
RTVSPost2010Prop56
140
1.0
102
RTVSPost2010PropOp56
 70
     1
102
RTVSPost2010Prop57
140
1.0
102
RTVSPost2010PropOp57
 70
     1
102
RTVSPropertyOp0
 70
     1
102
RTVSPropertyOp1
 70
     1
102
RTVSPropertyOp2
 70
     1
102
RTVSPropertyOp3
 70
     1
102
RTVSPropertyOp4
 70
     1
102
RTVSPropertyOp5
 70
     1
102
RTVSPropertyOp6
 70
     1
102
RTVSPropertyOp7
 70
     1
102
RTVSPropertyOp8
 70
     1
102
RTVSPropertyOp9
 70
     1
102
RTVSPropertyOp10
 70
     1
102
RTVSPropertyOp11
 70
     1
102
RTVSPropertyOp12
 70
     1
102
RTVSPropertyOp13
 70
     1
102
RTVSPropertyOp14
 70
     1
102
RTVSPropertyOp15
 70
     1
102
RTVSPropertyOp16
 70
     1
102
RTVSPropertyOp17
 70
     1
102
RTVSPropertyOp18
 70
     1
102
RTVSPropertyOp19
 70
     1
102
RTVSPropertyOp20
 70
     1
102
RTVSPropertyOp21
 70
     1
102
RTVSPropertyOp22
 70
     1
102
RTVSPropertyOp23
 70
     1
102
RTVSPropertyOp24
 70
     1
102
RTVSPropertyOp25
 70
     1
102
RTVSPropertyOp26
 70
     1
102
RTVSPropertyOp27
 70
     1
102
RTVSPropertyOp28
 70
     1
102
RTVSPropertyOp29
 70
     1
102
RTVSPropertyOp30
 70
     1
102
RTVSPropertyOp31
 70
     1
102
RTVSPropertyOp32
 70
     1
102
RTVSPropertyOp33
 70
     1
102
RTVSPropertyOp34
 70
     1
102
RTVSPropertyOp35
 70
     1
102
RTVSPropertyOp36
 70
     1
102
RTVSPropertyOp37
 70
     1
102
RTVSPropertyOp38
 70
     1
102
RTVSPropertyOp39
 70
     1
102
RTVSPropertyOp40
 70
     1
102
RTVSPropertyOp41
 70
     1
102
RTVSPropertyOp42
 70
     1
102
RTVSPropertyOp43
 70
     1
102
RTVSPropertyOp44
 70
     1
102
RTVSPropertyOp45
 70
     1
102
RTVSPropertyOp46
 70
     1
102
RTVSPropertyOp47
 70
     1
102
RTVSPropertyOp48
 70
     1
102
RTVSPropertyOp49
 70
     1
102
RTVSPropertyOp50
 70
     1
102
RTVSPropertyOp51
 70
     0
102
RTVSPropertyOp52
 70
     0
102
RTVSPropertyOp53
 70
     1
102
RTVSPropertyOp54
 70
     1
102
RTVSPropertyOp55
 70
     1
102
RTVSPropertyOp56
 70
     1
102
RTVSPropertyOp57
 70
     1
102
RTVSPropertyOp58
 70
     1
102
RTVSPropertyOp59
 70
     1
102
RTVSPropertyOp60
 70
     1
102
RTVSPropertyOp61
 70
     1
102
RTVSPropertyOp62
 70
     1
  0
XRECORD
  5
A3C2
102
{ACAD_REACTORS
330
A3C1
102
}
330
A3C1
100
AcDbXrecord
280
     1
102
RTVSPost2010Prop28
280
     0
102
RTVSPost2010PropOp28
 70
     1
102
RTVSPost2010Prop29
280
     1
102
RTVSPost2010PropOp29
 70
     1
102
RTVSPost2010Prop30
280
     1
102
RTVSPost2010PropOp30
 70
     1
102
RTVSPost2010Prop31
280
     0
102
RTVSPost2010PropOp31
 70
     1
102
RTVSPost2010Prop32
280
     0
102
RTVSPost2010PropOp32
 70
     1
102
RTVSPost2010Prop33
280
     0
102
RTVSPost2010PropOp33
 70
     1
102
RTVSPost2010Prop34
280
     0
102
RTVSPost2010PropOp34
 70
     1
102
RTVSPost2010Prop35
280
     0
102
RTVSPost2010PropOp35
 70
     1
102
RTVSPost2010Prop36
280
     0
102
RTVSPost2010PropOp36
 70
     1
102
RTVSPost2010Prop37
 90
       50
102
RTVSPost2010PropOp37
 70
     1
102
RTVSPost2010Prop38
140
0.0
102
RTVSPost2010PropOp38
 70
     1
102
RTVSPost2010Prop39
140
1.0
102
RTVSPost2010PropOp39
 70
     1
102
RTVSPost2010Prop40
 90
        0
102
RTVSPost2010PropOp40
 70
     1
102
RTVSPost2010Prop41ColorIndex
 90
       18
102
RTVSPost2010Prop41ColorRGB
 90
        0
102
RTVSPost2010PropOp41
 70
     1
102
RTVSPost2010Prop42
 90
       50
102
RTVSPost2010PropOp42
 70
     1
102
RTVSPost2010Prop43
 90
        3
102
RTVSPost2010PropOp43
 70
     1
102
RTVSPost2010Prop44ColorIndex
 90
        5
102
RTVSPost2010Prop44ColorRGB
 90
      255
102
RTVSPost2010PropOp44
 70
     1
102
RTVSPost2010Prop45
280
     0
102
RTVSPost2010PropOp45
 70
     1
102
RTVSPost2010Prop46
 90
       50
102
RTVSPost2010PropOp46
 70
     1
102
RTVSPost2010Prop47
 90
       50
102
RTVSPost2010PropOp47
 70
     1
102
RTVSPost2010Prop48
 90
       50
102
RTVSPost2010PropOp48
 70
     1
102
RTVSPost2010Prop49
280
     0
102
RTVSPost2010PropOp49
 70
     1
102
RTVSPost2010Prop50
 90
       50
102
RTVSPost2010PropOp50
 70
     1
102
RTVSPost2010Prop51ColorIndex
 90
      256
102
RTVSPost2010Prop51ColorRGB
 90
-16777216
102
RTVSPost2010PropOp51
 70
     0
102
RTVSPost2010Prop52
140
1.0
102
RTVSPost2010PropOp52
 70
     0
102
RTVSPost2010Prop53
 90
        2
102
RTVSPost2010PropOp53
 70
     1
102
RTVSPost2010Prop54
  1
strokes_ogs.tif
102
RTVSPost2010PropOp54
 70
     1
102
RTVSPost2010Prop55
280
     0
102
RTVSPost2010PropOp55
 70
     1
102
RTVSPost2010Prop56
140
1.0
102
RTVSPost2010PropOp56
 70
     1
102
RTVSPost2010Prop57
140
1.0
102
RTVSPost2010PropOp57
 70
     1
102
RTVSPropertyOp0
 70
     1
102
RTVSPropertyOp1
 70
     1
102
RTVSPropertyOp2
 70
     1
102
RTVSPropertyOp3
 70
     1
102
RTVSPropertyOp4
 70
     1
102
RTVSPropertyOp5
 70
     1
102
RTVSPropertyOp6
 70
     1
102
RTVSPropertyOp7
 70
     1
102
RTVSPropertyOp8
 70
     1
102
RTVSPropertyOp9
 70
     1
102
RTVSPropertyOp10
 70
     1
102
RTVSPropertyOp11
 70
     1
102
RTVSPropertyOp12
 70
     1
102
RTVSPropertyOp13
 70
     1
102
RTVSPropertyOp14
 70
     1
102
RTVSPropertyOp15
 70
     1
102
RTVSPropertyOp16
 70
     1
102
RTVSPropertyOp17
 70
     1
102
RTVSPropertyOp18
 70
     1
102
RTVSPropertyOp19
 70
     1
102
RTVSPropertyOp20
 70
     1
102
RTVSPropertyOp21
 70
     1
102
RTVSPropertyOp22
 70
     1
102
RTVSPropertyOp23
 70
     1
102
RTVSPropertyOp24
 70
     1
102
RTVSPropertyOp25
 70
     1
102
RTVSPropertyOp26
 70
     1
102
RTVSPropertyOp27
 70
     1
102
RTVSPropertyOp28
 70
     1
102
RTVSPropertyOp29
 70
     1
102
RTVSPropertyOp30
 70
     1
102
RTVSPropertyOp31
 70
     1
102
RTVSPropertyOp32
 70
     1
102
RTVSPropertyOp33
 70
     1
102
RTVSPropertyOp34
 70
     1
102
RTVSPropertyOp35
 70
     1
102
RTVSPropertyOp36
 70
     1
102
RTVSPropertyOp37
 70
     1
102
RTVSPropertyOp38
 70
     1
102
RTVSPropertyOp39
 70
     1
102
RTVSPropertyOp40
 70
     1
102
RTVSPropertyOp41
 70
     1
102
RTVSPropertyOp42
 70
     1
102
RTVSPropertyOp43
 70
     1
102
RTVSPropertyOp44
 70
     1
102
RTVSPropertyOp45
 70
     1
102
RTVSPropertyOp46
 70
     1
102
RTVSPropertyOp47
 70
     1
102
RTVSPropertyOp48
 70
     1
102
RTVSPropertyOp49
 70
     1
102
RTVSPropertyOp50
 70
     1
102
RTVSPropertyOp51
 70
     0
102
RTVSPropertyOp52
 70
     0
102
RTVSPropertyOp53
 70
     1
102
RTVSPropertyOp54
 70
     1
102
RTVSPropertyOp55
 70
     1
102
RTVSPropertyOp56
 70
     1
102
RTVSPropertyOp57
 70
     1
102
RTVSPropertyOp58
 70
     1
102
RTVSPropertyOp59
 70
     1
102
RTVSPropertyOp60
 70
     1
102
RTVSPropertyOp61
 70
     1
102
RTVSPropertyOp62
 70
     1
  0
XRECORD
  5
A3C4
102
{ACAD_REACTORS
330
A3C3
102
}
330
A3C3
100
AcDbXrecord
280
     1
102
RTVSPost2010Prop28
280
     0
102
RTVSPost2010PropOp28
 70
     1
102
RTVSPost2010Prop29
280
     1
102
RTVSPost2010PropOp29
 70
     1
102
RTVSPost2010Prop30
280
     1
102
RTVSPost2010PropOp30
 70
     1
102
RTVSPost2010Prop31
280
     0
102
RTVSPost2010PropOp31
 70
     1
102
RTVSPost2010Prop32
280
     0
102
RTVSPost2010PropOp32
 70
     1
102
RTVSPost2010Prop33
280
     0
102
RTVSPost2010PropOp33
 70
     1
102
RTVSPost2010Prop34
280
     0
102
RTVSPost2010PropOp34
 70
     1
102
RTVSPost2010Prop35
280
     0
102
RTVSPost2010PropOp35
 70
     1
102
RTVSPost2010Prop36
280
     0
102
RTVSPost2010PropOp36
 70
     1
102
RTVSPost2010Prop37
 90
       50
102
RTVSPost2010PropOp37
 70
     1
102
RTVSPost2010Prop38
140
0.0
102
RTVSPost2010PropOp38
 70
     1
102
RTVSPost2010Prop39
140
1.0
102
RTVSPost2010PropOp39
 70
     1
102
RTVSPost2010Prop40
 90
        0
102
RTVSPost2010PropOp40
 70
     1
102
RTVSPost2010Prop41ColorIndex
 90
       18
102
RTVSPost2010Prop41ColorRGB
 90
        0
102
RTVSPost2010PropOp41
 70
     1
102
RTVSPost2010Prop42
 90
       50
102
RTVSPost2010PropOp42
 70
     1
102
RTVSPost2010Prop43
 90
        3
102
RTVSPost2010PropOp43
 70
     1
102
RTVSPost2010Prop44ColorIndex
 90
        5
102
RTVSPost2010Prop44ColorRGB
 90
      255
102
RTVSPost2010PropOp44
 70
     1
102
RTVSPost2010Prop45
280
     0
102
RTVSPost2010PropOp45
 70
     1
102
RTVSPost2010Prop46
 90
       50
102
RTVSPost2010PropOp46
 70
     1
102
RTVSPost2010Prop47
 90
       50
102
RTVSPost2010PropOp47
 70
     1
102
RTVSPost2010Prop48
 90
       50
102
RTVSPost2010PropOp48
 70
     1
102
RTVSPost2010Prop49
280
     0
102
RTVSPost2010PropOp49
 70
     1
102
RTVSPost2010Prop50
 90
       50
102
RTVSPost2010PropOp50
 70
     1
102
RTVSPost2010Prop51ColorIndex
 90
      256
102
RTVSPost2010Prop51ColorRGB
 90
-16777216
102
RTVSPost2010PropOp51
 70
     0
102
RTVSPost2010Prop52
140
1.0
102
RTVSPost2010PropOp52
 70
     0
102
RTVSPost2010Prop53
 90
        2
102
RTVSPost2010PropOp53
 70
     1
102
RTVSPost2010Prop54
  1
strokes_ogs.tif
102
RTVSPost2010PropOp54
 70
     1
102
RTVSPost2010Prop55
280
     0
102
RTVSPost2010PropOp55
 70
     1
102
RTVSPost2010Prop56
140
1.0
102
RTVSPost2010PropOp56
 70
     1
102
RTVSPost2010Prop57
140
1.0
102
RTVSPost2010PropOp57
 70
     1
102
RTVSPropertyOp0
 70
     1
102
RTVSPropertyOp1
 70
     1
102
RTVSPropertyOp2
 70
     1
102
RTVSPropertyOp3
 70
     1
102
RTVSPropertyOp4
 70
     1
102
RTVSPropertyOp5
 70
     1
102
RTVSPropertyOp6
 70
     1
102
RTVSPropertyOp7
 70
     1
102
RTVSPropertyOp8
 70
     1
102
RTVSPropertyOp9
 70
     1
102
RTVSPropertyOp10
 70
     1
102
RTVSPropertyOp11
 70
     1
102
RTVSPropertyOp12
 70
     1
102
RTVSPropertyOp13
 70
     1
102
RTVSPropertyOp14
 70
     1
102
RTVSPropertyOp15
 70
     1
102
RTVSPropertyOp16
 70
     1
102
RTVSPropertyOp17
 70
     1
102
RTVSPropertyOp18
 70
     1
102
RTVSPropertyOp19
 70
     1
102
RTVSPropertyOp20
 70
     1
102
RTVSPropertyOp21
 70
     1
102
RTVSPropertyOp22
 70
     1
102
RTVSPropertyOp23
 70
     1
102
RTVSPropertyOp24
 70
     1
102
RTVSPropertyOp25
 70
     1
102
RTVSPropertyOp26
 70
     1
102
RTVSPropertyOp27
 70
     1
102
RTVSPropertyOp28
 70
     1
102
RTVSPropertyOp29
 70
     1
102
RTVSPropertyOp30
 70
     1
102
RTVSPropertyOp31
 70
     1
102
RTVSPropertyOp32
 70
     1
102
RTVSPropertyOp33
 70
     1
102
RTVSPropertyOp34
 70
     1
102
RTVSPropertyOp35
 70
     1
102
RTVSPropertyOp36
 70
     1
102
RTVSPropertyOp37
 70
     1
102
RTVSPropertyOp38
 70
     1
102
RTVSPropertyOp39
 70
     1
102
RTVSPropertyOp40
 70
     1
102
RTVSPropertyOp41
 70
     1
102
RTVSPropertyOp42
 70
     1
102
RTVSPropertyOp43
 70
     1
102
RTVSPropertyOp44
 70
     1
102
RTVSPropertyOp45
 70
     1
102
RTVSPropertyOp46
 70
     1
102
RTVSPropertyOp47
 70
     1
102
RTVSPropertyOp48
 70
     1
102
RTVSPropertyOp49
 70
     1
102
RTVSPropertyOp50
 70
     1
102
RTVSPropertyOp51
 70
     0
102
RTVSPropertyOp52
 70
     0
102
RTVSPropertyOp53
 70
     1
102
RTVSPropertyOp54
 70
     1
102
RTVSPropertyOp55
 70
     1
102
RTVSPropertyOp56
 70
     1
102
RTVSPropertyOp57
 70
     1
102
RTVSPropertyOp58
 70
     1
102
RTVSPropertyOp59
 70
     1
102
RTVSPropertyOp60
 70
     1
102
RTVSPropertyOp61
 70
     1
102
RTVSPropertyOp62
 70
     1
  0
XRECORD
  5
A3CC
102
{ACAD_REACTORS
330
A3CB
102
}
330
A3CB
100
AcDbXrecord
280
     1
102
RTVSPost2010Prop28
280
     0
102
RTVSPost2010PropOp28
 70
     1
102
RTVSPost2010Prop29
280
     1
102
RTVSPost2010PropOp29
 70
     1
102
RTVSPost2010Prop30
280
     1
102
RTVSPost2010PropOp30
 70
     1
102
RTVSPost2010Prop31
280
     0
102
RTVSPost2010PropOp31
 70
     1
102
RTVSPost2010Prop32
280
     0
102
RTVSPost2010PropOp32
 70
     1
102
RTVSPost2010Prop33
280
     0
102
RTVSPost2010PropOp33
 70
     1
102
RTVSPost2010Prop34
280
     0
102
RTVSPost2010PropOp34
 70
     1
102
RTVSPost2010Prop35
280
     0
102
RTVSPost2010PropOp35
 70
     1
102
RTVSPost2010Prop36
280
     0
102
RTVSPost2010PropOp36
 70
     1
102
RTVSPost2010Prop37
 90
       50
102
RTVSPost2010PropOp37
 70
     1
102
RTVSPost2010Prop38
140
0.0
102
RTVSPost2010PropOp38
 70
     1
102
RTVSPost2010Prop39
140
1.0
102
RTVSPost2010PropOp39
 70
     1
102
RTVSPost2010Prop40
 90
        0
102
RTVSPost2010PropOp40
 70
     1
102
RTVSPost2010Prop41ColorIndex
 90
       18
102
RTVSPost2010Prop41ColorRGB
 90
        0
102
RTVSPost2010PropOp41
 70
     1
102
RTVSPost2010Prop42
 90
       50
102
RTVSPost2010PropOp42
 70
     1
102
RTVSPost2010Prop43
 90
        3
102
RTVSPost2010PropOp43
 70
     1
102
RTVSPost2010Prop44ColorIndex
 90
        5
102
RTVSPost2010Prop44ColorRGB
 90
      255
102
RTVSPost2010PropOp44
 70
     1
102
RTVSPost2010Prop45
280
     0
102
RTVSPost2010PropOp45
 70
     1
102
RTVSPost2010Prop46
 90
       50
102
RTVSPost2010PropOp46
 70
     1
102
RTVSPost2010Prop47
 90
       50
102
RTVSPost2010PropOp47
 70
     1
102
RTVSPost2010Prop48
 90
       50
102
RTVSPost2010PropOp48
 70
     1
102
RTVSPost2010Prop49
280
     0
102
RTVSPost2010PropOp49
 70
     1
102
RTVSPost2010Prop50
 90
       50
102
RTVSPost2010PropOp50
 70
     1
102
RTVSPost2010Prop51ColorIndex
 90
      256
102
RTVSPost2010Prop51ColorRGB
 90
-16777216
102
RTVSPost2010PropOp51
 70
     0
102
RTVSPost2010Prop52
140
1.0
102
RTVSPost2010PropOp52
 70
     0
102
RTVSPost2010Prop53
 90
        2
102
RTVSPost2010PropOp53
 70
     1
102
RTVSPost2010Prop54
  1
strokes_ogs.tif
102
RTVSPost2010PropOp54
 70
     1
102
RTVSPost2010Prop55
280
     0
102
RTVSPost2010PropOp55
 70
     1
102
RTVSPost2010Prop56
140
1.0
102
RTVSPost2010PropOp56
 70
     1
102
RTVSPost2010Prop57
140
1.0
102
RTVSPost2010PropOp57
 70
     1
102
RTVSPropertyOp0
 70
     1
102
RTVSPropertyOp1
 70
     1
102
RTVSPropertyOp2
 70
     1
102
RTVSPropertyOp3
 70
     1
102
RTVSPropertyOp4
 70
     1
102
RTVSPropertyOp5
 70
     1
102
RTVSPropertyOp6
 70
     1
102
RTVSPropertyOp7
 70
     1
102
RTVSPropertyOp8
 70
     1
102
RTVSPropertyOp9
 70
     1
102
RTVSPropertyOp10
 70
     1
102
RTVSPropertyOp11
 70
     1
102
RTVSPropertyOp12
 70
     1
102
RTVSPropertyOp13
 70
     1
102
RTVSPropertyOp14
 70
     1
102
RTVSPropertyOp15
 70
     1
102
RTVSPropertyOp16
 70
     1
102
RTVSPropertyOp17
 70
     1
102
RTVSPropertyOp18
 70
     1
102
RTVSPropertyOp19
 70
     1
102
RTVSPropertyOp20
 70
     1
102
RTVSPropertyOp21
 70
     1
102
RTVSPropertyOp22
 70
     1
102
RTVSPropertyOp23
 70
     1
102
RTVSPropertyOp24
 70
     1
102
RTVSPropertyOp25
 70
     1
102
RTVSPropertyOp26
 70
     1
102
RTVSPropertyOp27
 70
     1
102
RTVSPropertyOp28
 70
     1
102
RTVSPropertyOp29
 70
     1
102
RTVSPropertyOp30
 70
     1
102
RTVSPropertyOp31
 70
     1
102
RTVSPropertyOp32
 70
     1
102
RTVSPropertyOp33
 70
     1
102
RTVSPropertyOp34
 70
     1
102
RTVSPropertyOp35
 70
     1
102
RTVSPropertyOp36
 70
     1
102
RTVSPropertyOp37
 70
     1
102
RTVSPropertyOp38
 70
     1
102
RTVSPropertyOp39
 70
     1
102
RTVSPropertyOp40
 70
     1
102
RTVSPropertyOp41
 70
     1
102
RTVSPropertyOp42
 70
     1
102
RTVSPropertyOp43
 70
     1
102
RTVSPropertyOp44
 70
     1
102
RTVSPropertyOp45
 70
     1
102
RTVSPropertyOp46
 70
     1
102
RTVSPropertyOp47
 70
     1
102
RTVSPropertyOp48
 70
     1
102
RTVSPropertyOp49
 70
     1
102
RTVSPropertyOp50
 70
     1
102
RTVSPropertyOp51
 70
     0
102
RTVSPropertyOp52
 70
     0
102
RTVSPropertyOp53
 70
     1
102
RTVSPropertyOp54
 70
     1
102
RTVSPropertyOp55
 70
     1
102
RTVSPropertyOp56
 70
     1
102
RTVSPropertyOp57
 70
     1
102
RTVSPropertyOp58
 70
     1
102
RTVSPropertyOp59
 70
     1
102
RTVSPropertyOp60
 70
     1
102
RTVSPropertyOp61
 70
     1
102
RTVSPropertyOp62
 70
     1
  0
XRECORD
  5
A3E8
102
{ACAD_REACTORS
330
A3E7
102
}
330
A3E7
100
AcDbXrecord
280
     1
102
RTVSPost2010Prop28
280
     0
102
RTVSPost2010PropOp28
 70
     1
102
RTVSPost2010Prop29
280
     1
102
RTVSPost2010PropOp29
 70
     1
102
RTVSPost2010Prop30
280
     1
102
RTVSPost2010PropOp30
 70
     1
102
RTVSPost2010Prop31
280
     0
102
RTVSPost2010PropOp31
 70
     1
102
RTVSPost2010Prop32
280
     0
102
RTVSPost2010PropOp32
 70
     1
102
RTVSPost2010Prop33
280
     0
102
RTVSPost2010PropOp33
 70
     1
102
RTVSPost2010Prop34
280
     0
102
RTVSPost2010PropOp34
 70
     1
102
RTVSPost2010Prop35
280
     0
102
RTVSPost2010PropOp35
 70
     1
102
RTVSPost2010Prop36
280
     0
102
RTVSPost2010PropOp36
 70
     1
102
RTVSPost2010Prop37
 90
       50
102
RTVSPost2010PropOp37
 70
     0
102
RTVSPost2010Prop38
140
0.0
102
RTVSPost2010PropOp38
 70
     0
102
RTVSPost2010Prop39
140
1.0
102
RTVSPost2010PropOp39
 70
     0
102
RTVSPost2010Prop40
 90
        0
102
RTVSPost2010PropOp40
 70
     0
102
RTVSPost2010Prop41ColorIndex
 90
       18
102
RTVSPost2010Prop41ColorRGB
 90
        0
102
RTVSPost2010PropOp41
 70
     0
102
RTVSPost2010Prop42
 90
       50
102
RTVSPost2010PropOp42
 70
     0
102
RTVSPost2010Prop43
 90
        3
102
RTVSPost2010PropOp43
 70
     0
102
RTVSPost2010Prop44ColorIndex
 90
        5
102
RTVSPost2010Prop44ColorRGB
 90
      255
102
RTVSPost2010PropOp44
 70
     0
102
RTVSPost2010Prop45
280
     0
102
RTVSPost2010PropOp45
 70
     1
102
RTVSPost2010Prop46
 90
       50
102
RTVSPost2010PropOp46
 70
     0
102
RTVSPost2010Prop47
 90
       50
102
RTVSPost2010PropOp47
 70
     0
102
RTVSPost2010Prop48
 90
       50
102
RTVSPost2010PropOp48
 70
     0
102
RTVSPost2010Prop49
280
     0
102
RTVSPost2010PropOp49
 70
     1
102
RTVSPost2010Prop50
 90
       50
102
RTVSPost2010PropOp50
 70
     0
102
RTVSPost2010Prop51ColorIndex
 90
      256
102
RTVSPost2010Prop51ColorRGB
 90
-16777216
102
RTVSPost2010PropOp51
 70
     0
102
RTVSPost2010Prop52
140
1.0
102
RTVSPost2010PropOp52
 70
     0
102
RTVSPost2010Prop53
 90
        2
102
RTVSPost2010PropOp53
 70
     0
102
RTVSPost2010Prop54
  1
strokes_ogs.tif
102
RTVSPost2010PropOp54
 70
     0
102
RTVSPost2010Prop55
280
     0
102
RTVSPost2010PropOp55
 70
     1
102
RTVSPost2010Prop56
140
1.0
102
RTVSPost2010PropOp56
 70
     0
102
RTVSPost2010Prop57
140
1.0
102
RTVSPost2010PropOp57
 70
     0
102
RTVSPropertyOp0
 70
     0
102
RTVSPropertyOp1
 70
     0
102
RTVSPropertyOp2
 70
     0
102
RTVSPropertyOp3
 70
     0
102
RTVSPropertyOp4
 70
     0
102
RTVSPropertyOp5
 70
     0
102
RTVSPropertyOp6
 70
     0
102
RTVSPropertyOp7
 70
     0
102
RTVSPropertyOp8
 70
     0
102
RTVSPropertyOp9
 70
     0
102
RTVSPropertyOp10
 70
     0
102
RTVSPropertyOp11
 70
     0
102
RTVSPropertyOp12
 70
     0
102
RTVSPropertyOp13
 70
     0
102
RTVSPropertyOp14
 70
     2
102
RTVSPropertyOp15
 70
     0
102
RTVSPropertyOp16
 70
     0
102
RTVSPropertyOp17
 70
     0
102
RTVSPropertyOp18
 70
     0
102
RTVSPropertyOp19
 70
     0
102
RTVSPropertyOp20
 70
     0
102
RTVSPropertyOp21
 70
     0
102
RTVSPropertyOp22
 70
     0
102
RTVSPropertyOp23
 70
     0
102
RTVSPropertyOp24
 70
     0
102
RTVSPropertyOp25
 70
     0
102
RTVSPropertyOp26
 70
     0
102
RTVSPropertyOp27
 70
     0
102
RTVSPropertyOp28
 70
     1
102
RTVSPropertyOp29
 70
     1
102
RTVSPropertyOp30
 70
     1
102
RTVSPropertyOp31
 70
     1
102
RTVSPropertyOp32
 70
     1
102
RTVSPropertyOp33
 70
     1
102
RTVSPropertyOp34
 70
     1
102
RTVSPropertyOp35
 70
     1
102
RTVSPropertyOp36
 70
     1
102
RTVSPropertyOp37
 70
     0
102
RTVSPropertyOp38
 70
     0
102
RTVSPropertyOp39
 70
     0
102
RTVSPropertyOp40
 70
     0
102
RTVSPropertyOp41
 70
     0
102
RTVSPropertyOp42
 70
     0
102
RTVSPropertyOp43
 70
     0
102
RTVSPropertyOp44
 70
     0
102
RTVSPropertyOp45
 70
     1
102
RTVSPropertyOp46
 70
     0
102
RTVSPropertyOp47
 70
     0
102
RTVSPropertyOp48
 70
     0
102
RTVSPropertyOp49
 70
     1
102
RTVSPropertyOp50
 70
     0
102
RTVSPropertyOp51
 70
     0
102
RTVSPropertyOp52
 70
     0
102
RTVSPropertyOp53
 70
     0
102
RTVSPropertyOp54
 70
     0
102
RTVSPropertyOp55
 70
     1
102
RTVSPropertyOp56
 70
     0
102
RTVSPropertyOp57
 70
     0
102
RTVSPropertyOp58
 70
     0
102
RTVSPropertyOp59
 70
     0
102
RTVSPropertyOp60
 70
     0
102
RTVSPropertyOp61
 70
     0
102
RTVSPropertyOp62
 70
     0
  0
XRECORD
  5
A3D8
102
{ACAD_REACTORS
330
A3D7
102
}
330
A3D7
100
AcDbXrecord
280
     1
102
RTVSPost2010Prop28
280
     0
102
RTVSPost2010PropOp28
 70
     1
102
RTVSPost2010Prop29
280
     1
102
RTVSPost2010PropOp29
 70
     1
102
RTVSPost2010Prop30
280
     1
102
RTVSPost2010PropOp30
 70
     1
102
RTVSPost2010Prop31
280
     0
102
RTVSPost2010PropOp31
 70
     1
102
RTVSPost2010Prop32
280
     0
102
RTVSPost2010PropOp32
 70
     1
102
RTVSPost2010Prop33
280
     0
102
RTVSPost2010PropOp33
 70
     1
102
RTVSPost2010Prop34
280
     0
102
RTVSPost2010PropOp34
 70
     1
102
RTVSPost2010Prop35
280
     0
102
RTVSPost2010PropOp35
 70
     1
102
RTVSPost2010Prop36
280
     0
102
RTVSPost2010PropOp36
 70
     1
102
RTVSPost2010Prop37
 90
       50
102
RTVSPost2010PropOp37
 70
     1
102
RTVSPost2010Prop38
140
0.0
102
RTVSPost2010PropOp38
 70
     1
102
RTVSPost2010Prop39
140
1.0
102
RTVSPost2010PropOp39
 70
     1
102
RTVSPost2010Prop40
 90
        0
102
RTVSPost2010PropOp40
 70
     1
102
RTVSPost2010Prop41ColorIndex
 90
       18
102
RTVSPost2010Prop41ColorRGB
 90
        0
102
RTVSPost2010PropOp41
 70
     1
102
RTVSPost2010Prop42
 90
       50
102
RTVSPost2010PropOp42
 70
     1
102
RTVSPost2010Prop43
 90
        3
102
RTVSPost2010PropOp43
 70
     1
102
RTVSPost2010Prop44ColorIndex
 90
        5
102
RTVSPost2010Prop44ColorRGB
 90
      255
102
RTVSPost2010PropOp44
 70
     1
102
RTVSPost2010Prop45
280
     0
102
RTVSPost2010PropOp45
 70
     1
102
RTVSPost2010Prop46
 90
       50
102
RTVSPost2010PropOp46
 70
     1
102
RTVSPost2010Prop47
 90
       50
102
RTVSPost2010PropOp47
 70
     1
102
RTVSPost2010Prop48
 90
       50
102
RTVSPost2010PropOp48
 70
     1
102
RTVSPost2010Prop49
280
     0
102
RTVSPost2010PropOp49
 70
     1
102
RTVSPost2010Prop50
 90
       50
102
RTVSPost2010PropOp50
 70
     1
102
RTVSPost2010Prop51ColorIndex
 90
      256
102
RTVSPost2010Prop51ColorRGB
 90
-16777216
102
RTVSPost2010PropOp51
 70
     0
102
RTVSPost2010Prop52
140
1.0
102
RTVSPost2010PropOp52
 70
     0
102
RTVSPost2010Prop53
 90
        2
102
RTVSPost2010PropOp53
 70
     1
102
RTVSPost2010Prop54
  1
strokes_ogs.tif
102
RTVSPost2010PropOp54
 70
     1
102
RTVSPost2010Prop55
280
     0
102
RTVSPost2010PropOp55
 70
     1
102
RTVSPost2010Prop56
140
1.0
102
RTVSPost2010PropOp56
 70
     1
102
RTVSPost2010Prop57
140
1.0
102
RTVSPost2010PropOp57
 70
     1
102
RTVSPropertyOp0
 70
     1
102
RTVSPropertyOp1
 70
     1
102
RTVSPropertyOp2
 70
     1
102
RTVSPropertyOp3
 70
     1
102
RTVSPropertyOp4
 70
     1
102
RTVSPropertyOp5
 70
     1
102
RTVSPropertyOp6
 70
     1
102
RTVSPropertyOp7
 70
     1
102
RTVSPropertyOp8
 70
     1
102
RTVSPropertyOp9
 70
     1
102
RTVSPropertyOp10
 70
     1
102
RTVSPropertyOp11
 70
     1
102
RTVSPropertyOp12
 70
     1
102
RTVSPropertyOp13
 70
     1
102
RTVSPropertyOp14
 70
     1
102
RTVSPropertyOp15
 70
     1
102
RTVSPropertyOp16
 70
     1
102
RTVSPropertyOp17
 70
     1
102
RTVSPropertyOp18
 70
     1
102
RTVSPropertyOp19
 70
     1
102
RTVSPropertyOp20
 70
     1
102
RTVSPropertyOp21
 70
     1
102
RTVSPropertyOp22
 70
     1
102
RTVSPropertyOp23
 70
     1
102
RTVSPropertyOp24
 70
     1
102
RTVSPropertyOp25
 70
     1
102
RTVSPropertyOp26
 70
     1
102
RTVSPropertyOp27
 70
     1
102
RTVSPropertyOp28
 70
     1
102
RTVSPropertyOp29
 70
     1
102
RTVSPropertyOp30
 70
     1
102
RTVSPropertyOp31
 70
     1
102
RTVSPropertyOp32
 70
     1
102
RTVSPropertyOp33
 70
     1
102
RTVSPropertyOp34
 70
     1
102
RTVSPropertyOp35
 70
     1
102
RTVSPropertyOp36
 70
     1
102
RTVSPropertyOp37
 70
     1
102
RTVSPropertyOp38
 70
     1
102
RTVSPropertyOp39
 70
     1
102
RTVSPropertyOp40
 70
     1
102
RTVSPropertyOp41
 70
     1
102
RTVSPropertyOp42
 70
     1
102
RTVSPropertyOp43
 70
     1
102
RTVSPropertyOp44
 70
     1
102
RTVSPropertyOp45
 70
     1
102
RTVSPropertyOp46
 70
     1
102
RTVSPropertyOp47
 70
     1
102
RTVSPropertyOp48
 70
     1
102
RTVSPropertyOp49
 70
     1
102
RTVSPropertyOp50
 70
     1
102
RTVSPropertyOp51
 70
     0
102
RTVSPropertyOp52
 70
     0
102
RTVSPropertyOp53
 70
     1
102
RTVSPropertyOp54
 70
     1
102
RTVSPropertyOp55
 70
     1
102
RTVSPropertyOp56
 70
     1
102
RTVSPropertyOp57
 70
     1
102
RTVSPropertyOp58
 70
     1
102
RTVSPropertyOp59
 70
     1
102
RTVSPropertyOp60
 70
     1
102
RTVSPropertyOp61
 70
     1
102
RTVSPropertyOp62
 70
     1
  0
XRECORD
  5
A3EA
102
{ACAD_REACTORS
330
A3E9
102
}
330
A3E9
100
AcDbXrecord
280
     1
102
RTVSPost2010Prop28
280
     0
102
RTVSPost2010PropOp28
 70
     1
102
RTVSPost2010Prop29
280
     1
102
RTVSPost2010PropOp29
 70
     1
102
RTVSPost2010Prop30
280
     1
102
RTVSPost2010PropOp30
 70
     1
102
RTVSPost2010Prop31
280
     0
102
RTVSPost2010PropOp31
 70
     1
102
RTVSPost2010Prop32
280
     0
102
RTVSPost2010PropOp32
 70
     1
102
RTVSPost2010Prop33
280
     0
102
RTVSPost2010PropOp33
 70
     1
102
RTVSPost2010Prop34
280
     0
102
RTVSPost2010PropOp34
 70
     1
102
RTVSPost2010Prop35
280
     0
102
RTVSPost2010PropOp35
 70
     1
102
RTVSPost2010Prop36
280
     0
102
RTVSPost2010PropOp36
 70
     1
102
RTVSPost2010Prop37
 90
       50
102
RTVSPost2010PropOp37
 70
     0
102
RTVSPost2010Prop38
140
0.0
102
RTVSPost2010PropOp38
 70
     0
102
RTVSPost2010Prop39
140
1.0
102
RTVSPost2010PropOp39
 70
     0
102
RTVSPost2010Prop40
 90
        0
102
RTVSPost2010PropOp40
 70
     0
102
RTVSPost2010Prop41ColorIndex
 90
       18
102
RTVSPost2010Prop41ColorRGB
 90
        0
102
RTVSPost2010PropOp41
 70
     0
102
RTVSPost2010Prop42
 90
       50
102
RTVSPost2010PropOp42
 70
     0
102
RTVSPost2010Prop43
 90
        3
102
RTVSPost2010PropOp43
 70
     0
102
RTVSPost2010Prop44ColorIndex
 90
        5
102
RTVSPost2010Prop44ColorRGB
 90
      255
102
RTVSPost2010PropOp44
 70
     0
102
RTVSPost2010Prop45
280
     0
102
RTVSPost2010PropOp45
 70
     1
102
RTVSPost2010Prop46
 90
       50
102
RTVSPost2010PropOp46
 70
     0
102
RTVSPost2010Prop47
 90
       50
102
RTVSPost2010PropOp47
 70
     0
102
RTVSPost2010Prop48
 90
       50
102
RTVSPost2010PropOp48
 70
     0
102
RTVSPost2010Prop49
280
     0
102
RTVSPost2010PropOp49
 70
     1
102
RTVSPost2010Prop50
 90
       50
102
RTVSPost2010PropOp50
 70
     0
102
RTVSPost2010Prop51ColorIndex
 90
      256
102
RTVSPost2010Prop51ColorRGB
 90
-16777216
102
RTVSPost2010PropOp51
 70
     0
102
RTVSPost2010Prop52
140
1.0
102
RTVSPost2010PropOp52
 70
     0
102
RTVSPost2010Prop53
 90
        2
102
RTVSPost2010PropOp53
 70
     0
102
RTVSPost2010Prop54
  1
strokes_ogs.tif
102
RTVSPost2010PropOp54
 70
     0
102
RTVSPost2010Prop55
280
     0
102
RTVSPost2010PropOp55
 70
     1
102
RTVSPost2010Prop56
140
1.0
102
RTVSPost2010PropOp56
 70
     0
102
RTVSPost2010Prop57
140
1.0
102
RTVSPost2010PropOp57
 70
     0
102
RTVSPropertyOp0
 70
     0
102
RTVSPropertyOp1
 70
     0
102
RTVSPropertyOp2
 70
     0
102
RTVSPropertyOp3
 70
     0
102
RTVSPropertyOp4
 70
     0
102
RTVSPropertyOp5
 70
     0
102
RTVSPropertyOp6
 70
     0
102
RTVSPropertyOp7
 70
     0
102
RTVSPropertyOp8
 70
     0
102
RTVSPropertyOp9
 70
     0
102
RTVSPropertyOp10
 70
     0
102
RTVSPropertyOp11
 70
     0
102
RTVSPropertyOp12
 70
     0
102
RTVSPropertyOp13
 70
     0
102
RTVSPropertyOp14
 70
     2
102
RTVSPropertyOp15
 70
     0
102
RTVSPropertyOp16
 70
     0
102
RTVSPropertyOp17
 70
     0
102
RTVSPropertyOp18
 70
     0
102
RTVSPropertyOp19
 70
     0
102
RTVSPropertyOp20
 70
     0
102
RTVSPropertyOp21
 70
     0
102
RTVSPropertyOp22
 70
     0
102
RTVSPropertyOp23
 70
     0
102
RTVSPropertyOp24
 70
     0
102
RTVSPropertyOp25
 70
     0
102
RTVSPropertyOp26
 70
     0
102
RTVSPropertyOp27
 70
     0
102
RTVSPropertyOp28
 70
     1
102
RTVSPropertyOp29
 70
     1
102
RTVSPropertyOp30
 70
     1
102
RTVSPropertyOp31
 70
     1
102
RTVSPropertyOp32
 70
     1
102
RTVSPropertyOp33
 70
     1
102
RTVSPropertyOp34
 70
     1
102
RTVSPropertyOp35
 70
     1
102
RTVSPropertyOp36
 70
     1
102
RTVSPropertyOp37
 70
     0
102
RTVSPropertyOp38
 70
     0
102
RTVSPropertyOp39
 70
     0
102
RTVSPropertyOp40
 70
     0
102
RTVSPropertyOp41
 70
     0
102
RTVSPropertyOp42
 70
     0
102
RTVSPropertyOp43
 70
     0
102
RTVSPropertyOp44
 70
     0
102
RTVSPropertyOp45
 70
     1
102
RTVSPropertyOp46
 70
     0
102
RTVSPropertyOp47
 70
     0
102
RTVSPropertyOp48
 70
     0
102
RTVSPropertyOp49
 70
     1
102
RTVSPropertyOp50
 70
     0
102
RTVSPropertyOp51
 70
     0
102
RTVSPropertyOp52
 70
     0
102
RTVSPropertyOp53
 70
     0
102
RTVSPropertyOp54
 70
     0
102
RTVSPropertyOp55
 70
     1
102
RTVSPropertyOp56
 70
     0
102
RTVSPropertyOp57
 70
     0
102
RTVSPropertyOp58
 70
     0
102
RTVSPropertyOp59
 70
     0
102
RTVSPropertyOp60
 70
     0
102
RTVSPropertyOp61
 70
     0
102
RTVSPropertyOp62
 70
     0
  0
XRECORD
  5
A3D0
102
{ACAD_REACTORS
330
A3CF
102
}
330
A3CF
100
AcDbXrecord
280
     1
102
RTVSPost2010Prop28
280
     0
102
RTVSPost2010PropOp28
 70
     1
102
RTVSPost2010Prop29
280
     1
102
RTVSPost2010PropOp29
 70
     1
102
RTVSPost2010Prop30
280
     1
102
RTVSPost2010PropOp30
 70
     1
102
RTVSPost2010Prop31
280
     0
102
RTVSPost2010PropOp31
 70
     1
102
RTVSPost2010Prop32
280
     0
102
RTVSPost2010PropOp32
 70
     1
102
RTVSPost2010Prop33
280
     0
102
RTVSPost2010PropOp33
 70
     1
102
RTVSPost2010Prop34
280
     0
102
RTVSPost2010PropOp34
 70
     1
102
RTVSPost2010Prop35
280
     0
102
RTVSPost2010PropOp35
 70
     1
102
RTVSPost2010Prop36
280
     0
102
RTVSPost2010PropOp36
 70
     1
102
RTVSPost2010Prop37
 90
       50
102
RTVSPost2010PropOp37
 70
     1
102
RTVSPost2010Prop38
140
0.0
102
RTVSPost2010PropOp38
 70
     1
102
RTVSPost2010Prop39
140
1.0
102
RTVSPost2010PropOp39
 70
     1
102
RTVSPost2010Prop40
 90
        0
102
RTVSPost2010PropOp40
 70
     1
102
RTVSPost2010Prop41ColorIndex
 90
       18
102
RTVSPost2010Prop41ColorRGB
 90
        0
102
RTVSPost2010PropOp41
 70
     1
102
RTVSPost2010Prop42
 90
       50
102
RTVSPost2010PropOp42
 70
     1
102
RTVSPost2010Prop43
 90
        3
102
RTVSPost2010PropOp43
 70
     1
102
RTVSPost2010Prop44ColorIndex
 90
        5
102
RTVSPost2010Prop44ColorRGB
 90
      255
102
RTVSPost2010PropOp44
 70
     1
102
RTVSPost2010Prop45
280
     0
102
RTVSPost2010PropOp45
 70
     1
102
RTVSPost2010Prop46
 90
       50
102
RTVSPost2010PropOp46
 70
     1
102
RTVSPost2010Prop47
 90
       50
102
RTVSPost2010PropOp47
 70
     1
102
RTVSPost2010Prop48
 90
       50
102
RTVSPost2010PropOp48
 70
     1
102
RTVSPost2010Prop49
280
     0
102
RTVSPost2010PropOp49
 70
     1
102
RTVSPost2010Prop50
 90
       50
102
RTVSPost2010PropOp50
 70
     1
102
RTVSPost2010Prop51ColorIndex
 90
      256
102
RTVSPost2010Prop51ColorRGB
 90
-16777216
102
RTVSPost2010PropOp51
 70
     0
102
RTVSPost2010Prop52
140
1.0
102
RTVSPost2010PropOp52
 70
     0
102
RTVSPost2010Prop53
 90
        2
102
RTVSPost2010PropOp53
 70
     1
102
RTVSPost2010Prop54
  1
strokes_ogs.tif
102
RTVSPost2010PropOp54
 70
     1
102
RTVSPost2010Prop55
280
     0
102
RTVSPost2010PropOp55
 70
     1
102
RTVSPost2010Prop56
140
1.0
102
RTVSPost2010PropOp56
 70
     1
102
RTVSPost2010Prop57
140
1.0
102
RTVSPost2010PropOp57
 70
     1
102
RTVSPropertyOp0
 70
     1
102
RTVSPropertyOp1
 70
     1
102
RTVSPropertyOp2
 70
     1
102
RTVSPropertyOp3
 70
     1
102
RTVSPropertyOp4
 70
     1
102
RTVSPropertyOp5
 70
     1
102
RTVSPropertyOp6
 70
     1
102
RTVSPropertyOp7
 70
     1
102
RTVSPropertyOp8
 70
     1
102
RTVSPropertyOp9
 70
     1
102
RTVSPropertyOp10
 70
     1
102
RTVSPropertyOp11
 70
     1
102
RTVSPropertyOp12
 70
     1
102
RTVSPropertyOp13
 70
     1
102
RTVSPropertyOp14
 70
     1
102
RTVSPropertyOp15
 70
     1
102
RTVSPropertyOp16
 70
     1
102
RTVSPropertyOp17
 70
     1
102
RTVSPropertyOp18
 70
     1
102
RTVSPropertyOp19
 70
     1
102
RTVSPropertyOp20
 70
     1
102
RTVSPropertyOp21
 70
     1
102
RTVSPropertyOp22
 70
     1
102
RTVSPropertyOp23
 70
     1
102
RTVSPropertyOp24
 70
     1
102
RTVSPropertyOp25
 70
     1
102
RTVSPropertyOp26
 70
     1
102
RTVSPropertyOp27
 70
     1
102
RTVSPropertyOp28
 70
     1
102
RTVSPropertyOp29
 70
     1
102
RTVSPropertyOp30
 70
     1
102
RTVSPropertyOp31
 70
     1
102
RTVSPropertyOp32
 70
     1
102
RTVSPropertyOp33
 70
     1
102
RTVSPropertyOp34
 70
     1
102
RTVSPropertyOp35
 70
     1
102
RTVSPropertyOp36
 70
     1
102
RTVSPropertyOp37
 70
     1
102
RTVSPropertyOp38
 70
     1
102
RTVSPropertyOp39
 70
     1
102
RTVSPropertyOp40
 70
     1
102
RTVSPropertyOp41
 70
     1
102
RTVSPropertyOp42
 70
     1
102
RTVSPropertyOp43
 70
     1
102
RTVSPropertyOp44
 70
     1
102
RTVSPropertyOp45
 70
     1
102
RTVSPropertyOp46
 70
     1
102
RTVSPropertyOp47
 70
     1
102
RTVSPropertyOp48
 70
     1
102
RTVSPropertyOp49
 70
     1
102
RTVSPropertyOp50
 70
     1
102
RTVSPropertyOp51
 70
     0
102
RTVSPropertyOp52
 70
     0
102
RTVSPropertyOp53
 70
     1
102
RTVSPropertyOp54
 70
     1
102
RTVSPropertyOp55
 70
     1
102
RTVSPropertyOp56
 70
     1
102
RTVSPropertyOp57
 70
     1
102
RTVSPropertyOp58
 70
     1
102
RTVSPropertyOp59
 70
     1
102
RTVSPropertyOp60
 70
     1
102
RTVSPropertyOp61
 70
     1
102
RTVSPropertyOp62
 70
     1
  0
XRECORD
  5
A3E6
102
{ACAD_REACTORS
330
A3E5
102
}
330
A3E5
100
AcDbXrecord
280
     1
102
RTVSPost2010Prop28
280
     0
102
RTVSPost2010PropOp28
 70
     1
102
RTVSPost2010Prop29
280
     1
102
RTVSPost2010PropOp29
 70
     1
102
RTVSPost2010Prop30
280
     1
102
RTVSPost2010PropOp30
 70
     1
102
RTVSPost2010Prop31
280
     0
102
RTVSPost2010PropOp31
 70
     1
102
RTVSPost2010Prop32
280
     0
102
RTVSPost2010PropOp32
 70
     1
102
RTVSPost2010Prop33
280
     0
102
RTVSPost2010PropOp33
 70
     1
102
RTVSPost2010Prop34
280
     0
102
RTVSPost2010PropOp34
 70
     1
102
RTVSPost2010Prop35
280
     0
102
RTVSPost2010PropOp35
 70
     1
102
RTVSPost2010Prop36
280
     0
102
RTVSPost2010PropOp36
 70
     1
102
RTVSPost2010Prop37
 90
       50
102
RTVSPost2010PropOp37
 70
     1
102
RTVSPost2010Prop38
140
0.0
102
RTVSPost2010PropOp38
 70
     1
102
RTVSPost2010Prop39
140
1.0
102
RTVSPost2010PropOp39
 70
     1
102
RTVSPost2010Prop40
 90
        0
102
RTVSPost2010PropOp40
 70
     1
102
RTVSPost2010Prop41ColorIndex
 90
       18
102
RTVSPost2010Prop41ColorRGB
 90
        0
102
RTVSPost2010PropOp41
 70
     1
102
RTVSPost2010Prop42
 90
       50
102
RTVSPost2010PropOp42
 70
     1
102
RTVSPost2010Prop43
 90
        3
102
RTVSPost2010PropOp43
 70
     1
102
RTVSPost2010Prop44ColorIndex
 90
        5
102
RTVSPost2010Prop44ColorRGB
 90
      255
102
RTVSPost2010PropOp44
 70
     1
102
RTVSPost2010Prop45
280
     0
102
RTVSPost2010PropOp45
 70
     1
102
RTVSPost2010Prop46
 90
       50
102
RTVSPost2010PropOp46
 70
     1
102
RTVSPost2010Prop47
 90
       50
102
RTVSPost2010PropOp47
 70
     1
102
RTVSPost2010Prop48
 90
       50
102
RTVSPost2010PropOp48
 70
     1
102
RTVSPost2010Prop49
280
     0
102
RTVSPost2010PropOp49
 70
     1
102
RTVSPost2010Prop50
 90
       50
102
RTVSPost2010PropOp50
 70
     1
102
RTVSPost2010Prop51ColorIndex
 90
      256
102
RTVSPost2010Prop51ColorRGB
 90
-16777216
102
RTVSPost2010PropOp51
 70
     0
102
RTVSPost2010Prop52
140
1.0
102
RTVSPost2010PropOp52
 70
     0
102
RTVSPost2010Prop53
 90
        2
102
RTVSPost2010PropOp53
 70
     1
102
RTVSPost2010Prop54
  1
strokes_ogs.tif
102
RTVSPost2010PropOp54
 70
     1
102
RTVSPost2010Prop55
280
     0
102
RTVSPost2010PropOp55
 70
     1
102
RTVSPost2010Prop56
140
1.0
102
RTVSPost2010PropOp56
 70
     1
102
RTVSPost2010Prop57
140
1.0
102
RTVSPost2010PropOp57
 70
     1
102
RTVSPropertyOp0
 70
     1
102
RTVSPropertyOp1
 70
     1
102
RTVSPropertyOp2
 70
     1
102
RTVSPropertyOp3
 70
     1
102
RTVSPropertyOp4
 70
     1
102
RTVSPropertyOp5
 70
     1
102
RTVSPropertyOp6
 70
     1
102
RTVSPropertyOp7
 70
     1
102
RTVSPropertyOp8
 70
     1
102
RTVSPropertyOp9
 70
     1
102
RTVSPropertyOp10
 70
     1
102
RTVSPropertyOp11
 70
     1
102
RTVSPropertyOp12
 70
     1
102
RTVSPropertyOp13
 70
     1
102
RTVSPropertyOp14
 70
     1
102
RTVSPropertyOp15
 70
     1
102
RTVSPropertyOp16
 70
     1
102
RTVSPropertyOp17
 70
     1
102
RTVSPropertyOp18
 70
     1
102
RTVSPropertyOp19
 70
     1
102
RTVSPropertyOp20
 70
     1
102
RTVSPropertyOp21
 70
     1
102
RTVSPropertyOp22
 70
     1
102
RTVSPropertyOp23
 70
     1
102
RTVSPropertyOp24
 70
     1
102
RTVSPropertyOp25
 70
     1
102
RTVSPropertyOp26
 70
     1
102
RTVSPropertyOp27
 70
     1
102
RTVSPropertyOp28
 70
     1
102
RTVSPropertyOp29
 70
     1
102
RTVSPropertyOp30
 70
     1
102
RTVSPropertyOp31
 70
     1
102
RTVSPropertyOp32
 70
     1
102
RTVSPropertyOp33
 70
     1
102
RTVSPropertyOp34
 70
     1
102
RTVSPropertyOp35
 70
     1
102
RTVSPropertyOp36
 70
     1
102
RTVSPropertyOp37
 70
     1
102
RTVSPropertyOp38
 70
     1
102
RTVSPropertyOp39
 70
     1
102
RTVSPropertyOp40
 70
     1
102
RTVSPropertyOp41
 70
     1
102
RTVSPropertyOp42
 70
     1
102
RTVSPropertyOp43
 70
     1
102
RTVSPropertyOp44
 70
     1
102
RTVSPropertyOp45
 70
     1
102
RTVSPropertyOp46
 70
     1
102
RTVSPropertyOp47
 70
     1
102
RTVSPropertyOp48
 70
     1
102
RTVSPropertyOp49
 70
     1
102
RTVSPropertyOp50
 70
     1
102
RTVSPropertyOp51
 70
     0
102
RTVSPropertyOp52
 70
     0
102
RTVSPropertyOp53
 70
     1
102
RTVSPropertyOp54
 70
     1
102
RTVSPropertyOp55
 70
     1
102
RTVSPropertyOp56
 70
     1
102
RTVSPropertyOp57
 70
     1
102
RTVSPropertyOp58
 70
     1
102
RTVSPropertyOp59
 70
     1
102
RTVSPropertyOp60
 70
     1
102
RTVSPropertyOp61
 70
     1
102
RTVSPropertyOp62
 70
     1
  0
XRECORD
  5
A3E4
102
{ACAD_REACTORS
330
A3E3
102
}
330
A3E3
100
AcDbXrecord
280
     1
102
RTVSPost2010Prop28
280
     0
102
RTVSPost2010PropOp28
 70
     1
102
RTVSPost2010Prop29
280
     1
102
RTVSPost2010PropOp29
 70
     1
102
RTVSPost2010Prop30
280
     1
102
RTVSPost2010PropOp30
 70
     1
102
RTVSPost2010Prop31
280
     0
102
RTVSPost2010PropOp31
 70
     1
102
RTVSPost2010Prop32
280
     0
102
RTVSPost2010PropOp32
 70
     1
102
RTVSPost2010Prop33
280
     0
102
RTVSPost2010PropOp33
 70
     1
102
RTVSPost2010Prop34
280
     0
102
RTVSPost2010PropOp34
 70
     1
102
RTVSPost2010Prop35
280
     0
102
RTVSPost2010PropOp35
 70
     1
102
RTVSPost2010Prop36
280
     0
102
RTVSPost2010PropOp36
 70
     1
102
RTVSPost2010Prop37
 90
       50
102
RTVSPost2010PropOp37
 70
     1
102
RTVSPost2010Prop38
140
0.0
102
RTVSPost2010PropOp38
 70
     1
102
RTVSPost2010Prop39
140
1.0
102
RTVSPost2010PropOp39
 70
     1
102
RTVSPost2010Prop40
 90
        0
102
RTVSPost2010PropOp40
 70
     1
102
RTVSPost2010Prop41ColorIndex
 90
       18
102
RTVSPost2010Prop41ColorRGB
 90
        0
102
RTVSPost2010PropOp41
 70
     1
102
RTVSPost2010Prop42
 90
       50
102
RTVSPost2010PropOp42
 70
     1
102
RTVSPost2010Prop43
 90
        3
102
RTVSPost2010PropOp43
 70
     1
102
RTVSPost2010Prop44ColorIndex
 90
        5
102
RTVSPost2010Prop44ColorRGB
 90
      255
102
RTVSPost2010PropOp44
 70
     1
102
RTVSPost2010Prop45
280
     0
102
RTVSPost2010PropOp45
 70
     1
102
RTVSPost2010Prop46
 90
       50
102
RTVSPost2010PropOp46
 70
     1
102
RTVSPost2010Prop47
 90
       50
102
RTVSPost2010PropOp47
 70
     1
102
RTVSPost2010Prop48
 90
       50
102
RTVSPost2010PropOp48
 70
     1
102
RTVSPost2010Prop49
280
     0
102
RTVSPost2010PropOp49
 70
     1
102
RTVSPost2010Prop50
 90
       50
102
RTVSPost2010PropOp50
 70
     1
102
RTVSPost2010Prop51ColorIndex
 90
      256
102
RTVSPost2010Prop51ColorRGB
 90
-16777216
102
RTVSPost2010PropOp51
 70
     0
102
RTVSPost2010Prop52
140
1.0
102
RTVSPost2010PropOp52
 70
     0
102
RTVSPost2010Prop53
 90
        2
102
RTVSPost2010PropOp53
 70
     1
102
RTVSPost2010Prop54
  1
strokes_ogs.tif
102
RTVSPost2010PropOp54
 70
     1
102
RTVSPost2010Prop55
280
     0
102
RTVSPost2010PropOp55
 70
     1
102
RTVSPost2010Prop56
140
1.0
102
RTVSPost2010PropOp56
 70
     1
102
RTVSPost2010Prop57
140
1.0
102
RTVSPost2010PropOp57
 70
     1
102
RTVSPropertyOp0
 70
     1
102
RTVSPropertyOp1
 70
     1
102
RTVSPropertyOp2
 70
     1
102
RTVSPropertyOp3
 70
     1
102
RTVSPropertyOp4
 70
     1
102
RTVSPropertyOp5
 70
     1
102
RTVSPropertyOp6
 70
     1
102
RTVSPropertyOp7
 70
     1
102
RTVSPropertyOp8
 70
     1
102
RTVSPropertyOp9
 70
     1
102
RTVSPropertyOp10
 70
     1
102
RTVSPropertyOp11
 70
     1
102
RTVSPropertyOp12
 70
     1
102
RTVSPropertyOp13
 70
     1
102
RTVSPropertyOp14
 70
     1
102
RTVSPropertyOp15
 70
     1
102
RTVSPropertyOp16
 70
     1
102
RTVSPropertyOp17
 70
     1
102
RTVSPropertyOp18
 70
     1
102
RTVSPropertyOp19
 70
     1
102
RTVSPropertyOp20
 70
     1
102
RTVSPropertyOp21
 70
     1
102
RTVSPropertyOp22
 70
     1
102
RTVSPropertyOp23
 70
     1
102
RTVSPropertyOp24
 70
     1
102
RTVSPropertyOp25
 70
     1
102
RTVSPropertyOp26
 70
     1
102
RTVSPropertyOp27
 70
     1
102
RTVSPropertyOp28
 70
     1
102
RTVSPropertyOp29
 70
     1
102
RTVSPropertyOp30
 70
     1
102
RTVSPropertyOp31
 70
     1
102
RTVSPropertyOp32
 70
     1
102
RTVSPropertyOp33
 70
     1
102
RTVSPropertyOp34
 70
     1
102
RTVSPropertyOp35
 70
     1
102
RTVSPropertyOp36
 70
     1
102
RTVSPropertyOp37
 70
     1
102
RTVSPropertyOp38
 70
     1
102
RTVSPropertyOp39
 70
     1
102
RTVSPropertyOp40
 70
     1
102
RTVSPropertyOp41
 70
     1
102
RTVSPropertyOp42
 70
     1
102
RTVSPropertyOp43
 70
     1
102
RTVSPropertyOp44
 70
     1
102
RTVSPropertyOp45
 70
     1
102
RTVSPropertyOp46
 70
     1
102
RTVSPropertyOp47
 70
     1
102
RTVSPropertyOp48
 70
     1
102
RTVSPropertyOp49
 70
     1
102
RTVSPropertyOp50
 70
     1
102
RTVSPropertyOp51
 70
     0
102
RTVSPropertyOp52
 70
     0
102
RTVSPropertyOp53
 70
     1
102
RTVSPropertyOp54
 70
     1
102
RTVSPropertyOp55
 70
     1
102
RTVSPropertyOp56
 70
     1
102
RTVSPropertyOp57
 70
     1
102
RTVSPropertyOp58
 70
     1
102
RTVSPropertyOp59
 70
     1
102
RTVSPropertyOp60
 70
     1
102
RTVSPropertyOp61
 70
     1
102
RTVSPropertyOp62
 70
     1
  0
XRECORD
  5
A3DE
102
{ACAD_REACTORS
330
A3DD
102
}
330
A3DD
100
AcDbXrecord
280
     1
102
RTVSPost2010Prop28
280
     0
102
RTVSPost2010PropOp28
 70
     1
102
RTVSPost2010Prop29
280
     1
102
RTVSPost2010PropOp29
 70
     1
102
RTVSPost2010Prop30
280
     1
102
RTVSPost2010PropOp30
 70
     1
102
RTVSPost2010Prop31
280
     0
102
RTVSPost2010PropOp31
 70
     1
102
RTVSPost2010Prop32
280
     0
102
RTVSPost2010PropOp32
 70
     1
102
RTVSPost2010Prop33
280
     0
102
RTVSPost2010PropOp33
 70
     1
102
RTVSPost2010Prop34
280
     0
102
RTVSPost2010PropOp34
 70
     1
102
RTVSPost2010Prop35
280
     0
102
RTVSPost2010PropOp35
 70
     1
102
RTVSPost2010Prop36
280
     0
102
RTVSPost2010PropOp36
 70
     1
102
RTVSPost2010Prop37
 90
       50
102
RTVSPost2010PropOp37
 70
     1
102
RTVSPost2010Prop38
140
0.0
102
RTVSPost2010PropOp38
 70
     1
102
RTVSPost2010Prop39
140
1.0
102
RTVSPost2010PropOp39
 70
     1
102
RTVSPost2010Prop40
 90
        0
102
RTVSPost2010PropOp40
 70
     1
102
RTVSPost2010Prop41ColorIndex
 90
       18
102
RTVSPost2010Prop41ColorRGB
 90
        0
102
RTVSPost2010PropOp41
 70
     1
102
RTVSPost2010Prop42
 90
       50
102
RTVSPost2010PropOp42
 70
     1
102
RTVSPost2010Prop43
 90
        3
102
RTVSPost2010PropOp43
 70
     1
102
RTVSPost2010Prop44ColorIndex
 90
        5
102
RTVSPost2010Prop44ColorRGB
 90
      255
102
RTVSPost2010PropOp44
 70
     1
102
RTVSPost2010Prop45
280
     0
102
RTVSPost2010PropOp45
 70
     1
102
RTVSPost2010Prop46
 90
       50
102
RTVSPost2010PropOp46
 70
     1
102
RTVSPost2010Prop47
 90
       50
102
RTVSPost2010PropOp47
 70
     1
102
RTVSPost2010Prop48
 90
       50
102
RTVSPost2010PropOp48
 70
     1
102
RTVSPost2010Prop49
280
     0
102
RTVSPost2010PropOp49
 70
     1
102
RTVSPost2010Prop50
 90
       50
102
RTVSPost2010PropOp50
 70
     1
102
RTVSPost2010Prop51ColorIndex
 90
      256
102
RTVSPost2010Prop51ColorRGB
 90
-16777216
102
RTVSPost2010PropOp51
 70
     0
102
RTVSPost2010Prop52
140
1.0
102
RTVSPost2010PropOp52
 70
     0
102
RTVSPost2010Prop53
 90
        2
102
RTVSPost2010PropOp53
 70
     1
102
RTVSPost2010Prop54
  1
strokes_ogs.tif
102
RTVSPost2010PropOp54
 70
     1
102
RTVSPost2010Prop55
280
     0
102
RTVSPost2010PropOp55
 70
     1
102
RTVSPost2010Prop56
140
1.0
102
RTVSPost2010PropOp56
 70
     1
102
RTVSPost2010Prop57
140
1.0
102
RTVSPost2010PropOp57
 70
     1
102
RTVSPropertyOp0
 70
     1
102
RTVSPropertyOp1
 70
     1
102
RTVSPropertyOp2
 70
     1
102
RTVSPropertyOp3
 70
     1
102
RTVSPropertyOp4
 70
     1
102
RTVSPropertyOp5
 70
     1
102
RTVSPropertyOp6
 70
     1
102
RTVSPropertyOp7
 70
     1
102
RTVSPropertyOp8
 70
     1
102
RTVSPropertyOp9
 70
     1
102
RTVSPropertyOp10
 70
     1
102
RTVSPropertyOp11
 70
     1
102
RTVSPropertyOp12
 70
     1
102
RTVSPropertyOp13
 70
     1
102
RTVSPropertyOp14
 70
     1
102
RTVSPropertyOp15
 70
     1
102
RTVSPropertyOp16
 70
     1
102
RTVSPropertyOp17
 70
     1
102
RTVSPropertyOp18
 70
     1
102
RTVSPropertyOp19
 70
     1
102
RTVSPropertyOp20
 70
     1
102
RTVSPropertyOp21
 70
     1
102
RTVSPropertyOp22
 70
     1
102
RTVSPropertyOp23
 70
     1
102
RTVSPropertyOp24
 70
     1
102
RTVSPropertyOp25
 70
     1
102
RTVSPropertyOp26
 70
     1
102
RTVSPropertyOp27
 70
     1
102
RTVSPropertyOp28
 70
     1
102
RTVSPropertyOp29
 70
     1
102
RTVSPropertyOp30
 70
     1
102
RTVSPropertyOp31
 70
     1
102
RTVSPropertyOp32
 70
     1
102
RTVSPropertyOp33
 70
     1
102
RTVSPropertyOp34
 70
     1
102
RTVSPropertyOp35
 70
     1
102
RTVSPropertyOp36
 70
     1
102
RTVSPropertyOp37
 70
     1
102
RTVSPropertyOp38
 70
     1
102
RTVSPropertyOp39
 70
     1
102
RTVSPropertyOp40
 70
     1
102
RTVSPropertyOp41
 70
     1
102
RTVSPropertyOp42
 70
     1
102
RTVSPropertyOp43
 70
     1
102
RTVSPropertyOp44
 70
     1
102
RTVSPropertyOp45
 70
     1
102
RTVSPropertyOp46
 70
     1
102
RTVSPropertyOp47
 70
     1
102
RTVSPropertyOp48
 70
     1
102
RTVSPropertyOp49
 70
     1
102
RTVSPropertyOp50
 70
     1
102
RTVSPropertyOp51
 70
     0
102
RTVSPropertyOp52
 70
     0
102
RTVSPropertyOp53
 70
     1
102
RTVSPropertyOp54
 70
     1
102
RTVSPropertyOp55
 70
     1
102
RTVSPropertyOp56
 70
     1
102
RTVSPropertyOp57
 70
     1
102
RTVSPropertyOp58
 70
     1
102
RTVSPropertyOp59
 70
     1
102
RTVSPropertyOp60
 70
     1
102
RTVSPropertyOp61
 70
     1
102
RTVSPropertyOp62
 70
     1
  0
XRECORD
  5
A3E0
102
{ACAD_REACTORS
330
A3DF
102
}
330
A3DF
100
AcDbXrecord
280
     1
102
RTVSPost2010Prop28
280
     0
102
RTVSPost2010PropOp28
 70
     1
102
RTVSPost2010Prop29
280
     1
102
RTVSPost2010PropOp29
 70
     1
102
RTVSPost2010Prop30
280
     1
102
RTVSPost2010PropOp30
 70
     1
102
RTVSPost2010Prop31
280
     0
102
RTVSPost2010PropOp31
 70
     1
102
RTVSPost2010Prop32
280
     0
102
RTVSPost2010PropOp32
 70
     1
102
RTVSPost2010Prop33
280
     0
102
RTVSPost2010PropOp33
 70
     1
102
RTVSPost2010Prop34
280
     0
102
RTVSPost2010PropOp34
 70
     1
102
RTVSPost2010Prop35
280
     0
102
RTVSPost2010PropOp35
 70
     1
102
RTVSPost2010Prop36
280
     0
102
RTVSPost2010PropOp36
 70
     1
102
RTVSPost2010Prop37
 90
       50
102
RTVSPost2010PropOp37
 70
     1
102
RTVSPost2010Prop38
140
0.0
102
RTVSPost2010PropOp38
 70
     1
102
RTVSPost2010Prop39
140
1.0
102
RTVSPost2010PropOp39
 70
     1
102
RTVSPost2010Prop40
 90
        0
102
RTVSPost2010PropOp40
 70
     1
102
RTVSPost2010Prop41ColorIndex
 90
       18
102
RTVSPost2010Prop41ColorRGB
 90
        0
102
RTVSPost2010PropOp41
 70
     1
102
RTVSPost2010Prop42
 90
       50
102
RTVSPost2010PropOp42
 70
     1
102
RTVSPost2010Prop43
 90
        3
102
RTVSPost2010PropOp43
 70
     1
102
RTVSPost2010Prop44ColorIndex
 90
        5
102
RTVSPost2010Prop44ColorRGB
 90
      255
102
RTVSPost2010PropOp44
 70
     1
102
RTVSPost2010Prop45
280
     0
102
RTVSPost2010PropOp45
 70
     1
102
RTVSPost2010Prop46
 90
       50
102
RTVSPost2010PropOp46
 70
     1
102
RTVSPost2010Prop47
 90
       50
102
RTVSPost2010PropOp47
 70
     1
102
RTVSPost2010Prop48
 90
       50
102
RTVSPost2010PropOp48
 70
     1
102
RTVSPost2010Prop49
280
     0
102
RTVSPost2010PropOp49
 70
     1
102
RTVSPost2010Prop50
 90
       50
102
RTVSPost2010PropOp50
 70
     1
102
RTVSPost2010Prop51ColorIndex
 90
      256
102
RTVSPost2010Prop51ColorRGB
 90
-16777216
102
RTVSPost2010PropOp51
 70
     0
102
RTVSPost2010Prop52
140
1.0
102
RTVSPost2010PropOp52
 70
     0
102
RTVSPost2010Prop53
 90
        2
102
RTVSPost2010PropOp53
 70
     1
102
RTVSPost2010Prop54
  1
strokes_ogs.tif
102
RTVSPost2010PropOp54
 70
     1
102
RTVSPost2010Prop55
280
     0
102
RTVSPost2010PropOp55
 70
     1
102
RTVSPost2010Prop56
140
1.0
102
RTVSPost2010PropOp56
 70
     1
102
RTVSPost2010Prop57
140
1.0
102
RTVSPost2010PropOp57
 70
     1
102
RTVSPropertyOp0
 70
     1
102
RTVSPropertyOp1
 70
     1
102
RTVSPropertyOp2
 70
     1
102
RTVSPropertyOp3
 70
     1
102
RTVSPropertyOp4
 70
     1
102
RTVSPropertyOp5
 70
     1
102
RTVSPropertyOp6
 70
     1
102
RTVSPropertyOp7
 70
     1
102
RTVSPropertyOp8
 70
     1
102
RTVSPropertyOp9
 70
     1
102
RTVSPropertyOp10
 70
     1
102
RTVSPropertyOp11
 70
     1
102
RTVSPropertyOp12
 70
     1
102
RTVSPropertyOp13
 70
     1
102
RTVSPropertyOp14
 70
     1
102
RTVSPropertyOp15
 70
     1
102
RTVSPropertyOp16
 70
     1
102
RTVSPropertyOp17
 70
     1
102
RTVSPropertyOp18
 70
     1
102
RTVSPropertyOp19
 70
     1
102
RTVSPropertyOp20
 70
     1
102
RTVSPropertyOp21
 70
     1
102
RTVSPropertyOp22
 70
     1
102
RTVSPropertyOp23
 70
     1
102
RTVSPropertyOp24
 70
     1
102
RTVSPropertyOp25
 70
     1
102
RTVSPropertyOp26
 70
     1
102
RTVSPropertyOp27
 70
     1
102
RTVSPropertyOp28
 70
     1
102
RTVSPropertyOp29
 70
     1
102
RTVSPropertyOp30
 70
     1
102
RTVSPropertyOp31
 70
     1
102
RTVSPropertyOp32
 70
     1
102
RTVSPropertyOp33
 70
     1
102
RTVSPropertyOp34
 70
     1
102
RTVSPropertyOp35
 70
     1
102
RTVSPropertyOp36
 70
     1
102
RTVSPropertyOp37
 70
     1
102
RTVSPropertyOp38
 70
     1
102
RTVSPropertyOp39
 70
     1
102
RTVSPropertyOp40
 70
     1
102
RTVSPropertyOp41
 70
     1
102
RTVSPropertyOp42
 70
     1
102
RTVSPropertyOp43
 70
     1
102
RTVSPropertyOp44
 70
     1
102
RTVSPropertyOp45
 70
     1
102
RTVSPropertyOp46
 70
     1
102
RTVSPropertyOp47
 70
     1
102
RTVSPropertyOp48
 70
     1
102
RTVSPropertyOp49
 70
     1
102
RTVSPropertyOp50
 70
     1
102
RTVSPropertyOp51
 70
     0
102
RTVSPropertyOp52
 70
     0
102
RTVSPropertyOp53
 70
     1
102
RTVSPropertyOp54
 70
     1
102
RTVSPropertyOp55
 70
     1
102
RTVSPropertyOp56
 70
     1
102
RTVSPropertyOp57
 70
     1
102
RTVSPropertyOp58
 70
     1
102
RTVSPropertyOp59
 70
     1
102
RTVSPropertyOp60
 70
     1
102
RTVSPropertyOp61
 70
     1
102
RTVSPropertyOp62
 70
     1
  0
XRECORD
  5
A3D6
102
{ACAD_REACTORS
330
A3D5
102
}
330
A3D5
100
AcDbXrecord
280
     1
102
RTVSPost2010Prop28
280
     0
102
RTVSPost2010PropOp28
 70
     1
102
RTVSPost2010Prop29
280
     1
102
RTVSPost2010PropOp29
 70
     1
102
RTVSPost2010Prop30
280
     1
102
RTVSPost2010PropOp30
 70
     1
102
RTVSPost2010Prop31
280
     0
102
RTVSPost2010PropOp31
 70
     1
102
RTVSPost2010Prop32
280
     0
102
RTVSPost2010PropOp32
 70
     1
102
RTVSPost2010Prop33
280
     0
102
RTVSPost2010PropOp33
 70
     1
102
RTVSPost2010Prop34
280
     0
102
RTVSPost2010PropOp34
 70
     1
102
RTVSPost2010Prop35
280
     0
102
RTVSPost2010PropOp35
 70
     1
102
RTVSPost2010Prop36
280
     0
102
RTVSPost2010PropOp36
 70
     1
102
RTVSPost2010Prop37
 90
       50
102
RTVSPost2010PropOp37
 70
     1
102
RTVSPost2010Prop38
140
0.0
102
RTVSPost2010PropOp38
 70
     1
102
RTVSPost2010Prop39
140
1.0
102
RTVSPost2010PropOp39
 70
     1
102
RTVSPost2010Prop40
 90
        0
102
RTVSPost2010PropOp40
 70
     1
102
RTVSPost2010Prop41ColorIndex
 90
       18
102
RTVSPost2010Prop41ColorRGB
 90
        0
102
RTVSPost2010PropOp41
 70
     1
102
RTVSPost2010Prop42
 90
       50
102
RTVSPost2010PropOp42
 70
     1
102
RTVSPost2010Prop43
 90
        3
102
RTVSPost2010PropOp43
 70
     1
102
RTVSPost2010Prop44ColorIndex
 90
        5
102
RTVSPost2010Prop44ColorRGB
 90
      255
102
RTVSPost2010PropOp44
 70
     1
102
RTVSPost2010Prop45
280
     0
102
RTVSPost2010PropOp45
 70
     1
102
RTVSPost2010Prop46
 90
       50
102
RTVSPost2010PropOp46
 70
     1
102
RTVSPost2010Prop47
 90
       50
102
RTVSPost2010PropOp47
 70
     1
102
RTVSPost2010Prop48
 90
       50
102
RTVSPost2010PropOp48
 70
     1
102
RTVSPost2010Prop49
280
     0
102
RTVSPost2010PropOp49
 70
     1
102
RTVSPost2010Prop50
 90
       50
102
RTVSPost2010PropOp50
 70
     1
102
RTVSPost2010Prop51ColorIndex
 90
      256
102
RTVSPost2010Prop51ColorRGB
 90
-16777216
102
RTVSPost2010PropOp51
 70
     0
102
RTVSPost2010Prop52
140
1.0
102
RTVSPost2010PropOp52
 70
     0
102
RTVSPost2010Prop53
 90
        2
102
RTVSPost2010PropOp53
 70
     1
102
RTVSPost2010Prop54
  1
strokes_ogs.tif
102
RTVSPost2010PropOp54
 70
     1
102
RTVSPost2010Prop55
280
     0
102
RTVSPost2010PropOp55
 70
     1
102
RTVSPost2010Prop56
140
1.0
102
RTVSPost2010PropOp56
 70
     1
102
RTVSPost2010Prop57
140
1.0
102
RTVSPost2010PropOp57
 70
     1
102
RTVSPropertyOp0
 70
     1
102
RTVSPropertyOp1
 70
     1
102
RTVSPropertyOp2
 70
     1
102
RTVSPropertyOp3
 70
     1
102
RTVSPropertyOp4
 70
     1
102
RTVSPropertyOp5
 70
     1
102
RTVSPropertyOp6
 70
     1
102
RTVSPropertyOp7
 70
     1
102
RTVSPropertyOp8
 70
     1
102
RTVSPropertyOp9
 70
     1
102
RTVSPropertyOp10
 70
     1
102
RTVSPropertyOp11
 70
     1
102
RTVSPropertyOp12
 70
     1
102
RTVSPropertyOp13
 70
     1
102
RTVSPropertyOp14
 70
     1
102
RTVSPropertyOp15
 70
     1
102
RTVSPropertyOp16
 70
     1
102
RTVSPropertyOp17
 70
     1
102
RTVSPropertyOp18
 70
     1
102
RTVSPropertyOp19
 70
     1
102
RTVSPropertyOp20
 70
     1
102
RTVSPropertyOp21
 70
     1
102
RTVSPropertyOp22
 70
     1
102
RTVSPropertyOp23
 70
     1
102
RTVSPropertyOp24
 70
     1
102
RTVSPropertyOp25
 70
     1
102
RTVSPropertyOp26
 70
     1
102
RTVSPropertyOp27
 70
     1
102
RTVSPropertyOp28
 70
     1
102
RTVSPropertyOp29
 70
     1
102
RTVSPropertyOp30
 70
     1
102
RTVSPropertyOp31
 70
     1
102
RTVSPropertyOp32
 70
     1
102
RTVSPropertyOp33
 70
     1
102
RTVSPropertyOp34
 70
     1
102
RTVSPropertyOp35
 70
     1
102
RTVSPropertyOp36
 70
     1
102
RTVSPropertyOp37
 70
     1
102
RTVSPropertyOp38
 70
     1
102
RTVSPropertyOp39
 70
     1
102
RTVSPropertyOp40
 70
     1
102
RTVSPropertyOp41
 70
     1
102
RTVSPropertyOp42
 70
     1
102
RTVSPropertyOp43
 70
     1
102
RTVSPropertyOp44
 70
     1
102
RTVSPropertyOp45
 70
     1
102
RTVSPropertyOp46
 70
     1
102
RTVSPropertyOp47
 70
     1
102
RTVSPropertyOp48
 70
     1
102
RTVSPropertyOp49
 70
     1
102
RTVSPropertyOp50
 70
     1
102
RTVSPropertyOp51
 70
     0
102
RTVSPropertyOp52
 70
     0
102
RTVSPropertyOp53
 70
     1
102
RTVSPropertyOp54
 70
     1
102
RTVSPropertyOp55
 70
     1
102
RTVSPropertyOp56
 70
     1
102
RTVSPropertyOp57
 70
     1
102
RTVSPropertyOp58
 70
     1
102
RTVSPropertyOp59
 70
     1
102
RTVSPropertyOp60
 70
     1
102
RTVSPropertyOp61
 70
     1
102
RTVSPropertyOp62
 70
     1
  0
XRECORD
  5
A3CA
102
{ACAD_REACTORS
330
A3C9
102
}
330
A3C9
100
AcDbXrecord
280
     1
102
RTVSPost2010Prop28
280
     0
102
RTVSPost2010PropOp28
 70
     1
102
RTVSPost2010Prop29
280
     1
102
RTVSPost2010PropOp29
 70
     1
102
RTVSPost2010Prop30
280
     1
102
RTVSPost2010PropOp30
 70
     1
102
RTVSPost2010Prop31
280
     0
102
RTVSPost2010PropOp31
 70
     1
102
RTVSPost2010Prop32
280
     0
102
RTVSPost2010PropOp32
 70
     1
102
RTVSPost2010Prop33
280
     0
102
RTVSPost2010PropOp33
 70
     1
102
RTVSPost2010Prop34
280
     0
102
RTVSPost2010PropOp34
 70
     1
102
RTVSPost2010Prop35
280
     0
102
RTVSPost2010PropOp35
 70
     1
102
RTVSPost2010Prop36
280
     0
102
RTVSPost2010PropOp36
 70
     1
102
RTVSPost2010Prop37
 90
       50
102
RTVSPost2010PropOp37
 70
     1
102
RTVSPost2010Prop38
140
0.0
102
RTVSPost2010PropOp38
 70
     1
102
RTVSPost2010Prop39
140
1.0
102
RTVSPost2010PropOp39
 70
     1
102
RTVSPost2010Prop40
 90
        0
102
RTVSPost2010PropOp40
 70
     1
102
RTVSPost2010Prop41ColorIndex
 90
       18
102
RTVSPost2010Prop41ColorRGB
 90
        0
102
RTVSPost2010PropOp41
 70
     1
102
RTVSPost2010Prop42
 90
       50
102
RTVSPost2010PropOp42
 70
     1
102
RTVSPost2010Prop43
 90
        3
102
RTVSPost2010PropOp43
 70
     1
102
RTVSPost2010Prop44ColorIndex
 90
        5
102
RTVSPost2010Prop44ColorRGB
 90
      255
102
RTVSPost2010PropOp44
 70
     1
102
RTVSPost2010Prop45
280
     0
102
RTVSPost2010PropOp45
 70
     1
102
RTVSPost2010Prop46
 90
       50
102
RTVSPost2010PropOp46
 70
     1
102
RTVSPost2010Prop47
 90
       50
102
RTVSPost2010PropOp47
 70
     1
102
RTVSPost2010Prop48
 90
       50
102
RTVSPost2010PropOp48
 70
     1
102
RTVSPost2010Prop49
280
     0
102
RTVSPost2010PropOp49
 70
     1
102
RTVSPost2010Prop50
 90
       50
102
RTVSPost2010PropOp50
 70
     1
102
RTVSPost2010Prop51ColorIndex
 90
      256
102
RTVSPost2010Prop51ColorRGB
 90
-16777216
102
RTVSPost2010PropOp51
 70
     0
102
RTVSPost2010Prop52
140
1.0
102
RTVSPost2010PropOp52
 70
     0
102
RTVSPost2010Prop53
 90
        2
102
RTVSPost2010PropOp53
 70
     1
102
RTVSPost2010Prop54
  1
strokes_ogs.tif
102
RTVSPost2010PropOp54
 70
     1
102
RTVSPost2010Prop55
280
     0
102
RTVSPost2010PropOp55
 70
     1
102
RTVSPost2010Prop56
140
1.0
102
RTVSPost2010PropOp56
 70
     1
102
RTVSPost2010Prop57
140
1.0
102
RTVSPost2010PropOp57
 70
     1
102
RTVSPropertyOp0
 70
     1
102
RTVSPropertyOp1
 70
     1
102
RTVSPropertyOp2
 70
     1
102
RTVSPropertyOp3
 70
     1
102
RTVSPropertyOp4
 70
     1
102
RTVSPropertyOp5
 70
     1
102
RTVSPropertyOp6
 70
     1
102
RTVSPropertyOp7
 70
     1
102
RTVSPropertyOp8
 70
     1
102
RTVSPropertyOp9
 70
     1
102
RTVSPropertyOp10
 70
     1
102
RTVSPropertyOp11
 70
     1
102
RTVSPropertyOp12
 70
     1
102
RTVSPropertyOp13
 70
     1
102
RTVSPropertyOp14
 70
     1
102
RTVSPropertyOp15
 70
     1
102
RTVSPropertyOp16
 70
     1
102
RTVSPropertyOp17
 70
     1
102
RTVSPropertyOp18
 70
     1
102
RTVSPropertyOp19
 70
     1
102
RTVSPropertyOp20
 70
     1
102
RTVSPropertyOp21
 70
     1
102
RTVSPropertyOp22
 70
     1
102
RTVSPropertyOp23
 70
     1
102
RTVSPropertyOp24
 70
     1
102
RTVSPropertyOp25
 70
     1
102
RTVSPropertyOp26
 70
     1
102
RTVSPropertyOp27
 70
     1
102
RTVSPropertyOp28
 70
     1
102
RTVSPropertyOp29
 70
     1
102
RTVSPropertyOp30
 70
     1
102
RTVSPropertyOp31
 70
     1
102
RTVSPropertyOp32
 70
     1
102
RTVSPropertyOp33
 70
     1
102
RTVSPropertyOp34
 70
     1
102
RTVSPropertyOp35
 70
     1
102
RTVSPropertyOp36
 70
     1
102
RTVSPropertyOp37
 70
     1
102
RTVSPropertyOp38
 70
     1
102
RTVSPropertyOp39
 70
     1
102
RTVSPropertyOp40
 70
     1
102
RTVSPropertyOp41
 70
     1
102
RTVSPropertyOp42
 70
     1
102
RTVSPropertyOp43
 70
     1
102
RTVSPropertyOp44
 70
     1
102
RTVSPropertyOp45
 70
     1
102
RTVSPropertyOp46
 70
     1
102
RTVSPropertyOp47
 70
     1
102
RTVSPropertyOp48
 70
     1
102
RTVSPropertyOp49
 70
     1
102
RTVSPropertyOp50
 70
     1
102
RTVSPropertyOp51
 70
     0
102
RTVSPropertyOp52
 70
     0
102
RTVSPropertyOp53
 70
     1
102
RTVSPropertyOp54
 70
     1
102
RTVSPropertyOp55
 70
     1
102
RTVSPropertyOp56
 70
     1
102
RTVSPropertyOp57
 70
     1
102
RTVSPropertyOp58
 70
     1
102
RTVSPropertyOp59
 70
     1
102
RTVSPropertyOp60
 70
     1
102
RTVSPropertyOp61
 70
     1
102
RTVSPropertyOp62
 70
     1
  0
XRECORD
  5
A3E2
102
{ACAD_REACTORS
330
A3E1
102
}
330
A3E1
100
AcDbXrecord
280
     1
102
RTVSPost2010Prop28
280
     0
102
RTVSPost2010PropOp28
 70
     1
102
RTVSPost2010Prop29
280
     1
102
RTVSPost2010PropOp29
 70
     1
102
RTVSPost2010Prop30
280
     1
102
RTVSPost2010PropOp30
 70
     1
102
RTVSPost2010Prop31
280
     0
102
RTVSPost2010PropOp31
 70
     1
102
RTVSPost2010Prop32
280
     0
102
RTVSPost2010PropOp32
 70
     1
102
RTVSPost2010Prop33
280
     0
102
RTVSPost2010PropOp33
 70
     1
102
RTVSPost2010Prop34
280
     0
102
RTVSPost2010PropOp34
 70
     1
102
RTVSPost2010Prop35
280
     0
102
RTVSPost2010PropOp35
 70
     1
102
RTVSPost2010Prop36
280
     0
102
RTVSPost2010PropOp36
 70
     1
102
RTVSPost2010Prop37
 90
       50
102
RTVSPost2010PropOp37
 70
     1
102
RTVSPost2010Prop38
140
0.0
102
RTVSPost2010PropOp38
 70
     1
102
RTVSPost2010Prop39
140
1.0
102
RTVSPost2010PropOp39
 70
     1
102
RTVSPost2010Prop40
 90
        0
102
RTVSPost2010PropOp40
 70
     1
102
RTVSPost2010Prop41ColorIndex
 90
       18
102
RTVSPost2010Prop41ColorRGB
 90
        0
102
RTVSPost2010PropOp41
 70
     1
102
RTVSPost2010Prop42
 90
       50
102
RTVSPost2010PropOp42
 70
     1
102
RTVSPost2010Prop43
 90
        3
102
RTVSPost2010PropOp43
 70
     1
102
RTVSPost2010Prop44ColorIndex
 90
        5
102
RTVSPost2010Prop44ColorRGB
 90
      255
102
RTVSPost2010PropOp44
 70
     1
102
RTVSPost2010Prop45
280
     0
102
RTVSPost2010PropOp45
 70
     1
102
RTVSPost2010Prop46
 90
       50
102
RTVSPost2010PropOp46
 70
     1
102
RTVSPost2010Prop47
 90
       50
102
RTVSPost2010PropOp47
 70
     1
102
RTVSPost2010Prop48
 90
       50
102
RTVSPost2010PropOp48
 70
     1
102
RTVSPost2010Prop49
280
     0
102
RTVSPost2010PropOp49
 70
     1
102
RTVSPost2010Prop50
 90
       50
102
RTVSPost2010PropOp50
 70
     1
102
RTVSPost2010Prop51ColorIndex
 90
      256
102
RTVSPost2010Prop51ColorRGB
 90
-16777216
102
RTVSPost2010PropOp51
 70
     0
102
RTVSPost2010Prop52
140
1.0
102
RTVSPost2010PropOp52
 70
     0
102
RTVSPost2010Prop53
 90
        2
102
RTVSPost2010PropOp53
 70
     1
102
RTVSPost2010Prop54
  1
strokes_ogs.tif
102
RTVSPost2010PropOp54
 70
     1
102
RTVSPost2010Prop55
280
     0
102
RTVSPost2010PropOp55
 70
     1
102
RTVSPost2010Prop56
140
1.0
102
RTVSPost2010PropOp56
 70
     1
102
RTVSPost2010Prop57
140
1.0
102
RTVSPost2010PropOp57
 70
     1
102
RTVSPropertyOp0
 70
     1
102
RTVSPropertyOp1
 70
     1
102
RTVSPropertyOp2
 70
     1
102
RTVSPropertyOp3
 70
     1
102
RTVSPropertyOp4
 70
     1
102
RTVSPropertyOp5
 70
     1
102
RTVSPropertyOp6
 70
     1
102
RTVSPropertyOp7
 70
     1
102
RTVSPropertyOp8
 70
     1
102
RTVSPropertyOp9
 70
     1
102
RTVSPropertyOp10
 70
     1
102
RTVSPropertyOp11
 70
     1
102
RTVSPropertyOp12
 70
     1
102
RTVSPropertyOp13
 70
     1
102
RTVSPropertyOp14
 70
     1
102
RTVSPropertyOp15
 70
     1
102
RTVSPropertyOp16
 70
     1
102
RTVSPropertyOp17
 70
     1
102
RTVSPropertyOp18
 70
     1
102
RTVSPropertyOp19
 70
     1
102
RTVSPropertyOp20
 70
     1
102
RTVSPropertyOp21
 70
     1
102
RTVSPropertyOp22
 70
     1
102
RTVSPropertyOp23
 70
     1
102
RTVSPropertyOp24
 70
     1
102
RTVSPropertyOp25
 70
     1
102
RTVSPropertyOp26
 70
     1
102
RTVSPropertyOp27
 70
     1
102
RTVSPropertyOp28
 70
     1
102
RTVSPropertyOp29
 70
     1
102
RTVSPropertyOp30
 70
     1
102
RTVSPropertyOp31
 70
     1
102
RTVSPropertyOp32
 70
     1
102
RTVSPropertyOp33
 70
     1
102
RTVSPropertyOp34
 70
     1
102
RTVSPropertyOp35
 70
     1
102
RTVSPropertyOp36
 70
     1
102
RTVSPropertyOp37
 70
     1
102
RTVSPropertyOp38
 70
     1
102
RTVSPropertyOp39
 70
     1
102
RTVSPropertyOp40
 70
     1
102
RTVSPropertyOp41
 70
     1
102
RTVSPropertyOp42
 70
     1
102
RTVSPropertyOp43
 70
     1
102
RTVSPropertyOp44
 70
     1
102
RTVSPropertyOp45
 70
     1
102
RTVSPropertyOp46
 70
     1
102
RTVSPropertyOp47
 70
     1
102
RTVSPropertyOp48
 70
     1
102
RTVSPropertyOp49
 70
     1
102
RTVSPropertyOp50
 70
     1
102
RTVSPropertyOp51
 70
     0
102
RTVSPropertyOp52
 70
     0
102
RTVSPropertyOp53
 70
     1
102
RTVSPropertyOp54
 70
     1
102
RTVSPropertyOp55
 70
     1
102
RTVSPropertyOp56
 70
     1
102
RTVSPropertyOp57
 70
     1
102
RTVSPropertyOp58
 70
     1
102
RTVSPropertyOp59
 70
     1
102
RTVSPropertyOp60
 70
     1
102
RTVSPropertyOp61
 70
     1
102
RTVSPropertyOp62
 70
     1
  0
ENDSEC
  0
EOF
