  0
SECTION
  2
HEADER
  9
$ACADVER
  1
AC1015
  9
$ACADMAINTVER
 70
    20
  9
$DWGCODEPAGE
  3
ANSI_932
  9
$INSBASE
 10
0.0
 20
0.0
 30
0.0
  9
$EXTMIN
 10
10.0
 20
9.999999999999998
 30
0.0
  9
$EXTMAX
 10
427.559921
 20
297.0734499999998
 30
0.0
  9
$LIMMIN
 10
0.0
 20
0.0
  9
$LIMMAX
 10
495.0
 20
341.25
  9
$ORTHOMODE
 70
     0
  9
$REGENMODE
 70
     1
  9
$FILLMODE
 70
     1
  9
$QTEXTMODE
 70
     0
  9
$MIRRTEXT
 70
     1
  9
$LTSCALE
 40
20.0
  9
$ATTMODE
 70
     1
  9
$TEXTSIZE
 40
5.0
  9
$TRACEWID
 40
1.0
  9
$TEXTSTYLE
  7
STANDARD
  9
$CLAYER
  8
0
  9
$CELTYPE
  6
BYLAYER
  9
$CECOLOR
 62
   256
  9
$CELTSCALE
 40
1.0
  9
$DISPSILH
 70
     0
  9
$DIMSCALE
 40
1.0
  9
$DIMASZ
 40
2.5
  9
$DIMEXO
 40
1.0
  9
$DIMDLI
 40
10.0
  9
$DIMRND
 40
0.0
  9
$DIMDLE
 40
0.0
  9
$DIMEXE
 40
1.0
  9
$DIMTP
 40
0.0
  9
$DIMTM
 40
0.0
  9
$DIMTXT
 40
3.2
  9
$DIMCEN
 40
0.0
  9
$DIMTSZ
 40
0.0
  9
$DIMTOL
 70
     0
  9
$DIMLIM
 70
     0
  9
$DIMTIH
 70
     0
  9
$DIMTOH
 70
     0
  9
$DIMSE1
 70
     0
  9
$DIMSE2
 70
     0
  9
$DIMTAD
 70
     3
  9
$DIMZIN
 70
     8
  9
$DIMBLK
  1

  9
$DIMASO
 70
     1
  9
$DIMSHO
 70
     1
  9
$DIMPOST
  1

  9
$DIMAPOST
  1

  9
$DIMALT
 70
     0
  9
$DIMALTD
 70
     2
  9
$DIMALTF
 40
25.4
  9
$DIMLFAC
 40
1.0
  9
$DIMTOFL
 70
     1
  9
$DIMTVP
 40
0.0
  9
$DIMTIX
 70
     0
  9
$DIMSOXD
 70
     0
  9
$DIMSAH
 70
     1
  9
$DIMBLK1
  1

  9
$DIMBLK2
  1

  9
$DIMSTYLE
  2
STANDARD
  9
$DIMCLRD
 70
     0
  9
$DIMCLRE
 70
     0
  9
$DIMCLRT
 70
     0
  9
$DIMTFAC
 40
1.0
  9
$DIMGAP
 40
1.0
  9
$DIMJUST
 70
     0
  9
$DIMSD1
 70
     0
  9
$DIMSD2
 70
     0
  9
$DIMTOLJ
 70
     1
  9
$DIMTZIN
 70
     0
  9
$DIMALTZ
 70
     0
  9
$DIMALTTZ
 70
     0
  9
$DIMUPT
 70
     0
  9
$DIMDEC
 70
     4
  9
$DIMTDEC
 70
     4
  9
$DIMALTU
 70
     2
  9
$DIMALTTD
 70
     2
  9
$DIMTXSTY
  7
STANDARD
  9
$DIMAUNIT
 70
     0
  9
$DIMADEC
 70
     0
  9
$DIMALTRND
 40
0.0
  9
$DIMAZIN
 70
     0
  9
$DIMDSEP
 70
    46
  9
$DIMATFIT
 70
     3
  9
$DIMFRAC
 70
     0
  9
$DIMLDRBLK
  1

  9
$DIMLUNIT
 70
     2
  9
$DIMLWD
 70
    -2
  9
$DIMLWE
 70
    -2
  9
$DIMTMOVE
 70
     0
  9
$LUNITS
 70
     2
  9
$LUPREC
 70
     4
  9
$SKETCHINC
 40
1.0
  9
$FILLETRAD
 40
6.0
  9
$AUNITS
 70
     0
  9
$AUPREC
 70
     2
  9
$MENU
  1
.
  9
$ELEVATION
 40
0.0
  9
$PELEVATION
 40
0.0
  9
$THICKNESS
 40
0.0
  9
$LIMCHECK
 70
     0
  9
$CHAMFERA
 40
10.0
  9
$CHAMFERB
 40
10.0
  9
$CHAMFERC
 40
0.0
  9
$CHAMFERD
 40
0.0
  9
$SKPOLY
 70
     0
  9
$TDCREATE
 40
2451301.431364236
  9
$TDUCREATE
 40
2451301.056364236
  9
$TDUPDATE
 40
2457192.689961759
  9
$TDUUPDATE
 40
2457192.314961759
  9
$TDINDWG
 40
0.0410237500
  9
$TDUSRTIMER
 40
0.0410232639
  9
$USRTIMER
 70
     1
  9
$ANGBASE
 50
0.0
  9
$ANGDIR
 70
     0
  9
$PDMODE
 70
     0
  9
$PDSIZE
 40
0.0
  9
$PLINEWID
 40
0.0
  9
$SPLFRAME
 70
     0
  9
$SPLINETYPE
 70
     6
  9
$SPLINESEGS
 70
     8
  9
$HANDSEED
  5
A87A
  9
$SURFTAB1
 70
     6
  9
$SURFTAB2
 70
     6
  9
$SURFTYPE
 70
     6
  9
$SURFU
 70
     6
  9
$SURFV
 70
     6
  9
$UCSBASE
  2

  9
$UCSNAME
  2

  9
$UCSORG
 10
0.0
 20
0.0
 30
0.0
  9
$UCSXDIR
 10
1.0
 20
0.0
 30
0.0
  9
$UCSYDIR
 10
0.0
 20
1.0
 30
0.0
  9
$UCSORTHOREF
  2

  9
$UCSORTHOVIEW
 70
     0
  9
$UCSORGTOP
 10
0.0
 20
0.0
 30
0.0
  9
$UCSORGBOTTOM
 10
0.0
 20
0.0
 30
0.0
  9
$UCSORGLEFT
 10
0.0
 20
0.0
 30
0.0
  9
$UCSORGRIGHT
 10
0.0
 20
0.0
 30
0.0
  9
$UCSORGFRONT
 10
0.0
 20
0.0
 30
0.0
  9
$UCSORGBACK
 10
0.0
 20
0.0
 30
0.0
  9
$PUCSBASE
  2

  9
$PUCSNAME
  2

  9
$PUCSORG
 10
0.0
 20
0.0
 30
0.0
  9
$PUCSXDIR
 10
1.0
 20
0.0
 30
0.0
  9
$PUCSYDIR
 10
0.0
 20
1.0
 30
0.0
  9
$PUCSORTHOREF
  2

  9
$PUCSORTHOVIEW
 70
     0
  9
$PUCSORGTOP
 10
0.0
 20
0.0
 30
0.0
  9
$PUCSORGBOTTOM
 10
0.0
 20
0.0
 30
0.0
  9
$PUCSORGLEFT
 10
0.0
 20
0.0
 30
0.0
  9
$PUCSORGRIGHT
 10
0.0
 20
0.0
 30
0.0
  9
$PUCSORGFRONT
 10
0.0
 20
0.0
 30
0.0
  9
$PUCSORGBACK
 10
0.0
 20
0.0
 30
0.0
  9
$USERI1
 70
     0
  9
$USERI2
 70
     0
  9
$USERI3
 70
     0
  9
$USERI4
 70
     0
  9
$USERI5
 70
     0
  9
$USERR1
 40
0.0
  9
$USERR2
 40
0.0
  9
$USERR3
 40
0.0
  9
$USERR4
 40
0.0
  9
$USERR5
 40
0.0
  9
$WORLDVIEW
 70
     1
  9
$SHADEDGE
 70
     3
  9
$SHADEDIF
 70
    70
  9
$TILEMODE
 70
     1
  9
$MAXACTVP
 70
    16
  9
$PINSBASE
 10
0.0
 20
0.0
 30
0.0
  9
$PLIMCHECK
 70
     0
  9
$PEXTMIN
 10
1.000000000000000E+20
 20
1.000000000000000E+20
 30
1.000000000000000E+20
  9
$PEXTMAX
 10
-1.000000000000000E+20
 20
-1.000000000000000E+20
 30
-1.000000000000000E+20
  9
$PLIMMIN
 10
0.0
 20
0.0
  9
$PLIMMAX
 10
420.0
 20
297.0
  9
$UNITMODE
 70
     0
  9
$VISRETAIN
 70
     0
  9
$PLINEGEN
 70
     0
  9
$PSLTSCALE
 70
     0
  9
$TREEDEPTH
 70
  3020
  9
$CMLSTYLE
  2
STANDARD
  9
$CMLJUST
 70
     0
  9
$CMLSCALE
 40
1.0
  9
$PROXYGRAPHICS
 70
     1
  9
$MEASUREMENT
 70
     0
  9
$CELWEIGHT
370
    -1
  9
$ENDCAPS
280
     0
  9
$JOINSTYLE
280
     0
  9
$LWDISPLAY
290
     0
  9
$INSUNITS
 70
     0
  9
$HYPERLINKBASE
  1

  9
$STYLESHEET
  1

  9
$XEDIT
290
     1
  9
$CEPSNTYPE
380
     0
  9
$PSTYLEMODE
290
     1
  9
$FINGERPRINTGUID
  2
{04C57976-4795-47DE-A734-667E3E5CFF87}
  9
$VERSIONGUID
  2
{28424D4A-3D4F-4CFC-A17B-3F788C2D29DF}
  9
$EXTNAMES
290
     1
  9
$PSVPSCALE
 40
0.0
  9
$OLESTARTUP
290
     0
  0
ENDSEC
  0
SECTION
  2
CLASSES
  0
CLASS
  1
ACDBDICTIONARYWDFLT
  2
AcDbDictionaryWithDefault
  3
ObjectDBX Classes
 90
        0
280
     0
281
     0
  0
CLASS
  1
ACDBPLACEHOLDER
  2
AcDbPlaceHolder
  3
ObjectDBX Classes
 90
        0
280
     0
281
     0
  0
CLASS
  1
LAYOUT
  2
AcDbLayout
  3
ObjectDBX Classes
 90
        0
280
     0
281
     0
  0
CLASS
  1
DICTIONARYVAR
  2
AcDbDictionaryVar
  3
ObjectDBX Classes
 90
        0
280
     0
281
     0
  0
CLASS
  1
MATERIAL
  2
AcDbMaterial
  3
ObjectDBX Classes
 90
     1153
280
     0
281
     0
  0
CLASS
  1
VISUALSTYLE
  2
AcDbVisualStyle
  3
ObjectDBX Classes
 90
     4095
280
     0
281
     0
  0
CLASS
  1
TABLESTYLE
  2
AcDbTableStyle
  3
ObjectDBX Classes
 90
     4095
280
     0
281
     0
  0
CLASS
  1
SCALE
  2
AcDbScale
  3
ObjectDBX Classes
 90
     1153
280
     0
281
     0
  0
CLASS
  1
MLEADERSTYLE
  2
AcDbMLeaderStyle
  3
ACDB_MLEADERSTYLE_CLASS
 90
     4095
280
     0
281
     0
  0
CLASS
  1
ACDBSECTIONVIEWSTYLE
  2
AcDbSectionViewStyle
  3
ObjectDBX Classes
 90
     1025
280
     0
281
     0
  0
CLASS
  1
ACDBDETAILVIEWSTYLE
  2
AcDbDetailViewStyle
  3
ObjectDBX Classes
 90
     1025
280
     0
281
     0
  0
CLASS
  1
CELLSTYLEMAP
  2
AcDbCellStyleMap
  3
ObjectDBX Classes
 90
     1152
280
     0
281
     0
  0
ENDSEC
  0
SECTION
  2
TABLES
  0
TABLE
  2
VPORT
  5
A493
330
0
100
AcDbSymbolTable
 70
     1
  0
VPORT
  5
A7C5
330
A493
100
AcDbSymbolTableRecord
100
AcDbViewportTableRecord
  2
*ACTIVE
 70
     0
 10
0.0
 20
0.0
 11
1.0
 21
1.0
 12
329.2805155451008
 22
153.5328205225614
 13
0.0
 23
0.0
 14
10.0
 24
10.0
 15
10.0
 25
10.0
 16
0.0
 26
0.0
 36
1.0
 17
0.0
 27
0.0
 37
0.0
 40
289.3578611541528
 41
2.35006605019815
 42
50.0
 43
0.0
 44
0.0
 50
0.0
 51
0.0
 71
     0
 72
   100
 73
     1
 74
     0
 75
     0
 76
     0
 77
     0
 78
     0
281
     0
 65
     1
110
0.0
120
0.0
130
0.0
111
1.0
121
0.0
131
0.0
112
0.0
122
1.0
132
0.0
 79
     0
146
0.0
1001
ACAD_NAV_VCDISPLAY
1070
     3
  0
ENDTAB
  0
TABLE
  2
LTYPE
  5
A490
330
0
100
AcDbSymbolTable
 70
     4
  0
LTYPE
  5
A49E
330
A490
100
AcDbSymbolTableRecord
100
AcDbLinetypeTableRecord
  2
BYBLOCK
 70
     0
  3

 72
    65
 73
     0
 40
0.0
  0
LTYPE
  5
A49F
330
A490
100
AcDbSymbolTableRecord
100
AcDbLinetypeTableRecord
  2
BYLAYER
 70
     0
  3

 72
    65
 73
     0
 40
0.0
  0
LTYPE
  5
A4A0
330
A490
100
AcDbSymbolTableRecord
100
AcDbLinetypeTableRecord
  2
CONTINUOUS
 70
     0
  3
Solid line
 72
    65
 73
     0
 40
0.0
  0
LTYPE
  5
A4AE
330
A490
100
AcDbSymbolTableRecord
100
AcDbLinetypeTableRecord
  2
DASHED
 70
     0
  3
__ __ __ __ __ __ __ __ __ __ __ __ __ __ __ __
 72
    65
 73
     2
 40
0.75
 49
0.5
 74
     0
 49
-0.25
 74
     0
  0
LTYPE
  5
A4AF
330
A490
100
AcDbSymbolTableRecord
100
AcDbLinetypeTableRecord
  2
CENTER
 70
     0
  3
____ _ ____ _ ____ _ ____ _ ____ _ ____ _ ____ 
 72
    65
 73
     4
 40
2.0
 49
1.25
 74
     0
 49
-0.25
 74
     0
 49
0.25
 74
     0
 49
-0.25
 74
     0
  0
LTYPE
  5
A4B0
330
A490
100
AcDbSymbolTableRecord
100
AcDbLinetypeTableRecord
  2
PHANTOM
 70
     0
  3
______  __  __  ______  __  __  ______  __  __ 
 72
    65
 73
     6
 40
2.5
 49
1.25
 74
     0
 49
-0.25
 74
     0
 49
0.25
 74
     0
 49
-0.25
 74
     0
 49
0.25
 74
     0
 49
-0.25
 74
     0
  0
ENDTAB
  0
TABLE
  2
LAYER
  5
A48D
330
0
100
AcDbSymbolTable
 70
     8
  0
LAYER
  5
A49B
102
{ACAD_XDICTIONARY
360
A81E
102
}
330
A48D
100
AcDbSymbolTableRecord
100
AcDbLayerTableRecord
  2
0
 70
     0
 62
     7
  6
CONTINUOUS
370
    -3
390
A7CC
  0
LAYER
  5
A4B1
102
{ACAD_XDICTIONARY
360
A820
102
}
330
A48D
100
AcDbSymbolTableRecord
100
AcDbLayerTableRecord
  2
4
 70
     0
 62
     1
  6
CENTER
370
    -3
390
A7CC
  0
LAYER
  5
A4B2
102
{ACAD_XDICTIONARY
360
A822
102
}
330
A48D
100
AcDbSymbolTableRecord
100
AcDbLayerTableRecord
  2
5
 70
     0
 62
     6
  6
PHANTOM
370
    -3
390
A7CC
  0
LAYER
  5
A4B3
102
{ACAD_XDICTIONARY
360
A824
102
}
330
A48D
100
AcDbSymbolTableRecord
100
AcDbLayerTableRecord
  2
1
 70
     0
 62
     7
  6
CONTINUOUS
370
    -3
390
A7CC
  0
LAYER
  5
A4B4
102
{ACAD_XDICTIONARY
360
A826
102
}
330
A48D
100
AcDbSymbolTableRecord
100
AcDbLayerTableRecord
  2
2
 70
     0
 62
     4
  6
CONTINUOUS
370
    -3
390
A7CC
  0
LAYER
  5
A4B5
102
{ACAD_XDICTIONARY
360
A828
102
}
330
A48D
100
AcDbSymbolTableRecord
100
AcDbLayerTableRecord
  2
3
 70
     0
 62
     2
  6
DASHED
370
    -3
390
A7CC
  0
LAYER
  5
A4B6
102
{ACAD_XDICTIONARY
360
A82A
102
}
330
A48D
100
AcDbSymbolTableRecord
100
AcDbLayerTableRecord
  2
6
 70
     0
 62
     5
  6
CONTINUOUS
370
    -3
390
A7CC
  0
LAYER
  5
A4B7
102
{ACAD_XDICTIONARY
360
A82C
102
}
330
A48D
100
AcDbSymbolTableRecord
100
AcDbLayerTableRecord
  2
7
 70
     0
 62
     3
  6
CONTINUOUS
370
    -3
390
A7CC
  0
ENDTAB
  0
TABLE
  2
STYLE
  5
A48E
330
0
100
AcDbSymbolTable
 70
     1
  0
STYLE
  5
A49C
330
A48E
100
AcDbSymbolTableRecord
100
AcDbTextStyleTableRecord
  2
STANDARD
 70
     0
 40
0.0
 41
1.0
 50
0.0
 71
     0
 42
5.0
  3
txt
  4

  0
ENDTAB
  0
TABLE
  2
VIEW
  5
A491
330
0
100
AcDbSymbolTable
 70
     0
  0
ENDTAB
  0
TABLE
  2
UCS
  5
A492
330
0
100
AcDbSymbolTable
 70
     0
  0
ENDTAB
  0
TABLE
  2
APPID
  5
A494
330
0
100
AcDbSymbolTable
 70
     3
  0
APPID
  5
A49D
330
A494
100
AcDbSymbolTableRecord
100
AcDbRegAppTableRecord
  2
ACAD
 70
     0
  0
APPID
  5
A838
330
A494
100
AcDbSymbolTableRecord
100
AcDbRegAppTableRecord
  2
ACAD_NAV_VCDISPLAY
 70
     0
  0
APPID
  5
A871
330
A494
100
AcDbSymbolTableRecord
100
AcDbRegAppTableRecord
  2
ACAD_MLEADERVER
 70
     0
  0
ENDTAB
  0
TABLE
  2
DIMSTYLE
  5
A495
330
0
100
AcDbSymbolTable
 70
     1
100
AcDbDimStyleTable
 71
     0
  0
DIMSTYLE
105
A4B9
330
A495
100
AcDbSymbolTableRecord
100
AcDbDimStyleTableRecord
  2
STANDARD
 70
     0
 41
2.5
 42
1.0
 43
10.0
 44
1.0
 73
     0
 74
     0
 77
     3
 78
     8
140
3.2
141
0.0
147
1.0
172
     1
173
     1
284
     8
285
     8
286
     8
340
A49C
  0
ENDTAB
  0
TABLE
  2
BLOCK_RECORD
  5
A48C
330
0
100
AcDbSymbolTable
 70
     0
  0
BLOCK_RECORD
  5
A4A9
102
{ACAD_XDICTIONARY
360
A7AB
102
}
330
A48C
100
AcDbSymbolTableRecord
100
AcDbBlockTableRecord
  2
*MODEL_SPACE
340
A81A
  0
BLOCK_RECORD
  5
A4A5
102
{ACAD_XDICTIONARY
360
A7A9
102
}
330
A48C
100
AcDbSymbolTableRecord
100
AcDbBlockTableRecord
  2
*PAPER_SPACE
340
A81B
  0
ENDTAB
  0
ENDSEC
  0
SECTION
  2
BLOCKS
  0
BLOCK
  5
A4AA
330
A4A9
100
AcDbEntity
  8
0
100
AcDbBlockBegin
  2
*MODEL_SPACE
 70
     0
 10
0.0
 20
0.0
 30
0.0
  3
*MODEL_SPACE
  1

  0
ENDBLK
  5
A4AB
330
A4A9
100
AcDbEntity
  8
0
100
AcDbBlockEnd
  0
BLOCK
  5
A4A6
330
A4A5
100
AcDbEntity
 67
     1
  8
0
100
AcDbBlockBegin
  2
*PAPER_SPACE
 70
     0
 10
0.0
 20
0.0
 30
0.0
  3
*PAPER_SPACE
  1

  0
ENDBLK
  5
A4A7
330
A4A5
100
AcDbEntity
 67
     1
  8
0
100
AcDbBlockEnd
  0
ENDSEC
  0
SECTION
  2
ENTITIES
  0
TEXT
  5
A4C1
330
A4A9
100
AcDbEntity
  8
7
  6
Continuous
100
AcDbText
 10
10.0
 20
18.0
 30
0.0
 40
3.0
  1
TYPE No.TCA-415E-N65
100
AcDbText
  0
TEXT
  5
A4C2
330
A4A9
100
AcDbEntity
  8
7
  6
Continuous
100
AcDbText
 10
10.0
 20
26.0
 30
0.0
 40
3.0
  1
CODE No.9760
100
AcDbText
  0
TEXT
  5
A4C3
330
A4A9
100
AcDbEntity
  8
1
  6
Continuous
100
AcDbText
 10
10.0
 20
10.0
 30
0.0
 40
1.399999999999999
  1
LAYER
100
AcDbText
  0
TEXT
  5
A4C4
330
A4A9
100
AcDbEntity
  8
1
  6
Continuous
100
AcDbText
 10
17.97951099999998
 20
10.04873699999998
 30
0.0
 40
1.399999999999999
  1
1
100
AcDbText
  0
TEXT
  5
A4C5
330
A4A9
100
AcDbEntity
  8
7
  6
Continuous
100
AcDbText
 10
29.97951099999999
 20
10.04873699999998
 30
0.0
 40
1.399999999999999
  1
7
100
AcDbText
  0
TEXT
  5
A4C6
330
A4A9
100
AcDbEntity
  8
4
  6
CENTER
100
AcDbText
 10
23.97951099999999
 20
10.04873699999998
 30
0.0
 40
1.399999999999999
  1
4
100
AcDbText
  0
TEXT
  5
A4C7
330
A4A9
100
AcDbEntity
  8
3
  6
DASHED
100
AcDbText
 10
21.979511
 20
10.04873699999998
 30
0.0
 40
1.399999999999999
  1
3
100
AcDbText
  0
TEXT
  5
A4C8
330
A4A9
100
AcDbEntity
  8
2
  6
Continuous
100
AcDbText
 10
19.97951099999998
 20
10.04873699999998
 30
0.0
 40
1.399999999999999
  1
2
100
AcDbText
  0
TEXT
  5
A4C9
330
A4A9
100
AcDbEntity
  8
6
  6
Continuous
100
AcDbText
 10
27.979511
 20
10.04873699999998
 30
0.0
 40
1.399999999999999
  1
6
100
AcDbText
  0
TEXT
  5
A4CA
330
A4A9
100
AcDbEntity
  8
5
  6
PHANTOM
100
AcDbText
 10
25.97951099999999
 20
10.04873699999998
 30
0.0
 40
1.399999999999999
  1
5
100
AcDbText
  0
LINE
  5
A4CB
330
A4A9
100
AcDbEntity
  8
4
  6
CENTER
100
AcDbLine
 10
202.0599209999998
 20
285.0734499999998
 30
0.0
 11
192.0599209999998
 21
285.0734499999998
 31
0.0
  0
LINE
  5
A4CC
330
A4A9
100
AcDbEntity
  8
4
  6
CENTER
100
AcDbLine
 10
197.0599209999998
 20
290.07345
 30
0.0
 11
197.0599209999998
 21
280.0734499999999
 31
0.0
  0
LINE
  5
A4CD
330
A4A9
100
AcDbEntity
  8
4
  6
CENTER
 48
0.8
100
AcDbLine
 10
169.059921
 20
297.0734499999998
 30
0.0
 11
169.059921
 21
240.0734499999999
 31
0.0
  0
LINE
  5
A4CE
330
A4A9
100
AcDbEntity
  8
4
  6
CENTER
 48
0.8
100
AcDbLine
 10
206.687835
 20
271.07345
 30
0.0
 11
107.559921
 21
271.07345
 31
0.0
  0
LINE
  5
A4CF
330
A4A9
100
AcDbEntity
  8
4
  6
CENTER
100
AcDbLine
 10
202.0599209999998
 20
257.073446
 30
0.0
 11
192.0599209999998
 21
257.073446
 31
0.0
  0
LINE
  5
A4D0
330
A4A9
100
AcDbEntity
  8
4
  6
CENTER
100
AcDbLine
 10
197.0599209999998
 20
252.07345
 30
0.0
 11
197.0599209999998
 21
262.0734499999999
 31
0.0
  0
LINE
  5
A4D1
330
A4A9
100
AcDbEntity
  8
1
  6
Continuous
100
AcDbLine
 10
141.0599209999998
 20
292.07345
 30
0.0
 11
197.0599209999998
 21
292.07345
 31
0.0
  0
LINE
  5
A4D2
330
A4A9
100
AcDbEntity
  8
4
  6
CENTER
100
AcDbLine
 10
136.0599209999998
 20
285.0734499999998
 30
0.0
 11
146.0599169999998
 21
285.0734499999998
 31
0.0
  0
LINE
  5
A4D3
330
A4A9
100
AcDbEntity
  8
4
  6
CENTER
100
AcDbLine
 10
141.0599209999998
 20
290.07345
 30
0.0
 11
141.0599209999998
 21
280.0734419999999
 31
0.0
  0
LINE
  5
A4D4
330
A4A9
100
AcDbEntity
  8
1
  6
Continuous
100
AcDbLine
 10
141.0599249999999
 20
250.07345
 30
0.0
 11
197.0599209999998
 21
250.07345
 31
0.0
  0
LINE
  5
A4D5
330
A4A9
100
AcDbEntity
  8
4
  6
CENTER
100
AcDbLine
 10
136.0599209999998
 20
257.073446
 30
0.0
 11
146.0599209999998
 21
257.073446
 31
0.0
  0
LINE
  5
A4D6
330
A4A9
100
AcDbEntity
  8
4
  6
CENTER
100
AcDbLine
 10
141.0599209999998
 20
252.0734459999999
 30
0.0
 11
141.0599209999998
 21
262.073442
 31
0.0
  0
LINE
  5
A4D7
330
A4A9
100
AcDbEntity
  8
1
  6
Continuous
100
AcDbLine
 10
28.55992099999999
 20
207.57345
 30
0.0
 11
70.559921
 21
207.57345
 31
0.0
  0
LINE
  5
A4D8
330
A4A9
100
AcDbEntity
  8
1
  6
Continuous
100
AcDbLine
 10
28.55992099999999
 20
205.57345
 30
0.0
 11
70.559921
 21
205.57345
 31
0.0
  0
LINE
  5
A4D9
330
A4A9
100
AcDbEntity
  8
1
  6
Continuous
100
AcDbLine
 10
32.75991799999999
 20
202.273447
 30
0.0
 11
66.359925
 21
202.273447
 31
0.0
  0
LINE
  5
A4DA
330
A4A9
100
AcDbEntity
  8
1
  6
Continuous
100
AcDbLine
 10
30.50239499999999
 20
204.133747
 30
0.0
 11
30.300758
 21
205.1690409999999
 31
0.0
  0
LINE
  5
A4DB
330
A4A9
100
AcDbEntity
  8
1
  6
Continuous
100
AcDbLine
 10
68.6175
 20
204.133735
 30
0.0
 11
68.81914499999999
 21
205.1690289999998
 31
0.0
  0
LINE
  5
A4DC
330
A4A9
100
AcDbEntity
  8
1
  6
Continuous
100
AcDbLine
 10
134.059921
 20
207.57345
 30
0.0
 11
204.0599209999998
 21
207.57345
 31
0.0
  0
LINE
  5
A4DD
330
A4A9
100
AcDbEntity
  8
1
  6
Continuous
100
AcDbLine
 10
134.059921
 20
205.5734579999999
 30
0.0
 11
134.059921
 21
207.5734579999999
 31
0.0
  0
LINE
  5
A4DE
330
A4A9
100
AcDbEntity
  8
1
  6
Continuous
100
AcDbLine
 10
134.059921
 20
205.57345
 30
0.0
 11
204.0599209999998
 21
205.57345
 31
0.0
  0
LINE
  5
A4DF
330
A4A9
100
AcDbEntity
  8
1
  6
Continuous
100
AcDbLine
 10
152.259918
 20
202.273447
 30
0.0
 11
185.859925
 21
202.273447
 31
0.0
  0
LINE
  5
A4E0
330
A4A9
100
AcDbEntity
  8
1
  6
Continuous
100
AcDbLine
 10
150.00235
 20
204.133742
 30
0.0
 11
149.8007069999998
 21
205.169037
 31
0.0
  0
LINE
  5
A4E1
330
A4A9
100
AcDbEntity
  8
1
  6
Continuous
100
AcDbLine
 10
204.0599209999998
 20
205.5734419999998
 30
0.0
 11
204.0599209999998
 21
207.57345
 31
0.0
  0
LINE
  5
A4E2
330
A4A9
100
AcDbEntity
  8
1
  6
Continuous
100
AcDbLine
 10
188.117477
 20
204.133734
 30
0.0
 11
188.319122
 21
205.1690279999998
 31
0.0
  0
LINE
  5
A4E3
330
A4A9
100
AcDbEntity
  8
4
  6
CENTER
100
AcDbLine
 10
141.0599209999998
 20
200.5734499999999
 30
0.0
 11
141.0599209999998
 21
212.57345
 31
0.0
  0
LINE
  5
A4E4
330
A4A9
100
AcDbEntity
  8
4
  6
CENTER
100
AcDbLine
 10
197.0599209999998
 20
200.5734499999999
 30
0.0
 11
197.0599209999998
 21
212.57345
 31
0.0
  0
LINE
  5
A4E5
330
A4A9
100
AcDbEntity
  8
1
  6
Continuous
100
AcDbLine
 10
28.55992099999999
 20
207.57345
 30
0.0
 11
28.55992099999999
 21
205.57345
 31
0.0
  0
LINE
  5
A4E6
330
A4A9
100
AcDbEntity
  8
1
  6
Continuous
100
AcDbLine
 10
70.559921
 20
207.57345
 30
0.0
 11
70.559921
 21
205.57345
 31
0.0
  0
LINE
  5
A4E7
330
A4A9
100
AcDbEntity
  8
4
  6
CENTER
100
AcDbLine
 10
35.559921
 20
212.57345
 30
0.0
 11
35.559921
 21
200.5734499999999
 31
0.0
  0
LINE
  5
A4E8
330
A4A9
100
AcDbEntity
  8
4
  6
CENTER
100
AcDbLine
 10
63.55992099999999
 20
212.57345
 30
0.0
 11
63.55992099999999
 21
200.5734499999999
 31
0.0
  0
LINE
  5
A4E9
330
A4A9
100
AcDbEntity
  8
4
  6
CENTER
 48
0.8
100
AcDbLine
 10
49.559921
 20
212.57345
 30
0.0
 11
49.559921
 21
120.5734459999999
 31
0.0
  0
LINE
  5
A4EA
330
A4A9
100
AcDbEntity
  8
4
  6
CENTER
 48
0.8
100
AcDbLine
 10
169.059921
 20
212.57345
 30
0.0
 11
169.059921
 21
178.1804979999997
 31
0.0
  0
LINE
  5
A4EB
330
A4A9
100
AcDbEntity
  8
1
  6
Continuous
100
AcDbLine
 10
153.059921
 20
201.4734489999999
 30
0.0
 11
185.059921
 21
201.4734489999999
 31
0.0
  0
LINE
  5
A4EC
330
A4A9
100
AcDbEntity
  8
1
  6
Continuous
100
AcDbLine
 10
179.409973
 20
194.027858
 30
0.0
 11
188.0599209999997
 21
194.32992
 31
0.0
  0
LINE
  5
A4ED
330
A4A9
100
AcDbEntity
  8
1
  6
Continuous
100
AcDbLine
 10
136.85992
 20
196.275405
 30
0.0
 11
154.3383629999999
 21
199.3573259999998
 31
0.0
  0
LINE
  5
A4EE
330
A4A9
100
AcDbEntity
  8
1
  6
Continuous
100
AcDbLine
 10
137.2072139999999
 20
194.3057889999998
 30
0.0
 11
139.964681
 21
194.792005
 31
0.0
  0
LINE
  5
A4EF
330
A4A9
100
AcDbEntity
  8
1
  6
Continuous
100
AcDbLine
 10
136.859926
 20
196.275404
 30
0.0
 11
137.2072219999997
 21
194.305787
 31
0.0
  0
LINE
  5
A4F0
330
A4A9
100
AcDbEntity
  8
1
  6
Continuous
100
AcDbLine
 10
156.6599189999998
 20
198.7967629999999
 30
0.0
 11
156.6599189999998
 21
166.391594
 31
0.0
  0
LINE
  5
A4F1
330
A4A9
100
AcDbEntity
  8
4
  6
CENTER
 48
0.8
100
AcDbLine
 10
182.559921
 20
158.0734459999999
 30
0.0
 11
107.559921
 21
158.0734459999999
 31
0.0
  0
LINE
  5
A4F2
330
A4A9
100
AcDbEntity
  8
4
  6
CENTER
 48
0.8
100
AcDbLine
 10
145.059921
 20
191.4662649999999
 30
0.0
 11
145.059921
 21
120.5734459999999
 31
0.0
  0
LINE
  5
A4F3
330
A4A9
100
AcDbEntity
  8
1
  6
Continuous
100
AcDbLine
 10
139.789701
 20
196.7920039999999
 30
0.0
 11
139.964679
 21
194.792005
 31
0.0
  0
LINE
  5
A4F4
330
A4A9
100
AcDbEntity
  8
1
  6
Continuous
100
AcDbLine
 10
33.559921
 20
201.4734489999999
 30
0.0
 11
65.559921
 21
201.4734489999999
 31
0.0
  0
LINE
  5
A4F5
330
A4A9
100
AcDbEntity
  8
4
  6
CENTER
 48
0.8
100
AcDbLine
 10
22.961853
 20
158.0734459999999
 30
0.0
 11
83.64938999999997
 21
158.0734459999999
 31
0.0
  0
LINE
  5
A4F6
330
A4A9
100
AcDbEntity
  8
1
  6
Continuous
100
AcDbLine
 10
34.57045
 20
149.5734459999999
 30
0.0
 11
36.57045699999999
 21
149.5734459999999
 31
0.0
  0
LINE
  5
A4F7
330
A4A9
100
AcDbEntity
  8
1
  6
Continuous
100
AcDbLine
 10
64.549392
 20
149.5734459999999
 30
0.0
 11
62.549385
 21
149.5734459999999
 31
0.0
  0
LINE
  5
A4F8
330
A4A9
100
AcDbEntity
  8
1
  6
Continuous
100
AcDbLine
 10
34.57045
 20
163.373445
 30
0.0
 11
34.072471
 21
163.373445
 31
0.0
  0
LINE
  5
A4F9
330
A4A9
100
AcDbEntity
  8
1
  6
Continuous
100
AcDbLine
 10
69.449393
 20
163.6734449999998
 30
0.0
 11
72.64938999999998
 21
163.6734449999998
 31
0.0
  0
LINE
  5
A4FA
330
A4A9
100
AcDbEntity
  8
1
  6
Continuous
100
AcDbLine
 10
69.449393
 20
161.0734459999999
 30
0.0
 11
72.64938999999998
 21
161.0734459999999
 31
0.0
  0
LINE
  5
A4FB
330
A4A9
100
AcDbEntity
  8
1
  6
Continuous
100
AcDbLine
 10
73.64938999999998
 20
161.873449
 30
0.0
 11
73.64938999999998
 21
154.273451
 31
0.0
  0
LINE
  5
A4FC
330
A4A9
100
AcDbEntity
  8
1
  6
Continuous
100
AcDbLine
 10
69.449393
 20
152.473448
 30
0.0
 11
72.64938999999998
 21
152.473448
 31
0.0
  0
LINE
  5
A4FD
330
A4A9
100
AcDbEntity
  8
1
  6
Continuous
100
AcDbLine
 10
69.52619099999998
 20
155.0734459999999
 30
0.0
 11
72.64938999999998
 21
155.0734459999999
 31
0.0
  0
LINE
  5
A4FE
330
A4A9
100
AcDbEntity
  8
1
  6
Continuous
100
AcDbLine
 10
74.64938999999998
 20
161.0734459999999
 30
0.0
 11
73.64938999999998
 21
161.0734459999999
 31
0.0
  0
LINE
  5
A4FF
330
A4A9
100
AcDbEntity
  8
1
  6
Continuous
100
AcDbLine
 10
74.64938999999998
 20
155.0734459999999
 30
0.0
 11
73.64938999999998
 21
155.0734459999999
 31
0.0
  0
LINE
  5
A500
330
A4A9
100
AcDbEntity
  8
1
  6
Continuous
100
AcDbLine
 10
75.64938999999998
 20
160.0734459999999
 30
0.0
 11
75.64938999999998
 21
156.0734459999999
 31
0.0
  0
LINE
  5
A501
330
A4A9
100
AcDbEntity
  8
1
  6
Continuous
100
AcDbLine
 10
73.64938999999998
 20
154.273371
 30
0.0
 11
72.64938999999998
 21
152.473448
 31
0.0
  0
LINE
  5
A502
330
A4A9
100
AcDbEntity
  8
1
  6
Continuous
100
AcDbLine
 10
73.64938999999998
 20
161.8734719999999
 30
0.0
 11
72.64938999999998
 21
163.673441
 31
0.0
  0
LINE
  5
A503
330
A4A9
100
AcDbEntity
  8
1
  6
Continuous
100
AcDbLine
 10
61.55992099999998
 20
161.3234459999999
 30
0.0
 11
62.549385
 21
161.3234459999999
 31
0.0
  0
LINE
  5
A504
330
A4A9
100
AcDbEntity
  8
1
  6
Continuous
100
AcDbLine
 10
61.55992099999998
 20
154.8234459999999
 30
0.0
 11
62.549385
 21
154.8234459999999
 31
0.0
  0
LINE
  5
A505
330
A4A9
100
AcDbEntity
  8
1
  6
Continuous
100
AcDbLine
 10
139.964679
 20
194.792005
 30
0.0
 11
138.296679
 21
172.5274879999998
 31
0.0
  0
LINE
  5
A506
330
A4A9
100
AcDbEntity
  8
1
  6
Continuous
100
AcDbLine
 10
172.7965799999997
 20
190.0938039999997
 30
0.0
 11
156.875829
 21
163.0429659999998
 31
0.0
  0
ARC
  5
A507
330
A4A9
100
AcDbEntity
  8
1
  6
Continuous
100
AcDbCircle
 10
197.0599209999998
 20
285.0734499999998
 30
0.0
 40
7.0
100
AcDbArc
 50
340.76692
 51
89.99996800000003
  0
CIRCLE
  5
A508
330
A4A9
100
AcDbEntity
  8
1
  6
Continuous
100
AcDbCircle
 10
197.0599209999998
 20
285.0734499999998
 30
0.0
 40
3.25
  0
ARC
  5
A509
330
A4A9
100
AcDbEntity
  8
1
  6
Continuous
100
AcDbCircle
 10
197.0599209999998
 20
257.0734499999999
 30
0.0
 40
7.0
100
AcDbArc
 50
270.0
 51
19.233055
  0
ARC
  5
A50A
330
A4A9
100
AcDbEntity
  8
1
  6
Continuous
100
AcDbCircle
 10
237.187831
 20
271.073458
 30
0.0
 40
35.49999600000001
100
AcDbArc
 50
160.7508329999998
 51
199.23307
  0
CIRCLE
  5
A50B
330
A4A9
100
AcDbEntity
  8
1
  6
Continuous
100
AcDbCircle
 10
197.0599209999998
 20
257.0734499999999
 30
0.0
 40
3.25
  0
ARC
  5
A50C
330
A4A9
100
AcDbEntity
  8
1
  6
Continuous
100
AcDbCircle
 10
141.0599209999998
 20
285.073442
 30
0.0
 40
7.0
100
AcDbArc
 50
89.99998199999996
 51
199.23301
  0
CIRCLE
  5
A50D
330
A4A9
100
AcDbEntity
  8
1
  6
Continuous
100
AcDbCircle
 10
141.0599209999998
 20
285.0734499999998
 30
0.0
 40
3.25
  0
ARC
  5
A50E
330
A4A9
100
AcDbEntity
  8
1
  6
Continuous
100
AcDbCircle
 10
141.0599249999999
 20
257.0734499999999
 30
0.0
 40
7.0
100
AcDbArc
 50
160.76689
 51
269.99995
  0
ARC
  5
A50F
330
A4A9
100
AcDbEntity
  8
1
  6
Continuous
100
AcDbCircle
 10
100.932007
 20
271.073442
 30
0.0
 40
35.49999600000001
100
AcDbArc
 50
340.7668799999999
 51
19.241066
  0
CIRCLE
  5
A510
330
A4A9
100
AcDbEntity
  8
1
  6
Continuous
100
AcDbCircle
 10
141.0599209999998
 20
257.0734419999999
 30
0.0
 40
3.25
  0
CIRCLE
  5
A511
330
A4A9
100
AcDbEntity
  8
1
  6
Continuous
100
AcDbCircle
 10
169.059921
 20
271.07345
 30
0.0
 40
17.25
  0
CIRCLE
  5
A512
330
A4A9
100
AcDbEntity
  8
1
  6
Continuous
100
AcDbCircle
 10
169.059921
 20
271.07345
 30
0.0
 40
15.75
  0
CIRCLE
  5
A513
330
A4A9
100
AcDbEntity
  8
1
  6
Continuous
100
AcDbCircle
 10
169.059921
 20
271.07345
 30
0.0
 40
8.3
  0
CIRCLE
  5
A514
330
A4A9
100
AcDbEntity
  8
1
  6
Continuous
100
AcDbCircle
 10
169.059921
 20
271.07345
 30
0.0
 40
6.75
  0
ARC
  5
A515
330
A4A9
100
AcDbEntity
  8
1
  6
Continuous
100
AcDbCircle
 10
161.598602
 20
202.6179519999999
 30
0.0
 40
1.984499999999996
100
AcDbArc
 50
324.7797499999998
 51
333.1367799999998
  0
ARC
  5
A516
330
A4A9
100
AcDbEntity
  8
1
  6
Continuous
100
AcDbCircle
 10
29.80992099999999
 20
205.0734499999999
 30
0.0
 40
0.5
100
AcDbArc
 50
11.021507
 51
90.00000900000001
  0
ARC
  5
A517
330
A4A9
100
AcDbEntity
  8
1
  6
Continuous
100
AcDbCircle
 10
32.74549799999999
 20
205.0734119999999
 30
0.0
 40
2.799999999999998
100
AcDbArc
 50
270.00002
 51
271.65221
  0
ARC
  5
A518
330
A4A9
100
AcDbEntity
  8
1
  6
Continuous
100
AcDbCircle
 10
32.75991799999999
 20
204.57345
 30
0.0
 40
2.299999999999998
100
AcDbArc
 50
191.02148
 51
269.9999899999999
  0
ARC
  5
A519
330
A4A9
100
AcDbEntity
  8
1
  6
Continuous
100
AcDbCircle
 10
69.309921
 20
205.0734499999999
 30
0.0
 40
0.5
100
AcDbArc
 50
89.999955
 51
168.97846
  0
ARC
  5
A51A
330
A4A9
100
AcDbEntity
  8
1
  6
Continuous
100
AcDbCircle
 10
66.35992399999999
 20
204.57345
 30
0.0
 40
2.299999999999998
100
AcDbArc
 50
270.00002
 51
348.9785299999998
  0
ARC
  5
A51B
330
A4A9
100
AcDbEntity
  8
1
  6
Continuous
100
AcDbCircle
 10
53.48054499999999
 20
202.6179519999999
 30
0.0
 40
1.984499999999996
100
AcDbArc
 50
189.9969899999999
 51
215.2202999999999
  0
ARC
  5
A51C
330
A4A9
100
AcDbEntity
  8
1
  6
Continuous
100
AcDbCircle
 10
49.559921
 20
202.6179519999999
 30
0.0
 40
1.984499999999996
100
AcDbArc
 50
324.7796799999998
 51
350.00299
  0
ARC
  5
A51D
330
A4A9
100
AcDbEntity
  8
1
  6
Continuous
100
AcDbCircle
 10
57.02124
 20
202.6179519999999
 30
0.0
 40
1.984499999999996
100
AcDbArc
 50
206.86325
 51
215.2202999999999
  0
ARC
  5
A51E
330
A4A9
100
AcDbEntity
  8
1
  6
Continuous
100
AcDbCircle
 10
59.83890500000001
 20
202.6179519999999
 30
0.0
 40
1.984499999999996
100
AcDbArc
 50
324.77981
 51
350.00299
  0
ARC
  5
A51F
330
A4A9
100
AcDbEntity
  8
1
  6
Continuous
100
AcDbCircle
 10
61.66050699999999
 20
202.6179519999999
 30
0.0
 40
1.984499999999996
100
AcDbArc
 50
324.7797499999998
 51
350.00299
  0
ARC
  5
A520
330
A4A9
100
AcDbEntity
  8
1
  6
Continuous
100
AcDbCircle
 10
62.30992099999999
 20
202.6179519999999
 30
0.0
 40
1.984499999999996
100
AcDbArc
 50
324.7797499999998
 51
350.00299
  0
ARC
  5
A521
330
A4A9
100
AcDbEntity
  8
1
  6
Continuous
100
AcDbCircle
 10
45.639297
 20
202.6179519999999
 30
0.0
 40
1.984499999999996
100
AcDbArc
 50
189.99704
 51
215.2202999999999
  0
ARC
  5
A522
330
A4A9
100
AcDbEntity
  8
1
  6
Continuous
100
AcDbCircle
 10
49.559921
 20
202.6179519999999
 30
0.0
 40
1.984499999999996
100
AcDbArc
 50
189.9970599999999
 51
215.2202999999999
  0
ARC
  5
A523
330
A4A9
100
AcDbEntity
  8
1
  6
Continuous
100
AcDbCircle
 10
42.098602
 20
202.6179519999999
 30
0.0
 40
1.984499999999996
100
AcDbArc
 50
189.9970599999999
 51
215.2202999999999
  0
ARC
  5
A524
330
A4A9
100
AcDbEntity
  8
1
  6
Continuous
100
AcDbCircle
 10
39.280929
 20
202.6179519999999
 30
0.0
 40
1.984499999999996
100
AcDbArc
 50
189.9970599999999
 51
215.2202999999999
  0
ARC
  5
A525
330
A4A9
100
AcDbEntity
  8
1
  6
Continuous
100
AcDbCircle
 10
37.45933499999999
 20
202.6179519999999
 30
0.0
 40
1.984499999999996
100
AcDbArc
 50
189.9970599999999
 51
215.2202999999999
  0
ARC
  5
A526
330
A4A9
100
AcDbEntity
  8
1
  6
Continuous
100
AcDbCircle
 10
36.809921
 20
202.6179519999999
 30
0.0
 40
1.984499999999996
100
AcDbArc
 50
189.9970599999999
 51
215.2202999999999
  0
ARC
  5
A527
330
A4A9
100
AcDbEntity
  8
1
  6
Continuous
100
AcDbCircle
 10
149.309921
 20
205.0734499999999
 30
0.0
 40
0.5
100
AcDbArc
 50
11.021507
 51
90.00000900000001
  0
ARC
  5
A528
330
A4A9
100
AcDbEntity
  8
1
  6
Continuous
100
AcDbCircle
 10
152.245498
 20
205.0734119999999
 30
0.0
 40
2.799999999999998
100
AcDbArc
 50
270.00002
 51
271.65221
  0
ARC
  5
A529
330
A4A9
100
AcDbEntity
  8
1
  6
Continuous
100
AcDbCircle
 10
152.259918
 20
204.57345
 30
0.0
 40
2.299999999999998
100
AcDbArc
 50
191.02148
 51
269.9999899999999
  0
ARC
  5
A52A
330
A4A9
100
AcDbEntity
  8
1
  6
Continuous
100
AcDbCircle
 10
185.859924
 20
204.57345
 30
0.0
 40
2.299999999999998
100
AcDbArc
 50
270.00002
 51
348.9785299999998
  0
ARC
  5
A52B
330
A4A9
100
AcDbEntity
  8
1
  6
Continuous
100
AcDbCircle
 10
172.980545
 20
202.6179519999999
 30
0.0
 40
1.984499999999996
100
AcDbArc
 50
189.9969899999999
 51
215.2202299999999
  0
ARC
  5
A52C
330
A4A9
100
AcDbEntity
  8
1
  6
Continuous
100
AcDbCircle
 10
169.059921
 20
202.6179519999999
 30
0.0
 40
1.984499999999996
100
AcDbArc
 50
324.7797499999998
 51
350.00299
  0
ARC
  5
A52D
330
A4A9
100
AcDbEntity
  8
1
  6
Continuous
100
AcDbCircle
 10
176.5212399999998
 20
202.6179519999999
 30
0.0
 40
1.984499999999996
100
AcDbArc
 50
206.86325
 51
215.2202299999999
  0
ARC
  5
A52E
330
A4A9
100
AcDbEntity
  8
1
  6
Continuous
100
AcDbCircle
 10
179.338905
 20
202.6179519999999
 30
0.0
 40
1.984499999999996
100
AcDbArc
 50
324.7797499999998
 51
350.00299
  0
ARC
  5
A52F
330
A4A9
100
AcDbEntity
  8
1
  6
Continuous
100
AcDbCircle
 10
181.1605069999997
 20
202.6179519999999
 30
0.0
 40
1.984499999999996
100
AcDbArc
 50
324.7797499999998
 51
350.00299
  0
ARC
  5
A530
330
A4A9
100
AcDbEntity
  8
1
  6
Continuous
100
AcDbCircle
 10
181.8099209999997
 20
202.6179519999999
 30
0.0
 40
1.984499999999996
100
AcDbArc
 50
324.7796799999998
 51
350.00299
  0
ARC
  5
A531
330
A4A9
100
AcDbEntity
  8
1
  6
Continuous
100
AcDbCircle
 10
165.139297
 20
202.6179519999999
 30
0.0
 40
1.984499999999996
100
AcDbArc
 50
189.99704
 51
215.2202299999999
  0
ARC
  5
A532
330
A4A9
100
AcDbEntity
  8
1
  6
Continuous
100
AcDbCircle
 10
169.059921
 20
202.6179519999999
 30
0.0
 40
1.984499999999996
100
AcDbArc
 50
189.9970599999999
 51
215.2202299999999
  0
ARC
  5
A533
330
A4A9
100
AcDbEntity
  8
1
  6
Continuous
100
AcDbCircle
 10
161.598602
 20
202.6179519999999
 30
0.0
 40
1.984499999999996
100
AcDbArc
 50
189.9970599999999
 51
215.2202299999999
  0
ARC
  5
A534
330
A4A9
100
AcDbEntity
  8
1
  6
Continuous
100
AcDbCircle
 10
158.7809369999999
 20
202.6179519999999
 30
0.0
 40
1.984499999999996
100
AcDbArc
 50
189.9970599999999
 51
215.2202299999999
  0
ARC
  5
A535
330
A4A9
100
AcDbEntity
  8
1
  6
Continuous
100
AcDbCircle
 10
156.959335
 20
202.6179519999999
 30
0.0
 40
1.984499999999996
100
AcDbArc
 50
189.99707
 51
215.2202299999999
  0
ARC
  5
A536
330
A4A9
100
AcDbEntity
  8
1
  6
Continuous
100
AcDbCircle
 10
156.309921
 20
202.6179519999999
 30
0.0
 40
1.984499999999996
100
AcDbArc
 50
189.9970599999999
 51
215.2202299999999
  0
ARC
  5
A537
330
A4A9
100
AcDbEntity
  8
1
  6
Continuous
100
AcDbCircle
 10
172.980545
 20
202.6179519999999
 30
0.0
 40
1.984499999999996
100
AcDbArc
 50
324.7797499999998
 51
350.00299
  0
ARC
  5
A538
330
A4A9
100
AcDbEntity
  8
1
  6
Continuous
100
AcDbCircle
 10
176.5212399999998
 20
202.6179519999999
 30
0.0
 40
1.984499999999996
100
AcDbArc
 50
324.7797499999998
 51
350.00299
  0
ARC
  5
A539
330
A4A9
100
AcDbEntity
  8
1
  6
Continuous
100
AcDbCircle
 10
45.639297
 20
202.6179519999999
 30
0.0
 40
1.984499999999996
100
AcDbArc
 50
324.7796799999998
 51
350.0030499999998
  0
ARC
  5
A53A
330
A4A9
100
AcDbEntity
  8
1
  6
Continuous
100
AcDbCircle
 10
42.098602
 20
202.6179519999999
 30
0.0
 40
1.984499999999996
100
AcDbArc
 50
324.7796799999998
 51
333.1367799999998
  0
ARC
  5
A53B
330
A4A9
100
AcDbEntity
  8
1
  6
Continuous
100
AcDbCircle
 10
53.48054499999999
 20
202.6179519999999
 30
0.0
 40
1.984499999999996
100
AcDbArc
 50
324.7796799999998
 51
350.00299
  0
ARC
  5
A53C
330
A4A9
100
AcDbEntity
  8
1
  6
Continuous
100
AcDbCircle
 10
57.02124
 20
202.6179519999999
 30
0.0
 40
1.984499999999996
100
AcDbArc
 50
324.7796799999998
 51
350.00299
  0
ARC
  5
A53D
330
A4A9
100
AcDbEntity
  8
1
  6
Continuous
100
AcDbCircle
 10
165.139297
 20
202.6179519999999
 30
0.0
 40
1.984499999999996
100
AcDbArc
 50
324.7797499999998
 51
350.0030499999998
  0
ARC
  5
A53E
330
A4A9
100
AcDbEntity
  8
1
  6
Continuous
100
AcDbCircle
 10
179.6891629999999
 20
186.032733
 30
0.0
 40
8.0
100
AcDbArc
 50
92.00003199999995
 51
149.52109
  0
CIRCLE
  5
A53F
330
A4A9
100
AcDbEntity
  8
1
  6
Continuous
100
AcDbCircle
 10
390.0599209999999
 20
158.0734459999999
 30
0.0
 40
5.4
  0
ARC
  5
A540
330
A4A9
100
AcDbEntity
  8
1
  6
Continuous
100
AcDbCircle
 10
84.49803499999999
 20
182.7341529999999
 30
0.0
 40
54.0
100
AcDbArc
 50
182.743332
 51
201.0100459999999
  0
ARC
  5
A541
330
A4A9
100
AcDbEntity
  8
1
  6
Continuous
100
AcDbCircle
 10
49.559921
 20
356.27345
 30
0.0
 40
162.0
100
AcDbArc
 50
265.512
 51
274.4879879999999
  0
ARC
  5
A542
330
A4A9
100
AcDbEntity
  8
1
  6
Continuous
100
AcDbCircle
 10
36.859932
 20
194.471099
 30
0.0
 40
0.3
100
AcDbArc
 50
85.51197399999997
 51
164.7781929999998
  0
ARC
  5
A543
330
A4A9
100
AcDbEntity
  8
1
  6
Continuous
100
AcDbCircle
 10
49.559921
 20
358.2753999999998
 30
0.0
 40
162.0
100
AcDbArc
 50
265.1518299999997
 51
274.8481579999999
  0
ARC
  5
A544
330
A4A9
100
AcDbEntity
  8
1
  6
Continuous
100
AcDbCircle
 10
62.25991
 20
194.471099
 30
0.0
 40
0.3
100
AcDbArc
 50
15.221807
 51
94.48798999999999
  0
ARC
  5
A545
330
A4A9
100
AcDbEntity
  8
1
  6
Continuous
100
AcDbCircle
 10
49.559921
 20
298.67345
 30
0.0
 40
100.0
100
AcDbArc
 50
262.53039
 51
277.4695899999999
  0
ARC
  5
A546
330
A4A9
100
AcDbEntity
  8
1
  6
Continuous
100
AcDbCircle
 10
36.024132
 20
195.363111
 30
0.0
 40
1.5
100
AcDbArc
 50
95.95749199999996
 51
165.7245169999999
  0
ARC
  5
A547
330
A4A9
100
AcDbEntity
  8
1
  6
Continuous
100
AcDbCircle
 10
63.09571
 20
195.363111
 30
0.0
 40
1.5
100
AcDbArc
 50
14.27548299999999
 51
84.042472
  0
ARC
  5
A548
330
A4A9
100
AcDbEntity
  8
1
  6
Continuous
100
AcDbCircle
 10
34.072471
 20
161.373445
 30
0.0
 40
2.0
100
AcDbArc
 50
90.00001800000005
 51
180.0579199999999
  0
ARC
  5
A549
330
A4A9
100
AcDbEntity
  8
1
  6
Continuous
100
AcDbCircle
 10
67.53689399999998
 20
153.7734429999999
 30
0.0
 40
2.3125
100
AcDbArc
 50
310.847908
 51
34.20541
  0
ARC
  5
A54A
330
A4A9
100
AcDbEntity
  8
1
  6
Continuous
100
AcDbCircle
 10
58.39939399999999
 20
158.0734459999999
 30
0.0
 40
11.450001
100
AcDbArc
 50
344.8107199999999
 51
15.189285
  0
ARC
  5
A54B
330
A4A9
100
AcDbEntity
  8
1
  6
Continuous
100
AcDbCircle
 10
67.53689399999998
 20
162.3734489999999
 30
0.0
 40
2.3125
100
AcDbArc
 50
325.79455
 51
49.15209199999999
  0
ARC
  5
A54C
330
A4A9
100
AcDbEntity
  8
1
  6
Continuous
100
AcDbCircle
 10
70.736892
 20
162.3734489999999
 30
0.0
 40
2.312498999999998
100
AcDbArc
 50
325.79457
 51
34.20545
  0
ARC
  5
A54D
330
A4A9
100
AcDbEntity
  8
1
  6
Continuous
100
AcDbCircle
 10
61.599395
 20
158.0734459999999
 30
0.0
 40
11.44999799999999
100
AcDbArc
 50
344.8107499999999
 51
15.18927
  0
ARC
  5
A54E
330
A4A9
100
AcDbEntity
  8
1
  6
Continuous
100
AcDbCircle
 10
70.736892
 20
153.7734509999999
 30
0.0
 40
2.312498999999998
100
AcDbArc
 50
325.79457
 51
34.20545
  0
LINE
  5
A54F
330
A4A9
100
AcDbEntity
  8
1
  6
Continuous
100
AcDbLine
 10
178.009275
 20
83.07344999999996
 30
0.0
 11
197.0599209999998
 21
83.07344999999996
 31
0.0
  0
LINE
  5
A550
330
A4A9
100
AcDbEntity
  8
4
  6
CENTER
 48
0.8
100
AcDbLine
 10
206.687835
 20
62.07345
 30
0.0
 11
107.559921
 21
62.07345
 31
0.0
  0
LINE
  5
A551
330
A4A9
100
AcDbEntity
  8
4
  6
CENTER
 48
0.8
100
AcDbLine
 10
169.059921
 20
36.07345
 30
0.0
 11
169.059921
 21
96.171503
 31
0.0
  0
LINE
  5
A552
330
A4A9
100
AcDbEntity
  8
4
  6
CENTER
100
AcDbLine
 10
136.0599209999998
 20
76.07345399999998
 30
0.0
 11
146.0599209999998
 21
76.07345399999998
 31
0.0
  0
LINE
  5
A553
330
A4A9
100
AcDbEntity
  8
4
  6
CENTER
100
AcDbLine
 10
141.0599209999998
 20
81.07345399999998
 30
0.0
 11
141.0599209999998
 21
71.073458
 31
0.0
  0
LINE
  5
A554
330
A4A9
100
AcDbEntity
  8
4
  6
CENTER
100
AcDbLine
 10
141.0599209999998
 20
43.07345
 30
0.0
 11
141.0599209999998
 21
53.073458
 31
0.0
  0
LINE
  5
A555
330
A4A9
100
AcDbEntity
  8
4
  6
CENTER
100
AcDbLine
 10
136.0599209999998
 20
48.07345
 30
0.0
 11
146.0599169999998
 21
48.07345
 31
0.0
  0
ARC
  5
A556
330
A4A9
100
AcDbEntity
  8
1
  6
Continuous
100
AcDbCircle
 10
237.187831
 20
62.07344200000001
 30
0.0
 40
35.49999600000001
100
AcDbArc
 50
160.7669299999997
 51
199.2491669999998
  0
ARC
  5
A557
330
A4A9
100
AcDbEntity
  8
1
  6
Continuous
100
AcDbCircle
 10
197.0599209999998
 20
76.07344999999998
 30
0.0
 40
7.0
100
AcDbArc
 50
340.766945
 51
90.0
  0
LINE
  5
A558
330
A4A9
100
AcDbEntity
  8
4
  6
CENTER
100
AcDbLine
 10
202.0599209999998
 20
76.07345399999998
 30
0.0
 11
192.0599209999998
 21
76.07345399999998
 31
0.0
  0
CIRCLE
  5
A559
330
A4A9
100
AcDbEntity
  8
1
  6
Continuous
100
AcDbCircle
 10
197.0599209999998
 20
76.07344999999998
 30
0.0
 40
3.25
  0
LINE
  5
A55A
330
A4A9
100
AcDbEntity
  8
4
  6
CENTER
100
AcDbLine
 10
197.0599209999998
 20
81.07344999999998
 30
0.0
 11
197.0599209999998
 21
71.07344999999998
 31
0.0
  0
CIRCLE
  5
A55B
330
A4A9
100
AcDbEntity
  8
1
  6
Continuous
100
AcDbCircle
 10
197.0599209999998
 20
48.07345
 30
0.0
 40
3.25
  0
ARC
  5
A55C
330
A4A9
100
AcDbEntity
  8
1
  6
Continuous
100
AcDbCircle
 10
197.0599209999998
 20
48.07345
 30
0.0
 40
7.0
100
AcDbArc
 50
270.000032
 51
19.23307999999997
  0
LINE
  5
A55D
330
A4A9
100
AcDbEntity
  8
4
  6
CENTER
100
AcDbLine
 10
197.0599209999998
 20
43.07345
 30
0.0
 11
197.0599209999998
 21
53.07345
 31
0.0
  0
LINE
  5
A55E
330
A4A9
100
AcDbEntity
  8
4
  6
CENTER
100
AcDbLine
 10
202.0599209999998
 20
48.07345
 30
0.0
 11
192.0599209999998
 21
48.07345
 31
0.0
  0
LINE
  5
A55F
330
A4A9
100
AcDbEntity
  8
1
  6
Continuous
100
AcDbLine
 10
30.559921
 20
198.4734489999999
 30
0.0
 11
30.559921
 21
180.149611
 31
0.0
  0
LINE
  5
A560
330
A4A9
100
AcDbEntity
  8
1
  6
Continuous
100
AcDbLine
 10
68.559921
 20
198.4734489999999
 30
0.0
 11
68.559921
 21
184.054784
 31
0.0
  0
ARC
  5
A561
330
A4A9
100
AcDbEntity
  8
1
  6
Continuous
100
AcDbCircle
 10
65.559921
 20
198.4734489999999
 30
0.0
 40
3.0
100
AcDbArc
 50
0.0
 51
90.0
  0
ARC
  5
A562
330
A4A9
100
AcDbEntity
  8
1
  6
Continuous
100
AcDbCircle
 10
33.559921
 20
198.4734489999999
 30
0.0
 40
3.0
100
AcDbArc
 50
90.0
 51
180.0
  0
LINE
  5
A563
330
A4A9
100
AcDbEntity
  8
1
  6
Continuous
100
AcDbLine
 10
34.57045
 20
149.5734459999999
 30
0.0
 11
34.57045
 21
195.732987
 31
0.0
  0
LINE
  5
A564
330
A4A9
100
AcDbEntity
  8
1
  6
Continuous
100
AcDbLine
 10
62.549385
 20
149.5734459999999
 30
0.0
 11
62.549385
 21
172.4860429999999
 31
0.0
  0
LINE
  5
A565
330
A4A9
100
AcDbEntity
  8
1
  6
Continuous
100
AcDbLine
 10
64.549392
 20
146.031387
 30
0.0
 11
64.549392
 21
195.732987
 31
0.0
  0
LINE
  5
A566
330
A4A9
100
AcDbEntity
  8
1
  6
Continuous
100
AcDbLine
 10
188.0599209999997
 20
198.4734489999999
 30
0.0
 11
188.0599209999997
 21
194.32992
 31
0.0
  0
ARC
  5
A567
330
A4A9
100
AcDbEntity
  8
1
  6
Continuous
100
AcDbCircle
 10
188.809921
 20
205.0734499999999
 30
0.0
 40
0.5
100
AcDbArc
 50
89.99999100000001
 51
168.9784929999999
  0
ARC
  5
A568
330
A4A9
100
AcDbEntity
  8
1
  6
Continuous
100
AcDbCircle
 10
185.059921
 20
198.4734489999999
 30
0.0
 40
3.0
100
AcDbArc
 50
0.0
 51
90.0
  0
ARC
  5
A569
330
A4A9
100
AcDbEntity
  8
1
  6
Continuous
100
AcDbCircle
 10
153.059921
 20
198.4734489999999
 30
0.0
 40
3.0
100
AcDbArc
 50
90.0
 51
180.0
  0
LINE
  5
A56A
330
A4A9
100
AcDbEntity
  8
4
  6
CENTER
 48
0.8
100
AcDbLine
 10
145.059921
 20
36.07345
 30
0.0
 11
145.059921
 21
96.171503
 31
0.0
  0
LINE
  5
A56B
330
A4A9
100
AcDbEntity
  8
1
  6
Continuous
100
AcDbLine
 10
156.083019
 20
47.083979
 30
0.0
 11
137.213819
 21
47.083979
 31
0.0
  0
LINE
  5
A56C
330
A4A9
100
AcDbEntity
  8
1
  6
Continuous
100
AcDbLine
 10
156.083009
 20
75.06291400000002
 30
0.0
 11
138.3452509999999
 21
75.06291400000002
 31
0.0
  0
LINE
  5
A56D
330
A4A9
100
AcDbEntity
  8
1
  6
Continuous
100
AcDbLine
 10
141.809921
 20
74.07344999999998
 30
0.0
 11
141.809921
 21
75.06291400000002
 31
0.0
  0
LINE
  5
A56E
330
A4A9
100
AcDbEntity
  8
1
  6
Continuous
100
AcDbLine
 10
139.7599219999999
 20
47.07002099999999
 30
0.0
 11
139.7599219999999
 21
46.57204199999998
 31
0.0
  0
ARC
  5
A56F
330
A4A9
100
AcDbEntity
  8
1
  6
Continuous
100
AcDbCircle
 10
141.7599219999999
 20
46.57204199999998
 30
0.0
 40
2.0
100
AcDbArc
 50
180.0000179999999
 51
274.7734689999999
  0
LINE
  5
A570
330
A4A9
100
AcDbEntity
  8
1
  6
Continuous
100
AcDbLine
 10
148.3099209999998
 20
74.07344999999998
 30
0.0
 11
148.3099209999998
 21
75.06291400000002
 31
0.0
  0
ARC
  5
A571
330
A4A9
100
AcDbEntity
  8
1
  6
Continuous
100
AcDbCircle
 10
100.932007
 20
62.07345799999998
 30
0.0
 40
35.49999600000001
100
AcDbArc
 50
19.029859
 51
19.23312
  0
LINE
  5
A572
330
A4A9
100
AcDbEntity
  8
1
  6
Continuous
100
AcDbLine
 10
137.213819
 20
49.08398599999999
 30
0.0
 11
137.213819
 21
47.083979
 31
0.0
  0
ARC
  5
A573
330
A4A9
100
AcDbEntity
  8
1
  6
Continuous
100
AcDbCircle
 10
176.8940369999999
 20
62.11728299999999
 30
0.0
 40
40.03413499999999
100
AcDbArc
 50
161.1334629999998
 51
162.623505
  0
ARC
  5
A574
330
A4A9
100
AcDbEntity
  8
1
  6
Continuous
100
AcDbCircle
 10
141.0599209999998
 20
48.07345
 30
0.0
 40
3.25
100
AcDbArc
 50
197.725236
 51
264.801251
  0
LINE
  5
A575
330
A4A9
100
AcDbEntity
  8
1
  6
Continuous
100
AcDbLine
 10
141.0599209999998
 20
41.07345
 30
0.0
 11
197.0599209999998
 21
41.07345
 31
0.0
  0
ARC
  5
A576
330
A4A9
100
AcDbEntity
  8
1
  6
Continuous
100
AcDbCircle
 10
169.059921
 20
62.07345
 30
0.0
 40
19.0
100
AcDbArc
 50
235.6523319999999
 51
74.082862
  0
ARC
  5
A577
330
A4A9
100
AcDbEntity
  8
1
  6
Continuous
100
AcDbCircle
 10
169.059921
 20
62.07345
 30
0.0
 40
17.0
100
AcDbArc
 50
235.652301
 51
77.11488
  0
ARC
  5
A578
330
A4A9
100
AcDbEntity
  8
1
  6
Continuous
100
AcDbCircle
 10
169.059921
 20
62.07345
 30
0.0
 40
13.0
100
AcDbArc
 50
233.8710729999998
 51
126.128927
  0
ARC
  5
A579
330
A4A9
100
AcDbEntity
  8
1
  6
Continuous
100
AcDbCircle
 10
169.059921
 20
62.07345
 30
0.0
 40
10.5
100
AcDbArc
 50
320.7495269999999
 51
39.250473
  0
LINE
  5
A57A
330
A4A9
100
AcDbEntity
  8
4
  6
CENTER
 48
0.8
100
AcDbLine
 10
145.059921
 20
297.0734499999998
 30
0.0
 11
145.059921
 21
240.0734499999999
 31
0.0
  0
LINE
  5
A57E
330
A4A9
100
AcDbEntity
  8
1
  6
Continuous
100
AcDbLine
 10
145.059921
 20
85.681173
 30
0.0
 11
145.059921
 21
81.56292099999998
 31
0.0
  0
LINE
  5
A57F
330
A4A9
100
AcDbEntity
  8
1
  6
Continuous
100
AcDbLine
 10
150.059921
 20
82.05366899999999
 30
0.0
 11
150.059921
 21
85.681173
 31
0.0
  0
LINE
  5
A580
330
A4A9
100
AcDbEntity
  8
1
  6
Continuous
100
AcDbLine
 10
142.559921
 20
86.171921
 30
0.0
 11
147.559921
 21
86.171921
 31
0.0
  0
LINE
  5
A581
330
A4A9
100
AcDbEntity
  8
1
  6
Continuous
100
AcDbLine
 10
140.059921
 20
82.05366899999999
 30
0.0
 11
140.059921
 21
85.681173
 31
0.0
  0
ARC
  5
A582
330
A4A9
100
AcDbEntity
  8
1
  6
Continuous
100
AcDbCircle
 10
142.559921
 20
79.55871299999998
 30
0.0
 40
6.613208
100
AcDbArc
 50
67.78820500000001
 51
112.211795
  0
ARC
  5
A583
330
A4A9
100
AcDbEntity
  8
1
  6
Continuous
100
AcDbCircle
 10
147.559921
 20
79.55871299999998
 30
0.0
 40
6.613208
100
AcDbArc
 50
67.78820500000001
 51
112.211795
  0
LINE
  5
A584
330
A4A9
100
AcDbEntity
  8
1
  6
Continuous
100
AcDbLine
 10
140.059921
 20
155.360197
 30
0.0
 11
140.059921
 21
160.786695
 31
0.0
  0
CIRCLE
  5
A585
330
A4A9
100
AcDbEntity
  8
1
  6
Continuous
100
AcDbCircle
 10
145.059921
 20
158.0734459999999
 30
0.0
 40
3.0
  0
CIRCLE
  5
A586
330
A4A9
100
AcDbEntity
  8
2
  6
Continuous
100
AcDbCircle
 10
145.059921
 20
158.0734459999999
 30
0.0
 40
2.458499999999999
  0
CIRCLE
  5
A587
330
A4A9
100
AcDbEntity
  8
1
  6
Continuous
100
AcDbCircle
 10
145.059921
 20
158.0734459999999
 30
0.0
 40
2.0
  0
LINE
  5
A588
330
A4A9
100
AcDbEntity
  8
2
  6
Continuous
100
AcDbLine
 10
75.19088999999998
 20
160.531946
 30
0.0
 11
73.64938999999998
 21
160.531946
 31
0.0
  0
LINE
  5
A589
330
A4A9
100
AcDbEntity
  8
2
  6
Continuous
100
AcDbLine
 10
75.19088999999998
 20
155.614946
 30
0.0
 11
73.64938999999998
 21
155.614946
 31
0.0
  0
LINE
  5
A58A
330
A4A9
100
AcDbEntity
  8
1
  6
Continuous
100
AcDbLine
 10
74.64938999999998
 20
161.0734459999999
 30
0.0
 11
74.64938999999998
 21
155.0734459999999
 31
0.0
  0
LINE
  5
A58B
330
A4A9
100
AcDbEntity
  8
1
  6
Continuous
100
AcDbLine
 10
75.64938999999998
 20
160.0734459999999
 30
0.0
 11
74.64938999999998
 21
161.0734459999999
 31
0.0
  0
LINE
  5
A58C
330
A4A9
100
AcDbEntity
  8
1
  6
Continuous
100
AcDbLine
 10
75.64938999999998
 20
156.0734459999999
 30
0.0
 11
74.64938999999998
 21
155.0734459999999
 31
0.0
  0
CIRCLE
  5
A58D
330
A4A9
100
AcDbEntity
  8
1
  6
Continuous
100
AcDbCircle
 10
145.059921
 20
158.0734459999999
 30
0.0
 40
3.799999999999998
  0
LINE
  5
A58E
330
A4A9
100
AcDbEntity
  8
1
  6
Continuous
100
AcDbLine
 10
140.059921
 20
160.786695
 30
0.0
 11
145.059921
 21
163.6734459999999
 31
0.0
  0
LINE
  5
A58F
330
A4A9
100
AcDbEntity
  8
1
  6
Continuous
100
AcDbLine
 10
140.059921
 20
155.360197
 30
0.0
 11
145.059921
 21
152.4734459999999
 31
0.0
  0
LINE
  5
A590
330
A4A9
100
AcDbEntity
  8
1
  6
Continuous
100
AcDbLine
 10
150.059921
 20
155.360197
 30
0.0
 11
150.059921
 21
160.786695
 31
0.0
  0
LINE
  5
A591
330
A4A9
100
AcDbEntity
  8
1
  6
Continuous
100
AcDbLine
 10
150.059921
 20
160.786695
 30
0.0
 11
145.059921
 21
163.6734459999999
 31
0.0
  0
LINE
  5
A592
330
A4A9
100
AcDbEntity
  8
1
  6
Continuous
100
AcDbLine
 10
150.059921
 20
155.360197
 30
0.0
 11
145.059921
 21
152.4734459999999
 31
0.0
  0
ARC
  5
A593
330
A4A9
100
AcDbEntity
  8
1
  6
Continuous
100
AcDbCircle
 10
147.559921
 20
75.93120899999998
 30
0.0
 40
6.613208
100
AcDbArc
 50
58.38454599999999
 51
112.211795
  0
ARC
  5
A594
330
A4A9
100
AcDbEntity
  8
1
  6
Continuous
100
AcDbCircle
 10
142.559921
 20
75.93120899999998
 30
0.0
 40
6.613208
100
AcDbArc
 50
67.78820500000001
 51
121.615454
  0
LINE
  5
A598
330
A4A9
100
AcDbEntity
  8
1
  6
Continuous
100
AcDbLine
 10
143.059921
 20
88.17150299999999
 30
0.0
 11
147.059921
 21
88.17150299999999
 31
0.0
  0
LINE
  5
A599
330
A4A9
100
AcDbEntity
  8
1
  6
Continuous
100
AcDbLine
 10
142.0599209999998
 20
87.171503
 30
0.0
 11
148.059921
 21
87.171503
 31
0.0
  0
LINE
  5
A59A
330
A4A9
100
AcDbEntity
  8
1
  6
Continuous
100
AcDbLine
 10
147.059921
 20
88.17150299999999
 30
0.0
 11
148.059921
 21
87.171503
 31
0.0
  0
LINE
  5
A59B
330
A4A9
100
AcDbEntity
  8
1
  6
Continuous
100
AcDbLine
 10
148.059921
 20
87.171503
 30
0.0
 11
148.059921
 21
86.171503
 31
0.0
  0
LINE
  5
A59C
330
A4A9
100
AcDbEntity
  8
2
  6
Continuous
100
AcDbLine
 10
147.5184209999999
 20
87.713003
 30
0.0
 11
147.5184209999999
 21
86.171503
 31
0.0
  0
LINE
  5
A59D
330
A4A9
100
AcDbEntity
  8
1
  6
Continuous
100
AcDbLine
 10
143.059921
 20
88.17150299999999
 30
0.0
 11
142.0599209999998
 21
87.171503
 31
0.0
  0
LINE
  5
A59E
330
A4A9
100
AcDbEntity
  8
1
  6
Continuous
100
AcDbLine
 10
142.0599209999998
 20
87.171503
 30
0.0
 11
142.0599209999998
 21
86.171503
 31
0.0
  0
LINE
  5
A59F
330
A4A9
100
AcDbEntity
  8
2
  6
Continuous
100
AcDbLine
 10
142.6014209999999
 20
87.713003
 30
0.0
 11
142.6014209999999
 21
86.171503
 31
0.0
  0
LINE
  5
A5A0
330
A4A9
100
AcDbEntity
  8
1
  6
Continuous
100
AcDbLine
 10
32.078947
 20
161.534262
 30
0.0
 11
32.078947
 21
154.61263
 31
0.0
  0
ARC
  5
A5A1
330
A4A9
100
AcDbEntity
  8
1
  6
Continuous
100
AcDbCircle
 10
34.072471
 20
154.7734469999998
 30
0.0
 40
2.0
100
AcDbArc
 50
179.94208
 51
269.9999819999998
  0
LINE
  5
A5A2
330
A4A9
100
AcDbEntity
  8
1
  6
Continuous
100
AcDbLine
 10
34.57045
 20
152.773447
 30
0.0
 11
34.072471
 21
152.773447
 31
0.0
  0
LINE
  5
A5A3
330
A4A9
100
AcDbEntity
  8
1
  6
Continuous
100
AcDbLine
 10
148.519892
 20
44.57844999999998
 30
0.0
 11
141.59995
 21
44.57844999999998
 31
0.0
  0
ARC
  5
A5A4
330
A4A9
100
AcDbEntity
  8
1
  6
Continuous
100
AcDbCircle
 10
148.35992
 20
46.57204199999998
 30
0.0
 40
2.0
100
AcDbArc
 50
265.226531
 51
359.9999819999999
  0
LINE
  5
A5A5
330
A4A9
100
AcDbEntity
  8
1
  6
Continuous
100
AcDbLine
 10
150.35992
 20
47.07002099999999
 30
0.0
 11
150.35992
 21
46.57204199999998
 31
0.0
  0
LINE
  5
A5A6
330
A4A9
100
AcDbEntity
  8
4
  6
CENTER
 48
0.8
100
AcDbLine
 10
267.5599209999999
 20
212.57345
 30
0.0
 11
267.5599209999999
 21
120.5734459999999
 31
0.0
  0
LINE
  5
A5A7
330
A4A9
100
AcDbEntity
  8
4
  6
CENTER
 48
0.8
100
AcDbLine
 10
294.1579889999998
 20
158.0734459999999
 30
0.0
 11
233.4704499999999
 21
158.0734459999999
 31
0.0
  0
LINE
  5
A5A8
330
A4A9
100
AcDbEntity
  8
1
  6
Continuous
100
AcDbLine
 10
283.5599209999998
 20
201.4734489999999
 30
0.0
 11
251.5599209999999
 21
201.4734489999999
 31
0.0
  0
LINE
  5
A5A9
330
A4A9
100
AcDbEntity
  8
1
  6
Continuous
100
AcDbLine
 10
252.5704499999999
 20
149.5734459999999
 30
0.0
 11
254.5704569999998
 21
149.5734459999999
 31
0.0
  0
LINE
  5
A5AA
330
A4A9
100
AcDbEntity
  8
1
  6
Continuous
100
AcDbLine
 10
284.3599239999998
 20
202.273447
 30
0.0
 11
250.759917
 21
202.273447
 31
0.0
  0
LINE
  5
A5AB
330
A4A9
100
AcDbEntity
  8
1
  6
Continuous
100
AcDbLine
 10
288.5599209999998
 20
205.57345
 30
0.0
 11
246.559921
 21
205.57345
 31
0.0
  0
LINE
  5
A5AC
330
A4A9
100
AcDbEntity
  8
1
  6
Continuous
100
AcDbLine
 10
288.5599209999998
 20
207.57345
 30
0.0
 11
246.559921
 21
207.57345
 31
0.0
  0
LINE
  5
A5AD
330
A4A9
100
AcDbEntity
  8
1
  6
Continuous
100
AcDbLine
 10
280.5493849999999
 20
149.5734459999999
 30
0.0
 11
280.5493849999999
 21
149.8442419999998
 31
0.0
  0
LINE
  5
A5AE
330
A4A9
100
AcDbEntity
  8
1
  6
Continuous
100
AcDbLine
 10
254.5704569999998
 20
149.5734459999999
 30
0.0
 11
254.5704569999998
 21
194.32992
 31
0.0
  0
LINE
  5
A5AF
330
A4A9
100
AcDbEntity
  8
1
  6
Continuous
100
AcDbLine
 10
282.5493919999999
 20
149.5734459999999
 30
0.0
 11
282.5493919999999
 21
164.120295
 31
0.0
  0
LINE
  5
A5B0
330
A4A9
100
AcDbEntity
  8
1
  6
Continuous
100
AcDbLine
 10
243.47045
 20
161.8734719999999
 30
0.0
 11
243.813717
 21
162.491342
 31
0.0
  0
LINE
  5
A5B1
330
A4A9
100
AcDbEntity
  8
2
  6
Continuous
100
AcDbLine
 10
241.92895
 20
160.531946
 30
0.0
 11
243.343869
 21
160.531946
 31
0.0
  0
LINE
  5
A5B2
330
A4A9
100
AcDbEntity
  8
1
  6
Continuous
100
AcDbLine
 10
242.47045
 20
161.0734459999999
 30
0.0
 11
243.47045
 21
161.0734459999999
 31
0.0
  0
LINE
  5
A5B3
330
A4A9
100
AcDbEntity
  8
1
  6
Continuous
100
AcDbLine
 10
241.47045
 20
160.0734459999999
 30
0.0
 11
242.47045
 21
161.0734459999999
 31
0.0
  0
LINE
  5
A5B4
330
A4A9
100
AcDbEntity
  8
1
  6
Continuous
100
AcDbLine
 10
242.47045
 20
161.0734459999999
 30
0.0
 11
242.47045
 21
157.724772
 31
0.0
  0
LINE
  5
A5B5
330
A4A9
100
AcDbEntity
  8
1
  6
Continuous
100
AcDbLine
 10
241.47045
 20
160.0734459999999
 30
0.0
 11
241.47045
 21
157.0050159999999
 31
0.0
  0
LINE
  5
A5B6
330
A4A9
100
AcDbEntity
  8
1
  6
Continuous
100
AcDbLine
 10
243.47045
 20
161.873449
 30
0.0
 11
243.47045
 21
161.0163279999999
 31
0.0
  0
LINE
  5
A5B7
330
A4A9
100
AcDbEntity
  8
1
  6
Continuous
100
AcDbLine
 10
282.5493919999999
 20
149.5734459999999
 30
0.0
 11
280.5493849999999
 21
149.5734459999999
 31
0.0
  0
LINE
  5
A5B8
330
A4A9
100
AcDbEntity
  8
1
  6
Continuous
100
AcDbLine
 10
255.559921
 20
154.8234459999999
 30
0.0
 11
254.565147
 21
154.8234459999999
 31
0.0
  0
LINE
  5
A5B9
330
A4A9
100
AcDbEntity
  8
1
  6
Continuous
100
AcDbLine
 10
255.559921
 20
161.3234459999999
 30
0.0
 11
254.5585739999999
 21
161.3234459999999
 31
0.0
  0
ARC
  5
A5BA
330
A4A9
100
AcDbEntity
  8
1
  6
Continuous
100
AcDbCircle
 10
283.5599209999998
 20
198.4734489999999
 30
0.0
 40
3.0
100
AcDbArc
 50
0.0
 51
90.0
  0
ARC
  5
A5BB
330
A4A9
100
AcDbEntity
  8
1
  6
Continuous
100
AcDbCircle
 10
284.3599239999998
 20
204.57345
 30
0.0
 40
2.299999999999998
100
AcDbArc
 50
270.00001
 51
348.97852
  0
LINE
  5
A5BC
330
A4A9
100
AcDbEntity
  8
1
  6
Continuous
100
AcDbLine
 10
288.5599209999998
 20
207.57345
 30
0.0
 11
288.5599209999998
 21
205.57345
 31
0.0
  0
ARC
  5
A5BD
330
A4A9
100
AcDbEntity
  8
1
  6
Continuous
100
AcDbCircle
 10
287.3099209999998
 20
205.0734499999999
 30
0.0
 40
0.5
100
AcDbArc
 50
89.99999100000001
 51
168.9784929999999
  0
LINE
  5
A5BE
330
A4A9
100
AcDbEntity
  8
1
  6
Continuous
100
AcDbLine
 10
286.617447
 20
204.133747
 30
0.0
 11
286.819084
 21
205.1690409999999
 31
0.0
  0
LINE
  5
A5BF
330
A4A9
100
AcDbEntity
  8
4
  6
CENTER
100
AcDbLine
 10
253.5599209999999
 20
212.57345
 30
0.0
 11
253.5599209999999
 21
200.5734499999999
 31
0.0
  0
LINE
  5
A5C0
330
A4A9
100
AcDbEntity
  8
4
  6
CENTER
100
AcDbLine
 10
281.5599209999998
 20
212.57345
 30
0.0
 11
281.5599209999998
 21
200.5734499999999
 31
0.0
  0
ARC
  5
A5C1
330
A4A9
100
AcDbEntity
  8
1
  6
Continuous
100
AcDbCircle
 10
267.5599209999999
 20
202.6179519999999
 30
0.0
 40
1.984499999999996
100
AcDbArc
 50
324.7796999999998
 51
350.0029399999998
  0
ARC
  5
A5C2
330
A4A9
100
AcDbEntity
  8
1
  6
Continuous
100
AcDbCircle
 10
275.0212399999999
 20
202.6179519999999
 30
0.0
 40
1.984499999999996
100
AcDbArc
 50
206.8632199999999
 51
215.2203199999999
  0
ARC
  5
A5C3
330
A4A9
100
AcDbEntity
  8
1
  6
Continuous
100
AcDbCircle
 10
271.480545
 20
202.6179519999999
 30
0.0
 40
1.984499999999996
100
AcDbArc
 50
189.99695
 51
215.2203199999999
  0
ARC
  5
A5C4
330
A4A9
100
AcDbEntity
  8
1
  6
Continuous
100
AcDbCircle
 10
280.3099209999999
 20
202.6179519999999
 30
0.0
 40
1.984499999999996
100
AcDbArc
 50
324.7796999999998
 51
350.0029399999998
  0
ARC
  5
A5C5
330
A4A9
100
AcDbEntity
  8
1
  6
Continuous
100
AcDbCircle
 10
279.660507
 20
202.6179519999999
 30
0.0
 40
1.984499999999996
100
AcDbArc
 50
324.7796999999998
 51
350.0029399999998
  0
ARC
  5
A5C6
330
A4A9
100
AcDbEntity
  8
1
  6
Continuous
100
AcDbCircle
 10
277.8389129999998
 20
202.6179519999999
 30
0.0
 40
1.984499999999996
100
AcDbArc
 50
324.7796999999998
 51
350.0029399999998
  0
ARC
  5
A5C7
330
A4A9
100
AcDbEntity
  8
1
  6
Continuous
100
AcDbCircle
 10
275.0212399999999
 20
202.6179519999999
 30
0.0
 40
1.984499999999996
100
AcDbArc
 50
324.7796999999998
 51
350.0029399999998
  0
ARC
  5
A5C8
330
A4A9
100
AcDbEntity
  8
1
  6
Continuous
100
AcDbCircle
 10
271.480545
 20
202.6179519999999
 30
0.0
 40
1.984499999999996
100
AcDbArc
 50
324.7796999999998
 51
350.0029599999999
  0
ARC
  5
A5C9
330
A4A9
100
AcDbEntity
  8
1
  6
Continuous
100
AcDbCircle
 10
284.374344
 20
205.0734119999999
 30
0.0
 40
2.799999999999998
100
AcDbArc
 50
268.3477899999999
 51
269.99998
  0
ARC
  5
A5CA
330
A4A9
100
AcDbEntity
  8
1
  6
Continuous
100
AcDbCircle
 10
260.098602
 20
202.6179519999999
 30
0.0
 40
1.984499999999996
100
AcDbArc
 50
189.99701
 51
215.2203199999999
  0
ARC
  5
A5CB
330
A4A9
100
AcDbEntity
  8
1
  6
Continuous
100
AcDbCircle
 10
263.639297
 20
202.6179519999999
 30
0.0
 40
1.984499999999996
100
AcDbArc
 50
189.99701
 51
215.2203199999999
  0
ARC
  5
A5CC
330
A4A9
100
AcDbEntity
  8
1
  6
Continuous
100
AcDbCircle
 10
255.459335
 20
202.6179519999999
 30
0.0
 40
1.984499999999996
100
AcDbArc
 50
189.99701
 51
215.22025
  0
ARC
  5
A5CD
330
A4A9
100
AcDbEntity
  8
1
  6
Continuous
100
AcDbCircle
 10
257.2809369999998
 20
202.6179519999999
 30
0.0
 40
1.984499999999996
100
AcDbArc
 50
189.99701
 51
215.22019
  0
ARC
  5
A5CE
330
A4A9
100
AcDbEntity
  8
1
  6
Continuous
100
AcDbCircle
 10
260.098602
 20
202.6179519999999
 30
0.0
 40
1.984499999999996
100
AcDbArc
 50
324.7796999999998
 51
333.13675
  0
ARC
  5
A5CF
330
A4A9
100
AcDbEntity
  8
1
  6
Continuous
100
AcDbCircle
 10
267.5599209999999
 20
202.6179519999999
 30
0.0
 40
1.984499999999996
100
AcDbArc
 50
189.99701
 51
215.2203199999999
  0
ARC
  5
A5D0
330
A4A9
100
AcDbEntity
  8
1
  6
Continuous
100
AcDbCircle
 10
263.639297
 20
202.6179519999999
 30
0.0
 40
1.984499999999996
100
AcDbArc
 50
324.7796999999998
 51
350.00301
  0
LINE
  5
A5D1
330
A4A9
100
AcDbEntity
  8
1
  6
Continuous
100
AcDbLine
 10
252.5704499999999
 20
149.5734459999999
 30
0.0
 11
252.5704499999999
 21
164.120295
 31
0.0
  0
LINE
  5
A5D2
330
A4A9
100
AcDbEntity
  8
1
  6
Continuous
100
AcDbLine
 10
248.559921
 20
198.4734489999999
 30
0.0
 11
248.559921
 21
183.744873
 31
0.0
  0
ARC
  5
A5D3
330
A4A9
100
AcDbEntity
  8
1
  6
Continuous
100
AcDbCircle
 10
283.047371
 20
161.373445
 30
0.0
 40
2.0
100
AcDbArc
 50
359.9420799999998
 51
89.99998199999996
  0
LINE
  5
A5D4
330
A4A9
100
AcDbEntity
  8
1
  6
Continuous
100
AcDbLine
 10
285.0408949999998
 20
161.534262
 30
0.0
 11
285.0408949999998
 21
154.61263
 31
0.0
  0
LINE
  5
A5D5
330
A4A9
100
AcDbEntity
  8
1
  6
Continuous
100
AcDbLine
 10
282.5493919999999
 20
152.773447
 30
0.0
 11
283.047371
 21
152.773447
 31
0.0
  0
ARC
  5
A5D6
330
A4A9
100
AcDbEntity
  8
1
  6
Continuous
100
AcDbCircle
 10
283.047371
 20
154.7734469999998
 30
0.0
 40
2.0
100
AcDbArc
 50
270.0000179999999
 51
0.05792
  0
LINE
  5
A5D7
330
A4A9
100
AcDbEntity
  8
1
  6
Continuous
100
AcDbLine
 10
282.5493919999999
 20
163.373445
 30
0.0
 11
283.047371
 21
163.373445
 31
0.0
  0
LINE
  5
A5D8
330
A4A9
100
AcDbEntity
  8
1
  6
Continuous
100
AcDbLine
 10
246.559921
 20
207.57345
 30
0.0
 11
246.559921
 21
205.57345
 31
0.0
  0
ARC
  5
A5D9
330
A4A9
100
AcDbEntity
  8
1
  6
Continuous
100
AcDbCircle
 10
251.5599209999999
 20
198.4734489999999
 30
0.0
 40
3.0
100
AcDbArc
 50
90.0
 51
180.0
  0
ARC
  5
A5DA
330
A4A9
100
AcDbEntity
  8
1
  6
Continuous
100
AcDbCircle
 10
254.809921
 20
202.6179519999999
 30
0.0
 40
1.984499999999996
100
AcDbArc
 50
189.99701
 51
215.22025
  0
ARC
  5
A5DB
330
A4A9
100
AcDbEntity
  8
1
  6
Continuous
100
AcDbCircle
 10
250.759918
 20
204.57345
 30
0.0
 40
2.299999999999998
100
AcDbArc
 50
191.02147
 51
269.99998
  0
ARC
  5
A5DC
330
A4A9
100
AcDbEntity
  8
1
  6
Continuous
100
AcDbCircle
 10
247.8099209999998
 20
205.0734499999999
 30
0.0
 40
0.5
100
AcDbArc
 50
11.02154
 51
90.00004500000001
  0
LINE
  5
A5DD
330
A4A9
100
AcDbEntity
  8
1
  6
Continuous
100
AcDbLine
 10
248.502342
 20
204.133735
 30
0.0
 11
248.300697
 21
205.1690289999998
 31
0.0
  0
LINE
  5
A5DE
330
A4A9
100
AcDbEntity
  8
1
  6
Continuous
100
AcDbLine
 10
251.3335839999998
 20
194.32992
 30
0.0
 11
283.7862579999998
 21
194.32992
 31
0.0
  0
LINE
  5
A5DF
330
A4A9
100
AcDbEntity
  8
1
  6
Continuous
100
AcDbLine
 10
286.5599209999998
 20
198.4734489999999
 30
0.0
 11
286.5599209999998
 21
183.744873
 31
0.0
  0
LINE
  5
A5E0
330
A4A9
100
AcDbEntity
  8
4
  6
CENTER
 48
0.8
100
AcDbLine
 10
390.0599209999999
 20
191.4662649999999
 30
0.0
 11
390.0599209999999
 21
120.5734459999999
 31
0.0
  0
LINE
  5
A5E1
330
A4A9
100
AcDbEntity
  8
4
  6
CENTER
 48
0.8
100
AcDbLine
 10
352.5599209999999
 20
158.0734459999999
 30
0.0
 11
427.559921
 21
158.0734459999999
 31
0.0
  0
LINE
  5
A5E2
330
A4A9
100
AcDbEntity
  8
1
  6
Continuous
100
AcDbLine
 10
382.0599209999999
 20
201.4734489999999
 30
0.0
 11
350.0599209999998
 21
201.4734489999999
 31
0.0
  0
LINE
  5
A5E3
330
A4A9
100
AcDbEntity
  8
1
  6
Continuous
100
AcDbLine
 10
355.7098689999999
 20
194.027858
 30
0.0
 11
347.0599209999999
 21
194.32992
 31
0.0
  0
LINE
  5
A5E4
330
A4A9
100
AcDbEntity
  8
1
  6
Continuous
100
AcDbLine
 10
382.8599239999999
 20
202.273447
 30
0.0
 11
349.2599169999999
 21
202.273447
 31
0.0
  0
LINE
  5
A5E5
330
A4A9
100
AcDbEntity
  8
1
  6
Continuous
100
AcDbLine
 10
401.0599209999998
 20
205.57345
 30
0.0
 11
331.0599209999998
 21
205.57345
 31
0.0
  0
LINE
  5
A5E6
330
A4A9
100
AcDbEntity
  8
1
  6
Continuous
100
AcDbLine
 10
401.0599209999998
 20
207.57345
 30
0.0
 11
331.0599209999998
 21
207.57345
 31
0.0
  0
LINE
  5
A5E7
330
A4A9
100
AcDbEntity
  8
1
  6
Continuous
100
AcDbLine
 10
362.323262
 20
190.0938039999997
 30
0.0
 11
383.9963029999998
 21
153.2692889999998
 31
0.0
  0
LINE
  5
A5E8
330
A4A9
100
AcDbEntity
  8
1
  6
Continuous
100
AcDbLine
 10
395.155163
 20
194.792005
 30
0.0
 11
397.938963
 21
157.6337569999997
 31
0.0
  0
LINE
  5
A5E9
330
A4A9
100
AcDbEntity
  8
1
  6
Continuous
100
AcDbLine
 10
378.4599229999998
 20
198.7967629999999
 30
0.0
 11
378.4599229999998
 21
166.391594
 31
0.0
  0
LINE
  5
A5EA
330
A4A9
100
AcDbEntity
  8
4
  6
CENTER
 48
0.8
100
AcDbLine
 10
366.0599209999999
 20
212.57345
 30
0.0
 11
366.0599209999999
 21
178.1804979999997
 31
0.0
  0
ARC
  5
A5EB
330
A4A9
100
AcDbEntity
  8
1
  6
Continuous
100
AcDbCircle
 10
390.0599209999999
 20
158.0734459999999
 30
0.0
 40
16.0
100
AcDbArc
 50
149.0928649999998
 51
65.00885
  0
ARC
  5
A5EC
330
A4A9
100
AcDbEntity
  8
1
  6
Continuous
100
AcDbCircle
 10
390.459923
 20
157.0734459999999
 30
0.0
 40
7.5
100
AcDbArc
 50
210.47892
 51
4.284449999999996
  0
LINE
  5
A5ED
330
A4A9
100
AcDbEntity
  8
1
  6
Continuous
100
AcDbLine
 10
398.259922
 20
196.275405
 30
0.0
 11
380.781479
 21
199.3573259999998
 31
0.0
  0
LINE
  5
A5EE
330
A4A9
100
AcDbEntity
  8
4
  6
CENTER
100
AcDbLine
 10
394.0599209999999
 20
200.5734499999999
 30
0.0
 11
394.0599209999999
 21
212.57345
 31
0.0
  0
LINE
  5
A5EF
330
A4A9
100
AcDbEntity
  8
1
  6
Continuous
100
AcDbLine
 10
401.0599209999998
 20
205.5734579999999
 30
0.0
 11
401.0599209999998
 21
207.5734579999999
 31
0.0
  0
LINE
  5
A5F0
330
A4A9
100
AcDbEntity
  8
1
  6
Continuous
100
AcDbLine
 10
398.2599159999999
 20
196.275404
 30
0.0
 11
397.9126199999998
 21
194.305787
 31
0.0
  0
ARC
  5
A5F1
330
A4A9
100
AcDbEntity
  8
1
  6
Continuous
100
AcDbCircle
 10
382.0599209999999
 20
198.4734489999999
 30
0.0
 40
3.0
100
AcDbArc
 50
0.0
 51
90.0
  0
ARC
  5
A5F2
330
A4A9
100
AcDbEntity
  8
1
  6
Continuous
100
AcDbCircle
 10
382.8599239999999
 20
204.57345
 30
0.0
 40
2.299999999999998
100
AcDbArc
 50
270.00001
 51
348.97852
  0
ARC
  5
A5F3
330
A4A9
100
AcDbEntity
  8
1
  6
Continuous
100
AcDbCircle
 10
382.874344
 20
205.0734119999999
 30
0.0
 40
2.799999999999998
100
AcDbArc
 50
268.3477899999999
 51
269.99998
  0
ARC
  5
A5F4
330
A4A9
100
AcDbEntity
  8
1
  6
Continuous
100
AcDbCircle
 10
385.8099209999999
 20
205.0734499999999
 30
0.0
 40
0.5
100
AcDbArc
 50
89.99999100000001
 51
168.9784929999999
  0
LINE
  5
A5F5
330
A4A9
100
AcDbEntity
  8
1
  6
Continuous
100
AcDbLine
 10
395.330141
 20
196.7920039999999
 30
0.0
 11
395.155163
 21
194.792005
 31
0.0
  0
LINE
  5
A5F6
330
A4A9
100
AcDbEntity
  8
1
  6
Continuous
100
AcDbLine
 10
397.912628
 20
194.3057889999998
 30
0.0
 11
395.1551609999999
 21
194.792005
 31
0.0
  0
LINE
  5
A5F7
330
A4A9
100
AcDbEntity
  8
1
  6
Continuous
100
AcDbLine
 10
385.1174919999999
 20
204.133742
 30
0.0
 11
385.319135
 21
205.169037
 31
0.0
  0
ARC
  5
A5F8
330
A4A9
100
AcDbEntity
  8
1
  6
Continuous
100
AcDbCircle
 10
369.9805449999999
 20
202.6179519999999
 30
0.0
 40
1.984499999999996
100
AcDbArc
 50
189.99695
 51
215.22025
  0
ARC
  5
A5F9
330
A4A9
100
AcDbEntity
  8
1
  6
Continuous
100
AcDbCircle
 10
378.8099209999999
 20
202.6179519999999
 30
0.0
 40
1.984499999999996
100
AcDbArc
 50
324.77977
 51
350.0029399999998
  0
ARC
  5
A5FA
330
A4A9
100
AcDbEntity
  8
1
  6
Continuous
100
AcDbCircle
 10
378.1605069999998
 20
202.6179519999999
 30
0.0
 40
1.984499999999996
100
AcDbArc
 50
324.77977
 51
350.00293
  0
ARC
  5
A5FB
330
A4A9
100
AcDbEntity
  8
1
  6
Continuous
100
AcDbCircle
 10
376.3389049999998
 20
202.6179519999999
 30
0.0
 40
1.984499999999996
100
AcDbArc
 50
324.77977
 51
350.0029399999998
  0
ARC
  5
A5FC
330
A4A9
100
AcDbEntity
  8
1
  6
Continuous
100
AcDbCircle
 10
373.5212399999999
 20
202.6179519999999
 30
0.0
 40
1.984499999999996
100
AcDbArc
 50
324.77977
 51
350.0029399999998
  0
ARC
  5
A5FD
330
A4A9
100
AcDbEntity
  8
1
  6
Continuous
100
AcDbCircle
 10
366.0599209999999
 20
202.6179519999999
 30
0.0
 40
1.984499999999996
100
AcDbArc
 50
324.77977
 51
350.0029399999998
  0
ARC
  5
A5FE
330
A4A9
100
AcDbEntity
  8
1
  6
Continuous
100
AcDbCircle
 10
369.9805449999999
 20
202.6179519999999
 30
0.0
 40
1.984499999999996
100
AcDbArc
 50
324.77977
 51
350.0029599999999
  0
ARC
  5
A5FF
330
A4A9
100
AcDbEntity
  8
1
  6
Continuous
100
AcDbCircle
 10
373.5212399999999
 20
202.6179519999999
 30
0.0
 40
1.984499999999996
100
AcDbArc
 50
206.8632199999999
 51
215.22025
  0
ARC
  5
A600
330
A4A9
100
AcDbEntity
  8
1
  6
Continuous
100
AcDbCircle
 10
355.430679
 20
186.032733
 30
0.0
 40
8.0
100
AcDbArc
 50
30.47891
 51
87.99996799999998
  0
ARC
  5
A601
330
A4A9
100
AcDbEntity
  8
1
  6
Continuous
100
AcDbCircle
 10
358.598602
 20
202.6179519999999
 30
0.0
 40
1.984499999999996
100
AcDbArc
 50
189.99701
 51
215.22025
  0
ARC
  5
A602
330
A4A9
100
AcDbEntity
  8
1
  6
Continuous
100
AcDbCircle
 10
362.139297
 20
202.6179519999999
 30
0.0
 40
1.984499999999996
100
AcDbArc
 50
189.99701
 51
215.22025
  0
ARC
  5
A603
330
A4A9
100
AcDbEntity
  8
1
  6
Continuous
100
AcDbCircle
 10
353.3099209999999
 20
202.6179519999999
 30
0.0
 40
1.984499999999996
100
AcDbArc
 50
189.99701
 51
215.2203199999999
  0
ARC
  5
A604
330
A4A9
100
AcDbEntity
  8
1
  6
Continuous
100
AcDbCircle
 10
353.959335
 20
202.6179519999999
 30
0.0
 40
1.984499999999996
100
AcDbArc
 50
189.99701
 51
215.22025
  0
ARC
  5
A605
330
A4A9
100
AcDbEntity
  8
1
  6
Continuous
100
AcDbCircle
 10
355.780937
 20
202.6179519999999
 30
0.0
 40
1.984499999999996
100
AcDbArc
 50
189.99701
 51
215.22025
  0
ARC
  5
A606
330
A4A9
100
AcDbEntity
  8
1
  6
Continuous
100
AcDbCircle
 10
358.598602
 20
202.6179519999999
 30
0.0
 40
1.984499999999996
100
AcDbArc
 50
324.77977
 51
333.13675
  0
ARC
  5
A607
330
A4A9
100
AcDbEntity
  8
1
  6
Continuous
100
AcDbCircle
 10
366.0599209999999
 20
202.6179519999999
 30
0.0
 40
1.984499999999996
100
AcDbArc
 50
189.99701
 51
215.22025
  0
ARC
  5
A608
330
A4A9
100
AcDbEntity
  8
1
  6
Continuous
100
AcDbCircle
 10
362.139297
 20
202.6179519999999
 30
0.0
 40
1.984499999999996
100
AcDbArc
 50
324.77977
 51
350.00301
  0
LINE
  5
A609
330
A4A9
100
AcDbEntity
  8
4
  6
CENTER
100
AcDbLine
 10
338.0599209999998
 20
200.5734499999999
 30
0.0
 11
338.0599209999998
 21
212.57345
 31
0.0
  0
LINE
  5
A60A
330
A4A9
100
AcDbEntity
  8
1
  6
Continuous
100
AcDbLine
 10
331.0599209999998
 20
205.5734419999998
 30
0.0
 11
331.0599209999998
 21
207.57345
 31
0.0
  0
ARC
  5
A60B
330
A4A9
100
AcDbEntity
  8
1
  6
Continuous
100
AcDbCircle
 10
350.0599209999998
 20
198.4734489999999
 30
0.0
 40
3.0
100
AcDbArc
 50
90.0
 51
180.0
  0
LINE
  5
A60C
330
A4A9
100
AcDbEntity
  8
1
  6
Continuous
100
AcDbLine
 10
347.0599209999999
 20
198.4734489999999
 30
0.0
 11
347.0599209999999
 21
194.32992
 31
0.0
  0
ARC
  5
A60D
330
A4A9
100
AcDbEntity
  8
1
  6
Continuous
100
AcDbCircle
 10
346.3099209999999
 20
205.0734499999999
 30
0.0
 40
0.5
100
AcDbArc
 50
11.021507
 51
90.00000900000001
  0
ARC
  5
A60E
330
A4A9
100
AcDbEntity
  8
1
  6
Continuous
100
AcDbCircle
 10
349.259918
 20
204.57345
 30
0.0
 40
2.299999999999998
100
AcDbArc
 50
191.02147
 51
269.99998
  0
LINE
  5
A60F
330
A4A9
100
AcDbEntity
  8
1
  6
Continuous
100
AcDbLine
 10
347.0023649999998
 20
204.133734
 30
0.0
 11
346.80072
 21
205.1690279999998
 31
0.0
  0
ARC
  5
A610
330
A4A9
100
AcDbEntity
  8
1
  6
Continuous
100
AcDbCircle
 10
298.5793049999998
 20
183.744873
 30
0.0
 40
50.019384
100
AcDbArc
 50
169.701121
 51
203.100145
  0
ARC
  5
A611
330
A4A9
100
AcDbEntity
  8
1
  6
Continuous
100
AcDbCircle
 10
236.5405379999999
 20
183.744873
 30
0.0
 40
50.019384
100
AcDbArc
 50
336.899855
 51
10.298879
  0
ARC
  5
A612
330
A4A9
100
AcDbEntity
  8
1
  6
Continuous
100
AcDbCircle
 10
236.5405379999999
 20
183.744873
 30
0.0
 40
48.019384
100
AcDbArc
 50
336.899855
 51
12.734456
  0
ARC
  5
A613
330
A4A9
100
AcDbEntity
  8
1
  6
Continuous
100
AcDbCircle
 10
298.5793049999998
 20
183.744873
 30
0.0
 40
48.019384
100
AcDbArc
 50
167.2655439999997
 51
203.100145
  0
ARC
  5
A614
330
A4A9
100
AcDbEntity
  8
1
  6
Continuous
100
AcDbCircle
 10
283.7862579999998
 20
192.3299199999999
 30
0.0
 40
2.0
100
AcDbArc
 50
10.298879
 51
90.0
  0
ARC
  5
A615
330
A4A9
100
AcDbEntity
  8
1
  6
Continuous
100
AcDbCircle
 10
251.3335839999998
 20
192.3299199999999
 30
0.0
 40
2.0
100
AcDbArc
 50
90.0
 51
169.701121
  0
ARC
  5
A616
330
A4A9
100
AcDbEntity
  8
1
  6
Continuous
100
AcDbCircle
 10
156.083009
 20
81.06291400000001
 30
0.0
 40
6.0
100
AcDbArc
 50
270.0
 51
304.3476989999998
  0
ARC
  5
A617
330
A4A9
100
AcDbEntity
  8
1
  6
Continuous
100
AcDbCircle
 10
156.083009
 20
43.08398599999999
 30
0.0
 40
6.0
100
AcDbArc
 50
55.652301
 51
86.893229
  0
ARC
  5
A618
330
A4A9
100
AcDbEntity
  8
1
  6
Continuous
100
AcDbCircle
 10
156.083019
 20
43.083979
 30
0.0
 40
4.0
100
AcDbArc
 50
55.65233199999998
 51
90.0
  0
ARC
  5
A619
330
A4A9
100
AcDbEntity
  8
1
  6
Continuous
100
AcDbCircle
 10
141.0599209999998
 20
76.073458
 30
0.0
 40
3.25
100
AcDbArc
 50
207.6960269999999
 51
217.980054
  0
LINE
  5
A61A
330
A4A9
100
AcDbEntity
  8
5
  6
PHANTOM
100
AcDbLine
 10
109.331203
 20
146.7394919999998
 30
0.0
 11
129.350974
 21
156.85713
 31
0.0
  0
LINE
  5
A61B
330
A4A9
100
AcDbEntity
  8
5
  6
PHANTOM
100
AcDbLine
 10
108.4290929999999
 20
148.524486
 30
0.0
 11
128.448877
 21
158.6421159999999
 31
0.0
  0
LINE
  5
A61C
330
A4A9
100
AcDbEntity
  8
5
  6
PHANTOM
100
AcDbLine
 10
109.331203
 20
146.7394919999998
 30
0.0
 11
108.4290799999999
 21
148.524493
 31
0.0
  0
LINE
  5
A61D
330
A4A9
100
AcDbEntity
  8
5
  6
PHANTOM
100
AcDbLine
 10
130.1263659999999
 20
157.249002
 30
0.0
 11
131.479508
 21
154.5715149999998
 31
0.0
  0
LINE
  5
A61E
330
A4A9
100
AcDbEntity
  8
5
  6
PHANTOM
100
AcDbLine
 10
126.556406
 20
155.444801
 30
0.0
 11
127.909555
 21
152.767327
 31
0.0
  0
LINE
  5
A61F
330
A4A9
100
AcDbEntity
  8
5
  6
PHANTOM
100
AcDbLine
 10
127.909555
 20
152.767327
 30
0.0
 11
131.479536
 21
154.571534
 31
0.0
  0
LINE
  5
A620
330
A4A9
100
AcDbEntity
  8
5
  6
PHANTOM
100
AcDbLine
 10
162.1428449999999
 20
164.860645
 30
0.0
 11
165.994187
 21
172.6914689999999
 31
0.0
  0
LINE
  5
A621
330
A4A9
100
AcDbEntity
  8
5
  6
PHANTOM
100
AcDbLine
 10
154.454112
 20
171.7847149999998
 30
0.0
 11
174.473903
 21
181.902359
 31
0.0
  0
LINE
  5
A622
330
A4A9
100
AcDbEntity
  8
5
  6
PHANTOM
100
AcDbLine
 10
155.3562279999999
 20
169.9996999999999
 30
0.0
 11
175.3760199999999
 21
180.117344
 31
0.0
  0
LINE
  5
A623
330
A4A9
100
AcDbEntity
  8
5
  6
PHANTOM
100
AcDbLine
 10
159.7908419999999
 20
159.9639559999999
 30
0.0
 11
155.159636
 21
169.127713
 31
0.0
  0
LINE
  5
A624
330
A4A9
100
AcDbEntity
  8
5
  6
PHANTOM
100
AcDbLine
 10
159.4508229999999
 20
166.1846399999998
 30
0.0
 11
163.302144
 21
174.015458
 31
0.0
  0
LINE
  5
A625
330
A4A9
100
AcDbEntity
  8
5
  6
PHANTOM
100
AcDbLine
 10
159.938579
 20
166.349657
 30
0.0
 11
161.976173
 21
165.347529
 31
0.0
  0
LINE
  5
A626
330
A4A9
100
AcDbEntity
  8
5
  6
PHANTOM
100
AcDbLine
 10
161.3764909999999
 20
170.100062
 30
0.0
 11
164.068533
 21
168.7760729999999
 31
0.0
  0
LINE
  5
A627
330
A4A9
100
AcDbEntity
  8
5
  6
PHANTOM
100
AcDbLine
 10
163.48478
 20
173.520753
 30
0.0
 11
165.537935
 21
172.5109889999997
 31
0.0
  0
LINE
  5
A628
330
A4A9
100
AcDbEntity
  8
5
  6
PHANTOM
100
AcDbLine
 10
175.3760979999999
 20
180.1174239999998
 30
0.0
 11
174.473987
 21
181.9024179999999
 31
0.0
  0
LINE
  5
A629
330
A4A9
100
AcDbEntity
  8
5
  6
PHANTOM
100
AcDbLine
 10
169.128524
 20
176.959976
 30
0.0
 11
170.820623
 21
173.611845
 31
0.0
  0
LINE
  5
A62A
330
A4A9
100
AcDbEntity
  8
5
  6
PHANTOM
100
AcDbLine
 10
115.578679
 20
149.8968539999999
 30
0.0
 11
117.2707699999999
 21
146.548709
 31
0.0
  0
LINE
  5
A62B
330
A4A9
100
AcDbEntity
  8
5
  6
PHANTOM
100
AcDbLine
 10
161.553854
 20
160.9095759999999
 30
0.0
 11
156.9446439999999
 21
170.0298159999999
 31
0.0
  0
LINE
  5
A62C
330
A4A9
100
AcDbEntity
  8
1
  6
Continuous
100
AcDbLine
 10
139.598715
 20
245.983973
 30
0.0
 11
130.487737
 21
238.8515879999999
 31
0.0
  0
LINE
  5
A62E
330
A4A9
100
AcDbEntity
  8
1
  6
Continuous
100
AcDbLine
 10
159.624578
 20
245.983988
 30
0.0
 11
168.25054
 21
237.889185
 31
0.0
  0
LINE
  5
A62F
330
A4A9
100
AcDbEntity
  8
1
  6
Continuous
100
AcDbLine
 10
156.9252679999999
 20
247.449229
 30
0.0
 11
168.3817649999998
 21
236.6981759999999
 31
0.0
  0
LINE
  5
A630
330
A4A9
100
AcDbEntity
  8
1
  6
Continuous
100
AcDbLine
 10
159.624578
 20
245.983973
 30
0.0
 11
159.624578
 21
250.07345
 31
0.0
  0
LINE
  5
A631
330
A4A9
100
AcDbEntity
  8
1
  6
Continuous
100
AcDbLine
 10
139.5987299999999
 20
245.983973
 30
0.0
 11
139.5987299999999
 21
250.2276549999999
 31
0.0
  0
LINE
  5
A634
330
A4A9
100
AcDbEntity
  8
1
  6
Continuous
100
AcDbLine
 10
133.055837
 20
256.083979
 30
0.0
 11
121.6684019999999
 21
256.083979
 31
0.0
  0
LINE
  5
A635
330
A4A9
100
AcDbEntity
  8
1
  6
Continuous
100
AcDbLine
 10
138.897375
 20
245.434931
 30
0.0
 11
130.487737
 21
238.8515879999999
 31
0.0
  0
LINE
  5
A636
330
A4A9
100
AcDbEntity
  8
1
  6
Continuous
100
AcDbLine
 10
124.9407559999999
 20
254.083979
 30
0.0
 11
121.6684019999999
 21
254.083979
 31
0.0
  0
LINE
  5
A637
330
A4A9
100
AcDbEntity
  8
1
  6
Continuous
100
AcDbLine
 10
121.6684019999999
 20
256.083979
 30
0.0
 11
121.6684019999999
 21
254.083979
 31
0.0
  0
LINE
  5
A638
330
A4A9
100
AcDbEntity
  8
1
  6
Continuous
100
AcDbLine
 10
133.9179129999999
 20
258.583979
 30
0.0
 11
133.9179129999999
 21
255.8886509999999
 31
0.0
  0
LINE
  5
A639
330
A4A9
100
AcDbEntity
  8
1
  6
Continuous
100
AcDbLine
 10
251.07045
 20
142.7380679999999
 30
0.0
 11
251.07045
 21
156.147781
 31
0.0
  0
LINE
  5
A63A
330
A4A9
100
AcDbEntity
  8
1
  6
Continuous
100
AcDbLine
 10
251.07045
 20
142.7380679999999
 30
0.0
 11
249.07045
 21
142.7380679999999
 31
0.0
  0
LINE
  5
A63B
330
A4A9
100
AcDbEntity
  8
1
  6
Continuous
100
AcDbLine
 10
249.07045
 20
142.7380679999999
 30
0.0
 11
249.07045
 21
148.4368739999998
 31
0.0
  0
LINE
  5
A63C
330
A4A9
100
AcDbEntity
  8
1
  6
Continuous
100
AcDbLine
 10
242.4704439999999
 20
157.724762
 30
0.0
 11
233.5333859999999
 21
151.2923129999998
 31
0.0
  0
LINE
  5
A63D
330
A4A9
100
AcDbEntity
  8
1
  6
Continuous
100
AcDbLine
 10
232.07045
 20
146.7921599999999
 30
0.0
 11
232.07045
 21
148.4368739999998
 31
0.0
  0
LINE
  5
A63E
330
A4A9
100
AcDbEntity
  8
1
  6
Continuous
100
AcDbLine
 10
242.470429
 20
169.9352259999997
 30
0.0
 11
234.790772
 21
176.559006
 31
0.0
  0
LINE
  5
A63F
330
A4A9
100
AcDbEntity
  8
1
  6
Continuous
100
AcDbLine
 10
233.5704499999999
 20
179.238998
 30
0.0
 11
233.5704499999999
 21
180.8678129999999
 31
0.0
  0
LINE
  5
A640
330
A4A9
100
AcDbEntity
  8
1
  6
Continuous
100
AcDbLine
 10
242.4704439999999
 20
171.579956
 30
0.0
 11
235.5303189999999
 21
177.713592
 31
0.0
  0
LINE
  5
A641
330
A4A9
100
AcDbEntity
  8
1
  6
Continuous
100
AcDbLine
 10
242.4704439999999
 20
171.580124
 30
0.0
 11
250.0617039999999
 21
171.580124
 31
0.0
  0
LINE
  5
A642
330
A4A9
100
AcDbEntity
  8
1
  6
Continuous
100
AcDbLine
 10
242.4704439999999
 20
157.724762
 30
0.0
 11
249.07045
 21
157.724762
 31
0.0
  0
LINE
  5
A643
330
A4A9
100
AcDbEntity
  8
1
  6
Continuous
100
AcDbLine
 10
253.6209869999999
 20
149.256393
 30
0.0
 11
251.07045
 21
149.256393
 31
0.0
  0
LINE
  5
A644
330
A4A9
100
AcDbEntity
  8
1
  6
Continuous
100
AcDbLine
 10
253.6209869999999
 20
146.9702609999998
 30
0.0
 11
251.07045
 21
146.9702609999998
 31
0.0
  0
LINE
  5
A645
330
A4A9
100
AcDbEntity
  8
1
  6
Continuous
100
AcDbLine
 10
253.6209869999999
 20
146.9702609999998
 30
0.0
 11
253.6209869999999
 21
149.256393
 31
0.0
  0
LINE
  5
A646
330
A4A9
100
AcDbEntity
  8
1
  6
Continuous
100
AcDbLine
 10
66.049392
 20
142.7380829999999
 30
0.0
 11
66.049392
 21
144.933548
 31
0.0
  0
LINE
  5
A647
330
A4A9
100
AcDbEntity
  8
1
  6
Continuous
100
AcDbLine
 10
74.649398
 20
169.9352259999997
 30
0.0
 11
66.549392
 21
169.9352259999997
 31
0.0
  0
LINE
  5
A648
330
A4A9
100
AcDbEntity
  8
1
  6
Continuous
100
AcDbLine
 10
66.049392
 20
142.7380829999999
 30
0.0
 11
68.04939199999998
 21
142.7380829999999
 31
0.0
  0
LINE
  5
A649
330
A4A9
100
AcDbEntity
  8
1
  6
Continuous
100
AcDbLine
 10
68.04939199999998
 20
142.7380829999999
 30
0.0
 11
68.04939199999998
 21
155.83342
 31
0.0
  0
LINE
  5
A64A
330
A4A9
100
AcDbEntity
  8
1
  6
Continuous
100
AcDbLine
 10
66.549392
 20
146.031387
 30
0.0
 11
66.549392
 21
181.7212679999999
 31
0.0
  0
LINE
  5
A64B
330
A4A9
100
AcDbEntity
  8
1
  6
Continuous
100
AcDbLine
 10
64.549392
 20
176.991501
 30
0.0
 11
66.549392
 21
176.991501
 31
0.0
  0
LINE
  5
A64C
330
A4A9
100
AcDbEntity
  8
1
  6
Continuous
100
AcDbLine
 10
75.23471499999998
 20
155.658771
 30
0.0
 11
83.586448
 21
149.6476129999997
 31
0.0
  0
LINE
  5
A64D
330
A4A9
100
AcDbEntity
  8
1
  6
Continuous
100
AcDbLine
 10
75.64938999999998
 20
157.005027
 30
0.0
 11
83.586448
 21
151.292328
 31
0.0
  0
LINE
  5
A64E
330
A4A9
100
AcDbEntity
  8
1
  6
Continuous
100
AcDbLine
 10
85.04939199999999
 20
146.7921599999999
 30
0.0
 11
85.04939199999999
 21
148.4368739999998
 31
0.0
  0
LINE
  5
A64F
330
A4A9
100
AcDbEntity
  8
1
  6
Continuous
100
AcDbLine
 10
74.64942099999998
 20
169.9352419999998
 30
0.0
 11
82.32907
 21
176.559021
 31
0.0
  0
LINE
  5
A650
330
A4A9
100
AcDbEntity
  8
1
  6
Continuous
100
AcDbLine
 10
83.54939199999998
 20
179.223099
 30
0.0
 11
83.54939199999998
 21
180.8678129999999
 31
0.0
  0
LINE
  5
A651
330
A4A9
100
AcDbEntity
  8
1
  6
Continuous
100
AcDbLine
 10
64.549392
 20
146.031387
 30
0.0
 11
66.549392
 21
146.031387
 31
0.0
  0
LINE
  5
A652
330
A4A9
100
AcDbEntity
  8
1
  6
Continuous
100
AcDbLine
 10
64.549392
 20
160.0011749999999
 30
0.0
 11
66.549392
 21
160.0011749999999
 31
0.0
  0
LINE
  5
A653
330
A4A9
100
AcDbEntity
  8
1
  6
Continuous
100
AcDbLine
 10
66.049392
 20
144.933548
 30
0.0
 11
68.04939199999998
 21
144.933548
 31
0.0
  0
LINE
  5
A654
330
A4A9
100
AcDbEntity
  8
1
  6
Continuous
100
AcDbLine
 10
139.330862
 20
87.372606
 30
0.0
 11
129.9580589999999
 21
94.709962
 31
0.0
  0
LINE
  5
A655
330
A4A9
100
AcDbEntity
  8
1
  6
Continuous
100
AcDbLine
 10
158.454534
 20
77.062921
 30
0.0
 11
121.6684019999999
 21
77.062921
 31
0.0
  0
LINE
  5
A656
330
A4A9
100
AcDbEntity
  8
1
  6
Continuous
100
AcDbLine
 10
172.282522
 20
78.562921
 30
0.0
 11
155.8078209999998
 21
78.562921
 31
0.0
  0
LINE
  5
A657
330
A4A9
100
AcDbEntity
  8
1
  6
Continuous
100
AcDbLine
 10
158.4866539999999
 20
87.16291899999998
 30
0.0
 11
168.12731
 21
96.20995499999999
 31
0.0
  0
LINE
  5
A658
330
A4A9
100
AcDbEntity
  8
1
  6
Continuous
100
AcDbLine
 10
138.192892
 20
87.372659
 30
0.0
 11
128.820135
 21
94.709962
 31
0.0
  0
LINE
  5
A659
330
A4A9
100
AcDbEntity
  8
1
  6
Continuous
100
AcDbLine
 10
158.4866539999999
 20
87.16292699999998
 30
0.0
 11
158.4866539999999
 21
80.562921
 31
0.0
  0
LINE
  5
A65A
330
A4A9
100
AcDbEntity
  8
1
  6
Continuous
100
AcDbLine
 10
138.4607899999998
 20
87.28188499999998
 30
0.0
 11
138.4607899999998
 21
79.062921
 31
0.0
  0
LINE
  5
A65B
330
A4A9
100
AcDbEntity
  8
1
  6
Continuous
100
AcDbLine
 10
174.282522
 20
80.562921
 30
0.0
 11
156.190573
 21
80.562921
 31
0.0
  0
LINE
  5
A65C
330
A4A9
100
AcDbEntity
  8
1
  6
Continuous
100
AcDbLine
 10
153.3698629999999
 20
79.062921
 30
0.0
 11
121.6684019999999
 21
79.062921
 31
0.0
  0
LINE
  5
A65D
330
A4A9
100
AcDbEntity
  8
1
  6
Continuous
100
AcDbLine
 10
121.6684019999999
 20
77.062921
 30
0.0
 11
121.6684019999999
 21
79.062921
 31
0.0
  0
LINE
  5
A65E
330
A4A9
100
AcDbEntity
  8
1
  6
Continuous
100
AcDbLine
 10
171.010153
 20
78.562921
 30
0.0
 11
171.010153
 21
80.562921
 31
0.0
  0
LINE
  5
A65F
330
A4A9
100
AcDbEntity
  8
1
  6
Continuous
100
AcDbLine
 10
132.1055509999998
 20
77.062921
 30
0.0
 11
132.1055509999998
 21
79.062921
 31
0.0
  0
LINE
  5
A660
330
A4A9
100
AcDbEntity
  8
1
  6
Continuous
100
AcDbLine
 10
151.431082
 20
77.062921
 30
0.0
 11
151.431082
 21
79.062921
 31
0.0
  0
LINE
  5
A661
330
A4A9
100
AcDbEntity
  8
1
  6
Continuous
100
AcDbLine
 10
155.1401419999999
 20
78.307367
 30
0.0
 11
154.322485
 21
77.574022
 31
0.0
  0
LINE
  5
A662
330
A4A9
100
AcDbEntity
  8
1
  6
Continuous
100
AcDbLine
 10
154.8551999999999
 20
80.05180499999999
 30
0.0
 11
154.037542
 21
79.318467
 31
0.0
  0
LINE
  5
A663
330
A4A9
100
AcDbEntity
  8
1
  6
Continuous
100
AcDbLine
 10
135.055837
 20
74.562921
 30
0.0
 11
135.055837
 21
77.062921
 31
0.0
  0
LINE
  5
A664
330
A4A9
100
AcDbEntity
  8
1
  6
Continuous
100
AcDbLine
 10
138.3452509999999
 20
74.562921
 30
0.0
 11
138.3452509999999
 21
77.062921
 31
0.0
  0
LINE
  5
A665
330
A4A9
100
AcDbEntity
  8
1
  6
Continuous
100
AcDbLine
 10
137.207327
 20
74.562921
 30
0.0
 11
137.207327
 21
77.062921
 31
0.0
  0
LINE
  5
A666
330
A4A9
100
AcDbEntity
  8
1
  6
Continuous
100
AcDbLine
 10
135.055837
 20
74.562921
 30
0.0
 11
138.3452509999999
 21
74.562921
 31
0.0
  0
LINE
  5
A667
330
A4A9
100
AcDbEntity
  8
1
  6
Continuous
100
AcDbLine
 10
167.428533
 20
78.562921
 30
0.0
 11
164.0317589999999
 21
76.01345999999998
 31
0.0
  0
LINE
  5
A668
330
A4A9
100
AcDbEntity
  8
1
  6
Continuous
100
AcDbLine
 10
162.831198
 20
76.013467
 30
0.0
 11
159.4344079999999
 21
78.56292899999998
 31
0.0
  0
LINE
  5
A669
330
A4A9
100
AcDbEntity
  8
1
  6
Continuous
100
AcDbLine
 10
163.4314779999999
 20
78.063585
 30
0.0
 11
162.76618
 21
78.56292899999998
 31
0.0
  0
LINE
  5
A66A
330
A4A9
100
AcDbEntity
  8
1
  6
Continuous
100
AcDbLine
 10
164.096777
 20
78.562921
 30
0.0
 11
163.4314779999999
 21
78.06357699999998
 31
0.0
  0
ARC
  5
A66B
330
A4A9
100
AcDbEntity
  8
5
  6
PHANTOM
100
AcDbCircle
 10
124.8404639999999
 20
165.7821129999998
 30
0.0
 40
10.0
100
AcDbArc
 50
296.811235
 51
327.516774
  0
ARC
  5
A66C
330
A4A9
100
AcDbEntity
  8
5
  6
PHANTOM
100
AcDbCircle
 10
150.8456989999999
 20
178.9247109999998
 30
0.0
 40
8.0
100
AcDbArc
 50
266.1056549999999
 51
296.811235
  0
ARC
  5
A66D
330
A4A9
100
AcDbEntity
  8
5
  6
PHANTOM
100
AcDbCircle
 10
136.5655089999999
 20
188.870827
 30
0.0
 40
37.49999199999999
100
AcDbArc
 50
305.152371
 51
335.989357
  0
ARC
  5
A66E
330
A4A9
100
AcDbEntity
  8
5
  6
PHANTOM
100
AcDbCircle
 10
125.3022049999999
 20
183.1785509999999
 30
0.0
 40
37.49999199999999
100
AcDbArc
 50
257.633065
 51
288.4700849999998
  0
ARC
  5
A66F
330
A4A9
100
AcDbEntity
  8
5
  6
PHANTOM
100
AcDbCircle
 10
150.8456989999999
 20
178.9247109999998
 30
0.0
 40
10.0
100
AcDbArc
 50
266.1056549999999
 51
296.811235
  0
ARC
  5
A670
330
A4A9
100
AcDbEntity
  8
5
  6
PHANTOM
100
AcDbCircle
 10
141.232259
 20
165.6472469999999
 30
0.0
 40
18.48607099999998
100
AcDbArc
 50
257.345705
 51
336.276744
  0
ARC
  5
A671
330
A4A9
100
AcDbEntity
  8
5
  6
PHANTOM
100
AcDbCircle
 10
148.90797
 20
150.4593309999999
 30
0.0
 40
20.53125
100
AcDbArc
 50
86.10567000000001
 51
147.5167859999999
  0
ARC
  5
A672
330
A4A9
100
AcDbEntity
  8
5
  6
PHANTOM
100
AcDbCircle
 10
124.8404639999999
 20
165.7821129999998
 30
0.0
 40
8.0
100
AcDbArc
 50
296.811235
 51
327.516774
  0
ARC
  5
A673
330
A4A9
100
AcDbEntity
  8
5
  6
PHANTOM
100
AcDbCircle
 10
148.90797
 20
150.4593309999999
 30
0.0
 40
18.53125
100
AcDbArc
 50
86.10567000000001
 51
147.5167859999999
  0
ARC
  5
A674
330
A4A9
100
AcDbEntity
  8
1
  6
Continuous
100
AcDbCircle
 10
127.8979399999998
 20
245.583979
 30
0.0
 40
9.851650999999996
100
AcDbArc
 50
140.567329
 51
219.432668
  0
ARC
  5
A675
330
A4A9
100
AcDbEntity
  8
1
  6
Continuous
100
AcDbCircle
 10
125.0363829999999
 20
247.93722
 30
0.0
 40
6.146760999999997
100
AcDbArc
 50
90.89140399999999
 51
140.567329
  0
ARC
  5
A676
330
A4A9
100
AcDbEntity
  8
1
  6
Continuous
100
AcDbCircle
 10
125.0363829999999
 20
243.230738
 30
0.0
 40
6.146760999999997
100
AcDbArc
 50
219.4326709999999
 51
275.311064
  0
ARC
  5
A677
330
A4A9
100
AcDbEntity
  8
1
  6
Continuous
100
AcDbCircle
 10
129.035864
 20
245.583979
 30
0.0
 40
9.851650999999996
100
AcDbArc
 50
140.567329
 51
219.432668
  0
ARC
  5
A678
330
A4A9
100
AcDbEntity
  8
1
  6
Continuous
100
AcDbCircle
 10
126.174307
 20
247.93722
 30
0.0
 40
6.146760999999997
100
AcDbArc
 50
101.6146229999999
 51
140.567329
  0
ARC
  5
A679
330
A4A9
100
AcDbEntity
  8
1
  6
Continuous
100
AcDbCircle
 10
126.174307
 20
243.230738
 30
0.0
 40
6.146760999999997
100
AcDbArc
 50
219.4326709999999
 51
314.5668759999998
  0
ARC
  5
A67A
330
A4A9
100
AcDbEntity
  8
1
  6
Continuous
100
AcDbCircle
 10
170.187429
 20
244.083979
 30
0.0
 40
9.851650999999996
100
AcDbArc
 50
320.5673269999998
 51
37.442591
  0
ARC
  5
A67B
330
A4A9
100
AcDbEntity
  8
1
  6
Continuous
100
AcDbCircle
 10
173.048986
 20
241.730738
 30
0.0
 40
6.146760999999997
100
AcDbArc
 50
218.68019
 51
320.5673269999998
  0
ARC
  5
A67C
330
A4A9
100
AcDbEntity
  8
1
  6
Continuous
100
AcDbCircle
 10
171.9110619999999
 20
241.730738
 30
0.0
 40
6.146760999999997
100
AcDbArc
 50
234.95832
 51
275.311064
  0
ARC
  5
A67D
330
A4A9
100
AcDbEntity
  8
1
  6
Continuous
100
AcDbCircle
 10
122.940756
 20
254.083979
 30
0.0
 40
2.0
100
AcDbArc
 50
356.3919439999998
 51
90.00000300000001
  0
ARC
  5
A67E
330
A4A9
100
AcDbEntity
  8
1
  6
Continuous
100
AcDbCircle
 10
133.055837
 20
254.083979
 30
0.0
 40
2.0
100
AcDbArc
 50
55.46115699999999
 51
90.00000300000001
  0
ARC
  5
A67F
330
A4A9
100
AcDbEntity
  8
1
  6
Continuous
100
AcDbCircle
 10
152.3287559999999
 20
207.972712
 30
0.0
 40
40.086208
100
AcDbArc
 50
87.393794
 51
107.1556069999999
  0
ARC
  5
A680
330
A4A9
100
AcDbEntity
  8
1
  6
Continuous
100
AcDbCircle
 10
153.298208
 20
236.798273
 30
0.0
 40
11.251592
100
AcDbArc
 50
55.78749300000001
 51
85.650559
  0
ARC
  5
A681
330
A4A9
100
AcDbEntity
  8
1
  6
Continuous
100
AcDbCircle
 10
141.979452
 20
241.497843
 30
0.0
 40
5.0
100
AcDbArc
 50
107.1556069999999
 51
128.0550499999999
  0
ARC
  5
A682
330
A4A9
100
AcDbEntity
  8
1
  6
Continuous
100
AcDbCircle
 10
240.57045
 20
157.1929019999998
 30
0.0
 40
13.592206
100
AcDbArc
 50
240.3616959999999
 51
299.638299
  0
ARC
  5
A683
330
A4A9
100
AcDbEntity
  8
1
  6
Continuous
100
AcDbCircle
 10
245.5523069999999
 20
148.4368739999998
 30
0.0
 40
3.518145999999997
100
AcDbArc
 50
299.638299
 51
0.000003
  0
ARC
  5
A684
330
A4A9
100
AcDbEntity
  8
1
  6
Continuous
100
AcDbCircle
 10
235.5885929999999
 20
148.4368739999998
 30
0.0
 40
3.518145999999997
100
AcDbArc
 50
125.7444519999999
 51
240.361706
  0
ARC
  5
A685
330
A4A9
100
AcDbEntity
  8
1
  6
Continuous
100
AcDbCircle
 10
235.5885929999999
 20
148.4368739999998
 30
0.0
 40
3.518145999999997
100
AcDbArc
 50
125.7444519999999
 51
180.000005
  0
ARC
  5
A686
330
A4A9
100
AcDbEntity
  8
1
  6
Continuous
100
AcDbCircle
 10
242.0704499999999
 20
172.111801
 30
0.0
 40
13.592206
100
AcDbArc
 50
61.477033
 51
119.638304
  0
ARC
  5
A687
330
A4A9
100
AcDbEntity
  8
1
  6
Continuous
100
AcDbCircle
 10
237.088593
 20
179.223099
 30
0.0
 40
3.518145999999997
100
AcDbArc
 50
179.9999909999999
 51
229.221941
  0
ARC
  5
A688
330
A4A9
100
AcDbEntity
  8
1
  6
Continuous
100
AcDbCircle
 10
242.444824
 20
168.0825959999999
 30
0.0
 40
1.852803999999999
100
AcDbArc
 50
18.56101299999998
 51
90.00000300000001
  0
ARC
  5
A689
330
A4A9
100
AcDbEntity
  8
1
  6
Continuous
100
AcDbCircle
 10
237.2762449999999
 20
166.3470919999998
 30
0.0
 40
7.304966999999997
100
AcDbArc
 50
7.903514999999999
 51
17.966712
  0
ARC
  5
A68A
330
A4A9
100
AcDbEntity
  8
1
  6
Continuous
100
AcDbCircle
 10
237.088593
 20
180.8678129999999
 30
0.0
 40
3.518145999999997
100
AcDbArc
 50
119.6382899999999
 51
243.709209
  0
ARC
  5
A68B
330
A4A9
100
AcDbEntity
  8
1
  6
Continuous
100
AcDbCircle
 10
242.444824
 20
169.7273099999998
 30
0.0
 40
1.852803999999999
100
AcDbArc
 50
18.56101299999998
 51
90.00000300000001
  0
ARC
  5
A68C
330
A4A9
100
AcDbEntity
  8
1
  6
Continuous
100
AcDbCircle
 10
237.2762449999999
 20
167.991806
 30
0.0
 40
7.304966999999997
100
AcDbArc
 50
353.536205
 51
17.966712
  0
ARC
  5
A68D
330
A4A9
100
AcDbEntity
  8
1
  6
Continuous
100
AcDbCircle
 10
207.245056
 20
170.224197
 30
0.0
 40
37.37731899999999
100
AcDbArc
 50
340.463209
 51
355.5922009999999
  0
ARC
  5
A68E
330
A4A9
100
AcDbEntity
  8
1
  6
Continuous
100
AcDbCircle
 10
240.57045
 20
155.5481719999999
 30
0.0
 40
13.592206
100
AcDbArc
 50
240.3616959999999
 51
299.638299
  0
ARC
  5
A68F
330
A4A9
100
AcDbEntity
  8
1
  6
Continuous
100
AcDbCircle
 10
235.5885929999999
 20
146.7921599999999
 30
0.0
 40
3.518145999999997
100
AcDbArc
 50
179.9999909999999
 51
240.361706
  0
ARC
  5
A690
330
A4A9
100
AcDbEntity
  8
1
  6
Continuous
100
AcDbCircle
 10
245.5523069999999
 20
146.7921599999999
 30
0.0
 40
3.518145999999997
100
AcDbArc
 50
299.638299
 51
0.000003
  0
ARC
  5
A691
330
A4A9
100
AcDbEntity
  8
1
  6
Continuous
100
AcDbCircle
 10
247.5704499999999
 20
151.031387
 30
0.0
 40
5.0
100
AcDbArc
 50
339.2068499999998
 51
0.000003
  0
ARC
  5
A692
330
A4A9
100
AcDbEntity
  8
1
  6
Continuous
100
AcDbCircle
 10
247.5704499999999
 20
159.71849
 30
0.0
 40
5.0
100
AcDbArc
 50
314.427004
 51
0.000003
  0
ARC
  5
A693
330
A4A9
100
AcDbEntity
  8
1
  6
Continuous
100
AcDbCircle
 10
70.20535999999998
 20
149.4469449999997
 30
0.0
 40
5.0
100
AcDbArc
 50
223.087164
 51
244.5124429999999
  0
ARC
  5
A694
330
A4A9
100
AcDbEntity
  8
1
  6
Continuous
100
AcDbCircle
 10
68.20536700000001
 20
149.4469449999997
 30
0.0
 40
5.0
100
AcDbArc
 50
223.087164
 51
244.5124429999999
  0
ARC
  5
A695
330
A4A9
100
AcDbEntity
  8
1
  6
Continuous
100
AcDbCircle
 10
66.549392
 20
179.7212679999999
 30
0.0
 40
2.0
100
AcDbArc
 50
90.00000300000001
 51
180.000005
  0
ARC
  5
A696
330
A4A9
100
AcDbEntity
  8
1
  6
Continuous
100
AcDbCircle
 10
76.54939199999998
 20
155.5481719999999
 30
0.0
 40
13.592206
100
AcDbArc
 50
240.3616959999999
 51
299.6383059999999
  0
ARC
  5
A697
330
A4A9
100
AcDbEntity
  8
1
  6
Continuous
100
AcDbCircle
 10
71.56753499999997
 20
146.7921599999999
 30
0.0
 40
3.518145999999997
100
AcDbArc
 50
180.000005
 51
240.361706
  0
ARC
  5
A698
330
A4A9
100
AcDbEntity
  8
1
  6
Continuous
100
AcDbCircle
 10
81.531242
 20
146.7921599999999
 30
0.0
 40
3.518145999999997
100
AcDbArc
 50
299.6383059999999
 51
54.25554599999999
  0
ARC
  5
A699
330
A4A9
100
AcDbEntity
  8
1
  6
Continuous
100
AcDbCircle
 10
81.531242
 20
148.4368739999998
 30
0.0
 40
3.518145999999997
100
AcDbArc
 50
359.999997
 51
54.25554599999999
  0
ARC
  5
A69A
330
A4A9
100
AcDbEntity
  8
1
  6
Continuous
100
AcDbCircle
 10
75.04939199999999
 20
172.111801
 30
0.0
 40
13.592206
100
AcDbArc
 50
60.36170099999999
 51
119.638304
  0
ARC
  5
A69B
330
A4A9
100
AcDbEntity
  8
1
  6
Continuous
100
AcDbCircle
 10
70.06753499999999
 20
180.8678129999999
 30
0.0
 40
3.518145999999997
100
AcDbArc
 50
119.638304
 51
180.000005
  0
ARC
  5
A69C
330
A4A9
100
AcDbEntity
  8
1
  6
Continuous
100
AcDbCircle
 10
80.031242
 20
180.8678129999999
 30
0.0
 40
3.518145999999997
100
AcDbArc
 50
359.999997
 51
60.36170099999999
  0
ARC
  5
A69D
330
A4A9
100
AcDbEntity
  8
1
  6
Continuous
100
AcDbCircle
 10
75.04939199999999
 20
170.4670869999999
 30
0.0
 40
13.592206
100
AcDbArc
 50
60.36170099999999
 51
119.638304
  0
ARC
  5
A69E
330
A4A9
100
AcDbEntity
  8
1
  6
Continuous
100
AcDbCircle
 10
70.06753499999999
 20
179.223099
 30
0.0
 40
3.518145999999997
100
AcDbArc
 50
119.638304
 51
180.000005
  0
ARC
  5
A69F
330
A4A9
100
AcDbEntity
  8
1
  6
Continuous
100
AcDbCircle
 10
80.031242
 20
179.223099
 30
0.0
 40
3.518145999999997
100
AcDbArc
 50
309.5937259999999
 51
60.36170099999999
  0
ARC
  5
A6A0
330
A4A9
100
AcDbEntity
  8
1
  6
Continuous
100
AcDbCircle
 10
109.874778
 20
170.224197
 30
0.0
 40
37.37731899999999
100
AcDbArc
 50
184.407803
 51
191.939919
  0
ARC
  5
A6A1
330
A4A9
100
AcDbEntity
  8
1
  6
Continuous
100
AcDbCircle
 10
74.67501799999998
 20
168.0825959999999
 30
0.0
 40
1.852803999999999
100
AcDbArc
 50
90.00000300000001
 51
161.4389799999998
  0
ARC
  5
A6A2
330
A4A9
100
AcDbEntity
  8
1
  6
Continuous
100
AcDbCircle
 10
109.8703839999999
 20
168.5934289999998
 30
0.0
 40
37.37731899999999
100
AcDbArc
 50
183.1994469999999
 51
188.1902889999999
  0
ARC
  5
A6A3
330
A4A9
100
AcDbEntity
  8
1
  6
Continuous
100
AcDbCircle
 10
79.84358899999998
 20
166.3470919999998
 30
0.0
 40
7.304966999999997
100
AcDbArc
 50
162.033288
 51
178.741283
  0
ARC
  5
A6A4
330
A4A9
100
AcDbEntity
  8
1
  6
Continuous
100
AcDbCircle
 10
172.282522
 20
80.562921
 30
0.0
 40
2.0
100
AcDbArc
 50
269.9999969999999
 51
3.561938999999998
  0
ARC
  5
A6A5
330
A4A9
100
AcDbEntity
  8
1
  6
Continuous
100
AcDbCircle
 10
169.049505
 20
89.06292099999998
 30
0.0
 40
9.851650999999996
100
AcDbArc
 50
320.5673269999998
 51
39.432673
  0
ARC
  5
A6A6
330
A4A9
100
AcDbEntity
  8
1
  6
Continuous
100
AcDbCircle
 10
171.9110619999999
 20
91.41616199999999
 30
0.0
 40
6.146760999999997
100
AcDbArc
 50
39.432673
 51
128.2840799999999
  0
ARC
  5
A6A7
330
A4A9
100
AcDbEntity
  8
1
  6
Continuous
100
AcDbCircle
 10
171.9110619999999
 20
86.70968
 30
0.0
 40
6.146760999999997
100
AcDbArc
 50
269.9999969999999
 51
320.5673269999998
  0
ARC
  5
A6A8
330
A4A9
100
AcDbEntity
  8
1
  6
Continuous
100
AcDbCircle
 10
170.187429
 20
89.06292099999998
 30
0.0
 40
9.851650999999996
100
AcDbArc
 50
320.5673269999998
 51
39.432673
  0
ARC
  5
A6A9
330
A4A9
100
AcDbEntity
  8
1
  6
Continuous
100
AcDbCircle
 10
173.048986
 20
91.41616199999999
 30
0.0
 40
6.146760999999997
100
AcDbArc
 50
39.432673
 51
95.31106200000001
  0
ARC
  5
A6AA
330
A4A9
100
AcDbEntity
  8
1
  6
Continuous
100
AcDbCircle
 10
173.048986
 20
86.70968
 30
0.0
 40
6.146760999999997
100
AcDbArc
 50
269.9999969999999
 51
320.5673269999998
  0
ARC
  5
A6AB
330
A4A9
100
AcDbEntity
  8
1
  6
Continuous
100
AcDbCircle
 10
127.8979399999998
 20
87.56292100000001
 30
0.0
 40
9.851650999999996
100
AcDbArc
 50
140.567329
 51
219.432668
  0
ARC
  5
A6AC
330
A4A9
100
AcDbEntity
  8
1
  6
Continuous
100
AcDbCircle
 10
125.0363829999999
 20
89.91616200000001
 30
0.0
 40
6.146760999999997
100
AcDbArc
 50
51.71595599999999
 51
140.567329
  0
ARC
  5
A6AD
330
A4A9
100
AcDbEntity
  8
1
  6
Continuous
100
AcDbCircle
 10
125.0363829999999
 20
85.20968000000001
 30
0.0
 40
6.146760999999997
100
AcDbArc
 50
219.4326709999999
 51
269.9999969999999
  0
ARC
  5
A6AE
330
A4A9
100
AcDbEntity
  8
1
  6
Continuous
100
AcDbCircle
 10
126.174307
 20
89.91616200000001
 30
0.0
 40
6.146760999999997
100
AcDbArc
 50
51.718104
 51
95.31106200000001
  0
ARC
  5
A6AF
330
A4A9
100
AcDbEntity
  8
1
  6
Continuous
100
AcDbCircle
 10
152.328115
 20
125.29326
 30
0.0
 40
40.086208
100
AcDbArc
 50
251.079861
 51
255.1580959999999
  0
ARC
  5
A6B0
330
A4A9
100
AcDbEntity
  8
1
  6
Continuous
100
AcDbCircle
 10
152.1602839999999
 20
96.46750799999999
 30
0.0
 40
11.251592
100
AcDbArc
 50
274.349441
 51
304.2125069999999
  0
ARC
  5
A6B1
330
A4A9
100
AcDbEntity
  8
1
  6
Continuous
100
AcDbCircle
 10
151.190832
 20
125.293062
 30
0.0
 40
40.086208
100
AcDbArc
 50
251.079861
 51
256.8334849999998
  0
ARC
  5
A6B2
330
A4A9
100
AcDbEntity
  8
1
  6
Continuous
100
AcDbCircle
 10
155.8078209999998
 20
77.562921
 30
0.0
 40
1.0
100
AcDbArc
 50
90.00000300000001
 51
131.8883849999997
  0
ARC
  5
A6B3
330
A4A9
100
AcDbEntity
  8
1
  6
Continuous
100
AcDbCircle
 10
152.9871269999999
 20
79.062921
 30
0.0
 40
2.0
100
AcDbArc
 50
269.9999969999999
 51
311.88839
  0
ARC
  5
A6B4
330
A4A9
100
AcDbEntity
  8
1
  6
Continuous
100
AcDbCircle
 10
156.190573
 20
78.562921
 30
0.0
 40
2.0
100
AcDbArc
 50
90.00000300000001
 51
131.8883849999997
  0
ARC
  5
A6B5
330
A4A9
100
AcDbEntity
  8
1
  6
Continuous
100
AcDbCircle
 10
153.3698629999999
 20
80.06292100000001
 30
0.0
 40
1.0
100
AcDbArc
 50
269.9999969999999
 51
311.88839
  0
ARC
  5
A6B6
330
A4A9
100
AcDbEntity
  8
1
  6
Continuous
100
AcDbCircle
 10
158.454534
 20
79.062921
 30
0.0
 40
2.0
100
AcDbArc
 50
269.9999969999999
 51
328.5124009999999
  0
ARC
  5
A6B7
330
A4A9
100
AcDbEntity
  8
1
  6
Continuous
100
AcDbCircle
 10
163.4314779999999
 20
76.81325699999998
 30
0.0
 40
1.0
100
AcDbArc
 50
233.109907
 51
306.8900919999998
  0
LINE
  5
A6B8
330
A4A9
100
AcDbEntity
  8
1
  6
Continuous
100
AcDbLine
 10
153.752587
 20
146.0313689999999
 30
0.0
 11
159.594445
 21
154.475018
 31
0.0
  0
LINE
  5
A6B9
330
A4A9
100
AcDbEntity
  8
1
  6
Continuous
100
AcDbLine
 10
155.425057
 20
144.9335299999999
 30
0.0
 11
161.239175
 21
153.337079
 31
0.0
  0
LINE
  5
A6BA
330
A4A9
100
AcDbEntity
  8
1
  6
Continuous
100
AcDbLine
 10
161.5924609999999
 20
156.363233
 30
0.0
 11
180.0390399999997
 21
143.6006899999999
 31
0.0
  0
LINE
  5
A6BB
330
A4A9
100
AcDbEntity
  8
1
  6
Continuous
100
AcDbLine
 10
160.454522
 20
154.7184879999998
 30
0.0
 11
178.901101
 21
141.9559449999999
 31
0.0
  0
ARC
  5
A6BC
330
A4A9
100
AcDbEntity
  8
1
  6
Continuous
100
AcDbCircle
 10
149.888192
 20
165.052075
 30
0.0
 40
18.48607099999998
100
AcDbArc
 50
195.856484
 51
274.787523
  0
LINE
  5
A6BD
330
A4A9
100
AcDbEntity
  8
1
  6
Continuous
100
AcDbLine
 10
159.178109
 20
146.301907
 30
0.0
 11
167.897607
 21
146.6554689999999
 31
0.0
  0
LINE
  5
A6BE
330
A4A9
100
AcDbEntity
  8
1
  6
Continuous
100
AcDbLine
 10
159.0565729999999
 20
149.2994359999999
 30
0.0
 11
167.776055
 21
149.6530119999999
 31
0.0
  0
ARC
  5
A6BF
330
A4A9
100
AcDbEntity
  8
1
  6
Continuous
100
AcDbCircle
 10
168.067834
 20
180.238049
 30
0.0
 40
37.49999199999999
100
AcDbArc
 50
243.66315
 51
274.5001359999998
  0
LINE
  5
A6C0
330
A4A9
100
AcDbEntity
  8
1
  6
Continuous
100
AcDbLine
 10
159.4343959999999
 20
148.949597
 30
0.0
 11
159.5263909999999
 21
146.680768
 31
0.0
  0
LINE
  5
A6C1
330
A4A9
100
AcDbEntity
  8
1
  6
Continuous
100
AcDbLine
 10
163.416329
 20
149.476224
 30
0.0
 11
163.5378809999999
 21
146.4786809999999
 31
0.0
  0
LINE
  5
A6C2
330
A4A9
100
AcDbEntity
  8
1
  6
Continuous
100
AcDbLine
 10
167.4285209999998
 20
149.2563899999999
 30
0.0
 11
167.5212329999999
 21
146.9702419999999
 31
0.0
  0
LINE
  5
A6C3
330
A4A9
100
AcDbEntity
  8
1
  6
Continuous
100
AcDbLine
 10
178.901208
 20
141.9559139999998
 30
0.0
 11
180.0391319999999
 21
143.6006439999998
 31
0.0
  0
LINE
  5
A6C4
330
A4A9
100
AcDbEntity
  8
1
  6
Continuous
100
AcDbLine
 10
173.144555
 20
145.938702
 30
0.0
 11
171.0101399999998
 21
142.8536649999998
 31
0.0
  0
LINE
  5
A6C5
330
A4A9
100
AcDbEntity
  8
1
  6
Continuous
100
AcDbLine
 10
118.0462879999997
 20
184.059277
 30
0.0
 11
136.492852
 21
171.2967499999997
 31
0.0
  0
LINE
  5
A6C6
330
A4A9
100
AcDbEntity
  8
1
  6
Continuous
100
AcDbLine
 10
119.1842129999999
 20
185.704007
 30
0.0
 11
137.6307759999999
 21
172.9414639999999
 31
0.0
  0
ARC
  5
A6C7
330
A4A9
100
AcDbEntity
  8
1
  6
Continuous
100
AcDbCircle
 10
157.689629
 20
187.418363
 30
0.0
 40
37.49999199999999
100
AcDbArc
 50
196.143844
 51
226.980864
  0
LINE
  5
A6C8
330
A4A9
100
AcDbEntity
  8
1
  6
Continuous
100
AcDbLine
 10
123.802819
 20
180.0765349999998
 30
0.0
 11
121.6683889999998
 21
176.991498
 31
0.0
  0
LINE
  5
A6C9
330
A4A9
100
AcDbEntity
  8
1
  6
Continuous
100
AcDbLine
 10
118.0462879999997
 20
184.059277
 30
0.0
 11
119.1842129999999
 21
185.704022
 31
0.0
  0
ARC
  5
A6CA
330
A4A9
100
AcDbEntity
  8
1
  6
Continuous
100
AcDbCircle
 10
140.2059559999998
 20
151.05766
 30
0.0
 40
18.53125
100
AcDbArc
 50
24.616449
 51
86.027564
  0
ARC
  5
A6CB
330
A4A9
100
AcDbEntity
  8
1
  6
Continuous
100
AcDbCircle
 10
140.2059559999998
 20
151.05766
 30
0.0
 40
20.53125
100
AcDbArc
 50
24.616449
 51
86.027564
  0
LINE
  5
A6CC
330
A4A9
100
AcDbEntity
  8
1
  6
Continuous
100
AcDbLine
 10
133.917886
 20
173.0782749999999
 30
0.0
 11
132.2110069999999
 21
170.6112029999999
 31
0.0
  0
ARC
  5
A6CD
330
A4A9
100
AcDbEntity
  8
1
  6
Continuous
100
AcDbCircle
 10
142.1825039999999
 20
179.520368
 30
0.0
 40
10.0
100
AcDbArc
 50
235.3220140000001
 51
266.0275529999998
  0
ARC
  5
A6CE
330
A4A9
100
AcDbEntity
  8
1
  6
Continuous
100
AcDbCircle
 10
142.1825039999999
 20
179.520368
 30
0.0
 40
8.0
100
AcDbArc
 50
235.3220140000001
 51
266.0275529999998
  0
LINE
  5
A6CF
330
A4A9
100
AcDbEntity
  8
1
  6
Continuous
100
AcDbLine
 10
137.2073139999999
 20
170.8024409999999
 30
0.0
 11
135.5004199999999
 21
168.3353699999998
 31
0.0
  0
LINE
  5
A6D0
330
A4A9
100
AcDbEntity
  8
1
  6
Continuous
100
AcDbLine
 10
132.2110069999999
 20
170.6112029999999
 30
0.0
 11
135.500451
 21
168.3353549999999
 31
0.0
  0
ARC
  5
A6D1
330
A4A9
100
AcDbEntity
  8
1
  6
Continuous
100
AcDbCircle
 10
166.1441889999998
 20
162.942136
 30
0.0
 40
8.0
100
AcDbArc
 50
204.6164339999999
 51
235.3220140000001
  0
ARC
  5
A6D2
330
A4A9
100
AcDbEntity
  8
1
  6
Continuous
100
AcDbCircle
 10
166.1441889999998
 20
162.942136
 30
0.0
 40
10.0
100
AcDbArc
 50
204.6164339999999
 51
235.3220140000001
  0
ARC
  5
A6D3
330
A4A9
100
AcDbEntity
  8
1
  6
Continuous
100
AcDbCircle
 10
169.059921
 20
62.07345
 30
0.0
 40
17.0
100
AcDbArc
 50
117.268177
 51
124.347699
  0
LINE
  5
A6D4
330
A4A9
100
AcDbEntity
  8
1
  6
Continuous
100
AcDbLine
 10
134.2248459999999
 20
258.583979
 30
0.0
 11
133.9179129999999
 21
258.583979
 31
0.0
  0
LINE
  5
A6D5
330
A4A9
100
AcDbEntity
  8
1
  6
Continuous
100
AcDbLine
 10
68.04939199999998
 20
151.8234459999999
 30
0.0
 11
68.04939199999998
 21
164.3234459999999
 31
0.0
  0
ARC
  5
A6D6
330
A4A9
100
AcDbEntity
  8
1
  6
Continuous
100
AcDbCircle
 10
379.160185
 20
158.003781
 30
0.0
 40
1.600041
100
AcDbArc
 50
41.41151599999999
 51
177.504568
  0
ARC
  5
A6D7
330
A4A9
100
AcDbEntity
  8
1
  6
Continuous
100
AcDbCircle
 10
390.0599209999999
 20
158.0734459999999
 30
0.0
 40
9.75
100
AcDbArc
 50
174.179899
 51
229.03966
  0
ARC
  5
A6D8
330
A4A9
100
AcDbEntity
  8
1
  6
Continuous
100
AcDbCircle
 10
390.0599209999999
 20
158.0734459999999
 30
0.0
 40
10.84999999999999
100
AcDbArc
 50
171.9327209999999
 51
229.03966
  0
ARC
  5
A6D9
330
A4A9
100
AcDbEntity
  8
1
  6
Continuous
100
AcDbCircle
 10
390.0599209999999
 20
158.0734459999999
 30
0.0
 40
10.84999999999999
100
AcDbArc
 50
344.307317
 51
36.187339
  0
ARC
  5
A6DA
330
A4A9
100
AcDbEntity
  8
1
  6
Continuous
100
AcDbCircle
 10
390.0599209999999
 20
158.0734459999999
 30
0.0
 40
9.75
100
AcDbArc
 50
344.307317
 51
34.83975
  0
ARC
  5
A6DB
330
A4A9
100
AcDbEntity
  8
1
  6
Continuous
100
AcDbCircle
 10
390.0599209999999
 20
158.0734459999999
 30
0.0
 40
12.5
100
AcDbArc
 50
158.285605
 51
55.533673
  0
LINE
  5
A6DC
330
A4A9
100
AcDbEntity
  8
1
  6
Continuous
100
AcDbLine
 10
66.549392
 20
156.202617
 30
0.0
 11
68.04939199999998
 21
154.3234459999998
 31
0.0
  0
ARC
  5
A6DD
330
A4A9
100
AcDbEntity
  8
1
  6
Continuous
100
AcDbCircle
 10
63.778559
 20
151.8234459999999
 30
0.0
 40
4.270832999999997
100
AcDbArc
 50
310.449719
 51
0.0
  0
ARC
  5
A6DE
330
A4A9
100
AcDbEntity
  8
1
  6
Continuous
100
AcDbCircle
 10
390.0599209999999
 20
158.0734459999999
 30
0.0
 40
10.84999999999999
100
AcDbArc
 50
241.7451310000001
 51
335.042525
  0
ARC
  5
A6DF
330
A4A9
100
AcDbEntity
  8
1
  6
Continuous
100
AcDbCircle
 10
381.783633
 20
150.827547
 30
0.0
 40
1.5
100
AcDbArc
 50
221.2021799999999
 51
319.0396600000001
  0
LINE
  5
A6E0
330
A4A9
100
AcDbEntity
  8
1
  6
Continuous
100
AcDbLine
 10
382.9163779999998
 20
149.8442419999998
 30
0.0
 11
384.8604919999999
 21
152.083819
 31
0.0
  0
ARC
  5
A6E1
330
A4A9
100
AcDbEntity
  8
1
  6
Continuous
100
AcDbCircle
 10
400.956704
 20
156.5700749999997
 30
0.0
 40
1.5
100
AcDbArc
 50
254.3073169999999
 51
352.144797
  0
ARC
  5
A6E2
330
A4A9
100
AcDbEntity
  8
1
  6
Continuous
100
AcDbCircle
 10
399.0531439999998
 20
157.624238
 30
0.0
 40
2.0
100
AcDbArc
 50
234.19306
 51
254.3073169999999
  0
LINE
  5
A6E3
330
A4A9
100
AcDbEntity
  8
1
  6
Continuous
100
AcDbLine
 10
398.5121889999999
 20
155.6987849999998
 30
0.0
 11
400.5509879999998
 21
155.125986
 31
0.0
  0
ARC
  5
A6E4
330
A4A9
100
AcDbEntity
  8
1
  6
Continuous
100
AcDbCircle
 10
63.778559
 20
164.3234459999999
 30
0.0
 40
4.270832999999997
100
AcDbArc
 50
310.449719
 51
49.55028099999999
  0
LINE
  5
A6E5
330
A4A9
100
AcDbEntity
  8
1
  6
Continuous
100
AcDbLine
 10
66.549392
 20
160.0011929999998
 30
0.0
 11
68.04939199999998
 21
161.823446
 31
0.0
  0
ARC
  5
A6E6
330
A4A9
100
AcDbEntity
  8
1
  6
Continuous
100
AcDbCircle
 10
145.059921
 20
76.292088
 30
0.0
 40
4.270832999999997
100
AcDbArc
 50
40.449719
 51
139.550281
  0
ARC
  5
A6E7
330
A4A9
100
AcDbEntity
  8
1
  6
Continuous
100
AcDbCircle
 10
399.7664259999999
 20
163.318412
 30
0.0
 40
1.5
100
AcDbArc
 50
41.20218
 51
139.03966
  0
LINE
  5
A6E8
330
A4A9
100
AcDbEntity
  8
1
  6
Continuous
100
AcDbLine
 10
398.633681
 20
164.301717
 30
0.0
 11
397.5797209999998
 21
163.087578
 31
0.0
  0
LINE
  5
A6E9
330
A4A9
100
AcDbEntity
  8
1
  6
Continuous
100
AcDbLine
 10
68.046757
 20
164.473446
 30
0.0
 11
69.049392
 21
164.473446
 31
0.0
  0
LINE
  5
A6EA
330
A4A9
100
AcDbEntity
  8
1
  6
Continuous
100
AcDbLine
 10
68.046757
 20
151.6734459999999
 30
0.0
 11
69.049392
 21
151.6734459999999
 31
0.0
  0
LINE
  5
A6EB
330
A4A9
100
AcDbEntity
  8
1
  6
Continuous
100
AcDbLine
 10
69.049392
 20
151.6734459999999
 30
0.0
 11
69.049392
 21
164.473446
 31
0.0
  0
LINE
  5
A6EC
330
A4A9
100
AcDbEntity
  8
1
  6
Continuous
100
AcDbLine
 10
68.04939199999998
 20
161.0734459999999
 30
0.0
 11
67.432024
 21
161.0734459999999
 31
0.0
  0
LINE
  5
A6ED
330
A4A9
100
AcDbEntity
  8
2
  6
Continuous
100
AcDbLine
 10
68.09089200000001
 20
160.531946
 30
0.0
 11
66.98628499999999
 21
160.531946
 31
0.0
  0
LINE
  5
A6EE
330
A4A9
100
AcDbEntity
  8
2
  6
Continuous
100
AcDbLine
 10
68.09089200000001
 20
155.614946
 30
0.0
 11
67.01848599999999
 21
155.614946
 31
0.0
  0
LINE
  5
A6EF
330
A4A9
100
AcDbEntity
  8
1
  6
Continuous
100
AcDbLine
 10
68.04939199999998
 20
155.0734459999999
 30
0.0
 11
67.45072399999999
 21
155.0734459999999
 31
0.0
  0
LINE
  5
A6F0
330
A4A9
100
AcDbEntity
  8
1
  6
Continuous
100
AcDbLine
 10
138.6599209999999
 20
81.56292099999998
 30
0.0
 11
151.459921
 21
81.56292099999998
 31
0.0
  0
LINE
  5
A6F1
330
A4A9
100
AcDbEntity
  8
1
  6
Continuous
100
AcDbLine
 10
138.6599209999999
 20
81.56292099999998
 30
0.0
 11
138.6599209999999
 21
80.562921
 31
0.0
  0
LINE
  5
A6F2
330
A4A9
100
AcDbEntity
  8
1
  6
Continuous
100
AcDbLine
 10
151.459921
 20
81.56292099999998
 30
0.0
 11
151.459921
 21
80.562921
 31
0.0
  0
LINE
  5
A6F3
330
A4A9
100
AcDbEntity
  8
1
  6
Continuous
100
AcDbLine
 10
138.6599209999999
 20
80.562921
 30
0.0
 11
151.459921
 21
80.562921
 31
0.0
  0
ARC
  5
A6F4
330
A4A9
100
AcDbEntity
  8
1
  6
Continuous
100
AcDbCircle
 10
152.328115
 20
125.29326
 30
0.0
 40
40.086208
100
AcDbArc
 50
266.7563059999998
 51
269.1968699999999
  0
ARC
  5
A6F5
330
A4A9
100
AcDbEntity
  8
1
  6
Continuous
100
AcDbCircle
 10
151.190832
 20
125.293062
 30
0.0
 40
40.086208
100
AcDbArc
 50
268.3833589999999
 51
272.6062059999998
  0
LINE
  5
A6F6
330
A4A9
100
AcDbEntity
  8
2
  6
Continuous
100
AcDbLine
 10
147.5184209999999
 20
80.562921
 30
0.0
 11
147.5184209999999
 21
79.784335
 31
0.0
  0
LINE
  5
A6F7
330
A4A9
100
AcDbEntity
  8
1
  6
Continuous
100
AcDbLine
 10
148.059921
 20
80.562921
 30
0.0
 11
148.059921
 21
79.331827
 31
0.0
  0
LINE
  5
A6F8
330
A4A9
100
AcDbEntity
  8
2
  6
Continuous
100
AcDbLine
 10
142.6014209999999
 20
80.562921
 30
0.0
 11
142.6014209999999
 21
79.784335
 31
0.0
  0
LINE
  5
A6F9
330
A4A9
100
AcDbEntity
  8
1
  6
Continuous
100
AcDbLine
 10
142.0599209999998
 20
80.562921
 30
0.0
 11
142.0599209999998
 21
79.331827
 31
0.0
  0
LINE
  5
A6FA
330
A4A9
100
AcDbEntity
  8
1
  6
Continuous
100
AcDbLine
 10
63.498855
 20
149.3393879999999
 30
0.0
 11
64.549392
 21
149.3393879999999
 31
0.0
  0
LINE
  5
A6FB
330
A4A9
100
AcDbEntity
  8
1
  6
Continuous
100
AcDbLine
 10
63.498855
 20
147.053255
 30
0.0
 11
64.549392
 21
147.053255
 31
0.0
  0
LINE
  5
A6FC
330
A4A9
100
AcDbEntity
  8
1
  6
Continuous
100
AcDbLine
 10
63.498855
 20
147.053255
 30
0.0
 11
63.498855
 21
149.3393879999999
 31
0.0
  0
LINE
  5
A6FD
330
A4A9
100
AcDbEntity
  8
1
  6
Continuous
100
AcDbLine
 10
62.049392
 20
172.4860429999999
 30
0.0
 11
62.049392
 21
174.7229679999999
 31
0.0
  0
LINE
  5
A6FE
330
A4A9
100
AcDbEntity
  8
1
  6
Continuous
100
AcDbLine
 10
64.549392
 20
172.4860429999999
 30
0.0
 11
62.049392
 21
172.4860429999999
 31
0.0
  0
LINE
  5
A6FF
330
A4A9
100
AcDbEntity
  8
1
  6
Continuous
100
AcDbLine
 10
64.549392
 20
174.1307609999998
 30
0.0
 11
62.049392
 21
174.1307609999998
 31
0.0
  0
LINE
  5
A700
330
A4A9
100
AcDbEntity
  8
1
  6
Continuous
100
AcDbLine
 10
64.549392
 20
174.7229679999999
 30
0.0
 11
62.049392
 21
174.7229679999999
 31
0.0
  0
LINE
  5
A701
330
A4A9
100
AcDbEntity
  8
1
  6
Continuous
100
AcDbLine
 10
62.549385
 20
174.7229679999999
 30
0.0
 11
62.549385
 21
194.5498659999999
 31
0.0
  0
LINE
  5
A702
330
A4A9
100
AcDbEntity
  8
1
  6
Continuous
100
AcDbLine
 10
278.5493849999999
 20
174.0734459999999
 30
0.0
 11
278.5493849999999
 21
142.073446
 31
0.0
  0
LINE
  5
A703
330
A4A9
100
AcDbEntity
  8
1
  6
Continuous
100
AcDbLine
 10
38.570457
 20
174.0734459999999
 30
0.0
 11
38.570457
 21
142.073446
 31
0.0
  0
ARC
  5
A704
330
A4A9
100
AcDbEntity
  8
1
  6
Continuous
100
AcDbCircle
 10
3.662391999999998
 20
160.720707
 30
0.0
 40
31.40807999999999
100
AcDbArc
 50
351.8721339999999
 51
8.127865999999999
  0
ARC
  5
A705
330
A4A9
100
AcDbEntity
  8
1
  6
Continuous
100
AcDbCircle
 10
281.351352
 20
150.8442419999998
 30
0.0
 40
1.0
100
AcDbArc
 50
270.0
 51
8.910088999999997
  0
ARC
  5
A706
330
A4A9
100
AcDbEntity
  8
1
  6
Continuous
100
AcDbCircle
 10
281.351352
 20
158.59609
 30
0.0
 40
1.0
100
AcDbArc
 50
351.0899109999999
 51
90.0
  0
ARC
  5
A707
330
A4A9
100
AcDbEntity
  8
1
  6
Continuous
100
AcDbCircle
 10
306.074002
 20
154.7201659999998
 30
0.0
 40
24.024632
100
AcDbArc
 50
171.0899109999997
 51
188.9100889999998
  0
LINE
  5
A708
330
A4A9
100
AcDbEntity
  8
1
  6
Continuous
100
AcDbLine
 10
281.351352
 20
149.8442419999998
 30
0.0
 11
278.5493849999999
 21
149.8442419999998
 31
0.0
  0
LINE
  5
A709
330
A4A9
100
AcDbEntity
  8
1
  6
Continuous
100
AcDbLine
 10
281.351352
 20
159.59609
 30
0.0
 11
278.5493849999999
 21
159.59609
 31
0.0
  0
ARC
  5
A70A
330
A4A9
100
AcDbEntity
  8
1
  6
Continuous
100
AcDbCircle
 10
278.0403989999999
 20
148.2275199999999
 30
0.0
 40
2.702439
100
AcDbArc
 50
280.856116
 51
338.1891459999998
  0
LINE
  5
A70B
330
A4A9
100
AcDbEntity
  8
1
  6
Continuous
100
AcDbLine
 10
280.5493849999999
 20
147.2234459999999
 30
0.0
 11
280.5493849999999
 21
149.8442419999998
 31
0.0
  0
LINE
  5
A70C
330
A4A9
100
AcDbEntity
  8
1
  6
Continuous
100
AcDbLine
 10
278.5493849999999
 20
142.073446
 30
0.0
 11
278.0599209999999
 21
142.073446
 31
0.0
  0
LINE
  5
A70D
330
A4A9
100
AcDbEntity
  8
1
  6
Continuous
100
AcDbLine
 10
36.57045699999999
 20
147.2234459999999
 30
0.0
 11
36.57045699999999
 21
155.1387649999998
 31
0.0
  0
ARC
  5
A70E
330
A4A9
100
AcDbEntity
  8
1
  6
Continuous
100
AcDbCircle
 10
39.079443
 20
148.2275199999999
 30
0.0
 40
2.702439
100
AcDbArc
 50
201.8108539999999
 51
259.1438839999999
  0
LINE
  5
A70F
330
A4A9
100
AcDbEntity
  8
1
  6
Continuous
100
AcDbLine
 10
38.570457
 20
142.073446
 30
0.0
 11
39.059921
 21
142.073446
 31
0.0
  0
LINE
  5
A710
330
A4A9
100
AcDbEntity
  8
1
  6
Continuous
100
AcDbLine
 10
38.570457
 20
155.1387649999998
 30
0.0
 11
35.74493300000001
 21
155.1387649999998
 31
0.0
  0
ARC
  5
A711
330
A4A9
100
AcDbEntity
  8
1
  6
Continuous
100
AcDbCircle
 10
35.74493300000001
 20
156.1387649999998
 30
0.0
 40
1.0
100
AcDbArc
 50
171.8721339999999
 51
270.0
  0
ARC
  5
A712
330
A4A9
100
AcDbEntity
  8
1
  6
Continuous
100
AcDbCircle
 10
278.0403989999999
 20
167.919372
 30
0.0
 40
2.702439
100
AcDbArc
 50
21.810854
 51
79.14388399999999
  0
LINE
  5
A713
330
A4A9
100
AcDbEntity
  8
1
  6
Continuous
100
AcDbLine
 10
278.5493849999999
 20
174.0734459999999
 30
0.0
 11
278.0599209999999
 21
174.0734459999999
 31
0.0
  0
LINE
  5
A714
330
A4A9
100
AcDbEntity
  8
1
  6
Continuous
100
AcDbLine
 10
38.570457
 20
174.0734459999999
 30
0.0
 11
39.059921
 21
174.0734459999999
 31
0.0
  0
ARC
  5
A715
330
A4A9
100
AcDbEntity
  8
1
  6
Continuous
100
AcDbCircle
 10
39.079443
 20
167.919372
 30
0.0
 40
2.702439
100
AcDbArc
 50
100.8561159999999
 51
158.189146
  0
LINE
  5
A716
330
A4A9
100
AcDbEntity
  8
1
  6
Continuous
100
AcDbLine
 10
38.570457
 20
166.3026499999998
 30
0.0
 11
35.74493300000001
 21
166.3026499999998
 31
0.0
  0
ARC
  5
A717
330
A4A9
100
AcDbEntity
  8
1
  6
Continuous
100
AcDbCircle
 10
35.74493300000001
 20
165.3026499999997
 30
0.0
 40
1.0
100
AcDbArc
 50
90.0
 51
188.1278659999999
  0
LINE
  5
A718
330
A4A9
100
AcDbEntity
  8
1
  6
Continuous
100
AcDbLine
 10
36.57045699999999
 20
166.3026499999998
 30
0.0
 11
36.57045699999999
 21
194.5498659999999
 31
0.0
  0
LINE
  5
A719
330
A4A9
100
AcDbEntity
  8
1
  6
Continuous
100
AcDbLine
 10
280.5493849999999
 20
159.59609
 30
0.0
 11
280.5493849999999
 21
194.32992
 31
0.0
  0
LINE
  5
A71A
330
A4A9
100
AcDbEntity
  8
1
  6
Continuous
100
AcDbLine
 10
161.059921
 20
51.08398600000001
 30
0.0
 11
129.059921
 21
51.08398600000001
 31
0.0
  0
LINE
  5
A71B
330
A4A9
100
AcDbEntity
  8
1
  6
Continuous
100
AcDbLine
 10
129.059921
 20
51.08398600000001
 30
0.0
 11
129.059921
 21
51.57345
 31
0.0
  0
LINE
  5
A71C
330
A4A9
100
AcDbEntity
  8
1
  6
Continuous
100
AcDbLine
 10
161.059921
 20
51.08398600000001
 30
0.0
 11
161.059921
 21
51.57345
 31
0.0
  0
LINE
  5
A71D
330
A4A9
100
AcDbEntity
  8
1
  6
Continuous
100
AcDbLine
 10
152.114618
 20
49.08398599999999
 30
0.0
 11
136.863175
 21
49.08398599999999
 31
0.0
  0
ARC
  5
A71E
330
A4A9
100
AcDbEntity
  8
1
  6
Continuous
100
AcDbCircle
 10
141.0599209999998
 20
48.07345
 30
0.0
 40
7.0
100
AcDbArc
 50
188.126146
 51
269.999968
  0
ARC
  5
A71F
330
A4A9
100
AcDbEntity
  8
5
  6
PHANTOM
100
AcDbCircle
 10
116.01608
 20
244.1344990000001
 30
0.0
 40
7.024133999999999
100
AcDbArc
 50
221.751726
 51
270.0
  0
ARC
  5
A720
330
A4A9
100
AcDbEntity
  8
5
  6
PHANTOM
100
AcDbCircle
 10
117.669548
 20
245.610366
 30
0.0
 40
9.240467999999998
100
AcDbArc
 50
138.248274
 51
221.751726
  0
ARC
  5
A721
330
A4A9
100
AcDbEntity
  8
5
  6
PHANTOM
100
AcDbCircle
 10
116.01608
 20
247.086232
 30
0.0
 40
7.024133999999999
100
AcDbArc
 50
90.0
 51
138.248274
  0
ARC
  5
A722
330
A4A9
100
AcDbEntity
  8
5
  6
PHANTOM
100
AcDbCircle
 10
117.65651
 20
87.548726
 30
0.0
 40
9.240467999999998
100
AcDbArc
 50
138.160324
 51
221.6637759999999
  0
ARC
  5
A723
330
A4A9
100
AcDbEntity
  8
5
  6
PHANTOM
100
AcDbCircle
 10
116.005309
 20
89.02712800000001
 30
0.0
 40
7.024133999999999
100
AcDbArc
 50
89.91204999999999
 51
138.160324
  0
ARC
  5
A724
330
A4A9
100
AcDbEntity
  8
5
  6
PHANTOM
100
AcDbCircle
 10
116.0007779999999
 20
86.0754
 30
0.0
 40
7.024133999999999
100
AcDbArc
 50
221.6637759999999
 51
269.91205
  0
LINE
  5
A725
330
A4A9
100
AcDbEntity
  8
5
  6
PHANTOM
100
AcDbLine
 10
364.258644
 20
177.835634
 30
0.0
 11
359.743822
 21
180.117344
 31
0.0
  0
LINE
  5
A726
330
A4A9
100
AcDbEntity
  8
5
  6
PHANTOM
100
AcDbLine
 10
365.5546689999998
 20
179.421575
 30
0.0
 11
360.6459389999998
 21
181.902359
 31
0.0
  0
LINE
  5
A727
330
A4A9
100
AcDbEntity
  8
5
  6
PHANTOM
100
AcDbLine
 10
359.7437450000001
 20
180.1174239999998
 30
0.0
 11
360.6458549999999
 21
181.9024179999999
 31
0.0
  0
LINE
  5
A728
330
A4A9
100
AcDbEntity
  8
1
  6
Continuous
100
AcDbLine
 10
360.378775
 20
144.834127
 30
0.0
 11
356.218741
 21
141.9559449999999
 31
0.0
  0
LINE
  5
A729
330
A4A9
100
AcDbEntity
  8
1
  6
Continuous
100
AcDbLine
 10
359.60379
 20
146.7299869999999
 30
0.0
 11
355.080802
 21
143.6006899999999
 31
0.0
  0
LINE
  5
A72A
330
A4A9
100
AcDbEntity
  8
1
  6
Continuous
100
AcDbLine
 10
356.218634
 20
141.9559139999998
 30
0.0
 11
355.08071
 21
143.6006439999998
 31
0.0
  0
LINE
  5
A72B
330
A4A9
100
AcDbEntity
  8
5
  6
PHANTOM
100
AcDbLine
 10
426.690749
 20
148.524486
 30
0.0
 11
421.7820099999998
 21
151.005272
 31
0.0
  0
LINE
  5
A72C
330
A4A9
100
AcDbEntity
  8
5
  6
PHANTOM
100
AcDbLine
 10
425.788639
 20
146.7394919999998
 30
0.0
 11
421.273811
 21
149.021205
 31
0.0
  0
LINE
  5
A72D
330
A4A9
100
AcDbEntity
  8
5
  6
PHANTOM
100
AcDbLine
 10
425.788639
 20
146.7394919999998
 30
0.0
 11
426.690763
 21
148.524493
 31
0.0
  0
LINE
  5
A72E
330
A4A9
100
AcDbEntity
  8
1
  6
Continuous
100
AcDbLine
 10
415.9356299999998
 20
185.704007
 30
0.0
 11
411.412635
 21
182.574703
 31
0.0
  0
LINE
  5
A72F
330
A4A9
100
AcDbEntity
  8
1
  6
Continuous
100
AcDbLine
 10
417.0735539999998
 20
184.059277
 30
0.0
 11
412.913514
 21
181.181092
 31
0.0
  0
LINE
  5
A730
330
A4A9
100
AcDbEntity
  8
1
  6
Continuous
100
AcDbLine
 10
417.0735539999998
 20
184.059277
 30
0.0
 11
415.9356299999998
 21
185.704022
 31
0.0
  0
ARC
  5
A731
330
A4A9
100
AcDbEntity
  8
1
  6
Continuous
100
AcDbCircle
 10
145.059921
 20
151.8234459999999
 30
0.0
 40
3.25
100
AcDbArc
 50
180.0
 51
0.0
  0
LINE
  5
A732
330
A4A9
100
AcDbEntity
  8
1
  6
Continuous
100
AcDbLine
 10
141.809921
 20
151.8234459999999
 30
0.0
 11
141.809921
 21
152.560053
 31
0.0
  0
LINE
  5
A733
330
A4A9
100
AcDbEntity
  8
1
  6
Continuous
100
AcDbLine
 10
148.3099209999998
 20
151.8234459999999
 30
0.0
 11
148.3099209999998
 21
152.560053
 31
0.0
  0
ARC
  5
A734
330
A4A9
100
AcDbEntity
  8
1
  6
Continuous
100
AcDbCircle
 10
145.059921
 20
164.3234459999999
 30
0.0
 40
3.25
100
AcDbArc
 50
0.0
 51
180.0
  0
LINE
  5
A735
330
A4A9
100
AcDbEntity
  8
1
  6
Continuous
100
AcDbLine
 10
141.809921
 20
163.5868389999999
 30
0.0
 11
141.809921
 21
164.3234459999999
 31
0.0
  0
LINE
  5
A736
330
A4A9
100
AcDbEntity
  8
1
  6
Continuous
100
AcDbLine
 10
148.3099209999998
 20
163.5868389999999
 30
0.0
 11
148.3099209999998
 21
164.3234459999999
 31
0.0
  0
ARC
  5
A737
330
A4A9
100
AcDbEntity
  8
5
  6
PHANTOM
100
AcDbCircle
 10
139.5673139999999
 20
161.0556879999998
 30
0.0
 40
3.25
100
AcDbArc
 50
61.50000000000001
 51
241.5
  0
LINE
  5
A738
330
A4A9
100
AcDbEntity
  8
5
  6
PHANTOM
100
AcDbLine
 10
141.7654229999999
 20
163.560365
 30
0.0
 11
141.1180799999999
 21
163.911844
 31
0.0
  0
LINE
  5
A739
330
A4A9
100
AcDbEntity
  8
5
  6
PHANTOM
100
AcDbLine
 10
138.6638909999997
 20
157.8480539999999
 30
0.0
 11
138.016548
 21
158.1995329999998
 31
0.0
  0
ARC
  5
A73A
330
A4A9
100
AcDbEntity
  8
5
  6
PHANTOM
100
AcDbCircle
 10
150.552528
 20
155.091204
 30
0.0
 40
3.25
100
AcDbArc
 50
241.5
 51
61.50000000000001
  0
LINE
  5
A73B
330
A4A9
100
AcDbEntity
  8
5
  6
PHANTOM
100
AcDbLine
 10
152.1032939999997
 20
157.947359
 30
0.0
 11
151.4559509999999
 21
158.2988379999999
 31
0.0
  0
LINE
  5
A73C
330
A4A9
100
AcDbEntity
  8
5
  6
PHANTOM
100
AcDbLine
 10
149.001762
 20
152.235048
 30
0.0
 11
148.354419
 21
152.5865269999999
 31
0.0
  0
LINE
  5
A73D
330
A4A9
100
AcDbEntity
  8
1
  6
Continuous
100
AcDbLine
 10
142.0599209999998
 20
245.975379
 30
0.0
 11
148.059921
 21
245.975379
 31
0.0
  0
LINE
  5
A73E
330
A4A9
100
AcDbEntity
  8
1
  6
Continuous
100
AcDbLine
 10
143.059921
 20
244.9753789999999
 30
0.0
 11
147.059921
 21
244.9753789999999
 31
0.0
  0
ARC
  5
A73F
330
A4A9
100
AcDbEntity
  8
1
  6
Continuous
100
AcDbCircle
 10
142.559921
 20
253.588168
 30
0.0
 40
6.613208
100
AcDbArc
 50
275.577465
 51
288.597865
  0
LINE
  5
A740
330
A4A9
100
AcDbEntity
  8
1
  6
Continuous
100
AcDbLine
 10
143.0697769999999
 20
246.974961
 30
0.0
 11
147.559921
 21
246.974961
 31
0.0
  0
LINE
  5
A741
330
A4A9
100
AcDbEntity
  8
2
  6
Continuous
100
AcDbLine
 10
142.6014209999999
 20
245.4338789999999
 30
0.0
 11
142.6014209999999
 21
246.8607959999999
 31
0.0
  0
LINE
  5
A742
330
A4A9
100
AcDbEntity
  8
1
  6
Continuous
100
AcDbLine
 10
142.0599209999998
 20
245.975379
 30
0.0
 11
142.0599209999998
 21
246.7213259999998
 31
0.0
  0
LINE
  5
A743
330
A4A9
100
AcDbEntity
  8
1
  6
Continuous
100
AcDbLine
 10
143.059921
 20
244.9753789999999
 30
0.0
 11
142.0599209999998
 21
245.975379
 31
0.0
  0
LINE
  5
A744
330
A4A9
100
AcDbEntity
  8
2
  6
Continuous
100
AcDbLine
 10
147.5184209999999
 20
245.4338789999999
 30
0.0
 11
147.5184209999999
 21
246.9753789999999
 31
0.0
  0
LINE
  5
A745
330
A4A9
100
AcDbEntity
  8
1
  6
Continuous
100
AcDbLine
 10
148.059921
 20
245.975379
 30
0.0
 11
148.059921
 21
246.9753789999999
 31
0.0
  0
LINE
  5
A746
330
A4A9
100
AcDbEntity
  8
1
  6
Continuous
100
AcDbLine
 10
147.059921
 20
244.9753789999999
 30
0.0
 11
148.059921
 21
245.975379
 31
0.0
  0
ARC
  5
A747
330
A4A9
100
AcDbEntity
  8
1
  6
Continuous
100
AcDbCircle
 10
147.559921
 20
253.588168
 30
0.0
 40
6.613208
100
AcDbArc
 50
248.935478
 51
292.211795
  0
LINE
  5
A748
330
A4A9
100
AcDbEntity
  8
1
  6
Continuous
100
AcDbLine
 10
150.059921
 20
247.994662
 30
0.0
 11
150.059921
 21
247.465708
 31
0.0
  0
LINE
  5
A74B
330
A4A9
100
AcDbEntity
  8
1
  6
Continuous
100
AcDbLine
 10
129.059921
 20
282.0629139999998
 30
0.0
 11
129.059921
 21
281.5734499999998
 31
0.0
  0
LINE
  5
A74C
330
A4A9
100
AcDbEntity
  8
1
  6
Continuous
100
AcDbLine
 10
134.6882099999999
 20
282.0629139999998
 30
0.0
 11
129.059921
 21
282.0629139999998
 31
0.0
  0
CIRCLE
  5
A74D
330
A4A9
100
AcDbEntity
  8
1
  6
Continuous
100
AcDbCircle
 10
145.059921
 20
158.0734459999999
 30
0.0
 40
6.4
  0
LINE
  5
A74E
330
A4A9
100
AcDbEntity
  8
1
  6
Continuous
100
AcDbLine
 10
134.843655
 20
260.57345
 30
0.0
 11
114.756374
 21
260.57345
 31
0.0
  0
LINE
  5
A74F
330
A4A9
100
AcDbEntity
  8
1
  6
Continuous
100
AcDbLine
 10
134.84365
 20
281.5734499999998
 30
0.0
 11
114.756374
 21
281.5734499999998
 31
0.0
  0
ARC
  5
A750
330
A4A9
100
AcDbEntity
  8
1
  6
Continuous
100
AcDbCircle
 10
145.059921
 20
158.0734459999999
 30
0.0
 40
32.5
100
AcDbArc
 50
99.64599900000001
 51
131.071976
  0
ARC
  5
A751
330
A4A9
100
AcDbEntity
  8
1
  6
Continuous
100
AcDbCircle
 10
145.059921
 20
158.0734459999999
 30
0.0
 40
27.0
100
AcDbArc
 50
102.560593
 51
128.0867309999998
  0
ARC
  5
A752
330
A4A9
100
AcDbEntity
  8
1
  6
Continuous
100
AcDbCircle
 10
127.8476899999999
 20
142.073786
 30
0.0
 40
3.5
100
AcDbArc
 50
119.9999999999999
 51
222.9090699999999
  0
LINE
  5
A753
330
A4A9
100
AcDbEntity
  8
1
  6
Continuous
100
AcDbLine
 10
124.3476899999997
 20
148.1359649999999
 30
0.0
 11
133.9037209999997
 21
153.6531379999999
 31
0.0
  0
ARC
  5
A755
330
A4A9
100
AcDbEntity
  8
1
  6
Continuous
100
AcDbCircle
 10
122.597694
 20
151.167055
 30
0.0
 40
3.5
100
AcDbArc
 50
197.0909699999999
 51
299.9999799999999
  0
LINE
  5
A756
330
A4A9
100
AcDbEntity
  8
1
  6
Continuous
100
AcDbLine
 10
126.0976899999999
 20
145.1048759999999
 30
0.0
 11
135.6537169999997
 21
150.622049
 31
0.0
  0
LINE
  5
A757
330
A4A9
100
AcDbEntity
  8
1
  6
Continuous
100
AcDbLine
 10
136.4976159999999
 20
149.6658959999997
 30
0.0
 11
138.25846
 21
150.6825189999998
 31
0.0
  0
LINE
  5
A758
330
A4A9
100
AcDbEntity
  8
1
  6
Continuous
100
AcDbLine
 10
133.4976159999999
 20
154.862049
 30
0.0
 11
134.2028379999999
 21
155.2692089999998
 31
0.0
  0
ARC
  5
A759
330
A4A9
100
AcDbEntity
  8
1
  6
Continuous
100
AcDbCircle
 10
145.059921
 20
158.0734459999999
 30
0.0
 40
12.0
100
AcDbArc
 50
195.5225199999999
 51
224.4775399999999
  0
ARC
  5
A75A
330
A4A9
100
AcDbEntity
  8
1
  6
Continuous
100
AcDbCircle
 10
162.2721399999998
 20
142.073779
 30
0.0
 40
3.5
100
AcDbArc
 50
317.09098
 51
12.198448
  0
ARC
  5
A75B
330
A4A9
100
AcDbEntity
  8
1
  6
Continuous
100
AcDbCircle
 10
114.756374
 20
262.0734499999999
 30
0.0
 40
1.5
100
AcDbArc
 50
188.8498309999999
 51
270.00002
  0
ARC
  5
A75C
330
A4A9
100
AcDbEntity
  8
1
  6
Continuous
100
AcDbCircle
 10
114.756374
 20
280.0734499999999
 30
0.0
 40
1.5
100
AcDbArc
 50
90.00005499999994
 51
171.1502429999999
  0
ARC
  5
A75D
330
A4A9
100
AcDbEntity
  8
1
  6
Continuous
100
AcDbCircle
 10
172.559921
 20
271.07345
 30
0.0
 40
60.0
100
AcDbArc
 50
171.1490689999999
 51
188.8499539999999
  0
LINE
  5
A75E
330
A4A9
100
AcDbEntity
  8
1
  6
Continuous
100
AcDbLine
 10
39.059921
 20
127.7698989999999
 30
0.0
 11
39.059921
 21
188.3769929999999
 31
0.0
  0
LINE
  5
A75F
330
A4A9
100
AcDbEntity
  8
1
  6
Continuous
100
AcDbLine
 10
60.059921
 20
127.7698989999999
 30
0.0
 11
60.059921
 21
188.3769929999999
 31
0.0
  0
ARC
  5
A760
330
A4A9
100
AcDbEntity
  8
1
  6
Continuous
100
AcDbCircle
 10
49.559921
 20
185.5734459999999
 30
0.0
 40
60.0
100
AcDbArc
 50
261.1500459999999
 51
278.850931
  0
ARC
  5
A761
330
A4A9
100
AcDbEntity
  8
1
  6
Continuous
100
AcDbCircle
 10
40.559921
 20
127.7698989999999
 30
0.0
 40
1.5
100
AcDbArc
 50
179.9999799999999
 51
261.1501799999999
  0
ARC
  5
A762
330
A4A9
100
AcDbEntity
  8
1
  6
Continuous
100
AcDbCircle
 10
58.55992099999999
 20
127.7698989999999
 30
0.0
 40
1.5
100
AcDbArc
 50
278.8497599999999
 51
359.99995
  0
LINE
  5
A763
330
A4A9
100
AcDbEntity
  8
1
  6
Continuous
100
AcDbLine
 10
61.11094300000001
 20
150.5273949999998
 30
0.0
 11
60.059917
 21
150.419597
 31
0.0
  0
LINE
  5
A764
330
A4A9
100
AcDbEntity
  8
1
  6
Continuous
100
AcDbLine
 10
61.11094300000001
 20
165.619497
 30
0.0
 11
60.059917
 21
165.727295
 31
0.0
  0
LINE
  5
A765
330
A4A9
100
AcDbEntity
  8
1
  6
Continuous
100
AcDbLine
 10
61.55992099999998
 20
151.024787
 30
0.0
 11
61.55992099999998
 21
165.122105
 31
0.0
  0
ARC
  5
A766
330
A4A9
100
AcDbEntity
  8
1
  6
Continuous
100
AcDbCircle
 10
61.05992099999999
 20
151.024787
 30
0.0
 40
0.5
100
AcDbArc
 50
275.8563899999999
 51
359.99995
  0
ARC
  5
A767
330
A4A9
100
AcDbEntity
  8
1
  6
Continuous
100
AcDbCircle
 10
61.05992099999999
 20
165.122105
 30
0.0
 40
0.5
100
AcDbArc
 50
0.000055
 51
84.14360700000001
  0
ARC
  5
A768
330
A4A9
100
AcDbEntity
  8
1
  6
Continuous
100
AcDbCircle
 10
49.559921
 20
130.5734459999999
 30
0.0
 40
60.0
100
AcDbArc
 50
81.14906899999999
 51
98.84995400000001
  0
ARC
  5
A769
330
A4A9
100
AcDbEntity
  8
1
  6
Continuous
100
AcDbCircle
 10
40.559921
 20
188.3769929999999
 30
0.0
 40
1.5
100
AcDbArc
 50
98.84983100000004
 51
180.00002
  0
ARC
  5
A76A
330
A4A9
100
AcDbEntity
  8
1
  6
Continuous
100
AcDbCircle
 10
58.55992099999999
 20
188.3769929999999
 30
0.0
 40
1.5
100
AcDbArc
 50
0.000055
 51
81.15024299999998
  0
LINE
  5
A76B
330
A4A9
100
AcDbEntity
  8
1
  6
Continuous
100
AcDbLine
 10
257.0599209999999
 20
127.7698989999999
 30
0.0
 11
257.0599209999999
 21
188.3769929999999
 31
0.0
  0
LINE
  5
A76C
330
A4A9
100
AcDbEntity
  8
1
  6
Continuous
100
AcDbLine
 10
278.0599209999999
 20
127.7698989999999
 30
0.0
 11
278.0599209999999
 21
188.3769929999999
 31
0.0
  0
ARC
  5
A76D
330
A4A9
100
AcDbEntity
  8
1
  6
Continuous
100
AcDbCircle
 10
267.5599209999999
 20
185.5734459999999
 30
0.0
 40
60.0
100
AcDbArc
 50
261.1500459999999
 51
278.850931
  0
ARC
  5
A76E
330
A4A9
100
AcDbEntity
  8
1
  6
Continuous
100
AcDbCircle
 10
258.5599209999999
 20
127.7698989999999
 30
0.0
 40
1.5
100
AcDbArc
 50
179.9999799999999
 51
261.1501799999999
  0
ARC
  5
A76F
330
A4A9
100
AcDbEntity
  8
1
  6
Continuous
100
AcDbCircle
 10
276.5599209999999
 20
127.7698989999999
 30
0.0
 40
1.5
100
AcDbArc
 50
278.8497599999999
 51
359.99995
  0
LINE
  5
A770
330
A4A9
100
AcDbEntity
  8
1
  6
Continuous
100
AcDbLine
 10
255.559921
 20
151.024787
 30
0.0
 11
255.559921
 21
165.122105
 31
0.0
  0
ARC
  5
A771
330
A4A9
100
AcDbEntity
  8
1
  6
Continuous
100
AcDbCircle
 10
256.0599209999999
 20
151.024787
 30
0.0
 40
0.5
100
AcDbArc
 50
179.9999799999999
 51
264.14352
  0
LINE
  5
A772
330
A4A9
100
AcDbEntity
  8
1
  6
Continuous
100
AcDbLine
 10
256.008888
 20
150.527396
 30
0.0
 11
257.0599209999999
 21
150.419598
 31
0.0
  0
ARC
  5
A773
330
A4A9
100
AcDbEntity
  8
1
  6
Continuous
100
AcDbCircle
 10
256.0599209999999
 20
165.122105
 30
0.0
 40
0.5
100
AcDbArc
 50
95.856466
 51
180.00002
  0
LINE
  5
A774
330
A4A9
100
AcDbEntity
  8
1
  6
Continuous
100
AcDbLine
 10
256.008888
 20
165.619496
 30
0.0
 11
257.0599209999999
 21
165.727294
 31
0.0
  0
ARC
  5
A775
330
A4A9
100
AcDbEntity
  8
1
  6
Continuous
100
AcDbCircle
 10
267.5599209999999
 20
130.5734459999999
 30
0.0
 40
60.0
100
AcDbArc
 50
81.14906899999999
 51
98.84995400000001
  0
ARC
  5
A776
330
A4A9
100
AcDbEntity
  8
1
  6
Continuous
100
AcDbCircle
 10
258.5599209999999
 20
188.3769929999999
 30
0.0
 40
1.5
100
AcDbArc
 50
98.84983100000004
 51
180.00002
  0
ARC
  5
A777
330
A4A9
100
AcDbEntity
  8
1
  6
Continuous
100
AcDbCircle
 10
276.5599209999999
 20
188.3769929999999
 30
0.0
 40
1.5
100
AcDbArc
 50
0.000055
 51
81.15024299999998
  0
LINE
  5
A778
330
A4A9
100
AcDbEntity
  8
1
  6
Continuous
100
AcDbLine
 10
152.1085799999999
 20
74.07344999999998
 30
0.0
 11
138.011262
 21
74.07344999999998
 31
0.0
  0
LINE
  5
A779
330
A4A9
100
AcDbEntity
  8
1
  6
Continuous
100
AcDbLine
 10
175.3634679999999
 20
51.57345
 30
0.0
 11
114.756374
 21
51.57345
 31
0.0
  0
LINE
  5
A77A
330
A4A9
100
AcDbEntity
  8
1
  6
Continuous
100
AcDbLine
 10
175.3634679999999
 20
72.57344999999998
 30
0.0
 11
114.756374
 21
72.57344999999998
 31
0.0
  0
ARC
  5
A77B
330
A4A9
100
AcDbEntity
  8
1
  6
Continuous
100
AcDbCircle
 10
114.756374
 20
71.07344999999998
 30
0.0
 40
1.5
100
AcDbArc
 50
90.00005499999994
 51
171.1502429999999
  0
ARC
  5
A77C
330
A4A9
100
AcDbEntity
  8
1
  6
Continuous
100
AcDbCircle
 10
114.756374
 20
53.07345
 30
0.0
 40
1.5
100
AcDbArc
 50
188.8498309999999
 51
270.00002
  0
ARC
  5
A77D
330
A4A9
100
AcDbEntity
  8
1
  6
Continuous
100
AcDbCircle
 10
172.559921
 20
62.07345
 30
0.0
 40
60.0
100
AcDbArc
 50
171.1490689999999
 51
188.8499539999999
  0
LINE
  5
A77E
330
A4A9
100
AcDbEntity
  8
1
  6
Continuous
100
AcDbLine
 10
137.5138699999999
 20
73.62447199999998
 30
0.0
 11
137.4060719999999
 21
72.57344599999997
 31
0.0
  0
ARC
  5
A77F
330
A4A9
100
AcDbEntity
  8
1
  6
Continuous
100
AcDbCircle
 10
138.011262
 20
73.57344999999998
 30
0.0
 40
0.5
100
AcDbArc
 50
90.00005499999994
 51
174.1436069999998
  0
LINE
  5
A780
330
A4A9
100
AcDbEntity
  8
1
  6
Continuous
100
AcDbLine
 10
152.605972
 20
73.62447199999998
 30
0.0
 11
152.7137699999999
 21
72.57344599999997
 31
0.0
  0
ARC
  5
A781
330
A4A9
100
AcDbEntity
  8
1
  6
Continuous
100
AcDbCircle
 10
152.1085799999999
 20
73.57344999999998
 30
0.0
 40
0.5
100
AcDbArc
 50
5.85639
 51
89.99995000000001
  0
ARC
  5
A782
330
A4A9
100
AcDbEntity
  8
1
  6
Continuous
100
AcDbCircle
 10
175.3634679999999
 20
71.07344999999998
 30
0.0
 40
1.5
100
AcDbArc
 50
8.849759999999998
 51
89.99995000000001
  0
ARC
  5
A783
330
A4A9
100
AcDbEntity
  8
1
  6
Continuous
100
AcDbCircle
 10
175.3634679999999
 20
53.07345
 30
0.0
 40
1.5
100
AcDbArc
 50
269.99998
 51
351.15018
  0
ARC
  5
A784
330
A4A9
100
AcDbEntity
  8
1
  6
Continuous
100
AcDbCircle
 10
117.559921
 20
62.07345
 30
0.0
 40
60.0
100
AcDbArc
 50
351.1500459999999
 51
8.850930999999997
  0
ARC
  5
A785
330
A4A9
100
AcDbEntity
  8
1
  6
Continuous
100
AcDbCircle
 10
100.9320109999999
 20
62.07344200000001
 30
0.0
 40
35.49999600000001
100
AcDbArc
 50
17.20401
 51
19.23307
  0
ARC
  5
A786
330
A4A9
100
AcDbEntity
  8
1
  6
Continuous
100
AcDbCircle
 10
141.0599209999998
 20
76.07344999999998
 30
0.0
 40
7.0
100
AcDbArc
 50
171.8738539999999
 51
199.233055
  0
ARC
  5
A787
330
A4A9
100
AcDbEntity
  8
1
  6
Continuous
100
AcDbCircle
 10
145.059921
 20
158.0734459999999
 30
0.0
 40
27.0
100
AcDbArc
 50
342.5572869999998
 51
43.03419799999999
  0
ARC
  5
A788
330
A4A9
100
AcDbEntity
  8
1
  6
Continuous
100
AcDbCircle
 10
145.059921
 20
158.0734459999999
 30
0.0
 40
32.5
100
AcDbArc
 50
339.5720329999998
 51
45.884135
  0
ARC
  5
A789
330
A4A9
100
AcDbEntity
  8
1
  6
Continuous
100
AcDbCircle
 10
145.059921
 20
158.0734459999999
 30
0.0
 40
27.0
100
AcDbArc
 50
145.232394
 51
325.41162
  0
ARC
  5
A78A
330
A4A9
100
AcDbEntity
  8
1
  6
Continuous
100
AcDbCircle
 10
145.059921
 20
158.0734459999999
 30
0.0
 40
32.5
100
AcDbArc
 50
134.683297
 51
335.960668
  0
ARC
  5
A78B
330
A4A9
100
AcDbEntity
  8
1
  6
Continuous
100
AcDbCircle
 10
390.0599209999999
 20
158.0734459999999
 30
0.0
 40
32.5
100
AcDbArc
 50
134.683297
 51
80.35400099999998
  0
ARC
  5
A78C
330
A4A9
100
AcDbEntity
  8
1
  6
Continuous
100
AcDbCircle
 10
390.0599209999999
 20
158.0734459999999
 30
0.0
 40
27.0
100
AcDbArc
 50
136.9658019999999
 51
77.43940699999997
  0
ARC
  5
A78D
330
A4A9
100
AcDbEntity
  8
1
  6
Continuous
100
AcDbCircle
 10
372.8476899999998
 20
142.073786
 30
0.0
 40
3.5
100
AcDbArc
 50
119.9999999999999
 51
222.9090699999999
  0
ARC
  5
A78E
330
A4A9
100
AcDbEntity
  8
1
  6
Continuous
100
AcDbCircle
 10
367.5976939999998
 20
151.167055
 30
0.0
 40
3.5
100
AcDbArc
 50
197.0909699999999
 51
299.9999799999999
  0
LINE
  5
A78F
330
A4A9
100
AcDbEntity
  8
1
  6
Continuous
100
AcDbLine
 10
371.0976899999999
 20
145.1048759999999
 30
0.0
 11
377.161643
 21
148.6059
 31
0.0
  0
LINE
  5
A790
330
A4A9
100
AcDbEntity
  8
1
  6
Continuous
100
AcDbLine
 10
369.34769
 20
148.1359649999999
 30
0.0
 11
375.4116439999998
 21
151.636988
 31
0.0
  0
ARC
  5
A791
330
A4A9
100
AcDbEntity
  8
1
  6
Continuous
100
AcDbCircle
 10
412.522149
 20
151.167047
 30
0.0
 40
3.5
100
AcDbArc
 50
239.9999999999999
 51
342.9090699999998
  0
LINE
  5
A792
330
A4A9
100
AcDbEntity
  8
1
  6
Continuous
100
AcDbLine
 10
410.772148
 20
148.1359569999999
 30
0.0
 11
404.7081949999999
 21
151.6369829999999
 31
0.0
  0
ARC
  5
A793
330
A4A9
100
AcDbEntity
  8
1
  6
Continuous
100
AcDbCircle
 10
407.272145
 20
142.073782
 30
0.0
 40
3.5
100
AcDbArc
 50
317.0909700000001
 51
59.99998000000001
  0
LINE
  5
A794
330
A4A9
100
AcDbEntity
  8
1
  6
Continuous
100
AcDbLine
 10
409.022148
 20
145.1048679999999
 30
0.0
 11
402.9581949999998
 21
148.605895
 31
0.0
  0
LINE
  5
A795
330
A4A9
100
AcDbEntity
  8
1
  6
Continuous
100
AcDbLine
 10
153.0984179999999
 20
47.084001
 30
0.0
 11
138.0606349999998
 21
47.084001
 31
0.0
  0
LINE
  5
A796
330
A4A9
100
AcDbEntity
  8
1
  6
Continuous
100
AcDbLine
 10
138.3839909999997
 20
47.083979
 30
0.0
 11
134.0328439999999
 21
47.083979
 31
0.0
  0
LINE
  5
A797
330
A4A9
100
AcDbEntity
  8
1
  6
Continuous
100
AcDbLine
 10
133.602836
 20
51.08398600000001
 30
0.0
 11
135.0757309999998
 21
47.083979
 31
0.0
  0
LINE
  5
A798
330
A4A9
100
AcDbEntity
  8
1
  6
Continuous
100
AcDbLine
 10
132.5599489999997
 20
51.08398600000001
 30
0.0
 11
134.0328439999999
 21
47.083979
 31
0.0
  0
LINE
  5
A799
330
A4A9
100
AcDbEntity
  8
1
  6
Continuous
100
AcDbLine
 10
135.3705979999997
 20
51.08398600000001
 30
0.0
 11
137.213819
 21
48.637276
 31
0.0
  0
LINE
  5
A79A
330
A4A9
100
AcDbEntity
  8
1
  6
Continuous
100
AcDbLine
 10
153.0622909999999
 20
47.083979
 30
0.0
 11
155.266538
 21
47.083979
 31
0.0
  0
LINE
  5
A79B
330
A4A9
100
AcDbEntity
  8
1
  6
Continuous
100
AcDbLine
 10
157.5599489999999
 20
51.08398600000001
 30
0.0
 11
155.266538
 21
47.083979
 31
0.0
  0
LINE
  5
A79C
330
A4A9
100
AcDbEntity
  8
1
  6
Continuous
100
AcDbLine
 10
153.8168839999999
 20
51.08398600000001
 30
0.0
 11
151.9190139999998
 21
47.084001
 31
0.0
  0
LINE
  5
A79D
330
A4A9
100
AcDbEntity
  8
1
  6
Continuous
100
AcDbLine
 10
153.0622909999999
 20
51.08398600000001
 30
0.0
 11
151.166952
 21
47.084001
 31
0.0
  0
LINE
  5
A79E
330
A4A9
100
AcDbEntity
  8
1
  6
Continuous
100
AcDbLine
 10
133.602836
 20
282.0629139999998
 30
0.0
 11
134.1993999999999
 21
283.6830289999998
 31
0.0
  0
LINE
  5
A79F
330
A4A9
100
AcDbEntity
  8
1
  6
Continuous
100
AcDbLine
 10
132.5599489999997
 20
282.0629139999998
 30
0.0
 11
134.0328439999999
 21
286.062921
 31
0.0
  0
LINE
  5
A7A0
330
A4A9
100
AcDbEntity
  8
1
  6
Continuous
100
AcDbLine
 10
134.0328439999999
 20
286.062921
 30
0.0
 11
134.130207
 21
286.062921
 31
0.0
  0
ENDSEC
  0
SECTION
  2
OBJECTS
  0
DICTIONARY
  5
A497
330
0
100
AcDbDictionary
281
     1
  3
ACAD_CIP_PREVIOUS_PRODUCT_INFO
350
A81D
  3
ACAD_COLOR
350
A7FF
  3
ACAD_DETAILVIEWSTYLE
350
A818
  3
ACAD_GROUP
350
A498
  3
ACAD_LAYOUT
350
A4A4
  3
ACAD_MATERIAL
350
A7CD
  3
ACAD_MLEADERSTYLE
350
A814
  3
ACAD_MLINESTYLE
350
A4A1
  3
ACAD_PLOTSETTINGS
350
A4A3
  3
ACAD_PLOTSTYLENAME
350
A7CB
  3
ACAD_SCALELIST
350
A802
  3
ACAD_SECTIONVIEWSTYLE
350
A816
  3
ACAD_TABLESTYLE
350
A800
  3
ACAD_VISUALSTYLE
350
A7E6
  3
ACDB_RECOMPOSE_DATA
350
A83B
  3
AcDbVariableDictionary
350
A82E
  3
DWGPROPS
350
A83C
  0
DICTIONARY
  5
A81E
330
A49B
100
AcDbDictionary
280
     1
281
     1
  3
ADSK_XREC_LAYER_RECONCILED
360
A81F
  0
DICTIONARY
  5
A820
330
A4B1
100
AcDbDictionary
280
     1
281
     1
  3
ADSK_XREC_LAYER_RECONCILED
360
A821
  0
DICTIONARY
  5
A822
330
A4B2
100
AcDbDictionary
280
     1
281
     1
  3
ADSK_XREC_LAYER_RECONCILED
360
A823
  0
DICTIONARY
  5
A824
330
A4B3
100
AcDbDictionary
280
     1
281
     1
  3
ADSK_XREC_LAYER_RECONCILED
360
A825
  0
DICTIONARY
  5
A826
330
A4B4
100
AcDbDictionary
280
     1
281
     1
  3
ADSK_XREC_LAYER_RECONCILED
360
A827
  0
DICTIONARY
  5
A828
330
A4B5
100
AcDbDictionary
280
     1
281
     1
  3
ADSK_XREC_LAYER_RECONCILED
360
A829
  0
DICTIONARY
  5
A82A
330
A4B6
100
AcDbDictionary
280
     1
281
     1
  3
ADSK_XREC_LAYER_RECONCILED
360
A82B
  0
DICTIONARY
  5
A82C
330
A4B7
100
AcDbDictionary
280
     1
281
     1
  3
ADSK_XREC_LAYER_RECONCILED
360
A82D
  0
DICTIONARY
  5
A7AB
330
A4A9
100
AcDbDictionary
281
     1
  3
ACAD_LAYOUTSELFREF
350
A7C7
  0
DICTIONARY
  5
A7A9
330
A4A5
100
AcDbDictionary
281
     1
  3
ACAD_LAYOUTSELFREF
350
A7C6
  0
XRECORD
  5
A81D
102
{ACAD_REACTORS
330
A497
102
}
330
A497
100
AcDbXrecord
280
     1
300
ACDLT
300
2014
300
ACDLT_F_S
  0
DICTIONARY
  5
A7FF
102
{ACAD_REACTORS
330
A497
102
}
330
A497
100
AcDbDictionary
281
     1
  0
DICTIONARY
  5
A818
102
{ACAD_REACTORS
330
A497
102
}
330
A497
100
AcDbDictionary
281
     1
  3
Imperial24
350
A819
  0
DICTIONARY
  5
A498
102
{ACAD_REACTORS
330
A497
102
}
330
A497
100
AcDbDictionary
281
     1
  0
DICTIONARY
  5
A4A4
102
{ACAD_REACTORS
330
A497
102
}
330
A497
100
AcDbDictionary
281
     1
  3
Model
350
A81A
  3
レイアウト1
350
A81B
  0
DICTIONARY
  5
A7CD
102
{ACAD_REACTORS
330
A497
102
}
330
A497
100
AcDbDictionary
281
     1
  3
ByBlock
350
A7D6
  3
ByLayer
350
A7CE
  3
Global
350
A7DE
  0
DICTIONARY
  5
A814
102
{ACAD_REACTORS
330
A497
102
}
330
A497
100
AcDbDictionary
281
     1
  3
Standard
350
A815
  0
DICTIONARY
  5
A4A1
102
{ACAD_REACTORS
330
A497
102
}
330
A497
100
AcDbDictionary
281
     1
  3
STANDARD
350
A4A2
  0
DICTIONARY
  5
A4A3
102
{ACAD_REACTORS
330
A497
102
}
330
A497
100
AcDbDictionary
281
     1
  0
ACDBDICTIONARYWDFLT
  5
A7CB
102
{ACAD_REACTORS
330
A497
102
}
330
A497
100
AcDbDictionary
281
     1
  3
Normal
350
A7CC
100
AcDbDictionaryWithDefault
340
A7CC
  0
DICTIONARY
  5
A802
102
{ACAD_REACTORS
330
A497
102
}
330
A497
100
AcDbDictionary
281
     1
  3
A0
350
A803
  3
A1
350
A804
  3
A2
350
A805
  3
A3
350
A806
  3
A4
350
A807
  3
A5
350
A808
  3
A6
350
A809
  3
A7
350
A80A
  3
A8
350
A80B
  3
A9
350
A80C
  3
B0
350
A80D
  3
B1
350
A80E
  3
B2
350
A80F
  3
B3
350
A810
  3
B4
350
A811
  3
B5
350
A812
  3
B6
350
A813
  0
DICTIONARY
  5
A816
102
{ACAD_REACTORS
330
A497
102
}
330
A497
100
AcDbDictionary
281
     1
  3
Imperial24
350
A817
  0
DICTIONARY
  5
A800
102
{ACAD_REACTORS
330
A497
102
}
330
A497
100
AcDbDictionary
281
     1
  3
Standard
350
A801
  0
DICTIONARY
  5
A7E6
102
{ACAD_REACTORS
330
A497
102
}
330
A497
100
AcDbDictionary
281
     1
  3
2dWireframe
350
A7EC
  3
Basic
350
A7EB
  3
Brighten
350
A7F2
  3
ColorChange
350
A7F6
  3
Conceptual
350
A7EF
  3
Dim
350
A7F1
  3
EdgeColorOff
350
A7FE
  3
Facepattern
350
A7F5
  3
Flat
350
A7E7
  3
FlatWithEdges
350
A7E8
  3
Gouraud
350
A7E9
  3
GouraudWithEdges
350
A7EA
  3
Hidden
350
A7EE
  3
JitterOff
350
A7FC
  3
Linepattern
350
A7F4
  3
OverhangOff
350
A7FD
  3
Realistic
350
A7F0
  3
Shaded
350
A7FB
  3
Shaded with edges
350
A7FA
  3
Shades of Gray
350
A7F7
  3
Sketchy
350
A7F8
  3
Thicken
350
A7F3
  3
Wireframe
350
A7ED
  3
X-Ray
350
A7F9
  0
XRECORD
  5
A83B
102
{ACAD_REACTORS
330
A497
102
}
330
A497
100
AcDbXrecord
280
     1
 90
        1
330
A801
  0
DICTIONARY
  5
A82E
102
{ACAD_REACTORS
330
A497
102
}
330
A497
100
AcDbDictionary
281
     1
  3
CANNOSCALE
350
A833
  3
CMLEADERSTYLE
350
A830
  3
CTABLESTYLE
350
A82F
  3
CVIEWDETAILSTYLE
350
A831
  3
CVIEWSECTIONSTYLE
350
A832
  3
DIMASSOC
350
A836
  3
INDEXCTL
350
A835
  3
SORTENTS
350
A834
  3
XCLIPFRAME
350
A837
  0
XRECORD
  5
A83C
102
{ACAD_REACTORS
330
A497
102
}
330
A497
100
AcDbXrecord
280
     1
  1
DWGPROPS COOKIE
  2

  3

  4

  6

  7

  8
Yoshitsune
  9

300
=
301
=
302
=
303
=
304
=
305
=
306
=
307
=
308
=
309
=
 40
0.0410230787037037
 41
2451301.431364236
 42
2457192.689961759
  1

 90
        0
  0
XRECORD
  5
A81F
102
{ACAD_REACTORS
330
A81E
102
}
330
A81E
100
AcDbXrecord
280
     1
290
     1
  0
XRECORD
  5
A821
102
{ACAD_REACTORS
330
A820
102
}
330
A820
100
AcDbXrecord
280
     1
290
     1
  0
XRECORD
  5
A823
102
{ACAD_REACTORS
330
A822
102
}
330
A822
100
AcDbXrecord
280
     1
290
     1
  0
XRECORD
  5
A825
102
{ACAD_REACTORS
330
A824
102
}
330
A824
100
AcDbXrecord
280
     1
290
     1
  0
XRECORD
  5
A827
102
{ACAD_REACTORS
330
A826
102
}
330
A826
100
AcDbXrecord
280
     1
290
     1
  0
XRECORD
  5
A829
102
{ACAD_REACTORS
330
A828
102
}
330
A828
100
AcDbXrecord
280
     1
290
     1
  0
XRECORD
  5
A82B
102
{ACAD_REACTORS
330
A82A
102
}
330
A82A
100
AcDbXrecord
280
     1
290
     1
  0
XRECORD
  5
A82D
102
{ACAD_REACTORS
330
A82C
102
}
330
A82C
100
AcDbXrecord
280
     1
290
     1
  0
XRECORD
  5
A7C7
102
{ACAD_REACTORS
330
A7AB
102
}
330
A7AB
100
AcDbXrecord
280
     1
340
A4A9
  0
XRECORD
  5
A7C6
102
{ACAD_REACTORS
330
A7A9
102
}
330
A7A9
100
AcDbXrecord
280
     1
340
A4A5
  0
ACDBDETAILVIEWSTYLE
  5
A819
102
{ACAD_XDICTIONARY
360
A874
102
}
102
{ACAD_REACTORS
330
A818
102
}
330
A818
100
AcDbModelDocViewStyle
 70
     0
  3
Imperial24
290
     0
100
AcDbDetailViewStyle
 70
     0
 71
     0
 90
        3
 71
     1
340
A49C
 40
0.24
340
0
 40
0.24
300

 40
0.36
280
     3
 71
     2
340
A4A0
 90
       25
 71
     3
340
A49C
 40
0.24
 90
        1
 40
0.75
 90
        1
300
%<\AcVar ViewType \f "%tc1">% %<\AcVar ViewDetailId>%\PSCALE %<\AcVar ViewScale \f "%sn">%
 71
     4
340
A4A0
 90
       25
340
A4A0
 90
       25
280
     0
  0
LAYOUT
  5
A81A
102
{ACAD_XDICTIONARY
360
A876
102
}
102
{ACAD_REACTORS
330
A4A4
102
}
330
A4A4
100
AcDbPlotSettings
  1

  2
Canon LBP9100C
  4

  6

 40
0.0
 41
0.0
 42
0.0
 43
0.0
 44
0.0
 45
0.0
 46
0.0
 47
0.0
 48
0.0
 49
0.0
140
0.0
141
0.0
142
1.0
143
1.0
 70
  1712
 72
     0
 73
     0
 74
     0
  7

 75
     0
147
1.0
148
0.0
149
0.0
100
AcDbLayout
  1
Model
 70
     1
 71
     0
 10
0.0
 20
0.0
 11
12.0
 21
9.0
 12
0.0
 22
0.0
 32
0.0
 14
0.0
 24
0.0
 34
0.0
 15
0.0
 25
0.0
 35
0.0
146
0.0
 13
0.0
 23
0.0
 33
0.0
 16
1.0
 26
0.0
 36
0.0
 17
0.0
 27
1.0
 37
0.0
 76
     0
330
A4A9
331
A7C5
  0
LAYOUT
  5
A81B
102
{ACAD_XDICTIONARY
360
A878
102
}
102
{ACAD_REACTORS
330
A4A4
102
}
330
A4A4
100
AcDbPlotSettings
  1

  2
Canon LBP9100C
  4

  6

 40
0.0
 41
0.0
 42
0.0
 43
0.0
 44
0.0
 45
0.0
 46
0.0
 47
0.0
 48
0.0
 49
0.0
140
0.0
141
0.0
142
1.0
143
1.0
 70
   688
 72
     0
 73
     0
 74
     5
  7

 75
    16
147
1.0
148
0.0
149
0.0
100
AcDbLayout
  1
レイアウト1
 70
     0
 71
     1
 10
0.0
 20
0.0
 11
420.0
 21
297.0
 12
0.0
 22
0.0
 32
0.0
 14
1.000000000000000E+20
 24
1.000000000000000E+20
 34
1.000000000000000E+20
 15
-1.000000000000000E+20
 25
-1.000000000000000E+20
 35
-1.000000000000000E+20
146
0.0
 13
0.0
 23
0.0
 33
0.0
 16
1.0
 26
0.0
 36
0.0
 17
0.0
 27
1.0
 37
0.0
 76
     0
330
A4A5
  0
MATERIAL
  5
A7D6
102
{ACAD_XDICTIONARY
360
A7D7
102
}
102
{ACAD_REACTORS
330
A7CD
102
}
330
A7CD
100
AcDbMaterial
  1
ByBlock
 72
     0
 43
0.0208333333333333
 43
0.0
 43
0.0
 43
0.0
 43
0.0
 43
0.0208333333333333
 43
0.0
 43
0.0
 43
0.0
 43
0.0
 43
1.0
 43
0.0
 43
0.0
 43
0.0
 43
0.0
 43
1.0
 77
     0
 47
0.0208333333333333
 47
0.0
 47
0.0
 47
0.0
 47
0.0
 47
0.0208333333333333
 47
0.0
 47
0.0
 47
0.0
 47
0.0
 47
1.0
 47
0.0
 47
0.0
 47
0.0
 47
0.0
 47
1.0
171
     0
 49
0.0208333333333333
 49
0.0
 49
0.0
 49
0.0
 49
0.0
 49
0.0208333333333333
 49
0.0
 49
0.0
 49
0.0
 49
0.0
 49
1.0
 49
0.0
 49
0.0
 49
0.0
 49
0.0
 49
1.0
175
     0
142
0.0208333333333333
142
0.0
142
0.0
142
0.0
142
0.0
142
0.0208333333333333
142
0.0
142
0.0
142
0.0
142
0.0
142
1.0
142
0.0
142
0.0
142
0.0
142
0.0
142
1.0
179
     0
144
0.0208333333333333
144
0.0
144
0.0
144
0.0
144
0.0
144
0.0208333333333333
144
0.0
144
0.0
144
0.0
144
0.0
144
1.0
144
0.0
144
0.0
144
0.0
144
0.0
144
1.0
147
0.0208333333333333
147
0.0
147
0.0
147
0.0
147
0.0
147
0.0208333333333333
147
0.0
147
0.0
147
0.0
147
0.0
147
1.0
147
0.0
147
0.0
147
0.0
147
0.0
147
1.0
  0
MATERIAL
  5
A7CE
102
{ACAD_XDICTIONARY
360
A7CF
102
}
102
{ACAD_REACTORS
330
A7CD
102
}
330
A7CD
100
AcDbMaterial
  1
ByLayer
 72
     0
 43
0.0208333333333333
 43
0.0
 43
0.0
 43
0.0
 43
0.0
 43
0.0208333333333333
 43
0.0
 43
0.0
 43
0.0
 43
0.0
 43
1.0
 43
0.0
 43
0.0
 43
0.0
 43
0.0
 43
1.0
 77
     0
 47
0.0208333333333333
 47
0.0
 47
0.0
 47
0.0
 47
0.0
 47
0.0208333333333333
 47
0.0
 47
0.0
 47
0.0
 47
0.0
 47
1.0
 47
0.0
 47
0.0
 47
0.0
 47
0.0
 47
1.0
171
     0
 49
0.0208333333333333
 49
0.0
 49
0.0
 49
0.0
 49
0.0
 49
0.0208333333333333
 49
0.0
 49
0.0
 49
0.0
 49
0.0
 49
1.0
 49
0.0
 49
0.0
 49
0.0
 49
0.0
 49
1.0
175
     0
142
0.0208333333333333
142
0.0
142
0.0
142
0.0
142
0.0
142
0.0208333333333333
142
0.0
142
0.0
142
0.0
142
0.0
142
1.0
142
0.0
142
0.0
142
0.0
142
0.0
142
1.0
179
     0
144
0.0208333333333333
144
0.0
144
0.0
144
0.0
144
0.0
144
0.0208333333333333
144
0.0
144
0.0
144
0.0
144
0.0
144
1.0
144
0.0
144
0.0
144
0.0
144
0.0
144
1.0
147
0.0208333333333333
147
0.0
147
0.0
147
0.0
147
0.0
147
0.0208333333333333
147
0.0
147
0.0
147
0.0
147
0.0
147
1.0
147
0.0
147
0.0
147
0.0
147
0.0
147
1.0
  0
MATERIAL
  5
A7DE
102
{ACAD_XDICTIONARY
360
A7DF
102
}
102
{ACAD_REACTORS
330
A7CD
102
}
330
A7CD
100
AcDbMaterial
  1
Global
 72
     0
 43
0.0208333333333333
 43
0.0
 43
0.0
 43
0.0
 43
0.0
 43
0.0208333333333333
 43
0.0
 43
0.0
 43
0.0
 43
0.0
 43
1.0
 43
0.0
 43
0.0
 43
0.0
 43
0.0
 43
1.0
 77
     0
 47
0.0208333333333333
 47
0.0
 47
0.0
 47
0.0
 47
0.0
 47
0.0208333333333333
 47
0.0
 47
0.0
 47
0.0
 47
0.0
 47
1.0
 47
0.0
 47
0.0
 47
0.0
 47
0.0
 47
1.0
171
     0
 49
0.0208333333333333
 49
0.0
 49
0.0
 49
0.0
 49
0.0
 49
0.0208333333333333
 49
0.0
 49
0.0
 49
0.0
 49
0.0
 49
1.0
 49
0.0
 49
0.0
 49
0.0
 49
0.0
 49
1.0
175
     0
142
0.0208333333333333
142
0.0
142
0.0
142
0.0
142
0.0
142
0.0208333333333333
142
0.0
142
0.0
142
0.0
142
0.0
142
1.0
142
0.0
142
0.0
142
0.0
142
0.0
142
1.0
179
     0
144
0.0208333333333333
144
0.0
144
0.0
144
0.0
144
0.0
144
0.0208333333333333
144
0.0
144
0.0
144
0.0
144
0.0
144
1.0
144
0.0
144
0.0
144
0.0
144
0.0
144
1.0
147
0.0208333333333333
147
0.0
147
0.0
147
0.0
147
0.0
147
0.0208333333333333
147
0.0
147
0.0
147
0.0
147
0.0
147
1.0
147
0.0
147
0.0
147
0.0
147
0.0
147
1.0
  0
MLEADERSTYLE
  5
A815
102
{ACAD_REACTORS
330
A814
102
}
330
A814
100
AcDbMLeaderStyle
170
     2
171
     1
172
     0
 90
        2
 40
0.0
 41
0.0
173
     1
 91
-1056964608
340
A49E
 92
       -2
290
     1
 42
0.09
291
     1
 43
0.36
  3
Standard
 44
0.18
300

342
A49C
174
     1
178
     6
175
     1
176
     0
 93
-1056964608
 45
0.18
292
     0
297
     0
 46
0.18
 94
-1056964608
 47
1.0
 49
1.0
140
1.0
293
     1
141
0.0
294
     1
177
     0
142
1.0
295
     0
296
     0
143
0.125
1001
ACAD_MLEADERVER
1070
     2
  0
MLINESTYLE
  5
A4A2
102
{ACAD_REACTORS
330
A4A1
102
}
330
A4A1
100
AcDbMlineStyle
  2
STANDARD
 70
     0
  3

 62
   256
 51
90.0
 52
90.0
 71
     2
 49
0.5
 62
   256
  6
BYLAYER
 49
-0.5
 62
   256
  6
BYLAYER
  0
ACDBPLACEHOLDER
  5
A7CC
102
{ACAD_REACTORS
330
A7CB
102
}
330
A7CB
  0
SCALE
  5
A803
102
{ACAD_REACTORS
330
A802
102
}
330
A802
100
AcDbScale
 70
     0
300
1:1
140
1.0
141
1.0
290
     1
  0
SCALE
  5
A804
102
{ACAD_REACTORS
330
A802
102
}
330
A802
100
AcDbScale
 70
     0
300
1/128" = 1'-0"
140
0.0078125
141
12.0
290
     0
  0
SCALE
  5
A805
102
{ACAD_REACTORS
330
A802
102
}
330
A802
100
AcDbScale
 70
     0
300
1/64" = 1'-0"
140
0.015625
141
12.0
290
     0
  0
SCALE
  5
A806
102
{ACAD_REACTORS
330
A802
102
}
330
A802
100
AcDbScale
 70
     0
300
1/32" = 1'-0"
140
0.03125
141
12.0
290
     0
  0
SCALE
  5
A807
102
{ACAD_REACTORS
330
A802
102
}
330
A802
100
AcDbScale
 70
     0
300
1/16" = 1'-0"
140
0.0625
141
12.0
290
     0
  0
SCALE
  5
A808
102
{ACAD_REACTORS
330
A802
102
}
330
A802
100
AcDbScale
 70
     0
300
3/32" = 1'-0"
140
0.09375
141
12.0
290
     0
  0
SCALE
  5
A809
102
{ACAD_REACTORS
330
A802
102
}
330
A802
100
AcDbScale
 70
     0
300
1/8" = 1'-0"
140
0.125
141
12.0
290
     0
  0
SCALE
  5
A80A
102
{ACAD_REACTORS
330
A802
102
}
330
A802
100
AcDbScale
 70
     0
300
3/16" = 1'-0"
140
0.1875
141
12.0
290
     0
  0
SCALE
  5
A80B
102
{ACAD_REACTORS
330
A802
102
}
330
A802
100
AcDbScale
 70
     0
300
1/4" = 1'-0"
140
0.25
141
12.0
290
     0
  0
SCALE
  5
A80C
102
{ACAD_REACTORS
330
A802
102
}
330
A802
100
AcDbScale
 70
     0
300
3/8" = 1'-0"
140
0.375
141
12.0
290
     0
  0
SCALE
  5
A80D
102
{ACAD_REACTORS
330
A802
102
}
330
A802
100
AcDbScale
 70
     0
300
1/2" = 1'-0"
140
0.5
141
12.0
290
     0
  0
SCALE
  5
A80E
102
{ACAD_REACTORS
330
A802
102
}
330
A802
100
AcDbScale
 70
     0
300
3/4" = 1'-0"
140
0.75
141
12.0
290
     0
  0
SCALE
  5
A80F
102
{ACAD_REACTORS
330
A802
102
}
330
A802
100
AcDbScale
 70
     0
300
1" = 1'-0"
140
1.0
141
12.0
290
     0
  0
SCALE
  5
A810
102
{ACAD_REACTORS
330
A802
102
}
330
A802
100
AcDbScale
 70
     0
300
1-1/2" = 1'-0"
140
1.5
141
12.0
290
     0
  0
SCALE
  5
A811
102
{ACAD_REACTORS
330
A802
102
}
330
A802
100
AcDbScale
 70
     0
300
3" = 1'-0"
140
3.0
141
12.0
290
     0
  0
SCALE
  5
A812
102
{ACAD_REACTORS
330
A802
102
}
330
A802
100
AcDbScale
 70
     0
300
6" = 1'-0"
140
6.0
141
12.0
290
     0
  0
SCALE
  5
A813
102
{ACAD_REACTORS
330
A802
102
}
330
A802
100
AcDbScale
 70
     0
300
1'-0" = 1'-0"
140
12.0
141
12.0
290
     0
  0
ACDBSECTIONVIEWSTYLE
  5
A817
102
{ACAD_XDICTIONARY
360
A872
102
}
102
{ACAD_REACTORS
330
A816
102
}
330
A816
100
AcDbModelDocViewStyle
 70
     0
  3
Imperial24
290
     0
100
AcDbSectionViewStyle
 70
     0
 71
     0
 90
       78
 71
     1
340
A49C
 40
0.24
340
0
340
0
 40
0.24
300
I, O, Q, S, X, Z
 40
0.48
 90
        3
 40
0.18
 90
        1
 71
     2
340
A4A0
 90
       25
340
A4A0
 90
       50
 40
0.24
 40
0.0
 40
0.24
 71
     3
340
A49C
 40
0.24
 90
        1
 40
0.75
 90
        1
300
%<\AcVar ViewType \f "%tc1">% %<\AcVar ViewSectionStartId>%-%<\AcVar ViewSectionEndId>%\PSCALE %<\AcVar ViewScale \f "%sn">%
 71
     4
300
ANSI31
 40
1.0
 90
        0
290
     0
290
     0
 90
        6
 40
0.0
 40
1.570796326794896
 40
0.2617993877991494
 40
1.308996938995747
 40
-0.2617993877991494
 40
1.832595714594046
  0
TABLESTYLE
  5
A801
102
{ACAD_XDICTIONARY
360
A839
102
}
102
{ACAD_REACTORS
330
A800
102
}
330
A800
100
AcDbTableStyle
  3
Standard
 70
     0
 71
     0
 40
0.06
 41
0.06
280
     0
281
     0
  7
STANDARD
140
0.18
170
     2
 62
     0
 63
     7
283
     0
274
    -2
284
     1
 64
     0
275
    -2
285
     1
 65
     0
276
    -2
286
     1
 66
     0
277
    -2
287
     1
 67
     0
278
    -2
288
     1
 68
     0
279
    -2
289
     1
 69
     0
  7
STANDARD
140
0.25
170
     5
 62
     0
 63
     7
283
     0
274
    -2
284
     1
 64
     0
275
    -2
285
     1
 65
     0
276
    -2
286
     1
 66
     0
277
    -2
287
     1
 67
     0
278
    -2
288
     1
 68
     0
279
    -2
289
     1
 69
     0
  7
STANDARD
140
0.18
170
     5
 62
     0
 63
     7
283
     0
274
    -2
284
     1
 64
     0
275
    -2
285
     1
 65
     0
276
    -2
286
     1
 66
     0
277
    -2
287
     1
 67
     0
278
    -2
288
     1
 68
     0
279
    -2
289
     1
 69
     0
  0
VISUALSTYLE
  5
A7EC
102
{ACAD_XDICTIONARY
360
A84A
102
}
102
{ACAD_REACTORS
330
A7E6
102
}
330
A7E6
100
AcDbVisualStyle
  2
2dWireframe
 70
     4
 71
     0
 72
     2
 73
     0
 90
        0
 40
-0.6
 41
-30.0
 62
     5
 63
     7
 74
     1
 91
        4
 64
     7
 65
   257
 75
     1
175
     1
 42
1.0
 92
        0
 66
   257
 43
1.0
 76
     1
 77
     6
 78
     2
 67
     7
 79
     5
170
     0
171
     0
290
     0
174
     0
 93
        1
 44
0.0
173
     0
291
     0
 45
0.0
1001
ACAD
1000
AcDbSavedByObjectVersion
1070
     0
  0
VISUALSTYLE
  5
A7EB
102
{ACAD_XDICTIONARY
360
A848
102
}
102
{ACAD_REACTORS
330
A7E6
102
}
330
A7E6
100
AcDbVisualStyle
  2
Basic
 70
     7
 71
     1
 72
     0
 73
     1
 90
        0
 40
-0.6
 41
-30.0
 62
     5
 63
     7
 74
     0
 91
        4
 64
     7
 65
   257
 75
     1
175
     1
 42
1.0
 92
        8
 66
     7
 43
1.0
 76
     1
 77
     6
 78
     2
 67
     7
 79
     5
170
     0
171
     0
290
     0
174
     0
 93
        1
 44
0.0
173
     0
291
     1
 45
0.0
1001
ACAD
1000
AcDbSavedByObjectVersion
1070
     0
  0
VISUALSTYLE
  5
A7F2
102
{ACAD_XDICTIONARY
360
A856
102
}
102
{ACAD_REACTORS
330
A7E6
102
}
330
A7E6
100
AcDbVisualStyle
  2
Brighten
 70
    12
 71
     2
 72
     2
 73
     0
 90
        0
 40
-0.6
 41
-30.0
 62
     5
 63
     7
 74
     1
 91
        4
 64
     7
 65
   257
 75
     1
175
     1
 42
1.0
 92
        8
 66
     7
 43
1.0
 76
     1
 77
     6
 78
     2
 67
     7
 79
     5
170
     0
171
     0
290
     0
174
     0
 93
        1
 44
50.0
173
     0
291
     1
 45
0.0
1001
ACAD
1000
AcDbSavedByObjectVersion
1070
     0
  0
VISUALSTYLE
  5
A7F6
102
{ACAD_XDICTIONARY
360
A85E
102
}
102
{ACAD_REACTORS
330
A7E6
102
}
330
A7E6
100
AcDbVisualStyle
  2
ColorChange
 70
    16
 71
     2
 72
     2
 73
     3
 90
        0
 40
-0.6
 41
-30.0
 62
     5
 63
     8
 74
     1
 91
        4
 64
     7
 65
   257
 75
     1
175
     1
 42
1.0
 92
        8
 66
     8
 43
1.0
 76
     1
 77
     6
 78
     2
 67
     7
 79
     5
170
     0
171
     0
290
     0
174
     0
 93
        1
 44
0.0
173
     0
291
     1
 45
0.0
1001
ACAD
1000
AcDbSavedByObjectVersion
1070
     0
  0
VISUALSTYLE
  5
A7EF
102
{ACAD_XDICTIONARY
360
A850
102
}
102
{ACAD_REACTORS
330
A7E6
102
}
330
A7E6
100
AcDbVisualStyle
  2
Conceptual
 70
     9
 71
     3
 72
     2
 73
     0
 90
        0
 40
-0.6
 41
-30.0
 62
     5
 63
     7
 74
     2
 91
        2
 64
     7
 65
   257
 75
     1
175
     1
 42
179.0
 92
        8
 66
     7
 43
1.0
 76
     1
 77
     6
 78
     2
 67
     7
 79
     3
170
     0
171
     0
290
     0
174
     0
 93
        1
 44
0.0
173
     0
291
     0
 45
0.0
1001
ACAD
1000
AcDbSavedByObjectVersion
1070
     0
  0
VISUALSTYLE
  5
A7F1
102
{ACAD_XDICTIONARY
360
A854
102
}
102
{ACAD_REACTORS
330
A7E6
102
}
330
A7E6
100
AcDbVisualStyle
  2
Dim
 70
    11
 71
     2
 72
     2
 73
     0
 90
        0
 40
-0.6
 41
-30.0
 62
     5
 63
     7
 74
     1
 91
        4
 64
     7
 65
   257
 75
     1
175
     1
 42
1.0
 92
        8
 66
     7
 43
1.0
 76
     1
 77
     6
 78
     2
 67
     7
 79
     5
170
     0
171
     0
290
     0
174
     0
 93
        1
 44
-50.0
173
     0
291
     1
 45
0.0
1001
ACAD
1000
AcDbSavedByObjectVersion
1070
     0
  0
VISUALSTYLE
  5
A7FE
102
{ACAD_XDICTIONARY
360
A86E
102
}
102
{ACAD_REACTORS
330
A7E6
102
}
330
A7E6
100
AcDbVisualStyle
  2
EdgeColorOff
 70
    22
 71
     2
 72
     2
 73
     0
 90
        0
 40
-0.6
 41
-30.0
 62
     5
 63
     7
 74
     1
 91
        4
 64
     7
 65
   257
 75
     1
175
     1
 42
1.0
 92
        8
 66
     7
 43
1.0
 76
     1
 77
     6
 78
     2
 67
     7
 79
     5
170
     0
171
     0
290
     0
174
     0
 93
        1
 44
0.0
173
     0
291
     1
 45
0.0
1001
ACAD
1000
AcDbSavedByObjectVersion
1070
     0
  0
VISUALSTYLE
  5
A7F5
102
{ACAD_XDICTIONARY
360
A85C
102
}
102
{ACAD_REACTORS
330
A7E6
102
}
330
A7E6
100
AcDbVisualStyle
  2
Facepattern
 70
    15
 71
     2
 72
     2
 73
     0
 90
        0
 40
-0.6
 41
-30.0
 62
     5
 63
     7
 74
     1
 91
        4
 64
     7
 65
   257
 75
     1
175
     1
 42
1.0
 92
        8
 66
     7
 43
1.0
 76
     1
 77
     6
 78
     2
 67
     7
 79
     5
170
     0
171
     0
290
     0
174
     0
 93
        1
 44
0.0
173
     0
291
     1
 45
0.0
1001
ACAD
1000
AcDbSavedByObjectVersion
1070
     0
  0
VISUALSTYLE
  5
A7E7
102
{ACAD_XDICTIONARY
360
A840
102
}
102
{ACAD_REACTORS
330
A7E6
102
}
330
A7E6
100
AcDbVisualStyle
  2
Flat
 70
     0
 71
     2
 72
     1
 73
     1
 90
        2
 40
-0.6
 41
30.0
 62
     5
 63
     7
 74
     0
 91
        0
 64
     7
 65
   257
 75
     1
175
     1
 42
1.0
 92
        8
 66
     7
 43
1.0
 76
     1
 77
     6
 78
     2
 67
     7
 79
     5
170
     0
171
     0
290
     0
174
     0
 93
       13
 44
0.0
173
     0
291
     1
 45
0.0
1001
ACAD
1000
AcDbSavedByObjectVersion
1070
     0
  0
VISUALSTYLE
  5
A7E8
102
{ACAD_XDICTIONARY
360
A842
102
}
102
{ACAD_REACTORS
330
A7E6
102
}
330
A7E6
100
AcDbVisualStyle
  2
FlatWithEdges
 70
     1
 71
     2
 72
     1
 73
     1
 90
        2
 40
-0.6
 41
30.0
 62
     5
 63
     7
 74
     1
 91
        0
 64
     7
 65
   257
 75
     1
175
     1
 42
1.0
 92
        0
 66
   257
 43
1.0
 76
     1
 77
     6
 78
     2
 67
     7
 79
     5
170
     0
171
     0
290
     0
174
     0
 93
       13
 44
0.0
173
     0
291
     1
 45
0.0
1001
ACAD
1000
AcDbSavedByObjectVersion
1070
     0
  0
VISUALSTYLE
  5
A7E9
102
{ACAD_XDICTIONARY
360
A844
102
}
102
{ACAD_REACTORS
330
A7E6
102
}
330
A7E6
100
AcDbVisualStyle
  2
Gouraud
 70
     2
 71
     2
 72
     2
 73
     1
 90
        2
 40
-0.6
 41
30.0
 62
     5
 63
     7
 74
     0
 91
        0
 64
     7
 65
   257
 75
     1
175
     1
 42
1.0
 92
        0
 66
     7
 43
1.0
 76
     1
 77
     6
 78
     2
 67
     7
 79
     5
170
     0
171
     0
290
     0
174
     0
 93
       13
 44
0.0
173
     0
291
     1
 45
0.0
1001
ACAD
1000
AcDbSavedByObjectVersion
1070
     0
  0
VISUALSTYLE
  5
A7EA
102
{ACAD_XDICTIONARY
360
A846
102
}
102
{ACAD_REACTORS
330
A7E6
102
}
330
A7E6
100
AcDbVisualStyle
  2
GouraudWithEdges
 70
     3
 71
     2
 72
     2
 73
     1
 90
        2
 40
-0.6
 41
30.0
 62
     5
 63
     7
 74
     1
 91
        0
 64
     7
 65
   257
 75
     1
175
     1
 42
1.0
 92
        0
 66
   257
 43
1.0
 76
     1
 77
     6
 78
     2
 67
     7
 79
     5
170
     0
171
     0
290
     0
174
     0
 93
       13
 44
0.0
173
     0
291
     1
 45
0.0
1001
ACAD
1000
AcDbSavedByObjectVersion
1070
     0
  0
VISUALSTYLE
  5
A7EE
102
{ACAD_XDICTIONARY
360
A84E
102
}
102
{ACAD_REACTORS
330
A7E6
102
}
330
A7E6
100
AcDbVisualStyle
  2
Hidden
 70
     6
 71
     1
 72
     2
 73
     2
 90
        0
 40
-0.6
 41
-30.0
 62
     5
 63
     7
 74
     2
 91
        2
 64
     7
 65
   257
 75
     2
175
     1
 42
40.0
 92
        0
 66
   257
 43
1.0
 76
     1
 77
     6
 78
     2
 67
     7
 79
     3
170
     0
171
     0
290
     0
174
     0
 93
        1
 44
0.0
173
     0
291
     0
 45
0.0
1001
ACAD
1000
AcDbSavedByObjectVersion
1070
     0
  0
VISUALSTYLE
  5
A7FC
102
{ACAD_XDICTIONARY
360
A86A
102
}
102
{ACAD_REACTORS
330
A7E6
102
}
330
A7E6
100
AcDbVisualStyle
  2
JitterOff
 70
    20
 71
     2
 72
     2
 73
     0
 90
        0
 40
-0.6
 41
-30.0
 62
     5
 63
     7
 74
     1
 91
        4
 64
     7
 65
   257
 75
     1
175
     1
 42
1.0
 92
       10
 66
     7
 43
1.0
 76
     1
 77
     6
 78
     2
 67
     7
 79
     5
170
     0
171
     0
290
     0
174
     0
 93
        1
 44
0.0
173
     0
291
     1
 45
0.0
1001
ACAD
1000
AcDbSavedByObjectVersion
1070
     0
  0
VISUALSTYLE
  5
A7F4
102
{ACAD_XDICTIONARY
360
A85A
102
}
102
{ACAD_REACTORS
330
A7E6
102
}
330
A7E6
100
AcDbVisualStyle
  2
Linepattern
 70
    14
 71
     2
 72
     2
 73
     0
 90
        0
 40
-0.6
 41
-30.0
 62
     5
 63
     7
 74
     1
 91
        4
 64
     7
 65
   257
 75
     7
175
     7
 42
1.0
 92
        8
 66
     7
 43
1.0
 76
     1
 77
     6
 78
     2
 67
     7
 79
     5
170
     0
171
     0
290
     0
174
     0
 93
        1
 44
0.0
173
     0
291
     1
 45
0.0
1001
ACAD
1000
AcDbSavedByObjectVersion
1070
     0
  0
VISUALSTYLE
  5
A7FD
102
{ACAD_XDICTIONARY
360
A86C
102
}
102
{ACAD_REACTORS
330
A7E6
102
}
330
A7E6
100
AcDbVisualStyle
  2
OverhangOff
 70
    21
 71
     2
 72
     2
 73
     0
 90
        0
 40
-0.6
 41
-30.0
 62
     5
 63
     7
 74
     1
 91
        4
 64
     7
 65
   257
 75
     1
175
     1
 42
1.0
 92
        9
 66
     7
 43
1.0
 76
     1
 77
     6
 78
     2
 67
     7
 79
     5
170
     0
171
     0
290
     0
174
     0
 93
        1
 44
0.0
173
     0
291
     1
 45
0.0
1001
ACAD
1000
AcDbSavedByObjectVersion
1070
     0
  0
VISUALSTYLE
  5
A7F0
102
{ACAD_XDICTIONARY
360
A852
102
}
102
{ACAD_REACTORS
330
A7E6
102
}
330
A7E6
100
AcDbVisualStyle
  2
Realistic
 70
     8
 71
     2
 72
     3
 73
     0
 90
        2
 40
-0.6
 41
30.0
 62
     5
 63
     7
 74
     0
 91
        0
 64
     7
 65
   257
 75
     1
175
     1
 42
1.0
 92
        8
 66
   257
 43
1.0
 76
     1
 77
     6
 78
     2
 67
     7
 79
     3
170
     0
171
     0
290
     0
174
     0
 93
       13
 44
0.0
173
     0
291
     0
 45
0.0
1001
ACAD
1000
AcDbSavedByObjectVersion
1070
     0
  0
VISUALSTYLE
  5
A7FB
102
{ACAD_XDICTIONARY
360
A868
102
}
102
{ACAD_REACTORS
330
A7E6
102
}
330
A7E6
100
AcDbVisualStyle
  2
Shaded
 70
    27
 71
     2
 72
     2
 73
     1
 90
        2
 40
-0.6
 41
30.0
 62
     5
 63
     7
 74
     0
 91
        4
 64
     7
 65
   257
 75
     1
175
     1
 42
1.0
 92
        8
 66
   257
 43
1.0
 76
     1
 77
     6
 78
     2
 67
     8
 79
     3
170
     0
171
     0
290
     0
174
     0
 93
        5
 44
0.0
173
     0
291
     0
 45
0.0
1001
ACAD
1000
AcDbSavedByObjectVersion
1070
     0
  0
VISUALSTYLE
  5
A7FA
102
{ACAD_XDICTIONARY
360
A866
102
}
102
{ACAD_REACTORS
330
A7E6
102
}
330
A7E6
100
AcDbVisualStyle
  2
Shaded with edges
 70
    26
 71
     2
 72
     2
 73
     1
 90
        2
 40
-0.6
 41
30.0
 62
     5
 63
     7
 74
     1
 91
       10
 64
     7
 65
   257
 75
     2
175
     1
 42
1.0
 92
        8
 66
   257
 43
1.0
 76
     1
 77
     6
 78
     2
 67
     7
 79
     3
170
     0
171
     0
290
     0
174
     0
 93
        5
 44
0.0
173
     0
291
     0
 45
0.0
1001
ACAD
1000
AcDbSavedByObjectVersion
1070
     0
  0
VISUALSTYLE
  5
A7F7
102
{ACAD_XDICTIONARY
360
A860
102
}
102
{ACAD_REACTORS
330
A7E6
102
}
330
A7E6
100
AcDbVisualStyle
  2
Shades of Gray
 70
    23
 71
     2
 72
     2
 73
     3
 90
        0
 40
-0.6
 41
-30.0
 62
     5
 63
     7
 74
     2
 91
        2
 64
     7
 65
     7
 75
     1
175
     1
 42
40.0
 92
        8
 66
     7
 43
1.0
 76
     1
 77
     6
 78
     2
 67
     7
 79
     3
170
     0
171
     0
290
     0
174
     0
 93
        1
 44
0.0
173
     0
291
     0
 45
0.0
1001
ACAD
1000
AcDbSavedByObjectVersion
1070
     0
  0
VISUALSTYLE
  5
A7F8
102
{ACAD_XDICTIONARY
360
A862
102
}
102
{ACAD_REACTORS
330
A7E6
102
}
330
A7E6
100
AcDbVisualStyle
  2
Sketchy
 70
    24
 71
     1
 72
     2
 73
     2
 90
        0
 40
-0.6
 41
-30.0
 62
     5
 63
     7
 74
     2
 91
        2
 64
     7
 65
     7
 75
     1
175
     1
 42
40.0
 92
       11
 66
     7
 43
1.0
 76
     1
 77
     6
 78
     2
 67
     7
 79
     6
170
     0
171
     0
290
     0
174
     0
 93
        1
 44
0.0
173
     0
291
     0
 45
0.0
1001
ACAD
1000
AcDbSavedByObjectVersion
1070
     0
  0
VISUALSTYLE
  5
A7F3
102
{ACAD_XDICTIONARY
360
A858
102
}
102
{ACAD_REACTORS
330
A7E6
102
}
330
A7E6
100
AcDbVisualStyle
  2
Thicken
 70
    13
 71
     2
 72
     2
 73
     0
 90
        0
 40
-0.6
 41
-30.0
 62
     5
 63
     7
 74
     1
 91
        4
 64
     7
 65
   257
 75
     1
175
     1
 42
1.0
 92
       12
 66
     7
 43
1.0
 76
     1
 77
     6
 78
     2
 67
     7
 79
     5
170
     0
171
     0
290
     0
174
     0
 93
        1
 44
0.0
173
     0
291
     1
 45
0.0
1001
ACAD
1000
AcDbSavedByObjectVersion
1070
     0
  0
VISUALSTYLE
  5
A7ED
102
{ACAD_XDICTIONARY
360
A84C
102
}
102
{ACAD_REACTORS
330
A7E6
102
}
330
A7E6
100
AcDbVisualStyle
  2
Wireframe
 70
     5
 71
     0
 72
     2
 73
     0
 90
        0
 40
-0.6
 41
-30.0
 62
     5
 63
     7
 74
     1
 91
        4
 64
     7
 65
   257
 75
     1
175
     1
 42
1.0
 92
        0
 66
   257
 43
1.0
 76
     1
 77
     6
 78
     2
 67
     7
 79
     3
170
     0
171
     0
290
     0
174
     0
 93
        1
 44
0.0
173
     0
291
     0
 45
0.0
1001
ACAD
1000
AcDbSavedByObjectVersion
1070
     0
  0
VISUALSTYLE
  5
A7F9
102
{ACAD_XDICTIONARY
360
A864
102
}
102
{ACAD_REACTORS
330
A7E6
102
}
330
A7E6
100
AcDbVisualStyle
  2
X-Ray
 70
    25
 71
     2
 72
     2
 73
     1
 90
        1
 40
0.5
 41
-30.0
 62
     5
 63
     7
 74
     1
 91
        0
 64
     7
 65
   257
 75
     1
175
     1
 42
1.0
 92
        8
 66
     7
 43
1.0
 76
     1
 77
     6
 78
     2
 67
     7
 79
     3
170
     0
171
     0
290
     0
174
     0
 93
       13
 44
0.0
173
     0
291
     0
 45
0.0
1001
ACAD
1000
AcDbSavedByObjectVersion
1070
     0
  0
DICTIONARYVAR
  5
A833
102
{ACAD_REACTORS
330
A82E
102
}
330
A82E
100
DictionaryVariables
280
     0
  1
1:1
  0
DICTIONARYVAR
  5
A830
102
{ACAD_REACTORS
330
A82E
102
}
330
A82E
100
DictionaryVariables
280
     0
  1
STANDARD
  0
DICTIONARYVAR
  5
A82F
102
{ACAD_REACTORS
330
A82E
102
}
330
A82E
100
DictionaryVariables
280
     0
  1
STANDARD
  0
DICTIONARYVAR
  5
A831
102
{ACAD_REACTORS
330
A82E
102
}
330
A82E
100
DictionaryVariables
280
     0
  1
Imperial24
  0
DICTIONARYVAR
  5
A832
102
{ACAD_REACTORS
330
A82E
102
}
330
A82E
100
DictionaryVariables
280
     0
  1
Imperial24
  0
DICTIONARYVAR
  5
A836
102
{ACAD_REACTORS
330
A82E
102
}
330
A82E
100
DictionaryVariables
280
     0
  1
1
  0
DICTIONARYVAR
  5
A835
102
{ACAD_REACTORS
330
A82E
102
}
330
A82E
100
DictionaryVariables
280
     0
  1
0
  0
DICTIONARYVAR
  5
A834
102
{ACAD_REACTORS
330
A82E
102
}
330
A82E
100
DictionaryVariables
280
     0
  1
127
  0
DICTIONARYVAR
  5
A837
102
{ACAD_REACTORS
330
A82E
102
}
330
A82E
100
DictionaryVariables
280
     0
  1
2
  0
DICTIONARY
  5
A874
330
A819
100
AcDbDictionary
280
     1
281
     1
  3
ACAD_XREC_ROUNDTRIP
360
A875
  0
DICTIONARY
  5
A876
330
A81A
100
AcDbDictionary
280
     1
281
     1
  3
ACAD_XREC_ROUNDTRIP
360
A877
  0
DICTIONARY
  5
A878
330
A81B
100
AcDbDictionary
280
     1
281
     1
  3
ACAD_XREC_ROUNDTRIP
360
A879
  0
DICTIONARY
  5
A7D7
330
A7D6
100
AcDbDictionary
280
     1
281
     1
  3
ACAD_XREC_ROUNDTRIP
360
A83E
  3
BUMPTILE
360
A7D9
  3
DIFFUSETILE
360
A7D8
  3
OPACITYTILE
360
A7DC
  3
REFLECTIONTILE
360
A7DB
  3
REFRACTIONTILE
360
A7DD
  3
SPECULARTILE
360
A7DA
  0
DICTIONARY
  5
A7CF
330
A7CE
100
AcDbDictionary
280
     1
281
     1
  3
ACAD_XREC_ROUNDTRIP
360
A83D
  3
BUMPTILE
360
A7D1
  3
DIFFUSETILE
360
A7D0
  3
OPACITYTILE
360
A7D4
  3
REFLECTIONTILE
360
A7D3
  3
REFRACTIONTILE
360
A7D5
  3
SPECULARTILE
360
A7D2
  0
DICTIONARY
  5
A7DF
330
A7DE
100
AcDbDictionary
280
     1
281
     1
  3
ACAD_XREC_ROUNDTRIP
360
A83F
  3
BUMPTILE
360
A7E1
  3
DIFFUSETILE
360
A7E0
  3
OPACITYTILE
360
A7E4
  3
REFLECTIONTILE
360
A7E3
  3
REFRACTIONTILE
360
A7E5
  3
SPECULARTILE
360
A7E2
  0
DICTIONARY
  5
A872
330
A817
100
AcDbDictionary
280
     1
281
     1
  3
ACAD_XREC_ROUNDTRIP
360
A873
  0
DICTIONARY
  5
A839
330
A801
100
AcDbDictionary
280
     1
281
     1
  3
ACAD_ROUNDTRIP_2008_TABLESTYLE_CELLSTYLEMAP
360
A83A
  3
ACAD_XREC_ROUNDTRIP
360
A870
  0
DICTIONARY
  5
A84A
330
A7EC
100
AcDbDictionary
280
     1
281
     1
  3
ACAD_XREC_ROUNDTRIP
360
A84B
  0
DICTIONARY
  5
A848
330
A7EB
100
AcDbDictionary
280
     1
281
     1
  3
ACAD_XREC_ROUNDTRIP
360
A849
  0
DICTIONARY
  5
A856
330
A7F2
100
AcDbDictionary
280
     1
281
     1
  3
ACAD_XREC_ROUNDTRIP
360
A857
  0
DICTIONARY
  5
A85E
330
A7F6
100
AcDbDictionary
280
     1
281
     1
  3
ACAD_XREC_ROUNDTRIP
360
A85F
  0
DICTIONARY
  5
A850
330
A7EF
100
AcDbDictionary
280
     1
281
     1
  3
ACAD_XREC_ROUNDTRIP
360
A851
  0
DICTIONARY
  5
A854
330
A7F1
100
AcDbDictionary
280
     1
281
     1
  3
ACAD_XREC_ROUNDTRIP
360
A855
  0
DICTIONARY
  5
A86E
330
A7FE
100
AcDbDictionary
280
     1
281
     1
  3
ACAD_XREC_ROUNDTRIP
360
A86F
  0
DICTIONARY
  5
A85C
330
A7F5
100
AcDbDictionary
280
     1
281
     1
  3
ACAD_XREC_ROUNDTRIP
360
A85D
  0
DICTIONARY
  5
A840
330
A7E7
100
AcDbDictionary
280
     1
281
     1
  3
ACAD_XREC_ROUNDTRIP
360
A841
  0
DICTIONARY
  5
A842
330
A7E8
100
AcDbDictionary
280
     1
281
     1
  3
ACAD_XREC_ROUNDTRIP
360
A843
  0
DICTIONARY
  5
A844
330
A7E9
100
AcDbDictionary
280
     1
281
     1
  3
ACAD_XREC_ROUNDTRIP
360
A845
  0
DICTIONARY
  5
A846
330
A7EA
100
AcDbDictionary
280
     1
281
     1
  3
ACAD_XREC_ROUNDTRIP
360
A847
  0
DICTIONARY
  5
A84E
330
A7EE
100
AcDbDictionary
280
     1
281
     1
  3
ACAD_XREC_ROUNDTRIP
360
A84F
  0
DICTIONARY
  5
A86A
330
A7FC
100
AcDbDictionary
280
     1
281
     1
  3
ACAD_XREC_ROUNDTRIP
360
A86B
  0
DICTIONARY
  5
A85A
330
A7F4
100
AcDbDictionary
280
     1
281
     1
  3
ACAD_XREC_ROUNDTRIP
360
A85B
  0
DICTIONARY
  5
A86C
330
A7FD
100
AcDbDictionary
280
     1
281
     1
  3
ACAD_XREC_ROUNDTRIP
360
A86D
  0
DICTIONARY
  5
A852
330
A7F0
100
AcDbDictionary
280
     1
281
     1
  3
ACAD_XREC_ROUNDTRIP
360
A853
  0
DICTIONARY
  5
A868
330
A7FB
100
AcDbDictionary
280
     1
281
     1
  3
ACAD_XREC_ROUNDTRIP
360
A869
  0
DICTIONARY
  5
A866
330
A7FA
100
AcDbDictionary
280
     1
281
     1
  3
ACAD_XREC_ROUNDTRIP
360
A867
  0
DICTIONARY
  5
A860
330
A7F7
100
AcDbDictionary
280
     1
281
     1
  3
ACAD_XREC_ROUNDTRIP
360
A861
  0
DICTIONARY
  5
A862
330
A7F8
100
AcDbDictionary
280
     1
281
     1
  3
ACAD_XREC_ROUNDTRIP
360
A863
  0
DICTIONARY
  5
A858
330
A7F3
100
AcDbDictionary
280
     1
281
     1
  3
ACAD_XREC_ROUNDTRIP
360
A859
  0
DICTIONARY
  5
A84C
330
A7ED
100
AcDbDictionary
280
     1
281
     1
  3
ACAD_XREC_ROUNDTRIP
360
A84D
  0
DICTIONARY
  5
A864
330
A7F9
100
AcDbDictionary
280
     1
281
     1
  3
ACAD_XREC_ROUNDTRIP
360
A865
  0
XRECORD
  5
A875
102
{ACAD_REACTORS
330
A874
102
}
330
A874
100
AcDbXrecord
280
     1
102
DISPLAYNAME
  1
Imperial24
102
FLAGS
 90
        0
  0
XRECORD
  5
A877
102
{ACAD_REACTORS
330
A876
102
}
330
A876
100
AcDbXrecord
280
     1
102
SHADEPLOT
 70
     0
102
SHADEPLOTRESLEVEL
 70
     2
102
SHADEPLOTCUSTOMDPI
 70
   300
  0
XRECORD
  5
A879
102
{ACAD_REACTORS
330
A878
102
}
330
A878
100
AcDbXrecord
280
     1
102
SHADEPLOT
 70
     0
102
SHADEPLOTRESLEVEL
 70
     2
102
SHADEPLOTCUSTOMDPI
 70
   300
  0
XRECORD
  5
A83E
102
{ACAD_REACTORS
330
A7D7
102
}
330
A7D7
100
AcDbXrecord
280
     1
102
MATERIAL
148
0.0
149
0.0
149
0.0
 93
        0
 94
      127
282
     0
 72
     0
 77
     0
171
     0
175
     0
179
     0
273
     0
  0
XRECORD
  5
A7D9
102
{ACAD_REACTORS
330
A7D7
102
}
330
A7D7
100
AcDbXrecord
280
     1
270
     1
271
     1
  0
XRECORD
  5
A7D8
102
{ACAD_REACTORS
330
A7D7
102
}
330
A7D7
100
AcDbXrecord
280
     1
270
     1
271
     1
  0
XRECORD
  5
A7DC
102
{ACAD_REACTORS
330
A7D7
102
}
330
A7D7
100
AcDbXrecord
280
     1
270
     1
271
     1
  0
XRECORD
  5
A7DB
102
{ACAD_REACTORS
330
A7D7
102
}
330
A7D7
100
AcDbXrecord
280
     1
270
     1
271
     1
  0
XRECORD
  5
A7DD
102
{ACAD_REACTORS
330
A7D7
102
}
330
A7D7
100
AcDbXrecord
280
     1
270
     1
271
     1
  0
XRECORD
  5
A7DA
102
{ACAD_REACTORS
330
A7D7
102
}
330
A7D7
100
AcDbXrecord
280
     1
270
     1
271
     1
  0
XRECORD
  5
A83D
102
{ACAD_REACTORS
330
A7CF
102
}
330
A7CF
100
AcDbXrecord
280
     1
102
MATERIAL
148
0.0
149
0.0
149
0.0
 93
        0
 94
      127
282
     0
 72
     0
 77
     0
171
     0
175
     0
179
     0
273
     0
  0
XRECORD
  5
A7D1
102
{ACAD_REACTORS
330
A7CF
102
}
330
A7CF
100
AcDbXrecord
280
     1
270
     1
271
     1
  0
XRECORD
  5
A7D0
102
{ACAD_REACTORS
330
A7CF
102
}
330
A7CF
100
AcDbXrecord
280
     1
270
     1
271
     1
  0
XRECORD
  5
A7D4
102
{ACAD_REACTORS
330
A7CF
102
}
330
A7CF
100
AcDbXrecord
280
     1
270
     1
271
     1
  0
XRECORD
  5
A7D3
102
{ACAD_REACTORS
330
A7CF
102
}
330
A7CF
100
AcDbXrecord
280
     1
270
     1
271
     1
  0
XRECORD
  5
A7D5
102
{ACAD_REACTORS
330
A7CF
102
}
330
A7CF
100
AcDbXrecord
280
     1
270
     1
271
     1
  0
XRECORD
  5
A7D2
102
{ACAD_REACTORS
330
A7CF
102
}
330
A7CF
100
AcDbXrecord
280
     1
270
     1
271
     1
  0
XRECORD
  5
A83F
102
{ACAD_REACTORS
330
A7DF
102
}
330
A7DF
100
AcDbXrecord
280
     1
102
MATERIAL
148
0.0
149
0.0
149
0.0
 93
        0
 94
      127
282
     0
 72
     0
 77
     0
171
     0
175
     0
179
     0
273
     0
  0
XRECORD
  5
A7E1
102
{ACAD_REACTORS
330
A7DF
102
}
330
A7DF
100
AcDbXrecord
280
     1
270
     1
271
     1
  0
XRECORD
  5
A7E0
102
{ACAD_REACTORS
330
A7DF
102
}
330
A7DF
100
AcDbXrecord
280
     1
270
     1
271
     1
  0
XRECORD
  5
A7E4
102
{ACAD_REACTORS
330
A7DF
102
}
330
A7DF
100
AcDbXrecord
280
     1
270
     1
271
     1
  0
XRECORD
  5
A7E3
102
{ACAD_REACTORS
330
A7DF
102
}
330
A7DF
100
AcDbXrecord
280
     1
270
     1
271
     1
  0
XRECORD
  5
A7E5
102
{ACAD_REACTORS
330
A7DF
102
}
330
A7DF
100
AcDbXrecord
280
     1
270
     1
271
     1
  0
XRECORD
  5
A7E2
102
{ACAD_REACTORS
330
A7DF
102
}
330
A7DF
100
AcDbXrecord
280
     1
270
     1
271
     1
  0
XRECORD
  5
A873
102
{ACAD_REACTORS
330
A872
102
}
330
A872
100
AcDbXrecord
280
     1
102
DISPLAYNAME
  1
Imperial24
102
FLAGS
 90
        0
  0
CELLSTYLEMAP
  5
A83A
102
{ACAD_REACTORS
330
A839
102
}
330
A839
100
AcDbCellStyleMap
 90
        3
300
CELLSTYLE
  1
TABLEFORMAT_BEGIN
 90
        5
170
     1
 91
        0
 92
    32768
 62
   257
 93
        1
300
CONTENTFORMAT
  1
CONTENTFORMAT_BEGIN
 90
        0
 91
        0
 92
      512
 93
        0
300

 40
0.0
140
1.0
 94
        5
 62
     0
340
A49C
144
0.25
309
CONTENTFORMAT_END
171
     0
 94
        0
309
TABLEFORMAT_END
  1
CELLSTYLE_BEGIN
 90
        1
 91
        1
300
_TITLE
309
CELLSTYLE_END
300
CELLSTYLE
  1
TABLEFORMAT_BEGIN
 90
        5
170
     1
 91
        0
 92
        0
 62
   257
 93
        1
300
CONTENTFORMAT
  1
CONTENTFORMAT_BEGIN
 90
        0
 91
        0
 92
      512
 93
        0
300

 40
0.0
140
1.0
 94
        5
 62
     0
340
A49C
144
0.18
309
CONTENTFORMAT_END
171
     0
 94
        0
309
TABLEFORMAT_END
  1
CELLSTYLE_BEGIN
 90
        2
 91
        1
300
_HEADER
309
CELLSTYLE_END
300
CELLSTYLE
  1
TABLEFORMAT_BEGIN
 90
        5
170
     1
 91
        0
 92
        0
 62
   257
 93
        1
300
CONTENTFORMAT
  1
CONTENTFORMAT_BEGIN
 90
        0
 91
        0
 92
      512
 93
        0
300

 40
0.0
140
1.0
 94
        2
 62
     0
340
A49C
144
0.18
309
CONTENTFORMAT_END
171
     0
 94
        0
309
TABLEFORMAT_END
  1
CELLSTYLE_BEGIN
 90
        3
 91
        2
300
_DATA
309
CELLSTYLE_END
  0
XRECORD
  5
A870
102
{ACAD_REACTORS
330
A839
102
}
330
A839
100
AcDbXrecord
280
     1
102
ACAD_ROUNDTRIP_PRE2007_TABLESTYLE
 90
      512
 91
        0
  1

 92
      512
 93
        0
  2

 94
      512
 95
        0
  3

  0
XRECORD
  5
A84B
102
{ACAD_REACTORS
330
A84A
102
}
330
A84A
100
AcDbXrecord
280
     1
102
RTVSPost2010Prop28
280
     1
102
RTVSPost2010PropOp28
 70
     1
102
RTVSPost2010Prop29
280
     1
102
RTVSPost2010PropOp29
 70
     1
102
RTVSPost2010Prop30
280
     0
102
RTVSPost2010PropOp30
 70
     1
102
RTVSPost2010Prop31
280
     0
102
RTVSPost2010PropOp31
 70
     1
102
RTVSPost2010Prop32
280
     0
102
RTVSPost2010PropOp32
 70
     1
102
RTVSPost2010Prop33
280
     0
102
RTVSPost2010PropOp33
 70
     1
102
RTVSPost2010Prop34
280
     0
102
RTVSPost2010PropOp34
 70
     1
102
RTVSPost2010Prop35
280
     0
102
RTVSPost2010PropOp35
 70
     1
102
RTVSPost2010Prop36
280
     0
102
RTVSPost2010PropOp36
 70
     1
102
RTVSPost2010Prop37
 90
       50
102
RTVSPost2010PropOp37
 70
     1
102
RTVSPost2010Prop38
140
0.0
102
RTVSPost2010PropOp38
 70
     1
102
RTVSPost2010Prop39
140
1.0
102
RTVSPost2010PropOp39
 70
     1
102
RTVSPost2010Prop40
 90
        0
102
RTVSPost2010PropOp40
 70
     1
102
RTVSPost2010Prop41ColorIndex
 90
       18
102
RTVSPost2010Prop41ColorRGB
 90
        0
102
RTVSPost2010PropOp41
 70
     1
102
RTVSPost2010Prop42
 90
       50
102
RTVSPost2010PropOp42
 70
     1
102
RTVSPost2010Prop43
 90
        3
102
RTVSPost2010PropOp43
 70
     1
102
RTVSPost2010Prop44ColorIndex
 90
        5
102
RTVSPost2010Prop44ColorRGB
 90
      255
102
RTVSPost2010PropOp44
 70
     1
102
RTVSPost2010Prop45
280
     0
102
RTVSPost2010PropOp45
 70
     1
102
RTVSPost2010Prop46
 90
       50
102
RTVSPost2010PropOp46
 70
     1
102
RTVSPost2010Prop47
 90
       50
102
RTVSPost2010PropOp47
 70
     1
102
RTVSPost2010Prop48
 90
       50
102
RTVSPost2010PropOp48
 70
     1
102
RTVSPost2010Prop49
280
     0
102
RTVSPost2010PropOp49
 70
     1
102
RTVSPost2010Prop50
 90
       50
102
RTVSPost2010PropOp50
 70
     1
102
RTVSPost2010Prop51ColorIndex
 90
      256
102
RTVSPost2010Prop51ColorRGB
 90
-16777216
102
RTVSPost2010PropOp51
 70
     0
102
RTVSPost2010Prop52
140
1.0
102
RTVSPost2010PropOp52
 70
     0
102
RTVSPost2010Prop53
 90
        2
102
RTVSPost2010PropOp53
 70
     1
102
RTVSPost2010Prop54
  1
strokes_ogs.tif
102
RTVSPost2010PropOp54
 70
     1
102
RTVSPost2010Prop55
280
     0
102
RTVSPost2010PropOp55
 70
     1
102
RTVSPost2010Prop56
140
1.0
102
RTVSPost2010PropOp56
 70
     1
102
RTVSPost2010Prop57
140
1.0
102
RTVSPost2010PropOp57
 70
     1
102
RTVSPropertyOp0
 70
     1
102
RTVSPropertyOp1
 70
     1
102
RTVSPropertyOp2
 70
     1
102
RTVSPropertyOp3
 70
     1
102
RTVSPropertyOp4
 70
     1
102
RTVSPropertyOp5
 70
     1
102
RTVSPropertyOp6
 70
     1
102
RTVSPropertyOp7
 70
     1
102
RTVSPropertyOp8
 70
     1
102
RTVSPropertyOp9
 70
     1
102
RTVSPropertyOp10
 70
     1
102
RTVSPropertyOp11
 70
     1
102
RTVSPropertyOp12
 70
     1
102
RTVSPropertyOp13
 70
     1
102
RTVSPropertyOp14
 70
     1
102
RTVSPropertyOp15
 70
     1
102
RTVSPropertyOp16
 70
     1
102
RTVSPropertyOp17
 70
     1
102
RTVSPropertyOp18
 70
     1
102
RTVSPropertyOp19
 70
     1
102
RTVSPropertyOp20
 70
     1
102
RTVSPropertyOp21
 70
     1
102
RTVSPropertyOp22
 70
     1
102
RTVSPropertyOp23
 70
     1
102
RTVSPropertyOp24
 70
     1
102
RTVSPropertyOp25
 70
     1
102
RTVSPropertyOp26
 70
     1
102
RTVSPropertyOp27
 70
     1
102
RTVSPropertyOp28
 70
     1
102
RTVSPropertyOp29
 70
     1
102
RTVSPropertyOp30
 70
     1
102
RTVSPropertyOp31
 70
     1
102
RTVSPropertyOp32
 70
     1
102
RTVSPropertyOp33
 70
     1
102
RTVSPropertyOp34
 70
     1
102
RTVSPropertyOp35
 70
     1
102
RTVSPropertyOp36
 70
     1
102
RTVSPropertyOp37
 70
     1
102
RTVSPropertyOp38
 70
     1
102
RTVSPropertyOp39
 70
     1
102
RTVSPropertyOp40
 70
     1
102
RTVSPropertyOp41
 70
     1
102
RTVSPropertyOp42
 70
     1
102
RTVSPropertyOp43
 70
     1
102
RTVSPropertyOp44
 70
     1
102
RTVSPropertyOp45
 70
     1
102
RTVSPropertyOp46
 70
     1
102
RTVSPropertyOp47
 70
     1
102
RTVSPropertyOp48
 70
     1
102
RTVSPropertyOp49
 70
     1
102
RTVSPropertyOp50
 70
     1
102
RTVSPropertyOp51
 70
     0
102
RTVSPropertyOp52
 70
     0
102
RTVSPropertyOp53
 70
     1
102
RTVSPropertyOp54
 70
     1
102
RTVSPropertyOp55
 70
     1
102
RTVSPropertyOp56
 70
     1
102
RTVSPropertyOp57
 70
     1
102
RTVSPropertyOp58
 70
     1
102
RTVSPropertyOp59
 70
     1
102
RTVSPropertyOp60
 70
     1
102
RTVSPropertyOp61
 70
     1
102
RTVSPropertyOp62
 70
     1
  0
XRECORD
  5
A849
102
{ACAD_REACTORS
330
A848
102
}
330
A848
100
AcDbXrecord
280
     1
102
RTVSPost2010Prop28
280
     0
102
RTVSPost2010PropOp28
 70
     1
102
RTVSPost2010Prop29
280
     1
102
RTVSPost2010PropOp29
 70
     1
102
RTVSPost2010Prop30
280
     1
102
RTVSPost2010PropOp30
 70
     1
102
RTVSPost2010Prop31
280
     0
102
RTVSPost2010PropOp31
 70
     1
102
RTVSPost2010Prop32
280
     0
102
RTVSPost2010PropOp32
 70
     1
102
RTVSPost2010Prop33
280
     0
102
RTVSPost2010PropOp33
 70
     1
102
RTVSPost2010Prop34
280
     0
102
RTVSPost2010PropOp34
 70
     1
102
RTVSPost2010Prop35
280
     0
102
RTVSPost2010PropOp35
 70
     1
102
RTVSPost2010Prop36
280
     0
102
RTVSPost2010PropOp36
 70
     1
102
RTVSPost2010Prop37
 90
       50
102
RTVSPost2010PropOp37
 70
     1
102
RTVSPost2010Prop38
140
0.0
102
RTVSPost2010PropOp38
 70
     1
102
RTVSPost2010Prop39
140
1.0
102
RTVSPost2010PropOp39
 70
     1
102
RTVSPost2010Prop40
 90
        0
102
RTVSPost2010PropOp40
 70
     1
102
RTVSPost2010Prop41ColorIndex
 90
       18
102
RTVSPost2010Prop41ColorRGB
 90
        0
102
RTVSPost2010PropOp41
 70
     1
102
RTVSPost2010Prop42
 90
       50
102
RTVSPost2010PropOp42
 70
     1
102
RTVSPost2010Prop43
 90
        3
102
RTVSPost2010PropOp43
 70
     1
102
RTVSPost2010Prop44ColorIndex
 90
        5
102
RTVSPost2010Prop44ColorRGB
 90
      255
102
RTVSPost2010PropOp44
 70
     1
102
RTVSPost2010Prop45
280
     0
102
RTVSPost2010PropOp45
 70
     1
102
RTVSPost2010Prop46
 90
       50
102
RTVSPost2010PropOp46
 70
     1
102
RTVSPost2010Prop47
 90
       50
102
RTVSPost2010PropOp47
 70
     1
102
RTVSPost2010Prop48
 90
       50
102
RTVSPost2010PropOp48
 70
     1
102
RTVSPost2010Prop49
280
     0
102
RTVSPost2010PropOp49
 70
     1
102
RTVSPost2010Prop50
 90
       50
102
RTVSPost2010PropOp50
 70
     1
102
RTVSPost2010Prop51ColorIndex
 90
      256
102
RTVSPost2010Prop51ColorRGB
 90
-16777216
102
RTVSPost2010PropOp51
 70
     0
102
RTVSPost2010Prop52
140
1.0
102
RTVSPost2010PropOp52
 70
     0
102
RTVSPost2010Prop53
 90
        2
102
RTVSPost2010PropOp53
 70
     1
102
RTVSPost2010Prop54
  1
strokes_ogs.tif
102
RTVSPost2010PropOp54
 70
     1
102
RTVSPost2010Prop55
280
     0
102
RTVSPost2010PropOp55
 70
     1
102
RTVSPost2010Prop56
140
1.0
102
RTVSPost2010PropOp56
 70
     1
102
RTVSPost2010Prop57
140
1.0
102
RTVSPost2010PropOp57
 70
     1
102
RTVSPropertyOp0
 70
     1
102
RTVSPropertyOp1
 70
     1
102
RTVSPropertyOp2
 70
     1
102
RTVSPropertyOp3
 70
     1
102
RTVSPropertyOp4
 70
     1
102
RTVSPropertyOp5
 70
     1
102
RTVSPropertyOp6
 70
     1
102
RTVSPropertyOp7
 70
     1
102
RTVSPropertyOp8
 70
     1
102
RTVSPropertyOp9
 70
     1
102
RTVSPropertyOp10
 70
     1
102
RTVSPropertyOp11
 70
     1
102
RTVSPropertyOp12
 70
     1
102
RTVSPropertyOp13
 70
     1
102
RTVSPropertyOp14
 70
     1
102
RTVSPropertyOp15
 70
     1
102
RTVSPropertyOp16
 70
     1
102
RTVSPropertyOp17
 70
     1
102
RTVSPropertyOp18
 70
     1
102
RTVSPropertyOp19
 70
     1
102
RTVSPropertyOp20
 70
     1
102
RTVSPropertyOp21
 70
     1
102
RTVSPropertyOp22
 70
     1
102
RTVSPropertyOp23
 70
     1
102
RTVSPropertyOp24
 70
     1
102
RTVSPropertyOp25
 70
     1
102
RTVSPropertyOp26
 70
     1
102
RTVSPropertyOp27
 70
     1
102
RTVSPropertyOp28
 70
     1
102
RTVSPropertyOp29
 70
     1
102
RTVSPropertyOp30
 70
     1
102
RTVSPropertyOp31
 70
     1
102
RTVSPropertyOp32
 70
     1
102
RTVSPropertyOp33
 70
     1
102
RTVSPropertyOp34
 70
     1
102
RTVSPropertyOp35
 70
     1
102
RTVSPropertyOp36
 70
     1
102
RTVSPropertyOp37
 70
     1
102
RTVSPropertyOp38
 70
     1
102
RTVSPropertyOp39
 70
     1
102
RTVSPropertyOp40
 70
     1
102
RTVSPropertyOp41
 70
     1
102
RTVSPropertyOp42
 70
     1
102
RTVSPropertyOp43
 70
     1
102
RTVSPropertyOp44
 70
     1
102
RTVSPropertyOp45
 70
     1
102
RTVSPropertyOp46
 70
     1
102
RTVSPropertyOp47
 70
     1
102
RTVSPropertyOp48
 70
     1
102
RTVSPropertyOp49
 70
     1
102
RTVSPropertyOp50
 70
     1
102
RTVSPropertyOp51
 70
     0
102
RTVSPropertyOp52
 70
     0
102
RTVSPropertyOp53
 70
     1
102
RTVSPropertyOp54
 70
     1
102
RTVSPropertyOp55
 70
     1
102
RTVSPropertyOp56
 70
     1
102
RTVSPropertyOp57
 70
     1
102
RTVSPropertyOp58
 70
     1
102
RTVSPropertyOp59
 70
     1
102
RTVSPropertyOp60
 70
     1
102
RTVSPropertyOp61
 70
     1
102
RTVSPropertyOp62
 70
     1
  0
XRECORD
  5
A857
102
{ACAD_REACTORS
330
A856
102
}
330
A856
100
AcDbXrecord
280
     1
102
RTVSPost2010Prop28
280
     0
102
RTVSPost2010PropOp28
 70
     1
102
RTVSPost2010Prop29
280
     1
102
RTVSPost2010PropOp29
 70
     1
102
RTVSPost2010Prop30
280
     1
102
RTVSPost2010PropOp30
 70
     1
102
RTVSPost2010Prop31
280
     0
102
RTVSPost2010PropOp31
 70
     1
102
RTVSPost2010Prop32
280
     0
102
RTVSPost2010PropOp32
 70
     1
102
RTVSPost2010Prop33
280
     0
102
RTVSPost2010PropOp33
 70
     1
102
RTVSPost2010Prop34
280
     0
102
RTVSPost2010PropOp34
 70
     1
102
RTVSPost2010Prop35
280
     0
102
RTVSPost2010PropOp35
 70
     1
102
RTVSPost2010Prop36
280
     0
102
RTVSPost2010PropOp36
 70
     1
102
RTVSPost2010Prop37
 90
       50
102
RTVSPost2010PropOp37
 70
     1
102
RTVSPost2010Prop38
140
0.0
102
RTVSPost2010PropOp38
 70
     1
102
RTVSPost2010Prop39
140
1.0
102
RTVSPost2010PropOp39
 70
     1
102
RTVSPost2010Prop40
 90
        0
102
RTVSPost2010PropOp40
 70
     1
102
RTVSPost2010Prop41ColorIndex
 90
       18
102
RTVSPost2010Prop41ColorRGB
 90
        0
102
RTVSPost2010PropOp41
 70
     1
102
RTVSPost2010Prop42
 90
       50
102
RTVSPost2010PropOp42
 70
     1
102
RTVSPost2010Prop43
 90
        3
102
RTVSPost2010PropOp43
 70
     1
102
RTVSPost2010Prop44ColorIndex
 90
        5
102
RTVSPost2010Prop44ColorRGB
 90
      255
102
RTVSPost2010PropOp44
 70
     1
102
RTVSPost2010Prop45
280
     0
102
RTVSPost2010PropOp45
 70
     1
102
RTVSPost2010Prop46
 90
       50
102
RTVSPost2010PropOp46
 70
     1
102
RTVSPost2010Prop47
 90
       50
102
RTVSPost2010PropOp47
 70
     1
102
RTVSPost2010Prop48
 90
       50
102
RTVSPost2010PropOp48
 70
     1
102
RTVSPost2010Prop49
280
     0
102
RTVSPost2010PropOp49
 70
     1
102
RTVSPost2010Prop50
 90
       50
102
RTVSPost2010PropOp50
 70
     1
102
RTVSPost2010Prop51ColorIndex
 90
      256
102
RTVSPost2010Prop51ColorRGB
 90
-16777216
102
RTVSPost2010PropOp51
 70
     0
102
RTVSPost2010Prop52
140
1.0
102
RTVSPost2010PropOp52
 70
     0
102
RTVSPost2010Prop53
 90
        2
102
RTVSPost2010PropOp53
 70
     1
102
RTVSPost2010Prop54
  1
strokes_ogs.tif
102
RTVSPost2010PropOp54
 70
     1
102
RTVSPost2010Prop55
280
     0
102
RTVSPost2010PropOp55
 70
     1
102
RTVSPost2010Prop56
140
1.0
102
RTVSPost2010PropOp56
 70
     1
102
RTVSPost2010Prop57
140
1.0
102
RTVSPost2010PropOp57
 70
     1
102
RTVSPropertyOp0
 70
     1
102
RTVSPropertyOp1
 70
     1
102
RTVSPropertyOp2
 70
     1
102
RTVSPropertyOp3
 70
     1
102
RTVSPropertyOp4
 70
     1
102
RTVSPropertyOp5
 70
     1
102
RTVSPropertyOp6
 70
     1
102
RTVSPropertyOp7
 70
     1
102
RTVSPropertyOp8
 70
     1
102
RTVSPropertyOp9
 70
     1
102
RTVSPropertyOp10
 70
     1
102
RTVSPropertyOp11
 70
     1
102
RTVSPropertyOp12
 70
     1
102
RTVSPropertyOp13
 70
     1
102
RTVSPropertyOp14
 70
     1
102
RTVSPropertyOp15
 70
     1
102
RTVSPropertyOp16
 70
     1
102
RTVSPropertyOp17
 70
     1
102
RTVSPropertyOp18
 70
     1
102
RTVSPropertyOp19
 70
     1
102
RTVSPropertyOp20
 70
     1
102
RTVSPropertyOp21
 70
     1
102
RTVSPropertyOp22
 70
     1
102
RTVSPropertyOp23
 70
     1
102
RTVSPropertyOp24
 70
     1
102
RTVSPropertyOp25
 70
     1
102
RTVSPropertyOp26
 70
     1
102
RTVSPropertyOp27
 70
     1
102
RTVSPropertyOp28
 70
     1
102
RTVSPropertyOp29
 70
     1
102
RTVSPropertyOp30
 70
     1
102
RTVSPropertyOp31
 70
     1
102
RTVSPropertyOp32
 70
     1
102
RTVSPropertyOp33
 70
     1
102
RTVSPropertyOp34
 70
     1
102
RTVSPropertyOp35
 70
     1
102
RTVSPropertyOp36
 70
     1
102
RTVSPropertyOp37
 70
     1
102
RTVSPropertyOp38
 70
     1
102
RTVSPropertyOp39
 70
     1
102
RTVSPropertyOp40
 70
     1
102
RTVSPropertyOp41
 70
     1
102
RTVSPropertyOp42
 70
     1
102
RTVSPropertyOp43
 70
     1
102
RTVSPropertyOp44
 70
     1
102
RTVSPropertyOp45
 70
     1
102
RTVSPropertyOp46
 70
     1
102
RTVSPropertyOp47
 70
     1
102
RTVSPropertyOp48
 70
     1
102
RTVSPropertyOp49
 70
     1
102
RTVSPropertyOp50
 70
     1
102
RTVSPropertyOp51
 70
     0
102
RTVSPropertyOp52
 70
     0
102
RTVSPropertyOp53
 70
     1
102
RTVSPropertyOp54
 70
     1
102
RTVSPropertyOp55
 70
     1
102
RTVSPropertyOp56
 70
     1
102
RTVSPropertyOp57
 70
     1
102
RTVSPropertyOp58
 70
     1
102
RTVSPropertyOp59
 70
     1
102
RTVSPropertyOp60
 70
     1
102
RTVSPropertyOp61
 70
     1
102
RTVSPropertyOp62
 70
     1
  0
XRECORD
  5
A85F
102
{ACAD_REACTORS
330
A85E
102
}
330
A85E
100
AcDbXrecord
280
     1
102
RTVSPost2010Prop28
280
     0
102
RTVSPost2010PropOp28
 70
     1
102
RTVSPost2010Prop29
280
     1
102
RTVSPost2010PropOp29
 70
     1
102
RTVSPost2010Prop30
280
     1
102
RTVSPost2010PropOp30
 70
     1
102
RTVSPost2010Prop31
280
     0
102
RTVSPost2010PropOp31
 70
     1
102
RTVSPost2010Prop32
280
     0
102
RTVSPost2010PropOp32
 70
     1
102
RTVSPost2010Prop33
280
     0
102
RTVSPost2010PropOp33
 70
     1
102
RTVSPost2010Prop34
280
     0
102
RTVSPost2010PropOp34
 70
     1
102
RTVSPost2010Prop35
280
     0
102
RTVSPost2010PropOp35
 70
     1
102
RTVSPost2010Prop36
280
     0
102
RTVSPost2010PropOp36
 70
     1
102
RTVSPost2010Prop37
 90
       50
102
RTVSPost2010PropOp37
 70
     1
102
RTVSPost2010Prop38
140
0.0
102
RTVSPost2010PropOp38
 70
     1
102
RTVSPost2010Prop39
140
1.0
102
RTVSPost2010PropOp39
 70
     1
102
RTVSPost2010Prop40
 90
        0
102
RTVSPost2010PropOp40
 70
     1
102
RTVSPost2010Prop41ColorIndex
 90
       18
102
RTVSPost2010Prop41ColorRGB
 90
        0
102
RTVSPost2010PropOp41
 70
     1
102
RTVSPost2010Prop42
 90
       50
102
RTVSPost2010PropOp42
 70
     1
102
RTVSPost2010Prop43
 90
        3
102
RTVSPost2010PropOp43
 70
     1
102
RTVSPost2010Prop44ColorIndex
 90
        5
102
RTVSPost2010Prop44ColorRGB
 90
      255
102
RTVSPost2010PropOp44
 70
     1
102
RTVSPost2010Prop45
280
     0
102
RTVSPost2010PropOp45
 70
     1
102
RTVSPost2010Prop46
 90
       50
102
RTVSPost2010PropOp46
 70
     1
102
RTVSPost2010Prop47
 90
       50
102
RTVSPost2010PropOp47
 70
     1
102
RTVSPost2010Prop48
 90
       50
102
RTVSPost2010PropOp48
 70
     1
102
RTVSPost2010Prop49
280
     0
102
RTVSPost2010PropOp49
 70
     1
102
RTVSPost2010Prop50
 90
       50
102
RTVSPost2010PropOp50
 70
     1
102
RTVSPost2010Prop51ColorIndex
 90
      256
102
RTVSPost2010Prop51ColorRGB
 90
-16777216
102
RTVSPost2010PropOp51
 70
     0
102
RTVSPost2010Prop52
140
1.0
102
RTVSPost2010PropOp52
 70
     0
102
RTVSPost2010Prop53
 90
        2
102
RTVSPost2010PropOp53
 70
     1
102
RTVSPost2010Prop54
  1
strokes_ogs.tif
102
RTVSPost2010PropOp54
 70
     1
102
RTVSPost2010Prop55
280
     0
102
RTVSPost2010PropOp55
 70
     1
102
RTVSPost2010Prop56
140
1.0
102
RTVSPost2010PropOp56
 70
     1
102
RTVSPost2010Prop57
140
1.0
102
RTVSPost2010PropOp57
 70
     1
102
RTVSPropertyOp0
 70
     1
102
RTVSPropertyOp1
 70
     1
102
RTVSPropertyOp2
 70
     1
102
RTVSPropertyOp3
 70
     1
102
RTVSPropertyOp4
 70
     1
102
RTVSPropertyOp5
 70
     1
102
RTVSPropertyOp6
 70
     1
102
RTVSPropertyOp7
 70
     1
102
RTVSPropertyOp8
 70
     1
102
RTVSPropertyOp9
 70
     1
102
RTVSPropertyOp10
 70
     1
102
RTVSPropertyOp11
 70
     1
102
RTVSPropertyOp12
 70
     1
102
RTVSPropertyOp13
 70
     1
102
RTVSPropertyOp14
 70
     1
102
RTVSPropertyOp15
 70
     1
102
RTVSPropertyOp16
 70
     1
102
RTVSPropertyOp17
 70
     1
102
RTVSPropertyOp18
 70
     1
102
RTVSPropertyOp19
 70
     1
102
RTVSPropertyOp20
 70
     1
102
RTVSPropertyOp21
 70
     1
102
RTVSPropertyOp22
 70
     1
102
RTVSPropertyOp23
 70
     1
102
RTVSPropertyOp24
 70
     1
102
RTVSPropertyOp25
 70
     1
102
RTVSPropertyOp26
 70
     1
102
RTVSPropertyOp27
 70
     1
102
RTVSPropertyOp28
 70
     1
102
RTVSPropertyOp29
 70
     1
102
RTVSPropertyOp30
 70
     1
102
RTVSPropertyOp31
 70
     1
102
RTVSPropertyOp32
 70
     1
102
RTVSPropertyOp33
 70
     1
102
RTVSPropertyOp34
 70
     1
102
RTVSPropertyOp35
 70
     1
102
RTVSPropertyOp36
 70
     1
102
RTVSPropertyOp37
 70
     1
102
RTVSPropertyOp38
 70
     1
102
RTVSPropertyOp39
 70
     1
102
RTVSPropertyOp40
 70
     1
102
RTVSPropertyOp41
 70
     1
102
RTVSPropertyOp42
 70
     1
102
RTVSPropertyOp43
 70
     1
102
RTVSPropertyOp44
 70
     1
102
RTVSPropertyOp45
 70
     1
102
RTVSPropertyOp46
 70
     1
102
RTVSPropertyOp47
 70
     1
102
RTVSPropertyOp48
 70
     1
102
RTVSPropertyOp49
 70
     1
102
RTVSPropertyOp50
 70
     1
102
RTVSPropertyOp51
 70
     0
102
RTVSPropertyOp52
 70
     0
102
RTVSPropertyOp53
 70
     1
102
RTVSPropertyOp54
 70
     1
102
RTVSPropertyOp55
 70
     1
102
RTVSPropertyOp56
 70
     1
102
RTVSPropertyOp57
 70
     1
102
RTVSPropertyOp58
 70
     1
102
RTVSPropertyOp59
 70
     1
102
RTVSPropertyOp60
 70
     1
102
RTVSPropertyOp61
 70
     1
102
RTVSPropertyOp62
 70
     1
  0
XRECORD
  5
A851
102
{ACAD_REACTORS
330
A850
102
}
330
A850
100
AcDbXrecord
280
     1
102
RTVSPost2010Prop28
280
     0
102
RTVSPost2010PropOp28
 70
     1
102
RTVSPost2010Prop29
280
     1
102
RTVSPost2010PropOp29
 70
     1
102
RTVSPost2010Prop30
280
     1
102
RTVSPost2010PropOp30
 70
     1
102
RTVSPost2010Prop31
280
     0
102
RTVSPost2010PropOp31
 70
     1
102
RTVSPost2010Prop32
280
     0
102
RTVSPost2010PropOp32
 70
     1
102
RTVSPost2010Prop33
280
     0
102
RTVSPost2010PropOp33
 70
     1
102
RTVSPost2010Prop34
280
     0
102
RTVSPost2010PropOp34
 70
     1
102
RTVSPost2010Prop35
280
     0
102
RTVSPost2010PropOp35
 70
     1
102
RTVSPost2010Prop36
280
     0
102
RTVSPost2010PropOp36
 70
     1
102
RTVSPost2010Prop37
 90
       50
102
RTVSPost2010PropOp37
 70
     1
102
RTVSPost2010Prop38
140
0.0
102
RTVSPost2010PropOp38
 70
     1
102
RTVSPost2010Prop39
140
1.0
102
RTVSPost2010PropOp39
 70
     1
102
RTVSPost2010Prop40
 90
        0
102
RTVSPost2010PropOp40
 70
     1
102
RTVSPost2010Prop41ColorIndex
 90
       18
102
RTVSPost2010Prop41ColorRGB
 90
        0
102
RTVSPost2010PropOp41
 70
     1
102
RTVSPost2010Prop42
 90
       50
102
RTVSPost2010PropOp42
 70
     1
102
RTVSPost2010Prop43
 90
        3
102
RTVSPost2010PropOp43
 70
     1
102
RTVSPost2010Prop44ColorIndex
 90
        5
102
RTVSPost2010Prop44ColorRGB
 90
      255
102
RTVSPost2010PropOp44
 70
     1
102
RTVSPost2010Prop45
280
     0
102
RTVSPost2010PropOp45
 70
     1
102
RTVSPost2010Prop46
 90
       50
102
RTVSPost2010PropOp46
 70
     1
102
RTVSPost2010Prop47
 90
       50
102
RTVSPost2010PropOp47
 70
     1
102
RTVSPost2010Prop48
 90
       50
102
RTVSPost2010PropOp48
 70
     1
102
RTVSPost2010Prop49
280
     0
102
RTVSPost2010PropOp49
 70
     1
102
RTVSPost2010Prop50
 90
       50
102
RTVSPost2010PropOp50
 70
     1
102
RTVSPost2010Prop51ColorIndex
 90
      256
102
RTVSPost2010Prop51ColorRGB
 90
-16777216
102
RTVSPost2010PropOp51
 70
     0
102
RTVSPost2010Prop52
140
1.0
102
RTVSPost2010PropOp52
 70
     0
102
RTVSPost2010Prop53
 90
        2
102
RTVSPost2010PropOp53
 70
     1
102
RTVSPost2010Prop54
  1
strokes_ogs.tif
102
RTVSPost2010PropOp54
 70
     1
102
RTVSPost2010Prop55
280
     0
102
RTVSPost2010PropOp55
 70
     1
102
RTVSPost2010Prop56
140
1.0
102
RTVSPost2010PropOp56
 70
     1
102
RTVSPost2010Prop57
140
1.0
102
RTVSPost2010PropOp57
 70
     1
102
RTVSPropertyOp0
 70
     1
102
RTVSPropertyOp1
 70
     1
102
RTVSPropertyOp2
 70
     1
102
RTVSPropertyOp3
 70
     1
102
RTVSPropertyOp4
 70
     1
102
RTVSPropertyOp5
 70
     1
102
RTVSPropertyOp6
 70
     1
102
RTVSPropertyOp7
 70
     1
102
RTVSPropertyOp8
 70
     1
102
RTVSPropertyOp9
 70
     1
102
RTVSPropertyOp10
 70
     1
102
RTVSPropertyOp11
 70
     1
102
RTVSPropertyOp12
 70
     1
102
RTVSPropertyOp13
 70
     1
102
RTVSPropertyOp14
 70
     1
102
RTVSPropertyOp15
 70
     1
102
RTVSPropertyOp16
 70
     1
102
RTVSPropertyOp17
 70
     1
102
RTVSPropertyOp18
 70
     1
102
RTVSPropertyOp19
 70
     1
102
RTVSPropertyOp20
 70
     1
102
RTVSPropertyOp21
 70
     1
102
RTVSPropertyOp22
 70
     1
102
RTVSPropertyOp23
 70
     1
102
RTVSPropertyOp24
 70
     1
102
RTVSPropertyOp25
 70
     1
102
RTVSPropertyOp26
 70
     1
102
RTVSPropertyOp27
 70
     1
102
RTVSPropertyOp28
 70
     1
102
RTVSPropertyOp29
 70
     1
102
RTVSPropertyOp30
 70
     1
102
RTVSPropertyOp31
 70
     1
102
RTVSPropertyOp32
 70
     1
102
RTVSPropertyOp33
 70
     1
102
RTVSPropertyOp34
 70
     1
102
RTVSPropertyOp35
 70
     1
102
RTVSPropertyOp36
 70
     1
102
RTVSPropertyOp37
 70
     1
102
RTVSPropertyOp38
 70
     1
102
RTVSPropertyOp39
 70
     1
102
RTVSPropertyOp40
 70
     1
102
RTVSPropertyOp41
 70
     1
102
RTVSPropertyOp42
 70
     1
102
RTVSPropertyOp43
 70
     1
102
RTVSPropertyOp44
 70
     1
102
RTVSPropertyOp45
 70
     1
102
RTVSPropertyOp46
 70
     1
102
RTVSPropertyOp47
 70
     1
102
RTVSPropertyOp48
 70
     1
102
RTVSPropertyOp49
 70
     1
102
RTVSPropertyOp50
 70
     1
102
RTVSPropertyOp51
 70
     0
102
RTVSPropertyOp52
 70
     0
102
RTVSPropertyOp53
 70
     1
102
RTVSPropertyOp54
 70
     1
102
RTVSPropertyOp55
 70
     1
102
RTVSPropertyOp56
 70
     1
102
RTVSPropertyOp57
 70
     1
102
RTVSPropertyOp58
 70
     1
102
RTVSPropertyOp59
 70
     1
102
RTVSPropertyOp60
 70
     1
102
RTVSPropertyOp61
 70
     1
102
RTVSPropertyOp62
 70
     1
  0
XRECORD
  5
A855
102
{ACAD_REACTORS
330
A854
102
}
330
A854
100
AcDbXrecord
280
     1
102
RTVSPost2010Prop28
280
     0
102
RTVSPost2010PropOp28
 70
     1
102
RTVSPost2010Prop29
280
     1
102
RTVSPost2010PropOp29
 70
     1
102
RTVSPost2010Prop30
280
     1
102
RTVSPost2010PropOp30
 70
     1
102
RTVSPost2010Prop31
280
     0
102
RTVSPost2010PropOp31
 70
     1
102
RTVSPost2010Prop32
280
     0
102
RTVSPost2010PropOp32
 70
     1
102
RTVSPost2010Prop33
280
     0
102
RTVSPost2010PropOp33
 70
     1
102
RTVSPost2010Prop34
280
     0
102
RTVSPost2010PropOp34
 70
     1
102
RTVSPost2010Prop35
280
     0
102
RTVSPost2010PropOp35
 70
     1
102
RTVSPost2010Prop36
280
     0
102
RTVSPost2010PropOp36
 70
     1
102
RTVSPost2010Prop37
 90
       50
102
RTVSPost2010PropOp37
 70
     1
102
RTVSPost2010Prop38
140
0.0
102
RTVSPost2010PropOp38
 70
     1
102
RTVSPost2010Prop39
140
1.0
102
RTVSPost2010PropOp39
 70
     1
102
RTVSPost2010Prop40
 90
        0
102
RTVSPost2010PropOp40
 70
     1
102
RTVSPost2010Prop41ColorIndex
 90
       18
102
RTVSPost2010Prop41ColorRGB
 90
        0
102
RTVSPost2010PropOp41
 70
     1
102
RTVSPost2010Prop42
 90
       50
102
RTVSPost2010PropOp42
 70
     1
102
RTVSPost2010Prop43
 90
        3
102
RTVSPost2010PropOp43
 70
     1
102
RTVSPost2010Prop44ColorIndex
 90
        5
102
RTVSPost2010Prop44ColorRGB
 90
      255
102
RTVSPost2010PropOp44
 70
     1
102
RTVSPost2010Prop45
280
     0
102
RTVSPost2010PropOp45
 70
     1
102
RTVSPost2010Prop46
 90
       50
102
RTVSPost2010PropOp46
 70
     1
102
RTVSPost2010Prop47
 90
       50
102
RTVSPost2010PropOp47
 70
     1
102
RTVSPost2010Prop48
 90
       50
102
RTVSPost2010PropOp48
 70
     1
102
RTVSPost2010Prop49
280
     0
102
RTVSPost2010PropOp49
 70
     1
102
RTVSPost2010Prop50
 90
       50
102
RTVSPost2010PropOp50
 70
     1
102
RTVSPost2010Prop51ColorIndex
 90
      256
102
RTVSPost2010Prop51ColorRGB
 90
-16777216
102
RTVSPost2010PropOp51
 70
     0
102
RTVSPost2010Prop52
140
1.0
102
RTVSPost2010PropOp52
 70
     0
102
RTVSPost2010Prop53
 90
        2
102
RTVSPost2010PropOp53
 70
     1
102
RTVSPost2010Prop54
  1
strokes_ogs.tif
102
RTVSPost2010PropOp54
 70
     1
102
RTVSPost2010Prop55
280
     0
102
RTVSPost2010PropOp55
 70
     1
102
RTVSPost2010Prop56
140
1.0
102
RTVSPost2010PropOp56
 70
     1
102
RTVSPost2010Prop57
140
1.0
102
RTVSPost2010PropOp57
 70
     1
102
RTVSPropertyOp0
 70
     1
102
RTVSPropertyOp1
 70
     1
102
RTVSPropertyOp2
 70
     1
102
RTVSPropertyOp3
 70
     1
102
RTVSPropertyOp4
 70
     1
102
RTVSPropertyOp5
 70
     1
102
RTVSPropertyOp6
 70
     1
102
RTVSPropertyOp7
 70
     1
102
RTVSPropertyOp8
 70
     1
102
RTVSPropertyOp9
 70
     1
102
RTVSPropertyOp10
 70
     1
102
RTVSPropertyOp11
 70
     1
102
RTVSPropertyOp12
 70
     1
102
RTVSPropertyOp13
 70
     1
102
RTVSPropertyOp14
 70
     1
102
RTVSPropertyOp15
 70
     1
102
RTVSPropertyOp16
 70
     1
102
RTVSPropertyOp17
 70
     1
102
RTVSPropertyOp18
 70
     1
102
RTVSPropertyOp19
 70
     1
102
RTVSPropertyOp20
 70
     1
102
RTVSPropertyOp21
 70
     1
102
RTVSPropertyOp22
 70
     1
102
RTVSPropertyOp23
 70
     1
102
RTVSPropertyOp24
 70
     1
102
RTVSPropertyOp25
 70
     1
102
RTVSPropertyOp26
 70
     1
102
RTVSPropertyOp27
 70
     1
102
RTVSPropertyOp28
 70
     1
102
RTVSPropertyOp29
 70
     1
102
RTVSPropertyOp30
 70
     1
102
RTVSPropertyOp31
 70
     1
102
RTVSPropertyOp32
 70
     1
102
RTVSPropertyOp33
 70
     1
102
RTVSPropertyOp34
 70
     1
102
RTVSPropertyOp35
 70
     1
102
RTVSPropertyOp36
 70
     1
102
RTVSPropertyOp37
 70
     1
102
RTVSPropertyOp38
 70
     1
102
RTVSPropertyOp39
 70
     1
102
RTVSPropertyOp40
 70
     1
102
RTVSPropertyOp41
 70
     1
102
RTVSPropertyOp42
 70
     1
102
RTVSPropertyOp43
 70
     1
102
RTVSPropertyOp44
 70
     1
102
RTVSPropertyOp45
 70
     1
102
RTVSPropertyOp46
 70
     1
102
RTVSPropertyOp47
 70
     1
102
RTVSPropertyOp48
 70
     1
102
RTVSPropertyOp49
 70
     1
102
RTVSPropertyOp50
 70
     1
102
RTVSPropertyOp51
 70
     0
102
RTVSPropertyOp52
 70
     0
102
RTVSPropertyOp53
 70
     1
102
RTVSPropertyOp54
 70
     1
102
RTVSPropertyOp55
 70
     1
102
RTVSPropertyOp56
 70
     1
102
RTVSPropertyOp57
 70
     1
102
RTVSPropertyOp58
 70
     1
102
RTVSPropertyOp59
 70
     1
102
RTVSPropertyOp60
 70
     1
102
RTVSPropertyOp61
 70
     1
102
RTVSPropertyOp62
 70
     1
  0
XRECORD
  5
A86F
102
{ACAD_REACTORS
330
A86E
102
}
330
A86E
100
AcDbXrecord
280
     1
102
RTVSPost2010Prop28
280
     0
102
RTVSPost2010PropOp28
 70
     1
102
RTVSPost2010Prop29
280
     1
102
RTVSPost2010PropOp29
 70
     1
102
RTVSPost2010Prop30
280
     1
102
RTVSPost2010PropOp30
 70
     1
102
RTVSPost2010Prop31
280
     0
102
RTVSPost2010PropOp31
 70
     1
102
RTVSPost2010Prop32
280
     0
102
RTVSPost2010PropOp32
 70
     1
102
RTVSPost2010Prop33
280
     0
102
RTVSPost2010PropOp33
 70
     1
102
RTVSPost2010Prop34
280
     0
102
RTVSPost2010PropOp34
 70
     1
102
RTVSPost2010Prop35
280
     0
102
RTVSPost2010PropOp35
 70
     1
102
RTVSPost2010Prop36
280
     0
102
RTVSPost2010PropOp36
 70
     1
102
RTVSPost2010Prop37
 90
       50
102
RTVSPost2010PropOp37
 70
     0
102
RTVSPost2010Prop38
140
0.0
102
RTVSPost2010PropOp38
 70
     0
102
RTVSPost2010Prop39
140
1.0
102
RTVSPost2010PropOp39
 70
     0
102
RTVSPost2010Prop40
 90
        0
102
RTVSPost2010PropOp40
 70
     0
102
RTVSPost2010Prop41ColorIndex
 90
       18
102
RTVSPost2010Prop41ColorRGB
 90
        0
102
RTVSPost2010PropOp41
 70
     0
102
RTVSPost2010Prop42
 90
       50
102
RTVSPost2010PropOp42
 70
     0
102
RTVSPost2010Prop43
 90
        3
102
RTVSPost2010PropOp43
 70
     0
102
RTVSPost2010Prop44ColorIndex
 90
        5
102
RTVSPost2010Prop44ColorRGB
 90
      255
102
RTVSPost2010PropOp44
 70
     0
102
RTVSPost2010Prop45
280
     0
102
RTVSPost2010PropOp45
 70
     1
102
RTVSPost2010Prop46
 90
       50
102
RTVSPost2010PropOp46
 70
     0
102
RTVSPost2010Prop47
 90
       50
102
RTVSPost2010PropOp47
 70
     0
102
RTVSPost2010Prop48
 90
       50
102
RTVSPost2010PropOp48
 70
     0
102
RTVSPost2010Prop49
280
     0
102
RTVSPost2010PropOp49
 70
     1
102
RTVSPost2010Prop50
 90
       50
102
RTVSPost2010PropOp50
 70
     0
102
RTVSPost2010Prop51ColorIndex
 90
      256
102
RTVSPost2010Prop51ColorRGB
 90
-16777216
102
RTVSPost2010PropOp51
 70
     0
102
RTVSPost2010Prop52
140
1.0
102
RTVSPost2010PropOp52
 70
     0
102
RTVSPost2010Prop53
 90
        2
102
RTVSPost2010PropOp53
 70
     0
102
RTVSPost2010Prop54
  1
strokes_ogs.tif
102
RTVSPost2010PropOp54
 70
     0
102
RTVSPost2010Prop55
280
     0
102
RTVSPost2010PropOp55
 70
     1
102
RTVSPost2010Prop56
140
1.0
102
RTVSPost2010PropOp56
 70
     0
102
RTVSPost2010Prop57
140
1.0
102
RTVSPost2010PropOp57
 70
     0
102
RTVSPropertyOp0
 70
     0
102
RTVSPropertyOp1
 70
     0
102
RTVSPropertyOp2
 70
     0
102
RTVSPropertyOp3
 70
     0
102
RTVSPropertyOp4
 70
     0
102
RTVSPropertyOp5
 70
     0
102
RTVSPropertyOp6
 70
     0
102
RTVSPropertyOp7
 70
     0
102
RTVSPropertyOp8
 70
     0
102
RTVSPropertyOp9
 70
     0
102
RTVSPropertyOp10
 70
     0
102
RTVSPropertyOp11
 70
     0
102
RTVSPropertyOp12
 70
     0
102
RTVSPropertyOp13
 70
     0
102
RTVSPropertyOp14
 70
     2
102
RTVSPropertyOp15
 70
     0
102
RTVSPropertyOp16
 70
     0
102
RTVSPropertyOp17
 70
     0
102
RTVSPropertyOp18
 70
     0
102
RTVSPropertyOp19
 70
     0
102
RTVSPropertyOp20
 70
     0
102
RTVSPropertyOp21
 70
     0
102
RTVSPropertyOp22
 70
     0
102
RTVSPropertyOp23
 70
     0
102
RTVSPropertyOp24
 70
     0
102
RTVSPropertyOp25
 70
     0
102
RTVSPropertyOp26
 70
     0
102
RTVSPropertyOp27
 70
     0
102
RTVSPropertyOp28
 70
     1
102
RTVSPropertyOp29
 70
     1
102
RTVSPropertyOp30
 70
     1
102
RTVSPropertyOp31
 70
     1
102
RTVSPropertyOp32
 70
     1
102
RTVSPropertyOp33
 70
     1
102
RTVSPropertyOp34
 70
     1
102
RTVSPropertyOp35
 70
     1
102
RTVSPropertyOp36
 70
     1
102
RTVSPropertyOp37
 70
     0
102
RTVSPropertyOp38
 70
     0
102
RTVSPropertyOp39
 70
     0
102
RTVSPropertyOp40
 70
     0
102
RTVSPropertyOp41
 70
     0
102
RTVSPropertyOp42
 70
     0
102
RTVSPropertyOp43
 70
     0
102
RTVSPropertyOp44
 70
     0
102
RTVSPropertyOp45
 70
     1
102
RTVSPropertyOp46
 70
     0
102
RTVSPropertyOp47
 70
     0
102
RTVSPropertyOp48
 70
     0
102
RTVSPropertyOp49
 70
     1
102
RTVSPropertyOp50
 70
     0
102
RTVSPropertyOp51
 70
     0
102
RTVSPropertyOp52
 70
     0
102
RTVSPropertyOp53
 70
     0
102
RTVSPropertyOp54
 70
     0
102
RTVSPropertyOp55
 70
     1
102
RTVSPropertyOp56
 70
     0
102
RTVSPropertyOp57
 70
     0
102
RTVSPropertyOp58
 70
     0
102
RTVSPropertyOp59
 70
     0
102
RTVSPropertyOp60
 70
     0
102
RTVSPropertyOp61
 70
     0
102
RTVSPropertyOp62
 70
     0
  0
XRECORD
  5
A85D
102
{ACAD_REACTORS
330
A85C
102
}
330
A85C
100
AcDbXrecord
280
     1
102
RTVSPost2010Prop28
280
     0
102
RTVSPost2010PropOp28
 70
     1
102
RTVSPost2010Prop29
280
     1
102
RTVSPost2010PropOp29
 70
     1
102
RTVSPost2010Prop30
280
     1
102
RTVSPost2010PropOp30
 70
     1
102
RTVSPost2010Prop31
280
     0
102
RTVSPost2010PropOp31
 70
     1
102
RTVSPost2010Prop32
280
     0
102
RTVSPost2010PropOp32
 70
     1
102
RTVSPost2010Prop33
280
     0
102
RTVSPost2010PropOp33
 70
     1
102
RTVSPost2010Prop34
280
     0
102
RTVSPost2010PropOp34
 70
     1
102
RTVSPost2010Prop35
280
     0
102
RTVSPost2010PropOp35
 70
     1
102
RTVSPost2010Prop36
280
     0
102
RTVSPost2010PropOp36
 70
     1
102
RTVSPost2010Prop37
 90
       50
102
RTVSPost2010PropOp37
 70
     1
102
RTVSPost2010Prop38
140
0.0
102
RTVSPost2010PropOp38
 70
     1
102
RTVSPost2010Prop39
140
1.0
102
RTVSPost2010PropOp39
 70
     1
102
RTVSPost2010Prop40
 90
        0
102
RTVSPost2010PropOp40
 70
     1
102
RTVSPost2010Prop41ColorIndex
 90
       18
102
RTVSPost2010Prop41ColorRGB
 90
        0
102
RTVSPost2010PropOp41
 70
     1
102
RTVSPost2010Prop42
 90
       50
102
RTVSPost2010PropOp42
 70
     1
102
RTVSPost2010Prop43
 90
        3
102
RTVSPost2010PropOp43
 70
     1
102
RTVSPost2010Prop44ColorIndex
 90
        5
102
RTVSPost2010Prop44ColorRGB
 90
      255
102
RTVSPost2010PropOp44
 70
     1
102
RTVSPost2010Prop45
280
     0
102
RTVSPost2010PropOp45
 70
     1
102
RTVSPost2010Prop46
 90
       50
102
RTVSPost2010PropOp46
 70
     1
102
RTVSPost2010Prop47
 90
       50
102
RTVSPost2010PropOp47
 70
     1
102
RTVSPost2010Prop48
 90
       50
102
RTVSPost2010PropOp48
 70
     1
102
RTVSPost2010Prop49
280
     0
102
RTVSPost2010PropOp49
 70
     1
102
RTVSPost2010Prop50
 90
       50
102
RTVSPost2010PropOp50
 70
     1
102
RTVSPost2010Prop51ColorIndex
 90
      256
102
RTVSPost2010Prop51ColorRGB
 90
-16777216
102
RTVSPost2010PropOp51
 70
     0
102
RTVSPost2010Prop52
140
1.0
102
RTVSPost2010PropOp52
 70
     0
102
RTVSPost2010Prop53
 90
        2
102
RTVSPost2010PropOp53
 70
     1
102
RTVSPost2010Prop54
  1
strokes_ogs.tif
102
RTVSPost2010PropOp54
 70
     1
102
RTVSPost2010Prop55
280
     0
102
RTVSPost2010PropOp55
 70
     1
102
RTVSPost2010Prop56
140
1.0
102
RTVSPost2010PropOp56
 70
     1
102
RTVSPost2010Prop57
140
1.0
102
RTVSPost2010PropOp57
 70
     1
102
RTVSPropertyOp0
 70
     1
102
RTVSPropertyOp1
 70
     1
102
RTVSPropertyOp2
 70
     1
102
RTVSPropertyOp3
 70
     1
102
RTVSPropertyOp4
 70
     1
102
RTVSPropertyOp5
 70
     1
102
RTVSPropertyOp6
 70
     1
102
RTVSPropertyOp7
 70
     1
102
RTVSPropertyOp8
 70
     1
102
RTVSPropertyOp9
 70
     1
102
RTVSPropertyOp10
 70
     1
102
RTVSPropertyOp11
 70
     1
102
RTVSPropertyOp12
 70
     1
102
RTVSPropertyOp13
 70
     1
102
RTVSPropertyOp14
 70
     1
102
RTVSPropertyOp15
 70
     1
102
RTVSPropertyOp16
 70
     1
102
RTVSPropertyOp17
 70
     1
102
RTVSPropertyOp18
 70
     1
102
RTVSPropertyOp19
 70
     1
102
RTVSPropertyOp20
 70
     1
102
RTVSPropertyOp21
 70
     1
102
RTVSPropertyOp22
 70
     1
102
RTVSPropertyOp23
 70
     1
102
RTVSPropertyOp24
 70
     1
102
RTVSPropertyOp25
 70
     1
102
RTVSPropertyOp26
 70
     1
102
RTVSPropertyOp27
 70
     1
102
RTVSPropertyOp28
 70
     1
102
RTVSPropertyOp29
 70
     1
102
RTVSPropertyOp30
 70
     1
102
RTVSPropertyOp31
 70
     1
102
RTVSPropertyOp32
 70
     1
102
RTVSPropertyOp33
 70
     1
102
RTVSPropertyOp34
 70
     1
102
RTVSPropertyOp35
 70
     1
102
RTVSPropertyOp36
 70
     1
102
RTVSPropertyOp37
 70
     1
102
RTVSPropertyOp38
 70
     1
102
RTVSPropertyOp39
 70
     1
102
RTVSPropertyOp40
 70
     1
102
RTVSPropertyOp41
 70
     1
102
RTVSPropertyOp42
 70
     1
102
RTVSPropertyOp43
 70
     1
102
RTVSPropertyOp44
 70
     1
102
RTVSPropertyOp45
 70
     1
102
RTVSPropertyOp46
 70
     1
102
RTVSPropertyOp47
 70
     1
102
RTVSPropertyOp48
 70
     1
102
RTVSPropertyOp49
 70
     1
102
RTVSPropertyOp50
 70
     1
102
RTVSPropertyOp51
 70
     0
102
RTVSPropertyOp52
 70
     0
102
RTVSPropertyOp53
 70
     1
102
RTVSPropertyOp54
 70
     1
102
RTVSPropertyOp55
 70
     1
102
RTVSPropertyOp56
 70
     1
102
RTVSPropertyOp57
 70
     1
102
RTVSPropertyOp58
 70
     1
102
RTVSPropertyOp59
 70
     1
102
RTVSPropertyOp60
 70
     1
102
RTVSPropertyOp61
 70
     1
102
RTVSPropertyOp62
 70
     1
  0
XRECORD
  5
A841
102
{ACAD_REACTORS
330
A840
102
}
330
A840
100
AcDbXrecord
280
     1
102
RTVSPost2010Prop28
280
     0
102
RTVSPost2010PropOp28
 70
     1
102
RTVSPost2010Prop29
280
     1
102
RTVSPost2010PropOp29
 70
     1
102
RTVSPost2010Prop30
280
     1
102
RTVSPost2010PropOp30
 70
     1
102
RTVSPost2010Prop31
280
     0
102
RTVSPost2010PropOp31
 70
     1
102
RTVSPost2010Prop32
280
     0
102
RTVSPost2010PropOp32
 70
     1
102
RTVSPost2010Prop33
280
     0
102
RTVSPost2010PropOp33
 70
     1
102
RTVSPost2010Prop34
280
     0
102
RTVSPost2010PropOp34
 70
     1
102
RTVSPost2010Prop35
280
     0
102
RTVSPost2010PropOp35
 70
     1
102
RTVSPost2010Prop36
280
     0
102
RTVSPost2010PropOp36
 70
     1
102
RTVSPost2010Prop37
 90
       50
102
RTVSPost2010PropOp37
 70
     1
102
RTVSPost2010Prop38
140
0.0
102
RTVSPost2010PropOp38
 70
     1
102
RTVSPost2010Prop39
140
1.0
102
RTVSPost2010PropOp39
 70
     1
102
RTVSPost2010Prop40
 90
        0
102
RTVSPost2010PropOp40
 70
     1
102
RTVSPost2010Prop41ColorIndex
 90
       18
102
RTVSPost2010Prop41ColorRGB
 90
        0
102
RTVSPost2010PropOp41
 70
     1
102
RTVSPost2010Prop42
 90
       50
102
RTVSPost2010PropOp42
 70
     1
102
RTVSPost2010Prop43
 90
        3
102
RTVSPost2010PropOp43
 70
     1
102
RTVSPost2010Prop44ColorIndex
 90
        5
102
RTVSPost2010Prop44ColorRGB
 90
      255
102
RTVSPost2010PropOp44
 70
     1
102
RTVSPost2010Prop45
280
     0
102
RTVSPost2010PropOp45
 70
     1
102
RTVSPost2010Prop46
 90
       50
102
RTVSPost2010PropOp46
 70
     1
102
RTVSPost2010Prop47
 90
       50
102
RTVSPost2010PropOp47
 70
     1
102
RTVSPost2010Prop48
 90
       50
102
RTVSPost2010PropOp48
 70
     1
102
RTVSPost2010Prop49
280
     0
102
RTVSPost2010PropOp49
 70
     1
102
RTVSPost2010Prop50
 90
       50
102
RTVSPost2010PropOp50
 70
     1
102
RTVSPost2010Prop51ColorIndex
 90
      256
102
RTVSPost2010Prop51ColorRGB
 90
-16777216
102
RTVSPost2010PropOp51
 70
     0
102
RTVSPost2010Prop52
140
1.0
102
RTVSPost2010PropOp52
 70
     0
102
RTVSPost2010Prop53
 90
        2
102
RTVSPost2010PropOp53
 70
     1
102
RTVSPost2010Prop54
  1
strokes_ogs.tif
102
RTVSPost2010PropOp54
 70
     1
102
RTVSPost2010Prop55
280
     0
102
RTVSPost2010PropOp55
 70
     1
102
RTVSPost2010Prop56
140
1.0
102
RTVSPost2010PropOp56
 70
     1
102
RTVSPost2010Prop57
140
1.0
102
RTVSPost2010PropOp57
 70
     1
102
RTVSPropertyOp0
 70
     1
102
RTVSPropertyOp1
 70
     1
102
RTVSPropertyOp2
 70
     1
102
RTVSPropertyOp3
 70
     1
102
RTVSPropertyOp4
 70
     1
102
RTVSPropertyOp5
 70
     1
102
RTVSPropertyOp6
 70
     1
102
RTVSPropertyOp7
 70
     1
102
RTVSPropertyOp8
 70
     1
102
RTVSPropertyOp9
 70
     1
102
RTVSPropertyOp10
 70
     1
102
RTVSPropertyOp11
 70
     1
102
RTVSPropertyOp12
 70
     1
102
RTVSPropertyOp13
 70
     1
102
RTVSPropertyOp14
 70
     1
102
RTVSPropertyOp15
 70
     1
102
RTVSPropertyOp16
 70
     1
102
RTVSPropertyOp17
 70
     1
102
RTVSPropertyOp18
 70
     1
102
RTVSPropertyOp19
 70
     1
102
RTVSPropertyOp20
 70
     1
102
RTVSPropertyOp21
 70
     1
102
RTVSPropertyOp22
 70
     1
102
RTVSPropertyOp23
 70
     1
102
RTVSPropertyOp24
 70
     1
102
RTVSPropertyOp25
 70
     1
102
RTVSPropertyOp26
 70
     1
102
RTVSPropertyOp27
 70
     1
102
RTVSPropertyOp28
 70
     1
102
RTVSPropertyOp29
 70
     1
102
RTVSPropertyOp30
 70
     1
102
RTVSPropertyOp31
 70
     1
102
RTVSPropertyOp32
 70
     1
102
RTVSPropertyOp33
 70
     1
102
RTVSPropertyOp34
 70
     1
102
RTVSPropertyOp35
 70
     1
102
RTVSPropertyOp36
 70
     1
102
RTVSPropertyOp37
 70
     1
102
RTVSPropertyOp38
 70
     1
102
RTVSPropertyOp39
 70
     1
102
RTVSPropertyOp40
 70
     1
102
RTVSPropertyOp41
 70
     1
102
RTVSPropertyOp42
 70
     1
102
RTVSPropertyOp43
 70
     1
102
RTVSPropertyOp44
 70
     1
102
RTVSPropertyOp45
 70
     1
102
RTVSPropertyOp46
 70
     1
102
RTVSPropertyOp47
 70
     1
102
RTVSPropertyOp48
 70
     1
102
RTVSPropertyOp49
 70
     1
102
RTVSPropertyOp50
 70
     1
102
RTVSPropertyOp51
 70
     0
102
RTVSPropertyOp52
 70
     0
102
RTVSPropertyOp53
 70
     1
102
RTVSPropertyOp54
 70
     1
102
RTVSPropertyOp55
 70
     1
102
RTVSPropertyOp56
 70
     1
102
RTVSPropertyOp57
 70
     1
102
RTVSPropertyOp58
 70
     1
102
RTVSPropertyOp59
 70
     1
102
RTVSPropertyOp60
 70
     1
102
RTVSPropertyOp61
 70
     1
102
RTVSPropertyOp62
 70
     1
  0
XRECORD
  5
A843
102
{ACAD_REACTORS
330
A842
102
}
330
A842
100
AcDbXrecord
280
     1
102
RTVSPost2010Prop28
280
     0
102
RTVSPost2010PropOp28
 70
     1
102
RTVSPost2010Prop29
280
     1
102
RTVSPost2010PropOp29
 70
     1
102
RTVSPost2010Prop30
280
     1
102
RTVSPost2010PropOp30
 70
     1
102
RTVSPost2010Prop31
280
     0
102
RTVSPost2010PropOp31
 70
     1
102
RTVSPost2010Prop32
280
     0
102
RTVSPost2010PropOp32
 70
     1
102
RTVSPost2010Prop33
280
     0
102
RTVSPost2010PropOp33
 70
     1
102
RTVSPost2010Prop34
280
     0
102
RTVSPost2010PropOp34
 70
     1
102
RTVSPost2010Prop35
280
     0
102
RTVSPost2010PropOp35
 70
     1
102
RTVSPost2010Prop36
280
     0
102
RTVSPost2010PropOp36
 70
     1
102
RTVSPost2010Prop37
 90
       50
102
RTVSPost2010PropOp37
 70
     1
102
RTVSPost2010Prop38
140
0.0
102
RTVSPost2010PropOp38
 70
     1
102
RTVSPost2010Prop39
140
1.0
102
RTVSPost2010PropOp39
 70
     1
102
RTVSPost2010Prop40
 90
        0
102
RTVSPost2010PropOp40
 70
     1
102
RTVSPost2010Prop41ColorIndex
 90
       18
102
RTVSPost2010Prop41ColorRGB
 90
        0
102
RTVSPost2010PropOp41
 70
     1
102
RTVSPost2010Prop42
 90
       50
102
RTVSPost2010PropOp42
 70
     1
102
RTVSPost2010Prop43
 90
        3
102
RTVSPost2010PropOp43
 70
     1
102
RTVSPost2010Prop44ColorIndex
 90
        5
102
RTVSPost2010Prop44ColorRGB
 90
      255
102
RTVSPost2010PropOp44
 70
     1
102
RTVSPost2010Prop45
280
     0
102
RTVSPost2010PropOp45
 70
     1
102
RTVSPost2010Prop46
 90
       50
102
RTVSPost2010PropOp46
 70
     1
102
RTVSPost2010Prop47
 90
       50
102
RTVSPost2010PropOp47
 70
     1
102
RTVSPost2010Prop48
 90
       50
102
RTVSPost2010PropOp48
 70
     1
102
RTVSPost2010Prop49
280
     0
102
RTVSPost2010PropOp49
 70
     1
102
RTVSPost2010Prop50
 90
       50
102
RTVSPost2010PropOp50
 70
     1
102
RTVSPost2010Prop51ColorIndex
 90
      256
102
RTVSPost2010Prop51ColorRGB
 90
-16777216
102
RTVSPost2010PropOp51
 70
     0
102
RTVSPost2010Prop52
140
1.0
102
RTVSPost2010PropOp52
 70
     0
102
RTVSPost2010Prop53
 90
        2
102
RTVSPost2010PropOp53
 70
     1
102
RTVSPost2010Prop54
  1
strokes_ogs.tif
102
RTVSPost2010PropOp54
 70
     1
102
RTVSPost2010Prop55
280
     0
102
RTVSPost2010PropOp55
 70
     1
102
RTVSPost2010Prop56
140
1.0
102
RTVSPost2010PropOp56
 70
     1
102
RTVSPost2010Prop57
140
1.0
102
RTVSPost2010PropOp57
 70
     1
102
RTVSPropertyOp0
 70
     1
102
RTVSPropertyOp1
 70
     1
102
RTVSPropertyOp2
 70
     1
102
RTVSPropertyOp3
 70
     1
102
RTVSPropertyOp4
 70
     1
102
RTVSPropertyOp5
 70
     1
102
RTVSPropertyOp6
 70
     1
102
RTVSPropertyOp7
 70
     1
102
RTVSPropertyOp8
 70
     1
102
RTVSPropertyOp9
 70
     1
102
RTVSPropertyOp10
 70
     1
102
RTVSPropertyOp11
 70
     1
102
RTVSPropertyOp12
 70
     1
102
RTVSPropertyOp13
 70
     1
102
RTVSPropertyOp14
 70
     1
102
RTVSPropertyOp15
 70
     1
102
RTVSPropertyOp16
 70
     1
102
RTVSPropertyOp17
 70
     1
102
RTVSPropertyOp18
 70
     1
102
RTVSPropertyOp19
 70
     1
102
RTVSPropertyOp20
 70
     1
102
RTVSPropertyOp21
 70
     1
102
RTVSPropertyOp22
 70
     1
102
RTVSPropertyOp23
 70
     1
102
RTVSPropertyOp24
 70
     1
102
RTVSPropertyOp25
 70
     1
102
RTVSPropertyOp26
 70
     1
102
RTVSPropertyOp27
 70
     1
102
RTVSPropertyOp28
 70
     1
102
RTVSPropertyOp29
 70
     1
102
RTVSPropertyOp30
 70
     1
102
RTVSPropertyOp31
 70
     1
102
RTVSPropertyOp32
 70
     1
102
RTVSPropertyOp33
 70
     1
102
RTVSPropertyOp34
 70
     1
102
RTVSPropertyOp35
 70
     1
102
RTVSPropertyOp36
 70
     1
102
RTVSPropertyOp37
 70
     1
102
RTVSPropertyOp38
 70
     1
102
RTVSPropertyOp39
 70
     1
102
RTVSPropertyOp40
 70
     1
102
RTVSPropertyOp41
 70
     1
102
RTVSPropertyOp42
 70
     1
102
RTVSPropertyOp43
 70
     1
102
RTVSPropertyOp44
 70
     1
102
RTVSPropertyOp45
 70
     1
102
RTVSPropertyOp46
 70
     1
102
RTVSPropertyOp47
 70
     1
102
RTVSPropertyOp48
 70
     1
102
RTVSPropertyOp49
 70
     1
102
RTVSPropertyOp50
 70
     1
102
RTVSPropertyOp51
 70
     0
102
RTVSPropertyOp52
 70
     0
102
RTVSPropertyOp53
 70
     1
102
RTVSPropertyOp54
 70
     1
102
RTVSPropertyOp55
 70
     1
102
RTVSPropertyOp56
 70
     1
102
RTVSPropertyOp57
 70
     1
102
RTVSPropertyOp58
 70
     1
102
RTVSPropertyOp59
 70
     1
102
RTVSPropertyOp60
 70
     1
102
RTVSPropertyOp61
 70
     1
102
RTVSPropertyOp62
 70
     1
  0
XRECORD
  5
A845
102
{ACAD_REACTORS
330
A844
102
}
330
A844
100
AcDbXrecord
280
     1
102
RTVSPost2010Prop28
280
     0
102
RTVSPost2010PropOp28
 70
     1
102
RTVSPost2010Prop29
280
     1
102
RTVSPost2010PropOp29
 70
     1
102
RTVSPost2010Prop30
280
     1
102
RTVSPost2010PropOp30
 70
     1
102
RTVSPost2010Prop31
280
     0
102
RTVSPost2010PropOp31
 70
     1
102
RTVSPost2010Prop32
280
     0
102
RTVSPost2010PropOp32
 70
     1
102
RTVSPost2010Prop33
280
     0
102
RTVSPost2010PropOp33
 70
     1
102
RTVSPost2010Prop34
280
     0
102
RTVSPost2010PropOp34
 70
     1
102
RTVSPost2010Prop35
280
     0
102
RTVSPost2010PropOp35
 70
     1
102
RTVSPost2010Prop36
280
     0
102
RTVSPost2010PropOp36
 70
     1
102
RTVSPost2010Prop37
 90
       50
102
RTVSPost2010PropOp37
 70
     1
102
RTVSPost2010Prop38
140
0.0
102
RTVSPost2010PropOp38
 70
     1
102
RTVSPost2010Prop39
140
1.0
102
RTVSPost2010PropOp39
 70
     1
102
RTVSPost2010Prop40
 90
        0
102
RTVSPost2010PropOp40
 70
     1
102
RTVSPost2010Prop41ColorIndex
 90
       18
102
RTVSPost2010Prop41ColorRGB
 90
        0
102
RTVSPost2010PropOp41
 70
     1
102
RTVSPost2010Prop42
 90
       50
102
RTVSPost2010PropOp42
 70
     1
102
RTVSPost2010Prop43
 90
        3
102
RTVSPost2010PropOp43
 70
     1
102
RTVSPost2010Prop44ColorIndex
 90
        5
102
RTVSPost2010Prop44ColorRGB
 90
      255
102
RTVSPost2010PropOp44
 70
     1
102
RTVSPost2010Prop45
280
     0
102
RTVSPost2010PropOp45
 70
     1
102
RTVSPost2010Prop46
 90
       50
102
RTVSPost2010PropOp46
 70
     1
102
RTVSPost2010Prop47
 90
       50
102
RTVSPost2010PropOp47
 70
     1
102
RTVSPost2010Prop48
 90
       50
102
RTVSPost2010PropOp48
 70
     1
102
RTVSPost2010Prop49
280
     0
102
RTVSPost2010PropOp49
 70
     1
102
RTVSPost2010Prop50
 90
       50
102
RTVSPost2010PropOp50
 70
     1
102
RTVSPost2010Prop51ColorIndex
 90
      256
102
RTVSPost2010Prop51ColorRGB
 90
-16777216
102
RTVSPost2010PropOp51
 70
     0
102
RTVSPost2010Prop52
140
1.0
102
RTVSPost2010PropOp52
 70
     0
102
RTVSPost2010Prop53
 90
        2
102
RTVSPost2010PropOp53
 70
     1
102
RTVSPost2010Prop54
  1
strokes_ogs.tif
102
RTVSPost2010PropOp54
 70
     1
102
RTVSPost2010Prop55
280
     0
102
RTVSPost2010PropOp55
 70
     1
102
RTVSPost2010Prop56
140
1.0
102
RTVSPost2010PropOp56
 70
     1
102
RTVSPost2010Prop57
140
1.0
102
RTVSPost2010PropOp57
 70
     1
102
RTVSPropertyOp0
 70
     1
102
RTVSPropertyOp1
 70
     1
102
RTVSPropertyOp2
 70
     1
102
RTVSPropertyOp3
 70
     1
102
RTVSPropertyOp4
 70
     1
102
RTVSPropertyOp5
 70
     1
102
RTVSPropertyOp6
 70
     1
102
RTVSPropertyOp7
 70
     1
102
RTVSPropertyOp8
 70
     1
102
RTVSPropertyOp9
 70
     1
102
RTVSPropertyOp10
 70
     1
102
RTVSPropertyOp11
 70
     1
102
RTVSPropertyOp12
 70
     1
102
RTVSPropertyOp13
 70
     1
102
RTVSPropertyOp14
 70
     1
102
RTVSPropertyOp15
 70
     1
102
RTVSPropertyOp16
 70
     1
102
RTVSPropertyOp17
 70
     1
102
RTVSPropertyOp18
 70
     1
102
RTVSPropertyOp19
 70
     1
102
RTVSPropertyOp20
 70
     1
102
RTVSPropertyOp21
 70
     1
102
RTVSPropertyOp22
 70
     1
102
RTVSPropertyOp23
 70
     1
102
RTVSPropertyOp24
 70
     1
102
RTVSPropertyOp25
 70
     1
102
RTVSPropertyOp26
 70
     1
102
RTVSPropertyOp27
 70
     1
102
RTVSPropertyOp28
 70
     1
102
RTVSPropertyOp29
 70
     1
102
RTVSPropertyOp30
 70
     1
102
RTVSPropertyOp31
 70
     1
102
RTVSPropertyOp32
 70
     1
102
RTVSPropertyOp33
 70
     1
102
RTVSPropertyOp34
 70
     1
102
RTVSPropertyOp35
 70
     1
102
RTVSPropertyOp36
 70
     1
102
RTVSPropertyOp37
 70
     1
102
RTVSPropertyOp38
 70
     1
102
RTVSPropertyOp39
 70
     1
102
RTVSPropertyOp40
 70
     1
102
RTVSPropertyOp41
 70
     1
102
RTVSPropertyOp42
 70
     1
102
RTVSPropertyOp43
 70
     1
102
RTVSPropertyOp44
 70
     1
102
RTVSPropertyOp45
 70
     1
102
RTVSPropertyOp46
 70
     1
102
RTVSPropertyOp47
 70
     1
102
RTVSPropertyOp48
 70
     1
102
RTVSPropertyOp49
 70
     1
102
RTVSPropertyOp50
 70
     1
102
RTVSPropertyOp51
 70
     0
102
RTVSPropertyOp52
 70
     0
102
RTVSPropertyOp53
 70
     1
102
RTVSPropertyOp54
 70
     1
102
RTVSPropertyOp55
 70
     1
102
RTVSPropertyOp56
 70
     1
102
RTVSPropertyOp57
 70
     1
102
RTVSPropertyOp58
 70
     1
102
RTVSPropertyOp59
 70
     1
102
RTVSPropertyOp60
 70
     1
102
RTVSPropertyOp61
 70
     1
102
RTVSPropertyOp62
 70
     1
  0
XRECORD
  5
A847
102
{ACAD_REACTORS
330
A846
102
}
330
A846
100
AcDbXrecord
280
     1
102
RTVSPost2010Prop28
280
     0
102
RTVSPost2010PropOp28
 70
     1
102
RTVSPost2010Prop29
280
     1
102
RTVSPost2010PropOp29
 70
     1
102
RTVSPost2010Prop30
280
     1
102
RTVSPost2010PropOp30
 70
     1
102
RTVSPost2010Prop31
280
     0
102
RTVSPost2010PropOp31
 70
     1
102
RTVSPost2010Prop32
280
     0
102
RTVSPost2010PropOp32
 70
     1
102
RTVSPost2010Prop33
280
     0
102
RTVSPost2010PropOp33
 70
     1
102
RTVSPost2010Prop34
280
     0
102
RTVSPost2010PropOp34
 70
     1
102
RTVSPost2010Prop35
280
     0
102
RTVSPost2010PropOp35
 70
     1
102
RTVSPost2010Prop36
280
     0
102
RTVSPost2010PropOp36
 70
     1
102
RTVSPost2010Prop37
 90
       50
102
RTVSPost2010PropOp37
 70
     1
102
RTVSPost2010Prop38
140
0.0
102
RTVSPost2010PropOp38
 70
     1
102
RTVSPost2010Prop39
140
1.0
102
RTVSPost2010PropOp39
 70
     1
102
RTVSPost2010Prop40
 90
        0
102
RTVSPost2010PropOp40
 70
     1
102
RTVSPost2010Prop41ColorIndex
 90
       18
102
RTVSPost2010Prop41ColorRGB
 90
        0
102
RTVSPost2010PropOp41
 70
     1
102
RTVSPost2010Prop42
 90
       50
102
RTVSPost2010PropOp42
 70
     1
102
RTVSPost2010Prop43
 90
        3
102
RTVSPost2010PropOp43
 70
     1
102
RTVSPost2010Prop44ColorIndex
 90
        5
102
RTVSPost2010Prop44ColorRGB
 90
      255
102
RTVSPost2010PropOp44
 70
     1
102
RTVSPost2010Prop45
280
     0
102
RTVSPost2010PropOp45
 70
     1
102
RTVSPost2010Prop46
 90
       50
102
RTVSPost2010PropOp46
 70
     1
102
RTVSPost2010Prop47
 90
       50
102
RTVSPost2010PropOp47
 70
     1
102
RTVSPost2010Prop48
 90
       50
102
RTVSPost2010PropOp48
 70
     1
102
RTVSPost2010Prop49
280
     0
102
RTVSPost2010PropOp49
 70
     1
102
RTVSPost2010Prop50
 90
       50
102
RTVSPost2010PropOp50
 70
     1
102
RTVSPost2010Prop51ColorIndex
 90
      256
102
RTVSPost2010Prop51ColorRGB
 90
-16777216
102
RTVSPost2010PropOp51
 70
     0
102
RTVSPost2010Prop52
140
1.0
102
RTVSPost2010PropOp52
 70
     0
102
RTVSPost2010Prop53
 90
        2
102
RTVSPost2010PropOp53
 70
     1
102
RTVSPost2010Prop54
  1
strokes_ogs.tif
102
RTVSPost2010PropOp54
 70
     1
102
RTVSPost2010Prop55
280
     0
102
RTVSPost2010PropOp55
 70
     1
102
RTVSPost2010Prop56
140
1.0
102
RTVSPost2010PropOp56
 70
     1
102
RTVSPost2010Prop57
140
1.0
102
RTVSPost2010PropOp57
 70
     1
102
RTVSPropertyOp0
 70
     1
102
RTVSPropertyOp1
 70
     1
102
RTVSPropertyOp2
 70
     1
102
RTVSPropertyOp3
 70
     1
102
RTVSPropertyOp4
 70
     1
102
RTVSPropertyOp5
 70
     1
102
RTVSPropertyOp6
 70
     1
102
RTVSPropertyOp7
 70
     1
102
RTVSPropertyOp8
 70
     1
102
RTVSPropertyOp9
 70
     1
102
RTVSPropertyOp10
 70
     1
102
RTVSPropertyOp11
 70
     1
102
RTVSPropertyOp12
 70
     1
102
RTVSPropertyOp13
 70
     1
102
RTVSPropertyOp14
 70
     1
102
RTVSPropertyOp15
 70
     1
102
RTVSPropertyOp16
 70
     1
102
RTVSPropertyOp17
 70
     1
102
RTVSPropertyOp18
 70
     1
102
RTVSPropertyOp19
 70
     1
102
RTVSPropertyOp20
 70
     1
102
RTVSPropertyOp21
 70
     1
102
RTVSPropertyOp22
 70
     1
102
RTVSPropertyOp23
 70
     1
102
RTVSPropertyOp24
 70
     1
102
RTVSPropertyOp25
 70
     1
102
RTVSPropertyOp26
 70
     1
102
RTVSPropertyOp27
 70
     1
102
RTVSPropertyOp28
 70
     1
102
RTVSPropertyOp29
 70
     1
102
RTVSPropertyOp30
 70
     1
102
RTVSPropertyOp31
 70
     1
102
RTVSPropertyOp32
 70
     1
102
RTVSPropertyOp33
 70
     1
102
RTVSPropertyOp34
 70
     1
102
RTVSPropertyOp35
 70
     1
102
RTVSPropertyOp36
 70
     1
102
RTVSPropertyOp37
 70
     1
102
RTVSPropertyOp38
 70
     1
102
RTVSPropertyOp39
 70
     1
102
RTVSPropertyOp40
 70
     1
102
RTVSPropertyOp41
 70
     1
102
RTVSPropertyOp42
 70
     1
102
RTVSPropertyOp43
 70
     1
102
RTVSPropertyOp44
 70
     1
102
RTVSPropertyOp45
 70
     1
102
RTVSPropertyOp46
 70
     1
102
RTVSPropertyOp47
 70
     1
102
RTVSPropertyOp48
 70
     1
102
RTVSPropertyOp49
 70
     1
102
RTVSPropertyOp50
 70
     1
102
RTVSPropertyOp51
 70
     0
102
RTVSPropertyOp52
 70
     0
102
RTVSPropertyOp53
 70
     1
102
RTVSPropertyOp54
 70
     1
102
RTVSPropertyOp55
 70
     1
102
RTVSPropertyOp56
 70
     1
102
RTVSPropertyOp57
 70
     1
102
RTVSPropertyOp58
 70
     1
102
RTVSPropertyOp59
 70
     1
102
RTVSPropertyOp60
 70
     1
102
RTVSPropertyOp61
 70
     1
102
RTVSPropertyOp62
 70
     1
  0
XRECORD
  5
A84F
102
{ACAD_REACTORS
330
A84E
102
}
330
A84E
100
AcDbXrecord
280
     1
102
RTVSPost2010Prop28
280
     0
102
RTVSPost2010PropOp28
 70
     1
102
RTVSPost2010Prop29
280
     1
102
RTVSPost2010PropOp29
 70
     1
102
RTVSPost2010Prop30
280
     1
102
RTVSPost2010PropOp30
 70
     1
102
RTVSPost2010Prop31
280
     0
102
RTVSPost2010PropOp31
 70
     1
102
RTVSPost2010Prop32
280
     0
102
RTVSPost2010PropOp32
 70
     1
102
RTVSPost2010Prop33
280
     0
102
RTVSPost2010PropOp33
 70
     1
102
RTVSPost2010Prop34
280
     0
102
RTVSPost2010PropOp34
 70
     1
102
RTVSPost2010Prop35
280
     0
102
RTVSPost2010PropOp35
 70
     1
102
RTVSPost2010Prop36
280
     0
102
RTVSPost2010PropOp36
 70
     1
102
RTVSPost2010Prop37
 90
       50
102
RTVSPost2010PropOp37
 70
     1
102
RTVSPost2010Prop38
140
0.0
102
RTVSPost2010PropOp38
 70
     1
102
RTVSPost2010Prop39
140
1.0
102
RTVSPost2010PropOp39
 70
     1
102
RTVSPost2010Prop40
 90
        0
102
RTVSPost2010PropOp40
 70
     1
102
RTVSPost2010Prop41ColorIndex
 90
       18
102
RTVSPost2010Prop41ColorRGB
 90
        0
102
RTVSPost2010PropOp41
 70
     1
102
RTVSPost2010Prop42
 90
       50
102
RTVSPost2010PropOp42
 70
     1
102
RTVSPost2010Prop43
 90
        3
102
RTVSPost2010PropOp43
 70
     1
102
RTVSPost2010Prop44ColorIndex
 90
        5
102
RTVSPost2010Prop44ColorRGB
 90
      255
102
RTVSPost2010PropOp44
 70
     1
102
RTVSPost2010Prop45
280
     0
102
RTVSPost2010PropOp45
 70
     1
102
RTVSPost2010Prop46
 90
       50
102
RTVSPost2010PropOp46
 70
     1
102
RTVSPost2010Prop47
 90
       50
102
RTVSPost2010PropOp47
 70
     1
102
RTVSPost2010Prop48
 90
       50
102
RTVSPost2010PropOp48
 70
     1
102
RTVSPost2010Prop49
280
     0
102
RTVSPost2010PropOp49
 70
     1
102
RTVSPost2010Prop50
 90
       50
102
RTVSPost2010PropOp50
 70
     1
102
RTVSPost2010Prop51ColorIndex
 90
      256
102
RTVSPost2010Prop51ColorRGB
 90
-16777216
102
RTVSPost2010PropOp51
 70
     0
102
RTVSPost2010Prop52
140
1.0
102
RTVSPost2010PropOp52
 70
     0
102
RTVSPost2010Prop53
 90
        2
102
RTVSPost2010PropOp53
 70
     1
102
RTVSPost2010Prop54
  1
strokes_ogs.tif
102
RTVSPost2010PropOp54
 70
     1
102
RTVSPost2010Prop55
280
     0
102
RTVSPost2010PropOp55
 70
     1
102
RTVSPost2010Prop56
140
1.0
102
RTVSPost2010PropOp56
 70
     1
102
RTVSPost2010Prop57
140
1.0
102
RTVSPost2010PropOp57
 70
     1
102
RTVSPropertyOp0
 70
     1
102
RTVSPropertyOp1
 70
     1
102
RTVSPropertyOp2
 70
     1
102
RTVSPropertyOp3
 70
     1
102
RTVSPropertyOp4
 70
     1
102
RTVSPropertyOp5
 70
     1
102
RTVSPropertyOp6
 70
     1
102
RTVSPropertyOp7
 70
     1
102
RTVSPropertyOp8
 70
     1
102
RTVSPropertyOp9
 70
     1
102
RTVSPropertyOp10
 70
     1
102
RTVSPropertyOp11
 70
     1
102
RTVSPropertyOp12
 70
     1
102
RTVSPropertyOp13
 70
     1
102
RTVSPropertyOp14
 70
     1
102
RTVSPropertyOp15
 70
     1
102
RTVSPropertyOp16
 70
     1
102
RTVSPropertyOp17
 70
     1
102
RTVSPropertyOp18
 70
     1
102
RTVSPropertyOp19
 70
     1
102
RTVSPropertyOp20
 70
     1
102
RTVSPropertyOp21
 70
     1
102
RTVSPropertyOp22
 70
     1
102
RTVSPropertyOp23
 70
     1
102
RTVSPropertyOp24
 70
     1
102
RTVSPropertyOp25
 70
     1
102
RTVSPropertyOp26
 70
     1
102
RTVSPropertyOp27
 70
     1
102
RTVSPropertyOp28
 70
     1
102
RTVSPropertyOp29
 70
     1
102
RTVSPropertyOp30
 70
     1
102
RTVSPropertyOp31
 70
     1
102
RTVSPropertyOp32
 70
     1
102
RTVSPropertyOp33
 70
     1
102
RTVSPropertyOp34
 70
     1
102
RTVSPropertyOp35
 70
     1
102
RTVSPropertyOp36
 70
     1
102
RTVSPropertyOp37
 70
     1
102
RTVSPropertyOp38
 70
     1
102
RTVSPropertyOp39
 70
     1
102
RTVSPropertyOp40
 70
     1
102
RTVSPropertyOp41
 70
     1
102
RTVSPropertyOp42
 70
     1
102
RTVSPropertyOp43
 70
     1
102
RTVSPropertyOp44
 70
     1
102
RTVSPropertyOp45
 70
     1
102
RTVSPropertyOp46
 70
     1
102
RTVSPropertyOp47
 70
     1
102
RTVSPropertyOp48
 70
     1
102
RTVSPropertyOp49
 70
     1
102
RTVSPropertyOp50
 70
     1
102
RTVSPropertyOp51
 70
     0
102
RTVSPropertyOp52
 70
     0
102
RTVSPropertyOp53
 70
     1
102
RTVSPropertyOp54
 70
     1
102
RTVSPropertyOp55
 70
     1
102
RTVSPropertyOp56
 70
     1
102
RTVSPropertyOp57
 70
     1
102
RTVSPropertyOp58
 70
     1
102
RTVSPropertyOp59
 70
     1
102
RTVSPropertyOp60
 70
     1
102
RTVSPropertyOp61
 70
     1
102
RTVSPropertyOp62
 70
     1
  0
XRECORD
  5
A86B
102
{ACAD_REACTORS
330
A86A
102
}
330
A86A
100
AcDbXrecord
280
     1
102
RTVSPost2010Prop28
280
     0
102
RTVSPost2010PropOp28
 70
     1
102
RTVSPost2010Prop29
280
     1
102
RTVSPost2010PropOp29
 70
     1
102
RTVSPost2010Prop30
280
     1
102
RTVSPost2010PropOp30
 70
     1
102
RTVSPost2010Prop31
280
     0
102
RTVSPost2010PropOp31
 70
     1
102
RTVSPost2010Prop32
280
     0
102
RTVSPost2010PropOp32
 70
     1
102
RTVSPost2010Prop33
280
     0
102
RTVSPost2010PropOp33
 70
     1
102
RTVSPost2010Prop34
280
     0
102
RTVSPost2010PropOp34
 70
     1
102
RTVSPost2010Prop35
280
     0
102
RTVSPost2010PropOp35
 70
     1
102
RTVSPost2010Prop36
280
     0
102
RTVSPost2010PropOp36
 70
     1
102
RTVSPost2010Prop37
 90
       50
102
RTVSPost2010PropOp37
 70
     0
102
RTVSPost2010Prop38
140
0.0
102
RTVSPost2010PropOp38
 70
     0
102
RTVSPost2010Prop39
140
1.0
102
RTVSPost2010PropOp39
 70
     0
102
RTVSPost2010Prop40
 90
        0
102
RTVSPost2010PropOp40
 70
     0
102
RTVSPost2010Prop41ColorIndex
 90
       18
102
RTVSPost2010Prop41ColorRGB
 90
        0
102
RTVSPost2010PropOp41
 70
     0
102
RTVSPost2010Prop42
 90
       50
102
RTVSPost2010PropOp42
 70
     0
102
RTVSPost2010Prop43
 90
        3
102
RTVSPost2010PropOp43
 70
     0
102
RTVSPost2010Prop44ColorIndex
 90
        5
102
RTVSPost2010Prop44ColorRGB
 90
      255
102
RTVSPost2010PropOp44
 70
     0
102
RTVSPost2010Prop45
280
     0
102
RTVSPost2010PropOp45
 70
     1
102
RTVSPost2010Prop46
 90
       50
102
RTVSPost2010PropOp46
 70
     0
102
RTVSPost2010Prop47
 90
       50
102
RTVSPost2010PropOp47
 70
     0
102
RTVSPost2010Prop48
 90
       50
102
RTVSPost2010PropOp48
 70
     0
102
RTVSPost2010Prop49
280
     0
102
RTVSPost2010PropOp49
 70
     1
102
RTVSPost2010Prop50
 90
       50
102
RTVSPost2010PropOp50
 70
     0
102
RTVSPost2010Prop51ColorIndex
 90
      256
102
RTVSPost2010Prop51ColorRGB
 90
-16777216
102
RTVSPost2010PropOp51
 70
     0
102
RTVSPost2010Prop52
140
1.0
102
RTVSPost2010PropOp52
 70
     0
102
RTVSPost2010Prop53
 90
        2
102
RTVSPost2010PropOp53
 70
     0
102
RTVSPost2010Prop54
  1
strokes_ogs.tif
102
RTVSPost2010PropOp54
 70
     0
102
RTVSPost2010Prop55
280
     0
102
RTVSPost2010PropOp55
 70
     1
102
RTVSPost2010Prop56
140
1.0
102
RTVSPost2010PropOp56
 70
     0
102
RTVSPost2010Prop57
140
1.0
102
RTVSPost2010PropOp57
 70
     0
102
RTVSPropertyOp0
 70
     0
102
RTVSPropertyOp1
 70
     0
102
RTVSPropertyOp2
 70
     0
102
RTVSPropertyOp3
 70
     0
102
RTVSPropertyOp4
 70
     0
102
RTVSPropertyOp5
 70
     0
102
RTVSPropertyOp6
 70
     0
102
RTVSPropertyOp7
 70
     0
102
RTVSPropertyOp8
 70
     0
102
RTVSPropertyOp9
 70
     0
102
RTVSPropertyOp10
 70
     0
102
RTVSPropertyOp11
 70
     0
102
RTVSPropertyOp12
 70
     0
102
RTVSPropertyOp13
 70
     0
102
RTVSPropertyOp14
 70
     2
102
RTVSPropertyOp15
 70
     0
102
RTVSPropertyOp16
 70
     0
102
RTVSPropertyOp17
 70
     0
102
RTVSPropertyOp18
 70
     0
102
RTVSPropertyOp19
 70
     0
102
RTVSPropertyOp20
 70
     0
102
RTVSPropertyOp21
 70
     0
102
RTVSPropertyOp22
 70
     0
102
RTVSPropertyOp23
 70
     0
102
RTVSPropertyOp24
 70
     0
102
RTVSPropertyOp25
 70
     0
102
RTVSPropertyOp26
 70
     0
102
RTVSPropertyOp27
 70
     0
102
RTVSPropertyOp28
 70
     1
102
RTVSPropertyOp29
 70
     1
102
RTVSPropertyOp30
 70
     1
102
RTVSPropertyOp31
 70
     1
102
RTVSPropertyOp32
 70
     1
102
RTVSPropertyOp33
 70
     1
102
RTVSPropertyOp34
 70
     1
102
RTVSPropertyOp35
 70
     1
102
RTVSPropertyOp36
 70
     1
102
RTVSPropertyOp37
 70
     0
102
RTVSPropertyOp38
 70
     0
102
RTVSPropertyOp39
 70
     0
102
RTVSPropertyOp40
 70
     0
102
RTVSPropertyOp41
 70
     0
102
RTVSPropertyOp42
 70
     0
102
RTVSPropertyOp43
 70
     0
102
RTVSPropertyOp44
 70
     0
102
RTVSPropertyOp45
 70
     1
102
RTVSPropertyOp46
 70
     0
102
RTVSPropertyOp47
 70
     0
102
RTVSPropertyOp48
 70
     0
102
RTVSPropertyOp49
 70
     1
102
RTVSPropertyOp50
 70
     0
102
RTVSPropertyOp51
 70
     0
102
RTVSPropertyOp52
 70
     0
102
RTVSPropertyOp53
 70
     0
102
RTVSPropertyOp54
 70
     0
102
RTVSPropertyOp55
 70
     1
102
RTVSPropertyOp56
 70
     0
102
RTVSPropertyOp57
 70
     0
102
RTVSPropertyOp58
 70
     0
102
RTVSPropertyOp59
 70
     0
102
RTVSPropertyOp60
 70
     0
102
RTVSPropertyOp61
 70
     0
102
RTVSPropertyOp62
 70
     0
  0
XRECORD
  5
A85B
102
{ACAD_REACTORS
330
A85A
102
}
330
A85A
100
AcDbXrecord
280
     1
102
RTVSPost2010Prop28
280
     0
102
RTVSPost2010PropOp28
 70
     1
102
RTVSPost2010Prop29
280
     1
102
RTVSPost2010PropOp29
 70
     1
102
RTVSPost2010Prop30
280
     1
102
RTVSPost2010PropOp30
 70
     1
102
RTVSPost2010Prop31
280
     0
102
RTVSPost2010PropOp31
 70
     1
102
RTVSPost2010Prop32
280
     0
102
RTVSPost2010PropOp32
 70
     1
102
RTVSPost2010Prop33
280
     0
102
RTVSPost2010PropOp33
 70
     1
102
RTVSPost2010Prop34
280
     0
102
RTVSPost2010PropOp34
 70
     1
102
RTVSPost2010Prop35
280
     0
102
RTVSPost2010PropOp35
 70
     1
102
RTVSPost2010Prop36
280
     0
102
RTVSPost2010PropOp36
 70
     1
102
RTVSPost2010Prop37
 90
       50
102
RTVSPost2010PropOp37
 70
     1
102
RTVSPost2010Prop38
140
0.0
102
RTVSPost2010PropOp38
 70
     1
102
RTVSPost2010Prop39
140
1.0
102
RTVSPost2010PropOp39
 70
     1
102
RTVSPost2010Prop40
 90
        0
102
RTVSPost2010PropOp40
 70
     1
102
RTVSPost2010Prop41ColorIndex
 90
       18
102
RTVSPost2010Prop41ColorRGB
 90
        0
102
RTVSPost2010PropOp41
 70
     1
102
RTVSPost2010Prop42
 90
       50
102
RTVSPost2010PropOp42
 70
     1
102
RTVSPost2010Prop43
 90
        3
102
RTVSPost2010PropOp43
 70
     1
102
RTVSPost2010Prop44ColorIndex
 90
        5
102
RTVSPost2010Prop44ColorRGB
 90
      255
102
RTVSPost2010PropOp44
 70
     1
102
RTVSPost2010Prop45
280
     0
102
RTVSPost2010PropOp45
 70
     1
102
RTVSPost2010Prop46
 90
       50
102
RTVSPost2010PropOp46
 70
     1
102
RTVSPost2010Prop47
 90
       50
102
RTVSPost2010PropOp47
 70
     1
102
RTVSPost2010Prop48
 90
       50
102
RTVSPost2010PropOp48
 70
     1
102
RTVSPost2010Prop49
280
     0
102
RTVSPost2010PropOp49
 70
     1
102
RTVSPost2010Prop50
 90
       50
102
RTVSPost2010PropOp50
 70
     1
102
RTVSPost2010Prop51ColorIndex
 90
      256
102
RTVSPost2010Prop51ColorRGB
 90
-16777216
102
RTVSPost2010PropOp51
 70
     0
102
RTVSPost2010Prop52
140
1.0
102
RTVSPost2010PropOp52
 70
     0
102
RTVSPost2010Prop53
 90
        2
102
RTVSPost2010PropOp53
 70
     1
102
RTVSPost2010Prop54
  1
strokes_ogs.tif
102
RTVSPost2010PropOp54
 70
     1
102
RTVSPost2010Prop55
280
     0
102
RTVSPost2010PropOp55
 70
     1
102
RTVSPost2010Prop56
140
1.0
102
RTVSPost2010PropOp56
 70
     1
102
RTVSPost2010Prop57
140
1.0
102
RTVSPost2010PropOp57
 70
     1
102
RTVSPropertyOp0
 70
     1
102
RTVSPropertyOp1
 70
     1
102
RTVSPropertyOp2
 70
     1
102
RTVSPropertyOp3
 70
     1
102
RTVSPropertyOp4
 70
     1
102
RTVSPropertyOp5
 70
     1
102
RTVSPropertyOp6
 70
     1
102
RTVSPropertyOp7
 70
     1
102
RTVSPropertyOp8
 70
     1
102
RTVSPropertyOp9
 70
     1
102
RTVSPropertyOp10
 70
     1
102
RTVSPropertyOp11
 70
     1
102
RTVSPropertyOp12
 70
     1
102
RTVSPropertyOp13
 70
     1
102
RTVSPropertyOp14
 70
     1
102
RTVSPropertyOp15
 70
     1
102
RTVSPropertyOp16
 70
     1
102
RTVSPropertyOp17
 70
     1
102
RTVSPropertyOp18
 70
     1
102
RTVSPropertyOp19
 70
     1
102
RTVSPropertyOp20
 70
     1
102
RTVSPropertyOp21
 70
     1
102
RTVSPropertyOp22
 70
     1
102
RTVSPropertyOp23
 70
     1
102
RTVSPropertyOp24
 70
     1
102
RTVSPropertyOp25
 70
     1
102
RTVSPropertyOp26
 70
     1
102
RTVSPropertyOp27
 70
     1
102
RTVSPropertyOp28
 70
     1
102
RTVSPropertyOp29
 70
     1
102
RTVSPropertyOp30
 70
     1
102
RTVSPropertyOp31
 70
     1
102
RTVSPropertyOp32
 70
     1
102
RTVSPropertyOp33
 70
     1
102
RTVSPropertyOp34
 70
     1
102
RTVSPropertyOp35
 70
     1
102
RTVSPropertyOp36
 70
     1
102
RTVSPropertyOp37
 70
     1
102
RTVSPropertyOp38
 70
     1
102
RTVSPropertyOp39
 70
     1
102
RTVSPropertyOp40
 70
     1
102
RTVSPropertyOp41
 70
     1
102
RTVSPropertyOp42
 70
     1
102
RTVSPropertyOp43
 70
     1
102
RTVSPropertyOp44
 70
     1
102
RTVSPropertyOp45
 70
     1
102
RTVSPropertyOp46
 70
     1
102
RTVSPropertyOp47
 70
     1
102
RTVSPropertyOp48
 70
     1
102
RTVSPropertyOp49
 70
     1
102
RTVSPropertyOp50
 70
     1
102
RTVSPropertyOp51
 70
     0
102
RTVSPropertyOp52
 70
     0
102
RTVSPropertyOp53
 70
     1
102
RTVSPropertyOp54
 70
     1
102
RTVSPropertyOp55
 70
     1
102
RTVSPropertyOp56
 70
     1
102
RTVSPropertyOp57
 70
     1
102
RTVSPropertyOp58
 70
     1
102
RTVSPropertyOp59
 70
     1
102
RTVSPropertyOp60
 70
     1
102
RTVSPropertyOp61
 70
     1
102
RTVSPropertyOp62
 70
     1
  0
XRECORD
  5
A86D
102
{ACAD_REACTORS
330
A86C
102
}
330
A86C
100
AcDbXrecord
280
     1
102
RTVSPost2010Prop28
280
     0
102
RTVSPost2010PropOp28
 70
     1
102
RTVSPost2010Prop29
280
     1
102
RTVSPost2010PropOp29
 70
     1
102
RTVSPost2010Prop30
280
     1
102
RTVSPost2010PropOp30
 70
     1
102
RTVSPost2010Prop31
280
     0
102
RTVSPost2010PropOp31
 70
     1
102
RTVSPost2010Prop32
280
     0
102
RTVSPost2010PropOp32
 70
     1
102
RTVSPost2010Prop33
280
     0
102
RTVSPost2010PropOp33
 70
     1
102
RTVSPost2010Prop34
280
     0
102
RTVSPost2010PropOp34
 70
     1
102
RTVSPost2010Prop35
280
     0
102
RTVSPost2010PropOp35
 70
     1
102
RTVSPost2010Prop36
280
     0
102
RTVSPost2010PropOp36
 70
     1
102
RTVSPost2010Prop37
 90
       50
102
RTVSPost2010PropOp37
 70
     0
102
RTVSPost2010Prop38
140
0.0
102
RTVSPost2010PropOp38
 70
     0
102
RTVSPost2010Prop39
140
1.0
102
RTVSPost2010PropOp39
 70
     0
102
RTVSPost2010Prop40
 90
        0
102
RTVSPost2010PropOp40
 70
     0
102
RTVSPost2010Prop41ColorIndex
 90
       18
102
RTVSPost2010Prop41ColorRGB
 90
        0
102
RTVSPost2010PropOp41
 70
     0
102
RTVSPost2010Prop42
 90
       50
102
RTVSPost2010PropOp42
 70
     0
102
RTVSPost2010Prop43
 90
        3
102
RTVSPost2010PropOp43
 70
     0
102
RTVSPost2010Prop44ColorIndex
 90
        5
102
RTVSPost2010Prop44ColorRGB
 90
      255
102
RTVSPost2010PropOp44
 70
     0
102
RTVSPost2010Prop45
280
     0
102
RTVSPost2010PropOp45
 70
     1
102
RTVSPost2010Prop46
 90
       50
102
RTVSPost2010PropOp46
 70
     0
102
RTVSPost2010Prop47
 90
       50
102
RTVSPost2010PropOp47
 70
     0
102
RTVSPost2010Prop48
 90
       50
102
RTVSPost2010PropOp48
 70
     0
102
RTVSPost2010Prop49
280
     0
102
RTVSPost2010PropOp49
 70
     1
102
RTVSPost2010Prop50
 90
       50
102
RTVSPost2010PropOp50
 70
     0
102
RTVSPost2010Prop51ColorIndex
 90
      256
102
RTVSPost2010Prop51ColorRGB
 90
-16777216
102
RTVSPost2010PropOp51
 70
     0
102
RTVSPost2010Prop52
140
1.0
102
RTVSPost2010PropOp52
 70
     0
102
RTVSPost2010Prop53
 90
        2
102
RTVSPost2010PropOp53
 70
     0
102
RTVSPost2010Prop54
  1
strokes_ogs.tif
102
RTVSPost2010PropOp54
 70
     0
102
RTVSPost2010Prop55
280
     0
102
RTVSPost2010PropOp55
 70
     1
102
RTVSPost2010Prop56
140
1.0
102
RTVSPost2010PropOp56
 70
     0
102
RTVSPost2010Prop57
140
1.0
102
RTVSPost2010PropOp57
 70
     0
102
RTVSPropertyOp0
 70
     0
102
RTVSPropertyOp1
 70
     0
102
RTVSPropertyOp2
 70
     0
102
RTVSPropertyOp3
 70
     0
102
RTVSPropertyOp4
 70
     0
102
RTVSPropertyOp5
 70
     0
102
RTVSPropertyOp6
 70
     0
102
RTVSPropertyOp7
 70
     0
102
RTVSPropertyOp8
 70
     0
102
RTVSPropertyOp9
 70
     0
102
RTVSPropertyOp10
 70
     0
102
RTVSPropertyOp11
 70
     0
102
RTVSPropertyOp12
 70
     0
102
RTVSPropertyOp13
 70
     0
102
RTVSPropertyOp14
 70
     2
102
RTVSPropertyOp15
 70
     0
102
RTVSPropertyOp16
 70
     0
102
RTVSPropertyOp17
 70
     0
102
RTVSPropertyOp18
 70
     0
102
RTVSPropertyOp19
 70
     0
102
RTVSPropertyOp20
 70
     0
102
RTVSPropertyOp21
 70
     0
102
RTVSPropertyOp22
 70
     0
102
RTVSPropertyOp23
 70
     0
102
RTVSPropertyOp24
 70
     0
102
RTVSPropertyOp25
 70
     0
102
RTVSPropertyOp26
 70
     0
102
RTVSPropertyOp27
 70
     0
102
RTVSPropertyOp28
 70
     1
102
RTVSPropertyOp29
 70
     1
102
RTVSPropertyOp30
 70
     1
102
RTVSPropertyOp31
 70
     1
102
RTVSPropertyOp32
 70
     1
102
RTVSPropertyOp33
 70
     1
102
RTVSPropertyOp34
 70
     1
102
RTVSPropertyOp35
 70
     1
102
RTVSPropertyOp36
 70
     1
102
RTVSPropertyOp37
 70
     0
102
RTVSPropertyOp38
 70
     0
102
RTVSPropertyOp39
 70
     0
102
RTVSPropertyOp40
 70
     0
102
RTVSPropertyOp41
 70
     0
102
RTVSPropertyOp42
 70
     0
102
RTVSPropertyOp43
 70
     0
102
RTVSPropertyOp44
 70
     0
102
RTVSPropertyOp45
 70
     1
102
RTVSPropertyOp46
 70
     0
102
RTVSPropertyOp47
 70
     0
102
RTVSPropertyOp48
 70
     0
102
RTVSPropertyOp49
 70
     1
102
RTVSPropertyOp50
 70
     0
102
RTVSPropertyOp51
 70
     0
102
RTVSPropertyOp52
 70
     0
102
RTVSPropertyOp53
 70
     0
102
RTVSPropertyOp54
 70
     0
102
RTVSPropertyOp55
 70
     1
102
RTVSPropertyOp56
 70
     0
102
RTVSPropertyOp57
 70
     0
102
RTVSPropertyOp58
 70
     0
102
RTVSPropertyOp59
 70
     0
102
RTVSPropertyOp60
 70
     0
102
RTVSPropertyOp61
 70
     0
102
RTVSPropertyOp62
 70
     0
  0
XRECORD
  5
A853
102
{ACAD_REACTORS
330
A852
102
}
330
A852
100
AcDbXrecord
280
     1
102
RTVSPost2010Prop28
280
     0
102
RTVSPost2010PropOp28
 70
     1
102
RTVSPost2010Prop29
280
     1
102
RTVSPost2010PropOp29
 70
     1
102
RTVSPost2010Prop30
280
     1
102
RTVSPost2010PropOp30
 70
     1
102
RTVSPost2010Prop31
280
     0
102
RTVSPost2010PropOp31
 70
     1
102
RTVSPost2010Prop32
280
     0
102
RTVSPost2010PropOp32
 70
     1
102
RTVSPost2010Prop33
280
     0
102
RTVSPost2010PropOp33
 70
     1
102
RTVSPost2010Prop34
280
     0
102
RTVSPost2010PropOp34
 70
     1
102
RTVSPost2010Prop35
280
     0
102
RTVSPost2010PropOp35
 70
     1
102
RTVSPost2010Prop36
280
     0
102
RTVSPost2010PropOp36
 70
     1
102
RTVSPost2010Prop37
 90
       50
102
RTVSPost2010PropOp37
 70
     1
102
RTVSPost2010Prop38
140
0.0
102
RTVSPost2010PropOp38
 70
     1
102
RTVSPost2010Prop39
140
1.0
102
RTVSPost2010PropOp39
 70
     1
102
RTVSPost2010Prop40
 90
        0
102
RTVSPost2010PropOp40
 70
     1
102
RTVSPost2010Prop41ColorIndex
 90
       18
102
RTVSPost2010Prop41ColorRGB
 90
        0
102
RTVSPost2010PropOp41
 70
     1
102
RTVSPost2010Prop42
 90
       50
102
RTVSPost2010PropOp42
 70
     1
102
RTVSPost2010Prop43
 90
        3
102
RTVSPost2010PropOp43
 70
     1
102
RTVSPost2010Prop44ColorIndex
 90
        5
102
RTVSPost2010Prop44ColorRGB
 90
      255
102
RTVSPost2010PropOp44
 70
     1
102
RTVSPost2010Prop45
280
     0
102
RTVSPost2010PropOp45
 70
     1
102
RTVSPost2010Prop46
 90
       50
102
RTVSPost2010PropOp46
 70
     1
102
RTVSPost2010Prop47
 90
       50
102
RTVSPost2010PropOp47
 70
     1
102
RTVSPost2010Prop48
 90
       50
102
RTVSPost2010PropOp48
 70
     1
102
RTVSPost2010Prop49
280
     0
102
RTVSPost2010PropOp49
 70
     1
102
RTVSPost2010Prop50
 90
       50
102
RTVSPost2010PropOp50
 70
     1
102
RTVSPost2010Prop51ColorIndex
 90
      256
102
RTVSPost2010Prop51ColorRGB
 90
-16777216
102
RTVSPost2010PropOp51
 70
     0
102
RTVSPost2010Prop52
140
1.0
102
RTVSPost2010PropOp52
 70
     0
102
RTVSPost2010Prop53
 90
        2
102
RTVSPost2010PropOp53
 70
     1
102
RTVSPost2010Prop54
  1
strokes_ogs.tif
102
RTVSPost2010PropOp54
 70
     1
102
RTVSPost2010Prop55
280
     0
102
RTVSPost2010PropOp55
 70
     1
102
RTVSPost2010Prop56
140
1.0
102
RTVSPost2010PropOp56
 70
     1
102
RTVSPost2010Prop57
140
1.0
102
RTVSPost2010PropOp57
 70
     1
102
RTVSPropertyOp0
 70
     1
102
RTVSPropertyOp1
 70
     1
102
RTVSPropertyOp2
 70
     1
102
RTVSPropertyOp3
 70
     1
102
RTVSPropertyOp4
 70
     1
102
RTVSPropertyOp5
 70
     1
102
RTVSPropertyOp6
 70
     1
102
RTVSPropertyOp7
 70
     1
102
RTVSPropertyOp8
 70
     1
102
RTVSPropertyOp9
 70
     1
102
RTVSPropertyOp10
 70
     1
102
RTVSPropertyOp11
 70
     1
102
RTVSPropertyOp12
 70
     1
102
RTVSPropertyOp13
 70
     1
102
RTVSPropertyOp14
 70
     1
102
RTVSPropertyOp15
 70
     1
102
RTVSPropertyOp16
 70
     1
102
RTVSPropertyOp17
 70
     1
102
RTVSPropertyOp18
 70
     1
102
RTVSPropertyOp19
 70
     1
102
RTVSPropertyOp20
 70
     1
102
RTVSPropertyOp21
 70
     1
102
RTVSPropertyOp22
 70
     1
102
RTVSPropertyOp23
 70
     1
102
RTVSPropertyOp24
 70
     1
102
RTVSPropertyOp25
 70
     1
102
RTVSPropertyOp26
 70
     1
102
RTVSPropertyOp27
 70
     1
102
RTVSPropertyOp28
 70
     1
102
RTVSPropertyOp29
 70
     1
102
RTVSPropertyOp30
 70
     1
102
RTVSPropertyOp31
 70
     1
102
RTVSPropertyOp32
 70
     1
102
RTVSPropertyOp33
 70
     1
102
RTVSPropertyOp34
 70
     1
102
RTVSPropertyOp35
 70
     1
102
RTVSPropertyOp36
 70
     1
102
RTVSPropertyOp37
 70
     1
102
RTVSPropertyOp38
 70
     1
102
RTVSPropertyOp39
 70
     1
102
RTVSPropertyOp40
 70
     1
102
RTVSPropertyOp41
 70
     1
102
RTVSPropertyOp42
 70
     1
102
RTVSPropertyOp43
 70
     1
102
RTVSPropertyOp44
 70
     1
102
RTVSPropertyOp45
 70
     1
102
RTVSPropertyOp46
 70
     1
102
RTVSPropertyOp47
 70
     1
102
RTVSPropertyOp48
 70
     1
102
RTVSPropertyOp49
 70
     1
102
RTVSPropertyOp50
 70
     1
102
RTVSPropertyOp51
 70
     0
102
RTVSPropertyOp52
 70
     0
102
RTVSPropertyOp53
 70
     1
102
RTVSPropertyOp54
 70
     1
102
RTVSPropertyOp55
 70
     1
102
RTVSPropertyOp56
 70
     1
102
RTVSPropertyOp57
 70
     1
102
RTVSPropertyOp58
 70
     1
102
RTVSPropertyOp59
 70
     1
102
RTVSPropertyOp60
 70
     1
102
RTVSPropertyOp61
 70
     1
102
RTVSPropertyOp62
 70
     1
  0
XRECORD
  5
A869
102
{ACAD_REACTORS
330
A868
102
}
330
A868
100
AcDbXrecord
280
     1
102
RTVSPost2010Prop28
280
     0
102
RTVSPost2010PropOp28
 70
     1
102
RTVSPost2010Prop29
280
     1
102
RTVSPost2010PropOp29
 70
     1
102
RTVSPost2010Prop30
280
     1
102
RTVSPost2010PropOp30
 70
     1
102
RTVSPost2010Prop31
280
     0
102
RTVSPost2010PropOp31
 70
     1
102
RTVSPost2010Prop32
280
     0
102
RTVSPost2010PropOp32
 70
     1
102
RTVSPost2010Prop33
280
     0
102
RTVSPost2010PropOp33
 70
     1
102
RTVSPost2010Prop34
280
     0
102
RTVSPost2010PropOp34
 70
     1
102
RTVSPost2010Prop35
280
     0
102
RTVSPost2010PropOp35
 70
     1
102
RTVSPost2010Prop36
280
     0
102
RTVSPost2010PropOp36
 70
     1
102
RTVSPost2010Prop37
 90
       50
102
RTVSPost2010PropOp37
 70
     1
102
RTVSPost2010Prop38
140
0.0
102
RTVSPost2010PropOp38
 70
     1
102
RTVSPost2010Prop39
140
1.0
102
RTVSPost2010PropOp39
 70
     1
102
RTVSPost2010Prop40
 90
        0
102
RTVSPost2010PropOp40
 70
     1
102
RTVSPost2010Prop41ColorIndex
 90
       18
102
RTVSPost2010Prop41ColorRGB
 90
        0
102
RTVSPost2010PropOp41
 70
     1
102
RTVSPost2010Prop42
 90
       50
102
RTVSPost2010PropOp42
 70
     1
102
RTVSPost2010Prop43
 90
        3
102
RTVSPost2010PropOp43
 70
     1
102
RTVSPost2010Prop44ColorIndex
 90
        5
102
RTVSPost2010Prop44ColorRGB
 90
      255
102
RTVSPost2010PropOp44
 70
     1
102
RTVSPost2010Prop45
280
     0
102
RTVSPost2010PropOp45
 70
     1
102
RTVSPost2010Prop46
 90
       50
102
RTVSPost2010PropOp46
 70
     1
102
RTVSPost2010Prop47
 90
       50
102
RTVSPost2010PropOp47
 70
     1
102
RTVSPost2010Prop48
 90
       50
102
RTVSPost2010PropOp48
 70
     1
102
RTVSPost2010Prop49
280
     0
102
RTVSPost2010PropOp49
 70
     1
102
RTVSPost2010Prop50
 90
       50
102
RTVSPost2010PropOp50
 70
     1
102
RTVSPost2010Prop51ColorIndex
 90
      256
102
RTVSPost2010Prop51ColorRGB
 90
-16777216
102
RTVSPost2010PropOp51
 70
     0
102
RTVSPost2010Prop52
140
1.0
102
RTVSPost2010PropOp52
 70
     0
102
RTVSPost2010Prop53
 90
        2
102
RTVSPost2010PropOp53
 70
     1
102
RTVSPost2010Prop54
  1
strokes_ogs.tif
102
RTVSPost2010PropOp54
 70
     1
102
RTVSPost2010Prop55
280
     0
102
RTVSPost2010PropOp55
 70
     1
102
RTVSPost2010Prop56
140
1.0
102
RTVSPost2010PropOp56
 70
     1
102
RTVSPost2010Prop57
140
1.0
102
RTVSPost2010PropOp57
 70
     1
102
RTVSPropertyOp0
 70
     1
102
RTVSPropertyOp1
 70
     1
102
RTVSPropertyOp2
 70
     1
102
RTVSPropertyOp3
 70
     1
102
RTVSPropertyOp4
 70
     1
102
RTVSPropertyOp5
 70
     1
102
RTVSPropertyOp6
 70
     1
102
RTVSPropertyOp7
 70
     1
102
RTVSPropertyOp8
 70
     1
102
RTVSPropertyOp9
 70
     1
102
RTVSPropertyOp10
 70
     1
102
RTVSPropertyOp11
 70
     1
102
RTVSPropertyOp12
 70
     1
102
RTVSPropertyOp13
 70
     1
102
RTVSPropertyOp14
 70
     1
102
RTVSPropertyOp15
 70
     1
102
RTVSPropertyOp16
 70
     1
102
RTVSPropertyOp17
 70
     1
102
RTVSPropertyOp18
 70
     1
102
RTVSPropertyOp19
 70
     1
102
RTVSPropertyOp20
 70
     1
102
RTVSPropertyOp21
 70
     1
102
RTVSPropertyOp22
 70
     1
102
RTVSPropertyOp23
 70
     1
102
RTVSPropertyOp24
 70
     1
102
RTVSPropertyOp25
 70
     1
102
RTVSPropertyOp26
 70
     1
102
RTVSPropertyOp27
 70
     1
102
RTVSPropertyOp28
 70
     1
102
RTVSPropertyOp29
 70
     1
102
RTVSPropertyOp30
 70
     1
102
RTVSPropertyOp31
 70
     1
102
RTVSPropertyOp32
 70
     1
102
RTVSPropertyOp33
 70
     1
102
RTVSPropertyOp34
 70
     1
102
RTVSPropertyOp35
 70
     1
102
RTVSPropertyOp36
 70
     1
102
RTVSPropertyOp37
 70
     1
102
RTVSPropertyOp38
 70
     1
102
RTVSPropertyOp39
 70
     1
102
RTVSPropertyOp40
 70
     1
102
RTVSPropertyOp41
 70
     1
102
RTVSPropertyOp42
 70
     1
102
RTVSPropertyOp43
 70
     1
102
RTVSPropertyOp44
 70
     1
102
RTVSPropertyOp45
 70
     1
102
RTVSPropertyOp46
 70
     1
102
RTVSPropertyOp47
 70
     1
102
RTVSPropertyOp48
 70
     1
102
RTVSPropertyOp49
 70
     1
102
RTVSPropertyOp50
 70
     1
102
RTVSPropertyOp51
 70
     0
102
RTVSPropertyOp52
 70
     0
102
RTVSPropertyOp53
 70
     1
102
RTVSPropertyOp54
 70
     1
102
RTVSPropertyOp55
 70
     1
102
RTVSPropertyOp56
 70
     1
102
RTVSPropertyOp57
 70
     1
102
RTVSPropertyOp58
 70
     1
102
RTVSPropertyOp59
 70
     1
102
RTVSPropertyOp60
 70
     1
102
RTVSPropertyOp61
 70
     1
102
RTVSPropertyOp62
 70
     1
  0
XRECORD
  5
A867
102
{ACAD_REACTORS
330
A866
102
}
330
A866
100
AcDbXrecord
280
     1
102
RTVSPost2010Prop28
280
     0
102
RTVSPost2010PropOp28
 70
     1
102
RTVSPost2010Prop29
280
     1
102
RTVSPost2010PropOp29
 70
     1
102
RTVSPost2010Prop30
280
     1
102
RTVSPost2010PropOp30
 70
     1
102
RTVSPost2010Prop31
280
     0
102
RTVSPost2010PropOp31
 70
     1
102
RTVSPost2010Prop32
280
     0
102
RTVSPost2010PropOp32
 70
     1
102
RTVSPost2010Prop33
280
     0
102
RTVSPost2010PropOp33
 70
     1
102
RTVSPost2010Prop34
280
     0
102
RTVSPost2010PropOp34
 70
     1
102
RTVSPost2010Prop35
280
     0
102
RTVSPost2010PropOp35
 70
     1
102
RTVSPost2010Prop36
280
     0
102
RTVSPost2010PropOp36
 70
     1
102
RTVSPost2010Prop37
 90
       50
102
RTVSPost2010PropOp37
 70
     1
102
RTVSPost2010Prop38
140
0.0
102
RTVSPost2010PropOp38
 70
     1
102
RTVSPost2010Prop39
140
1.0
102
RTVSPost2010PropOp39
 70
     1
102
RTVSPost2010Prop40
 90
        0
102
RTVSPost2010PropOp40
 70
     1
102
RTVSPost2010Prop41ColorIndex
 90
       18
102
RTVSPost2010Prop41ColorRGB
 90
        0
102
RTVSPost2010PropOp41
 70
     1
102
RTVSPost2010Prop42
 90
       50
102
RTVSPost2010PropOp42
 70
     1
102
RTVSPost2010Prop43
 90
        3
102
RTVSPost2010PropOp43
 70
     1
102
RTVSPost2010Prop44ColorIndex
 90
        5
102
RTVSPost2010Prop44ColorRGB
 90
      255
102
RTVSPost2010PropOp44
 70
     1
102
RTVSPost2010Prop45
280
     0
102
RTVSPost2010PropOp45
 70
     1
102
RTVSPost2010Prop46
 90
       50
102
RTVSPost2010PropOp46
 70
     1
102
RTVSPost2010Prop47
 90
       50
102
RTVSPost2010PropOp47
 70
     1
102
RTVSPost2010Prop48
 90
       50
102
RTVSPost2010PropOp48
 70
     1
102
RTVSPost2010Prop49
280
     0
102
RTVSPost2010PropOp49
 70
     1
102
RTVSPost2010Prop50
 90
       50
102
RTVSPost2010PropOp50
 70
     1
102
RTVSPost2010Prop51ColorIndex
 90
      256
102
RTVSPost2010Prop51ColorRGB
 90
-16777216
102
RTVSPost2010PropOp51
 70
     0
102
RTVSPost2010Prop52
140
1.0
102
RTVSPost2010PropOp52
 70
     0
102
RTVSPost2010Prop53
 90
        2
102
RTVSPost2010PropOp53
 70
     1
102
RTVSPost2010Prop54
  1
strokes_ogs.tif
102
RTVSPost2010PropOp54
 70
     1
102
RTVSPost2010Prop55
280
     0
102
RTVSPost2010PropOp55
 70
     1
102
RTVSPost2010Prop56
140
1.0
102
RTVSPost2010PropOp56
 70
     1
102
RTVSPost2010Prop57
140
1.0
102
RTVSPost2010PropOp57
 70
     1
102
RTVSPropertyOp0
 70
     1
102
RTVSPropertyOp1
 70
     1
102
RTVSPropertyOp2
 70
     1
102
RTVSPropertyOp3
 70
     1
102
RTVSPropertyOp4
 70
     1
102
RTVSPropertyOp5
 70
     1
102
RTVSPropertyOp6
 70
     1
102
RTVSPropertyOp7
 70
     1
102
RTVSPropertyOp8
 70
     1
102
RTVSPropertyOp9
 70
     1
102
RTVSPropertyOp10
 70
     1
102
RTVSPropertyOp11
 70
     1
102
RTVSPropertyOp12
 70
     1
102
RTVSPropertyOp13
 70
     1
102
RTVSPropertyOp14
 70
     1
102
RTVSPropertyOp15
 70
     1
102
RTVSPropertyOp16
 70
     1
102
RTVSPropertyOp17
 70
     1
102
RTVSPropertyOp18
 70
     1
102
RTVSPropertyOp19
 70
     1
102
RTVSPropertyOp20
 70
     1
102
RTVSPropertyOp21
 70
     1
102
RTVSPropertyOp22
 70
     1
102
RTVSPropertyOp23
 70
     1
102
RTVSPropertyOp24
 70
     1
102
RTVSPropertyOp25
 70
     1
102
RTVSPropertyOp26
 70
     1
102
RTVSPropertyOp27
 70
     1
102
RTVSPropertyOp28
 70
     1
102
RTVSPropertyOp29
 70
     1
102
RTVSPropertyOp30
 70
     1
102
RTVSPropertyOp31
 70
     1
102
RTVSPropertyOp32
 70
     1
102
RTVSPropertyOp33
 70
     1
102
RTVSPropertyOp34
 70
     1
102
RTVSPropertyOp35
 70
     1
102
RTVSPropertyOp36
 70
     1
102
RTVSPropertyOp37
 70
     1
102
RTVSPropertyOp38
 70
     1
102
RTVSPropertyOp39
 70
     1
102
RTVSPropertyOp40
 70
     1
102
RTVSPropertyOp41
 70
     1
102
RTVSPropertyOp42
 70
     1
102
RTVSPropertyOp43
 70
     1
102
RTVSPropertyOp44
 70
     1
102
RTVSPropertyOp45
 70
     1
102
RTVSPropertyOp46
 70
     1
102
RTVSPropertyOp47
 70
     1
102
RTVSPropertyOp48
 70
     1
102
RTVSPropertyOp49
 70
     1
102
RTVSPropertyOp50
 70
     1
102
RTVSPropertyOp51
 70
     0
102
RTVSPropertyOp52
 70
     0
102
RTVSPropertyOp53
 70
     1
102
RTVSPropertyOp54
 70
     1
102
RTVSPropertyOp55
 70
     1
102
RTVSPropertyOp56
 70
     1
102
RTVSPropertyOp57
 70
     1
102
RTVSPropertyOp58
 70
     1
102
RTVSPropertyOp59
 70
     1
102
RTVSPropertyOp60
 70
     1
102
RTVSPropertyOp61
 70
     1
102
RTVSPropertyOp62
 70
     1
  0
XRECORD
  5
A861
102
{ACAD_REACTORS
330
A860
102
}
330
A860
100
AcDbXrecord
280
     1
102
RTVSPost2010Prop28
280
     0
102
RTVSPost2010PropOp28
 70
     1
102
RTVSPost2010Prop29
280
     1
102
RTVSPost2010PropOp29
 70
     1
102
RTVSPost2010Prop30
280
     1
102
RTVSPost2010PropOp30
 70
     1
102
RTVSPost2010Prop31
280
     0
102
RTVSPost2010PropOp31
 70
     1
102
RTVSPost2010Prop32
280
     0
102
RTVSPost2010PropOp32
 70
     1
102
RTVSPost2010Prop33
280
     0
102
RTVSPost2010PropOp33
 70
     1
102
RTVSPost2010Prop34
280
     0
102
RTVSPost2010PropOp34
 70
     1
102
RTVSPost2010Prop35
280
     0
102
RTVSPost2010PropOp35
 70
     1
102
RTVSPost2010Prop36
280
     0
102
RTVSPost2010PropOp36
 70
     1
102
RTVSPost2010Prop37
 90
       50
102
RTVSPost2010PropOp37
 70
     1
102
RTVSPost2010Prop38
140
0.0
102
RTVSPost2010PropOp38
 70
     1
102
RTVSPost2010Prop39
140
1.0
102
RTVSPost2010PropOp39
 70
     1
102
RTVSPost2010Prop40
 90
        0
102
RTVSPost2010PropOp40
 70
     1
102
RTVSPost2010Prop41ColorIndex
 90
       18
102
RTVSPost2010Prop41ColorRGB
 90
        0
102
RTVSPost2010PropOp41
 70
     1
102
RTVSPost2010Prop42
 90
       50
102
RTVSPost2010PropOp42
 70
     1
102
RTVSPost2010Prop43
 90
        3
102
RTVSPost2010PropOp43
 70
     1
102
RTVSPost2010Prop44ColorIndex
 90
        5
102
RTVSPost2010Prop44ColorRGB
 90
      255
102
RTVSPost2010PropOp44
 70
     1
102
RTVSPost2010Prop45
280
     0
102
RTVSPost2010PropOp45
 70
     1
102
RTVSPost2010Prop46
 90
       50
102
RTVSPost2010PropOp46
 70
     1
102
RTVSPost2010Prop47
 90
       50
102
RTVSPost2010PropOp47
 70
     1
102
RTVSPost2010Prop48
 90
       50
102
RTVSPost2010PropOp48
 70
     1
102
RTVSPost2010Prop49
280
     0
102
RTVSPost2010PropOp49
 70
     1
102
RTVSPost2010Prop50
 90
       50
102
RTVSPost2010PropOp50
 70
     1
102
RTVSPost2010Prop51ColorIndex
 90
      256
102
RTVSPost2010Prop51ColorRGB
 90
-16777216
102
RTVSPost2010PropOp51
 70
     0
102
RTVSPost2010Prop52
140
1.0
102
RTVSPost2010PropOp52
 70
     0
102
RTVSPost2010Prop53
 90
        2
102
RTVSPost2010PropOp53
 70
     1
102
RTVSPost2010Prop54
  1
strokes_ogs.tif
102
RTVSPost2010PropOp54
 70
     1
102
RTVSPost2010Prop55
280
     0
102
RTVSPost2010PropOp55
 70
     1
102
RTVSPost2010Prop56
140
1.0
102
RTVSPost2010PropOp56
 70
     1
102
RTVSPost2010Prop57
140
1.0
102
RTVSPost2010PropOp57
 70
     1
102
RTVSPropertyOp0
 70
     1
102
RTVSPropertyOp1
 70
     1
102
RTVSPropertyOp2
 70
     1
102
RTVSPropertyOp3
 70
     1
102
RTVSPropertyOp4
 70
     1
102
RTVSPropertyOp5
 70
     1
102
RTVSPropertyOp6
 70
     1
102
RTVSPropertyOp7
 70
     1
102
RTVSPropertyOp8
 70
     1
102
RTVSPropertyOp9
 70
     1
102
RTVSPropertyOp10
 70
     1
102
RTVSPropertyOp11
 70
     1
102
RTVSPropertyOp12
 70
     1
102
RTVSPropertyOp13
 70
     1
102
RTVSPropertyOp14
 70
     1
102
RTVSPropertyOp15
 70
     1
102
RTVSPropertyOp16
 70
     1
102
RTVSPropertyOp17
 70
     1
102
RTVSPropertyOp18
 70
     1
102
RTVSPropertyOp19
 70
     1
102
RTVSPropertyOp20
 70
     1
102
RTVSPropertyOp21
 70
     1
102
RTVSPropertyOp22
 70
     1
102
RTVSPropertyOp23
 70
     1
102
RTVSPropertyOp24
 70
     1
102
RTVSPropertyOp25
 70
     1
102
RTVSPropertyOp26
 70
     1
102
RTVSPropertyOp27
 70
     1
102
RTVSPropertyOp28
 70
     1
102
RTVSPropertyOp29
 70
     1
102
RTVSPropertyOp30
 70
     1
102
RTVSPropertyOp31
 70
     1
102
RTVSPropertyOp32
 70
     1
102
RTVSPropertyOp33
 70
     1
102
RTVSPropertyOp34
 70
     1
102
RTVSPropertyOp35
 70
     1
102
RTVSPropertyOp36
 70
     1
102
RTVSPropertyOp37
 70
     1
102
RTVSPropertyOp38
 70
     1
102
RTVSPropertyOp39
 70
     1
102
RTVSPropertyOp40
 70
     1
102
RTVSPropertyOp41
 70
     1
102
RTVSPropertyOp42
 70
     1
102
RTVSPropertyOp43
 70
     1
102
RTVSPropertyOp44
 70
     1
102
RTVSPropertyOp45
 70
     1
102
RTVSPropertyOp46
 70
     1
102
RTVSPropertyOp47
 70
     1
102
RTVSPropertyOp48
 70
     1
102
RTVSPropertyOp49
 70
     1
102
RTVSPropertyOp50
 70
     1
102
RTVSPropertyOp51
 70
     0
102
RTVSPropertyOp52
 70
     0
102
RTVSPropertyOp53
 70
     1
102
RTVSPropertyOp54
 70
     1
102
RTVSPropertyOp55
 70
     1
102
RTVSPropertyOp56
 70
     1
102
RTVSPropertyOp57
 70
     1
102
RTVSPropertyOp58
 70
     1
102
RTVSPropertyOp59
 70
     1
102
RTVSPropertyOp60
 70
     1
102
RTVSPropertyOp61
 70
     1
102
RTVSPropertyOp62
 70
     1
  0
XRECORD
  5
A863
102
{ACAD_REACTORS
330
A862
102
}
330
A862
100
AcDbXrecord
280
     1
102
RTVSPost2010Prop28
280
     0
102
RTVSPost2010PropOp28
 70
     1
102
RTVSPost2010Prop29
280
     1
102
RTVSPost2010PropOp29
 70
     1
102
RTVSPost2010Prop30
280
     1
102
RTVSPost2010PropOp30
 70
     1
102
RTVSPost2010Prop31
280
     0
102
RTVSPost2010PropOp31
 70
     1
102
RTVSPost2010Prop32
280
     0
102
RTVSPost2010PropOp32
 70
     1
102
RTVSPost2010Prop33
280
     0
102
RTVSPost2010PropOp33
 70
     1
102
RTVSPost2010Prop34
280
     0
102
RTVSPost2010PropOp34
 70
     1
102
RTVSPost2010Prop35
280
     0
102
RTVSPost2010PropOp35
 70
     1
102
RTVSPost2010Prop36
280
     0
102
RTVSPost2010PropOp36
 70
     1
102
RTVSPost2010Prop37
 90
       50
102
RTVSPost2010PropOp37
 70
     1
102
RTVSPost2010Prop38
140
0.0
102
RTVSPost2010PropOp38
 70
     1
102
RTVSPost2010Prop39
140
1.0
102
RTVSPost2010PropOp39
 70
     1
102
RTVSPost2010Prop40
 90
        0
102
RTVSPost2010PropOp40
 70
     1
102
RTVSPost2010Prop41ColorIndex
 90
       18
102
RTVSPost2010Prop41ColorRGB
 90
        0
102
RTVSPost2010PropOp41
 70
     1
102
RTVSPost2010Prop42
 90
       50
102
RTVSPost2010PropOp42
 70
     1
102
RTVSPost2010Prop43
 90
        3
102
RTVSPost2010PropOp43
 70
     1
102
RTVSPost2010Prop44ColorIndex
 90
        5
102
RTVSPost2010Prop44ColorRGB
 90
      255
102
RTVSPost2010PropOp44
 70
     1
102
RTVSPost2010Prop45
280
     0
102
RTVSPost2010PropOp45
 70
     1
102
RTVSPost2010Prop46
 90
       50
102
RTVSPost2010PropOp46
 70
     1
102
RTVSPost2010Prop47
 90
       50
102
RTVSPost2010PropOp47
 70
     1
102
RTVSPost2010Prop48
 90
       50
102
RTVSPost2010PropOp48
 70
     1
102
RTVSPost2010Prop49
280
     0
102
RTVSPost2010PropOp49
 70
     1
102
RTVSPost2010Prop50
 90
       50
102
RTVSPost2010PropOp50
 70
     1
102
RTVSPost2010Prop51ColorIndex
 90
      256
102
RTVSPost2010Prop51ColorRGB
 90
-16777216
102
RTVSPost2010PropOp51
 70
     0
102
RTVSPost2010Prop52
140
1.0
102
RTVSPost2010PropOp52
 70
     0
102
RTVSPost2010Prop53
 90
        2
102
RTVSPost2010PropOp53
 70
     1
102
RTVSPost2010Prop54
  1
strokes_ogs.tif
102
RTVSPost2010PropOp54
 70
     1
102
RTVSPost2010Prop55
280
     0
102
RTVSPost2010PropOp55
 70
     1
102
RTVSPost2010Prop56
140
1.0
102
RTVSPost2010PropOp56
 70
     1
102
RTVSPost2010Prop57
140
1.0
102
RTVSPost2010PropOp57
 70
     1
102
RTVSPropertyOp0
 70
     1
102
RTVSPropertyOp1
 70
     1
102
RTVSPropertyOp2
 70
     1
102
RTVSPropertyOp3
 70
     1
102
RTVSPropertyOp4
 70
     1
102
RTVSPropertyOp5
 70
     1
102
RTVSPropertyOp6
 70
     1
102
RTVSPropertyOp7
 70
     1
102
RTVSPropertyOp8
 70
     1
102
RTVSPropertyOp9
 70
     1
102
RTVSPropertyOp10
 70
     1
102
RTVSPropertyOp11
 70
     1
102
RTVSPropertyOp12
 70
     1
102
RTVSPropertyOp13
 70
     1
102
RTVSPropertyOp14
 70
     1
102
RTVSPropertyOp15
 70
     1
102
RTVSPropertyOp16
 70
     1
102
RTVSPropertyOp17
 70
     1
102
RTVSPropertyOp18
 70
     1
102
RTVSPropertyOp19
 70
     1
102
RTVSPropertyOp20
 70
     1
102
RTVSPropertyOp21
 70
     1
102
RTVSPropertyOp22
 70
     1
102
RTVSPropertyOp23
 70
     1
102
RTVSPropertyOp24
 70
     1
102
RTVSPropertyOp25
 70
     1
102
RTVSPropertyOp26
 70
     1
102
RTVSPropertyOp27
 70
     1
102
RTVSPropertyOp28
 70
     1
102
RTVSPropertyOp29
 70
     1
102
RTVSPropertyOp30
 70
     1
102
RTVSPropertyOp31
 70
     1
102
RTVSPropertyOp32
 70
     1
102
RTVSPropertyOp33
 70
     1
102
RTVSPropertyOp34
 70
     1
102
RTVSPropertyOp35
 70
     1
102
RTVSPropertyOp36
 70
     1
102
RTVSPropertyOp37
 70
     1
102
RTVSPropertyOp38
 70
     1
102
RTVSPropertyOp39
 70
     1
102
RTVSPropertyOp40
 70
     1
102
RTVSPropertyOp41
 70
     1
102
RTVSPropertyOp42
 70
     1
102
RTVSPropertyOp43
 70
     1
102
RTVSPropertyOp44
 70
     1
102
RTVSPropertyOp45
 70
     1
102
RTVSPropertyOp46
 70
     1
102
RTVSPropertyOp47
 70
     1
102
RTVSPropertyOp48
 70
     1
102
RTVSPropertyOp49
 70
     1
102
RTVSPropertyOp50
 70
     1
102
RTVSPropertyOp51
 70
     0
102
RTVSPropertyOp52
 70
     0
102
RTVSPropertyOp53
 70
     1
102
RTVSPropertyOp54
 70
     1
102
RTVSPropertyOp55
 70
     1
102
RTVSPropertyOp56
 70
     1
102
RTVSPropertyOp57
 70
     1
102
RTVSPropertyOp58
 70
     1
102
RTVSPropertyOp59
 70
     1
102
RTVSPropertyOp60
 70
     1
102
RTVSPropertyOp61
 70
     1
102
RTVSPropertyOp62
 70
     1
  0
XRECORD
  5
A859
102
{ACAD_REACTORS
330
A858
102
}
330
A858
100
AcDbXrecord
280
     1
102
RTVSPost2010Prop28
280
     0
102
RTVSPost2010PropOp28
 70
     1
102
RTVSPost2010Prop29
280
     1
102
RTVSPost2010PropOp29
 70
     1
102
RTVSPost2010Prop30
280
     1
102
RTVSPost2010PropOp30
 70
     1
102
RTVSPost2010Prop31
280
     0
102
RTVSPost2010PropOp31
 70
     1
102
RTVSPost2010Prop32
280
     0
102
RTVSPost2010PropOp32
 70
     1
102
RTVSPost2010Prop33
280
     0
102
RTVSPost2010PropOp33
 70
     1
102
RTVSPost2010Prop34
280
     0
102
RTVSPost2010PropOp34
 70
     1
102
RTVSPost2010Prop35
280
     0
102
RTVSPost2010PropOp35
 70
     1
102
RTVSPost2010Prop36
280
     0
102
RTVSPost2010PropOp36
 70
     1
102
RTVSPost2010Prop37
 90
       50
102
RTVSPost2010PropOp37
 70
     1
102
RTVSPost2010Prop38
140
0.0
102
RTVSPost2010PropOp38
 70
     1
102
RTVSPost2010Prop39
140
1.0
102
RTVSPost2010PropOp39
 70
     1
102
RTVSPost2010Prop40
 90
        0
102
RTVSPost2010PropOp40
 70
     1
102
RTVSPost2010Prop41ColorIndex
 90
       18
102
RTVSPost2010Prop41ColorRGB
 90
        0
102
RTVSPost2010PropOp41
 70
     1
102
RTVSPost2010Prop42
 90
       50
102
RTVSPost2010PropOp42
 70
     1
102
RTVSPost2010Prop43
 90
        3
102
RTVSPost2010PropOp43
 70
     1
102
RTVSPost2010Prop44ColorIndex
 90
        5
102
RTVSPost2010Prop44ColorRGB
 90
      255
102
RTVSPost2010PropOp44
 70
     1
102
RTVSPost2010Prop45
280
     0
102
RTVSPost2010PropOp45
 70
     1
102
RTVSPost2010Prop46
 90
       50
102
RTVSPost2010PropOp46
 70
     1
102
RTVSPost2010Prop47
 90
       50
102
RTVSPost2010PropOp47
 70
     1
102
RTVSPost2010Prop48
 90
       50
102
RTVSPost2010PropOp48
 70
     1
102
RTVSPost2010Prop49
280
     0
102
RTVSPost2010PropOp49
 70
     1
102
RTVSPost2010Prop50
 90
       50
102
RTVSPost2010PropOp50
 70
     1
102
RTVSPost2010Prop51ColorIndex
 90
      256
102
RTVSPost2010Prop51ColorRGB
 90
-16777216
102
RTVSPost2010PropOp51
 70
     0
102
RTVSPost2010Prop52
140
1.0
102
RTVSPost2010PropOp52
 70
     0
102
RTVSPost2010Prop53
 90
        2
102
RTVSPost2010PropOp53
 70
     1
102
RTVSPost2010Prop54
  1
strokes_ogs.tif
102
RTVSPost2010PropOp54
 70
     1
102
RTVSPost2010Prop55
280
     0
102
RTVSPost2010PropOp55
 70
     1
102
RTVSPost2010Prop56
140
1.0
102
RTVSPost2010PropOp56
 70
     1
102
RTVSPost2010Prop57
140
1.0
102
RTVSPost2010PropOp57
 70
     1
102
RTVSPropertyOp0
 70
     1
102
RTVSPropertyOp1
 70
     1
102
RTVSPropertyOp2
 70
     1
102
RTVSPropertyOp3
 70
     1
102
RTVSPropertyOp4
 70
     1
102
RTVSPropertyOp5
 70
     1
102
RTVSPropertyOp6
 70
     1
102
RTVSPropertyOp7
 70
     1
102
RTVSPropertyOp8
 70
     1
102
RTVSPropertyOp9
 70
     1
102
RTVSPropertyOp10
 70
     1
102
RTVSPropertyOp11
 70
     1
102
RTVSPropertyOp12
 70
     1
102
RTVSPropertyOp13
 70
     1
102
RTVSPropertyOp14
 70
     1
102
RTVSPropertyOp15
 70
     1
102
RTVSPropertyOp16
 70
     1
102
RTVSPropertyOp17
 70
     1
102
RTVSPropertyOp18
 70
     1
102
RTVSPropertyOp19
 70
     1
102
RTVSPropertyOp20
 70
     1
102
RTVSPropertyOp21
 70
     1
102
RTVSPropertyOp22
 70
     1
102
RTVSPropertyOp23
 70
     1
102
RTVSPropertyOp24
 70
     1
102
RTVSPropertyOp25
 70
     1
102
RTVSPropertyOp26
 70
     1
102
RTVSPropertyOp27
 70
     1
102
RTVSPropertyOp28
 70
     1
102
RTVSPropertyOp29
 70
     1
102
RTVSPropertyOp30
 70
     1
102
RTVSPropertyOp31
 70
     1
102
RTVSPropertyOp32
 70
     1
102
RTVSPropertyOp33
 70
     1
102
RTVSPropertyOp34
 70
     1
102
RTVSPropertyOp35
 70
     1
102
RTVSPropertyOp36
 70
     1
102
RTVSPropertyOp37
 70
     1
102
RTVSPropertyOp38
 70
     1
102
RTVSPropertyOp39
 70
     1
102
RTVSPropertyOp40
 70
     1
102
RTVSPropertyOp41
 70
     1
102
RTVSPropertyOp42
 70
     1
102
RTVSPropertyOp43
 70
     1
102
RTVSPropertyOp44
 70
     1
102
RTVSPropertyOp45
 70
     1
102
RTVSPropertyOp46
 70
     1
102
RTVSPropertyOp47
 70
     1
102
RTVSPropertyOp48
 70
     1
102
RTVSPropertyOp49
 70
     1
102
RTVSPropertyOp50
 70
     1
102
RTVSPropertyOp51
 70
     0
102
RTVSPropertyOp52
 70
     0
102
RTVSPropertyOp53
 70
     1
102
RTVSPropertyOp54
 70
     1
102
RTVSPropertyOp55
 70
     1
102
RTVSPropertyOp56
 70
     1
102
RTVSPropertyOp57
 70
     1
102
RTVSPropertyOp58
 70
     1
102
RTVSPropertyOp59
 70
     1
102
RTVSPropertyOp60
 70
     1
102
RTVSPropertyOp61
 70
     1
102
RTVSPropertyOp62
 70
     1
  0
XRECORD
  5
A84D
102
{ACAD_REACTORS
330
A84C
102
}
330
A84C
100
AcDbXrecord
280
     1
102
RTVSPost2010Prop28
280
     0
102
RTVSPost2010PropOp28
 70
     1
102
RTVSPost2010Prop29
280
     1
102
RTVSPost2010PropOp29
 70
     1
102
RTVSPost2010Prop30
280
     1
102
RTVSPost2010PropOp30
 70
     1
102
RTVSPost2010Prop31
280
     0
102
RTVSPost2010PropOp31
 70
     1
102
RTVSPost2010Prop32
280
     0
102
RTVSPost2010PropOp32
 70
     1
102
RTVSPost2010Prop33
280
     0
102
RTVSPost2010PropOp33
 70
     1
102
RTVSPost2010Prop34
280
     0
102
RTVSPost2010PropOp34
 70
     1
102
RTVSPost2010Prop35
280
     0
102
RTVSPost2010PropOp35
 70
     1
102
RTVSPost2010Prop36
280
     0
102
RTVSPost2010PropOp36
 70
     1
102
RTVSPost2010Prop37
 90
       50
102
RTVSPost2010PropOp37
 70
     1
102
RTVSPost2010Prop38
140
0.0
102
RTVSPost2010PropOp38
 70
     1
102
RTVSPost2010Prop39
140
1.0
102
RTVSPost2010PropOp39
 70
     1
102
RTVSPost2010Prop40
 90
        0
102
RTVSPost2010PropOp40
 70
     1
102
RTVSPost2010Prop41ColorIndex
 90
       18
102
RTVSPost2010Prop41ColorRGB
 90
        0
102
RTVSPost2010PropOp41
 70
     1
102
RTVSPost2010Prop42
 90
       50
102
RTVSPost2010PropOp42
 70
     1
102
RTVSPost2010Prop43
 90
        3
102
RTVSPost2010PropOp43
 70
     1
102
RTVSPost2010Prop44ColorIndex
 90
        5
102
RTVSPost2010Prop44ColorRGB
 90
      255
102
RTVSPost2010PropOp44
 70
     1
102
RTVSPost2010Prop45
280
     0
102
RTVSPost2010PropOp45
 70
     1
102
RTVSPost2010Prop46
 90
       50
102
RTVSPost2010PropOp46
 70
     1
102
RTVSPost2010Prop47
 90
       50
102
RTVSPost2010PropOp47
 70
     1
102
RTVSPost2010Prop48
 90
       50
102
RTVSPost2010PropOp48
 70
     1
102
RTVSPost2010Prop49
280
     0
102
RTVSPost2010PropOp49
 70
     1
102
RTVSPost2010Prop50
 90
       50
102
RTVSPost2010PropOp50
 70
     1
102
RTVSPost2010Prop51ColorIndex
 90
      256
102
RTVSPost2010Prop51ColorRGB
 90
-16777216
102
RTVSPost2010PropOp51
 70
     0
102
RTVSPost2010Prop52
140
1.0
102
RTVSPost2010PropOp52
 70
     0
102
RTVSPost2010Prop53
 90
        2
102
RTVSPost2010PropOp53
 70
     1
102
RTVSPost2010Prop54
  1
strokes_ogs.tif
102
RTVSPost2010PropOp54
 70
     1
102
RTVSPost2010Prop55
280
     0
102
RTVSPost2010PropOp55
 70
     1
102
RTVSPost2010Prop56
140
1.0
102
RTVSPost2010PropOp56
 70
     1
102
RTVSPost2010Prop57
140
1.0
102
RTVSPost2010PropOp57
 70
     1
102
RTVSPropertyOp0
 70
     1
102
RTVSPropertyOp1
 70
     1
102
RTVSPropertyOp2
 70
     1
102
RTVSPropertyOp3
 70
     1
102
RTVSPropertyOp4
 70
     1
102
RTVSPropertyOp5
 70
     1
102
RTVSPropertyOp6
 70
     1
102
RTVSPropertyOp7
 70
     1
102
RTVSPropertyOp8
 70
     1
102
RTVSPropertyOp9
 70
     1
102
RTVSPropertyOp10
 70
     1
102
RTVSPropertyOp11
 70
     1
102
RTVSPropertyOp12
 70
     1
102
RTVSPropertyOp13
 70
     1
102
RTVSPropertyOp14
 70
     1
102
RTVSPropertyOp15
 70
     1
102
RTVSPropertyOp16
 70
     1
102
RTVSPropertyOp17
 70
     1
102
RTVSPropertyOp18
 70
     1
102
RTVSPropertyOp19
 70
     1
102
RTVSPropertyOp20
 70
     1
102
RTVSPropertyOp21
 70
     1
102
RTVSPropertyOp22
 70
     1
102
RTVSPropertyOp23
 70
     1
102
RTVSPropertyOp24
 70
     1
102
RTVSPropertyOp25
 70
     1
102
RTVSPropertyOp26
 70
     1
102
RTVSPropertyOp27
 70
     1
102
RTVSPropertyOp28
 70
     1
102
RTVSPropertyOp29
 70
     1
102
RTVSPropertyOp30
 70
     1
102
RTVSPropertyOp31
 70
     1
102
RTVSPropertyOp32
 70
     1
102
RTVSPropertyOp33
 70
     1
102
RTVSPropertyOp34
 70
     1
102
RTVSPropertyOp35
 70
     1
102
RTVSPropertyOp36
 70
     1
102
RTVSPropertyOp37
 70
     1
102
RTVSPropertyOp38
 70
     1
102
RTVSPropertyOp39
 70
     1
102
RTVSPropertyOp40
 70
     1
102
RTVSPropertyOp41
 70
     1
102
RTVSPropertyOp42
 70
     1
102
RTVSPropertyOp43
 70
     1
102
RTVSPropertyOp44
 70
     1
102
RTVSPropertyOp45
 70
     1
102
RTVSPropertyOp46
 70
     1
102
RTVSPropertyOp47
 70
     1
102
RTVSPropertyOp48
 70
     1
102
RTVSPropertyOp49
 70
     1
102
RTVSPropertyOp50
 70
     1
102
RTVSPropertyOp51
 70
     0
102
RTVSPropertyOp52
 70
     0
102
RTVSPropertyOp53
 70
     1
102
RTVSPropertyOp54
 70
     1
102
RTVSPropertyOp55
 70
     1
102
RTVSPropertyOp56
 70
     1
102
RTVSPropertyOp57
 70
     1
102
RTVSPropertyOp58
 70
     1
102
RTVSPropertyOp59
 70
     1
102
RTVSPropertyOp60
 70
     1
102
RTVSPropertyOp61
 70
     1
102
RTVSPropertyOp62
 70
     1
  0
XRECORD
  5
A865
102
{ACAD_REACTORS
330
A864
102
}
330
A864
100
AcDbXrecord
280
     1
102
RTVSPost2010Prop28
280
     0
102
RTVSPost2010PropOp28
 70
     1
102
RTVSPost2010Prop29
280
     1
102
RTVSPost2010PropOp29
 70
     1
102
RTVSPost2010Prop30
280
     1
102
RTVSPost2010PropOp30
 70
     1
102
RTVSPost2010Prop31
280
     0
102
RTVSPost2010PropOp31
 70
     1
102
RTVSPost2010Prop32
280
     0
102
RTVSPost2010PropOp32
 70
     1
102
RTVSPost2010Prop33
280
     0
102
RTVSPost2010PropOp33
 70
     1
102
RTVSPost2010Prop34
280
     0
102
RTVSPost2010PropOp34
 70
     1
102
RTVSPost2010Prop35
280
     0
102
RTVSPost2010PropOp35
 70
     1
102
RTVSPost2010Prop36
280
     0
102
RTVSPost2010PropOp36
 70
     1
102
RTVSPost2010Prop37
 90
       50
102
RTVSPost2010PropOp37
 70
     1
102
RTVSPost2010Prop38
140
0.0
102
RTVSPost2010PropOp38
 70
     1
102
RTVSPost2010Prop39
140
1.0
102
RTVSPost2010PropOp39
 70
     1
102
RTVSPost2010Prop40
 90
        0
102
RTVSPost2010PropOp40
 70
     1
102
RTVSPost2010Prop41ColorIndex
 90
       18
102
RTVSPost2010Prop41ColorRGB
 90
        0
102
RTVSPost2010PropOp41
 70
     1
102
RTVSPost2010Prop42
 90
       50
102
RTVSPost2010PropOp42
 70
     1
102
RTVSPost2010Prop43
 90
        3
102
RTVSPost2010PropOp43
 70
     1
102
RTVSPost2010Prop44ColorIndex
 90
        5
102
RTVSPost2010Prop44ColorRGB
 90
      255
102
RTVSPost2010PropOp44
 70
     1
102
RTVSPost2010Prop45
280
     0
102
RTVSPost2010PropOp45
 70
     1
102
RTVSPost2010Prop46
 90
       50
102
RTVSPost2010PropOp46
 70
     1
102
RTVSPost2010Prop47
 90
       50
102
RTVSPost2010PropOp47
 70
     1
102
RTVSPost2010Prop48
 90
       50
102
RTVSPost2010PropOp48
 70
     1
102
RTVSPost2010Prop49
280
     0
102
RTVSPost2010PropOp49
 70
     1
102
RTVSPost2010Prop50
 90
       50
102
RTVSPost2010PropOp50
 70
     1
102
RTVSPost2010Prop51ColorIndex
 90
      256
102
RTVSPost2010Prop51ColorRGB
 90
-16777216
102
RTVSPost2010PropOp51
 70
     0
102
RTVSPost2010Prop52
140
1.0
102
RTVSPost2010PropOp52
 70
     0
102
RTVSPost2010Prop53
 90
        2
102
RTVSPost2010PropOp53
 70
     1
102
RTVSPost2010Prop54
  1
strokes_ogs.tif
102
RTVSPost2010PropOp54
 70
     1
102
RTVSPost2010Prop55
280
     0
102
RTVSPost2010PropOp55
 70
     1
102
RTVSPost2010Prop56
140
1.0
102
RTVSPost2010PropOp56
 70
     1
102
RTVSPost2010Prop57
140
1.0
102
RTVSPost2010PropOp57
 70
     1
102
RTVSPropertyOp0
 70
     1
102
RTVSPropertyOp1
 70
     1
102
RTVSPropertyOp2
 70
     1
102
RTVSPropertyOp3
 70
     1
102
RTVSPropertyOp4
 70
     1
102
RTVSPropertyOp5
 70
     1
102
RTVSPropertyOp6
 70
     1
102
RTVSPropertyOp7
 70
     1
102
RTVSPropertyOp8
 70
     1
102
RTVSPropertyOp9
 70
     1
102
RTVSPropertyOp10
 70
     1
102
RTVSPropertyOp11
 70
     1
102
RTVSPropertyOp12
 70
     1
102
RTVSPropertyOp13
 70
     1
102
RTVSPropertyOp14
 70
     1
102
RTVSPropertyOp15
 70
     1
102
RTVSPropertyOp16
 70
     1
102
RTVSPropertyOp17
 70
     1
102
RTVSPropertyOp18
 70
     1
102
RTVSPropertyOp19
 70
     1
102
RTVSPropertyOp20
 70
     1
102
RTVSPropertyOp21
 70
     1
102
RTVSPropertyOp22
 70
     1
102
RTVSPropertyOp23
 70
     1
102
RTVSPropertyOp24
 70
     1
102
RTVSPropertyOp25
 70
     1
102
RTVSPropertyOp26
 70
     1
102
RTVSPropertyOp27
 70
     1
102
RTVSPropertyOp28
 70
     1
102
RTVSPropertyOp29
 70
     1
102
RTVSPropertyOp30
 70
     1
102
RTVSPropertyOp31
 70
     1
102
RTVSPropertyOp32
 70
     1
102
RTVSPropertyOp33
 70
     1
102
RTVSPropertyOp34
 70
     1
102
RTVSPropertyOp35
 70
     1
102
RTVSPropertyOp36
 70
     1
102
RTVSPropertyOp37
 70
     1
102
RTVSPropertyOp38
 70
     1
102
RTVSPropertyOp39
 70
     1
102
RTVSPropertyOp40
 70
     1
102
RTVSPropertyOp41
 70
     1
102
RTVSPropertyOp42
 70
     1
102
RTVSPropertyOp43
 70
     1
102
RTVSPropertyOp44
 70
     1
102
RTVSPropertyOp45
 70
     1
102
RTVSPropertyOp46
 70
     1
102
RTVSPropertyOp47
 70
     1
102
RTVSPropertyOp48
 70
     1
102
RTVSPropertyOp49
 70
     1
102
RTVSPropertyOp50
 70
     1
102
RTVSPropertyOp51
 70
     0
102
RTVSPropertyOp52
 70
     0
102
RTVSPropertyOp53
 70
     1
102
RTVSPropertyOp54
 70
     1
102
RTVSPropertyOp55
 70
     1
102
RTVSPropertyOp56
 70
     1
102
RTVSPropertyOp57
 70
     1
102
RTVSPropertyOp58
 70
     1
102
RTVSPropertyOp59
 70
     1
102
RTVSPropertyOp60
 70
     1
102
RTVSPropertyOp61
 70
     1
102
RTVSPropertyOp62
 70
     1
  0
ENDSEC
  0
EOF
