  0
SECTION
  2
HEADER
  9
$ACADVER
  1
AC1015
  9
$ACADMAINTVER
 70
    20
  9
$DWGCODEPAGE
  3
ANSI_932
  9
$INSBASE
 10
0.0
 20
0.0
 30
0.0
  9
$EXTMIN
 10
10.0
 20
9.999999999999998
 30
0.0
  9
$EXTMAX
 10
546.220223
 20
375.871609
 30
0.0
  9
$LIMMIN
 10
0.0
 20
0.0
  9
$LIMMAX
 10
572.552
 20
394.713879
  9
$ORTHOMODE
 70
     0
  9
$REGENMODE
 70
     1
  9
$FILLMODE
 70
     1
  9
$QTEXTMODE
 70
     0
  9
$MIRRTEXT
 70
     1
  9
$LTSCALE
 40
20.0
  9
$ATTMODE
 70
     1
  9
$TEXTSIZE
 40
5.0
  9
$TRACEWID
 40
1.0
  9
$TEXTSTYLE
  7
STANDARD
  9
$CLAYER
  8
0
  9
$CELTYPE
  6
BYLAYER
  9
$CECOLOR
 62
   256
  9
$CELTSCALE
 40
1.0
  9
$DISPSILH
 70
     0
  9
$DIMSCALE
 40
1.0
  9
$DIMASZ
 40
2.5
  9
$DIMEXO
 40
1.0
  9
$DIMDLI
 40
10.0
  9
$DIMRND
 40
0.0
  9
$DIMDLE
 40
0.0
  9
$DIMEXE
 40
1.0
  9
$DIMTP
 40
0.0
  9
$DIMTM
 40
0.0
  9
$DIMTXT
 40
3.2
  9
$DIMCEN
 40
0.0
  9
$DIMTSZ
 40
0.0
  9
$DIMTOL
 70
     0
  9
$DIMLIM
 70
     0
  9
$DIMTIH
 70
     0
  9
$DIMTOH
 70
     0
  9
$DIMSE1
 70
     0
  9
$DIMSE2
 70
     0
  9
$DIMTAD
 70
     3
  9
$DIMZIN
 70
     8
  9
$DIMBLK
  1

  9
$DIMASO
 70
     1
  9
$DIMSHO
 70
     1
  9
$DIMPOST
  1

  9
$DIMAPOST
  1

  9
$DIMALT
 70
     0
  9
$DIMALTD
 70
     2
  9
$DIMALTF
 40
25.4
  9
$DIMLFAC
 40
1.0
  9
$DIMTOFL
 70
     1
  9
$DIMTVP
 40
0.0
  9
$DIMTIX
 70
     0
  9
$DIMSOXD
 70
     0
  9
$DIMSAH
 70
     1
  9
$DIMBLK1
  1

  9
$DIMBLK2
  1

  9
$DIMSTYLE
  2
STANDARD
  9
$DIMCLRD
 70
     0
  9
$DIMCLRE
 70
     0
  9
$DIMCLRT
 70
     0
  9
$DIMTFAC
 40
1.0
  9
$DIMGAP
 40
1.0
  9
$DIMJUST
 70
     0
  9
$DIMSD1
 70
     0
  9
$DIMSD2
 70
     0
  9
$DIMTOLJ
 70
     1
  9
$DIMTZIN
 70
     0
  9
$DIMALTZ
 70
     0
  9
$DIMALTTZ
 70
     0
  9
$DIMUPT
 70
     0
  9
$DIMDEC
 70
     4
  9
$DIMTDEC
 70
     4
  9
$DIMALTU
 70
     2
  9
$DIMALTTD
 70
     2
  9
$DIMTXSTY
  7
STANDARD
  9
$DIMAUNIT
 70
     0
  9
$DIMADEC
 70
     0
  9
$DIMALTRND
 40
0.0
  9
$DIMAZIN
 70
     0
  9
$DIMDSEP
 70
    46
  9
$DIMATFIT
 70
     3
  9
$DIMFRAC
 70
     0
  9
$DIMLDRBLK
  1

  9
$DIMLUNIT
 70
     2
  9
$DIMLWD
 70
    -2
  9
$DIMLWE
 70
    -2
  9
$DIMTMOVE
 70
     0
  9
$LUNITS
 70
     2
  9
$LUPREC
 70
     4
  9
$SKETCHINC
 40
1.0
  9
$FILLETRAD
 40
2.0
  9
$AUNITS
 70
     0
  9
$AUPREC
 70
     2
  9
$MENU
  1
.
  9
$ELEVATION
 40
0.0
  9
$PELEVATION
 40
0.0
  9
$THICKNESS
 40
0.0
  9
$LIMCHECK
 70
     0
  9
$CHAMFERA
 40
10.0
  9
$CHAMFERB
 40
10.0
  9
$CHAMFERC
 40
0.0
  9
$CHAMFERD
 40
0.0
  9
$SKPOLY
 70
     0
  9
$TDCREATE
 40
2451301.432228357
  9
$TDUCREATE
 40
2451301.057228357
  9
$TDUPDATE
 40
2457192.689983310
  9
$TDUUPDATE
 40
2457192.314983310
  9
$TDINDWG
 40
0.0409393981
  9
$TDUSRTIMER
 40
0.0409389005
  9
$USRTIMER
 70
     1
  9
$ANGBASE
 50
0.0
  9
$ANGDIR
 70
     0
  9
$PDMODE
 70
     0
  9
$PDSIZE
 40
0.0
  9
$PLINEWID
 40
0.0
  9
$SPLFRAME
 70
     0
  9
$SPLINETYPE
 70
     6
  9
$SPLINESEGS
 70
     8
  9
$HANDSEED
  5
A391
  9
$SURFTAB1
 70
     6
  9
$SURFTAB2
 70
     6
  9
$SURFTYPE
 70
     6
  9
$SURFU
 70
     6
  9
$SURFV
 70
     6
  9
$UCSBASE
  2

  9
$UCSNAME
  2

  9
$UCSORG
 10
0.0
 20
0.0
 30
0.0
  9
$UCSXDIR
 10
1.0
 20
0.0
 30
0.0
  9
$UCSYDIR
 10
0.0
 20
1.0
 30
0.0
  9
$UCSORTHOREF
  2

  9
$UCSORTHOVIEW
 70
     0
  9
$UCSORGTOP
 10
0.0
 20
0.0
 30
0.0
  9
$UCSORGBOTTOM
 10
0.0
 20
0.0
 30
0.0
  9
$UCSORGLEFT
 10
0.0
 20
0.0
 30
0.0
  9
$UCSORGRIGHT
 10
0.0
 20
0.0
 30
0.0
  9
$UCSORGFRONT
 10
0.0
 20
0.0
 30
0.0
  9
$UCSORGBACK
 10
0.0
 20
0.0
 30
0.0
  9
$PUCSBASE
  2

  9
$PUCSNAME
  2

  9
$PUCSORG
 10
0.0
 20
0.0
 30
0.0
  9
$PUCSXDIR
 10
1.0
 20
0.0
 30
0.0
  9
$PUCSYDIR
 10
0.0
 20
1.0
 30
0.0
  9
$PUCSORTHOREF
  2

  9
$PUCSORTHOVIEW
 70
     0
  9
$PUCSORGTOP
 10
0.0
 20
0.0
 30
0.0
  9
$PUCSORGBOTTOM
 10
0.0
 20
0.0
 30
0.0
  9
$PUCSORGLEFT
 10
0.0
 20
0.0
 30
0.0
  9
$PUCSORGRIGHT
 10
0.0
 20
0.0
 30
0.0
  9
$PUCSORGFRONT
 10
0.0
 20
0.0
 30
0.0
  9
$PUCSORGBACK
 10
0.0
 20
0.0
 30
0.0
  9
$USERI1
 70
     0
  9
$USERI2
 70
     0
  9
$USERI3
 70
     0
  9
$USERI4
 70
     0
  9
$USERI5
 70
     0
  9
$USERR1
 40
0.0
  9
$USERR2
 40
0.0
  9
$USERR3
 40
0.0
  9
$USERR4
 40
0.0
  9
$USERR5
 40
0.0
  9
$WORLDVIEW
 70
     1
  9
$SHADEDGE
 70
     3
  9
$SHADEDIF
 70
    70
  9
$TILEMODE
 70
     1
  9
$MAXACTVP
 70
    16
  9
$PINSBASE
 10
0.0
 20
0.0
 30
0.0
  9
$PLIMCHECK
 70
     0
  9
$PEXTMIN
 10
1.000000000000000E+20
 20
1.000000000000000E+20
 30
1.000000000000000E+20
  9
$PEXTMAX
 10
-1.000000000000000E+20
 20
-1.000000000000000E+20
 30
-1.000000000000000E+20
  9
$PLIMMIN
 10
0.0
 20
0.0
  9
$PLIMMAX
 10
420.0
 20
297.0
  9
$UNITMODE
 70
     0
  9
$VISRETAIN
 70
     0
  9
$PLINEGEN
 70
     0
  9
$PSLTSCALE
 70
     0
  9
$TREEDEPTH
 70
  3020
  9
$CMLSTYLE
  2
STANDARD
  9
$CMLJUST
 70
     0
  9
$CMLSCALE
 40
1.0
  9
$PROXYGRAPHICS
 70
     1
  9
$MEASUREMENT
 70
     0
  9
$CELWEIGHT
370
    -1
  9
$ENDCAPS
280
     0
  9
$JOINSTYLE
280
     0
  9
$LWDISPLAY
290
     0
  9
$INSUNITS
 70
     0
  9
$HYPERLINKBASE
  1

  9
$STYLESHEET
  1

  9
$XEDIT
290
     1
  9
$CEPSNTYPE
380
     0
  9
$PSTYLEMODE
290
     1
  9
$FINGERPRINTGUID
  2
{77A7AA4C-107A-410D-BD56-0728A27DAD2A}
  9
$VERSIONGUID
  2
{112B8320-A1F6-4D51-B5E9-D137D835021D}
  9
$EXTNAMES
290
     1
  9
$PSVPSCALE
 40
0.0
  9
$OLESTARTUP
290
     0
  0
ENDSEC
  0
SECTION
  2
CLASSES
  0
CLASS
  1
ACDBDICTIONARYWDFLT
  2
AcDbDictionaryWithDefault
  3
ObjectDBX Classes
 90
        0
280
     0
281
     0
  0
CLASS
  1
ACDBPLACEHOLDER
  2
AcDbPlaceHolder
  3
ObjectDBX Classes
 90
        0
280
     0
281
     0
  0
CLASS
  1
LAYOUT
  2
AcDbLayout
  3
ObjectDBX Classes
 90
        0
280
     0
281
     0
  0
CLASS
  1
DICTIONARYVAR
  2
AcDbDictionaryVar
  3
ObjectDBX Classes
 90
        0
280
     0
281
     0
  0
CLASS
  1
MATERIAL
  2
AcDbMaterial
  3
ObjectDBX Classes
 90
     1153
280
     0
281
     0
  0
CLASS
  1
VISUALSTYLE
  2
AcDbVisualStyle
  3
ObjectDBX Classes
 90
     4095
280
     0
281
     0
  0
CLASS
  1
TABLESTYLE
  2
AcDbTableStyle
  3
ObjectDBX Classes
 90
     4095
280
     0
281
     0
  0
CLASS
  1
SCALE
  2
AcDbScale
  3
ObjectDBX Classes
 90
     1153
280
     0
281
     0
  0
CLASS
  1
MLEADERSTYLE
  2
AcDbMLeaderStyle
  3
ACDB_MLEADERSTYLE_CLASS
 90
     4095
280
     0
281
     0
  0
CLASS
  1
ACDBSECTIONVIEWSTYLE
  2
AcDbSectionViewStyle
  3
ObjectDBX Classes
 90
     1025
280
     0
281
     0
  0
CLASS
  1
ACDBDETAILVIEWSTYLE
  2
AcDbDetailViewStyle
  3
ObjectDBX Classes
 90
     1025
280
     0
281
     0
  0
CLASS
  1
CELLSTYLEMAP
  2
AcDbCellStyleMap
  3
ObjectDBX Classes
 90
     1152
280
     0
281
     0
  0
ENDSEC
  0
SECTION
  2
TABLES
  0
TABLE
  2
VPORT
  5
9E5C
330
0
100
AcDbSymbolTable
 70
     1
  0
VPORT
  5
A2DC
330
9E5C
100
AcDbSymbolTableRecord
100
AcDbViewportTableRecord
  2
*ACTIVE
 70
     0
 10
0.0
 20
0.0
 11
1.0
 21
1.0
 12
418.9375419463472
 22
192.9301413863802
 13
0.0
 23
0.0
 14
10.0
 24
10.0
 15
10.0
 25
10.0
 16
0.0
 26
0.0
 36
1.0
 17
0.0
 27
0.0
 37
0.0
 40
368.7770843634535
 41
2.35006605019815
 42
50.0
 43
0.0
 44
0.0
 50
0.0
 51
0.0
 71
     0
 72
   100
 73
     1
 74
     0
 75
     0
 76
     0
 77
     0
 78
     0
281
     0
 65
     1
110
0.0
120
0.0
130
0.0
111
1.0
121
0.0
131
0.0
112
0.0
122
1.0
132
0.0
 79
     0
146
0.0
1001
ACAD_NAV_VCDISPLAY
1070
     3
  0
ENDTAB
  0
TABLE
  2
LTYPE
  5
9E59
330
0
100
AcDbSymbolTable
 70
     4
  0
LTYPE
  5
9E67
330
9E59
100
AcDbSymbolTableRecord
100
AcDbLinetypeTableRecord
  2
BYBLOCK
 70
     0
  3

 72
    65
 73
     0
 40
0.0
  0
LTYPE
  5
9E68
330
9E59
100
AcDbSymbolTableRecord
100
AcDbLinetypeTableRecord
  2
BYLAYER
 70
     0
  3

 72
    65
 73
     0
 40
0.0
  0
LTYPE
  5
9E69
330
9E59
100
AcDbSymbolTableRecord
100
AcDbLinetypeTableRecord
  2
CONTINUOUS
 70
     0
  3
Solid line
 72
    65
 73
     0
 40
0.0
  0
LTYPE
  5
9E77
330
9E59
100
AcDbSymbolTableRecord
100
AcDbLinetypeTableRecord
  2
DASHED
 70
     0
  3
__ __ __ __ __ __ __ __ __ __ __ __ __ __ __ __
 72
    65
 73
     2
 40
0.75
 49
0.5
 74
     0
 49
-0.25
 74
     0
  0
LTYPE
  5
9E78
330
9E59
100
AcDbSymbolTableRecord
100
AcDbLinetypeTableRecord
  2
CENTER
 70
     0
  3
____ _ ____ _ ____ _ ____ _ ____ _ ____ _ ____ 
 72
    65
 73
     4
 40
2.0
 49
1.25
 74
     0
 49
-0.25
 74
     0
 49
0.25
 74
     0
 49
-0.25
 74
     0
  0
LTYPE
  5
9E79
330
9E59
100
AcDbSymbolTableRecord
100
AcDbLinetypeTableRecord
  2
PHANTOM
 70
     0
  3
______  __  __  ______  __  __  ______  __  __ 
 72
    65
 73
     6
 40
2.5
 49
1.25
 74
     0
 49
-0.25
 74
     0
 49
0.25
 74
     0
 49
-0.25
 74
     0
 49
0.25
 74
     0
 49
-0.25
 74
     0
  0
ENDTAB
  0
TABLE
  2
LAYER
  5
9E56
330
0
100
AcDbSymbolTable
 70
     8
  0
LAYER
  5
9E64
102
{ACAD_XDICTIONARY
360
A335
102
}
330
9E56
100
AcDbSymbolTableRecord
100
AcDbLayerTableRecord
  2
0
 70
     0
 62
     7
  6
CONTINUOUS
370
    -3
390
A2E3
  0
LAYER
  5
9E7A
102
{ACAD_XDICTIONARY
360
A337
102
}
330
9E56
100
AcDbSymbolTableRecord
100
AcDbLayerTableRecord
  2
4
 70
     0
 62
     1
  6
CENTER
370
    -3
390
A2E3
  0
LAYER
  5
9E7B
102
{ACAD_XDICTIONARY
360
A339
102
}
330
9E56
100
AcDbSymbolTableRecord
100
AcDbLayerTableRecord
  2
5
 70
     0
 62
     6
  6
PHANTOM
370
    -3
390
A2E3
  0
LAYER
  5
9E7C
102
{ACAD_XDICTIONARY
360
A33B
102
}
330
9E56
100
AcDbSymbolTableRecord
100
AcDbLayerTableRecord
  2
1
 70
     0
 62
     7
  6
CONTINUOUS
370
    -3
390
A2E3
  0
LAYER
  5
9E7D
102
{ACAD_XDICTIONARY
360
A33D
102
}
330
9E56
100
AcDbSymbolTableRecord
100
AcDbLayerTableRecord
  2
2
 70
     0
 62
     4
  6
CONTINUOUS
370
    -3
390
A2E3
  0
LAYER
  5
9E7E
102
{ACAD_XDICTIONARY
360
A33F
102
}
330
9E56
100
AcDbSymbolTableRecord
100
AcDbLayerTableRecord
  2
3
 70
     0
 62
     2
  6
DASHED
370
    -3
390
A2E3
  0
LAYER
  5
9E7F
102
{ACAD_XDICTIONARY
360
A341
102
}
330
9E56
100
AcDbSymbolTableRecord
100
AcDbLayerTableRecord
  2
6
 70
     0
 62
     5
  6
CONTINUOUS
370
    -3
390
A2E3
  0
LAYER
  5
9E80
102
{ACAD_XDICTIONARY
360
A343
102
}
330
9E56
100
AcDbSymbolTableRecord
100
AcDbLayerTableRecord
  2
7
 70
     0
 62
     3
  6
CONTINUOUS
370
    -3
390
A2E3
  0
ENDTAB
  0
TABLE
  2
STYLE
  5
9E57
330
0
100
AcDbSymbolTable
 70
     1
  0
STYLE
  5
9E65
330
9E57
100
AcDbSymbolTableRecord
100
AcDbTextStyleTableRecord
  2
STANDARD
 70
     0
 40
0.0
 41
1.0
 50
0.0
 71
     0
 42
5.0
  3
txt
  4

  0
ENDTAB
  0
TABLE
  2
VIEW
  5
9E5A
330
0
100
AcDbSymbolTable
 70
     0
  0
ENDTAB
  0
TABLE
  2
UCS
  5
9E5B
330
0
100
AcDbSymbolTable
 70
     0
  0
ENDTAB
  0
TABLE
  2
APPID
  5
9E5D
330
0
100
AcDbSymbolTable
 70
     3
  0
APPID
  5
9E66
330
9E5D
100
AcDbSymbolTableRecord
100
AcDbRegAppTableRecord
  2
ACAD
 70
     0
  0
APPID
  5
A34F
330
9E5D
100
AcDbSymbolTableRecord
100
AcDbRegAppTableRecord
  2
ACAD_NAV_VCDISPLAY
 70
     0
  0
APPID
  5
A388
330
9E5D
100
AcDbSymbolTableRecord
100
AcDbRegAppTableRecord
  2
ACAD_MLEADERVER
 70
     0
  0
ENDTAB
  0
TABLE
  2
DIMSTYLE
  5
9E5E
330
0
100
AcDbSymbolTable
 70
     1
100
AcDbDimStyleTable
 71
     0
  0
DIMSTYLE
105
9E82
330
9E5E
100
AcDbSymbolTableRecord
100
AcDbDimStyleTableRecord
  2
STANDARD
 70
     0
 41
2.5
 42
1.0
 43
10.0
 44
1.0
 73
     0
 74
     0
 77
     3
 78
     8
140
3.2
141
0.0
147
1.0
172
     1
173
     1
284
     8
285
     8
286
     8
340
9E65
  0
ENDTAB
  0
TABLE
  2
BLOCK_RECORD
  5
9E55
330
0
100
AcDbSymbolTable
 70
     0
  0
BLOCK_RECORD
  5
9E72
102
{ACAD_XDICTIONARY
360
A1B7
102
}
330
9E55
100
AcDbSymbolTableRecord
100
AcDbBlockTableRecord
  2
*MODEL_SPACE
340
A331
  0
BLOCK_RECORD
  5
9E6E
102
{ACAD_XDICTIONARY
360
A1B5
102
}
330
9E55
100
AcDbSymbolTableRecord
100
AcDbBlockTableRecord
  2
*PAPER_SPACE
340
A332
  0
ENDTAB
  0
ENDSEC
  0
SECTION
  2
BLOCKS
  0
BLOCK
  5
9E73
330
9E72
100
AcDbEntity
  8
0
100
AcDbBlockBegin
  2
*MODEL_SPACE
 70
     0
 10
0.0
 20
0.0
 30
0.0
  3
*MODEL_SPACE
  1

  0
ENDBLK
  5
9E74
330
9E72
100
AcDbEntity
  8
0
100
AcDbBlockEnd
  0
BLOCK
  5
9E6F
330
9E6E
100
AcDbEntity
 67
     1
  8
0
100
AcDbBlockBegin
  2
*PAPER_SPACE
 70
     0
 10
0.0
 20
0.0
 30
0.0
  3
*PAPER_SPACE
  1

  0
ENDBLK
  5
9E70
330
9E6E
100
AcDbEntity
 67
     1
  8
0
100
AcDbBlockEnd
  0
ENDSEC
  0
SECTION
  2
ENTITIES
  0
TEXT
  5
9E8A
330
9E72
100
AcDbEntity
  8
7
  6
Continuous
100
AcDbText
 10
10.0
 20
18.0
 30
0.0
 40
3.0
  1
TYPE No.TCA-415E-R100
100
AcDbText
  0
TEXT
  5
9E8B
330
9E72
100
AcDbEntity
  8
7
  6
Continuous
100
AcDbText
 10
10.0
 20
26.0
 30
0.0
 40
3.0
  1
CODE No.9755
100
AcDbText
  0
TEXT
  5
9E8C
330
9E72
100
AcDbEntity
  8
1
  6
Continuous
100
AcDbText
 10
10.0
 20
10.0
 30
0.0
 40
1.399999999999999
  1
LAYER
100
AcDbText
  0
TEXT
  5
9E8D
330
9E72
100
AcDbEntity
  8
1
  6
Continuous
100
AcDbText
 10
17.97951099999998
 20
10.04873699999998
 30
0.0
 40
1.399999999999999
  1
1
100
AcDbText
  0
TEXT
  5
9E8E
330
9E72
100
AcDbEntity
  8
7
  6
Continuous
100
AcDbText
 10
29.97951099999999
 20
10.04873699999998
 30
0.0
 40
1.399999999999999
  1
7
100
AcDbText
  0
TEXT
  5
9E8F
330
9E72
100
AcDbEntity
  8
4
  6
CENTER
100
AcDbText
 10
23.97951099999999
 20
10.04873699999998
 30
0.0
 40
1.399999999999999
  1
4
100
AcDbText
  0
TEXT
  5
9E90
330
9E72
100
AcDbEntity
  8
3
  6
DASHED
100
AcDbText
 10
21.979511
 20
10.04873699999998
 30
0.0
 40
1.399999999999999
  1
3
100
AcDbText
  0
TEXT
  5
9E91
330
9E72
100
AcDbEntity
  8
2
  6
Continuous
100
AcDbText
 10
19.97951099999998
 20
10.04873699999998
 30
0.0
 40
1.399999999999999
  1
2
100
AcDbText
  0
TEXT
  5
9E92
330
9E72
100
AcDbEntity
  8
6
  6
Continuous
100
AcDbText
 10
27.979511
 20
10.04873699999998
 30
0.0
 40
1.399999999999999
  1
6
100
AcDbText
  0
TEXT
  5
9E93
330
9E72
100
AcDbEntity
  8
5
  6
PHANTOM
100
AcDbText
 10
25.97951099999999
 20
10.04873699999998
 30
0.0
 40
1.399999999999999
  1
5
100
AcDbText
  0
LINE
  5
9E94
330
9E72
100
AcDbEntity
  8
4
  6
CENTER
100
AcDbLine
 10
57.22022299999999
 20
273.871609
 30
0.0
 11
57.22022299999999
 21
141.871609
 31
0.0
  0
LINE
  5
9E95
330
9E72
100
AcDbEntity
  8
4
  6
CENTER
100
AcDbLine
 10
26.92023300000001
 20
196.871609
 30
0.0
 11
97.20049799999999
 21
196.871609
 31
0.0
  0
LINE
  5
9E96
330
9E72
100
AcDbEntity
  8
1
  6
Continuous
100
AcDbLine
 10
73.220223
 20
250.97366
 30
0.0
 11
73.220223
 21
185.871609
 31
0.0
  0
LINE
  5
9E97
330
9E72
100
AcDbEntity
  8
1
  6
Continuous
100
AcDbLine
 10
41.220223
 20
250.97366
 30
0.0
 11
41.220223
 21
203.304796
 31
0.0
  0
LINE
  5
9E98
330
9E72
100
AcDbEntity
  8
1
  6
Continuous
100
AcDbLine
 10
38.920233
 20
185.871609
 30
0.0
 11
41.220223
 21
185.871609
 31
0.0
  0
LINE
  5
9E99
330
9E72
100
AcDbEntity
  8
1
  6
Continuous
100
AcDbLine
 10
75.520218
 20
185.871609
 30
0.0
 11
73.220223
 21
185.871609
 31
0.0
  0
LINE
  5
9E9A
330
9E72
100
AcDbEntity
  8
1
  6
Continuous
100
AcDbLine
 10
32.22022299999999
 20
255.9716009999999
 30
0.0
 11
32.22022299999999
 21
229.5590939999999
 31
0.0
  0
LINE
  5
9E9B
330
9E72
100
AcDbEntity
  8
1
  6
Continuous
100
AcDbLine
 10
82.220223
 20
255.9716009999999
 30
0.0
 11
82.220223
 21
229.5590939999999
 31
0.0
  0
LINE
  5
9E9C
330
9E72
100
AcDbEntity
  8
4
  6
CENTER
100
AcDbLine
 10
212.220223
 20
274.335335
 30
0.0
 11
212.220223
 21
214.6049389999999
 31
0.0
  0
LINE
  5
9E9D
330
9E72
100
AcDbEntity
  8
1
  6
Continuous
100
AcDbLine
 10
233.1957099999999
 20
252.071608
 30
0.0
 11
237.220223
 21
252.071608
 31
0.0
  0
LINE
  5
9E9E
330
9E72
100
AcDbEntity
  8
4
  6
CENTER
100
AcDbLine
 10
125.2202229999999
 20
196.871609
 30
0.0
 11
235.220223
 21
196.871609
 31
0.0
  0
LINE
  5
9E9F
330
9E72
100
AcDbEntity
  8
4
  6
CENTER
100
AcDbLine
 10
180.2202229999998
 20
256.3725949999999
 30
0.0
 11
180.2202229999998
 21
141.871609
 31
0.0
  0
LINE
  5
9EA0
330
9E72
100
AcDbEntity
  8
1
  6
Continuous
100
AcDbLine
 10
191.220223
 20
251.771612
 30
0.0
 11
191.220223
 21
209.0701759999999
 31
0.0
  0
LINE
  5
9EA1
330
9E72
100
AcDbEntity
  8
1
  6
Continuous
100
AcDbLine
 10
196.449916
 20
203.0798669999998
 30
0.0
 11
220.1782389999999
 21
244.524497
 31
0.0
  0
LINE
  5
9EA2
330
9E72
100
AcDbEntity
  8
1
  6
Continuous
100
AcDbLine
 10
174.912256
 20
250.8315
 30
0.0
 11
171.1439839999999
 21
215.4958759999999
 31
0.0
  0
LINE
  5
9EA3
330
9E72
100
AcDbEntity
  8
4
  6
CENTER
100
AcDbLine
 10
125.2202229999999
 20
341.8716089999998
 30
0.0
 11
264.686883
 21
341.8716089999998
 31
0.0
  0
LINE
  5
9EA4
330
9E72
100
AcDbEntity
  8
4
  6
CENTER
100
AcDbLine
 10
212.220223
 20
375.871609
 30
0.0
 11
212.220223
 21
301.669614
 31
0.0
  0
LINE
  5
9EA5
330
9E72
100
AcDbEntity
  8
1
  6
Continuous
100
AcDbLine
 10
170.931713
 20
253.371624
 30
0.0
 11
189.823926
 21
256.70283
 31
0.0
  0
LINE
  5
9EA6
330
9E72
100
AcDbEntity
  8
1
  6
Continuous
100
AcDbLine
 10
170.931713
 20
253.371624
 30
0.0
 11
171.331104
 21
251.1065659999999
 31
0.0
  0
LINE
  5
9EA7
330
9E72
100
AcDbEntity
  8
1
  6
Continuous
100
AcDbLine
 10
171.331104
 20
251.1065659999999
 30
0.0
 11
173.701828
 21
251.524589
 31
0.0
  0
LINE
  5
9EA8
330
9E72
100
AcDbEntity
  8
1
  6
Continuous
100
AcDbLine
 10
87.42223199999996
 20
201.9736219999999
 30
0.0
 11
87.42223199999996
 21
191.7695959999998
 31
0.0
  0
LINE
  5
9EA9
330
9E72
100
AcDbEntity
  8
1
  6
Continuous
100
AcDbLine
 10
85.947282
 20
193.621609
 30
0.0
 11
82.897172
 21
193.621609
 31
0.0
  0
LINE
  5
9EAA
330
9E72
100
AcDbEntity
  8
1
  6
Continuous
100
AcDbLine
 10
85.973742
 20
200.121609
 30
0.0
 11
82.87071199999997
 21
200.121609
 31
0.0
  0
LINE
  5
9EAB
330
9E72
100
AcDbEntity
  8
1
  6
Continuous
100
AcDbLine
 10
86.024232
 20
190.3716089999998
 30
0.0
 11
82.820222
 21
190.3716089999998
 31
0.0
  0
LINE
  5
9EAC
330
9E72
100
AcDbEntity
  8
1
  6
Continuous
100
AcDbLine
 10
86.024232
 20
203.3716089999999
 30
0.0
 11
82.820222
 21
203.3716089999999
 31
0.0
  0
LINE
  5
9EAD
330
9E72
100
AcDbEntity
  8
1
  6
Continuous
100
AcDbLine
 10
86.024232
 20
190.371613
 30
0.0
 11
87.42223199999996
 21
191.7696
 31
0.0
  0
LINE
  5
9EAE
330
9E72
100
AcDbEntity
  8
1
  6
Continuous
100
AcDbLine
 10
87.42221200000001
 20
201.973625
 30
0.0
 11
86.024232
 21
203.371613
 31
0.0
  0
LINE
  5
9EAF
330
9E72
100
AcDbEntity
  8
1
  6
Continuous
100
AcDbLine
 10
35.720231
 20
201.121609
 30
0.0
 11
35.720231
 21
192.621609
 31
0.0
  0
LINE
  5
9EB0
330
9E72
100
AcDbEntity
  8
1
  6
Continuous
100
AcDbLine
 10
38.920228
 20
190.621609
 30
0.0
 11
37.720231
 21
190.621609
 31
0.0
  0
LINE
  5
9EB1
330
9E72
100
AcDbEntity
  8
1
  6
Continuous
100
AcDbLine
 10
38.920228
 20
203.121609
 30
0.0
 11
37.720231
 21
203.121609
 31
0.0
  0
LINE
  5
9EB2
330
9E72
100
AcDbEntity
  8
1
  6
Continuous
100
AcDbLine
 10
75.520218
 20
250.9432789999999
 30
0.0
 11
75.520218
 21
183.979137
 31
0.0
  0
LINE
  5
9EB3
330
9E72
100
AcDbEntity
  8
1
  6
Continuous
100
AcDbLine
 10
38.920233
 20
250.9432789999999
 30
0.0
 11
38.920233
 21
202.224775
 31
0.0
  0
LINE
  5
9EB4
330
9E72
100
AcDbEntity
  8
1
  6
Continuous
100
AcDbLine
 10
169.720223
 20
370.8716089999999
 30
0.0
 11
254.7202229999999
 21
370.8716089999999
 31
0.0
  0
LINE
  5
9EB5
330
9E72
100
AcDbEntity
  8
4
  6
CENTER
100
AcDbLine
 10
171.220223
 20
367.8716089999999
 30
0.0
 11
171.220223
 21
355.8716089999998
 31
0.0
  0
LINE
  5
9EB6
330
9E72
100
AcDbEntity
  8
4
  6
CENTER
100
AcDbLine
 10
165.220223
 20
361.8716089999999
 30
0.0
 11
177.2202229999997
 21
361.8716089999999
 31
0.0
  0
LINE
  5
9EB7
330
9E72
100
AcDbEntity
  8
1
  6
Continuous
100
AcDbLine
 10
169.720223
 20
312.8716089999998
 30
0.0
 11
254.7202229999999
 21
312.8716089999998
 31
0.0
  0
LINE
  5
9EB8
330
9E72
100
AcDbEntity
  8
4
  6
CENTER
100
AcDbLine
 10
171.220223
 20
315.8716089999998
 30
0.0
 11
171.220223
 21
327.8716089999998
 31
0.0
  0
LINE
  5
9EB9
330
9E72
100
AcDbEntity
  8
4
  6
CENTER
100
AcDbLine
 10
165.220223
 20
321.871609
 30
0.0
 11
177.2202229999997
 21
321.871609
 31
0.0
  0
LINE
  5
9EBA
330
9E72
100
AcDbEntity
  8
4
  6
CENTER
100
AcDbLine
 10
253.220223
 20
367.8716089999999
 30
0.0
 11
253.220223
 21
355.8716089999998
 31
0.0
  0
LINE
  5
9EBB
330
9E72
100
AcDbEntity
  8
4
  6
CENTER
100
AcDbLine
 10
259.2202229999999
 20
361.8716089999999
 30
0.0
 11
247.220223
 21
361.8716089999999
 31
0.0
  0
LINE
  5
9EBC
330
9E72
100
AcDbEntity
  8
4
  6
CENTER
100
AcDbLine
 10
253.220223
 20
315.8716089999998
 30
0.0
 11
253.220223
 21
327.8716089999998
 31
0.0
  0
LINE
  5
9EBD
330
9E72
100
AcDbEntity
  8
4
  6
CENTER
100
AcDbLine
 10
259.2202229999999
 20
321.871609
 30
0.0
 11
247.220223
 21
321.871609
 31
0.0
  0
LINE
  5
9EBE
330
9E72
100
AcDbEntity
  8
1
  6
Continuous
100
AcDbLine
 10
191.220223
 20
260.9716049999998
 30
0.0
 11
232.220223
 21
260.9716049999998
 31
0.0
  0
LINE
  5
9EBF
330
9E72
100
AcDbEntity
  8
1
  6
Continuous
100
AcDbLine
 10
262.220208
 20
266.5715979999998
 30
0.0
 11
262.220208
 21
268.8716089999999
 31
0.0
  0
LINE
  5
9EC0
330
9E72
100
AcDbEntity
  8
1
  6
Continuous
100
AcDbLine
 10
162.220223
 20
268.8716089999999
 30
0.0
 11
262.220208
 21
268.8716089999999
 31
0.0
  0
LINE
  5
9EC1
330
9E72
100
AcDbEntity
  8
1
  6
Continuous
100
AcDbLine
 10
162.220208
 20
266.571614
 30
0.0
 11
162.220208
 21
268.871617
 31
0.0
  0
LINE
  5
9EC2
330
9E72
100
AcDbEntity
  8
1
  6
Continuous
100
AcDbLine
 10
162.220223
 20
266.5716059999999
 30
0.0
 11
262.220208
 21
266.5716059999999
 31
0.0
  0
LINE
  5
9EC3
330
9E72
100
AcDbEntity
  8
1
  6
Continuous
100
AcDbLine
 10
189.220221
 20
261.9716069999999
 30
0.0
 11
235.220223
 21
261.9716069999999
 31
0.0
  0
LINE
  5
9EC4
330
9E72
100
AcDbEntity
  8
1
  6
Continuous
100
AcDbLine
 10
184.720225
 20
266.5716269999999
 30
0.0
 11
186.6626779999998
 21
263.4035169999999
 31
0.0
  0
LINE
  5
9EC5
330
9E72
100
AcDbEntity
  8
4
  6
CENTER
100
AcDbLine
 10
171.220223
 20
273.871609
 30
0.0
 11
171.220223
 21
261.571606
 31
0.0
  0
LINE
  5
9EC6
330
9E72
100
AcDbEntity
  8
4
  6
CENTER
100
AcDbLine
 10
253.220223
 20
273.871609
 30
0.0
 11
253.220223
 21
261.571606
 31
0.0
  0
LINE
  5
9EC7
330
9E72
100
AcDbEntity
  8
1
  6
Continuous
100
AcDbLine
 10
37.22022299999999
 20
260.9716009999999
 30
0.0
 11
77.220223
 21
260.9716009999999
 31
0.0
  0
LINE
  5
9EC8
330
9E72
100
AcDbEntity
  8
1
  6
Continuous
100
AcDbLine
 10
28.220223
 20
268.8716089999999
 30
0.0
 11
28.220223
 21
266.57161
 31
0.0
  0
LINE
  5
9EC9
330
9E72
100
AcDbEntity
  8
1
  6
Continuous
100
AcDbLine
 10
86.22022300000002
 20
268.8716089999999
 30
0.0
 11
86.22022300000002
 21
266.5716059999999
 31
0.0
  0
LINE
  5
9ECA
330
9E72
100
AcDbEntity
  8
4
  6
CENTER
100
AcDbLine
 10
37.22022299999999
 20
273.871609
 30
0.0
 11
37.22022299999999
 21
261.571606
 31
0.0
  0
LINE
  5
9ECB
330
9E72
100
AcDbEntity
  8
4
  6
CENTER
100
AcDbLine
 10
77.220223
 20
273.871609
 30
0.0
 11
77.220223
 21
261.571606
 31
0.0
  0
LINE
  5
9ECC
330
9E72
100
AcDbEntity
  8
1
  6
Continuous
100
AcDbLine
 10
84.720185
 20
266.5716289999999
 30
0.0
 11
82.77773299999998
 21
263.403525
 31
0.0
  0
LINE
  5
9ECD
330
9E72
100
AcDbEntity
  8
1
  6
Continuous
100
AcDbLine
 10
28.220223
 20
268.8716089999999
 30
0.0
 11
86.22022300000002
 21
268.8716089999999
 31
0.0
  0
LINE
  5
9ECE
330
9E72
100
AcDbEntity
  8
1
  6
Continuous
100
AcDbLine
 10
28.220223
 20
266.5716059999999
 30
0.0
 11
86.22022300000002
 21
266.5716059999999
 31
0.0
  0
LINE
  5
9ECF
330
9E72
100
AcDbEntity
  8
1
  6
Continuous
100
AcDbLine
 10
34.220223
 20
261.9716069999999
 30
0.0
 11
80.22022300000001
 21
261.9716069999999
 31
0.0
  0
LINE
  5
9ED0
330
9E72
100
AcDbEntity
  8
1
  6
Continuous
100
AcDbLine
 10
29.720173
 20
266.571617
 30
0.0
 11
31.66263300000001
 21
263.4035069999999
 31
0.0
  0
LINE
  5
9ED1
330
9E72
100
AcDbEntity
  8
1
  6
Continuous
100
AcDbLine
 10
70.720223
 20
149.8510939999999
 30
0.0
 11
70.720223
 21
243.892124
 31
0.0
  0
LINE
  5
9ED2
330
9E72
100
AcDbEntity
  8
1
  6
Continuous
100
AcDbLine
 10
43.720223
 20
149.8510939999999
 30
0.0
 11
43.720223
 21
243.892124
 31
0.0
  0
LINE
  5
9ED3
330
9E72
100
AcDbEntity
  8
1
  6
Continuous
100
AcDbLine
 10
72.220223
 20
209.371609
 30
0.0
 11
72.220223
 21
184.371606
 31
0.0
  0
LINE
  5
9ED4
330
9E72
100
AcDbEntity
  8
1
  6
Continuous
100
AcDbLine
 10
72.220223
 20
200.871609
 30
0.0
 11
73.22023100000001
 21
200.871609
 31
0.0
  0
LINE
  5
9ED5
330
9E72
100
AcDbEntity
  8
1
  6
Continuous
100
AcDbLine
 10
72.220223
 20
192.871609
 30
0.0
 11
73.22023100000001
 21
192.871609
 31
0.0
  0
ARC
  5
9ED6
330
9E72
100
AcDbEntity
  8
1
  6
Continuous
100
AcDbCircle
 10
57.22022299999999
 20
379.571619
 30
0.0
 40
126.2
100
AcDbArc
 50
263.34848
 51
276.6515
  0
ARC
  5
9ED7
330
9E72
100
AcDbEntity
  8
1
  6
Continuous
100
AcDbCircle
 10
233.1957099999999
 20
237.071608
 30
0.0
 40
15.0
100
AcDbArc
 50
89.99998199999996
 51
150.2075699999998
  0
ARC
  5
9ED8
330
9E72
100
AcDbEntity
  8
1
  6
Continuous
100
AcDbCircle
 10
172.426352
 20
251.096602
 30
0.0
 40
2.5
100
AcDbArc
 50
353.9128499999998
 51
100.0000199999999
  0
ARC
  5
9ED9
330
9E72
100
AcDbEntity
  8
1
  6
Continuous
100
AcDbCircle
 10
57.22022299999999
 20
384.573819
 30
0.0
 40
128.4999999999998
100
AcDbArc
 50
262.8473099999999
 51
277.1526699999999
  0
ARC
  5
9EDA
330
9E72
100
AcDbEntity
  8
1
  6
Continuous
100
AcDbCircle
 10
173.8754769999999
 20
250.539781
 30
0.0
 40
1.0
100
AcDbArc
 50
353.9128499999998
 51
100.00003
  0
ARC
  5
9EDB
330
9E72
100
AcDbEntity
  8
1
  6
Continuous
100
AcDbCircle
 10
57.22022299999999
 20
379.601999
 30
0.0
 40
128.4999999999998
100
AcDbArc
 50
263.34847
 51
276.6515
  0
ARC
  5
9EDC
330
9E72
100
AcDbEntity
  8
1
  6
Continuous
100
AcDbCircle
 10
72.220223
 20
250.97366
 30
0.0
 40
1.0
100
AcDbArc
 50
0.0
 51
96.65148000000002
  0
ARC
  5
9EDD
330
9E72
100
AcDbEntity
  8
1
  6
Continuous
100
AcDbCircle
 10
42.22022299999999
 20
250.97366
 30
0.0
 40
1.0
100
AcDbArc
 50
83.348539
 51
179.9999599999999
  0
ARC
  5
9EDE
330
9E72
100
AcDbEntity
  8
1
  6
Continuous
100
AcDbCircle
 10
74.42223199999998
 20
196.871609
 30
0.0
 40
12.0
100
AcDbArc
 50
344.28617
 51
15.71384
  0
ARC
  5
9EDF
330
9E72
100
AcDbEntity
  8
1
  6
Continuous
100
AcDbCircle
 10
71.218211
 20
196.87161
 30
0.0
 40
12.0
100
AcDbArc
 50
344.286135
 51
15.713856
  0
ARC
  5
9EE0
330
9E72
100
AcDbEntity
  8
1
  6
Continuous
100
AcDbCircle
 10
83.17223199999999
 20
201.813237
 30
0.0
 40
3.25
100
AcDbArc
 50
328.6342499999999
 51
28.65275
  0
ARC
  5
9EE1
330
9E72
100
AcDbEntity
  8
1
  6
Continuous
100
AcDbCircle
 10
79.96821099999998
 20
201.813237
 30
0.0
 40
3.25
100
AcDbArc
 50
328.6341949999998
 51
55.26029799999999
  0
ARC
  5
9EE2
330
9E72
100
AcDbEntity
  8
1
  6
Continuous
100
AcDbCircle
 10
79.96821
 20
191.929981
 30
0.0
 40
3.25
100
AcDbArc
 50
304.7397219999998
 51
31.365788
  0
ARC
  5
9EE3
330
9E72
100
AcDbEntity
  8
1
  6
Continuous
100
AcDbCircle
 10
83.17223199999999
 20
191.929981
 30
0.0
 40
3.25
100
AcDbArc
 50
331.3472699999998
 51
31.36577
  0
ARC
  5
9EE4
330
9E72
100
AcDbEntity
  8
1
  6
Continuous
100
AcDbCircle
 10
37.720231
 20
201.121609
 30
0.0
 40
2.0
100
AcDbArc
 50
90.00001800000005
 51
180.0
  0
ARC
  5
9EE5
330
9E72
100
AcDbEntity
  8
1
  6
Continuous
100
AcDbCircle
 10
37.720231
 20
192.621609
 30
0.0
 40
2.0
100
AcDbArc
 50
180.0
 51
269.99998
  0
ARC
  5
9EE6
330
9E72
100
AcDbEntity
  8
1
  6
Continuous
100
AcDbCircle
 10
92.220223
 20
229.5590939999999
 30
0.0
 40
60.0
100
AcDbArc
 50
179.9999799999999
 51
205.8780899999999
  0
ARC
  5
9EE7
330
9E72
100
AcDbEntity
  8
1
  6
Continuous
100
AcDbCircle
 10
72.22021499999998
 20
250.9432789999999
 30
0.0
 40
3.299999999999998
100
AcDbArc
 50
0.0
 51
96.65153400000001
  0
ARC
  5
9EE8
330
9E72
100
AcDbEntity
  8
1
  6
Continuous
100
AcDbCircle
 10
42.220243
 20
250.9432789999999
 30
0.0
 40
3.299999999999998
100
AcDbArc
 50
83.348484
 51
179.9999599999999
  0
ARC
  5
9EE9
330
9E72
100
AcDbEntity
  8
1
  6
Continuous
100
AcDbCircle
 10
169.720223
 20
363.371609
 30
0.0
 40
7.5
100
AcDbArc
 50
89.99998199999996
 51
193.44029
  0
CIRCLE
  5
9EEA
330
9E72
100
AcDbEntity
  8
1
  6
Continuous
100
AcDbCircle
 10
171.220223
 20
361.8716089999999
 30
0.0
 40
4.4
  0
CIRCLE
  5
9EEB
330
9E72
100
AcDbEntity
  8
1
  6
Continuous
100
AcDbCircle
 10
171.220223
 20
321.871609
 30
0.0
 40
4.4
  0
ARC
  5
9EEC
330
9E72
100
AcDbEntity
  8
1
  6
Continuous
100
AcDbCircle
 10
169.720223
 20
320.3716089999998
 30
0.0
 40
7.5
100
AcDbArc
 50
166.5596799999998
 51
269.99995
  0
ARC
  5
9EED
330
9E72
100
AcDbEntity
  8
1
  6
Continuous
100
AcDbCircle
 10
79.753563
 20
341.8716089999998
 30
0.0
 40
85.0
100
AcDbArc
 50
346.5596799999998
 51
13.44032099999999
  0
ARC
  5
9EEE
330
9E72
100
AcDbEntity
  8
1
  6
Continuous
100
AcDbCircle
 10
344.686883
 20
341.8716089999998
 30
0.0
 40
85.0
100
AcDbArc
 50
166.55964
 51
193.44029
  0
ARC
  5
9EEF
330
9E72
100
AcDbEntity
  8
1
  6
Continuous
100
AcDbCircle
 10
254.7202229999999
 20
363.371609
 30
0.0
 40
7.5
100
AcDbArc
 50
346.5596799999998
 51
89.99998199999996
  0
CIRCLE
  5
9EF0
330
9E72
100
AcDbEntity
  8
1
  6
Continuous
100
AcDbCircle
 10
253.220223
 20
361.8716089999999
 30
0.0
 40
4.4
  0
CIRCLE
  5
9EF1
330
9E72
100
AcDbEntity
  8
1
  6
Continuous
100
AcDbCircle
 10
253.220223
 20
321.871609
 30
0.0
 40
4.4
  0
ARC
  5
9EF2
330
9E72
100
AcDbEntity
  8
1
  6
Continuous
100
AcDbCircle
 10
254.7202229999999
 20
320.3716089999998
 30
0.0
 40
7.5
100
AcDbArc
 50
270.00002
 51
13.440282
  0
CIRCLE
  5
9EF3
330
9E72
100
AcDbEntity
  8
1
  6
Continuous
100
AcDbCircle
 10
212.220223
 20
341.8716089999998
 30
0.0
 40
9.5
  0
CIRCLE
  5
9EF4
330
9E72
100
AcDbEntity
  8
1
  6
Continuous
100
AcDbCircle
 10
212.220223
 20
341.8716089999998
 30
0.0
 40
12.5
  0
CIRCLE
  5
9EF5
330
9E72
100
AcDbEntity
  8
1
  6
Continuous
100
AcDbCircle
 10
212.220223
 20
341.8716089999998
 30
0.0
 40
24.0
  0
CIRCLE
  5
9EF6
330
9E72
100
AcDbEntity
  8
1
  6
Continuous
100
AcDbCircle
 10
212.220223
 20
341.8716089999998
 30
0.0
 40
22.0
  0
ARC
  5
9EF7
330
9E72
100
AcDbEntity
  8
1
  6
Continuous
100
AcDbCircle
 10
230.020218
 20
262.4496119999998
 30
0.0
 40
2.778
100
AcDbArc
 50
327.85663
 51
350.09193
  0
ARC
  5
9EF8
330
9E72
100
AcDbEntity
  8
1
  6
Continuous
100
AcDbCircle
 10
235.220223
 20
264.971607
 30
0.0
 40
3.0
100
AcDbArc
 50
270.00002
 51
328.48644
  0
ARC
  5
9EF9
330
9E72
100
AcDbEntity
  8
1
  6
Continuous
100
AcDbCircle
 10
189.220223
 20
264.971607
 30
0.0
 40
3.0
100
AcDbArc
 50
211.5135899999999
 51
270.00002
  0
ARC
  5
9EFA
330
9E72
100
AcDbEntity
  8
1
  6
Continuous
100
AcDbCircle
 10
212.220208
 20
262.4496119999998
 30
0.0
 40
2.778
100
AcDbArc
 50
327.8565799999999
 51
350.09193
  0
ARC
  5
9EFB
330
9E72
100
AcDbEntity
  8
1
  6
Continuous
100
AcDbCircle
 10
217.708123
 20
262.4496119999998
 30
0.0
 40
2.778
100
AcDbArc
 50
189.90804
 51
212.1434
  0
ARC
  5
9EFC
330
9E72
100
AcDbEntity
  8
1
  6
Continuous
100
AcDbCircle
 10
226.5973359999999
 20
262.4496119999998
 30
0.0
 40
2.778
100
AcDbArc
 50
327.85663
 51
350.09193
  0
ARC
  5
9EFD
330
9E72
100
AcDbEntity
  8
1
  6
Continuous
100
AcDbCircle
 10
229.1325769999999
 20
262.4496119999998
 30
0.0
 40
2.778
100
AcDbArc
 50
327.85663
 51
350.09193
  0
ARC
  5
9EFE
330
9E72
100
AcDbEntity
  8
1
  6
Continuous
100
AcDbCircle
 10
194.420197
 20
262.4496119999998
 30
0.0
 40
2.778
100
AcDbArc
 50
189.9080999999999
 51
212.1433699999999
  0
ARC
  5
9EFF
330
9E72
100
AcDbEntity
  8
1
  6
Continuous
100
AcDbCircle
 10
212.220208
 20
262.4496119999998
 30
0.0
 40
2.778
100
AcDbArc
 50
189.9080999999999
 51
212.1434
  0
ARC
  5
9F00
330
9E72
100
AcDbEntity
  8
1
  6
Continuous
100
AcDbCircle
 10
206.732293
 20
262.4496119999998
 30
0.0
 40
2.778
100
AcDbArc
 50
189.9080999999999
 51
212.1434
  0
ARC
  5
9F01
330
9E72
100
AcDbEntity
  8
1
  6
Continuous
100
AcDbCircle
 10
201.779053
 20
262.4496119999998
 30
0.0
 40
2.778
100
AcDbArc
 50
189.9080999999999
 51
212.1434
  0
ARC
  5
9F02
330
9E72
100
AcDbEntity
  8
1
  6
Continuous
100
AcDbCircle
 10
197.8430789999999
 20
262.4496119999998
 30
0.0
 40
2.778
100
AcDbArc
 50
189.9080999999999
 51
212.1434
  0
ARC
  5
9F03
330
9E72
100
AcDbEntity
  8
1
  6
Continuous
100
AcDbCircle
 10
195.307839
 20
262.4496119999998
 30
0.0
 40
2.778
100
AcDbArc
 50
189.9080999999999
 51
212.1433699999999
  0
ARC
  5
9F04
330
9E72
100
AcDbEntity
  8
1
  6
Continuous
100
AcDbCircle
 10
206.732293
 20
262.4496119999998
 30
0.0
 40
2.778
100
AcDbArc
 50
327.8565799999999
 51
350.0919899999999
  0
ARC
  5
9F05
330
9E72
100
AcDbEntity
  8
1
  6
Continuous
100
AcDbCircle
 10
217.708123
 20
262.4496119999998
 30
0.0
 40
2.778
100
AcDbArc
 50
327.8565799999999
 51
350.09193
  0
ARC
  5
9F06
330
9E72
100
AcDbEntity
  8
1
  6
Continuous
100
AcDbCircle
 10
222.661362
 20
262.4496119999998
 30
0.0
 40
2.778
100
AcDbArc
 50
327.8565799999999
 51
350.09193
  0
ARC
  5
9F07
330
9E72
100
AcDbEntity
  8
1
  6
Continuous
100
AcDbCircle
 10
191.220223
 20
255.971604
 30
0.0
 40
5.0
100
AcDbArc
 50
89.99998199999996
 51
178.90034
  0
ARC
  5
9F08
330
9E72
100
AcDbEntity
  8
1
  6
Continuous
100
AcDbCircle
 10
46.779063
 20
262.4496119999998
 30
0.0
 40
2.778
100
AcDbArc
 50
327.8564799999998
 51
333.0638399999999
  0
ARC
  5
9F09
330
9E72
100
AcDbEntity
  8
1
  6
Continuous
100
AcDbCircle
 10
67.661355
 20
262.4496119999998
 30
0.0
 40
2.778
100
AcDbArc
 50
327.8564799999998
 51
350.09193
  0
ARC
  5
9F0A
330
9E72
100
AcDbEntity
  8
1
  6
Continuous
100
AcDbCircle
 10
77.220223
 20
255.9716009999999
 30
0.0
 40
5.0
100
AcDbArc
 50
0.0
 51
89.99998199999996
  0
ARC
  5
9F0B
330
9E72
100
AcDbEntity
  8
1
  6
Continuous
100
AcDbCircle
 10
37.22022299999999
 20
255.9716009999999
 30
0.0
 40
5.0
100
AcDbArc
 50
89.99998199999996
 51
179.9999599999999
  0
ARC
  5
9F0C
330
9E72
100
AcDbEntity
  8
1
  6
Continuous
100
AcDbCircle
 10
62.708123
 20
262.4496119999998
 30
0.0
 40
2.778
100
AcDbArc
 50
327.8564799999998
 51
350.09193
  0
ARC
  5
9F0D
330
9E72
100
AcDbEntity
  8
1
  6
Continuous
100
AcDbCircle
 10
75.020218
 20
262.4496119999998
 30
0.0
 40
2.778
100
AcDbArc
 50
327.80113
 51
350.09193
  0
ARC
  5
9F0E
330
9E72
100
AcDbEntity
  8
1
  6
Continuous
100
AcDbCircle
 10
80.22022300000001
 20
264.971607
 30
0.0
 40
3.0
100
AcDbArc
 50
270.00002
 51
328.48644
  0
ARC
  5
9F0F
330
9E72
100
AcDbEntity
  8
1
  6
Continuous
100
AcDbCircle
 10
34.220223
 20
264.971607
 30
0.0
 40
3.0
100
AcDbArc
 50
211.5135899999999
 51
270.00002
  0
ARC
  5
9F10
330
9E72
100
AcDbEntity
  8
1
  6
Continuous
100
AcDbCircle
 10
57.220203
 20
262.4496119999998
 30
0.0
 40
2.778
100
AcDbArc
 50
327.8564799999998
 51
350.09193
  0
ARC
  5
9F11
330
9E72
100
AcDbEntity
  8
1
  6
Continuous
100
AcDbCircle
 10
62.708123
 20
262.4496119999998
 30
0.0
 40
2.778
100
AcDbArc
 50
189.90804
 51
212.14351
  0
ARC
  5
9F12
330
9E72
100
AcDbEntity
  8
1
  6
Continuous
100
AcDbCircle
 10
67.661355
 20
262.4496119999998
 30
0.0
 40
2.778
100
AcDbArc
 50
206.9362
 51
212.14351
  0
ARC
  5
9F13
330
9E72
100
AcDbEntity
  8
1
  6
Continuous
100
AcDbCircle
 10
71.597329
 20
262.4496119999998
 30
0.0
 40
2.778
100
AcDbArc
 50
327.8564799999998
 51
350.09193
  0
ARC
  5
9F14
330
9E72
100
AcDbEntity
  8
1
  6
Continuous
100
AcDbCircle
 10
74.13257699999999
 20
262.4496119999998
 30
0.0
 40
2.778
100
AcDbArc
 50
327.8564799999998
 51
350.09193
  0
ARC
  5
9F15
330
9E72
100
AcDbEntity
  8
1
  6
Continuous
100
AcDbCircle
 10
39.420203
 20
262.4496119999998
 30
0.0
 40
2.778
100
AcDbArc
 50
189.9080999999999
 51
212.14351
  0
ARC
  5
9F16
330
9E72
100
AcDbEntity
  8
1
  6
Continuous
100
AcDbCircle
 10
57.220203
 20
262.4496119999998
 30
0.0
 40
2.778
100
AcDbArc
 50
189.9080999999999
 51
212.14351
  0
ARC
  5
9F17
330
9E72
100
AcDbEntity
  8
1
  6
Continuous
100
AcDbCircle
 10
51.732293
 20
262.4496119999998
 30
0.0
 40
2.778
100
AcDbArc
 50
189.9080999999999
 51
212.14351
  0
ARC
  5
9F18
330
9E72
100
AcDbEntity
  8
1
  6
Continuous
100
AcDbCircle
 10
46.779063
 20
262.4496119999998
 30
0.0
 40
2.778
100
AcDbArc
 50
189.9080999999999
 51
212.14351
  0
ARC
  5
9F19
330
9E72
100
AcDbEntity
  8
1
  6
Continuous
100
AcDbCircle
 10
42.843083
 20
262.4496119999998
 30
0.0
 40
2.778
100
AcDbArc
 50
189.9080999999999
 51
212.14351
  0
ARC
  5
9F1A
330
9E72
100
AcDbEntity
  8
1
  6
Continuous
100
AcDbCircle
 10
40.30784299999999
 20
262.4496119999998
 30
0.0
 40
2.778
100
AcDbArc
 50
189.9080999999999
 51
212.14351
  0
ARC
  5
9F1B
330
9E72
100
AcDbEntity
  8
1
  6
Continuous
100
AcDbCircle
 10
51.732293
 20
262.4496119999998
 30
0.0
 40
2.778
100
AcDbArc
 50
327.8564799999998
 51
350.0919899999999
  0
ARC
  5
9F1C
330
9E72
100
AcDbEntity
  8
1
  6
Continuous
100
AcDbCircle
 10
180.2202229999998
 20
196.871609
 30
0.0
 40
50.0
100
AcDbArc
 50
96.62188500000002
 51
138.1591709999999
  0
ARC
  5
9F1D
330
9E72
100
AcDbEntity
  8
1
  6
Continuous
100
AcDbCircle
 10
180.2202229999998
 20
196.871609
 30
0.0
 40
34.5
100
AcDbArc
 50
102.5056799999999
 51
131.513428
  0
ARC
  5
9F1E
330
9E72
100
AcDbEntity
  8
1
  6
Continuous
100
AcDbCircle
 10
180.2202229999998
 20
196.871609
 30
0.0
 40
15.5
100
AcDbArc
 50
178.1338979999999
 51
306.666097
  0
ARC
  5
9F1F
330
9E72
100
AcDbEntity
  8
1
  6
Continuous
100
AcDbCircle
 10
45.72022299999999
 20
149.8510939999999
 30
0.0
 40
2.0
100
AcDbArc
 50
180.00002
 51
260.2634799999999
  0
ARC
  5
9F20
330
9E72
100
AcDbEntity
  8
1
  6
Continuous
100
AcDbCircle
 10
68.72022300000001
 20
243.892124
 30
0.0
 40
2.0
100
AcDbArc
 50
0.000055
 51
80.26353399999996
  0
ARC
  5
9F21
330
9E72
100
AcDbEntity
  8
1
  6
Continuous
100
AcDbCircle
 10
69.220223
 20
209.371609
 30
0.0
 40
3.0
100
AcDbArc
 50
0.000055
 51
59.999995
  0
ARC
  5
9F22
330
9E72
100
AcDbEntity
  8
1
  6
Continuous
100
AcDbCircle
 10
69.220223
 20
184.371609
 30
0.0
 40
3.0
100
AcDbArc
 50
300.00001
 51
359.99995
  0
ARC
  5
9F23
330
9E72
100
AcDbEntity
  8
1
  6
Continuous
100
AcDbCircle
 10
68.72022300000001
 20
149.8510939999999
 30
0.0
 40
2.0
100
AcDbArc
 50
279.73647
 51
359.99995
  0
ARC
  5
9F24
330
9E72
100
AcDbEntity
  8
1
  6
Continuous
100
AcDbCircle
 10
57.22022299999999
 20
176.871609
 30
0.0
 40
70.0
100
AcDbArc
 50
80.26348
 51
99.73649899999999
  0
ARC
  5
9F25
330
9E72
100
AcDbEntity
  8
1
  6
Continuous
100
AcDbCircle
 10
45.72022299999999
 20
243.892124
 30
0.0
 40
2.0
100
AcDbArc
 50
99.736519
 51
179.9999799999999
  0
LINE
  5
9F26
330
9E72
100
AcDbEntity
  8
1
  6
Continuous
100
AcDbLine
 10
239.720221
 20
266.5716269999999
 30
0.0
 11
237.777768
 21
263.4035169999999
 31
0.0
  0
ARC
  5
9F27
330
9E72
100
AcDbEntity
  8
1
  6
Continuous
100
AcDbCircle
 10
57.22022299999999
 20
216.8716089999997
 30
0.0
 40
70.0
100
AcDbArc
 50
260.2635009999999
 51
279.7365199999999
  0
LINE
  5
9F28
330
9E72
100
AcDbEntity
  8
1
  6
Continuous
100
AcDbLine
 10
237.220223
 20
255.971605
 30
0.0
 11
237.220223
 21
252.071608
 31
0.0
  0
ARC
  5
9F29
330
9E72
100
AcDbEntity
  8
1
  6
Continuous
100
AcDbCircle
 10
232.220223
 20
255.971605
 30
0.0
 40
5.0
100
AcDbArc
 50
0.0
 51
90.0
  0
LINE
  5
9F2A
330
9E72
100
AcDbEntity
  8
4
  6
CENTER
100
AcDbLine
 10
180.2202229999998
 20
375.871609
 30
0.0
 11
180.2202229999998
 21
301.669614
 31
0.0
  0
LINE
  5
9F2B
330
9E72
100
AcDbEntity
  8
4
  6
CENTER
100
AcDbLine
 10
180.2202229999998
 20
39.871609
 30
0.0
 11
180.2202229999998
 21
114.0736039999999
 31
0.0
  0
LINE
  5
9F2C
330
9E72
100
AcDbEntity
  8
4
  6
CENTER
100
AcDbLine
 10
212.220223
 20
39.871609
 30
0.0
 11
212.220223
 21
114.0736039999999
 31
0.0
  0
LINE
  5
9F2D
330
9E72
100
AcDbEntity
  8
4
  6
CENTER
100
AcDbLine
 10
253.220223
 20
99.87160900000001
 30
0.0
 11
253.220223
 21
87.87160899999998
 31
0.0
  0
LINE
  5
9F2E
330
9E72
100
AcDbEntity
  8
4
  6
CENTER
100
AcDbLine
 10
171.220223
 20
99.87160900000001
 30
0.0
 11
171.220223
 21
87.87160899999998
 31
0.0
  0
ARC
  5
9F2F
330
9E72
100
AcDbEntity
  8
1
  6
Continuous
100
AcDbCircle
 10
171.220223
 20
93.87160900000001
 30
0.0
 40
4.4
100
AcDbArc
 50
202.7284929999999
 51
243.8180330000001
  0
CIRCLE
  5
9F30
330
9E72
100
AcDbEntity
  8
1
  6
Continuous
100
AcDbCircle
 10
253.220223
 20
93.87160900000001
 30
0.0
 40
4.4
  0
ARC
  5
9F31
330
9E72
100
AcDbEntity
  8
1
  6
Continuous
100
AcDbCircle
 10
79.753563
 20
73.87160899999997
 30
0.0
 40
85.0
100
AcDbArc
 50
346.559679
 51
348.6399229999999
  0
ARC
  5
9F32
330
9E72
100
AcDbEntity
  8
1
  6
Continuous
100
AcDbCircle
 10
344.686883
 20
73.87160899999997
 30
0.0
 40
85.0
100
AcDbArc
 50
166.55971
 51
193.4403599999999
  0
ARC
  5
9F33
330
9E72
100
AcDbEntity
  8
1
  6
Continuous
100
AcDbCircle
 10
254.7202229999999
 20
95.37160900000001
 30
0.0
 40
7.5
100
AcDbArc
 50
346.5597179999999
 51
89.99997999999996
  0
LINE
  5
9F34
330
9E72
100
AcDbEntity
  8
4
  6
CENTER
100
AcDbLine
 10
259.2202229999999
 20
93.87160900000001
 30
0.0
 11
247.220223
 21
93.87160900000001
 31
0.0
  0
LINE
  5
9F35
330
9E72
100
AcDbEntity
  8
1
  6
Continuous
100
AcDbLine
 10
229.2415599999999
 20
102.8716089999999
 30
0.0
 11
254.7202229999999
 21
102.8716089999999
 31
0.0
  0
LINE
  5
9F36
330
9E72
100
AcDbEntity
  8
4
  6
CENTER
100
AcDbLine
 10
165.220223
 20
93.87160900000001
 30
0.0
 11
177.2202229999997
 21
93.87160900000001
 31
0.0
  0
LINE
  5
9F37
330
9E72
100
AcDbEntity
  8
4
  6
CENTER
100
AcDbLine
 10
125.2202229999999
 20
73.87160899999997
 30
0.0
 11
264.686883
 21
73.87160899999997
 31
0.0
  0
CIRCLE
  5
9F38
330
9E72
100
AcDbEntity
  8
1
  6
Continuous
100
AcDbCircle
 10
253.220223
 20
53.871609
 30
0.0
 40
4.4
  0
ARC
  5
9F39
330
9E72
100
AcDbEntity
  8
1
  6
Continuous
100
AcDbCircle
 10
254.7202229999999
 20
52.371609
 30
0.0
 40
7.5
100
AcDbArc
 50
270.0000179999999
 51
13.44032
  0
LINE
  5
9F3A
330
9E72
100
AcDbEntity
  8
4
  6
CENTER
100
AcDbLine
 10
259.2202229999999
 20
53.871609
 30
0.0
 11
247.220223
 21
53.871609
 31
0.0
  0
LINE
  5
9F3B
330
9E72
100
AcDbEntity
  8
1
  6
Continuous
100
AcDbLine
 10
169.720223
 20
44.871609
 30
0.0
 11
254.7202229999999
 21
44.871609
 31
0.0
  0
ARC
  5
9F3C
330
9E72
100
AcDbEntity
  8
1
  6
Continuous
100
AcDbCircle
 10
169.720223
 20
52.371609
 30
0.0
 40
7.5
100
AcDbArc
 50
166.55971
 51
270.0000179999999
  0
LINE
  5
9F3D
330
9E72
100
AcDbEntity
  8
4
  6
CENTER
100
AcDbLine
 10
165.220223
 20
53.871609
 30
0.0
 11
177.2202229999997
 21
53.871609
 31
0.0
  0
ARC
  5
9F3E
330
9E72
100
AcDbEntity
  8
1
  6
Continuous
100
AcDbCircle
 10
171.220223
 20
53.871609
 30
0.0
 40
4.4
100
AcDbArc
 50
116.3674389999999
 51
164.173245
  0
LINE
  5
9F3F
330
9E72
100
AcDbEntity
  8
4
  6
CENTER
100
AcDbLine
 10
171.220223
 20
47.87160899999999
 30
0.0
 11
171.220223
 21
59.871609
 31
0.0
  0
LINE
  5
9F40
330
9E72
100
AcDbEntity
  8
4
  6
CENTER
100
AcDbLine
 10
253.220223
 20
47.87160899999999
 30
0.0
 11
253.220223
 21
59.871609
 31
0.0
  0
LINE
  5
9F41
330
9E72
100
AcDbEntity
  8
1
  6
Continuous
100
AcDbLine
 10
163.6746569999999
 20
328.3716089999998
 30
0.0
 11
133.1997069999999
 21
328.3716089999998
 31
0.0
  0
LINE
  5
9F42
330
9E72
100
AcDbEntity
  8
1
  6
Continuous
100
AcDbLine
 10
163.6746569999999
 20
355.3716089999999
 30
0.0
 11
133.1997069999999
 21
355.3716089999999
 31
0.0
  0
ARC
  5
9F43
330
9E72
100
AcDbEntity
  8
1
  6
Continuous
100
AcDbCircle
 10
200.2202229999999
 20
341.8716089999998
 30
0.0
 40
70.0
100
AcDbArc
 50
170.26348
 51
189.7364989999998
  0
ARC
  5
9F44
330
9E72
100
AcDbEntity
  8
1
  6
Continuous
100
AcDbCircle
 10
133.1997069999999
 20
330.3716089999998
 30
0.0
 40
2.0
100
AcDbArc
 50
189.736519
 51
269.99998
  0
ARC
  5
9F45
330
9E72
100
AcDbEntity
  8
1
  6
Continuous
100
AcDbCircle
 10
133.1997069999999
 20
353.3716089999999
 30
0.0
 40
2.0
100
AcDbArc
 50
90.00005499999994
 51
170.263534
  0
LINE
  5
9F46
330
9E72
100
AcDbEntity
  8
1
  6
Continuous
100
AcDbLine
 10
169.220223
 20
89.87160899999997
 30
0.0
 11
193.6808049999999
 21
89.87160899999997
 31
0.0
  0
LINE
  5
9F47
330
9E72
100
AcDbEntity
  8
1
  6
Continuous
100
AcDbLine
 10
169.220223
 20
92.171604
 30
0.0
 11
193.680799
 21
92.171604
 31
0.0
  0
LINE
  5
9F48
330
9E72
100
AcDbEntity
  8
1
  6
Continuous
100
AcDbLine
 10
164.7202059999998
 20
57.87160899999999
 30
0.0
 11
195.7202389999999
 21
57.87160899999999
 31
0.0
  0
LINE
  5
9F49
330
9E72
100
AcDbEntity
  8
1
  6
Continuous
100
AcDbLine
 10
169.220223
 20
55.57161899999999
 30
0.0
 11
192.9409019999999
 21
55.57161899999999
 31
0.0
  0
LINE
  5
9F4A
330
9E72
100
AcDbEntity
  8
1
  6
Continuous
100
AcDbLine
 10
227.240738
 20
87.37160899999997
 30
0.0
 11
133.1997069999999
 21
87.37160899999997
 31
0.0
  0
LINE
  5
9F4B
330
9E72
100
AcDbEntity
  8
1
  6
Continuous
100
AcDbLine
 10
227.240738
 20
60.37160899999999
 30
0.0
 11
133.1997069999999
 21
60.37160899999999
 31
0.0
  0
ARC
  5
9F4C
330
9E72
100
AcDbEntity
  8
1
  6
Continuous
100
AcDbCircle
 10
200.2202229999999
 20
73.87160899999997
 30
0.0
 40
70.0
100
AcDbArc
 50
170.26348
 51
189.7364989999998
  0
ARC
  5
9F4D
330
9E72
100
AcDbEntity
  8
1
  6
Continuous
100
AcDbCircle
 10
133.1997069999999
 20
62.371609
 30
0.0
 40
2.0
100
AcDbArc
 50
189.736519
 51
269.99998
  0
ARC
  5
9F4E
330
9E72
100
AcDbEntity
  8
1
  6
Continuous
100
AcDbCircle
 10
133.1997069999999
 20
85.37160899999998
 30
0.0
 40
2.0
100
AcDbArc
 50
90.00005499999994
 51
170.263534
  0
LINE
  5
9F4F
330
9E72
100
AcDbEntity
  8
1
  6
Continuous
100
AcDbLine
 10
186.4702229999998
 20
55.571614
 30
0.0
 11
186.4702229999998
 21
54.371617
 31
0.0
  0
LINE
  5
9F50
330
9E72
100
AcDbEntity
  8
1
  6
Continuous
100
AcDbLine
 10
173.9702229999998
 20
55.571614
 30
0.0
 11
173.9702229999998
 21
54.371617
 31
0.0
  0
LINE
  5
9F51
330
9E72
100
AcDbEntity
  8
1
  6
Continuous
100
AcDbLine
 10
167.7202229999998
 20
88.87160899999996
 30
0.0
 11
192.720225
 21
88.87160899999996
 31
0.0
  0
ARC
  5
9F52
330
9E72
100
AcDbEntity
  8
1
  6
Continuous
100
AcDbCircle
 10
167.7202229999998
 20
85.87160899999998
 30
0.0
 40
3.0
100
AcDbArc
 50
90.00005499999994
 51
149.9999949999998
  0
LINE
  5
9F53
330
9E72
100
AcDbEntity
  8
1
  6
Continuous
100
AcDbLine
 10
176.2202229999997
 20
88.87160899999996
 30
0.0
 11
176.2202229999997
 21
89.87161699999999
 31
0.0
  0
LINE
  5
9F54
330
9E72
100
AcDbEntity
  8
1
  6
Continuous
100
AcDbLine
 10
184.220223
 20
88.87160899999996
 30
0.0
 11
184.220223
 21
89.87161699999999
 31
0.0
  0
ARC
  5
9F55
330
9E72
100
AcDbEntity
  8
1
  6
Continuous
100
AcDbCircle
 10
192.7202229999998
 20
85.87160899999998
 30
0.0
 40
3.0
100
AcDbArc
 50
30.00001
 51
89.99995000000001
  0
LINE
  5
9F56
330
9E72
100
AcDbEntity
  8
1
  6
Continuous
100
AcDbLine
 10
175.970223
 20
52.371617
 30
0.0
 11
184.470223
 21
52.371617
 31
0.0
  0
ARC
  5
9F57
330
9E72
100
AcDbEntity
  8
1
  6
Continuous
100
AcDbCircle
 10
175.970223
 20
54.371617
 30
0.0
 40
2.0
100
AcDbArc
 50
180.0000179999999
 51
270.0
  0
ARC
  5
9F58
330
9E72
100
AcDbEntity
  8
1
  6
Continuous
100
AcDbCircle
 10
184.470223
 20
54.371617
 30
0.0
 40
2.0
100
AcDbArc
 50
270.0
 51
359.9999799999998
  0
ARC
  5
9F59
330
9E72
100
AcDbEntity
  8
1
  6
Continuous
100
AcDbCircle
 10
160.220223
 20
73.87160899999997
 30
0.0
 40
70.0
100
AcDbArc
 50
350.2635009999999
 51
9.73652
  0
ARC
  5
9F5A
330
9E72
100
AcDbEntity
  8
1
  6
Continuous
100
AcDbCircle
 10
227.240738
 20
62.371609
 30
0.0
 40
2.0
100
AcDbArc
 50
270.00002
 51
350.2634799999999
  0
ARC
  5
9F5B
330
9E72
100
AcDbEntity
  8
1
  6
Continuous
100
AcDbCircle
 10
227.240738
 20
85.37160899999998
 30
0.0
 40
2.0
100
AcDbArc
 50
9.736469999999997
 51
89.99995000000001
  0
LINE
  5
9F5C
330
9E72
100
AcDbEntity
  8
1
  6
Continuous
100
AcDbLine
 10
169.220223
 20
92.171604
 30
0.0
 11
169.220223
 21
89.87160899999997
 31
0.0
  0
ARC
  5
9F5D
330
9E72
100
AcDbEntity
  8
1
  6
Continuous
100
AcDbCircle
 10
79.753563
 20
73.87160899999997
 30
0.0
 40
85.0
100
AcDbArc
 50
9.138616
 51
11.055785
  0
LINE
  5
9F5E
330
9E72
100
AcDbEntity
  8
1
  6
Continuous
100
AcDbLine
 10
169.220223
 20
57.87160899999999
 30
0.0
 11
169.220223
 21
55.57161899999999
 31
0.0
  0
ARC
  5
9F5F
330
9E72
100
AcDbEntity
  8
1
  6
Continuous
100
AcDbCircle
 10
214.8902839999998
 20
73.86203899999998
 30
0.0
 40
43.958572
100
AcDbArc
 50
158.641841
 51
160.0348759999999
  0
ARC
  5
9F60
330
9E72
100
AcDbEntity
  8
1
  6
Continuous
100
AcDbCircle
 10
212.220223
 20
73.87160899999997
 30
0.0
 40
25.0
100
AcDbArc
 50
230.2610529999999
 51
65.11944799999999
  0
ARC
  5
9F61
330
9E72
100
AcDbEntity
  8
1
  6
Continuous
100
AcDbCircle
 10
212.220223
 20
73.87160899999997
 30
0.0
 40
22.7
100
AcDbArc
 50
230.2610839999999
 51
64.56380300000001
  0
ARC
  5
9F62
330
9E72
100
AcDbEntity
  8
1
  6
Continuous
100
AcDbCircle
 10
212.220223
 20
73.87160899999997
 30
0.0
 40
17.0
100
AcDbArc
 50
232.5719939999999
 51
307.4280059999998
  0
ARC
  5
9F63
330
9E72
100
AcDbEntity
  8
1
  6
Continuous
100
AcDbCircle
 10
212.220223
 20
73.87160899999997
 30
0.0
 40
20.69999999999998
100
AcDbArc
 50
227.415458
 51
319.936096
  0
ARC
  5
9F64
330
9E72
100
AcDbEntity
  8
1
  6
Continuous
100
AcDbCircle
 10
212.220223
 20
73.87160899999997
 30
0.0
 40
17.0
100
AcDbArc
 50
52.571994
 51
73.50070599999998
  0
ARC
  5
9F65
330
9E72
100
AcDbEntity
  8
1
  6
Continuous
100
AcDbCircle
 10
212.220223
 20
73.87160899999997
 30
0.0
 40
20.69999999999998
100
AcDbArc
 50
40.06390399999999
 51
61.90051999999998
  0
ARC
  5
9F66
330
9E72
100
AcDbEntity
  8
1
  6
Continuous
100
AcDbCircle
 10
212.220223
 20
73.87160899999997
 30
0.0
 40
20.69999999999998
100
AcDbArc
 50
325.1878759999998
 51
34.81212399999999
  0
CIRCLE
  5
9F67
330
9E72
100
AcDbEntity
  8
2
  6
Continuous
100
AcDbCircle
 10
180.2202229999998
 20
196.871609
 30
0.0
 40
3.3235
  0
CIRCLE
  5
9F68
330
9E72
100
AcDbEntity
  8
1
  6
Continuous
100
AcDbCircle
 10
180.2202229999998
 20
196.871609
 30
0.0
 40
4.0
  0
ARC
  5
9F69
330
9E72
100
AcDbEntity
  8
1
  6
Continuous
100
AcDbCircle
 10
177.2202229999997
 20
93.617644
 30
0.0
 40
6.841600999999998
100
AcDbArc
 50
63.992176
 51
134.8075649999999
  0
ARC
  5
9F6A
330
9E72
100
AcDbEntity
  8
1
  6
Continuous
100
AcDbCircle
 10
177.2202229999997
 20
97.23200300000002
 30
0.0
 40
6.841600999999998
100
AcDbArc
 50
63.992176
 51
116.007824
  0
LINE
  5
9F6B
330
9E72
100
AcDbEntity
  8
1
  6
Continuous
100
AcDbLine
 10
177.470223
 20
104.073604
 30
0.0
 11
182.970223
 21
104.073604
 31
0.0
  0
LINE
  5
9F6C
330
9E72
100
AcDbEntity
  8
1
  6
Continuous
100
AcDbLine
 10
174.220223
 20
99.76642400000001
 30
0.0
 11
174.220223
 21
103.3807829999997
 31
0.0
  0
LINE
  5
9F6D
330
9E72
100
AcDbEntity
  8
1
  6
Continuous
100
AcDbLine
 10
180.2202229999998
 20
99.07360400000001
 30
0.0
 11
180.2202229999998
 21
103.3807829999997
 31
0.0
  0
LINE
  5
9F6E
330
9E72
100
AcDbEntity
  8
1
  6
Continuous
100
AcDbLine
 10
186.220223
 20
99.76642400000001
 30
0.0
 11
186.220223
 21
103.3807829999997
 31
0.0
  0
ARC
  5
9F6F
330
9E72
100
AcDbEntity
  8
1
  6
Continuous
100
AcDbCircle
 10
183.220223
 20
93.617644
 30
0.0
 40
6.841600999999998
100
AcDbArc
 50
45.19243499999999
 51
116.007824
  0
ARC
  5
9F70
330
9E72
100
AcDbEntity
  8
1
  6
Continuous
100
AcDbCircle
 10
183.220223
 20
97.23200300000002
 30
0.0
 40
6.841600999999998
100
AcDbArc
 50
63.992176
 51
116.007824
  0
LINE
  5
9F71
330
9E72
100
AcDbEntity
  8
4
  6
CENTER
100
AcDbLine
 10
335.3197999999999
 20
273.8716249999999
 30
0.0
 11
335.3197999999999
 21
141.8716249999999
 31
0.0
  0
ARC
  5
9F72
330
9E72
100
AcDbEntity
  8
1
  6
Continuous
100
AcDbCircle
 10
323.8198
 20
149.8511099999998
 30
0.0
 40
2.0
100
AcDbArc
 50
180.0000499999999
 51
260.26353
  0
ARC
  5
9F73
330
9E72
100
AcDbEntity
  8
1
  6
Continuous
100
AcDbCircle
 10
346.8198
 20
149.8511099999998
 30
0.0
 40
2.0
100
AcDbArc
 50
279.7365199999999
 51
359.9999799999998
  0
ARC
  5
9F74
330
9E72
100
AcDbEntity
  8
1
  6
Continuous
100
AcDbCircle
 10
335.3197999999999
 20
216.871625
 30
0.0
 40
70.0
100
AcDbArc
 50
260.2634799999999
 51
279.7364989999999
  0
LINE
  5
9F75
330
9E72
100
AcDbEntity
  8
1
  6
Continuous
100
AcDbLine
 10
348.8198
 20
149.8511099999998
 30
0.0
 11
348.8198
 21
243.892141
 31
0.0
  0
LINE
  5
9F76
330
9E72
100
AcDbEntity
  8
1
  6
Continuous
100
AcDbLine
 10
321.8198
 20
149.8511099999998
 30
0.0
 11
321.8198
 21
243.892141
 31
0.0
  0
LINE
  5
9F77
330
9E72
100
AcDbEntity
  8
1
  6
Continuous
100
AcDbLine
 10
310.3197999999999
 20
255.9716169999999
 30
0.0
 11
310.3197999999999
 21
231.823477
 31
0.0
  0
LINE
  5
9F78
330
9E72
100
AcDbEntity
  8
1
  6
Continuous
100
AcDbLine
 10
317.0198049999999
 20
201.845008
 30
0.0
 11
317.0198049999999
 21
191.936222
 31
0.0
  0
LINE
  5
9F79
330
9E72
100
AcDbEntity
  8
1
  6
Continuous
100
AcDbLine
 10
319.3197999999998
 20
250.973676
 30
0.0
 11
319.3197999999998
 21
185.871625
 31
0.0
  0
LINE
  5
9F7A
330
9E72
100
AcDbEntity
  8
1
  6
Continuous
100
AcDbLine
 10
353.6197899999999
 20
201.844997
 30
0.0
 11
353.6197899999999
 21
197.975582
 31
0.0
  0
LINE
  5
9F7B
330
9E72
100
AcDbEntity
  8
1
  6
Continuous
100
AcDbLine
 10
351.3198
 20
250.973676
 30
0.0
 11
351.3198
 21
198.1983119999999
 31
0.0
  0
LINE
  5
9F7C
330
9E72
100
AcDbEntity
  8
4
  6
CENTER
100
AcDbLine
 10
365.6197899999999
 20
196.8716249999999
 30
0.0
 11
295.1178049999998
 21
196.8716249999999
 31
0.0
  0
LINE
  5
9F7D
330
9E72
100
AcDbEntity
  8
1
  6
Continuous
100
AcDbLine
 10
353.6197899999999
 20
185.871625
 30
0.0
 11
351.3198
 21
185.871625
 31
0.0
  0
LINE
  5
9F7E
330
9E72
100
AcDbEntity
  8
1
  6
Continuous
100
AcDbLine
 10
320.3197999999998
 20
209.3716249999999
 30
0.0
 11
320.3197999999998
 21
184.371623
 31
0.0
  0
LINE
  5
9F7F
330
9E72
100
AcDbEntity
  8
1
  6
Continuous
100
AcDbLine
 10
356.819792
 20
201.1216249999999
 30
0.0
 11
356.819792
 21
192.6216249999999
 31
0.0
  0
LINE
  5
9F80
330
9E72
100
AcDbEntity
  8
1
  6
Continuous
100
AcDbLine
 10
320.3197999999998
 20
192.8716249999999
 30
0.0
 11
319.319792
 21
192.8716249999999
 31
0.0
  0
ARC
  5
9F81
330
9E72
100
AcDbEntity
  8
1
  6
Continuous
100
AcDbCircle
 10
323.3197999999998
 20
184.3716249999999
 30
0.0
 40
3.0
100
AcDbArc
 50
180.0000499999999
 51
239.99999
  0
LINE
  5
9F82
330
9E72
100
AcDbEntity
  8
1
  6
Continuous
100
AcDbLine
 10
353.619795
 20
190.6216249999999
 30
0.0
 11
354.819792
 21
190.6216249999999
 31
0.0
  0
LINE
  5
9F83
330
9E72
100
AcDbEntity
  8
1
  6
Continuous
100
AcDbLine
 10
317.0198049999999
 20
185.871625
 30
0.0
 11
319.3197999999998
 21
185.871625
 31
0.0
  0
ARC
  5
9F84
330
9E72
100
AcDbEntity
  8
1
  6
Continuous
100
AcDbCircle
 10
354.819792
 20
192.6216249999999
 30
0.0
 40
2.0
100
AcDbArc
 50
270.00002
 51
0.0
  0
ARC
  5
9F85
330
9E72
100
AcDbEntity
  8
1
  6
Continuous
100
AcDbCircle
 10
323.3197999999998
 20
209.3716249999999
 30
0.0
 40
3.0
100
AcDbArc
 50
120.000005
 51
179.999945
  0
ARC
  5
9F86
330
9E72
100
AcDbEntity
  8
1
  6
Continuous
100
AcDbCircle
 10
354.819792
 20
201.1216249999999
 30
0.0
 40
2.0
100
AcDbArc
 50
0.0
 51
90.0
  0
LINE
  5
9F87
330
9E72
100
AcDbEntity
  8
1
  6
Continuous
100
AcDbLine
 10
320.3197999999998
 20
200.8716249999999
 30
0.0
 11
319.319792
 21
200.8716249999999
 31
0.0
  0
ARC
  5
9F88
330
9E72
100
AcDbEntity
  8
1
  6
Continuous
100
AcDbCircle
 10
335.3197999999999
 20
176.8716249999999
 30
0.0
 40
70.0
100
AcDbArc
 50
80.263501
 51
99.73652000000001
  0
LINE
  5
9F89
330
9E72
100
AcDbEntity
  8
1
  6
Continuous
100
AcDbLine
 10
358.3197999999999
 20
261.971623
 30
0.0
 11
312.3197999999998
 21
261.971623
 31
0.0
  0
LINE
  5
9F8A
330
9E72
100
AcDbEntity
  8
1
  6
Continuous
100
AcDbLine
 10
364.3197999999999
 20
266.5716219999999
 30
0.0
 11
306.3197999999998
 21
266.5716219999999
 31
0.0
  0
LINE
  5
9F8B
330
9E72
100
AcDbEntity
  8
1
  6
Continuous
100
AcDbLine
 10
364.3197999999999
 20
268.871625
 30
0.0
 11
306.3197999999998
 21
268.871625
 31
0.0
  0
LINE
  5
9F8C
330
9E72
100
AcDbEntity
  8
1
  6
Continuous
100
AcDbLine
 10
355.3198
 20
260.971617
 30
0.0
 11
315.3197999999998
 21
260.971617
 31
0.0
  0
ARC
  5
9F8D
330
9E72
100
AcDbEntity
  8
1
  6
Continuous
100
AcDbCircle
 10
358.3197999999999
 20
264.971623
 30
0.0
 40
3.0
100
AcDbArc
 50
269.99998
 51
328.48641
  0
ARC
  5
9F8E
330
9E72
100
AcDbEntity
  8
1
  6
Continuous
100
AcDbCircle
 10
355.3198
 20
255.9716169999999
 30
0.0
 40
5.0
100
AcDbArc
 50
0.00004
 51
90.00001800000005
  0
LINE
  5
9F8F
330
9E72
100
AcDbEntity
  8
1
  6
Continuous
100
AcDbLine
 10
362.8198499999998
 20
266.571633
 30
0.0
 11
360.87739
 21
263.403523
 31
0.0
  0
LINE
  5
9F90
330
9E72
100
AcDbEntity
  8
1
  6
Continuous
100
AcDbLine
 10
364.3197999999999
 20
268.871625
 30
0.0
 11
364.3197999999999
 21
266.5716259999999
 31
0.0
  0
ARC
  5
9F91
330
9E72
100
AcDbEntity
  8
1
  6
Continuous
100
AcDbCircle
 10
346.8198
 20
243.892141
 30
0.0
 40
2.0
100
AcDbArc
 50
0.00002
 51
80.26348100000001
  0
LINE
  5
9F92
330
9E72
100
AcDbEntity
  8
4
  6
CENTER
100
AcDbLine
 10
355.3198
 20
273.8716249999999
 30
0.0
 11
355.3198
 21
261.5716219999999
 31
0.0
  0
ARC
  5
9F93
330
9E72
100
AcDbEntity
  8
1
  6
Continuous
100
AcDbCircle
 10
352.2321799999998
 20
262.4496279999998
 30
0.0
 40
2.778
100
AcDbArc
 50
327.85649
 51
350.0919
  0
ARC
  5
9F94
330
9E72
100
AcDbEntity
  8
1
  6
Continuous
100
AcDbCircle
 10
349.6969399999999
 20
262.4496279999998
 30
0.0
 40
2.778
100
AcDbArc
 50
327.85649
 51
350.0919
  0
ARC
  5
9F95
330
9E72
100
AcDbEntity
  8
1
  6
Continuous
100
AcDbCircle
 10
345.76096
 20
262.4496279999998
 30
0.0
 40
2.778
100
AcDbArc
 50
327.85649
 51
350.0919
  0
ARC
  5
9F96
330
9E72
100
AcDbEntity
  8
1
  6
Continuous
100
AcDbCircle
 10
353.1198199999999
 20
262.4496279999998
 30
0.0
 40
2.778
100
AcDbArc
 50
327.85649
 51
350.0919
  0
ARC
  5
9F97
330
9E72
100
AcDbEntity
  8
1
  6
Continuous
100
AcDbCircle
 10
340.8077299999998
 20
262.4496279999998
 30
0.0
 40
2.778
100
AcDbArc
 50
327.85649
 51
350.0919
  0
ARC
  5
9F98
330
9E72
100
AcDbEntity
  8
1
  6
Continuous
100
AcDbCircle
 10
345.76096
 20
262.4496279999998
 30
0.0
 40
2.778
100
AcDbArc
 50
206.93616
 51
212.14352
  0
ARC
  5
9F99
330
9E72
100
AcDbEntity
  8
1
  6
Continuous
100
AcDbCircle
 10
329.8319
 20
262.4496279999998
 30
0.0
 40
2.778
100
AcDbArc
 50
327.85649
 51
350.0919599999999
  0
ARC
  5
9F9A
330
9E72
100
AcDbEntity
  8
1
  6
Continuous
100
AcDbCircle
 10
335.31982
 20
262.4496279999998
 30
0.0
 40
2.778
100
AcDbArc
 50
189.90807
 51
212.14352
  0
ARC
  5
9F9B
330
9E72
100
AcDbEntity
  8
1
  6
Continuous
100
AcDbCircle
 10
340.8077299999998
 20
262.4496279999998
 30
0.0
 40
2.778
100
AcDbArc
 50
189.9080099999999
 51
212.14352
  0
ARC
  5
9F9C
330
9E72
100
AcDbEntity
  8
1
  6
Continuous
100
AcDbCircle
 10
335.31982
 20
262.4496279999998
 30
0.0
 40
2.778
100
AcDbArc
 50
327.85649
 51
350.0919
  0
ARC
  5
9F9D
330
9E72
100
AcDbEntity
  8
1
  6
Continuous
100
AcDbCircle
 10
315.3197999999998
 20
255.9716169999999
 30
0.0
 40
5.0
100
AcDbArc
 50
90.00001800000005
 51
180.0
  0
ARC
  5
9F9E
330
9E72
100
AcDbEntity
  8
1
  6
Continuous
100
AcDbCircle
 10
323.8198
 20
243.892141
 30
0.0
 40
2.0
100
AcDbArc
 50
99.73646600000002
 51
179.999945
  0
LINE
  5
9F9F
330
9E72
100
AcDbEntity
  8
4
  6
CENTER
100
AcDbLine
 10
315.3197999999998
 20
273.8716249999999
 30
0.0
 11
315.3197999999998
 21
261.5716219999999
 31
0.0
  0
ARC
  5
9FA0
330
9E72
100
AcDbEntity
  8
1
  6
Continuous
100
AcDbCircle
 10
318.407446
 20
262.4496279999998
 30
0.0
 40
2.778
100
AcDbArc
 50
189.90807
 51
212.14352
  0
ARC
  5
9FA1
330
9E72
100
AcDbEntity
  8
1
  6
Continuous
100
AcDbCircle
 10
320.942694
 20
262.4496279999998
 30
0.0
 40
2.778
100
AcDbArc
 50
189.90807
 51
212.14352
  0
ARC
  5
9FA2
330
9E72
100
AcDbEntity
  8
1
  6
Continuous
100
AcDbCircle
 10
324.878668
 20
262.4496279999998
 30
0.0
 40
2.778
100
AcDbArc
 50
327.85649
 51
333.0638
  0
ARC
  5
9FA3
330
9E72
100
AcDbEntity
  8
1
  6
Continuous
100
AcDbCircle
 10
317.5198049999999
 20
262.4496279999998
 30
0.0
 40
2.778
100
AcDbArc
 50
189.90807
 51
212.19887
  0
ARC
  5
9FA4
330
9E72
100
AcDbEntity
  8
1
  6
Continuous
100
AcDbCircle
 10
329.8319
 20
262.4496279999998
 30
0.0
 40
2.778
100
AcDbArc
 50
189.90807
 51
212.14352
  0
ARC
  5
9FA5
330
9E72
100
AcDbEntity
  8
1
  6
Continuous
100
AcDbCircle
 10
324.878668
 20
262.4496279999998
 30
0.0
 40
2.778
100
AcDbArc
 50
189.90807
 51
212.14352
  0
LINE
  5
9FA6
330
9E72
100
AcDbEntity
  8
1
  6
Continuous
100
AcDbLine
 10
306.3197999999998
 20
268.871625
 30
0.0
 11
306.3197999999998
 21
266.5716219999999
 31
0.0
  0
ARC
  5
9FA7
330
9E72
100
AcDbEntity
  8
1
  6
Continuous
100
AcDbCircle
 10
312.3197999999998
 20
264.971623
 30
0.0
 40
3.0
100
AcDbArc
 50
211.5135599999999
 51
269.99998
  0
LINE
  5
9FA8
330
9E72
100
AcDbEntity
  8
1
  6
Continuous
100
AcDbLine
 10
307.8198379999999
 20
266.5716450000001
 30
0.0
 11
309.76229
 21
263.403541
 31
0.0
  0
LINE
  5
9FA9
330
9E72
100
AcDbEntity
  8
1
  6
Continuous
100
AcDbLine
 10
360.3197999999999
 20
255.9716169999999
 30
0.0
 11
360.3197999999999
 21
231.823477
 31
0.0
  0
LINE
  5
9FAA
330
9E72
100
AcDbEntity
  8
1
  6
Continuous
100
AcDbLine
 10
509.2202229999998
 20
268.8716089999999
 30
0.0
 11
409.2202379999998
 21
268.8716089999999
 31
0.0
  0
LINE
  5
9FAB
330
9E72
100
AcDbEntity
  8
1
  6
Continuous
100
AcDbLine
 10
509.2202229999998
 20
266.5716059999999
 30
0.0
 11
409.2202379999998
 21
266.5716059999999
 31
0.0
  0
LINE
  5
9FAC
330
9E72
100
AcDbEntity
  8
4
  6
CENTER
100
AcDbLine
 10
491.220223
 20
256.3725949999999
 30
0.0
 11
491.220223
 21
141.871609
 31
0.0
  0
ARC
  5
9FAD
330
9E72
100
AcDbEntity
  8
1
  6
Continuous
100
AcDbCircle
 10
491.220223
 20
196.871609
 30
0.0
 40
50.0
100
AcDbArc
 50
132.5014879999999
 51
83.37811499999999
  0
LINE
  5
9FAE
330
9E72
100
AcDbEntity
  8
4
  6
CENTER
100
AcDbLine
 10
546.220223
 20
196.871609
 30
0.0
 11
436.220223
 21
196.871609
 31
0.0
  0
LINE
  5
9FAF
330
9E72
100
AcDbEntity
  8
1
  6
Continuous
100
AcDbLine
 10
481.679512
 20
191.3966819999999
 30
0.0
 11
481.2158649999998
 21
192.2065
 31
0.0
  0
LINE
  5
9FB0
330
9E72
100
AcDbEntity
  8
1
  6
Continuous
100
AcDbLine
 10
496.52819
 20
250.8315
 30
0.0
 11
501.758545
 21
201.785709
 31
0.0
  0
LINE
  5
9FB1
330
9E72
100
AcDbEntity
  8
1
  6
Continuous
100
AcDbLine
 10
480.2202229999998
 20
251.771612
 30
0.0
 11
480.2202229999998
 21
199.371609
 31
0.0
  0
LINE
  5
9FB2
330
9E72
100
AcDbEntity
  8
4
  6
CENTER
100
AcDbLine
 10
459.2202229999998
 20
274.335335
 30
0.0
 11
459.2202229999998
 21
214.6049389999999
 31
0.0
  0
ARC
  5
9FB3
330
9E72
100
AcDbEntity
  8
1
  6
Continuous
100
AcDbCircle
 10
491.220223
 20
196.871609
 30
0.0
 40
34.5
100
AcDbArc
 50
138.385287
 51
77.49432
  0
ARC
  5
9FB4
330
9E72
100
AcDbEntity
  8
1
  6
Continuous
100
AcDbCircle
 10
491.220223
 20
196.871609
 30
0.0
 40
11.0
100
AcDbArc
 50
209.7924799999999
 51
6.08713
  0
LINE
  5
9FB5
330
9E72
100
AcDbEntity
  8
1
  6
Continuous
100
AcDbLine
 10
480.2202229999998
 20
260.9716049999998
 30
0.0
 11
439.2202229999998
 21
260.9716049999998
 31
0.0
  0
LINE
  5
9FB6
330
9E72
100
AcDbEntity
  8
1
  6
Continuous
100
AcDbLine
 10
482.220225
 20
261.9716069999999
 30
0.0
 11
436.220223
 21
261.9716069999999
 31
0.0
  0
ARC
  5
9FB7
330
9E72
100
AcDbEntity
  8
1
  6
Continuous
100
AcDbCircle
 10
480.2202229999998
 20
255.971604
 30
0.0
 40
5.0
100
AcDbArc
 50
1.09966
 51
90.00001800000005
  0
ARC
  5
9FB8
330
9E72
100
AcDbEntity
  8
1
  6
Continuous
100
AcDbCircle
 10
499.014094
 20
251.096602
 30
0.0
 40
2.5
100
AcDbArc
 50
79.99997999999997
 51
186.08715
  0
LINE
  5
9FB9
330
9E72
100
AcDbEntity
  8
1
  6
Continuous
100
AcDbLine
 10
500.508732
 20
253.371624
 30
0.0
 11
481.6165199999998
 21
256.70283
 31
0.0
  0
ARC
  5
9FBA
330
9E72
100
AcDbEntity
  8
1
  6
Continuous
100
AcDbCircle
 10
497.564969
 20
250.539781
 30
0.0
 40
1.0
100
AcDbArc
 50
79.99996999999997
 51
186.08715
  0
LINE
  5
9FBB
330
9E72
100
AcDbEntity
  8
1
  6
Continuous
100
AcDbLine
 10
500.109342
 20
251.1065659999999
 30
0.0
 11
497.7386169999999
 21
251.524589
 31
0.0
  0
LINE
  5
9FBC
330
9E72
100
AcDbEntity
  8
1
  6
Continuous
100
AcDbLine
 10
500.508732
 20
253.371624
 30
0.0
 11
500.109342
 21
251.1065659999999
 31
0.0
  0
LINE
  5
9FBD
330
9E72
100
AcDbEntity
  8
4
  6
CENTER
100
AcDbLine
 10
500.2202229999999
 20
273.871609
 30
0.0
 11
500.2202229999999
 21
261.571606
 31
0.0
  0
LINE
  5
9FBE
330
9E72
100
AcDbEntity
  8
1
  6
Continuous
100
AcDbLine
 10
509.2202379999998
 20
266.571614
 30
0.0
 11
509.2202379999998
 21
268.871617
 31
0.0
  0
ARC
  5
9FBF
330
9E72
100
AcDbEntity
  8
1
  6
Continuous
100
AcDbCircle
 10
482.220223
 20
264.971607
 30
0.0
 40
3.0
100
AcDbArc
 50
269.99998
 51
328.48641
  0
LINE
  5
9FC0
330
9E72
100
AcDbEntity
  8
1
  6
Continuous
100
AcDbLine
 10
486.720221
 20
266.5716269999999
 30
0.0
 11
484.777768
 21
263.4035169999999
 31
0.0
  0
ARC
  5
9FC1
330
9E72
100
AcDbEntity
  8
1
  6
Continuous
100
AcDbCircle
 10
438.2447359999998
 20
237.071608
 30
0.0
 40
15.0
100
AcDbArc
 50
29.79243
 51
90.00001800000005
  0
ARC
  5
9FC2
330
9E72
100
AcDbEntity
  8
1
  6
Continuous
100
AcDbCircle
 10
476.1326069999998
 20
262.4496119999998
 30
0.0
 40
2.778
100
AcDbArc
 50
327.85663
 51
350.0919
  0
ARC
  5
9FC3
330
9E72
100
AcDbEntity
  8
1
  6
Continuous
100
AcDbCircle
 10
473.5973669999999
 20
262.4496119999998
 30
0.0
 40
2.778
100
AcDbArc
 50
327.8566
 51
350.0919
  0
ARC
  5
9FC4
330
9E72
100
AcDbEntity
  8
1
  6
Continuous
100
AcDbCircle
 10
469.6613929999998
 20
262.4496119999998
 30
0.0
 40
2.778
100
AcDbArc
 50
327.8566
 51
350.0919
  0
ARC
  5
9FC5
330
9E72
100
AcDbEntity
  8
1
  6
Continuous
100
AcDbCircle
 10
464.708153
 20
262.4496119999998
 30
0.0
 40
2.778
100
AcDbArc
 50
327.8566
 51
350.0919
  0
ARC
  5
9FC6
330
9E72
100
AcDbEntity
  8
1
  6
Continuous
100
AcDbCircle
 10
477.0202489999999
 20
262.4496119999998
 30
0.0
 40
2.778
100
AcDbArc
 50
327.85663
 51
350.0919
  0
ARC
  5
9FC7
330
9E72
100
AcDbEntity
  8
1
  6
Continuous
100
AcDbCircle
 10
453.7323230000001
 20
262.4496119999998
 30
0.0
 40
2.778
100
AcDbArc
 50
189.90807
 51
212.1434199999999
  0
ARC
  5
9FC8
330
9E72
100
AcDbEntity
  8
1
  6
Continuous
100
AcDbCircle
 10
464.708153
 20
262.4496119999998
 30
0.0
 40
2.778
100
AcDbArc
 50
189.9080099999999
 51
212.1434199999999
  0
ARC
  5
9FC9
330
9E72
100
AcDbEntity
  8
1
  6
Continuous
100
AcDbCircle
 10
459.2202379999998
 20
262.4496119999998
 30
0.0
 40
2.778
100
AcDbArc
 50
327.8566
 51
350.0919
  0
ARC
  5
9FCA
330
9E72
100
AcDbEntity
  8
1
  6
Continuous
100
AcDbCircle
 10
453.7323230000001
 20
262.4496119999998
 30
0.0
 40
2.778
100
AcDbArc
 50
327.8566
 51
350.0919599999999
  0
ARC
  5
9FCB
330
9E72
100
AcDbEntity
  8
1
  6
Continuous
100
AcDbCircle
 10
459.2202379999998
 20
262.4496119999998
 30
0.0
 40
2.778
100
AcDbArc
 50
189.90807
 51
212.1434199999999
  0
ARC
  5
9FCC
330
9E72
100
AcDbEntity
  8
1
  6
Continuous
100
AcDbCircle
 10
439.2202229999998
 20
255.971605
 30
0.0
 40
5.0
100
AcDbArc
 50
90.0
 51
180.0
  0
LINE
  5
9FCD
330
9E72
100
AcDbEntity
  8
1
  6
Continuous
100
AcDbLine
 10
434.2202229999998
 20
255.971605
 30
0.0
 11
434.2202229999998
 21
252.071608
 31
0.0
  0
LINE
  5
9FCE
330
9E72
100
AcDbEntity
  8
1
  6
Continuous
100
AcDbLine
 10
438.2447359999998
 20
252.071608
 30
0.0
 11
434.2202229999998
 21
252.071608
 31
0.0
  0
LINE
  5
9FCF
330
9E72
100
AcDbEntity
  8
1
  6
Continuous
100
AcDbLine
 10
431.720225
 20
266.5716269999999
 30
0.0
 11
433.662678
 21
263.4035169999999
 31
0.0
  0
ARC
  5
9FD0
330
9E72
100
AcDbEntity
  8
1
  6
Continuous
100
AcDbCircle
 10
448.779084
 20
262.4496119999998
 30
0.0
 40
2.778
100
AcDbArc
 50
189.90807
 51
212.1434199999999
  0
ARC
  5
9FD1
330
9E72
100
AcDbEntity
  8
1
  6
Continuous
100
AcDbCircle
 10
442.3078689999998
 20
262.4496119999998
 30
0.0
 40
2.778
100
AcDbArc
 50
189.90807
 51
212.1433699999999
  0
ARC
  5
9FD2
330
9E72
100
AcDbEntity
  8
1
  6
Continuous
100
AcDbCircle
 10
444.8431099999998
 20
262.4496119999998
 30
0.0
 40
2.778
100
AcDbArc
 50
189.90807
 51
212.1433699999999
  0
ARC
  5
9FD3
330
9E72
100
AcDbEntity
  8
1
  6
Continuous
100
AcDbCircle
 10
436.220223
 20
264.971607
 30
0.0
 40
3.0
100
AcDbArc
 50
211.5135599999999
 51
269.99998
  0
ARC
  5
9FD4
330
9E72
100
AcDbEntity
  8
1
  6
Continuous
100
AcDbCircle
 10
441.420228
 20
262.4496119999998
 30
0.0
 40
2.778
100
AcDbArc
 50
189.90807
 51
212.1433699999999
  0
LINE
  5
9FD5
330
9E72
100
AcDbEntity
  8
4
  6
CENTER
100
AcDbLine
 10
418.2202229999998
 20
273.871609
 30
0.0
 11
418.2202229999998
 21
261.571606
 31
0.0
  0
LINE
  5
9FD6
330
9E72
100
AcDbEntity
  8
1
  6
Continuous
100
AcDbLine
 10
409.2202379999998
 20
266.5715979999998
 30
0.0
 11
409.2202379999998
 21
268.8716089999999
 31
0.0
  0
LINE
  5
9FD7
330
9E72
100
AcDbEntity
  8
1
  6
Continuous
100
AcDbLine
 10
180.2202229999998
 20
203.3716029999999
 30
0.0
 11
174.591062
 21
200.1216059999999
 31
0.0
  0
LINE
  5
9FD8
330
9E72
100
AcDbEntity
  8
1
  6
Continuous
100
AcDbLine
 10
174.591062
 20
200.1216059999999
 30
0.0
 11
174.591062
 21
193.621611
 31
0.0
  0
LINE
  5
9FD9
330
9E72
100
AcDbEntity
  8
1
  6
Continuous
100
AcDbLine
 10
174.591062
 20
193.621611
 30
0.0
 11
180.2202229999998
 21
190.371614
 31
0.0
  0
LINE
  5
9FDA
330
9E72
100
AcDbEntity
  8
1
  6
Continuous
100
AcDbLine
 10
180.2202229999998
 20
190.371614
 30
0.0
 11
185.849383
 21
193.621611
 31
0.0
  0
LINE
  5
9FDB
330
9E72
100
AcDbEntity
  8
1
  6
Continuous
100
AcDbLine
 10
185.849383
 20
193.621611
 30
0.0
 11
185.849383
 21
200.1216059999999
 31
0.0
  0
LINE
  5
9FDC
330
9E72
100
AcDbEntity
  8
1
  6
Continuous
100
AcDbLine
 10
185.849383
 20
200.1216059999999
 30
0.0
 11
180.2202229999998
 21
203.3716029999999
 31
0.0
  0
LINE
  5
9FDD
330
9E72
100
AcDbEntity
  8
1
  6
Continuous
100
AcDbLine
 10
88.22223199999998
 20
192.871609
 30
0.0
 11
87.42223199999996
 21
192.871609
 31
0.0
  0
LINE
  5
9FDE
330
9E72
100
AcDbEntity
  8
2
  6
Continuous
100
AcDbLine
 10
88.89873199999998
 20
193.548109
 30
0.0
 11
87.42223199999996
 21
193.548109
 31
0.0
  0
LINE
  5
9FDF
330
9E72
100
AcDbEntity
  8
1
  6
Continuous
100
AcDbLine
 10
88.22223199999998
 20
200.871609
 30
0.0
 11
87.42223199999996
 21
200.871609
 31
0.0
  0
LINE
  5
9FE0
330
9E72
100
AcDbEntity
  8
2
  6
Continuous
100
AcDbLine
 10
88.89873199999998
 20
200.1951089999999
 30
0.0
 11
87.42223199999996
 21
200.1951089999999
 31
0.0
  0
LINE
  5
9FE1
330
9E72
100
AcDbEntity
  8
1
  6
Continuous
100
AcDbLine
 10
89.42223199999999
 20
194.071609
 30
0.0
 11
88.22223199999998
 21
192.871609
 31
0.0
  0
LINE
  5
9FE2
330
9E72
100
AcDbEntity
  8
1
  6
Continuous
100
AcDbLine
 10
88.22223199999998
 20
192.871609
 30
0.0
 11
88.22223199999998
 21
200.871609
 31
0.0
  0
LINE
  5
9FE3
330
9E72
100
AcDbEntity
  8
1
  6
Continuous
100
AcDbLine
 10
89.42223199999999
 20
199.6716089999999
 30
0.0
 11
88.22223199999998
 21
200.871609
 31
0.0
  0
LINE
  5
9FE4
330
9E72
100
AcDbEntity
  8
1
  6
Continuous
100
AcDbLine
 10
89.42223199999999
 20
194.071609
 30
0.0
 11
89.42223199999999
 21
199.6716089999999
 31
0.0
  0
LINE
  5
9FE5
330
9E72
100
AcDbEntity
  8
1
  6
Continuous
100
AcDbLine
 10
184.220223
 20
104.873604
 30
0.0
 11
184.220223
 21
104.073604
 31
0.0
  0
LINE
  5
9FE6
330
9E72
100
AcDbEntity
  8
2
  6
Continuous
100
AcDbLine
 10
183.543723
 20
105.550104
 30
0.0
 11
183.543723
 21
104.073604
 31
0.0
  0
LINE
  5
9FE7
330
9E72
100
AcDbEntity
  8
1
  6
Continuous
100
AcDbLine
 10
176.2202229999997
 20
104.873604
 30
0.0
 11
176.2202229999997
 21
104.073604
 31
0.0
  0
LINE
  5
9FE8
330
9E72
100
AcDbEntity
  8
2
  6
Continuous
100
AcDbLine
 10
176.896723
 20
105.550104
 30
0.0
 11
176.896723
 21
104.073604
 31
0.0
  0
LINE
  5
9FE9
330
9E72
100
AcDbEntity
  8
1
  6
Continuous
100
AcDbLine
 10
183.0202229999999
 20
106.073604
 30
0.0
 11
184.220223
 21
104.873604
 31
0.0
  0
LINE
  5
9FEA
330
9E72
100
AcDbEntity
  8
1
  6
Continuous
100
AcDbLine
 10
184.220223
 20
104.873604
 30
0.0
 11
176.2202229999997
 21
104.873604
 31
0.0
  0
LINE
  5
9FEB
330
9E72
100
AcDbEntity
  8
1
  6
Continuous
100
AcDbLine
 10
177.420223
 20
106.073604
 30
0.0
 11
176.2202229999997
 21
104.873604
 31
0.0
  0
LINE
  5
9FEC
330
9E72
100
AcDbEntity
  8
1
  6
Continuous
100
AcDbLine
 10
183.0202229999999
 20
106.073604
 30
0.0
 11
177.420223
 21
106.073604
 31
0.0
  0
CIRCLE
  5
9FED
330
9E72
100
AcDbEntity
  8
1
  6
Continuous
100
AcDbCircle
 10
180.2202229999998
 20
196.871609
 30
0.0
 40
2.799999999999998
  0
CIRCLE
  5
9FEE
330
9E72
100
AcDbEntity
  8
1
  6
Continuous
100
AcDbCircle
 10
180.2202229999998
 20
196.871609
 30
0.0
 40
5.102012999999998
  0
ARC
  5
9FF7
330
9E72
100
AcDbEntity
  8
1
  6
Continuous
100
AcDbCircle
 10
379.7375599999999
 20
231.823477
 30
0.0
 40
69.417761
100
AcDbArc
 50
164.295714
 51
205.1964439999999
  0
ARC
  5
9FF8
330
9E72
100
AcDbEntity
  8
1
  6
Continuous
100
AcDbCircle
 10
290.902039
 20
231.823477
 30
0.0
 40
69.417761
100
AcDbArc
 50
334.8035469999998
 51
15.70428599999999
  0
LINE
  5
9FF9
330
9E72
100
AcDbEntity
  8
1
  6
Continuous
100
AcDbLine
 10
354.1082819999999
 20
203.1216249999999
 30
0.0
 11
354.819792
 21
203.1216249999999
 31
0.0
  0
ARC
  5
9FFA
330
9E72
100
AcDbEntity
  8
1
  6
Continuous
100
AcDbCircle
 10
290.902039
 20
231.823477
 30
0.0
 40
67.117761
100
AcDbArc
 50
334.8035659999998
 51
17.55857599999999
  0
ARC
  5
9FFB
330
9E72
100
AcDbEntity
  8
1
  6
Continuous
100
AcDbCircle
 10
379.7375599999999
 20
231.823477
 30
0.0
 40
67.117761
100
AcDbArc
 50
162.441424
 51
205.196434
  0
ARC
  5
9FFC
330
9E72
100
AcDbEntity
  8
1
  6
Continuous
100
AcDbCircle
 10
335.3197999999999
 20
379.6020149999998
 30
0.0
 40
128.4999999999998
100
AcDbArc
 50
263.34847
 51
276.6515
  0
ARC
  5
9FFD
330
9E72
100
AcDbEntity
  8
1
  6
Continuous
100
AcDbCircle
 10
320.3197999999998
 20
250.973676
 30
0.0
 40
1.0
100
AcDbArc
 50
83.348539
 51
179.9999599999999
  0
ARC
  5
9FFE
330
9E72
100
AcDbEntity
  8
1
  6
Continuous
100
AcDbCircle
 10
350.3197999999999
 20
250.973676
 30
0.0
 40
1.0
100
AcDbArc
 50
0.00004
 51
96.65146100000001
  0
LINE
  5
9FFF
330
9E72
100
AcDbEntity
  8
1
  6
Continuous
100
AcDbLine
 10
314.8364029999999
 20
252.071608
 30
0.0
 11
355.803196
 21
252.071608
 31
0.0
  0
ARC
  5
A000
330
9E72
100
AcDbEntity
  8
1
  6
Continuous
100
AcDbCircle
 10
355.803196
 20
250.071608
 30
0.0
 40
2.0
100
AcDbArc
 50
15.70428599999999
 51
90.0
  0
ARC
  5
A001
330
9E72
100
AcDbEntity
  8
1
  6
Continuous
100
AcDbCircle
 10
314.8364029999999
 20
250.071608
 30
0.0
 40
2.0
100
AcDbArc
 50
90.0
 51
164.295714
  0
ARC
  5
A002
330
9E72
100
AcDbEntity
  8
1
  6
Continuous
100
AcDbCircle
 10
193.6808049999999
 20
96.17160900000001
 30
0.0
 40
6.299999999999998
100
AcDbArc
 50
270.0
 51
309.738916
  0
ARC
  5
A003
330
9E72
100
AcDbEntity
  8
1
  6
Continuous
100
AcDbCircle
 10
193.6808049999999
 20
51.571609
 30
0.0
 40
6.299999999999998
100
AcDbArc
 50
50.261084
 51
57.58579499999999
  0
ARC
  5
A004
330
9E72
100
AcDbEntity
  8
1
  6
Continuous
100
AcDbCircle
 10
193.680793
 20
51.571619
 30
0.0
 40
4.0
100
AcDbArc
 50
50.26105300000001
 51
68.288744
  0
ARC
  5
A005
330
9E72
100
AcDbEntity
  8
1
  6
Continuous
100
AcDbCircle
 10
316.0197999999998
 20
201.8450179999999
 30
0.0
 40
3.299999999999998
100
AcDbArc
 50
0.0
 51
25.196434
  0
ARC
  5
A006
330
9E72
100
AcDbEntity
  8
1
  6
Continuous
100
AcDbCircle
 10
354.6197999999998
 20
201.8450179999999
 30
0.0
 40
3.299999999999998
100
AcDbArc
 50
154.803566
 51
180.0
  0
LINE
  5
A007
330
9E72
100
AcDbEntity
  8
1
  6
Continuous
100
AcDbLine
 10
304.5198199999998
 20
201.980709
 30
0.0
 11
315.1310409999998
 21
201.980709
 31
0.0
  0
LINE
  5
A008
330
9E72
100
AcDbEntity
  8
1
  6
Continuous
100
AcDbLine
 10
305.838301
 20
213.7464249999999
 30
0.0
 11
312.714835
 21
213.7464249999999
 31
0.0
  0
ARC
  5
A009
330
9E72
100
AcDbEntity
  8
1
  6
Continuous
100
AcDbCircle
 10
302.8698109999999
 20
202.7801469999999
 30
0.0
 40
19.97969399999998
100
AcDbArc
 50
245.1419
 51
294.8581019999998
  0
ARC
  5
A00A
330
9E72
100
AcDbEntity
  8
1
  6
Continuous
100
AcDbCircle
 10
302.8698109999999
 20
204.8184159999999
 30
0.0
 40
19.97969399999998
100
AcDbArc
 50
245.1419
 51
294.8581019999998
  0
ARC
  5
A00B
330
9E72
100
AcDbEntity
  8
1
  6
Continuous
100
AcDbCircle
 10
306.7698199999998
 20
210.725414
 30
0.0
 40
19.97969399999998
100
AcDbArc
 50
79.72191099999998
 51
114.8581139999999
  0
LINE
  5
A00C
330
9E72
100
AcDbEntity
  8
1
  6
Continuous
100
AcDbLine
 10
195.9307569999998
 20
311.071599
 30
0.0
 11
215.590135
 21
300.214741
 31
0.0
  0
LINE
  5
A00D
330
9E72
100
AcDbEntity
  8
1
  6
Continuous
100
AcDbLine
 10
153.9677899999998
 20
303.5654339999998
 30
0.0
 11
174.8412649999999
 21
310.932225
 31
0.0
  0
LINE
  5
A00E
330
9E72
100
AcDbEntity
  8
1
  6
Continuous
100
AcDbLine
 10
196.995699
 20
311.072316
 30
0.0
 11
216.6556259999999
 21
300.214802
 31
0.0
  0
ARC
  5
A00F
330
9E72
100
AcDbEntity
  8
1
  6
Continuous
100
AcDbCircle
 10
153.2558459999999
 20
313.321614
 30
0.0
 40
11.20420599999998
100
AcDbArc
 50
138.4524829999998
 51
221.5475129999999
  0
ARC
  5
A010
330
9E72
100
AcDbEntity
  8
1
  6
Continuous
100
AcDbCircle
 10
152.1902639999999
 20
313.321614
 30
0.0
 40
11.20420599999998
100
AcDbArc
 50
138.4524829999998
 51
221.5475129999999
  0
ARC
  5
A011
330
9E72
100
AcDbEntity
  8
1
  6
Continuous
100
AcDbCircle
 10
218.581758
 20
309.4216049999999
 30
0.0
 40
11.20420599999998
100
AcDbArc
 50
318.452482
 51
17.933953
  0
LINE
  5
A012
330
9E72
100
AcDbEntity
  8
1
  6
Continuous
100
AcDbLine
 10
77.82022099999998
 20
183.537181
 30
0.0
 11
77.82022099999998
 21
223.9180409999999
 31
0.0
  0
LINE
  5
A013
330
9E72
100
AcDbEntity
  8
1
  6
Continuous
100
AcDbLine
 10
98.89019799999999
 20
191.936573
 30
0.0
 11
89.23230699999995
 21
200.8317219999999
 31
0.0
  0
LINE
  5
A014
330
9E72
100
AcDbEntity
  8
1
  6
Continuous
100
AcDbLine
 10
77.46900899999999
 20
182.2286489999999
 30
0.0
 11
80.02775600000003
 21
182.2286489999999
 31
0.0
  0
LINE
  5
A028
330
9E72
100
AcDbEntity
  8
1
  6
Continuous
100
AcDbLine
 10
75.520218
 20
191.936229
 30
0.0
 11
73.520218
 21
191.936229
 31
0.0
  0
LINE
  5
A029
330
9E72
100
AcDbEntity
  8
1
  6
Continuous
100
AcDbLine
 10
73.520218
 20
191.936229
 30
0.0
 11
73.520218
 21
186.886516
 31
0.0
  0
LINE
  5
A02A
330
9E72
100
AcDbEntity
  8
1
  6
Continuous
100
AcDbLine
 10
75.520218
 20
189.89793
 30
0.0
 11
73.520218
 21
189.89793
 31
0.0
  0
LINE
  5
A02B
330
9E72
100
AcDbEntity
  8
1
  6
Continuous
100
AcDbLine
 10
75.520218
 20
186.886516
 30
0.0
 11
73.520218
 21
186.886516
 31
0.0
  0
LINE
  5
A02C
330
9E72
100
AcDbEntity
  8
1
  6
Continuous
100
AcDbLine
 10
75.520218
 20
183.979137
 30
0.0
 11
77.82022099999998
 21
183.979137
 31
0.0
  0
LINE
  5
A042
330
9E72
100
AcDbEntity
  8
1
  6
Continuous
100
AcDbLine
 10
89.42223199999999
 20
198.618537
 30
0.0
 11
98.890205
 21
189.8982879999999
 31
0.0
  0
ARC
  5
A043
330
9E72
100
AcDbEntity
  8
1
  6
Continuous
100
AcDbCircle
 10
89.67022699999999
 20
202.780132
 30
0.0
 40
19.97969399999998
100
AcDbArc
 50
246.5527779999999
 51
294.8581159999998
  0
LINE
  5
A044
330
9E72
100
AcDbEntity
  8
1
  6
Continuous
100
AcDbLine
 10
79.42022699999998
 20
180.1423139999999
 30
0.0
 11
79.42022699999998
 21
182.2286489999999
 31
0.0
  0
LINE
  5
A045
330
9E72
100
AcDbEntity
  8
1
  6
Continuous
100
AcDbLine
 10
79.42022699999998
 20
180.1423139999999
 30
0.0
 11
81.72022199999998
 21
180.1423139999999
 31
0.0
  0
LINE
  5
A046
330
9E72
100
AcDbEntity
  8
1
  6
Continuous
100
AcDbLine
 10
81.72022199999998
 20
180.1423139999999
 30
0.0
 11
81.72022199999998
 21
188.4716089999997
 31
0.0
  0
ARC
  5
A047
330
9E72
100
AcDbEntity
  8
1
  6
Continuous
100
AcDbCircle
 10
81.22013800000003
 20
181.949474
 30
0.0
 40
0.5
100
AcDbArc
 50
359.999997
 51
111.2173639999999
  0
LINE
  5
A048
330
9E72
100
AcDbEntity
  8
1
  6
Continuous
100
AcDbLine
 10
99.92022699999999
 20
187.549236
 30
0.0
 11
99.92022699999999
 21
189.5875049999999
 31
0.0
  0
ARC
  5
A049
330
9E72
100
AcDbEntity
  8
1
  6
Continuous
100
AcDbCircle
 10
96.726646
 20
187.549236
 30
0.0
 40
3.193579
100
AcDbArc
 50
294.8581019999998
 51
47.354091
  0
ARC
  5
A04A
330
9E72
100
AcDbEntity
  8
1
  6
Continuous
100
AcDbCircle
 10
96.726646
 20
189.5875049999999
 30
0.0
 40
3.193579
100
AcDbArc
 50
359.999997
 51
47.354176
  0
LINE
  5
A04B
330
9E72
100
AcDbEntity
  8
1
  6
Continuous
100
AcDbLine
 10
87.63788599999998
 20
210.967754
 30
0.0
 11
77.82022099999998
 21
210.967754
 31
0.0
  0
ARC
  5
A04C
330
9E72
100
AcDbEntity
  8
1
  6
Continuous
100
AcDbCircle
 10
85.770218
 20
210.725414
 30
0.0
 40
19.97969399999998
100
AcDbArc
 50
65.14189800000001
 51
114.8580999999998
  0
ARC
  5
A04D
330
9E72
100
AcDbEntity
  8
1
  6
Continuous
100
AcDbCircle
 10
85.770218
 20
208.6871449999999
 30
0.0
 40
19.97969399999998
100
AcDbArc
 50
65.14189800000001
 51
114.8580999999998
  0
LINE
  5
A04E
330
9E72
100
AcDbEntity
  8
1
  6
Continuous
100
AcDbLine
 10
73.520218
 20
217.233867
 30
0.0
 11
73.520218
 21
222.0519519999998
 31
0.0
  0
LINE
  5
A04F
330
9E72
100
AcDbEntity
  8
1
  6
Continuous
100
AcDbLine
 10
75.520218
 20
220.0136829999999
 30
0.0
 11
73.520218
 21
220.0136829999999
 31
0.0
  0
LINE
  5
A050
330
9E72
100
AcDbEntity
  8
1
  6
Continuous
100
AcDbLine
 10
75.520218
 20
217.233867
 30
0.0
 11
73.520218
 21
217.233867
 31
0.0
  0
LINE
  5
A051
330
9E72
100
AcDbEntity
  8
1
  6
Continuous
100
AcDbLine
 10
75.520218
 20
208.2555649999999
 30
0.0
 11
77.82022099999998
 21
208.2555649999999
 31
0.0
  0
LINE
  5
A052
330
9E72
100
AcDbEntity
  8
1
  6
Continuous
100
AcDbLine
 10
75.520218
 20
222.0519519999998
 30
0.0
 11
73.520218
 21
222.0519519999998
 31
0.0
  0
LINE
  5
A053
330
9E72
100
AcDbEntity
  8
1
  6
Continuous
100
AcDbLine
 10
75.520218
 20
223.9180409999999
 30
0.0
 11
77.82022099999998
 21
223.9180409999999
 31
0.0
  0
ARC
  5
A054
330
9E72
100
AcDbEntity
  8
1
  6
Continuous
100
AcDbCircle
 10
78.71379799999998
 20
225.95631
 30
0.0
 40
3.193579
100
AcDbArc
 50
114.8580999999998
 51
180.000005
  0
ARC
  5
A055
330
9E72
100
AcDbEntity
  8
1
  6
Continuous
100
AcDbCircle
 10
78.71379799999998
 20
223.9180409999999
 30
0.0
 40
3.193579
100
AcDbArc
 50
114.8580999999998
 51
180.000005
  0
LINE
  5
A056
330
9E72
100
AcDbEntity
  8
1
  6
Continuous
100
AcDbLine
 10
87.63789399999996
 20
210.967769
 30
0.0
 11
95.440521
 21
222.0832169999999
 31
0.0
  0
ARC
  5
A057
330
9E72
100
AcDbEntity
  8
1
  6
Continuous
100
AcDbCircle
 10
96.00692700000001
 20
208.187267
 30
0.0
 40
10.0
100
AcDbArc
 50
207.5165319999999
 51
227.4797379999999
  0
ARC
  5
A058
330
9E72
100
AcDbEntity
  8
1
  6
Continuous
100
AcDbCircle
 10
116.76458
 20
219.000652
 30
0.0
 40
33.40532299999999
100
AcDbArc
 50
195.562253
 51
207.5165319999999
  0
ARC
  5
A059
330
9E72
100
AcDbEntity
  8
1
  6
Continuous
100
AcDbCircle
 10
91.87738799999999
 20
209.2263599999999
 30
0.0
 40
7.346719999999997
100
AcDbArc
 50
175.5108769999999
 51
197.296189
  0
ARC
  5
A05A
330
9E72
100
AcDbEntity
  8
1
  6
Continuous
100
AcDbCircle
 10
86.91598499999996
 20
209.615886
 30
0.0
 40
2.370054
100
AcDbArc
 50
145.2214469999999
 51
175.5108769999999
  0
ARC
  5
A05B
330
9E72
100
AcDbEntity
  8
1
  6
Continuous
100
AcDbCircle
 10
116.7580339999999
 20
216.9739799999999
 30
0.0
 40
33.40532299999999
100
AcDbArc
 50
196.4368179999999
 51
204.7987319999998
  0
ARC
  5
A05C
330
9E72
100
AcDbEntity
  8
1
  6
Continuous
100
AcDbCircle
 10
92.826637
 20
225.95631
 30
0.0
 40
3.193579
100
AcDbArc
 50
359.999997
 51
65.14189800000001
  0
ARC
  5
A05D
330
9E72
100
AcDbEntity
  8
1
  6
Continuous
100
AcDbCircle
 10
92.826637
 20
223.9180409999999
 30
0.0
 40
3.193579
100
AcDbArc
 50
324.932596
 51
65.14189800000001
  0
LINE
  5
A05E
330
9E72
100
AcDbEntity
  8
1
  6
Continuous
100
AcDbLine
 10
96.02021800000001
 20
223.9180409999999
 30
0.0
 11
96.02021800000001
 21
225.95631
 31
0.0
  0
LINE
  5
A05F
330
9E72
100
AcDbEntity
  8
1
  6
Continuous
100
AcDbLine
 10
222.7384199999999
 20
96.07161300000001
 30
0.0
 11
222.7384199999999
 21
98.37161600000001
 31
0.0
  0
LINE
  5
A060
330
9E72
100
AcDbEntity
  8
1
  6
Continuous
100
AcDbLine
 10
195.9307569999998
 20
102.7659639999999
 30
0.0
 11
195.9307569999998
 21
95.67151200000001
 31
0.0
  0
LINE
  5
A061
330
9E72
100
AcDbEntity
  8
1
  6
Continuous
100
AcDbLine
 10
173.775667
 20
103.711887
 30
0.0
 11
173.775667
 21
99.52886499999999
 31
0.0
  0
LINE
  5
A062
330
9E72
100
AcDbEntity
  8
1
  6
Continuous
100
AcDbLine
 10
196.3684409999999
 20
94.47160700000001
 30
0.0
 11
203.4580709999999
 21
98.37160799999999
 31
0.0
  0
ARC
  5
A063
330
9E72
100
AcDbEntity
  8
1
  6
Continuous
100
AcDbCircle
 10
220.702349
 20
104.4423249999999
 30
0.0
 40
8.370708999999997
100
AcDbArc
 50
284.077735
 51
318.452482
  0
ARC
  5
A064
330
9E72
100
AcDbEntity
  8
1
  6
Continuous
100
AcDbCircle
 10
219.6367659999999
 20
104.4423249999999
 30
0.0
 40
8.370708999999997
100
AcDbArc
 50
291.7487679999998
 51
318.452482
  0
ARC
  5
A065
330
9E72
100
AcDbEntity
  8
1
  6
Continuous
100
AcDbCircle
 10
152.190248
 20
102.4216039999999
 30
0.0
 40
11.20420599999998
100
AcDbArc
 50
138.4524829999998
 51
221.5475129999999
  0
LINE
  5
A066
330
9E72
100
AcDbEntity
  8
1
  6
Continuous
100
AcDbLine
 10
196.9593069999999
 20
92.171604
 30
0.0
 11
145.99164
 21
92.171604
 31
0.0
  0
LINE
  5
A067
330
9E72
100
AcDbEntity
  8
1
  6
Continuous
100
AcDbLine
 10
196.3684409999999
 20
94.47160700000001
 30
0.0
 11
145.99164
 21
94.47160700000001
 31
0.0
  0
LINE
  5
A068
330
9E72
100
AcDbEntity
  8
1
  6
Continuous
100
AcDbLine
 10
163.92087
 20
90.17160399999999
 30
0.0
 11
157.538027
 21
90.17160399999999
 31
0.0
  0
LINE
  5
A069
330
9E72
100
AcDbEntity
  8
1
  6
Continuous
100
AcDbLine
 10
145.99164
 20
92.171604
 30
0.0
 11
145.99164
 21
94.47160700000001
 31
0.0
  0
ARC
  5
A06A
330
9E72
100
AcDbEntity
  8
1
  6
Continuous
100
AcDbCircle
 10
150.0696429999998
 20
100.542316
 30
0.0
 40
8.370708999999997
100
AcDbArc
 50
221.547517
 51
240.844905
  0
LINE
  5
A06B
330
9E72
100
AcDbEntity
  8
1
  6
Continuous
100
AcDbLine
 10
157.538027
 20
92.171604
 30
0.0
 11
157.538027
 21
90.17160399999999
 31
0.0
  0
LINE
  5
A06C
330
9E72
100
AcDbEntity
  8
1
  6
Continuous
100
AcDbLine
 10
162.855287
 20
92.171604
 30
0.0
 11
162.855287
 21
90.17160399999999
 31
0.0
  0
LINE
  5
A06D
330
9E72
100
AcDbEntity
  8
1
  6
Continuous
100
AcDbLine
 10
155.843599
 20
92.171604
 30
0.0
 11
155.843599
 21
94.47160700000001
 31
0.0
  0
LINE
  5
A06E
330
9E72
100
AcDbEntity
  8
1
  6
Continuous
100
AcDbLine
 10
163.92087
 20
92.171604
 30
0.0
 11
163.92087
 21
90.17160399999999
 31
0.0
  0
LINE
  5
A06F
330
9E72
100
AcDbEntity
  8
1
  6
Continuous
100
AcDbLine
 10
165.1524219999997
 20
92.171604
 30
0.0
 11
165.1524219999997
 21
94.47160700000001
 31
0.0
  0
LINE
  5
A070
330
9E72
100
AcDbEntity
  8
1
  6
Continuous
100
AcDbLine
 10
189.079927
 20
92.171604
 30
0.0
 11
189.079927
 21
94.47160700000001
 31
0.0
  0
LINE
  5
A071
330
9E72
100
AcDbEntity
  8
1
  6
Continuous
100
AcDbLine
 10
222.7384199999999
 20
96.07161300000001
 30
0.0
 11
204.048952
 21
96.07161300000001
 31
0.0
  0
LINE
  5
A072
330
9E72
100
AcDbEntity
  8
1
  6
Continuous
100
AcDbLine
 10
196.9593069999999
 20
92.171604
 30
0.0
 11
204.048937
 21
96.071605
 31
0.0
  0
LINE
  5
A073
330
9E72
100
AcDbEntity
  8
1
  6
Continuous
100
AcDbLine
 10
215.144091
 20
90.17160399999999
 30
0.0
 11
221.9700029999999
 21
90.17160399999999
 31
0.0
  0
LINE
  5
A074
330
9E72
100
AcDbEntity
  8
1
  6
Continuous
100
AcDbLine
 10
221.9700029999999
 20
96.07161300000001
 30
0.0
 11
221.9700029999999
 21
90.17160399999999
 31
0.0
  0
LINE
  5
A075
330
9E72
100
AcDbEntity
  8
1
  6
Continuous
100
AcDbLine
 10
215.144091
 20
96.07161300000001
 30
0.0
 11
215.144091
 21
90.17160399999999
 31
0.0
  0
LINE
  5
A076
330
9E72
100
AcDbEntity
  8
1
  6
Continuous
100
AcDbLine
 10
220.904421
 20
96.07161300000001
 30
0.0
 11
220.904421
 21
90.17160399999999
 31
0.0
  0
LINE
  5
A077
330
9E72
100
AcDbEntity
  8
5
  6
PHANTOM
100
AcDbLine
 10
194.8035329999999
 20
210.3261929999999
 30
0.0
 11
199.4878809999999
 21
196.7847319999999
 31
0.0
  0
ARC
  5
A078
330
9E72
100
AcDbEntity
  8
1
  6
Continuous
100
AcDbCircle
 10
186.882631
 20
113.1372409999999
 30
0.0
 40
12.391586
100
AcDbArc
 50
266.9357189999999
 51
316.9144149999999
  0
ARC
  5
A079
330
9E72
100
AcDbEntity
  8
5
  6
PHANTOM
100
AcDbCircle
 10
187.6306199999999
 20
220.597848
 30
0.0
 40
10.0
100
AcDbArc
 50
258.754791
 51
289.0818689999998
  0
ARC
  5
A07A
330
9E72
100
AcDbEntity
  8
5
  6
PHANTOM
100
AcDbCircle
 10
181.9303439999999
 20
191.9280159999999
 30
0.0
 40
21.531025
100
AcDbArc
 50
78.75481999999998
 51
139.408898
  0
ARC
  5
A07B
330
9E72
100
AcDbEntity
  8
5
  6
PHANTOM
100
AcDbCircle
 10
191.147834
 20
210.442791
 30
0.0
 40
16.003084
100
AcDbArc
 50
284.5521969999998
 51
338.274872
  0
ARC
  5
A07C
330
9E72
100
AcDbEntity
  8
5
  6
PHANTOM
100
AcDbCircle
 10
177.6559959999999
 20
204.284208
 30
0.0
 40
19.84358
100
AcDbArc
 50
246.213143
 51
331.9505819999998
  0
ARC
  5
A07D
330
9E72
100
AcDbEntity
  8
5
  6
PHANTOM
100
AcDbCircle
 10
163.242635
 20
200.7896479999998
 30
0.0
 40
16.003084
100
AcDbArc
 50
239.888825
 51
293.6114939999999
  0
LINE
  5
A07E
330
9E72
100
AcDbEntity
  8
1
  6
Continuous
100
AcDbLine
 10
153.3284659999999
 20
112.0111999999999
 30
0.0
 11
173.8311629999999
 21
104.7833669999999
 31
0.0
  0
LINE
  5
A07F
330
9E72
100
AcDbEntity
  8
1
  6
Continuous
100
AcDbLine
 10
154.394155
 20
112.011154
 30
0.0
 11
174.896761
 21
104.7833589999999
 31
0.0
  0
ARC
  5
A080
330
9E72
100
AcDbEntity
  8
1
  6
Continuous
100
AcDbCircle
 10
150.0696429999998
 20
104.3008909999999
 30
0.0
 40
8.370708999999997
100
AcDbArc
 50
67.088265
 51
138.4524829999998
  0
ARC
  5
A081
330
9E72
100
AcDbEntity
  8
1
  6
Continuous
100
AcDbCircle
 10
151.1352249999999
 20
104.3008909999999
 30
0.0
 40
8.370708999999997
100
AcDbArc
 50
67.08746999999999
 51
90.00000300000001
  0
LINE
  5
A082
330
9E72
100
AcDbEntity
  8
1
  6
Continuous
100
AcDbLine
 10
150.0696429999998
 20
112.671604
 30
0.0
 11
151.1352249999999
 21
112.671604
 31
0.0
  0
ARC
  5
A083
330
9E72
100
AcDbEntity
  8
1
  6
Continuous
100
AcDbCircle
 10
196.3827379999999
 20
148.038372
 30
0.0
 40
48.297459
100
AcDbArc
 50
243.5851219999999
 51
245.6616009999999
  0
ARC
  5
A084
330
9E72
100
AcDbEntity
  8
1
  6
Continuous
100
AcDbCircle
 10
195.317156
 20
148.038387
 30
0.0
 40
48.297459
100
AcDbArc
 50
243.5851219999999
 51
246.0387809999999
  0
ARC
  5
A085
330
9E72
100
AcDbEntity
  8
1
  6
Continuous
100
AcDbCircle
 10
187.948229
 20
113.137226
 30
0.0
 40
12.391586
100
AcDbArc
 50
261.9839819999999
 51
267.5354399999998
  0
LINE
  5
A086
330
9E72
100
AcDbEntity
  8
5
  6
PHANTOM
100
AcDbLine
 10
130.170964
 20
190.1395729999999
 30
0.0
 11
163.002306
 21
201.496792
 31
0.0
  0
LINE
  5
A087
330
9E72
100
AcDbEntity
  8
5
  6
PHANTOM
100
AcDbLine
 10
129.4190519999999
 20
192.313195
 30
0.0
 11
162.250404
 21
203.670426
 31
0.0
  0
LINE
  5
A088
330
9E72
100
AcDbEntity
  8
5
  6
PHANTOM
100
AcDbLine
 10
147.8220279999999
 20
196.245651
 30
0.0
 11
148.802807
 21
193.410423
 31
0.0
  0
ARC
  5
A089
330
9E72
100
AcDbEntity
  8
5
  6
PHANTOM
100
AcDbCircle
 10
147.942441
 20
197.3814909999999
 30
0.0
 40
12.45549699999999
100
AcDbArc
 50
203.844424
 51
260.2368699999999
  0
LINE
  5
A08A
330
9E72
100
AcDbEntity
  8
5
  6
PHANTOM
100
AcDbLine
 10
153.4923339999997
 20
198.207162
 30
0.0
 11
154.4731129999999
 21
195.371934
 31
0.0
  0
LINE
  5
A08B
330
9E72
100
AcDbEntity
  8
5
  6
PHANTOM
100
AcDbLine
 10
148.802765
 20
193.410378
 30
0.0
 11
154.473125
 21
195.371902
 31
0.0
  0
LINE
  5
A08C
330
9E72
100
AcDbEntity
  8
5
  6
PHANTOM
100
AcDbLine
 10
155.214211
 20
186.946109
 30
0.0
 11
145.8302939999998
 21
185.106371
 31
0.0
  0
LINE
  5
A08D
330
9E72
100
AcDbEntity
  8
5
  6
PHANTOM
100
AcDbLine
 10
130.1708649999999
 20
190.139645
 30
0.0
 11
129.4189529999999
 21
192.3132679999999
 31
0.0
  0
ARC
  5
A08E
330
9E72
100
AcDbEntity
  8
1
  6
Continuous
100
AcDbCircle
 10
151.1352399999998
 20
311.4423259999998
 30
0.0
 40
8.370708999999997
100
AcDbArc
 50
221.547517
 51
289.7786679999999
  0
ARC
  5
A08F
330
9E72
100
AcDbEntity
  8
1
  6
Continuous
100
AcDbCircle
 10
150.069658
 20
311.4423259999998
 30
0.0
 40
8.370708999999997
100
AcDbArc
 50
221.547517
 51
273.6493129999999
  0
ARC
  5
A090
330
9E72
100
AcDbEntity
  8
5
  6
PHANTOM
100
AcDbCircle
 10
181.9303439999999
 20
191.9280159999999
 30
0.0
 40
19.23102399999998
100
AcDbArc
 50
78.7548
 51
139.408925
  0
ARC
  5
A091
330
9E72
100
AcDbEntity
  8
5
  6
PHANTOM
100
AcDbCircle
 10
159.733105
 20
210.9473589999999
 30
0.0
 40
10.0
100
AcDbArc
 50
289.0818689999998
 51
319.40892
  0
ARC
  5
A092
330
9E72
100
AcDbEntity
  8
5
  6
PHANTOM
100
AcDbCircle
 10
159.733105
 20
210.9473589999999
 30
0.0
 40
7.7
100
AcDbArc
 50
289.0818689999998
 51
319.4089
  0
LINE
  5
A093
330
9E72
100
AcDbEntity
  8
5
  6
PHANTOM
100
AcDbLine
 10
190.147909
 20
213.3209029999999
 30
0.0
 11
222.979246
 21
224.6781279999999
 31
0.0
  0
LINE
  5
A094
330
9E72
100
AcDbEntity
  8
5
  6
PHANTOM
100
AcDbLine
 10
190.899832
 20
211.1472919999999
 30
0.0
 11
223.731158
 21
222.5045059999999
 31
0.0
  0
ARC
  5
A0A8
330
9E72
100
AcDbEntity
  8
1
  6
Continuous
100
AcDbCircle
 10
220.702349
 20
108.2009009999999
 30
0.0
 40
8.370708999999997
100
AcDbArc
 50
41.54751799999998
 51
90.00000300000001
  0
ARC
  5
A0A9
330
9E72
100
AcDbEntity
  8
1
  6
Continuous
100
AcDbCircle
 10
217.5161609999999
 20
106.3216129999997
 30
0.0
 40
11.20420599999998
100
AcDbArc
 50
318.452482
 51
41.54751799999998
  0
LINE
  5
A0AA
330
9E72
100
AcDbEntity
  8
1
  6
Continuous
100
AcDbLine
 10
222.7384199999999
 20
98.37161600000001
 30
0.0
 11
203.458086
 21
98.37161600000001
 31
0.0
  0
LINE
  5
A0AB
330
9E72
100
AcDbEntity
  8
1
  6
Continuous
100
AcDbLine
 10
195.9311689999999
 20
104.671749
 30
0.0
 11
215.59009
 21
115.528461
 31
0.0
  0
LINE
  5
A0AC
330
9E72
100
AcDbEntity
  8
1
  6
Continuous
100
AcDbLine
 10
219.6367659999999
 20
116.5716129999997
 30
0.0
 11
220.702349
 21
116.5716129999997
 31
0.0
  0
ARC
  5
A0AD
330
9E72
100
AcDbEntity
  8
1
  6
Continuous
100
AcDbCircle
 10
219.6367659999999
 20
108.2009009999999
 30
0.0
 40
8.370708999999997
100
AcDbArc
 50
41.54751799999998
 51
118.9098639999997
  0
LINE
  5
A0AE
330
9E72
100
AcDbEntity
  8
5
  6
PHANTOM
100
AcDbLine
 10
206.0142139999999
 20
204.5191879999999
 30
0.0
 11
214.5291009999999
 21
208.871126
 31
0.0
  0
LINE
  5
A0AF
330
9E72
100
AcDbEntity
  8
5
  6
PHANTOM
100
AcDbLine
 10
205.214738
 20
210.8084999999999
 30
0.0
 11
211.357571
 21
212.9334669999999
 31
0.0
  0
LINE
  5
A0B0
330
9E72
100
AcDbEntity
  8
5
  6
PHANTOM
100
AcDbLine
 10
202.3639699999999
 20
212.9415499999999
 30
0.0
 11
205.6033649999998
 21
203.57712
 31
0.0
  0
LINE
  5
A0B1
330
9E72
100
AcDbEntity
  8
5
  6
PHANTOM
100
AcDbLine
 10
203.580108
 20
215.533842
 30
0.0
 11
205.214731
 21
210.808527
 31
0.0
  0
LINE
  5
A0B2
330
9E72
100
AcDbEntity
  8
5
  6
PHANTOM
100
AcDbLine
 10
209.723006
 20
217.6588329999999
 30
0.0
 11
211.3576129999999
 21
212.9335119999999
 31
0.0
  0
ARC
  5
A0B3
330
9E72
100
AcDbEntity
  8
5
  6
PHANTOM
100
AcDbCircle
 10
205.283512
 20
217.2172859999998
 30
0.0
 40
12.45549699999999
100
AcDbArc
 50
317.9268299999999
 51
14.31928
  0
ARC
  5
A0B4
330
9E72
100
AcDbEntity
  8
1
  6
Continuous
100
AcDbCircle
 10
218.5817429999999
 20
106.3216129999997
 30
0.0
 40
11.20420599999998
100
AcDbArc
 50
318.452482
 51
41.54751799999998
  0
ARC
  5
A0B5
330
9E72
100
AcDbEntity
  8
1
  6
Continuous
100
AcDbCircle
 10
295.8133839999998
 20
187.5492429999999
 30
0.0
 40
3.193579
100
AcDbArc
 50
179.9999909999999
 51
245.1419099999999
  0
ARC
  5
A0B6
330
9E72
100
AcDbEntity
  8
1
  6
Continuous
100
AcDbCircle
 10
295.8133839999998
 20
189.587513
 30
0.0
 40
3.193579
100
AcDbArc
 50
132.738812
 51
245.1419099999999
  0
LINE
  5
A0B7
330
9E72
100
AcDbEntity
  8
5
  6
PHANTOM
100
AcDbLine
 10
223.7316729999998
 20
222.5047959999999
 30
0.0
 11
222.979766
 21
224.6784139999999
 31
0.0
  0
LINE
  5
A0B8
330
9E72
100
AcDbEntity
  8
1
  6
Continuous
100
AcDbLine
 10
304.5198049999999
 20
201.980724
 30
0.0
 11
293.646025
 21
191.9330399999997
 31
0.0
  0
LINE
  5
A0B9
330
9E72
100
AcDbEntity
  8
1
  6
Continuous
100
AcDbLine
 10
292.6198109999999
 20
189.587513
 30
0.0
 11
292.6198109999999
 21
187.5492429999999
 31
0.0
  0
ARC
  5
A0BA
330
9E72
100
AcDbEntity
  8
5
  6
PHANTOM
100
AcDbCircle
 10
187.6306199999999
 20
220.597848
 30
0.0
 40
7.7
100
AcDbArc
 50
258.754818
 51
289.0818689999998
  0
LINE
  5
A0BB
330
9E72
100
AcDbEntity
  8
1
  6
Continuous
100
AcDbLine
 10
219.6367819999999
 20
299.1716049999999
 30
0.0
 11
220.702364
 21
299.1716049999999
 31
0.0
  0
ARC
  5
A0BC
330
9E72
100
AcDbEntity
  8
1
  6
Continuous
100
AcDbCircle
 10
220.702364
 20
307.5423169999999
 30
0.0
 40
8.370708999999997
100
AcDbArc
 50
241.0895889999999
 51
318.452482
  0
ARC
  5
A0BD
330
9E72
100
AcDbEntity
  8
1
  6
Continuous
100
AcDbCircle
 10
219.6367819999999
 20
307.5423169999999
 30
0.0
 40
8.370708999999997
100
AcDbArc
 50
241.090368
 51
273.6493129999999
  0
ARC
  5
A0BE
330
9E72
100
AcDbEntity
  8
1
  6
Continuous
100
AcDbCircle
 10
299.713393
 20
225.9563249999999
 30
0.0
 40
3.193579
100
AcDbArc
 50
114.858087
 51
215.0990769999999
  0
LINE
  5
A0BF
330
9E72
100
AcDbEntity
  8
1
  6
Continuous
100
AcDbLine
 10
304.5198199999998
 20
213.563121
 30
0.0
 11
297.1005390000001
 21
224.120037
 31
0.0
  0
LINE
  5
A0C0
330
9E72
100
AcDbEntity
  8
1
  6
Continuous
100
AcDbLine
 10
304.5198049999999
 20
211.5248369999999
 30
0.0
 11
297.100524
 21
222.081768
 31
0.0
  0
LINE
  5
A0C1
330
9E72
100
AcDbEntity
  8
1
  6
Continuous
100
AcDbLine
 10
296.5198199999998
 20
225.9563249999999
 30
0.0
 11
296.5198199999998
 21
223.918056
 31
0.0
  0
ARC
  5
A0C2
330
9E72
100
AcDbEntity
  8
1
  6
Continuous
100
AcDbCircle
 10
299.713393
 20
223.918056
 30
0.0
 40
3.193579
100
AcDbArc
 50
179.9999909999999
 51
215.0990769999999
  0
LINE
  5
A0D8
330
9E72
100
AcDbEntity
  8
1
  6
Continuous
100
AcDbLine
 10
157.603624
 20
323.571614
 30
0.0
 11
145.991655
 21
323.571614
 31
0.0
  0
LINE
  5
A0D9
330
9E72
100
AcDbEntity
  8
1
  6
Continuous
100
AcDbLine
 10
145.991655
 20
323.571614
 30
0.0
 11
145.991655
 21
322.5110819999998
 31
0.0
  0
ARC
  5
A0DA
330
9E72
100
AcDbEntity
  8
1
  6
Continuous
100
AcDbCircle
 10
151.1352399999998
 20
315.2009169999999
 30
0.0
 40
8.370708999999997
100
AcDbArc
 50
90.00000300000001
 51
138.4524829999998
  0
ARC
  5
A0DB
330
9E72
100
AcDbEntity
  8
1
  6
Continuous
100
AcDbCircle
 10
150.069658
 20
315.2009169999999
 30
0.0
 40
8.370708999999997
100
AcDbArc
 50
90.00000300000001
 51
138.4524829999998
  0
LINE
  5
A0DC
330
9E72
100
AcDbEntity
  8
1
  6
Continuous
100
AcDbLine
 10
158.603624
 20
319.071614
 30
0.0
 11
158.603624
 21
325.571614
 31
0.0
  0
LINE
  5
A0DD
330
9E72
100
AcDbEntity
  8
1
  6
Continuous
100
AcDbLine
 10
163.1760429999999
 20
325.571614
 30
0.0
 11
157.5380419999999
 21
325.571614
 31
0.0
  0
LINE
  5
A0DE
330
9E72
100
AcDbEntity
  8
1
  6
Continuous
100
AcDbLine
 10
157.5380419999999
 20
323.571614
 30
0.0
 11
157.5380419999999
 21
325.571614
 31
0.0
  0
ARC
  5
A0DF
330
9E72
100
AcDbEntity
  8
1
  6
Continuous
100
AcDbCircle
 10
157.603624
 20
322.571614
 30
0.0
 40
1.0
100
AcDbArc
 50
0.0
 51
90.00000300000001
  0
ARC
  5
A0E0
330
9E72
100
AcDbEntity
  8
1
  6
Continuous
100
AcDbCircle
 10
186.8824629999997
 20
302.605214
 30
0.0
 40
12.391586
100
AcDbArc
 50
43.097111
 51
55.944677
  0
ARC
  5
A0E1
330
9E72
100
AcDbEntity
  8
1
  6
Continuous
100
AcDbCircle
 10
187.948061
 20
302.60587
 30
0.0
 40
12.391586
100
AcDbArc
 50
43.097111
 51
55.93925999999999
  0
LINE
  5
A0E2
330
9E72
100
AcDbEntity
  8
1
  6
Continuous
100
AcDbLine
 10
174.8412649999999
 20
310.932209
 30
0.0
 11
174.8412649999999
 21
312.8716089999998
 31
0.0
  0
ARC
  5
A0E3
330
9E72
100
AcDbEntity
  8
1
  6
Continuous
100
AcDbCircle
 10
196.3825699999999
 20
267.704716
 30
0.0
 40
48.297459
100
AcDbArc
 50
110.7425029999999
 51
116.4881929999999
  0
LINE
  5
A0E4
330
9E72
100
AcDbEntity
  8
1
  6
Continuous
100
AcDbLine
 10
196.9963549999999
 20
311.071614
 30
0.0
 11
196.9963549999999
 21
312.8716089999998
 31
0.0
  0
LINE
  5
A0E5
330
9E72
100
AcDbEntity
  8
1
  6
Continuous
100
AcDbLine
 10
310.819792
 20
180.139385
 30
0.0
 11
310.819792
 21
184.450227
 31
0.0
  0
LINE
  5
A0E6
330
9E72
100
AcDbEntity
  8
1
  6
Continuous
100
AcDbLine
 10
313.1198109999999
 20
180.139385
 30
0.0
 11
313.1198109999999
 21
188.9248
 31
0.0
  0
LINE
  5
A0E7
330
9E72
100
AcDbEntity
  8
1
  6
Continuous
100
AcDbLine
 10
317.0198049999999
 20
182.228656
 30
0.0
 11
317.0198049999999
 21
186.886524
 31
0.0
  0
LINE
  5
A0E8
330
9E72
100
AcDbEntity
  8
1
  6
Continuous
100
AcDbLine
 10
313.1198109999999
 20
180.139385
 30
0.0
 11
310.819792
 21
180.139385
 31
0.0
  0
LINE
  5
A0E9
330
9E72
100
AcDbEntity
  8
1
  6
Continuous
100
AcDbLine
 10
317.0198049999999
 20
182.2286489999999
 30
0.0
 11
313.1198109999999
 21
180.1393769999999
 31
0.0
  0
LINE
  5
A0EA
330
9E72
100
AcDbEntity
  8
1
  6
Continuous
100
AcDbLine
 10
311.695067
 20
188.9248
 30
0.0
 11
319.0198049999999
 21
188.9248
 31
0.0
  0
LINE
  5
A0EB
330
9E72
100
AcDbEntity
  8
1
  6
Continuous
100
AcDbLine
 10
311.6198109999999
 20
191.936222
 30
0.0
 11
319.0198049999999
 21
191.936222
 31
0.0
  0
LINE
  5
A0EC
330
9E72
100
AcDbEntity
  8
1
  6
Continuous
100
AcDbLine
 10
319.0198049999999
 20
191.936222
 30
0.0
 11
319.0198049999999
 21
186.886524
 31
0.0
  0
LINE
  5
A0ED
330
9E72
100
AcDbEntity
  8
1
  6
Continuous
100
AcDbLine
 10
313.1198109999999
 20
186.886524
 30
0.0
 11
319.0198049999999
 21
186.886524
 31
0.0
  0
LINE
  5
A0EE
330
9E72
100
AcDbEntity
  8
1
  6
Continuous
100
AcDbLine
 10
313.1198109999999
 20
191.936222
 30
0.0
 11
313.1198109999999
 21
194.546695
 31
0.0
  0
ARC
  5
A0EF
330
9E72
100
AcDbEntity
  8
1
  6
Continuous
100
AcDbCircle
 10
309.926238
 20
189.587513
 30
0.0
 40
3.193579
100
AcDbArc
 50
294.8581019999998
 51
348.0232389999998
  0
ARC
  5
A0F0
330
9E72
100
AcDbEntity
  8
1
  6
Continuous
100
AcDbCircle
 10
309.926238
 20
187.5492429999999
 30
0.0
 40
3.193579
100
AcDbArc
 50
294.8581019999998
 51
348.0232389999998
  0
LINE
  5
A104
330
9E72
100
AcDbEntity
  8
5
  6
PHANTOM
100
AcDbLine
 10
186.8765409999998
 20
203.9358449999999
 30
0.0
 11
185.452303
 21
203.443164
 31
0.0
  0
LINE
  5
A105
330
9E72
100
AcDbEntity
  8
5
  6
PHANTOM
100
AcDbLine
 10
189.8188079999999
 20
195.430372
 30
0.0
 11
188.3945709999999
 21
194.9376909999998
 31
0.0
  0
ARC
  5
A106
330
9E72
100
AcDbEntity
  8
5
  6
PHANTOM
100
AcDbCircle
 10
188.347674
 20
199.683109
 30
0.0
 40
4.5
100
AcDbArc
 50
289.081852
 51
109.081852
  0
ARC
  5
A107
330
9E72
100
AcDbEntity
  8
5
  6
PHANTOM
100
AcDbCircle
 10
172.0927709999999
 20
194.060109
 30
0.0
 40
4.5
100
AcDbArc
 50
109.081852
 51
289.081852
  0
LINE
  5
A108
330
9E72
100
AcDbEntity
  8
5
  6
PHANTOM
100
AcDbLine
 10
172.0458749999997
 20
198.805527
 30
0.0
 11
170.6216379999998
 21
198.3128449999999
 31
0.0
  0
LINE
  5
A109
330
9E72
100
AcDbEntity
  8
5
  6
PHANTOM
100
AcDbLine
 10
174.9881419999999
 20
190.3000539999999
 30
0.0
 11
173.563905
 21
189.8073729999999
 31
0.0
  0
ARC
  5
A10A
330
9E72
100
AcDbEntity
  8
1
  6
Continuous
100
AcDbCircle
 10
180.2202229999998
 20
196.871609
 30
0.0
 40
34.5
100
AcDbArc
 50
152.6246539999999
 51
332.1753839999999
  0
ARC
  5
A10B
330
9E72
100
AcDbEntity
  8
1
  6
Continuous
100
AcDbCircle
 10
180.2202229999998
 20
196.871609
 30
0.0
 40
34.5
100
AcDbArc
 50
353.2865619999999
 51
41.614713
  0
ARC
  5
A10C
330
9E72
100
AcDbEntity
  8
1
  6
Continuous
100
AcDbCircle
 10
180.2202229999998
 20
196.871609
 30
0.0
 40
34.5
100
AcDbArc
 50
340.7329509999998
 51
349.249112
  0
ARC
  5
A10D
330
9E72
100
AcDbEntity
  8
1
  6
Continuous
100
AcDbCircle
 10
180.2202229999998
 20
196.871609
 30
0.0
 40
50.0
100
AcDbArc
 50
346.640821
 51
47.498512
  0
ARC
  5
A10E
330
9E72
100
AcDbEntity
  8
1
  6
Continuous
100
AcDbCircle
 10
180.2202229999998
 20
196.871609
 30
0.0
 40
50.0
100
AcDbArc
 50
140.863151
 51
343.936842
  0
ARC
  5
A10F
330
9E72
100
AcDbEntity
  8
1
  6
Continuous
100
AcDbCircle
 10
187.841574
 20
192.8872629999999
 30
0.0
 40
4.5
100
AcDbArc
 50
242.3999989999999
 51
62.39999899999999
  0
ARC
  5
A110
330
9E72
100
AcDbEntity
  8
1
  6
Continuous
100
AcDbCircle
 10
177.796712
 20
192.235855
 30
0.0
 40
19.23102399999998
100
AcDbArc
 50
32.072946
 51
92.72707200000001
  0
ARC
  5
A111
330
9E72
100
AcDbEntity
  8
1
  6
Continuous
100
AcDbCircle
 10
197.590886
 20
198.231658
 30
0.0
 40
16.003084
100
AcDbArc
 50
237.870344
 51
291.5930189999999
  0
ARC
  5
A112
330
9E72
100
AcDbEntity
  8
1
  6
Continuous
100
AcDbCircle
 10
177.796712
 20
192.235855
 30
0.0
 40
21.531025
100
AcDbArc
 50
32.072967
 51
92.727044
  0
ARC
  5
A113
330
9E72
100
AcDbEntity
  8
1
  6
Continuous
100
AcDbCircle
 10
158.447057
 20
220.7052909999999
 30
0.0
 40
12.45549699999999
100
AcDbArc
 50
157.1625709999999
 51
213.555017
  0
LINE
  5
A114
330
9E72
100
AcDbEntity
  8
1
  6
Continuous
100
AcDbLine
 10
157.53806
 20
220.013656
 30
0.0
 11
156.1481369999999
 21
217.3549799999999
 31
0.0
  0
LINE
  5
A115
330
9E72
100
AcDbEntity
  8
1
  6
Continuous
100
AcDbLine
 10
142.0516399999999
 20
230.7049859999999
 30
0.0
 11
172.8385669999999
 21
214.60997
 31
0.0
  0
LINE
  5
A116
330
9E72
100
AcDbEntity
  8
1
  6
Continuous
100
AcDbLine
 10
140.986058
 20
228.666717
 30
0.0
 11
171.7729689999998
 21
212.5717009999999
 31
0.0
  0
LINE
  5
A117
330
9E72
100
AcDbEntity
  8
1
  6
Continuous
100
AcDbLine
 10
156.148076
 20
217.3549799999999
 30
0.0
 11
161.465337
 21
214.5751799999999
 31
0.0
  0
ARC
  5
A118
330
9E72
100
AcDbEntity
  8
1
  6
Continuous
100
AcDbCircle
 10
171.42336
 20
211.9117119999999
 30
0.0
 40
16.003084
100
AcDbArc
 50
193.206972
 51
246.9296399999999
  0
LINE
  5
A119
330
9E72
100
AcDbEntity
  8
1
  6
Continuous
100
AcDbLine
 10
155.8435259999999
 20
208.255493
 30
0.0
 11
148.0671889999999
 21
213.8206629999999
 31
0.0
  0
ARC
  5
A11A
330
9E72
100
AcDbEntity
  8
1
  6
Continuous
100
AcDbCircle
 10
172.598872
 20
200.855955
 30
0.0
 40
4.5
100
AcDbArc
 50
62.39999899999999
 51
242.3999989999999
  0
LINE
  5
A11B
330
9E72
100
AcDbEntity
  8
1
  6
Continuous
100
AcDbLine
 10
189.9264059999999
 20
196.8751789999998
 30
0.0
 11
188.590856
 21
197.573387
 31
0.0
  0
ARC
  5
A11C
330
9E72
100
AcDbEntity
  8
1
  6
Continuous
100
AcDbCircle
 10
183.8541149999999
 20
203.822631
 30
0.0
 40
19.84358
100
AcDbArc
 50
199.5312899999999
 51
285.2687279999999
  0
LINE
  5
A11D
330
9E72
100
AcDbEntity
  8
1
  6
Continuous
100
AcDbLine
 10
171.8495889999999
 20
196.1698299999999
 30
0.0
 11
170.5140399999999
 21
196.8680389999999
 31
0.0
  0
LINE
  5
A11E
330
9E72
100
AcDbEntity
  8
1
  6
Continuous
100
AcDbLine
 10
185.756741
 20
188.899347
 30
0.0
 11
184.421192
 21
189.5975549999997
 31
0.0
  0
LINE
  5
A11F
330
9E72
100
AcDbEntity
  8
1
  6
Continuous
100
AcDbLine
 10
176.019254
 20
204.1456629999999
 30
0.0
 11
174.683704
 21
204.843871
 31
0.0
  0
ARC
  5
A120
330
9E72
100
AcDbEntity
  8
1
  6
Continuous
100
AcDbCircle
 10
176.4059489999999
 20
221.4337759999999
 30
0.0
 40
7.7
100
AcDbArc
 50
242.4000159999999
 51
272.7270459999999
  0
ARC
  5
A121
330
9E72
100
AcDbEntity
  8
1
  6
Continuous
100
AcDbCircle
 10
176.4059489999999
 20
221.4337759999999
 30
0.0
 40
10.0
100
AcDbArc
 50
242.4000159999999
 51
272.7270669999999
  0
LINE
  5
A122
330
9E72
100
AcDbEntity
  8
1
  6
Continuous
100
AcDbLine
 10
162.855275
 20
217.2338859999999
 30
0.0
 11
161.465352
 21
214.57521
 31
0.0
  0
LINE
  5
A123
330
9E72
100
AcDbEntity
  8
1
  6
Continuous
100
AcDbLine
 10
140.9860429999999
 20
228.6668389999999
 30
0.0
 11
142.051625
 21
230.7051079999999
 31
0.0
  0
ARC
  5
A124
330
9E72
100
AcDbEntity
  8
1
  6
Continuous
100
AcDbCircle
 10
212.2174729999999
 20
192.5948019999999
 30
0.0
 40
12.45549699999999
100
AcDbArc
 50
271.244977
 51
327.637426
  0
LINE
  5
A125
330
9E72
100
AcDbEntity
  8
1
  6
Continuous
100
AcDbLine
 10
197.933308
 20
198.8954159999999
 30
0.0
 11
228.7202039999999
 21
182.800407
 31
0.0
  0
LINE
  5
A126
330
9E72
100
AcDbEntity
  8
1
  6
Continuous
100
AcDbLine
 10
198.9988759999999
 20
200.9336849999999
 30
0.0
 11
229.785787
 21
184.8386759999999
 31
0.0
  0
LINE
  5
A127
330
9E72
100
AcDbEntity
  8
1
  6
Continuous
100
AcDbLine
 10
203.480199
 20
183.351661
 30
0.0
 11
212.4881029999999
 21
180.1422499999999
 31
0.0
  0
LINE
  5
A128
330
9E72
100
AcDbEntity
  8
1
  6
Continuous
100
AcDbLine
 10
207.1036879999998
 20
191.7855679999999
 30
0.0
 11
202.512929
 21
183.0042719999999
 31
0.0
  0
LINE
  5
A129
330
9E72
100
AcDbEntity
  8
1
  6
Continuous
100
AcDbLine
 10
200.014043
 20
195.4919429999999
 30
0.0
 11
193.3755689999999
 21
182.7937159999999
 31
0.0
  0
LINE
  5
A12A
330
9E72
100
AcDbEntity
  8
1
  6
Continuous
100
AcDbLine
 10
215.5844319999999
 20
189.667747
 30
0.0
 11
213.267918
 21
185.2366789999999
 31
0.0
  0
LINE
  5
A12B
330
9E72
100
AcDbEntity
  8
1
  6
Continuous
100
AcDbLine
 10
209.824056
 20
192.679199
 30
0.0
 11
207.507558
 21
188.2481229999999
 31
0.0
  0
LINE
  5
A12C
330
9E72
100
AcDbEntity
  8
1
  6
Continuous
100
AcDbLine
 10
207.507543
 20
188.2481
 30
0.0
 11
213.2678569999999
 21
185.2366789999999
 31
0.0
  0
ARC
  5
A12D
330
9E72
100
AcDbEntity
  8
1
  6
Continuous
100
AcDbCircle
 10
202.566274
 20
207.7574919999999
 30
0.0
 40
7.7
100
AcDbArc
 50
212.0729649999999
 51
242.4000159999999
  0
ARC
  5
A12E
330
9E72
100
AcDbEntity
  8
1
  6
Continuous
100
AcDbCircle
 10
202.566274
 20
207.7574919999999
 30
0.0
 40
10.0
100
AcDbArc
 50
212.0729379999999
 51
242.4000159999999
  0
LINE
  5
A12F
330
9E72
100
AcDbEntity
  8
1
  6
Continuous
100
AcDbLine
 10
228.7207689999999
 20
182.800231
 30
0.0
 11
229.7863509999999
 21
184.8384929999998
 31
0.0
  0
ARC
  5
A130
330
9E72
100
AcDbEntity
  8
1
  6
Continuous
100
AcDbCircle
 10
354.6197899999999
 20
201.844997
 30
0.0
 40
1.0
100
AcDbArc
 50
154.803547
 51
180.0
  0
ARC
  5
A131
330
9E72
100
AcDbEntity
  8
1
  6
Continuous
100
AcDbCircle
 10
316.0198049999999
 20
201.845008
 30
0.0
 40
1.0
100
AcDbArc
 50
0.0
 51
25.196444
  0
LINE
  5
A132
330
9E72
100
AcDbEntity
  8
1
  6
Continuous
100
AcDbLine
 10
75.520218
 20
183.979137
 30
0.0
 11
75.52022499999998
 21
183.4250289999999
 31
0.0
  0
CIRCLE
  5
A133
330
9E72
100
AcDbEntity
  8
1
  6
Continuous
100
AcDbCircle
 10
491.220223
 20
196.871609
 30
0.0
 40
1.5
  0
CIRCLE
  5
A134
330
9E72
100
AcDbEntity
  8
1
  6
Continuous
100
AcDbCircle
 10
491.220223
 20
196.871609
 30
0.0
 40
6.25
  0
LINE
  5
A135
330
9E72
100
AcDbEntity
  8
1
  6
Continuous
100
AcDbLine
 10
80.82022100000001
 20
188.4716089999997
 30
0.0
 11
80.82022100000001
 21
205.271609
 31
0.0
  0
LINE
  5
A136
330
9E72
100
AcDbEntity
  8
1
  6
Continuous
100
AcDbLine
 10
80.82022100000001
 20
198.99079
 30
0.0
 11
77.82022099999998
 21
193.3256489999999
 31
0.0
  0
LINE
  5
A137
330
9E72
100
AcDbEntity
  8
1
  6
Continuous
100
AcDbLine
 10
77.82022099999998
 20
192.4417359999999
 30
0.0
 11
80.82022100000001
 21
192.271609
 31
0.0
  0
ARC
  5
A138
330
9E72
100
AcDbEntity
  8
1
  6
Continuous
100
AcDbCircle
 10
76.32022099999997
 20
201.113314
 30
0.0
 40
4.5
100
AcDbArc
 50
289.471221
 51
70.528779
  0
ARC
  5
A139
330
9E72
100
AcDbEntity
  8
1
  6
Continuous
100
AcDbCircle
 10
76.32022099999997
 20
192.629903
 30
0.0
 40
4.5
100
AcDbArc
 50
289.471221
 51
0.0
  0
LINE
  5
A13A
330
9E72
100
AcDbEntity
  8
1
  6
Continuous
100
AcDbLine
 10
81.82022100000002
 20
188.4716089999997
 30
0.0
 11
81.82022100000002
 21
205.271609
 31
0.0
  0
LINE
  5
A13B
330
9E72
100
AcDbEntity
  8
1
  6
Continuous
100
AcDbLine
 10
80.82022100000001
 20
205.271609
 30
0.0
 11
81.82022100000002
 21
205.271609
 31
0.0
  0
LINE
  5
A13C
330
9E72
100
AcDbEntity
  8
1
  6
Continuous
100
AcDbLine
 10
80.82022100000001
 20
188.4716089999997
 30
0.0
 11
81.82022100000002
 21
188.4716089999997
 31
0.0
  0
LINE
  5
A13D
330
9E72
100
AcDbEntity
  8
1
  6
Continuous
100
AcDbLine
 10
80.82022100000001
 20
192.871609
 30
0.0
 11
77.82022099999998
 21
192.871609
 31
0.0
  0
LINE
  5
A13E
330
9E72
100
AcDbEntity
  8
1
  6
Continuous
100
AcDbLine
 10
80.82022100000001
 20
193.548109
 30
0.0
 11
77.93802499999998
 21
193.548109
 31
0.0
  0
ARC
  5
A13F
330
9E72
100
AcDbEntity
  8
1
  6
Continuous
100
AcDbCircle
 10
212.220223
 20
73.87160899999997
 30
0.0
 40
20.69999999999998
100
AcDbArc
 50
81.87983599999999
 51
139.2942929999997
  0
ARC
  5
A140
330
9E72
100
AcDbEntity
  8
1
  6
Continuous
100
AcDbCircle
 10
212.220223
 20
73.87160899999997
 30
0.0
 40
22.7
100
AcDbArc
 50
102.0478149999999
 51
129.7389159999999
  0
ARC
  5
A141
330
9E72
100
AcDbEntity
  8
1
  6
Continuous
100
AcDbCircle
 10
212.220223
 20
73.87160899999997
 30
0.0
 40
17.0
100
AcDbArc
 50
80.09632899999997
 51
127.428006
  0
LINE
  5
A142
330
9E72
100
AcDbEntity
  8
1
  6
Continuous
100
AcDbLine
 10
188.620223
 20
97.47160700000002
 30
0.0
 11
171.8202229999999
 21
97.47160700000002
 31
0.0
  0
LINE
  5
A143
330
9E72
100
AcDbEntity
  8
1
  6
Continuous
100
AcDbLine
 10
188.620223
 20
98.47160700000001
 30
0.0
 11
171.8202229999999
 21
98.47160700000001
 31
0.0
  0
LINE
  5
A144
330
9E72
100
AcDbEntity
  8
1
  6
Continuous
100
AcDbLine
 10
188.620223
 20
97.47160700000002
 30
0.0
 11
188.620223
 21
98.47160700000001
 31
0.0
  0
LINE
  5
A145
330
9E72
100
AcDbEntity
  8
1
  6
Continuous
100
AcDbLine
 10
171.8202229999999
 20
97.47160700000002
 30
0.0
 11
171.8202229999999
 21
98.47160700000001
 31
0.0
  0
ARC
  5
A146
330
9E72
100
AcDbEntity
  8
1
  6
Continuous
100
AcDbCircle
 10
172.853597
 20
92.971607
 30
0.0
 40
4.5
100
AcDbArc
 50
19.47122099999998
 51
160.528779
  0
ARC
  5
A147
330
9E72
100
AcDbEntity
  8
1
  6
Continuous
100
AcDbCircle
 10
187.586849
 20
92.971607
 30
0.0
 40
4.5
100
AcDbArc
 50
19.47122099999998
 51
90.0
  0
LINE
  5
A148
330
9E72
100
AcDbEntity
  8
1
  6
Continuous
100
AcDbLine
 10
178.980775
 20
94.47160700000001
 30
0.0
 11
184.296759
 21
97.47160700000002
 31
0.0
  0
LINE
  5
A149
330
9E72
100
AcDbEntity
  8
1
  6
Continuous
100
AcDbLine
 10
177.2900059999997
 20
94.47160700000001
 30
0.0
 11
176.143686
 21
97.47160700000002
 31
0.0
  0
LINE
  5
A14A
330
9E72
100
AcDbEntity
  8
2
  6
Continuous
100
AcDbLine
 10
183.543723
 20
97.47160700000002
 30
0.0
 11
183.543723
 21
97.04664100000002
 31
0.0
  0
LINE
  5
A14B
330
9E72
100
AcDbEntity
  8
1
  6
Continuous
100
AcDbLine
 10
184.220223
 20
97.47160700000002
 30
0.0
 11
184.220223
 21
97.428415
 31
0.0
  0
LINE
  5
A14C
330
9E72
100
AcDbEntity
  8
2
  6
Continuous
100
AcDbLine
 10
176.896723
 20
97.47160700000002
 30
0.0
 11
176.896723
 21
95.500857
 31
0.0
  0
LINE
  5
A14D
330
9E72
100
AcDbEntity
  8
1
  6
Continuous
100
AcDbLine
 10
176.2202229999997
 20
97.47160700000002
 30
0.0
 11
176.2202229999997
 21
97.27130600000002
 31
0.0
  0
ARC
  5
A14E
330
9E72
100
AcDbEntity
  8
1
  6
Continuous
100
AcDbCircle
 10
177.2202229999997
 20
318.511214
 30
0.0
 40
6.841600999999998
100
AcDbArc
 50
263.77393
 51
296.0078240000001
  0
LINE
  5
A14F
330
9E72
100
AcDbEntity
  8
1
  6
Continuous
100
AcDbLine
 10
183.0202229999999
 20
106.073604
 30
0.0
 11
177.420223
 21
106.073604
 31
0.0
  0
LINE
  5
A150
330
9E72
100
AcDbEntity
  8
1
  6
Continuous
100
AcDbLine
 10
177.420223
 20
309.669614
 30
0.0
 11
176.2202229999997
 21
310.869614
 31
0.0
  0
LINE
  5
A151
330
9E72
100
AcDbEntity
  8
1
  6
Continuous
100
AcDbLine
 10
184.220223
 20
310.869614
 30
0.0
 11
176.2202229999997
 21
310.869614
 31
0.0
  0
LINE
  5
A152
330
9E72
100
AcDbEntity
  8
1
  6
Continuous
100
AcDbLine
 10
183.0202229999999
 20
309.669614
 30
0.0
 11
184.220223
 21
310.869614
 31
0.0
  0
LINE
  5
A153
330
9E72
100
AcDbEntity
  8
2
  6
Continuous
100
AcDbLine
 10
176.896723
 20
310.193114
 30
0.0
 11
176.896723
 21
311.669614
 31
0.0
  0
LINE
  5
A154
330
9E72
100
AcDbEntity
  8
1
  6
Continuous
100
AcDbLine
 10
176.2202229999997
 20
310.869614
 30
0.0
 11
176.2202229999997
 21
311.592348
 31
0.0
  0
LINE
  5
A155
330
9E72
100
AcDbEntity
  8
2
  6
Continuous
100
AcDbLine
 10
183.543723
 20
310.193114
 30
0.0
 11
183.543723
 21
311.669614
 31
0.0
  0
LINE
  5
A156
330
9E72
100
AcDbEntity
  8
1
  6
Continuous
100
AcDbLine
 10
184.220223
 20
310.869614
 30
0.0
 11
184.220223
 21
311.669614
 31
0.0
  0
ARC
  5
A157
330
9E72
100
AcDbEntity
  8
1
  6
Continuous
100
AcDbCircle
 10
183.220223
 20
318.511214
 30
0.0
 40
6.841600999999998
100
AcDbArc
 50
243.992176
 51
296.0078240000001
  0
LINE
  5
A158
330
9E72
100
AcDbEntity
  8
1
  6
Continuous
100
AcDbLine
 10
177.470223
 20
311.669614
 30
0.0
 11
182.970223
 21
311.669614
 31
0.0
  0
LINE
  5
A159
330
9E72
100
AcDbEntity
  8
1
  6
Continuous
100
AcDbLine
 10
180.2202229999998
 20
312.8716089999998
 30
0.0
 11
180.2202229999998
 21
312.362434
 31
0.0
  0
LINE
  5
A15A
330
9E72
100
AcDbEntity
  8
1
  6
Continuous
100
AcDbLine
 10
186.220223
 20
312.8716089999998
 30
0.0
 11
186.220223
 21
312.362434
 31
0.0
  0
LINE
  5
A15B
330
9E72
100
AcDbEntity
  8
1
  6
Continuous
100
AcDbLine
 10
177.420223
 20
309.669614
 30
0.0
 11
183.0202229999999
 21
309.669614
 31
0.0
  0
ARC
  5
A15C
330
9E72
100
AcDbEntity
  8
1
  6
Continuous
100
AcDbCircle
 10
491.220223
 20
196.871609
 30
0.0
 40
16.5
100
AcDbArc
 50
205.0
 51
355.0
  0
ARC
  5
A15D
330
9E72
100
AcDbEntity
  8
1
  6
Continuous
100
AcDbCircle
 10
491.220223
 20
196.871609
 30
0.0
 40
18.0
100
AcDbArc
 50
157.462327
 51
58.417258
  0
ARC
  5
A15E
330
9E72
100
AcDbEntity
  8
1
  6
Continuous
100
AcDbCircle
 10
491.220223
 20
196.871609
 30
0.0
 40
21.4
100
AcDbArc
 50
150.72433
 51
65.15526
  0
LINE
  5
A15F
330
9E72
100
AcDbEntity
  8
1
  6
Continuous
100
AcDbLine
 10
507.5337629999999
 20
204.478737
 30
0.0
 11
501.189608
 21
201.52041
 31
0.0
  0
LINE
  5
A160
330
9E72
100
AcDbEntity
  8
1
  6
Continuous
100
AcDbLine
 10
509.1517269999997
 20
195.302805
 30
0.0
 11
502.1783649999998
 21
195.9128959999999
 31
0.0
  0
ARC
  5
A161
330
9E72
100
AcDbEntity
  8
1
  6
Continuous
100
AcDbCircle
 10
491.220223
 20
196.871609
 30
0.0
 40
11.0
100
AcDbArc
 50
175.0
 51
205.0
  0
ARC
  5
A162
330
9E72
100
AcDbEntity
  8
1
  6
Continuous
100
AcDbCircle
 10
491.220223
 20
196.871609
 30
0.0
 40
11.0
100
AcDbArc
 50
355.0
 51
25.0
  0
LINE
  5
A163
330
9E72
100
AcDbEntity
  8
1
  6
Continuous
100
AcDbLine
 10
480.2620809999998
 20
197.8303219999999
 30
0.0
 11
473.2887179999998
 21
198.440412
 31
0.0
  0
LINE
  5
A164
330
9E72
100
AcDbEntity
  8
1
  6
Continuous
100
AcDbLine
 10
481.2508369999997
 20
192.222808
 30
0.0
 11
474.906683
 21
189.26448
 31
0.0
  0
ARC
  5
A165
330
9E72
100
AcDbEntity
  8
1
  6
Continuous
100
AcDbCircle
 10
491.220223
 20
196.871609
 30
0.0
 40
13.5
100
AcDbArc
 50
175.0
 51
205.0
  0
ARC
  5
A166
330
9E72
100
AcDbEntity
  8
1
  6
Continuous
100
AcDbCircle
 10
491.220223
 20
196.871609
 30
0.0
 40
13.5
100
AcDbArc
 50
355.0
 51
25.0
  0
ARC
  5
A167
330
9E72
100
AcDbEntity
  8
1
  6
Continuous
100
AcDbCircle
 10
491.220223
 20
196.871609
 30
0.0
 40
16.5
100
AcDbArc
 50
25.0
 51
54.27683
  0
LINE
  5
A168
330
9E72
100
AcDbEntity
  8
1
  6
Continuous
100
AcDbLine
 10
477.846691
 20
198.0912059999998
 30
0.0
 11
451.2622059999998
 21
244.524497
 31
0.0
  0
ARC
  5
A169
330
9E72
100
AcDbEntity
  8
1
  6
Continuous
100
AcDbCircle
 10
491.220223
 20
196.871609
 30
0.0
 40
16.5
100
AcDbArc
 50
161.602751
 51
175.0
  0
ARC
  5
A16A
330
9E72
100
AcDbEntity
  8
1
  6
Continuous
100
AcDbCircle
 10
348.8198
 20
212.371642
 30
0.0
 40
2.5
100
AcDbArc
 50
0.0
 51
90.0
  0
ARC
  5
A16B
330
9E72
100
AcDbEntity
  8
1
  6
Continuous
100
AcDbCircle
 10
348.8198
 20
181.3716089999998
 30
0.0
 40
2.5
100
AcDbArc
 50
270.0
 51
0.0
  0
LINE
  5
A16C
330
9E72
100
AcDbEntity
  8
1
  6
Continuous
100
AcDbLine
 10
355.1197899999999
 20
197.8303219999999
 30
0.0
 11
355.1197899999999
 21
192.2065
 31
0.0
  0
LINE
  5
A16D
330
9E72
100
AcDbEntity
  8
1
  6
Continuous
100
AcDbLine
 10
348.8198
 20
198.440412
 30
0.0
 11
355.1197899999999
 21
197.8303219999999
 31
0.0
  0
LINE
  5
A16E
330
9E72
100
AcDbEntity
  8
1
  6
Continuous
100
AcDbLine
 10
348.8198
 20
189.26448
 30
0.0
 11
355.1197899999999
 21
192.2065
 31
0.0
  0
LINE
  5
A16F
330
9E72
100
AcDbEntity
  8
1
  6
Continuous
100
AcDbLine
 10
351.3198
 20
190.4319499999997
 30
0.0
 11
351.3198
 21
181.3716089999998
 31
0.0
  0
LINE
  5
A170
330
9E72
100
AcDbEntity
  8
1
  6
Continuous
100
AcDbLine
 10
353.6197899999999
 20
191.5060179999999
 30
0.0
 11
353.6197899999999
 21
185.871625
 31
0.0
  0
ARC
  5
A171
330
9E72
100
AcDbEntity
  8
1
  6
Continuous
100
AcDbCircle
 10
43.720223
 20
181.3715919999999
 30
0.0
 40
2.5
100
AcDbArc
 50
180.0
 51
270.0
  0
ARC
  5
A172
330
9E72
100
AcDbEntity
  8
1
  6
Continuous
100
AcDbCircle
 10
43.720223
 20
212.371625
 30
0.0
 40
2.5
100
AcDbArc
 50
90.0
 51
180.0
  0
LINE
  5
A173
330
9E72
100
AcDbEntity
  8
1
  6
Continuous
100
AcDbLine
 10
37.420233
 20
201.52041
 30
0.0
 11
37.420233
 21
195.9128959999999
 31
0.0
  0
LINE
  5
A174
330
9E72
100
AcDbEntity
  8
1
  6
Continuous
100
AcDbLine
 10
43.720223
 20
204.478737
 30
0.0
 11
37.420233
 21
201.52041
 31
0.0
  0
LINE
  5
A175
330
9E72
100
AcDbEntity
  8
1
  6
Continuous
100
AcDbLine
 10
43.720223
 20
195.302805
 30
0.0
 11
37.420233
 21
195.9128959999999
 31
0.0
  0
LINE
  5
A176
330
9E72
100
AcDbEntity
  8
1
  6
Continuous
100
AcDbLine
 10
38.920233
 20
195.767636
 30
0.0
 11
38.920233
 21
185.871609
 31
0.0
  0
LINE
  5
A177
330
9E72
100
AcDbEntity
  8
1
  6
Continuous
100
AcDbLine
 10
41.220223
 20
195.544905
 30
0.0
 11
41.220223
 21
181.3715919999999
 31
0.0
  0
ARC
  5
A178
330
9E72
100
AcDbEntity
  8
1
  6
Continuous
100
AcDbCircle
 10
195.7202389999999
 20
60.37160899999999
 30
0.0
 40
2.5
100
AcDbArc
 50
270.0
 51
0.0
  0
ARC
  5
A179
330
9E72
100
AcDbEntity
  8
1
  6
Continuous
100
AcDbCircle
 10
164.7202059999998
 20
60.37160899999999
 30
0.0
 40
2.5
100
AcDbArc
 50
180.0
 51
270.0
  0
LINE
  5
A17A
330
9E72
100
AcDbEntity
  8
1
  6
Continuous
100
AcDbLine
 10
165.4417169999998
 20
54.07161899999999
 30
0.0
 11
169.262081
 21
54.07161899999999
 31
0.0
  0
LINE
  5
A17B
330
9E72
100
AcDbEntity
  8
1
  6
Continuous
100
AcDbLine
 10
190.189608
 20
54.07161899999999
 30
0.0
 11
190.189608
 21
55.07161899999999
 31
0.0
  0
LINE
  5
A17C
330
9E72
100
AcDbEntity
  8
1
  6
Continuous
100
AcDbLine
 10
166.0336619999999
 20
55.07161899999999
 30
0.0
 11
169.262081
 21
55.07161899999999
 31
0.0
  0
LINE
  5
A17D
330
9E72
100
AcDbEntity
  8
1
  6
Continuous
100
AcDbLine
 10
190.189608
 20
54.07161899999999
 30
0.0
 11
192.9887389999999
 21
54.07161899999999
 31
0.0
  0
LINE
  5
A17E
330
9E72
100
AcDbEntity
  8
1
  6
Continuous
100
AcDbLine
 10
190.189608
 20
55.07161899999999
 30
0.0
 11
192.0325339999999
 21
55.07161899999999
 31
0.0
  0
LINE
  5
A17F
330
9E72
100
AcDbEntity
  8
1
  6
Continuous
100
AcDbLine
 10
169.262081
 20
54.07161899999999
 30
0.0
 11
169.262081
 21
55.07161899999999
 31
0.0
  0
LINE
  5
A180
330
9E72
100
AcDbEntity
  8
1
  6
Continuous
100
AcDbLine
 10
166.7715939999999
 20
54.07161899999999
 30
0.0
 11
166.7715939999999
 21
55.07161899999999
 31
0.0
  0
ARC
  5
A181
330
9E72
100
AcDbEntity
  8
1
  6
Continuous
100
AcDbCircle
 10
171.220223
 20
53.871609
 30
0.0
 40
4.4
100
AcDbArc
 50
177.3946179999998
 51
341.266882
  0
ARC
  5
A185
330
9E72
100
AcDbEntity
  8
5
  6
PHANTOM
100
AcDbCircle
 10
139.106052
 20
312.4037289999999
 30
0.0
 40
9.315139999999999
100
AcDbArc
 50
223.3824569999999
 51
270.0
  0
ARC
  5
A186
330
9E72
100
AcDbEntity
  8
5
  6
PHANTOM
100
AcDbCircle
 10
140.095245
 20
313.33859
 30
0.0
 40
10.676194
100
AcDbArc
 50
136.6175429999999
 51
223.3824569999999
  0
ARC
  5
A187
330
9E72
100
AcDbEntity
  8
5
  6
PHANTOM
100
AcDbCircle
 10
139.106052
 20
314.27345
 30
0.0
 40
9.315139999999999
100
AcDbArc
 50
90.0
 51
136.6175429999999
  0
ARC
  5
A188
330
9E72
100
AcDbEntity
  8
5
  6
PHANTOM
100
AcDbCircle
 10
140.095245
 20
102.4216039999999
 30
0.0
 40
10.676194
100
AcDbArc
 50
136.6175429999999
 51
223.3824569999999
  0
ARC
  5
A189
330
9E72
100
AcDbEntity
  8
5
  6
PHANTOM
100
AcDbCircle
 10
139.106052
 20
103.356464
 30
0.0
 40
9.315139999999999
100
AcDbArc
 50
90.0
 51
136.6175429999999
  0
ARC
  5
A18A
330
9E72
100
AcDbEntity
  8
5
  6
PHANTOM
100
AcDbCircle
 10
139.106052
 20
101.486743
 30
0.0
 40
9.315139999999999
100
AcDbArc
 50
223.3824569999999
 51
270.0
  0
LINE
  5
A18B
330
9E72
100
AcDbEntity
  8
5
  6
PHANTOM
100
AcDbLine
 10
447.708773
 20
222.5047959999999
 30
0.0
 11
448.4606789999999
 21
224.6784139999999
 31
0.0
  0
LINE
  5
A18C
330
9E72
100
AcDbEntity
  8
5
  6
PHANTOM
100
AcDbLine
 10
449.440722
 20
224.3392859999999
 30
0.0
 11
448.4612
 21
224.6781279999999
 31
0.0
  0
LINE
  5
A18D
330
9E72
100
AcDbEntity
  8
5
  6
PHANTOM
100
AcDbLine
 10
448.191429
 20
222.3377209999999
 30
0.0
 11
447.7092879999998
 21
222.5045059999999
 31
0.0
  0
LINE
  5
A18E
330
9E72
100
AcDbEntity
  8
1
  6
Continuous
100
AcDbLine
 10
530.4544029999998
 20
228.6668389999999
 30
0.0
 11
529.388821
 21
230.7051079999999
 31
0.0
  0
LINE
  5
A18F
330
9E72
100
AcDbEntity
  8
1
  6
Continuous
100
AcDbLine
 10
529.3888049999998
 20
230.7049859999999
 30
0.0
 11
528.470265
 21
230.224785
 31
0.0
  0
LINE
  5
A190
330
9E72
100
AcDbEntity
  8
1
  6
Continuous
100
AcDbLine
 10
530.4543879999998
 20
228.666717
 30
0.0
 11
530.002255
 21
228.430348
 31
0.0
  0
LINE
  5
A191
330
9E72
100
AcDbEntity
  8
5
  6
PHANTOM
100
AcDbLine
 10
541.2695809999997
 20
190.139645
 30
0.0
 11
542.0214929999998
 21
192.3132679999999
 31
0.0
  0
LINE
  5
A192
330
9E72
100
AcDbEntity
  8
5
  6
PHANTOM
100
AcDbLine
 10
541.2694809999996
 20
190.1395729999999
 30
0.0
 11
540.7873239999998
 21
190.3063629999999
 31
0.0
  0
LINE
  5
A193
330
9E72
100
AcDbEntity
  8
5
  6
PHANTOM
100
AcDbLine
 10
542.021394
 20
192.313195
 30
0.0
 11
541.041857
 21
192.6520419999999
 31
0.0
  0
LINE
  5
A194
330
9E72
100
AcDbEntity
  8
1
  6
Continuous
100
AcDbLine
 10
442.5731859999998
 20
185.31887
 30
0.0
 11
441.654659
 21
184.8386759999999
 31
0.0
  0
LINE
  5
A195
330
9E72
100
AcDbEntity
  8
1
  6
Continuous
100
AcDbLine
 10
443.1723589999998
 20
183.0367689999999
 30
0.0
 11
442.7202409999998
 21
182.800407
 31
0.0
  0
LINE
  5
A196
330
9E72
100
AcDbEntity
  8
1
  6
Continuous
100
AcDbLine
 10
442.7196769999998
 20
182.800231
 30
0.0
 11
441.6540949999999
 21
184.8384929999998
 31
0.0
  0
ARC
  5
A197
330
9E72
100
AcDbEntity
  8
1
  6
Continuous
100
AcDbCircle
 10
164.7202059999998
 20
355.3716089999999
 30
0.0
 40
2.5
100
AcDbArc
 50
124.1803879999997
 51
180.0
  0
LINE
  5
A198
330
9E72
100
AcDbEntity
  8
1
  6
Continuous
100
AcDbLine
 10
194.2790989999997
 20
54.54355699999999
 30
0.0
 11
197.5105819999999
 21
57.272359
 31
0.0
  0
LINE
  5
A199
330
9E72
100
AcDbEntity
  8
1
  6
Continuous
100
AcDbLine
 10
192.7434019999998
 20
54.33998199999999
 30
0.0
 11
196.533763
 21
57.87160899999999
 31
0.0
  0
LINE
  5
A19A
330
9E72
100
AcDbEntity
  8
1
  6
Continuous
100
AcDbLine
 10
192.74995
 20
55.374974
 30
0.0
 11
195.174301
 21
57.87160899999999
 31
0.0
  0
LINE
  5
A19B
330
9E72
100
AcDbEntity
  8
1
  6
Continuous
100
AcDbLine
 10
196.533763
 20
57.87160899999999
 30
0.0
 11
196.533763
 21
58.007676
 31
0.0
  0
LINE
  5
A19C
330
9E72
100
AcDbEntity
  8
1
  6
Continuous
100
AcDbLine
 10
198.220223
 20
58.80041999999999
 30
0.0
 11
198.220223
 21
60.37160899999999
 31
0.0
  0
ARC
  5
A19D
330
9E72
100
AcDbEntity
  8
1
  6
Continuous
100
AcDbCircle
 10
192.0325339999999
 20
56.07161899999999
 30
0.0
 40
1.0
100
AcDbArc
 50
270.0
 51
315.8415499999998
  0
ARC
  5
A19E
330
9E72
100
AcDbEntity
  8
1
  6
Continuous
100
AcDbCircle
 10
192.061707
 20
55.07161899999999
 30
0.0
 40
1.0
100
AcDbArc
 50
270.0
 51
312.976204
  0
ARC
  5
A19F
330
9E72
100
AcDbEntity
  8
1
  6
Continuous
100
AcDbCircle
 10
192.9887389999999
 20
56.07161899999999
 30
0.0
 40
2.0
100
AcDbArc
 50
270.0
 51
310.17916
  0
ARC
  5
A1A0
330
9E72
100
AcDbEntity
  8
1
  6
Continuous
100
AcDbCircle
 10
196.220223
 20
58.80041999999999
 30
0.0
 40
2.0
100
AcDbArc
 50
310.17916
 51
0.0
  0
LINE
  5
A1A1
330
9E72
100
AcDbEntity
  8
1
  6
Continuous
100
AcDbLine
 10
169.262081
 20
54.07161899999999
 30
0.0
 11
169.262081
 21
55.07161899999999
 31
0.0
  0
LINE
  5
A1A2
330
9E72
100
AcDbEntity
  8
1
  6
Continuous
100
AcDbLine
 10
162.554575
 20
59.12259200000001
 30
0.0
 11
163.5097419999999
 21
55.55444300000001
 31
0.0
  0
LINE
  5
A1A3
330
9E72
100
AcDbEntity
  8
1
  6
Continuous
100
AcDbLine
 10
164.5143349999998
 20
57.88009999999999
 30
0.0
 11
165.067674
 21
55.813031
 31
0.0
  0
LINE
  5
A1A4
330
9E72
100
AcDbEntity
  8
1
  6
Continuous
100
AcDbLine
 10
166.019785
 20
57.88009999999999
 30
0.0
 11
166.7715939999999
 21
55.07161899999999
 31
0.0
  0
ARC
  5
A1A5
330
9E72
100
AcDbEntity
  8
1
  6
Continuous
100
AcDbCircle
 10
166.0336619999999
 20
56.07161899999999
 30
0.0
 40
1.0
100
AcDbArc
 50
194.986275
 51
270.0
  0
ARC
  5
A1A6
330
9E72
100
AcDbEntity
  8
1
  6
Continuous
100
AcDbCircle
 10
165.4417169999998
 20
56.07161899999999
 30
0.0
 40
2.0
100
AcDbArc
 50
194.986275
 51
270.0
  0
CIRCLE
  5
A1A7
330
9E72
100
AcDbEntity
  8
1
  6
Continuous
100
AcDbCircle
 10
180.2202229999998
 20
196.871609
 30
0.0
 40
8.4
  0
LINE
  5
A1AB
330
9E72
100
AcDbEntity
  8
1
  6
Continuous
100
AcDbLine
 10
162.554575
 20
356.620625
 30
0.0
 11
163.088299
 21
358.61442
 31
0.0
  0
ARC
  5
A1AC
330
9E72
100
AcDbEntity
  8
1
  6
Continuous
100
AcDbCircle
 10
164.7202059999998
 20
355.3716089999999
 30
0.0
 40
2.5
100
AcDbArc
 50
124.1803879999997
 51
180.0
  0
ARC
  5
A26F
330
9E72
100
AcDbEntity
  8
1
  6
Continuous
100
AcDbCircle
 10
79.96012650596771
 20
185.4950368248849
 30
0.0
 40
3.263037498043361
100
AcDbArc
 50
241.2752894642745
 51
289.3107367962276
  0
ARC
  5
A271
330
9E72
100
AcDbEntity
  8
1
  6
Continuous
100
AcDbCircle
 10
77.51198964186862
 20
185.8256258400351
 30
0.0
 40
3.597233620898943
100
AcDbArc
 50
247.8898430724103
 51
269.3153994883055
  0
ARC
  5
A273
330
9E72
100
AcDbEntity
  8
1
  6
Continuous
100
AcDbCircle
 10
78.82022099999997
 20
183.5371810872664
 30
0.0
 40
1.0
100
AcDbArc
 50
180.0000050000005
 51
244.639262
  0
ARC
  5
A274
330
9E72
100
AcDbEntity
  8
1
  6
Continuous
100
AcDbCircle
 10
76.52022499999998
 20
183.4250290872663
 30
0.0
 40
1.0
100
AcDbArc
 50
180.0000050000005
 51
248.7650790000003
  0
ARC
  5
A2B9
330
9E72
100
AcDbEntity
  8
1
  6
Continuous
100
AcDbCircle
 10
310.9452092847198
 20
203.4213346679818
 30
0.0
 40
8.076972188960741
100
AcDbArc
 50
285.6176532835314
 51
308.5352621142377
  0
ARC
  5
A2C1
330
9E72
100
AcDbEntity
  8
1
  6
Continuous
100
AcDbCircle
 10
304.7769859986801
 20
211.1253408265056
 30
0.0
 40
3.276759551648488
100
AcDbArc
 50
343.516524594999
 51
40.95570610358574
  0
ARC
  5
A2C3
330
9E72
100
AcDbEntity
  8
1
  6
Continuous
100
AcDbCircle
 10
280.1445091289534
 20
216.8778291944021
 30
0.0
 40
28.56709281628317
100
AcDbArc
 50
328.5685671710016
 51
346.472406740823
  0
ARC
  5
A2C4
330
9E72
100
AcDbEntity
  8
1
  6
Continuous
100
AcDbCircle
 10
305.5245170008914
 20
209.0831251270841
 30
0.0
 40
2.640361048841534
100
AcDbArc
 50
24.91878909104865
 51
112.366290927899
  0
ARC
  5
A2C8
330
9E72
100
AcDbEntity
  8
1
  6
Continuous
100
AcDbCircle
 10
305.5940248203785
 20
210.6698976031056
 30
0.0
 40
3.086223686604437
100
AcDbArc
 50
57.513263619053
 51
110.3692722861516
  0
ENDSEC
  0
SECTION
  2
OBJECTS
  0
DICTIONARY
  5
9E60
330
0
100
AcDbDictionary
281
     1
  3
ACAD_CIP_PREVIOUS_PRODUCT_INFO
350
A334
  3
ACAD_COLOR
350
A316
  3
ACAD_DETAILVIEWSTYLE
350
A32F
  3
ACAD_GROUP
350
9E61
  3
ACAD_LAYOUT
350
9E6D
  3
ACAD_MATERIAL
350
A2E4
  3
ACAD_MLEADERSTYLE
350
A32B
  3
ACAD_MLINESTYLE
350
9E6A
  3
ACAD_PLOTSETTINGS
350
9E6C
  3
ACAD_PLOTSTYLENAME
350
A2E2
  3
ACAD_SCALELIST
350
A319
  3
ACAD_SECTIONVIEWSTYLE
350
A32D
  3
ACAD_TABLESTYLE
350
A317
  3
ACAD_VISUALSTYLE
350
A2FD
  3
ACDB_RECOMPOSE_DATA
350
A352
  3
AcDbVariableDictionary
350
A345
  3
DWGPROPS
350
A353
  0
DICTIONARY
  5
A335
330
9E64
100
AcDbDictionary
280
     1
281
     1
  3
ADSK_XREC_LAYER_RECONCILED
360
A336
  0
DICTIONARY
  5
A337
330
9E7A
100
AcDbDictionary
280
     1
281
     1
  3
ADSK_XREC_LAYER_RECONCILED
360
A338
  0
DICTIONARY
  5
A339
330
9E7B
100
AcDbDictionary
280
     1
281
     1
  3
ADSK_XREC_LAYER_RECONCILED
360
A33A
  0
DICTIONARY
  5
A33B
330
9E7C
100
AcDbDictionary
280
     1
281
     1
  3
ADSK_XREC_LAYER_RECONCILED
360
A33C
  0
DICTIONARY
  5
A33D
330
9E7D
100
AcDbDictionary
280
     1
281
     1
  3
ADSK_XREC_LAYER_RECONCILED
360
A33E
  0
DICTIONARY
  5
A33F
330
9E7E
100
AcDbDictionary
280
     1
281
     1
  3
ADSK_XREC_LAYER_RECONCILED
360
A340
  0
DICTIONARY
  5
A341
330
9E7F
100
AcDbDictionary
280
     1
281
     1
  3
ADSK_XREC_LAYER_RECONCILED
360
A342
  0
DICTIONARY
  5
A343
330
9E80
100
AcDbDictionary
280
     1
281
     1
  3
ADSK_XREC_LAYER_RECONCILED
360
A344
  0
DICTIONARY
  5
A1B7
330
9E72
100
AcDbDictionary
281
     1
  3
ACAD_LAYOUTSELFREF
350
A2DE
  0
DICTIONARY
  5
A1B5
330
9E6E
100
AcDbDictionary
281
     1
  3
ACAD_LAYOUTSELFREF
350
A2DD
  0
XRECORD
  5
A334
102
{ACAD_REACTORS
330
9E60
102
}
330
9E60
100
AcDbXrecord
280
     1
300
ACDLT
300
2014
300
ACDLT_F_S
  0
DICTIONARY
  5
A316
102
{ACAD_REACTORS
330
9E60
102
}
330
9E60
100
AcDbDictionary
281
     1
  0
DICTIONARY
  5
A32F
102
{ACAD_REACTORS
330
9E60
102
}
330
9E60
100
AcDbDictionary
281
     1
  3
Imperial24
350
A330
  0
DICTIONARY
  5
9E61
102
{ACAD_REACTORS
330
9E60
102
}
330
9E60
100
AcDbDictionary
281
     1
  0
DICTIONARY
  5
9E6D
102
{ACAD_REACTORS
330
9E60
102
}
330
9E60
100
AcDbDictionary
281
     1
  3
Model
350
A331
  3
レイアウト1
350
A332
  0
DICTIONARY
  5
A2E4
102
{ACAD_REACTORS
330
9E60
102
}
330
9E60
100
AcDbDictionary
281
     1
  3
ByBlock
350
A2ED
  3
ByLayer
350
A2E5
  3
Global
350
A2F5
  0
DICTIONARY
  5
A32B
102
{ACAD_REACTORS
330
9E60
102
}
330
9E60
100
AcDbDictionary
281
     1
  3
Standard
350
A32C
  0
DICTIONARY
  5
9E6A
102
{ACAD_REACTORS
330
9E60
102
}
330
9E60
100
AcDbDictionary
281
     1
  3
STANDARD
350
9E6B
  0
DICTIONARY
  5
9E6C
102
{ACAD_REACTORS
330
9E60
102
}
330
9E60
100
AcDbDictionary
281
     1
  0
ACDBDICTIONARYWDFLT
  5
A2E2
102
{ACAD_REACTORS
330
9E60
102
}
330
9E60
100
AcDbDictionary
281
     1
  3
Normal
350
A2E3
100
AcDbDictionaryWithDefault
340
A2E3
  0
DICTIONARY
  5
A319
102
{ACAD_REACTORS
330
9E60
102
}
330
9E60
100
AcDbDictionary
281
     1
  3
A0
350
A31A
  3
A1
350
A31B
  3
A2
350
A31C
  3
A3
350
A31D
  3
A4
350
A31E
  3
A5
350
A31F
  3
A6
350
A320
  3
A7
350
A321
  3
A8
350
A322
  3
A9
350
A323
  3
B0
350
A324
  3
B1
350
A325
  3
B2
350
A326
  3
B3
350
A327
  3
B4
350
A328
  3
B5
350
A329
  3
B6
350
A32A
  0
DICTIONARY
  5
A32D
102
{ACAD_REACTORS
330
9E60
102
}
330
9E60
100
AcDbDictionary
281
     1
  3
Imperial24
350
A32E
  0
DICTIONARY
  5
A317
102
{ACAD_REACTORS
330
9E60
102
}
330
9E60
100
AcDbDictionary
281
     1
  3
Standard
350
A318
  0
DICTIONARY
  5
A2FD
102
{ACAD_REACTORS
330
9E60
102
}
330
9E60
100
AcDbDictionary
281
     1
  3
2dWireframe
350
A303
  3
Basic
350
A302
  3
Brighten
350
A309
  3
ColorChange
350
A30D
  3
Conceptual
350
A306
  3
Dim
350
A308
  3
EdgeColorOff
350
A315
  3
Facepattern
350
A30C
  3
Flat
350
A2FE
  3
FlatWithEdges
350
A2FF
  3
Gouraud
350
A300
  3
GouraudWithEdges
350
A301
  3
Hidden
350
A305
  3
JitterOff
350
A313
  3
Linepattern
350
A30B
  3
OverhangOff
350
A314
  3
Realistic
350
A307
  3
Shaded
350
A312
  3
Shaded with edges
350
A311
  3
Shades of Gray
350
A30E
  3
Sketchy
350
A30F
  3
Thicken
350
A30A
  3
Wireframe
350
A304
  3
X-Ray
350
A310
  0
XRECORD
  5
A352
102
{ACAD_REACTORS
330
9E60
102
}
330
9E60
100
AcDbXrecord
280
     1
 90
        1
330
A318
  0
DICTIONARY
  5
A345
102
{ACAD_REACTORS
330
9E60
102
}
330
9E60
100
AcDbDictionary
281
     1
  3
CANNOSCALE
350
A34A
  3
CMLEADERSTYLE
350
A347
  3
CTABLESTYLE
350
A346
  3
CVIEWDETAILSTYLE
350
A348
  3
CVIEWSECTIONSTYLE
350
A349
  3
DIMASSOC
350
A34D
  3
INDEXCTL
350
A34C
  3
SORTENTS
350
A34B
  3
XCLIPFRAME
350
A34E
  0
XRECORD
  5
A353
102
{ACAD_REACTORS
330
9E60
102
}
330
9E60
100
AcDbXrecord
280
     1
  1
DWGPROPS COOKIE
  2

  3

  4

  6

  7

  8
Yoshitsune
  9

300
=
301
=
302
=
303
=
304
=
305
=
306
=
307
=
308
=
309
=
 40
0.0409387152777778
 41
2451301.432228357
 42
2457192.68998331
  1

 90
        0
  0
XRECORD
  5
A336
102
{ACAD_REACTORS
330
A335
102
}
330
A335
100
AcDbXrecord
280
     1
290
     1
  0
XRECORD
  5
A338
102
{ACAD_REACTORS
330
A337
102
}
330
A337
100
AcDbXrecord
280
     1
290
     1
  0
XRECORD
  5
A33A
102
{ACAD_REACTORS
330
A339
102
}
330
A339
100
AcDbXrecord
280
     1
290
     1
  0
XRECORD
  5
A33C
102
{ACAD_REACTORS
330
A33B
102
}
330
A33B
100
AcDbXrecord
280
     1
290
     1
  0
XRECORD
  5
A33E
102
{ACAD_REACTORS
330
A33D
102
}
330
A33D
100
AcDbXrecord
280
     1
290
     1
  0
XRECORD
  5
A340
102
{ACAD_REACTORS
330
A33F
102
}
330
A33F
100
AcDbXrecord
280
     1
290
     1
  0
XRECORD
  5
A342
102
{ACAD_REACTORS
330
A341
102
}
330
A341
100
AcDbXrecord
280
     1
290
     1
  0
XRECORD
  5
A344
102
{ACAD_REACTORS
330
A343
102
}
330
A343
100
AcDbXrecord
280
     1
290
     1
  0
XRECORD
  5
A2DE
102
{ACAD_REACTORS
330
A1B7
102
}
330
A1B7
100
AcDbXrecord
280
     1
340
9E72
  0
XRECORD
  5
A2DD
102
{ACAD_REACTORS
330
A1B5
102
}
330
A1B5
100
AcDbXrecord
280
     1
340
9E6E
  0
ACDBDETAILVIEWSTYLE
  5
A330
102
{ACAD_XDICTIONARY
360
A38B
102
}
102
{ACAD_REACTORS
330
A32F
102
}
330
A32F
100
AcDbModelDocViewStyle
 70
     0
  3
Imperial24
290
     0
100
AcDbDetailViewStyle
 70
     0
 71
     0
 90
        3
 71
     1
340
9E65
 40
0.24
340
0
 40
0.24
300

 40
0.36
280
     3
 71
     2
340
9E69
 90
       25
 71
     3
340
9E65
 40
0.24
 90
        1
 40
0.75
 90
        1
300
%<\AcVar ViewType \f "%tc1">% %<\AcVar ViewDetailId>%\PSCALE %<\AcVar ViewScale \f "%sn">%
 71
     4
340
9E69
 90
       25
340
9E69
 90
       25
280
     0
  0
LAYOUT
  5
A331
102
{ACAD_XDICTIONARY
360
A38D
102
}
102
{ACAD_REACTORS
330
9E6D
102
}
330
9E6D
100
AcDbPlotSettings
  1

  2
Canon LBP9100C
  4

  6

 40
0.0
 41
0.0
 42
0.0
 43
0.0
 44
0.0
 45
0.0
 46
0.0
 47
0.0
 48
0.0
 49
0.0
140
0.0
141
0.0
142
1.0
143
1.0
 70
  1712
 72
     0
 73
     0
 74
     0
  7

 75
     0
147
1.0
148
0.0
149
0.0
100
AcDbLayout
  1
Model
 70
     1
 71
     0
 10
0.0
 20
0.0
 11
12.0
 21
9.0
 12
0.0
 22
0.0
 32
0.0
 14
0.0
 24
0.0
 34
0.0
 15
0.0
 25
0.0
 35
0.0
146
0.0
 13
0.0
 23
0.0
 33
0.0
 16
1.0
 26
0.0
 36
0.0
 17
0.0
 27
1.0
 37
0.0
 76
     0
330
9E72
331
A2DC
  0
LAYOUT
  5
A332
102
{ACAD_XDICTIONARY
360
A38F
102
}
102
{ACAD_REACTORS
330
9E6D
102
}
330
9E6D
100
AcDbPlotSettings
  1

  2
Canon LBP9100C
  4

  6

 40
0.0
 41
0.0
 42
0.0
 43
0.0
 44
0.0
 45
0.0
 46
0.0
 47
0.0
 48
0.0
 49
0.0
140
0.0
141
0.0
142
1.0
143
1.0
 70
   688
 72
     0
 73
     0
 74
     5
  7

 75
    16
147
1.0
148
0.0
149
0.0
100
AcDbLayout
  1
レイアウト1
 70
     0
 71
     1
 10
0.0
 20
0.0
 11
420.0
 21
297.0
 12
0.0
 22
0.0
 32
0.0
 14
1.000000000000000E+20
 24
1.000000000000000E+20
 34
1.000000000000000E+20
 15
-1.000000000000000E+20
 25
-1.000000000000000E+20
 35
-1.000000000000000E+20
146
0.0
 13
0.0
 23
0.0
 33
0.0
 16
1.0
 26
0.0
 36
0.0
 17
0.0
 27
1.0
 37
0.0
 76
     0
330
9E6E
  0
MATERIAL
  5
A2ED
102
{ACAD_XDICTIONARY
360
A2EE
102
}
102
{ACAD_REACTORS
330
A2E4
102
}
330
A2E4
100
AcDbMaterial
  1
ByBlock
 72
     0
 43
0.0208333333333333
 43
0.0
 43
0.0
 43
0.0
 43
0.0
 43
0.0208333333333333
 43
0.0
 43
0.0
 43
0.0
 43
0.0
 43
1.0
 43
0.0
 43
0.0
 43
0.0
 43
0.0
 43
1.0
 77
     0
 47
0.0208333333333333
 47
0.0
 47
0.0
 47
0.0
 47
0.0
 47
0.0208333333333333
 47
0.0
 47
0.0
 47
0.0
 47
0.0
 47
1.0
 47
0.0
 47
0.0
 47
0.0
 47
0.0
 47
1.0
171
     0
 49
0.0208333333333333
 49
0.0
 49
0.0
 49
0.0
 49
0.0
 49
0.0208333333333333
 49
0.0
 49
0.0
 49
0.0
 49
0.0
 49
1.0
 49
0.0
 49
0.0
 49
0.0
 49
0.0
 49
1.0
175
     0
142
0.0208333333333333
142
0.0
142
0.0
142
0.0
142
0.0
142
0.0208333333333333
142
0.0
142
0.0
142
0.0
142
0.0
142
1.0
142
0.0
142
0.0
142
0.0
142
0.0
142
1.0
179
     0
144
0.0208333333333333
144
0.0
144
0.0
144
0.0
144
0.0
144
0.0208333333333333
144
0.0
144
0.0
144
0.0
144
0.0
144
1.0
144
0.0
144
0.0
144
0.0
144
0.0
144
1.0
147
0.0208333333333333
147
0.0
147
0.0
147
0.0
147
0.0
147
0.0208333333333333
147
0.0
147
0.0
147
0.0
147
0.0
147
1.0
147
0.0
147
0.0
147
0.0
147
0.0
147
1.0
  0
MATERIAL
  5
A2E5
102
{ACAD_XDICTIONARY
360
A2E6
102
}
102
{ACAD_REACTORS
330
A2E4
102
}
330
A2E4
100
AcDbMaterial
  1
ByLayer
 72
     0
 43
0.0208333333333333
 43
0.0
 43
0.0
 43
0.0
 43
0.0
 43
0.0208333333333333
 43
0.0
 43
0.0
 43
0.0
 43
0.0
 43
1.0
 43
0.0
 43
0.0
 43
0.0
 43
0.0
 43
1.0
 77
     0
 47
0.0208333333333333
 47
0.0
 47
0.0
 47
0.0
 47
0.0
 47
0.0208333333333333
 47
0.0
 47
0.0
 47
0.0
 47
0.0
 47
1.0
 47
0.0
 47
0.0
 47
0.0
 47
0.0
 47
1.0
171
     0
 49
0.0208333333333333
 49
0.0
 49
0.0
 49
0.0
 49
0.0
 49
0.0208333333333333
 49
0.0
 49
0.0
 49
0.0
 49
0.0
 49
1.0
 49
0.0
 49
0.0
 49
0.0
 49
0.0
 49
1.0
175
     0
142
0.0208333333333333
142
0.0
142
0.0
142
0.0
142
0.0
142
0.0208333333333333
142
0.0
142
0.0
142
0.0
142
0.0
142
1.0
142
0.0
142
0.0
142
0.0
142
0.0
142
1.0
179
     0
144
0.0208333333333333
144
0.0
144
0.0
144
0.0
144
0.0
144
0.0208333333333333
144
0.0
144
0.0
144
0.0
144
0.0
144
1.0
144
0.0
144
0.0
144
0.0
144
0.0
144
1.0
147
0.0208333333333333
147
0.0
147
0.0
147
0.0
147
0.0
147
0.0208333333333333
147
0.0
147
0.0
147
0.0
147
0.0
147
1.0
147
0.0
147
0.0
147
0.0
147
0.0
147
1.0
  0
MATERIAL
  5
A2F5
102
{ACAD_XDICTIONARY
360
A2F6
102
}
102
{ACAD_REACTORS
330
A2E4
102
}
330
A2E4
100
AcDbMaterial
  1
Global
 72
     0
 43
0.0208333333333333
 43
0.0
 43
0.0
 43
0.0
 43
0.0
 43
0.0208333333333333
 43
0.0
 43
0.0
 43
0.0
 43
0.0
 43
1.0
 43
0.0
 43
0.0
 43
0.0
 43
0.0
 43
1.0
 77
     0
 47
0.0208333333333333
 47
0.0
 47
0.0
 47
0.0
 47
0.0
 47
0.0208333333333333
 47
0.0
 47
0.0
 47
0.0
 47
0.0
 47
1.0
 47
0.0
 47
0.0
 47
0.0
 47
0.0
 47
1.0
171
     0
 49
0.0208333333333333
 49
0.0
 49
0.0
 49
0.0
 49
0.0
 49
0.0208333333333333
 49
0.0
 49
0.0
 49
0.0
 49
0.0
 49
1.0
 49
0.0
 49
0.0
 49
0.0
 49
0.0
 49
1.0
175
     0
142
0.0208333333333333
142
0.0
142
0.0
142
0.0
142
0.0
142
0.0208333333333333
142
0.0
142
0.0
142
0.0
142
0.0
142
1.0
142
0.0
142
0.0
142
0.0
142
0.0
142
1.0
179
     0
144
0.0208333333333333
144
0.0
144
0.0
144
0.0
144
0.0
144
0.0208333333333333
144
0.0
144
0.0
144
0.0
144
0.0
144
1.0
144
0.0
144
0.0
144
0.0
144
0.0
144
1.0
147
0.0208333333333333
147
0.0
147
0.0
147
0.0
147
0.0
147
0.0208333333333333
147
0.0
147
0.0
147
0.0
147
0.0
147
1.0
147
0.0
147
0.0
147
0.0
147
0.0
147
1.0
  0
MLEADERSTYLE
  5
A32C
102
{ACAD_REACTORS
330
A32B
102
}
330
A32B
100
AcDbMLeaderStyle
170
     2
171
     1
172
     0
 90
        2
 40
0.0
 41
0.0
173
     1
 91
-1056964608
340
9E67
 92
       -2
290
     1
 42
0.09
291
     1
 43
0.36
  3
Standard
 44
0.18
300

342
9E65
174
     1
178
     6
175
     1
176
     0
 93
-1056964608
 45
0.18
292
     0
297
     0
 46
0.18
 94
-1056964608
 47
1.0
 49
1.0
140
1.0
293
     1
141
0.0
294
     1
177
     0
142
1.0
295
     0
296
     0
143
0.125
1001
ACAD_MLEADERVER
1070
     2
  0
MLINESTYLE
  5
9E6B
102
{ACAD_REACTORS
330
9E6A
102
}
330
9E6A
100
AcDbMlineStyle
  2
STANDARD
 70
     0
  3

 62
   256
 51
90.0
 52
90.0
 71
     2
 49
0.5
 62
   256
  6
BYLAYER
 49
-0.5
 62
   256
  6
BYLAYER
  0
ACDBPLACEHOLDER
  5
A2E3
102
{ACAD_REACTORS
330
A2E2
102
}
330
A2E2
  0
SCALE
  5
A31A
102
{ACAD_REACTORS
330
A319
102
}
330
A319
100
AcDbScale
 70
     0
300
1:1
140
1.0
141
1.0
290
     1
  0
SCALE
  5
A31B
102
{ACAD_REACTORS
330
A319
102
}
330
A319
100
AcDbScale
 70
     0
300
1/128" = 1'-0"
140
0.0078125
141
12.0
290
     0
  0
SCALE
  5
A31C
102
{ACAD_REACTORS
330
A319
102
}
330
A319
100
AcDbScale
 70
     0
300
1/64" = 1'-0"
140
0.015625
141
12.0
290
     0
  0
SCALE
  5
A31D
102
{ACAD_REACTORS
330
A319
102
}
330
A319
100
AcDbScale
 70
     0
300
1/32" = 1'-0"
140
0.03125
141
12.0
290
     0
  0
SCALE
  5
A31E
102
{ACAD_REACTORS
330
A319
102
}
330
A319
100
AcDbScale
 70
     0
300
1/16" = 1'-0"
140
0.0625
141
12.0
290
     0
  0
SCALE
  5
A31F
102
{ACAD_REACTORS
330
A319
102
}
330
A319
100
AcDbScale
 70
     0
300
3/32" = 1'-0"
140
0.09375
141
12.0
290
     0
  0
SCALE
  5
A320
102
{ACAD_REACTORS
330
A319
102
}
330
A319
100
AcDbScale
 70
     0
300
1/8" = 1'-0"
140
0.125
141
12.0
290
     0
  0
SCALE
  5
A321
102
{ACAD_REACTORS
330
A319
102
}
330
A319
100
AcDbScale
 70
     0
300
3/16" = 1'-0"
140
0.1875
141
12.0
290
     0
  0
SCALE
  5
A322
102
{ACAD_REACTORS
330
A319
102
}
330
A319
100
AcDbScale
 70
     0
300
1/4" = 1'-0"
140
0.25
141
12.0
290
     0
  0
SCALE
  5
A323
102
{ACAD_REACTORS
330
A319
102
}
330
A319
100
AcDbScale
 70
     0
300
3/8" = 1'-0"
140
0.375
141
12.0
290
     0
  0
SCALE
  5
A324
102
{ACAD_REACTORS
330
A319
102
}
330
A319
100
AcDbScale
 70
     0
300
1/2" = 1'-0"
140
0.5
141
12.0
290
     0
  0
SCALE
  5
A325
102
{ACAD_REACTORS
330
A319
102
}
330
A319
100
AcDbScale
 70
     0
300
3/4" = 1'-0"
140
0.75
141
12.0
290
     0
  0
SCALE
  5
A326
102
{ACAD_REACTORS
330
A319
102
}
330
A319
100
AcDbScale
 70
     0
300
1" = 1'-0"
140
1.0
141
12.0
290
     0
  0
SCALE
  5
A327
102
{ACAD_REACTORS
330
A319
102
}
330
A319
100
AcDbScale
 70
     0
300
1-1/2" = 1'-0"
140
1.5
141
12.0
290
     0
  0
SCALE
  5
A328
102
{ACAD_REACTORS
330
A319
102
}
330
A319
100
AcDbScale
 70
     0
300
3" = 1'-0"
140
3.0
141
12.0
290
     0
  0
SCALE
  5
A329
102
{ACAD_REACTORS
330
A319
102
}
330
A319
100
AcDbScale
 70
     0
300
6" = 1'-0"
140
6.0
141
12.0
290
     0
  0
SCALE
  5
A32A
102
{ACAD_REACTORS
330
A319
102
}
330
A319
100
AcDbScale
 70
     0
300
1'-0" = 1'-0"
140
12.0
141
12.0
290
     0
  0
ACDBSECTIONVIEWSTYLE
  5
A32E
102
{ACAD_XDICTIONARY
360
A389
102
}
102
{ACAD_REACTORS
330
A32D
102
}
330
A32D
100
AcDbModelDocViewStyle
 70
     0
  3
Imperial24
290
     0
100
AcDbSectionViewStyle
 70
     0
 71
     0
 90
       78
 71
     1
340
9E65
 40
0.24
340
0
340
0
 40
0.24
300
I, O, Q, S, X, Z
 40
0.48
 90
        3
 40
0.18
 90
        1
 71
     2
340
9E69
 90
       25
340
9E69
 90
       50
 40
0.24
 40
0.0
 40
0.24
 71
     3
340
9E65
 40
0.24
 90
        1
 40
0.75
 90
        1
300
%<\AcVar ViewType \f "%tc1">% %<\AcVar ViewSectionStartId>%-%<\AcVar ViewSectionEndId>%\PSCALE %<\AcVar ViewScale \f "%sn">%
 71
     4
300
ANSI31
 40
1.0
 90
        0
290
     0
290
     0
 90
        6
 40
0.0
 40
1.570796326794896
 40
0.2617993877991494
 40
1.308996938995747
 40
-0.2617993877991494
 40
1.832595714594046
  0
TABLESTYLE
  5
A318
102
{ACAD_XDICTIONARY
360
A350
102
}
102
{ACAD_REACTORS
330
A317
102
}
330
A317
100
AcDbTableStyle
  3
Standard
 70
     0
 71
     0
 40
0.06
 41
0.06
280
     0
281
     0
  7
STANDARD
140
0.18
170
     2
 62
     0
 63
     7
283
     0
274
    -2
284
     1
 64
     0
275
    -2
285
     1
 65
     0
276
    -2
286
     1
 66
     0
277
    -2
287
     1
 67
     0
278
    -2
288
     1
 68
     0
279
    -2
289
     1
 69
     0
  7
STANDARD
140
0.25
170
     5
 62
     0
 63
     7
283
     0
274
    -2
284
     1
 64
     0
275
    -2
285
     1
 65
     0
276
    -2
286
     1
 66
     0
277
    -2
287
     1
 67
     0
278
    -2
288
     1
 68
     0
279
    -2
289
     1
 69
     0
  7
STANDARD
140
0.18
170
     5
 62
     0
 63
     7
283
     0
274
    -2
284
     1
 64
     0
275
    -2
285
     1
 65
     0
276
    -2
286
     1
 66
     0
277
    -2
287
     1
 67
     0
278
    -2
288
     1
 68
     0
279
    -2
289
     1
 69
     0
  0
VISUALSTYLE
  5
A303
102
{ACAD_XDICTIONARY
360
A361
102
}
102
{ACAD_REACTORS
330
A2FD
102
}
330
A2FD
100
AcDbVisualStyle
  2
2dWireframe
 70
     4
 71
     0
 72
     2
 73
     0
 90
        0
 40
-0.6
 41
-30.0
 62
     5
 63
     7
 74
     1
 91
        4
 64
     7
 65
   257
 75
     1
175
     1
 42
1.0
 92
        0
 66
   257
 43
1.0
 76
     1
 77
     6
 78
     2
 67
     7
 79
     5
170
     0
171
     0
290
     0
174
     0
 93
        1
 44
0.0
173
     0
291
     0
 45
0.0
1001
ACAD
1000
AcDbSavedByObjectVersion
1070
     0
  0
VISUALSTYLE
  5
A302
102
{ACAD_XDICTIONARY
360
A35F
102
}
102
{ACAD_REACTORS
330
A2FD
102
}
330
A2FD
100
AcDbVisualStyle
  2
Basic
 70
     7
 71
     1
 72
     0
 73
     1
 90
        0
 40
-0.6
 41
-30.0
 62
     5
 63
     7
 74
     0
 91
        4
 64
     7
 65
   257
 75
     1
175
     1
 42
1.0
 92
        8
 66
     7
 43
1.0
 76
     1
 77
     6
 78
     2
 67
     7
 79
     5
170
     0
171
     0
290
     0
174
     0
 93
        1
 44
0.0
173
     0
291
     1
 45
0.0
1001
ACAD
1000
AcDbSavedByObjectVersion
1070
     0
  0
VISUALSTYLE
  5
A309
102
{ACAD_XDICTIONARY
360
A36D
102
}
102
{ACAD_REACTORS
330
A2FD
102
}
330
A2FD
100
AcDbVisualStyle
  2
Brighten
 70
    12
 71
     2
 72
     2
 73
     0
 90
        0
 40
-0.6
 41
-30.0
 62
     5
 63
     7
 74
     1
 91
        4
 64
     7
 65
   257
 75
     1
175
     1
 42
1.0
 92
        8
 66
     7
 43
1.0
 76
     1
 77
     6
 78
     2
 67
     7
 79
     5
170
     0
171
     0
290
     0
174
     0
 93
        1
 44
50.0
173
     0
291
     1
 45
0.0
1001
ACAD
1000
AcDbSavedByObjectVersion
1070
     0
  0
VISUALSTYLE
  5
A30D
102
{ACAD_XDICTIONARY
360
A375
102
}
102
{ACAD_REACTORS
330
A2FD
102
}
330
A2FD
100
AcDbVisualStyle
  2
ColorChange
 70
    16
 71
     2
 72
     2
 73
     3
 90
        0
 40
-0.6
 41
-30.0
 62
     5
 63
     8
 74
     1
 91
        4
 64
     7
 65
   257
 75
     1
175
     1
 42
1.0
 92
        8
 66
     8
 43
1.0
 76
     1
 77
     6
 78
     2
 67
     7
 79
     5
170
     0
171
     0
290
     0
174
     0
 93
        1
 44
0.0
173
     0
291
     1
 45
0.0
1001
ACAD
1000
AcDbSavedByObjectVersion
1070
     0
  0
VISUALSTYLE
  5
A306
102
{ACAD_XDICTIONARY
360
A367
102
}
102
{ACAD_REACTORS
330
A2FD
102
}
330
A2FD
100
AcDbVisualStyle
  2
Conceptual
 70
     9
 71
     3
 72
     2
 73
     0
 90
        0
 40
-0.6
 41
-30.0
 62
     5
 63
     7
 74
     2
 91
        2
 64
     7
 65
   257
 75
     1
175
     1
 42
179.0
 92
        8
 66
     7
 43
1.0
 76
     1
 77
     6
 78
     2
 67
     7
 79
     3
170
     0
171
     0
290
     0
174
     0
 93
        1
 44
0.0
173
     0
291
     0
 45
0.0
1001
ACAD
1000
AcDbSavedByObjectVersion
1070
     0
  0
VISUALSTYLE
  5
A308
102
{ACAD_XDICTIONARY
360
A36B
102
}
102
{ACAD_REACTORS
330
A2FD
102
}
330
A2FD
100
AcDbVisualStyle
  2
Dim
 70
    11
 71
     2
 72
     2
 73
     0
 90
        0
 40
-0.6
 41
-30.0
 62
     5
 63
     7
 74
     1
 91
        4
 64
     7
 65
   257
 75
     1
175
     1
 42
1.0
 92
        8
 66
     7
 43
1.0
 76
     1
 77
     6
 78
     2
 67
     7
 79
     5
170
     0
171
     0
290
     0
174
     0
 93
        1
 44
-50.0
173
     0
291
     1
 45
0.0
1001
ACAD
1000
AcDbSavedByObjectVersion
1070
     0
  0
VISUALSTYLE
  5
A315
102
{ACAD_XDICTIONARY
360
A385
102
}
102
{ACAD_REACTORS
330
A2FD
102
}
330
A2FD
100
AcDbVisualStyle
  2
EdgeColorOff
 70
    22
 71
     2
 72
     2
 73
     0
 90
        0
 40
-0.6
 41
-30.0
 62
     5
 63
     7
 74
     1
 91
        4
 64
     7
 65
   257
 75
     1
175
     1
 42
1.0
 92
        8
 66
     7
 43
1.0
 76
     1
 77
     6
 78
     2
 67
     7
 79
     5
170
     0
171
     0
290
     0
174
     0
 93
        1
 44
0.0
173
     0
291
     1
 45
0.0
1001
ACAD
1000
AcDbSavedByObjectVersion
1070
     0
  0
VISUALSTYLE
  5
A30C
102
{ACAD_XDICTIONARY
360
A373
102
}
102
{ACAD_REACTORS
330
A2FD
102
}
330
A2FD
100
AcDbVisualStyle
  2
Facepattern
 70
    15
 71
     2
 72
     2
 73
     0
 90
        0
 40
-0.6
 41
-30.0
 62
     5
 63
     7
 74
     1
 91
        4
 64
     7
 65
   257
 75
     1
175
     1
 42
1.0
 92
        8
 66
     7
 43
1.0
 76
     1
 77
     6
 78
     2
 67
     7
 79
     5
170
     0
171
     0
290
     0
174
     0
 93
        1
 44
0.0
173
     0
291
     1
 45
0.0
1001
ACAD
1000
AcDbSavedByObjectVersion
1070
     0
  0
VISUALSTYLE
  5
A2FE
102
{ACAD_XDICTIONARY
360
A357
102
}
102
{ACAD_REACTORS
330
A2FD
102
}
330
A2FD
100
AcDbVisualStyle
  2
Flat
 70
     0
 71
     2
 72
     1
 73
     1
 90
        2
 40
-0.6
 41
30.0
 62
     5
 63
     7
 74
     0
 91
        0
 64
     7
 65
   257
 75
     1
175
     1
 42
1.0
 92
        8
 66
     7
 43
1.0
 76
     1
 77
     6
 78
     2
 67
     7
 79
     5
170
     0
171
     0
290
     0
174
     0
 93
       13
 44
0.0
173
     0
291
     1
 45
0.0
1001
ACAD
1000
AcDbSavedByObjectVersion
1070
     0
  0
VISUALSTYLE
  5
A2FF
102
{ACAD_XDICTIONARY
360
A359
102
}
102
{ACAD_REACTORS
330
A2FD
102
}
330
A2FD
100
AcDbVisualStyle
  2
FlatWithEdges
 70
     1
 71
     2
 72
     1
 73
     1
 90
        2
 40
-0.6
 41
30.0
 62
     5
 63
     7
 74
     1
 91
        0
 64
     7
 65
   257
 75
     1
175
     1
 42
1.0
 92
        0
 66
   257
 43
1.0
 76
     1
 77
     6
 78
     2
 67
     7
 79
     5
170
     0
171
     0
290
     0
174
     0
 93
       13
 44
0.0
173
     0
291
     1
 45
0.0
1001
ACAD
1000
AcDbSavedByObjectVersion
1070
     0
  0
VISUALSTYLE
  5
A300
102
{ACAD_XDICTIONARY
360
A35B
102
}
102
{ACAD_REACTORS
330
A2FD
102
}
330
A2FD
100
AcDbVisualStyle
  2
Gouraud
 70
     2
 71
     2
 72
     2
 73
     1
 90
        2
 40
-0.6
 41
30.0
 62
     5
 63
     7
 74
     0
 91
        0
 64
     7
 65
   257
 75
     1
175
     1
 42
1.0
 92
        0
 66
     7
 43
1.0
 76
     1
 77
     6
 78
     2
 67
     7
 79
     5
170
     0
171
     0
290
     0
174
     0
 93
       13
 44
0.0
173
     0
291
     1
 45
0.0
1001
ACAD
1000
AcDbSavedByObjectVersion
1070
     0
  0
VISUALSTYLE
  5
A301
102
{ACAD_XDICTIONARY
360
A35D
102
}
102
{ACAD_REACTORS
330
A2FD
102
}
330
A2FD
100
AcDbVisualStyle
  2
GouraudWithEdges
 70
     3
 71
     2
 72
     2
 73
     1
 90
        2
 40
-0.6
 41
30.0
 62
     5
 63
     7
 74
     1
 91
        0
 64
     7
 65
   257
 75
     1
175
     1
 42
1.0
 92
        0
 66
   257
 43
1.0
 76
     1
 77
     6
 78
     2
 67
     7
 79
     5
170
     0
171
     0
290
     0
174
     0
 93
       13
 44
0.0
173
     0
291
     1
 45
0.0
1001
ACAD
1000
AcDbSavedByObjectVersion
1070
     0
  0
VISUALSTYLE
  5
A305
102
{ACAD_XDICTIONARY
360
A365
102
}
102
{ACAD_REACTORS
330
A2FD
102
}
330
A2FD
100
AcDbVisualStyle
  2
Hidden
 70
     6
 71
     1
 72
     2
 73
     2
 90
        0
 40
-0.6
 41
-30.0
 62
     5
 63
     7
 74
     2
 91
        2
 64
     7
 65
   257
 75
     2
175
     1
 42
40.0
 92
        0
 66
   257
 43
1.0
 76
     1
 77
     6
 78
     2
 67
     7
 79
     3
170
     0
171
     0
290
     0
174
     0
 93
        1
 44
0.0
173
     0
291
     0
 45
0.0
1001
ACAD
1000
AcDbSavedByObjectVersion
1070
     0
  0
VISUALSTYLE
  5
A313
102
{ACAD_XDICTIONARY
360
A381
102
}
102
{ACAD_REACTORS
330
A2FD
102
}
330
A2FD
100
AcDbVisualStyle
  2
JitterOff
 70
    20
 71
     2
 72
     2
 73
     0
 90
        0
 40
-0.6
 41
-30.0
 62
     5
 63
     7
 74
     1
 91
        4
 64
     7
 65
   257
 75
     1
175
     1
 42
1.0
 92
       10
 66
     7
 43
1.0
 76
     1
 77
     6
 78
     2
 67
     7
 79
     5
170
     0
171
     0
290
     0
174
     0
 93
        1
 44
0.0
173
     0
291
     1
 45
0.0
1001
ACAD
1000
AcDbSavedByObjectVersion
1070
     0
  0
VISUALSTYLE
  5
A30B
102
{ACAD_XDICTIONARY
360
A371
102
}
102
{ACAD_REACTORS
330
A2FD
102
}
330
A2FD
100
AcDbVisualStyle
  2
Linepattern
 70
    14
 71
     2
 72
     2
 73
     0
 90
        0
 40
-0.6
 41
-30.0
 62
     5
 63
     7
 74
     1
 91
        4
 64
     7
 65
   257
 75
     7
175
     7
 42
1.0
 92
        8
 66
     7
 43
1.0
 76
     1
 77
     6
 78
     2
 67
     7
 79
     5
170
     0
171
     0
290
     0
174
     0
 93
        1
 44
0.0
173
     0
291
     1
 45
0.0
1001
ACAD
1000
AcDbSavedByObjectVersion
1070
     0
  0
VISUALSTYLE
  5
A314
102
{ACAD_XDICTIONARY
360
A383
102
}
102
{ACAD_REACTORS
330
A2FD
102
}
330
A2FD
100
AcDbVisualStyle
  2
OverhangOff
 70
    21
 71
     2
 72
     2
 73
     0
 90
        0
 40
-0.6
 41
-30.0
 62
     5
 63
     7
 74
     1
 91
        4
 64
     7
 65
   257
 75
     1
175
     1
 42
1.0
 92
        9
 66
     7
 43
1.0
 76
     1
 77
     6
 78
     2
 67
     7
 79
     5
170
     0
171
     0
290
     0
174
     0
 93
        1
 44
0.0
173
     0
291
     1
 45
0.0
1001
ACAD
1000
AcDbSavedByObjectVersion
1070
     0
  0
VISUALSTYLE
  5
A307
102
{ACAD_XDICTIONARY
360
A369
102
}
102
{ACAD_REACTORS
330
A2FD
102
}
330
A2FD
100
AcDbVisualStyle
  2
Realistic
 70
     8
 71
     2
 72
     3
 73
     0
 90
        2
 40
-0.6
 41
30.0
 62
     5
 63
     7
 74
     0
 91
        0
 64
     7
 65
   257
 75
     1
175
     1
 42
1.0
 92
        8
 66
   257
 43
1.0
 76
     1
 77
     6
 78
     2
 67
     7
 79
     3
170
     0
171
     0
290
     0
174
     0
 93
       13
 44
0.0
173
     0
291
     0
 45
0.0
1001
ACAD
1000
AcDbSavedByObjectVersion
1070
     0
  0
VISUALSTYLE
  5
A312
102
{ACAD_XDICTIONARY
360
A37F
102
}
102
{ACAD_REACTORS
330
A2FD
102
}
330
A2FD
100
AcDbVisualStyle
  2
Shaded
 70
    27
 71
     2
 72
     2
 73
     1
 90
        2
 40
-0.6
 41
30.0
 62
     5
 63
     7
 74
     0
 91
        4
 64
     7
 65
   257
 75
     1
175
     1
 42
1.0
 92
        8
 66
   257
 43
1.0
 76
     1
 77
     6
 78
     2
 67
     8
 79
     3
170
     0
171
     0
290
     0
174
     0
 93
        5
 44
0.0
173
     0
291
     0
 45
0.0
1001
ACAD
1000
AcDbSavedByObjectVersion
1070
     0
  0
VISUALSTYLE
  5
A311
102
{ACAD_XDICTIONARY
360
A37D
102
}
102
{ACAD_REACTORS
330
A2FD
102
}
330
A2FD
100
AcDbVisualStyle
  2
Shaded with edges
 70
    26
 71
     2
 72
     2
 73
     1
 90
        2
 40
-0.6
 41
30.0
 62
     5
 63
     7
 74
     1
 91
       10
 64
     7
 65
   257
 75
     2
175
     1
 42
1.0
 92
        8
 66
   257
 43
1.0
 76
     1
 77
     6
 78
     2
 67
     7
 79
     3
170
     0
171
     0
290
     0
174
     0
 93
        5
 44
0.0
173
     0
291
     0
 45
0.0
1001
ACAD
1000
AcDbSavedByObjectVersion
1070
     0
  0
VISUALSTYLE
  5
A30E
102
{ACAD_XDICTIONARY
360
A377
102
}
102
{ACAD_REACTORS
330
A2FD
102
}
330
A2FD
100
AcDbVisualStyle
  2
Shades of Gray
 70
    23
 71
     2
 72
     2
 73
     3
 90
        0
 40
-0.6
 41
-30.0
 62
     5
 63
     7
 74
     2
 91
        2
 64
     7
 65
     7
 75
     1
175
     1
 42
40.0
 92
        8
 66
     7
 43
1.0
 76
     1
 77
     6
 78
     2
 67
     7
 79
     3
170
     0
171
     0
290
     0
174
     0
 93
        1
 44
0.0
173
     0
291
     0
 45
0.0
1001
ACAD
1000
AcDbSavedByObjectVersion
1070
     0
  0
VISUALSTYLE
  5
A30F
102
{ACAD_XDICTIONARY
360
A379
102
}
102
{ACAD_REACTORS
330
A2FD
102
}
330
A2FD
100
AcDbVisualStyle
  2
Sketchy
 70
    24
 71
     1
 72
     2
 73
     2
 90
        0
 40
-0.6
 41
-30.0
 62
     5
 63
     7
 74
     2
 91
        2
 64
     7
 65
     7
 75
     1
175
     1
 42
40.0
 92
       11
 66
     7
 43
1.0
 76
     1
 77
     6
 78
     2
 67
     7
 79
     6
170
     0
171
     0
290
     0
174
     0
 93
        1
 44
0.0
173
     0
291
     0
 45
0.0
1001
ACAD
1000
AcDbSavedByObjectVersion
1070
     0
  0
VISUALSTYLE
  5
A30A
102
{ACAD_XDICTIONARY
360
A36F
102
}
102
{ACAD_REACTORS
330
A2FD
102
}
330
A2FD
100
AcDbVisualStyle
  2
Thicken
 70
    13
 71
     2
 72
     2
 73
     0
 90
        0
 40
-0.6
 41
-30.0
 62
     5
 63
     7
 74
     1
 91
        4
 64
     7
 65
   257
 75
     1
175
     1
 42
1.0
 92
       12
 66
     7
 43
1.0
 76
     1
 77
     6
 78
     2
 67
     7
 79
     5
170
     0
171
     0
290
     0
174
     0
 93
        1
 44
0.0
173
     0
291
     1
 45
0.0
1001
ACAD
1000
AcDbSavedByObjectVersion
1070
     0
  0
VISUALSTYLE
  5
A304
102
{ACAD_XDICTIONARY
360
A363
102
}
102
{ACAD_REACTORS
330
A2FD
102
}
330
A2FD
100
AcDbVisualStyle
  2
Wireframe
 70
     5
 71
     0
 72
     2
 73
     0
 90
        0
 40
-0.6
 41
-30.0
 62
     5
 63
     7
 74
     1
 91
        4
 64
     7
 65
   257
 75
     1
175
     1
 42
1.0
 92
        0
 66
   257
 43
1.0
 76
     1
 77
     6
 78
     2
 67
     7
 79
     3
170
     0
171
     0
290
     0
174
     0
 93
        1
 44
0.0
173
     0
291
     0
 45
0.0
1001
ACAD
1000
AcDbSavedByObjectVersion
1070
     0
  0
VISUALSTYLE
  5
A310
102
{ACAD_XDICTIONARY
360
A37B
102
}
102
{ACAD_REACTORS
330
A2FD
102
}
330
A2FD
100
AcDbVisualStyle
  2
X-Ray
 70
    25
 71
     2
 72
     2
 73
     1
 90
        1
 40
0.5
 41
-30.0
 62
     5
 63
     7
 74
     1
 91
        0
 64
     7
 65
   257
 75
     1
175
     1
 42
1.0
 92
        8
 66
     7
 43
1.0
 76
     1
 77
     6
 78
     2
 67
     7
 79
     3
170
     0
171
     0
290
     0
174
     0
 93
       13
 44
0.0
173
     0
291
     0
 45
0.0
1001
ACAD
1000
AcDbSavedByObjectVersion
1070
     0
  0
DICTIONARYVAR
  5
A34A
102
{ACAD_REACTORS
330
A345
102
}
330
A345
100
DictionaryVariables
280
     0
  1
1:1
  0
DICTIONARYVAR
  5
A347
102
{ACAD_REACTORS
330
A345
102
}
330
A345
100
DictionaryVariables
280
     0
  1
STANDARD
  0
DICTIONARYVAR
  5
A346
102
{ACAD_REACTORS
330
A345
102
}
330
A345
100
DictionaryVariables
280
     0
  1
STANDARD
  0
DICTIONARYVAR
  5
A348
102
{ACAD_REACTORS
330
A345
102
}
330
A345
100
DictionaryVariables
280
     0
  1
Imperial24
  0
DICTIONARYVAR
  5
A349
102
{ACAD_REACTORS
330
A345
102
}
330
A345
100
DictionaryVariables
280
     0
  1
Imperial24
  0
DICTIONARYVAR
  5
A34D
102
{ACAD_REACTORS
330
A345
102
}
330
A345
100
DictionaryVariables
280
     0
  1
1
  0
DICTIONARYVAR
  5
A34C
102
{ACAD_REACTORS
330
A345
102
}
330
A345
100
DictionaryVariables
280
     0
  1
0
  0
DICTIONARYVAR
  5
A34B
102
{ACAD_REACTORS
330
A345
102
}
330
A345
100
DictionaryVariables
280
     0
  1
127
  0
DICTIONARYVAR
  5
A34E
102
{ACAD_REACTORS
330
A345
102
}
330
A345
100
DictionaryVariables
280
     0
  1
2
  0
DICTIONARY
  5
A38B
330
A330
100
AcDbDictionary
280
     1
281
     1
  3
ACAD_XREC_ROUNDTRIP
360
A38C
  0
DICTIONARY
  5
A38D
330
A331
100
AcDbDictionary
280
     1
281
     1
  3
ACAD_XREC_ROUNDTRIP
360
A38E
  0
DICTIONARY
  5
A38F
330
A332
100
AcDbDictionary
280
     1
281
     1
  3
ACAD_XREC_ROUNDTRIP
360
A390
  0
DICTIONARY
  5
A2EE
330
A2ED
100
AcDbDictionary
280
     1
281
     1
  3
ACAD_XREC_ROUNDTRIP
360
A355
  3
BUMPTILE
360
A2F0
  3
DIFFUSETILE
360
A2EF
  3
OPACITYTILE
360
A2F3
  3
REFLECTIONTILE
360
A2F2
  3
REFRACTIONTILE
360
A2F4
  3
SPECULARTILE
360
A2F1
  0
DICTIONARY
  5
A2E6
330
A2E5
100
AcDbDictionary
280
     1
281
     1
  3
ACAD_XREC_ROUNDTRIP
360
A354
  3
BUMPTILE
360
A2E8
  3
DIFFUSETILE
360
A2E7
  3
OPACITYTILE
360
A2EB
  3
REFLECTIONTILE
360
A2EA
  3
REFRACTIONTILE
360
A2EC
  3
SPECULARTILE
360
A2E9
  0
DICTIONARY
  5
A2F6
330
A2F5
100
AcDbDictionary
280
     1
281
     1
  3
ACAD_XREC_ROUNDTRIP
360
A356
  3
BUMPTILE
360
A2F8
  3
DIFFUSETILE
360
A2F7
  3
OPACITYTILE
360
A2FB
  3
REFLECTIONTILE
360
A2FA
  3
REFRACTIONTILE
360
A2FC
  3
SPECULARTILE
360
A2F9
  0
DICTIONARY
  5
A389
330
A32E
100
AcDbDictionary
280
     1
281
     1
  3
ACAD_XREC_ROUNDTRIP
360
A38A
  0
DICTIONARY
  5
A350
330
A318
100
AcDbDictionary
280
     1
281
     1
  3
ACAD_ROUNDTRIP_2008_TABLESTYLE_CELLSTYLEMAP
360
A351
  3
ACAD_XREC_ROUNDTRIP
360
A387
  0
DICTIONARY
  5
A361
330
A303
100
AcDbDictionary
280
     1
281
     1
  3
ACAD_XREC_ROUNDTRIP
360
A362
  0
DICTIONARY
  5
A35F
330
A302
100
AcDbDictionary
280
     1
281
     1
  3
ACAD_XREC_ROUNDTRIP
360
A360
  0
DICTIONARY
  5
A36D
330
A309
100
AcDbDictionary
280
     1
281
     1
  3
ACAD_XREC_ROUNDTRIP
360
A36E
  0
DICTIONARY
  5
A375
330
A30D
100
AcDbDictionary
280
     1
281
     1
  3
ACAD_XREC_ROUNDTRIP
360
A376
  0
DICTIONARY
  5
A367
330
A306
100
AcDbDictionary
280
     1
281
     1
  3
ACAD_XREC_ROUNDTRIP
360
A368
  0
DICTIONARY
  5
A36B
330
A308
100
AcDbDictionary
280
     1
281
     1
  3
ACAD_XREC_ROUNDTRIP
360
A36C
  0
DICTIONARY
  5
A385
330
A315
100
AcDbDictionary
280
     1
281
     1
  3
ACAD_XREC_ROUNDTRIP
360
A386
  0
DICTIONARY
  5
A373
330
A30C
100
AcDbDictionary
280
     1
281
     1
  3
ACAD_XREC_ROUNDTRIP
360
A374
  0
DICTIONARY
  5
A357
330
A2FE
100
AcDbDictionary
280
     1
281
     1
  3
ACAD_XREC_ROUNDTRIP
360
A358
  0
DICTIONARY
  5
A359
330
A2FF
100
AcDbDictionary
280
     1
281
     1
  3
ACAD_XREC_ROUNDTRIP
360
A35A
  0
DICTIONARY
  5
A35B
330
A300
100
AcDbDictionary
280
     1
281
     1
  3
ACAD_XREC_ROUNDTRIP
360
A35C
  0
DICTIONARY
  5
A35D
330
A301
100
AcDbDictionary
280
     1
281
     1
  3
ACAD_XREC_ROUNDTRIP
360
A35E
  0
DICTIONARY
  5
A365
330
A305
100
AcDbDictionary
280
     1
281
     1
  3
ACAD_XREC_ROUNDTRIP
360
A366
  0
DICTIONARY
  5
A381
330
A313
100
AcDbDictionary
280
     1
281
     1
  3
ACAD_XREC_ROUNDTRIP
360
A382
  0
DICTIONARY
  5
A371
330
A30B
100
AcDbDictionary
280
     1
281
     1
  3
ACAD_XREC_ROUNDTRIP
360
A372
  0
DICTIONARY
  5
A383
330
A314
100
AcDbDictionary
280
     1
281
     1
  3
ACAD_XREC_ROUNDTRIP
360
A384
  0
DICTIONARY
  5
A369
330
A307
100
AcDbDictionary
280
     1
281
     1
  3
ACAD_XREC_ROUNDTRIP
360
A36A
  0
DICTIONARY
  5
A37F
330
A312
100
AcDbDictionary
280
     1
281
     1
  3
ACAD_XREC_ROUNDTRIP
360
A380
  0
DICTIONARY
  5
A37D
330
A311
100
AcDbDictionary
280
     1
281
     1
  3
ACAD_XREC_ROUNDTRIP
360
A37E
  0
DICTIONARY
  5
A377
330
A30E
100
AcDbDictionary
280
     1
281
     1
  3
ACAD_XREC_ROUNDTRIP
360
A378
  0
DICTIONARY
  5
A379
330
A30F
100
AcDbDictionary
280
     1
281
     1
  3
ACAD_XREC_ROUNDTRIP
360
A37A
  0
DICTIONARY
  5
A36F
330
A30A
100
AcDbDictionary
280
     1
281
     1
  3
ACAD_XREC_ROUNDTRIP
360
A370
  0
DICTIONARY
  5
A363
330
A304
100
AcDbDictionary
280
     1
281
     1
  3
ACAD_XREC_ROUNDTRIP
360
A364
  0
DICTIONARY
  5
A37B
330
A310
100
AcDbDictionary
280
     1
281
     1
  3
ACAD_XREC_ROUNDTRIP
360
A37C
  0
XRECORD
  5
A38C
102
{ACAD_REACTORS
330
A38B
102
}
330
A38B
100
AcDbXrecord
280
     1
102
DISPLAYNAME
  1
Imperial24
102
FLAGS
 90
        0
  0
XRECORD
  5
A38E
102
{ACAD_REACTORS
330
A38D
102
}
330
A38D
100
AcDbXrecord
280
     1
102
SHADEPLOT
 70
     0
102
SHADEPLOTRESLEVEL
 70
     2
102
SHADEPLOTCUSTOMDPI
 70
   300
  0
XRECORD
  5
A390
102
{ACAD_REACTORS
330
A38F
102
}
330
A38F
100
AcDbXrecord
280
     1
102
SHADEPLOT
 70
     0
102
SHADEPLOTRESLEVEL
 70
     2
102
SHADEPLOTCUSTOMDPI
 70
   300
  0
XRECORD
  5
A355
102
{ACAD_REACTORS
330
A2EE
102
}
330
A2EE
100
AcDbXrecord
280
     1
102
MATERIAL
148
0.0
149
0.0
149
0.0
 93
        0
 94
      127
282
     0
 72
     0
 77
     0
171
     0
175
     0
179
     0
273
     0
  0
XRECORD
  5
A2F0
102
{ACAD_REACTORS
330
A2EE
102
}
330
A2EE
100
AcDbXrecord
280
     1
270
     1
271
     1
  0
XRECORD
  5
A2EF
102
{ACAD_REACTORS
330
A2EE
102
}
330
A2EE
100
AcDbXrecord
280
     1
270
     1
271
     1
  0
XRECORD
  5
A2F3
102
{ACAD_REACTORS
330
A2EE
102
}
330
A2EE
100
AcDbXrecord
280
     1
270
     1
271
     1
  0
XRECORD
  5
A2F2
102
{ACAD_REACTORS
330
A2EE
102
}
330
A2EE
100
AcDbXrecord
280
     1
270
     1
271
     1
  0
XRECORD
  5
A2F4
102
{ACAD_REACTORS
330
A2EE
102
}
330
A2EE
100
AcDbXrecord
280
     1
270
     1
271
     1
  0
XRECORD
  5
A2F1
102
{ACAD_REACTORS
330
A2EE
102
}
330
A2EE
100
AcDbXrecord
280
     1
270
     1
271
     1
  0
XRECORD
  5
A354
102
{ACAD_REACTORS
330
A2E6
102
}
330
A2E6
100
AcDbXrecord
280
     1
102
MATERIAL
148
0.0
149
0.0
149
0.0
 93
        0
 94
      127
282
     0
 72
     0
 77
     0
171
     0
175
     0
179
     0
273
     0
  0
XRECORD
  5
A2E8
102
{ACAD_REACTORS
330
A2E6
102
}
330
A2E6
100
AcDbXrecord
280
     1
270
     1
271
     1
  0
XRECORD
  5
A2E7
102
{ACAD_REACTORS
330
A2E6
102
}
330
A2E6
100
AcDbXrecord
280
     1
270
     1
271
     1
  0
XRECORD
  5
A2EB
102
{ACAD_REACTORS
330
A2E6
102
}
330
A2E6
100
AcDbXrecord
280
     1
270
     1
271
     1
  0
XRECORD
  5
A2EA
102
{ACAD_REACTORS
330
A2E6
102
}
330
A2E6
100
AcDbXrecord
280
     1
270
     1
271
     1
  0
XRECORD
  5
A2EC
102
{ACAD_REACTORS
330
A2E6
102
}
330
A2E6
100
AcDbXrecord
280
     1
270
     1
271
     1
  0
XRECORD
  5
A2E9
102
{ACAD_REACTORS
330
A2E6
102
}
330
A2E6
100
AcDbXrecord
280
     1
270
     1
271
     1
  0
XRECORD
  5
A356
102
{ACAD_REACTORS
330
A2F6
102
}
330
A2F6
100
AcDbXrecord
280
     1
102
MATERIAL
148
0.0
149
0.0
149
0.0
 93
        0
 94
      127
282
     0
 72
     0
 77
     0
171
     0
175
     0
179
     0
273
     0
  0
XRECORD
  5
A2F8
102
{ACAD_REACTORS
330
A2F6
102
}
330
A2F6
100
AcDbXrecord
280
     1
270
     1
271
     1
  0
XRECORD
  5
A2F7
102
{ACAD_REACTORS
330
A2F6
102
}
330
A2F6
100
AcDbXrecord
280
     1
270
     1
271
     1
  0
XRECORD
  5
A2FB
102
{ACAD_REACTORS
330
A2F6
102
}
330
A2F6
100
AcDbXrecord
280
     1
270
     1
271
     1
  0
XRECORD
  5
A2FA
102
{ACAD_REACTORS
330
A2F6
102
}
330
A2F6
100
AcDbXrecord
280
     1
270
     1
271
     1
  0
XRECORD
  5
A2FC
102
{ACAD_REACTORS
330
A2F6
102
}
330
A2F6
100
AcDbXrecord
280
     1
270
     1
271
     1
  0
XRECORD
  5
A2F9
102
{ACAD_REACTORS
330
A2F6
102
}
330
A2F6
100
AcDbXrecord
280
     1
270
     1
271
     1
  0
XRECORD
  5
A38A
102
{ACAD_REACTORS
330
A389
102
}
330
A389
100
AcDbXrecord
280
     1
102
DISPLAYNAME
  1
Imperial24
102
FLAGS
 90
        0
  0
CELLSTYLEMAP
  5
A351
102
{ACAD_REACTORS
330
A350
102
}
330
A350
100
AcDbCellStyleMap
 90
        3
300
CELLSTYLE
  1
TABLEFORMAT_BEGIN
 90
        5
170
     1
 91
        0
 92
    32768
 62
   257
 93
        1
300
CONTENTFORMAT
  1
CONTENTFORMAT_BEGIN
 90
        0
 91
        0
 92
      512
 93
        0
300

 40
0.0
140
1.0
 94
        5
 62
     0
340
9E65
144
0.25
309
CONTENTFORMAT_END
171
     0
 94
        0
309
TABLEFORMAT_END
  1
CELLSTYLE_BEGIN
 90
        1
 91
        1
300
_TITLE
309
CELLSTYLE_END
300
CELLSTYLE
  1
TABLEFORMAT_BEGIN
 90
        5
170
     1
 91
        0
 92
        0
 62
   257
 93
        1
300
CONTENTFORMAT
  1
CONTENTFORMAT_BEGIN
 90
        0
 91
        0
 92
      512
 93
        0
300

 40
0.0
140
1.0
 94
        5
 62
     0
340
9E65
144
0.18
309
CONTENTFORMAT_END
171
     0
 94
        0
309
TABLEFORMAT_END
  1
CELLSTYLE_BEGIN
 90
        2
 91
        1
300
_HEADER
309
CELLSTYLE_END
300
CELLSTYLE
  1
TABLEFORMAT_BEGIN
 90
        5
170
     1
 91
        0
 92
        0
 62
   257
 93
        1
300
CONTENTFORMAT
  1
CONTENTFORMAT_BEGIN
 90
        0
 91
        0
 92
      512
 93
        0
300

 40
0.0
140
1.0
 94
        2
 62
     0
340
9E65
144
0.18
309
CONTENTFORMAT_END
171
     0
 94
        0
309
TABLEFORMAT_END
  1
CELLSTYLE_BEGIN
 90
        3
 91
        2
300
_DATA
309
CELLSTYLE_END
  0
XRECORD
  5
A387
102
{ACAD_REACTORS
330
A350
102
}
330
A350
100
AcDbXrecord
280
     1
102
ACAD_ROUNDTRIP_PRE2007_TABLESTYLE
 90
      512
 91
        0
  1

 92
      512
 93
        0
  2

 94
      512
 95
        0
  3

  0
XRECORD
  5
A362
102
{ACAD_REACTORS
330
A361
102
}
330
A361
100
AcDbXrecord
280
     1
102
RTVSPost2010Prop28
280
     1
102
RTVSPost2010PropOp28
 70
     1
102
RTVSPost2010Prop29
280
     1
102
RTVSPost2010PropOp29
 70
     1
102
RTVSPost2010Prop30
280
     0
102
RTVSPost2010PropOp30
 70
     1
102
RTVSPost2010Prop31
280
     0
102
RTVSPost2010PropOp31
 70
     1
102
RTVSPost2010Prop32
280
     0
102
RTVSPost2010PropOp32
 70
     1
102
RTVSPost2010Prop33
280
     0
102
RTVSPost2010PropOp33
 70
     1
102
RTVSPost2010Prop34
280
     0
102
RTVSPost2010PropOp34
 70
     1
102
RTVSPost2010Prop35
280
     0
102
RTVSPost2010PropOp35
 70
     1
102
RTVSPost2010Prop36
280
     0
102
RTVSPost2010PropOp36
 70
     1
102
RTVSPost2010Prop37
 90
       50
102
RTVSPost2010PropOp37
 70
     1
102
RTVSPost2010Prop38
140
0.0
102
RTVSPost2010PropOp38
 70
     1
102
RTVSPost2010Prop39
140
1.0
102
RTVSPost2010PropOp39
 70
     1
102
RTVSPost2010Prop40
 90
        0
102
RTVSPost2010PropOp40
 70
     1
102
RTVSPost2010Prop41ColorIndex
 90
       18
102
RTVSPost2010Prop41ColorRGB
 90
        0
102
RTVSPost2010PropOp41
 70
     1
102
RTVSPost2010Prop42
 90
       50
102
RTVSPost2010PropOp42
 70
     1
102
RTVSPost2010Prop43
 90
        3
102
RTVSPost2010PropOp43
 70
     1
102
RTVSPost2010Prop44ColorIndex
 90
        5
102
RTVSPost2010Prop44ColorRGB
 90
      255
102
RTVSPost2010PropOp44
 70
     1
102
RTVSPost2010Prop45
280
     0
102
RTVSPost2010PropOp45
 70
     1
102
RTVSPost2010Prop46
 90
       50
102
RTVSPost2010PropOp46
 70
     1
102
RTVSPost2010Prop47
 90
       50
102
RTVSPost2010PropOp47
 70
     1
102
RTVSPost2010Prop48
 90
       50
102
RTVSPost2010PropOp48
 70
     1
102
RTVSPost2010Prop49
280
     0
102
RTVSPost2010PropOp49
 70
     1
102
RTVSPost2010Prop50
 90
       50
102
RTVSPost2010PropOp50
 70
     1
102
RTVSPost2010Prop51ColorIndex
 90
      256
102
RTVSPost2010Prop51ColorRGB
 90
-16777216
102
RTVSPost2010PropOp51
 70
     0
102
RTVSPost2010Prop52
140
1.0
102
RTVSPost2010PropOp52
 70
     0
102
RTVSPost2010Prop53
 90
        2
102
RTVSPost2010PropOp53
 70
     1
102
RTVSPost2010Prop54
  1
strokes_ogs.tif
102
RTVSPost2010PropOp54
 70
     1
102
RTVSPost2010Prop55
280
     0
102
RTVSPost2010PropOp55
 70
     1
102
RTVSPost2010Prop56
140
1.0
102
RTVSPost2010PropOp56
 70
     1
102
RTVSPost2010Prop57
140
1.0
102
RTVSPost2010PropOp57
 70
     1
102
RTVSPropertyOp0
 70
     1
102
RTVSPropertyOp1
 70
     1
102
RTVSPropertyOp2
 70
     1
102
RTVSPropertyOp3
 70
     1
102
RTVSPropertyOp4
 70
     1
102
RTVSPropertyOp5
 70
     1
102
RTVSPropertyOp6
 70
     1
102
RTVSPropertyOp7
 70
     1
102
RTVSPropertyOp8
 70
     1
102
RTVSPropertyOp9
 70
     1
102
RTVSPropertyOp10
 70
     1
102
RTVSPropertyOp11
 70
     1
102
RTVSPropertyOp12
 70
     1
102
RTVSPropertyOp13
 70
     1
102
RTVSPropertyOp14
 70
     1
102
RTVSPropertyOp15
 70
     1
102
RTVSPropertyOp16
 70
     1
102
RTVSPropertyOp17
 70
     1
102
RTVSPropertyOp18
 70
     1
102
RTVSPropertyOp19
 70
     1
102
RTVSPropertyOp20
 70
     1
102
RTVSPropertyOp21
 70
     1
102
RTVSPropertyOp22
 70
     1
102
RTVSPropertyOp23
 70
     1
102
RTVSPropertyOp24
 70
     1
102
RTVSPropertyOp25
 70
     1
102
RTVSPropertyOp26
 70
     1
102
RTVSPropertyOp27
 70
     1
102
RTVSPropertyOp28
 70
     1
102
RTVSPropertyOp29
 70
     1
102
RTVSPropertyOp30
 70
     1
102
RTVSPropertyOp31
 70
     1
102
RTVSPropertyOp32
 70
     1
102
RTVSPropertyOp33
 70
     1
102
RTVSPropertyOp34
 70
     1
102
RTVSPropertyOp35
 70
     1
102
RTVSPropertyOp36
 70
     1
102
RTVSPropertyOp37
 70
     1
102
RTVSPropertyOp38
 70
     1
102
RTVSPropertyOp39
 70
     1
102
RTVSPropertyOp40
 70
     1
102
RTVSPropertyOp41
 70
     1
102
RTVSPropertyOp42
 70
     1
102
RTVSPropertyOp43
 70
     1
102
RTVSPropertyOp44
 70
     1
102
RTVSPropertyOp45
 70
     1
102
RTVSPropertyOp46
 70
     1
102
RTVSPropertyOp47
 70
     1
102
RTVSPropertyOp48
 70
     1
102
RTVSPropertyOp49
 70
     1
102
RTVSPropertyOp50
 70
     1
102
RTVSPropertyOp51
 70
     0
102
RTVSPropertyOp52
 70
     0
102
RTVSPropertyOp53
 70
     1
102
RTVSPropertyOp54
 70
     1
102
RTVSPropertyOp55
 70
     1
102
RTVSPropertyOp56
 70
     1
102
RTVSPropertyOp57
 70
     1
102
RTVSPropertyOp58
 70
     1
102
RTVSPropertyOp59
 70
     1
102
RTVSPropertyOp60
 70
     1
102
RTVSPropertyOp61
 70
     1
102
RTVSPropertyOp62
 70
     1
  0
XRECORD
  5
A360
102
{ACAD_REACTORS
330
A35F
102
}
330
A35F
100
AcDbXrecord
280
     1
102
RTVSPost2010Prop28
280
     0
102
RTVSPost2010PropOp28
 70
     1
102
RTVSPost2010Prop29
280
     1
102
RTVSPost2010PropOp29
 70
     1
102
RTVSPost2010Prop30
280
     1
102
RTVSPost2010PropOp30
 70
     1
102
RTVSPost2010Prop31
280
     0
102
RTVSPost2010PropOp31
 70
     1
102
RTVSPost2010Prop32
280
     0
102
RTVSPost2010PropOp32
 70
     1
102
RTVSPost2010Prop33
280
     0
102
RTVSPost2010PropOp33
 70
     1
102
RTVSPost2010Prop34
280
     0
102
RTVSPost2010PropOp34
 70
     1
102
RTVSPost2010Prop35
280
     0
102
RTVSPost2010PropOp35
 70
     1
102
RTVSPost2010Prop36
280
     0
102
RTVSPost2010PropOp36
 70
     1
102
RTVSPost2010Prop37
 90
       50
102
RTVSPost2010PropOp37
 70
     1
102
RTVSPost2010Prop38
140
0.0
102
RTVSPost2010PropOp38
 70
     1
102
RTVSPost2010Prop39
140
1.0
102
RTVSPost2010PropOp39
 70
     1
102
RTVSPost2010Prop40
 90
        0
102
RTVSPost2010PropOp40
 70
     1
102
RTVSPost2010Prop41ColorIndex
 90
       18
102
RTVSPost2010Prop41ColorRGB
 90
        0
102
RTVSPost2010PropOp41
 70
     1
102
RTVSPost2010Prop42
 90
       50
102
RTVSPost2010PropOp42
 70
     1
102
RTVSPost2010Prop43
 90
        3
102
RTVSPost2010PropOp43
 70
     1
102
RTVSPost2010Prop44ColorIndex
 90
        5
102
RTVSPost2010Prop44ColorRGB
 90
      255
102
RTVSPost2010PropOp44
 70
     1
102
RTVSPost2010Prop45
280
     0
102
RTVSPost2010PropOp45
 70
     1
102
RTVSPost2010Prop46
 90
       50
102
RTVSPost2010PropOp46
 70
     1
102
RTVSPost2010Prop47
 90
       50
102
RTVSPost2010PropOp47
 70
     1
102
RTVSPost2010Prop48
 90
       50
102
RTVSPost2010PropOp48
 70
     1
102
RTVSPost2010Prop49
280
     0
102
RTVSPost2010PropOp49
 70
     1
102
RTVSPost2010Prop50
 90
       50
102
RTVSPost2010PropOp50
 70
     1
102
RTVSPost2010Prop51ColorIndex
 90
      256
102
RTVSPost2010Prop51ColorRGB
 90
-16777216
102
RTVSPost2010PropOp51
 70
     0
102
RTVSPost2010Prop52
140
1.0
102
RTVSPost2010PropOp52
 70
     0
102
RTVSPost2010Prop53
 90
        2
102
RTVSPost2010PropOp53
 70
     1
102
RTVSPost2010Prop54
  1
strokes_ogs.tif
102
RTVSPost2010PropOp54
 70
     1
102
RTVSPost2010Prop55
280
     0
102
RTVSPost2010PropOp55
 70
     1
102
RTVSPost2010Prop56
140
1.0
102
RTVSPost2010PropOp56
 70
     1
102
RTVSPost2010Prop57
140
1.0
102
RTVSPost2010PropOp57
 70
     1
102
RTVSPropertyOp0
 70
     1
102
RTVSPropertyOp1
 70
     1
102
RTVSPropertyOp2
 70
     1
102
RTVSPropertyOp3
 70
     1
102
RTVSPropertyOp4
 70
     1
102
RTVSPropertyOp5
 70
     1
102
RTVSPropertyOp6
 70
     1
102
RTVSPropertyOp7
 70
     1
102
RTVSPropertyOp8
 70
     1
102
RTVSPropertyOp9
 70
     1
102
RTVSPropertyOp10
 70
     1
102
RTVSPropertyOp11
 70
     1
102
RTVSPropertyOp12
 70
     1
102
RTVSPropertyOp13
 70
     1
102
RTVSPropertyOp14
 70
     1
102
RTVSPropertyOp15
 70
     1
102
RTVSPropertyOp16
 70
     1
102
RTVSPropertyOp17
 70
     1
102
RTVSPropertyOp18
 70
     1
102
RTVSPropertyOp19
 70
     1
102
RTVSPropertyOp20
 70
     1
102
RTVSPropertyOp21
 70
     1
102
RTVSPropertyOp22
 70
     1
102
RTVSPropertyOp23
 70
     1
102
RTVSPropertyOp24
 70
     1
102
RTVSPropertyOp25
 70
     1
102
RTVSPropertyOp26
 70
     1
102
RTVSPropertyOp27
 70
     1
102
RTVSPropertyOp28
 70
     1
102
RTVSPropertyOp29
 70
     1
102
RTVSPropertyOp30
 70
     1
102
RTVSPropertyOp31
 70
     1
102
RTVSPropertyOp32
 70
     1
102
RTVSPropertyOp33
 70
     1
102
RTVSPropertyOp34
 70
     1
102
RTVSPropertyOp35
 70
     1
102
RTVSPropertyOp36
 70
     1
102
RTVSPropertyOp37
 70
     1
102
RTVSPropertyOp38
 70
     1
102
RTVSPropertyOp39
 70
     1
102
RTVSPropertyOp40
 70
     1
102
RTVSPropertyOp41
 70
     1
102
RTVSPropertyOp42
 70
     1
102
RTVSPropertyOp43
 70
     1
102
RTVSPropertyOp44
 70
     1
102
RTVSPropertyOp45
 70
     1
102
RTVSPropertyOp46
 70
     1
102
RTVSPropertyOp47
 70
     1
102
RTVSPropertyOp48
 70
     1
102
RTVSPropertyOp49
 70
     1
102
RTVSPropertyOp50
 70
     1
102
RTVSPropertyOp51
 70
     0
102
RTVSPropertyOp52
 70
     0
102
RTVSPropertyOp53
 70
     1
102
RTVSPropertyOp54
 70
     1
102
RTVSPropertyOp55
 70
     1
102
RTVSPropertyOp56
 70
     1
102
RTVSPropertyOp57
 70
     1
102
RTVSPropertyOp58
 70
     1
102
RTVSPropertyOp59
 70
     1
102
RTVSPropertyOp60
 70
     1
102
RTVSPropertyOp61
 70
     1
102
RTVSPropertyOp62
 70
     1
  0
XRECORD
  5
A36E
102
{ACAD_REACTORS
330
A36D
102
}
330
A36D
100
AcDbXrecord
280
     1
102
RTVSPost2010Prop28
280
     0
102
RTVSPost2010PropOp28
 70
     1
102
RTVSPost2010Prop29
280
     1
102
RTVSPost2010PropOp29
 70
     1
102
RTVSPost2010Prop30
280
     1
102
RTVSPost2010PropOp30
 70
     1
102
RTVSPost2010Prop31
280
     0
102
RTVSPost2010PropOp31
 70
     1
102
RTVSPost2010Prop32
280
     0
102
RTVSPost2010PropOp32
 70
     1
102
RTVSPost2010Prop33
280
     0
102
RTVSPost2010PropOp33
 70
     1
102
RTVSPost2010Prop34
280
     0
102
RTVSPost2010PropOp34
 70
     1
102
RTVSPost2010Prop35
280
     0
102
RTVSPost2010PropOp35
 70
     1
102
RTVSPost2010Prop36
280
     0
102
RTVSPost2010PropOp36
 70
     1
102
RTVSPost2010Prop37
 90
       50
102
RTVSPost2010PropOp37
 70
     1
102
RTVSPost2010Prop38
140
0.0
102
RTVSPost2010PropOp38
 70
     1
102
RTVSPost2010Prop39
140
1.0
102
RTVSPost2010PropOp39
 70
     1
102
RTVSPost2010Prop40
 90
        0
102
RTVSPost2010PropOp40
 70
     1
102
RTVSPost2010Prop41ColorIndex
 90
       18
102
RTVSPost2010Prop41ColorRGB
 90
        0
102
RTVSPost2010PropOp41
 70
     1
102
RTVSPost2010Prop42
 90
       50
102
RTVSPost2010PropOp42
 70
     1
102
RTVSPost2010Prop43
 90
        3
102
RTVSPost2010PropOp43
 70
     1
102
RTVSPost2010Prop44ColorIndex
 90
        5
102
RTVSPost2010Prop44ColorRGB
 90
      255
102
RTVSPost2010PropOp44
 70
     1
102
RTVSPost2010Prop45
280
     0
102
RTVSPost2010PropOp45
 70
     1
102
RTVSPost2010Prop46
 90
       50
102
RTVSPost2010PropOp46
 70
     1
102
RTVSPost2010Prop47
 90
       50
102
RTVSPost2010PropOp47
 70
     1
102
RTVSPost2010Prop48
 90
       50
102
RTVSPost2010PropOp48
 70
     1
102
RTVSPost2010Prop49
280
     0
102
RTVSPost2010PropOp49
 70
     1
102
RTVSPost2010Prop50
 90
       50
102
RTVSPost2010PropOp50
 70
     1
102
RTVSPost2010Prop51ColorIndex
 90
      256
102
RTVSPost2010Prop51ColorRGB
 90
-16777216
102
RTVSPost2010PropOp51
 70
     0
102
RTVSPost2010Prop52
140
1.0
102
RTVSPost2010PropOp52
 70
     0
102
RTVSPost2010Prop53
 90
        2
102
RTVSPost2010PropOp53
 70
     1
102
RTVSPost2010Prop54
  1
strokes_ogs.tif
102
RTVSPost2010PropOp54
 70
     1
102
RTVSPost2010Prop55
280
     0
102
RTVSPost2010PropOp55
 70
     1
102
RTVSPost2010Prop56
140
1.0
102
RTVSPost2010PropOp56
 70
     1
102
RTVSPost2010Prop57
140
1.0
102
RTVSPost2010PropOp57
 70
     1
102
RTVSPropertyOp0
 70
     1
102
RTVSPropertyOp1
 70
     1
102
RTVSPropertyOp2
 70
     1
102
RTVSPropertyOp3
 70
     1
102
RTVSPropertyOp4
 70
     1
102
RTVSPropertyOp5
 70
     1
102
RTVSPropertyOp6
 70
     1
102
RTVSPropertyOp7
 70
     1
102
RTVSPropertyOp8
 70
     1
102
RTVSPropertyOp9
 70
     1
102
RTVSPropertyOp10
 70
     1
102
RTVSPropertyOp11
 70
     1
102
RTVSPropertyOp12
 70
     1
102
RTVSPropertyOp13
 70
     1
102
RTVSPropertyOp14
 70
     1
102
RTVSPropertyOp15
 70
     1
102
RTVSPropertyOp16
 70
     1
102
RTVSPropertyOp17
 70
     1
102
RTVSPropertyOp18
 70
     1
102
RTVSPropertyOp19
 70
     1
102
RTVSPropertyOp20
 70
     1
102
RTVSPropertyOp21
 70
     1
102
RTVSPropertyOp22
 70
     1
102
RTVSPropertyOp23
 70
     1
102
RTVSPropertyOp24
 70
     1
102
RTVSPropertyOp25
 70
     1
102
RTVSPropertyOp26
 70
     1
102
RTVSPropertyOp27
 70
     1
102
RTVSPropertyOp28
 70
     1
102
RTVSPropertyOp29
 70
     1
102
RTVSPropertyOp30
 70
     1
102
RTVSPropertyOp31
 70
     1
102
RTVSPropertyOp32
 70
     1
102
RTVSPropertyOp33
 70
     1
102
RTVSPropertyOp34
 70
     1
102
RTVSPropertyOp35
 70
     1
102
RTVSPropertyOp36
 70
     1
102
RTVSPropertyOp37
 70
     1
102
RTVSPropertyOp38
 70
     1
102
RTVSPropertyOp39
 70
     1
102
RTVSPropertyOp40
 70
     1
102
RTVSPropertyOp41
 70
     1
102
RTVSPropertyOp42
 70
     1
102
RTVSPropertyOp43
 70
     1
102
RTVSPropertyOp44
 70
     1
102
RTVSPropertyOp45
 70
     1
102
RTVSPropertyOp46
 70
     1
102
RTVSPropertyOp47
 70
     1
102
RTVSPropertyOp48
 70
     1
102
RTVSPropertyOp49
 70
     1
102
RTVSPropertyOp50
 70
     1
102
RTVSPropertyOp51
 70
     0
102
RTVSPropertyOp52
 70
     0
102
RTVSPropertyOp53
 70
     1
102
RTVSPropertyOp54
 70
     1
102
RTVSPropertyOp55
 70
     1
102
RTVSPropertyOp56
 70
     1
102
RTVSPropertyOp57
 70
     1
102
RTVSPropertyOp58
 70
     1
102
RTVSPropertyOp59
 70
     1
102
RTVSPropertyOp60
 70
     1
102
RTVSPropertyOp61
 70
     1
102
RTVSPropertyOp62
 70
     1
  0
XRECORD
  5
A376
102
{ACAD_REACTORS
330
A375
102
}
330
A375
100
AcDbXrecord
280
     1
102
RTVSPost2010Prop28
280
     0
102
RTVSPost2010PropOp28
 70
     1
102
RTVSPost2010Prop29
280
     1
102
RTVSPost2010PropOp29
 70
     1
102
RTVSPost2010Prop30
280
     1
102
RTVSPost2010PropOp30
 70
     1
102
RTVSPost2010Prop31
280
     0
102
RTVSPost2010PropOp31
 70
     1
102
RTVSPost2010Prop32
280
     0
102
RTVSPost2010PropOp32
 70
     1
102
RTVSPost2010Prop33
280
     0
102
RTVSPost2010PropOp33
 70
     1
102
RTVSPost2010Prop34
280
     0
102
RTVSPost2010PropOp34
 70
     1
102
RTVSPost2010Prop35
280
     0
102
RTVSPost2010PropOp35
 70
     1
102
RTVSPost2010Prop36
280
     0
102
RTVSPost2010PropOp36
 70
     1
102
RTVSPost2010Prop37
 90
       50
102
RTVSPost2010PropOp37
 70
     1
102
RTVSPost2010Prop38
140
0.0
102
RTVSPost2010PropOp38
 70
     1
102
RTVSPost2010Prop39
140
1.0
102
RTVSPost2010PropOp39
 70
     1
102
RTVSPost2010Prop40
 90
        0
102
RTVSPost2010PropOp40
 70
     1
102
RTVSPost2010Prop41ColorIndex
 90
       18
102
RTVSPost2010Prop41ColorRGB
 90
        0
102
RTVSPost2010PropOp41
 70
     1
102
RTVSPost2010Prop42
 90
       50
102
RTVSPost2010PropOp42
 70
     1
102
RTVSPost2010Prop43
 90
        3
102
RTVSPost2010PropOp43
 70
     1
102
RTVSPost2010Prop44ColorIndex
 90
        5
102
RTVSPost2010Prop44ColorRGB
 90
      255
102
RTVSPost2010PropOp44
 70
     1
102
RTVSPost2010Prop45
280
     0
102
RTVSPost2010PropOp45
 70
     1
102
RTVSPost2010Prop46
 90
       50
102
RTVSPost2010PropOp46
 70
     1
102
RTVSPost2010Prop47
 90
       50
102
RTVSPost2010PropOp47
 70
     1
102
RTVSPost2010Prop48
 90
       50
102
RTVSPost2010PropOp48
 70
     1
102
RTVSPost2010Prop49
280
     0
102
RTVSPost2010PropOp49
 70
     1
102
RTVSPost2010Prop50
 90
       50
102
RTVSPost2010PropOp50
 70
     1
102
RTVSPost2010Prop51ColorIndex
 90
      256
102
RTVSPost2010Prop51ColorRGB
 90
-16777216
102
RTVSPost2010PropOp51
 70
     0
102
RTVSPost2010Prop52
140
1.0
102
RTVSPost2010PropOp52
 70
     0
102
RTVSPost2010Prop53
 90
        2
102
RTVSPost2010PropOp53
 70
     1
102
RTVSPost2010Prop54
  1
strokes_ogs.tif
102
RTVSPost2010PropOp54
 70
     1
102
RTVSPost2010Prop55
280
     0
102
RTVSPost2010PropOp55
 70
     1
102
RTVSPost2010Prop56
140
1.0
102
RTVSPost2010PropOp56
 70
     1
102
RTVSPost2010Prop57
140
1.0
102
RTVSPost2010PropOp57
 70
     1
102
RTVSPropertyOp0
 70
     1
102
RTVSPropertyOp1
 70
     1
102
RTVSPropertyOp2
 70
     1
102
RTVSPropertyOp3
 70
     1
102
RTVSPropertyOp4
 70
     1
102
RTVSPropertyOp5
 70
     1
102
RTVSPropertyOp6
 70
     1
102
RTVSPropertyOp7
 70
     1
102
RTVSPropertyOp8
 70
     1
102
RTVSPropertyOp9
 70
     1
102
RTVSPropertyOp10
 70
     1
102
RTVSPropertyOp11
 70
     1
102
RTVSPropertyOp12
 70
     1
102
RTVSPropertyOp13
 70
     1
102
RTVSPropertyOp14
 70
     1
102
RTVSPropertyOp15
 70
     1
102
RTVSPropertyOp16
 70
     1
102
RTVSPropertyOp17
 70
     1
102
RTVSPropertyOp18
 70
     1
102
RTVSPropertyOp19
 70
     1
102
RTVSPropertyOp20
 70
     1
102
RTVSPropertyOp21
 70
     1
102
RTVSPropertyOp22
 70
     1
102
RTVSPropertyOp23
 70
     1
102
RTVSPropertyOp24
 70
     1
102
RTVSPropertyOp25
 70
     1
102
RTVSPropertyOp26
 70
     1
102
RTVSPropertyOp27
 70
     1
102
RTVSPropertyOp28
 70
     1
102
RTVSPropertyOp29
 70
     1
102
RTVSPropertyOp30
 70
     1
102
RTVSPropertyOp31
 70
     1
102
RTVSPropertyOp32
 70
     1
102
RTVSPropertyOp33
 70
     1
102
RTVSPropertyOp34
 70
     1
102
RTVSPropertyOp35
 70
     1
102
RTVSPropertyOp36
 70
     1
102
RTVSPropertyOp37
 70
     1
102
RTVSPropertyOp38
 70
     1
102
RTVSPropertyOp39
 70
     1
102
RTVSPropertyOp40
 70
     1
102
RTVSPropertyOp41
 70
     1
102
RTVSPropertyOp42
 70
     1
102
RTVSPropertyOp43
 70
     1
102
RTVSPropertyOp44
 70
     1
102
RTVSPropertyOp45
 70
     1
102
RTVSPropertyOp46
 70
     1
102
RTVSPropertyOp47
 70
     1
102
RTVSPropertyOp48
 70
     1
102
RTVSPropertyOp49
 70
     1
102
RTVSPropertyOp50
 70
     1
102
RTVSPropertyOp51
 70
     0
102
RTVSPropertyOp52
 70
     0
102
RTVSPropertyOp53
 70
     1
102
RTVSPropertyOp54
 70
     1
102
RTVSPropertyOp55
 70
     1
102
RTVSPropertyOp56
 70
     1
102
RTVSPropertyOp57
 70
     1
102
RTVSPropertyOp58
 70
     1
102
RTVSPropertyOp59
 70
     1
102
RTVSPropertyOp60
 70
     1
102
RTVSPropertyOp61
 70
     1
102
RTVSPropertyOp62
 70
     1
  0
XRECORD
  5
A368
102
{ACAD_REACTORS
330
A367
102
}
330
A367
100
AcDbXrecord
280
     1
102
RTVSPost2010Prop28
280
     0
102
RTVSPost2010PropOp28
 70
     1
102
RTVSPost2010Prop29
280
     1
102
RTVSPost2010PropOp29
 70
     1
102
RTVSPost2010Prop30
280
     1
102
RTVSPost2010PropOp30
 70
     1
102
RTVSPost2010Prop31
280
     0
102
RTVSPost2010PropOp31
 70
     1
102
RTVSPost2010Prop32
280
     0
102
RTVSPost2010PropOp32
 70
     1
102
RTVSPost2010Prop33
280
     0
102
RTVSPost2010PropOp33
 70
     1
102
RTVSPost2010Prop34
280
     0
102
RTVSPost2010PropOp34
 70
     1
102
RTVSPost2010Prop35
280
     0
102
RTVSPost2010PropOp35
 70
     1
102
RTVSPost2010Prop36
280
     0
102
RTVSPost2010PropOp36
 70
     1
102
RTVSPost2010Prop37
 90
       50
102
RTVSPost2010PropOp37
 70
     1
102
RTVSPost2010Prop38
140
0.0
102
RTVSPost2010PropOp38
 70
     1
102
RTVSPost2010Prop39
140
1.0
102
RTVSPost2010PropOp39
 70
     1
102
RTVSPost2010Prop40
 90
        0
102
RTVSPost2010PropOp40
 70
     1
102
RTVSPost2010Prop41ColorIndex
 90
       18
102
RTVSPost2010Prop41ColorRGB
 90
        0
102
RTVSPost2010PropOp41
 70
     1
102
RTVSPost2010Prop42
 90
       50
102
RTVSPost2010PropOp42
 70
     1
102
RTVSPost2010Prop43
 90
        3
102
RTVSPost2010PropOp43
 70
     1
102
RTVSPost2010Prop44ColorIndex
 90
        5
102
RTVSPost2010Prop44ColorRGB
 90
      255
102
RTVSPost2010PropOp44
 70
     1
102
RTVSPost2010Prop45
280
     0
102
RTVSPost2010PropOp45
 70
     1
102
RTVSPost2010Prop46
 90
       50
102
RTVSPost2010PropOp46
 70
     1
102
RTVSPost2010Prop47
 90
       50
102
RTVSPost2010PropOp47
 70
     1
102
RTVSPost2010Prop48
 90
       50
102
RTVSPost2010PropOp48
 70
     1
102
RTVSPost2010Prop49
280
     0
102
RTVSPost2010PropOp49
 70
     1
102
RTVSPost2010Prop50
 90
       50
102
RTVSPost2010PropOp50
 70
     1
102
RTVSPost2010Prop51ColorIndex
 90
      256
102
RTVSPost2010Prop51ColorRGB
 90
-16777216
102
RTVSPost2010PropOp51
 70
     0
102
RTVSPost2010Prop52
140
1.0
102
RTVSPost2010PropOp52
 70
     0
102
RTVSPost2010Prop53
 90
        2
102
RTVSPost2010PropOp53
 70
     1
102
RTVSPost2010Prop54
  1
strokes_ogs.tif
102
RTVSPost2010PropOp54
 70
     1
102
RTVSPost2010Prop55
280
     0
102
RTVSPost2010PropOp55
 70
     1
102
RTVSPost2010Prop56
140
1.0
102
RTVSPost2010PropOp56
 70
     1
102
RTVSPost2010Prop57
140
1.0
102
RTVSPost2010PropOp57
 70
     1
102
RTVSPropertyOp0
 70
     1
102
RTVSPropertyOp1
 70
     1
102
RTVSPropertyOp2
 70
     1
102
RTVSPropertyOp3
 70
     1
102
RTVSPropertyOp4
 70
     1
102
RTVSPropertyOp5
 70
     1
102
RTVSPropertyOp6
 70
     1
102
RTVSPropertyOp7
 70
     1
102
RTVSPropertyOp8
 70
     1
102
RTVSPropertyOp9
 70
     1
102
RTVSPropertyOp10
 70
     1
102
RTVSPropertyOp11
 70
     1
102
RTVSPropertyOp12
 70
     1
102
RTVSPropertyOp13
 70
     1
102
RTVSPropertyOp14
 70
     1
102
RTVSPropertyOp15
 70
     1
102
RTVSPropertyOp16
 70
     1
102
RTVSPropertyOp17
 70
     1
102
RTVSPropertyOp18
 70
     1
102
RTVSPropertyOp19
 70
     1
102
RTVSPropertyOp20
 70
     1
102
RTVSPropertyOp21
 70
     1
102
RTVSPropertyOp22
 70
     1
102
RTVSPropertyOp23
 70
     1
102
RTVSPropertyOp24
 70
     1
102
RTVSPropertyOp25
 70
     1
102
RTVSPropertyOp26
 70
     1
102
RTVSPropertyOp27
 70
     1
102
RTVSPropertyOp28
 70
     1
102
RTVSPropertyOp29
 70
     1
102
RTVSPropertyOp30
 70
     1
102
RTVSPropertyOp31
 70
     1
102
RTVSPropertyOp32
 70
     1
102
RTVSPropertyOp33
 70
     1
102
RTVSPropertyOp34
 70
     1
102
RTVSPropertyOp35
 70
     1
102
RTVSPropertyOp36
 70
     1
102
RTVSPropertyOp37
 70
     1
102
RTVSPropertyOp38
 70
     1
102
RTVSPropertyOp39
 70
     1
102
RTVSPropertyOp40
 70
     1
102
RTVSPropertyOp41
 70
     1
102
RTVSPropertyOp42
 70
     1
102
RTVSPropertyOp43
 70
     1
102
RTVSPropertyOp44
 70
     1
102
RTVSPropertyOp45
 70
     1
102
RTVSPropertyOp46
 70
     1
102
RTVSPropertyOp47
 70
     1
102
RTVSPropertyOp48
 70
     1
102
RTVSPropertyOp49
 70
     1
102
RTVSPropertyOp50
 70
     1
102
RTVSPropertyOp51
 70
     0
102
RTVSPropertyOp52
 70
     0
102
RTVSPropertyOp53
 70
     1
102
RTVSPropertyOp54
 70
     1
102
RTVSPropertyOp55
 70
     1
102
RTVSPropertyOp56
 70
     1
102
RTVSPropertyOp57
 70
     1
102
RTVSPropertyOp58
 70
     1
102
RTVSPropertyOp59
 70
     1
102
RTVSPropertyOp60
 70
     1
102
RTVSPropertyOp61
 70
     1
102
RTVSPropertyOp62
 70
     1
  0
XRECORD
  5
A36C
102
{ACAD_REACTORS
330
A36B
102
}
330
A36B
100
AcDbXrecord
280
     1
102
RTVSPost2010Prop28
280
     0
102
RTVSPost2010PropOp28
 70
     1
102
RTVSPost2010Prop29
280
     1
102
RTVSPost2010PropOp29
 70
     1
102
RTVSPost2010Prop30
280
     1
102
RTVSPost2010PropOp30
 70
     1
102
RTVSPost2010Prop31
280
     0
102
RTVSPost2010PropOp31
 70
     1
102
RTVSPost2010Prop32
280
     0
102
RTVSPost2010PropOp32
 70
     1
102
RTVSPost2010Prop33
280
     0
102
RTVSPost2010PropOp33
 70
     1
102
RTVSPost2010Prop34
280
     0
102
RTVSPost2010PropOp34
 70
     1
102
RTVSPost2010Prop35
280
     0
102
RTVSPost2010PropOp35
 70
     1
102
RTVSPost2010Prop36
280
     0
102
RTVSPost2010PropOp36
 70
     1
102
RTVSPost2010Prop37
 90
       50
102
RTVSPost2010PropOp37
 70
     1
102
RTVSPost2010Prop38
140
0.0
102
RTVSPost2010PropOp38
 70
     1
102
RTVSPost2010Prop39
140
1.0
102
RTVSPost2010PropOp39
 70
     1
102
RTVSPost2010Prop40
 90
        0
102
RTVSPost2010PropOp40
 70
     1
102
RTVSPost2010Prop41ColorIndex
 90
       18
102
RTVSPost2010Prop41ColorRGB
 90
        0
102
RTVSPost2010PropOp41
 70
     1
102
RTVSPost2010Prop42
 90
       50
102
RTVSPost2010PropOp42
 70
     1
102
RTVSPost2010Prop43
 90
        3
102
RTVSPost2010PropOp43
 70
     1
102
RTVSPost2010Prop44ColorIndex
 90
        5
102
RTVSPost2010Prop44ColorRGB
 90
      255
102
RTVSPost2010PropOp44
 70
     1
102
RTVSPost2010Prop45
280
     0
102
RTVSPost2010PropOp45
 70
     1
102
RTVSPost2010Prop46
 90
       50
102
RTVSPost2010PropOp46
 70
     1
102
RTVSPost2010Prop47
 90
       50
102
RTVSPost2010PropOp47
 70
     1
102
RTVSPost2010Prop48
 90
       50
102
RTVSPost2010PropOp48
 70
     1
102
RTVSPost2010Prop49
280
     0
102
RTVSPost2010PropOp49
 70
     1
102
RTVSPost2010Prop50
 90
       50
102
RTVSPost2010PropOp50
 70
     1
102
RTVSPost2010Prop51ColorIndex
 90
      256
102
RTVSPost2010Prop51ColorRGB
 90
-16777216
102
RTVSPost2010PropOp51
 70
     0
102
RTVSPost2010Prop52
140
1.0
102
RTVSPost2010PropOp52
 70
     0
102
RTVSPost2010Prop53
 90
        2
102
RTVSPost2010PropOp53
 70
     1
102
RTVSPost2010Prop54
  1
strokes_ogs.tif
102
RTVSPost2010PropOp54
 70
     1
102
RTVSPost2010Prop55
280
     0
102
RTVSPost2010PropOp55
 70
     1
102
RTVSPost2010Prop56
140
1.0
102
RTVSPost2010PropOp56
 70
     1
102
RTVSPost2010Prop57
140
1.0
102
RTVSPost2010PropOp57
 70
     1
102
RTVSPropertyOp0
 70
     1
102
RTVSPropertyOp1
 70
     1
102
RTVSPropertyOp2
 70
     1
102
RTVSPropertyOp3
 70
     1
102
RTVSPropertyOp4
 70
     1
102
RTVSPropertyOp5
 70
     1
102
RTVSPropertyOp6
 70
     1
102
RTVSPropertyOp7
 70
     1
102
RTVSPropertyOp8
 70
     1
102
RTVSPropertyOp9
 70
     1
102
RTVSPropertyOp10
 70
     1
102
RTVSPropertyOp11
 70
     1
102
RTVSPropertyOp12
 70
     1
102
RTVSPropertyOp13
 70
     1
102
RTVSPropertyOp14
 70
     1
102
RTVSPropertyOp15
 70
     1
102
RTVSPropertyOp16
 70
     1
102
RTVSPropertyOp17
 70
     1
102
RTVSPropertyOp18
 70
     1
102
RTVSPropertyOp19
 70
     1
102
RTVSPropertyOp20
 70
     1
102
RTVSPropertyOp21
 70
     1
102
RTVSPropertyOp22
 70
     1
102
RTVSPropertyOp23
 70
     1
102
RTVSPropertyOp24
 70
     1
102
RTVSPropertyOp25
 70
     1
102
RTVSPropertyOp26
 70
     1
102
RTVSPropertyOp27
 70
     1
102
RTVSPropertyOp28
 70
     1
102
RTVSPropertyOp29
 70
     1
102
RTVSPropertyOp30
 70
     1
102
RTVSPropertyOp31
 70
     1
102
RTVSPropertyOp32
 70
     1
102
RTVSPropertyOp33
 70
     1
102
RTVSPropertyOp34
 70
     1
102
RTVSPropertyOp35
 70
     1
102
RTVSPropertyOp36
 70
     1
102
RTVSPropertyOp37
 70
     1
102
RTVSPropertyOp38
 70
     1
102
RTVSPropertyOp39
 70
     1
102
RTVSPropertyOp40
 70
     1
102
RTVSPropertyOp41
 70
     1
102
RTVSPropertyOp42
 70
     1
102
RTVSPropertyOp43
 70
     1
102
RTVSPropertyOp44
 70
     1
102
RTVSPropertyOp45
 70
     1
102
RTVSPropertyOp46
 70
     1
102
RTVSPropertyOp47
 70
     1
102
RTVSPropertyOp48
 70
     1
102
RTVSPropertyOp49
 70
     1
102
RTVSPropertyOp50
 70
     1
102
RTVSPropertyOp51
 70
     0
102
RTVSPropertyOp52
 70
     0
102
RTVSPropertyOp53
 70
     1
102
RTVSPropertyOp54
 70
     1
102
RTVSPropertyOp55
 70
     1
102
RTVSPropertyOp56
 70
     1
102
RTVSPropertyOp57
 70
     1
102
RTVSPropertyOp58
 70
     1
102
RTVSPropertyOp59
 70
     1
102
RTVSPropertyOp60
 70
     1
102
RTVSPropertyOp61
 70
     1
102
RTVSPropertyOp62
 70
     1
  0
XRECORD
  5
A386
102
{ACAD_REACTORS
330
A385
102
}
330
A385
100
AcDbXrecord
280
     1
102
RTVSPost2010Prop28
280
     0
102
RTVSPost2010PropOp28
 70
     1
102
RTVSPost2010Prop29
280
     1
102
RTVSPost2010PropOp29
 70
     1
102
RTVSPost2010Prop30
280
     1
102
RTVSPost2010PropOp30
 70
     1
102
RTVSPost2010Prop31
280
     0
102
RTVSPost2010PropOp31
 70
     1
102
RTVSPost2010Prop32
280
     0
102
RTVSPost2010PropOp32
 70
     1
102
RTVSPost2010Prop33
280
     0
102
RTVSPost2010PropOp33
 70
     1
102
RTVSPost2010Prop34
280
     0
102
RTVSPost2010PropOp34
 70
     1
102
RTVSPost2010Prop35
280
     0
102
RTVSPost2010PropOp35
 70
     1
102
RTVSPost2010Prop36
280
     0
102
RTVSPost2010PropOp36
 70
     1
102
RTVSPost2010Prop37
 90
       50
102
RTVSPost2010PropOp37
 70
     0
102
RTVSPost2010Prop38
140
0.0
102
RTVSPost2010PropOp38
 70
     0
102
RTVSPost2010Prop39
140
1.0
102
RTVSPost2010PropOp39
 70
     0
102
RTVSPost2010Prop40
 90
        0
102
RTVSPost2010PropOp40
 70
     0
102
RTVSPost2010Prop41ColorIndex
 90
       18
102
RTVSPost2010Prop41ColorRGB
 90
        0
102
RTVSPost2010PropOp41
 70
     0
102
RTVSPost2010Prop42
 90
       50
102
RTVSPost2010PropOp42
 70
     0
102
RTVSPost2010Prop43
 90
        3
102
RTVSPost2010PropOp43
 70
     0
102
RTVSPost2010Prop44ColorIndex
 90
        5
102
RTVSPost2010Prop44ColorRGB
 90
      255
102
RTVSPost2010PropOp44
 70
     0
102
RTVSPost2010Prop45
280
     0
102
RTVSPost2010PropOp45
 70
     1
102
RTVSPost2010Prop46
 90
       50
102
RTVSPost2010PropOp46
 70
     0
102
RTVSPost2010Prop47
 90
       50
102
RTVSPost2010PropOp47
 70
     0
102
RTVSPost2010Prop48
 90
       50
102
RTVSPost2010PropOp48
 70
     0
102
RTVSPost2010Prop49
280
     0
102
RTVSPost2010PropOp49
 70
     1
102
RTVSPost2010Prop50
 90
       50
102
RTVSPost2010PropOp50
 70
     0
102
RTVSPost2010Prop51ColorIndex
 90
      256
102
RTVSPost2010Prop51ColorRGB
 90
-16777216
102
RTVSPost2010PropOp51
 70
     0
102
RTVSPost2010Prop52
140
1.0
102
RTVSPost2010PropOp52
 70
     0
102
RTVSPost2010Prop53
 90
        2
102
RTVSPost2010PropOp53
 70
     0
102
RTVSPost2010Prop54
  1
strokes_ogs.tif
102
RTVSPost2010PropOp54
 70
     0
102
RTVSPost2010Prop55
280
     0
102
RTVSPost2010PropOp55
 70
     1
102
RTVSPost2010Prop56
140
1.0
102
RTVSPost2010PropOp56
 70
     0
102
RTVSPost2010Prop57
140
1.0
102
RTVSPost2010PropOp57
 70
     0
102
RTVSPropertyOp0
 70
     0
102
RTVSPropertyOp1
 70
     0
102
RTVSPropertyOp2
 70
     0
102
RTVSPropertyOp3
 70
     0
102
RTVSPropertyOp4
 70
     0
102
RTVSPropertyOp5
 70
     0
102
RTVSPropertyOp6
 70
     0
102
RTVSPropertyOp7
 70
     0
102
RTVSPropertyOp8
 70
     0
102
RTVSPropertyOp9
 70
     0
102
RTVSPropertyOp10
 70
     0
102
RTVSPropertyOp11
 70
     0
102
RTVSPropertyOp12
 70
     0
102
RTVSPropertyOp13
 70
     0
102
RTVSPropertyOp14
 70
     2
102
RTVSPropertyOp15
 70
     0
102
RTVSPropertyOp16
 70
     0
102
RTVSPropertyOp17
 70
     0
102
RTVSPropertyOp18
 70
     0
102
RTVSPropertyOp19
 70
     0
102
RTVSPropertyOp20
 70
     0
102
RTVSPropertyOp21
 70
     0
102
RTVSPropertyOp22
 70
     0
102
RTVSPropertyOp23
 70
     0
102
RTVSPropertyOp24
 70
     0
102
RTVSPropertyOp25
 70
     0
102
RTVSPropertyOp26
 70
     0
102
RTVSPropertyOp27
 70
     0
102
RTVSPropertyOp28
 70
     1
102
RTVSPropertyOp29
 70
     1
102
RTVSPropertyOp30
 70
     1
102
RTVSPropertyOp31
 70
     1
102
RTVSPropertyOp32
 70
     1
102
RTVSPropertyOp33
 70
     1
102
RTVSPropertyOp34
 70
     1
102
RTVSPropertyOp35
 70
     1
102
RTVSPropertyOp36
 70
     1
102
RTVSPropertyOp37
 70
     0
102
RTVSPropertyOp38
 70
     0
102
RTVSPropertyOp39
 70
     0
102
RTVSPropertyOp40
 70
     0
102
RTVSPropertyOp41
 70
     0
102
RTVSPropertyOp42
 70
     0
102
RTVSPropertyOp43
 70
     0
102
RTVSPropertyOp44
 70
     0
102
RTVSPropertyOp45
 70
     1
102
RTVSPropertyOp46
 70
     0
102
RTVSPropertyOp47
 70
     0
102
RTVSPropertyOp48
 70
     0
102
RTVSPropertyOp49
 70
     1
102
RTVSPropertyOp50
 70
     0
102
RTVSPropertyOp51
 70
     0
102
RTVSPropertyOp52
 70
     0
102
RTVSPropertyOp53
 70
     0
102
RTVSPropertyOp54
 70
     0
102
RTVSPropertyOp55
 70
     1
102
RTVSPropertyOp56
 70
     0
102
RTVSPropertyOp57
 70
     0
102
RTVSPropertyOp58
 70
     0
102
RTVSPropertyOp59
 70
     0
102
RTVSPropertyOp60
 70
     0
102
RTVSPropertyOp61
 70
     0
102
RTVSPropertyOp62
 70
     0
  0
XRECORD
  5
A374
102
{ACAD_REACTORS
330
A373
102
}
330
A373
100
AcDbXrecord
280
     1
102
RTVSPost2010Prop28
280
     0
102
RTVSPost2010PropOp28
 70
     1
102
RTVSPost2010Prop29
280
     1
102
RTVSPost2010PropOp29
 70
     1
102
RTVSPost2010Prop30
280
     1
102
RTVSPost2010PropOp30
 70
     1
102
RTVSPost2010Prop31
280
     0
102
RTVSPost2010PropOp31
 70
     1
102
RTVSPost2010Prop32
280
     0
102
RTVSPost2010PropOp32
 70
     1
102
RTVSPost2010Prop33
280
     0
102
RTVSPost2010PropOp33
 70
     1
102
RTVSPost2010Prop34
280
     0
102
RTVSPost2010PropOp34
 70
     1
102
RTVSPost2010Prop35
280
     0
102
RTVSPost2010PropOp35
 70
     1
102
RTVSPost2010Prop36
280
     0
102
RTVSPost2010PropOp36
 70
     1
102
RTVSPost2010Prop37
 90
       50
102
RTVSPost2010PropOp37
 70
     1
102
RTVSPost2010Prop38
140
0.0
102
RTVSPost2010PropOp38
 70
     1
102
RTVSPost2010Prop39
140
1.0
102
RTVSPost2010PropOp39
 70
     1
102
RTVSPost2010Prop40
 90
        0
102
RTVSPost2010PropOp40
 70
     1
102
RTVSPost2010Prop41ColorIndex
 90
       18
102
RTVSPost2010Prop41ColorRGB
 90
        0
102
RTVSPost2010PropOp41
 70
     1
102
RTVSPost2010Prop42
 90
       50
102
RTVSPost2010PropOp42
 70
     1
102
RTVSPost2010Prop43
 90
        3
102
RTVSPost2010PropOp43
 70
     1
102
RTVSPost2010Prop44ColorIndex
 90
        5
102
RTVSPost2010Prop44ColorRGB
 90
      255
102
RTVSPost2010PropOp44
 70
     1
102
RTVSPost2010Prop45
280
     0
102
RTVSPost2010PropOp45
 70
     1
102
RTVSPost2010Prop46
 90
       50
102
RTVSPost2010PropOp46
 70
     1
102
RTVSPost2010Prop47
 90
       50
102
RTVSPost2010PropOp47
 70
     1
102
RTVSPost2010Prop48
 90
       50
102
RTVSPost2010PropOp48
 70
     1
102
RTVSPost2010Prop49
280
     0
102
RTVSPost2010PropOp49
 70
     1
102
RTVSPost2010Prop50
 90
       50
102
RTVSPost2010PropOp50
 70
     1
102
RTVSPost2010Prop51ColorIndex
 90
      256
102
RTVSPost2010Prop51ColorRGB
 90
-16777216
102
RTVSPost2010PropOp51
 70
     0
102
RTVSPost2010Prop52
140
1.0
102
RTVSPost2010PropOp52
 70
     0
102
RTVSPost2010Prop53
 90
        2
102
RTVSPost2010PropOp53
 70
     1
102
RTVSPost2010Prop54
  1
strokes_ogs.tif
102
RTVSPost2010PropOp54
 70
     1
102
RTVSPost2010Prop55
280
     0
102
RTVSPost2010PropOp55
 70
     1
102
RTVSPost2010Prop56
140
1.0
102
RTVSPost2010PropOp56
 70
     1
102
RTVSPost2010Prop57
140
1.0
102
RTVSPost2010PropOp57
 70
     1
102
RTVSPropertyOp0
 70
     1
102
RTVSPropertyOp1
 70
     1
102
RTVSPropertyOp2
 70
     1
102
RTVSPropertyOp3
 70
     1
102
RTVSPropertyOp4
 70
     1
102
RTVSPropertyOp5
 70
     1
102
RTVSPropertyOp6
 70
     1
102
RTVSPropertyOp7
 70
     1
102
RTVSPropertyOp8
 70
     1
102
RTVSPropertyOp9
 70
     1
102
RTVSPropertyOp10
 70
     1
102
RTVSPropertyOp11
 70
     1
102
RTVSPropertyOp12
 70
     1
102
RTVSPropertyOp13
 70
     1
102
RTVSPropertyOp14
 70
     1
102
RTVSPropertyOp15
 70
     1
102
RTVSPropertyOp16
 70
     1
102
RTVSPropertyOp17
 70
     1
102
RTVSPropertyOp18
 70
     1
102
RTVSPropertyOp19
 70
     1
102
RTVSPropertyOp20
 70
     1
102
RTVSPropertyOp21
 70
     1
102
RTVSPropertyOp22
 70
     1
102
RTVSPropertyOp23
 70
     1
102
RTVSPropertyOp24
 70
     1
102
RTVSPropertyOp25
 70
     1
102
RTVSPropertyOp26
 70
     1
102
RTVSPropertyOp27
 70
     1
102
RTVSPropertyOp28
 70
     1
102
RTVSPropertyOp29
 70
     1
102
RTVSPropertyOp30
 70
     1
102
RTVSPropertyOp31
 70
     1
102
RTVSPropertyOp32
 70
     1
102
RTVSPropertyOp33
 70
     1
102
RTVSPropertyOp34
 70
     1
102
RTVSPropertyOp35
 70
     1
102
RTVSPropertyOp36
 70
     1
102
RTVSPropertyOp37
 70
     1
102
RTVSPropertyOp38
 70
     1
102
RTVSPropertyOp39
 70
     1
102
RTVSPropertyOp40
 70
     1
102
RTVSPropertyOp41
 70
     1
102
RTVSPropertyOp42
 70
     1
102
RTVSPropertyOp43
 70
     1
102
RTVSPropertyOp44
 70
     1
102
RTVSPropertyOp45
 70
     1
102
RTVSPropertyOp46
 70
     1
102
RTVSPropertyOp47
 70
     1
102
RTVSPropertyOp48
 70
     1
102
RTVSPropertyOp49
 70
     1
102
RTVSPropertyOp50
 70
     1
102
RTVSPropertyOp51
 70
     0
102
RTVSPropertyOp52
 70
     0
102
RTVSPropertyOp53
 70
     1
102
RTVSPropertyOp54
 70
     1
102
RTVSPropertyOp55
 70
     1
102
RTVSPropertyOp56
 70
     1
102
RTVSPropertyOp57
 70
     1
102
RTVSPropertyOp58
 70
     1
102
RTVSPropertyOp59
 70
     1
102
RTVSPropertyOp60
 70
     1
102
RTVSPropertyOp61
 70
     1
102
RTVSPropertyOp62
 70
     1
  0
XRECORD
  5
A358
102
{ACAD_REACTORS
330
A357
102
}
330
A357
100
AcDbXrecord
280
     1
102
RTVSPost2010Prop28
280
     0
102
RTVSPost2010PropOp28
 70
     1
102
RTVSPost2010Prop29
280
     1
102
RTVSPost2010PropOp29
 70
     1
102
RTVSPost2010Prop30
280
     1
102
RTVSPost2010PropOp30
 70
     1
102
RTVSPost2010Prop31
280
     0
102
RTVSPost2010PropOp31
 70
     1
102
RTVSPost2010Prop32
280
     0
102
RTVSPost2010PropOp32
 70
     1
102
RTVSPost2010Prop33
280
     0
102
RTVSPost2010PropOp33
 70
     1
102
RTVSPost2010Prop34
280
     0
102
RTVSPost2010PropOp34
 70
     1
102
RTVSPost2010Prop35
280
     0
102
RTVSPost2010PropOp35
 70
     1
102
RTVSPost2010Prop36
280
     0
102
RTVSPost2010PropOp36
 70
     1
102
RTVSPost2010Prop37
 90
       50
102
RTVSPost2010PropOp37
 70
     1
102
RTVSPost2010Prop38
140
0.0
102
RTVSPost2010PropOp38
 70
     1
102
RTVSPost2010Prop39
140
1.0
102
RTVSPost2010PropOp39
 70
     1
102
RTVSPost2010Prop40
 90
        0
102
RTVSPost2010PropOp40
 70
     1
102
RTVSPost2010Prop41ColorIndex
 90
       18
102
RTVSPost2010Prop41ColorRGB
 90
        0
102
RTVSPost2010PropOp41
 70
     1
102
RTVSPost2010Prop42
 90
       50
102
RTVSPost2010PropOp42
 70
     1
102
RTVSPost2010Prop43
 90
        3
102
RTVSPost2010PropOp43
 70
     1
102
RTVSPost2010Prop44ColorIndex
 90
        5
102
RTVSPost2010Prop44ColorRGB
 90
      255
102
RTVSPost2010PropOp44
 70
     1
102
RTVSPost2010Prop45
280
     0
102
RTVSPost2010PropOp45
 70
     1
102
RTVSPost2010Prop46
 90
       50
102
RTVSPost2010PropOp46
 70
     1
102
RTVSPost2010Prop47
 90
       50
102
RTVSPost2010PropOp47
 70
     1
102
RTVSPost2010Prop48
 90
       50
102
RTVSPost2010PropOp48
 70
     1
102
RTVSPost2010Prop49
280
     0
102
RTVSPost2010PropOp49
 70
     1
102
RTVSPost2010Prop50
 90
       50
102
RTVSPost2010PropOp50
 70
     1
102
RTVSPost2010Prop51ColorIndex
 90
      256
102
RTVSPost2010Prop51ColorRGB
 90
-16777216
102
RTVSPost2010PropOp51
 70
     0
102
RTVSPost2010Prop52
140
1.0
102
RTVSPost2010PropOp52
 70
     0
102
RTVSPost2010Prop53
 90
        2
102
RTVSPost2010PropOp53
 70
     1
102
RTVSPost2010Prop54
  1
strokes_ogs.tif
102
RTVSPost2010PropOp54
 70
     1
102
RTVSPost2010Prop55
280
     0
102
RTVSPost2010PropOp55
 70
     1
102
RTVSPost2010Prop56
140
1.0
102
RTVSPost2010PropOp56
 70
     1
102
RTVSPost2010Prop57
140
1.0
102
RTVSPost2010PropOp57
 70
     1
102
RTVSPropertyOp0
 70
     1
102
RTVSPropertyOp1
 70
     1
102
RTVSPropertyOp2
 70
     1
102
RTVSPropertyOp3
 70
     1
102
RTVSPropertyOp4
 70
     1
102
RTVSPropertyOp5
 70
     1
102
RTVSPropertyOp6
 70
     1
102
RTVSPropertyOp7
 70
     1
102
RTVSPropertyOp8
 70
     1
102
RTVSPropertyOp9
 70
     1
102
RTVSPropertyOp10
 70
     1
102
RTVSPropertyOp11
 70
     1
102
RTVSPropertyOp12
 70
     1
102
RTVSPropertyOp13
 70
     1
102
RTVSPropertyOp14
 70
     1
102
RTVSPropertyOp15
 70
     1
102
RTVSPropertyOp16
 70
     1
102
RTVSPropertyOp17
 70
     1
102
RTVSPropertyOp18
 70
     1
102
RTVSPropertyOp19
 70
     1
102
RTVSPropertyOp20
 70
     1
102
RTVSPropertyOp21
 70
     1
102
RTVSPropertyOp22
 70
     1
102
RTVSPropertyOp23
 70
     1
102
RTVSPropertyOp24
 70
     1
102
RTVSPropertyOp25
 70
     1
102
RTVSPropertyOp26
 70
     1
102
RTVSPropertyOp27
 70
     1
102
RTVSPropertyOp28
 70
     1
102
RTVSPropertyOp29
 70
     1
102
RTVSPropertyOp30
 70
     1
102
RTVSPropertyOp31
 70
     1
102
RTVSPropertyOp32
 70
     1
102
RTVSPropertyOp33
 70
     1
102
RTVSPropertyOp34
 70
     1
102
RTVSPropertyOp35
 70
     1
102
RTVSPropertyOp36
 70
     1
102
RTVSPropertyOp37
 70
     1
102
RTVSPropertyOp38
 70
     1
102
RTVSPropertyOp39
 70
     1
102
RTVSPropertyOp40
 70
     1
102
RTVSPropertyOp41
 70
     1
102
RTVSPropertyOp42
 70
     1
102
RTVSPropertyOp43
 70
     1
102
RTVSPropertyOp44
 70
     1
102
RTVSPropertyOp45
 70
     1
102
RTVSPropertyOp46
 70
     1
102
RTVSPropertyOp47
 70
     1
102
RTVSPropertyOp48
 70
     1
102
RTVSPropertyOp49
 70
     1
102
RTVSPropertyOp50
 70
     1
102
RTVSPropertyOp51
 70
     0
102
RTVSPropertyOp52
 70
     0
102
RTVSPropertyOp53
 70
     1
102
RTVSPropertyOp54
 70
     1
102
RTVSPropertyOp55
 70
     1
102
RTVSPropertyOp56
 70
     1
102
RTVSPropertyOp57
 70
     1
102
RTVSPropertyOp58
 70
     1
102
RTVSPropertyOp59
 70
     1
102
RTVSPropertyOp60
 70
     1
102
RTVSPropertyOp61
 70
     1
102
RTVSPropertyOp62
 70
     1
  0
XRECORD
  5
A35A
102
{ACAD_REACTORS
330
A359
102
}
330
A359
100
AcDbXrecord
280
     1
102
RTVSPost2010Prop28
280
     0
102
RTVSPost2010PropOp28
 70
     1
102
RTVSPost2010Prop29
280
     1
102
RTVSPost2010PropOp29
 70
     1
102
RTVSPost2010Prop30
280
     1
102
RTVSPost2010PropOp30
 70
     1
102
RTVSPost2010Prop31
280
     0
102
RTVSPost2010PropOp31
 70
     1
102
RTVSPost2010Prop32
280
     0
102
RTVSPost2010PropOp32
 70
     1
102
RTVSPost2010Prop33
280
     0
102
RTVSPost2010PropOp33
 70
     1
102
RTVSPost2010Prop34
280
     0
102
RTVSPost2010PropOp34
 70
     1
102
RTVSPost2010Prop35
280
     0
102
RTVSPost2010PropOp35
 70
     1
102
RTVSPost2010Prop36
280
     0
102
RTVSPost2010PropOp36
 70
     1
102
RTVSPost2010Prop37
 90
       50
102
RTVSPost2010PropOp37
 70
     1
102
RTVSPost2010Prop38
140
0.0
102
RTVSPost2010PropOp38
 70
     1
102
RTVSPost2010Prop39
140
1.0
102
RTVSPost2010PropOp39
 70
     1
102
RTVSPost2010Prop40
 90
        0
102
RTVSPost2010PropOp40
 70
     1
102
RTVSPost2010Prop41ColorIndex
 90
       18
102
RTVSPost2010Prop41ColorRGB
 90
        0
102
RTVSPost2010PropOp41
 70
     1
102
RTVSPost2010Prop42
 90
       50
102
RTVSPost2010PropOp42
 70
     1
102
RTVSPost2010Prop43
 90
        3
102
RTVSPost2010PropOp43
 70
     1
102
RTVSPost2010Prop44ColorIndex
 90
        5
102
RTVSPost2010Prop44ColorRGB
 90
      255
102
RTVSPost2010PropOp44
 70
     1
102
RTVSPost2010Prop45
280
     0
102
RTVSPost2010PropOp45
 70
     1
102
RTVSPost2010Prop46
 90
       50
102
RTVSPost2010PropOp46
 70
     1
102
RTVSPost2010Prop47
 90
       50
102
RTVSPost2010PropOp47
 70
     1
102
RTVSPost2010Prop48
 90
       50
102
RTVSPost2010PropOp48
 70
     1
102
RTVSPost2010Prop49
280
     0
102
RTVSPost2010PropOp49
 70
     1
102
RTVSPost2010Prop50
 90
       50
102
RTVSPost2010PropOp50
 70
     1
102
RTVSPost2010Prop51ColorIndex
 90
      256
102
RTVSPost2010Prop51ColorRGB
 90
-16777216
102
RTVSPost2010PropOp51
 70
     0
102
RTVSPost2010Prop52
140
1.0
102
RTVSPost2010PropOp52
 70
     0
102
RTVSPost2010Prop53
 90
        2
102
RTVSPost2010PropOp53
 70
     1
102
RTVSPost2010Prop54
  1
strokes_ogs.tif
102
RTVSPost2010PropOp54
 70
     1
102
RTVSPost2010Prop55
280
     0
102
RTVSPost2010PropOp55
 70
     1
102
RTVSPost2010Prop56
140
1.0
102
RTVSPost2010PropOp56
 70
     1
102
RTVSPost2010Prop57
140
1.0
102
RTVSPost2010PropOp57
 70
     1
102
RTVSPropertyOp0
 70
     1
102
RTVSPropertyOp1
 70
     1
102
RTVSPropertyOp2
 70
     1
102
RTVSPropertyOp3
 70
     1
102
RTVSPropertyOp4
 70
     1
102
RTVSPropertyOp5
 70
     1
102
RTVSPropertyOp6
 70
     1
102
RTVSPropertyOp7
 70
     1
102
RTVSPropertyOp8
 70
     1
102
RTVSPropertyOp9
 70
     1
102
RTVSPropertyOp10
 70
     1
102
RTVSPropertyOp11
 70
     1
102
RTVSPropertyOp12
 70
     1
102
RTVSPropertyOp13
 70
     1
102
RTVSPropertyOp14
 70
     1
102
RTVSPropertyOp15
 70
     1
102
RTVSPropertyOp16
 70
     1
102
RTVSPropertyOp17
 70
     1
102
RTVSPropertyOp18
 70
     1
102
RTVSPropertyOp19
 70
     1
102
RTVSPropertyOp20
 70
     1
102
RTVSPropertyOp21
 70
     1
102
RTVSPropertyOp22
 70
     1
102
RTVSPropertyOp23
 70
     1
102
RTVSPropertyOp24
 70
     1
102
RTVSPropertyOp25
 70
     1
102
RTVSPropertyOp26
 70
     1
102
RTVSPropertyOp27
 70
     1
102
RTVSPropertyOp28
 70
     1
102
RTVSPropertyOp29
 70
     1
102
RTVSPropertyOp30
 70
     1
102
RTVSPropertyOp31
 70
     1
102
RTVSPropertyOp32
 70
     1
102
RTVSPropertyOp33
 70
     1
102
RTVSPropertyOp34
 70
     1
102
RTVSPropertyOp35
 70
     1
102
RTVSPropertyOp36
 70
     1
102
RTVSPropertyOp37
 70
     1
102
RTVSPropertyOp38
 70
     1
102
RTVSPropertyOp39
 70
     1
102
RTVSPropertyOp40
 70
     1
102
RTVSPropertyOp41
 70
     1
102
RTVSPropertyOp42
 70
     1
102
RTVSPropertyOp43
 70
     1
102
RTVSPropertyOp44
 70
     1
102
RTVSPropertyOp45
 70
     1
102
RTVSPropertyOp46
 70
     1
102
RTVSPropertyOp47
 70
     1
102
RTVSPropertyOp48
 70
     1
102
RTVSPropertyOp49
 70
     1
102
RTVSPropertyOp50
 70
     1
102
RTVSPropertyOp51
 70
     0
102
RTVSPropertyOp52
 70
     0
102
RTVSPropertyOp53
 70
     1
102
RTVSPropertyOp54
 70
     1
102
RTVSPropertyOp55
 70
     1
102
RTVSPropertyOp56
 70
     1
102
RTVSPropertyOp57
 70
     1
102
RTVSPropertyOp58
 70
     1
102
RTVSPropertyOp59
 70
     1
102
RTVSPropertyOp60
 70
     1
102
RTVSPropertyOp61
 70
     1
102
RTVSPropertyOp62
 70
     1
  0
XRECORD
  5
A35C
102
{ACAD_REACTORS
330
A35B
102
}
330
A35B
100
AcDbXrecord
280
     1
102
RTVSPost2010Prop28
280
     0
102
RTVSPost2010PropOp28
 70
     1
102
RTVSPost2010Prop29
280
     1
102
RTVSPost2010PropOp29
 70
     1
102
RTVSPost2010Prop30
280
     1
102
RTVSPost2010PropOp30
 70
     1
102
RTVSPost2010Prop31
280
     0
102
RTVSPost2010PropOp31
 70
     1
102
RTVSPost2010Prop32
280
     0
102
RTVSPost2010PropOp32
 70
     1
102
RTVSPost2010Prop33
280
     0
102
RTVSPost2010PropOp33
 70
     1
102
RTVSPost2010Prop34
280
     0
102
RTVSPost2010PropOp34
 70
     1
102
RTVSPost2010Prop35
280
     0
102
RTVSPost2010PropOp35
 70
     1
102
RTVSPost2010Prop36
280
     0
102
RTVSPost2010PropOp36
 70
     1
102
RTVSPost2010Prop37
 90
       50
102
RTVSPost2010PropOp37
 70
     1
102
RTVSPost2010Prop38
140
0.0
102
RTVSPost2010PropOp38
 70
     1
102
RTVSPost2010Prop39
140
1.0
102
RTVSPost2010PropOp39
 70
     1
102
RTVSPost2010Prop40
 90
        0
102
RTVSPost2010PropOp40
 70
     1
102
RTVSPost2010Prop41ColorIndex
 90
       18
102
RTVSPost2010Prop41ColorRGB
 90
        0
102
RTVSPost2010PropOp41
 70
     1
102
RTVSPost2010Prop42
 90
       50
102
RTVSPost2010PropOp42
 70
     1
102
RTVSPost2010Prop43
 90
        3
102
RTVSPost2010PropOp43
 70
     1
102
RTVSPost2010Prop44ColorIndex
 90
        5
102
RTVSPost2010Prop44ColorRGB
 90
      255
102
RTVSPost2010PropOp44
 70
     1
102
RTVSPost2010Prop45
280
     0
102
RTVSPost2010PropOp45
 70
     1
102
RTVSPost2010Prop46
 90
       50
102
RTVSPost2010PropOp46
 70
     1
102
RTVSPost2010Prop47
 90
       50
102
RTVSPost2010PropOp47
 70
     1
102
RTVSPost2010Prop48
 90
       50
102
RTVSPost2010PropOp48
 70
     1
102
RTVSPost2010Prop49
280
     0
102
RTVSPost2010PropOp49
 70
     1
102
RTVSPost2010Prop50
 90
       50
102
RTVSPost2010PropOp50
 70
     1
102
RTVSPost2010Prop51ColorIndex
 90
      256
102
RTVSPost2010Prop51ColorRGB
 90
-16777216
102
RTVSPost2010PropOp51
 70
     0
102
RTVSPost2010Prop52
140
1.0
102
RTVSPost2010PropOp52
 70
     0
102
RTVSPost2010Prop53
 90
        2
102
RTVSPost2010PropOp53
 70
     1
102
RTVSPost2010Prop54
  1
strokes_ogs.tif
102
RTVSPost2010PropOp54
 70
     1
102
RTVSPost2010Prop55
280
     0
102
RTVSPost2010PropOp55
 70
     1
102
RTVSPost2010Prop56
140
1.0
102
RTVSPost2010PropOp56
 70
     1
102
RTVSPost2010Prop57
140
1.0
102
RTVSPost2010PropOp57
 70
     1
102
RTVSPropertyOp0
 70
     1
102
RTVSPropertyOp1
 70
     1
102
RTVSPropertyOp2
 70
     1
102
RTVSPropertyOp3
 70
     1
102
RTVSPropertyOp4
 70
     1
102
RTVSPropertyOp5
 70
     1
102
RTVSPropertyOp6
 70
     1
102
RTVSPropertyOp7
 70
     1
102
RTVSPropertyOp8
 70
     1
102
RTVSPropertyOp9
 70
     1
102
RTVSPropertyOp10
 70
     1
102
RTVSPropertyOp11
 70
     1
102
RTVSPropertyOp12
 70
     1
102
RTVSPropertyOp13
 70
     1
102
RTVSPropertyOp14
 70
     1
102
RTVSPropertyOp15
 70
     1
102
RTVSPropertyOp16
 70
     1
102
RTVSPropertyOp17
 70
     1
102
RTVSPropertyOp18
 70
     1
102
RTVSPropertyOp19
 70
     1
102
RTVSPropertyOp20
 70
     1
102
RTVSPropertyOp21
 70
     1
102
RTVSPropertyOp22
 70
     1
102
RTVSPropertyOp23
 70
     1
102
RTVSPropertyOp24
 70
     1
102
RTVSPropertyOp25
 70
     1
102
RTVSPropertyOp26
 70
     1
102
RTVSPropertyOp27
 70
     1
102
RTVSPropertyOp28
 70
     1
102
RTVSPropertyOp29
 70
     1
102
RTVSPropertyOp30
 70
     1
102
RTVSPropertyOp31
 70
     1
102
RTVSPropertyOp32
 70
     1
102
RTVSPropertyOp33
 70
     1
102
RTVSPropertyOp34
 70
     1
102
RTVSPropertyOp35
 70
     1
102
RTVSPropertyOp36
 70
     1
102
RTVSPropertyOp37
 70
     1
102
RTVSPropertyOp38
 70
     1
102
RTVSPropertyOp39
 70
     1
102
RTVSPropertyOp40
 70
     1
102
RTVSPropertyOp41
 70
     1
102
RTVSPropertyOp42
 70
     1
102
RTVSPropertyOp43
 70
     1
102
RTVSPropertyOp44
 70
     1
102
RTVSPropertyOp45
 70
     1
102
RTVSPropertyOp46
 70
     1
102
RTVSPropertyOp47
 70
     1
102
RTVSPropertyOp48
 70
     1
102
RTVSPropertyOp49
 70
     1
102
RTVSPropertyOp50
 70
     1
102
RTVSPropertyOp51
 70
     0
102
RTVSPropertyOp52
 70
     0
102
RTVSPropertyOp53
 70
     1
102
RTVSPropertyOp54
 70
     1
102
RTVSPropertyOp55
 70
     1
102
RTVSPropertyOp56
 70
     1
102
RTVSPropertyOp57
 70
     1
102
RTVSPropertyOp58
 70
     1
102
RTVSPropertyOp59
 70
     1
102
RTVSPropertyOp60
 70
     1
102
RTVSPropertyOp61
 70
     1
102
RTVSPropertyOp62
 70
     1
  0
XRECORD
  5
A35E
102
{ACAD_REACTORS
330
A35D
102
}
330
A35D
100
AcDbXrecord
280
     1
102
RTVSPost2010Prop28
280
     0
102
RTVSPost2010PropOp28
 70
     1
102
RTVSPost2010Prop29
280
     1
102
RTVSPost2010PropOp29
 70
     1
102
RTVSPost2010Prop30
280
     1
102
RTVSPost2010PropOp30
 70
     1
102
RTVSPost2010Prop31
280
     0
102
RTVSPost2010PropOp31
 70
     1
102
RTVSPost2010Prop32
280
     0
102
RTVSPost2010PropOp32
 70
     1
102
RTVSPost2010Prop33
280
     0
102
RTVSPost2010PropOp33
 70
     1
102
RTVSPost2010Prop34
280
     0
102
RTVSPost2010PropOp34
 70
     1
102
RTVSPost2010Prop35
280
     0
102
RTVSPost2010PropOp35
 70
     1
102
RTVSPost2010Prop36
280
     0
102
RTVSPost2010PropOp36
 70
     1
102
RTVSPost2010Prop37
 90
       50
102
RTVSPost2010PropOp37
 70
     1
102
RTVSPost2010Prop38
140
0.0
102
RTVSPost2010PropOp38
 70
     1
102
RTVSPost2010Prop39
140
1.0
102
RTVSPost2010PropOp39
 70
     1
102
RTVSPost2010Prop40
 90
        0
102
RTVSPost2010PropOp40
 70
     1
102
RTVSPost2010Prop41ColorIndex
 90
       18
102
RTVSPost2010Prop41ColorRGB
 90
        0
102
RTVSPost2010PropOp41
 70
     1
102
RTVSPost2010Prop42
 90
       50
102
RTVSPost2010PropOp42
 70
     1
102
RTVSPost2010Prop43
 90
        3
102
RTVSPost2010PropOp43
 70
     1
102
RTVSPost2010Prop44ColorIndex
 90
        5
102
RTVSPost2010Prop44ColorRGB
 90
      255
102
RTVSPost2010PropOp44
 70
     1
102
RTVSPost2010Prop45
280
     0
102
RTVSPost2010PropOp45
 70
     1
102
RTVSPost2010Prop46
 90
       50
102
RTVSPost2010PropOp46
 70
     1
102
RTVSPost2010Prop47
 90
       50
102
RTVSPost2010PropOp47
 70
     1
102
RTVSPost2010Prop48
 90
       50
102
RTVSPost2010PropOp48
 70
     1
102
RTVSPost2010Prop49
280
     0
102
RTVSPost2010PropOp49
 70
     1
102
RTVSPost2010Prop50
 90
       50
102
RTVSPost2010PropOp50
 70
     1
102
RTVSPost2010Prop51ColorIndex
 90
      256
102
RTVSPost2010Prop51ColorRGB
 90
-16777216
102
RTVSPost2010PropOp51
 70
     0
102
RTVSPost2010Prop52
140
1.0
102
RTVSPost2010PropOp52
 70
     0
102
RTVSPost2010Prop53
 90
        2
102
RTVSPost2010PropOp53
 70
     1
102
RTVSPost2010Prop54
  1
strokes_ogs.tif
102
RTVSPost2010PropOp54
 70
     1
102
RTVSPost2010Prop55
280
     0
102
RTVSPost2010PropOp55
 70
     1
102
RTVSPost2010Prop56
140
1.0
102
RTVSPost2010PropOp56
 70
     1
102
RTVSPost2010Prop57
140
1.0
102
RTVSPost2010PropOp57
 70
     1
102
RTVSPropertyOp0
 70
     1
102
RTVSPropertyOp1
 70
     1
102
RTVSPropertyOp2
 70
     1
102
RTVSPropertyOp3
 70
     1
102
RTVSPropertyOp4
 70
     1
102
RTVSPropertyOp5
 70
     1
102
RTVSPropertyOp6
 70
     1
102
RTVSPropertyOp7
 70
     1
102
RTVSPropertyOp8
 70
     1
102
RTVSPropertyOp9
 70
     1
102
RTVSPropertyOp10
 70
     1
102
RTVSPropertyOp11
 70
     1
102
RTVSPropertyOp12
 70
     1
102
RTVSPropertyOp13
 70
     1
102
RTVSPropertyOp14
 70
     1
102
RTVSPropertyOp15
 70
     1
102
RTVSPropertyOp16
 70
     1
102
RTVSPropertyOp17
 70
     1
102
RTVSPropertyOp18
 70
     1
102
RTVSPropertyOp19
 70
     1
102
RTVSPropertyOp20
 70
     1
102
RTVSPropertyOp21
 70
     1
102
RTVSPropertyOp22
 70
     1
102
RTVSPropertyOp23
 70
     1
102
RTVSPropertyOp24
 70
     1
102
RTVSPropertyOp25
 70
     1
102
RTVSPropertyOp26
 70
     1
102
RTVSPropertyOp27
 70
     1
102
RTVSPropertyOp28
 70
     1
102
RTVSPropertyOp29
 70
     1
102
RTVSPropertyOp30
 70
     1
102
RTVSPropertyOp31
 70
     1
102
RTVSPropertyOp32
 70
     1
102
RTVSPropertyOp33
 70
     1
102
RTVSPropertyOp34
 70
     1
102
RTVSPropertyOp35
 70
     1
102
RTVSPropertyOp36
 70
     1
102
RTVSPropertyOp37
 70
     1
102
RTVSPropertyOp38
 70
     1
102
RTVSPropertyOp39
 70
     1
102
RTVSPropertyOp40
 70
     1
102
RTVSPropertyOp41
 70
     1
102
RTVSPropertyOp42
 70
     1
102
RTVSPropertyOp43
 70
     1
102
RTVSPropertyOp44
 70
     1
102
RTVSPropertyOp45
 70
     1
102
RTVSPropertyOp46
 70
     1
102
RTVSPropertyOp47
 70
     1
102
RTVSPropertyOp48
 70
     1
102
RTVSPropertyOp49
 70
     1
102
RTVSPropertyOp50
 70
     1
102
RTVSPropertyOp51
 70
     0
102
RTVSPropertyOp52
 70
     0
102
RTVSPropertyOp53
 70
     1
102
RTVSPropertyOp54
 70
     1
102
RTVSPropertyOp55
 70
     1
102
RTVSPropertyOp56
 70
     1
102
RTVSPropertyOp57
 70
     1
102
RTVSPropertyOp58
 70
     1
102
RTVSPropertyOp59
 70
     1
102
RTVSPropertyOp60
 70
     1
102
RTVSPropertyOp61
 70
     1
102
RTVSPropertyOp62
 70
     1
  0
XRECORD
  5
A366
102
{ACAD_REACTORS
330
A365
102
}
330
A365
100
AcDbXrecord
280
     1
102
RTVSPost2010Prop28
280
     0
102
RTVSPost2010PropOp28
 70
     1
102
RTVSPost2010Prop29
280
     1
102
RTVSPost2010PropOp29
 70
     1
102
RTVSPost2010Prop30
280
     1
102
RTVSPost2010PropOp30
 70
     1
102
RTVSPost2010Prop31
280
     0
102
RTVSPost2010PropOp31
 70
     1
102
RTVSPost2010Prop32
280
     0
102
RTVSPost2010PropOp32
 70
     1
102
RTVSPost2010Prop33
280
     0
102
RTVSPost2010PropOp33
 70
     1
102
RTVSPost2010Prop34
280
     0
102
RTVSPost2010PropOp34
 70
     1
102
RTVSPost2010Prop35
280
     0
102
RTVSPost2010PropOp35
 70
     1
102
RTVSPost2010Prop36
280
     0
102
RTVSPost2010PropOp36
 70
     1
102
RTVSPost2010Prop37
 90
       50
102
RTVSPost2010PropOp37
 70
     1
102
RTVSPost2010Prop38
140
0.0
102
RTVSPost2010PropOp38
 70
     1
102
RTVSPost2010Prop39
140
1.0
102
RTVSPost2010PropOp39
 70
     1
102
RTVSPost2010Prop40
 90
        0
102
RTVSPost2010PropOp40
 70
     1
102
RTVSPost2010Prop41ColorIndex
 90
       18
102
RTVSPost2010Prop41ColorRGB
 90
        0
102
RTVSPost2010PropOp41
 70
     1
102
RTVSPost2010Prop42
 90
       50
102
RTVSPost2010PropOp42
 70
     1
102
RTVSPost2010Prop43
 90
        3
102
RTVSPost2010PropOp43
 70
     1
102
RTVSPost2010Prop44ColorIndex
 90
        5
102
RTVSPost2010Prop44ColorRGB
 90
      255
102
RTVSPost2010PropOp44
 70
     1
102
RTVSPost2010Prop45
280
     0
102
RTVSPost2010PropOp45
 70
     1
102
RTVSPost2010Prop46
 90
       50
102
RTVSPost2010PropOp46
 70
     1
102
RTVSPost2010Prop47
 90
       50
102
RTVSPost2010PropOp47
 70
     1
102
RTVSPost2010Prop48
 90
       50
102
RTVSPost2010PropOp48
 70
     1
102
RTVSPost2010Prop49
280
     0
102
RTVSPost2010PropOp49
 70
     1
102
RTVSPost2010Prop50
 90
       50
102
RTVSPost2010PropOp50
 70
     1
102
RTVSPost2010Prop51ColorIndex
 90
      256
102
RTVSPost2010Prop51ColorRGB
 90
-16777216
102
RTVSPost2010PropOp51
 70
     0
102
RTVSPost2010Prop52
140
1.0
102
RTVSPost2010PropOp52
 70
     0
102
RTVSPost2010Prop53
 90
        2
102
RTVSPost2010PropOp53
 70
     1
102
RTVSPost2010Prop54
  1
strokes_ogs.tif
102
RTVSPost2010PropOp54
 70
     1
102
RTVSPost2010Prop55
280
     0
102
RTVSPost2010PropOp55
 70
     1
102
RTVSPost2010Prop56
140
1.0
102
RTVSPost2010PropOp56
 70
     1
102
RTVSPost2010Prop57
140
1.0
102
RTVSPost2010PropOp57
 70
     1
102
RTVSPropertyOp0
 70
     1
102
RTVSPropertyOp1
 70
     1
102
RTVSPropertyOp2
 70
     1
102
RTVSPropertyOp3
 70
     1
102
RTVSPropertyOp4
 70
     1
102
RTVSPropertyOp5
 70
     1
102
RTVSPropertyOp6
 70
     1
102
RTVSPropertyOp7
 70
     1
102
RTVSPropertyOp8
 70
     1
102
RTVSPropertyOp9
 70
     1
102
RTVSPropertyOp10
 70
     1
102
RTVSPropertyOp11
 70
     1
102
RTVSPropertyOp12
 70
     1
102
RTVSPropertyOp13
 70
     1
102
RTVSPropertyOp14
 70
     1
102
RTVSPropertyOp15
 70
     1
102
RTVSPropertyOp16
 70
     1
102
RTVSPropertyOp17
 70
     1
102
RTVSPropertyOp18
 70
     1
102
RTVSPropertyOp19
 70
     1
102
RTVSPropertyOp20
 70
     1
102
RTVSPropertyOp21
 70
     1
102
RTVSPropertyOp22
 70
     1
102
RTVSPropertyOp23
 70
     1
102
RTVSPropertyOp24
 70
     1
102
RTVSPropertyOp25
 70
     1
102
RTVSPropertyOp26
 70
     1
102
RTVSPropertyOp27
 70
     1
102
RTVSPropertyOp28
 70
     1
102
RTVSPropertyOp29
 70
     1
102
RTVSPropertyOp30
 70
     1
102
RTVSPropertyOp31
 70
     1
102
RTVSPropertyOp32
 70
     1
102
RTVSPropertyOp33
 70
     1
102
RTVSPropertyOp34
 70
     1
102
RTVSPropertyOp35
 70
     1
102
RTVSPropertyOp36
 70
     1
102
RTVSPropertyOp37
 70
     1
102
RTVSPropertyOp38
 70
     1
102
RTVSPropertyOp39
 70
     1
102
RTVSPropertyOp40
 70
     1
102
RTVSPropertyOp41
 70
     1
102
RTVSPropertyOp42
 70
     1
102
RTVSPropertyOp43
 70
     1
102
RTVSPropertyOp44
 70
     1
102
RTVSPropertyOp45
 70
     1
102
RTVSPropertyOp46
 70
     1
102
RTVSPropertyOp47
 70
     1
102
RTVSPropertyOp48
 70
     1
102
RTVSPropertyOp49
 70
     1
102
RTVSPropertyOp50
 70
     1
102
RTVSPropertyOp51
 70
     0
102
RTVSPropertyOp52
 70
     0
102
RTVSPropertyOp53
 70
     1
102
RTVSPropertyOp54
 70
     1
102
RTVSPropertyOp55
 70
     1
102
RTVSPropertyOp56
 70
     1
102
RTVSPropertyOp57
 70
     1
102
RTVSPropertyOp58
 70
     1
102
RTVSPropertyOp59
 70
     1
102
RTVSPropertyOp60
 70
     1
102
RTVSPropertyOp61
 70
     1
102
RTVSPropertyOp62
 70
     1
  0
XRECORD
  5
A382
102
{ACAD_REACTORS
330
A381
102
}
330
A381
100
AcDbXrecord
280
     1
102
RTVSPost2010Prop28
280
     0
102
RTVSPost2010PropOp28
 70
     1
102
RTVSPost2010Prop29
280
     1
102
RTVSPost2010PropOp29
 70
     1
102
RTVSPost2010Prop30
280
     1
102
RTVSPost2010PropOp30
 70
     1
102
RTVSPost2010Prop31
280
     0
102
RTVSPost2010PropOp31
 70
     1
102
RTVSPost2010Prop32
280
     0
102
RTVSPost2010PropOp32
 70
     1
102
RTVSPost2010Prop33
280
     0
102
RTVSPost2010PropOp33
 70
     1
102
RTVSPost2010Prop34
280
     0
102
RTVSPost2010PropOp34
 70
     1
102
RTVSPost2010Prop35
280
     0
102
RTVSPost2010PropOp35
 70
     1
102
RTVSPost2010Prop36
280
     0
102
RTVSPost2010PropOp36
 70
     1
102
RTVSPost2010Prop37
 90
       50
102
RTVSPost2010PropOp37
 70
     0
102
RTVSPost2010Prop38
140
0.0
102
RTVSPost2010PropOp38
 70
     0
102
RTVSPost2010Prop39
140
1.0
102
RTVSPost2010PropOp39
 70
     0
102
RTVSPost2010Prop40
 90
        0
102
RTVSPost2010PropOp40
 70
     0
102
RTVSPost2010Prop41ColorIndex
 90
       18
102
RTVSPost2010Prop41ColorRGB
 90
        0
102
RTVSPost2010PropOp41
 70
     0
102
RTVSPost2010Prop42
 90
       50
102
RTVSPost2010PropOp42
 70
     0
102
RTVSPost2010Prop43
 90
        3
102
RTVSPost2010PropOp43
 70
     0
102
RTVSPost2010Prop44ColorIndex
 90
        5
102
RTVSPost2010Prop44ColorRGB
 90
      255
102
RTVSPost2010PropOp44
 70
     0
102
RTVSPost2010Prop45
280
     0
102
RTVSPost2010PropOp45
 70
     1
102
RTVSPost2010Prop46
 90
       50
102
RTVSPost2010PropOp46
 70
     0
102
RTVSPost2010Prop47
 90
       50
102
RTVSPost2010PropOp47
 70
     0
102
RTVSPost2010Prop48
 90
       50
102
RTVSPost2010PropOp48
 70
     0
102
RTVSPost2010Prop49
280
     0
102
RTVSPost2010PropOp49
 70
     1
102
RTVSPost2010Prop50
 90
       50
102
RTVSPost2010PropOp50
 70
     0
102
RTVSPost2010Prop51ColorIndex
 90
      256
102
RTVSPost2010Prop51ColorRGB
 90
-16777216
102
RTVSPost2010PropOp51
 70
     0
102
RTVSPost2010Prop52
140
1.0
102
RTVSPost2010PropOp52
 70
     0
102
RTVSPost2010Prop53
 90
        2
102
RTVSPost2010PropOp53
 70
     0
102
RTVSPost2010Prop54
  1
strokes_ogs.tif
102
RTVSPost2010PropOp54
 70
     0
102
RTVSPost2010Prop55
280
     0
102
RTVSPost2010PropOp55
 70
     1
102
RTVSPost2010Prop56
140
1.0
102
RTVSPost2010PropOp56
 70
     0
102
RTVSPost2010Prop57
140
1.0
102
RTVSPost2010PropOp57
 70
     0
102
RTVSPropertyOp0
 70
     0
102
RTVSPropertyOp1
 70
     0
102
RTVSPropertyOp2
 70
     0
102
RTVSPropertyOp3
 70
     0
102
RTVSPropertyOp4
 70
     0
102
RTVSPropertyOp5
 70
     0
102
RTVSPropertyOp6
 70
     0
102
RTVSPropertyOp7
 70
     0
102
RTVSPropertyOp8
 70
     0
102
RTVSPropertyOp9
 70
     0
102
RTVSPropertyOp10
 70
     0
102
RTVSPropertyOp11
 70
     0
102
RTVSPropertyOp12
 70
     0
102
RTVSPropertyOp13
 70
     0
102
RTVSPropertyOp14
 70
     2
102
RTVSPropertyOp15
 70
     0
102
RTVSPropertyOp16
 70
     0
102
RTVSPropertyOp17
 70
     0
102
RTVSPropertyOp18
 70
     0
102
RTVSPropertyOp19
 70
     0
102
RTVSPropertyOp20
 70
     0
102
RTVSPropertyOp21
 70
     0
102
RTVSPropertyOp22
 70
     0
102
RTVSPropertyOp23
 70
     0
102
RTVSPropertyOp24
 70
     0
102
RTVSPropertyOp25
 70
     0
102
RTVSPropertyOp26
 70
     0
102
RTVSPropertyOp27
 70
     0
102
RTVSPropertyOp28
 70
     1
102
RTVSPropertyOp29
 70
     1
102
RTVSPropertyOp30
 70
     1
102
RTVSPropertyOp31
 70
     1
102
RTVSPropertyOp32
 70
     1
102
RTVSPropertyOp33
 70
     1
102
RTVSPropertyOp34
 70
     1
102
RTVSPropertyOp35
 70
     1
102
RTVSPropertyOp36
 70
     1
102
RTVSPropertyOp37
 70
     0
102
RTVSPropertyOp38
 70
     0
102
RTVSPropertyOp39
 70
     0
102
RTVSPropertyOp40
 70
     0
102
RTVSPropertyOp41
 70
     0
102
RTVSPropertyOp42
 70
     0
102
RTVSPropertyOp43
 70
     0
102
RTVSPropertyOp44
 70
     0
102
RTVSPropertyOp45
 70
     1
102
RTVSPropertyOp46
 70
     0
102
RTVSPropertyOp47
 70
     0
102
RTVSPropertyOp48
 70
     0
102
RTVSPropertyOp49
 70
     1
102
RTVSPropertyOp50
 70
     0
102
RTVSPropertyOp51
 70
     0
102
RTVSPropertyOp52
 70
     0
102
RTVSPropertyOp53
 70
     0
102
RTVSPropertyOp54
 70
     0
102
RTVSPropertyOp55
 70
     1
102
RTVSPropertyOp56
 70
     0
102
RTVSPropertyOp57
 70
     0
102
RTVSPropertyOp58
 70
     0
102
RTVSPropertyOp59
 70
     0
102
RTVSPropertyOp60
 70
     0
102
RTVSPropertyOp61
 70
     0
102
RTVSPropertyOp62
 70
     0
  0
XRECORD
  5
A372
102
{ACAD_REACTORS
330
A371
102
}
330
A371
100
AcDbXrecord
280
     1
102
RTVSPost2010Prop28
280
     0
102
RTVSPost2010PropOp28
 70
     1
102
RTVSPost2010Prop29
280
     1
102
RTVSPost2010PropOp29
 70
     1
102
RTVSPost2010Prop30
280
     1
102
RTVSPost2010PropOp30
 70
     1
102
RTVSPost2010Prop31
280
     0
102
RTVSPost2010PropOp31
 70
     1
102
RTVSPost2010Prop32
280
     0
102
RTVSPost2010PropOp32
 70
     1
102
RTVSPost2010Prop33
280
     0
102
RTVSPost2010PropOp33
 70
     1
102
RTVSPost2010Prop34
280
     0
102
RTVSPost2010PropOp34
 70
     1
102
RTVSPost2010Prop35
280
     0
102
RTVSPost2010PropOp35
 70
     1
102
RTVSPost2010Prop36
280
     0
102
RTVSPost2010PropOp36
 70
     1
102
RTVSPost2010Prop37
 90
       50
102
RTVSPost2010PropOp37
 70
     1
102
RTVSPost2010Prop38
140
0.0
102
RTVSPost2010PropOp38
 70
     1
102
RTVSPost2010Prop39
140
1.0
102
RTVSPost2010PropOp39
 70
     1
102
RTVSPost2010Prop40
 90
        0
102
RTVSPost2010PropOp40
 70
     1
102
RTVSPost2010Prop41ColorIndex
 90
       18
102
RTVSPost2010Prop41ColorRGB
 90
        0
102
RTVSPost2010PropOp41
 70
     1
102
RTVSPost2010Prop42
 90
       50
102
RTVSPost2010PropOp42
 70
     1
102
RTVSPost2010Prop43
 90
        3
102
RTVSPost2010PropOp43
 70
     1
102
RTVSPost2010Prop44ColorIndex
 90
        5
102
RTVSPost2010Prop44ColorRGB
 90
      255
102
RTVSPost2010PropOp44
 70
     1
102
RTVSPost2010Prop45
280
     0
102
RTVSPost2010PropOp45
 70
     1
102
RTVSPost2010Prop46
 90
       50
102
RTVSPost2010PropOp46
 70
     1
102
RTVSPost2010Prop47
 90
       50
102
RTVSPost2010PropOp47
 70
     1
102
RTVSPost2010Prop48
 90
       50
102
RTVSPost2010PropOp48
 70
     1
102
RTVSPost2010Prop49
280
     0
102
RTVSPost2010PropOp49
 70
     1
102
RTVSPost2010Prop50
 90
       50
102
RTVSPost2010PropOp50
 70
     1
102
RTVSPost2010Prop51ColorIndex
 90
      256
102
RTVSPost2010Prop51ColorRGB
 90
-16777216
102
RTVSPost2010PropOp51
 70
     0
102
RTVSPost2010Prop52
140
1.0
102
RTVSPost2010PropOp52
 70
     0
102
RTVSPost2010Prop53
 90
        2
102
RTVSPost2010PropOp53
 70
     1
102
RTVSPost2010Prop54
  1
strokes_ogs.tif
102
RTVSPost2010PropOp54
 70
     1
102
RTVSPost2010Prop55
280
     0
102
RTVSPost2010PropOp55
 70
     1
102
RTVSPost2010Prop56
140
1.0
102
RTVSPost2010PropOp56
 70
     1
102
RTVSPost2010Prop57
140
1.0
102
RTVSPost2010PropOp57
 70
     1
102
RTVSPropertyOp0
 70
     1
102
RTVSPropertyOp1
 70
     1
102
RTVSPropertyOp2
 70
     1
102
RTVSPropertyOp3
 70
     1
102
RTVSPropertyOp4
 70
     1
102
RTVSPropertyOp5
 70
     1
102
RTVSPropertyOp6
 70
     1
102
RTVSPropertyOp7
 70
     1
102
RTVSPropertyOp8
 70
     1
102
RTVSPropertyOp9
 70
     1
102
RTVSPropertyOp10
 70
     1
102
RTVSPropertyOp11
 70
     1
102
RTVSPropertyOp12
 70
     1
102
RTVSPropertyOp13
 70
     1
102
RTVSPropertyOp14
 70
     1
102
RTVSPropertyOp15
 70
     1
102
RTVSPropertyOp16
 70
     1
102
RTVSPropertyOp17
 70
     1
102
RTVSPropertyOp18
 70
     1
102
RTVSPropertyOp19
 70
     1
102
RTVSPropertyOp20
 70
     1
102
RTVSPropertyOp21
 70
     1
102
RTVSPropertyOp22
 70
     1
102
RTVSPropertyOp23
 70
     1
102
RTVSPropertyOp24
 70
     1
102
RTVSPropertyOp25
 70
     1
102
RTVSPropertyOp26
 70
     1
102
RTVSPropertyOp27
 70
     1
102
RTVSPropertyOp28
 70
     1
102
RTVSPropertyOp29
 70
     1
102
RTVSPropertyOp30
 70
     1
102
RTVSPropertyOp31
 70
     1
102
RTVSPropertyOp32
 70
     1
102
RTVSPropertyOp33
 70
     1
102
RTVSPropertyOp34
 70
     1
102
RTVSPropertyOp35
 70
     1
102
RTVSPropertyOp36
 70
     1
102
RTVSPropertyOp37
 70
     1
102
RTVSPropertyOp38
 70
     1
102
RTVSPropertyOp39
 70
     1
102
RTVSPropertyOp40
 70
     1
102
RTVSPropertyOp41
 70
     1
102
RTVSPropertyOp42
 70
     1
102
RTVSPropertyOp43
 70
     1
102
RTVSPropertyOp44
 70
     1
102
RTVSPropertyOp45
 70
     1
102
RTVSPropertyOp46
 70
     1
102
RTVSPropertyOp47
 70
     1
102
RTVSPropertyOp48
 70
     1
102
RTVSPropertyOp49
 70
     1
102
RTVSPropertyOp50
 70
     1
102
RTVSPropertyOp51
 70
     0
102
RTVSPropertyOp52
 70
     0
102
RTVSPropertyOp53
 70
     1
102
RTVSPropertyOp54
 70
     1
102
RTVSPropertyOp55
 70
     1
102
RTVSPropertyOp56
 70
     1
102
RTVSPropertyOp57
 70
     1
102
RTVSPropertyOp58
 70
     1
102
RTVSPropertyOp59
 70
     1
102
RTVSPropertyOp60
 70
     1
102
RTVSPropertyOp61
 70
     1
102
RTVSPropertyOp62
 70
     1
  0
XRECORD
  5
A384
102
{ACAD_REACTORS
330
A383
102
}
330
A383
100
AcDbXrecord
280
     1
102
RTVSPost2010Prop28
280
     0
102
RTVSPost2010PropOp28
 70
     1
102
RTVSPost2010Prop29
280
     1
102
RTVSPost2010PropOp29
 70
     1
102
RTVSPost2010Prop30
280
     1
102
RTVSPost2010PropOp30
 70
     1
102
RTVSPost2010Prop31
280
     0
102
RTVSPost2010PropOp31
 70
     1
102
RTVSPost2010Prop32
280
     0
102
RTVSPost2010PropOp32
 70
     1
102
RTVSPost2010Prop33
280
     0
102
RTVSPost2010PropOp33
 70
     1
102
RTVSPost2010Prop34
280
     0
102
RTVSPost2010PropOp34
 70
     1
102
RTVSPost2010Prop35
280
     0
102
RTVSPost2010PropOp35
 70
     1
102
RTVSPost2010Prop36
280
     0
102
RTVSPost2010PropOp36
 70
     1
102
RTVSPost2010Prop37
 90
       50
102
RTVSPost2010PropOp37
 70
     0
102
RTVSPost2010Prop38
140
0.0
102
RTVSPost2010PropOp38
 70
     0
102
RTVSPost2010Prop39
140
1.0
102
RTVSPost2010PropOp39
 70
     0
102
RTVSPost2010Prop40
 90
        0
102
RTVSPost2010PropOp40
 70
     0
102
RTVSPost2010Prop41ColorIndex
 90
       18
102
RTVSPost2010Prop41ColorRGB
 90
        0
102
RTVSPost2010PropOp41
 70
     0
102
RTVSPost2010Prop42
 90
       50
102
RTVSPost2010PropOp42
 70
     0
102
RTVSPost2010Prop43
 90
        3
102
RTVSPost2010PropOp43
 70
     0
102
RTVSPost2010Prop44ColorIndex
 90
        5
102
RTVSPost2010Prop44ColorRGB
 90
      255
102
RTVSPost2010PropOp44
 70
     0
102
RTVSPost2010Prop45
280
     0
102
RTVSPost2010PropOp45
 70
     1
102
RTVSPost2010Prop46
 90
       50
102
RTVSPost2010PropOp46
 70
     0
102
RTVSPost2010Prop47
 90
       50
102
RTVSPost2010PropOp47
 70
     0
102
RTVSPost2010Prop48
 90
       50
102
RTVSPost2010PropOp48
 70
     0
102
RTVSPost2010Prop49
280
     0
102
RTVSPost2010PropOp49
 70
     1
102
RTVSPost2010Prop50
 90
       50
102
RTVSPost2010PropOp50
 70
     0
102
RTVSPost2010Prop51ColorIndex
 90
      256
102
RTVSPost2010Prop51ColorRGB
 90
-16777216
102
RTVSPost2010PropOp51
 70
     0
102
RTVSPost2010Prop52
140
1.0
102
RTVSPost2010PropOp52
 70
     0
102
RTVSPost2010Prop53
 90
        2
102
RTVSPost2010PropOp53
 70
     0
102
RTVSPost2010Prop54
  1
strokes_ogs.tif
102
RTVSPost2010PropOp54
 70
     0
102
RTVSPost2010Prop55
280
     0
102
RTVSPost2010PropOp55
 70
     1
102
RTVSPost2010Prop56
140
1.0
102
RTVSPost2010PropOp56
 70
     0
102
RTVSPost2010Prop57
140
1.0
102
RTVSPost2010PropOp57
 70
     0
102
RTVSPropertyOp0
 70
     0
102
RTVSPropertyOp1
 70
     0
102
RTVSPropertyOp2
 70
     0
102
RTVSPropertyOp3
 70
     0
102
RTVSPropertyOp4
 70
     0
102
RTVSPropertyOp5
 70
     0
102
RTVSPropertyOp6
 70
     0
102
RTVSPropertyOp7
 70
     0
102
RTVSPropertyOp8
 70
     0
102
RTVSPropertyOp9
 70
     0
102
RTVSPropertyOp10
 70
     0
102
RTVSPropertyOp11
 70
     0
102
RTVSPropertyOp12
 70
     0
102
RTVSPropertyOp13
 70
     0
102
RTVSPropertyOp14
 70
     2
102
RTVSPropertyOp15
 70
     0
102
RTVSPropertyOp16
 70
     0
102
RTVSPropertyOp17
 70
     0
102
RTVSPropertyOp18
 70
     0
102
RTVSPropertyOp19
 70
     0
102
RTVSPropertyOp20
 70
     0
102
RTVSPropertyOp21
 70
     0
102
RTVSPropertyOp22
 70
     0
102
RTVSPropertyOp23
 70
     0
102
RTVSPropertyOp24
 70
     0
102
RTVSPropertyOp25
 70
     0
102
RTVSPropertyOp26
 70
     0
102
RTVSPropertyOp27
 70
     0
102
RTVSPropertyOp28
 70
     1
102
RTVSPropertyOp29
 70
     1
102
RTVSPropertyOp30
 70
     1
102
RTVSPropertyOp31
 70
     1
102
RTVSPropertyOp32
 70
     1
102
RTVSPropertyOp33
 70
     1
102
RTVSPropertyOp34
 70
     1
102
RTVSPropertyOp35
 70
     1
102
RTVSPropertyOp36
 70
     1
102
RTVSPropertyOp37
 70
     0
102
RTVSPropertyOp38
 70
     0
102
RTVSPropertyOp39
 70
     0
102
RTVSPropertyOp40
 70
     0
102
RTVSPropertyOp41
 70
     0
102
RTVSPropertyOp42
 70
     0
102
RTVSPropertyOp43
 70
     0
102
RTVSPropertyOp44
 70
     0
102
RTVSPropertyOp45
 70
     1
102
RTVSPropertyOp46
 70
     0
102
RTVSPropertyOp47
 70
     0
102
RTVSPropertyOp48
 70
     0
102
RTVSPropertyOp49
 70
     1
102
RTVSPropertyOp50
 70
     0
102
RTVSPropertyOp51
 70
     0
102
RTVSPropertyOp52
 70
     0
102
RTVSPropertyOp53
 70
     0
102
RTVSPropertyOp54
 70
     0
102
RTVSPropertyOp55
 70
     1
102
RTVSPropertyOp56
 70
     0
102
RTVSPropertyOp57
 70
     0
102
RTVSPropertyOp58
 70
     0
102
RTVSPropertyOp59
 70
     0
102
RTVSPropertyOp60
 70
     0
102
RTVSPropertyOp61
 70
     0
102
RTVSPropertyOp62
 70
     0
  0
XRECORD
  5
A36A
102
{ACAD_REACTORS
330
A369
102
}
330
A369
100
AcDbXrecord
280
     1
102
RTVSPost2010Prop28
280
     0
102
RTVSPost2010PropOp28
 70
     1
102
RTVSPost2010Prop29
280
     1
102
RTVSPost2010PropOp29
 70
     1
102
RTVSPost2010Prop30
280
     1
102
RTVSPost2010PropOp30
 70
     1
102
RTVSPost2010Prop31
280
     0
102
RTVSPost2010PropOp31
 70
     1
102
RTVSPost2010Prop32
280
     0
102
RTVSPost2010PropOp32
 70
     1
102
RTVSPost2010Prop33
280
     0
102
RTVSPost2010PropOp33
 70
     1
102
RTVSPost2010Prop34
280
     0
102
RTVSPost2010PropOp34
 70
     1
102
RTVSPost2010Prop35
280
     0
102
RTVSPost2010PropOp35
 70
     1
102
RTVSPost2010Prop36
280
     0
102
RTVSPost2010PropOp36
 70
     1
102
RTVSPost2010Prop37
 90
       50
102
RTVSPost2010PropOp37
 70
     1
102
RTVSPost2010Prop38
140
0.0
102
RTVSPost2010PropOp38
 70
     1
102
RTVSPost2010Prop39
140
1.0
102
RTVSPost2010PropOp39
 70
     1
102
RTVSPost2010Prop40
 90
        0
102
RTVSPost2010PropOp40
 70
     1
102
RTVSPost2010Prop41ColorIndex
 90
       18
102
RTVSPost2010Prop41ColorRGB
 90
        0
102
RTVSPost2010PropOp41
 70
     1
102
RTVSPost2010Prop42
 90
       50
102
RTVSPost2010PropOp42
 70
     1
102
RTVSPost2010Prop43
 90
        3
102
RTVSPost2010PropOp43
 70
     1
102
RTVSPost2010Prop44ColorIndex
 90
        5
102
RTVSPost2010Prop44ColorRGB
 90
      255
102
RTVSPost2010PropOp44
 70
     1
102
RTVSPost2010Prop45
280
     0
102
RTVSPost2010PropOp45
 70
     1
102
RTVSPost2010Prop46
 90
       50
102
RTVSPost2010PropOp46
 70
     1
102
RTVSPost2010Prop47
 90
       50
102
RTVSPost2010PropOp47
 70
     1
102
RTVSPost2010Prop48
 90
       50
102
RTVSPost2010PropOp48
 70
     1
102
RTVSPost2010Prop49
280
     0
102
RTVSPost2010PropOp49
 70
     1
102
RTVSPost2010Prop50
 90
       50
102
RTVSPost2010PropOp50
 70
     1
102
RTVSPost2010Prop51ColorIndex
 90
      256
102
RTVSPost2010Prop51ColorRGB
 90
-16777216
102
RTVSPost2010PropOp51
 70
     0
102
RTVSPost2010Prop52
140
1.0
102
RTVSPost2010PropOp52
 70
     0
102
RTVSPost2010Prop53
 90
        2
102
RTVSPost2010PropOp53
 70
     1
102
RTVSPost2010Prop54
  1
strokes_ogs.tif
102
RTVSPost2010PropOp54
 70
     1
102
RTVSPost2010Prop55
280
     0
102
RTVSPost2010PropOp55
 70
     1
102
RTVSPost2010Prop56
140
1.0
102
RTVSPost2010PropOp56
 70
     1
102
RTVSPost2010Prop57
140
1.0
102
RTVSPost2010PropOp57
 70
     1
102
RTVSPropertyOp0
 70
     1
102
RTVSPropertyOp1
 70
     1
102
RTVSPropertyOp2
 70
     1
102
RTVSPropertyOp3
 70
     1
102
RTVSPropertyOp4
 70
     1
102
RTVSPropertyOp5
 70
     1
102
RTVSPropertyOp6
 70
     1
102
RTVSPropertyOp7
 70
     1
102
RTVSPropertyOp8
 70
     1
102
RTVSPropertyOp9
 70
     1
102
RTVSPropertyOp10
 70
     1
102
RTVSPropertyOp11
 70
     1
102
RTVSPropertyOp12
 70
     1
102
RTVSPropertyOp13
 70
     1
102
RTVSPropertyOp14
 70
     1
102
RTVSPropertyOp15
 70
     1
102
RTVSPropertyOp16
 70
     1
102
RTVSPropertyOp17
 70
     1
102
RTVSPropertyOp18
 70
     1
102
RTVSPropertyOp19
 70
     1
102
RTVSPropertyOp20
 70
     1
102
RTVSPropertyOp21
 70
     1
102
RTVSPropertyOp22
 70
     1
102
RTVSPropertyOp23
 70
     1
102
RTVSPropertyOp24
 70
     1
102
RTVSPropertyOp25
 70
     1
102
RTVSPropertyOp26
 70
     1
102
RTVSPropertyOp27
 70
     1
102
RTVSPropertyOp28
 70
     1
102
RTVSPropertyOp29
 70
     1
102
RTVSPropertyOp30
 70
     1
102
RTVSPropertyOp31
 70
     1
102
RTVSPropertyOp32
 70
     1
102
RTVSPropertyOp33
 70
     1
102
RTVSPropertyOp34
 70
     1
102
RTVSPropertyOp35
 70
     1
102
RTVSPropertyOp36
 70
     1
102
RTVSPropertyOp37
 70
     1
102
RTVSPropertyOp38
 70
     1
102
RTVSPropertyOp39
 70
     1
102
RTVSPropertyOp40
 70
     1
102
RTVSPropertyOp41
 70
     1
102
RTVSPropertyOp42
 70
     1
102
RTVSPropertyOp43
 70
     1
102
RTVSPropertyOp44
 70
     1
102
RTVSPropertyOp45
 70
     1
102
RTVSPropertyOp46
 70
     1
102
RTVSPropertyOp47
 70
     1
102
RTVSPropertyOp48
 70
     1
102
RTVSPropertyOp49
 70
     1
102
RTVSPropertyOp50
 70
     1
102
RTVSPropertyOp51
 70
     0
102
RTVSPropertyOp52
 70
     0
102
RTVSPropertyOp53
 70
     1
102
RTVSPropertyOp54
 70
     1
102
RTVSPropertyOp55
 70
     1
102
RTVSPropertyOp56
 70
     1
102
RTVSPropertyOp57
 70
     1
102
RTVSPropertyOp58
 70
     1
102
RTVSPropertyOp59
 70
     1
102
RTVSPropertyOp60
 70
     1
102
RTVSPropertyOp61
 70
     1
102
RTVSPropertyOp62
 70
     1
  0
XRECORD
  5
A380
102
{ACAD_REACTORS
330
A37F
102
}
330
A37F
100
AcDbXrecord
280
     1
102
RTVSPost2010Prop28
280
     0
102
RTVSPost2010PropOp28
 70
     1
102
RTVSPost2010Prop29
280
     1
102
RTVSPost2010PropOp29
 70
     1
102
RTVSPost2010Prop30
280
     1
102
RTVSPost2010PropOp30
 70
     1
102
RTVSPost2010Prop31
280
     0
102
RTVSPost2010PropOp31
 70
     1
102
RTVSPost2010Prop32
280
     0
102
RTVSPost2010PropOp32
 70
     1
102
RTVSPost2010Prop33
280
     0
102
RTVSPost2010PropOp33
 70
     1
102
RTVSPost2010Prop34
280
     0
102
RTVSPost2010PropOp34
 70
     1
102
RTVSPost2010Prop35
280
     0
102
RTVSPost2010PropOp35
 70
     1
102
RTVSPost2010Prop36
280
     0
102
RTVSPost2010PropOp36
 70
     1
102
RTVSPost2010Prop37
 90
       50
102
RTVSPost2010PropOp37
 70
     1
102
RTVSPost2010Prop38
140
0.0
102
RTVSPost2010PropOp38
 70
     1
102
RTVSPost2010Prop39
140
1.0
102
RTVSPost2010PropOp39
 70
     1
102
RTVSPost2010Prop40
 90
        0
102
RTVSPost2010PropOp40
 70
     1
102
RTVSPost2010Prop41ColorIndex
 90
       18
102
RTVSPost2010Prop41ColorRGB
 90
        0
102
RTVSPost2010PropOp41
 70
     1
102
RTVSPost2010Prop42
 90
       50
102
RTVSPost2010PropOp42
 70
     1
102
RTVSPost2010Prop43
 90
        3
102
RTVSPost2010PropOp43
 70
     1
102
RTVSPost2010Prop44ColorIndex
 90
        5
102
RTVSPost2010Prop44ColorRGB
 90
      255
102
RTVSPost2010PropOp44
 70
     1
102
RTVSPost2010Prop45
280
     0
102
RTVSPost2010PropOp45
 70
     1
102
RTVSPost2010Prop46
 90
       50
102
RTVSPost2010PropOp46
 70
     1
102
RTVSPost2010Prop47
 90
       50
102
RTVSPost2010PropOp47
 70
     1
102
RTVSPost2010Prop48
 90
       50
102
RTVSPost2010PropOp48
 70
     1
102
RTVSPost2010Prop49
280
     0
102
RTVSPost2010PropOp49
 70
     1
102
RTVSPost2010Prop50
 90
       50
102
RTVSPost2010PropOp50
 70
     1
102
RTVSPost2010Prop51ColorIndex
 90
      256
102
RTVSPost2010Prop51ColorRGB
 90
-16777216
102
RTVSPost2010PropOp51
 70
     0
102
RTVSPost2010Prop52
140
1.0
102
RTVSPost2010PropOp52
 70
     0
102
RTVSPost2010Prop53
 90
        2
102
RTVSPost2010PropOp53
 70
     1
102
RTVSPost2010Prop54
  1
strokes_ogs.tif
102
RTVSPost2010PropOp54
 70
     1
102
RTVSPost2010Prop55
280
     0
102
RTVSPost2010PropOp55
 70
     1
102
RTVSPost2010Prop56
140
1.0
102
RTVSPost2010PropOp56
 70
     1
102
RTVSPost2010Prop57
140
1.0
102
RTVSPost2010PropOp57
 70
     1
102
RTVSPropertyOp0
 70
     1
102
RTVSPropertyOp1
 70
     1
102
RTVSPropertyOp2
 70
     1
102
RTVSPropertyOp3
 70
     1
102
RTVSPropertyOp4
 70
     1
102
RTVSPropertyOp5
 70
     1
102
RTVSPropertyOp6
 70
     1
102
RTVSPropertyOp7
 70
     1
102
RTVSPropertyOp8
 70
     1
102
RTVSPropertyOp9
 70
     1
102
RTVSPropertyOp10
 70
     1
102
RTVSPropertyOp11
 70
     1
102
RTVSPropertyOp12
 70
     1
102
RTVSPropertyOp13
 70
     1
102
RTVSPropertyOp14
 70
     1
102
RTVSPropertyOp15
 70
     1
102
RTVSPropertyOp16
 70
     1
102
RTVSPropertyOp17
 70
     1
102
RTVSPropertyOp18
 70
     1
102
RTVSPropertyOp19
 70
     1
102
RTVSPropertyOp20
 70
     1
102
RTVSPropertyOp21
 70
     1
102
RTVSPropertyOp22
 70
     1
102
RTVSPropertyOp23
 70
     1
102
RTVSPropertyOp24
 70
     1
102
RTVSPropertyOp25
 70
     1
102
RTVSPropertyOp26
 70
     1
102
RTVSPropertyOp27
 70
     1
102
RTVSPropertyOp28
 70
     1
102
RTVSPropertyOp29
 70
     1
102
RTVSPropertyOp30
 70
     1
102
RTVSPropertyOp31
 70
     1
102
RTVSPropertyOp32
 70
     1
102
RTVSPropertyOp33
 70
     1
102
RTVSPropertyOp34
 70
     1
102
RTVSPropertyOp35
 70
     1
102
RTVSPropertyOp36
 70
     1
102
RTVSPropertyOp37
 70
     1
102
RTVSPropertyOp38
 70
     1
102
RTVSPropertyOp39
 70
     1
102
RTVSPropertyOp40
 70
     1
102
RTVSPropertyOp41
 70
     1
102
RTVSPropertyOp42
 70
     1
102
RTVSPropertyOp43
 70
     1
102
RTVSPropertyOp44
 70
     1
102
RTVSPropertyOp45
 70
     1
102
RTVSPropertyOp46
 70
     1
102
RTVSPropertyOp47
 70
     1
102
RTVSPropertyOp48
 70
     1
102
RTVSPropertyOp49
 70
     1
102
RTVSPropertyOp50
 70
     1
102
RTVSPropertyOp51
 70
     0
102
RTVSPropertyOp52
 70
     0
102
RTVSPropertyOp53
 70
     1
102
RTVSPropertyOp54
 70
     1
102
RTVSPropertyOp55
 70
     1
102
RTVSPropertyOp56
 70
     1
102
RTVSPropertyOp57
 70
     1
102
RTVSPropertyOp58
 70
     1
102
RTVSPropertyOp59
 70
     1
102
RTVSPropertyOp60
 70
     1
102
RTVSPropertyOp61
 70
     1
102
RTVSPropertyOp62
 70
     1
  0
XRECORD
  5
A37E
102
{ACAD_REACTORS
330
A37D
102
}
330
A37D
100
AcDbXrecord
280
     1
102
RTVSPost2010Prop28
280
     0
102
RTVSPost2010PropOp28
 70
     1
102
RTVSPost2010Prop29
280
     1
102
RTVSPost2010PropOp29
 70
     1
102
RTVSPost2010Prop30
280
     1
102
RTVSPost2010PropOp30
 70
     1
102
RTVSPost2010Prop31
280
     0
102
RTVSPost2010PropOp31
 70
     1
102
RTVSPost2010Prop32
280
     0
102
RTVSPost2010PropOp32
 70
     1
102
RTVSPost2010Prop33
280
     0
102
RTVSPost2010PropOp33
 70
     1
102
RTVSPost2010Prop34
280
     0
102
RTVSPost2010PropOp34
 70
     1
102
RTVSPost2010Prop35
280
     0
102
RTVSPost2010PropOp35
 70
     1
102
RTVSPost2010Prop36
280
     0
102
RTVSPost2010PropOp36
 70
     1
102
RTVSPost2010Prop37
 90
       50
102
RTVSPost2010PropOp37
 70
     1
102
RTVSPost2010Prop38
140
0.0
102
RTVSPost2010PropOp38
 70
     1
102
RTVSPost2010Prop39
140
1.0
102
RTVSPost2010PropOp39
 70
     1
102
RTVSPost2010Prop40
 90
        0
102
RTVSPost2010PropOp40
 70
     1
102
RTVSPost2010Prop41ColorIndex
 90
       18
102
RTVSPost2010Prop41ColorRGB
 90
        0
102
RTVSPost2010PropOp41
 70
     1
102
RTVSPost2010Prop42
 90
       50
102
RTVSPost2010PropOp42
 70
     1
102
RTVSPost2010Prop43
 90
        3
102
RTVSPost2010PropOp43
 70
     1
102
RTVSPost2010Prop44ColorIndex
 90
        5
102
RTVSPost2010Prop44ColorRGB
 90
      255
102
RTVSPost2010PropOp44
 70
     1
102
RTVSPost2010Prop45
280
     0
102
RTVSPost2010PropOp45
 70
     1
102
RTVSPost2010Prop46
 90
       50
102
RTVSPost2010PropOp46
 70
     1
102
RTVSPost2010Prop47
 90
       50
102
RTVSPost2010PropOp47
 70
     1
102
RTVSPost2010Prop48
 90
       50
102
RTVSPost2010PropOp48
 70
     1
102
RTVSPost2010Prop49
280
     0
102
RTVSPost2010PropOp49
 70
     1
102
RTVSPost2010Prop50
 90
       50
102
RTVSPost2010PropOp50
 70
     1
102
RTVSPost2010Prop51ColorIndex
 90
      256
102
RTVSPost2010Prop51ColorRGB
 90
-16777216
102
RTVSPost2010PropOp51
 70
     0
102
RTVSPost2010Prop52
140
1.0
102
RTVSPost2010PropOp52
 70
     0
102
RTVSPost2010Prop53
 90
        2
102
RTVSPost2010PropOp53
 70
     1
102
RTVSPost2010Prop54
  1
strokes_ogs.tif
102
RTVSPost2010PropOp54
 70
     1
102
RTVSPost2010Prop55
280
     0
102
RTVSPost2010PropOp55
 70
     1
102
RTVSPost2010Prop56
140
1.0
102
RTVSPost2010PropOp56
 70
     1
102
RTVSPost2010Prop57
140
1.0
102
RTVSPost2010PropOp57
 70
     1
102
RTVSPropertyOp0
 70
     1
102
RTVSPropertyOp1
 70
     1
102
RTVSPropertyOp2
 70
     1
102
RTVSPropertyOp3
 70
     1
102
RTVSPropertyOp4
 70
     1
102
RTVSPropertyOp5
 70
     1
102
RTVSPropertyOp6
 70
     1
102
RTVSPropertyOp7
 70
     1
102
RTVSPropertyOp8
 70
     1
102
RTVSPropertyOp9
 70
     1
102
RTVSPropertyOp10
 70
     1
102
RTVSPropertyOp11
 70
     1
102
RTVSPropertyOp12
 70
     1
102
RTVSPropertyOp13
 70
     1
102
RTVSPropertyOp14
 70
     1
102
RTVSPropertyOp15
 70
     1
102
RTVSPropertyOp16
 70
     1
102
RTVSPropertyOp17
 70
     1
102
RTVSPropertyOp18
 70
     1
102
RTVSPropertyOp19
 70
     1
102
RTVSPropertyOp20
 70
     1
102
RTVSPropertyOp21
 70
     1
102
RTVSPropertyOp22
 70
     1
102
RTVSPropertyOp23
 70
     1
102
RTVSPropertyOp24
 70
     1
102
RTVSPropertyOp25
 70
     1
102
RTVSPropertyOp26
 70
     1
102
RTVSPropertyOp27
 70
     1
102
RTVSPropertyOp28
 70
     1
102
RTVSPropertyOp29
 70
     1
102
RTVSPropertyOp30
 70
     1
102
RTVSPropertyOp31
 70
     1
102
RTVSPropertyOp32
 70
     1
102
RTVSPropertyOp33
 70
     1
102
RTVSPropertyOp34
 70
     1
102
RTVSPropertyOp35
 70
     1
102
RTVSPropertyOp36
 70
     1
102
RTVSPropertyOp37
 70
     1
102
RTVSPropertyOp38
 70
     1
102
RTVSPropertyOp39
 70
     1
102
RTVSPropertyOp40
 70
     1
102
RTVSPropertyOp41
 70
     1
102
RTVSPropertyOp42
 70
     1
102
RTVSPropertyOp43
 70
     1
102
RTVSPropertyOp44
 70
     1
102
RTVSPropertyOp45
 70
     1
102
RTVSPropertyOp46
 70
     1
102
RTVSPropertyOp47
 70
     1
102
RTVSPropertyOp48
 70
     1
102
RTVSPropertyOp49
 70
     1
102
RTVSPropertyOp50
 70
     1
102
RTVSPropertyOp51
 70
     0
102
RTVSPropertyOp52
 70
     0
102
RTVSPropertyOp53
 70
     1
102
RTVSPropertyOp54
 70
     1
102
RTVSPropertyOp55
 70
     1
102
RTVSPropertyOp56
 70
     1
102
RTVSPropertyOp57
 70
     1
102
RTVSPropertyOp58
 70
     1
102
RTVSPropertyOp59
 70
     1
102
RTVSPropertyOp60
 70
     1
102
RTVSPropertyOp61
 70
     1
102
RTVSPropertyOp62
 70
     1
  0
XRECORD
  5
A378
102
{ACAD_REACTORS
330
A377
102
}
330
A377
100
AcDbXrecord
280
     1
102
RTVSPost2010Prop28
280
     0
102
RTVSPost2010PropOp28
 70
     1
102
RTVSPost2010Prop29
280
     1
102
RTVSPost2010PropOp29
 70
     1
102
RTVSPost2010Prop30
280
     1
102
RTVSPost2010PropOp30
 70
     1
102
RTVSPost2010Prop31
280
     0
102
RTVSPost2010PropOp31
 70
     1
102
RTVSPost2010Prop32
280
     0
102
RTVSPost2010PropOp32
 70
     1
102
RTVSPost2010Prop33
280
     0
102
RTVSPost2010PropOp33
 70
     1
102
RTVSPost2010Prop34
280
     0
102
RTVSPost2010PropOp34
 70
     1
102
RTVSPost2010Prop35
280
     0
102
RTVSPost2010PropOp35
 70
     1
102
RTVSPost2010Prop36
280
     0
102
RTVSPost2010PropOp36
 70
     1
102
RTVSPost2010Prop37
 90
       50
102
RTVSPost2010PropOp37
 70
     1
102
RTVSPost2010Prop38
140
0.0
102
RTVSPost2010PropOp38
 70
     1
102
RTVSPost2010Prop39
140
1.0
102
RTVSPost2010PropOp39
 70
     1
102
RTVSPost2010Prop40
 90
        0
102
RTVSPost2010PropOp40
 70
     1
102
RTVSPost2010Prop41ColorIndex
 90
       18
102
RTVSPost2010Prop41ColorRGB
 90
        0
102
RTVSPost2010PropOp41
 70
     1
102
RTVSPost2010Prop42
 90
       50
102
RTVSPost2010PropOp42
 70
     1
102
RTVSPost2010Prop43
 90
        3
102
RTVSPost2010PropOp43
 70
     1
102
RTVSPost2010Prop44ColorIndex
 90
        5
102
RTVSPost2010Prop44ColorRGB
 90
      255
102
RTVSPost2010PropOp44
 70
     1
102
RTVSPost2010Prop45
280
     0
102
RTVSPost2010PropOp45
 70
     1
102
RTVSPost2010Prop46
 90
       50
102
RTVSPost2010PropOp46
 70
     1
102
RTVSPost2010Prop47
 90
       50
102
RTVSPost2010PropOp47
 70
     1
102
RTVSPost2010Prop48
 90
       50
102
RTVSPost2010PropOp48
 70
     1
102
RTVSPost2010Prop49
280
     0
102
RTVSPost2010PropOp49
 70
     1
102
RTVSPost2010Prop50
 90
       50
102
RTVSPost2010PropOp50
 70
     1
102
RTVSPost2010Prop51ColorIndex
 90
      256
102
RTVSPost2010Prop51ColorRGB
 90
-16777216
102
RTVSPost2010PropOp51
 70
     0
102
RTVSPost2010Prop52
140
1.0
102
RTVSPost2010PropOp52
 70
     0
102
RTVSPost2010Prop53
 90
        2
102
RTVSPost2010PropOp53
 70
     1
102
RTVSPost2010Prop54
  1
strokes_ogs.tif
102
RTVSPost2010PropOp54
 70
     1
102
RTVSPost2010Prop55
280
     0
102
RTVSPost2010PropOp55
 70
     1
102
RTVSPost2010Prop56
140
1.0
102
RTVSPost2010PropOp56
 70
     1
102
RTVSPost2010Prop57
140
1.0
102
RTVSPost2010PropOp57
 70
     1
102
RTVSPropertyOp0
 70
     1
102
RTVSPropertyOp1
 70
     1
102
RTVSPropertyOp2
 70
     1
102
RTVSPropertyOp3
 70
     1
102
RTVSPropertyOp4
 70
     1
102
RTVSPropertyOp5
 70
     1
102
RTVSPropertyOp6
 70
     1
102
RTVSPropertyOp7
 70
     1
102
RTVSPropertyOp8
 70
     1
102
RTVSPropertyOp9
 70
     1
102
RTVSPropertyOp10
 70
     1
102
RTVSPropertyOp11
 70
     1
102
RTVSPropertyOp12
 70
     1
102
RTVSPropertyOp13
 70
     1
102
RTVSPropertyOp14
 70
     1
102
RTVSPropertyOp15
 70
     1
102
RTVSPropertyOp16
 70
     1
102
RTVSPropertyOp17
 70
     1
102
RTVSPropertyOp18
 70
     1
102
RTVSPropertyOp19
 70
     1
102
RTVSPropertyOp20
 70
     1
102
RTVSPropertyOp21
 70
     1
102
RTVSPropertyOp22
 70
     1
102
RTVSPropertyOp23
 70
     1
102
RTVSPropertyOp24
 70
     1
102
RTVSPropertyOp25
 70
     1
102
RTVSPropertyOp26
 70
     1
102
RTVSPropertyOp27
 70
     1
102
RTVSPropertyOp28
 70
     1
102
RTVSPropertyOp29
 70
     1
102
RTVSPropertyOp30
 70
     1
102
RTVSPropertyOp31
 70
     1
102
RTVSPropertyOp32
 70
     1
102
RTVSPropertyOp33
 70
     1
102
RTVSPropertyOp34
 70
     1
102
RTVSPropertyOp35
 70
     1
102
RTVSPropertyOp36
 70
     1
102
RTVSPropertyOp37
 70
     1
102
RTVSPropertyOp38
 70
     1
102
RTVSPropertyOp39
 70
     1
102
RTVSPropertyOp40
 70
     1
102
RTVSPropertyOp41
 70
     1
102
RTVSPropertyOp42
 70
     1
102
RTVSPropertyOp43
 70
     1
102
RTVSPropertyOp44
 70
     1
102
RTVSPropertyOp45
 70
     1
102
RTVSPropertyOp46
 70
     1
102
RTVSPropertyOp47
 70
     1
102
RTVSPropertyOp48
 70
     1
102
RTVSPropertyOp49
 70
     1
102
RTVSPropertyOp50
 70
     1
102
RTVSPropertyOp51
 70
     0
102
RTVSPropertyOp52
 70
     0
102
RTVSPropertyOp53
 70
     1
102
RTVSPropertyOp54
 70
     1
102
RTVSPropertyOp55
 70
     1
102
RTVSPropertyOp56
 70
     1
102
RTVSPropertyOp57
 70
     1
102
RTVSPropertyOp58
 70
     1
102
RTVSPropertyOp59
 70
     1
102
RTVSPropertyOp60
 70
     1
102
RTVSPropertyOp61
 70
     1
102
RTVSPropertyOp62
 70
     1
  0
XRECORD
  5
A37A
102
{ACAD_REACTORS
330
A379
102
}
330
A379
100
AcDbXrecord
280
     1
102
RTVSPost2010Prop28
280
     0
102
RTVSPost2010PropOp28
 70
     1
102
RTVSPost2010Prop29
280
     1
102
RTVSPost2010PropOp29
 70
     1
102
RTVSPost2010Prop30
280
     1
102
RTVSPost2010PropOp30
 70
     1
102
RTVSPost2010Prop31
280
     0
102
RTVSPost2010PropOp31
 70
     1
102
RTVSPost2010Prop32
280
     0
102
RTVSPost2010PropOp32
 70
     1
102
RTVSPost2010Prop33
280
     0
102
RTVSPost2010PropOp33
 70
     1
102
RTVSPost2010Prop34
280
     0
102
RTVSPost2010PropOp34
 70
     1
102
RTVSPost2010Prop35
280
     0
102
RTVSPost2010PropOp35
 70
     1
102
RTVSPost2010Prop36
280
     0
102
RTVSPost2010PropOp36
 70
     1
102
RTVSPost2010Prop37
 90
       50
102
RTVSPost2010PropOp37
 70
     1
102
RTVSPost2010Prop38
140
0.0
102
RTVSPost2010PropOp38
 70
     1
102
RTVSPost2010Prop39
140
1.0
102
RTVSPost2010PropOp39
 70
     1
102
RTVSPost2010Prop40
 90
        0
102
RTVSPost2010PropOp40
 70
     1
102
RTVSPost2010Prop41ColorIndex
 90
       18
102
RTVSPost2010Prop41ColorRGB
 90
        0
102
RTVSPost2010PropOp41
 70
     1
102
RTVSPost2010Prop42
 90
       50
102
RTVSPost2010PropOp42
 70
     1
102
RTVSPost2010Prop43
 90
        3
102
RTVSPost2010PropOp43
 70
     1
102
RTVSPost2010Prop44ColorIndex
 90
        5
102
RTVSPost2010Prop44ColorRGB
 90
      255
102
RTVSPost2010PropOp44
 70
     1
102
RTVSPost2010Prop45
280
     0
102
RTVSPost2010PropOp45
 70
     1
102
RTVSPost2010Prop46
 90
       50
102
RTVSPost2010PropOp46
 70
     1
102
RTVSPost2010Prop47
 90
       50
102
RTVSPost2010PropOp47
 70
     1
102
RTVSPost2010Prop48
 90
       50
102
RTVSPost2010PropOp48
 70
     1
102
RTVSPost2010Prop49
280
     0
102
RTVSPost2010PropOp49
 70
     1
102
RTVSPost2010Prop50
 90
       50
102
RTVSPost2010PropOp50
 70
     1
102
RTVSPost2010Prop51ColorIndex
 90
      256
102
RTVSPost2010Prop51ColorRGB
 90
-16777216
102
RTVSPost2010PropOp51
 70
     0
102
RTVSPost2010Prop52
140
1.0
102
RTVSPost2010PropOp52
 70
     0
102
RTVSPost2010Prop53
 90
        2
102
RTVSPost2010PropOp53
 70
     1
102
RTVSPost2010Prop54
  1
strokes_ogs.tif
102
RTVSPost2010PropOp54
 70
     1
102
RTVSPost2010Prop55
280
     0
102
RTVSPost2010PropOp55
 70
     1
102
RTVSPost2010Prop56
140
1.0
102
RTVSPost2010PropOp56
 70
     1
102
RTVSPost2010Prop57
140
1.0
102
RTVSPost2010PropOp57
 70
     1
102
RTVSPropertyOp0
 70
     1
102
RTVSPropertyOp1
 70
     1
102
RTVSPropertyOp2
 70
     1
102
RTVSPropertyOp3
 70
     1
102
RTVSPropertyOp4
 70
     1
102
RTVSPropertyOp5
 70
     1
102
RTVSPropertyOp6
 70
     1
102
RTVSPropertyOp7
 70
     1
102
RTVSPropertyOp8
 70
     1
102
RTVSPropertyOp9
 70
     1
102
RTVSPropertyOp10
 70
     1
102
RTVSPropertyOp11
 70
     1
102
RTVSPropertyOp12
 70
     1
102
RTVSPropertyOp13
 70
     1
102
RTVSPropertyOp14
 70
     1
102
RTVSPropertyOp15
 70
     1
102
RTVSPropertyOp16
 70
     1
102
RTVSPropertyOp17
 70
     1
102
RTVSPropertyOp18
 70
     1
102
RTVSPropertyOp19
 70
     1
102
RTVSPropertyOp20
 70
     1
102
RTVSPropertyOp21
 70
     1
102
RTVSPropertyOp22
 70
     1
102
RTVSPropertyOp23
 70
     1
102
RTVSPropertyOp24
 70
     1
102
RTVSPropertyOp25
 70
     1
102
RTVSPropertyOp26
 70
     1
102
RTVSPropertyOp27
 70
     1
102
RTVSPropertyOp28
 70
     1
102
RTVSPropertyOp29
 70
     1
102
RTVSPropertyOp30
 70
     1
102
RTVSPropertyOp31
 70
     1
102
RTVSPropertyOp32
 70
     1
102
RTVSPropertyOp33
 70
     1
102
RTVSPropertyOp34
 70
     1
102
RTVSPropertyOp35
 70
     1
102
RTVSPropertyOp36
 70
     1
102
RTVSPropertyOp37
 70
     1
102
RTVSPropertyOp38
 70
     1
102
RTVSPropertyOp39
 70
     1
102
RTVSPropertyOp40
 70
     1
102
RTVSPropertyOp41
 70
     1
102
RTVSPropertyOp42
 70
     1
102
RTVSPropertyOp43
 70
     1
102
RTVSPropertyOp44
 70
     1
102
RTVSPropertyOp45
 70
     1
102
RTVSPropertyOp46
 70
     1
102
RTVSPropertyOp47
 70
     1
102
RTVSPropertyOp48
 70
     1
102
RTVSPropertyOp49
 70
     1
102
RTVSPropertyOp50
 70
     1
102
RTVSPropertyOp51
 70
     0
102
RTVSPropertyOp52
 70
     0
102
RTVSPropertyOp53
 70
     1
102
RTVSPropertyOp54
 70
     1
102
RTVSPropertyOp55
 70
     1
102
RTVSPropertyOp56
 70
     1
102
RTVSPropertyOp57
 70
     1
102
RTVSPropertyOp58
 70
     1
102
RTVSPropertyOp59
 70
     1
102
RTVSPropertyOp60
 70
     1
102
RTVSPropertyOp61
 70
     1
102
RTVSPropertyOp62
 70
     1
  0
XRECORD
  5
A370
102
{ACAD_REACTORS
330
A36F
102
}
330
A36F
100
AcDbXrecord
280
     1
102
RTVSPost2010Prop28
280
     0
102
RTVSPost2010PropOp28
 70
     1
102
RTVSPost2010Prop29
280
     1
102
RTVSPost2010PropOp29
 70
     1
102
RTVSPost2010Prop30
280
     1
102
RTVSPost2010PropOp30
 70
     1
102
RTVSPost2010Prop31
280
     0
102
RTVSPost2010PropOp31
 70
     1
102
RTVSPost2010Prop32
280
     0
102
RTVSPost2010PropOp32
 70
     1
102
RTVSPost2010Prop33
280
     0
102
RTVSPost2010PropOp33
 70
     1
102
RTVSPost2010Prop34
280
     0
102
RTVSPost2010PropOp34
 70
     1
102
RTVSPost2010Prop35
280
     0
102
RTVSPost2010PropOp35
 70
     1
102
RTVSPost2010Prop36
280
     0
102
RTVSPost2010PropOp36
 70
     1
102
RTVSPost2010Prop37
 90
       50
102
RTVSPost2010PropOp37
 70
     1
102
RTVSPost2010Prop38
140
0.0
102
RTVSPost2010PropOp38
 70
     1
102
RTVSPost2010Prop39
140
1.0
102
RTVSPost2010PropOp39
 70
     1
102
RTVSPost2010Prop40
 90
        0
102
RTVSPost2010PropOp40
 70
     1
102
RTVSPost2010Prop41ColorIndex
 90
       18
102
RTVSPost2010Prop41ColorRGB
 90
        0
102
RTVSPost2010PropOp41
 70
     1
102
RTVSPost2010Prop42
 90
       50
102
RTVSPost2010PropOp42
 70
     1
102
RTVSPost2010Prop43
 90
        3
102
RTVSPost2010PropOp43
 70
     1
102
RTVSPost2010Prop44ColorIndex
 90
        5
102
RTVSPost2010Prop44ColorRGB
 90
      255
102
RTVSPost2010PropOp44
 70
     1
102
RTVSPost2010Prop45
280
     0
102
RTVSPost2010PropOp45
 70
     1
102
RTVSPost2010Prop46
 90
       50
102
RTVSPost2010PropOp46
 70
     1
102
RTVSPost2010Prop47
 90
       50
102
RTVSPost2010PropOp47
 70
     1
102
RTVSPost2010Prop48
 90
       50
102
RTVSPost2010PropOp48
 70
     1
102
RTVSPost2010Prop49
280
     0
102
RTVSPost2010PropOp49
 70
     1
102
RTVSPost2010Prop50
 90
       50
102
RTVSPost2010PropOp50
 70
     1
102
RTVSPost2010Prop51ColorIndex
 90
      256
102
RTVSPost2010Prop51ColorRGB
 90
-16777216
102
RTVSPost2010PropOp51
 70
     0
102
RTVSPost2010Prop52
140
1.0
102
RTVSPost2010PropOp52
 70
     0
102
RTVSPost2010Prop53
 90
        2
102
RTVSPost2010PropOp53
 70
     1
102
RTVSPost2010Prop54
  1
strokes_ogs.tif
102
RTVSPost2010PropOp54
 70
     1
102
RTVSPost2010Prop55
280
     0
102
RTVSPost2010PropOp55
 70
     1
102
RTVSPost2010Prop56
140
1.0
102
RTVSPost2010PropOp56
 70
     1
102
RTVSPost2010Prop57
140
1.0
102
RTVSPost2010PropOp57
 70
     1
102
RTVSPropertyOp0
 70
     1
102
RTVSPropertyOp1
 70
     1
102
RTVSPropertyOp2
 70
     1
102
RTVSPropertyOp3
 70
     1
102
RTVSPropertyOp4
 70
     1
102
RTVSPropertyOp5
 70
     1
102
RTVSPropertyOp6
 70
     1
102
RTVSPropertyOp7
 70
     1
102
RTVSPropertyOp8
 70
     1
102
RTVSPropertyOp9
 70
     1
102
RTVSPropertyOp10
 70
     1
102
RTVSPropertyOp11
 70
     1
102
RTVSPropertyOp12
 70
     1
102
RTVSPropertyOp13
 70
     1
102
RTVSPropertyOp14
 70
     1
102
RTVSPropertyOp15
 70
     1
102
RTVSPropertyOp16
 70
     1
102
RTVSPropertyOp17
 70
     1
102
RTVSPropertyOp18
 70
     1
102
RTVSPropertyOp19
 70
     1
102
RTVSPropertyOp20
 70
     1
102
RTVSPropertyOp21
 70
     1
102
RTVSPropertyOp22
 70
     1
102
RTVSPropertyOp23
 70
     1
102
RTVSPropertyOp24
 70
     1
102
RTVSPropertyOp25
 70
     1
102
RTVSPropertyOp26
 70
     1
102
RTVSPropertyOp27
 70
     1
102
RTVSPropertyOp28
 70
     1
102
RTVSPropertyOp29
 70
     1
102
RTVSPropertyOp30
 70
     1
102
RTVSPropertyOp31
 70
     1
102
RTVSPropertyOp32
 70
     1
102
RTVSPropertyOp33
 70
     1
102
RTVSPropertyOp34
 70
     1
102
RTVSPropertyOp35
 70
     1
102
RTVSPropertyOp36
 70
     1
102
RTVSPropertyOp37
 70
     1
102
RTVSPropertyOp38
 70
     1
102
RTVSPropertyOp39
 70
     1
102
RTVSPropertyOp40
 70
     1
102
RTVSPropertyOp41
 70
     1
102
RTVSPropertyOp42
 70
     1
102
RTVSPropertyOp43
 70
     1
102
RTVSPropertyOp44
 70
     1
102
RTVSPropertyOp45
 70
     1
102
RTVSPropertyOp46
 70
     1
102
RTVSPropertyOp47
 70
     1
102
RTVSPropertyOp48
 70
     1
102
RTVSPropertyOp49
 70
     1
102
RTVSPropertyOp50
 70
     1
102
RTVSPropertyOp51
 70
     0
102
RTVSPropertyOp52
 70
     0
102
RTVSPropertyOp53
 70
     1
102
RTVSPropertyOp54
 70
     1
102
RTVSPropertyOp55
 70
     1
102
RTVSPropertyOp56
 70
     1
102
RTVSPropertyOp57
 70
     1
102
RTVSPropertyOp58
 70
     1
102
RTVSPropertyOp59
 70
     1
102
RTVSPropertyOp60
 70
     1
102
RTVSPropertyOp61
 70
     1
102
RTVSPropertyOp62
 70
     1
  0
XRECORD
  5
A364
102
{ACAD_REACTORS
330
A363
102
}
330
A363
100
AcDbXrecord
280
     1
102
RTVSPost2010Prop28
280
     0
102
RTVSPost2010PropOp28
 70
     1
102
RTVSPost2010Prop29
280
     1
102
RTVSPost2010PropOp29
 70
     1
102
RTVSPost2010Prop30
280
     1
102
RTVSPost2010PropOp30
 70
     1
102
RTVSPost2010Prop31
280
     0
102
RTVSPost2010PropOp31
 70
     1
102
RTVSPost2010Prop32
280
     0
102
RTVSPost2010PropOp32
 70
     1
102
RTVSPost2010Prop33
280
     0
102
RTVSPost2010PropOp33
 70
     1
102
RTVSPost2010Prop34
280
     0
102
RTVSPost2010PropOp34
 70
     1
102
RTVSPost2010Prop35
280
     0
102
RTVSPost2010PropOp35
 70
     1
102
RTVSPost2010Prop36
280
     0
102
RTVSPost2010PropOp36
 70
     1
102
RTVSPost2010Prop37
 90
       50
102
RTVSPost2010PropOp37
 70
     1
102
RTVSPost2010Prop38
140
0.0
102
RTVSPost2010PropOp38
 70
     1
102
RTVSPost2010Prop39
140
1.0
102
RTVSPost2010PropOp39
 70
     1
102
RTVSPost2010Prop40
 90
        0
102
RTVSPost2010PropOp40
 70
     1
102
RTVSPost2010Prop41ColorIndex
 90
       18
102
RTVSPost2010Prop41ColorRGB
 90
        0
102
RTVSPost2010PropOp41
 70
     1
102
RTVSPost2010Prop42
 90
       50
102
RTVSPost2010PropOp42
 70
     1
102
RTVSPost2010Prop43
 90
        3
102
RTVSPost2010PropOp43
 70
     1
102
RTVSPost2010Prop44ColorIndex
 90
        5
102
RTVSPost2010Prop44ColorRGB
 90
      255
102
RTVSPost2010PropOp44
 70
     1
102
RTVSPost2010Prop45
280
     0
102
RTVSPost2010PropOp45
 70
     1
102
RTVSPost2010Prop46
 90
       50
102
RTVSPost2010PropOp46
 70
     1
102
RTVSPost2010Prop47
 90
       50
102
RTVSPost2010PropOp47
 70
     1
102
RTVSPost2010Prop48
 90
       50
102
RTVSPost2010PropOp48
 70
     1
102
RTVSPost2010Prop49
280
     0
102
RTVSPost2010PropOp49
 70
     1
102
RTVSPost2010Prop50
 90
       50
102
RTVSPost2010PropOp50
 70
     1
102
RTVSPost2010Prop51ColorIndex
 90
      256
102
RTVSPost2010Prop51ColorRGB
 90
-16777216
102
RTVSPost2010PropOp51
 70
     0
102
RTVSPost2010Prop52
140
1.0
102
RTVSPost2010PropOp52
 70
     0
102
RTVSPost2010Prop53
 90
        2
102
RTVSPost2010PropOp53
 70
     1
102
RTVSPost2010Prop54
  1
strokes_ogs.tif
102
RTVSPost2010PropOp54
 70
     1
102
RTVSPost2010Prop55
280
     0
102
RTVSPost2010PropOp55
 70
     1
102
RTVSPost2010Prop56
140
1.0
102
RTVSPost2010PropOp56
 70
     1
102
RTVSPost2010Prop57
140
1.0
102
RTVSPost2010PropOp57
 70
     1
102
RTVSPropertyOp0
 70
     1
102
RTVSPropertyOp1
 70
     1
102
RTVSPropertyOp2
 70
     1
102
RTVSPropertyOp3
 70
     1
102
RTVSPropertyOp4
 70
     1
102
RTVSPropertyOp5
 70
     1
102
RTVSPropertyOp6
 70
     1
102
RTVSPropertyOp7
 70
     1
102
RTVSPropertyOp8
 70
     1
102
RTVSPropertyOp9
 70
     1
102
RTVSPropertyOp10
 70
     1
102
RTVSPropertyOp11
 70
     1
102
RTVSPropertyOp12
 70
     1
102
RTVSPropertyOp13
 70
     1
102
RTVSPropertyOp14
 70
     1
102
RTVSPropertyOp15
 70
     1
102
RTVSPropertyOp16
 70
     1
102
RTVSPropertyOp17
 70
     1
102
RTVSPropertyOp18
 70
     1
102
RTVSPropertyOp19
 70
     1
102
RTVSPropertyOp20
 70
     1
102
RTVSPropertyOp21
 70
     1
102
RTVSPropertyOp22
 70
     1
102
RTVSPropertyOp23
 70
     1
102
RTVSPropertyOp24
 70
     1
102
RTVSPropertyOp25
 70
     1
102
RTVSPropertyOp26
 70
     1
102
RTVSPropertyOp27
 70
     1
102
RTVSPropertyOp28
 70
     1
102
RTVSPropertyOp29
 70
     1
102
RTVSPropertyOp30
 70
     1
102
RTVSPropertyOp31
 70
     1
102
RTVSPropertyOp32
 70
     1
102
RTVSPropertyOp33
 70
     1
102
RTVSPropertyOp34
 70
     1
102
RTVSPropertyOp35
 70
     1
102
RTVSPropertyOp36
 70
     1
102
RTVSPropertyOp37
 70
     1
102
RTVSPropertyOp38
 70
     1
102
RTVSPropertyOp39
 70
     1
102
RTVSPropertyOp40
 70
     1
102
RTVSPropertyOp41
 70
     1
102
RTVSPropertyOp42
 70
     1
102
RTVSPropertyOp43
 70
     1
102
RTVSPropertyOp44
 70
     1
102
RTVSPropertyOp45
 70
     1
102
RTVSPropertyOp46
 70
     1
102
RTVSPropertyOp47
 70
     1
102
RTVSPropertyOp48
 70
     1
102
RTVSPropertyOp49
 70
     1
102
RTVSPropertyOp50
 70
     1
102
RTVSPropertyOp51
 70
     0
102
RTVSPropertyOp52
 70
     0
102
RTVSPropertyOp53
 70
     1
102
RTVSPropertyOp54
 70
     1
102
RTVSPropertyOp55
 70
     1
102
RTVSPropertyOp56
 70
     1
102
RTVSPropertyOp57
 70
     1
102
RTVSPropertyOp58
 70
     1
102
RTVSPropertyOp59
 70
     1
102
RTVSPropertyOp60
 70
     1
102
RTVSPropertyOp61
 70
     1
102
RTVSPropertyOp62
 70
     1
  0
XRECORD
  5
A37C
102
{ACAD_REACTORS
330
A37B
102
}
330
A37B
100
AcDbXrecord
280
     1
102
RTVSPost2010Prop28
280
     0
102
RTVSPost2010PropOp28
 70
     1
102
RTVSPost2010Prop29
280
     1
102
RTVSPost2010PropOp29
 70
     1
102
RTVSPost2010Prop30
280
     1
102
RTVSPost2010PropOp30
 70
     1
102
RTVSPost2010Prop31
280
     0
102
RTVSPost2010PropOp31
 70
     1
102
RTVSPost2010Prop32
280
     0
102
RTVSPost2010PropOp32
 70
     1
102
RTVSPost2010Prop33
280
     0
102
RTVSPost2010PropOp33
 70
     1
102
RTVSPost2010Prop34
280
     0
102
RTVSPost2010PropOp34
 70
     1
102
RTVSPost2010Prop35
280
     0
102
RTVSPost2010PropOp35
 70
     1
102
RTVSPost2010Prop36
280
     0
102
RTVSPost2010PropOp36
 70
     1
102
RTVSPost2010Prop37
 90
       50
102
RTVSPost2010PropOp37
 70
     1
102
RTVSPost2010Prop38
140
0.0
102
RTVSPost2010PropOp38
 70
     1
102
RTVSPost2010Prop39
140
1.0
102
RTVSPost2010PropOp39
 70
     1
102
RTVSPost2010Prop40
 90
        0
102
RTVSPost2010PropOp40
 70
     1
102
RTVSPost2010Prop41ColorIndex
 90
       18
102
RTVSPost2010Prop41ColorRGB
 90
        0
102
RTVSPost2010PropOp41
 70
     1
102
RTVSPost2010Prop42
 90
       50
102
RTVSPost2010PropOp42
 70
     1
102
RTVSPost2010Prop43
 90
        3
102
RTVSPost2010PropOp43
 70
     1
102
RTVSPost2010Prop44ColorIndex
 90
        5
102
RTVSPost2010Prop44ColorRGB
 90
      255
102
RTVSPost2010PropOp44
 70
     1
102
RTVSPost2010Prop45
280
     0
102
RTVSPost2010PropOp45
 70
     1
102
RTVSPost2010Prop46
 90
       50
102
RTVSPost2010PropOp46
 70
     1
102
RTVSPost2010Prop47
 90
       50
102
RTVSPost2010PropOp47
 70
     1
102
RTVSPost2010Prop48
 90
       50
102
RTVSPost2010PropOp48
 70
     1
102
RTVSPost2010Prop49
280
     0
102
RTVSPost2010PropOp49
 70
     1
102
RTVSPost2010Prop50
 90
       50
102
RTVSPost2010PropOp50
 70
     1
102
RTVSPost2010Prop51ColorIndex
 90
      256
102
RTVSPost2010Prop51ColorRGB
 90
-16777216
102
RTVSPost2010PropOp51
 70
     0
102
RTVSPost2010Prop52
140
1.0
102
RTVSPost2010PropOp52
 70
     0
102
RTVSPost2010Prop53
 90
        2
102
RTVSPost2010PropOp53
 70
     1
102
RTVSPost2010Prop54
  1
strokes_ogs.tif
102
RTVSPost2010PropOp54
 70
     1
102
RTVSPost2010Prop55
280
     0
102
RTVSPost2010PropOp55
 70
     1
102
RTVSPost2010Prop56
140
1.0
102
RTVSPost2010PropOp56
 70
     1
102
RTVSPost2010Prop57
140
1.0
102
RTVSPost2010PropOp57
 70
     1
102
RTVSPropertyOp0
 70
     1
102
RTVSPropertyOp1
 70
     1
102
RTVSPropertyOp2
 70
     1
102
RTVSPropertyOp3
 70
     1
102
RTVSPropertyOp4
 70
     1
102
RTVSPropertyOp5
 70
     1
102
RTVSPropertyOp6
 70
     1
102
RTVSPropertyOp7
 70
     1
102
RTVSPropertyOp8
 70
     1
102
RTVSPropertyOp9
 70
     1
102
RTVSPropertyOp10
 70
     1
102
RTVSPropertyOp11
 70
     1
102
RTVSPropertyOp12
 70
     1
102
RTVSPropertyOp13
 70
     1
102
RTVSPropertyOp14
 70
     1
102
RTVSPropertyOp15
 70
     1
102
RTVSPropertyOp16
 70
     1
102
RTVSPropertyOp17
 70
     1
102
RTVSPropertyOp18
 70
     1
102
RTVSPropertyOp19
 70
     1
102
RTVSPropertyOp20
 70
     1
102
RTVSPropertyOp21
 70
     1
102
RTVSPropertyOp22
 70
     1
102
RTVSPropertyOp23
 70
     1
102
RTVSPropertyOp24
 70
     1
102
RTVSPropertyOp25
 70
     1
102
RTVSPropertyOp26
 70
     1
102
RTVSPropertyOp27
 70
     1
102
RTVSPropertyOp28
 70
     1
102
RTVSPropertyOp29
 70
     1
102
RTVSPropertyOp30
 70
     1
102
RTVSPropertyOp31
 70
     1
102
RTVSPropertyOp32
 70
     1
102
RTVSPropertyOp33
 70
     1
102
RTVSPropertyOp34
 70
     1
102
RTVSPropertyOp35
 70
     1
102
RTVSPropertyOp36
 70
     1
102
RTVSPropertyOp37
 70
     1
102
RTVSPropertyOp38
 70
     1
102
RTVSPropertyOp39
 70
     1
102
RTVSPropertyOp40
 70
     1
102
RTVSPropertyOp41
 70
     1
102
RTVSPropertyOp42
 70
     1
102
RTVSPropertyOp43
 70
     1
102
RTVSPropertyOp44
 70
     1
102
RTVSPropertyOp45
 70
     1
102
RTVSPropertyOp46
 70
     1
102
RTVSPropertyOp47
 70
     1
102
RTVSPropertyOp48
 70
     1
102
RTVSPropertyOp49
 70
     1
102
RTVSPropertyOp50
 70
     1
102
RTVSPropertyOp51
 70
     0
102
RTVSPropertyOp52
 70
     0
102
RTVSPropertyOp53
 70
     1
102
RTVSPropertyOp54
 70
     1
102
RTVSPropertyOp55
 70
     1
102
RTVSPropertyOp56
 70
     1
102
RTVSPropertyOp57
 70
     1
102
RTVSPropertyOp58
 70
     1
102
RTVSPropertyOp59
 70
     1
102
RTVSPropertyOp60
 70
     1
102
RTVSPropertyOp61
 70
     1
102
RTVSPropertyOp62
 70
     1
  0
ENDSEC
  0
EOF
