  0
SECTION
  2
HEADER
  9
$ACADVER
  1
AC1015
  9
$ACADMAINTVER
 70
    20
  9
$DWGCODEPAGE
  3
ANSI_932
  9
$INSBASE
 10
0.0
 20
0.0
 30
0.0
  9
$EXTMIN
 10
10.0
 20
9.999999999999998
 30
0.0
  9
$EXTMAX
 10
448.3529459999998
 20
313.7797109999999
 30
0.0
  9
$LIMMIN
 10
0.0
 20
0.0
  9
$LIMMAX
 10
543.47
 20
374.6649239999999
  9
$ORTHOMODE
 70
     1
  9
$REGENMODE
 70
     1
  9
$FILLMODE
 70
     1
  9
$QTEXTMODE
 70
     0
  9
$MIRRTEXT
 70
     1
  9
$LTSCALE
 40
20.0
  9
$ATTMODE
 70
     1
  9
$TEXTSIZE
 40
5.0
  9
$TRACEWID
 40
1.0
  9
$TEXTSTYLE
  7
STANDARD
  9
$CLAYER
  8
0
  9
$CELTYPE
  6
BYLAYER
  9
$CECOLOR
 62
   256
  9
$CELTSCALE
 40
1.0
  9
$DISPSILH
 70
     0
  9
$DIMSCALE
 40
1.0
  9
$DIMASZ
 40
2.5
  9
$DIMEXO
 40
1.0
  9
$DIMDLI
 40
10.0
  9
$DIMRND
 40
0.0
  9
$DIMDLE
 40
0.0
  9
$DIMEXE
 40
1.0
  9
$DIMTP
 40
0.0
  9
$DIMTM
 40
0.0
  9
$DIMTXT
 40
3.2
  9
$DIMCEN
 40
0.0
  9
$DIMTSZ
 40
0.0
  9
$DIMTOL
 70
     0
  9
$DIMLIM
 70
     0
  9
$DIMTIH
 70
     0
  9
$DIMTOH
 70
     0
  9
$DIMSE1
 70
     0
  9
$DIMSE2
 70
     0
  9
$DIMTAD
 70
     3
  9
$DIMZIN
 70
     8
  9
$DIMBLK
  1

  9
$DIMASO
 70
     1
  9
$DIMSHO
 70
     1
  9
$DIMPOST
  1

  9
$DIMAPOST
  1

  9
$DIMALT
 70
     0
  9
$DIMALTD
 70
     2
  9
$DIMALTF
 40
25.4
  9
$DIMLFAC
 40
1.0
  9
$DIMTOFL
 70
     1
  9
$DIMTVP
 40
0.0
  9
$DIMTIX
 70
     0
  9
$DIMSOXD
 70
     0
  9
$DIMSAH
 70
     1
  9
$DIMBLK1
  1

  9
$DIMBLK2
  1

  9
$DIMSTYLE
  2
STANDARD
  9
$DIMCLRD
 70
     0
  9
$DIMCLRE
 70
     0
  9
$DIMCLRT
 70
     0
  9
$DIMTFAC
 40
1.0
  9
$DIMGAP
 40
1.0
  9
$DIMJUST
 70
     0
  9
$DIMSD1
 70
     0
  9
$DIMSD2
 70
     0
  9
$DIMTOLJ
 70
     1
  9
$DIMTZIN
 70
     0
  9
$DIMALTZ
 70
     0
  9
$DIMALTTZ
 70
     0
  9
$DIMUPT
 70
     0
  9
$DIMDEC
 70
     4
  9
$DIMTDEC
 70
     4
  9
$DIMALTU
 70
     2
  9
$DIMALTTD
 70
     2
  9
$DIMTXSTY
  7
STANDARD
  9
$DIMAUNIT
 70
     0
  9
$DIMADEC
 70
     0
  9
$DIMALTRND
 40
0.0
  9
$DIMAZIN
 70
     0
  9
$DIMDSEP
 70
    46
  9
$DIMATFIT
 70
     3
  9
$DIMFRAC
 70
     0
  9
$DIMLDRBLK
  1

  9
$DIMLUNIT
 70
     2
  9
$DIMLWD
 70
    -2
  9
$DIMLWE
 70
    -2
  9
$DIMTMOVE
 70
     0
  9
$LUNITS
 70
     2
  9
$LUPREC
 70
     4
  9
$SKETCHINC
 40
1.0
  9
$FILLETRAD
 40
0.0
  9
$AUNITS
 70
     0
  9
$AUPREC
 70
     2
  9
$MENU
  1
.
  9
$ELEVATION
 40
0.0
  9
$PELEVATION
 40
0.0
  9
$THICKNESS
 40
0.0
  9
$LIMCHECK
 70
     0
  9
$CHAMFERA
 40
10.0
  9
$CHAMFERB
 40
10.0
  9
$CHAMFERC
 40
0.0
  9
$CHAMFERD
 40
0.0
  9
$SKPOLY
 70
     0
  9
$TDCREATE
 40
2451301.434637500
  9
$TDUCREATE
 40
2451301.059637500
  9
$TDUPDATE
 40
2457192.690038542
  9
$TDUUPDATE
 40
2457192.315038542
  9
$TDINDWG
 40
0.0349258565
  9
$TDUSRTIMER
 40
0.0349255556
  9
$USRTIMER
 70
     1
  9
$ANGBASE
 50
0.0
  9
$ANGDIR
 70
     0
  9
$PDMODE
 70
     0
  9
$PDSIZE
 40
0.0
  9
$PLINEWID
 40
0.0
  9
$SPLFRAME
 70
     0
  9
$SPLINETYPE
 70
     6
  9
$SPLINESEGS
 70
     8
  9
$HANDSEED
  5
A1BD
  9
$SURFTAB1
 70
     6
  9
$SURFTAB2
 70
     6
  9
$SURFTYPE
 70
     6
  9
$SURFU
 70
     6
  9
$SURFV
 70
     6
  9
$UCSBASE
  2

  9
$UCSNAME
  2

  9
$UCSORG
 10
0.0
 20
0.0
 30
0.0
  9
$UCSXDIR
 10
1.0
 20
0.0
 30
0.0
  9
$UCSYDIR
 10
0.0
 20
1.0
 30
0.0
  9
$UCSORTHOREF
  2

  9
$UCSORTHOVIEW
 70
     0
  9
$UCSORGTOP
 10
0.0
 20
0.0
 30
0.0
  9
$UCSORGBOTTOM
 10
0.0
 20
0.0
 30
0.0
  9
$UCSORGLEFT
 10
0.0
 20
0.0
 30
0.0
  9
$UCSORGRIGHT
 10
0.0
 20
0.0
 30
0.0
  9
$UCSORGFRONT
 10
0.0
 20
0.0
 30
0.0
  9
$UCSORGBACK
 10
0.0
 20
0.0
 30
0.0
  9
$PUCSBASE
  2

  9
$PUCSNAME
  2

  9
$PUCSORG
 10
0.0
 20
0.0
 30
0.0
  9
$PUCSXDIR
 10
1.0
 20
0.0
 30
0.0
  9
$PUCSYDIR
 10
0.0
 20
1.0
 30
0.0
  9
$PUCSORTHOREF
  2

  9
$PUCSORTHOVIEW
 70
     0
  9
$PUCSORGTOP
 10
0.0
 20
0.0
 30
0.0
  9
$PUCSORGBOTTOM
 10
0.0
 20
0.0
 30
0.0
  9
$PUCSORGLEFT
 10
0.0
 20
0.0
 30
0.0
  9
$PUCSORGRIGHT
 10
0.0
 20
0.0
 30
0.0
  9
$PUCSORGFRONT
 10
0.0
 20
0.0
 30
0.0
  9
$PUCSORGBACK
 10
0.0
 20
0.0
 30
0.0
  9
$USERI1
 70
     0
  9
$USERI2
 70
     0
  9
$USERI3
 70
     0
  9
$USERI4
 70
     0
  9
$USERI5
 70
     0
  9
$USERR1
 40
0.0
  9
$USERR2
 40
0.0
  9
$USERR3
 40
0.0
  9
$USERR4
 40
0.0
  9
$USERR5
 40
0.0
  9
$WORLDVIEW
 70
     1
  9
$SHADEDGE
 70
     3
  9
$SHADEDIF
 70
    70
  9
$TILEMODE
 70
     1
  9
$MAXACTVP
 70
    16
  9
$PINSBASE
 10
0.0
 20
0.0
 30
0.0
  9
$PLIMCHECK
 70
     0
  9
$PEXTMIN
 10
1.000000000000000E+20
 20
1.000000000000000E+20
 30
1.000000000000000E+20
  9
$PEXTMAX
 10
-1.000000000000000E+20
 20
-1.000000000000000E+20
 30
-1.000000000000000E+20
  9
$PLIMMIN
 10
0.0
 20
0.0
  9
$PLIMMAX
 10
420.0
 20
297.0
  9
$UNITMODE
 70
     0
  9
$VISRETAIN
 70
     0
  9
$PLINEGEN
 70
     0
  9
$PSLTSCALE
 70
     0
  9
$TREEDEPTH
 70
  3020
  9
$CMLSTYLE
  2
STANDARD
  9
$CMLJUST
 70
     0
  9
$CMLSCALE
 40
1.0
  9
$PROXYGRAPHICS
 70
     1
  9
$MEASUREMENT
 70
     0
  9
$CELWEIGHT
370
    -1
  9
$ENDCAPS
280
     0
  9
$JOINSTYLE
280
     0
  9
$LWDISPLAY
290
     0
  9
$INSUNITS
 70
     0
  9
$HYPERLINKBASE
  1

  9
$STYLESHEET
  1

  9
$XEDIT
290
     1
  9
$CEPSNTYPE
380
     0
  9
$PSTYLEMODE
290
     1
  9
$FINGERPRINTGUID
  2
{75A46B03-E8CD-46FD-A3CA-7EB2BE86A0C3}
  9
$VERSIONGUID
  2
{0225C121-36F6-4922-BF44-AC60D206F0C5}
  9
$EXTNAMES
290
     1
  9
$PSVPSCALE
 40
0.0
  9
$OLESTARTUP
290
     0
  0
ENDSEC
  0
SECTION
  2
CLASSES
  0
CLASS
  1
ACDBDICTIONARYWDFLT
  2
AcDbDictionaryWithDefault
  3
ObjectDBX Classes
 90
        0
280
     0
281
     0
  0
CLASS
  1
ACDBPLACEHOLDER
  2
AcDbPlaceHolder
  3
ObjectDBX Classes
 90
        0
280
     0
281
     0
  0
CLASS
  1
LAYOUT
  2
AcDbLayout
  3
ObjectDBX Classes
 90
        0
280
     0
281
     0
  0
CLASS
  1
DICTIONARYVAR
  2
AcDbDictionaryVar
  3
ObjectDBX Classes
 90
        0
280
     0
281
     0
  0
CLASS
  1
MATERIAL
  2
AcDbMaterial
  3
ObjectDBX Classes
 90
     1153
280
     0
281
     0
  0
CLASS
  1
VISUALSTYLE
  2
AcDbVisualStyle
  3
ObjectDBX Classes
 90
     4095
280
     0
281
     0
  0
CLASS
  1
TABLESTYLE
  2
AcDbTableStyle
  3
ObjectDBX Classes
 90
     4095
280
     0
281
     0
  0
CLASS
  1
SCALE
  2
AcDbScale
  3
ObjectDBX Classes
 90
     1153
280
     0
281
     0
  0
CLASS
  1
MLEADERSTYLE
  2
AcDbMLeaderStyle
  3
ACDB_MLEADERSTYLE_CLASS
 90
     4095
280
     0
281
     0
  0
CLASS
  1
ACDBSECTIONVIEWSTYLE
  2
AcDbSectionViewStyle
  3
ObjectDBX Classes
 90
     1025
280
     0
281
     0
  0
CLASS
  1
ACDBDETAILVIEWSTYLE
  2
AcDbDetailViewStyle
  3
ObjectDBX Classes
 90
     1025
280
     0
281
     0
  0
CLASS
  1
CELLSTYLEMAP
  2
AcDbCellStyleMap
  3
ObjectDBX Classes
 90
     1152
280
     0
281
     0
  0
ENDSEC
  0
SECTION
  2
TABLES
  0
TABLE
  2
VPORT
  5
9DD8
330
0
100
AcDbSymbolTable
 70
     1
  0
VPORT
  5
A108
330
9DD8
100
AcDbSymbolTableRecord
100
AcDbViewportTableRecord
  2
*ACTIVE
 70
     0
 10
0.0
 20
0.0
 11
1.0
 21
1.0
 12
346.1042326627104
 22
161.8921107949888
 13
0.0
 23
0.0
 14
10.0
 24
10.0
 15
10.0
 25
10.0
 16
0.0
 26
0.0
 36
1.0
 17
0.0
 27
0.0
 37
0.0
 40
306.1962257557958
 41
2.35006605019815
 42
50.0
 43
0.0
 44
0.0
 50
0.0
 51
0.0
 71
     0
 72
   100
 73
     1
 74
     0
 75
     0
 76
     0
 77
     0
 78
     0
281
     0
 65
     1
110
0.0
120
0.0
130
0.0
111
1.0
121
0.0
131
0.0
112
0.0
122
1.0
132
0.0
 79
     0
146
0.0
1001
ACAD_NAV_VCDISPLAY
1070
     3
  0
ENDTAB
  0
TABLE
  2
LTYPE
  5
9DD5
330
0
100
AcDbSymbolTable
 70
     4
  0
LTYPE
  5
9DE3
330
9DD5
100
AcDbSymbolTableRecord
100
AcDbLinetypeTableRecord
  2
BYBLOCK
 70
     0
  3

 72
    65
 73
     0
 40
0.0
  0
LTYPE
  5
9DE4
330
9DD5
100
AcDbSymbolTableRecord
100
AcDbLinetypeTableRecord
  2
BYLAYER
 70
     0
  3

 72
    65
 73
     0
 40
0.0
  0
LTYPE
  5
9DE5
330
9DD5
100
AcDbSymbolTableRecord
100
AcDbLinetypeTableRecord
  2
CONTINUOUS
 70
     0
  3
Solid line
 72
    65
 73
     0
 40
0.0
  0
LTYPE
  5
9DF3
330
9DD5
100
AcDbSymbolTableRecord
100
AcDbLinetypeTableRecord
  2
DASHED
 70
     0
  3
__ __ __ __ __ __ __ __ __ __ __ __ __ __ __ __
 72
    65
 73
     2
 40
0.75
 49
0.5
 74
     0
 49
-0.25
 74
     0
  0
LTYPE
  5
9DF4
330
9DD5
100
AcDbSymbolTableRecord
100
AcDbLinetypeTableRecord
  2
CENTER
 70
     0
  3
____ _ ____ _ ____ _ ____ _ ____ _ ____ _ ____ 
 72
    65
 73
     4
 40
2.0
 49
1.25
 74
     0
 49
-0.25
 74
     0
 49
0.25
 74
     0
 49
-0.25
 74
     0
  0
LTYPE
  5
9DF5
330
9DD5
100
AcDbSymbolTableRecord
100
AcDbLinetypeTableRecord
  2
PHANTOM
 70
     0
  3
______  __  __  ______  __  __  ______  __  __ 
 72
    65
 73
     6
 40
2.5
 49
1.25
 74
     0
 49
-0.25
 74
     0
 49
0.25
 74
     0
 49
-0.25
 74
     0
 49
0.25
 74
     0
 49
-0.25
 74
     0
  0
ENDTAB
  0
TABLE
  2
LAYER
  5
9DD2
330
0
100
AcDbSymbolTable
 70
     8
  0
LAYER
  5
9DE0
102
{ACAD_XDICTIONARY
360
A161
102
}
330
9DD2
100
AcDbSymbolTableRecord
100
AcDbLayerTableRecord
  2
0
 70
     0
 62
     7
  6
CONTINUOUS
370
    -3
390
A10F
  0
LAYER
  5
9DF6
102
{ACAD_XDICTIONARY
360
A163
102
}
330
9DD2
100
AcDbSymbolTableRecord
100
AcDbLayerTableRecord
  2
4
 70
     0
 62
     1
  6
CENTER
370
    -3
390
A10F
  0
LAYER
  5
9DF7
102
{ACAD_XDICTIONARY
360
A165
102
}
330
9DD2
100
AcDbSymbolTableRecord
100
AcDbLayerTableRecord
  2
5
 70
     0
 62
     6
  6
PHANTOM
370
    -3
390
A10F
  0
LAYER
  5
9DF8
102
{ACAD_XDICTIONARY
360
A167
102
}
330
9DD2
100
AcDbSymbolTableRecord
100
AcDbLayerTableRecord
  2
1
 70
     0
 62
     7
  6
CONTINUOUS
370
    -3
390
A10F
  0
LAYER
  5
9DF9
102
{ACAD_XDICTIONARY
360
A169
102
}
330
9DD2
100
AcDbSymbolTableRecord
100
AcDbLayerTableRecord
  2
2
 70
     0
 62
     4
  6
CONTINUOUS
370
    -3
390
A10F
  0
LAYER
  5
9DFA
102
{ACAD_XDICTIONARY
360
A16B
102
}
330
9DD2
100
AcDbSymbolTableRecord
100
AcDbLayerTableRecord
  2
3
 70
     0
 62
     2
  6
DASHED
370
    -3
390
A10F
  0
LAYER
  5
9DFB
102
{ACAD_XDICTIONARY
360
A16D
102
}
330
9DD2
100
AcDbSymbolTableRecord
100
AcDbLayerTableRecord
  2
6
 70
     0
 62
     5
  6
CONTINUOUS
370
    -3
390
A10F
  0
LAYER
  5
9DFC
102
{ACAD_XDICTIONARY
360
A16F
102
}
330
9DD2
100
AcDbSymbolTableRecord
100
AcDbLayerTableRecord
  2
7
 70
     0
 62
     3
  6
CONTINUOUS
370
    -3
390
A10F
  0
ENDTAB
  0
TABLE
  2
STYLE
  5
9DD3
330
0
100
AcDbSymbolTable
 70
     1
  0
STYLE
  5
9DE1
330
9DD3
100
AcDbSymbolTableRecord
100
AcDbTextStyleTableRecord
  2
STANDARD
 70
     0
 40
0.0
 41
1.0
 50
0.0
 71
     0
 42
5.0
  3
txt
  4

  0
ENDTAB
  0
TABLE
  2
VIEW
  5
9DD6
330
0
100
AcDbSymbolTable
 70
     0
  0
ENDTAB
  0
TABLE
  2
UCS
  5
9DD7
330
0
100
AcDbSymbolTable
 70
     0
  0
ENDTAB
  0
TABLE
  2
APPID
  5
9DD9
330
0
100
AcDbSymbolTable
 70
     3
  0
APPID
  5
9DE2
330
9DD9
100
AcDbSymbolTableRecord
100
AcDbRegAppTableRecord
  2
ACAD
 70
     0
  0
APPID
  5
A17B
330
9DD9
100
AcDbSymbolTableRecord
100
AcDbRegAppTableRecord
  2
ACAD_NAV_VCDISPLAY
 70
     0
  0
APPID
  5
A1B4
330
9DD9
100
AcDbSymbolTableRecord
100
AcDbRegAppTableRecord
  2
ACAD_MLEADERVER
 70
     0
  0
ENDTAB
  0
TABLE
  2
DIMSTYLE
  5
9DDA
330
0
100
AcDbSymbolTable
 70
     1
100
AcDbDimStyleTable
 71
     0
  0
DIMSTYLE
105
9DFE
330
9DDA
100
AcDbSymbolTableRecord
100
AcDbDimStyleTableRecord
  2
STANDARD
 70
     0
 41
2.5
 42
1.0
 43
10.0
 44
1.0
 73
     0
 74
     0
 77
     3
 78
     8
140
3.2
141
0.0
147
1.0
172
     1
173
     1
284
     8
285
     8
286
     8
340
9DE1
  0
ENDTAB
  0
TABLE
  2
BLOCK_RECORD
  5
9DD1
330
0
100
AcDbSymbolTable
 70
     0
  0
BLOCK_RECORD
  5
9DEE
102
{ACAD_XDICTIONARY
360
A0EB
102
}
330
9DD1
100
AcDbSymbolTableRecord
100
AcDbBlockTableRecord
  2
*MODEL_SPACE
340
A15D
  0
BLOCK_RECORD
  5
9DEA
102
{ACAD_XDICTIONARY
360
A0E9
102
}
330
9DD1
100
AcDbSymbolTableRecord
100
AcDbBlockTableRecord
  2
*PAPER_SPACE
340
A15E
  0
ENDTAB
  0
ENDSEC
  0
SECTION
  2
BLOCKS
  0
BLOCK
  5
9DEF
330
9DEE
100
AcDbEntity
  8
0
100
AcDbBlockBegin
  2
*MODEL_SPACE
 70
     0
 10
0.0
 20
0.0
 30
0.0
  3
*MODEL_SPACE
  1

  0
ENDBLK
  5
9DF0
330
9DEE
100
AcDbEntity
  8
0
100
AcDbBlockEnd
  0
BLOCK
  5
9DEB
330
9DEA
100
AcDbEntity
 67
     1
  8
0
100
AcDbBlockBegin
  2
*PAPER_SPACE
 70
     0
 10
0.0
 20
0.0
 30
0.0
  3
*PAPER_SPACE
  1

  0
ENDBLK
  5
9DEC
330
9DEA
100
AcDbEntity
 67
     1
  8
0
100
AcDbBlockEnd
  0
ENDSEC
  0
SECTION
  2
ENTITIES
  0
TEXT
  5
9E06
330
9DEE
100
AcDbEntity
  8
7
  6
Continuous
100
AcDbText
 10
10.0
 20
18.0
 30
0.0
 40
3.0
  1
TYPE No.TCA-415E-R75
100
AcDbText
  0
TEXT
  5
9E07
330
9DEE
100
AcDbEntity
  8
7
  6
Continuous
100
AcDbText
 10
10.0
 20
26.0
 30
0.0
 40
3.0
  1
CODE No.9754
100
AcDbText
  0
TEXT
  5
9E08
330
9DEE
100
AcDbEntity
  8
1
  6
Continuous
100
AcDbText
 10
10.0
 20
10.0
 30
0.0
 40
1.399999999999999
  1
LAYER
100
AcDbText
  0
TEXT
  5
9E09
330
9DEE
100
AcDbEntity
  8
1
  6
Continuous
100
AcDbText
 10
17.97951099999998
 20
10.04873699999998
 30
0.0
 40
1.399999999999999
  1
1
100
AcDbText
  0
TEXT
  5
9E0A
330
9DEE
100
AcDbEntity
  8
7
  6
Continuous
100
AcDbText
 10
29.97951099999999
 20
10.04873699999998
 30
0.0
 40
1.399999999999999
  1
7
100
AcDbText
  0
TEXT
  5
9E0B
330
9DEE
100
AcDbEntity
  8
4
  6
CENTER
100
AcDbText
 10
23.97951099999999
 20
10.04873699999998
 30
0.0
 40
1.399999999999999
  1
4
100
AcDbText
  0
TEXT
  5
9E0C
330
9DEE
100
AcDbEntity
  8
3
  6
DASHED
100
AcDbText
 10
21.979511
 20
10.04873699999998
 30
0.0
 40
1.399999999999999
  1
3
100
AcDbText
  0
TEXT
  5
9E0D
330
9DEE
100
AcDbEntity
  8
2
  6
Continuous
100
AcDbText
 10
19.97951099999998
 20
10.04873699999998
 30
0.0
 40
1.399999999999999
  1
2
100
AcDbText
  0
TEXT
  5
9E0E
330
9DEE
100
AcDbEntity
  8
6
  6
Continuous
100
AcDbText
 10
27.979511
 20
10.04873699999998
 30
0.0
 40
1.399999999999999
  1
6
100
AcDbText
  0
TEXT
  5
9E0F
330
9DEE
100
AcDbEntity
  8
5
  6
PHANTOM
100
AcDbText
 10
25.97951099999999
 20
10.04873699999998
 30
0.0
 40
1.399999999999999
  1
5
100
AcDbText
  0
LINE
  5
9E10
330
9DEE
100
AcDbEntity
  8
4
  6
CENTER
 48
0.5
100
AcDbLine
 10
179.852946
 20
229.2797109999999
 30
0.0
 11
179.852946
 21
187.4330389999999
 31
0.0
  0
LINE
  5
9E11
330
9DEE
100
AcDbEntity
  8
4
  6
CENTER
 48
0.5
100
AcDbLine
 10
108.352946
 20
169.7797109999999
 30
0.0
 11
193.352946
 21
169.7797109999999
 31
0.0
  0
LINE
  5
9E12
330
9DEE
100
AcDbEntity
  8
4
  6
CENTER
 48
0.5
100
AcDbLine
 10
150.852946
 20
207.831686
 30
0.0
 11
150.852946
 21
127.279711
 31
0.0
  0
LINE
  5
9E13
330
9DEE
100
AcDbEntity
  8
4
  6
CENTER
 48
0.5
100
AcDbLine
 10
49.852946
 20
229.433043
 30
0.0
 11
49.852946
 21
127.279711
 31
0.0
  0
LINE
  5
9E14
330
9DEE
100
AcDbEntity
  8
4
  6
CENTER
 48
0.5
100
AcDbLine
 10
27.35486296280786
 20
169.7797109999999
 30
0.0
 11
81.55294599999997
 21
169.7797109999999
 31
0.0
  0
LINE
  5
9E15
330
9DEE
100
AcDbEntity
  8
1
  6
Continuous
100
AcDbLine
 10
70.352946
 20
175.379706
 30
0.0
 11
73.55294599999997
 21
175.379706
 31
0.0
  0
LINE
  5
9E16
330
9DEE
100
AcDbEntity
  8
1
  6
Continuous
100
AcDbLine
 10
70.352946
 20
172.779708
 30
0.0
 11
73.55294599999997
 21
172.779708
 31
0.0
  0
LINE
  5
9E17
330
9DEE
100
AcDbEntity
  8
1
  6
Continuous
100
AcDbLine
 10
74.55294599999998
 20
173.579711
 30
0.0
 11
74.55294599999998
 21
165.9797129999998
 31
0.0
  0
LINE
  5
9E18
330
9DEE
100
AcDbEntity
  8
1
  6
Continuous
100
AcDbLine
 10
70.352946
 20
164.1797099999998
 30
0.0
 11
73.55294599999997
 21
164.1797099999998
 31
0.0
  0
LINE
  5
9E19
330
9DEE
100
AcDbEntity
  8
1
  6
Continuous
100
AcDbLine
 10
70.42974599999998
 20
166.7797079999999
 30
0.0
 11
73.55294599999997
 21
166.7797079999999
 31
0.0
  0
LINE
  5
9E1A
330
9DEE
100
AcDbEntity
  8
1
  6
Continuous
100
AcDbLine
 10
74.55295600000003
 20
165.979625
 30
0.0
 11
73.55295600000002
 21
164.179702
 31
0.0
  0
LINE
  5
9E1B
330
9DEE
100
AcDbEntity
  8
1
  6
Continuous
100
AcDbLine
 10
74.55295600000003
 20
173.5797419999999
 30
0.0
 11
73.55295600000002
 21
175.3797139999998
 31
0.0
  0
LINE
  5
9E1C
330
9DEE
100
AcDbEntity
  8
4
  6
CENTER
100
AcDbLine
 10
212.852946
 20
301.7797109999999
 30
0.0
 11
202.852946
 21
301.7797109999999
 31
0.0
  0
LINE
  5
9E1D
330
9DEE
100
AcDbEntity
  8
4
  6
CENTER
100
AcDbLine
 10
207.8529459999999
 20
306.7797109999998
 30
0.0
 11
207.8529459999999
 21
296.7797109999997
 31
0.0
  0
LINE
  5
9E1E
330
9DEE
100
AcDbEntity
  8
4
  6
CENTER
 48
0.5
100
AcDbLine
 10
179.852946
 20
313.7797109999999
 30
0.0
 11
179.852946
 21
253.0797109999999
 31
0.0
  0
LINE
  5
9E1F
330
9DEE
100
AcDbEntity
  8
4
  6
CENTER
 48
0.5
100
AcDbLine
 10
217.4808599999999
 20
287.7797109999999
 30
0.0
 11
108.352946
 21
287.7797109999999
 31
0.0
  0
LINE
  5
9E20
330
9DEE
100
AcDbEntity
  8
4
  6
CENTER
100
AcDbLine
 10
212.852946
 20
273.7797069999999
 30
0.0
 11
202.852946
 21
273.7797069999999
 31
0.0
  0
LINE
  5
9E21
330
9DEE
100
AcDbEntity
  8
4
  6
CENTER
100
AcDbLine
 10
207.8529459999999
 20
268.7797109999999
 30
0.0
 11
207.8529459999999
 21
278.7797109999999
 31
0.0
  0
LINE
  5
9E22
330
9DEE
100
AcDbEntity
  8
1
  6
Continuous
100
AcDbLine
 10
151.852946
 20
308.7797109999999
 30
0.0
 11
207.8529459999999
 21
308.7797109999999
 31
0.0
  0
LINE
  5
9E23
330
9DEE
100
AcDbEntity
  8
4
  6
CENTER
100
AcDbLine
 10
146.852946
 20
301.7797109999999
 30
0.0
 11
156.8529419999999
 21
301.7797109999999
 31
0.0
  0
LINE
  5
9E24
330
9DEE
100
AcDbEntity
  8
4
  6
CENTER
100
AcDbLine
 10
151.852946
 20
306.7797109999998
 30
0.0
 11
151.852946
 21
296.7797029999998
 31
0.0
  0
LINE
  5
9E25
330
9DEE
100
AcDbEntity
  8
1
  6
Continuous
100
AcDbLine
 10
151.8529499999999
 20
266.7797109999999
 30
0.0
 11
207.8529459999999
 21
266.7797109999999
 31
0.0
  0
LINE
  5
9E26
330
9DEE
100
AcDbEntity
  8
4
  6
CENTER
100
AcDbLine
 10
146.852946
 20
273.7797069999999
 30
0.0
 11
156.852946
 21
273.7797069999999
 31
0.0
  0
LINE
  5
9E27
330
9DEE
100
AcDbEntity
  8
4
  6
CENTER
100
AcDbLine
 10
151.852946
 20
268.7797069999999
 30
0.0
 11
151.852946
 21
278.7797029999999
 31
0.0
  0
LINE
  5
9E28
330
9DEE
100
AcDbEntity
  8
1
  6
Continuous
100
AcDbLine
 10
28.85294599999999
 20
224.279711
 30
0.0
 11
70.852946
 21
224.279711
 31
0.0
  0
LINE
  5
9E29
330
9DEE
100
AcDbEntity
  8
1
  6
Continuous
100
AcDbLine
 10
28.85294599999999
 20
222.279711
 30
0.0
 11
70.852946
 21
222.279711
 31
0.0
  0
LINE
  5
9E2A
330
9DEE
100
AcDbEntity
  8
1
  6
Continuous
100
AcDbLine
 10
33.05294599999999
 20
218.9797079999999
 30
0.0
 11
66.65295
 21
218.9797079999999
 31
0.0
  0
LINE
  5
9E2B
330
9DEE
100
AcDbEntity
  8
1
  6
Continuous
100
AcDbLine
 10
30.795486
 20
220.840016
 30
0.0
 11
30.593846
 21
221.87531
 31
0.0
  0
LINE
  5
9E2C
330
9DEE
100
AcDbEntity
  8
1
  6
Continuous
100
AcDbLine
 10
68.91054
 20
220.839993
 30
0.0
 11
69.112185
 21
221.8752869999999
 31
0.0
  0
LINE
  5
9E2D
330
9DEE
100
AcDbEntity
  8
1
  6
Continuous
100
AcDbLine
 10
144.852946
 20
224.279711
 30
0.0
 11
214.852946
 21
224.279711
 31
0.0
  0
LINE
  5
9E2E
330
9DEE
100
AcDbEntity
  8
1
  6
Continuous
100
AcDbLine
 10
144.852946
 20
222.279718
 30
0.0
 11
144.852946
 21
224.279718
 31
0.0
  0
LINE
  5
9E2F
330
9DEE
100
AcDbEntity
  8
1
  6
Continuous
100
AcDbLine
 10
144.852946
 20
222.279711
 30
0.0
 11
214.852946
 21
222.279711
 31
0.0
  0
LINE
  5
9E30
330
9DEE
100
AcDbEntity
  8
1
  6
Continuous
100
AcDbLine
 10
163.0529429999999
 20
218.9797079999999
 30
0.0
 11
196.65295
 21
218.9797079999999
 31
0.0
  0
LINE
  5
9E31
330
9DEE
100
AcDbEntity
  8
1
  6
Continuous
100
AcDbLine
 10
160.7953699999999
 20
220.8400039999999
 30
0.0
 11
160.593727
 21
221.875298
 31
0.0
  0
LINE
  5
9E32
330
9DEE
100
AcDbEntity
  8
1
  6
Continuous
100
AcDbLine
 10
214.852946
 20
222.2797029999999
 30
0.0
 11
214.852946
 21
224.279711
 31
0.0
  0
LINE
  5
9E33
330
9DEE
100
AcDbEntity
  8
1
  6
Continuous
100
AcDbLine
 10
198.910498
 20
220.8399959999999
 30
0.0
 11
199.1121429999998
 21
221.8752899999997
 31
0.0
  0
LINE
  5
9E34
330
9DEE
100
AcDbEntity
  8
4
  6
CENTER
100
AcDbLine
 10
151.852946
 20
219.7797109999999
 30
0.0
 11
151.852946
 21
226.779711
 31
0.0
  0
LINE
  5
9E35
330
9DEE
100
AcDbEntity
  8
4
  6
CENTER
100
AcDbLine
 10
207.8529459999999
 20
219.7797109999999
 30
0.0
 11
207.8529459999999
 21
226.779711
 31
0.0
  0
LINE
  5
9E36
330
9DEE
100
AcDbEntity
  8
1
  6
Continuous
100
AcDbLine
 10
28.85294599999999
 20
224.279711
 30
0.0
 11
28.85294599999999
 21
222.279711
 31
0.0
  0
LINE
  5
9E37
330
9DEE
100
AcDbEntity
  8
1
  6
Continuous
100
AcDbLine
 10
70.852946
 20
224.279711
 30
0.0
 11
70.852946
 21
222.279711
 31
0.0
  0
LINE
  5
9E38
330
9DEE
100
AcDbEntity
  8
4
  6
CENTER
100
AcDbLine
 10
35.852946
 20
226.779711
 30
0.0
 11
35.852946
 21
219.7797109999999
 31
0.0
  0
LINE
  5
9E39
330
9DEE
100
AcDbEntity
  8
4
  6
CENTER
100
AcDbLine
 10
63.85294599999999
 20
226.779711
 30
0.0
 11
63.85294599999999
 21
219.7797109999999
 31
0.0
  0
LINE
  5
9E3A
330
9DEE
100
AcDbEntity
  8
1
  6
Continuous
100
AcDbLine
 10
163.8529459999998
 20
218.17971
 30
0.0
 11
195.852946
 21
218.17971
 31
0.0
  0
LINE
  5
9E3B
330
9DEE
100
AcDbEntity
  8
1
  6
Continuous
100
AcDbLine
 10
143.352946
 20
212.22346
 30
0.0
 11
163.665803
 21
215.8051649999999
 31
0.0
  0
LINE
  5
9E3C
330
9DEE
100
AcDbEntity
  8
1
  6
Continuous
100
AcDbLine
 10
143.7002379999998
 20
210.253844
 30
0.0
 11
147.0215419999999
 21
210.8394799999999
 31
0.0
  0
LINE
  5
9E3D
330
9DEE
100
AcDbEntity
  8
1
  6
Continuous
100
AcDbLine
 10
195.1760779999999
 20
209.7501199999999
 30
0.0
 11
198.852946
 21
210.1473069999999
 31
0.0
  0
LINE
  5
9E3E
330
9DEE
100
AcDbEntity
  8
1
  6
Continuous
100
AcDbLine
 10
143.352947
 20
212.2234579999999
 30
0.0
 11
143.700244
 21
210.253841
 31
0.0
  0
LINE
  5
9E3F
330
9DEE
100
AcDbEntity
  8
1
  6
Continuous
100
AcDbLine
 10
166.852946
 20
215.279736
 30
0.0
 11
166.852946
 21
180.212679
 31
0.0
  0
LINE
  5
9E40
330
9DEE
100
AcDbEntity
  8
1
  6
Continuous
100
AcDbLine
 10
146.6742469999998
 20
212.809095
 30
0.0
 11
147.0215429999998
 21
210.8394799999999
 31
0.0
  0
LINE
  5
9E41
330
9DEE
100
AcDbEntity
  8
1
  6
Continuous
100
AcDbLine
 10
33.852946
 20
218.17971
 30
0.0
 11
65.852946
 21
218.17971
 31
0.0
  0
LINE
  5
9E42
330
9DEE
100
AcDbEntity
  8
1
  6
Continuous
100
AcDbLine
 10
34.852946
 20
160.8797089999999
 30
0.0
 11
36.85294600000001
 21
160.8797089999999
 31
0.0
  0
LINE
  5
9E43
330
9DEE
100
AcDbEntity
  8
1
  6
Continuous
100
AcDbLine
 10
36.85294600000001
 20
210.5394759999998
 30
0.0
 11
36.85294600000001
 21
177.0441769999999
 31
0.0
  0
LINE
  5
9E44
330
9DEE
100
AcDbEntity
  8
1
  6
Continuous
100
AcDbLine
 10
34.852946
 20
211.379646
 30
0.0
 11
34.852946
 21
160.8797089999999
 31
0.0
  0
LINE
  5
9E45
330
9DEE
100
AcDbEntity
  8
1
  6
Continuous
100
AcDbLine
 10
64.852946
 20
211.379646
 30
0.0
 11
64.852946
 21
154.55668
 31
0.0
  0
LINE
  5
9E46
330
9DEE
100
AcDbEntity
  8
1
  6
Continuous
100
AcDbLine
 10
62.852946
 20
210.5394759999998
 30
0.0
 11
62.852946
 21
186.0305239999999
 31
0.0
  0
LINE
  5
9E47
330
9DEE
100
AcDbEntity
  8
1
  6
Continuous
100
AcDbLine
 10
64.852946
 20
160.8797089999999
 30
0.0
 11
62.852946
 21
160.8797089999999
 31
0.0
  0
LINE
  5
9E48
330
9DEE
100
AcDbEntity
  8
1
  6
Continuous
100
AcDbLine
 10
32.35152699999999
 20
173.077696
 30
0.0
 11
32.358203
 21
166.477698
 31
0.0
  0
LINE
  5
9E49
330
9DEE
100
AcDbEntity
  8
1
  6
Continuous
100
AcDbLine
 10
34.86024
 20
164.479708
 30
0.0
 11
34.35821
 21
164.479708
 31
0.0
  0
LINE
  5
9E4A
330
9DEE
100
AcDbEntity
  8
1
  6
Continuous
100
AcDbLine
 10
34.849513
 20
175.0797099999997
 30
0.0
 11
34.35154199999999
 21
175.0797099999997
 31
0.0
  0
LINE
  5
9E4B
330
9DEE
100
AcDbEntity
  8
1
  6
Continuous
100
AcDbLine
 10
39.352946
 20
135.038309
 30
0.0
 11
39.352946
 21
204.5211129999999
 31
0.0
  0
LINE
  5
9E4C
330
9DEE
100
AcDbEntity
  8
1
  6
Continuous
100
AcDbLine
 10
61.85294599999998
 20
160.0297109999999
 30
0.0
 11
61.85294599999998
 21
160.979711
 31
0.0
  0
LINE
  5
9E4D
330
9DEE
100
AcDbEntity
  8
1
  6
Continuous
100
AcDbLine
 10
60.352946
 20
159.0297109999999
 30
0.0
 11
60.852946
 21
159.0297109999999
 31
0.0
  0
LINE
  5
9E4E
330
9DEE
100
AcDbEntity
  8
1
  6
Continuous
100
AcDbLine
 10
60.352946
 20
135.038309
 30
0.0
 11
60.352946
 21
204.5211129999999
 31
0.0
  0
LINE
  5
9E4F
330
9DEE
100
AcDbEntity
  8
1
  6
Continuous
100
AcDbLine
 10
60.352946
 20
180.5297109999999
 30
0.0
 11
60.852946
 21
180.5297109999999
 31
0.0
  0
LINE
  5
9E50
330
9DEE
100
AcDbEntity
  8
1
  6
Continuous
100
AcDbLine
 10
61.85294599999998
 20
173.0297109999999
 30
0.0
 11
62.852946
 21
173.0297109999999
 31
0.0
  0
LINE
  5
9E51
330
9DEE
100
AcDbEntity
  8
1
  6
Continuous
100
AcDbLine
 10
61.85294599999998
 20
166.529711
 30
0.0
 11
62.852946
 21
166.529711
 31
0.0
  0
LINE
  5
9E52
330
9DEE
100
AcDbEntity
  8
1
  6
Continuous
100
AcDbLine
 10
147.0215409999999
 20
210.839493
 30
0.0
 11
144.474919
 21
183.115304
 31
0.0
  0
LINE
  5
9E53
330
9DEE
100
AcDbEntity
  8
1
  6
Continuous
100
AcDbLine
 10
164.0526869999999
 20
173.462758
 30
0.0
 11
189.705554
 21
206.688705
 31
0.0
  0
ARC
  5
9E54
330
9DEE
100
AcDbEntity
  8
1
  6
Continuous
100
AcDbCircle
 10
68.440446
 20
165.4797049999999
 30
0.0
 40
2.3125
100
AcDbArc
 50
325.794488
 51
34.20540799999999
  0
ARC
  5
9E55
330
9DEE
100
AcDbEntity
  8
1
  6
Continuous
100
AcDbCircle
 10
59.30294700000001
 20
169.7797089999999
 30
0.0
 40
11.450001
100
AcDbArc
 50
344.810718
 51
15.18928299999999
  0
ARC
  5
9E56
330
9DEE
100
AcDbEntity
  8
1
  6
Continuous
100
AcDbCircle
 10
68.44044699999999
 20
174.079711
 30
0.0
 40
2.3125
100
AcDbArc
 50
325.794548
 51
34.205459
  0
ARC
  5
9E57
330
9DEE
100
AcDbEntity
  8
1
  6
Continuous
100
AcDbCircle
 10
71.640446
 20
174.079711
 30
0.0
 40
2.312498999999998
100
AcDbArc
 50
325.79457
 51
34.20545
  0
ARC
  5
9E58
330
9DEE
100
AcDbEntity
  8
1
  6
Continuous
100
AcDbCircle
 10
62.502946
 20
169.7797079999999
 30
0.0
 40
11.44999799999999
100
AcDbArc
 50
344.8107499999999
 51
15.18927
  0
ARC
  5
9E59
330
9DEE
100
AcDbEntity
  8
1
  6
Continuous
100
AcDbCircle
 10
71.640446
 20
165.4797129999998
 30
0.0
 40
2.312498999999998
100
AcDbArc
 50
325.79457
 51
34.20545
  0
ARC
  5
9E5A
330
9DEE
100
AcDbEntity
  8
1
  6
Continuous
100
AcDbCircle
 10
207.8529459999999
 20
301.7797109999999
 30
0.0
 40
7.0
100
AcDbArc
 50
340.76692
 51
89.99996800000003
  0
CIRCLE
  5
9E5B
330
9DEE
100
AcDbEntity
  8
1
  6
Continuous
100
AcDbCircle
 10
207.8529459999999
 20
301.7797109999999
 30
0.0
 40
3.25
  0
ARC
  5
9E5C
330
9DEE
100
AcDbEntity
  8
1
  6
Continuous
100
AcDbCircle
 10
207.8529459999999
 20
273.7797109999998
 30
0.0
 40
7.0
100
AcDbArc
 50
270.0
 51
19.233055
  0
ARC
  5
9E5D
330
9DEE
100
AcDbEntity
  8
1
  6
Continuous
100
AcDbCircle
 10
247.9808559999999
 20
287.7797189999999
 30
0.0
 40
35.49999600000001
100
AcDbArc
 50
160.7508329999998
 51
199.23307
  0
CIRCLE
  5
9E5E
330
9DEE
100
AcDbEntity
  8
1
  6
Continuous
100
AcDbCircle
 10
207.8529459999999
 20
273.7797109999998
 30
0.0
 40
3.25
  0
ARC
  5
9E5F
330
9DEE
100
AcDbEntity
  8
1
  6
Continuous
100
AcDbCircle
 10
151.852946
 20
301.779703
 30
0.0
 40
7.0
100
AcDbArc
 50
89.99998199999996
 51
199.23301
  0
CIRCLE
  5
9E60
330
9DEE
100
AcDbEntity
  8
1
  6
Continuous
100
AcDbCircle
 10
151.852946
 20
301.7797109999999
 30
0.0
 40
3.25
  0
ARC
  5
9E61
330
9DEE
100
AcDbEntity
  8
1
  6
Continuous
100
AcDbCircle
 10
151.8529499999999
 20
273.7797109999998
 30
0.0
 40
7.0
100
AcDbArc
 50
160.76689
 51
269.99995
  0
ARC
  5
9E62
330
9DEE
100
AcDbEntity
  8
1
  6
Continuous
100
AcDbCircle
 10
111.725032
 20
287.7797029999998
 30
0.0
 40
35.49999600000001
100
AcDbArc
 50
340.7668799999999
 51
19.241066
  0
CIRCLE
  5
9E63
330
9DEE
100
AcDbEntity
  8
1
  6
Continuous
100
AcDbCircle
 10
151.852946
 20
273.7797029999999
 30
0.0
 40
3.25
  0
CIRCLE
  5
9E64
330
9DEE
100
AcDbEntity
  8
1
  6
Continuous
100
AcDbCircle
 10
179.852946
 20
287.7797109999999
 30
0.0
 40
17.25
  0
CIRCLE
  5
9E65
330
9DEE
100
AcDbEntity
  8
1
  6
Continuous
100
AcDbCircle
 10
179.852946
 20
287.7797109999999
 30
0.0
 40
15.75
  0
CIRCLE
  5
9E66
330
9DEE
100
AcDbEntity
  8
1
  6
Continuous
100
AcDbCircle
 10
179.852946
 20
287.7797109999999
 30
0.0
 40
8.3
  0
CIRCLE
  5
9E67
330
9DEE
100
AcDbEntity
  8
1
  6
Continuous
100
AcDbCircle
 10
179.852946
 20
287.7797109999999
 30
0.0
 40
6.75
  0
ARC
  5
9E68
330
9DEE
100
AcDbEntity
  8
1
  6
Continuous
100
AcDbCircle
 10
57.314265
 20
219.3242129999999
 30
0.0
 40
1.984499999999996
100
AcDbArc
 50
324.7796799999998
 51
350.00299
  0
ARC
  5
9E69
330
9DEE
100
AcDbEntity
  8
1
  6
Continuous
100
AcDbCircle
 10
45.932322
 20
219.3242129999999
 30
0.0
 40
1.984499999999996
100
AcDbArc
 50
324.7796799999998
 51
350.0030499999998
  0
ARC
  5
9E6A
330
9DEE
100
AcDbEntity
  8
1
  6
Continuous
100
AcDbCircle
 10
175.9323219999999
 20
219.3242129999999
 30
0.0
 40
1.984499999999996
100
AcDbArc
 50
324.7797499999998
 51
350.0030499999998
  0
ARC
  5
9E6B
330
9DEE
100
AcDbEntity
  8
1
  6
Continuous
100
AcDbCircle
 10
53.77356999999999
 20
219.3242129999999
 30
0.0
 40
1.984499999999996
100
AcDbArc
 50
324.7796799999998
 51
350.00299
  0
ARC
  5
9E6C
330
9DEE
100
AcDbEntity
  8
1
  6
Continuous
100
AcDbCircle
 10
42.391626
 20
219.3242129999999
 30
0.0
 40
1.984499999999996
100
AcDbArc
 50
324.7796799999998
 51
333.1367799999998
  0
ARC
  5
9E6D
330
9DEE
100
AcDbEntity
  8
1
  6
Continuous
100
AcDbCircle
 10
172.391627
 20
219.3242129999999
 30
0.0
 40
1.984499999999996
100
AcDbArc
 50
324.7797499999998
 51
333.1367799999998
  0
ARC
  5
9E6E
330
9DEE
100
AcDbEntity
  8
1
  6
Continuous
100
AcDbCircle
 10
30.10294599999999
 20
221.7797109999999
 30
0.0
 40
0.5
100
AcDbArc
 50
11.021507
 51
90.00000900000001
  0
ARC
  5
9E6F
330
9DEE
100
AcDbEntity
  8
1
  6
Continuous
100
AcDbCircle
 10
33.03852599999999
 20
221.7796729999998
 30
0.0
 40
2.799999999999998
100
AcDbArc
 50
270.00002
 51
271.65221
  0
ARC
  5
9E70
330
9DEE
100
AcDbEntity
  8
1
  6
Continuous
100
AcDbCircle
 10
33.05294599999999
 20
221.2797109999999
 30
0.0
 40
2.299999999999998
100
AcDbArc
 50
191.02148
 51
269.9999899999999
  0
ARC
  5
9E71
330
9DEE
100
AcDbEntity
  8
1
  6
Continuous
100
AcDbCircle
 10
69.602946
 20
221.7797109999999
 30
0.0
 40
0.5
100
AcDbArc
 50
89.999955
 51
168.97846
  0
ARC
  5
9E72
330
9DEE
100
AcDbEntity
  8
1
  6
Continuous
100
AcDbCircle
 10
66.65294899999999
 20
221.2797109999999
 30
0.0
 40
2.299999999999998
100
AcDbArc
 50
270.00002
 51
348.9785299999998
  0
ARC
  5
9E73
330
9DEE
100
AcDbEntity
  8
1
  6
Continuous
100
AcDbCircle
 10
53.77356999999999
 20
219.3242129999999
 30
0.0
 40
1.984499999999996
100
AcDbArc
 50
189.9969899999999
 51
215.2202999999999
  0
ARC
  5
9E74
330
9DEE
100
AcDbEntity
  8
1
  6
Continuous
100
AcDbCircle
 10
49.852946
 20
219.3242129999999
 30
0.0
 40
1.984499999999996
100
AcDbArc
 50
324.7796799999998
 51
350.00299
  0
ARC
  5
9E75
330
9DEE
100
AcDbEntity
  8
1
  6
Continuous
100
AcDbCircle
 10
57.314265
 20
219.3242129999999
 30
0.0
 40
1.984499999999996
100
AcDbArc
 50
206.86325
 51
215.2202999999999
  0
ARC
  5
9E76
330
9DEE
100
AcDbEntity
  8
1
  6
Continuous
100
AcDbCircle
 10
60.13193000000001
 20
219.3242129999999
 30
0.0
 40
1.984499999999996
100
AcDbArc
 50
324.77981
 51
350.00299
  0
ARC
  5
9E77
330
9DEE
100
AcDbEntity
  8
1
  6
Continuous
100
AcDbCircle
 10
61.95353199999999
 20
219.3242129999999
 30
0.0
 40
1.984499999999996
100
AcDbArc
 50
324.7797499999998
 51
350.00299
  0
ARC
  5
9E78
330
9DEE
100
AcDbEntity
  8
1
  6
Continuous
100
AcDbCircle
 10
62.60294599999999
 20
219.3242129999999
 30
0.0
 40
1.984499999999996
100
AcDbArc
 50
324.7797499999998
 51
350.00299
  0
ARC
  5
9E79
330
9DEE
100
AcDbEntity
  8
1
  6
Continuous
100
AcDbCircle
 10
45.932322
 20
219.3242129999999
 30
0.0
 40
1.984499999999996
100
AcDbArc
 50
189.99704
 51
215.2202999999999
  0
ARC
  5
9E7A
330
9DEE
100
AcDbEntity
  8
1
  6
Continuous
100
AcDbCircle
 10
49.852946
 20
219.3242129999999
 30
0.0
 40
1.984499999999996
100
AcDbArc
 50
189.9970599999999
 51
215.2202999999999
  0
ARC
  5
9E7B
330
9DEE
100
AcDbEntity
  8
1
  6
Continuous
100
AcDbCircle
 10
42.391626
 20
219.3242129999999
 30
0.0
 40
1.984499999999996
100
AcDbArc
 50
189.9970599999999
 51
215.2202999999999
  0
ARC
  5
9E7C
330
9DEE
100
AcDbEntity
  8
1
  6
Continuous
100
AcDbCircle
 10
39.573956
 20
219.3242129999999
 30
0.0
 40
1.984499999999996
100
AcDbArc
 50
189.9970599999999
 51
215.2202999999999
  0
ARC
  5
9E7D
330
9DEE
100
AcDbEntity
  8
1
  6
Continuous
100
AcDbCircle
 10
37.752356
 20
219.3242129999999
 30
0.0
 40
1.984499999999996
100
AcDbArc
 50
189.9970599999999
 51
215.2202999999999
  0
ARC
  5
9E7E
330
9DEE
100
AcDbEntity
  8
1
  6
Continuous
100
AcDbCircle
 10
37.102946
 20
219.3242129999999
 30
0.0
 40
1.984499999999996
100
AcDbArc
 50
189.9970599999999
 51
215.2202999999999
  0
ARC
  5
9E7F
330
9DEE
100
AcDbEntity
  8
1
  6
Continuous
100
AcDbCircle
 10
160.102946
 20
221.7797109999999
 30
0.0
 40
0.5
100
AcDbArc
 50
11.021507
 51
90.00000900000001
  0
ARC
  5
9E80
330
9DEE
100
AcDbEntity
  8
1
  6
Continuous
100
AcDbCircle
 10
163.0385229999999
 20
221.7796729999998
 30
0.0
 40
2.799999999999998
100
AcDbArc
 50
270.00002
 51
271.65221
  0
ARC
  5
9E81
330
9DEE
100
AcDbEntity
  8
1
  6
Continuous
100
AcDbCircle
 10
163.0529429999999
 20
221.2797109999999
 30
0.0
 40
2.299999999999998
100
AcDbArc
 50
191.02148
 51
269.9999899999999
  0
ARC
  5
9E82
330
9DEE
100
AcDbEntity
  8
1
  6
Continuous
100
AcDbCircle
 10
199.602946
 20
221.7797109999999
 30
0.0
 40
0.5
100
AcDbArc
 50
89.999955
 51
168.97846
  0
ARC
  5
9E83
330
9DEE
100
AcDbEntity
  8
1
  6
Continuous
100
AcDbCircle
 10
196.652949
 20
221.2797109999999
 30
0.0
 40
2.299999999999998
100
AcDbArc
 50
270.00002
 51
348.9785299999998
  0
ARC
  5
9E84
330
9DEE
100
AcDbEntity
  8
1
  6
Continuous
100
AcDbCircle
 10
183.7735699999998
 20
219.3242129999999
 30
0.0
 40
1.984499999999996
100
AcDbArc
 50
189.9969899999999
 51
215.2202299999999
  0
ARC
  5
9E85
330
9DEE
100
AcDbEntity
  8
1
  6
Continuous
100
AcDbCircle
 10
179.852946
 20
219.3242129999999
 30
0.0
 40
1.984499999999996
100
AcDbArc
 50
324.7797499999998
 51
350.00299
  0
ARC
  5
9E86
330
9DEE
100
AcDbEntity
  8
1
  6
Continuous
100
AcDbCircle
 10
187.3142649999999
 20
219.3242129999999
 30
0.0
 40
1.984499999999996
100
AcDbArc
 50
206.86325
 51
215.2202299999999
  0
ARC
  5
9E87
330
9DEE
100
AcDbEntity
  8
1
  6
Continuous
100
AcDbCircle
 10
190.13193
 20
219.3242129999999
 30
0.0
 40
1.984499999999996
100
AcDbArc
 50
324.7797499999998
 51
350.00299
  0
ARC
  5
9E88
330
9DEE
100
AcDbEntity
  8
1
  6
Continuous
100
AcDbCircle
 10
191.9535319999999
 20
219.3242129999999
 30
0.0
 40
1.984499999999996
100
AcDbArc
 50
324.7797499999998
 51
350.00299
  0
ARC
  5
9E89
330
9DEE
100
AcDbEntity
  8
1
  6
Continuous
100
AcDbCircle
 10
192.602946
 20
219.3242129999999
 30
0.0
 40
1.984499999999996
100
AcDbArc
 50
324.7796799999998
 51
350.00299
  0
ARC
  5
9E8A
330
9DEE
100
AcDbEntity
  8
1
  6
Continuous
100
AcDbCircle
 10
175.9323219999999
 20
219.3242129999999
 30
0.0
 40
1.984499999999996
100
AcDbArc
 50
189.99704
 51
215.2202299999999
  0
ARC
  5
9E8B
330
9DEE
100
AcDbEntity
  8
1
  6
Continuous
100
AcDbCircle
 10
179.852946
 20
219.3242129999999
 30
0.0
 40
1.984499999999996
100
AcDbArc
 50
189.9970599999999
 51
215.2202299999999
  0
ARC
  5
9E8C
330
9DEE
100
AcDbEntity
  8
1
  6
Continuous
100
AcDbCircle
 10
172.391627
 20
219.3242129999999
 30
0.0
 40
1.984499999999996
100
AcDbArc
 50
189.9970599999999
 51
215.2202299999999
  0
ARC
  5
9E8D
330
9DEE
100
AcDbEntity
  8
1
  6
Continuous
100
AcDbCircle
 10
169.5739619999999
 20
219.3242129999999
 30
0.0
 40
1.984499999999996
100
AcDbArc
 50
189.9970599999999
 51
215.2202299999999
  0
ARC
  5
9E8E
330
9DEE
100
AcDbEntity
  8
1
  6
Continuous
100
AcDbCircle
 10
167.75236
 20
219.3242129999999
 30
0.0
 40
1.984499999999996
100
AcDbArc
 50
189.99707
 51
215.2202299999999
  0
ARC
  5
9E8F
330
9DEE
100
AcDbEntity
  8
1
  6
Continuous
100
AcDbCircle
 10
167.1029459999997
 20
219.3242129999999
 30
0.0
 40
1.984499999999996
100
AcDbArc
 50
189.9970599999999
 51
215.2202299999999
  0
ARC
  5
9E90
330
9DEE
100
AcDbEntity
  8
1
  6
Continuous
100
AcDbCircle
 10
183.7735699999998
 20
219.3242129999999
 30
0.0
 40
1.984499999999996
100
AcDbArc
 50
324.7797499999998
 51
350.00299
  0
ARC
  5
9E91
330
9DEE
100
AcDbEntity
  8
1
  6
Continuous
100
AcDbCircle
 10
187.3142649999999
 20
219.3242129999999
 30
0.0
 40
1.984499999999996
100
AcDbArc
 50
324.7797499999998
 51
350.00299
  0
ARC
  5
9E92
330
9DEE
100
AcDbEntity
  8
1
  6
Continuous
100
AcDbCircle
 10
196.0352659999998
 20
201.796391
 30
0.0
 40
8.0
100
AcDbArc
 50
96.16536199999998
 51
142.32923
  0
ARC
  5
9E93
330
9DEE
100
AcDbEntity
  8
1
  6
Continuous
100
AcDbCircle
 10
49.852946
 20
349.9214609999999
 30
0.0
 40
137.69801
100
AcDbArc
 50
264.43445
 51
275.5655299999999
  0
ARC
  5
9E94
330
9DEE
100
AcDbEntity
  8
1
  6
Continuous
100
AcDbCircle
 10
63.352946
 20
211.379646
 30
0.0
 40
1.5
100
AcDbArc
 50
0.0
 51
95.56557500000003
  0
ARC
  5
9E95
330
9DEE
100
AcDbEntity
  8
1
  6
Continuous
100
AcDbCircle
 10
36.352946
 20
211.379646
 30
0.0
 40
1.5
100
AcDbArc
 50
84.43444300000001
 51
179.9999599999999
  0
ARC
  5
9E96
330
9DEE
100
AcDbEntity
  8
1
  6
Continuous
100
AcDbCircle
 10
49.852946
 20
315.3797089999998
 30
0.0
 40
100.0
100
AcDbArc
 50
262.53039
 51
277.4695899999999
  0
ARC
  5
9E97
330
9DEE
100
AcDbEntity
  8
1
  6
Continuous
100
AcDbCircle
 10
65.85132900000001
 20
193.780977
 30
0.0
 40
35.0
100
AcDbArc
 50
179.4492899999999
 51
207.66612
  0
ARC
  5
9E98
330
9DEE
100
AcDbEntity
  8
1
  6
Continuous
100
AcDbCircle
 10
62.552943
 20
210.5394759999998
 30
0.0
 40
0.3
100
AcDbArc
 50
0.0
 51
95.28068799999999
  0
ARC
  5
9E99
330
9DEE
100
AcDbEntity
  8
1
  6
Continuous
100
AcDbCircle
 10
37.152946
 20
210.5394759999998
 30
0.0
 40
0.3
100
AcDbArc
 50
84.71933100000002
 51
179.9999599999999
  0
ARC
  5
9E9A
330
9DEE
100
AcDbEntity
  8
1
  6
Continuous
100
AcDbCircle
 10
49.852946
 20
347.9518609999999
 30
0.0
 40
137.69801
100
AcDbArc
 50
264.7195599999998
 51
275.28041
  0
ARC
  5
9E9B
330
9DEE
100
AcDbEntity
  8
1
  6
Continuous
100
AcDbCircle
 10
34.35821
 20
166.479712
 30
0.0
 40
2.0
100
AcDbArc
 50
180.0579199999999
 51
269.99998
  0
ARC
  5
9E9C
330
9DEE
100
AcDbEntity
  8
1
  6
Continuous
100
AcDbCircle
 10
34.35154199999999
 20
173.07971
 30
0.0
 40
2.0
100
AcDbArc
 50
90.00001800000005
 51
180.0579199999999
  0
ARC
  5
9E9D
330
9DEE
100
AcDbEntity
  8
1
  6
Continuous
100
AcDbCircle
 10
150.852946
 20
169.7797109999999
 30
0.0
 40
18.200001
100
AcDbArc
 50
109.33376
 51
124.275178
  0
ARC
  5
9E9E
330
9DEE
100
AcDbEntity
  8
1
  6
Continuous
100
AcDbCircle
 10
150.852946
 20
169.7797109999999
 30
0.0
 40
27.700001
100
AcDbArc
 50
100.6140099999997
 51
133.2307329999999
  0
ARC
  5
9E9F
330
9DEE
100
AcDbEntity
  8
1
  6
Continuous
100
AcDbCircle
 10
150.852946
 20
169.7797109999999
 30
0.0
 40
37.5
100
AcDbArc
 50
96.39965100000001
 51
137.550924
  0
ARC
  5
9EA0
330
9DEE
100
AcDbEntity
  8
1
  6
Continuous
100
AcDbCircle
 10
49.852946
 20
182.2797109999999
 30
0.0
 40
50.0
100
AcDbArc
 50
259.8000099999998
 51
280.2018119999999
  0
ARC
  5
9EA1
330
9DEE
100
AcDbEntity
  8
1
  6
Continuous
100
AcDbCircle
 10
58.352946
 20
135.038309
 30
0.0
 40
2.0
100
AcDbArc
 50
280.19985
 51
359.99995
  0
ARC
  5
9EA2
330
9DEE
100
AcDbEntity
  8
1
  6
Continuous
100
AcDbCircle
 10
41.352946
 20
135.038309
 30
0.0
 40
2.0
100
AcDbArc
 50
179.9999799999999
 51
259.80007
  0
ARC
  5
9EA3
330
9DEE
100
AcDbEntity
  8
1
  6
Continuous
100
AcDbCircle
 10
60.852946
 20
160.0297109999999
 30
0.0
 40
1.0
100
AcDbArc
 50
269.9999599999998
 51
359.99995
  0
ARC
  5
9EA4
330
9DEE
100
AcDbEntity
  8
1
  6
Continuous
100
AcDbCircle
 10
60.852946
 20
179.5297109999999
 30
0.0
 40
1.0
100
AcDbArc
 50
0.000055
 51
90.000037
  0
ARC
  5
9EA5
330
9DEE
100
AcDbEntity
  8
1
  6
Continuous
100
AcDbCircle
 10
41.352946
 20
204.5211129999999
 30
0.0
 40
2.0
100
AcDbArc
 50
100.1999199999999
 51
180.00002
  0
ARC
  5
9EA6
330
9DEE
100
AcDbEntity
  8
1
  6
Continuous
100
AcDbCircle
 10
58.352946
 20
204.5211129999999
 30
0.0
 40
2.0
100
AcDbArc
 50
0.000055
 51
79.80015300000005
  0
ARC
  5
9EA7
330
9DEE
100
AcDbEntity
  8
1
  6
Continuous
100
AcDbCircle
 10
49.852946
 20
157.2797109999999
 30
0.0
 40
50.0
100
AcDbArc
 50
79.79818799999998
 51
100.1999899999999
  0
LINE
  5
9EA8
330
9DEE
100
AcDbEntity
  8
1
  6
Continuous
100
AcDbLine
 10
30.852946
 20
215.17971
 30
0.0
 11
30.852946
 21
193.4445429999999
 31
0.0
  0
LINE
  5
9EA9
330
9DEE
100
AcDbEntity
  8
1
  6
Continuous
100
AcDbLine
 10
68.852946
 20
215.17971
 30
0.0
 11
68.852946
 21
195.775461
 31
0.0
  0
ARC
  5
9EAA
330
9DEE
100
AcDbEntity
  8
1
  6
Continuous
100
AcDbCircle
 10
65.852946
 20
215.17971
 30
0.0
 40
3.0
100
AcDbArc
 50
0.0
 51
90.0
  0
ARC
  5
9EAB
330
9DEE
100
AcDbEntity
  8
1
  6
Continuous
100
AcDbCircle
 10
33.852946
 20
215.17971
 30
0.0
 40
3.0
100
AcDbArc
 50
90.0
 51
180.0
  0
LINE
  5
9EAC
330
9DEE
100
AcDbEntity
  8
1
  6
Continuous
100
AcDbLine
 10
198.852946
 20
215.17971
 30
0.0
 11
198.852946
 21
210.1473069999999
 31
0.0
  0
ARC
  5
9EAD
330
9DEE
100
AcDbEntity
  8
1
  6
Continuous
100
AcDbCircle
 10
195.852946
 20
215.17971
 30
0.0
 40
3.0
100
AcDbArc
 50
0.0
 51
90.0
  0
ARC
  5
9EAE
330
9DEE
100
AcDbEntity
  8
1
  6
Continuous
100
AcDbCircle
 10
163.8529459999998
 20
215.17971
 30
0.0
 40
3.0
100
AcDbArc
 50
90.0
 51
177.517007
  0
LINE
  5
9EAF
330
9DEE
100
AcDbEntity
  8
1
  6
Continuous
100
AcDbLine
 10
267.8529459999999
 20
135.038309
 30
0.0
 11
267.8529459999999
 21
204.5211129999999
 31
0.0
  0
LINE
  5
9EB0
330
9DEE
100
AcDbEntity
  8
1
  6
Continuous
100
AcDbLine
 10
288.8529459999998
 20
135.038309
 30
0.0
 11
288.8529459999998
 21
204.5211129999999
 31
0.0
  0
LINE
  5
9EB1
330
9DEE
100
AcDbEntity
  8
4
  6
CENTER
 48
0.5
100
AcDbLine
 10
278.352946
 20
229.433043
 30
0.0
 11
278.352946
 21
127.279711
 31
0.0
  0
ARC
  5
9EB2
330
9DEE
100
AcDbEntity
  8
1
  6
Continuous
100
AcDbCircle
 10
278.352946
 20
182.2797109999999
 30
0.0
 40
50.0
100
AcDbArc
 50
259.7981879999999
 51
280.19999
  0
ARC
  5
9EB3
330
9DEE
100
AcDbEntity
  8
1
  6
Continuous
100
AcDbCircle
 10
286.8529459999998
 20
135.038309
 30
0.0
 40
2.0
100
AcDbArc
 50
280.1999299999998
 51
0.00002
  0
ARC
  5
9EB4
330
9DEE
100
AcDbEntity
  8
1
  6
Continuous
100
AcDbCircle
 10
269.8529459999999
 20
135.038309
 30
0.0
 40
2.0
100
AcDbArc
 50
180.0000499999999
 51
259.8001499999999
  0
LINE
  5
9EB5
330
9DEE
100
AcDbEntity
  8
1
  6
Continuous
100
AcDbLine
 10
294.3529459999998
 20
218.17971
 30
0.0
 11
262.3529459999999
 21
218.17971
 31
0.0
  0
ARC
  5
9EB6
330
9DEE
100
AcDbEntity
  8
1
  6
Continuous
100
AcDbCircle
 10
266.25236
 20
219.3242129999999
 30
0.0
 40
1.984499999999996
100
AcDbArc
 50
189.99701
 51
215.22025
  0
LINE
  5
9EB7
330
9DEE
100
AcDbEntity
  8
1
  6
Continuous
100
AcDbLine
 10
263.3529459999999
 20
160.8797089999999
 30
0.0
 11
265.3529459999999
 21
160.8797089999999
 31
0.0
  0
LINE
  5
9EB8
330
9DEE
100
AcDbEntity
  8
1
  6
Continuous
100
AcDbLine
 10
295.1529459999998
 20
218.9797079999999
 30
0.0
 11
261.552943
 21
218.9797079999999
 31
0.0
  0
LINE
  5
9EB9
330
9DEE
100
AcDbEntity
  8
1
  6
Continuous
100
AcDbLine
 10
299.3529459999998
 20
222.279711
 30
0.0
 11
257.3529459999999
 21
222.279711
 31
0.0
  0
LINE
  5
9EBA
330
9DEE
100
AcDbEntity
  8
1
  6
Continuous
100
AcDbLine
 10
299.3529459999998
 20
224.279711
 30
0.0
 11
257.3529459999999
 21
224.279711
 31
0.0
  0
LINE
  5
9EBB
330
9DEE
100
AcDbEntity
  8
4
  6
CENTER
 48
0.5
100
AcDbLine
 10
300.851029037192
 20
169.7797109999999
 30
0.0
 11
246.6529459999999
 21
169.7797109999998
 31
0.0
  0
LINE
  5
9EBC
330
9DEE
100
AcDbEntity
  8
1
  6
Continuous
100
AcDbLine
 10
265.3529459999999
 20
208.356925
 30
0.0
 11
265.3529459999999
 21
163.979711
 31
0.0
  0
LINE
  5
9EBD
330
9DEE
100
AcDbEntity
  8
1
  6
Continuous
100
AcDbLine
 10
293.3529459999998
 20
178.6890629999998
 30
0.0
 11
293.3529459999998
 21
160.8797089999999
 31
0.0
  0
LINE
  5
9EBE
330
9DEE
100
AcDbEntity
  8
1
  6
Continuous
100
AcDbLine
 10
291.3529459999998
 20
208.356925
 30
0.0
 11
291.3529459999998
 21
168.4742599999998
 31
0.0
  0
LINE
  5
9EBF
330
9DEE
100
AcDbEntity
  8
1
  6
Continuous
100
AcDbLine
 10
255.8967299999999
 20
172.779711
 30
0.0
 11
254.6529459999999
 21
172.779711
 31
0.0
  0
LINE
  5
9EC0
330
9DEE
100
AcDbEntity
  8
1
  6
Continuous
100
AcDbLine
 10
256.327248
 20
175.3797089999999
 30
0.0
 11
254.6529459999999
 21
175.3797089999999
 31
0.0
  0
LINE
  5
9EC1
330
9DEE
100
AcDbEntity
  8
1
  6
Continuous
100
AcDbLine
 10
253.652946
 20
173.579714
 30
0.0
 11
253.652946
 21
168.157047
 31
0.0
  0
ARC
  5
9EC2
330
9DEE
100
AcDbEntity
  8
1
  6
Continuous
100
AcDbCircle
 10
265.7029459999999
 20
169.7797109999999
 30
0.0
 40
11.44999799999999
100
AcDbArc
 50
164.81073
 51
186.103196
  0
ARC
  5
9EC3
330
9DEE
100
AcDbEntity
  8
1
  6
Continuous
100
AcDbCircle
 10
256.565446
 20
174.0797139999999
 30
0.0
 40
2.312498999999998
100
AcDbArc
 50
145.7945499999999
 51
214.2054299999998
  0
LINE
  5
9EC4
330
9DEE
100
AcDbEntity
  8
1
  6
Continuous
100
AcDbLine
 10
253.6529359999999
 20
173.5797449999997
 30
0.0
 11
254.652936
 21
175.379717
 31
0.0
  0
LINE
  5
9EC5
330
9DEE
100
AcDbEntity
  8
1
  6
Continuous
100
AcDbLine
 10
266.3529459999999
 20
160.0297109999999
 30
0.0
 11
266.3529459999999
 21
160.979711
 31
0.0
  0
LINE
  5
9EC6
330
9DEE
100
AcDbEntity
  8
1
  6
Continuous
100
AcDbLine
 10
293.3529459999998
 20
160.8797089999999
 30
0.0
 11
293.007247
 21
160.8797089999999
 31
0.0
  0
ARC
  5
9EC7
330
9DEE
100
AcDbEntity
  8
1
  6
Continuous
100
AcDbCircle
 10
267.3529459999999
 20
160.0297109999999
 30
0.0
 40
1.0
100
AcDbArc
 50
180.0000499999999
 51
270.0000399999999
  0
LINE
  5
9EC8
330
9DEE
100
AcDbEntity
  8
1
  6
Continuous
100
AcDbLine
 10
267.8529459999999
 20
159.0297109999999
 30
0.0
 11
267.3529459999999
 21
159.0297109999999
 31
0.0
  0
ARC
  5
9EC9
330
9DEE
100
AcDbEntity
  8
1
  6
Continuous
100
AcDbCircle
 10
267.3529459999999
 20
179.5297109999999
 30
0.0
 40
1.0
100
AcDbArc
 50
89.99996299999997
 51
179.999945
  0
LINE
  5
9ECA
330
9DEE
100
AcDbEntity
  8
1
  6
Continuous
100
AcDbLine
 10
266.3529459999999
 20
166.529711
 30
0.0
 11
265.3529459999999
 21
166.529711
 31
0.0
  0
LINE
  5
9ECB
330
9DEE
100
AcDbEntity
  8
1
  6
Continuous
100
AcDbLine
 10
266.3529459999999
 20
173.0297109999999
 30
0.0
 11
265.3529459999999
 21
173.0297109999999
 31
0.0
  0
LINE
  5
9ECC
330
9DEE
100
AcDbEntity
  8
1
  6
Continuous
100
AcDbLine
 10
267.8529459999999
 20
180.5297109999999
 30
0.0
 11
267.3529459999999
 21
180.5297109999999
 31
0.0
  0
ARC
  5
9ECD
330
9DEE
100
AcDbEntity
  8
1
  6
Continuous
100
AcDbCircle
 10
294.3529459999998
 20
215.17971
 30
0.0
 40
3.0
100
AcDbArc
 50
0.0
 51
90.0
  0
ARC
  5
9ECE
330
9DEE
100
AcDbEntity
  8
1
  6
Continuous
100
AcDbCircle
 10
295.1529459999998
 20
221.2797109999999
 30
0.0
 40
2.299999999999998
100
AcDbArc
 50
270.00001
 51
348.97852
  0
LINE
  5
9ECF
330
9DEE
100
AcDbEntity
  8
1
  6
Continuous
100
AcDbLine
 10
297.3529459999998
 20
215.17971
 30
0.0
 11
297.3529459999998
 21
193.4445429999999
 31
0.0
  0
ARC
  5
9ED0
330
9DEE
100
AcDbEntity
  8
1
  6
Continuous
100
AcDbCircle
 10
298.1029459999998
 20
221.7797109999999
 30
0.0
 40
0.5
100
AcDbArc
 50
89.99999100000001
 51
168.9784929999999
  0
LINE
  5
9ED1
330
9DEE
100
AcDbEntity
  8
1
  6
Continuous
100
AcDbLine
 10
299.3529459999998
 20
224.279711
 30
0.0
 11
299.3529459999998
 21
222.279711
 31
0.0
  0
LINE
  5
9ED2
330
9DEE
100
AcDbEntity
  8
1
  6
Continuous
100
AcDbLine
 10
297.410406
 20
220.840016
 30
0.0
 11
297.612046
 21
221.87531
 31
0.0
  0
ARC
  5
9ED3
330
9DEE
100
AcDbEntity
  8
1
  6
Continuous
100
AcDbCircle
 10
278.352946
 20
157.2797109999999
 30
0.0
 40
50.0
100
AcDbArc
 50
79.80001
 51
100.201812
  0
ARC
  5
9ED4
330
9DEE
100
AcDbEntity
  8
1
  6
Continuous
100
AcDbCircle
 10
286.8529459999998
 20
204.5211129999999
 30
0.0
 40
2.0
100
AcDbArc
 50
359.9999799999998
 51
79.80007999999997
  0
ARC
  5
9ED5
330
9DEE
100
AcDbEntity
  8
1
  6
Continuous
100
AcDbCircle
 10
269.8529459999999
 20
204.5211129999999
 30
0.0
 40
2.0
100
AcDbArc
 50
100.1998469999999
 51
179.999945
  0
ARC
  5
9ED6
330
9DEE
100
AcDbEntity
  8
1
  6
Continuous
100
AcDbCircle
 10
278.352946
 20
219.3242129999999
 30
0.0
 40
1.984499999999996
100
AcDbArc
 50
324.7796999999998
 51
350.0029399999998
  0
ARC
  5
9ED7
330
9DEE
100
AcDbEntity
  8
1
  6
Continuous
100
AcDbCircle
 10
282.2735699999999
 20
219.3242129999999
 30
0.0
 40
1.984499999999996
100
AcDbArc
 50
189.99695
 51
215.2203199999999
  0
ARC
  5
9ED8
330
9DEE
100
AcDbEntity
  8
1
  6
Continuous
100
AcDbCircle
 10
291.1029459999998
 20
219.3242129999999
 30
0.0
 40
1.984499999999996
100
AcDbArc
 50
324.7796999999998
 51
350.0029399999998
  0
ARC
  5
9ED9
330
9DEE
100
AcDbEntity
  8
1
  6
Continuous
100
AcDbCircle
 10
290.453536
 20
219.3242129999999
 30
0.0
 40
1.984499999999996
100
AcDbArc
 50
324.7796999999998
 51
350.0029399999998
  0
ARC
  5
9EDA
330
9DEE
100
AcDbEntity
  8
1
  6
Continuous
100
AcDbCircle
 10
288.6319359999999
 20
219.3242129999999
 30
0.0
 40
1.984499999999996
100
AcDbArc
 50
324.7796999999998
 51
350.0029399999998
  0
ARC
  5
9EDB
330
9DEE
100
AcDbEntity
  8
1
  6
Continuous
100
AcDbCircle
 10
285.814266
 20
219.3242129999999
 30
0.0
 40
1.984499999999996
100
AcDbArc
 50
324.7796999999998
 51
350.0029399999998
  0
ARC
  5
9EDC
330
9DEE
100
AcDbEntity
  8
1
  6
Continuous
100
AcDbCircle
 10
282.2735699999999
 20
219.3242129999999
 30
0.0
 40
1.984499999999996
100
AcDbArc
 50
324.7796999999998
 51
350.0029599999999
  0
ARC
  5
9EDD
330
9DEE
100
AcDbEntity
  8
1
  6
Continuous
100
AcDbCircle
 10
295.167366
 20
221.7796729999998
 30
0.0
 40
2.799999999999998
100
AcDbArc
 50
268.3477899999999
 51
269.99998
  0
ARC
  5
9EDE
330
9DEE
100
AcDbEntity
  8
1
  6
Continuous
100
AcDbCircle
 10
285.814266
 20
219.3242129999999
 30
0.0
 40
1.984499999999996
100
AcDbArc
 50
206.8632199999999
 51
215.2203199999999
  0
LINE
  5
9EDF
330
9DEE
100
AcDbEntity
  8
4
  6
CENTER
100
AcDbLine
 10
292.3529459999998
 20
226.779711
 30
0.0
 11
292.3529459999998
 21
219.7797109999999
 31
0.0
  0
ARC
  5
9EE0
330
9DEE
100
AcDbEntity
  8
1
  6
Continuous
100
AcDbCircle
 10
268.073962
 20
219.3242129999999
 30
0.0
 40
1.984499999999996
100
AcDbArc
 50
189.99701
 51
215.22019
  0
ARC
  5
9EE1
330
9DEE
100
AcDbEntity
  8
1
  6
Continuous
100
AcDbCircle
 10
270.891627
 20
219.3242129999999
 30
0.0
 40
1.984499999999996
100
AcDbArc
 50
324.7796999999998
 51
333.13675
  0
ARC
  5
9EE2
330
9DEE
100
AcDbEntity
  8
1
  6
Continuous
100
AcDbCircle
 10
278.352946
 20
219.3242129999999
 30
0.0
 40
1.984499999999996
100
AcDbArc
 50
189.99701
 51
215.2203199999999
  0
ARC
  5
9EE3
330
9DEE
100
AcDbEntity
  8
1
  6
Continuous
100
AcDbCircle
 10
274.432322
 20
219.3242129999999
 30
0.0
 40
1.984499999999996
100
AcDbArc
 50
324.7796999999998
 51
350.00301
  0
ARC
  5
9EE4
330
9DEE
100
AcDbEntity
  8
1
  6
Continuous
100
AcDbCircle
 10
274.432322
 20
219.3242129999999
 30
0.0
 40
1.984499999999996
100
AcDbArc
 50
189.99701
 51
215.2203199999999
  0
ARC
  5
9EE5
330
9DEE
100
AcDbEntity
  8
1
  6
Continuous
100
AcDbCircle
 10
270.891627
 20
219.3242129999999
 30
0.0
 40
1.984499999999996
100
AcDbArc
 50
189.99701
 51
215.2203199999999
  0
LINE
  5
9EE6
330
9DEE
100
AcDbEntity
  8
1
  6
Continuous
100
AcDbLine
 10
263.3529459999999
 20
178.6890629999998
 30
0.0
 11
263.3529459999999
 21
154.5567069999998
 31
0.0
  0
ARC
  5
9EE7
330
9DEE
100
AcDbEntity
  8
1
  6
Continuous
100
AcDbCircle
 10
293.8476819999999
 20
166.479712
 30
0.0
 40
2.0
100
AcDbArc
 50
270.00002
 51
359.9420799999998
  0
LINE
  5
9EE8
330
9DEE
100
AcDbEntity
  8
1
  6
Continuous
100
AcDbLine
 10
293.3456519999998
 20
164.479708
 30
0.0
 11
293.8476819999999
 21
164.479708
 31
0.0
  0
ARC
  5
9EE9
330
9DEE
100
AcDbEntity
  8
1
  6
Continuous
100
AcDbCircle
 10
293.85435
 20
173.07971
 30
0.0
 40
2.0
100
AcDbArc
 50
359.9420799999998
 51
89.99998199999996
  0
LINE
  5
9EEA
330
9DEE
100
AcDbEntity
  8
1
  6
Continuous
100
AcDbLine
 10
293.356379
 20
175.0797099999997
 30
0.0
 11
293.85435
 21
175.0797099999997
 31
0.0
  0
LINE
  5
9EEB
330
9DEE
100
AcDbEntity
  8
1
  6
Continuous
100
AcDbLine
 10
295.8543649999998
 20
173.077696
 30
0.0
 11
295.847689
 21
166.477698
 31
0.0
  0
LINE
  5
9EEC
330
9DEE
100
AcDbEntity
  8
1
  6
Continuous
100
AcDbLine
 10
259.3529459999999
 20
215.17971
 30
0.0
 11
259.3529459999999
 21
193.444232
 31
0.0
  0
ARC
  5
9EED
330
9DEE
100
AcDbEntity
  8
1
  6
Continuous
100
AcDbCircle
 10
262.3529459999999
 20
215.17971
 30
0.0
 40
3.0
100
AcDbArc
 50
90.0
 51
180.0
  0
ARC
  5
9EEE
330
9DEE
100
AcDbEntity
  8
1
  6
Continuous
100
AcDbCircle
 10
265.6029459999999
 20
219.3242129999999
 30
0.0
 40
1.984499999999996
100
AcDbArc
 50
189.99701
 51
215.22025
  0
ARC
  5
9EEF
330
9DEE
100
AcDbEntity
  8
1
  6
Continuous
100
AcDbCircle
 10
261.552943
 20
221.2797109999999
 30
0.0
 40
2.299999999999998
100
AcDbArc
 50
191.02147
 51
269.99998
  0
ARC
  5
9EF0
330
9DEE
100
AcDbEntity
  8
1
  6
Continuous
100
AcDbCircle
 10
258.6029459999999
 20
221.7797109999999
 30
0.0
 40
0.5
100
AcDbArc
 50
11.02154
 51
90.00004500000001
  0
LINE
  5
9EF1
330
9DEE
100
AcDbEntity
  8
4
  6
CENTER
100
AcDbLine
 10
264.3529459999999
 20
226.779711
 30
0.0
 11
264.3529459999999
 21
219.7797109999999
 31
0.0
  0
LINE
  5
9EF2
330
9DEE
100
AcDbEntity
  8
1
  6
Continuous
100
AcDbLine
 10
257.3529459999999
 20
224.279711
 30
0.0
 11
257.3529459999999
 21
222.279711
 31
0.0
  0
LINE
  5
9EF3
330
9DEE
100
AcDbEntity
  8
1
  6
Continuous
100
AcDbLine
 10
259.295352
 20
220.839993
 30
0.0
 11
259.0937069999998
 21
221.8752869999999
 31
0.0
  0
ARC
  5
9EF4
330
9DEE
100
AcDbEntity
  8
1
  6
Continuous
100
AcDbCircle
 10
289.3790849999998
 20
193.927472
 30
0.0
 40
30.026139
100
AcDbArc
 50
149.5106899999998
 51
209.416028
  0
ARC
  5
9EF5
330
9DEE
100
AcDbEntity
  8
1
  6
Continuous
100
AcDbCircle
 10
267.326808
 20
193.927472
 30
0.0
 40
30.026139
100
AcDbArc
 50
330.583972
 51
30.48931
  0
LINE
  5
9EF6
330
9DEE
100
AcDbEntity
  8
1
  6
Continuous
100
AcDbLine
 10
265.228293
 20
210.1473069999999
 30
0.0
 11
291.4775999999998
 21
210.1473069999999
 31
0.0
  0
ARC
  5
9EF7
330
9DEE
100
AcDbEntity
  8
1
  6
Continuous
100
AcDbCircle
 10
262.3529459999999
 20
178.6890629999998
 30
0.0
 40
1.0
100
AcDbArc
 50
0.0
 51
29.416028
  0
ARC
  5
9EF8
330
9DEE
100
AcDbEntity
  8
1
  6
Continuous
100
AcDbCircle
 10
294.3529459999998
 20
178.6890629999998
 30
0.0
 40
1.0
100
AcDbArc
 50
150.583972
 51
180.0
  0
ARC
  5
9EF9
330
9DEE
100
AcDbEntity
  8
1
  6
Continuous
100
AcDbCircle
 10
267.326808
 20
193.927472
 30
0.0
 40
28.026139
100
AcDbArc
 50
330.583972
 51
35.361938
  0
ARC
  5
9EFA
330
9DEE
100
AcDbEntity
  8
1
  6
Continuous
100
AcDbCircle
 10
289.3790849999998
 20
193.927472
 30
0.0
 40
28.026139
100
AcDbArc
 50
144.638062
 51
209.416028
  0
ARC
  5
9EFB
330
9DEE
100
AcDbEntity
  8
1
  6
Continuous
100
AcDbCircle
 10
291.4775999999998
 20
208.147307
 30
0.0
 40
2.0
100
AcDbArc
 50
30.48931
 51
90.0
  0
ARC
  5
9EFC
330
9DEE
100
AcDbEntity
  8
1
  6
Continuous
100
AcDbCircle
 10
265.228293
 20
208.147307
 30
0.0
 40
2.0
100
AcDbArc
 50
90.0
 51
149.5106899999998
  0
ARC
  5
9EFD
330
9DEE
100
AcDbEntity
  8
1
  6
Continuous
100
AcDbCircle
 10
294.3529459999998
 20
178.6890629999998
 30
0.0
 40
3.0
100
AcDbArc
 50
150.583972
 51
180.0
  0
ARC
  5
9EFE
330
9DEE
100
AcDbEntity
  8
1
  6
Continuous
100
AcDbCircle
 10
262.3529459999999
 20
178.6890629999998
 30
0.0
 40
3.0
100
AcDbArc
 50
0.0
 51
29.416028
  0
LINE
  5
9EFF
330
9DEE
100
AcDbEntity
  8
4
  6
CENTER
 48
0.5
100
AcDbLine
 10
179.852946
 20
42.779711
 30
0.0
 11
179.852946
 21
103.4797109999999
 31
0.0
  0
LINE
  5
9F00
330
9DEE
100
AcDbEntity
  8
1
  6
Continuous
100
AcDbLine
 10
188.291477
 20
89.77971099999995
 30
0.0
 11
207.8529459999999
 21
89.77971099999995
 31
0.0
  0
LINE
  5
9F01
330
9DEE
100
AcDbEntity
  8
1
  6
Continuous
100
AcDbLine
 10
151.852946
 20
47.779711
 30
0.0
 11
207.8529459999999
 21
47.779711
 31
0.0
  0
LINE
  5
9F02
330
9DEE
100
AcDbEntity
  8
4
  6
CENTER
 48
0.5
100
AcDbLine
 10
217.4808599999999
 20
68.77971099999999
 30
0.0
 11
108.352946
 21
68.77971099999999
 31
0.0
  0
LINE
  5
9F03
330
9DEE
100
AcDbEntity
  8
4
  6
CENTER
100
AcDbLine
 10
151.852946
 20
87.77971499999997
 30
0.0
 11
151.852946
 21
77.779719
 31
0.0
  0
LINE
  5
9F04
330
9DEE
100
AcDbEntity
  8
4
  6
CENTER
100
AcDbLine
 10
146.852946
 20
82.77971499999997
 30
0.0
 11
156.852946
 21
82.77971499999997
 31
0.0
  0
LINE
  5
9F05
330
9DEE
100
AcDbEntity
  8
4
  6
CENTER
100
AcDbLine
 10
146.852946
 20
54.779711
 30
0.0
 11
156.8529419999999
 21
54.779711
 31
0.0
  0
LINE
  5
9F06
330
9DEE
100
AcDbEntity
  8
4
  6
CENTER
100
AcDbLine
 10
151.852946
 20
49.779711
 30
0.0
 11
151.852946
 21
59.779719
 31
0.0
  0
ARC
  5
9F07
330
9DEE
100
AcDbEntity
  8
1
  6
Continuous
100
AcDbCircle
 10
207.8529459999999
 20
82.779711
 30
0.0
 40
7.0
100
AcDbArc
 50
340.766945
 51
90.0
  0
LINE
  5
9F08
330
9DEE
100
AcDbEntity
  8
4
  6
CENTER
100
AcDbLine
 10
207.8529459999999
 20
87.779711
 30
0.0
 11
207.8529459999999
 21
77.77971099999998
 31
0.0
  0
ARC
  5
9F09
330
9DEE
100
AcDbEntity
  8
1
  6
Continuous
100
AcDbCircle
 10
247.9808559999999
 20
68.779703
 30
0.0
 40
35.49999600000001
100
AcDbArc
 50
160.7669299999997
 51
199.2491669999998
  0
CIRCLE
  5
9F0A
330
9DEE
100
AcDbEntity
  8
1
  6
Continuous
100
AcDbCircle
 10
207.8529459999999
 20
82.779711
 30
0.0
 40
3.25
  0
LINE
  5
9F0B
330
9DEE
100
AcDbEntity
  8
4
  6
CENTER
100
AcDbLine
 10
212.852946
 20
82.77971499999997
 30
0.0
 11
202.852946
 21
82.77971499999997
 31
0.0
  0
CIRCLE
  5
9F0C
330
9DEE
100
AcDbEntity
  8
1
  6
Continuous
100
AcDbCircle
 10
207.8529459999999
 20
54.779711
 30
0.0
 40
3.25
  0
ARC
  5
9F0D
330
9DEE
100
AcDbEntity
  8
1
  6
Continuous
100
AcDbCircle
 10
207.8529459999999
 20
54.779711
 30
0.0
 40
7.0
100
AcDbArc
 50
270.000032
 51
19.23307999999997
  0
LINE
  5
9F0E
330
9DEE
100
AcDbEntity
  8
4
  6
CENTER
100
AcDbLine
 10
207.8529459999999
 20
49.779711
 30
0.0
 11
207.8529459999999
 21
59.779711
 31
0.0
  0
LINE
  5
9F0F
330
9DEE
100
AcDbEntity
  8
4
  6
CENTER
100
AcDbLine
 10
212.852946
 20
54.779711
 30
0.0
 11
202.852946
 21
54.779711
 31
0.0
  0
LINE
  5
9F10
330
9DEE
100
AcDbEntity
  8
1
  6
Continuous
100
AcDbLine
 10
144.9397559999999
 20
277.2797109999999
 30
0.0
 11
116.1115439999999
 21
277.2797109999999
 31
0.0
  0
LINE
  5
9F11
330
9DEE
100
AcDbEntity
  8
1
  6
Continuous
100
AcDbLine
 10
144.9397559999999
 20
298.2797109999999
 30
0.0
 11
116.1115439999999
 21
298.2797109999999
 31
0.0
  0
LINE
  5
9F12
330
9DEE
100
AcDbEntity
  8
1
  6
Continuous
100
AcDbLine
 10
143.1529459999999
 20
274.7797109999999
 30
0.0
 11
144.9247469999999
 21
274.7797109999999
 31
0.0
  0
LINE
  5
9F13
330
9DEE
100
AcDbEntity
  8
1
  6
Continuous
100
AcDbLine
 10
143.1529459999999
 20
302.7797109999998
 30
0.0
 11
144.924744
 21
302.7797109999998
 31
0.0
  0
ARC
  5
9F14
330
9DEE
100
AcDbEntity
  8
1
  6
Continuous
100
AcDbCircle
 10
141.1029459999998
 20
276.7797109999999
 30
0.0
 40
1.0
100
AcDbArc
 50
179.9999629999998
 51
210.0
  0
LINE
  5
9F15
330
9DEE
100
AcDbEntity
  8
1
  6
Continuous
100
AcDbLine
 10
140.1029459999998
 20
277.2797109999999
 30
0.0
 11
140.1029459999998
 21
276.7797109999999
 31
0.0
  0
ARC
  5
9F16
330
9DEE
100
AcDbEntity
  8
1
  6
Continuous
100
AcDbCircle
 10
163.352946
 20
287.7797109999999
 30
0.0
 40
50.0
100
AcDbArc
 50
169.8000099999999
 51
190.2018119999999
  0
ARC
  5
9F17
330
9DEE
100
AcDbEntity
  8
1
  6
Continuous
100
AcDbCircle
 10
116.1115439999999
 20
296.2797109999998
 30
0.0
 40
2.0
100
AcDbArc
 50
89.99997999999996
 51
169.80008
  0
ARC
  5
9F18
330
9DEE
100
AcDbEntity
  8
1
  6
Continuous
100
AcDbCircle
 10
116.1115439999999
 20
279.2797109999999
 30
0.0
 40
2.0
100
AcDbArc
 50
190.199847
 51
269.999945
  0
LINE
  5
9F19
330
9DEE
100
AcDbEntity
  8
1
  6
Continuous
100
AcDbLine
 10
143.1529459999999
 20
272.7797109999999
 30
0.0
 11
144.9247469999999
 21
272.7797109999999
 31
0.0
  0
LINE
  5
9F1A
330
9DEE
100
AcDbEntity
  8
4
  6
CENTER
 48
0.5
100
AcDbLine
 10
150.852946
 20
46.28162796280786
 30
0.0
 11
150.852946
 21
100.4797109999999
 31
0.0
  0
LINE
  5
9F1B
330
9DEE
100
AcDbEntity
  8
1
  6
Continuous
100
AcDbLine
 10
147.5549609999999
 20
51.278292
 30
0.0
 11
154.1549589999999
 21
51.284968
 31
0.0
  0
LINE
  5
9F1C
330
9DEE
100
AcDbEntity
  8
1
  6
Continuous
100
AcDbLine
 10
160.602946
 20
80.77971099999997
 30
0.0
 11
141.995508
 21
80.77971099999997
 31
0.0
  0
LINE
  5
9F1D
330
9DEE
100
AcDbEntity
  8
1
  6
Continuous
100
AcDbLine
 10
185.594348
 20
79.27971099999997
 30
0.0
 11
116.1115439999999
 21
79.27971099999997
 31
0.0
  0
LINE
  5
9F1E
330
9DEE
100
AcDbEntity
  8
1
  6
Continuous
100
AcDbLine
 10
185.594348
 20
58.279711
 30
0.0
 11
116.1115439999999
 21
58.279711
 31
0.0
  0
LINE
  5
9F1F
330
9DEE
100
AcDbEntity
  8
1
  6
Continuous
100
AcDbLine
 10
143.2499699999999
 20
81.77971099999998
 30
0.0
 11
166.8914649999998
 21
81.77971099999998
 31
0.0
  0
LINE
  5
9F20
330
9DEE
100
AcDbEntity
  8
1
  6
Continuous
100
AcDbLine
 10
128.7465819999999
 20
83.77971099999998
 30
0.0
 11
179.852946
 21
83.77971099999998
 31
0.0
  0
LINE
  5
9F21
330
9DEE
100
AcDbEntity
  8
1
  6
Continuous
100
AcDbLine
 10
143.2499699999999
 20
53.77971099999999
 30
0.0
 11
166.852946
 21
53.77971099999999
 31
0.0
  0
LINE
  5
9F22
330
9DEE
100
AcDbEntity
  8
1
  6
Continuous
100
AcDbLine
 10
144.461466
 20
55.779711
 30
0.0
 11
158.9132999999999
 21
55.779711
 31
0.0
  0
ARC
  5
9F23
330
9DEE
100
AcDbEntity
  8
1
  6
Continuous
100
AcDbCircle
 10
147.5529469999998
 20
53.27830699999999
 30
0.0
 40
2.0
100
AcDbArc
 50
180.0000179999999
 51
270.05792
  0
ARC
  5
9F24
330
9DEE
100
AcDbEntity
  8
1
  6
Continuous
100
AcDbCircle
 10
163.352946
 20
68.77971099999999
 30
0.0
 40
50.0
100
AcDbArc
 50
169.7981879999999
 51
190.1999899999999
  0
ARC
  5
9F25
330
9DEE
100
AcDbEntity
  8
1
  6
Continuous
100
AcDbCircle
 10
116.1115439999999
 20
60.279711
 30
0.0
 40
2.0
100
AcDbArc
 50
190.1999199999999
 51
270.00002
  0
ARC
  5
9F26
330
9DEE
100
AcDbEntity
  8
1
  6
Continuous
100
AcDbCircle
 10
116.1115439999999
 20
77.27971099999997
 30
0.0
 40
2.0
100
AcDbArc
 50
90.00005499999994
 51
169.8001529999999
  0
LINE
  5
9F27
330
9DEE
100
AcDbEntity
  8
1
  6
Continuous
100
AcDbLine
 10
147.602946
 20
80.77971099999997
 30
0.0
 11
147.602946
 21
81.77971099999998
 31
0.0
  0
LINE
  5
9F28
330
9DEE
100
AcDbEntity
  8
1
  6
Continuous
100
AcDbLine
 10
145.5529469999999
 20
53.77627799999999
 30
0.0
 11
145.5529469999999
 21
53.27830699999999
 31
0.0
  0
LINE
  5
9F29
330
9DEE
100
AcDbEntity
  8
1
  6
Continuous
100
AcDbLine
 10
140.1029459999998
 20
79.27971099999997
 30
0.0
 11
140.1029459999998
 21
79.77971099999997
 31
0.0
  0
ARC
  5
9F2A
330
9DEE
100
AcDbEntity
  8
1
  6
Continuous
100
AcDbCircle
 10
141.1029459999998
 20
79.77971099999997
 30
0.0
 40
1.0
100
AcDbArc
 50
150.0
 51
180.000037
  0
ARC
  5
9F2B
330
9DEE
100
AcDbEntity
  8
1
  6
Continuous
100
AcDbCircle
 10
154.1529449999998
 20
53.284975
 30
0.0
 40
2.0
100
AcDbArc
 50
270.05792
 51
359.9999799999998
  0
LINE
  5
9F2C
330
9DEE
100
AcDbEntity
  8
1
  6
Continuous
100
AcDbLine
 10
161.602946
 20
79.27971099999997
 30
0.0
 11
161.602946
 21
79.77971099999997
 31
0.0
  0
ARC
  5
9F2D
330
9DEE
100
AcDbEntity
  8
1
  6
Continuous
100
AcDbCircle
 10
160.602946
 20
79.77971099999997
 30
0.0
 40
1.0
100
AcDbArc
 50
359.9999599999999
 51
89.99995000000001
  0
LINE
  5
9F2E
330
9DEE
100
AcDbEntity
  8
1
  6
Continuous
100
AcDbLine
 10
154.102946
 20
80.77971099999997
 30
0.0
 11
154.102946
 21
81.77971099999998
 31
0.0
  0
LINE
  5
9F2F
330
9DEE
100
AcDbEntity
  8
1
  6
Continuous
100
AcDbLine
 10
156.152949
 20
53.787005
 30
0.0
 11
156.152949
 21
53.284975
 31
0.0
  0
ARC
  5
9F30
330
9DEE
100
AcDbEntity
  8
1
  6
Continuous
100
AcDbCircle
 10
138.352946
 20
68.77971099999999
 30
0.0
 40
50.0
100
AcDbArc
 50
349.80001
 51
10.201812
  0
ARC
  5
9F31
330
9DEE
100
AcDbEntity
  8
1
  6
Continuous
100
AcDbCircle
 10
185.594348
 20
60.279711
 30
0.0
 40
2.0
100
AcDbArc
 50
269.99998
 51
349.8000699999999
  0
ARC
  5
9F32
330
9DEE
100
AcDbEntity
  8
1
  6
Continuous
100
AcDbCircle
 10
185.594348
 20
77.27971099999997
 30
0.0
 40
2.0
100
AcDbArc
 50
10.19984999999999
 51
89.99995000000001
  0
ARC
  5
9F33
330
9DEE
100
AcDbEntity
  8
1
  6
Continuous
100
AcDbCircle
 10
179.852946
 20
68.77971099999999
 30
0.0
 40
19.0
100
AcDbArc
 50
235.6988470000001
 51
69.384495
  0
ARC
  5
9F34
330
9DEE
100
AcDbEntity
  8
1
  6
Continuous
100
AcDbCircle
 10
179.852946
 20
68.77971099999999
 30
0.0
 40
17.0
100
AcDbArc
 50
235.6988470000001
 51
72.775064
  0
LINE
  5
9F35
330
9DEE
100
AcDbEntity
  8
1
  6
Continuous
100
AcDbLine
 10
143.2499699999999
 20
83.77971099999998
 30
0.0
 11
143.2499699999999
 21
81.77971099999998
 31
0.0
  0
LINE
  5
9F36
330
9DEE
100
AcDbEntity
  8
1
  6
Continuous
100
AcDbLine
 10
143.2499699999999
 20
55.779711
 30
0.0
 11
143.2499699999999
 21
53.77971099999999
 31
0.0
  0
ARC
  5
9F37
330
9DEE
100
AcDbEntity
  8
1
  6
Continuous
100
AcDbCircle
 10
166.8914649999998
 20
87.779711
 30
0.0
 40
6.0
100
AcDbArc
 50
270.0
 51
288.889327
  0
ARC
  5
9F38
330
9DEE
100
AcDbEntity
  8
1
  6
Continuous
100
AcDbCircle
 10
166.8914649999998
 20
49.779711
 30
0.0
 40
4.0
100
AcDbArc
 50
55.69884700000001
 51
90.0
  0
ARC
  5
9F39
330
9DEE
100
AcDbEntity
  8
1
  6
Continuous
100
AcDbCircle
 10
166.8914649999998
 20
49.779711
 30
0.0
 40
6.0
100
AcDbArc
 50
55.69884700000001
 51
90.0
  0
ARC
  5
9F3A
330
9DEE
100
AcDbEntity
  8
1
  6
Continuous
100
AcDbCircle
 10
179.852946
 20
68.77971099999999
 30
0.0
 40
13.0
100
AcDbArc
 50
233.8710729999998
 51
126.128927
  0
ARC
  5
9F3B
330
9DEE
100
AcDbEntity
  8
1
  6
Continuous
100
AcDbCircle
 10
179.852946
 20
68.77971099999999
 30
0.0
 40
10.0
100
AcDbArc
 50
324.7425259999999
 51
35.257474
  0
ARC
  5
9F3C
330
9DEE
100
AcDbEntity
  8
1
  6
Continuous
100
AcDbCircle
 10
179.852946
 20
68.77971099999999
 30
0.0
 40
19.75
100
AcDbArc
 50
229.4270539999999
 51
68.763276
  0
LINE
  5
9F40
330
9DEE
100
AcDbEntity
  8
1
  6
Continuous
100
AcDbLine
 10
145.1447459999999
 20
275.7797109999998
 30
0.0
 11
141.995508
 21
275.7797109999998
 31
0.0
  0
LINE
  5
9F41
330
9DEE
100
AcDbEntity
  8
1
  6
Continuous
100
AcDbLine
 10
143.1529459999999
 20
272.7797109999999
 30
0.0
 11
143.1529459999999
 21
274.7797109999999
 31
0.0
  0
LINE
  5
9F42
330
9DEE
100
AcDbEntity
  8
1
  6
Continuous
100
AcDbLine
 10
143.1529459999999
 20
302.605235
 30
0.0
 11
143.1529459999999
 21
302.7797109999998
 31
0.0
  0
ARC
  5
9F43
330
9DEE
100
AcDbEntity
  8
1
  6
Continuous
100
AcDbCircle
 10
178.885863
 20
287.7797109999999
 30
0.0
 40
35.53291699999999
100
AcDbArc
 50
161.003928
 51
198.9960849999999
  0
ARC
  5
9F44
330
9DEE
100
AcDbEntity
  8
1
  6
Continuous
100
AcDbCircle
 10
178.885863
 20
68.77971099999999
 30
0.0
 40
35.53291699999999
100
AcDbArc
 50
158.539609
 51
160.262278
  0
ARC
  5
9F45
330
9DEE
100
AcDbEntity
  8
1
  6
Continuous
100
AcDbCircle
 10
151.8529499999999
 20
82.779711
 30
0.0
 40
7.0
100
AcDbArc
 50
188.213211
 51
196.60155
  0
ARC
  5
9F46
330
9DEE
100
AcDbEntity
  8
1
  6
Continuous
100
AcDbCircle
 10
405.8529459999999
 20
169.7797109999999
 30
0.0
 40
37.5
100
AcDbArc
 50
140.2972199999997
 51
83.60034899999998
  0
ARC
  5
9F47
330
9DEE
100
AcDbEntity
  8
1
  6
Continuous
100
AcDbCircle
 10
405.8529459999999
 20
169.7797109999999
 30
0.0
 40
27.700001
100
AcDbArc
 50
144.884102
 51
79.38599
  0
LINE
  5
9F48
330
9DEE
100
AcDbEntity
  8
4
  6
CENTER
 48
0.5
100
AcDbLine
 10
405.8529459999999
 20
207.831686
 30
0.0
 11
405.8529459999999
 21
127.279711
 31
0.0
  0
LINE
  5
9F49
330
9DEE
100
AcDbEntity
  8
4
  6
CENTER
 48
0.5
100
AcDbLine
 10
448.3529459999998
 20
169.7797109999999
 30
0.0
 11
363.3529459999999
 21
169.7797109999999
 31
0.0
  0
LINE
  5
9F4A
330
9DEE
100
AcDbEntity
  8
1
  6
Continuous
100
AcDbLine
 10
400.116431
 20
163.796286
 30
0.0
 11
367.000339
 21
206.688705
 31
0.0
  0
LINE
  5
9F4B
330
9DEE
100
AcDbEntity
  8
1
  6
Continuous
100
AcDbLine
 10
392.852946
 20
218.17971
 30
0.0
 11
360.8529459999999
 21
218.17971
 31
0.0
  0
LINE
  5
9F4C
330
9DEE
100
AcDbEntity
  8
1
  6
Continuous
100
AcDbLine
 10
393.6529489999998
 20
218.9797079999999
 30
0.0
 11
360.052943
 21
218.9797079999999
 31
0.0
  0
LINE
  5
9F4D
330
9DEE
100
AcDbEntity
  8
1
  6
Continuous
100
AcDbLine
 10
411.8529459999998
 20
222.279711
 30
0.0
 11
341.8529459999998
 21
222.279711
 31
0.0
  0
LINE
  5
9F4E
330
9DEE
100
AcDbEntity
  8
1
  6
Continuous
100
AcDbLine
 10
411.8529459999998
 20
224.279711
 30
0.0
 11
341.8529459999998
 21
224.279711
 31
0.0
  0
LINE
  5
9F4F
330
9DEE
100
AcDbEntity
  8
1
  6
Continuous
100
AcDbLine
 10
409.684352
 20
210.839493
 30
0.0
 11
413.521506
 21
169.065737
 31
0.0
  0
LINE
  5
9F50
330
9DEE
100
AcDbEntity
  8
1
  6
Continuous
100
AcDbLine
 10
389.8529459999999
 20
215.279736
 30
0.0
 11
389.8529459999999
 21
180.212679
 31
0.0
  0
LINE
  5
9F51
330
9DEE
100
AcDbEntity
  8
4
  6
CENTER
 48
0.5
100
AcDbLine
 10
376.8529459999998
 20
229.2797109999999
 30
0.0
 11
376.8529459999998
 21
187.4330389999999
 31
0.0
  0
ARC
  5
9F52
330
9DEE
100
AcDbEntity
  8
1
  6
Continuous
100
AcDbCircle
 10
405.8529459999999
 20
169.7797109999999
 30
0.0
 40
18.200001
100
AcDbArc
 50
154.4400829999998
 51
70.66624
  0
ARC
  5
9F53
330
9DEE
100
AcDbEntity
  8
1
  6
Continuous
100
AcDbCircle
 10
406.052947
 20
168.3797089999998
 30
0.0
 40
7.5
100
AcDbArc
 50
217.6707799999999
 51
5.248219999999998
  0
LINE
  5
9F54
330
9DEE
100
AcDbEntity
  8
1
  6
Continuous
100
AcDbLine
 10
413.352947
 20
212.22346
 30
0.0
 11
393.0400890000001
 21
215.8051649999999
 31
0.0
  0
LINE
  5
9F55
330
9DEE
100
AcDbEntity
  8
1
  6
Continuous
100
AcDbLine
 10
410.031646
 20
212.809095
 30
0.0
 11
409.684349
 21
210.8394799999999
 31
0.0
  0
LINE
  5
9F56
330
9DEE
100
AcDbEntity
  8
1
  6
Continuous
100
AcDbLine
 10
413.352946
 20
212.2234579999999
 30
0.0
 11
413.005649
 21
210.253841
 31
0.0
  0
LINE
  5
9F57
330
9DEE
100
AcDbEntity
  8
1
  6
Continuous
100
AcDbLine
 10
413.0056549999998
 20
210.253844
 30
0.0
 11
409.684351
 21
210.8394799999999
 31
0.0
  0
LINE
  5
9F58
330
9DEE
100
AcDbEntity
  8
4
  6
CENTER
100
AcDbLine
 10
404.852946
 20
219.7797109999999
 30
0.0
 11
404.852946
 21
226.779711
 31
0.0
  0
LINE
  5
9F59
330
9DEE
100
AcDbEntity
  8
1
  6
Continuous
100
AcDbLine
 10
411.8529459999998
 20
222.279718
 30
0.0
 11
411.8529459999998
 21
224.279718
 31
0.0
  0
ARC
  5
9F5A
330
9DEE
100
AcDbEntity
  8
1
  6
Continuous
100
AcDbCircle
 10
392.852946
 20
215.17971
 30
0.0
 40
3.0
100
AcDbArc
 50
2.482993
 51
90.0
  0
ARC
  5
9F5B
330
9DEE
100
AcDbEntity
  8
1
  6
Continuous
100
AcDbCircle
 10
389.6029459999999
 20
219.3242129999999
 30
0.0
 40
1.984499999999996
100
AcDbArc
 50
324.77977
 51
350.0029399999998
  0
ARC
  5
9F5C
330
9DEE
100
AcDbEntity
  8
1
  6
Continuous
100
AcDbCircle
 10
388.953532
 20
219.3242129999999
 30
0.0
 40
1.984499999999996
100
AcDbArc
 50
324.77977
 51
350.00293
  0
ARC
  5
9F5D
330
9DEE
100
AcDbEntity
  8
1
  6
Continuous
100
AcDbCircle
 10
387.1319299999998
 20
219.3242129999999
 30
0.0
 40
1.984499999999996
100
AcDbArc
 50
324.77977
 51
350.0029399999998
  0
ARC
  5
9F5E
330
9DEE
100
AcDbEntity
  8
1
  6
Continuous
100
AcDbCircle
 10
393.6529489999998
 20
221.2797109999999
 30
0.0
 40
2.299999999999998
100
AcDbArc
 50
270.00001
 51
348.97852
  0
ARC
  5
9F5F
330
9DEE
100
AcDbEntity
  8
1
  6
Continuous
100
AcDbCircle
 10
393.667369
 20
221.7796729999998
 30
0.0
 40
2.799999999999998
100
AcDbArc
 50
268.3477899999999
 51
269.99998
  0
ARC
  5
9F60
330
9DEE
100
AcDbEntity
  8
1
  6
Continuous
100
AcDbCircle
 10
396.6029459999999
 20
221.7797109999999
 30
0.0
 40
0.5
100
AcDbArc
 50
89.99999100000001
 51
168.9784929999999
  0
LINE
  5
9F61
330
9DEE
100
AcDbEntity
  8
1
  6
Continuous
100
AcDbLine
 10
395.910522
 20
220.8400039999999
 30
0.0
 11
396.1121649999999
 21
221.875298
 31
0.0
  0
ARC
  5
9F62
330
9DEE
100
AcDbEntity
  8
1
  6
Continuous
100
AcDbCircle
 10
384.3142649999998
 20
219.3242129999999
 30
0.0
 40
1.984499999999996
100
AcDbArc
 50
324.77977
 51
350.0029399999998
  0
ARC
  5
9F63
330
9DEE
100
AcDbEntity
  8
1
  6
Continuous
100
AcDbCircle
 10
376.8529459999998
 20
219.3242129999999
 30
0.0
 40
1.984499999999996
100
AcDbArc
 50
324.77977
 51
350.0029399999998
  0
ARC
  5
9F64
330
9DEE
100
AcDbEntity
  8
1
  6
Continuous
100
AcDbCircle
 10
380.77357
 20
219.3242129999999
 30
0.0
 40
1.984499999999996
100
AcDbArc
 50
324.77977
 51
350.0029599999999
  0
ARC
  5
9F65
330
9DEE
100
AcDbEntity
  8
1
  6
Continuous
100
AcDbCircle
 10
376.8529459999998
 20
219.3242129999999
 30
0.0
 40
1.984499999999996
100
AcDbArc
 50
189.99701
 51
215.22025
  0
ARC
  5
9F66
330
9DEE
100
AcDbEntity
  8
1
  6
Continuous
100
AcDbCircle
 10
372.9323219999998
 20
219.3242129999999
 30
0.0
 40
1.984499999999996
100
AcDbArc
 50
324.77977
 51
350.00301
  0
ARC
  5
9F67
330
9DEE
100
AcDbEntity
  8
1
  6
Continuous
100
AcDbCircle
 10
384.3142649999998
 20
219.3242129999999
 30
0.0
 40
1.984499999999996
100
AcDbArc
 50
206.8632199999999
 51
215.22025
  0
ARC
  5
9F68
330
9DEE
100
AcDbEntity
  8
1
  6
Continuous
100
AcDbCircle
 10
380.77357
 20
219.3242129999999
 30
0.0
 40
1.984499999999996
100
AcDbArc
 50
189.99695
 51
215.22025
  0
LINE
  5
9F69
330
9DEE
100
AcDbEntity
  8
1
  6
Continuous
100
AcDbLine
 10
361.529814
 20
209.7501199999999
 30
0.0
 11
357.8529459999999
 21
210.1473069999999
 31
0.0
  0
ARC
  5
9F6A
330
9DEE
100
AcDbEntity
  8
1
  6
Continuous
100
AcDbCircle
 10
360.6706259999999
 20
201.796391
 30
0.0
 40
8.0
100
AcDbArc
 50
37.67077
 51
83.83463799999999
  0
LINE
  5
9F6B
330
9DEE
100
AcDbEntity
  8
1
  6
Continuous
100
AcDbLine
 10
357.8529459999999
 20
215.17971
 30
0.0
 11
357.8529459999999
 21
210.1473069999999
 31
0.0
  0
ARC
  5
9F6C
330
9DEE
100
AcDbEntity
  8
1
  6
Continuous
100
AcDbCircle
 10
360.8529459999999
 20
215.17971
 30
0.0
 40
3.0
100
AcDbArc
 50
90.0
 51
180.0
  0
ARC
  5
9F6D
330
9DEE
100
AcDbEntity
  8
1
  6
Continuous
100
AcDbCircle
 10
369.391627
 20
219.3242129999999
 30
0.0
 40
1.984499999999996
100
AcDbArc
 50
189.99701
 51
215.22025
  0
ARC
  5
9F6E
330
9DEE
100
AcDbEntity
  8
1
  6
Continuous
100
AcDbCircle
 10
372.9323219999998
 20
219.3242129999999
 30
0.0
 40
1.984499999999996
100
AcDbArc
 50
189.99701
 51
215.22025
  0
ARC
  5
9F6F
330
9DEE
100
AcDbEntity
  8
1
  6
Continuous
100
AcDbCircle
 10
364.1029459999999
 20
219.3242129999999
 30
0.0
 40
1.984499999999996
100
AcDbArc
 50
189.99701
 51
215.2203199999999
  0
ARC
  5
9F70
330
9DEE
100
AcDbEntity
  8
1
  6
Continuous
100
AcDbCircle
 10
364.7523599999999
 20
219.3242129999999
 30
0.0
 40
1.984499999999996
100
AcDbArc
 50
189.99701
 51
215.22025
  0
ARC
  5
9F71
330
9DEE
100
AcDbEntity
  8
1
  6
Continuous
100
AcDbCircle
 10
366.573962
 20
219.3242129999999
 30
0.0
 40
1.984499999999996
100
AcDbArc
 50
189.99701
 51
215.22025
  0
ARC
  5
9F72
330
9DEE
100
AcDbEntity
  8
1
  6
Continuous
100
AcDbCircle
 10
369.391627
 20
219.3242129999999
 30
0.0
 40
1.984499999999996
100
AcDbArc
 50
324.77977
 51
333.13675
  0
ARC
  5
9F73
330
9DEE
100
AcDbEntity
  8
1
  6
Continuous
100
AcDbCircle
 10
360.052943
 20
221.2797109999999
 30
0.0
 40
2.299999999999998
100
AcDbArc
 50
191.02147
 51
269.99998
  0
ARC
  5
9F74
330
9DEE
100
AcDbEntity
  8
1
  6
Continuous
100
AcDbCircle
 10
357.1029459999999
 20
221.7797109999999
 30
0.0
 40
0.5
100
AcDbArc
 50
11.02154
 51
90.00004500000001
  0
LINE
  5
9F75
330
9DEE
100
AcDbEntity
  8
1
  6
Continuous
100
AcDbLine
 10
357.7953939999999
 20
220.8399959999999
 30
0.0
 11
357.593749
 21
221.8752899999997
 31
0.0
  0
LINE
  5
9F76
330
9DEE
100
AcDbEntity
  8
4
  6
CENTER
100
AcDbLine
 10
348.8529459999999
 20
219.7797109999999
 30
0.0
 11
348.8529459999999
 21
226.779711
 31
0.0
  0
LINE
  5
9F77
330
9DEE
100
AcDbEntity
  8
1
  6
Continuous
100
AcDbLine
 10
341.8529459999998
 20
222.2797029999999
 30
0.0
 11
341.8529459999998
 21
224.279711
 31
0.0
  0
LINE
  5
9F78
330
9DEE
100
AcDbEntity
  8
1
  6
Continuous
100
AcDbLine
 10
252.6529459999999
 20
172.779711
 30
0.0
 11
253.652946
 21
172.779711
 31
0.0
  0
LINE
  5
9F79
330
9DEE
100
AcDbEntity
  8
1
  6
Continuous
100
AcDbLine
 10
251.652946
 20
171.779711
 30
0.0
 11
251.652946
 21
167.779711
 31
0.0
  0
LINE
  5
9F7A
330
9DEE
100
AcDbEntity
  8
2
  6
Continuous
100
AcDbLine
 10
252.111446
 20
172.238211
 30
0.0
 11
253.652946
 21
172.238211
 31
0.0
  0
LINE
  5
9F7B
330
9DEE
100
AcDbEntity
  8
2
  6
Continuous
100
AcDbLine
 10
252.111446
 20
167.321211
 30
0.0
 11
252.281631
 21
167.321211
 31
0.0
  0
LINE
  5
9F7C
330
9DEE
100
AcDbEntity
  8
1
  6
Continuous
100
AcDbLine
 10
252.6529459999999
 20
172.779711
 30
0.0
 11
252.6529459999999
 21
167.5475329999999
 31
0.0
  0
LINE
  5
9F7D
330
9DEE
100
AcDbEntity
  8
1
  6
Continuous
100
AcDbLine
 10
251.652946
 20
171.779711
 30
0.0
 11
252.6529459999999
 21
172.779711
 31
0.0
  0
LINE
  5
9F7E
330
9DEE
100
AcDbEntity
  8
1
  6
Continuous
100
AcDbLine
 10
251.652946
 20
167.779711
 30
0.0
 11
252.175894
 21
167.2567629999998
 31
0.0
  0
LINE
  5
9F7F
330
9DEE
100
AcDbEntity
  8
1
  6
Continuous
100
AcDbLine
 10
76.55294599999997
 20
167.7797079999999
 30
0.0
 11
75.55294599999998
 21
166.7797079999999
 31
0.0
  0
LINE
  5
9F80
330
9DEE
100
AcDbEntity
  8
1
  6
Continuous
100
AcDbLine
 10
76.55294599999997
 20
171.7797079999999
 30
0.0
 11
75.55294599999998
 21
172.779708
 31
0.0
  0
LINE
  5
9F81
330
9DEE
100
AcDbEntity
  8
1
  6
Continuous
100
AcDbLine
 10
75.55294599999998
 20
172.779708
 30
0.0
 11
75.55294599999998
 21
166.7797079999999
 31
0.0
  0
LINE
  5
9F82
330
9DEE
100
AcDbEntity
  8
1
  6
Continuous
100
AcDbLine
 10
76.55294599999997
 20
171.7797079999999
 30
0.0
 11
76.55294599999997
 21
167.7797079999999
 31
0.0
  0
LINE
  5
9F83
330
9DEE
100
AcDbEntity
  8
2
  6
Continuous
100
AcDbLine
 10
76.09444599999998
 20
167.321208
 30
0.0
 11
74.55294599999998
 21
167.321208
 31
0.0
  0
LINE
  5
9F84
330
9DEE
100
AcDbEntity
  8
1
  6
Continuous
100
AcDbLine
 10
75.55294599999998
 20
166.7797079999999
 30
0.0
 11
74.55294599999998
 21
166.7797079999999
 31
0.0
  0
LINE
  5
9F85
330
9DEE
100
AcDbEntity
  8
2
  6
Continuous
100
AcDbLine
 10
76.09444599999998
 20
172.2382079999999
 30
0.0
 11
74.55294599999998
 21
172.2382079999999
 31
0.0
  0
LINE
  5
9F86
330
9DEE
100
AcDbEntity
  8
1
  6
Continuous
100
AcDbLine
 10
75.55294599999998
 20
172.779708
 30
0.0
 11
74.55294599999998
 21
172.779708
 31
0.0
  0
LINE
  5
9F87
330
9DEE
100
AcDbEntity
  8
1
  6
Continuous
100
AcDbLine
 10
148.3529459999997
 20
93.480129
 30
0.0
 11
153.352946
 21
93.480129
 31
0.0
  0
LINE
  5
9F88
330
9DEE
100
AcDbEntity
  8
1
  6
Continuous
100
AcDbLine
 10
148.852946
 20
95.47971099999999
 30
0.0
 11
152.852946
 21
95.47971099999999
 31
0.0
  0
LINE
  5
9F89
330
9DEE
100
AcDbEntity
  8
1
  6
Continuous
100
AcDbLine
 10
147.852946
 20
94.479711
 30
0.0
 11
153.852946
 21
94.479711
 31
0.0
  0
ARC
  5
9F8A
330
9DEE
100
AcDbEntity
  8
1
  6
Continuous
100
AcDbCircle
 10
153.352946
 20
83.239417
 30
0.0
 40
6.613208
100
AcDbArc
 50
65.975049
 51
112.211795
  0
ARC
  5
9F8B
330
9DEE
100
AcDbEntity
  8
1
  6
Continuous
100
AcDbCircle
 10
153.352946
 20
86.866921
 30
0.0
 40
6.613208
100
AcDbArc
 50
67.78820500000001
 51
112.211795
  0
ARC
  5
9F8C
330
9DEE
100
AcDbEntity
  8
1
  6
Continuous
100
AcDbCircle
 10
148.3529459999997
 20
83.239417
 30
0.0
 40
6.613208
100
AcDbArc
 50
67.78820500000001
 51
114.024951
  0
ARC
  5
9F8D
330
9DEE
100
AcDbEntity
  8
1
  6
Continuous
100
AcDbCircle
 10
148.3529459999997
 20
86.866921
 30
0.0
 40
6.613208
100
AcDbArc
 50
67.78820500000001
 51
112.211795
  0
LINE
  5
9F8E
330
9DEE
100
AcDbEntity
  8
1
  6
Continuous
100
AcDbLine
 10
148.852946
 20
95.47971099999999
 30
0.0
 11
147.852946
 21
94.479711
 31
0.0
  0
LINE
  5
9F8F
330
9DEE
100
AcDbEntity
  8
1
  6
Continuous
100
AcDbLine
 10
147.852946
 20
94.479711
 30
0.0
 11
147.852946
 21
93.479711
 31
0.0
  0
LINE
  5
9F90
330
9DEE
100
AcDbEntity
  8
2
  6
Continuous
100
AcDbLine
 10
148.3944459999999
 20
95.021211
 30
0.0
 11
148.3944459999999
 21
93.479711
 31
0.0
  0
LINE
  5
9F91
330
9DEE
100
AcDbEntity
  8
1
  6
Continuous
100
AcDbLine
 10
150.852946
 20
92.98938099999999
 30
0.0
 11
150.852946
 21
89.27971099999997
 31
0.0
  0
LINE
  5
9F92
330
9DEE
100
AcDbEntity
  8
1
  6
Continuous
100
AcDbLine
 10
145.852946
 20
89.36187700000003
 30
0.0
 11
145.852946
 21
92.98938099999999
 31
0.0
  0
LINE
  5
9F93
330
9DEE
100
AcDbEntity
  8
1
  6
Continuous
100
AcDbLine
 10
155.852946
 20
89.36187700000003
 30
0.0
 11
155.852946
 21
92.98938099999999
 31
0.0
  0
LINE
  5
9F94
330
9DEE
100
AcDbEntity
  8
1
  6
Continuous
100
AcDbLine
 10
152.852946
 20
95.47971099999999
 30
0.0
 11
153.852946
 21
94.479711
 31
0.0
  0
LINE
  5
9F95
330
9DEE
100
AcDbEntity
  8
1
  6
Continuous
100
AcDbLine
 10
153.852946
 20
94.479711
 30
0.0
 11
153.852946
 21
93.479711
 31
0.0
  0
LINE
  5
9F96
330
9DEE
100
AcDbEntity
  8
2
  6
Continuous
100
AcDbLine
 10
153.311446
 20
95.021211
 30
0.0
 11
153.311446
 21
93.479711
 31
0.0
  0
LINE
  5
9F97
330
9DEE
100
AcDbEntity
  8
5
  6
PHANTOM
100
AcDbLine
 10
166.888827
 20
177.872333
 30
0.0
 11
169.032852
 21
175.773962
 31
0.0
  0
LINE
  5
9F98
330
9DEE
100
AcDbEntity
  8
5
  6
PHANTOM
100
AcDbLine
 10
166.888827
 20
177.872333
 30
0.0
 11
169.7982939999999
 21
180.8451009999997
 31
0.0
  0
LINE
  5
9F99
330
9DEE
100
AcDbEntity
  8
5
  6
PHANTOM
100
AcDbLine
 10
173.763701
 20
181.914645
 30
0.0
 11
174.417002
 21
181.2752549999999
 31
0.0
  0
LINE
  5
9F9A
330
9DEE
100
AcDbEntity
  8
5
  6
PHANTOM
100
AcDbLine
 10
131.986895
 20
167.331397
 30
0.0
 11
135.848885
 21
168.373048
 31
0.0
  0
LINE
  5
9F9B
330
9DEE
100
AcDbEntity
  8
5
  6
PHANTOM
100
AcDbLine
 10
135.848885
 20
168.373048
 30
0.0
 11
135.014845
 21
171.465306
 31
0.0
  0
LINE
  5
9F9C
330
9DEE
100
AcDbEntity
  8
5
  6
PHANTOM
100
AcDbLine
 10
131.986895
 20
167.331397
 30
0.0
 11
131.153347
 21
170.4218339999999
 31
0.0
  0
LINE
  5
9F9D
330
9DEE
100
AcDbEntity
  8
5
  6
PHANTOM
100
AcDbLine
 10
110.697595
 20
166.976006
 30
0.0
 11
134.3069779999999
 21
173.343898
 31
0.0
  0
LINE
  5
9F9E
330
9DEE
100
AcDbEntity
  8
5
  6
PHANTOM
100
AcDbLine
 10
111.2184209999999
 20
165.0450109999999
 30
0.0
 11
134.8278029999999
 21
171.412903
 31
0.0
  0
LINE
  5
9F9F
330
9DEE
100
AcDbEntity
  8
5
  6
PHANTOM
100
AcDbLine
 10
111.218419
 20
165.045025
 30
0.0
 11
110.697595
 21
166.9760199999998
 31
0.0
  0
LINE
  5
9FA0
330
9DEE
100
AcDbEntity
  8
5
  6
PHANTOM
100
AcDbLine
 10
163.3625199999999
 20
181.180723
 30
0.0
 11
186.971883
 21
187.5486109999999
 31
0.0
  0
LINE
  5
9FA1
330
9DEE
100
AcDbEntity
  8
5
  6
PHANTOM
100
AcDbLine
 10
163.8833449999999
 20
179.249728
 30
0.0
 11
187.4927089999999
 21
185.617616
 31
0.0
  0
ARC
  5
9FA2
330
9DEE
100
AcDbEntity
  8
5
  6
PHANTOM
100
AcDbCircle
 10
148.514237
 20
178.4506309999999
 30
0.0
 40
21.730781
100
AcDbArc
 50
239.592632
 51
330.596476
  0
ARC
  5
9FA3
330
9DEE
100
AcDbEntity
  8
5
  6
PHANTOM
100
AcDbCircle
 10
163.0465209999998
 20
182.6700889999999
 30
0.0
 40
15.524686
100
AcDbArc
 50
286.4613849999999
 51
346.498694
  0
ARC
  5
9FA4
330
9DEE
100
AcDbEntity
  8
5
  6
PHANTOM
100
AcDbCircle
 10
185.434911
 20
177.2945719999999
 30
0.0
 40
7.5
100
AcDbArc
 50
105.0945539999997
 51
166.498694
  0
LINE
  5
9FA5
330
9DEE
100
AcDbEntity
  8
5
  6
PHANTOM
100
AcDbLine
 10
187.492717
 20
185.617634
 30
0.0
 11
186.971892
 21
187.5486289999997
 31
0.0
  0
ARC
  5
9FA6
330
9DEE
100
AcDbEntity
  8
5
  6
PHANTOM
100
AcDbCircle
 10
151.9964159999998
 20
165.5402249999999
 30
0.0
 40
15.14098699999999
100
AcDbArc
 50
68.331873
 51
141.857238
  0
ARC
  5
9FA7
330
9DEE
100
AcDbEntity
  8
5
  6
PHANTOM
100
AcDbCircle
 10
151.9964159999998
 20
165.5402249999999
 30
0.0
 40
17.140987
100
AcDbArc
 50
68.331873
 51
141.857238
  0
ARC
  5
9FA8
330
9DEE
100
AcDbEntity
  8
5
  6
PHANTOM
100
AcDbCircle
 10
161.2792179999999
 20
188.9047019999999
 30
0.0
 40
10.0
100
AcDbArc
 50
248.331873
 51
285.094554
  0
ARC
  5
9FA9
330
9DEE
100
AcDbEntity
  8
5
  6
PHANTOM
100
AcDbCircle
 10
132.223676
 20
181.067877
 30
0.0
 40
10.0
100
AcDbArc
 50
285.094552
 51
321.8572379999999
  0
ARC
  5
9FAA
330
9DEE
100
AcDbEntity
  8
5
  6
PHANTOM
100
AcDbCircle
 10
132.223676
 20
181.067877
 30
0.0
 40
8.0
100
AcDbArc
 50
285.094552
 51
321.8572379999999
  0
ARC
  5
9FAB
330
9DEE
100
AcDbEntity
  8
5
  6
PHANTOM
100
AcDbCircle
 10
161.2792179999999
 20
188.9047019999999
 30
0.0
 40
8.0
100
AcDbArc
 50
248.331873
 51
285.094554
  0
LINE
  5
9FAC
330
9DEE
100
AcDbEntity
  8
1
  6
Continuous
100
AcDbLine
 10
128.3002729999997
 20
272.7797109999999
 30
0.0
 11
137.534076
 21
272.7797109999999
 31
0.0
  0
LINE
  5
9FAD
330
9DEE
100
AcDbEntity
  8
1
  6
Continuous
100
AcDbLine
 10
163.4759479999999
 20
264.967722
 30
0.0
 11
174.596149
 21
256.590227
 31
0.0
  0
ARC
  5
9FAE
330
9DEE
100
AcDbEntity
  8
1
  6
Continuous
100
AcDbCircle
 10
157.780292
 20
241.1974129999999
 30
0.0
 40
25.08635899999999
100
AcDbArc
 50
70.00588
 51
91.18625599999999
  0
LINE
  5
9FAF
330
9DEE
100
AcDbEntity
  8
1
  6
Continuous
100
AcDbLine
 10
66.852946
 20
185.837998
 30
0.0
 11
66.852946
 21
154.5560089999999
 31
0.0
  0
LINE
  5
9FB0
330
9DEE
100
AcDbEntity
  8
1
  6
Continuous
100
AcDbLine
 10
81.92187
 20
188.7960409999998
 30
0.0
 11
72.214915
 21
180.3135049999999
 31
0.0
  0
LINE
  5
9FB1
330
9DEE
100
AcDbEntity
  8
1
  6
Continuous
100
AcDbLine
 10
82.60141299999999
 20
161.406778
 30
0.0
 11
74.89232300000002
 21
166.7797079999999
 31
0.0
  0
LINE
  5
9FB2
330
9DEE
100
AcDbEntity
  8
1
  6
Continuous
100
AcDbLine
 10
82.79526099999998
 20
162.994543
 30
0.0
 11
76.29688799999998
 21
167.52365
 31
0.0
  0
ARC
  5
9FB3
330
9DEE
100
AcDbEntity
  8
1
  6
Continuous
100
AcDbCircle
 10
74.102946
 20
171.15315
 30
0.0
 40
16.481396
100
AcDbArc
 50
243.995644
 51
296.9256409999998
  0
LINE
  5
9FB4
330
9DEE
100
AcDbEntity
  8
1
  6
Continuous
100
AcDbLine
 10
66.83507099999999
 20
154.55668
 30
0.0
 11
64.852946
 21
154.55668
 31
0.0
  0
LINE
  5
9FB5
330
9DEE
100
AcDbEntity
  8
1
  6
Continuous
100
AcDbLine
 10
66.852946
 20
156.5235989999998
 30
0.0
 11
64.852946
 21
156.5235989999998
 31
0.0
  0
LINE
  5
9FB6
330
9DEE
100
AcDbEntity
  8
1
  6
Continuous
100
AcDbLine
 10
83.352946
 20
159.36976
 30
0.0
 11
83.352946
 21
161.09263
 31
0.0
  0
ARC
  5
9FB7
330
9DEE
100
AcDbEntity
  8
1
  6
Continuous
100
AcDbCircle
 10
80.087638
 20
161.0928439999999
 30
0.0
 40
3.265308999999998
100
AcDbArc
 50
359.9963159999999
 51
36.009782
  0
ARC
  5
9FB8
330
9DEE
100
AcDbEntity
  8
1
  6
Continuous
100
AcDbCircle
 10
80.087638
 20
159.36976
 30
0.0
 40
3.265308999999998
100
AcDbArc
 50
296.925655
 51
37.775239
  0
LINE
  5
9FB9
330
9DEE
100
AcDbEntity
  8
1
  6
Continuous
100
AcDbLine
 10
66.852946
 20
172.267561
 30
0.0
 11
64.852946
 21
172.267561
 31
0.0
  0
LINE
  5
9FBA
330
9DEE
100
AcDbEntity
  8
1
  6
Continuous
100
AcDbLine
 10
71.43660699999998
 20
179.9430059999999
 30
0.0
 11
66.87959599999999
 21
179.9430059999999
 31
0.0
  0
ARC
  5
9FBB
330
9DEE
100
AcDbEntity
  8
1
  6
Continuous
100
AcDbCircle
 10
117.7983389999997
 20
181.647596
 30
0.0
 40
46.34549299999998
100
AcDbArc
 50
182.0790639999999
 51
187.7726539999999
  0
ARC
  5
9FBC
330
9DEE
100
AcDbEntity
  8
1
  6
Continuous
100
AcDbCircle
 10
120.864425
 20
179.968122
 30
0.0
 40
49.439144
100
AcDbArc
 50
180.0123989999999
 51
185.3252489999999
  0
ARC
  5
9FBD
330
9DEE
100
AcDbEntity
  8
1
  6
Continuous
100
AcDbCircle
 10
71.227885
 20
181.443006
 30
0.0
 40
1.5
100
AcDbArc
 50
277.5908309999999
 51
311.148981
  0
ARC
  5
9FBE
330
9DEE
100
AcDbEntity
  8
1
  6
Continuous
100
AcDbCircle
 10
73.602946
 20
179.202955
 30
0.0
 40
15.590692
100
AcDbArc
 50
63.07463900000001
 51
116.925366
  0
ARC
  5
9FBF
330
9DEE
100
AcDbEntity
  8
1
  6
Continuous
100
AcDbCircle
 10
73.602946
 20
180.9259769999999
 30
0.0
 40
15.590692
100
AcDbArc
 50
63.07463900000001
 51
116.925366
  0
LINE
  5
9FC0
330
9DEE
100
AcDbEntity
  8
1
  6
Continuous
100
AcDbLine
 10
65.065402
 20
189.4516429999999
 30
0.0
 11
64.852946
 21
189.4516429999999
 31
0.0
  0
ARC
  5
9FC1
330
9DEE
100
AcDbEntity
  8
1
  6
Continuous
100
AcDbCircle
 10
67.94169899999999
 20
190.3496529999999
 30
0.0
 40
3.088754
100
AcDbArc
 50
116.925366
 51
227.8151009999998
  0
ARC
  5
9FC2
330
9DEE
100
AcDbEntity
  8
1
  6
Continuous
100
AcDbCircle
 10
67.94169899999999
 20
192.072645
 30
0.0
 40
3.088754
100
AcDbArc
 50
116.925366
 51
180.000005
  0
LINE
  5
9FC3
330
9DEE
100
AcDbEntity
  8
1
  6
Continuous
100
AcDbLine
 10
82.35294600000001
 20
190.3497749999999
 30
0.0
 11
82.35294600000001
 21
192.072645
 31
0.0
  0
ARC
  5
9FC4
330
9DEE
100
AcDbEntity
  8
1
  6
Continuous
100
AcDbCircle
 10
79.26419399999997
 20
190.3496529999999
 30
0.0
 40
3.088754
100
AcDbArc
 50
330.441192
 51
63.07463900000001
  0
ARC
  5
9FC5
330
9DEE
100
AcDbEntity
  8
1
  6
Continuous
100
AcDbCircle
 10
79.26419399999997
 20
192.072645
 30
0.0
 40
3.088754
100
AcDbArc
 50
359.999997
 51
63.07463900000001
  0
ARC
  5
9FC6
330
9DEE
100
AcDbEntity
  8
1
  6
Continuous
100
AcDbCircle
 10
128.300281
 20
262.101786
 30
0.0
 40
6.822074999999999
100
AcDbArc
 50
220.7444229999999
 51
313.504321
  0
ARC
  5
9FC7
330
9DEE
100
AcDbEntity
  8
1
  6
Continuous
100
AcDbCircle
 10
130.5381879999998
 20
264.0297109999999
 30
0.0
 40
9.775907
100
AcDbArc
 50
139.2555769999999
 51
220.7444329999999
  0
ARC
  5
9FC8
330
9DEE
100
AcDbEntity
  8
1
  6
Continuous
100
AcDbCircle
 10
129.5224409999997
 20
264.0297109999999
 30
0.0
 40
9.775907
100
AcDbArc
 50
139.2555769999999
 51
220.7444329999999
  0
LINE
  5
9FC9
330
9DEE
100
AcDbEntity
  8
1
  6
Continuous
100
AcDbLine
 10
127.2845339999999
 20
255.2797109999999
 30
0.0
 11
128.3002729999997
 21
255.2797109999999
 31
0.0
  0
ARC
  5
9FCA
330
9DEE
100
AcDbEntity
  8
1
  6
Continuous
100
AcDbCircle
 10
127.2845339999999
 20
262.101786
 30
0.0
 40
6.822074999999999
100
AcDbArc
 50
220.7444229999999
 51
269.9999969999999
  0
LINE
  5
9FCB
330
9DEE
100
AcDbEntity
  8
1
  6
Continuous
100
AcDbLine
 10
127.2845339999999
 20
272.7797109999999
 30
0.0
 11
128.3002729999997
 21
272.7797109999999
 31
0.0
  0
ARC
  5
9FCC
330
9DEE
100
AcDbEntity
  8
1
  6
Continuous
100
AcDbCircle
 10
128.300281
 20
265.9576359999999
 30
0.0
 40
6.822074999999999
100
AcDbArc
 50
90.00006399999998
 51
139.2555769999999
  0
ARC
  5
9FCD
330
9DEE
100
AcDbEntity
  8
1
  6
Continuous
100
AcDbCircle
 10
127.2845339999999
 20
265.9576359999999
 30
0.0
 40
6.822074999999999
100
AcDbArc
 50
90.00000300000001
 51
139.2555769999999
  0
LINE
  5
9FCE
330
9DEE
100
AcDbEntity
  8
1
  6
Continuous
100
AcDbLine
 10
132.9966609999999
 20
257.1535819999999
 30
0.0
 11
143.7115689999999
 21
264.3332189999998
 31
0.0
  0
ARC
  5
9FCF
330
9DEE
100
AcDbEntity
  8
1
  6
Continuous
100
AcDbCircle
 10
159.093929
 20
194.636423
 30
0.0
 40
71.66503099999999
100
AcDbArc
 50
91.46818600000001
 51
101.211121
  0
LINE
  5
9FD0
330
9DEE
100
AcDbEntity
  8
1
  6
Continuous
100
AcDbLine
 10
145.952007
 20
267.7791839999998
 30
0.0
 11
145.952007
 21
270.014227
 31
0.0
  0
ARC
  5
9FD2
330
9DEE
100
AcDbEntity
  8
1
  6
Continuous
100
AcDbCircle
 10
157.770831
 20
253.2533359999999
 30
0.0
 40
13.033875
100
AcDbArc
 50
64.08327299999999
 51
91.053914
  0
LINE
  5
9FD3
330
9DEE
100
AcDbEntity
  8
1
  6
Continuous
100
AcDbLine
 10
138.549769
 20
276.2797109999999
 30
0.0
 11
141.995508
 21
276.2797109999999
 31
0.0
  0
LINE
  5
9FD4
330
9DEE
100
AcDbEntity
  8
1
  6
Continuous
100
AcDbLine
 10
137.534037
 20
276.2797109999999
 30
0.0
 11
141.995508
 21
276.2797109999999
 31
0.0
  0
LINE
  5
9FD5
330
9DEE
100
AcDbEntity
  8
1
  6
Continuous
100
AcDbLine
 10
138.549776
 20
269.7797109999999
 30
0.0
 11
138.549776
 21
276.2797109999999
 31
0.0
  0
LINE
  5
9FD6
330
9DEE
100
AcDbEntity
  8
1
  6
Continuous
100
AcDbLine
 10
141.995508
 20
269.7797109999999
 30
0.0
 11
141.995508
 21
276.2797109999999
 31
0.0
  0
LINE
  5
9FD7
330
9DEE
100
AcDbEntity
  8
1
  6
Continuous
100
AcDbLine
 10
137.534037
 20
272.7797109999999
 30
0.0
 11
137.534037
 21
276.2797109999999
 31
0.0
  0
LINE
  5
9FD8
330
9DEE
100
AcDbEntity
  8
1
  6
Continuous
100
AcDbLine
 10
166.357913
 20
264.7717689999999
 30
0.0
 11
175.3844479999999
 21
256.7843799999999
 31
0.0
  0
ARC
  5
9FD9
330
9DEE
100
AcDbEntity
  8
1
  6
Continuous
100
AcDbCircle
 10
178.480487
 20
263.5297109999999
 30
0.0
 40
10.33528
100
AcDbArc
 50
319.258212
 51
18.328029
  0
LINE
  5
9FDA
330
9DEE
100
AcDbEntity
  8
1
  6
Continuous
100
AcDbLine
 10
179.832034
 20
254.2797109999999
 30
0.0
 11
180.8477659999999
 21
254.2797109999999
 31
0.0
  0
ARC
  5
9FDB
330
9DEE
100
AcDbEntity
  8
1
  6
Continuous
100
AcDbCircle
 10
180.8477659999999
 20
261.4905189999999
 30
0.0
 40
7.210811999999998
100
AcDbArc
 50
220.741787
 51
319.258212
  0
ARC
  5
9FDC
330
9DEE
100
AcDbEntity
  8
1
  6
Continuous
100
AcDbCircle
 10
179.832034
 20
261.4905189999999
 30
0.0
 40
7.210811999999998
100
AcDbArc
 50
221.442414
 51
269.9999969999999
  0
LINE
  5
9FDD
330
9DEE
100
AcDbEntity
  8
1
  6
Continuous
100
AcDbLine
 10
246.370021
 20
190.3328529999997
 30
0.0
 11
254.2821759999999
 21
182.9604469999999
 31
0.0
  0
ARC
  5
9FDE
330
9DEE
100
AcDbEntity
  8
1
  6
Continuous
100
AcDbCircle
 10
248.941707
 20
190.3496529999999
 30
0.0
 40
3.088754
100
AcDbArc
 50
179.9999909999999
 51
243.07463
  0
LINE
  5
9FDF
330
9DEE
100
AcDbEntity
  8
1
  6
Continuous
100
AcDbLine
 10
255.138859
 20
169.522634
 30
0.0
 11
262.0328929999999
 21
169.522634
 31
0.0
  0
LINE
  5
9FE0
330
9DEE
100
AcDbEntity
  8
1
  6
Continuous
100
AcDbLine
 10
255.8491549999998
 20
183.05676
 30
0.0
 11
261.389862
 21
183.05676
 31
0.0
  0
ARC
  5
9FE1
330
9DEE
100
AcDbEntity
  8
1
  6
Continuous
100
AcDbCircle
 10
254.102946
 20
171.153173
 30
0.0
 40
16.481396
100
AcDbArc
 50
243.07436
 51
296.925648
  0
ARC
  5
9FE2
330
9DEE
100
AcDbEntity
  8
1
  6
Continuous
100
AcDbCircle
 10
254.102946
 20
172.8760349999998
 30
0.0
 40
16.481396
100
AcDbArc
 50
243.07436
 51
296.925648
  0
LINE
  5
9FE3
330
9DEE
100
AcDbEntity
  8
1
  6
Continuous
100
AcDbLine
 10
254.307981
 20
168.556299
 30
0.0
 11
247.5197099999999
 21
164.418752
 31
0.0
  0
LINE
  5
9FE4
330
9DEE
100
AcDbEntity
  8
1
  6
Continuous
100
AcDbLine
 10
244.852946
 20
161.0926409999999
 30
0.0
 11
244.852946
 21
159.369779
 31
0.0
  0
ARC
  5
9FE5
330
9DEE
100
AcDbEntity
  8
1
  6
Continuous
100
AcDbCircle
 10
248.1182659999999
 20
159.369779
 30
0.0
 40
3.265308999999998
100
AcDbArc
 50
179.9999909999999
 51
243.074357
  0
ARC
  5
9FE6
330
9DEE
100
AcDbEntity
  8
1
  6
Continuous
100
AcDbCircle
 10
254.102946
 20
149.309248
 30
0.0
 40
16.481396
100
AcDbArc
 50
113.5428179999999
 51
116.9256399999999
  0
ARC
  5
9FE7
330
9DEE
100
AcDbEntity
  8
1
  6
Continuous
100
AcDbCircle
 10
248.1182659999999
 20
161.0926409999999
 30
0.0
 40
3.265308999999998
100
AcDbArc
 50
116.9256529999999
 51
243.074357
  0
LINE
  5
9FE8
330
9DEE
100
AcDbEntity
  8
1
  6
Continuous
100
AcDbLine
 10
247.5031079999999
 20
187.6315129999999
 30
0.0
 11
254.708705
 21
181.170278
 31
0.0
  0
ARC
  5
9FE9
330
9DEE
100
AcDbEntity
  8
1
  6
Continuous
100
AcDbCircle
 10
256.2009839999999
 20
180.4871569999999
 30
0.0
 40
0.6487020000000002
100
AcDbArc
 50
27.07078
 51
120.0123389999999
  0
ARC
  5
9FEA
330
9DEE
100
AcDbEntity
  8
1
  6
Continuous
100
AcDbCircle
 10
256.031352
 20
182.312139
 30
0.0
 40
0.74462
100
AcDbArc
 50
16.70499799999999
 51
127.7239769999999
  0
ARC
  5
9FEB
330
9DEE
100
AcDbEntity
  8
1
  6
Continuous
100
AcDbCircle
 10
210.4075579999999
 20
181.647627
 30
0.0
 40
46.34549299999998
100
AcDbArc
 50
345.1255739999999
 51
1.085982
  0
ARC
  5
9FEC
330
9DEE
100
AcDbEntity
  8
1
  6
Continuous
100
AcDbCircle
 10
254.9638929999999
 20
183.6920749999999
 30
0.0
 40
1.0
100
AcDbArc
 50
227.0224729999999
 51
307.723979
  0
ARC
  5
9FED
330
9DEE
100
AcDbEntity
  8
1
  6
Continuous
100
AcDbCircle
 10
255.3763229999999
 20
181.9148
 30
0.0
 40
1.0
100
AcDbArc
 50
228.1175439999999
 51
300.012334
  0
LINE
  5
9FEE
330
9DEE
100
AcDbEntity
  8
1
  6
Continuous
100
AcDbLine
 10
261.3529459999999
 20
154.5567069999998
 30
0.0
 11
263.3529459999999
 21
154.5567069999998
 31
0.0
  0
LINE
  5
9FEF
330
9DEE
100
AcDbEntity
  8
1
  6
Continuous
100
AcDbLine
 10
261.352885
 20
156.351987
 30
0.0
 11
261.3529619999998
 21
154.5567069999998
 31
0.0
  0
ARC
  5
9FF0
330
9DEE
100
AcDbEntity
  8
1
  6
Continuous
100
AcDbCircle
 10
260.087642
 20
159.369779
 30
0.0
 40
3.265308999999998
100
AcDbArc
 50
296.925648
 51
0.000003
  0
ARC
  5
9FF1
330
9DEE
100
AcDbEntity
  8
1
  6
Continuous
100
AcDbCircle
 10
260.087642
 20
161.0926409999999
 30
0.0
 40
3.265308999999998
100
AcDbArc
 50
296.925648
 51
0.000003
  0
ARC
  5
9FF3
330
9DEE
100
AcDbEntity
  8
1
  6
Continuous
100
AcDbCircle
 10
254.602946
 20
180.9259769999999
 30
0.0
 40
15.590692
100
AcDbArc
 50
72.26175000000002
 51
116.925366
  0
LINE
  5
9FF4
330
9DEE
100
AcDbEntity
  8
1
  6
Continuous
100
AcDbLine
 10
245.852946
 20
192.07266
 30
0.0
 11
245.852946
 21
190.3497899999999
 31
0.0
  0
ARC
  5
9FF5
330
9DEE
100
AcDbEntity
  8
1
  6
Continuous
100
AcDbCircle
 10
248.941707
 20
192.07266
 30
0.0
 40
3.088754
100
AcDbArc
 50
116.925366
 51
215.4550529999999
  0
LINE
  5
9FF6
330
9DEE
100
AcDbEntity
  8
1
  6
Continuous
100
AcDbLine
 10
61.35294599999999
 20
186.0305239999999
 30
0.0
 11
61.35294599999999
 21
183.9990599999999
 31
0.0
  0
LINE
  5
9FF7
330
9DEE
100
AcDbEntity
  8
1
  6
Continuous
100
AcDbLine
 10
64.852946
 20
184.3076619999999
 30
0.0
 11
61.35294599999999
 21
184.3076619999999
 31
0.0
  0
LINE
  5
9FF8
330
9DEE
100
AcDbEntity
  8
1
  6
Continuous
100
AcDbLine
 10
61.35294599999999
 20
184.3076619999999
 30
0.0
 11
61.35294599999999
 21
182.2761899999999
 31
0.0
  0
LINE
  5
9FF9
330
9DEE
100
AcDbEntity
  8
1
  6
Continuous
100
AcDbLine
 10
64.852946
 20
182.2761899999999
 30
0.0
 11
61.35294599999999
 21
182.2761899999999
 31
0.0
  0
LINE
  5
9FFA
330
9DEE
100
AcDbEntity
  8
1
  6
Continuous
100
AcDbLine
 10
64.852946
 20
186.0305239999999
 30
0.0
 11
61.35294599999999
 21
186.0305239999999
 31
0.0
  0
ARC
  5
9FFC
330
9DEE
100
AcDbEntity
  8
1
  6
Continuous
100
AcDbCircle
 10
159.093929
 20
161.922998
 30
0.0
 40
71.66503099999999
100
AcDbArc
 50
258.621456
 51
259.3527369999999
  0
LINE
  5
9FFD
330
9DEE
100
AcDbEntity
  8
1
  6
Continuous
100
AcDbLine
 10
132.9966609999999
 20
99.40584000000001
 30
0.0
 11
143.877036
 21
92.11533000000001
 31
0.0
  0
LINE
  5
9FFE
330
9DEE
100
AcDbEntity
  8
1
  6
Continuous
100
AcDbLine
 10
137.534037
 20
80.279711
 30
0.0
 11
141.995508
 21
80.279711
 31
0.0
  0
LINE
  5
9FFF
330
9DEE
100
AcDbEntity
  8
1
  6
Continuous
100
AcDbLine
 10
138.549776
 20
80.279711
 30
0.0
 11
141.995508
 21
80.279711
 31
0.0
  0
LINE
  5
A000
330
9DEE
100
AcDbEntity
  8
1
  6
Continuous
100
AcDbLine
 10
141.995508
 20
83.77971099999998
 30
0.0
 11
141.995508
 21
80.279711
 31
0.0
  0
LINE
  5
A001
330
9DEE
100
AcDbEntity
  8
1
  6
Continuous
100
AcDbLine
 10
137.534037
 20
83.77971099999998
 30
0.0
 11
137.534037
 21
80.279711
 31
0.0
  0
ARC
  5
A002
330
9DEE
100
AcDbEntity
  8
1
  6
Continuous
100
AcDbCircle
 10
128.300281
 20
94.45763599999999
 30
0.0
 40
6.822074999999999
100
AcDbArc
 50
46.495679
 51
90.02142199999999
  0
ARC
  5
A003
330
9DEE
100
AcDbEntity
  8
1
  6
Continuous
100
AcDbCircle
 10
178.480487
 20
93.02971099999997
 30
0.0
 40
10.33528
100
AcDbArc
 50
319.258212
 51
40.741788
  0
ARC
  5
A004
330
9DEE
100
AcDbEntity
  8
1
  6
Continuous
100
AcDbCircle
 10
171.701755
 20
84.494293
 30
0.0
 40
3.914581999999997
100
AcDbArc
 50
230.137025
 51
309.862975
  0
LINE
  5
A005
330
9DEE
100
AcDbEntity
  8
1
  6
Continuous
100
AcDbLine
 10
170.710077
 20
82.85655
 30
0.0
 11
170.170032
 21
83.77971099999998
 31
0.0
  0
LINE
  5
A007
330
9DEE
100
AcDbEntity
  8
1
  6
Continuous
100
AcDbLine
 10
169.1926889999997
 20
81.48954000000001
 30
0.0
 11
167.852946
 21
83.77971099999998
 31
0.0
  0
ARC
  5
A008
330
9DEE
100
AcDbEntity
  8
1
  6
Continuous
100
AcDbCircle
 10
180.8477659999999
 20
90.990526
 30
0.0
 40
7.210811999999998
100
AcDbArc
 50
269.9999969999999
 51
319.258212
  0
LINE
  5
A009
330
9DEE
100
AcDbEntity
  8
1
  6
Continuous
100
AcDbLine
 10
174.210821
 20
81.48954000000001
 30
0.0
 11
175.5505629999999
 21
83.77971099999998
 31
0.0
  0
ARC
  5
A00A
330
9DEE
100
AcDbEntity
  8
1
  6
Continuous
100
AcDbCircle
 10
171.701755
 20
84.494293
 30
0.0
 40
1.914582
100
AcDbArc
 50
238.8044779999999
 51
301.1955219999998
  0
LINE
  5
A00B
330
9DEE
100
AcDbEntity
  8
1
  6
Continuous
100
AcDbLine
 10
172.6934319999998
 20
82.85655
 30
0.0
 11
173.2334779999999
 21
83.77971099999998
 31
0.0
  0
ARC
  5
A00C
330
9DEE
100
AcDbEntity
  8
1
  6
Continuous
100
AcDbCircle
 10
180.8477659999999
 20
95.068903
 30
0.0
 40
7.210811999999998
100
AcDbArc
 50
40.741788
 51
90.05893499999997
  0
ARC
  5
A00D
330
9DEE
100
AcDbEntity
  8
1
  6
Continuous
100
AcDbCircle
 10
158.0782289999999
 20
161.922998
 30
0.0
 40
71.66503099999999
100
AcDbArc
 50
258.788879
 51
260.1779199999999
  0
LINE
  5
A00E
330
9DEE
100
AcDbEntity
  8
1
  6
Continuous
100
AcDbLine
 10
131.980961
 20
99.40584000000001
 30
0.0
 11
142.695869
 21
92.226203
 31
0.0
  0
ARC
  5
A00F
330
9DEE
100
AcDbEntity
  8
1
  6
Continuous
100
AcDbCircle
 10
129.5224879999999
 20
92.52971100000001
 30
0.0
 40
9.775907
100
AcDbArc
 50
139.2555669999999
 51
220.7444229999999
  0
ARC
  5
A010
330
9DEE
100
AcDbEntity
  8
1
  6
Continuous
100
AcDbCircle
 10
127.2845809999999
 20
90.601786
 30
0.0
 40
6.822074999999999
100
AcDbArc
 50
220.7444229999999
 51
269.999936
  0
LINE
  5
A011
330
9DEE
100
AcDbEntity
  8
1
  6
Continuous
100
AcDbLine
 10
144.9363069999999
 20
87.779711
 30
0.0
 11
144.9363069999999
 21
86.51962500000001
 31
0.0
  0
ARC
  5
A012
330
9DEE
100
AcDbEntity
  8
1
  6
Continuous
100
AcDbCircle
 10
127.2845809999999
 20
94.45763599999999
 30
0.0
 40
6.822074999999999
100
AcDbArc
 50
46.495679
 51
139.2555769999999
  0
ARC
  5
A013
330
9DEE
100
AcDbEntity
  8
1
  6
Continuous
100
AcDbCircle
 10
177.464787
 20
93.02971099999997
 30
0.0
 40
10.33528
100
AcDbArc
 50
319.258212
 51
40.741788
  0
LINE
  5
A014
330
9DEE
100
AcDbEntity
  8
1
  6
Continuous
100
AcDbLine
 10
162.6110659999999
 20
89.909367
 30
0.0
 11
162.6110659999999
 21
86.51962500000001
 31
0.0
  0
ARC
  5
A015
330
9DEE
100
AcDbEntity
  8
1
  6
Continuous
100
AcDbCircle
 10
179.8320659999999
 20
90.990526
 30
0.0
 40
7.210811999999998
100
AcDbArc
 50
269.9999969999999
 51
319.258212
  0
ARC
  5
A016
330
9DEE
100
AcDbEntity
  8
1
  6
Continuous
100
AcDbCircle
 10
179.8320659999999
 20
95.068903
 30
0.0
 40
7.210811999999998
100
AcDbArc
 50
40.741788
 51
139.2582129999997
  0
LINE
  5
A017
330
9DEE
100
AcDbEntity
  8
1
  6
Continuous
100
AcDbLine
 10
128.7465819999999
 20
85.77971099999997
 30
0.0
 11
179.3460179999999
 21
85.77971099999997
 31
0.0
  0
LINE
  5
A018
330
9DEE
100
AcDbEntity
  8
1
  6
Continuous
100
AcDbLine
 10
127.2845809999999
 20
101.2797109999999
 30
0.0
 11
128.300281
 21
101.2797109999999
 31
0.0
  0
LINE
  5
A019
330
9DEE
100
AcDbEntity
  8
1
  6
Continuous
100
AcDbLine
 10
180.8477659999999
 20
102.2797149999999
 30
0.0
 11
179.8320659999999
 21
102.2797149999999
 31
0.0
  0
LINE
  5
A01A
330
9DEE
100
AcDbEntity
  8
1
  6
Continuous
100
AcDbLine
 10
161.0309919999999
 20
85.77971099999997
 30
0.0
 11
161.0309919999999
 21
83.77971099999998
 31
0.0
  0
LINE
  5
A01B
330
9DEE
100
AcDbEntity
  8
1
  6
Continuous
100
AcDbLine
 10
134.3265319999999
 20
85.77971099999997
 30
0.0
 11
134.3265319999999
 21
83.77971099999998
 31
0.0
  0
LINE
  5
A01C
330
9DEE
100
AcDbEntity
  8
1
  6
Continuous
100
AcDbLine
 10
127.2845339999999
 20
83.77971099999998
 30
0.0
 11
128.7465819999999
 21
83.77971099999998
 31
0.0
  0
LINE
  5
A01E
330
9DEE
100
AcDbEntity
  8
1
  6
Continuous
100
AcDbLine
 10
163.4759479999999
 20
91.59170000000001
 30
0.0
 11
174.596149
 21
99.96919400000001
 31
0.0
  0
ARC
  5
A01F
330
9DEE
100
AcDbEntity
  8
1
  6
Continuous
100
AcDbCircle
 10
157.770831
 20
103.3060859999997
 30
0.0
 40
13.033875
100
AcDbArc
 50
268.0567720209007
 51
295.916727
  0
LINE
  5
A020
330
9DEE
100
AcDbEntity
  8
1
  6
Continuous
100
AcDbLine
 10
266.8529459999999
 20
163.979711
 30
0.0
 11
266.8529459999999
 21
160.979711
 31
0.0
  0
LINE
  5
A021
330
9DEE
100
AcDbEntity
  8
1
  6
Continuous
100
AcDbLine
 10
263.3529459999999
 20
163.979711
 30
0.0
 11
266.8529459999999
 21
163.979711
 31
0.0
  0
LINE
  5
A022
330
9DEE
100
AcDbEntity
  8
1
  6
Continuous
100
AcDbLine
 10
64.852946
 20
163.979711
 30
0.0
 11
61.35294599999999
 21
163.979711
 31
0.0
  0
LINE
  5
A023
330
9DEE
100
AcDbEntity
  8
1
  6
Continuous
100
AcDbLine
 10
61.35294599999999
 20
163.979711
 30
0.0
 11
61.35294599999999
 21
160.979711
 31
0.0
  0
LINE
  5
A024
330
9DEE
100
AcDbEntity
  8
1
  6
Continuous
100
AcDbLine
 10
140.9797689999997
 20
83.77971099999998
 30
0.0
 11
140.9797689999997
 21
80.279711
 31
0.0
  0
LINE
  5
A025
330
9DEE
100
AcDbEntity
  8
5
  6
PHANTOM
100
AcDbLine
 10
169.032852
 20
175.773962
 30
0.0
 11
174.417002
 21
181.2752549999999
 31
0.0
  0
LINE
  5
A026
330
9DEE
100
AcDbEntity
  8
1
  6
Continuous
100
AcDbLine
 10
263.3529459999999
 20
160.979711
 30
0.0
 11
266.8529459999999
 21
160.979711
 31
0.0
  0
LINE
  5
A027
330
9DEE
100
AcDbEntity
  8
1
  6
Continuous
100
AcDbLine
 10
64.852946
 20
160.979711
 30
0.0
 11
61.35294599999999
 21
160.979711
 31
0.0
  0
LINE
  5
A028
330
9DEE
100
AcDbEntity
  8
1
  6
Continuous
100
AcDbLine
 10
141.995508
 20
272.7797109999999
 30
0.0
 11
144.9247469999999
 21
272.7797109999999
 31
0.0
  0
LINE
  5
A029
330
9DEE
100
AcDbEntity
  8
1
  6
Continuous
100
AcDbLine
 10
128.7465819999999
 20
83.77971099999998
 30
0.0
 11
128.7465819999999
 21
85.77971099999997
 31
0.0
  0
ARC
  5
A02A
330
9DEE
100
AcDbEntity
  8
1
  6
Continuous
100
AcDbCircle
 10
128.6511229999999
 20
70.617547
 30
0.0
 40
15.162465
100
AcDbArc
 50
89.63927899999999
 51
109.6732959999997
  0
ARC
  5
A02B
330
9DEE
100
AcDbEntity
  8
5
  6
PHANTOM
100
AcDbCircle
 10
136.365609
 20
176.7113929999999
 30
0.0
 40
17.04127
100
AcDbArc
 50
232.255572
 51
273.8684629999998
  0
ARC
  5
A02C
330
9DEE
100
AcDbEntity
  8
5
  6
PHANTOM
100
AcDbCircle
 10
123.837349
 20
175.785982
 30
0.0
 40
12.72388499999999
100
AcDbArc
 50
228.9271209999999
 51
279.4843119999999
  0
LINE
  5
A02D
330
9DEE
100
AcDbEntity
  8
1
  6
Continuous
100
AcDbLine
 10
66.852946
 20
183.011656
 30
0.0
 11
64.852946
 21
183.011656
 31
0.0
  0
ARC
  5
A02E
330
9DEE
100
AcDbEntity
  8
1
  6
Continuous
100
AcDbCircle
 10
253.2670669999999
 20
170.264075
 30
0.0
 40
2.0
100
AcDbArc
 50
301.362899
 51
345.1255739999999
  0
ARC
  5
A02F
330
9DEE
100
AcDbEntity
  8
1
  6
Continuous
100
AcDbCircle
 10
179.3460179999999
 20
83.77971099999998
 30
0.0
 40
2.0
100
AcDbArc
 50
4.570284
 51
90.0
  0
LINE
  5
A030
330
9DEE
100
AcDbEntity
  8
5
  6
PHANTOM
100
AcDbLine
 10
171.724927
 20
178.524609
 30
0.0
 11
169.580902
 21
180.6229789999999
 31
0.0
  0
ARC
  5
A031
330
9DEE
100
AcDbEntity
  8
1
  6
Continuous
100
AcDbCircle
 10
145.938172
 20
261.0102319999999
 30
0.0
 40
4.0
100
AcDbArc
 50
101.211121
 51
123.824482
  0
ARC
  5
A032
330
9DEE
100
AcDbEntity
  8
1
  6
Continuous
100
AcDbCircle
 10
63.85294599999999
 20
185.837998
 30
0.0
 40
3.0
100
AcDbArc
 50
0.0
 51
47.815101
  0
ARC
  5
A033
330
9DEE
100
AcDbEntity
  8
1
  6
Continuous
100
AcDbCircle
 10
145.546988
 20
94.60756999999999
 30
0.0
 40
3.0
100
AcDbArc
 50
236.175518
 51
258.621456
  0
ARC
  5
A034
330
9DEE
100
AcDbEntity
  8
1
  6
Continuous
100
AcDbCircle
 10
144.9224719999999
 20
95.549189
 30
0.0
 40
4.0
100
AcDbArc
 50
236.175518
 51
258.788879
  0
ARC
  5
A035
330
9DEE
100
AcDbEntity
  8
1
  6
Continuous
100
AcDbCircle
 10
137.534076
 20
271.764011
 30
0.0
 40
1.0157
100
AcDbArc
 50
0.0
 51
90.0
  0
ARC
  5
A036
330
9DEE
100
AcDbEntity
  8
1
  6
Continuous
100
AcDbCircle
 10
150.852946
 20
169.7797109999999
 30
0.0
 40
18.200001
100
AcDbArc
 50
168.079003
 51
309.8156599999998
  0
ARC
  5
A037
330
9DEE
100
AcDbEntity
  8
1
  6
Continuous
100
AcDbCircle
 10
150.852946
 20
169.7797109999999
 30
0.0
 40
27.700001
100
AcDbArc
 50
148.416661
 51
329.806957
  0
ARC
  5
A038
330
9DEE
100
AcDbEntity
  8
1
  6
Continuous
100
AcDbCircle
 10
150.852946
 20
169.7797109999999
 30
0.0
 40
37.5
100
AcDbArc
 50
140.657858
 51
338.2981389999998
  0
ARC
  5
A039
330
9DEE
100
AcDbEntity
  8
1
  6
Continuous
100
AcDbCircle
 10
150.852946
 20
169.7797109999999
 30
0.0
 40
37.5
100
AcDbArc
 50
341.405072
 51
39.70278
  0
ARC
  5
A03A
330
9DEE
100
AcDbEntity
  8
1
  6
Continuous
100
AcDbCircle
 10
150.852946
 20
169.7797109999999
 30
0.0
 40
27.700001
100
AcDbArc
 50
345.725264
 51
35.115898
  0
ARC
  5
A03B
330
9DEE
100
AcDbEntity
  8
1
  6
Continuous
100
AcDbCircle
 10
150.852946
 20
169.7797109999999
 30
0.0
 40
18.200001
100
AcDbArc
 50
354.6808219999999
 51
25.55991699999999
  0
ARC
  5
A03C
330
9DEE
100
AcDbEntity
  8
1
  6
Continuous
100
AcDbCircle
 10
150.852946
 20
169.7797109999999
 30
0.0
 40
18.200001
100
AcDbArc
 50
131.060807
 51
141.426592
  0
ARC
  5
A03D
330
9DEE
100
AcDbEntity
  8
1
  6
Continuous
100
AcDbCircle
 10
148.6228999999999
 20
165.997164
 30
0.0
 40
15.14098699999999
100
AcDbArc
 50
22.71531799999999
 51
96.24068199999996
  0
ARC
  5
A03E
330
9DEE
100
AcDbEntity
  8
1
  6
Continuous
100
AcDbCircle
 10
145.6735779999999
 20
184.9818579999999
 30
0.0
 40
17.04127
100
AcDbArc
 50
186.639017
 51
228.2519069999999
  0
ARC
  5
A03F
330
9DEE
100
AcDbEntity
  8
1
  6
Continuous
100
AcDbCircle
 10
148.6228999999999
 20
165.997164
 30
0.0
 40
17.140987
100
AcDbArc
 50
22.71531799999999
 51
96.24068199999996
  0
ARC
  5
A040
330
9DEE
100
AcDbEntity
  8
1
  6
Continuous
100
AcDbCircle
 10
155.4140079999999
 20
177.516062
 30
0.0
 40
21.730781
100
AcDbArc
 50
193.976076
 51
284.97992
  0
LINE
  5
A041
330
9DEE
100
AcDbEntity
  8
1
  6
Continuous
100
AcDbLine
 10
167.852946
 20
160.979711
 30
0.0
 11
175.5505629999999
 21
160.979711
 31
0.0
  0
LINE
  5
A042
330
9DEE
100
AcDbEntity
  8
1
  6
Continuous
100
AcDbLine
 10
167.7508699999999
 20
168.81395
 30
0.0
 11
188.81557
 21
156.394995
 31
0.0
  0
ARC
  5
A043
330
9DEE
100
AcDbEntity
  8
1
  6
Continuous
100
AcDbCircle
 10
168.594254
 20
170.081533
 30
0.0
 40
15.524686
100
AcDbArc
 50
240.8448289999999
 51
300.882139
  0
LINE
  5
A044
330
9DEE
100
AcDbEntity
  8
1
  6
Continuous
100
AcDbLine
 10
166.7351309999999
 20
167.091081
 30
0.0
 11
187.799831
 21
154.6721269999999
 31
0.0
  0
LINE
  5
A045
330
9DEE
100
AcDbEntity
  8
1
  6
Continuous
100
AcDbLine
 10
167.852946
 20
163.979711
 30
0.0
 11
172.0125549999999
 21
163.979711
 31
0.0
  0
LINE
  5
A046
330
9DEE
100
AcDbEntity
  8
1
  6
Continuous
100
AcDbLine
 10
171.701755
 20
160.979711
 30
0.0
 11
171.701755
 21
163.979711
 31
0.0
  0
LINE
  5
A047
330
9DEE
100
AcDbEntity
  8
1
  6
Continuous
100
AcDbLine
 10
167.852946
 20
163.979711
 30
0.0
 11
167.852946
 21
160.979711
 31
0.0
  0
ARC
  5
A048
330
9DEE
100
AcDbEntity
  8
1
  6
Continuous
100
AcDbCircle
 10
171.8138229999999
 20
175.705423
 30
0.0
 40
10.0
100
AcDbArc
 50
202.7153179999998
 51
239.477998
  0
ARC
  5
A049
330
9DEE
100
AcDbEntity
  8
1
  6
Continuous
100
AcDbCircle
 10
171.8138229999999
 20
175.705423
 30
0.0
 40
8.0
100
AcDbArc
 50
202.7153179999998
 51
239.477998
  0
LINE
  5
A04A
330
9DEE
100
AcDbEntity
  8
1
  6
Continuous
100
AcDbLine
 10
187.7998499999999
 20
154.6721339999997
 30
0.0
 11
188.8155889999999
 21
156.395002
 31
0.0
  0
LINE
  5
A04B
330
9DEE
100
AcDbEntity
  8
1
  6
Continuous
100
AcDbLine
 10
175.5505629999999
 20
161.893835
 30
0.0
 11
175.5505629999999
 21
160.979711
 31
0.0
  0
ARC
  5
A04C
330
9DEE
100
AcDbEntity
  8
1
  6
Continuous
100
AcDbCircle
 10
180.4122209999999
 20
150.3211729999998
 30
0.0
 40
7.5
100
AcDbArc
 50
59.477998
 51
120.8821389999999
  0
ARC
  5
A04D
330
9DEE
100
AcDbEntity
  8
1
  6
Continuous
100
AcDbCircle
 10
136.249233
 20
193.288205
 30
0.0
 40
12.72388499999999
100
AcDbArc
 50
183.310565
 51
233.8677569999999
  0
LINE
  5
A04E
330
9DEE
100
AcDbEntity
  8
1
  6
Continuous
100
AcDbLine
 10
119.7465349999999
 20
194.79379
 30
0.0
 11
140.811251
 21
182.3748249999999
 31
0.0
  0
LINE
  5
A04F
330
9DEE
100
AcDbEntity
  8
1
  6
Continuous
100
AcDbLine
 10
120.7622729999997
 20
196.516658
 30
0.0
 11
141.82699
 21
184.097693
 31
0.0
  0
LINE
  5
A050
330
9DEE
100
AcDbEntity
  8
1
  6
Continuous
100
AcDbLine
 10
119.7465429999999
 20
194.793801
 30
0.0
 11
120.762283
 21
196.516669
 31
0.0
  0
ARC
  5
A051
330
9DEE
100
AcDbEntity
  8
1
  6
Continuous
100
AcDbCircle
 10
145.8899429999999
 20
190.989167
 30
0.0
 40
10.0
100
AcDbArc
 50
239.477996
 51
276.2406819999998
  0
ARC
  5
A052
330
9DEE
100
AcDbEntity
  8
1
  6
Continuous
100
AcDbCircle
 10
145.8899429999999
 20
190.989167
 30
0.0
 40
8.0
100
AcDbArc
 50
239.477996
 51
276.2406819999998
  0
ARC
  5
A053
330
9DEE
100
AcDbEntity
  8
1
  6
Continuous
100
AcDbCircle
 10
150.852946
 20
169.7797109999999
 30
0.0
 40
18.200001
100
AcDbArc
 50
131.060807
 51
141.426592
  0
LINE
  5
A054
330
9DEE
100
AcDbEntity
  8
1
  6
Continuous
100
AcDbLine
 10
135.9072099999999
 20
181.5503129999999
 30
0.0
 11
137.5328349999997
 21
184.307655
 31
0.0
  0
LINE
  5
A055
330
9DEE
100
AcDbEntity
  8
1
  6
Continuous
100
AcDbLine
 10
139.352946
 20
179.518836
 30
0.0
 11
140.97953
 21
182.277804
 31
0.0
  0
LINE
  5
A056
330
9DEE
100
AcDbEntity
  8
1
  6
Continuous
100
AcDbLine
 10
135.9072099999999
 20
181.5503129999999
 30
0.0
 11
139.352946
 21
179.518836
 31
0.0
  0
CIRCLE
  5
A057
330
9DEE
100
AcDbEntity
  8
1
  6
Continuous
100
AcDbCircle
 10
150.852946
 20
169.7797109999999
 30
0.0
 40
3.0
  0
CIRCLE
  5
A058
330
9DEE
100
AcDbEntity
  8
1
  6
Continuous
100
AcDbCircle
 10
150.852946
 20
169.7797109999999
 30
0.0
 40
3.799999999999998
  0
LINE
  5
A059
330
9DEE
100
AcDbEntity
  8
1
  6
Continuous
100
AcDbLine
 10
155.852946
 20
167.066462
 30
0.0
 11
150.852946
 21
164.1797109999999
 31
0.0
  0
LINE
  5
A05A
330
9DEE
100
AcDbEntity
  8
1
  6
Continuous
100
AcDbLine
 10
145.852946
 20
167.066462
 30
0.0
 11
145.852946
 21
172.492959
 31
0.0
  0
CIRCLE
  5
A05B
330
9DEE
100
AcDbEntity
  8
2
  6
Continuous
100
AcDbCircle
 10
150.852946
 20
169.7797109999999
 30
0.0
 40
2.458499999999999
  0
CIRCLE
  5
A05C
330
9DEE
100
AcDbEntity
  8
1
  6
Continuous
100
AcDbCircle
 10
150.852946
 20
169.7797109999999
 30
0.0
 40
2.0
  0
LINE
  5
A05D
330
9DEE
100
AcDbEntity
  8
1
  6
Continuous
100
AcDbLine
 10
145.852946
 20
167.066462
 30
0.0
 11
150.852946
 21
164.1797109999999
 31
0.0
  0
LINE
  5
A05E
330
9DEE
100
AcDbEntity
  8
1
  6
Continuous
100
AcDbLine
 10
155.852946
 20
167.066462
 30
0.0
 11
155.852946
 21
172.492959
 31
0.0
  0
LINE
  5
A05F
330
9DEE
100
AcDbEntity
  8
1
  6
Continuous
100
AcDbLine
 10
155.852946
 20
172.492959
 30
0.0
 11
150.852946
 21
175.3797109999999
 31
0.0
  0
LINE
  5
A060
330
9DEE
100
AcDbEntity
  8
1
  6
Continuous
100
AcDbLine
 10
145.852946
 20
172.492959
 30
0.0
 11
150.852946
 21
175.3797109999999
 31
0.0
  0
CIRCLE
  5
A061
330
9DEE
100
AcDbEntity
  8
1
  6
Continuous
100
AcDbCircle
 10
405.8529459999999
 20
169.7797109999999
 30
0.0
 40
5.299999999999998
  0
LINE
  5
A062
330
9DEE
100
AcDbEntity
  8
1
  6
Continuous
100
AcDbLine
 10
62.852946
 20
182.2761899999999
 30
0.0
 11
62.852946
 21
163.979711
 31
0.0
  0
LINE
  5
A063
330
9DEE
100
AcDbEntity
  8
1
  6
Continuous
100
AcDbLine
 10
62.852946
 20
160.979711
 30
0.0
 11
62.852946
 21
160.8797089999999
 31
0.0
  0
LINE
  5
A064
330
9DEE
100
AcDbEntity
  8
1
  6
Continuous
100
AcDbLine
 10
61.85294599999998
 20
163.979711
 30
0.0
 11
61.85294599999998
 21
179.5297109999999
 31
0.0
  0
LINE
  5
A065
330
9DEE
100
AcDbEntity
  8
1
  6
Continuous
100
AcDbLine
 10
68.852946
 20
176.179711
 30
0.0
 11
70.352946
 21
176.179711
 31
0.0
  0
LINE
  5
A066
330
9DEE
100
AcDbEntity
  8
1
  6
Continuous
100
AcDbLine
 10
68.852946
 20
163.3797109999999
 30
0.0
 11
70.352946
 21
163.3797109999999
 31
0.0
  0
LINE
  5
A067
330
9DEE
100
AcDbEntity
  8
1
  6
Continuous
100
AcDbLine
 10
68.852946
 20
176.0297109999999
 30
0.0
 11
68.852946
 21
163.5297109999999
 31
0.0
  0
LINE
  5
A068
330
9DEE
100
AcDbEntity
  8
1
  6
Continuous
100
AcDbLine
 10
70.352946
 20
176.179711
 30
0.0
 11
70.352946
 21
163.3797109999999
 31
0.0
  0
ARC
  5
A069
330
9DEE
100
AcDbEntity
  8
1
  6
Continuous
100
AcDbCircle
 10
65.602946
 20
176.0297109999999
 30
0.0
 40
3.25
100
AcDbArc
 50
292.6198649999999
 51
67.380135
  0
ARC
  5
A06A
330
9DEE
100
AcDbEntity
  8
1
  6
Continuous
100
AcDbCircle
 10
65.602946
 20
163.5297109999999
 30
0.0
 40
3.25
100
AcDbArc
 50
292.6198649999999
 51
0.0
  0
LINE
  5
A06B
330
9DEE
100
AcDbEntity
  8
1
  6
Continuous
100
AcDbLine
 10
147.852946
 20
176.0297109999999
 30
0.0
 11
147.852946
 21
175.433028
 31
0.0
  0
LINE
  5
A06C
330
9DEE
100
AcDbEntity
  8
1
  6
Continuous
100
AcDbLine
 10
153.852946
 20
176.0297109999999
 30
0.0
 11
153.852946
 21
175.433028
 31
0.0
  0
ARC
  5
A06D
330
9DEE
100
AcDbEntity
  8
1
  6
Continuous
100
AcDbCircle
 10
150.852946
 20
176.0297109999999
 30
0.0
 40
3.0
100
AcDbArc
 50
0.0
 51
180.0
  0
ARC
  5
A06E
330
9DEE
100
AcDbEntity
  8
1
  6
Continuous
100
AcDbCircle
 10
150.852946
 20
163.5297109999999
 30
0.0
 40
3.0
100
AcDbArc
 50
180.0
 51
0.0
  0
LINE
  5
A06F
330
9DEE
100
AcDbEntity
  8
1
  6
Continuous
100
AcDbLine
 10
66.852946
 20
170.5607359999999
 30
0.0
 11
68.852946
 21
172.8797109999999
 31
0.0
  0
LINE
  5
A070
330
9DEE
100
AcDbEntity
  8
1
  6
Continuous
100
AcDbLine
 10
66.852946
 20
168.9986859999999
 30
0.0
 11
68.852946
 21
166.679711
 31
0.0
  0
LINE
  5
A071
330
9DEE
100
AcDbEntity
  8
2
  6
Continuous
100
AcDbLine
 10
68.852946
 20
172.2382079999999
 30
0.0
 11
68.299683
 21
172.2382079999999
 31
0.0
  0
LINE
  5
A072
330
9DEE
100
AcDbEntity
  8
1
  6
Continuous
100
AcDbLine
 10
68.852946
 20
172.779708
 30
0.0
 11
68.766699
 21
172.779708
 31
0.0
  0
LINE
  5
A073
330
9DEE
100
AcDbEntity
  8
2
  6
Continuous
100
AcDbLine
 10
68.852946
 20
167.321208
 30
0.0
 11
68.29968700000001
 21
167.321208
 31
0.0
  0
LINE
  5
A074
330
9DEE
100
AcDbEntity
  8
1
  6
Continuous
100
AcDbLine
 10
68.852946
 20
166.7797079999999
 30
0.0
 11
68.766704
 21
166.7797079999999
 31
0.0
  0
LINE
  5
A075
330
9DEE
100
AcDbEntity
  8
1
  6
Continuous
100
AcDbLine
 10
153.852946
 20
164.126393
 30
0.0
 11
153.852946
 21
163.5297109999999
 31
0.0
  0
LINE
  5
A076
330
9DEE
100
AcDbEntity
  8
1
  6
Continuous
100
AcDbLine
 10
147.852946
 20
164.126393
 30
0.0
 11
147.852946
 21
163.5297109999999
 31
0.0
  0
LINE
  5
A077
330
9DEE
100
AcDbEntity
  8
5
  6
PHANTOM
100
AcDbLine
 10
148.486482
 20
176.2960249999999
 30
0.0
 11
148.9127949999998
 21
175.878548
 31
0.0
  0
ARC
  5
A078
330
9DEE
100
AcDbEntity
  8
5
  6
PHANTOM
100
AcDbCircle
 10
146.3874919999998
 20
174.1526069999999
 30
0.0
 40
3.0
100
AcDbArc
 50
45.6
 51
225.5999999999999
  0
LINE
  5
A079
330
9DEE
100
AcDbEntity
  8
5
  6
PHANTOM
100
AcDbLine
 10
144.288502
 20
172.0091889999999
 30
0.0
 11
144.7148149999998
 21
171.591712
 31
0.0
  0
LINE
  5
A07A
330
9DEE
100
AcDbEntity
  8
5
  6
PHANTOM
100
AcDbLine
 10
152.7930969999999
 20
163.680874
 30
0.0
 11
153.219411
 21
163.263397
 31
0.0
  0
ARC
  5
A07B
330
9DEE
100
AcDbEntity
  8
5
  6
PHANTOM
100
AcDbCircle
 10
155.318401
 20
165.406815
 30
0.0
 40
3.0
100
AcDbArc
 50
225.5999999999999
 51
45.6
  0
LINE
  5
A07C
330
9DEE
100
AcDbEntity
  8
5
  6
PHANTOM
100
AcDbLine
 10
156.9910769999999
 20
167.96771
 30
0.0
 11
157.4173909999998
 21
167.550233
 31
0.0
  0
LINE
  5
A07D
330
9DEE
100
AcDbEntity
  8
1
  6
Continuous
100
AcDbLine
 10
265.3529459999999
 20
160.979711
 30
0.0
 11
265.3529459999999
 21
160.8797089999999
 31
0.0
  0
LINE
  5
A07E
330
9DEE
100
AcDbEntity
  8
1
  6
Continuous
100
AcDbLine
 10
266.3529459999999
 20
163.979711
 30
0.0
 11
266.3529459999999
 21
179.5297109999999
 31
0.0
  0
LINE
  5
A07F
330
9DEE
100
AcDbEntity
  8
1
  6
Continuous
100
AcDbLine
 10
144.452946
 20
87.779711
 30
0.0
 11
157.252946
 21
87.779711
 31
0.0
  0
ARC
  5
A080
330
9DEE
100
AcDbEntity
  8
1
  6
Continuous
100
AcDbCircle
 10
150.852946
 20
84.52971099999997
 30
0.0
 40
3.25
100
AcDbArc
 50
22.619865
 51
157.380135
  0
LINE
  5
A081
330
9DEE
100
AcDbEntity
  8
1
  6
Continuous
100
AcDbLine
 10
144.452946
 20
89.27971099999997
 30
0.0
 11
157.252946
 21
89.27971099999997
 31
0.0
  0
LINE
  5
A082
330
9DEE
100
AcDbEntity
  8
1
  6
Continuous
100
AcDbLine
 10
144.452946
 20
87.779711
 30
0.0
 11
144.452946
 21
89.27971099999997
 31
0.0
  0
LINE
  5
A083
330
9DEE
100
AcDbEntity
  8
1
  6
Continuous
100
AcDbLine
 10
157.252946
 20
87.779711
 30
0.0
 11
157.252946
 21
89.27971099999997
 31
0.0
  0
ARC
  5
A084
330
9DEE
100
AcDbEntity
  8
1
  6
Continuous
100
AcDbCircle
 10
159.093929
 20
161.922998
 30
0.0
 40
71.66503099999999
100
AcDbArc
 50
267.4079689999999
 51
268.5886967142705
  0
ARC
  5
A086
330
9DEE
100
AcDbEntity
  8
1
  6
Continuous
100
AcDbCircle
 10
151.852946
 20
54.779711
 30
0.0
 40
7.0
100
AcDbArc
 50
188.213211
 51
269.999968
  0
LINE
  5
A087
330
9DEE
100
AcDbEntity
  8
1
  6
Continuous
100
AcDbLine
 10
150.852946
 20
263.57004
 30
0.0
 11
150.852946
 21
265.82605
 31
0.0
  0
LINE
  5
A088
330
9DEE
100
AcDbEntity
  8
1
  6
Continuous
100
AcDbLine
 10
145.852946
 20
265.067617
 30
0.0
 11
145.852946
 21
263.57004
 31
0.0
  0
LINE
  5
A089
330
9DEE
100
AcDbEntity
  8
1
  6
Continuous
100
AcDbLine
 10
155.852946
 20
266.2281319999999
 30
0.0
 11
155.852946
 21
263.57004
 31
0.0
  0
LINE
  5
A08A
330
9DEE
100
AcDbEntity
  8
1
  6
Continuous
100
AcDbLine
 10
148.3529459999997
 20
263.079292
 30
0.0
 11
153.352946
 21
263.079292
 31
0.0
  0
LINE
  5
A08B
330
9DEE
100
AcDbEntity
  8
1
  6
Continuous
100
AcDbLine
 10
148.852946
 20
261.0797109999999
 30
0.0
 11
152.852946
 21
261.0797109999999
 31
0.0
  0
LINE
  5
A08C
330
9DEE
100
AcDbEntity
  8
1
  6
Continuous
100
AcDbLine
 10
147.852946
 20
262.0797109999999
 30
0.0
 11
153.852946
 21
262.0797109999999
 31
0.0
  0
LINE
  5
A08D
330
9DEE
100
AcDbEntity
  8
1
  6
Continuous
100
AcDbLine
 10
148.852946
 20
261.0797109999999
 30
0.0
 11
147.852946
 21
262.0797109999999
 31
0.0
  0
LINE
  5
A08E
330
9DEE
100
AcDbEntity
  8
1
  6
Continuous
100
AcDbLine
 10
147.852946
 20
262.0797109999999
 30
0.0
 11
147.852946
 21
263.0797109999999
 31
0.0
  0
LINE
  5
A08F
330
9DEE
100
AcDbEntity
  8
2
  6
Continuous
100
AcDbLine
 10
148.3944459999999
 20
261.538211
 30
0.0
 11
148.3944459999999
 21
263.0797109999999
 31
0.0
  0
LINE
  5
A090
330
9DEE
100
AcDbEntity
  8
1
  6
Continuous
100
AcDbLine
 10
152.852946
 20
261.0797109999999
 30
0.0
 11
153.852946
 21
262.0797109999999
 31
0.0
  0
LINE
  5
A091
330
9DEE
100
AcDbEntity
  8
1
  6
Continuous
100
AcDbLine
 10
153.852946
 20
262.0797109999999
 30
0.0
 11
153.852946
 21
263.0797109999999
 31
0.0
  0
LINE
  5
A092
330
9DEE
100
AcDbEntity
  8
2
  6
Continuous
100
AcDbLine
 10
153.311446
 20
261.538211
 30
0.0
 11
153.311446
 21
263.0797109999999
 31
0.0
  0
ARC
  5
A093
330
9DEE
100
AcDbEntity
  8
1
  6
Continuous
100
AcDbCircle
 10
153.352946
 20
269.6924999999998
 30
0.0
 40
6.613208
100
AcDbArc
 50
247.7882049999999
 51
292.211795
  0
ARC
  5
A094
330
9DEE
100
AcDbEntity
  8
1
  6
Continuous
100
AcDbCircle
 10
148.3529459999997
 20
269.6924999999998
 30
0.0
 40
6.613208
100
AcDbArc
 50
247.7882049999999
 51
292.211795
  0
LINE
  5
A095
330
9DEE
100
AcDbEntity
  8
5
  6
PHANTOM
100
AcDbLine
 10
371.572321
 20
184.981312
 30
0.0
 11
369.213184
 21
185.617616
 31
0.0
  0
LINE
  5
A096
330
9DEE
100
AcDbEntity
  8
5
  6
PHANTOM
100
AcDbLine
 10
372.446631
 20
186.8169659999999
 30
0.0
 11
369.73401
 21
187.5486109999999
 31
0.0
  0
LINE
  5
A097
330
9DEE
100
AcDbEntity
  8
5
  6
PHANTOM
100
AcDbLine
 10
369.2131759999999
 20
185.617634
 30
0.0
 11
369.734001
 21
187.5486289999997
 31
0.0
  0
LINE
  5
A098
330
9DEE
100
AcDbEntity
  8
1
  6
Continuous
100
AcDbLine
 10
370.3105719999999
 20
157.821883
 30
0.0
 11
367.890323
 21
156.394995
 31
0.0
  0
LINE
  5
A099
330
9DEE
100
AcDbEntity
  8
1
  6
Continuous
100
AcDbLine
 10
371.0109249999999
 20
155.913075
 30
0.0
 11
368.9060609999998
 21
154.6721269999999
 31
0.0
  0
LINE
  5
A09A
330
9DEE
100
AcDbEntity
  8
1
  6
Continuous
100
AcDbLine
 10
368.906043
 20
154.6721339999997
 30
0.0
 11
367.890304
 21
156.395002
 31
0.0
  0
LINE
  5
A09B
330
9DEE
100
AcDbEntity
  8
5
  6
PHANTOM
100
AcDbLine
 10
445.4874719999998
 20
165.0450109999999
 30
0.0
 11
443.1283159999998
 21
165.68132
 31
0.0
  0
LINE
  5
A09C
330
9DEE
100
AcDbEntity
  8
5
  6
PHANTOM
100
AcDbLine
 10
446.008298
 20
166.976006
 30
0.0
 11
443.2956569999998
 21
167.7076559999999
 31
0.0
  0
LINE
  5
A09D
330
9DEE
100
AcDbEntity
  8
5
  6
PHANTOM
100
AcDbLine
 10
445.487474
 20
165.045025
 30
0.0
 11
446.008298
 21
166.9760199999998
 31
0.0
  0
LINE
  5
A09E
330
9DEE
100
AcDbEntity
  8
1
  6
Continuous
100
AcDbLine
 10
436.959358
 20
194.79379
 30
0.0
 11
434.854477
 21
193.552831
 31
0.0
  0
LINE
  5
A09F
330
9DEE
100
AcDbEntity
  8
1
  6
Continuous
100
AcDbLine
 10
436.9593489999998
 20
194.793801
 30
0.0
 11
435.9436099999999
 21
196.516669
 31
0.0
  0
LINE
  5
A0A0
330
9DEE
100
AcDbEntity
  8
1
  6
Continuous
100
AcDbLine
 10
435.94362
 20
196.516658
 30
0.0
 11
433.523353
 21
195.08976
 31
0.0
  0
ARC
  5
A0A1
330
9DEE
100
AcDbEntity
  8
1
  6
Continuous
100
AcDbCircle
 10
405.8529459999999
 20
169.7797109999999
 30
0.0
 40
9.75
100
AcDbArc
 50
187.6710329999999
 51
239.916923
  0
ARC
  5
A0A2
330
9DEE
100
AcDbEntity
  8
1
  6
Continuous
100
AcDbCircle
 10
405.8529459999999
 20
169.7797109999999
 30
0.0
 40
10.84999999999999
100
AcDbArc
 50
186.91046
 51
238.802729
  0
ARC
  5
A0A3
330
9DEE
100
AcDbEntity
  8
1
  6
Continuous
100
AcDbCircle
 10
405.8529459999999
 20
169.7797109999999
 30
0.0
 40
10.84999999999999
100
AcDbArc
 50
344.307317
 51
42.031264
  0
ARC
  5
A0A4
330
9DEE
100
AcDbEntity
  8
1
  6
Continuous
100
AcDbCircle
 10
405.8529459999999
 20
169.7797109999999
 30
0.0
 40
9.75
100
AcDbArc
 50
344.307317
 51
41.267342
  0
ARC
  5
A0A5
330
9DEE
100
AcDbEntity
  8
1
  6
Continuous
100
AcDbCircle
 10
405.8529459999999
 20
169.7797109999999
 30
0.0
 40
12.5
100
AcDbArc
 50
168.649686
 51
57.96982599999999
  0
ARC
  5
A0A6
330
9DEE
100
AcDbEntity
  8
1
  6
Continuous
100
AcDbCircle
 10
405.8529459999999
 20
169.7797109999999
 30
0.0
 40
16.0
100
AcDbArc
 50
158.489866
 51
67.006387
  0
ARC
  5
A0A7
330
9DEE
100
AcDbEntity
  8
1
  6
Continuous
100
AcDbCircle
 10
405.8529459999999
 20
169.7797109999999
 30
0.0
 40
10.84999999999999
100
AcDbArc
 50
244.603434
 51
335.042525
  0
LINE
  5
A0A8
330
9DEE
100
AcDbEntity
  8
1
  6
Continuous
100
AcDbLine
 10
400.2327949999998
 20
160.4987409999999
 30
0.0
 11
401.744781
 21
162.2405149999998
 31
0.0
  0
ARC
  5
A0A9
330
9DEE
100
AcDbEntity
  8
1
  6
Continuous
100
AcDbCircle
 10
416.749729
 20
168.2763399999998
 30
0.0
 40
1.5
100
AcDbArc
 50
254.3073169999999
 51
352.144797
  0
ARC
  5
A0AA
330
9DEE
100
AcDbEntity
  8
1
  6
Continuous
100
AcDbCircle
 10
414.8461689999998
 20
169.3305029999999
 30
0.0
 40
2.0
100
AcDbArc
 50
228.9309269999999
 51
254.3073169999999
  0
LINE
  5
A0AB
330
9DEE
100
AcDbEntity
  8
1
  6
Continuous
100
AcDbLine
 10
414.3052139999999
 20
167.4050499999998
 30
0.0
 11
416.3440129999998
 21
166.832251
 31
0.0
  0
ARC
  5
A0AC
330
9DEE
100
AcDbEntity
  8
1
  6
Continuous
100
AcDbCircle
 10
414.9582529999998
 20
175.9692
 30
0.0
 40
1.5
100
AcDbArc
 50
41.20218
 51
139.03966
  0
LINE
  5
A0AD
330
9DEE
100
AcDbEntity
  8
1
  6
Continuous
100
AcDbLine
 10
413.825508
 20
176.952505
 30
0.0
 11
412.895474
 21
175.8811259999999
 31
0.0
  0
LINE
  5
A0AE
330
9DEE
100
AcDbEntity
  8
1
  6
Continuous
100
AcDbLine
 10
400.116431
 20
163.796286
 30
0.0
 11
395.0204979999999
 21
170.396609
 31
0.0
  0
LINE
  5
A0AF
330
9DEE
100
AcDbEntity
  8
1
  6
Continuous
100
AcDbLine
 10
396.5007679999999
 20
168.479343
 30
0.0
 11
395.081767
 21
168.4742599999998
 31
0.0
  0
ARC
  5
A0B0
330
9DEE
100
AcDbEntity
  8
1
  6
Continuous
100
AcDbCircle
 10
395.276895
 20
166.8259459999999
 30
0.0
 40
1.659823
100
AcDbArc
 50
96.75127500000002
 51
170.1632349999998
  0
ARC
  5
A0B1
330
9DEE
100
AcDbEntity
  8
1
  6
Continuous
100
AcDbCircle
 10
398.759177
 20
161.7066189999999
 30
0.0
 40
1.905392999999999
100
AcDbArc
 50
253.6746509999999
 51
320.659609
  0
LINE
  5
A0B2
330
9DEE
100
AcDbEntity
  8
1
  6
Continuous
100
AcDbLine
 10
289.3529459999998
 20
185.7797109999999
 30
0.0
 11
289.3529459999998
 21
153.7797109999999
 31
0.0
  0
LINE
  5
A0B3
330
9DEE
100
AcDbEntity
  8
1
  6
Continuous
100
AcDbLine
 10
38.852946
 20
185.7797109999999
 30
0.0
 11
38.852946
 21
153.7797109999999
 31
0.0
  0
ARC
  5
A0B4
330
9DEE
100
AcDbEntity
  8
1
  6
Continuous
100
AcDbCircle
 10
3.944881999999998
 20
171.462234
 30
0.0
 40
31.40807999999999
100
AcDbArc
 50
351.8721339999999
 51
8.127865999999999
  0
ARC
  5
A0B5
330
9DEE
100
AcDbEntity
  8
1
  6
Continuous
100
AcDbCircle
 10
292.1549129999998
 20
159.7224119999999
 30
0.0
 40
1.0
100
AcDbArc
 50
270.0
 51
8.910088999999997
  0
ARC
  5
A0B6
330
9DEE
100
AcDbEntity
  8
1
  6
Continuous
100
AcDbCircle
 10
292.1549129999998
 20
167.4742599999999
 30
0.0
 40
1.0
100
AcDbArc
 50
351.0899109999999
 51
90.0
  0
ARC
  5
A0B7
330
9DEE
100
AcDbEntity
  8
1
  6
Continuous
100
AcDbCircle
 10
316.877563
 20
163.5983359999999
 30
0.0
 40
24.024632
100
AcDbArc
 50
171.0899109999997
 51
188.9100889999998
  0
LINE
  5
A0B8
330
9DEE
100
AcDbEntity
  8
1
  6
Continuous
100
AcDbLine
 10
292.1549129999998
 20
158.7224119999999
 30
0.0
 11
289.3529459999998
 21
158.7224119999999
 31
0.0
  0
LINE
  5
A0B9
330
9DEE
100
AcDbEntity
  8
1
  6
Continuous
100
AcDbLine
 10
292.1549129999998
 20
168.4742599999998
 30
0.0
 11
289.3529459999998
 21
168.4742599999998
 31
0.0
  0
ARC
  5
A0BA
330
9DEE
100
AcDbEntity
  8
1
  6
Continuous
100
AcDbCircle
 10
288.8439599999998
 20
159.9337849999997
 30
0.0
 40
2.702439
100
AcDbArc
 50
280.856116
 51
333.368434
  0
LINE
  5
A0BB
330
9DEE
100
AcDbEntity
  8
1
  6
Continuous
100
AcDbLine
 10
289.3529459999998
 20
153.7797109999999
 30
0.0
 11
288.8529459999998
 21
153.7797109999999
 31
0.0
  0
ARC
  5
A0BC
330
9DEE
100
AcDbEntity
  8
1
  6
Continuous
100
AcDbCircle
 10
39.361933
 20
159.9337849999997
 30
0.0
 40
2.702439
100
AcDbArc
 50
201.8108539999999
 51
259.1438839999999
  0
LINE
  5
A0BD
330
9DEE
100
AcDbEntity
  8
1
  6
Continuous
100
AcDbLine
 10
38.852946
 20
153.7797109999999
 30
0.0
 11
39.352946
 21
153.7797109999999
 31
0.0
  0
LINE
  5
A0BE
330
9DEE
100
AcDbEntity
  8
1
  6
Continuous
100
AcDbLine
 10
38.852946
 20
165.880292
 30
0.0
 11
36.027423
 21
165.880292
 31
0.0
  0
ARC
  5
A0BF
330
9DEE
100
AcDbEntity
  8
1
  6
Continuous
100
AcDbCircle
 10
36.027423
 20
166.880292
 30
0.0
 40
1.0
100
AcDbArc
 50
171.8721339999999
 51
270.0
  0
ARC
  5
A0C0
330
9DEE
100
AcDbEntity
  8
1
  6
Continuous
100
AcDbCircle
 10
288.8439599999998
 20
179.625637
 30
0.0
 40
2.702439
100
AcDbArc
 50
21.810854
 51
79.14388399999999
  0
LINE
  5
A0C1
330
9DEE
100
AcDbEntity
  8
1
  6
Continuous
100
AcDbLine
 10
289.3529459999998
 20
185.7797109999999
 30
0.0
 11
288.8529459999998
 21
185.7797109999999
 31
0.0
  0
LINE
  5
A0C2
330
9DEE
100
AcDbEntity
  8
1
  6
Continuous
100
AcDbLine
 10
38.852946
 20
185.7797109999999
 30
0.0
 11
39.352946
 21
185.7797109999999
 31
0.0
  0
ARC
  5
A0C3
330
9DEE
100
AcDbEntity
  8
1
  6
Continuous
100
AcDbCircle
 10
39.361933
 20
179.625637
 30
0.0
 40
2.702439
100
AcDbArc
 50
100.8561159999999
 51
158.189146
  0
LINE
  5
A0C4
330
9DEE
100
AcDbEntity
  8
1
  6
Continuous
100
AcDbLine
 10
38.852946
 20
177.0441769999999
 30
0.0
 11
36.027423
 21
177.0441769999999
 31
0.0
  0
ARC
  5
A0C5
330
9DEE
100
AcDbEntity
  8
1
  6
Continuous
100
AcDbCircle
 10
36.027423
 20
176.0441769999999
 30
0.0
 40
1.0
100
AcDbArc
 50
90.0
 51
188.1278659999999
  0
LINE
  5
A0C6
330
9DEE
100
AcDbEntity
  8
1
  6
Continuous
100
AcDbLine
 10
36.85294600000001
 20
165.880292
 30
0.0
 11
36.85294600000001
 21
158.9297109999999
 31
0.0
  0
LINE
  5
A0C7
330
9DEE
100
AcDbEntity
  8
1
  6
Continuous
100
AcDbLine
 10
134.8529459999997
 20
57.779711
 30
0.0
 11
166.852946
 21
57.779711
 31
0.0
  0
LINE
  5
A0C8
330
9DEE
100
AcDbEntity
  8
1
  6
Continuous
100
AcDbLine
 10
158.9132999999999
 20
55.779711
 30
0.0
 11
143.2499699999999
 21
55.779711
 31
0.0
  0
LINE
  5
A0C9
330
9DEE
100
AcDbEntity
  8
1
  6
Continuous
100
AcDbLine
 10
166.852946
 20
57.779711
 30
0.0
 11
166.852946
 21
58.279711
 31
0.0
  0
LINE
  5
A0CA
330
9DEE
100
AcDbEntity
  8
1
  6
Continuous
100
AcDbLine
 10
134.8529459999997
 20
57.779711
 30
0.0
 11
134.8529459999997
 21
58.279711
 31
0.0
  0
LINE
  5
A0CB
330
9DEE
100
AcDbEntity
  8
1
  6
Continuous
100
AcDbLine
 10
161.512603
 20
53.954187
 30
0.0
 11
158.3955149999999
 21
53.954187
 31
0.0
  0
LINE
  5
A0CC
330
9DEE
100
AcDbEntity
  8
1
  6
Continuous
100
AcDbLine
 10
143.2499699999999
 20
53.954187
 30
0.0
 11
140.2958439999999
 21
53.954187
 31
0.0
  0
LINE
  5
A0CD
330
9DEE
100
AcDbEntity
  8
1
  6
Continuous
100
AcDbLine
 10
162.4929639999997
 20
55.779711
 30
0.0
 11
166.852946
 21
55.779711
 31
0.0
  0
LINE
  5
A0CE
330
9DEE
100
AcDbEntity
  8
1
  6
Continuous
100
AcDbLine
 10
134.8529459999997
 20
298.7797109999998
 30
0.0
 11
134.8529459999997
 21
298.2797109999999
 31
0.0
  0
LINE
  5
A0CF
330
9DEE
100
AcDbEntity
  8
1
  6
Continuous
100
AcDbLine
 10
145.098466
 20
298.7797109999998
 30
0.0
 11
134.8529459999997
 21
298.7797109999998
 31
0.0
  0
ARC
  5
A0D0
330
9DEE
100
AcDbEntity
  8
5
  6
PHANTOM
100
AcDbCircle
 10
119.1455949999999
 20
263.5230289999999
 30
0.0
 40
8.243317999999996
100
AcDbArc
 50
223.993979
 51
270.0
  0
ARC
  5
A0D1
330
9DEE
100
AcDbEntity
  8
5
  6
PHANTOM
100
AcDbCircle
 10
119.670389
 20
264.02971
 30
0.0
 40
8.972794999999997
100
AcDbArc
 50
136.006021
 51
223.993979
  0
ARC
  5
A0D2
330
9DEE
100
AcDbEntity
  8
5
  6
PHANTOM
100
AcDbCircle
 10
119.1455949999999
 20
264.5363919999999
 30
0.0
 40
8.243317999999996
100
AcDbArc
 50
90.0
 51
136.006021
  0
ARC
  5
A0D3
330
9DEE
100
AcDbEntity
  8
5
  6
PHANTOM
100
AcDbCircle
 10
119.670389
 20
92.52971100000001
 30
0.0
 40
8.972794999999997
100
AcDbArc
 50
136.006021
 51
223.993979
  0
ARC
  5
A0D4
330
9DEE
100
AcDbEntity
  8
5
  6
PHANTOM
100
AcDbCircle
 10
119.1455949999999
 20
93.036393
 30
0.0
 40
8.243317999999996
100
AcDbArc
 50
90.0
 51
136.006021
  0
ARC
  5
A0D5
330
9DEE
100
AcDbEntity
  8
5
  6
PHANTOM
100
AcDbCircle
 10
119.1455949999999
 20
92.02303
 30
0.0
 40
8.243317999999996
100
AcDbArc
 50
223.993979
 51
270.0
  0
LINE
  5
A0D6
330
9DEE
100
AcDbEntity
  8
1
  6
Continuous
100
AcDbLine
 10
160.211241
 20
57.779711
 30
0.0
 11
159.1261819999997
 21
53.954187
 31
0.0
  0
LINE
  5
A0D7
330
9DEE
100
AcDbEntity
  8
1
  6
Continuous
100
AcDbLine
 10
159.4805739999999
 20
57.779711
 30
0.0
 11
158.3955149999999
 21
53.954187
 31
0.0
  0
LINE
  5
A0D8
330
9DEE
100
AcDbEntity
  8
1
  6
Continuous
100
AcDbLine
 10
163.567023
 20
57.779711
 30
0.0
 11
161.512603
 21
53.954187
 31
0.0
  0
LINE
  5
A0D9
330
9DEE
100
AcDbEntity
  8
1
  6
Continuous
100
AcDbLine
 10
138.8555509999999
 20
57.779711
 30
0.0
 11
140.2958439999999
 21
53.954187
 31
0.0
  0
LINE
  5
A0DA
330
9DEE
100
AcDbEntity
  8
1
  6
Continuous
100
AcDbLine
 10
139.963985
 20
57.779711
 30
0.0
 11
141.404277
 21
53.954187
 31
0.0
  0
LINE
  5
A0DB
330
9DEE
100
AcDbEntity
  8
1
  6
Continuous
100
AcDbLine
 10
143.4376639999999
 20
57.779711
 30
0.0
 11
144.8712559999998
 21
55.779711
 31
0.0
  0
LINE
  5
A0DC
330
9DEE
100
AcDbEntity
  8
1
  6
Continuous
100
AcDbLine
 10
140.0817439999999
 20
302.605235
 30
0.0
 11
144.9017959999999
 21
302.605235
 31
0.0
  0
LINE
  5
A0DD
330
9DEE
100
AcDbEntity
  8
1
  6
Continuous
100
AcDbLine
 10
144.8537159999998
 20
301.883514
 30
0.0
 11
143.2235639999998
 21
298.7797109999998
 31
0.0
  0
LINE
  5
A0DE
330
9DEE
100
AcDbEntity
  8
1
  6
Continuous
100
AcDbLine
 10
144.9433029999999
 20
300.6586219999998
 30
0.0
 11
143.956477
 21
298.7797109999998
 31
0.0
  0
LINE
  5
A0DF
330
9DEE
100
AcDbEntity
  8
1
  6
Continuous
100
AcDbLine
 10
138.8555509999999
 20
298.7797109999998
 30
0.0
 11
140.0817439999999
 21
302.605235
 31
0.0
  0
CIRCLE
  5
A0E0
330
9DEE
100
AcDbEntity
  8
1
  6
Continuous
100
AcDbCircle
 10
150.852946
 20
169.7797109999999
 30
0.0
 40
6.4
  0
LINE
  5
A0FB
330
9DEE
100
AcDbEntity
  8
4
  6
CENTER
 48
0.5
100
AcDbLine
 10
150.852946
 20
310.277794037192
 30
0.0
 11
150.852946
 21
256.0797109999999
 31
0.0
  0
ENDSEC
  0
SECTION
  2
OBJECTS
  0
DICTIONARY
  5
9DDC
330
0
100
AcDbDictionary
281
     1
  3
ACAD_CIP_PREVIOUS_PRODUCT_INFO
350
A160
  3
ACAD_COLOR
350
A142
  3
ACAD_DETAILVIEWSTYLE
350
A15B
  3
ACAD_GROUP
350
9DDD
  3
ACAD_LAYOUT
350
9DE9
  3
ACAD_MATERIAL
350
A110
  3
ACAD_MLEADERSTYLE
350
A157
  3
ACAD_MLINESTYLE
350
9DE6
  3
ACAD_PLOTSETTINGS
350
9DE8
  3
ACAD_PLOTSTYLENAME
350
A10E
  3
ACAD_SCALELIST
350
A145
  3
ACAD_SECTIONVIEWSTYLE
350
A159
  3
ACAD_TABLESTYLE
350
A143
  3
ACAD_VISUALSTYLE
350
A129
  3
ACDB_RECOMPOSE_DATA
350
A17E
  3
AcDbVariableDictionary
350
A171
  3
DWGPROPS
350
A17F
  0
DICTIONARY
  5
A161
330
9DE0
100
AcDbDictionary
280
     1
281
     1
  3
ADSK_XREC_LAYER_RECONCILED
360
A162
  0
DICTIONARY
  5
A163
330
9DF6
100
AcDbDictionary
280
     1
281
     1
  3
ADSK_XREC_LAYER_RECONCILED
360
A164
  0
DICTIONARY
  5
A165
330
9DF7
100
AcDbDictionary
280
     1
281
     1
  3
ADSK_XREC_LAYER_RECONCILED
360
A166
  0
DICTIONARY
  5
A167
330
9DF8
100
AcDbDictionary
280
     1
281
     1
  3
ADSK_XREC_LAYER_RECONCILED
360
A168
  0
DICTIONARY
  5
A169
330
9DF9
100
AcDbDictionary
280
     1
281
     1
  3
ADSK_XREC_LAYER_RECONCILED
360
A16A
  0
DICTIONARY
  5
A16B
330
9DFA
100
AcDbDictionary
280
     1
281
     1
  3
ADSK_XREC_LAYER_RECONCILED
360
A16C
  0
DICTIONARY
  5
A16D
330
9DFB
100
AcDbDictionary
280
     1
281
     1
  3
ADSK_XREC_LAYER_RECONCILED
360
A16E
  0
DICTIONARY
  5
A16F
330
9DFC
100
AcDbDictionary
280
     1
281
     1
  3
ADSK_XREC_LAYER_RECONCILED
360
A170
  0
DICTIONARY
  5
A0EB
330
9DEE
100
AcDbDictionary
281
     1
  3
ACAD_LAYOUTSELFREF
350
A10A
  0
DICTIONARY
  5
A0E9
330
9DEA
100
AcDbDictionary
281
     1
  3
ACAD_LAYOUTSELFREF
350
A109
  0
XRECORD
  5
A160
102
{ACAD_REACTORS
330
9DDC
102
}
330
9DDC
100
AcDbXrecord
280
     1
300
ACDLT
300
2014
300
ACDLT_F_S
  0
DICTIONARY
  5
A142
102
{ACAD_REACTORS
330
9DDC
102
}
330
9DDC
100
AcDbDictionary
281
     1
  0
DICTIONARY
  5
A15B
102
{ACAD_REACTORS
330
9DDC
102
}
330
9DDC
100
AcDbDictionary
281
     1
  3
Imperial24
350
A15C
  0
DICTIONARY
  5
9DDD
102
{ACAD_REACTORS
330
9DDC
102
}
330
9DDC
100
AcDbDictionary
281
     1
  0
DICTIONARY
  5
9DE9
102
{ACAD_REACTORS
330
9DDC
102
}
330
9DDC
100
AcDbDictionary
281
     1
  3
Model
350
A15D
  3
レイアウト1
350
A15E
  0
DICTIONARY
  5
A110
102
{ACAD_REACTORS
330
9DDC
102
}
330
9DDC
100
AcDbDictionary
281
     1
  3
ByBlock
350
A119
  3
ByLayer
350
A111
  3
Global
350
A121
  0
DICTIONARY
  5
A157
102
{ACAD_REACTORS
330
9DDC
102
}
330
9DDC
100
AcDbDictionary
281
     1
  3
Standard
350
A158
  0
DICTIONARY
  5
9DE6
102
{ACAD_REACTORS
330
9DDC
102
}
330
9DDC
100
AcDbDictionary
281
     1
  3
STANDARD
350
9DE7
  0
DICTIONARY
  5
9DE8
102
{ACAD_REACTORS
330
9DDC
102
}
330
9DDC
100
AcDbDictionary
281
     1
  0
ACDBDICTIONARYWDFLT
  5
A10E
102
{ACAD_REACTORS
330
9DDC
102
}
330
9DDC
100
AcDbDictionary
281
     1
  3
Normal
350
A10F
100
AcDbDictionaryWithDefault
340
A10F
  0
DICTIONARY
  5
A145
102
{ACAD_REACTORS
330
9DDC
102
}
330
9DDC
100
AcDbDictionary
281
     1
  3
A0
350
A146
  3
A1
350
A147
  3
A2
350
A148
  3
A3
350
A149
  3
A4
350
A14A
  3
A5
350
A14B
  3
A6
350
A14C
  3
A7
350
A14D
  3
A8
350
A14E
  3
A9
350
A14F
  3
B0
350
A150
  3
B1
350
A151
  3
B2
350
A152
  3
B3
350
A153
  3
B4
350
A154
  3
B5
350
A155
  3
B6
350
A156
  0
DICTIONARY
  5
A159
102
{ACAD_REACTORS
330
9DDC
102
}
330
9DDC
100
AcDbDictionary
281
     1
  3
Imperial24
350
A15A
  0
DICTIONARY
  5
A143
102
{ACAD_REACTORS
330
9DDC
102
}
330
9DDC
100
AcDbDictionary
281
     1
  3
Standard
350
A144
  0
DICTIONARY
  5
A129
102
{ACAD_REACTORS
330
9DDC
102
}
330
9DDC
100
AcDbDictionary
281
     1
  3
2dWireframe
350
A12F
  3
Basic
350
A12E
  3
Brighten
350
A135
  3
ColorChange
350
A139
  3
Conceptual
350
A132
  3
Dim
350
A134
  3
EdgeColorOff
350
A141
  3
Facepattern
350
A138
  3
Flat
350
A12A
  3
FlatWithEdges
350
A12B
  3
Gouraud
350
A12C
  3
GouraudWithEdges
350
A12D
  3
Hidden
350
A131
  3
JitterOff
350
A13F
  3
Linepattern
350
A137
  3
OverhangOff
350
A140
  3
Realistic
350
A133
  3
Shaded
350
A13E
  3
Shaded with edges
350
A13D
  3
Shades of Gray
350
A13A
  3
Sketchy
350
A13B
  3
Thicken
350
A136
  3
Wireframe
350
A130
  3
X-Ray
350
A13C
  0
XRECORD
  5
A17E
102
{ACAD_REACTORS
330
9DDC
102
}
330
9DDC
100
AcDbXrecord
280
     1
 90
        1
330
A144
  0
DICTIONARY
  5
A171
102
{ACAD_REACTORS
330
9DDC
102
}
330
9DDC
100
AcDbDictionary
281
     1
  3
CANNOSCALE
350
A176
  3
CMLEADERSTYLE
350
A173
  3
CTABLESTYLE
350
A172
  3
CVIEWDETAILSTYLE
350
A174
  3
CVIEWSECTIONSTYLE
350
A175
  3
DIMASSOC
350
A179
  3
INDEXCTL
350
A178
  3
SORTENTS
350
A177
  3
XCLIPFRAME
350
A17A
  0
XRECORD
  5
A17F
102
{ACAD_REACTORS
330
9DDC
102
}
330
9DDC
100
AcDbXrecord
280
     1
  1
DWGPROPS COOKIE
  2

  3

  4

  6

  7

  8
Yoshitsune
  9

300
=
301
=
302
=
303
=
304
=
305
=
306
=
307
=
308
=
309
=
 40
0.0349251851851852
 41
2451301.4346375
 42
2457192.690038542
  1

 90
        0
  0
XRECORD
  5
A162
102
{ACAD_REACTORS
330
A161
102
}
330
A161
100
AcDbXrecord
280
     1
290
     1
  0
XRECORD
  5
A164
102
{ACAD_REACTORS
330
A163
102
}
330
A163
100
AcDbXrecord
280
     1
290
     1
  0
XRECORD
  5
A166
102
{ACAD_REACTORS
330
A165
102
}
330
A165
100
AcDbXrecord
280
     1
290
     1
  0
XRECORD
  5
A168
102
{ACAD_REACTORS
330
A167
102
}
330
A167
100
AcDbXrecord
280
     1
290
     1
  0
XRECORD
  5
A16A
102
{ACAD_REACTORS
330
A169
102
}
330
A169
100
AcDbXrecord
280
     1
290
     1
  0
XRECORD
  5
A16C
102
{ACAD_REACTORS
330
A16B
102
}
330
A16B
100
AcDbXrecord
280
     1
290
     1
  0
XRECORD
  5
A16E
102
{ACAD_REACTORS
330
A16D
102
}
330
A16D
100
AcDbXrecord
280
     1
290
     1
  0
XRECORD
  5
A170
102
{ACAD_REACTORS
330
A16F
102
}
330
A16F
100
AcDbXrecord
280
     1
290
     1
  0
XRECORD
  5
A10A
102
{ACAD_REACTORS
330
A0EB
102
}
330
A0EB
100
AcDbXrecord
280
     1
340
9DEE
  0
XRECORD
  5
A109
102
{ACAD_REACTORS
330
A0E9
102
}
330
A0E9
100
AcDbXrecord
280
     1
340
9DEA
  0
ACDBDETAILVIEWSTYLE
  5
A15C
102
{ACAD_XDICTIONARY
360
A1B7
102
}
102
{ACAD_REACTORS
330
A15B
102
}
330
A15B
100
AcDbModelDocViewStyle
 70
     0
  3
Imperial24
290
     0
100
AcDbDetailViewStyle
 70
     0
 71
     0
 90
        3
 71
     1
340
9DE1
 40
0.24
340
0
 40
0.24
300

 40
0.36
280
     3
 71
     2
340
9DE5
 90
       25
 71
     3
340
9DE1
 40
0.24
 90
        1
 40
0.75
 90
        1
300
%<\AcVar ViewType \f "%tc1">% %<\AcVar ViewDetailId>%\PSCALE %<\AcVar ViewScale \f "%sn">%
 71
     4
340
9DE5
 90
       25
340
9DE5
 90
       25
280
     0
  0
LAYOUT
  5
A15D
102
{ACAD_XDICTIONARY
360
A1B9
102
}
102
{ACAD_REACTORS
330
9DE9
102
}
330
9DE9
100
AcDbPlotSettings
  1

  2
Canon LBP9100C
  4

  6

 40
0.0
 41
0.0
 42
0.0
 43
0.0
 44
0.0
 45
0.0
 46
0.0
 47
0.0
 48
0.0
 49
0.0
140
0.0
141
0.0
142
1.0
143
1.0
 70
  1712
 72
     0
 73
     0
 74
     0
  7

 75
     0
147
1.0
148
0.0
149
0.0
100
AcDbLayout
  1
Model
 70
     1
 71
     0
 10
0.0
 20
0.0
 11
12.0
 21
9.0
 12
0.0
 22
0.0
 32
0.0
 14
0.0
 24
0.0
 34
0.0
 15
0.0
 25
0.0
 35
0.0
146
0.0
 13
0.0
 23
0.0
 33
0.0
 16
1.0
 26
0.0
 36
0.0
 17
0.0
 27
1.0
 37
0.0
 76
     0
330
9DEE
331
A108
  0
LAYOUT
  5
A15E
102
{ACAD_XDICTIONARY
360
A1BB
102
}
102
{ACAD_REACTORS
330
9DE9
102
}
330
9DE9
100
AcDbPlotSettings
  1

  2
Canon LBP9100C
  4

  6

 40
0.0
 41
0.0
 42
0.0
 43
0.0
 44
0.0
 45
0.0
 46
0.0
 47
0.0
 48
0.0
 49
0.0
140
0.0
141
0.0
142
1.0
143
1.0
 70
   688
 72
     0
 73
     0
 74
     5
  7

 75
    16
147
1.0
148
0.0
149
0.0
100
AcDbLayout
  1
レイアウト1
 70
     0
 71
     1
 10
0.0
 20
0.0
 11
420.0
 21
297.0
 12
0.0
 22
0.0
 32
0.0
 14
1.000000000000000E+20
 24
1.000000000000000E+20
 34
1.000000000000000E+20
 15
-1.000000000000000E+20
 25
-1.000000000000000E+20
 35
-1.000000000000000E+20
146
0.0
 13
0.0
 23
0.0
 33
0.0
 16
1.0
 26
0.0
 36
0.0
 17
0.0
 27
1.0
 37
0.0
 76
     0
330
9DEA
  0
MATERIAL
  5
A119
102
{ACAD_XDICTIONARY
360
A11A
102
}
102
{ACAD_REACTORS
330
A110
102
}
330
A110
100
AcDbMaterial
  1
ByBlock
 72
     0
 43
0.0208333333333333
 43
0.0
 43
0.0
 43
0.0
 43
0.0
 43
0.0208333333333333
 43
0.0
 43
0.0
 43
0.0
 43
0.0
 43
1.0
 43
0.0
 43
0.0
 43
0.0
 43
0.0
 43
1.0
 77
     0
 47
0.0208333333333333
 47
0.0
 47
0.0
 47
0.0
 47
0.0
 47
0.0208333333333333
 47
0.0
 47
0.0
 47
0.0
 47
0.0
 47
1.0
 47
0.0
 47
0.0
 47
0.0
 47
0.0
 47
1.0
171
     0
 49
0.0208333333333333
 49
0.0
 49
0.0
 49
0.0
 49
0.0
 49
0.0208333333333333
 49
0.0
 49
0.0
 49
0.0
 49
0.0
 49
1.0
 49
0.0
 49
0.0
 49
0.0
 49
0.0
 49
1.0
175
     0
142
0.0208333333333333
142
0.0
142
0.0
142
0.0
142
0.0
142
0.0208333333333333
142
0.0
142
0.0
142
0.0
142
0.0
142
1.0
142
0.0
142
0.0
142
0.0
142
0.0
142
1.0
179
     0
144
0.0208333333333333
144
0.0
144
0.0
144
0.0
144
0.0
144
0.0208333333333333
144
0.0
144
0.0
144
0.0
144
0.0
144
1.0
144
0.0
144
0.0
144
0.0
144
0.0
144
1.0
147
0.0208333333333333
147
0.0
147
0.0
147
0.0
147
0.0
147
0.0208333333333333
147
0.0
147
0.0
147
0.0
147
0.0
147
1.0
147
0.0
147
0.0
147
0.0
147
0.0
147
1.0
  0
MATERIAL
  5
A111
102
{ACAD_XDICTIONARY
360
A112
102
}
102
{ACAD_REACTORS
330
A110
102
}
330
A110
100
AcDbMaterial
  1
ByLayer
 72
     0
 43
0.0208333333333333
 43
0.0
 43
0.0
 43
0.0
 43
0.0
 43
0.0208333333333333
 43
0.0
 43
0.0
 43
0.0
 43
0.0
 43
1.0
 43
0.0
 43
0.0
 43
0.0
 43
0.0
 43
1.0
 77
     0
 47
0.0208333333333333
 47
0.0
 47
0.0
 47
0.0
 47
0.0
 47
0.0208333333333333
 47
0.0
 47
0.0
 47
0.0
 47
0.0
 47
1.0
 47
0.0
 47
0.0
 47
0.0
 47
0.0
 47
1.0
171
     0
 49
0.0208333333333333
 49
0.0
 49
0.0
 49
0.0
 49
0.0
 49
0.0208333333333333
 49
0.0
 49
0.0
 49
0.0
 49
0.0
 49
1.0
 49
0.0
 49
0.0
 49
0.0
 49
0.0
 49
1.0
175
     0
142
0.0208333333333333
142
0.0
142
0.0
142
0.0
142
0.0
142
0.0208333333333333
142
0.0
142
0.0
142
0.0
142
0.0
142
1.0
142
0.0
142
0.0
142
0.0
142
0.0
142
1.0
179
     0
144
0.0208333333333333
144
0.0
144
0.0
144
0.0
144
0.0
144
0.0208333333333333
144
0.0
144
0.0
144
0.0
144
0.0
144
1.0
144
0.0
144
0.0
144
0.0
144
0.0
144
1.0
147
0.0208333333333333
147
0.0
147
0.0
147
0.0
147
0.0
147
0.0208333333333333
147
0.0
147
0.0
147
0.0
147
0.0
147
1.0
147
0.0
147
0.0
147
0.0
147
0.0
147
1.0
  0
MATERIAL
  5
A121
102
{ACAD_XDICTIONARY
360
A122
102
}
102
{ACAD_REACTORS
330
A110
102
}
330
A110
100
AcDbMaterial
  1
Global
 72
     0
 43
0.0208333333333333
 43
0.0
 43
0.0
 43
0.0
 43
0.0
 43
0.0208333333333333
 43
0.0
 43
0.0
 43
0.0
 43
0.0
 43
1.0
 43
0.0
 43
0.0
 43
0.0
 43
0.0
 43
1.0
 77
     0
 47
0.0208333333333333
 47
0.0
 47
0.0
 47
0.0
 47
0.0
 47
0.0208333333333333
 47
0.0
 47
0.0
 47
0.0
 47
0.0
 47
1.0
 47
0.0
 47
0.0
 47
0.0
 47
0.0
 47
1.0
171
     0
 49
0.0208333333333333
 49
0.0
 49
0.0
 49
0.0
 49
0.0
 49
0.0208333333333333
 49
0.0
 49
0.0
 49
0.0
 49
0.0
 49
1.0
 49
0.0
 49
0.0
 49
0.0
 49
0.0
 49
1.0
175
     0
142
0.0208333333333333
142
0.0
142
0.0
142
0.0
142
0.0
142
0.0208333333333333
142
0.0
142
0.0
142
0.0
142
0.0
142
1.0
142
0.0
142
0.0
142
0.0
142
0.0
142
1.0
179
     0
144
0.0208333333333333
144
0.0
144
0.0
144
0.0
144
0.0
144
0.0208333333333333
144
0.0
144
0.0
144
0.0
144
0.0
144
1.0
144
0.0
144
0.0
144
0.0
144
0.0
144
1.0
147
0.0208333333333333
147
0.0
147
0.0
147
0.0
147
0.0
147
0.0208333333333333
147
0.0
147
0.0
147
0.0
147
0.0
147
1.0
147
0.0
147
0.0
147
0.0
147
0.0
147
1.0
  0
MLEADERSTYLE
  5
A158
102
{ACAD_REACTORS
330
A157
102
}
330
A157
100
AcDbMLeaderStyle
170
     2
171
     1
172
     0
 90
        2
 40
0.0
 41
0.0
173
     1
 91
-1056964608
340
9DE3
 92
       -2
290
     1
 42
0.09
291
     1
 43
0.36
  3
Standard
 44
0.18
300

342
9DE1
174
     1
178
     6
175
     1
176
     0
 93
-1056964608
 45
0.18
292
     0
297
     0
 46
0.18
 94
-1056964608
 47
1.0
 49
1.0
140
1.0
293
     1
141
0.0
294
     1
177
     0
142
1.0
295
     0
296
     0
143
0.125
1001
ACAD_MLEADERVER
1070
     2
  0
MLINESTYLE
  5
9DE7
102
{ACAD_REACTORS
330
9DE6
102
}
330
9DE6
100
AcDbMlineStyle
  2
STANDARD
 70
     0
  3

 62
   256
 51
90.0
 52
90.0
 71
     2
 49
0.5
 62
   256
  6
BYLAYER
 49
-0.5
 62
   256
  6
BYLAYER
  0
ACDBPLACEHOLDER
  5
A10F
102
{ACAD_REACTORS
330
A10E
102
}
330
A10E
  0
SCALE
  5
A146
102
{ACAD_REACTORS
330
A145
102
}
330
A145
100
AcDbScale
 70
     0
300
1:1
140
1.0
141
1.0
290
     1
  0
SCALE
  5
A147
102
{ACAD_REACTORS
330
A145
102
}
330
A145
100
AcDbScale
 70
     0
300
1/128" = 1'-0"
140
0.0078125
141
12.0
290
     0
  0
SCALE
  5
A148
102
{ACAD_REACTORS
330
A145
102
}
330
A145
100
AcDbScale
 70
     0
300
1/64" = 1'-0"
140
0.015625
141
12.0
290
     0
  0
SCALE
  5
A149
102
{ACAD_REACTORS
330
A145
102
}
330
A145
100
AcDbScale
 70
     0
300
1/32" = 1'-0"
140
0.03125
141
12.0
290
     0
  0
SCALE
  5
A14A
102
{ACAD_REACTORS
330
A145
102
}
330
A145
100
AcDbScale
 70
     0
300
1/16" = 1'-0"
140
0.0625
141
12.0
290
     0
  0
SCALE
  5
A14B
102
{ACAD_REACTORS
330
A145
102
}
330
A145
100
AcDbScale
 70
     0
300
3/32" = 1'-0"
140
0.09375
141
12.0
290
     0
  0
SCALE
  5
A14C
102
{ACAD_REACTORS
330
A145
102
}
330
A145
100
AcDbScale
 70
     0
300
1/8" = 1'-0"
140
0.125
141
12.0
290
     0
  0
SCALE
  5
A14D
102
{ACAD_REACTORS
330
A145
102
}
330
A145
100
AcDbScale
 70
     0
300
3/16" = 1'-0"
140
0.1875
141
12.0
290
     0
  0
SCALE
  5
A14E
102
{ACAD_REACTORS
330
A145
102
}
330
A145
100
AcDbScale
 70
     0
300
1/4" = 1'-0"
140
0.25
141
12.0
290
     0
  0
SCALE
  5
A14F
102
{ACAD_REACTORS
330
A145
102
}
330
A145
100
AcDbScale
 70
     0
300
3/8" = 1'-0"
140
0.375
141
12.0
290
     0
  0
SCALE
  5
A150
102
{ACAD_REACTORS
330
A145
102
}
330
A145
100
AcDbScale
 70
     0
300
1/2" = 1'-0"
140
0.5
141
12.0
290
     0
  0
SCALE
  5
A151
102
{ACAD_REACTORS
330
A145
102
}
330
A145
100
AcDbScale
 70
     0
300
3/4" = 1'-0"
140
0.75
141
12.0
290
     0
  0
SCALE
  5
A152
102
{ACAD_REACTORS
330
A145
102
}
330
A145
100
AcDbScale
 70
     0
300
1" = 1'-0"
140
1.0
141
12.0
290
     0
  0
SCALE
  5
A153
102
{ACAD_REACTORS
330
A145
102
}
330
A145
100
AcDbScale
 70
     0
300
1-1/2" = 1'-0"
140
1.5
141
12.0
290
     0
  0
SCALE
  5
A154
102
{ACAD_REACTORS
330
A145
102
}
330
A145
100
AcDbScale
 70
     0
300
3" = 1'-0"
140
3.0
141
12.0
290
     0
  0
SCALE
  5
A155
102
{ACAD_REACTORS
330
A145
102
}
330
A145
100
AcDbScale
 70
     0
300
6" = 1'-0"
140
6.0
141
12.0
290
     0
  0
SCALE
  5
A156
102
{ACAD_REACTORS
330
A145
102
}
330
A145
100
AcDbScale
 70
     0
300
1'-0" = 1'-0"
140
12.0
141
12.0
290
     0
  0
ACDBSECTIONVIEWSTYLE
  5
A15A
102
{ACAD_XDICTIONARY
360
A1B5
102
}
102
{ACAD_REACTORS
330
A159
102
}
330
A159
100
AcDbModelDocViewStyle
 70
     0
  3
Imperial24
290
     0
100
AcDbSectionViewStyle
 70
     0
 71
     0
 90
       78
 71
     1
340
9DE1
 40
0.24
340
0
340
0
 40
0.24
300
I, O, Q, S, X, Z
 40
0.48
 90
        3
 40
0.18
 90
        1
 71
     2
340
9DE5
 90
       25
340
9DE5
 90
       50
 40
0.24
 40
0.0
 40
0.24
 71
     3
340
9DE1
 40
0.24
 90
        1
 40
0.75
 90
        1
300
%<\AcVar ViewType \f "%tc1">% %<\AcVar ViewSectionStartId>%-%<\AcVar ViewSectionEndId>%\PSCALE %<\AcVar ViewScale \f "%sn">%
 71
     4
300
ANSI31
 40
1.0
 90
        0
290
     0
290
     0
 90
        6
 40
0.0
 40
1.570796326794896
 40
0.2617993877991494
 40
1.308996938995747
 40
-0.2617993877991494
 40
1.832595714594046
  0
TABLESTYLE
  5
A144
102
{ACAD_XDICTIONARY
360
A17C
102
}
102
{ACAD_REACTORS
330
A143
102
}
330
A143
100
AcDbTableStyle
  3
Standard
 70
     0
 71
     0
 40
0.06
 41
0.06
280
     0
281
     0
  7
STANDARD
140
0.18
170
     2
 62
     0
 63
     7
283
     0
274
    -2
284
     1
 64
     0
275
    -2
285
     1
 65
     0
276
    -2
286
     1
 66
     0
277
    -2
287
     1
 67
     0
278
    -2
288
     1
 68
     0
279
    -2
289
     1
 69
     0
  7
STANDARD
140
0.25
170
     5
 62
     0
 63
     7
283
     0
274
    -2
284
     1
 64
     0
275
    -2
285
     1
 65
     0
276
    -2
286
     1
 66
     0
277
    -2
287
     1
 67
     0
278
    -2
288
     1
 68
     0
279
    -2
289
     1
 69
     0
  7
STANDARD
140
0.18
170
     5
 62
     0
 63
     7
283
     0
274
    -2
284
     1
 64
     0
275
    -2
285
     1
 65
     0
276
    -2
286
     1
 66
     0
277
    -2
287
     1
 67
     0
278
    -2
288
     1
 68
     0
279
    -2
289
     1
 69
     0
  0
VISUALSTYLE
  5
A12F
102
{ACAD_XDICTIONARY
360
A18D
102
}
102
{ACAD_REACTORS
330
A129
102
}
330
A129
100
AcDbVisualStyle
  2
2dWireframe
 70
     4
 71
     0
 72
     2
 73
     0
 90
        0
 40
-0.6
 41
-30.0
 62
     5
 63
     7
 74
     1
 91
        4
 64
     7
 65
   257
 75
     1
175
     1
 42
1.0
 92
        0
 66
   257
 43
1.0
 76
     1
 77
     6
 78
     2
 67
     7
 79
     5
170
     0
171
     0
290
     0
174
     0
 93
        1
 44
0.0
173
     0
291
     0
 45
0.0
1001
ACAD
1000
AcDbSavedByObjectVersion
1070
     0
  0
VISUALSTYLE
  5
A12E
102
{ACAD_XDICTIONARY
360
A18B
102
}
102
{ACAD_REACTORS
330
A129
102
}
330
A129
100
AcDbVisualStyle
  2
Basic
 70
     7
 71
     1
 72
     0
 73
     1
 90
        0
 40
-0.6
 41
-30.0
 62
     5
 63
     7
 74
     0
 91
        4
 64
     7
 65
   257
 75
     1
175
     1
 42
1.0
 92
        8
 66
     7
 43
1.0
 76
     1
 77
     6
 78
     2
 67
     7
 79
     5
170
     0
171
     0
290
     0
174
     0
 93
        1
 44
0.0
173
     0
291
     1
 45
0.0
1001
ACAD
1000
AcDbSavedByObjectVersion
1070
     0
  0
VISUALSTYLE
  5
A135
102
{ACAD_XDICTIONARY
360
A199
102
}
102
{ACAD_REACTORS
330
A129
102
}
330
A129
100
AcDbVisualStyle
  2
Brighten
 70
    12
 71
     2
 72
     2
 73
     0
 90
        0
 40
-0.6
 41
-30.0
 62
     5
 63
     7
 74
     1
 91
        4
 64
     7
 65
   257
 75
     1
175
     1
 42
1.0
 92
        8
 66
     7
 43
1.0
 76
     1
 77
     6
 78
     2
 67
     7
 79
     5
170
     0
171
     0
290
     0
174
     0
 93
        1
 44
50.0
173
     0
291
     1
 45
0.0
1001
ACAD
1000
AcDbSavedByObjectVersion
1070
     0
  0
VISUALSTYLE
  5
A139
102
{ACAD_XDICTIONARY
360
A1A1
102
}
102
{ACAD_REACTORS
330
A129
102
}
330
A129
100
AcDbVisualStyle
  2
ColorChange
 70
    16
 71
     2
 72
     2
 73
     3
 90
        0
 40
-0.6
 41
-30.0
 62
     5
 63
     8
 74
     1
 91
        4
 64
     7
 65
   257
 75
     1
175
     1
 42
1.0
 92
        8
 66
     8
 43
1.0
 76
     1
 77
     6
 78
     2
 67
     7
 79
     5
170
     0
171
     0
290
     0
174
     0
 93
        1
 44
0.0
173
     0
291
     1
 45
0.0
1001
ACAD
1000
AcDbSavedByObjectVersion
1070
     0
  0
VISUALSTYLE
  5
A132
102
{ACAD_XDICTIONARY
360
A193
102
}
102
{ACAD_REACTORS
330
A129
102
}
330
A129
100
AcDbVisualStyle
  2
Conceptual
 70
     9
 71
     3
 72
     2
 73
     0
 90
        0
 40
-0.6
 41
-30.0
 62
     5
 63
     7
 74
     2
 91
        2
 64
     7
 65
   257
 75
     1
175
     1
 42
179.0
 92
        8
 66
     7
 43
1.0
 76
     1
 77
     6
 78
     2
 67
     7
 79
     3
170
     0
171
     0
290
     0
174
     0
 93
        1
 44
0.0
173
     0
291
     0
 45
0.0
1001
ACAD
1000
AcDbSavedByObjectVersion
1070
     0
  0
VISUALSTYLE
  5
A134
102
{ACAD_XDICTIONARY
360
A197
102
}
102
{ACAD_REACTORS
330
A129
102
}
330
A129
100
AcDbVisualStyle
  2
Dim
 70
    11
 71
     2
 72
     2
 73
     0
 90
        0
 40
-0.6
 41
-30.0
 62
     5
 63
     7
 74
     1
 91
        4
 64
     7
 65
   257
 75
     1
175
     1
 42
1.0
 92
        8
 66
     7
 43
1.0
 76
     1
 77
     6
 78
     2
 67
     7
 79
     5
170
     0
171
     0
290
     0
174
     0
 93
        1
 44
-50.0
173
     0
291
     1
 45
0.0
1001
ACAD
1000
AcDbSavedByObjectVersion
1070
     0
  0
VISUALSTYLE
  5
A141
102
{ACAD_XDICTIONARY
360
A1B1
102
}
102
{ACAD_REACTORS
330
A129
102
}
330
A129
100
AcDbVisualStyle
  2
EdgeColorOff
 70
    22
 71
     2
 72
     2
 73
     0
 90
        0
 40
-0.6
 41
-30.0
 62
     5
 63
     7
 74
     1
 91
        4
 64
     7
 65
   257
 75
     1
175
     1
 42
1.0
 92
        8
 66
     7
 43
1.0
 76
     1
 77
     6
 78
     2
 67
     7
 79
     5
170
     0
171
     0
290
     0
174
     0
 93
        1
 44
0.0
173
     0
291
     1
 45
0.0
1001
ACAD
1000
AcDbSavedByObjectVersion
1070
     0
  0
VISUALSTYLE
  5
A138
102
{ACAD_XDICTIONARY
360
A19F
102
}
102
{ACAD_REACTORS
330
A129
102
}
330
A129
100
AcDbVisualStyle
  2
Facepattern
 70
    15
 71
     2
 72
     2
 73
     0
 90
        0
 40
-0.6
 41
-30.0
 62
     5
 63
     7
 74
     1
 91
        4
 64
     7
 65
   257
 75
     1
175
     1
 42
1.0
 92
        8
 66
     7
 43
1.0
 76
     1
 77
     6
 78
     2
 67
     7
 79
     5
170
     0
171
     0
290
     0
174
     0
 93
        1
 44
0.0
173
     0
291
     1
 45
0.0
1001
ACAD
1000
AcDbSavedByObjectVersion
1070
     0
  0
VISUALSTYLE
  5
A12A
102
{ACAD_XDICTIONARY
360
A183
102
}
102
{ACAD_REACTORS
330
A129
102
}
330
A129
100
AcDbVisualStyle
  2
Flat
 70
     0
 71
     2
 72
     1
 73
     1
 90
        2
 40
-0.6
 41
30.0
 62
     5
 63
     7
 74
     0
 91
        0
 64
     7
 65
   257
 75
     1
175
     1
 42
1.0
 92
        8
 66
     7
 43
1.0
 76
     1
 77
     6
 78
     2
 67
     7
 79
     5
170
     0
171
     0
290
     0
174
     0
 93
       13
 44
0.0
173
     0
291
     1
 45
0.0
1001
ACAD
1000
AcDbSavedByObjectVersion
1070
     0
  0
VISUALSTYLE
  5
A12B
102
{ACAD_XDICTIONARY
360
A185
102
}
102
{ACAD_REACTORS
330
A129
102
}
330
A129
100
AcDbVisualStyle
  2
FlatWithEdges
 70
     1
 71
     2
 72
     1
 73
     1
 90
        2
 40
-0.6
 41
30.0
 62
     5
 63
     7
 74
     1
 91
        0
 64
     7
 65
   257
 75
     1
175
     1
 42
1.0
 92
        0
 66
   257
 43
1.0
 76
     1
 77
     6
 78
     2
 67
     7
 79
     5
170
     0
171
     0
290
     0
174
     0
 93
       13
 44
0.0
173
     0
291
     1
 45
0.0
1001
ACAD
1000
AcDbSavedByObjectVersion
1070
     0
  0
VISUALSTYLE
  5
A12C
102
{ACAD_XDICTIONARY
360
A187
102
}
102
{ACAD_REACTORS
330
A129
102
}
330
A129
100
AcDbVisualStyle
  2
Gouraud
 70
     2
 71
     2
 72
     2
 73
     1
 90
        2
 40
-0.6
 41
30.0
 62
     5
 63
     7
 74
     0
 91
        0
 64
     7
 65
   257
 75
     1
175
     1
 42
1.0
 92
        0
 66
     7
 43
1.0
 76
     1
 77
     6
 78
     2
 67
     7
 79
     5
170
     0
171
     0
290
     0
174
     0
 93
       13
 44
0.0
173
     0
291
     1
 45
0.0
1001
ACAD
1000
AcDbSavedByObjectVersion
1070
     0
  0
VISUALSTYLE
  5
A12D
102
{ACAD_XDICTIONARY
360
A189
102
}
102
{ACAD_REACTORS
330
A129
102
}
330
A129
100
AcDbVisualStyle
  2
GouraudWithEdges
 70
     3
 71
     2
 72
     2
 73
     1
 90
        2
 40
-0.6
 41
30.0
 62
     5
 63
     7
 74
     1
 91
        0
 64
     7
 65
   257
 75
     1
175
     1
 42
1.0
 92
        0
 66
   257
 43
1.0
 76
     1
 77
     6
 78
     2
 67
     7
 79
     5
170
     0
171
     0
290
     0
174
     0
 93
       13
 44
0.0
173
     0
291
     1
 45
0.0
1001
ACAD
1000
AcDbSavedByObjectVersion
1070
     0
  0
VISUALSTYLE
  5
A131
102
{ACAD_XDICTIONARY
360
A191
102
}
102
{ACAD_REACTORS
330
A129
102
}
330
A129
100
AcDbVisualStyle
  2
Hidden
 70
     6
 71
     1
 72
     2
 73
     2
 90
        0
 40
-0.6
 41
-30.0
 62
     5
 63
     7
 74
     2
 91
        2
 64
     7
 65
   257
 75
     2
175
     1
 42
40.0
 92
        0
 66
   257
 43
1.0
 76
     1
 77
     6
 78
     2
 67
     7
 79
     3
170
     0
171
     0
290
     0
174
     0
 93
        1
 44
0.0
173
     0
291
     0
 45
0.0
1001
ACAD
1000
AcDbSavedByObjectVersion
1070
     0
  0
VISUALSTYLE
  5
A13F
102
{ACAD_XDICTIONARY
360
A1AD
102
}
102
{ACAD_REACTORS
330
A129
102
}
330
A129
100
AcDbVisualStyle
  2
JitterOff
 70
    20
 71
     2
 72
     2
 73
     0
 90
        0
 40
-0.6
 41
-30.0
 62
     5
 63
     7
 74
     1
 91
        4
 64
     7
 65
   257
 75
     1
175
     1
 42
1.0
 92
       10
 66
     7
 43
1.0
 76
     1
 77
     6
 78
     2
 67
     7
 79
     5
170
     0
171
     0
290
     0
174
     0
 93
        1
 44
0.0
173
     0
291
     1
 45
0.0
1001
ACAD
1000
AcDbSavedByObjectVersion
1070
     0
  0
VISUALSTYLE
  5
A137
102
{ACAD_XDICTIONARY
360
A19D
102
}
102
{ACAD_REACTORS
330
A129
102
}
330
A129
100
AcDbVisualStyle
  2
Linepattern
 70
    14
 71
     2
 72
     2
 73
     0
 90
        0
 40
-0.6
 41
-30.0
 62
     5
 63
     7
 74
     1
 91
        4
 64
     7
 65
   257
 75
     7
175
     7
 42
1.0
 92
        8
 66
     7
 43
1.0
 76
     1
 77
     6
 78
     2
 67
     7
 79
     5
170
     0
171
     0
290
     0
174
     0
 93
        1
 44
0.0
173
     0
291
     1
 45
0.0
1001
ACAD
1000
AcDbSavedByObjectVersion
1070
     0
  0
VISUALSTYLE
  5
A140
102
{ACAD_XDICTIONARY
360
A1AF
102
}
102
{ACAD_REACTORS
330
A129
102
}
330
A129
100
AcDbVisualStyle
  2
OverhangOff
 70
    21
 71
     2
 72
     2
 73
     0
 90
        0
 40
-0.6
 41
-30.0
 62
     5
 63
     7
 74
     1
 91
        4
 64
     7
 65
   257
 75
     1
175
     1
 42
1.0
 92
        9
 66
     7
 43
1.0
 76
     1
 77
     6
 78
     2
 67
     7
 79
     5
170
     0
171
     0
290
     0
174
     0
 93
        1
 44
0.0
173
     0
291
     1
 45
0.0
1001
ACAD
1000
AcDbSavedByObjectVersion
1070
     0
  0
VISUALSTYLE
  5
A133
102
{ACAD_XDICTIONARY
360
A195
102
}
102
{ACAD_REACTORS
330
A129
102
}
330
A129
100
AcDbVisualStyle
  2
Realistic
 70
     8
 71
     2
 72
     3
 73
     0
 90
        2
 40
-0.6
 41
30.0
 62
     5
 63
     7
 74
     0
 91
        0
 64
     7
 65
   257
 75
     1
175
     1
 42
1.0
 92
        8
 66
   257
 43
1.0
 76
     1
 77
     6
 78
     2
 67
     7
 79
     3
170
     0
171
     0
290
     0
174
     0
 93
       13
 44
0.0
173
     0
291
     0
 45
0.0
1001
ACAD
1000
AcDbSavedByObjectVersion
1070
     0
  0
VISUALSTYLE
  5
A13E
102
{ACAD_XDICTIONARY
360
A1AB
102
}
102
{ACAD_REACTORS
330
A129
102
}
330
A129
100
AcDbVisualStyle
  2
Shaded
 70
    27
 71
     2
 72
     2
 73
     1
 90
        2
 40
-0.6
 41
30.0
 62
     5
 63
     7
 74
     0
 91
        4
 64
     7
 65
   257
 75
     1
175
     1
 42
1.0
 92
        8
 66
   257
 43
1.0
 76
     1
 77
     6
 78
     2
 67
     8
 79
     3
170
     0
171
     0
290
     0
174
     0
 93
        5
 44
0.0
173
     0
291
     0
 45
0.0
1001
ACAD
1000
AcDbSavedByObjectVersion
1070
     0
  0
VISUALSTYLE
  5
A13D
102
{ACAD_XDICTIONARY
360
A1A9
102
}
102
{ACAD_REACTORS
330
A129
102
}
330
A129
100
AcDbVisualStyle
  2
Shaded with edges
 70
    26
 71
     2
 72
     2
 73
     1
 90
        2
 40
-0.6
 41
30.0
 62
     5
 63
     7
 74
     1
 91
       10
 64
     7
 65
   257
 75
     2
175
     1
 42
1.0
 92
        8
 66
   257
 43
1.0
 76
     1
 77
     6
 78
     2
 67
     7
 79
     3
170
     0
171
     0
290
     0
174
     0
 93
        5
 44
0.0
173
     0
291
     0
 45
0.0
1001
ACAD
1000
AcDbSavedByObjectVersion
1070
     0
  0
VISUALSTYLE
  5
A13A
102
{ACAD_XDICTIONARY
360
A1A3
102
}
102
{ACAD_REACTORS
330
A129
102
}
330
A129
100
AcDbVisualStyle
  2
Shades of Gray
 70
    23
 71
     2
 72
     2
 73
     3
 90
        0
 40
-0.6
 41
-30.0
 62
     5
 63
     7
 74
     2
 91
        2
 64
     7
 65
     7
 75
     1
175
     1
 42
40.0
 92
        8
 66
     7
 43
1.0
 76
     1
 77
     6
 78
     2
 67
     7
 79
     3
170
     0
171
     0
290
     0
174
     0
 93
        1
 44
0.0
173
     0
291
     0
 45
0.0
1001
ACAD
1000
AcDbSavedByObjectVersion
1070
     0
  0
VISUALSTYLE
  5
A13B
102
{ACAD_XDICTIONARY
360
A1A5
102
}
102
{ACAD_REACTORS
330
A129
102
}
330
A129
100
AcDbVisualStyle
  2
Sketchy
 70
    24
 71
     1
 72
     2
 73
     2
 90
        0
 40
-0.6
 41
-30.0
 62
     5
 63
     7
 74
     2
 91
        2
 64
     7
 65
     7
 75
     1
175
     1
 42
40.0
 92
       11
 66
     7
 43
1.0
 76
     1
 77
     6
 78
     2
 67
     7
 79
     6
170
     0
171
     0
290
     0
174
     0
 93
        1
 44
0.0
173
     0
291
     0
 45
0.0
1001
ACAD
1000
AcDbSavedByObjectVersion
1070
     0
  0
VISUALSTYLE
  5
A136
102
{ACAD_XDICTIONARY
360
A19B
102
}
102
{ACAD_REACTORS
330
A129
102
}
330
A129
100
AcDbVisualStyle
  2
Thicken
 70
    13
 71
     2
 72
     2
 73
     0
 90
        0
 40
-0.6
 41
-30.0
 62
     5
 63
     7
 74
     1
 91
        4
 64
     7
 65
   257
 75
     1
175
     1
 42
1.0
 92
       12
 66
     7
 43
1.0
 76
     1
 77
     6
 78
     2
 67
     7
 79
     5
170
     0
171
     0
290
     0
174
     0
 93
        1
 44
0.0
173
     0
291
     1
 45
0.0
1001
ACAD
1000
AcDbSavedByObjectVersion
1070
     0
  0
VISUALSTYLE
  5
A130
102
{ACAD_XDICTIONARY
360
A18F
102
}
102
{ACAD_REACTORS
330
A129
102
}
330
A129
100
AcDbVisualStyle
  2
Wireframe
 70
     5
 71
     0
 72
     2
 73
     0
 90
        0
 40
-0.6
 41
-30.0
 62
     5
 63
     7
 74
     1
 91
        4
 64
     7
 65
   257
 75
     1
175
     1
 42
1.0
 92
        0
 66
   257
 43
1.0
 76
     1
 77
     6
 78
     2
 67
     7
 79
     3
170
     0
171
     0
290
     0
174
     0
 93
        1
 44
0.0
173
     0
291
     0
 45
0.0
1001
ACAD
1000
AcDbSavedByObjectVersion
1070
     0
  0
VISUALSTYLE
  5
A13C
102
{ACAD_XDICTIONARY
360
A1A7
102
}
102
{ACAD_REACTORS
330
A129
102
}
330
A129
100
AcDbVisualStyle
  2
X-Ray
 70
    25
 71
     2
 72
     2
 73
     1
 90
        1
 40
0.5
 41
-30.0
 62
     5
 63
     7
 74
     1
 91
        0
 64
     7
 65
   257
 75
     1
175
     1
 42
1.0
 92
        8
 66
     7
 43
1.0
 76
     1
 77
     6
 78
     2
 67
     7
 79
     3
170
     0
171
     0
290
     0
174
     0
 93
       13
 44
0.0
173
     0
291
     0
 45
0.0
1001
ACAD
1000
AcDbSavedByObjectVersion
1070
     0
  0
DICTIONARYVAR
  5
A176
102
{ACAD_REACTORS
330
A171
102
}
330
A171
100
DictionaryVariables
280
     0
  1
1:1
  0
DICTIONARYVAR
  5
A173
102
{ACAD_REACTORS
330
A171
102
}
330
A171
100
DictionaryVariables
280
     0
  1
STANDARD
  0
DICTIONARYVAR
  5
A172
102
{ACAD_REACTORS
330
A171
102
}
330
A171
100
DictionaryVariables
280
     0
  1
STANDARD
  0
DICTIONARYVAR
  5
A174
102
{ACAD_REACTORS
330
A171
102
}
330
A171
100
DictionaryVariables
280
     0
  1
Imperial24
  0
DICTIONARYVAR
  5
A175
102
{ACAD_REACTORS
330
A171
102
}
330
A171
100
DictionaryVariables
280
     0
  1
Imperial24
  0
DICTIONARYVAR
  5
A179
102
{ACAD_REACTORS
330
A171
102
}
330
A171
100
DictionaryVariables
280
     0
  1
1
  0
DICTIONARYVAR
  5
A178
102
{ACAD_REACTORS
330
A171
102
}
330
A171
100
DictionaryVariables
280
     0
  1
0
  0
DICTIONARYVAR
  5
A177
102
{ACAD_REACTORS
330
A171
102
}
330
A171
100
DictionaryVariables
280
     0
  1
127
  0
DICTIONARYVAR
  5
A17A
102
{ACAD_REACTORS
330
A171
102
}
330
A171
100
DictionaryVariables
280
     0
  1
2
  0
DICTIONARY
  5
A1B7
330
A15C
100
AcDbDictionary
280
     1
281
     1
  3
ACAD_XREC_ROUNDTRIP
360
A1B8
  0
DICTIONARY
  5
A1B9
330
A15D
100
AcDbDictionary
280
     1
281
     1
  3
ACAD_XREC_ROUNDTRIP
360
A1BA
  0
DICTIONARY
  5
A1BB
330
A15E
100
AcDbDictionary
280
     1
281
     1
  3
ACAD_XREC_ROUNDTRIP
360
A1BC
  0
DICTIONARY
  5
A11A
330
A119
100
AcDbDictionary
280
     1
281
     1
  3
ACAD_XREC_ROUNDTRIP
360
A181
  3
BUMPTILE
360
A11C
  3
DIFFUSETILE
360
A11B
  3
OPACITYTILE
360
A11F
  3
REFLECTIONTILE
360
A11E
  3
REFRACTIONTILE
360
A120
  3
SPECULARTILE
360
A11D
  0
DICTIONARY
  5
A112
330
A111
100
AcDbDictionary
280
     1
281
     1
  3
ACAD_XREC_ROUNDTRIP
360
A180
  3
BUMPTILE
360
A114
  3
DIFFUSETILE
360
A113
  3
OPACITYTILE
360
A117
  3
REFLECTIONTILE
360
A116
  3
REFRACTIONTILE
360
A118
  3
SPECULARTILE
360
A115
  0
DICTIONARY
  5
A122
330
A121
100
AcDbDictionary
280
     1
281
     1
  3
ACAD_XREC_ROUNDTRIP
360
A182
  3
BUMPTILE
360
A124
  3
DIFFUSETILE
360
A123
  3
OPACITYTILE
360
A127
  3
REFLECTIONTILE
360
A126
  3
REFRACTIONTILE
360
A128
  3
SPECULARTILE
360
A125
  0
DICTIONARY
  5
A1B5
330
A15A
100
AcDbDictionary
280
     1
281
     1
  3
ACAD_XREC_ROUNDTRIP
360
A1B6
  0
DICTIONARY
  5
A17C
330
A144
100
AcDbDictionary
280
     1
281
     1
  3
ACAD_ROUNDTRIP_2008_TABLESTYLE_CELLSTYLEMAP
360
A17D
  3
ACAD_XREC_ROUNDTRIP
360
A1B3
  0
DICTIONARY
  5
A18D
330
A12F
100
AcDbDictionary
280
     1
281
     1
  3
ACAD_XREC_ROUNDTRIP
360
A18E
  0
DICTIONARY
  5
A18B
330
A12E
100
AcDbDictionary
280
     1
281
     1
  3
ACAD_XREC_ROUNDTRIP
360
A18C
  0
DICTIONARY
  5
A199
330
A135
100
AcDbDictionary
280
     1
281
     1
  3
ACAD_XREC_ROUNDTRIP
360
A19A
  0
DICTIONARY
  5
A1A1
330
A139
100
AcDbDictionary
280
     1
281
     1
  3
ACAD_XREC_ROUNDTRIP
360
A1A2
  0
DICTIONARY
  5
A193
330
A132
100
AcDbDictionary
280
     1
281
     1
  3
ACAD_XREC_ROUNDTRIP
360
A194
  0
DICTIONARY
  5
A197
330
A134
100
AcDbDictionary
280
     1
281
     1
  3
ACAD_XREC_ROUNDTRIP
360
A198
  0
DICTIONARY
  5
A1B1
330
A141
100
AcDbDictionary
280
     1
281
     1
  3
ACAD_XREC_ROUNDTRIP
360
A1B2
  0
DICTIONARY
  5
A19F
330
A138
100
AcDbDictionary
280
     1
281
     1
  3
ACAD_XREC_ROUNDTRIP
360
A1A0
  0
DICTIONARY
  5
A183
330
A12A
100
AcDbDictionary
280
     1
281
     1
  3
ACAD_XREC_ROUNDTRIP
360
A184
  0
DICTIONARY
  5
A185
330
A12B
100
AcDbDictionary
280
     1
281
     1
  3
ACAD_XREC_ROUNDTRIP
360
A186
  0
DICTIONARY
  5
A187
330
A12C
100
AcDbDictionary
280
     1
281
     1
  3
ACAD_XREC_ROUNDTRIP
360
A188
  0
DICTIONARY
  5
A189
330
A12D
100
AcDbDictionary
280
     1
281
     1
  3
ACAD_XREC_ROUNDTRIP
360
A18A
  0
DICTIONARY
  5
A191
330
A131
100
AcDbDictionary
280
     1
281
     1
  3
ACAD_XREC_ROUNDTRIP
360
A192
  0
DICTIONARY
  5
A1AD
330
A13F
100
AcDbDictionary
280
     1
281
     1
  3
ACAD_XREC_ROUNDTRIP
360
A1AE
  0
DICTIONARY
  5
A19D
330
A137
100
AcDbDictionary
280
     1
281
     1
  3
ACAD_XREC_ROUNDTRIP
360
A19E
  0
DICTIONARY
  5
A1AF
330
A140
100
AcDbDictionary
280
     1
281
     1
  3
ACAD_XREC_ROUNDTRIP
360
A1B0
  0
DICTIONARY
  5
A195
330
A133
100
AcDbDictionary
280
     1
281
     1
  3
ACAD_XREC_ROUNDTRIP
360
A196
  0
DICTIONARY
  5
A1AB
330
A13E
100
AcDbDictionary
280
     1
281
     1
  3
ACAD_XREC_ROUNDTRIP
360
A1AC
  0
DICTIONARY
  5
A1A9
330
A13D
100
AcDbDictionary
280
     1
281
     1
  3
ACAD_XREC_ROUNDTRIP
360
A1AA
  0
DICTIONARY
  5
A1A3
330
A13A
100
AcDbDictionary
280
     1
281
     1
  3
ACAD_XREC_ROUNDTRIP
360
A1A4
  0
DICTIONARY
  5
A1A5
330
A13B
100
AcDbDictionary
280
     1
281
     1
  3
ACAD_XREC_ROUNDTRIP
360
A1A6
  0
DICTIONARY
  5
A19B
330
A136
100
AcDbDictionary
280
     1
281
     1
  3
ACAD_XREC_ROUNDTRIP
360
A19C
  0
DICTIONARY
  5
A18F
330
A130
100
AcDbDictionary
280
     1
281
     1
  3
ACAD_XREC_ROUNDTRIP
360
A190
  0
DICTIONARY
  5
A1A7
330
A13C
100
AcDbDictionary
280
     1
281
     1
  3
ACAD_XREC_ROUNDTRIP
360
A1A8
  0
XRECORD
  5
A1B8
102
{ACAD_REACTORS
330
A1B7
102
}
330
A1B7
100
AcDbXrecord
280
     1
102
DISPLAYNAME
  1
Imperial24
102
FLAGS
 90
        0
  0
XRECORD
  5
A1BA
102
{ACAD_REACTORS
330
A1B9
102
}
330
A1B9
100
AcDbXrecord
280
     1
102
SHADEPLOT
 70
     0
102
SHADEPLOTRESLEVEL
 70
     2
102
SHADEPLOTCUSTOMDPI
 70
   300
  0
XRECORD
  5
A1BC
102
{ACAD_REACTORS
330
A1BB
102
}
330
A1BB
100
AcDbXrecord
280
     1
102
SHADEPLOT
 70
     0
102
SHADEPLOTRESLEVEL
 70
     2
102
SHADEPLOTCUSTOMDPI
 70
   300
  0
XRECORD
  5
A181
102
{ACAD_REACTORS
330
A11A
102
}
330
A11A
100
AcDbXrecord
280
     1
102
MATERIAL
148
0.0
149
0.0
149
0.0
 93
        0
 94
      127
282
     0
 72
     0
 77
     0
171
     0
175
     0
179
     0
273
     0
  0
XRECORD
  5
A11C
102
{ACAD_REACTORS
330
A11A
102
}
330
A11A
100
AcDbXrecord
280
     1
270
     1
271
     1
  0
XRECORD
  5
A11B
102
{ACAD_REACTORS
330
A11A
102
}
330
A11A
100
AcDbXrecord
280
     1
270
     1
271
     1
  0
XRECORD
  5
A11F
102
{ACAD_REACTORS
330
A11A
102
}
330
A11A
100
AcDbXrecord
280
     1
270
     1
271
     1
  0
XRECORD
  5
A11E
102
{ACAD_REACTORS
330
A11A
102
}
330
A11A
100
AcDbXrecord
280
     1
270
     1
271
     1
  0
XRECORD
  5
A120
102
{ACAD_REACTORS
330
A11A
102
}
330
A11A
100
AcDbXrecord
280
     1
270
     1
271
     1
  0
XRECORD
  5
A11D
102
{ACAD_REACTORS
330
A11A
102
}
330
A11A
100
AcDbXrecord
280
     1
270
     1
271
     1
  0
XRECORD
  5
A180
102
{ACAD_REACTORS
330
A112
102
}
330
A112
100
AcDbXrecord
280
     1
102
MATERIAL
148
0.0
149
0.0
149
0.0
 93
        0
 94
      127
282
     0
 72
     0
 77
     0
171
     0
175
     0
179
     0
273
     0
  0
XRECORD
  5
A114
102
{ACAD_REACTORS
330
A112
102
}
330
A112
100
AcDbXrecord
280
     1
270
     1
271
     1
  0
XRECORD
  5
A113
102
{ACAD_REACTORS
330
A112
102
}
330
A112
100
AcDbXrecord
280
     1
270
     1
271
     1
  0
XRECORD
  5
A117
102
{ACAD_REACTORS
330
A112
102
}
330
A112
100
AcDbXrecord
280
     1
270
     1
271
     1
  0
XRECORD
  5
A116
102
{ACAD_REACTORS
330
A112
102
}
330
A112
100
AcDbXrecord
280
     1
270
     1
271
     1
  0
XRECORD
  5
A118
102
{ACAD_REACTORS
330
A112
102
}
330
A112
100
AcDbXrecord
280
     1
270
     1
271
     1
  0
XRECORD
  5
A115
102
{ACAD_REACTORS
330
A112
102
}
330
A112
100
AcDbXrecord
280
     1
270
     1
271
     1
  0
XRECORD
  5
A182
102
{ACAD_REACTORS
330
A122
102
}
330
A122
100
AcDbXrecord
280
     1
102
MATERIAL
148
0.0
149
0.0
149
0.0
 93
        0
 94
      127
282
     0
 72
     0
 77
     0
171
     0
175
     0
179
     0
273
     0
  0
XRECORD
  5
A124
102
{ACAD_REACTORS
330
A122
102
}
330
A122
100
AcDbXrecord
280
     1
270
     1
271
     1
  0
XRECORD
  5
A123
102
{ACAD_REACTORS
330
A122
102
}
330
A122
100
AcDbXrecord
280
     1
270
     1
271
     1
  0
XRECORD
  5
A127
102
{ACAD_REACTORS
330
A122
102
}
330
A122
100
AcDbXrecord
280
     1
270
     1
271
     1
  0
XRECORD
  5
A126
102
{ACAD_REACTORS
330
A122
102
}
330
A122
100
AcDbXrecord
280
     1
270
     1
271
     1
  0
XRECORD
  5
A128
102
{ACAD_REACTORS
330
A122
102
}
330
A122
100
AcDbXrecord
280
     1
270
     1
271
     1
  0
XRECORD
  5
A125
102
{ACAD_REACTORS
330
A122
102
}
330
A122
100
AcDbXrecord
280
     1
270
     1
271
     1
  0
XRECORD
  5
A1B6
102
{ACAD_REACTORS
330
A1B5
102
}
330
A1B5
100
AcDbXrecord
280
     1
102
DISPLAYNAME
  1
Imperial24
102
FLAGS
 90
        0
  0
CELLSTYLEMAP
  5
A17D
102
{ACAD_REACTORS
330
A17C
102
}
330
A17C
100
AcDbCellStyleMap
 90
        3
300
CELLSTYLE
  1
TABLEFORMAT_BEGIN
 90
        5
170
     1
 91
        0
 92
    32768
 62
   257
 93
        1
300
CONTENTFORMAT
  1
CONTENTFORMAT_BEGIN
 90
        0
 91
        0
 92
      512
 93
        0
300

 40
0.0
140
1.0
 94
        5
 62
     0
340
9DE1
144
0.25
309
CONTENTFORMAT_END
171
     0
 94
        0
309
TABLEFORMAT_END
  1
CELLSTYLE_BEGIN
 90
        1
 91
        1
300
_TITLE
309
CELLSTYLE_END
300
CELLSTYLE
  1
TABLEFORMAT_BEGIN
 90
        5
170
     1
 91
        0
 92
        0
 62
   257
 93
        1
300
CONTENTFORMAT
  1
CONTENTFORMAT_BEGIN
 90
        0
 91
        0
 92
      512
 93
        0
300

 40
0.0
140
1.0
 94
        5
 62
     0
340
9DE1
144
0.18
309
CONTENTFORMAT_END
171
     0
 94
        0
309
TABLEFORMAT_END
  1
CELLSTYLE_BEGIN
 90
        2
 91
        1
300
_HEADER
309
CELLSTYLE_END
300
CELLSTYLE
  1
TABLEFORMAT_BEGIN
 90
        5
170
     1
 91
        0
 92
        0
 62
   257
 93
        1
300
CONTENTFORMAT
  1
CONTENTFORMAT_BEGIN
 90
        0
 91
        0
 92
      512
 93
        0
300

 40
0.0
140
1.0
 94
        2
 62
     0
340
9DE1
144
0.18
309
CONTENTFORMAT_END
171
     0
 94
        0
309
TABLEFORMAT_END
  1
CELLSTYLE_BEGIN
 90
        3
 91
        2
300
_DATA
309
CELLSTYLE_END
  0
XRECORD
  5
A1B3
102
{ACAD_REACTORS
330
A17C
102
}
330
A17C
100
AcDbXrecord
280
     1
102
ACAD_ROUNDTRIP_PRE2007_TABLESTYLE
 90
      512
 91
        0
  1

 92
      512
 93
        0
  2

 94
      512
 95
        0
  3

  0
XRECORD
  5
A18E
102
{ACAD_REACTORS
330
A18D
102
}
330
A18D
100
AcDbXrecord
280
     1
102
RTVSPost2010Prop28
280
     1
102
RTVSPost2010PropOp28
 70
     1
102
RTVSPost2010Prop29
280
     1
102
RTVSPost2010PropOp29
 70
     1
102
RTVSPost2010Prop30
280
     0
102
RTVSPost2010PropOp30
 70
     1
102
RTVSPost2010Prop31
280
     0
102
RTVSPost2010PropOp31
 70
     1
102
RTVSPost2010Prop32
280
     0
102
RTVSPost2010PropOp32
 70
     1
102
RTVSPost2010Prop33
280
     0
102
RTVSPost2010PropOp33
 70
     1
102
RTVSPost2010Prop34
280
     0
102
RTVSPost2010PropOp34
 70
     1
102
RTVSPost2010Prop35
280
     0
102
RTVSPost2010PropOp35
 70
     1
102
RTVSPost2010Prop36
280
     0
102
RTVSPost2010PropOp36
 70
     1
102
RTVSPost2010Prop37
 90
       50
102
RTVSPost2010PropOp37
 70
     1
102
RTVSPost2010Prop38
140
0.0
102
RTVSPost2010PropOp38
 70
     1
102
RTVSPost2010Prop39
140
1.0
102
RTVSPost2010PropOp39
 70
     1
102
RTVSPost2010Prop40
 90
        0
102
RTVSPost2010PropOp40
 70
     1
102
RTVSPost2010Prop41ColorIndex
 90
       18
102
RTVSPost2010Prop41ColorRGB
 90
        0
102
RTVSPost2010PropOp41
 70
     1
102
RTVSPost2010Prop42
 90
       50
102
RTVSPost2010PropOp42
 70
     1
102
RTVSPost2010Prop43
 90
        3
102
RTVSPost2010PropOp43
 70
     1
102
RTVSPost2010Prop44ColorIndex
 90
        5
102
RTVSPost2010Prop44ColorRGB
 90
      255
102
RTVSPost2010PropOp44
 70
     1
102
RTVSPost2010Prop45
280
     0
102
RTVSPost2010PropOp45
 70
     1
102
RTVSPost2010Prop46
 90
       50
102
RTVSPost2010PropOp46
 70
     1
102
RTVSPost2010Prop47
 90
       50
102
RTVSPost2010PropOp47
 70
     1
102
RTVSPost2010Prop48
 90
       50
102
RTVSPost2010PropOp48
 70
     1
102
RTVSPost2010Prop49
280
     0
102
RTVSPost2010PropOp49
 70
     1
102
RTVSPost2010Prop50
 90
       50
102
RTVSPost2010PropOp50
 70
     1
102
RTVSPost2010Prop51ColorIndex
 90
      256
102
RTVSPost2010Prop51ColorRGB
 90
-16777216
102
RTVSPost2010PropOp51
 70
     0
102
RTVSPost2010Prop52
140
1.0
102
RTVSPost2010PropOp52
 70
     0
102
RTVSPost2010Prop53
 90
        2
102
RTVSPost2010PropOp53
 70
     1
102
RTVSPost2010Prop54
  1
strokes_ogs.tif
102
RTVSPost2010PropOp54
 70
     1
102
RTVSPost2010Prop55
280
     0
102
RTVSPost2010PropOp55
 70
     1
102
RTVSPost2010Prop56
140
1.0
102
RTVSPost2010PropOp56
 70
     1
102
RTVSPost2010Prop57
140
1.0
102
RTVSPost2010PropOp57
 70
     1
102
RTVSPropertyOp0
 70
     1
102
RTVSPropertyOp1
 70
     1
102
RTVSPropertyOp2
 70
     1
102
RTVSPropertyOp3
 70
     1
102
RTVSPropertyOp4
 70
     1
102
RTVSPropertyOp5
 70
     1
102
RTVSPropertyOp6
 70
     1
102
RTVSPropertyOp7
 70
     1
102
RTVSPropertyOp8
 70
     1
102
RTVSPropertyOp9
 70
     1
102
RTVSPropertyOp10
 70
     1
102
RTVSPropertyOp11
 70
     1
102
RTVSPropertyOp12
 70
     1
102
RTVSPropertyOp13
 70
     1
102
RTVSPropertyOp14
 70
     1
102
RTVSPropertyOp15
 70
     1
102
RTVSPropertyOp16
 70
     1
102
RTVSPropertyOp17
 70
     1
102
RTVSPropertyOp18
 70
     1
102
RTVSPropertyOp19
 70
     1
102
RTVSPropertyOp20
 70
     1
102
RTVSPropertyOp21
 70
     1
102
RTVSPropertyOp22
 70
     1
102
RTVSPropertyOp23
 70
     1
102
RTVSPropertyOp24
 70
     1
102
RTVSPropertyOp25
 70
     1
102
RTVSPropertyOp26
 70
     1
102
RTVSPropertyOp27
 70
     1
102
RTVSPropertyOp28
 70
     1
102
RTVSPropertyOp29
 70
     1
102
RTVSPropertyOp30
 70
     1
102
RTVSPropertyOp31
 70
     1
102
RTVSPropertyOp32
 70
     1
102
RTVSPropertyOp33
 70
     1
102
RTVSPropertyOp34
 70
     1
102
RTVSPropertyOp35
 70
     1
102
RTVSPropertyOp36
 70
     1
102
RTVSPropertyOp37
 70
     1
102
RTVSPropertyOp38
 70
     1
102
RTVSPropertyOp39
 70
     1
102
RTVSPropertyOp40
 70
     1
102
RTVSPropertyOp41
 70
     1
102
RTVSPropertyOp42
 70
     1
102
RTVSPropertyOp43
 70
     1
102
RTVSPropertyOp44
 70
     1
102
RTVSPropertyOp45
 70
     1
102
RTVSPropertyOp46
 70
     1
102
RTVSPropertyOp47
 70
     1
102
RTVSPropertyOp48
 70
     1
102
RTVSPropertyOp49
 70
     1
102
RTVSPropertyOp50
 70
     1
102
RTVSPropertyOp51
 70
     0
102
RTVSPropertyOp52
 70
     0
102
RTVSPropertyOp53
 70
     1
102
RTVSPropertyOp54
 70
     1
102
RTVSPropertyOp55
 70
     1
102
RTVSPropertyOp56
 70
     1
102
RTVSPropertyOp57
 70
     1
102
RTVSPropertyOp58
 70
     1
102
RTVSPropertyOp59
 70
     1
102
RTVSPropertyOp60
 70
     1
102
RTVSPropertyOp61
 70
     1
102
RTVSPropertyOp62
 70
     1
  0
XRECORD
  5
A18C
102
{ACAD_REACTORS
330
A18B
102
}
330
A18B
100
AcDbXrecord
280
     1
102
RTVSPost2010Prop28
280
     0
102
RTVSPost2010PropOp28
 70
     1
102
RTVSPost2010Prop29
280
     1
102
RTVSPost2010PropOp29
 70
     1
102
RTVSPost2010Prop30
280
     1
102
RTVSPost2010PropOp30
 70
     1
102
RTVSPost2010Prop31
280
     0
102
RTVSPost2010PropOp31
 70
     1
102
RTVSPost2010Prop32
280
     0
102
RTVSPost2010PropOp32
 70
     1
102
RTVSPost2010Prop33
280
     0
102
RTVSPost2010PropOp33
 70
     1
102
RTVSPost2010Prop34
280
     0
102
RTVSPost2010PropOp34
 70
     1
102
RTVSPost2010Prop35
280
     0
102
RTVSPost2010PropOp35
 70
     1
102
RTVSPost2010Prop36
280
     0
102
RTVSPost2010PropOp36
 70
     1
102
RTVSPost2010Prop37
 90
       50
102
RTVSPost2010PropOp37
 70
     1
102
RTVSPost2010Prop38
140
0.0
102
RTVSPost2010PropOp38
 70
     1
102
RTVSPost2010Prop39
140
1.0
102
RTVSPost2010PropOp39
 70
     1
102
RTVSPost2010Prop40
 90
        0
102
RTVSPost2010PropOp40
 70
     1
102
RTVSPost2010Prop41ColorIndex
 90
       18
102
RTVSPost2010Prop41ColorRGB
 90
        0
102
RTVSPost2010PropOp41
 70
     1
102
RTVSPost2010Prop42
 90
       50
102
RTVSPost2010PropOp42
 70
     1
102
RTVSPost2010Prop43
 90
        3
102
RTVSPost2010PropOp43
 70
     1
102
RTVSPost2010Prop44ColorIndex
 90
        5
102
RTVSPost2010Prop44ColorRGB
 90
      255
102
RTVSPost2010PropOp44
 70
     1
102
RTVSPost2010Prop45
280
     0
102
RTVSPost2010PropOp45
 70
     1
102
RTVSPost2010Prop46
 90
       50
102
RTVSPost2010PropOp46
 70
     1
102
RTVSPost2010Prop47
 90
       50
102
RTVSPost2010PropOp47
 70
     1
102
RTVSPost2010Prop48
 90
       50
102
RTVSPost2010PropOp48
 70
     1
102
RTVSPost2010Prop49
280
     0
102
RTVSPost2010PropOp49
 70
     1
102
RTVSPost2010Prop50
 90
       50
102
RTVSPost2010PropOp50
 70
     1
102
RTVSPost2010Prop51ColorIndex
 90
      256
102
RTVSPost2010Prop51ColorRGB
 90
-16777216
102
RTVSPost2010PropOp51
 70
     0
102
RTVSPost2010Prop52
140
1.0
102
RTVSPost2010PropOp52
 70
     0
102
RTVSPost2010Prop53
 90
        2
102
RTVSPost2010PropOp53
 70
     1
102
RTVSPost2010Prop54
  1
strokes_ogs.tif
102
RTVSPost2010PropOp54
 70
     1
102
RTVSPost2010Prop55
280
     0
102
RTVSPost2010PropOp55
 70
     1
102
RTVSPost2010Prop56
140
1.0
102
RTVSPost2010PropOp56
 70
     1
102
RTVSPost2010Prop57
140
1.0
102
RTVSPost2010PropOp57
 70
     1
102
RTVSPropertyOp0
 70
     1
102
RTVSPropertyOp1
 70
     1
102
RTVSPropertyOp2
 70
     1
102
RTVSPropertyOp3
 70
     1
102
RTVSPropertyOp4
 70
     1
102
RTVSPropertyOp5
 70
     1
102
RTVSPropertyOp6
 70
     1
102
RTVSPropertyOp7
 70
     1
102
RTVSPropertyOp8
 70
     1
102
RTVSPropertyOp9
 70
     1
102
RTVSPropertyOp10
 70
     1
102
RTVSPropertyOp11
 70
     1
102
RTVSPropertyOp12
 70
     1
102
RTVSPropertyOp13
 70
     1
102
RTVSPropertyOp14
 70
     1
102
RTVSPropertyOp15
 70
     1
102
RTVSPropertyOp16
 70
     1
102
RTVSPropertyOp17
 70
     1
102
RTVSPropertyOp18
 70
     1
102
RTVSPropertyOp19
 70
     1
102
RTVSPropertyOp20
 70
     1
102
RTVSPropertyOp21
 70
     1
102
RTVSPropertyOp22
 70
     1
102
RTVSPropertyOp23
 70
     1
102
RTVSPropertyOp24
 70
     1
102
RTVSPropertyOp25
 70
     1
102
RTVSPropertyOp26
 70
     1
102
RTVSPropertyOp27
 70
     1
102
RTVSPropertyOp28
 70
     1
102
RTVSPropertyOp29
 70
     1
102
RTVSPropertyOp30
 70
     1
102
RTVSPropertyOp31
 70
     1
102
RTVSPropertyOp32
 70
     1
102
RTVSPropertyOp33
 70
     1
102
RTVSPropertyOp34
 70
     1
102
RTVSPropertyOp35
 70
     1
102
RTVSPropertyOp36
 70
     1
102
RTVSPropertyOp37
 70
     1
102
RTVSPropertyOp38
 70
     1
102
RTVSPropertyOp39
 70
     1
102
RTVSPropertyOp40
 70
     1
102
RTVSPropertyOp41
 70
     1
102
RTVSPropertyOp42
 70
     1
102
RTVSPropertyOp43
 70
     1
102
RTVSPropertyOp44
 70
     1
102
RTVSPropertyOp45
 70
     1
102
RTVSPropertyOp46
 70
     1
102
RTVSPropertyOp47
 70
     1
102
RTVSPropertyOp48
 70
     1
102
RTVSPropertyOp49
 70
     1
102
RTVSPropertyOp50
 70
     1
102
RTVSPropertyOp51
 70
     0
102
RTVSPropertyOp52
 70
     0
102
RTVSPropertyOp53
 70
     1
102
RTVSPropertyOp54
 70
     1
102
RTVSPropertyOp55
 70
     1
102
RTVSPropertyOp56
 70
     1
102
RTVSPropertyOp57
 70
     1
102
RTVSPropertyOp58
 70
     1
102
RTVSPropertyOp59
 70
     1
102
RTVSPropertyOp60
 70
     1
102
RTVSPropertyOp61
 70
     1
102
RTVSPropertyOp62
 70
     1
  0
XRECORD
  5
A19A
102
{ACAD_REACTORS
330
A199
102
}
330
A199
100
AcDbXrecord
280
     1
102
RTVSPost2010Prop28
280
     0
102
RTVSPost2010PropOp28
 70
     1
102
RTVSPost2010Prop29
280
     1
102
RTVSPost2010PropOp29
 70
     1
102
RTVSPost2010Prop30
280
     1
102
RTVSPost2010PropOp30
 70
     1
102
RTVSPost2010Prop31
280
     0
102
RTVSPost2010PropOp31
 70
     1
102
RTVSPost2010Prop32
280
     0
102
RTVSPost2010PropOp32
 70
     1
102
RTVSPost2010Prop33
280
     0
102
RTVSPost2010PropOp33
 70
     1
102
RTVSPost2010Prop34
280
     0
102
RTVSPost2010PropOp34
 70
     1
102
RTVSPost2010Prop35
280
     0
102
RTVSPost2010PropOp35
 70
     1
102
RTVSPost2010Prop36
280
     0
102
RTVSPost2010PropOp36
 70
     1
102
RTVSPost2010Prop37
 90
       50
102
RTVSPost2010PropOp37
 70
     1
102
RTVSPost2010Prop38
140
0.0
102
RTVSPost2010PropOp38
 70
     1
102
RTVSPost2010Prop39
140
1.0
102
RTVSPost2010PropOp39
 70
     1
102
RTVSPost2010Prop40
 90
        0
102
RTVSPost2010PropOp40
 70
     1
102
RTVSPost2010Prop41ColorIndex
 90
       18
102
RTVSPost2010Prop41ColorRGB
 90
        0
102
RTVSPost2010PropOp41
 70
     1
102
RTVSPost2010Prop42
 90
       50
102
RTVSPost2010PropOp42
 70
     1
102
RTVSPost2010Prop43
 90
        3
102
RTVSPost2010PropOp43
 70
     1
102
RTVSPost2010Prop44ColorIndex
 90
        5
102
RTVSPost2010Prop44ColorRGB
 90
      255
102
RTVSPost2010PropOp44
 70
     1
102
RTVSPost2010Prop45
280
     0
102
RTVSPost2010PropOp45
 70
     1
102
RTVSPost2010Prop46
 90
       50
102
RTVSPost2010PropOp46
 70
     1
102
RTVSPost2010Prop47
 90
       50
102
RTVSPost2010PropOp47
 70
     1
102
RTVSPost2010Prop48
 90
       50
102
RTVSPost2010PropOp48
 70
     1
102
RTVSPost2010Prop49
280
     0
102
RTVSPost2010PropOp49
 70
     1
102
RTVSPost2010Prop50
 90
       50
102
RTVSPost2010PropOp50
 70
     1
102
RTVSPost2010Prop51ColorIndex
 90
      256
102
RTVSPost2010Prop51ColorRGB
 90
-16777216
102
RTVSPost2010PropOp51
 70
     0
102
RTVSPost2010Prop52
140
1.0
102
RTVSPost2010PropOp52
 70
     0
102
RTVSPost2010Prop53
 90
        2
102
RTVSPost2010PropOp53
 70
     1
102
RTVSPost2010Prop54
  1
strokes_ogs.tif
102
RTVSPost2010PropOp54
 70
     1
102
RTVSPost2010Prop55
280
     0
102
RTVSPost2010PropOp55
 70
     1
102
RTVSPost2010Prop56
140
1.0
102
RTVSPost2010PropOp56
 70
     1
102
RTVSPost2010Prop57
140
1.0
102
RTVSPost2010PropOp57
 70
     1
102
RTVSPropertyOp0
 70
     1
102
RTVSPropertyOp1
 70
     1
102
RTVSPropertyOp2
 70
     1
102
RTVSPropertyOp3
 70
     1
102
RTVSPropertyOp4
 70
     1
102
RTVSPropertyOp5
 70
     1
102
RTVSPropertyOp6
 70
     1
102
RTVSPropertyOp7
 70
     1
102
RTVSPropertyOp8
 70
     1
102
RTVSPropertyOp9
 70
     1
102
RTVSPropertyOp10
 70
     1
102
RTVSPropertyOp11
 70
     1
102
RTVSPropertyOp12
 70
     1
102
RTVSPropertyOp13
 70
     1
102
RTVSPropertyOp14
 70
     1
102
RTVSPropertyOp15
 70
     1
102
RTVSPropertyOp16
 70
     1
102
RTVSPropertyOp17
 70
     1
102
RTVSPropertyOp18
 70
     1
102
RTVSPropertyOp19
 70
     1
102
RTVSPropertyOp20
 70
     1
102
RTVSPropertyOp21
 70
     1
102
RTVSPropertyOp22
 70
     1
102
RTVSPropertyOp23
 70
     1
102
RTVSPropertyOp24
 70
     1
102
RTVSPropertyOp25
 70
     1
102
RTVSPropertyOp26
 70
     1
102
RTVSPropertyOp27
 70
     1
102
RTVSPropertyOp28
 70
     1
102
RTVSPropertyOp29
 70
     1
102
RTVSPropertyOp30
 70
     1
102
RTVSPropertyOp31
 70
     1
102
RTVSPropertyOp32
 70
     1
102
RTVSPropertyOp33
 70
     1
102
RTVSPropertyOp34
 70
     1
102
RTVSPropertyOp35
 70
     1
102
RTVSPropertyOp36
 70
     1
102
RTVSPropertyOp37
 70
     1
102
RTVSPropertyOp38
 70
     1
102
RTVSPropertyOp39
 70
     1
102
RTVSPropertyOp40
 70
     1
102
RTVSPropertyOp41
 70
     1
102
RTVSPropertyOp42
 70
     1
102
RTVSPropertyOp43
 70
     1
102
RTVSPropertyOp44
 70
     1
102
RTVSPropertyOp45
 70
     1
102
RTVSPropertyOp46
 70
     1
102
RTVSPropertyOp47
 70
     1
102
RTVSPropertyOp48
 70
     1
102
RTVSPropertyOp49
 70
     1
102
RTVSPropertyOp50
 70
     1
102
RTVSPropertyOp51
 70
     0
102
RTVSPropertyOp52
 70
     0
102
RTVSPropertyOp53
 70
     1
102
RTVSPropertyOp54
 70
     1
102
RTVSPropertyOp55
 70
     1
102
RTVSPropertyOp56
 70
     1
102
RTVSPropertyOp57
 70
     1
102
RTVSPropertyOp58
 70
     1
102
RTVSPropertyOp59
 70
     1
102
RTVSPropertyOp60
 70
     1
102
RTVSPropertyOp61
 70
     1
102
RTVSPropertyOp62
 70
     1
  0
XRECORD
  5
A1A2
102
{ACAD_REACTORS
330
A1A1
102
}
330
A1A1
100
AcDbXrecord
280
     1
102
RTVSPost2010Prop28
280
     0
102
RTVSPost2010PropOp28
 70
     1
102
RTVSPost2010Prop29
280
     1
102
RTVSPost2010PropOp29
 70
     1
102
RTVSPost2010Prop30
280
     1
102
RTVSPost2010PropOp30
 70
     1
102
RTVSPost2010Prop31
280
     0
102
RTVSPost2010PropOp31
 70
     1
102
RTVSPost2010Prop32
280
     0
102
RTVSPost2010PropOp32
 70
     1
102
RTVSPost2010Prop33
280
     0
102
RTVSPost2010PropOp33
 70
     1
102
RTVSPost2010Prop34
280
     0
102
RTVSPost2010PropOp34
 70
     1
102
RTVSPost2010Prop35
280
     0
102
RTVSPost2010PropOp35
 70
     1
102
RTVSPost2010Prop36
280
     0
102
RTVSPost2010PropOp36
 70
     1
102
RTVSPost2010Prop37
 90
       50
102
RTVSPost2010PropOp37
 70
     1
102
RTVSPost2010Prop38
140
0.0
102
RTVSPost2010PropOp38
 70
     1
102
RTVSPost2010Prop39
140
1.0
102
RTVSPost2010PropOp39
 70
     1
102
RTVSPost2010Prop40
 90
        0
102
RTVSPost2010PropOp40
 70
     1
102
RTVSPost2010Prop41ColorIndex
 90
       18
102
RTVSPost2010Prop41ColorRGB
 90
        0
102
RTVSPost2010PropOp41
 70
     1
102
RTVSPost2010Prop42
 90
       50
102
RTVSPost2010PropOp42
 70
     1
102
RTVSPost2010Prop43
 90
        3
102
RTVSPost2010PropOp43
 70
     1
102
RTVSPost2010Prop44ColorIndex
 90
        5
102
RTVSPost2010Prop44ColorRGB
 90
      255
102
RTVSPost2010PropOp44
 70
     1
102
RTVSPost2010Prop45
280
     0
102
RTVSPost2010PropOp45
 70
     1
102
RTVSPost2010Prop46
 90
       50
102
RTVSPost2010PropOp46
 70
     1
102
RTVSPost2010Prop47
 90
       50
102
RTVSPost2010PropOp47
 70
     1
102
RTVSPost2010Prop48
 90
       50
102
RTVSPost2010PropOp48
 70
     1
102
RTVSPost2010Prop49
280
     0
102
RTVSPost2010PropOp49
 70
     1
102
RTVSPost2010Prop50
 90
       50
102
RTVSPost2010PropOp50
 70
     1
102
RTVSPost2010Prop51ColorIndex
 90
      256
102
RTVSPost2010Prop51ColorRGB
 90
-16777216
102
RTVSPost2010PropOp51
 70
     0
102
RTVSPost2010Prop52
140
1.0
102
RTVSPost2010PropOp52
 70
     0
102
RTVSPost2010Prop53
 90
        2
102
RTVSPost2010PropOp53
 70
     1
102
RTVSPost2010Prop54
  1
strokes_ogs.tif
102
RTVSPost2010PropOp54
 70
     1
102
RTVSPost2010Prop55
280
     0
102
RTVSPost2010PropOp55
 70
     1
102
RTVSPost2010Prop56
140
1.0
102
RTVSPost2010PropOp56
 70
     1
102
RTVSPost2010Prop57
140
1.0
102
RTVSPost2010PropOp57
 70
     1
102
RTVSPropertyOp0
 70
     1
102
RTVSPropertyOp1
 70
     1
102
RTVSPropertyOp2
 70
     1
102
RTVSPropertyOp3
 70
     1
102
RTVSPropertyOp4
 70
     1
102
RTVSPropertyOp5
 70
     1
102
RTVSPropertyOp6
 70
     1
102
RTVSPropertyOp7
 70
     1
102
RTVSPropertyOp8
 70
     1
102
RTVSPropertyOp9
 70
     1
102
RTVSPropertyOp10
 70
     1
102
RTVSPropertyOp11
 70
     1
102
RTVSPropertyOp12
 70
     1
102
RTVSPropertyOp13
 70
     1
102
RTVSPropertyOp14
 70
     1
102
RTVSPropertyOp15
 70
     1
102
RTVSPropertyOp16
 70
     1
102
RTVSPropertyOp17
 70
     1
102
RTVSPropertyOp18
 70
     1
102
RTVSPropertyOp19
 70
     1
102
RTVSPropertyOp20
 70
     1
102
RTVSPropertyOp21
 70
     1
102
RTVSPropertyOp22
 70
     1
102
RTVSPropertyOp23
 70
     1
102
RTVSPropertyOp24
 70
     1
102
RTVSPropertyOp25
 70
     1
102
RTVSPropertyOp26
 70
     1
102
RTVSPropertyOp27
 70
     1
102
RTVSPropertyOp28
 70
     1
102
RTVSPropertyOp29
 70
     1
102
RTVSPropertyOp30
 70
     1
102
RTVSPropertyOp31
 70
     1
102
RTVSPropertyOp32
 70
     1
102
RTVSPropertyOp33
 70
     1
102
RTVSPropertyOp34
 70
     1
102
RTVSPropertyOp35
 70
     1
102
RTVSPropertyOp36
 70
     1
102
RTVSPropertyOp37
 70
     1
102
RTVSPropertyOp38
 70
     1
102
RTVSPropertyOp39
 70
     1
102
RTVSPropertyOp40
 70
     1
102
RTVSPropertyOp41
 70
     1
102
RTVSPropertyOp42
 70
     1
102
RTVSPropertyOp43
 70
     1
102
RTVSPropertyOp44
 70
     1
102
RTVSPropertyOp45
 70
     1
102
RTVSPropertyOp46
 70
     1
102
RTVSPropertyOp47
 70
     1
102
RTVSPropertyOp48
 70
     1
102
RTVSPropertyOp49
 70
     1
102
RTVSPropertyOp50
 70
     1
102
RTVSPropertyOp51
 70
     0
102
RTVSPropertyOp52
 70
     0
102
RTVSPropertyOp53
 70
     1
102
RTVSPropertyOp54
 70
     1
102
RTVSPropertyOp55
 70
     1
102
RTVSPropertyOp56
 70
     1
102
RTVSPropertyOp57
 70
     1
102
RTVSPropertyOp58
 70
     1
102
RTVSPropertyOp59
 70
     1
102
RTVSPropertyOp60
 70
     1
102
RTVSPropertyOp61
 70
     1
102
RTVSPropertyOp62
 70
     1
  0
XRECORD
  5
A194
102
{ACAD_REACTORS
330
A193
102
}
330
A193
100
AcDbXrecord
280
     1
102
RTVSPost2010Prop28
280
     0
102
RTVSPost2010PropOp28
 70
     1
102
RTVSPost2010Prop29
280
     1
102
RTVSPost2010PropOp29
 70
     1
102
RTVSPost2010Prop30
280
     1
102
RTVSPost2010PropOp30
 70
     1
102
RTVSPost2010Prop31
280
     0
102
RTVSPost2010PropOp31
 70
     1
102
RTVSPost2010Prop32
280
     0
102
RTVSPost2010PropOp32
 70
     1
102
RTVSPost2010Prop33
280
     0
102
RTVSPost2010PropOp33
 70
     1
102
RTVSPost2010Prop34
280
     0
102
RTVSPost2010PropOp34
 70
     1
102
RTVSPost2010Prop35
280
     0
102
RTVSPost2010PropOp35
 70
     1
102
RTVSPost2010Prop36
280
     0
102
RTVSPost2010PropOp36
 70
     1
102
RTVSPost2010Prop37
 90
       50
102
RTVSPost2010PropOp37
 70
     1
102
RTVSPost2010Prop38
140
0.0
102
RTVSPost2010PropOp38
 70
     1
102
RTVSPost2010Prop39
140
1.0
102
RTVSPost2010PropOp39
 70
     1
102
RTVSPost2010Prop40
 90
        0
102
RTVSPost2010PropOp40
 70
     1
102
RTVSPost2010Prop41ColorIndex
 90
       18
102
RTVSPost2010Prop41ColorRGB
 90
        0
102
RTVSPost2010PropOp41
 70
     1
102
RTVSPost2010Prop42
 90
       50
102
RTVSPost2010PropOp42
 70
     1
102
RTVSPost2010Prop43
 90
        3
102
RTVSPost2010PropOp43
 70
     1
102
RTVSPost2010Prop44ColorIndex
 90
        5
102
RTVSPost2010Prop44ColorRGB
 90
      255
102
RTVSPost2010PropOp44
 70
     1
102
RTVSPost2010Prop45
280
     0
102
RTVSPost2010PropOp45
 70
     1
102
RTVSPost2010Prop46
 90
       50
102
RTVSPost2010PropOp46
 70
     1
102
RTVSPost2010Prop47
 90
       50
102
RTVSPost2010PropOp47
 70
     1
102
RTVSPost2010Prop48
 90
       50
102
RTVSPost2010PropOp48
 70
     1
102
RTVSPost2010Prop49
280
     0
102
RTVSPost2010PropOp49
 70
     1
102
RTVSPost2010Prop50
 90
       50
102
RTVSPost2010PropOp50
 70
     1
102
RTVSPost2010Prop51ColorIndex
 90
      256
102
RTVSPost2010Prop51ColorRGB
 90
-16777216
102
RTVSPost2010PropOp51
 70
     0
102
RTVSPost2010Prop52
140
1.0
102
RTVSPost2010PropOp52
 70
     0
102
RTVSPost2010Prop53
 90
        2
102
RTVSPost2010PropOp53
 70
     1
102
RTVSPost2010Prop54
  1
strokes_ogs.tif
102
RTVSPost2010PropOp54
 70
     1
102
RTVSPost2010Prop55
280
     0
102
RTVSPost2010PropOp55
 70
     1
102
RTVSPost2010Prop56
140
1.0
102
RTVSPost2010PropOp56
 70
     1
102
RTVSPost2010Prop57
140
1.0
102
RTVSPost2010PropOp57
 70
     1
102
RTVSPropertyOp0
 70
     1
102
RTVSPropertyOp1
 70
     1
102
RTVSPropertyOp2
 70
     1
102
RTVSPropertyOp3
 70
     1
102
RTVSPropertyOp4
 70
     1
102
RTVSPropertyOp5
 70
     1
102
RTVSPropertyOp6
 70
     1
102
RTVSPropertyOp7
 70
     1
102
RTVSPropertyOp8
 70
     1
102
RTVSPropertyOp9
 70
     1
102
RTVSPropertyOp10
 70
     1
102
RTVSPropertyOp11
 70
     1
102
RTVSPropertyOp12
 70
     1
102
RTVSPropertyOp13
 70
     1
102
RTVSPropertyOp14
 70
     1
102
RTVSPropertyOp15
 70
     1
102
RTVSPropertyOp16
 70
     1
102
RTVSPropertyOp17
 70
     1
102
RTVSPropertyOp18
 70
     1
102
RTVSPropertyOp19
 70
     1
102
RTVSPropertyOp20
 70
     1
102
RTVSPropertyOp21
 70
     1
102
RTVSPropertyOp22
 70
     1
102
RTVSPropertyOp23
 70
     1
102
RTVSPropertyOp24
 70
     1
102
RTVSPropertyOp25
 70
     1
102
RTVSPropertyOp26
 70
     1
102
RTVSPropertyOp27
 70
     1
102
RTVSPropertyOp28
 70
     1
102
RTVSPropertyOp29
 70
     1
102
RTVSPropertyOp30
 70
     1
102
RTVSPropertyOp31
 70
     1
102
RTVSPropertyOp32
 70
     1
102
RTVSPropertyOp33
 70
     1
102
RTVSPropertyOp34
 70
     1
102
RTVSPropertyOp35
 70
     1
102
RTVSPropertyOp36
 70
     1
102
RTVSPropertyOp37
 70
     1
102
RTVSPropertyOp38
 70
     1
102
RTVSPropertyOp39
 70
     1
102
RTVSPropertyOp40
 70
     1
102
RTVSPropertyOp41
 70
     1
102
RTVSPropertyOp42
 70
     1
102
RTVSPropertyOp43
 70
     1
102
RTVSPropertyOp44
 70
     1
102
RTVSPropertyOp45
 70
     1
102
RTVSPropertyOp46
 70
     1
102
RTVSPropertyOp47
 70
     1
102
RTVSPropertyOp48
 70
     1
102
RTVSPropertyOp49
 70
     1
102
RTVSPropertyOp50
 70
     1
102
RTVSPropertyOp51
 70
     0
102
RTVSPropertyOp52
 70
     0
102
RTVSPropertyOp53
 70
     1
102
RTVSPropertyOp54
 70
     1
102
RTVSPropertyOp55
 70
     1
102
RTVSPropertyOp56
 70
     1
102
RTVSPropertyOp57
 70
     1
102
RTVSPropertyOp58
 70
     1
102
RTVSPropertyOp59
 70
     1
102
RTVSPropertyOp60
 70
     1
102
RTVSPropertyOp61
 70
     1
102
RTVSPropertyOp62
 70
     1
  0
XRECORD
  5
A198
102
{ACAD_REACTORS
330
A197
102
}
330
A197
100
AcDbXrecord
280
     1
102
RTVSPost2010Prop28
280
     0
102
RTVSPost2010PropOp28
 70
     1
102
RTVSPost2010Prop29
280
     1
102
RTVSPost2010PropOp29
 70
     1
102
RTVSPost2010Prop30
280
     1
102
RTVSPost2010PropOp30
 70
     1
102
RTVSPost2010Prop31
280
     0
102
RTVSPost2010PropOp31
 70
     1
102
RTVSPost2010Prop32
280
     0
102
RTVSPost2010PropOp32
 70
     1
102
RTVSPost2010Prop33
280
     0
102
RTVSPost2010PropOp33
 70
     1
102
RTVSPost2010Prop34
280
     0
102
RTVSPost2010PropOp34
 70
     1
102
RTVSPost2010Prop35
280
     0
102
RTVSPost2010PropOp35
 70
     1
102
RTVSPost2010Prop36
280
     0
102
RTVSPost2010PropOp36
 70
     1
102
RTVSPost2010Prop37
 90
       50
102
RTVSPost2010PropOp37
 70
     1
102
RTVSPost2010Prop38
140
0.0
102
RTVSPost2010PropOp38
 70
     1
102
RTVSPost2010Prop39
140
1.0
102
RTVSPost2010PropOp39
 70
     1
102
RTVSPost2010Prop40
 90
        0
102
RTVSPost2010PropOp40
 70
     1
102
RTVSPost2010Prop41ColorIndex
 90
       18
102
RTVSPost2010Prop41ColorRGB
 90
        0
102
RTVSPost2010PropOp41
 70
     1
102
RTVSPost2010Prop42
 90
       50
102
RTVSPost2010PropOp42
 70
     1
102
RTVSPost2010Prop43
 90
        3
102
RTVSPost2010PropOp43
 70
     1
102
RTVSPost2010Prop44ColorIndex
 90
        5
102
RTVSPost2010Prop44ColorRGB
 90
      255
102
RTVSPost2010PropOp44
 70
     1
102
RTVSPost2010Prop45
280
     0
102
RTVSPost2010PropOp45
 70
     1
102
RTVSPost2010Prop46
 90
       50
102
RTVSPost2010PropOp46
 70
     1
102
RTVSPost2010Prop47
 90
       50
102
RTVSPost2010PropOp47
 70
     1
102
RTVSPost2010Prop48
 90
       50
102
RTVSPost2010PropOp48
 70
     1
102
RTVSPost2010Prop49
280
     0
102
RTVSPost2010PropOp49
 70
     1
102
RTVSPost2010Prop50
 90
       50
102
RTVSPost2010PropOp50
 70
     1
102
RTVSPost2010Prop51ColorIndex
 90
      256
102
RTVSPost2010Prop51ColorRGB
 90
-16777216
102
RTVSPost2010PropOp51
 70
     0
102
RTVSPost2010Prop52
140
1.0
102
RTVSPost2010PropOp52
 70
     0
102
RTVSPost2010Prop53
 90
        2
102
RTVSPost2010PropOp53
 70
     1
102
RTVSPost2010Prop54
  1
strokes_ogs.tif
102
RTVSPost2010PropOp54
 70
     1
102
RTVSPost2010Prop55
280
     0
102
RTVSPost2010PropOp55
 70
     1
102
RTVSPost2010Prop56
140
1.0
102
RTVSPost2010PropOp56
 70
     1
102
RTVSPost2010Prop57
140
1.0
102
RTVSPost2010PropOp57
 70
     1
102
RTVSPropertyOp0
 70
     1
102
RTVSPropertyOp1
 70
     1
102
RTVSPropertyOp2
 70
     1
102
RTVSPropertyOp3
 70
     1
102
RTVSPropertyOp4
 70
     1
102
RTVSPropertyOp5
 70
     1
102
RTVSPropertyOp6
 70
     1
102
RTVSPropertyOp7
 70
     1
102
RTVSPropertyOp8
 70
     1
102
RTVSPropertyOp9
 70
     1
102
RTVSPropertyOp10
 70
     1
102
RTVSPropertyOp11
 70
     1
102
RTVSPropertyOp12
 70
     1
102
RTVSPropertyOp13
 70
     1
102
RTVSPropertyOp14
 70
     1
102
RTVSPropertyOp15
 70
     1
102
RTVSPropertyOp16
 70
     1
102
RTVSPropertyOp17
 70
     1
102
RTVSPropertyOp18
 70
     1
102
RTVSPropertyOp19
 70
     1
102
RTVSPropertyOp20
 70
     1
102
RTVSPropertyOp21
 70
     1
102
RTVSPropertyOp22
 70
     1
102
RTVSPropertyOp23
 70
     1
102
RTVSPropertyOp24
 70
     1
102
RTVSPropertyOp25
 70
     1
102
RTVSPropertyOp26
 70
     1
102
RTVSPropertyOp27
 70
     1
102
RTVSPropertyOp28
 70
     1
102
RTVSPropertyOp29
 70
     1
102
RTVSPropertyOp30
 70
     1
102
RTVSPropertyOp31
 70
     1
102
RTVSPropertyOp32
 70
     1
102
RTVSPropertyOp33
 70
     1
102
RTVSPropertyOp34
 70
     1
102
RTVSPropertyOp35
 70
     1
102
RTVSPropertyOp36
 70
     1
102
RTVSPropertyOp37
 70
     1
102
RTVSPropertyOp38
 70
     1
102
RTVSPropertyOp39
 70
     1
102
RTVSPropertyOp40
 70
     1
102
RTVSPropertyOp41
 70
     1
102
RTVSPropertyOp42
 70
     1
102
RTVSPropertyOp43
 70
     1
102
RTVSPropertyOp44
 70
     1
102
RTVSPropertyOp45
 70
     1
102
RTVSPropertyOp46
 70
     1
102
RTVSPropertyOp47
 70
     1
102
RTVSPropertyOp48
 70
     1
102
RTVSPropertyOp49
 70
     1
102
RTVSPropertyOp50
 70
     1
102
RTVSPropertyOp51
 70
     0
102
RTVSPropertyOp52
 70
     0
102
RTVSPropertyOp53
 70
     1
102
RTVSPropertyOp54
 70
     1
102
RTVSPropertyOp55
 70
     1
102
RTVSPropertyOp56
 70
     1
102
RTVSPropertyOp57
 70
     1
102
RTVSPropertyOp58
 70
     1
102
RTVSPropertyOp59
 70
     1
102
RTVSPropertyOp60
 70
     1
102
RTVSPropertyOp61
 70
     1
102
RTVSPropertyOp62
 70
     1
  0
XRECORD
  5
A1B2
102
{ACAD_REACTORS
330
A1B1
102
}
330
A1B1
100
AcDbXrecord
280
     1
102
RTVSPost2010Prop28
280
     0
102
RTVSPost2010PropOp28
 70
     1
102
RTVSPost2010Prop29
280
     1
102
RTVSPost2010PropOp29
 70
     1
102
RTVSPost2010Prop30
280
     1
102
RTVSPost2010PropOp30
 70
     1
102
RTVSPost2010Prop31
280
     0
102
RTVSPost2010PropOp31
 70
     1
102
RTVSPost2010Prop32
280
     0
102
RTVSPost2010PropOp32
 70
     1
102
RTVSPost2010Prop33
280
     0
102
RTVSPost2010PropOp33
 70
     1
102
RTVSPost2010Prop34
280
     0
102
RTVSPost2010PropOp34
 70
     1
102
RTVSPost2010Prop35
280
     0
102
RTVSPost2010PropOp35
 70
     1
102
RTVSPost2010Prop36
280
     0
102
RTVSPost2010PropOp36
 70
     1
102
RTVSPost2010Prop37
 90
       50
102
RTVSPost2010PropOp37
 70
     0
102
RTVSPost2010Prop38
140
0.0
102
RTVSPost2010PropOp38
 70
     0
102
RTVSPost2010Prop39
140
1.0
102
RTVSPost2010PropOp39
 70
     0
102
RTVSPost2010Prop40
 90
        0
102
RTVSPost2010PropOp40
 70
     0
102
RTVSPost2010Prop41ColorIndex
 90
       18
102
RTVSPost2010Prop41ColorRGB
 90
        0
102
RTVSPost2010PropOp41
 70
     0
102
RTVSPost2010Prop42
 90
       50
102
RTVSPost2010PropOp42
 70
     0
102
RTVSPost2010Prop43
 90
        3
102
RTVSPost2010PropOp43
 70
     0
102
RTVSPost2010Prop44ColorIndex
 90
        5
102
RTVSPost2010Prop44ColorRGB
 90
      255
102
RTVSPost2010PropOp44
 70
     0
102
RTVSPost2010Prop45
280
     0
102
RTVSPost2010PropOp45
 70
     1
102
RTVSPost2010Prop46
 90
       50
102
RTVSPost2010PropOp46
 70
     0
102
RTVSPost2010Prop47
 90
       50
102
RTVSPost2010PropOp47
 70
     0
102
RTVSPost2010Prop48
 90
       50
102
RTVSPost2010PropOp48
 70
     0
102
RTVSPost2010Prop49
280
     0
102
RTVSPost2010PropOp49
 70
     1
102
RTVSPost2010Prop50
 90
       50
102
RTVSPost2010PropOp50
 70
     0
102
RTVSPost2010Prop51ColorIndex
 90
      256
102
RTVSPost2010Prop51ColorRGB
 90
-16777216
102
RTVSPost2010PropOp51
 70
     0
102
RTVSPost2010Prop52
140
1.0
102
RTVSPost2010PropOp52
 70
     0
102
RTVSPost2010Prop53
 90
        2
102
RTVSPost2010PropOp53
 70
     0
102
RTVSPost2010Prop54
  1
strokes_ogs.tif
102
RTVSPost2010PropOp54
 70
     0
102
RTVSPost2010Prop55
280
     0
102
RTVSPost2010PropOp55
 70
     1
102
RTVSPost2010Prop56
140
1.0
102
RTVSPost2010PropOp56
 70
     0
102
RTVSPost2010Prop57
140
1.0
102
RTVSPost2010PropOp57
 70
     0
102
RTVSPropertyOp0
 70
     0
102
RTVSPropertyOp1
 70
     0
102
RTVSPropertyOp2
 70
     0
102
RTVSPropertyOp3
 70
     0
102
RTVSPropertyOp4
 70
     0
102
RTVSPropertyOp5
 70
     0
102
RTVSPropertyOp6
 70
     0
102
RTVSPropertyOp7
 70
     0
102
RTVSPropertyOp8
 70
     0
102
RTVSPropertyOp9
 70
     0
102
RTVSPropertyOp10
 70
     0
102
RTVSPropertyOp11
 70
     0
102
RTVSPropertyOp12
 70
     0
102
RTVSPropertyOp13
 70
     0
102
RTVSPropertyOp14
 70
     2
102
RTVSPropertyOp15
 70
     0
102
RTVSPropertyOp16
 70
     0
102
RTVSPropertyOp17
 70
     0
102
RTVSPropertyOp18
 70
     0
102
RTVSPropertyOp19
 70
     0
102
RTVSPropertyOp20
 70
     0
102
RTVSPropertyOp21
 70
     0
102
RTVSPropertyOp22
 70
     0
102
RTVSPropertyOp23
 70
     0
102
RTVSPropertyOp24
 70
     0
102
RTVSPropertyOp25
 70
     0
102
RTVSPropertyOp26
 70
     0
102
RTVSPropertyOp27
 70
     0
102
RTVSPropertyOp28
 70
     1
102
RTVSPropertyOp29
 70
     1
102
RTVSPropertyOp30
 70
     1
102
RTVSPropertyOp31
 70
     1
102
RTVSPropertyOp32
 70
     1
102
RTVSPropertyOp33
 70
     1
102
RTVSPropertyOp34
 70
     1
102
RTVSPropertyOp35
 70
     1
102
RTVSPropertyOp36
 70
     1
102
RTVSPropertyOp37
 70
     0
102
RTVSPropertyOp38
 70
     0
102
RTVSPropertyOp39
 70
     0
102
RTVSPropertyOp40
 70
     0
102
RTVSPropertyOp41
 70
     0
102
RTVSPropertyOp42
 70
     0
102
RTVSPropertyOp43
 70
     0
102
RTVSPropertyOp44
 70
     0
102
RTVSPropertyOp45
 70
     1
102
RTVSPropertyOp46
 70
     0
102
RTVSPropertyOp47
 70
     0
102
RTVSPropertyOp48
 70
     0
102
RTVSPropertyOp49
 70
     1
102
RTVSPropertyOp50
 70
     0
102
RTVSPropertyOp51
 70
     0
102
RTVSPropertyOp52
 70
     0
102
RTVSPropertyOp53
 70
     0
102
RTVSPropertyOp54
 70
     0
102
RTVSPropertyOp55
 70
     1
102
RTVSPropertyOp56
 70
     0
102
RTVSPropertyOp57
 70
     0
102
RTVSPropertyOp58
 70
     0
102
RTVSPropertyOp59
 70
     0
102
RTVSPropertyOp60
 70
     0
102
RTVSPropertyOp61
 70
     0
102
RTVSPropertyOp62
 70
     0
  0
XRECORD
  5
A1A0
102
{ACAD_REACTORS
330
A19F
102
}
330
A19F
100
AcDbXrecord
280
     1
102
RTVSPost2010Prop28
280
     0
102
RTVSPost2010PropOp28
 70
     1
102
RTVSPost2010Prop29
280
     1
102
RTVSPost2010PropOp29
 70
     1
102
RTVSPost2010Prop30
280
     1
102
RTVSPost2010PropOp30
 70
     1
102
RTVSPost2010Prop31
280
     0
102
RTVSPost2010PropOp31
 70
     1
102
RTVSPost2010Prop32
280
     0
102
RTVSPost2010PropOp32
 70
     1
102
RTVSPost2010Prop33
280
     0
102
RTVSPost2010PropOp33
 70
     1
102
RTVSPost2010Prop34
280
     0
102
RTVSPost2010PropOp34
 70
     1
102
RTVSPost2010Prop35
280
     0
102
RTVSPost2010PropOp35
 70
     1
102
RTVSPost2010Prop36
280
     0
102
RTVSPost2010PropOp36
 70
     1
102
RTVSPost2010Prop37
 90
       50
102
RTVSPost2010PropOp37
 70
     1
102
RTVSPost2010Prop38
140
0.0
102
RTVSPost2010PropOp38
 70
     1
102
RTVSPost2010Prop39
140
1.0
102
RTVSPost2010PropOp39
 70
     1
102
RTVSPost2010Prop40
 90
        0
102
RTVSPost2010PropOp40
 70
     1
102
RTVSPost2010Prop41ColorIndex
 90
       18
102
RTVSPost2010Prop41ColorRGB
 90
        0
102
RTVSPost2010PropOp41
 70
     1
102
RTVSPost2010Prop42
 90
       50
102
RTVSPost2010PropOp42
 70
     1
102
RTVSPost2010Prop43
 90
        3
102
RTVSPost2010PropOp43
 70
     1
102
RTVSPost2010Prop44ColorIndex
 90
        5
102
RTVSPost2010Prop44ColorRGB
 90
      255
102
RTVSPost2010PropOp44
 70
     1
102
RTVSPost2010Prop45
280
     0
102
RTVSPost2010PropOp45
 70
     1
102
RTVSPost2010Prop46
 90
       50
102
RTVSPost2010PropOp46
 70
     1
102
RTVSPost2010Prop47
 90
       50
102
RTVSPost2010PropOp47
 70
     1
102
RTVSPost2010Prop48
 90
       50
102
RTVSPost2010PropOp48
 70
     1
102
RTVSPost2010Prop49
280
     0
102
RTVSPost2010PropOp49
 70
     1
102
RTVSPost2010Prop50
 90
       50
102
RTVSPost2010PropOp50
 70
     1
102
RTVSPost2010Prop51ColorIndex
 90
      256
102
RTVSPost2010Prop51ColorRGB
 90
-16777216
102
RTVSPost2010PropOp51
 70
     0
102
RTVSPost2010Prop52
140
1.0
102
RTVSPost2010PropOp52
 70
     0
102
RTVSPost2010Prop53
 90
        2
102
RTVSPost2010PropOp53
 70
     1
102
RTVSPost2010Prop54
  1
strokes_ogs.tif
102
RTVSPost2010PropOp54
 70
     1
102
RTVSPost2010Prop55
280
     0
102
RTVSPost2010PropOp55
 70
     1
102
RTVSPost2010Prop56
140
1.0
102
RTVSPost2010PropOp56
 70
     1
102
RTVSPost2010Prop57
140
1.0
102
RTVSPost2010PropOp57
 70
     1
102
RTVSPropertyOp0
 70
     1
102
RTVSPropertyOp1
 70
     1
102
RTVSPropertyOp2
 70
     1
102
RTVSPropertyOp3
 70
     1
102
RTVSPropertyOp4
 70
     1
102
RTVSPropertyOp5
 70
     1
102
RTVSPropertyOp6
 70
     1
102
RTVSPropertyOp7
 70
     1
102
RTVSPropertyOp8
 70
     1
102
RTVSPropertyOp9
 70
     1
102
RTVSPropertyOp10
 70
     1
102
RTVSPropertyOp11
 70
     1
102
RTVSPropertyOp12
 70
     1
102
RTVSPropertyOp13
 70
     1
102
RTVSPropertyOp14
 70
     1
102
RTVSPropertyOp15
 70
     1
102
RTVSPropertyOp16
 70
     1
102
RTVSPropertyOp17
 70
     1
102
RTVSPropertyOp18
 70
     1
102
RTVSPropertyOp19
 70
     1
102
RTVSPropertyOp20
 70
     1
102
RTVSPropertyOp21
 70
     1
102
RTVSPropertyOp22
 70
     1
102
RTVSPropertyOp23
 70
     1
102
RTVSPropertyOp24
 70
     1
102
RTVSPropertyOp25
 70
     1
102
RTVSPropertyOp26
 70
     1
102
RTVSPropertyOp27
 70
     1
102
RTVSPropertyOp28
 70
     1
102
RTVSPropertyOp29
 70
     1
102
RTVSPropertyOp30
 70
     1
102
RTVSPropertyOp31
 70
     1
102
RTVSPropertyOp32
 70
     1
102
RTVSPropertyOp33
 70
     1
102
RTVSPropertyOp34
 70
     1
102
RTVSPropertyOp35
 70
     1
102
RTVSPropertyOp36
 70
     1
102
RTVSPropertyOp37
 70
     1
102
RTVSPropertyOp38
 70
     1
102
RTVSPropertyOp39
 70
     1
102
RTVSPropertyOp40
 70
     1
102
RTVSPropertyOp41
 70
     1
102
RTVSPropertyOp42
 70
     1
102
RTVSPropertyOp43
 70
     1
102
RTVSPropertyOp44
 70
     1
102
RTVSPropertyOp45
 70
     1
102
RTVSPropertyOp46
 70
     1
102
RTVSPropertyOp47
 70
     1
102
RTVSPropertyOp48
 70
     1
102
RTVSPropertyOp49
 70
     1
102
RTVSPropertyOp50
 70
     1
102
RTVSPropertyOp51
 70
     0
102
RTVSPropertyOp52
 70
     0
102
RTVSPropertyOp53
 70
     1
102
RTVSPropertyOp54
 70
     1
102
RTVSPropertyOp55
 70
     1
102
RTVSPropertyOp56
 70
     1
102
RTVSPropertyOp57
 70
     1
102
RTVSPropertyOp58
 70
     1
102
RTVSPropertyOp59
 70
     1
102
RTVSPropertyOp60
 70
     1
102
RTVSPropertyOp61
 70
     1
102
RTVSPropertyOp62
 70
     1
  0
XRECORD
  5
A184
102
{ACAD_REACTORS
330
A183
102
}
330
A183
100
AcDbXrecord
280
     1
102
RTVSPost2010Prop28
280
     0
102
RTVSPost2010PropOp28
 70
     1
102
RTVSPost2010Prop29
280
     1
102
RTVSPost2010PropOp29
 70
     1
102
RTVSPost2010Prop30
280
     1
102
RTVSPost2010PropOp30
 70
     1
102
RTVSPost2010Prop31
280
     0
102
RTVSPost2010PropOp31
 70
     1
102
RTVSPost2010Prop32
280
     0
102
RTVSPost2010PropOp32
 70
     1
102
RTVSPost2010Prop33
280
     0
102
RTVSPost2010PropOp33
 70
     1
102
RTVSPost2010Prop34
280
     0
102
RTVSPost2010PropOp34
 70
     1
102
RTVSPost2010Prop35
280
     0
102
RTVSPost2010PropOp35
 70
     1
102
RTVSPost2010Prop36
280
     0
102
RTVSPost2010PropOp36
 70
     1
102
RTVSPost2010Prop37
 90
       50
102
RTVSPost2010PropOp37
 70
     1
102
RTVSPost2010Prop38
140
0.0
102
RTVSPost2010PropOp38
 70
     1
102
RTVSPost2010Prop39
140
1.0
102
RTVSPost2010PropOp39
 70
     1
102
RTVSPost2010Prop40
 90
        0
102
RTVSPost2010PropOp40
 70
     1
102
RTVSPost2010Prop41ColorIndex
 90
       18
102
RTVSPost2010Prop41ColorRGB
 90
        0
102
RTVSPost2010PropOp41
 70
     1
102
RTVSPost2010Prop42
 90
       50
102
RTVSPost2010PropOp42
 70
     1
102
RTVSPost2010Prop43
 90
        3
102
RTVSPost2010PropOp43
 70
     1
102
RTVSPost2010Prop44ColorIndex
 90
        5
102
RTVSPost2010Prop44ColorRGB
 90
      255
102
RTVSPost2010PropOp44
 70
     1
102
RTVSPost2010Prop45
280
     0
102
RTVSPost2010PropOp45
 70
     1
102
RTVSPost2010Prop46
 90
       50
102
RTVSPost2010PropOp46
 70
     1
102
RTVSPost2010Prop47
 90
       50
102
RTVSPost2010PropOp47
 70
     1
102
RTVSPost2010Prop48
 90
       50
102
RTVSPost2010PropOp48
 70
     1
102
RTVSPost2010Prop49
280
     0
102
RTVSPost2010PropOp49
 70
     1
102
RTVSPost2010Prop50
 90
       50
102
RTVSPost2010PropOp50
 70
     1
102
RTVSPost2010Prop51ColorIndex
 90
      256
102
RTVSPost2010Prop51ColorRGB
 90
-16777216
102
RTVSPost2010PropOp51
 70
     0
102
RTVSPost2010Prop52
140
1.0
102
RTVSPost2010PropOp52
 70
     0
102
RTVSPost2010Prop53
 90
        2
102
RTVSPost2010PropOp53
 70
     1
102
RTVSPost2010Prop54
  1
strokes_ogs.tif
102
RTVSPost2010PropOp54
 70
     1
102
RTVSPost2010Prop55
280
     0
102
RTVSPost2010PropOp55
 70
     1
102
RTVSPost2010Prop56
140
1.0
102
RTVSPost2010PropOp56
 70
     1
102
RTVSPost2010Prop57
140
1.0
102
RTVSPost2010PropOp57
 70
     1
102
RTVSPropertyOp0
 70
     1
102
RTVSPropertyOp1
 70
     1
102
RTVSPropertyOp2
 70
     1
102
RTVSPropertyOp3
 70
     1
102
RTVSPropertyOp4
 70
     1
102
RTVSPropertyOp5
 70
     1
102
RTVSPropertyOp6
 70
     1
102
RTVSPropertyOp7
 70
     1
102
RTVSPropertyOp8
 70
     1
102
RTVSPropertyOp9
 70
     1
102
RTVSPropertyOp10
 70
     1
102
RTVSPropertyOp11
 70
     1
102
RTVSPropertyOp12
 70
     1
102
RTVSPropertyOp13
 70
     1
102
RTVSPropertyOp14
 70
     1
102
RTVSPropertyOp15
 70
     1
102
RTVSPropertyOp16
 70
     1
102
RTVSPropertyOp17
 70
     1
102
RTVSPropertyOp18
 70
     1
102
RTVSPropertyOp19
 70
     1
102
RTVSPropertyOp20
 70
     1
102
RTVSPropertyOp21
 70
     1
102
RTVSPropertyOp22
 70
     1
102
RTVSPropertyOp23
 70
     1
102
RTVSPropertyOp24
 70
     1
102
RTVSPropertyOp25
 70
     1
102
RTVSPropertyOp26
 70
     1
102
RTVSPropertyOp27
 70
     1
102
RTVSPropertyOp28
 70
     1
102
RTVSPropertyOp29
 70
     1
102
RTVSPropertyOp30
 70
     1
102
RTVSPropertyOp31
 70
     1
102
RTVSPropertyOp32
 70
     1
102
RTVSPropertyOp33
 70
     1
102
RTVSPropertyOp34
 70
     1
102
RTVSPropertyOp35
 70
     1
102
RTVSPropertyOp36
 70
     1
102
RTVSPropertyOp37
 70
     1
102
RTVSPropertyOp38
 70
     1
102
RTVSPropertyOp39
 70
     1
102
RTVSPropertyOp40
 70
     1
102
RTVSPropertyOp41
 70
     1
102
RTVSPropertyOp42
 70
     1
102
RTVSPropertyOp43
 70
     1
102
RTVSPropertyOp44
 70
     1
102
RTVSPropertyOp45
 70
     1
102
RTVSPropertyOp46
 70
     1
102
RTVSPropertyOp47
 70
     1
102
RTVSPropertyOp48
 70
     1
102
RTVSPropertyOp49
 70
     1
102
RTVSPropertyOp50
 70
     1
102
RTVSPropertyOp51
 70
     0
102
RTVSPropertyOp52
 70
     0
102
RTVSPropertyOp53
 70
     1
102
RTVSPropertyOp54
 70
     1
102
RTVSPropertyOp55
 70
     1
102
RTVSPropertyOp56
 70
     1
102
RTVSPropertyOp57
 70
     1
102
RTVSPropertyOp58
 70
     1
102
RTVSPropertyOp59
 70
     1
102
RTVSPropertyOp60
 70
     1
102
RTVSPropertyOp61
 70
     1
102
RTVSPropertyOp62
 70
     1
  0
XRECORD
  5
A186
102
{ACAD_REACTORS
330
A185
102
}
330
A185
100
AcDbXrecord
280
     1
102
RTVSPost2010Prop28
280
     0
102
RTVSPost2010PropOp28
 70
     1
102
RTVSPost2010Prop29
280
     1
102
RTVSPost2010PropOp29
 70
     1
102
RTVSPost2010Prop30
280
     1
102
RTVSPost2010PropOp30
 70
     1
102
RTVSPost2010Prop31
280
     0
102
RTVSPost2010PropOp31
 70
     1
102
RTVSPost2010Prop32
280
     0
102
RTVSPost2010PropOp32
 70
     1
102
RTVSPost2010Prop33
280
     0
102
RTVSPost2010PropOp33
 70
     1
102
RTVSPost2010Prop34
280
     0
102
RTVSPost2010PropOp34
 70
     1
102
RTVSPost2010Prop35
280
     0
102
RTVSPost2010PropOp35
 70
     1
102
RTVSPost2010Prop36
280
     0
102
RTVSPost2010PropOp36
 70
     1
102
RTVSPost2010Prop37
 90
       50
102
RTVSPost2010PropOp37
 70
     1
102
RTVSPost2010Prop38
140
0.0
102
RTVSPost2010PropOp38
 70
     1
102
RTVSPost2010Prop39
140
1.0
102
RTVSPost2010PropOp39
 70
     1
102
RTVSPost2010Prop40
 90
        0
102
RTVSPost2010PropOp40
 70
     1
102
RTVSPost2010Prop41ColorIndex
 90
       18
102
RTVSPost2010Prop41ColorRGB
 90
        0
102
RTVSPost2010PropOp41
 70
     1
102
RTVSPost2010Prop42
 90
       50
102
RTVSPost2010PropOp42
 70
     1
102
RTVSPost2010Prop43
 90
        3
102
RTVSPost2010PropOp43
 70
     1
102
RTVSPost2010Prop44ColorIndex
 90
        5
102
RTVSPost2010Prop44ColorRGB
 90
      255
102
RTVSPost2010PropOp44
 70
     1
102
RTVSPost2010Prop45
280
     0
102
RTVSPost2010PropOp45
 70
     1
102
RTVSPost2010Prop46
 90
       50
102
RTVSPost2010PropOp46
 70
     1
102
RTVSPost2010Prop47
 90
       50
102
RTVSPost2010PropOp47
 70
     1
102
RTVSPost2010Prop48
 90
       50
102
RTVSPost2010PropOp48
 70
     1
102
RTVSPost2010Prop49
280
     0
102
RTVSPost2010PropOp49
 70
     1
102
RTVSPost2010Prop50
 90
       50
102
RTVSPost2010PropOp50
 70
     1
102
RTVSPost2010Prop51ColorIndex
 90
      256
102
RTVSPost2010Prop51ColorRGB
 90
-16777216
102
RTVSPost2010PropOp51
 70
     0
102
RTVSPost2010Prop52
140
1.0
102
RTVSPost2010PropOp52
 70
     0
102
RTVSPost2010Prop53
 90
        2
102
RTVSPost2010PropOp53
 70
     1
102
RTVSPost2010Prop54
  1
strokes_ogs.tif
102
RTVSPost2010PropOp54
 70
     1
102
RTVSPost2010Prop55
280
     0
102
RTVSPost2010PropOp55
 70
     1
102
RTVSPost2010Prop56
140
1.0
102
RTVSPost2010PropOp56
 70
     1
102
RTVSPost2010Prop57
140
1.0
102
RTVSPost2010PropOp57
 70
     1
102
RTVSPropertyOp0
 70
     1
102
RTVSPropertyOp1
 70
     1
102
RTVSPropertyOp2
 70
     1
102
RTVSPropertyOp3
 70
     1
102
RTVSPropertyOp4
 70
     1
102
RTVSPropertyOp5
 70
     1
102
RTVSPropertyOp6
 70
     1
102
RTVSPropertyOp7
 70
     1
102
RTVSPropertyOp8
 70
     1
102
RTVSPropertyOp9
 70
     1
102
RTVSPropertyOp10
 70
     1
102
RTVSPropertyOp11
 70
     1
102
RTVSPropertyOp12
 70
     1
102
RTVSPropertyOp13
 70
     1
102
RTVSPropertyOp14
 70
     1
102
RTVSPropertyOp15
 70
     1
102
RTVSPropertyOp16
 70
     1
102
RTVSPropertyOp17
 70
     1
102
RTVSPropertyOp18
 70
     1
102
RTVSPropertyOp19
 70
     1
102
RTVSPropertyOp20
 70
     1
102
RTVSPropertyOp21
 70
     1
102
RTVSPropertyOp22
 70
     1
102
RTVSPropertyOp23
 70
     1
102
RTVSPropertyOp24
 70
     1
102
RTVSPropertyOp25
 70
     1
102
RTVSPropertyOp26
 70
     1
102
RTVSPropertyOp27
 70
     1
102
RTVSPropertyOp28
 70
     1
102
RTVSPropertyOp29
 70
     1
102
RTVSPropertyOp30
 70
     1
102
RTVSPropertyOp31
 70
     1
102
RTVSPropertyOp32
 70
     1
102
RTVSPropertyOp33
 70
     1
102
RTVSPropertyOp34
 70
     1
102
RTVSPropertyOp35
 70
     1
102
RTVSPropertyOp36
 70
     1
102
RTVSPropertyOp37
 70
     1
102
RTVSPropertyOp38
 70
     1
102
RTVSPropertyOp39
 70
     1
102
RTVSPropertyOp40
 70
     1
102
RTVSPropertyOp41
 70
     1
102
RTVSPropertyOp42
 70
     1
102
RTVSPropertyOp43
 70
     1
102
RTVSPropertyOp44
 70
     1
102
RTVSPropertyOp45
 70
     1
102
RTVSPropertyOp46
 70
     1
102
RTVSPropertyOp47
 70
     1
102
RTVSPropertyOp48
 70
     1
102
RTVSPropertyOp49
 70
     1
102
RTVSPropertyOp50
 70
     1
102
RTVSPropertyOp51
 70
     0
102
RTVSPropertyOp52
 70
     0
102
RTVSPropertyOp53
 70
     1
102
RTVSPropertyOp54
 70
     1
102
RTVSPropertyOp55
 70
     1
102
RTVSPropertyOp56
 70
     1
102
RTVSPropertyOp57
 70
     1
102
RTVSPropertyOp58
 70
     1
102
RTVSPropertyOp59
 70
     1
102
RTVSPropertyOp60
 70
     1
102
RTVSPropertyOp61
 70
     1
102
RTVSPropertyOp62
 70
     1
  0
XRECORD
  5
A188
102
{ACAD_REACTORS
330
A187
102
}
330
A187
100
AcDbXrecord
280
     1
102
RTVSPost2010Prop28
280
     0
102
RTVSPost2010PropOp28
 70
     1
102
RTVSPost2010Prop29
280
     1
102
RTVSPost2010PropOp29
 70
     1
102
RTVSPost2010Prop30
280
     1
102
RTVSPost2010PropOp30
 70
     1
102
RTVSPost2010Prop31
280
     0
102
RTVSPost2010PropOp31
 70
     1
102
RTVSPost2010Prop32
280
     0
102
RTVSPost2010PropOp32
 70
     1
102
RTVSPost2010Prop33
280
     0
102
RTVSPost2010PropOp33
 70
     1
102
RTVSPost2010Prop34
280
     0
102
RTVSPost2010PropOp34
 70
     1
102
RTVSPost2010Prop35
280
     0
102
RTVSPost2010PropOp35
 70
     1
102
RTVSPost2010Prop36
280
     0
102
RTVSPost2010PropOp36
 70
     1
102
RTVSPost2010Prop37
 90
       50
102
RTVSPost2010PropOp37
 70
     1
102
RTVSPost2010Prop38
140
0.0
102
RTVSPost2010PropOp38
 70
     1
102
RTVSPost2010Prop39
140
1.0
102
RTVSPost2010PropOp39
 70
     1
102
RTVSPost2010Prop40
 90
        0
102
RTVSPost2010PropOp40
 70
     1
102
RTVSPost2010Prop41ColorIndex
 90
       18
102
RTVSPost2010Prop41ColorRGB
 90
        0
102
RTVSPost2010PropOp41
 70
     1
102
RTVSPost2010Prop42
 90
       50
102
RTVSPost2010PropOp42
 70
     1
102
RTVSPost2010Prop43
 90
        3
102
RTVSPost2010PropOp43
 70
     1
102
RTVSPost2010Prop44ColorIndex
 90
        5
102
RTVSPost2010Prop44ColorRGB
 90
      255
102
RTVSPost2010PropOp44
 70
     1
102
RTVSPost2010Prop45
280
     0
102
RTVSPost2010PropOp45
 70
     1
102
RTVSPost2010Prop46
 90
       50
102
RTVSPost2010PropOp46
 70
     1
102
RTVSPost2010Prop47
 90
       50
102
RTVSPost2010PropOp47
 70
     1
102
RTVSPost2010Prop48
 90
       50
102
RTVSPost2010PropOp48
 70
     1
102
RTVSPost2010Prop49
280
     0
102
RTVSPost2010PropOp49
 70
     1
102
RTVSPost2010Prop50
 90
       50
102
RTVSPost2010PropOp50
 70
     1
102
RTVSPost2010Prop51ColorIndex
 90
      256
102
RTVSPost2010Prop51ColorRGB
 90
-16777216
102
RTVSPost2010PropOp51
 70
     0
102
RTVSPost2010Prop52
140
1.0
102
RTVSPost2010PropOp52
 70
     0
102
RTVSPost2010Prop53
 90
        2
102
RTVSPost2010PropOp53
 70
     1
102
RTVSPost2010Prop54
  1
strokes_ogs.tif
102
RTVSPost2010PropOp54
 70
     1
102
RTVSPost2010Prop55
280
     0
102
RTVSPost2010PropOp55
 70
     1
102
RTVSPost2010Prop56
140
1.0
102
RTVSPost2010PropOp56
 70
     1
102
RTVSPost2010Prop57
140
1.0
102
RTVSPost2010PropOp57
 70
     1
102
RTVSPropertyOp0
 70
     1
102
RTVSPropertyOp1
 70
     1
102
RTVSPropertyOp2
 70
     1
102
RTVSPropertyOp3
 70
     1
102
RTVSPropertyOp4
 70
     1
102
RTVSPropertyOp5
 70
     1
102
RTVSPropertyOp6
 70
     1
102
RTVSPropertyOp7
 70
     1
102
RTVSPropertyOp8
 70
     1
102
RTVSPropertyOp9
 70
     1
102
RTVSPropertyOp10
 70
     1
102
RTVSPropertyOp11
 70
     1
102
RTVSPropertyOp12
 70
     1
102
RTVSPropertyOp13
 70
     1
102
RTVSPropertyOp14
 70
     1
102
RTVSPropertyOp15
 70
     1
102
RTVSPropertyOp16
 70
     1
102
RTVSPropertyOp17
 70
     1
102
RTVSPropertyOp18
 70
     1
102
RTVSPropertyOp19
 70
     1
102
RTVSPropertyOp20
 70
     1
102
RTVSPropertyOp21
 70
     1
102
RTVSPropertyOp22
 70
     1
102
RTVSPropertyOp23
 70
     1
102
RTVSPropertyOp24
 70
     1
102
RTVSPropertyOp25
 70
     1
102
RTVSPropertyOp26
 70
     1
102
RTVSPropertyOp27
 70
     1
102
RTVSPropertyOp28
 70
     1
102
RTVSPropertyOp29
 70
     1
102
RTVSPropertyOp30
 70
     1
102
RTVSPropertyOp31
 70
     1
102
RTVSPropertyOp32
 70
     1
102
RTVSPropertyOp33
 70
     1
102
RTVSPropertyOp34
 70
     1
102
RTVSPropertyOp35
 70
     1
102
RTVSPropertyOp36
 70
     1
102
RTVSPropertyOp37
 70
     1
102
RTVSPropertyOp38
 70
     1
102
RTVSPropertyOp39
 70
     1
102
RTVSPropertyOp40
 70
     1
102
RTVSPropertyOp41
 70
     1
102
RTVSPropertyOp42
 70
     1
102
RTVSPropertyOp43
 70
     1
102
RTVSPropertyOp44
 70
     1
102
RTVSPropertyOp45
 70
     1
102
RTVSPropertyOp46
 70
     1
102
RTVSPropertyOp47
 70
     1
102
RTVSPropertyOp48
 70
     1
102
RTVSPropertyOp49
 70
     1
102
RTVSPropertyOp50
 70
     1
102
RTVSPropertyOp51
 70
     0
102
RTVSPropertyOp52
 70
     0
102
RTVSPropertyOp53
 70
     1
102
RTVSPropertyOp54
 70
     1
102
RTVSPropertyOp55
 70
     1
102
RTVSPropertyOp56
 70
     1
102
RTVSPropertyOp57
 70
     1
102
RTVSPropertyOp58
 70
     1
102
RTVSPropertyOp59
 70
     1
102
RTVSPropertyOp60
 70
     1
102
RTVSPropertyOp61
 70
     1
102
RTVSPropertyOp62
 70
     1
  0
XRECORD
  5
A18A
102
{ACAD_REACTORS
330
A189
102
}
330
A189
100
AcDbXrecord
280
     1
102
RTVSPost2010Prop28
280
     0
102
RTVSPost2010PropOp28
 70
     1
102
RTVSPost2010Prop29
280
     1
102
RTVSPost2010PropOp29
 70
     1
102
RTVSPost2010Prop30
280
     1
102
RTVSPost2010PropOp30
 70
     1
102
RTVSPost2010Prop31
280
     0
102
RTVSPost2010PropOp31
 70
     1
102
RTVSPost2010Prop32
280
     0
102
RTVSPost2010PropOp32
 70
     1
102
RTVSPost2010Prop33
280
     0
102
RTVSPost2010PropOp33
 70
     1
102
RTVSPost2010Prop34
280
     0
102
RTVSPost2010PropOp34
 70
     1
102
RTVSPost2010Prop35
280
     0
102
RTVSPost2010PropOp35
 70
     1
102
RTVSPost2010Prop36
280
     0
102
RTVSPost2010PropOp36
 70
     1
102
RTVSPost2010Prop37
 90
       50
102
RTVSPost2010PropOp37
 70
     1
102
RTVSPost2010Prop38
140
0.0
102
RTVSPost2010PropOp38
 70
     1
102
RTVSPost2010Prop39
140
1.0
102
RTVSPost2010PropOp39
 70
     1
102
RTVSPost2010Prop40
 90
        0
102
RTVSPost2010PropOp40
 70
     1
102
RTVSPost2010Prop41ColorIndex
 90
       18
102
RTVSPost2010Prop41ColorRGB
 90
        0
102
RTVSPost2010PropOp41
 70
     1
102
RTVSPost2010Prop42
 90
       50
102
RTVSPost2010PropOp42
 70
     1
102
RTVSPost2010Prop43
 90
        3
102
RTVSPost2010PropOp43
 70
     1
102
RTVSPost2010Prop44ColorIndex
 90
        5
102
RTVSPost2010Prop44ColorRGB
 90
      255
102
RTVSPost2010PropOp44
 70
     1
102
RTVSPost2010Prop45
280
     0
102
RTVSPost2010PropOp45
 70
     1
102
RTVSPost2010Prop46
 90
       50
102
RTVSPost2010PropOp46
 70
     1
102
RTVSPost2010Prop47
 90
       50
102
RTVSPost2010PropOp47
 70
     1
102
RTVSPost2010Prop48
 90
       50
102
RTVSPost2010PropOp48
 70
     1
102
RTVSPost2010Prop49
280
     0
102
RTVSPost2010PropOp49
 70
     1
102
RTVSPost2010Prop50
 90
       50
102
RTVSPost2010PropOp50
 70
     1
102
RTVSPost2010Prop51ColorIndex
 90
      256
102
RTVSPost2010Prop51ColorRGB
 90
-16777216
102
RTVSPost2010PropOp51
 70
     0
102
RTVSPost2010Prop52
140
1.0
102
RTVSPost2010PropOp52
 70
     0
102
RTVSPost2010Prop53
 90
        2
102
RTVSPost2010PropOp53
 70
     1
102
RTVSPost2010Prop54
  1
strokes_ogs.tif
102
RTVSPost2010PropOp54
 70
     1
102
RTVSPost2010Prop55
280
     0
102
RTVSPost2010PropOp55
 70
     1
102
RTVSPost2010Prop56
140
1.0
102
RTVSPost2010PropOp56
 70
     1
102
RTVSPost2010Prop57
140
1.0
102
RTVSPost2010PropOp57
 70
     1
102
RTVSPropertyOp0
 70
     1
102
RTVSPropertyOp1
 70
     1
102
RTVSPropertyOp2
 70
     1
102
RTVSPropertyOp3
 70
     1
102
RTVSPropertyOp4
 70
     1
102
RTVSPropertyOp5
 70
     1
102
RTVSPropertyOp6
 70
     1
102
RTVSPropertyOp7
 70
     1
102
RTVSPropertyOp8
 70
     1
102
RTVSPropertyOp9
 70
     1
102
RTVSPropertyOp10
 70
     1
102
RTVSPropertyOp11
 70
     1
102
RTVSPropertyOp12
 70
     1
102
RTVSPropertyOp13
 70
     1
102
RTVSPropertyOp14
 70
     1
102
RTVSPropertyOp15
 70
     1
102
RTVSPropertyOp16
 70
     1
102
RTVSPropertyOp17
 70
     1
102
RTVSPropertyOp18
 70
     1
102
RTVSPropertyOp19
 70
     1
102
RTVSPropertyOp20
 70
     1
102
RTVSPropertyOp21
 70
     1
102
RTVSPropertyOp22
 70
     1
102
RTVSPropertyOp23
 70
     1
102
RTVSPropertyOp24
 70
     1
102
RTVSPropertyOp25
 70
     1
102
RTVSPropertyOp26
 70
     1
102
RTVSPropertyOp27
 70
     1
102
RTVSPropertyOp28
 70
     1
102
RTVSPropertyOp29
 70
     1
102
RTVSPropertyOp30
 70
     1
102
RTVSPropertyOp31
 70
     1
102
RTVSPropertyOp32
 70
     1
102
RTVSPropertyOp33
 70
     1
102
RTVSPropertyOp34
 70
     1
102
RTVSPropertyOp35
 70
     1
102
RTVSPropertyOp36
 70
     1
102
RTVSPropertyOp37
 70
     1
102
RTVSPropertyOp38
 70
     1
102
RTVSPropertyOp39
 70
     1
102
RTVSPropertyOp40
 70
     1
102
RTVSPropertyOp41
 70
     1
102
RTVSPropertyOp42
 70
     1
102
RTVSPropertyOp43
 70
     1
102
RTVSPropertyOp44
 70
     1
102
RTVSPropertyOp45
 70
     1
102
RTVSPropertyOp46
 70
     1
102
RTVSPropertyOp47
 70
     1
102
RTVSPropertyOp48
 70
     1
102
RTVSPropertyOp49
 70
     1
102
RTVSPropertyOp50
 70
     1
102
RTVSPropertyOp51
 70
     0
102
RTVSPropertyOp52
 70
     0
102
RTVSPropertyOp53
 70
     1
102
RTVSPropertyOp54
 70
     1
102
RTVSPropertyOp55
 70
     1
102
RTVSPropertyOp56
 70
     1
102
RTVSPropertyOp57
 70
     1
102
RTVSPropertyOp58
 70
     1
102
RTVSPropertyOp59
 70
     1
102
RTVSPropertyOp60
 70
     1
102
RTVSPropertyOp61
 70
     1
102
RTVSPropertyOp62
 70
     1
  0
XRECORD
  5
A192
102
{ACAD_REACTORS
330
A191
102
}
330
A191
100
AcDbXrecord
280
     1
102
RTVSPost2010Prop28
280
     0
102
RTVSPost2010PropOp28
 70
     1
102
RTVSPost2010Prop29
280
     1
102
RTVSPost2010PropOp29
 70
     1
102
RTVSPost2010Prop30
280
     1
102
RTVSPost2010PropOp30
 70
     1
102
RTVSPost2010Prop31
280
     0
102
RTVSPost2010PropOp31
 70
     1
102
RTVSPost2010Prop32
280
     0
102
RTVSPost2010PropOp32
 70
     1
102
RTVSPost2010Prop33
280
     0
102
RTVSPost2010PropOp33
 70
     1
102
RTVSPost2010Prop34
280
     0
102
RTVSPost2010PropOp34
 70
     1
102
RTVSPost2010Prop35
280
     0
102
RTVSPost2010PropOp35
 70
     1
102
RTVSPost2010Prop36
280
     0
102
RTVSPost2010PropOp36
 70
     1
102
RTVSPost2010Prop37
 90
       50
102
RTVSPost2010PropOp37
 70
     1
102
RTVSPost2010Prop38
140
0.0
102
RTVSPost2010PropOp38
 70
     1
102
RTVSPost2010Prop39
140
1.0
102
RTVSPost2010PropOp39
 70
     1
102
RTVSPost2010Prop40
 90
        0
102
RTVSPost2010PropOp40
 70
     1
102
RTVSPost2010Prop41ColorIndex
 90
       18
102
RTVSPost2010Prop41ColorRGB
 90
        0
102
RTVSPost2010PropOp41
 70
     1
102
RTVSPost2010Prop42
 90
       50
102
RTVSPost2010PropOp42
 70
     1
102
RTVSPost2010Prop43
 90
        3
102
RTVSPost2010PropOp43
 70
     1
102
RTVSPost2010Prop44ColorIndex
 90
        5
102
RTVSPost2010Prop44ColorRGB
 90
      255
102
RTVSPost2010PropOp44
 70
     1
102
RTVSPost2010Prop45
280
     0
102
RTVSPost2010PropOp45
 70
     1
102
RTVSPost2010Prop46
 90
       50
102
RTVSPost2010PropOp46
 70
     1
102
RTVSPost2010Prop47
 90
       50
102
RTVSPost2010PropOp47
 70
     1
102
RTVSPost2010Prop48
 90
       50
102
RTVSPost2010PropOp48
 70
     1
102
RTVSPost2010Prop49
280
     0
102
RTVSPost2010PropOp49
 70
     1
102
RTVSPost2010Prop50
 90
       50
102
RTVSPost2010PropOp50
 70
     1
102
RTVSPost2010Prop51ColorIndex
 90
      256
102
RTVSPost2010Prop51ColorRGB
 90
-16777216
102
RTVSPost2010PropOp51
 70
     0
102
RTVSPost2010Prop52
140
1.0
102
RTVSPost2010PropOp52
 70
     0
102
RTVSPost2010Prop53
 90
        2
102
RTVSPost2010PropOp53
 70
     1
102
RTVSPost2010Prop54
  1
strokes_ogs.tif
102
RTVSPost2010PropOp54
 70
     1
102
RTVSPost2010Prop55
280
     0
102
RTVSPost2010PropOp55
 70
     1
102
RTVSPost2010Prop56
140
1.0
102
RTVSPost2010PropOp56
 70
     1
102
RTVSPost2010Prop57
140
1.0
102
RTVSPost2010PropOp57
 70
     1
102
RTVSPropertyOp0
 70
     1
102
RTVSPropertyOp1
 70
     1
102
RTVSPropertyOp2
 70
     1
102
RTVSPropertyOp3
 70
     1
102
RTVSPropertyOp4
 70
     1
102
RTVSPropertyOp5
 70
     1
102
RTVSPropertyOp6
 70
     1
102
RTVSPropertyOp7
 70
     1
102
RTVSPropertyOp8
 70
     1
102
RTVSPropertyOp9
 70
     1
102
RTVSPropertyOp10
 70
     1
102
RTVSPropertyOp11
 70
     1
102
RTVSPropertyOp12
 70
     1
102
RTVSPropertyOp13
 70
     1
102
RTVSPropertyOp14
 70
     1
102
RTVSPropertyOp15
 70
     1
102
RTVSPropertyOp16
 70
     1
102
RTVSPropertyOp17
 70
     1
102
RTVSPropertyOp18
 70
     1
102
RTVSPropertyOp19
 70
     1
102
RTVSPropertyOp20
 70
     1
102
RTVSPropertyOp21
 70
     1
102
RTVSPropertyOp22
 70
     1
102
RTVSPropertyOp23
 70
     1
102
RTVSPropertyOp24
 70
     1
102
RTVSPropertyOp25
 70
     1
102
RTVSPropertyOp26
 70
     1
102
RTVSPropertyOp27
 70
     1
102
RTVSPropertyOp28
 70
     1
102
RTVSPropertyOp29
 70
     1
102
RTVSPropertyOp30
 70
     1
102
RTVSPropertyOp31
 70
     1
102
RTVSPropertyOp32
 70
     1
102
RTVSPropertyOp33
 70
     1
102
RTVSPropertyOp34
 70
     1
102
RTVSPropertyOp35
 70
     1
102
RTVSPropertyOp36
 70
     1
102
RTVSPropertyOp37
 70
     1
102
RTVSPropertyOp38
 70
     1
102
RTVSPropertyOp39
 70
     1
102
RTVSPropertyOp40
 70
     1
102
RTVSPropertyOp41
 70
     1
102
RTVSPropertyOp42
 70
     1
102
RTVSPropertyOp43
 70
     1
102
RTVSPropertyOp44
 70
     1
102
RTVSPropertyOp45
 70
     1
102
RTVSPropertyOp46
 70
     1
102
RTVSPropertyOp47
 70
     1
102
RTVSPropertyOp48
 70
     1
102
RTVSPropertyOp49
 70
     1
102
RTVSPropertyOp50
 70
     1
102
RTVSPropertyOp51
 70
     0
102
RTVSPropertyOp52
 70
     0
102
RTVSPropertyOp53
 70
     1
102
RTVSPropertyOp54
 70
     1
102
RTVSPropertyOp55
 70
     1
102
RTVSPropertyOp56
 70
     1
102
RTVSPropertyOp57
 70
     1
102
RTVSPropertyOp58
 70
     1
102
RTVSPropertyOp59
 70
     1
102
RTVSPropertyOp60
 70
     1
102
RTVSPropertyOp61
 70
     1
102
RTVSPropertyOp62
 70
     1
  0
XRECORD
  5
A1AE
102
{ACAD_REACTORS
330
A1AD
102
}
330
A1AD
100
AcDbXrecord
280
     1
102
RTVSPost2010Prop28
280
     0
102
RTVSPost2010PropOp28
 70
     1
102
RTVSPost2010Prop29
280
     1
102
RTVSPost2010PropOp29
 70
     1
102
RTVSPost2010Prop30
280
     1
102
RTVSPost2010PropOp30
 70
     1
102
RTVSPost2010Prop31
280
     0
102
RTVSPost2010PropOp31
 70
     1
102
RTVSPost2010Prop32
280
     0
102
RTVSPost2010PropOp32
 70
     1
102
RTVSPost2010Prop33
280
     0
102
RTVSPost2010PropOp33
 70
     1
102
RTVSPost2010Prop34
280
     0
102
RTVSPost2010PropOp34
 70
     1
102
RTVSPost2010Prop35
280
     0
102
RTVSPost2010PropOp35
 70
     1
102
RTVSPost2010Prop36
280
     0
102
RTVSPost2010PropOp36
 70
     1
102
RTVSPost2010Prop37
 90
       50
102
RTVSPost2010PropOp37
 70
     0
102
RTVSPost2010Prop38
140
0.0
102
RTVSPost2010PropOp38
 70
     0
102
RTVSPost2010Prop39
140
1.0
102
RTVSPost2010PropOp39
 70
     0
102
RTVSPost2010Prop40
 90
        0
102
RTVSPost2010PropOp40
 70
     0
102
RTVSPost2010Prop41ColorIndex
 90
       18
102
RTVSPost2010Prop41ColorRGB
 90
        0
102
RTVSPost2010PropOp41
 70
     0
102
RTVSPost2010Prop42
 90
       50
102
RTVSPost2010PropOp42
 70
     0
102
RTVSPost2010Prop43
 90
        3
102
RTVSPost2010PropOp43
 70
     0
102
RTVSPost2010Prop44ColorIndex
 90
        5
102
RTVSPost2010Prop44ColorRGB
 90
      255
102
RTVSPost2010PropOp44
 70
     0
102
RTVSPost2010Prop45
280
     0
102
RTVSPost2010PropOp45
 70
     1
102
RTVSPost2010Prop46
 90
       50
102
RTVSPost2010PropOp46
 70
     0
102
RTVSPost2010Prop47
 90
       50
102
RTVSPost2010PropOp47
 70
     0
102
RTVSPost2010Prop48
 90
       50
102
RTVSPost2010PropOp48
 70
     0
102
RTVSPost2010Prop49
280
     0
102
RTVSPost2010PropOp49
 70
     1
102
RTVSPost2010Prop50
 90
       50
102
RTVSPost2010PropOp50
 70
     0
102
RTVSPost2010Prop51ColorIndex
 90
      256
102
RTVSPost2010Prop51ColorRGB
 90
-16777216
102
RTVSPost2010PropOp51
 70
     0
102
RTVSPost2010Prop52
140
1.0
102
RTVSPost2010PropOp52
 70
     0
102
RTVSPost2010Prop53
 90
        2
102
RTVSPost2010PropOp53
 70
     0
102
RTVSPost2010Prop54
  1
strokes_ogs.tif
102
RTVSPost2010PropOp54
 70
     0
102
RTVSPost2010Prop55
280
     0
102
RTVSPost2010PropOp55
 70
     1
102
RTVSPost2010Prop56
140
1.0
102
RTVSPost2010PropOp56
 70
     0
102
RTVSPost2010Prop57
140
1.0
102
RTVSPost2010PropOp57
 70
     0
102
RTVSPropertyOp0
 70
     0
102
RTVSPropertyOp1
 70
     0
102
RTVSPropertyOp2
 70
     0
102
RTVSPropertyOp3
 70
     0
102
RTVSPropertyOp4
 70
     0
102
RTVSPropertyOp5
 70
     0
102
RTVSPropertyOp6
 70
     0
102
RTVSPropertyOp7
 70
     0
102
RTVSPropertyOp8
 70
     0
102
RTVSPropertyOp9
 70
     0
102
RTVSPropertyOp10
 70
     0
102
RTVSPropertyOp11
 70
     0
102
RTVSPropertyOp12
 70
     0
102
RTVSPropertyOp13
 70
     0
102
RTVSPropertyOp14
 70
     2
102
RTVSPropertyOp15
 70
     0
102
RTVSPropertyOp16
 70
     0
102
RTVSPropertyOp17
 70
     0
102
RTVSPropertyOp18
 70
     0
102
RTVSPropertyOp19
 70
     0
102
RTVSPropertyOp20
 70
     0
102
RTVSPropertyOp21
 70
     0
102
RTVSPropertyOp22
 70
     0
102
RTVSPropertyOp23
 70
     0
102
RTVSPropertyOp24
 70
     0
102
RTVSPropertyOp25
 70
     0
102
RTVSPropertyOp26
 70
     0
102
RTVSPropertyOp27
 70
     0
102
RTVSPropertyOp28
 70
     1
102
RTVSPropertyOp29
 70
     1
102
RTVSPropertyOp30
 70
     1
102
RTVSPropertyOp31
 70
     1
102
RTVSPropertyOp32
 70
     1
102
RTVSPropertyOp33
 70
     1
102
RTVSPropertyOp34
 70
     1
102
RTVSPropertyOp35
 70
     1
102
RTVSPropertyOp36
 70
     1
102
RTVSPropertyOp37
 70
     0
102
RTVSPropertyOp38
 70
     0
102
RTVSPropertyOp39
 70
     0
102
RTVSPropertyOp40
 70
     0
102
RTVSPropertyOp41
 70
     0
102
RTVSPropertyOp42
 70
     0
102
RTVSPropertyOp43
 70
     0
102
RTVSPropertyOp44
 70
     0
102
RTVSPropertyOp45
 70
     1
102
RTVSPropertyOp46
 70
     0
102
RTVSPropertyOp47
 70
     0
102
RTVSPropertyOp48
 70
     0
102
RTVSPropertyOp49
 70
     1
102
RTVSPropertyOp50
 70
     0
102
RTVSPropertyOp51
 70
     0
102
RTVSPropertyOp52
 70
     0
102
RTVSPropertyOp53
 70
     0
102
RTVSPropertyOp54
 70
     0
102
RTVSPropertyOp55
 70
     1
102
RTVSPropertyOp56
 70
     0
102
RTVSPropertyOp57
 70
     0
102
RTVSPropertyOp58
 70
     0
102
RTVSPropertyOp59
 70
     0
102
RTVSPropertyOp60
 70
     0
102
RTVSPropertyOp61
 70
     0
102
RTVSPropertyOp62
 70
     0
  0
XRECORD
  5
A19E
102
{ACAD_REACTORS
330
A19D
102
}
330
A19D
100
AcDbXrecord
280
     1
102
RTVSPost2010Prop28
280
     0
102
RTVSPost2010PropOp28
 70
     1
102
RTVSPost2010Prop29
280
     1
102
RTVSPost2010PropOp29
 70
     1
102
RTVSPost2010Prop30
280
     1
102
RTVSPost2010PropOp30
 70
     1
102
RTVSPost2010Prop31
280
     0
102
RTVSPost2010PropOp31
 70
     1
102
RTVSPost2010Prop32
280
     0
102
RTVSPost2010PropOp32
 70
     1
102
RTVSPost2010Prop33
280
     0
102
RTVSPost2010PropOp33
 70
     1
102
RTVSPost2010Prop34
280
     0
102
RTVSPost2010PropOp34
 70
     1
102
RTVSPost2010Prop35
280
     0
102
RTVSPost2010PropOp35
 70
     1
102
RTVSPost2010Prop36
280
     0
102
RTVSPost2010PropOp36
 70
     1
102
RTVSPost2010Prop37
 90
       50
102
RTVSPost2010PropOp37
 70
     1
102
RTVSPost2010Prop38
140
0.0
102
RTVSPost2010PropOp38
 70
     1
102
RTVSPost2010Prop39
140
1.0
102
RTVSPost2010PropOp39
 70
     1
102
RTVSPost2010Prop40
 90
        0
102
RTVSPost2010PropOp40
 70
     1
102
RTVSPost2010Prop41ColorIndex
 90
       18
102
RTVSPost2010Prop41ColorRGB
 90
        0
102
RTVSPost2010PropOp41
 70
     1
102
RTVSPost2010Prop42
 90
       50
102
RTVSPost2010PropOp42
 70
     1
102
RTVSPost2010Prop43
 90
        3
102
RTVSPost2010PropOp43
 70
     1
102
RTVSPost2010Prop44ColorIndex
 90
        5
102
RTVSPost2010Prop44ColorRGB
 90
      255
102
RTVSPost2010PropOp44
 70
     1
102
RTVSPost2010Prop45
280
     0
102
RTVSPost2010PropOp45
 70
     1
102
RTVSPost2010Prop46
 90
       50
102
RTVSPost2010PropOp46
 70
     1
102
RTVSPost2010Prop47
 90
       50
102
RTVSPost2010PropOp47
 70
     1
102
RTVSPost2010Prop48
 90
       50
102
RTVSPost2010PropOp48
 70
     1
102
RTVSPost2010Prop49
280
     0
102
RTVSPost2010PropOp49
 70
     1
102
RTVSPost2010Prop50
 90
       50
102
RTVSPost2010PropOp50
 70
     1
102
RTVSPost2010Prop51ColorIndex
 90
      256
102
RTVSPost2010Prop51ColorRGB
 90
-16777216
102
RTVSPost2010PropOp51
 70
     0
102
RTVSPost2010Prop52
140
1.0
102
RTVSPost2010PropOp52
 70
     0
102
RTVSPost2010Prop53
 90
        2
102
RTVSPost2010PropOp53
 70
     1
102
RTVSPost2010Prop54
  1
strokes_ogs.tif
102
RTVSPost2010PropOp54
 70
     1
102
RTVSPost2010Prop55
280
     0
102
RTVSPost2010PropOp55
 70
     1
102
RTVSPost2010Prop56
140
1.0
102
RTVSPost2010PropOp56
 70
     1
102
RTVSPost2010Prop57
140
1.0
102
RTVSPost2010PropOp57
 70
     1
102
RTVSPropertyOp0
 70
     1
102
RTVSPropertyOp1
 70
     1
102
RTVSPropertyOp2
 70
     1
102
RTVSPropertyOp3
 70
     1
102
RTVSPropertyOp4
 70
     1
102
RTVSPropertyOp5
 70
     1
102
RTVSPropertyOp6
 70
     1
102
RTVSPropertyOp7
 70
     1
102
RTVSPropertyOp8
 70
     1
102
RTVSPropertyOp9
 70
     1
102
RTVSPropertyOp10
 70
     1
102
RTVSPropertyOp11
 70
     1
102
RTVSPropertyOp12
 70
     1
102
RTVSPropertyOp13
 70
     1
102
RTVSPropertyOp14
 70
     1
102
RTVSPropertyOp15
 70
     1
102
RTVSPropertyOp16
 70
     1
102
RTVSPropertyOp17
 70
     1
102
RTVSPropertyOp18
 70
     1
102
RTVSPropertyOp19
 70
     1
102
RTVSPropertyOp20
 70
     1
102
RTVSPropertyOp21
 70
     1
102
RTVSPropertyOp22
 70
     1
102
RTVSPropertyOp23
 70
     1
102
RTVSPropertyOp24
 70
     1
102
RTVSPropertyOp25
 70
     1
102
RTVSPropertyOp26
 70
     1
102
RTVSPropertyOp27
 70
     1
102
RTVSPropertyOp28
 70
     1
102
RTVSPropertyOp29
 70
     1
102
RTVSPropertyOp30
 70
     1
102
RTVSPropertyOp31
 70
     1
102
RTVSPropertyOp32
 70
     1
102
RTVSPropertyOp33
 70
     1
102
RTVSPropertyOp34
 70
     1
102
RTVSPropertyOp35
 70
     1
102
RTVSPropertyOp36
 70
     1
102
RTVSPropertyOp37
 70
     1
102
RTVSPropertyOp38
 70
     1
102
RTVSPropertyOp39
 70
     1
102
RTVSPropertyOp40
 70
     1
102
RTVSPropertyOp41
 70
     1
102
RTVSPropertyOp42
 70
     1
102
RTVSPropertyOp43
 70
     1
102
RTVSPropertyOp44
 70
     1
102
RTVSPropertyOp45
 70
     1
102
RTVSPropertyOp46
 70
     1
102
RTVSPropertyOp47
 70
     1
102
RTVSPropertyOp48
 70
     1
102
RTVSPropertyOp49
 70
     1
102
RTVSPropertyOp50
 70
     1
102
RTVSPropertyOp51
 70
     0
102
RTVSPropertyOp52
 70
     0
102
RTVSPropertyOp53
 70
     1
102
RTVSPropertyOp54
 70
     1
102
RTVSPropertyOp55
 70
     1
102
RTVSPropertyOp56
 70
     1
102
RTVSPropertyOp57
 70
     1
102
RTVSPropertyOp58
 70
     1
102
RTVSPropertyOp59
 70
     1
102
RTVSPropertyOp60
 70
     1
102
RTVSPropertyOp61
 70
     1
102
RTVSPropertyOp62
 70
     1
  0
XRECORD
  5
A1B0
102
{ACAD_REACTORS
330
A1AF
102
}
330
A1AF
100
AcDbXrecord
280
     1
102
RTVSPost2010Prop28
280
     0
102
RTVSPost2010PropOp28
 70
     1
102
RTVSPost2010Prop29
280
     1
102
RTVSPost2010PropOp29
 70
     1
102
RTVSPost2010Prop30
280
     1
102
RTVSPost2010PropOp30
 70
     1
102
RTVSPost2010Prop31
280
     0
102
RTVSPost2010PropOp31
 70
     1
102
RTVSPost2010Prop32
280
     0
102
RTVSPost2010PropOp32
 70
     1
102
RTVSPost2010Prop33
280
     0
102
RTVSPost2010PropOp33
 70
     1
102
RTVSPost2010Prop34
280
     0
102
RTVSPost2010PropOp34
 70
     1
102
RTVSPost2010Prop35
280
     0
102
RTVSPost2010PropOp35
 70
     1
102
RTVSPost2010Prop36
280
     0
102
RTVSPost2010PropOp36
 70
     1
102
RTVSPost2010Prop37
 90
       50
102
RTVSPost2010PropOp37
 70
     0
102
RTVSPost2010Prop38
140
0.0
102
RTVSPost2010PropOp38
 70
     0
102
RTVSPost2010Prop39
140
1.0
102
RTVSPost2010PropOp39
 70
     0
102
RTVSPost2010Prop40
 90
        0
102
RTVSPost2010PropOp40
 70
     0
102
RTVSPost2010Prop41ColorIndex
 90
       18
102
RTVSPost2010Prop41ColorRGB
 90
        0
102
RTVSPost2010PropOp41
 70
     0
102
RTVSPost2010Prop42
 90
       50
102
RTVSPost2010PropOp42
 70
     0
102
RTVSPost2010Prop43
 90
        3
102
RTVSPost2010PropOp43
 70
     0
102
RTVSPost2010Prop44ColorIndex
 90
        5
102
RTVSPost2010Prop44ColorRGB
 90
      255
102
RTVSPost2010PropOp44
 70
     0
102
RTVSPost2010Prop45
280
     0
102
RTVSPost2010PropOp45
 70
     1
102
RTVSPost2010Prop46
 90
       50
102
RTVSPost2010PropOp46
 70
     0
102
RTVSPost2010Prop47
 90
       50
102
RTVSPost2010PropOp47
 70
     0
102
RTVSPost2010Prop48
 90
       50
102
RTVSPost2010PropOp48
 70
     0
102
RTVSPost2010Prop49
280
     0
102
RTVSPost2010PropOp49
 70
     1
102
RTVSPost2010Prop50
 90
       50
102
RTVSPost2010PropOp50
 70
     0
102
RTVSPost2010Prop51ColorIndex
 90
      256
102
RTVSPost2010Prop51ColorRGB
 90
-16777216
102
RTVSPost2010PropOp51
 70
     0
102
RTVSPost2010Prop52
140
1.0
102
RTVSPost2010PropOp52
 70
     0
102
RTVSPost2010Prop53
 90
        2
102
RTVSPost2010PropOp53
 70
     0
102
RTVSPost2010Prop54
  1
strokes_ogs.tif
102
RTVSPost2010PropOp54
 70
     0
102
RTVSPost2010Prop55
280
     0
102
RTVSPost2010PropOp55
 70
     1
102
RTVSPost2010Prop56
140
1.0
102
RTVSPost2010PropOp56
 70
     0
102
RTVSPost2010Prop57
140
1.0
102
RTVSPost2010PropOp57
 70
     0
102
RTVSPropertyOp0
 70
     0
102
RTVSPropertyOp1
 70
     0
102
RTVSPropertyOp2
 70
     0
102
RTVSPropertyOp3
 70
     0
102
RTVSPropertyOp4
 70
     0
102
RTVSPropertyOp5
 70
     0
102
RTVSPropertyOp6
 70
     0
102
RTVSPropertyOp7
 70
     0
102
RTVSPropertyOp8
 70
     0
102
RTVSPropertyOp9
 70
     0
102
RTVSPropertyOp10
 70
     0
102
RTVSPropertyOp11
 70
     0
102
RTVSPropertyOp12
 70
     0
102
RTVSPropertyOp13
 70
     0
102
RTVSPropertyOp14
 70
     2
102
RTVSPropertyOp15
 70
     0
102
RTVSPropertyOp16
 70
     0
102
RTVSPropertyOp17
 70
     0
102
RTVSPropertyOp18
 70
     0
102
RTVSPropertyOp19
 70
     0
102
RTVSPropertyOp20
 70
     0
102
RTVSPropertyOp21
 70
     0
102
RTVSPropertyOp22
 70
     0
102
RTVSPropertyOp23
 70
     0
102
RTVSPropertyOp24
 70
     0
102
RTVSPropertyOp25
 70
     0
102
RTVSPropertyOp26
 70
     0
102
RTVSPropertyOp27
 70
     0
102
RTVSPropertyOp28
 70
     1
102
RTVSPropertyOp29
 70
     1
102
RTVSPropertyOp30
 70
     1
102
RTVSPropertyOp31
 70
     1
102
RTVSPropertyOp32
 70
     1
102
RTVSPropertyOp33
 70
     1
102
RTVSPropertyOp34
 70
     1
102
RTVSPropertyOp35
 70
     1
102
RTVSPropertyOp36
 70
     1
102
RTVSPropertyOp37
 70
     0
102
RTVSPropertyOp38
 70
     0
102
RTVSPropertyOp39
 70
     0
102
RTVSPropertyOp40
 70
     0
102
RTVSPropertyOp41
 70
     0
102
RTVSPropertyOp42
 70
     0
102
RTVSPropertyOp43
 70
     0
102
RTVSPropertyOp44
 70
     0
102
RTVSPropertyOp45
 70
     1
102
RTVSPropertyOp46
 70
     0
102
RTVSPropertyOp47
 70
     0
102
RTVSPropertyOp48
 70
     0
102
RTVSPropertyOp49
 70
     1
102
RTVSPropertyOp50
 70
     0
102
RTVSPropertyOp51
 70
     0
102
RTVSPropertyOp52
 70
     0
102
RTVSPropertyOp53
 70
     0
102
RTVSPropertyOp54
 70
     0
102
RTVSPropertyOp55
 70
     1
102
RTVSPropertyOp56
 70
     0
102
RTVSPropertyOp57
 70
     0
102
RTVSPropertyOp58
 70
     0
102
RTVSPropertyOp59
 70
     0
102
RTVSPropertyOp60
 70
     0
102
RTVSPropertyOp61
 70
     0
102
RTVSPropertyOp62
 70
     0
  0
XRECORD
  5
A196
102
{ACAD_REACTORS
330
A195
102
}
330
A195
100
AcDbXrecord
280
     1
102
RTVSPost2010Prop28
280
     0
102
RTVSPost2010PropOp28
 70
     1
102
RTVSPost2010Prop29
280
     1
102
RTVSPost2010PropOp29
 70
     1
102
RTVSPost2010Prop30
280
     1
102
RTVSPost2010PropOp30
 70
     1
102
RTVSPost2010Prop31
280
     0
102
RTVSPost2010PropOp31
 70
     1
102
RTVSPost2010Prop32
280
     0
102
RTVSPost2010PropOp32
 70
     1
102
RTVSPost2010Prop33
280
     0
102
RTVSPost2010PropOp33
 70
     1
102
RTVSPost2010Prop34
280
     0
102
RTVSPost2010PropOp34
 70
     1
102
RTVSPost2010Prop35
280
     0
102
RTVSPost2010PropOp35
 70
     1
102
RTVSPost2010Prop36
280
     0
102
RTVSPost2010PropOp36
 70
     1
102
RTVSPost2010Prop37
 90
       50
102
RTVSPost2010PropOp37
 70
     1
102
RTVSPost2010Prop38
140
0.0
102
RTVSPost2010PropOp38
 70
     1
102
RTVSPost2010Prop39
140
1.0
102
RTVSPost2010PropOp39
 70
     1
102
RTVSPost2010Prop40
 90
        0
102
RTVSPost2010PropOp40
 70
     1
102
RTVSPost2010Prop41ColorIndex
 90
       18
102
RTVSPost2010Prop41ColorRGB
 90
        0
102
RTVSPost2010PropOp41
 70
     1
102
RTVSPost2010Prop42
 90
       50
102
RTVSPost2010PropOp42
 70
     1
102
RTVSPost2010Prop43
 90
        3
102
RTVSPost2010PropOp43
 70
     1
102
RTVSPost2010Prop44ColorIndex
 90
        5
102
RTVSPost2010Prop44ColorRGB
 90
      255
102
RTVSPost2010PropOp44
 70
     1
102
RTVSPost2010Prop45
280
     0
102
RTVSPost2010PropOp45
 70
     1
102
RTVSPost2010Prop46
 90
       50
102
RTVSPost2010PropOp46
 70
     1
102
RTVSPost2010Prop47
 90
       50
102
RTVSPost2010PropOp47
 70
     1
102
RTVSPost2010Prop48
 90
       50
102
RTVSPost2010PropOp48
 70
     1
102
RTVSPost2010Prop49
280
     0
102
RTVSPost2010PropOp49
 70
     1
102
RTVSPost2010Prop50
 90
       50
102
RTVSPost2010PropOp50
 70
     1
102
RTVSPost2010Prop51ColorIndex
 90
      256
102
RTVSPost2010Prop51ColorRGB
 90
-16777216
102
RTVSPost2010PropOp51
 70
     0
102
RTVSPost2010Prop52
140
1.0
102
RTVSPost2010PropOp52
 70
     0
102
RTVSPost2010Prop53
 90
        2
102
RTVSPost2010PropOp53
 70
     1
102
RTVSPost2010Prop54
  1
strokes_ogs.tif
102
RTVSPost2010PropOp54
 70
     1
102
RTVSPost2010Prop55
280
     0
102
RTVSPost2010PropOp55
 70
     1
102
RTVSPost2010Prop56
140
1.0
102
RTVSPost2010PropOp56
 70
     1
102
RTVSPost2010Prop57
140
1.0
102
RTVSPost2010PropOp57
 70
     1
102
RTVSPropertyOp0
 70
     1
102
RTVSPropertyOp1
 70
     1
102
RTVSPropertyOp2
 70
     1
102
RTVSPropertyOp3
 70
     1
102
RTVSPropertyOp4
 70
     1
102
RTVSPropertyOp5
 70
     1
102
RTVSPropertyOp6
 70
     1
102
RTVSPropertyOp7
 70
     1
102
RTVSPropertyOp8
 70
     1
102
RTVSPropertyOp9
 70
     1
102
RTVSPropertyOp10
 70
     1
102
RTVSPropertyOp11
 70
     1
102
RTVSPropertyOp12
 70
     1
102
RTVSPropertyOp13
 70
     1
102
RTVSPropertyOp14
 70
     1
102
RTVSPropertyOp15
 70
     1
102
RTVSPropertyOp16
 70
     1
102
RTVSPropertyOp17
 70
     1
102
RTVSPropertyOp18
 70
     1
102
RTVSPropertyOp19
 70
     1
102
RTVSPropertyOp20
 70
     1
102
RTVSPropertyOp21
 70
     1
102
RTVSPropertyOp22
 70
     1
102
RTVSPropertyOp23
 70
     1
102
RTVSPropertyOp24
 70
     1
102
RTVSPropertyOp25
 70
     1
102
RTVSPropertyOp26
 70
     1
102
RTVSPropertyOp27
 70
     1
102
RTVSPropertyOp28
 70
     1
102
RTVSPropertyOp29
 70
     1
102
RTVSPropertyOp30
 70
     1
102
RTVSPropertyOp31
 70
     1
102
RTVSPropertyOp32
 70
     1
102
RTVSPropertyOp33
 70
     1
102
RTVSPropertyOp34
 70
     1
102
RTVSPropertyOp35
 70
     1
102
RTVSPropertyOp36
 70
     1
102
RTVSPropertyOp37
 70
     1
102
RTVSPropertyOp38
 70
     1
102
RTVSPropertyOp39
 70
     1
102
RTVSPropertyOp40
 70
     1
102
RTVSPropertyOp41
 70
     1
102
RTVSPropertyOp42
 70
     1
102
RTVSPropertyOp43
 70
     1
102
RTVSPropertyOp44
 70
     1
102
RTVSPropertyOp45
 70
     1
102
RTVSPropertyOp46
 70
     1
102
RTVSPropertyOp47
 70
     1
102
RTVSPropertyOp48
 70
     1
102
RTVSPropertyOp49
 70
     1
102
RTVSPropertyOp50
 70
     1
102
RTVSPropertyOp51
 70
     0
102
RTVSPropertyOp52
 70
     0
102
RTVSPropertyOp53
 70
     1
102
RTVSPropertyOp54
 70
     1
102
RTVSPropertyOp55
 70
     1
102
RTVSPropertyOp56
 70
     1
102
RTVSPropertyOp57
 70
     1
102
RTVSPropertyOp58
 70
     1
102
RTVSPropertyOp59
 70
     1
102
RTVSPropertyOp60
 70
     1
102
RTVSPropertyOp61
 70
     1
102
RTVSPropertyOp62
 70
     1
  0
XRECORD
  5
A1AC
102
{ACAD_REACTORS
330
A1AB
102
}
330
A1AB
100
AcDbXrecord
280
     1
102
RTVSPost2010Prop28
280
     0
102
RTVSPost2010PropOp28
 70
     1
102
RTVSPost2010Prop29
280
     1
102
RTVSPost2010PropOp29
 70
     1
102
RTVSPost2010Prop30
280
     1
102
RTVSPost2010PropOp30
 70
     1
102
RTVSPost2010Prop31
280
     0
102
RTVSPost2010PropOp31
 70
     1
102
RTVSPost2010Prop32
280
     0
102
RTVSPost2010PropOp32
 70
     1
102
RTVSPost2010Prop33
280
     0
102
RTVSPost2010PropOp33
 70
     1
102
RTVSPost2010Prop34
280
     0
102
RTVSPost2010PropOp34
 70
     1
102
RTVSPost2010Prop35
280
     0
102
RTVSPost2010PropOp35
 70
     1
102
RTVSPost2010Prop36
280
     0
102
RTVSPost2010PropOp36
 70
     1
102
RTVSPost2010Prop37
 90
       50
102
RTVSPost2010PropOp37
 70
     1
102
RTVSPost2010Prop38
140
0.0
102
RTVSPost2010PropOp38
 70
     1
102
RTVSPost2010Prop39
140
1.0
102
RTVSPost2010PropOp39
 70
     1
102
RTVSPost2010Prop40
 90
        0
102
RTVSPost2010PropOp40
 70
     1
102
RTVSPost2010Prop41ColorIndex
 90
       18
102
RTVSPost2010Prop41ColorRGB
 90
        0
102
RTVSPost2010PropOp41
 70
     1
102
RTVSPost2010Prop42
 90
       50
102
RTVSPost2010PropOp42
 70
     1
102
RTVSPost2010Prop43
 90
        3
102
RTVSPost2010PropOp43
 70
     1
102
RTVSPost2010Prop44ColorIndex
 90
        5
102
RTVSPost2010Prop44ColorRGB
 90
      255
102
RTVSPost2010PropOp44
 70
     1
102
RTVSPost2010Prop45
280
     0
102
RTVSPost2010PropOp45
 70
     1
102
RTVSPost2010Prop46
 90
       50
102
RTVSPost2010PropOp46
 70
     1
102
RTVSPost2010Prop47
 90
       50
102
RTVSPost2010PropOp47
 70
     1
102
RTVSPost2010Prop48
 90
       50
102
RTVSPost2010PropOp48
 70
     1
102
RTVSPost2010Prop49
280
     0
102
RTVSPost2010PropOp49
 70
     1
102
RTVSPost2010Prop50
 90
       50
102
RTVSPost2010PropOp50
 70
     1
102
RTVSPost2010Prop51ColorIndex
 90
      256
102
RTVSPost2010Prop51ColorRGB
 90
-16777216
102
RTVSPost2010PropOp51
 70
     0
102
RTVSPost2010Prop52
140
1.0
102
RTVSPost2010PropOp52
 70
     0
102
RTVSPost2010Prop53
 90
        2
102
RTVSPost2010PropOp53
 70
     1
102
RTVSPost2010Prop54
  1
strokes_ogs.tif
102
RTVSPost2010PropOp54
 70
     1
102
RTVSPost2010Prop55
280
     0
102
RTVSPost2010PropOp55
 70
     1
102
RTVSPost2010Prop56
140
1.0
102
RTVSPost2010PropOp56
 70
     1
102
RTVSPost2010Prop57
140
1.0
102
RTVSPost2010PropOp57
 70
     1
102
RTVSPropertyOp0
 70
     1
102
RTVSPropertyOp1
 70
     1
102
RTVSPropertyOp2
 70
     1
102
RTVSPropertyOp3
 70
     1
102
RTVSPropertyOp4
 70
     1
102
RTVSPropertyOp5
 70
     1
102
RTVSPropertyOp6
 70
     1
102
RTVSPropertyOp7
 70
     1
102
RTVSPropertyOp8
 70
     1
102
RTVSPropertyOp9
 70
     1
102
RTVSPropertyOp10
 70
     1
102
RTVSPropertyOp11
 70
     1
102
RTVSPropertyOp12
 70
     1
102
RTVSPropertyOp13
 70
     1
102
RTVSPropertyOp14
 70
     1
102
RTVSPropertyOp15
 70
     1
102
RTVSPropertyOp16
 70
     1
102
RTVSPropertyOp17
 70
     1
102
RTVSPropertyOp18
 70
     1
102
RTVSPropertyOp19
 70
     1
102
RTVSPropertyOp20
 70
     1
102
RTVSPropertyOp21
 70
     1
102
RTVSPropertyOp22
 70
     1
102
RTVSPropertyOp23
 70
     1
102
RTVSPropertyOp24
 70
     1
102
RTVSPropertyOp25
 70
     1
102
RTVSPropertyOp26
 70
     1
102
RTVSPropertyOp27
 70
     1
102
RTVSPropertyOp28
 70
     1
102
RTVSPropertyOp29
 70
     1
102
RTVSPropertyOp30
 70
     1
102
RTVSPropertyOp31
 70
     1
102
RTVSPropertyOp32
 70
     1
102
RTVSPropertyOp33
 70
     1
102
RTVSPropertyOp34
 70
     1
102
RTVSPropertyOp35
 70
     1
102
RTVSPropertyOp36
 70
     1
102
RTVSPropertyOp37
 70
     1
102
RTVSPropertyOp38
 70
     1
102
RTVSPropertyOp39
 70
     1
102
RTVSPropertyOp40
 70
     1
102
RTVSPropertyOp41
 70
     1
102
RTVSPropertyOp42
 70
     1
102
RTVSPropertyOp43
 70
     1
102
RTVSPropertyOp44
 70
     1
102
RTVSPropertyOp45
 70
     1
102
RTVSPropertyOp46
 70
     1
102
RTVSPropertyOp47
 70
     1
102
RTVSPropertyOp48
 70
     1
102
RTVSPropertyOp49
 70
     1
102
RTVSPropertyOp50
 70
     1
102
RTVSPropertyOp51
 70
     0
102
RTVSPropertyOp52
 70
     0
102
RTVSPropertyOp53
 70
     1
102
RTVSPropertyOp54
 70
     1
102
RTVSPropertyOp55
 70
     1
102
RTVSPropertyOp56
 70
     1
102
RTVSPropertyOp57
 70
     1
102
RTVSPropertyOp58
 70
     1
102
RTVSPropertyOp59
 70
     1
102
RTVSPropertyOp60
 70
     1
102
RTVSPropertyOp61
 70
     1
102
RTVSPropertyOp62
 70
     1
  0
XRECORD
  5
A1AA
102
{ACAD_REACTORS
330
A1A9
102
}
330
A1A9
100
AcDbXrecord
280
     1
102
RTVSPost2010Prop28
280
     0
102
RTVSPost2010PropOp28
 70
     1
102
RTVSPost2010Prop29
280
     1
102
RTVSPost2010PropOp29
 70
     1
102
RTVSPost2010Prop30
280
     1
102
RTVSPost2010PropOp30
 70
     1
102
RTVSPost2010Prop31
280
     0
102
RTVSPost2010PropOp31
 70
     1
102
RTVSPost2010Prop32
280
     0
102
RTVSPost2010PropOp32
 70
     1
102
RTVSPost2010Prop33
280
     0
102
RTVSPost2010PropOp33
 70
     1
102
RTVSPost2010Prop34
280
     0
102
RTVSPost2010PropOp34
 70
     1
102
RTVSPost2010Prop35
280
     0
102
RTVSPost2010PropOp35
 70
     1
102
RTVSPost2010Prop36
280
     0
102
RTVSPost2010PropOp36
 70
     1
102
RTVSPost2010Prop37
 90
       50
102
RTVSPost2010PropOp37
 70
     1
102
RTVSPost2010Prop38
140
0.0
102
RTVSPost2010PropOp38
 70
     1
102
RTVSPost2010Prop39
140
1.0
102
RTVSPost2010PropOp39
 70
     1
102
RTVSPost2010Prop40
 90
        0
102
RTVSPost2010PropOp40
 70
     1
102
RTVSPost2010Prop41ColorIndex
 90
       18
102
RTVSPost2010Prop41ColorRGB
 90
        0
102
RTVSPost2010PropOp41
 70
     1
102
RTVSPost2010Prop42
 90
       50
102
RTVSPost2010PropOp42
 70
     1
102
RTVSPost2010Prop43
 90
        3
102
RTVSPost2010PropOp43
 70
     1
102
RTVSPost2010Prop44ColorIndex
 90
        5
102
RTVSPost2010Prop44ColorRGB
 90
      255
102
RTVSPost2010PropOp44
 70
     1
102
RTVSPost2010Prop45
280
     0
102
RTVSPost2010PropOp45
 70
     1
102
RTVSPost2010Prop46
 90
       50
102
RTVSPost2010PropOp46
 70
     1
102
RTVSPost2010Prop47
 90
       50
102
RTVSPost2010PropOp47
 70
     1
102
RTVSPost2010Prop48
 90
       50
102
RTVSPost2010PropOp48
 70
     1
102
RTVSPost2010Prop49
280
     0
102
RTVSPost2010PropOp49
 70
     1
102
RTVSPost2010Prop50
 90
       50
102
RTVSPost2010PropOp50
 70
     1
102
RTVSPost2010Prop51ColorIndex
 90
      256
102
RTVSPost2010Prop51ColorRGB
 90
-16777216
102
RTVSPost2010PropOp51
 70
     0
102
RTVSPost2010Prop52
140
1.0
102
RTVSPost2010PropOp52
 70
     0
102
RTVSPost2010Prop53
 90
        2
102
RTVSPost2010PropOp53
 70
     1
102
RTVSPost2010Prop54
  1
strokes_ogs.tif
102
RTVSPost2010PropOp54
 70
     1
102
RTVSPost2010Prop55
280
     0
102
RTVSPost2010PropOp55
 70
     1
102
RTVSPost2010Prop56
140
1.0
102
RTVSPost2010PropOp56
 70
     1
102
RTVSPost2010Prop57
140
1.0
102
RTVSPost2010PropOp57
 70
     1
102
RTVSPropertyOp0
 70
     1
102
RTVSPropertyOp1
 70
     1
102
RTVSPropertyOp2
 70
     1
102
RTVSPropertyOp3
 70
     1
102
RTVSPropertyOp4
 70
     1
102
RTVSPropertyOp5
 70
     1
102
RTVSPropertyOp6
 70
     1
102
RTVSPropertyOp7
 70
     1
102
RTVSPropertyOp8
 70
     1
102
RTVSPropertyOp9
 70
     1
102
RTVSPropertyOp10
 70
     1
102
RTVSPropertyOp11
 70
     1
102
RTVSPropertyOp12
 70
     1
102
RTVSPropertyOp13
 70
     1
102
RTVSPropertyOp14
 70
     1
102
RTVSPropertyOp15
 70
     1
102
RTVSPropertyOp16
 70
     1
102
RTVSPropertyOp17
 70
     1
102
RTVSPropertyOp18
 70
     1
102
RTVSPropertyOp19
 70
     1
102
RTVSPropertyOp20
 70
     1
102
RTVSPropertyOp21
 70
     1
102
RTVSPropertyOp22
 70
     1
102
RTVSPropertyOp23
 70
     1
102
RTVSPropertyOp24
 70
     1
102
RTVSPropertyOp25
 70
     1
102
RTVSPropertyOp26
 70
     1
102
RTVSPropertyOp27
 70
     1
102
RTVSPropertyOp28
 70
     1
102
RTVSPropertyOp29
 70
     1
102
RTVSPropertyOp30
 70
     1
102
RTVSPropertyOp31
 70
     1
102
RTVSPropertyOp32
 70
     1
102
RTVSPropertyOp33
 70
     1
102
RTVSPropertyOp34
 70
     1
102
RTVSPropertyOp35
 70
     1
102
RTVSPropertyOp36
 70
     1
102
RTVSPropertyOp37
 70
     1
102
RTVSPropertyOp38
 70
     1
102
RTVSPropertyOp39
 70
     1
102
RTVSPropertyOp40
 70
     1
102
RTVSPropertyOp41
 70
     1
102
RTVSPropertyOp42
 70
     1
102
RTVSPropertyOp43
 70
     1
102
RTVSPropertyOp44
 70
     1
102
RTVSPropertyOp45
 70
     1
102
RTVSPropertyOp46
 70
     1
102
RTVSPropertyOp47
 70
     1
102
RTVSPropertyOp48
 70
     1
102
RTVSPropertyOp49
 70
     1
102
RTVSPropertyOp50
 70
     1
102
RTVSPropertyOp51
 70
     0
102
RTVSPropertyOp52
 70
     0
102
RTVSPropertyOp53
 70
     1
102
RTVSPropertyOp54
 70
     1
102
RTVSPropertyOp55
 70
     1
102
RTVSPropertyOp56
 70
     1
102
RTVSPropertyOp57
 70
     1
102
RTVSPropertyOp58
 70
     1
102
RTVSPropertyOp59
 70
     1
102
RTVSPropertyOp60
 70
     1
102
RTVSPropertyOp61
 70
     1
102
RTVSPropertyOp62
 70
     1
  0
XRECORD
  5
A1A4
102
{ACAD_REACTORS
330
A1A3
102
}
330
A1A3
100
AcDbXrecord
280
     1
102
RTVSPost2010Prop28
280
     0
102
RTVSPost2010PropOp28
 70
     1
102
RTVSPost2010Prop29
280
     1
102
RTVSPost2010PropOp29
 70
     1
102
RTVSPost2010Prop30
280
     1
102
RTVSPost2010PropOp30
 70
     1
102
RTVSPost2010Prop31
280
     0
102
RTVSPost2010PropOp31
 70
     1
102
RTVSPost2010Prop32
280
     0
102
RTVSPost2010PropOp32
 70
     1
102
RTVSPost2010Prop33
280
     0
102
RTVSPost2010PropOp33
 70
     1
102
RTVSPost2010Prop34
280
     0
102
RTVSPost2010PropOp34
 70
     1
102
RTVSPost2010Prop35
280
     0
102
RTVSPost2010PropOp35
 70
     1
102
RTVSPost2010Prop36
280
     0
102
RTVSPost2010PropOp36
 70
     1
102
RTVSPost2010Prop37
 90
       50
102
RTVSPost2010PropOp37
 70
     1
102
RTVSPost2010Prop38
140
0.0
102
RTVSPost2010PropOp38
 70
     1
102
RTVSPost2010Prop39
140
1.0
102
RTVSPost2010PropOp39
 70
     1
102
RTVSPost2010Prop40
 90
        0
102
RTVSPost2010PropOp40
 70
     1
102
RTVSPost2010Prop41ColorIndex
 90
       18
102
RTVSPost2010Prop41ColorRGB
 90
        0
102
RTVSPost2010PropOp41
 70
     1
102
RTVSPost2010Prop42
 90
       50
102
RTVSPost2010PropOp42
 70
     1
102
RTVSPost2010Prop43
 90
        3
102
RTVSPost2010PropOp43
 70
     1
102
RTVSPost2010Prop44ColorIndex
 90
        5
102
RTVSPost2010Prop44ColorRGB
 90
      255
102
RTVSPost2010PropOp44
 70
     1
102
RTVSPost2010Prop45
280
     0
102
RTVSPost2010PropOp45
 70
     1
102
RTVSPost2010Prop46
 90
       50
102
RTVSPost2010PropOp46
 70
     1
102
RTVSPost2010Prop47
 90
       50
102
RTVSPost2010PropOp47
 70
     1
102
RTVSPost2010Prop48
 90
       50
102
RTVSPost2010PropOp48
 70
     1
102
RTVSPost2010Prop49
280
     0
102
RTVSPost2010PropOp49
 70
     1
102
RTVSPost2010Prop50
 90
       50
102
RTVSPost2010PropOp50
 70
     1
102
RTVSPost2010Prop51ColorIndex
 90
      256
102
RTVSPost2010Prop51ColorRGB
 90
-16777216
102
RTVSPost2010PropOp51
 70
     0
102
RTVSPost2010Prop52
140
1.0
102
RTVSPost2010PropOp52
 70
     0
102
RTVSPost2010Prop53
 90
        2
102
RTVSPost2010PropOp53
 70
     1
102
RTVSPost2010Prop54
  1
strokes_ogs.tif
102
RTVSPost2010PropOp54
 70
     1
102
RTVSPost2010Prop55
280
     0
102
RTVSPost2010PropOp55
 70
     1
102
RTVSPost2010Prop56
140
1.0
102
RTVSPost2010PropOp56
 70
     1
102
RTVSPost2010Prop57
140
1.0
102
RTVSPost2010PropOp57
 70
     1
102
RTVSPropertyOp0
 70
     1
102
RTVSPropertyOp1
 70
     1
102
RTVSPropertyOp2
 70
     1
102
RTVSPropertyOp3
 70
     1
102
RTVSPropertyOp4
 70
     1
102
RTVSPropertyOp5
 70
     1
102
RTVSPropertyOp6
 70
     1
102
RTVSPropertyOp7
 70
     1
102
RTVSPropertyOp8
 70
     1
102
RTVSPropertyOp9
 70
     1
102
RTVSPropertyOp10
 70
     1
102
RTVSPropertyOp11
 70
     1
102
RTVSPropertyOp12
 70
     1
102
RTVSPropertyOp13
 70
     1
102
RTVSPropertyOp14
 70
     1
102
RTVSPropertyOp15
 70
     1
102
RTVSPropertyOp16
 70
     1
102
RTVSPropertyOp17
 70
     1
102
RTVSPropertyOp18
 70
     1
102
RTVSPropertyOp19
 70
     1
102
RTVSPropertyOp20
 70
     1
102
RTVSPropertyOp21
 70
     1
102
RTVSPropertyOp22
 70
     1
102
RTVSPropertyOp23
 70
     1
102
RTVSPropertyOp24
 70
     1
102
RTVSPropertyOp25
 70
     1
102
RTVSPropertyOp26
 70
     1
102
RTVSPropertyOp27
 70
     1
102
RTVSPropertyOp28
 70
     1
102
RTVSPropertyOp29
 70
     1
102
RTVSPropertyOp30
 70
     1
102
RTVSPropertyOp31
 70
     1
102
RTVSPropertyOp32
 70
     1
102
RTVSPropertyOp33
 70
     1
102
RTVSPropertyOp34
 70
     1
102
RTVSPropertyOp35
 70
     1
102
RTVSPropertyOp36
 70
     1
102
RTVSPropertyOp37
 70
     1
102
RTVSPropertyOp38
 70
     1
102
RTVSPropertyOp39
 70
     1
102
RTVSPropertyOp40
 70
     1
102
RTVSPropertyOp41
 70
     1
102
RTVSPropertyOp42
 70
     1
102
RTVSPropertyOp43
 70
     1
102
RTVSPropertyOp44
 70
     1
102
RTVSPropertyOp45
 70
     1
102
RTVSPropertyOp46
 70
     1
102
RTVSPropertyOp47
 70
     1
102
RTVSPropertyOp48
 70
     1
102
RTVSPropertyOp49
 70
     1
102
RTVSPropertyOp50
 70
     1
102
RTVSPropertyOp51
 70
     0
102
RTVSPropertyOp52
 70
     0
102
RTVSPropertyOp53
 70
     1
102
RTVSPropertyOp54
 70
     1
102
RTVSPropertyOp55
 70
     1
102
RTVSPropertyOp56
 70
     1
102
RTVSPropertyOp57
 70
     1
102
RTVSPropertyOp58
 70
     1
102
RTVSPropertyOp59
 70
     1
102
RTVSPropertyOp60
 70
     1
102
RTVSPropertyOp61
 70
     1
102
RTVSPropertyOp62
 70
     1
  0
XRECORD
  5
A1A6
102
{ACAD_REACTORS
330
A1A5
102
}
330
A1A5
100
AcDbXrecord
280
     1
102
RTVSPost2010Prop28
280
     0
102
RTVSPost2010PropOp28
 70
     1
102
RTVSPost2010Prop29
280
     1
102
RTVSPost2010PropOp29
 70
     1
102
RTVSPost2010Prop30
280
     1
102
RTVSPost2010PropOp30
 70
     1
102
RTVSPost2010Prop31
280
     0
102
RTVSPost2010PropOp31
 70
     1
102
RTVSPost2010Prop32
280
     0
102
RTVSPost2010PropOp32
 70
     1
102
RTVSPost2010Prop33
280
     0
102
RTVSPost2010PropOp33
 70
     1
102
RTVSPost2010Prop34
280
     0
102
RTVSPost2010PropOp34
 70
     1
102
RTVSPost2010Prop35
280
     0
102
RTVSPost2010PropOp35
 70
     1
102
RTVSPost2010Prop36
280
     0
102
RTVSPost2010PropOp36
 70
     1
102
RTVSPost2010Prop37
 90
       50
102
RTVSPost2010PropOp37
 70
     1
102
RTVSPost2010Prop38
140
0.0
102
RTVSPost2010PropOp38
 70
     1
102
RTVSPost2010Prop39
140
1.0
102
RTVSPost2010PropOp39
 70
     1
102
RTVSPost2010Prop40
 90
        0
102
RTVSPost2010PropOp40
 70
     1
102
RTVSPost2010Prop41ColorIndex
 90
       18
102
RTVSPost2010Prop41ColorRGB
 90
        0
102
RTVSPost2010PropOp41
 70
     1
102
RTVSPost2010Prop42
 90
       50
102
RTVSPost2010PropOp42
 70
     1
102
RTVSPost2010Prop43
 90
        3
102
RTVSPost2010PropOp43
 70
     1
102
RTVSPost2010Prop44ColorIndex
 90
        5
102
RTVSPost2010Prop44ColorRGB
 90
      255
102
RTVSPost2010PropOp44
 70
     1
102
RTVSPost2010Prop45
280
     0
102
RTVSPost2010PropOp45
 70
     1
102
RTVSPost2010Prop46
 90
       50
102
RTVSPost2010PropOp46
 70
     1
102
RTVSPost2010Prop47
 90
       50
102
RTVSPost2010PropOp47
 70
     1
102
RTVSPost2010Prop48
 90
       50
102
RTVSPost2010PropOp48
 70
     1
102
RTVSPost2010Prop49
280
     0
102
RTVSPost2010PropOp49
 70
     1
102
RTVSPost2010Prop50
 90
       50
102
RTVSPost2010PropOp50
 70
     1
102
RTVSPost2010Prop51ColorIndex
 90
      256
102
RTVSPost2010Prop51ColorRGB
 90
-16777216
102
RTVSPost2010PropOp51
 70
     0
102
RTVSPost2010Prop52
140
1.0
102
RTVSPost2010PropOp52
 70
     0
102
RTVSPost2010Prop53
 90
        2
102
RTVSPost2010PropOp53
 70
     1
102
RTVSPost2010Prop54
  1
strokes_ogs.tif
102
RTVSPost2010PropOp54
 70
     1
102
RTVSPost2010Prop55
280
     0
102
RTVSPost2010PropOp55
 70
     1
102
RTVSPost2010Prop56
140
1.0
102
RTVSPost2010PropOp56
 70
     1
102
RTVSPost2010Prop57
140
1.0
102
RTVSPost2010PropOp57
 70
     1
102
RTVSPropertyOp0
 70
     1
102
RTVSPropertyOp1
 70
     1
102
RTVSPropertyOp2
 70
     1
102
RTVSPropertyOp3
 70
     1
102
RTVSPropertyOp4
 70
     1
102
RTVSPropertyOp5
 70
     1
102
RTVSPropertyOp6
 70
     1
102
RTVSPropertyOp7
 70
     1
102
RTVSPropertyOp8
 70
     1
102
RTVSPropertyOp9
 70
     1
102
RTVSPropertyOp10
 70
     1
102
RTVSPropertyOp11
 70
     1
102
RTVSPropertyOp12
 70
     1
102
RTVSPropertyOp13
 70
     1
102
RTVSPropertyOp14
 70
     1
102
RTVSPropertyOp15
 70
     1
102
RTVSPropertyOp16
 70
     1
102
RTVSPropertyOp17
 70
     1
102
RTVSPropertyOp18
 70
     1
102
RTVSPropertyOp19
 70
     1
102
RTVSPropertyOp20
 70
     1
102
RTVSPropertyOp21
 70
     1
102
RTVSPropertyOp22
 70
     1
102
RTVSPropertyOp23
 70
     1
102
RTVSPropertyOp24
 70
     1
102
RTVSPropertyOp25
 70
     1
102
RTVSPropertyOp26
 70
     1
102
RTVSPropertyOp27
 70
     1
102
RTVSPropertyOp28
 70
     1
102
RTVSPropertyOp29
 70
     1
102
RTVSPropertyOp30
 70
     1
102
RTVSPropertyOp31
 70
     1
102
RTVSPropertyOp32
 70
     1
102
RTVSPropertyOp33
 70
     1
102
RTVSPropertyOp34
 70
     1
102
RTVSPropertyOp35
 70
     1
102
RTVSPropertyOp36
 70
     1
102
RTVSPropertyOp37
 70
     1
102
RTVSPropertyOp38
 70
     1
102
RTVSPropertyOp39
 70
     1
102
RTVSPropertyOp40
 70
     1
102
RTVSPropertyOp41
 70
     1
102
RTVSPropertyOp42
 70
     1
102
RTVSPropertyOp43
 70
     1
102
RTVSPropertyOp44
 70
     1
102
RTVSPropertyOp45
 70
     1
102
RTVSPropertyOp46
 70
     1
102
RTVSPropertyOp47
 70
     1
102
RTVSPropertyOp48
 70
     1
102
RTVSPropertyOp49
 70
     1
102
RTVSPropertyOp50
 70
     1
102
RTVSPropertyOp51
 70
     0
102
RTVSPropertyOp52
 70
     0
102
RTVSPropertyOp53
 70
     1
102
RTVSPropertyOp54
 70
     1
102
RTVSPropertyOp55
 70
     1
102
RTVSPropertyOp56
 70
     1
102
RTVSPropertyOp57
 70
     1
102
RTVSPropertyOp58
 70
     1
102
RTVSPropertyOp59
 70
     1
102
RTVSPropertyOp60
 70
     1
102
RTVSPropertyOp61
 70
     1
102
RTVSPropertyOp62
 70
     1
  0
XRECORD
  5
A19C
102
{ACAD_REACTORS
330
A19B
102
}
330
A19B
100
AcDbXrecord
280
     1
102
RTVSPost2010Prop28
280
     0
102
RTVSPost2010PropOp28
 70
     1
102
RTVSPost2010Prop29
280
     1
102
RTVSPost2010PropOp29
 70
     1
102
RTVSPost2010Prop30
280
     1
102
RTVSPost2010PropOp30
 70
     1
102
RTVSPost2010Prop31
280
     0
102
RTVSPost2010PropOp31
 70
     1
102
RTVSPost2010Prop32
280
     0
102
RTVSPost2010PropOp32
 70
     1
102
RTVSPost2010Prop33
280
     0
102
RTVSPost2010PropOp33
 70
     1
102
RTVSPost2010Prop34
280
     0
102
RTVSPost2010PropOp34
 70
     1
102
RTVSPost2010Prop35
280
     0
102
RTVSPost2010PropOp35
 70
     1
102
RTVSPost2010Prop36
280
     0
102
RTVSPost2010PropOp36
 70
     1
102
RTVSPost2010Prop37
 90
       50
102
RTVSPost2010PropOp37
 70
     1
102
RTVSPost2010Prop38
140
0.0
102
RTVSPost2010PropOp38
 70
     1
102
RTVSPost2010Prop39
140
1.0
102
RTVSPost2010PropOp39
 70
     1
102
RTVSPost2010Prop40
 90
        0
102
RTVSPost2010PropOp40
 70
     1
102
RTVSPost2010Prop41ColorIndex
 90
       18
102
RTVSPost2010Prop41ColorRGB
 90
        0
102
RTVSPost2010PropOp41
 70
     1
102
RTVSPost2010Prop42
 90
       50
102
RTVSPost2010PropOp42
 70
     1
102
RTVSPost2010Prop43
 90
        3
102
RTVSPost2010PropOp43
 70
     1
102
RTVSPost2010Prop44ColorIndex
 90
        5
102
RTVSPost2010Prop44ColorRGB
 90
      255
102
RTVSPost2010PropOp44
 70
     1
102
RTVSPost2010Prop45
280
     0
102
RTVSPost2010PropOp45
 70
     1
102
RTVSPost2010Prop46
 90
       50
102
RTVSPost2010PropOp46
 70
     1
102
RTVSPost2010Prop47
 90
       50
102
RTVSPost2010PropOp47
 70
     1
102
RTVSPost2010Prop48
 90
       50
102
RTVSPost2010PropOp48
 70
     1
102
RTVSPost2010Prop49
280
     0
102
RTVSPost2010PropOp49
 70
     1
102
RTVSPost2010Prop50
 90
       50
102
RTVSPost2010PropOp50
 70
     1
102
RTVSPost2010Prop51ColorIndex
 90
      256
102
RTVSPost2010Prop51ColorRGB
 90
-16777216
102
RTVSPost2010PropOp51
 70
     0
102
RTVSPost2010Prop52
140
1.0
102
RTVSPost2010PropOp52
 70
     0
102
RTVSPost2010Prop53
 90
        2
102
RTVSPost2010PropOp53
 70
     1
102
RTVSPost2010Prop54
  1
strokes_ogs.tif
102
RTVSPost2010PropOp54
 70
     1
102
RTVSPost2010Prop55
280
     0
102
RTVSPost2010PropOp55
 70
     1
102
RTVSPost2010Prop56
140
1.0
102
RTVSPost2010PropOp56
 70
     1
102
RTVSPost2010Prop57
140
1.0
102
RTVSPost2010PropOp57
 70
     1
102
RTVSPropertyOp0
 70
     1
102
RTVSPropertyOp1
 70
     1
102
RTVSPropertyOp2
 70
     1
102
RTVSPropertyOp3
 70
     1
102
RTVSPropertyOp4
 70
     1
102
RTVSPropertyOp5
 70
     1
102
RTVSPropertyOp6
 70
     1
102
RTVSPropertyOp7
 70
     1
102
RTVSPropertyOp8
 70
     1
102
RTVSPropertyOp9
 70
     1
102
RTVSPropertyOp10
 70
     1
102
RTVSPropertyOp11
 70
     1
102
RTVSPropertyOp12
 70
     1
102
RTVSPropertyOp13
 70
     1
102
RTVSPropertyOp14
 70
     1
102
RTVSPropertyOp15
 70
     1
102
RTVSPropertyOp16
 70
     1
102
RTVSPropertyOp17
 70
     1
102
RTVSPropertyOp18
 70
     1
102
RTVSPropertyOp19
 70
     1
102
RTVSPropertyOp20
 70
     1
102
RTVSPropertyOp21
 70
     1
102
RTVSPropertyOp22
 70
     1
102
RTVSPropertyOp23
 70
     1
102
RTVSPropertyOp24
 70
     1
102
RTVSPropertyOp25
 70
     1
102
RTVSPropertyOp26
 70
     1
102
RTVSPropertyOp27
 70
     1
102
RTVSPropertyOp28
 70
     1
102
RTVSPropertyOp29
 70
     1
102
RTVSPropertyOp30
 70
     1
102
RTVSPropertyOp31
 70
     1
102
RTVSPropertyOp32
 70
     1
102
RTVSPropertyOp33
 70
     1
102
RTVSPropertyOp34
 70
     1
102
RTVSPropertyOp35
 70
     1
102
RTVSPropertyOp36
 70
     1
102
RTVSPropertyOp37
 70
     1
102
RTVSPropertyOp38
 70
     1
102
RTVSPropertyOp39
 70
     1
102
RTVSPropertyOp40
 70
     1
102
RTVSPropertyOp41
 70
     1
102
RTVSPropertyOp42
 70
     1
102
RTVSPropertyOp43
 70
     1
102
RTVSPropertyOp44
 70
     1
102
RTVSPropertyOp45
 70
     1
102
RTVSPropertyOp46
 70
     1
102
RTVSPropertyOp47
 70
     1
102
RTVSPropertyOp48
 70
     1
102
RTVSPropertyOp49
 70
     1
102
RTVSPropertyOp50
 70
     1
102
RTVSPropertyOp51
 70
     0
102
RTVSPropertyOp52
 70
     0
102
RTVSPropertyOp53
 70
     1
102
RTVSPropertyOp54
 70
     1
102
RTVSPropertyOp55
 70
     1
102
RTVSPropertyOp56
 70
     1
102
RTVSPropertyOp57
 70
     1
102
RTVSPropertyOp58
 70
     1
102
RTVSPropertyOp59
 70
     1
102
RTVSPropertyOp60
 70
     1
102
RTVSPropertyOp61
 70
     1
102
RTVSPropertyOp62
 70
     1
  0
XRECORD
  5
A190
102
{ACAD_REACTORS
330
A18F
102
}
330
A18F
100
AcDbXrecord
280
     1
102
RTVSPost2010Prop28
280
     0
102
RTVSPost2010PropOp28
 70
     1
102
RTVSPost2010Prop29
280
     1
102
RTVSPost2010PropOp29
 70
     1
102
RTVSPost2010Prop30
280
     1
102
RTVSPost2010PropOp30
 70
     1
102
RTVSPost2010Prop31
280
     0
102
RTVSPost2010PropOp31
 70
     1
102
RTVSPost2010Prop32
280
     0
102
RTVSPost2010PropOp32
 70
     1
102
RTVSPost2010Prop33
280
     0
102
RTVSPost2010PropOp33
 70
     1
102
RTVSPost2010Prop34
280
     0
102
RTVSPost2010PropOp34
 70
     1
102
RTVSPost2010Prop35
280
     0
102
RTVSPost2010PropOp35
 70
     1
102
RTVSPost2010Prop36
280
     0
102
RTVSPost2010PropOp36
 70
     1
102
RTVSPost2010Prop37
 90
       50
102
RTVSPost2010PropOp37
 70
     1
102
RTVSPost2010Prop38
140
0.0
102
RTVSPost2010PropOp38
 70
     1
102
RTVSPost2010Prop39
140
1.0
102
RTVSPost2010PropOp39
 70
     1
102
RTVSPost2010Prop40
 90
        0
102
RTVSPost2010PropOp40
 70
     1
102
RTVSPost2010Prop41ColorIndex
 90
       18
102
RTVSPost2010Prop41ColorRGB
 90
        0
102
RTVSPost2010PropOp41
 70
     1
102
RTVSPost2010Prop42
 90
       50
102
RTVSPost2010PropOp42
 70
     1
102
RTVSPost2010Prop43
 90
        3
102
RTVSPost2010PropOp43
 70
     1
102
RTVSPost2010Prop44ColorIndex
 90
        5
102
RTVSPost2010Prop44ColorRGB
 90
      255
102
RTVSPost2010PropOp44
 70
     1
102
RTVSPost2010Prop45
280
     0
102
RTVSPost2010PropOp45
 70
     1
102
RTVSPost2010Prop46
 90
       50
102
RTVSPost2010PropOp46
 70
     1
102
RTVSPost2010Prop47
 90
       50
102
RTVSPost2010PropOp47
 70
     1
102
RTVSPost2010Prop48
 90
       50
102
RTVSPost2010PropOp48
 70
     1
102
RTVSPost2010Prop49
280
     0
102
RTVSPost2010PropOp49
 70
     1
102
RTVSPost2010Prop50
 90
       50
102
RTVSPost2010PropOp50
 70
     1
102
RTVSPost2010Prop51ColorIndex
 90
      256
102
RTVSPost2010Prop51ColorRGB
 90
-16777216
102
RTVSPost2010PropOp51
 70
     0
102
RTVSPost2010Prop52
140
1.0
102
RTVSPost2010PropOp52
 70
     0
102
RTVSPost2010Prop53
 90
        2
102
RTVSPost2010PropOp53
 70
     1
102
RTVSPost2010Prop54
  1
strokes_ogs.tif
102
RTVSPost2010PropOp54
 70
     1
102
RTVSPost2010Prop55
280
     0
102
RTVSPost2010PropOp55
 70
     1
102
RTVSPost2010Prop56
140
1.0
102
RTVSPost2010PropOp56
 70
     1
102
RTVSPost2010Prop57
140
1.0
102
RTVSPost2010PropOp57
 70
     1
102
RTVSPropertyOp0
 70
     1
102
RTVSPropertyOp1
 70
     1
102
RTVSPropertyOp2
 70
     1
102
RTVSPropertyOp3
 70
     1
102
RTVSPropertyOp4
 70
     1
102
RTVSPropertyOp5
 70
     1
102
RTVSPropertyOp6
 70
     1
102
RTVSPropertyOp7
 70
     1
102
RTVSPropertyOp8
 70
     1
102
RTVSPropertyOp9
 70
     1
102
RTVSPropertyOp10
 70
     1
102
RTVSPropertyOp11
 70
     1
102
RTVSPropertyOp12
 70
     1
102
RTVSPropertyOp13
 70
     1
102
RTVSPropertyOp14
 70
     1
102
RTVSPropertyOp15
 70
     1
102
RTVSPropertyOp16
 70
     1
102
RTVSPropertyOp17
 70
     1
102
RTVSPropertyOp18
 70
     1
102
RTVSPropertyOp19
 70
     1
102
RTVSPropertyOp20
 70
     1
102
RTVSPropertyOp21
 70
     1
102
RTVSPropertyOp22
 70
     1
102
RTVSPropertyOp23
 70
     1
102
RTVSPropertyOp24
 70
     1
102
RTVSPropertyOp25
 70
     1
102
RTVSPropertyOp26
 70
     1
102
RTVSPropertyOp27
 70
     1
102
RTVSPropertyOp28
 70
     1
102
RTVSPropertyOp29
 70
     1
102
RTVSPropertyOp30
 70
     1
102
RTVSPropertyOp31
 70
     1
102
RTVSPropertyOp32
 70
     1
102
RTVSPropertyOp33
 70
     1
102
RTVSPropertyOp34
 70
     1
102
RTVSPropertyOp35
 70
     1
102
RTVSPropertyOp36
 70
     1
102
RTVSPropertyOp37
 70
     1
102
RTVSPropertyOp38
 70
     1
102
RTVSPropertyOp39
 70
     1
102
RTVSPropertyOp40
 70
     1
102
RTVSPropertyOp41
 70
     1
102
RTVSPropertyOp42
 70
     1
102
RTVSPropertyOp43
 70
     1
102
RTVSPropertyOp44
 70
     1
102
RTVSPropertyOp45
 70
     1
102
RTVSPropertyOp46
 70
     1
102
RTVSPropertyOp47
 70
     1
102
RTVSPropertyOp48
 70
     1
102
RTVSPropertyOp49
 70
     1
102
RTVSPropertyOp50
 70
     1
102
RTVSPropertyOp51
 70
     0
102
RTVSPropertyOp52
 70
     0
102
RTVSPropertyOp53
 70
     1
102
RTVSPropertyOp54
 70
     1
102
RTVSPropertyOp55
 70
     1
102
RTVSPropertyOp56
 70
     1
102
RTVSPropertyOp57
 70
     1
102
RTVSPropertyOp58
 70
     1
102
RTVSPropertyOp59
 70
     1
102
RTVSPropertyOp60
 70
     1
102
RTVSPropertyOp61
 70
     1
102
RTVSPropertyOp62
 70
     1
  0
XRECORD
  5
A1A8
102
{ACAD_REACTORS
330
A1A7
102
}
330
A1A7
100
AcDbXrecord
280
     1
102
RTVSPost2010Prop28
280
     0
102
RTVSPost2010PropOp28
 70
     1
102
RTVSPost2010Prop29
280
     1
102
RTVSPost2010PropOp29
 70
     1
102
RTVSPost2010Prop30
280
     1
102
RTVSPost2010PropOp30
 70
     1
102
RTVSPost2010Prop31
280
     0
102
RTVSPost2010PropOp31
 70
     1
102
RTVSPost2010Prop32
280
     0
102
RTVSPost2010PropOp32
 70
     1
102
RTVSPost2010Prop33
280
     0
102
RTVSPost2010PropOp33
 70
     1
102
RTVSPost2010Prop34
280
     0
102
RTVSPost2010PropOp34
 70
     1
102
RTVSPost2010Prop35
280
     0
102
RTVSPost2010PropOp35
 70
     1
102
RTVSPost2010Prop36
280
     0
102
RTVSPost2010PropOp36
 70
     1
102
RTVSPost2010Prop37
 90
       50
102
RTVSPost2010PropOp37
 70
     1
102
RTVSPost2010Prop38
140
0.0
102
RTVSPost2010PropOp38
 70
     1
102
RTVSPost2010Prop39
140
1.0
102
RTVSPost2010PropOp39
 70
     1
102
RTVSPost2010Prop40
 90
        0
102
RTVSPost2010PropOp40
 70
     1
102
RTVSPost2010Prop41ColorIndex
 90
       18
102
RTVSPost2010Prop41ColorRGB
 90
        0
102
RTVSPost2010PropOp41
 70
     1
102
RTVSPost2010Prop42
 90
       50
102
RTVSPost2010PropOp42
 70
     1
102
RTVSPost2010Prop43
 90
        3
102
RTVSPost2010PropOp43
 70
     1
102
RTVSPost2010Prop44ColorIndex
 90
        5
102
RTVSPost2010Prop44ColorRGB
 90
      255
102
RTVSPost2010PropOp44
 70
     1
102
RTVSPost2010Prop45
280
     0
102
RTVSPost2010PropOp45
 70
     1
102
RTVSPost2010Prop46
 90
       50
102
RTVSPost2010PropOp46
 70
     1
102
RTVSPost2010Prop47
 90
       50
102
RTVSPost2010PropOp47
 70
     1
102
RTVSPost2010Prop48
 90
       50
102
RTVSPost2010PropOp48
 70
     1
102
RTVSPost2010Prop49
280
     0
102
RTVSPost2010PropOp49
 70
     1
102
RTVSPost2010Prop50
 90
       50
102
RTVSPost2010PropOp50
 70
     1
102
RTVSPost2010Prop51ColorIndex
 90
      256
102
RTVSPost2010Prop51ColorRGB
 90
-16777216
102
RTVSPost2010PropOp51
 70
     0
102
RTVSPost2010Prop52
140
1.0
102
RTVSPost2010PropOp52
 70
     0
102
RTVSPost2010Prop53
 90
        2
102
RTVSPost2010PropOp53
 70
     1
102
RTVSPost2010Prop54
  1
strokes_ogs.tif
102
RTVSPost2010PropOp54
 70
     1
102
RTVSPost2010Prop55
280
     0
102
RTVSPost2010PropOp55
 70
     1
102
RTVSPost2010Prop56
140
1.0
102
RTVSPost2010PropOp56
 70
     1
102
RTVSPost2010Prop57
140
1.0
102
RTVSPost2010PropOp57
 70
     1
102
RTVSPropertyOp0
 70
     1
102
RTVSPropertyOp1
 70
     1
102
RTVSPropertyOp2
 70
     1
102
RTVSPropertyOp3
 70
     1
102
RTVSPropertyOp4
 70
     1
102
RTVSPropertyOp5
 70
     1
102
RTVSPropertyOp6
 70
     1
102
RTVSPropertyOp7
 70
     1
102
RTVSPropertyOp8
 70
     1
102
RTVSPropertyOp9
 70
     1
102
RTVSPropertyOp10
 70
     1
102
RTVSPropertyOp11
 70
     1
102
RTVSPropertyOp12
 70
     1
102
RTVSPropertyOp13
 70
     1
102
RTVSPropertyOp14
 70
     1
102
RTVSPropertyOp15
 70
     1
102
RTVSPropertyOp16
 70
     1
102
RTVSPropertyOp17
 70
     1
102
RTVSPropertyOp18
 70
     1
102
RTVSPropertyOp19
 70
     1
102
RTVSPropertyOp20
 70
     1
102
RTVSPropertyOp21
 70
     1
102
RTVSPropertyOp22
 70
     1
102
RTVSPropertyOp23
 70
     1
102
RTVSPropertyOp24
 70
     1
102
RTVSPropertyOp25
 70
     1
102
RTVSPropertyOp26
 70
     1
102
RTVSPropertyOp27
 70
     1
102
RTVSPropertyOp28
 70
     1
102
RTVSPropertyOp29
 70
     1
102
RTVSPropertyOp30
 70
     1
102
RTVSPropertyOp31
 70
     1
102
RTVSPropertyOp32
 70
     1
102
RTVSPropertyOp33
 70
     1
102
RTVSPropertyOp34
 70
     1
102
RTVSPropertyOp35
 70
     1
102
RTVSPropertyOp36
 70
     1
102
RTVSPropertyOp37
 70
     1
102
RTVSPropertyOp38
 70
     1
102
RTVSPropertyOp39
 70
     1
102
RTVSPropertyOp40
 70
     1
102
RTVSPropertyOp41
 70
     1
102
RTVSPropertyOp42
 70
     1
102
RTVSPropertyOp43
 70
     1
102
RTVSPropertyOp44
 70
     1
102
RTVSPropertyOp45
 70
     1
102
RTVSPropertyOp46
 70
     1
102
RTVSPropertyOp47
 70
     1
102
RTVSPropertyOp48
 70
     1
102
RTVSPropertyOp49
 70
     1
102
RTVSPropertyOp50
 70
     1
102
RTVSPropertyOp51
 70
     0
102
RTVSPropertyOp52
 70
     0
102
RTVSPropertyOp53
 70
     1
102
RTVSPropertyOp54
 70
     1
102
RTVSPropertyOp55
 70
     1
102
RTVSPropertyOp56
 70
     1
102
RTVSPropertyOp57
 70
     1
102
RTVSPropertyOp58
 70
     1
102
RTVSPropertyOp59
 70
     1
102
RTVSPropertyOp60
 70
     1
102
RTVSPropertyOp61
 70
     1
102
RTVSPropertyOp62
 70
     1
  0
ENDSEC
  0
EOF
