  0
SECTION
  2
HEADER
  9
$ACADVER
  1
AC1015
  9
$ACADMAINTVER
 70
    20
  9
$DWGCODEPAGE
  3
ANSI_932
  9
$INSBASE
 10
0.0
 20
0.0
 30
0.0
  9
$EXTMIN
 10
10.0
 20
9.999999999999998
 30
0.0
  9
$EXTMAX
 10
622.220223
 20
501.4594929999996
 30
0.0
  9
$LIMMIN
 10
0.0
 20
0.0
  9
$LIMMAX
 10
792.0
 20
546.0
  9
$ORTHOMODE
 70
     1
  9
$REGENMODE
 70
     1
  9
$FILLMODE
 70
     1
  9
$QTEXTMODE
 70
     0
  9
$MIRRTEXT
 70
     1
  9
$LTSCALE
 40
20.0
  9
$ATTMODE
 70
     1
  9
$TEXTSIZE
 40
5.0
  9
$TRACEWID
 40
1.0
  9
$TEXTSTYLE
  7
STANDARD
  9
$CLAYER
  8
0
  9
$CELTYPE
  6
BYLAYER
  9
$CECOLOR
 62
   256
  9
$CELTSCALE
 40
1.0
  9
$DISPSILH
 70
     0
  9
$DIMSCALE
 40
1.0
  9
$DIMASZ
 40
2.5
  9
$DIMEXO
 40
1.0
  9
$DIMDLI
 40
10.0
  9
$DIMRND
 40
0.0
  9
$DIMDLE
 40
0.0
  9
$DIMEXE
 40
1.0
  9
$DIMTP
 40
0.0
  9
$DIMTM
 40
0.0
  9
$DIMTXT
 40
3.2
  9
$DIMCEN
 40
0.0
  9
$DIMTSZ
 40
0.0
  9
$DIMTOL
 70
     0
  9
$DIMLIM
 70
     0
  9
$DIMTIH
 70
     0
  9
$DIMTOH
 70
     0
  9
$DIMSE1
 70
     0
  9
$DIMSE2
 70
     0
  9
$DIMTAD
 70
     3
  9
$DIMZIN
 70
     8
  9
$DIMBLK
  1

  9
$DIMASO
 70
     1
  9
$DIMSHO
 70
     1
  9
$DIMPOST
  1

  9
$DIMAPOST
  1

  9
$DIMALT
 70
     0
  9
$DIMALTD
 70
     2
  9
$DIMALTF
 40
25.4
  9
$DIMLFAC
 40
1.0
  9
$DIMTOFL
 70
     1
  9
$DIMTVP
 40
0.0
  9
$DIMTIX
 70
     0
  9
$DIMSOXD
 70
     0
  9
$DIMSAH
 70
     1
  9
$DIMBLK1
  1

  9
$DIMBLK2
  1

  9
$DIMSTYLE
  2
STANDARD
  9
$DIMCLRD
 70
     0
  9
$DIMCLRE
 70
     0
  9
$DIMCLRT
 70
     0
  9
$DIMTFAC
 40
1.0
  9
$DIMGAP
 40
1.0
  9
$DIMJUST
 70
     0
  9
$DIMSD1
 70
     0
  9
$DIMSD2
 70
     0
  9
$DIMTOLJ
 70
     1
  9
$DIMTZIN
 70
     0
  9
$DIMALTZ
 70
     0
  9
$DIMALTTZ
 70
     0
  9
$DIMUPT
 70
     0
  9
$DIMDEC
 70
     4
  9
$DIMTDEC
 70
     4
  9
$DIMALTU
 70
     2
  9
$DIMALTTD
 70
     2
  9
$DIMTXSTY
  7
STANDARD
  9
$DIMAUNIT
 70
     0
  9
$DIMADEC
 70
     0
  9
$DIMALTRND
 40
0.0
  9
$DIMAZIN
 70
     0
  9
$DIMDSEP
 70
    46
  9
$DIMATFIT
 70
     3
  9
$DIMFRAC
 70
     0
  9
$DIMLDRBLK
  1

  9
$DIMLUNIT
 70
     2
  9
$DIMLWD
 70
    -2
  9
$DIMLWE
 70
    -2
  9
$DIMTMOVE
 70
     0
  9
$LUNITS
 70
     2
  9
$LUPREC
 70
     4
  9
$SKETCHINC
 40
1.0
  9
$FILLETRAD
 40
4.0
  9
$AUNITS
 70
     0
  9
$AUPREC
 70
     2
  9
$MENU
  1
.
  9
$ELEVATION
 40
0.0
  9
$PELEVATION
 40
0.0
  9
$THICKNESS
 40
0.0
  9
$LIMCHECK
 70
     0
  9
$CHAMFERA
 40
10.0
  9
$CHAMFERB
 40
10.0
  9
$CHAMFERC
 40
0.0
  9
$CHAMFERD
 40
0.0
  9
$SKPOLY
 70
     0
  9
$TDCREATE
 40
2451301.435468750
  9
$TDUCREATE
 40
2451301.060468750
  9
$TDUPDATE
 40
2457192.690055625
  9
$TDUUPDATE
 40
2457192.315055625
  9
$TDINDWG
 40
0.1454373495
  9
$TDUSRTIMER
 40
0.1454370370
  9
$USRTIMER
 70
     1
  9
$ANGBASE
 50
0.0
  9
$ANGDIR
 70
     0
  9
$PDMODE
 70
     0
  9
$PDSIZE
 40
0.0
  9
$PLINEWID
 40
0.0
  9
$SPLFRAME
 70
     0
  9
$SPLINETYPE
 70
     6
  9
$SPLINESEGS
 70
     8
  9
$HANDSEED
  5
A688
  9
$SURFTAB1
 70
     6
  9
$SURFTAB2
 70
     6
  9
$SURFTYPE
 70
     6
  9
$SURFU
 70
     6
  9
$SURFV
 70
     6
  9
$UCSBASE
  2

  9
$UCSNAME
  2

  9
$UCSORG
 10
0.0
 20
0.0
 30
0.0
  9
$UCSXDIR
 10
1.0
 20
0.0
 30
0.0
  9
$UCSYDIR
 10
0.0
 20
1.0
 30
0.0
  9
$UCSORTHOREF
  2

  9
$UCSORTHOVIEW
 70
     0
  9
$UCSORGTOP
 10
0.0
 20
0.0
 30
0.0
  9
$UCSORGBOTTOM
 10
0.0
 20
0.0
 30
0.0
  9
$UCSORGLEFT
 10
0.0
 20
0.0
 30
0.0
  9
$UCSORGRIGHT
 10
0.0
 20
0.0
 30
0.0
  9
$UCSORGFRONT
 10
0.0
 20
0.0
 30
0.0
  9
$UCSORGBACK
 10
0.0
 20
0.0
 30
0.0
  9
$PUCSBASE
  2

  9
$PUCSNAME
  2

  9
$PUCSORG
 10
0.0
 20
0.0
 30
0.0
  9
$PUCSXDIR
 10
1.0
 20
0.0
 30
0.0
  9
$PUCSYDIR
 10
0.0
 20
1.0
 30
0.0
  9
$PUCSORTHOREF
  2

  9
$PUCSORTHOVIEW
 70
     0
  9
$PUCSORGTOP
 10
0.0
 20
0.0
 30
0.0
  9
$PUCSORGBOTTOM
 10
0.0
 20
0.0
 30
0.0
  9
$PUCSORGLEFT
 10
0.0
 20
0.0
 30
0.0
  9
$PUCSORGRIGHT
 10
0.0
 20
0.0
 30
0.0
  9
$PUCSORGFRONT
 10
0.0
 20
0.0
 30
0.0
  9
$PUCSORGBACK
 10
0.0
 20
0.0
 30
0.0
  9
$USERI1
 70
     0
  9
$USERI2
 70
     0
  9
$USERI3
 70
     0
  9
$USERI4
 70
     0
  9
$USERI5
 70
     0
  9
$USERR1
 40
0.0
  9
$USERR2
 40
0.0
  9
$USERR3
 40
0.0
  9
$USERR4
 40
0.0
  9
$USERR5
 40
0.0
  9
$WORLDVIEW
 70
     1
  9
$SHADEDGE
 70
     3
  9
$SHADEDIF
 70
    70
  9
$TILEMODE
 70
     1
  9
$MAXACTVP
 70
    16
  9
$PINSBASE
 10
0.0
 20
0.0
 30
0.0
  9
$PLIMCHECK
 70
     0
  9
$PEXTMIN
 10
1.000000000000000E+20
 20
1.000000000000000E+20
 30
1.000000000000000E+20
  9
$PEXTMAX
 10
-1.000000000000000E+20
 20
-1.000000000000000E+20
 30
-1.000000000000000E+20
  9
$PLIMMIN
 10
0.0
 20
0.0
  9
$PLIMMAX
 10
420.0
 20
297.0
  9
$UNITMODE
 70
     0
  9
$VISRETAIN
 70
     0
  9
$PLINEGEN
 70
     0
  9
$PSLTSCALE
 70
     0
  9
$TREEDEPTH
 70
  3020
  9
$CMLSTYLE
  2
STANDARD
  9
$CMLJUST
 70
     0
  9
$CMLSCALE
 40
1.0
  9
$PROXYGRAPHICS
 70
     1
  9
$MEASUREMENT
 70
     0
  9
$CELWEIGHT
370
    -1
  9
$ENDCAPS
280
     0
  9
$JOINSTYLE
280
     0
  9
$LWDISPLAY
290
     0
  9
$INSUNITS
 70
     0
  9
$HYPERLINKBASE
  1

  9
$STYLESHEET
  1

  9
$XEDIT
290
     1
  9
$CEPSNTYPE
380
     0
  9
$PSTYLEMODE
290
     1
  9
$FINGERPRINTGUID
  2
{E2B56DB0-3B3C-4ADE-8B3A-2A7CE7353785}
  9
$VERSIONGUID
  2
{B61EC964-C6F6-4430-9A90-9A50FC4736CA}
  9
$EXTNAMES
290
     1
  9
$PSVPSCALE
 40
0.0
  9
$OLESTARTUP
290
     0
  0
ENDSEC
  0
SECTION
  2
CLASSES
  0
CLASS
  1
ACDBDICTIONARYWDFLT
  2
AcDbDictionaryWithDefault
  3
ObjectDBX Classes
 90
        0
280
     0
281
     0
  0
CLASS
  1
ACDBPLACEHOLDER
  2
AcDbPlaceHolder
  3
ObjectDBX Classes
 90
        0
280
     0
281
     0
  0
CLASS
  1
LAYOUT
  2
AcDbLayout
  3
ObjectDBX Classes
 90
        0
280
     0
281
     0
  0
CLASS
  1
DICTIONARYVAR
  2
AcDbDictionaryVar
  3
ObjectDBX Classes
 90
        0
280
     0
281
     0
  0
CLASS
  1
MATERIAL
  2
AcDbMaterial
  3
ObjectDBX Classes
 90
     1153
280
     0
281
     0
  0
CLASS
  1
VISUALSTYLE
  2
AcDbVisualStyle
  3
ObjectDBX Classes
 90
     4095
280
     0
281
     0
  0
CLASS
  1
TABLESTYLE
  2
AcDbTableStyle
  3
ObjectDBX Classes
 90
     4095
280
     0
281
     0
  0
CLASS
  1
SCALE
  2
AcDbScale
  3
ObjectDBX Classes
 90
     1153
280
     0
281
     0
  0
CLASS
  1
MLEADERSTYLE
  2
AcDbMLeaderStyle
  3
ACDB_MLEADERSTYLE_CLASS
 90
     4095
280
     0
281
     0
  0
CLASS
  1
ACDBSECTIONVIEWSTYLE
  2
AcDbSectionViewStyle
  3
ObjectDBX Classes
 90
     1025
280
     0
281
     0
  0
CLASS
  1
ACDBDETAILVIEWSTYLE
  2
AcDbDetailViewStyle
  3
ObjectDBX Classes
 90
     1025
280
     0
281
     0
  0
CLASS
  1
CELLSTYLEMAP
  2
AcDbCellStyleMap
  3
ObjectDBX Classes
 90
     1152
280
     0
281
     0
  0
ENDSEC
  0
SECTION
  2
TABLES
  0
TABLE
  2
VPORT
  5
A356
330
0
100
AcDbSymbolTable
 70
     1
  0
VPORT
  5
A5D3
330
A356
100
AcDbSymbolTableRecord
100
AcDbViewportTableRecord
  2
*ACTIVE
 70
     0
 10
0.0
 20
0.0
 11
1.0
 21
1.0
 12
505.267980398449
 22
255.7333844298651
 13
0.0
 23
0.0
 14
10.0
 24
10.0
 15
10.0
 25
10.0
 16
0.0
 26
0.0
 36
1.0
 17
0.0
 27
0.0
 37
0.0
 40
495.385276730492
 41
2.35006605019815
 42
50.0
 43
0.0
 44
0.0
 50
0.0
 51
0.0
 71
     0
 72
   100
 73
     1
 74
     0
 75
     0
 76
     0
 77
     0
 78
     0
281
     0
 65
     1
110
0.0
120
0.0
130
0.0
111
1.0
121
0.0
131
0.0
112
0.0
122
1.0
132
0.0
 79
     0
146
0.0
1001
ACAD_NAV_VCDISPLAY
1070
     3
  0
ENDTAB
  0
TABLE
  2
LTYPE
  5
A353
330
0
100
AcDbSymbolTable
 70
     4
  0
LTYPE
  5
A361
330
A353
100
AcDbSymbolTableRecord
100
AcDbLinetypeTableRecord
  2
BYBLOCK
 70
     0
  3

 72
    65
 73
     0
 40
0.0
  0
LTYPE
  5
A362
330
A353
100
AcDbSymbolTableRecord
100
AcDbLinetypeTableRecord
  2
BYLAYER
 70
     0
  3

 72
    65
 73
     0
 40
0.0
  0
LTYPE
  5
A363
330
A353
100
AcDbSymbolTableRecord
100
AcDbLinetypeTableRecord
  2
CONTINUOUS
 70
     0
  3
Solid line
 72
    65
 73
     0
 40
0.0
  0
LTYPE
  5
A371
330
A353
100
AcDbSymbolTableRecord
100
AcDbLinetypeTableRecord
  2
DASHED
 70
     0
  3
__ __ __ __ __ __ __ __ __ __ __ __ __ __ __ __
 72
    65
 73
     2
 40
0.75
 49
0.5
 74
     0
 49
-0.25
 74
     0
  0
LTYPE
  5
A372
330
A353
100
AcDbSymbolTableRecord
100
AcDbLinetypeTableRecord
  2
CENTER
 70
     0
  3
____ _ ____ _ ____ _ ____ _ ____ _ ____ _ ____ 
 72
    65
 73
     4
 40
2.0
 49
1.25
 74
     0
 49
-0.25
 74
     0
 49
0.25
 74
     0
 49
-0.25
 74
     0
  0
LTYPE
  5
A373
330
A353
100
AcDbSymbolTableRecord
100
AcDbLinetypeTableRecord
  2
PHANTOM
 70
     0
  3
______  __  __  ______  __  __  ______  __  __ 
 72
    65
 73
     6
 40
2.5
 49
1.25
 74
     0
 49
-0.25
 74
     0
 49
0.25
 74
     0
 49
-0.25
 74
     0
 49
0.25
 74
     0
 49
-0.25
 74
     0
  0
ENDTAB
  0
TABLE
  2
LAYER
  5
A350
330
0
100
AcDbSymbolTable
 70
     8
  0
LAYER
  5
A35E
102
{ACAD_XDICTIONARY
360
A62C
102
}
330
A350
100
AcDbSymbolTableRecord
100
AcDbLayerTableRecord
  2
0
 70
     0
 62
     7
  6
CONTINUOUS
370
    -3
390
A5DA
  0
LAYER
  5
A374
102
{ACAD_XDICTIONARY
360
A62E
102
}
330
A350
100
AcDbSymbolTableRecord
100
AcDbLayerTableRecord
  2
4
 70
     0
 62
     1
  6
CENTER
370
    -3
390
A5DA
  0
LAYER
  5
A375
102
{ACAD_XDICTIONARY
360
A630
102
}
330
A350
100
AcDbSymbolTableRecord
100
AcDbLayerTableRecord
  2
5
 70
     0
 62
     6
  6
PHANTOM
370
    -3
390
A5DA
  0
LAYER
  5
A376
102
{ACAD_XDICTIONARY
360
A632
102
}
330
A350
100
AcDbSymbolTableRecord
100
AcDbLayerTableRecord
  2
1
 70
     0
 62
     7
  6
CONTINUOUS
370
    -3
390
A5DA
  0
LAYER
  5
A377
102
{ACAD_XDICTIONARY
360
A634
102
}
330
A350
100
AcDbSymbolTableRecord
100
AcDbLayerTableRecord
  2
2
 70
     0
 62
     4
  6
CONTINUOUS
370
    -3
390
A5DA
  0
LAYER
  5
A378
102
{ACAD_XDICTIONARY
360
A636
102
}
330
A350
100
AcDbSymbolTableRecord
100
AcDbLayerTableRecord
  2
3
 70
     0
 62
     2
  6
DASHED
370
    -3
390
A5DA
  0
LAYER
  5
A379
102
{ACAD_XDICTIONARY
360
A638
102
}
330
A350
100
AcDbSymbolTableRecord
100
AcDbLayerTableRecord
  2
6
 70
     0
 62
     5
  6
CONTINUOUS
370
    -3
390
A5DA
  0
LAYER
  5
A37A
102
{ACAD_XDICTIONARY
360
A63A
102
}
330
A350
100
AcDbSymbolTableRecord
100
AcDbLayerTableRecord
  2
7
 70
     0
 62
     3
  6
CONTINUOUS
370
    -3
390
A5DA
  0
ENDTAB
  0
TABLE
  2
STYLE
  5
A351
330
0
100
AcDbSymbolTable
 70
     1
  0
STYLE
  5
A35F
330
A351
100
AcDbSymbolTableRecord
100
AcDbTextStyleTableRecord
  2
STANDARD
 70
     0
 40
0.0
 41
1.0
 50
0.0
 71
     0
 42
5.0
  3
txt
  4

  0
ENDTAB
  0
TABLE
  2
VIEW
  5
A354
330
0
100
AcDbSymbolTable
 70
     0
  0
ENDTAB
  0
TABLE
  2
UCS
  5
A355
330
0
100
AcDbSymbolTable
 70
     0
  0
ENDTAB
  0
TABLE
  2
APPID
  5
A357
330
0
100
AcDbSymbolTable
 70
     3
  0
APPID
  5
A360
330
A357
100
AcDbSymbolTableRecord
100
AcDbRegAppTableRecord
  2
ACAD
 70
     0
  0
APPID
  5
A646
330
A357
100
AcDbSymbolTableRecord
100
AcDbRegAppTableRecord
  2
ACAD_NAV_VCDISPLAY
 70
     0
  0
APPID
  5
A67F
330
A357
100
AcDbSymbolTableRecord
100
AcDbRegAppTableRecord
  2
ACAD_MLEADERVER
 70
     0
  0
ENDTAB
  0
TABLE
  2
DIMSTYLE
  5
A358
330
0
100
AcDbSymbolTable
 70
     1
100
AcDbDimStyleTable
 71
     0
  0
DIMSTYLE
105
A37C
330
A358
100
AcDbSymbolTableRecord
100
AcDbDimStyleTableRecord
  2
STANDARD
 70
     0
 41
2.5
 42
1.0
 43
10.0
 44
1.0
 73
     0
 74
     0
 77
     3
 78
     8
140
3.2
141
0.0
147
1.0
172
     1
173
     1
284
     8
285
     8
286
     8
340
A35F
  0
ENDTAB
  0
TABLE
  2
BLOCK_RECORD
  5
A34F
330
0
100
AcDbSymbolTable
 70
     0
  0
BLOCK_RECORD
  5
A36C
102
{ACAD_XDICTIONARY
360
A5B9
102
}
330
A34F
100
AcDbSymbolTableRecord
100
AcDbBlockTableRecord
  2
*MODEL_SPACE
340
A628
  0
BLOCK_RECORD
  5
A368
102
{ACAD_XDICTIONARY
360
A5B7
102
}
330
A34F
100
AcDbSymbolTableRecord
100
AcDbBlockTableRecord
  2
*PAPER_SPACE
340
A629
  0
ENDTAB
  0
ENDSEC
  0
SECTION
  2
BLOCKS
  0
BLOCK
  5
A36D
330
A36C
100
AcDbEntity
  8
0
100
AcDbBlockBegin
  2
*MODEL_SPACE
 70
     0
 10
0.0
 20
0.0
 30
0.0
  3
*MODEL_SPACE
  1

  0
ENDBLK
  5
A36E
330
A36C
100
AcDbEntity
  8
0
100
AcDbBlockEnd
  0
BLOCK
  5
A369
330
A368
100
AcDbEntity
 67
     1
  8
0
100
AcDbBlockBegin
  2
*PAPER_SPACE
 70
     0
 10
0.0
 20
0.0
 30
0.0
  3
*PAPER_SPACE
  1

  0
ENDBLK
  5
A36A
330
A368
100
AcDbEntity
 67
     1
  8
0
100
AcDbBlockEnd
  0
ENDSEC
  0
SECTION
  2
ENTITIES
  0
TEXT
  5
A384
330
A36C
100
AcDbEntity
  8
7
  6
Continuous
100
AcDbText
 10
10.0
 20
18.0
 30
0.0
 40
3.0
  1
TYPE No.TCA-420EA-N125
100
AcDbText
  0
TEXT
  5
A385
330
A36C
100
AcDbEntity
  8
7
  6
Continuous
100
AcDbText
 10
10.0
 20
26.0
 30
0.0
 40
3.0
  1
CODE No.9775
100
AcDbText
  0
TEXT
  5
A386
330
A36C
100
AcDbEntity
  8
1
  6
Continuous
100
AcDbText
 10
10.0
 20
10.0
 30
0.0
 40
1.399999999999999
  1
LAYER
100
AcDbText
  0
TEXT
  5
A387
330
A36C
100
AcDbEntity
  8
1
  6
Continuous
100
AcDbText
 10
17.97951099999998
 20
10.04873699999998
 30
0.0
 40
1.399999999999999
  1
1
100
AcDbText
  0
TEXT
  5
A388
330
A36C
100
AcDbEntity
  8
7
  6
Continuous
100
AcDbText
 10
29.97951099999999
 20
10.04873699999998
 30
0.0
 40
1.399999999999999
  1
7
100
AcDbText
  0
TEXT
  5
A389
330
A36C
100
AcDbEntity
  8
4
  6
CENTER
100
AcDbText
 10
23.97951099999999
 20
10.04873699999998
 30
0.0
 40
1.399999999999999
  1
4
100
AcDbText
  0
TEXT
  5
A38A
330
A36C
100
AcDbEntity
  8
3
  6
DASHED
100
AcDbText
 10
21.979511
 20
10.04873699999998
 30
0.0
 40
1.399999999999999
  1
3
100
AcDbText
  0
TEXT
  5
A38B
330
A36C
100
AcDbEntity
  8
2
  6
Continuous
100
AcDbText
 10
19.97951099999998
 20
10.04873699999998
 30
0.0
 40
1.399999999999999
  1
2
100
AcDbText
  0
TEXT
  5
A38C
330
A36C
100
AcDbEntity
  8
6
  6
Continuous
100
AcDbText
 10
27.979511
 20
10.04873699999998
 30
0.0
 40
1.399999999999999
  1
6
100
AcDbText
  0
TEXT
  5
A38D
330
A36C
100
AcDbEntity
  8
5
  6
PHANTOM
100
AcDbText
 10
25.97951099999999
 20
10.04873699999998
 30
0.0
 40
1.399999999999999
  1
5
100
AcDbText
  0
LINE
  5
A38E
330
A36C
100
AcDbEntity
  8
4
  6
CENTER
100
AcDbLine
 10
57.22022299999999
 20
372.8716129999999
 30
0.0
 11
57.22022299999999
 21
170.871609
 31
0.0
  0
LINE
  5
A38F
330
A36C
100
AcDbEntity
  8
4
  6
CENTER
100
AcDbLine
 10
151.2202229999999
 20
468.1595029999998
 30
0.0
 11
293.7202229999999
 21
468.1595029999998
 31
0.0
  0
LINE
  5
A390
330
A36C
100
AcDbEntity
  8
4
  6
CENTER
100
AcDbLine
 10
260.7202229999999
 20
501.1595029999998
 30
0.0
 11
260.7202229999999
 21
435.1595029999998
 31
0.0
  0
LINE
  5
A391
330
A36C
100
AcDbEntity
  8
4
  6
CENTER
100
AcDbLine
 10
260.7202229999999
 20
40.87160899999996
 30
0.0
 11
260.7202229999999
 21
106.8716089999999
 31
0.0
  0
LINE
  5
A392
330
A36C
100
AcDbEntity
  8
4
  6
CENTER
100
AcDbLine
 10
151.2202229999999
 20
73.87160899999997
 30
0.0
 11
293.7202229999999
 21
73.87160899999997
 31
0.0
  0
LINE
  5
A393
330
A36C
100
AcDbEntity
  8
4
  6
CENTER
100
AcDbLine
 10
221.720223
 20
304.453911
 30
0.0
 11
221.720223
 21
167.8716089999998
 31
0.0
  0
LINE
  5
A394
330
A36C
100
AcDbEntity
  8
4
  6
CENTER
100
AcDbLine
 10
260.7202229999999
 20
372.8716129999999
 30
0.0
 11
260.7202229999999
 21
269.604939
 31
0.0
  0
LINE
  5
A395
330
A36C
100
AcDbEntity
  8
1
  6
Continuous
100
AcDbLine
 10
239.7202229999999
 20
306.771612
 30
0.0
 11
239.7202229999999
 21
254.3716089999997
 31
0.0
  0
LINE
  5
A396
330
A36C
100
AcDbEntity
  8
1
  6
Continuous
100
AcDbLine
 10
231.311406
 20
232.985485
 30
0.0
 11
268.6364299999999
 21
299.450985
 31
0.0
  0
LINE
  5
A397
330
A36C
100
AcDbEntity
  8
1
  6
Continuous
100
AcDbLine
 10
210.747018
 20
239.138924
 30
0.0
 11
215.3037669999999
 21
304.3034329999998
 31
0.0
  0
LINE
  5
A398
330
A36C
100
AcDbEntity
  8
4
  6
CENTER
100
AcDbLine
 10
151.2202229999997
 20
238.3716089999999
 30
0.0
 11
292.2202229999998
 21
238.3716089999999
 31
0.0
  0
CIRCLE
  5
A399
330
A36C
100
AcDbEntity
  8
1
  6
Continuous
100
AcDbCircle
 10
221.720223
 20
238.3716089999999
 30
0.0
 40
6.25
  0
ARC
  5
A39A
330
A36C
100
AcDbEntity
  8
1
  6
Continuous
100
AcDbCircle
 10
221.720223
 20
238.3716089999999
 30
0.0
 40
11.0
100
AcDbArc
 50
176.00003
 51
330.68273
  0
CIRCLE
  5
A39B
330
A36C
100
AcDbEntity
  8
1
  6
Continuous
100
AcDbCircle
 10
221.720223
 20
238.3716089999999
 30
0.0
 40
1.5
  0
LINE
  5
A39C
330
A36C
100
AcDbEntity
  8
1
  6
Continuous
100
AcDbLine
 10
240.720223
 20
315.971604
 30
0.0
 11
280.7202229999999
 21
315.971604
 31
0.0
  0
LINE
  5
A39D
330
A36C
100
AcDbEntity
  8
1
  6
Continuous
100
AcDbLine
 10
209.720223
 20
306.471606
 30
0.0
 11
238.5617429999999
 21
311.557144
 31
0.0
  0
LINE
  5
A39E
330
A36C
100
AcDbEntity
  8
1
  6
Continuous
100
AcDbLine
 10
210.119614
 20
304.206547
 30
0.0
 11
214.1011289999999
 21
304.9085959999998
 31
0.0
  0
LINE
  5
A39F
330
A36C
100
AcDbEntity
  8
1
  6
Continuous
100
AcDbLine
 10
209.720223
 20
306.471606
 30
0.0
 11
210.119614
 21
304.206547
 31
0.0
  0
ARC
  5
A3A0
330
A36C
100
AcDbEntity
  8
1
  6
Continuous
100
AcDbCircle
 10
214.274777
 20
303.9237879999999
 30
0.0
 40
1.0
100
AcDbArc
 50
356.0
 51
100.00001
  0
ARC
  5
A3A1
330
A36C
100
AcDbEntity
  8
1
  6
Continuous
100
AcDbCircle
 10
212.809857
 20
304.4778239999998
 30
0.0
 40
2.5
100
AcDbArc
 50
356.0
 51
100.0000199999999
  0
ARC
  5
A3A2
330
A36C
100
AcDbEntity
  8
1
  6
Continuous
100
AcDbCircle
 10
242.920197
 20
317.449612
 30
0.0
 40
2.778
100
AcDbArc
 50
189.9080999999999
 51
212.1433699999999
  0
ARC
  5
A3A3
330
A36C
100
AcDbEntity
  8
1
  6
Continuous
100
AcDbCircle
 10
250.2790529999999
 20
317.449612
 30
0.0
 40
2.778
100
AcDbArc
 50
189.9080999999999
 51
212.1434
  0
ARC
  5
A3A4
330
A36C
100
AcDbEntity
  8
1
  6
Continuous
100
AcDbCircle
 10
246.3430789999999
 20
317.449612
 30
0.0
 40
2.778
100
AcDbArc
 50
189.9080999999999
 51
212.1434
  0
ARC
  5
A3A5
330
A36C
100
AcDbEntity
  8
1
  6
Continuous
100
AcDbCircle
 10
243.807839
 20
317.449612
 30
0.0
 40
2.778
100
AcDbArc
 50
189.9080999999999
 51
212.1433699999999
  0
LINE
  5
A3A6
330
A36C
100
AcDbEntity
  8
1
  6
Continuous
100
AcDbLine
 10
281.69571
 20
307.071608
 30
0.0
 11
285.720223
 21
307.071608
 31
0.0
  0
ARC
  5
A3A7
330
A36C
100
AcDbEntity
  8
1
  6
Continuous
100
AcDbCircle
 10
281.69571
 20
292.071608
 30
0.0
 40
15.0
100
AcDbArc
 50
89.99998199999996
 51
150.68277
  0
ARC
  5
A3A8
330
A36C
100
AcDbEntity
  8
1
  6
Continuous
100
AcDbCircle
 10
260.7202079999999
 20
317.449612
 30
0.0
 40
2.778
100
AcDbArc
 50
327.8565799999999
 51
350.09193
  0
ARC
  5
A3A9
330
A36C
100
AcDbEntity
  8
1
  6
Continuous
100
AcDbCircle
 10
266.208123
 20
317.449612
 30
0.0
 40
2.778
100
AcDbArc
 50
189.90804
 51
212.1434
  0
ARC
  5
A3AA
330
A36C
100
AcDbEntity
  8
1
  6
Continuous
100
AcDbCircle
 10
260.7202079999999
 20
317.449612
 30
0.0
 40
2.778
100
AcDbArc
 50
189.9080999999999
 51
212.1434
  0
ARC
  5
A3AB
330
A36C
100
AcDbEntity
  8
1
  6
Continuous
100
AcDbCircle
 10
255.232293
 20
317.449612
 30
0.0
 40
2.778
100
AcDbArc
 50
189.9080999999999
 51
212.1434
  0
ARC
  5
A3AC
330
A36C
100
AcDbEntity
  8
1
  6
Continuous
100
AcDbCircle
 10
255.232293
 20
317.449612
 30
0.0
 40
2.778
100
AcDbArc
 50
327.8565799999999
 51
350.0919899999999
  0
ARC
  5
A3AD
330
A36C
100
AcDbEntity
  8
1
  6
Continuous
100
AcDbCircle
 10
278.520218
 20
317.449612
 30
0.0
 40
2.778
100
AcDbArc
 50
327.85663
 51
350.09193
  0
ARC
  5
A3AE
330
A36C
100
AcDbEntity
  8
1
  6
Continuous
100
AcDbCircle
 10
275.0973359999999
 20
317.449612
 30
0.0
 40
2.778
100
AcDbArc
 50
327.85663
 51
350.09193
  0
ARC
  5
A3AF
330
A36C
100
AcDbEntity
  8
1
  6
Continuous
100
AcDbCircle
 10
277.632577
 20
317.449612
 30
0.0
 40
2.778
100
AcDbArc
 50
327.85663
 51
350.09193
  0
ARC
  5
A3B0
330
A36C
100
AcDbEntity
  8
1
  6
Continuous
100
AcDbCircle
 10
266.208123
 20
317.449612
 30
0.0
 40
2.778
100
AcDbArc
 50
327.8565799999999
 51
350.09193
  0
ARC
  5
A3B1
330
A36C
100
AcDbEntity
  8
1
  6
Continuous
100
AcDbCircle
 10
271.161362
 20
317.449612
 30
0.0
 40
2.778
100
AcDbArc
 50
327.8565799999999
 51
350.09193
  0
LINE
  5
A3B2
330
A36C
100
AcDbEntity
  8
1
  6
Continuous
100
AcDbLine
 10
546.0910619999999
 20
241.6216059999999
 30
0.0
 11
546.0910619999999
 21
235.1216109999997
 31
0.0
  0
LINE
  5
A3B3
330
A36C
100
AcDbEntity
  8
1
  6
Continuous
100
AcDbLine
 10
557.349383
 20
235.1216109999997
 30
0.0
 11
557.349383
 21
241.6216059999999
 31
0.0
  0
CIRCLE
  5
A3B4
330
A36C
100
AcDbEntity
  8
1
  6
Continuous
100
AcDbCircle
 10
551.720223
 20
238.3716089999999
 30
0.0
 40
4.0
  0
CIRCLE
  5
A3B5
330
A36C
100
AcDbEntity
  8
2
  6
Continuous
100
AcDbCircle
 10
551.720223
 20
238.3716089999999
 30
0.0
 40
3.3235
  0
LINE
  5
A3B6
330
A36C
100
AcDbEntity
  8
1
  6
Continuous
100
AcDbLine
 10
546.0910619999999
 20
235.1216109999997
 30
0.0
 11
551.720223
 21
231.8716139999999
 31
0.0
  0
LINE
  5
A3B7
330
A36C
100
AcDbEntity
  8
1
  6
Continuous
100
AcDbLine
 10
551.720223
 20
231.8716139999999
 30
0.0
 11
557.349383
 21
235.1216109999997
 31
0.0
  0
LINE
  5
A3B8
330
A36C
100
AcDbEntity
  8
1
  6
Continuous
100
AcDbLine
 10
551.720223
 20
244.8716029999999
 30
0.0
 11
546.0910619999999
 21
241.6216059999999
 31
0.0
  0
LINE
  5
A3B9
330
A36C
100
AcDbEntity
  8
1
  6
Continuous
100
AcDbLine
 10
557.349383
 20
241.6216059999999
 30
0.0
 11
551.720223
 21
244.8716029999999
 31
0.0
  0
LINE
  5
A3BA
330
A36C
100
AcDbEntity
  8
1
  6
Continuous
100
AcDbLine
 10
82.220223
 20
310.9716
 30
0.0
 11
82.220223
 21
285.354425
 31
0.0
  0
LINE
  5
A3BB
330
A36C
100
AcDbEntity
  8
1
  6
Continuous
100
AcDbLine
 10
32.22022299999999
 20
310.9716
 30
0.0
 11
32.22022299999999
 21
285.354425
 31
0.0
  0
LINE
  5
A3BC
330
A36C
100
AcDbEntity
  8
1
  6
Continuous
100
AcDbLine
 10
73.220223
 20
304.078213
 30
0.0
 11
73.220223
 21
227.3716089999997
 31
0.0
  0
LINE
  5
A3BD
330
A36C
100
AcDbEntity
  8
1
  6
Continuous
100
AcDbLine
 10
41.220223
 20
304.078213
 30
0.0
 11
41.220223
 21
227.3716089999997
 31
0.0
  0
LINE
  5
A3BE
330
A36C
100
AcDbEntity
  8
1
  6
Continuous
100
AcDbLine
 10
38.920233
 20
304.0279509999998
 30
0.0
 11
38.920233
 21
227.3716089999997
 31
0.0
  0
LINE
  5
A3BF
330
A36C
100
AcDbEntity
  8
1
  6
Continuous
100
AcDbLine
 10
75.520223
 20
304.0279509999998
 30
0.0
 11
75.520223
 21
227.3716089999997
 31
0.0
  0
LINE
  5
A3C0
330
A36C
100
AcDbEntity
  8
4
  6
CENTER
100
AcDbLine
 10
26.92023300000001
 20
238.3716089999999
 30
0.0
 11
83.720203
 21
238.3716089999999
 31
0.0
  0
ARC
  5
A3C1
330
A36C
100
AcDbEntity
  8
1
  6
Continuous
100
AcDbCircle
 10
38.17023300000001
 20
243.313237
 30
0.0
 40
3.25
100
AcDbArc
 50
151.34725
 51
211.3657499999999
  0
ARC
  5
A3C2
330
A36C
100
AcDbEntity
  8
1
  6
Continuous
100
AcDbCircle
 10
35.67023300000001
 20
243.313237
 30
0.0
 40
3.25
100
AcDbArc
 50
328.6342
 51
28.65276699999999
  0
LINE
  5
A3C3
330
A36C
100
AcDbEntity
  8
1
  6
Continuous
100
AcDbLine
 10
33.920233
 20
243.473622
 30
0.0
 11
33.920233
 21
233.269596
 31
0.0
  0
LINE
  5
A3C4
330
A36C
100
AcDbEntity
  8
1
  6
Continuous
100
AcDbLine
 10
35.39518300000001
 20
235.1216089999998
 30
0.0
 11
38.44529299999999
 21
235.1216089999998
 31
0.0
  0
LINE
  5
A3C5
330
A36C
100
AcDbEntity
  8
1
  6
Continuous
100
AcDbLine
 10
35.36872299999997
 20
241.6216089999998
 30
0.0
 11
38.47175299999999
 21
241.6216089999998
 31
0.0
  0
ARC
  5
A3C6
330
A36C
100
AcDbEntity
  8
1
  6
Continuous
100
AcDbCircle
 10
46.920233
 20
238.3716089999999
 30
0.0
 40
12.0
100
AcDbArc
 50
164.2861599999999
 51
195.71383
  0
ARC
  5
A3C7
330
A36C
100
AcDbEntity
  8
1
  6
Continuous
100
AcDbCircle
 10
26.92023300000001
 20
238.3716089999999
 30
0.0
 40
12.0
100
AcDbArc
 50
344.2861399999999
 51
15.71386099999998
  0
LINE
  5
A3C8
330
A36C
100
AcDbEntity
  8
1
  6
Continuous
100
AcDbLine
 10
38.920233
 20
227.3716089999997
 30
0.0
 11
41.220223
 21
227.3716089999997
 31
0.0
  0
LINE
  5
A3C9
330
A36C
100
AcDbEntity
  8
1
  6
Continuous
100
AcDbLine
 10
41.220223
 20
234.371609
 30
0.0
 11
42.22022299999999
 21
234.371609
 31
0.0
  0
LINE
  5
A3CA
330
A36C
100
AcDbEntity
  8
1
  6
Continuous
100
AcDbLine
 10
35.318233
 20
231.8716089999998
 30
0.0
 11
38.52224299999999
 21
231.8716089999998
 31
0.0
  0
LINE
  5
A3CB
330
A36C
100
AcDbEntity
  8
1
  6
Continuous
100
AcDbLine
 10
35.318263
 20
231.8716279999999
 30
0.0
 11
33.92028299999999
 21
233.269619
 31
0.0
  0
ARC
  5
A3CC
330
A36C
100
AcDbEntity
  8
1
  6
Continuous
100
AcDbCircle
 10
35.67023300000001
 20
233.429981
 30
0.0
 40
3.25
100
AcDbArc
 50
331.3472299999999
 51
31.365793
  0
ARC
  5
A3CD
330
A36C
100
AcDbEntity
  8
1
  6
Continuous
100
AcDbCircle
 10
38.17023300000001
 20
233.429981
 30
0.0
 40
3.25
100
AcDbArc
 50
148.63423
 51
208.6527299999999
  0
ARC
  5
A3CE
330
A36C
100
AcDbEntity
  8
1
  6
Continuous
100
AcDbCircle
 10
142.220223
 20
285.354425
 30
0.0
 40
110.0
100
AcDbArc
 50
179.9999799999999
 51
200.10056
  0
LINE
  5
A3CF
330
A36C
100
AcDbEntity
  8
1
  6
Continuous
100
AcDbLine
 10
41.220223
 20
242.3716089999998
 30
0.0
 11
42.22022299999999
 21
242.3716089999998
 31
0.0
  0
LINE
  5
A3D0
330
A36C
100
AcDbEntity
  8
1
  6
Continuous
100
AcDbLine
 10
35.318233
 20
244.871609
 30
0.0
 11
38.52224299999999
 21
244.871609
 31
0.0
  0
LINE
  5
A3D1
330
A36C
100
AcDbEntity
  8
1
  6
Continuous
100
AcDbLine
 10
33.92026299999999
 20
243.473614
 30
0.0
 11
35.318243
 21
244.871598
 31
0.0
  0
LINE
  5
A3D2
330
A36C
100
AcDbEntity
  8
1
  6
Continuous
100
AcDbLine
 10
78.72020299999999
 20
242.621609
 30
0.0
 11
78.72020299999999
 21
234.1216089999999
 31
0.0
  0
ARC
  5
A3D3
330
A36C
100
AcDbEntity
  8
1
  6
Continuous
100
AcDbCircle
 10
76.72020299999998
 20
234.1216089999999
 30
0.0
 40
2.0
100
AcDbArc
 50
270.00002
 51
0.0
  0
LINE
  5
A3D4
330
A36C
100
AcDbEntity
  8
1
  6
Continuous
100
AcDbLine
 10
75.520223
 20
227.3716089999997
 30
0.0
 11
73.220223
 21
227.3716089999997
 31
0.0
  0
LINE
  5
A3D5
330
A36C
100
AcDbEntity
  8
1
  6
Continuous
100
AcDbLine
 10
75.520223
 20
232.1216089999999
 30
0.0
 11
76.72020299999998
 21
232.1216089999999
 31
0.0
  0
LINE
  5
A3D6
330
A36C
100
AcDbEntity
  8
1
  6
Continuous
100
AcDbLine
 10
72.220223
 20
234.371609
 30
0.0
 11
73.220223
 21
234.371609
 31
0.0
  0
ARC
  5
A3D7
330
A36C
100
AcDbEntity
  8
1
  6
Continuous
100
AcDbCircle
 10
-27.779777
 20
285.354425
 30
0.0
 40
110.0
100
AcDbArc
 50
339.8994099999999
 51
359.9999899999998
  0
ARC
  5
A3D8
330
A36C
100
AcDbEntity
  8
1
  6
Continuous
100
AcDbCircle
 10
76.72020299999998
 20
242.621609
 30
0.0
 40
2.0
100
AcDbArc
 50
0.0
 51
89.99998199999996
  0
LINE
  5
A3D9
330
A36C
100
AcDbEntity
  8
1
  6
Continuous
100
AcDbLine
 10
75.520223
 20
244.6216089999999
 30
0.0
 11
76.72020299999998
 21
244.6216089999999
 31
0.0
  0
LINE
  5
A3DA
330
A36C
100
AcDbEntity
  8
1
  6
Continuous
100
AcDbLine
 10
72.220223
 20
242.3716089999998
 30
0.0
 11
73.220223
 21
242.3716089999998
 31
0.0
  0
LINE
  5
A3DB
330
A36C
100
AcDbEntity
  8
1
  6
Continuous
100
AcDbLine
 10
37.22022299999999
 20
315.9716
 30
0.0
 11
77.220223
 21
315.9716
 31
0.0
  0
ARC
  5
A3DC
330
A36C
100
AcDbEntity
  8
1
  6
Continuous
100
AcDbCircle
 10
57.22022299999999
 20
439.573819
 30
0.0
 40
128.4999999999998
100
AcDbArc
 50
262.8473099999999
 51
277.1526699999999
  0
ARC
  5
A3DD
330
A36C
100
AcDbEntity
  8
1
  6
Continuous
100
AcDbCircle
 10
57.22022299999999
 20
434.9715989999999
 30
0.0
 40
128.4999999999998
100
AcDbArc
 50
263.46506
 51
276.53492
  0
ARC
  5
A3DE
330
A36C
100
AcDbEntity
  8
1
  6
Continuous
100
AcDbCircle
 10
57.22022299999999
 20
432.706559
 30
0.0
 40
128.4999999999998
100
AcDbArc
 50
263.34847
 51
276.6515099999999
  0
ARC
  5
A3DF
330
A36C
100
AcDbEntity
  8
1
  6
Continuous
100
AcDbCircle
 10
42.220243
 20
304.0279509999998
 30
0.0
 40
3.299999999999998
100
AcDbArc
 50
83.465158
 51
179.9999599999999
  0
ARC
  5
A3E0
330
A36C
100
AcDbEntity
  8
1
  6
Continuous
100
AcDbCircle
 10
42.22022299999999
 20
304.078213
 30
0.0
 40
1.0
100
AcDbArc
 50
83.348539
 51
179.9999599999999
  0
ARC
  5
A3E1
330
A36C
100
AcDbEntity
  8
1
  6
Continuous
100
AcDbCircle
 10
37.22022299999999
 20
310.9716
 30
0.0
 40
5.0
100
AcDbArc
 50
89.99998199999996
 51
179.9999599999999
  0
ARC
  5
A3E2
330
A36C
100
AcDbEntity
  8
1
  6
Continuous
100
AcDbCircle
 10
46.779063
 20
317.449612
 30
0.0
 40
2.778
100
AcDbArc
 50
189.9080999999999
 51
212.14351
  0
ARC
  5
A3E3
330
A36C
100
AcDbEntity
  8
1
  6
Continuous
100
AcDbCircle
 10
39.420203
 20
317.449612
 30
0.0
 40
2.778
100
AcDbArc
 50
189.9080999999999
 51
212.14351
  0
ARC
  5
A3E4
330
A36C
100
AcDbEntity
  8
1
  6
Continuous
100
AcDbCircle
 10
42.843083
 20
317.449612
 30
0.0
 40
2.778
100
AcDbArc
 50
189.9080999999999
 51
212.14351
  0
ARC
  5
A3E5
330
A36C
100
AcDbEntity
  8
1
  6
Continuous
100
AcDbCircle
 10
40.30784299999999
 20
317.449612
 30
0.0
 40
2.778
100
AcDbArc
 50
189.9080999999999
 51
212.14351
  0
ARC
  5
A3E6
330
A36C
100
AcDbEntity
  8
1
  6
Continuous
100
AcDbCircle
 10
62.708123
 20
317.449612
 30
0.0
 40
2.778
100
AcDbArc
 50
189.90804
 51
212.14351
  0
ARC
  5
A3E7
330
A36C
100
AcDbEntity
  8
1
  6
Continuous
100
AcDbCircle
 10
57.220203
 20
317.449612
 30
0.0
 40
2.778
100
AcDbArc
 50
327.8564799999998
 51
350.09193
  0
ARC
  5
A3E8
330
A36C
100
AcDbEntity
  8
1
  6
Continuous
100
AcDbCircle
 10
51.732293
 20
317.449612
 30
0.0
 40
2.778
100
AcDbArc
 50
189.9080999999999
 51
212.14351
  0
ARC
  5
A3E9
330
A36C
100
AcDbEntity
  8
1
  6
Continuous
100
AcDbCircle
 10
57.220203
 20
317.449612
 30
0.0
 40
2.778
100
AcDbArc
 50
189.9080999999999
 51
212.14351
  0
ARC
  5
A3EA
330
A36C
100
AcDbEntity
  8
1
  6
Continuous
100
AcDbCircle
 10
51.732293
 20
317.449612
 30
0.0
 40
2.778
100
AcDbArc
 50
327.8564799999998
 51
350.0919899999999
  0
ARC
  5
A3EB
330
A36C
100
AcDbEntity
  8
1
  6
Continuous
100
AcDbCircle
 10
46.779063
 20
317.449612
 30
0.0
 40
2.778
100
AcDbArc
 50
327.8564799999998
 51
333.0638399999999
  0
ARC
  5
A3EC
330
A36C
100
AcDbEntity
  8
1
  6
Continuous
100
AcDbCircle
 10
72.220223
 20
304.0279509999998
 30
0.0
 40
3.299999999999998
100
AcDbArc
 50
0.0
 51
96.53486100000002
  0
ARC
  5
A3ED
330
A36C
100
AcDbEntity
  8
1
  6
Continuous
100
AcDbCircle
 10
72.220223
 20
304.078213
 30
0.0
 40
1.0
100
AcDbArc
 50
0.0
 51
96.65148000000002
  0
ARC
  5
A3EE
330
A36C
100
AcDbEntity
  8
1
  6
Continuous
100
AcDbCircle
 10
77.220223
 20
310.9716
 30
0.0
 40
5.0
100
AcDbArc
 50
0.0
 51
89.99998199999996
  0
ARC
  5
A3EF
330
A36C
100
AcDbEntity
  8
1
  6
Continuous
100
AcDbCircle
 10
75.020213
 20
317.449612
 30
0.0
 40
2.778
100
AcDbArc
 50
327.80113
 51
350.09193
  0
ARC
  5
A3F0
330
A36C
100
AcDbEntity
  8
1
  6
Continuous
100
AcDbCircle
 10
74.13257299999997
 20
317.449612
 30
0.0
 40
2.778
100
AcDbArc
 50
327.8564799999998
 51
350.09193
  0
ARC
  5
A3F1
330
A36C
100
AcDbEntity
  8
1
  6
Continuous
100
AcDbCircle
 10
71.59733299999998
 20
317.449612
 30
0.0
 40
2.778
100
AcDbArc
 50
327.8564799999998
 51
350.09193
  0
ARC
  5
A3F2
330
A36C
100
AcDbEntity
  8
1
  6
Continuous
100
AcDbCircle
 10
62.708123
 20
317.449612
 30
0.0
 40
2.778
100
AcDbArc
 50
327.8564799999998
 51
350.09193
  0
ARC
  5
A3F3
330
A36C
100
AcDbEntity
  8
1
  6
Continuous
100
AcDbCircle
 10
67.66135300000001
 20
317.449612
 30
0.0
 40
2.778
100
AcDbArc
 50
327.8564799999998
 51
350.09193
  0
ARC
  5
A3F4
330
A36C
100
AcDbEntity
  8
1
  6
Continuous
100
AcDbCircle
 10
67.66135300000001
 20
317.449612
 30
0.0
 40
2.778
100
AcDbArc
 50
206.9362
 51
212.14351
  0
LINE
  5
A3F5
330
A36C
100
AcDbEntity
  8
1
  6
Continuous
100
AcDbLine
 10
362.7202229999999
 20
310.9716
 30
0.0
 11
362.7202229999999
 21
285.354425
 31
0.0
  0
LINE
  5
A3F6
330
A36C
100
AcDbEntity
  8
1
  6
Continuous
100
AcDbLine
 10
412.7202229999999
 20
310.9716
 30
0.0
 11
412.7202229999999
 21
285.354425
 31
0.0
  0
LINE
  5
A3F7
330
A36C
100
AcDbEntity
  8
1
  6
Continuous
100
AcDbLine
 10
369.420223
 20
254.7893939999999
 30
0.0
 11
369.420223
 21
227.3716089999997
 31
0.0
  0
LINE
  5
A3F8
330
A36C
100
AcDbEntity
  8
1
  6
Continuous
100
AcDbLine
 10
406.020213
 20
254.7893719999999
 30
0.0
 11
406.020213
 21
227.3716089999997
 31
0.0
  0
LINE
  5
A3F9
330
A36C
100
AcDbEntity
  8
1
  6
Continuous
100
AcDbLine
 10
403.720223
 20
304.078213
 30
0.0
 11
403.720223
 21
227.3716089999997
 31
0.0
  0
LINE
  5
A3FA
330
A36C
100
AcDbEntity
  8
1
  6
Continuous
100
AcDbLine
 10
371.7202229999998
 20
304.078213
 30
0.0
 11
371.7202229999998
 21
227.3716089999997
 31
0.0
  0
LINE
  5
A3FB
330
A36C
100
AcDbEntity
  8
4
  6
CENTER
100
AcDbLine
 10
387.7202229999999
 20
372.8716129999999
 30
0.0
 11
387.7202229999999
 21
170.871609
 31
0.0
  0
LINE
  5
A3FC
330
A36C
100
AcDbEntity
  8
4
  6
CENTER
100
AcDbLine
 10
418.020213
 20
238.3716089999999
 30
0.0
 11
361.2202429999999
 21
238.3716089999999
 31
0.0
  0
LINE
  5
A3FD
330
A36C
100
AcDbEntity
  8
1
  6
Continuous
100
AcDbLine
 10
406.020213
 20
227.3716089999997
 30
0.0
 11
403.720223
 21
227.3716089999997
 31
0.0
  0
LINE
  5
A3FE
330
A36C
100
AcDbEntity
  8
1
  6
Continuous
100
AcDbLine
 10
411.0201829999998
 20
243.473614
 30
0.0
 11
409.6222029999998
 21
244.871598
 31
0.0
  0
LINE
  5
A3FF
330
A36C
100
AcDbEntity
  8
1
  6
Continuous
100
AcDbLine
 10
409.622213
 20
244.871609
 30
0.0
 11
406.418203
 21
244.871609
 31
0.0
  0
ARC
  5
A400
330
A36C
100
AcDbEntity
  8
1
  6
Continuous
100
AcDbCircle
 10
406.7702129999998
 20
233.429981
 30
0.0
 40
3.25
100
AcDbArc
 50
331.3472699999998
 51
31.36577
  0
ARC
  5
A401
330
A36C
100
AcDbEntity
  8
1
  6
Continuous
100
AcDbCircle
 10
409.270213
 20
233.429981
 30
0.0
 40
3.25
100
AcDbArc
 50
148.634207
 51
208.6527699999999
  0
LINE
  5
A402
330
A36C
100
AcDbEntity
  8
1
  6
Continuous
100
AcDbLine
 10
409.622183
 20
231.8716279999999
 30
0.0
 11
411.0201629999998
 21
233.269619
 31
0.0
  0
LINE
  5
A403
330
A36C
100
AcDbEntity
  8
1
  6
Continuous
100
AcDbLine
 10
409.622213
 20
231.8716089999998
 30
0.0
 11
406.418203
 21
231.8716089999998
 31
0.0
  0
LINE
  5
A404
330
A36C
100
AcDbEntity
  8
1
  6
Continuous
100
AcDbLine
 10
403.720223
 20
234.371609
 30
0.0
 11
402.7202229999998
 21
234.371609
 31
0.0
  0
ARC
  5
A405
330
A36C
100
AcDbEntity
  8
1
  6
Continuous
100
AcDbCircle
 10
418.020213
 20
238.3716089999999
 30
0.0
 40
12.0
100
AcDbArc
 50
164.286139
 51
195.71386
  0
ARC
  5
A406
330
A36C
100
AcDbEntity
  8
1
  6
Continuous
100
AcDbCircle
 10
398.020213
 20
238.3716089999999
 30
0.0
 40
12.0
100
AcDbArc
 50
344.28617
 51
15.71384
  0
LINE
  5
A407
330
A36C
100
AcDbEntity
  8
1
  6
Continuous
100
AcDbLine
 10
409.5717229999998
 20
241.6216089999998
 30
0.0
 11
406.4686929999998
 21
241.6216089999998
 31
0.0
  0
LINE
  5
A408
330
A36C
100
AcDbEntity
  8
1
  6
Continuous
100
AcDbLine
 10
409.5452629999998
 20
235.1216089999998
 30
0.0
 11
406.495153
 21
235.1216089999998
 31
0.0
  0
LINE
  5
A409
330
A36C
100
AcDbEntity
  8
1
  6
Continuous
100
AcDbLine
 10
403.720223
 20
242.3716089999998
 30
0.0
 11
402.7202229999998
 21
242.3716089999998
 31
0.0
  0
LINE
  5
A40A
330
A36C
100
AcDbEntity
  8
1
  6
Continuous
100
AcDbLine
 10
411.020213
 20
243.473622
 30
0.0
 11
411.020213
 21
233.269596
 31
0.0
  0
ARC
  5
A40B
330
A36C
100
AcDbEntity
  8
1
  6
Continuous
100
AcDbCircle
 10
409.270213
 20
243.313237
 30
0.0
 40
3.25
100
AcDbArc
 50
151.3472329999999
 51
211.3658
  0
ARC
  5
A40C
330
A36C
100
AcDbEntity
  8
1
  6
Continuous
100
AcDbCircle
 10
406.7702129999998
 20
243.313237
 30
0.0
 40
3.25
100
AcDbArc
 50
328.6342499999999
 51
28.65275
  0
LINE
  5
A40D
330
A36C
100
AcDbEntity
  8
1
  6
Continuous
100
AcDbLine
 10
369.420223
 20
227.3716089999997
 30
0.0
 11
371.7202229999998
 21
227.3716089999997
 31
0.0
  0
LINE
  5
A40E
330
A36C
100
AcDbEntity
  8
1
  6
Continuous
100
AcDbLine
 10
369.420223
 20
244.6216089999999
 30
0.0
 11
368.2202429999999
 21
244.6216089999999
 31
0.0
  0
LINE
  5
A40F
330
A36C
100
AcDbEntity
  8
1
  6
Continuous
100
AcDbLine
 10
366.2202429999999
 20
242.621609
 30
0.0
 11
366.2202429999999
 21
234.1216089999999
 31
0.0
  0
LINE
  5
A410
330
A36C
100
AcDbEntity
  8
1
  6
Continuous
100
AcDbLine
 10
372.7202229999999
 20
234.371609
 30
0.0
 11
371.7202229999998
 21
234.371609
 31
0.0
  0
LINE
  5
A411
330
A36C
100
AcDbEntity
  8
1
  6
Continuous
100
AcDbLine
 10
369.420223
 20
232.1216089999999
 30
0.0
 11
368.2202429999999
 21
232.1216089999999
 31
0.0
  0
ARC
  5
A412
330
A36C
100
AcDbEntity
  8
1
  6
Continuous
100
AcDbCircle
 10
368.2202429999999
 20
234.1216089999999
 30
0.0
 40
2.0
100
AcDbArc
 50
180.0
 51
269.99998
  0
LINE
  5
A413
330
A36C
100
AcDbEntity
  8
1
  6
Continuous
100
AcDbLine
 10
372.7202229999999
 20
242.3716089999998
 30
0.0
 11
371.7202229999998
 21
242.3716089999998
 31
0.0
  0
ARC
  5
A414
330
A36C
100
AcDbEntity
  8
1
  6
Continuous
100
AcDbCircle
 10
368.2202429999999
 20
242.621609
 30
0.0
 40
2.0
100
AcDbArc
 50
90.00001800000005
 51
180.0
  0
ARC
  5
A415
330
A36C
100
AcDbEntity
  8
1
  6
Continuous
100
AcDbCircle
 10
387.7202229999999
 20
432.706559
 30
0.0
 40
128.4999999999998
100
AcDbArc
 50
263.3484899999999
 51
276.65153
  0
ARC
  5
A416
330
A36C
100
AcDbEntity
  8
1
  6
Continuous
100
AcDbCircle
 10
387.7202229999999
 20
434.9715989999999
 30
0.0
 40
128.4999999999998
100
AcDbArc
 50
264.460965
 51
275.539035
  0
LINE
  5
A417
330
A36C
100
AcDbEntity
  8
1
  6
Continuous
100
AcDbLine
 10
407.720223
 20
315.9716
 30
0.0
 11
367.7202229999999
 21
315.9716
 31
0.0
  0
ARC
  5
A418
330
A36C
100
AcDbEntity
  8
1
  6
Continuous
100
AcDbCircle
 10
407.720223
 20
310.9716
 30
0.0
 40
5.0
100
AcDbArc
 50
0.00004
 51
90.00001800000005
  0
ARC
  5
A419
330
A36C
100
AcDbEntity
  8
1
  6
Continuous
100
AcDbCircle
 10
398.161383
 20
317.449612
 30
0.0
 40
2.778
100
AcDbArc
 50
206.93616
 51
212.14352
  0
ARC
  5
A41A
330
A36C
100
AcDbEntity
  8
1
  6
Continuous
100
AcDbCircle
 10
393.2081529999999
 20
317.449612
 30
0.0
 40
2.778
100
AcDbArc
 50
189.9080099999999
 51
212.14352
  0
ARC
  5
A41B
330
A36C
100
AcDbEntity
  8
1
  6
Continuous
100
AcDbCircle
 10
387.720243
 20
317.449612
 30
0.0
 40
2.778
100
AcDbArc
 50
327.85649
 51
350.0919
  0
ARC
  5
A41C
330
A36C
100
AcDbEntity
  8
1
  6
Continuous
100
AcDbCircle
 10
393.2081529999999
 20
317.449612
 30
0.0
 40
2.778
100
AcDbArc
 50
327.85649
 51
350.0919
  0
ARC
  5
A41D
330
A36C
100
AcDbEntity
  8
1
  6
Continuous
100
AcDbCircle
 10
387.720243
 20
317.449612
 30
0.0
 40
2.778
100
AcDbArc
 50
189.90807
 51
212.14352
  0
ARC
  5
A41E
330
A36C
100
AcDbEntity
  8
1
  6
Continuous
100
AcDbCircle
 10
382.232323
 20
317.449612
 30
0.0
 40
2.778
100
AcDbArc
 50
327.85649
 51
350.0919599999999
  0
ARC
  5
A41F
330
A36C
100
AcDbEntity
  8
1
  6
Continuous
100
AcDbCircle
 10
404.6326029999998
 20
317.449612
 30
0.0
 40
2.778
100
AcDbArc
 50
327.85649
 51
350.0919
  0
ARC
  5
A420
330
A36C
100
AcDbEntity
  8
1
  6
Continuous
100
AcDbCircle
 10
402.0973629999998
 20
317.449612
 30
0.0
 40
2.778
100
AcDbArc
 50
327.85649
 51
350.0919
  0
ARC
  5
A421
330
A36C
100
AcDbEntity
  8
1
  6
Continuous
100
AcDbCircle
 10
405.5202429999998
 20
317.449612
 30
0.0
 40
2.778
100
AcDbArc
 50
327.85649
 51
350.0919
  0
ARC
  5
A422
330
A36C
100
AcDbEntity
  8
1
  6
Continuous
100
AcDbCircle
 10
398.161383
 20
317.449612
 30
0.0
 40
2.778
100
AcDbArc
 50
327.85649
 51
350.0919
  0
ARC
  5
A423
330
A36C
100
AcDbEntity
  8
1
  6
Continuous
100
AcDbCircle
 10
402.7202229999998
 20
304.078213
 30
0.0
 40
1.0
100
AcDbArc
 50
0.00004
 51
96.65146100000001
  0
ARC
  5
A424
330
A36C
100
AcDbEntity
  8
1
  6
Continuous
100
AcDbCircle
 10
377.2790929999999
 20
317.449612
 30
0.0
 40
2.778
100
AcDbArc
 50
327.85649
 51
333.0638
  0
ARC
  5
A425
330
A36C
100
AcDbEntity
  8
1
  6
Continuous
100
AcDbCircle
 10
377.2790929999999
 20
317.449612
 30
0.0
 40
2.778
100
AcDbArc
 50
189.90807
 51
212.14352
  0
ARC
  5
A426
330
A36C
100
AcDbEntity
  8
1
  6
Continuous
100
AcDbCircle
 10
382.232323
 20
317.449612
 30
0.0
 40
2.778
100
AcDbArc
 50
189.90807
 51
212.14352
  0
ARC
  5
A427
330
A36C
100
AcDbEntity
  8
1
  6
Continuous
100
AcDbCircle
 10
373.343113
 20
317.449612
 30
0.0
 40
2.778
100
AcDbArc
 50
189.90807
 51
212.14352
  0
ARC
  5
A428
330
A36C
100
AcDbEntity
  8
1
  6
Continuous
100
AcDbCircle
 10
370.8078729999999
 20
317.449612
 30
0.0
 40
2.778
100
AcDbArc
 50
189.90807
 51
212.14352
  0
ARC
  5
A429
330
A36C
100
AcDbEntity
  8
1
  6
Continuous
100
AcDbCircle
 10
369.9202329999998
 20
317.449612
 30
0.0
 40
2.778
100
AcDbArc
 50
189.90807
 51
212.19887
  0
ARC
  5
A42A
330
A36C
100
AcDbEntity
  8
1
  6
Continuous
100
AcDbCircle
 10
367.7202229999999
 20
310.9716
 30
0.0
 40
5.0
100
AcDbArc
 50
90.00001800000005
 51
180.0
  0
ARC
  5
A42B
330
A36C
100
AcDbEntity
  8
1
  6
Continuous
100
AcDbCircle
 10
372.7202229999999
 20
304.078213
 30
0.0
 40
1.0
100
AcDbArc
 50
83.34851999999996
 51
180.0
  0
LINE
  5
A42C
330
A36C
100
AcDbEntity
  8
4
  6
CENTER
100
AcDbLine
 10
221.720223
 20
501.4594929999996
 30
0.0
 11
221.720223
 21
438.659523
 31
0.0
  0
LINE
  5
A42D
330
A36C
100
AcDbEntity
  8
4
  6
CENTER
100
AcDbLine
 10
221.720223
 20
40.57161899999999
 30
0.0
 11
221.7202229999999
 21
103.371589
 31
0.0
  0
LINE
  5
A42E
330
A36C
100
AcDbEntity
  8
1
  6
Continuous
100
AcDbLine
 10
210.7202229999999
 20
89.87160899999997
 30
0.0
 11
242.180805
 21
89.87160899999997
 31
0.0
  0
LINE
  5
A42F
330
A36C
100
AcDbEntity
  8
1
  6
Continuous
100
AcDbLine
 10
210.7202229999999
 20
57.87160899999999
 30
0.0
 11
242.180805
 21
57.87160899999999
 31
0.0
  0
LINE
  5
A430
330
A36C
100
AcDbEntity
  8
1
  6
Continuous
100
AcDbLine
 10
210.7202229999999
 20
55.57161899999999
 30
0.0
 11
242.1807929999999
 21
55.57161899999999
 31
0.0
  0
LINE
  5
A431
330
A36C
100
AcDbEntity
  8
1
  6
Continuous
100
AcDbLine
 10
210.7202229999999
 20
92.17160900000001
 30
0.0
 11
242.180805
 21
92.17160900000001
 31
0.0
  0
LINE
  5
A432
330
A36C
100
AcDbEntity
  8
1
  6
Continuous
100
AcDbLine
 10
217.720223
 20
57.87160899999999
 30
0.0
 11
217.720223
 21
58.871609
 31
0.0
  0
LINE
  5
A433
330
A36C
100
AcDbEntity
  8
1
  6
Continuous
100
AcDbLine
 10
225.720223
 20
57.87160899999999
 30
0.0
 11
225.720223
 21
58.871609
 31
0.0
  0
LINE
  5
A434
330
A36C
100
AcDbEntity
  8
1
  6
Continuous
100
AcDbLine
 10
217.470223
 20
95.37158899999999
 30
0.0
 11
225.970223
 21
95.37158899999999
 31
0.0
  0
LINE
  5
A435
330
A36C
100
AcDbEntity
  8
1
  6
Continuous
100
AcDbLine
 10
217.720223
 20
88.87160899999996
 30
0.0
 11
217.720223
 21
89.87160899999997
 31
0.0
  0
ARC
  5
A436
330
A36C
100
AcDbEntity
  8
1
  6
Continuous
100
AcDbCircle
 10
217.470223
 20
93.371589
 30
0.0
 40
2.0
100
AcDbArc
 50
90.0
 51
179.999982
  0
LINE
  5
A437
330
A36C
100
AcDbEntity
  8
1
  6
Continuous
100
AcDbLine
 10
215.470223
 20
92.17160900000001
 30
0.0
 11
215.470223
 21
93.371589
 31
0.0
  0
LINE
  5
A438
330
A36C
100
AcDbEntity
  8
1
  6
Continuous
100
AcDbLine
 10
225.720223
 20
88.87160899999996
 30
0.0
 11
225.720223
 21
89.87160899999997
 31
0.0
  0
ARC
  5
A439
330
A36C
100
AcDbEntity
  8
1
  6
Continuous
100
AcDbCircle
 10
225.970223
 20
93.371589
 30
0.0
 40
2.0
100
AcDbArc
 50
0.00002
 51
90.0
  0
LINE
  5
A43A
330
A36C
100
AcDbEntity
  8
1
  6
Continuous
100
AcDbLine
 10
227.970223
 20
92.17160900000001
 30
0.0
 11
227.970223
 21
93.371589
 31
0.0
  0
LINE
  5
A43B
330
A36C
100
AcDbEntity
  8
1
  6
Continuous
100
AcDbLine
 10
210.7202229999999
 20
92.17160900000001
 30
0.0
 11
210.7202229999999
 21
89.87160899999997
 31
0.0
  0
LINE
  5
A43C
330
A36C
100
AcDbEntity
  8
1
  6
Continuous
100
AcDbLine
 10
285.720223
 20
310.971604
 30
0.0
 11
285.720223
 21
307.071608
 31
0.0
  0
ARC
  5
A43D
330
A36C
100
AcDbEntity
  8
1
  6
Continuous
100
AcDbCircle
 10
280.7202229999999
 20
310.971604
 30
0.0
 40
5.0
100
AcDbArc
 50
0.0
 51
90.0
  0
ARC
  5
A43E
330
A36C
100
AcDbEntity
  8
1
  6
Continuous
100
AcDbCircle
 10
260.7202229999999
 20
73.87160899999997
 30
0.0
 40
25.0
100
AcDbArc
 50
230.2610529999999
 51
330.070868
  0
LINE
  5
A43F
330
A36C
100
AcDbEntity
  8
1
  6
Continuous
100
AcDbLine
 10
210.7202229999999
 20
57.87160899999999
 30
0.0
 11
210.7202229999999
 21
55.57161899999999
 31
0.0
  0
ARC
  5
A440
330
A36C
100
AcDbEntity
  8
1
  6
Continuous
100
AcDbCircle
 10
128.2535629999999
 20
73.87160899999997
 30
0.0
 40
85.0
100
AcDbArc
 50
10.84078599999999
 51
10.849816
  0
ARC
  5
A441
330
A36C
100
AcDbEntity
  8
1
  6
Continuous
100
AcDbCircle
 10
128.2535629999999
 20
73.87160899999997
 30
0.0
 40
85.0
100
AcDbArc
 50
349.1501839999998
 51
349.159218
  0
ARC
  5
A442
330
A36C
100
AcDbEntity
  8
1
  6
Continuous
100
AcDbCircle
 10
274.1035719999999
 20
73.87161399999998
 30
0.0
 40
64.383349
100
AcDbArc
 50
165.6105589999999
 51
168.804956
  0
ARC
  5
A443
330
A36C
100
AcDbEntity
  8
1
  6
Continuous
100
AcDbCircle
 10
274.1035719999999
 20
73.87161399999998
 30
0.0
 40
64.383349
100
AcDbArc
 50
191.195053
 51
194.38945
  0
ARC
  5
A444
330
A36C
100
AcDbEntity
  8
1
  6
Continuous
100
AcDbCircle
 10
260.7202229999999
 20
73.87160899999997
 30
0.0
 40
22.7
100
AcDbArc
 50
230.2610839999999
 51
326.587642
  0
ARC
  5
A445
330
A36C
100
AcDbEntity
  8
1
  6
Continuous
100
AcDbCircle
 10
260.7202229999999
 20
73.87160899999997
 30
0.0
 40
25.0
100
AcDbArc
 50
29.929132
 51
129.7389159999999
  0
ARC
  5
A446
330
A36C
100
AcDbEntity
  8
1
  6
Continuous
100
AcDbCircle
 10
260.7202229999999
 20
73.87160899999997
 30
0.0
 40
25.0
100
AcDbArc
 50
337.0698319999998
 51
22.93016799999999
  0
ARC
  5
A447
330
A36C
100
AcDbEntity
  8
1
  6
Continuous
100
AcDbCircle
 10
260.7202229999999
 20
73.87160899999997
 30
0.0
 40
22.7
100
AcDbArc
 50
33.41235799999999
 51
129.7389159999999
  0
ARC
  5
A448
330
A36C
100
AcDbEntity
  8
1
  6
Continuous
100
AcDbCircle
 10
260.7202229999999
 20
73.87160899999997
 30
0.0
 40
17.7
100
AcDbArc
 50
44.92776099999999
 51
135.072239
  0
ARC
  5
A449
330
A36C
100
AcDbEntity
  8
1
  6
Continuous
100
AcDbCircle
 10
260.7202229999999
 20
73.87160899999997
 30
0.0
 40
17.7
100
AcDbArc
 50
224.9277609999999
 51
315.072239
  0
LINE
  5
A44A
330
A36C
100
AcDbEntity
  8
1
  6
Continuous
100
AcDbLine
 10
367.551649
 20
307.071608
 30
0.0
 11
407.888797
 21
307.071608
 31
0.0
  0
LINE
  5
A44B
330
A36C
100
AcDbEntity
  8
1
  6
Continuous
100
AcDbLine
 10
221.720223
 20
55.57161899999999
 30
0.0
 11
221.720223
 21
51.264439
 31
0.0
  0
LINE
  5
A44C
330
A36C
100
AcDbEntity
  8
1
  6
Continuous
100
AcDbLine
 10
227.7202229999998
 20
54.87879799999999
 30
0.0
 11
227.7202229999998
 21
51.264439
 31
0.0
  0
LINE
  5
A44D
330
A36C
100
AcDbEntity
  8
1
  6
Continuous
100
AcDbLine
 10
215.720223
 20
54.87879799999999
 30
0.0
 11
215.720223
 21
51.264439
 31
0.0
  0
ARC
  5
A44E
330
A36C
100
AcDbEntity
  8
1
  6
Continuous
100
AcDbCircle
 10
218.720223
 20
57.41321899999999
 30
0.0
 40
6.841600999999998
100
AcDbArc
 50
243.992176
 51
296.0078240000001
  0
LINE
  5
A44F
330
A36C
100
AcDbEntity
  8
1
  6
Continuous
100
AcDbLine
 10
218.9702229999999
 20
50.571619
 30
0.0
 11
224.470223
 21
50.571619
 31
0.0
  0
ARC
  5
A450
330
A36C
100
AcDbEntity
  8
1
  6
Continuous
100
AcDbCircle
 10
224.720223
 20
57.41321899999999
 30
0.0
 40
6.841600999999998
100
AcDbArc
 50
243.992176
 51
296.0078240000001
  0
ARC
  5
A451
330
A36C
100
AcDbEntity
  8
1
  6
Continuous
100
AcDbCircle
 10
218.720223
 20
48.730018
 30
0.0
 40
6.841600999999998
100
AcDbArc
 50
63.992176
 51
116.007824
  0
ARC
  5
A452
330
A36C
100
AcDbEntity
  8
1
  6
Continuous
100
AcDbCircle
 10
224.720223
 20
48.730018
 30
0.0
 40
6.841600999999998
100
AcDbArc
 50
63.992176
 51
116.007824
  0
ARC
  5
A453
330
A36C
100
AcDbEntity
  8
1
  6
Continuous
100
AcDbCircle
 10
491.7447359999998
 20
292.071608
 30
0.0
 40
15.0
100
AcDbArc
 50
29.31722999999999
 51
90.00001800000005
  0
LINE
  5
A454
330
A36C
100
AcDbEntity
  8
1
  6
Continuous
100
AcDbLine
 10
532.720223
 20
315.971604
 30
0.0
 11
492.7202229999998
 21
315.971604
 31
0.0
  0
LINE
  5
A455
330
A36C
100
AcDbEntity
  8
4
  6
CENTER
100
AcDbLine
 10
622.220223
 20
238.3716089999999
 30
0.0
 11
481.2202229999998
 21
238.3716089999999
 31
0.0
  0
LINE
  5
A456
330
A36C
100
AcDbEntity
  8
4
  6
CENTER
100
AcDbLine
 10
551.720223
 20
304.453911
 30
0.0
 11
551.720223
 21
167.8716089999998
 31
0.0
  0
LINE
  5
A457
330
A36C
100
AcDbEntity
  8
1
  6
Continuous
100
AcDbLine
 10
562.6934269999998
 20
239.138924
 30
0.0
 11
558.1366789999998
 21
304.3034329999998
 31
0.0
  0
LINE
  5
A458
330
A36C
100
AcDbEntity
  8
1
  6
Continuous
100
AcDbLine
 10
542.12904
 20
232.985485
 30
0.0
 11
504.804016
 21
299.450985
 31
0.0
  0
LINE
  5
A459
330
A36C
100
AcDbEntity
  8
1
  6
Continuous
100
AcDbLine
 10
533.720223
 20
306.771612
 30
0.0
 11
533.720223
 21
254.3716089999997
 31
0.0
  0
LINE
  5
A45A
330
A36C
100
AcDbEntity
  8
4
  6
CENTER
100
AcDbLine
 10
512.720223
 20
372.8716129999999
 30
0.0
 11
512.720223
 21
269.604939
 31
0.0
  0
ARC
  5
A45B
330
A36C
100
AcDbEntity
  8
1
  6
Continuous
100
AcDbCircle
 10
551.720223
 20
238.3716089999999
 30
0.0
 40
11.0
100
AcDbArc
 50
209.31727
 51
3.999969999999999
  0
ARC
  5
A45C
330
A36C
100
AcDbEntity
  8
1
  6
Continuous
100
AcDbCircle
 10
560.6305889999998
 20
304.4778239999998
 30
0.0
 40
2.5
100
AcDbArc
 50
79.99997999999997
 51
183.9999999999998
  0
ARC
  5
A45D
330
A36C
100
AcDbEntity
  8
1
  6
Continuous
100
AcDbCircle
 10
559.1656679999998
 20
303.9237879999999
 30
0.0
 40
1.0
100
AcDbArc
 50
79.99998999999998
 51
183.9999999999998
  0
LINE
  5
A45E
330
A36C
100
AcDbEntity
  8
1
  6
Continuous
100
AcDbLine
 10
563.720223
 20
306.471606
 30
0.0
 11
534.8787029999998
 21
311.557144
 31
0.0
  0
LINE
  5
A45F
330
A36C
100
AcDbEntity
  8
1
  6
Continuous
100
AcDbLine
 10
563.720223
 20
306.471606
 30
0.0
 11
563.320832
 21
304.206547
 31
0.0
  0
LINE
  5
A460
330
A36C
100
AcDbEntity
  8
1
  6
Continuous
100
AcDbLine
 10
563.320832
 20
304.206547
 30
0.0
 11
559.339316
 21
304.9085959999998
 31
0.0
  0
ARC
  5
A461
330
A36C
100
AcDbEntity
  8
1
  6
Continuous
100
AcDbCircle
 10
532.720223
 20
310.971604
 30
0.0
 40
5.0
100
AcDbArc
 50
0.9698309999999999
 51
90.0
  0
ARC
  5
A462
330
A36C
100
AcDbEntity
  8
1
  6
Continuous
100
AcDbCircle
 10
529.632607
 20
317.449612
 30
0.0
 40
2.778
100
AcDbArc
 50
327.85663
 51
350.0919
  0
ARC
  5
A463
330
A36C
100
AcDbEntity
  8
1
  6
Continuous
100
AcDbCircle
 10
527.097367
 20
317.449612
 30
0.0
 40
2.778
100
AcDbArc
 50
327.8566
 51
350.0919
  0
ARC
  5
A464
330
A36C
100
AcDbEntity
  8
1
  6
Continuous
100
AcDbCircle
 10
530.520249
 20
317.449612
 30
0.0
 40
2.778
100
AcDbArc
 50
327.85663
 51
350.0919
  0
ARC
  5
A465
330
A36C
100
AcDbEntity
  8
1
  6
Continuous
100
AcDbCircle
 10
502.2790839999998
 20
317.449612
 30
0.0
 40
2.778
100
AcDbArc
 50
189.90807
 51
212.1434199999999
  0
ARC
  5
A466
330
A36C
100
AcDbEntity
  8
1
  6
Continuous
100
AcDbCircle
 10
507.2323230000002
 20
317.449612
 30
0.0
 40
2.778
100
AcDbArc
 50
189.90807
 51
212.1434199999999
  0
ARC
  5
A467
330
A36C
100
AcDbEntity
  8
1
  6
Continuous
100
AcDbCircle
 10
498.3431099999998
 20
317.449612
 30
0.0
 40
2.778
100
AcDbArc
 50
189.90807
 51
212.1433699999999
  0
ARC
  5
A468
330
A36C
100
AcDbEntity
  8
1
  6
Continuous
100
AcDbCircle
 10
518.208153
 20
317.449612
 30
0.0
 40
2.778
100
AcDbArc
 50
189.9080099999999
 51
212.1434199999999
  0
ARC
  5
A469
330
A36C
100
AcDbEntity
  8
1
  6
Continuous
100
AcDbCircle
 10
518.208153
 20
317.449612
 30
0.0
 40
2.778
100
AcDbArc
 50
327.8566
 51
350.0919
  0
ARC
  5
A46A
330
A36C
100
AcDbEntity
  8
1
  6
Continuous
100
AcDbCircle
 10
512.7202379999999
 20
317.449612
 30
0.0
 40
2.778
100
AcDbArc
 50
327.8566
 51
350.0919
  0
ARC
  5
A46B
330
A36C
100
AcDbEntity
  8
1
  6
Continuous
100
AcDbCircle
 10
507.2323230000002
 20
317.449612
 30
0.0
 40
2.778
100
AcDbArc
 50
327.8566
 51
350.0919599999999
  0
ARC
  5
A46C
330
A36C
100
AcDbEntity
  8
1
  6
Continuous
100
AcDbCircle
 10
512.7202379999999
 20
317.449612
 30
0.0
 40
2.778
100
AcDbArc
 50
189.90807
 51
212.1434199999999
  0
ARC
  5
A46D
330
A36C
100
AcDbEntity
  8
1
  6
Continuous
100
AcDbCircle
 10
523.1613929999999
 20
317.449612
 30
0.0
 40
2.778
100
AcDbArc
 50
327.8566
 51
350.0919
  0
ARC
  5
A46E
330
A36C
100
AcDbEntity
  8
1
  6
Continuous
100
AcDbCircle
 10
492.7202229999998
 20
310.971604
 30
0.0
 40
5.0
100
AcDbArc
 50
90.0
 51
180.0
  0
ARC
  5
A46F
330
A36C
100
AcDbEntity
  8
1
  6
Continuous
100
AcDbCircle
 10
495.8078689999998
 20
317.449612
 30
0.0
 40
2.778
100
AcDbArc
 50
189.90807
 51
212.1433699999999
  0
ARC
  5
A470
330
A36C
100
AcDbEntity
  8
1
  6
Continuous
100
AcDbCircle
 10
494.920228
 20
317.449612
 30
0.0
 40
2.778
100
AcDbArc
 50
189.90807
 51
212.1433699999999
  0
LINE
  5
A471
330
A36C
100
AcDbEntity
  8
1
  6
Continuous
100
AcDbLine
 10
487.7202229999999
 20
310.971604
 30
0.0
 11
487.7202229999999
 21
307.071608
 31
0.0
  0
LINE
  5
A472
330
A36C
100
AcDbEntity
  8
1
  6
Continuous
100
AcDbLine
 10
491.7447359999998
 20
307.071608
 30
0.0
 11
487.7202229999999
 21
307.071608
 31
0.0
  0
LINE
  5
A473
330
A36C
100
AcDbEntity
  8
2
  6
Continuous
100
AcDbLine
 10
412.4967129999998
 20
241.6951089999999
 30
0.0
 11
411.020213
 21
241.6951089999999
 31
0.0
  0
LINE
  5
A474
330
A36C
100
AcDbEntity
  8
2
  6
Continuous
100
AcDbLine
 10
412.4967129999998
 20
235.0481089999999
 30
0.0
 11
411.020213
 21
235.0481089999999
 31
0.0
  0
LINE
  5
A475
330
A36C
100
AcDbEntity
  8
4
  6
CENTER
100
AcDbLine
 10
413.0202129999998
 20
238.3716089999999
 30
0.0
 11
411.020213
 21
238.3716089999999
 31
0.0
  0
LINE
  5
A476
330
A36C
100
AcDbEntity
  8
1
  6
Continuous
100
AcDbLine
 10
411.8202129999998
 20
234.371609
 30
0.0
 11
411.020213
 21
234.371609
 31
0.0
  0
LINE
  5
A477
330
A36C
100
AcDbEntity
  8
1
  6
Continuous
100
AcDbLine
 10
411.8202129999998
 20
242.3716089999998
 30
0.0
 11
411.020213
 21
242.3716089999998
 31
0.0
  0
LINE
  5
A478
330
A36C
100
AcDbEntity
  8
1
  6
Continuous
100
AcDbLine
 10
411.8202129999998
 20
242.3716089999998
 30
0.0
 11
411.8202129999998
 21
234.371609
 31
0.0
  0
LINE
  5
A479
330
A36C
100
AcDbEntity
  8
1
  6
Continuous
100
AcDbLine
 10
413.0202129999998
 20
241.171609
 30
0.0
 11
413.0202129999998
 21
235.571609
 31
0.0
  0
LINE
  5
A47A
330
A36C
100
AcDbEntity
  8
1
  6
Continuous
100
AcDbLine
 10
413.0202129999998
 20
241.171609
 30
0.0
 11
411.8202129999998
 21
242.3716089999998
 31
0.0
  0
LINE
  5
A47B
330
A36C
100
AcDbEntity
  8
1
  6
Continuous
100
AcDbLine
 10
413.0202129999998
 20
235.571609
 30
0.0
 11
411.8202129999998
 21
234.371609
 31
0.0
  0
LINE
  5
A47C
330
A36C
100
AcDbEntity
  8
1
  6
Continuous
100
AcDbLine
 10
33.12023299999999
 20
234.371609
 30
0.0
 11
33.12023299999999
 21
242.3716089999998
 31
0.0
  0
LINE
  5
A47D
330
A36C
100
AcDbEntity
  8
1
  6
Continuous
100
AcDbLine
 10
31.92023300000001
 20
235.571609
 30
0.0
 11
31.92023300000001
 21
241.171609
 31
0.0
  0
LINE
  5
A47E
330
A36C
100
AcDbEntity
  8
1
  6
Continuous
100
AcDbLine
 10
33.12023299999999
 20
234.371609
 30
0.0
 11
33.920233
 21
234.371609
 31
0.0
  0
LINE
  5
A47F
330
A36C
100
AcDbEntity
  8
2
  6
Continuous
100
AcDbLine
 10
32.443733
 20
235.0481089999999
 30
0.0
 11
33.920233
 21
235.0481089999999
 31
0.0
  0
LINE
  5
A480
330
A36C
100
AcDbEntity
  8
1
  6
Continuous
100
AcDbLine
 10
31.92023300000001
 20
235.571609
 30
0.0
 11
33.12023299999999
 21
234.371609
 31
0.0
  0
LINE
  5
A481
330
A36C
100
AcDbEntity
  8
1
  6
Continuous
100
AcDbLine
 10
33.12023299999999
 20
242.3716089999998
 30
0.0
 11
33.920233
 21
242.3716089999998
 31
0.0
  0
LINE
  5
A482
330
A36C
100
AcDbEntity
  8
2
  6
Continuous
100
AcDbLine
 10
32.443733
 20
241.6951089999999
 30
0.0
 11
33.920233
 21
241.6951089999999
 31
0.0
  0
LINE
  5
A483
330
A36C
100
AcDbEntity
  8
1
  6
Continuous
100
AcDbLine
 10
31.92023300000001
 20
241.171609
 30
0.0
 11
33.12023299999999
 21
242.3716089999998
 31
0.0
  0
LINE
  5
A484
330
A36C
100
AcDbEntity
  8
1
  6
Continuous
100
AcDbLine
 10
224.5202229999999
 20
48.571619
 30
0.0
 11
218.9202229999999
 21
48.571619
 31
0.0
  0
LINE
  5
A485
330
A36C
100
AcDbEntity
  8
1
  6
Continuous
100
AcDbLine
 10
225.720223
 20
49.771619
 30
0.0
 11
217.720223
 21
49.771619
 31
0.0
  0
LINE
  5
A486
330
A36C
100
AcDbEntity
  8
1
  6
Continuous
100
AcDbLine
 10
218.9202229999999
 20
48.571619
 30
0.0
 11
217.720223
 21
49.771619
 31
0.0
  0
LINE
  5
A487
330
A36C
100
AcDbEntity
  8
2
  6
Continuous
100
AcDbLine
 10
218.3967229999999
 20
49.095119
 30
0.0
 11
218.3967229999999
 21
50.571619
 31
0.0
  0
LINE
  5
A488
330
A36C
100
AcDbEntity
  8
1
  6
Continuous
100
AcDbLine
 10
217.720223
 20
49.771619
 30
0.0
 11
217.720223
 21
50.571619
 31
0.0
  0
LINE
  5
A489
330
A36C
100
AcDbEntity
  8
4
  6
CENTER
100
AcDbLine
 10
221.720223
 20
48.571619
 30
0.0
 11
221.720223
 21
50.571619
 31
0.0
  0
LINE
  5
A48A
330
A36C
100
AcDbEntity
  8
2
  6
Continuous
100
AcDbLine
 10
225.043723
 20
49.095119
 30
0.0
 11
225.043723
 21
50.571619
 31
0.0
  0
LINE
  5
A48B
330
A36C
100
AcDbEntity
  8
1
  6
Continuous
100
AcDbLine
 10
225.720223
 20
49.771619
 30
0.0
 11
225.720223
 21
50.571619
 31
0.0
  0
LINE
  5
A48C
330
A36C
100
AcDbEntity
  8
1
  6
Continuous
100
AcDbLine
 10
224.5202229999999
 20
48.571619
 30
0.0
 11
225.720223
 21
49.771619
 31
0.0
  0
CIRCLE
  5
A48D
330
A36C
100
AcDbEntity
  8
1
  6
Continuous
100
AcDbCircle
 10
551.720223
 20
238.3716089999999
 30
0.0
 40
2.799999999999998
  0
CIRCLE
  5
A48E
330
A36C
100
AcDbEntity
  8
1
  6
Continuous
100
AcDbCircle
 10
551.720223
 20
238.3716089999999
 30
0.0
 40
5.102005
  0
LINE
  5
A48F
330
A36C
100
AcDbEntity
  8
4
  6
CENTER
100
AcDbLine
 10
221.720223
 20
493.4594929999998
 30
0.0
 11
221.720223
 21
491.4594929999998
 31
0.0
  0
ARC
  5
A490
330
A36C
100
AcDbEntity
  8
1
  6
Continuous
100
AcDbCircle
 10
242.500997
 20
468.1594979999998
 30
0.0
 40
32.780774
100
AcDbArc
 50
146.064871
 51
213.935129
  0
ARC
  5
A491
330
A36C
100
AcDbEntity
  8
1
  6
Continuous
100
AcDbCircle
 10
434.788189
 20
285.354419
 30
0.0
 40
72.067966
100
AcDbArc
 50
163.6561669999998
 51
204.7279049999999
  0
ARC
  5
A492
330
A36C
100
AcDbEntity
  8
1
  6
Continuous
100
AcDbCircle
 10
340.6522569999999
 20
285.354419
 30
0.0
 40
72.067966
100
AcDbArc
 50
335.2720759999999
 51
16.343833
  0
ARC
  5
A493
330
A36C
100
AcDbEntity
  8
1
  6
Continuous
100
AcDbCircle
 10
340.6522569999999
 20
285.354419
 30
0.0
 40
69.767966
100
AcDbArc
 50
335.2720949999998
 51
18.13622699999998
  0
ARC
  5
A494
330
A36C
100
AcDbEntity
  8
1
  6
Continuous
100
AcDbCircle
 10
434.788189
 20
285.354419
 30
0.0
 40
69.767966
100
AcDbArc
 50
161.863773
 51
204.7279049999999
  0
ARC
  5
A495
330
A36C
100
AcDbEntity
  8
1
  6
Continuous
100
AcDbCircle
 10
407.888797
 20
305.071608
 30
0.0
 40
2.0
100
AcDbArc
 50
16.343833
 51
90.0
  0
ARC
  5
A496
330
A36C
100
AcDbEntity
  8
1
  6
Continuous
100
AcDbCircle
 10
367.551649
 20
305.071608
 30
0.0
 40
2.0
100
AcDbArc
 50
90.0
 51
163.6561669999998
  0
ARC
  5
A497
330
A36C
100
AcDbEntity
  8
1
  6
Continuous
100
AcDbCircle
 10
242.180805
 20
96.17160900000001
 30
0.0
 40
4.0
100
AcDbArc
 50
270.0
 51
309.738916
  0
ARC
  5
A498
330
A36C
100
AcDbEntity
  8
1
  6
Continuous
100
AcDbCircle
 10
242.180805
 20
96.17160900000001
 30
0.0
 40
6.299999999999998
100
AcDbArc
 50
270.0
 51
309.738916
  0
ARC
  5
A499
330
A36C
100
AcDbEntity
  8
1
  6
Continuous
100
AcDbCircle
 10
242.180805
 20
51.571609
 30
0.0
 40
6.299999999999998
100
AcDbArc
 50
50.261084
 51
90.0
  0
ARC
  5
A49A
330
A36C
100
AcDbEntity
  8
1
  6
Continuous
100
AcDbCircle
 10
242.1807929999999
 20
51.571619
 30
0.0
 40
4.0
100
AcDbArc
 50
50.26105300000001
 51
90.0
  0
ARC
  5
A49B
330
A36C
100
AcDbEntity
  8
1
  6
Continuous
100
AcDbCircle
 10
368.420223
 20
254.7893939999999
 30
0.0
 40
1.0
100
AcDbArc
 50
0.0
 51
24.727905
  0
ARC
  5
A49C
330
A36C
100
AcDbEntity
  8
1
  6
Continuous
100
AcDbCircle
 10
368.420223
 20
254.7893939999999
 30
0.0
 40
3.299999999999998
100
AcDbArc
 50
0.0
 51
24.727905
  0
ARC
  5
A49D
330
A36C
100
AcDbEntity
  8
1
  6
Continuous
100
AcDbCircle
 10
407.020213
 20
254.7893719999999
 30
0.0
 40
1.0
100
AcDbArc
 50
155.2720759999999
 51
180.0
  0
ARC
  5
A49E
330
A36C
100
AcDbEntity
  8
1
  6
Continuous
100
AcDbCircle
 10
407.0202229999998
 20
254.7893939999999
 30
0.0
 40
3.299999999999998
100
AcDbArc
 50
155.272095
 51
180.0
  0
LINE
  5
A49F
330
A36C
100
AcDbEntity
  8
1
  6
Continuous
100
AcDbLine
 10
535.220223
 20
320.7716019999998
 30
0.0
 11
535.220223
 21
318.2716019999998
 31
0.0
  0
LINE
  5
A4A0
330
A36C
100
AcDbEntity
  8
1
  6
Continuous
100
AcDbLine
 10
490.2202229999998
 20
320.7716019999998
 30
0.0
 11
490.2202229999998
 21
318.2716019999998
 31
0.0
  0
LINE
  5
A4A1
330
A36C
100
AcDbEntity
  8
1
  6
Continuous
100
AcDbLine
 10
534.8202389999999
 20
316.971607
 30
0.0
 11
490.6202129999998
 21
316.971607
 31
0.0
  0
LINE
  5
A4A2
330
A36C
100
AcDbEntity
  8
1
  6
Continuous
100
AcDbLine
 10
490.6202429999998
 20
316.9716029999999
 30
0.0
 11
490.2202429999999
 21
318.27161
 31
0.0
  0
LINE
  5
A4A3
330
A36C
100
AcDbEntity
  8
1
  6
Continuous
100
AcDbLine
 10
534.820237
 20
316.971599
 30
0.0
 11
535.220238
 21
318.2716019999998
 31
0.0
  0
LINE
  5
A4A4
330
A36C
100
AcDbEntity
  8
2
  6
Continuous
100
AcDbLine
 10
519.637723
 20
329.7465579999999
 30
0.0
 11
519.637723
 21
366.954113
 31
0.0
  0
LINE
  5
A4A5
330
A36C
100
AcDbEntity
  8
2
  6
Continuous
100
AcDbLine
 10
505.802723
 20
329.7465579999999
 30
0.0
 11
505.802723
 21
366.954113
 31
0.0
  0
LINE
  5
A4A6
330
A36C
100
AcDbEntity
  8
1
  6
Continuous
100
AcDbLine
 10
520.720223
 20
327.8716129999999
 30
0.0
 11
520.720223
 21
365.8716129999998
 31
0.0
  0
LINE
  5
A4A7
330
A36C
100
AcDbEntity
  8
1
  6
Continuous
100
AcDbLine
 10
504.7202229999999
 20
327.8716129999999
 30
0.0
 11
504.7202229999999
 21
365.8716129999998
 31
0.0
  0
LINE
  5
A4A8
330
A36C
100
AcDbEntity
  8
1
  6
Continuous
100
AcDbLine
 10
504.7202229999999
 20
329.7465579999999
 30
0.0
 11
520.720223
 21
329.7465579999999
 31
0.0
  0
LINE
  5
A4A9
330
A36C
100
AcDbEntity
  8
2
  6
Continuous
100
AcDbLine
 10
505.802723
 20
329.7465579999999
 30
0.0
 11
504.7202229999999
 21
327.8716129999999
 31
0.0
  0
LINE
  5
A4AA
330
A36C
100
AcDbEntity
  8
1
  6
Continuous
100
AcDbLine
 10
530.9702900000002
 20
322.7716019999998
 30
0.0
 11
494.4702229999998
 21
322.7716019999998
 31
0.0
  0
LINE
  5
A4AB
330
A36C
100
AcDbEntity
  8
1
  6
Continuous
100
AcDbLine
 10
535.220223
 20
320.7716019999998
 30
0.0
 11
490.2202229999998
 21
320.7716019999998
 31
0.0
  0
ARC
  5
A4AC
330
A36C
100
AcDbEntity
  8
1
  6
Continuous
100
AcDbCircle
 10
494.696163
 20
316.77586
 30
0.0
 40
6.0
100
AcDbArc
 50
92.158028
 51
138.2442
  0
LINE
  5
A4AD
330
A36C
100
AcDbEntity
  8
2
  6
Continuous
100
AcDbLine
 10
519.637723
 20
329.7465579999999
 30
0.0
 11
520.720223
 21
327.8716129999999
 31
0.0
  0
ARC
  5
A4AE
330
A36C
100
AcDbEntity
  8
1
  6
Continuous
100
AcDbCircle
 10
530.744286
 20
316.77586
 30
0.0
 40
6.0
100
AcDbArc
 50
41.75575999999996
 51
87.841936
  0
LINE
  5
A4AF
330
A36C
100
AcDbEntity
  8
1
  6
Continuous
100
AcDbLine
 10
504.7202229999999
 20
365.8716129999998
 30
0.0
 11
506.7202229999998
 21
367.8716129999998
 31
0.0
  0
LINE
  5
A4B0
330
A36C
100
AcDbEntity
  8
1
  6
Continuous
100
AcDbLine
 10
504.7202229999999
 20
365.8716129999998
 30
0.0
 11
520.720223
 21
365.8716129999998
 31
0.0
  0
LINE
  5
A4B1
330
A36C
100
AcDbEntity
  8
1
  6
Continuous
100
AcDbLine
 10
518.720223
 20
367.8716129999998
 30
0.0
 11
520.720223
 21
365.8716129999998
 31
0.0
  0
LINE
  5
A4B2
330
A36C
100
AcDbEntity
  8
1
  6
Continuous
100
AcDbLine
 10
506.7202229999998
 20
367.8716129999998
 30
0.0
 11
518.720223
 21
367.8716129999998
 31
0.0
  0
CIRCLE
  5
A4B3
330
A36C
100
AcDbEntity
  8
1
  6
Continuous
100
AcDbCircle
 10
260.7202229999999
 20
468.1595029999998
 30
0.0
 40
8.0
  0
CIRCLE
  5
A4B4
330
A36C
100
AcDbEntity
  8
2
  6
Continuous
100
AcDbCircle
 10
260.7202229999999
 20
468.1595029999998
 30
0.0
 40
6.9175
  0
LINE
  5
A4B5
330
A36C
100
AcDbEntity
  8
1
  6
Continuous
100
AcDbLine
 10
365.2202229999998
 20
320.77161
 30
0.0
 11
365.2202229999998
 21
318.27161
 31
0.0
  0
LINE
  5
A4B6
330
A36C
100
AcDbEntity
  8
1
  6
Continuous
100
AcDbLine
 10
410.2202229999998
 20
320.77161
 30
0.0
 11
410.2202229999998
 21
318.27161
 31
0.0
  0
LINE
  5
A4B7
330
A36C
100
AcDbEntity
  8
1
  6
Continuous
100
AcDbLine
 10
409.820214
 20
316.971607
 30
0.0
 11
365.620223
 21
316.971607
 31
0.0
  0
LINE
  5
A4B8
330
A36C
100
AcDbEntity
  8
1
  6
Continuous
100
AcDbLine
 10
365.620219
 20
316.9716029999999
 30
0.0
 11
365.220219
 21
318.271606
 31
0.0
  0
LINE
  5
A4B9
330
A36C
100
AcDbEntity
  8
1
  6
Continuous
100
AcDbLine
 10
409.820214
 20
316.9716109999999
 30
0.0
 11
410.220215
 21
318.27161
 31
0.0
  0
LINE
  5
A4BA
330
A36C
100
AcDbEntity
  8
1
  6
Continuous
100
AcDbLine
 10
395.720223
 20
327.8716129999999
 30
0.0
 11
395.720223
 21
365.8716129999998
 31
0.0
  0
LINE
  5
A4BB
330
A36C
100
AcDbEntity
  8
2
  6
Continuous
100
AcDbLine
 10
394.6377229999998
 20
329.7465579999999
 30
0.0
 11
394.6377229999998
 21
366.954113
 31
0.0
  0
LINE
  5
A4BC
330
A36C
100
AcDbEntity
  8
1
  6
Continuous
100
AcDbLine
 10
379.7202229999999
 20
327.8716129999999
 30
0.0
 11
379.7202229999999
 21
365.8716129999998
 31
0.0
  0
LINE
  5
A4BD
330
A36C
100
AcDbEntity
  8
2
  6
Continuous
100
AcDbLine
 10
380.802723
 20
329.7465579999999
 30
0.0
 11
380.802723
 21
366.954113
 31
0.0
  0
LINE
  5
A4BE
330
A36C
100
AcDbEntity
  8
1
  6
Continuous
100
AcDbLine
 10
405.748087
 20
322.77161
 30
0.0
 11
369.4702229999998
 21
322.77161
 31
0.0
  0
LINE
  5
A4BF
330
A36C
100
AcDbEntity
  8
1
  6
Continuous
100
AcDbLine
 10
410.2202229999998
 20
320.77161
 30
0.0
 11
365.2202229999998
 21
320.77161
 31
0.0
  0
LINE
  5
A4C0
330
A36C
100
AcDbEntity
  8
1
  6
Continuous
100
AcDbLine
 10
374.7201659999998
 20
327.8716129999999
 30
0.0
 11
400.7202759999998
 21
327.8716129999999
 31
0.0
  0
LINE
  5
A4C1
330
A36C
100
AcDbEntity
  8
1
  6
Continuous
100
AcDbLine
 10
379.7202229999999
 20
329.7465579999999
 30
0.0
 11
395.720223
 21
329.7465579999999
 31
0.0
  0
ARC
  5
A4C2
330
A36C
100
AcDbEntity
  8
1
  6
Continuous
100
AcDbCircle
 10
369.696162
 20
316.775863
 30
0.0
 40
6.0
100
AcDbArc
 50
92.158028
 51
138.2442
  0
LINE
  5
A4C3
330
A36C
100
AcDbEntity
  8
1
  6
Continuous
100
AcDbLine
 10
381.080693
 20
327.8716129999999
 30
0.0
 11
381.080693
 21
322.77161
 31
0.0
  0
LINE
  5
A4C4
330
A36C
100
AcDbEntity
  8
2
  6
Continuous
100
AcDbLine
 10
380.802723
 20
329.7465579999999
 30
0.0
 11
379.7202229999999
 21
327.8716129999999
 31
0.0
  0
LINE
  5
A4C5
330
A36C
100
AcDbEntity
  8
1
  6
Continuous
100
AcDbLine
 10
394.359749
 20
327.8716129999999
 30
0.0
 11
394.359749
 21
322.77161
 31
0.0
  0
LINE
  5
A4C6
330
A36C
100
AcDbEntity
  8
2
  6
Continuous
100
AcDbLine
 10
394.6377229999998
 20
329.7465579999999
 30
0.0
 11
395.720223
 21
327.8716129999999
 31
0.0
  0
ARC
  5
A4C7
330
A36C
100
AcDbEntity
  8
1
  6
Continuous
100
AcDbCircle
 10
405.748087
 20
316.77161
 30
0.0
 40
6.0
100
AcDbArc
 50
41.810315
 51
90.0
  0
LINE
  5
A4C8
330
A36C
100
AcDbEntity
  8
1
  6
Continuous
100
AcDbLine
 10
381.7202229999999
 20
367.8716129999998
 30
0.0
 11
393.720223
 21
367.8716129999998
 31
0.0
  0
LINE
  5
A4C9
330
A36C
100
AcDbEntity
  8
1
  6
Continuous
100
AcDbLine
 10
379.7202229999999
 20
365.8716129999998
 30
0.0
 11
395.720223
 21
365.8716129999998
 31
0.0
  0
LINE
  5
A4CA
330
A36C
100
AcDbEntity
  8
1
  6
Continuous
100
AcDbLine
 10
379.7202229999999
 20
365.8716129999998
 30
0.0
 11
381.7202229999999
 21
367.8716129999998
 31
0.0
  0
LINE
  5
A4CB
330
A36C
100
AcDbEntity
  8
1
  6
Continuous
100
AcDbLine
 10
393.720223
 20
367.8716129999998
 30
0.0
 11
395.720223
 21
365.8716129999998
 31
0.0
  0
CIRCLE
  5
A4CC
330
A36C
100
AcDbEntity
  8
1
  6
Continuous
100
AcDbCircle
 10
260.7202229999999
 20
468.1595029999998
 30
0.0
 40
6.0
  0
LINE
  5
A4CD
330
A36C
100
AcDbEntity
  8
1
  6
Continuous
100
AcDbLine
 10
49.220223
 20
365.8716129999998
 30
0.0
 11
65.220223
 21
365.8716129999998
 31
0.0
  0
LINE
  5
A4CE
330
A36C
100
AcDbEntity
  8
1
  6
Continuous
100
AcDbLine
 10
51.220223
 20
367.8716129999998
 30
0.0
 11
63.220223
 21
367.8716129999998
 31
0.0
  0
LINE
  5
A4CF
330
A36C
100
AcDbEntity
  8
1
  6
Continuous
100
AcDbLine
 10
44.220166
 20
327.8716129999999
 30
0.0
 11
70.220276
 21
327.8716129999999
 31
0.0
  0
LINE
  5
A4D0
330
A36C
100
AcDbEntity
  8
1
  6
Continuous
100
AcDbLine
 10
49.220223
 20
329.7465579999999
 30
0.0
 11
65.220223
 21
329.7465579999999
 31
0.0
  0
LINE
  5
A4D1
330
A36C
100
AcDbEntity
  8
1
  6
Continuous
100
AcDbLine
 10
75.248087
 20
322.77161
 30
0.0
 11
38.97022299999999
 21
322.77161
 31
0.0
  0
LINE
  5
A4D2
330
A36C
100
AcDbEntity
  8
1
  6
Continuous
100
AcDbLine
 10
79.720223
 20
320.77161
 30
0.0
 11
34.72022299999999
 21
320.77161
 31
0.0
  0
LINE
  5
A4D3
330
A36C
100
AcDbEntity
  8
1
  6
Continuous
100
AcDbLine
 10
79.320214
 20
316.971607
 30
0.0
 11
35.12022299999999
 21
316.971607
 31
0.0
  0
LINE
  5
A4D4
330
A36C
100
AcDbEntity
  8
2
  6
Continuous
100
AcDbLine
 10
50.302723
 20
329.7465579999999
 30
0.0
 11
50.302723
 21
366.954113
 31
0.0
  0
LINE
  5
A4D5
330
A36C
100
AcDbEntity
  8
1
  6
Continuous
100
AcDbLine
 10
49.220223
 20
327.8716129999999
 30
0.0
 11
49.220223
 21
365.8716129999998
 31
0.0
  0
LINE
  5
A4D6
330
A36C
100
AcDbEntity
  8
1
  6
Continuous
100
AcDbLine
 10
35.120219
 20
316.9716029999999
 30
0.0
 11
34.720219
 21
318.271606
 31
0.0
  0
LINE
  5
A4D7
330
A36C
100
AcDbEntity
  8
1
  6
Continuous
100
AcDbLine
 10
34.72022299999999
 20
320.77161
 30
0.0
 11
34.72022299999999
 21
318.27161
 31
0.0
  0
ARC
  5
A4D8
330
A36C
100
AcDbEntity
  8
1
  6
Continuous
100
AcDbCircle
 10
39.196162
 20
316.775863
 30
0.0
 40
6.0
100
AcDbArc
 50
92.158028
 51
138.2442
  0
LINE
  5
A4D9
330
A36C
100
AcDbEntity
  8
2
  6
Continuous
100
AcDbLine
 10
50.302723
 20
329.7465579999999
 30
0.0
 11
49.220223
 21
327.8716129999999
 31
0.0
  0
LINE
  5
A4DA
330
A36C
100
AcDbEntity
  8
1
  6
Continuous
100
AcDbLine
 10
50.58069299999999
 20
327.8716129999999
 30
0.0
 11
50.58069299999999
 21
322.77161
 31
0.0
  0
LINE
  5
A4DB
330
A36C
100
AcDbEntity
  8
1
  6
Continuous
100
AcDbLine
 10
49.220223
 20
365.8716129999998
 30
0.0
 11
51.220223
 21
367.8716129999998
 31
0.0
  0
LINE
  5
A4DC
330
A36C
100
AcDbEntity
  8
2
  6
Continuous
100
AcDbLine
 10
64.13772299999999
 20
329.7465579999999
 30
0.0
 11
64.13772299999999
 21
366.954113
 31
0.0
  0
LINE
  5
A4DD
330
A36C
100
AcDbEntity
  8
1
  6
Continuous
100
AcDbLine
 10
65.220223
 20
327.8716129999999
 30
0.0
 11
65.220223
 21
365.8716129999998
 31
0.0
  0
ARC
  5
A4DE
330
A36C
100
AcDbEntity
  8
1
  6
Continuous
100
AcDbCircle
 10
75.248087
 20
316.77161
 30
0.0
 40
6.0
100
AcDbArc
 50
41.810315
 51
90.0
  0
LINE
  5
A4DF
330
A36C
100
AcDbEntity
  8
2
  6
Continuous
100
AcDbLine
 10
64.13772299999999
 20
329.7465579999999
 30
0.0
 11
65.220223
 21
327.8716129999999
 31
0.0
  0
LINE
  5
A4E0
330
A36C
100
AcDbEntity
  8
1
  6
Continuous
100
AcDbLine
 10
63.859749
 20
327.8716129999999
 30
0.0
 11
63.859749
 21
322.77161
 31
0.0
  0
LINE
  5
A4E1
330
A36C
100
AcDbEntity
  8
1
  6
Continuous
100
AcDbLine
 10
79.320214
 20
316.9716109999999
 30
0.0
 11
79.72021499999998
 21
318.27161
 31
0.0
  0
LINE
  5
A4E2
330
A36C
100
AcDbEntity
  8
1
  6
Continuous
100
AcDbLine
 10
79.720223
 20
320.77161
 30
0.0
 11
79.720223
 21
318.27161
 31
0.0
  0
LINE
  5
A4E3
330
A36C
100
AcDbEntity
  8
1
  6
Continuous
100
AcDbLine
 10
63.220223
 20
367.8716129999998
 30
0.0
 11
65.220223
 21
365.8716129999998
 31
0.0
  0
LINE
  5
A4E4
330
A36C
100
AcDbEntity
  8
1
  6
Continuous
100
AcDbLine
 10
252.7202229999998
 20
327.8716129999999
 30
0.0
 11
252.7202229999998
 21
365.8716129999998
 31
0.0
  0
LINE
  5
A4E5
330
A36C
100
AcDbEntity
  8
1
  6
Continuous
100
AcDbLine
 10
268.720223
 20
327.8716129999999
 30
0.0
 11
268.720223
 21
365.8716129999998
 31
0.0
  0
LINE
  5
A4E6
330
A36C
100
AcDbEntity
  8
2
  6
Continuous
100
AcDbLine
 10
253.8027229999999
 20
329.7465579999999
 30
0.0
 11
253.8027229999999
 21
366.954113
 31
0.0
  0
LINE
  5
A4E7
330
A36C
100
AcDbEntity
  8
2
  6
Continuous
100
AcDbLine
 10
267.6377229999999
 20
329.7465579999999
 30
0.0
 11
267.6377229999999
 21
366.954113
 31
0.0
  0
LINE
  5
A4E8
330
A36C
100
AcDbEntity
  8
1
  6
Continuous
100
AcDbLine
 10
282.820239
 20
316.971607
 30
0.0
 11
238.620213
 21
316.971607
 31
0.0
  0
LINE
  5
A4E9
330
A36C
100
AcDbEntity
  8
1
  6
Continuous
100
AcDbLine
 10
283.2202229999998
 20
320.7716019999998
 30
0.0
 11
238.220223
 21
320.7716019999998
 31
0.0
  0
LINE
  5
A4EA
330
A36C
100
AcDbEntity
  8
1
  6
Continuous
100
AcDbLine
 10
278.9702899999999
 20
322.7716019999998
 30
0.0
 11
242.470223
 21
322.7716019999998
 31
0.0
  0
LINE
  5
A4EB
330
A36C
100
AcDbEntity
  8
1
  6
Continuous
100
AcDbLine
 10
238.220223
 20
320.7716019999998
 30
0.0
 11
238.220223
 21
318.2716019999998
 31
0.0
  0
LINE
  5
A4EC
330
A36C
100
AcDbEntity
  8
1
  6
Continuous
100
AcDbLine
 10
238.6202429999999
 20
316.9716029999999
 30
0.0
 11
238.2202429999999
 21
318.27161
 31
0.0
  0
ARC
  5
A4ED
330
A36C
100
AcDbEntity
  8
1
  6
Continuous
100
AcDbCircle
 10
242.696163
 20
316.77586
 30
0.0
 40
6.0
100
AcDbArc
 50
92.158028
 51
138.2442
  0
LINE
  5
A4EE
330
A36C
100
AcDbEntity
  8
1
  6
Continuous
100
AcDbLine
 10
252.7202229999998
 20
329.7465579999999
 30
0.0
 11
268.720223
 21
329.7465579999999
 31
0.0
  0
LINE
  5
A4EF
330
A36C
100
AcDbEntity
  8
2
  6
Continuous
100
AcDbLine
 10
253.8027229999999
 20
329.7465579999999
 30
0.0
 11
252.7202229999998
 21
327.8716129999999
 31
0.0
  0
LINE
  5
A4F0
330
A36C
100
AcDbEntity
  8
2
  6
Continuous
100
AcDbLine
 10
267.6377229999999
 20
329.7465579999999
 30
0.0
 11
268.720223
 21
327.8716129999999
 31
0.0
  0
LINE
  5
A4F1
330
A36C
100
AcDbEntity
  8
1
  6
Continuous
100
AcDbLine
 10
283.2202229999998
 20
320.7716019999998
 30
0.0
 11
283.2202229999998
 21
318.2716019999998
 31
0.0
  0
LINE
  5
A4F2
330
A36C
100
AcDbEntity
  8
1
  6
Continuous
100
AcDbLine
 10
282.8202369999999
 20
316.971599
 30
0.0
 11
283.220238
 21
318.2716019999998
 31
0.0
  0
ARC
  5
A4F3
330
A36C
100
AcDbEntity
  8
1
  6
Continuous
100
AcDbCircle
 10
278.744286
 20
316.77586
 30
0.0
 40
6.0
100
AcDbArc
 50
41.75575999999996
 51
87.841936
  0
LINE
  5
A4F4
330
A36C
100
AcDbEntity
  8
1
  6
Continuous
100
AcDbLine
 10
254.7202229999999
 20
367.8716129999998
 30
0.0
 11
266.720223
 21
367.8716129999998
 31
0.0
  0
LINE
  5
A4F5
330
A36C
100
AcDbEntity
  8
1
  6
Continuous
100
AcDbLine
 10
252.7202229999998
 20
365.8716129999998
 30
0.0
 11
268.720223
 21
365.8716129999998
 31
0.0
  0
LINE
  5
A4F6
330
A36C
100
AcDbEntity
  8
1
  6
Continuous
100
AcDbLine
 10
252.7202229999998
 20
365.8716129999998
 30
0.0
 11
254.7202229999999
 21
367.8716129999998
 31
0.0
  0
LINE
  5
A4F7
330
A36C
100
AcDbEntity
  8
1
  6
Continuous
100
AcDbLine
 10
266.720223
 20
367.8716129999998
 30
0.0
 11
268.720223
 21
365.8716129999998
 31
0.0
  0
ARC
  5
A4F8
330
A36C
100
AcDbEntity
  8
1
  6
Continuous
100
AcDbCircle
 10
240.720223
 20
310.971604
 30
0.0
 40
5.0
100
AcDbArc
 50
90.0
 51
179.030169
  0
CIRCLE
  5
A4F9
330
A36C
100
AcDbEntity
  8
1
  6
Continuous
100
AcDbCircle
 10
260.7202229999999
 20
468.1595029999998
 30
0.0
 40
18.25
  0
CIRCLE
  5
A4FA
330
A36C
100
AcDbEntity
  8
1
  6
Continuous
100
AcDbCircle
 10
260.7202229999999
 20
468.1595029999998
 30
0.0
 40
22.5
  0
ARC
  5
A4FB
330
A36C
100
AcDbEntity
  8
1
  6
Continuous
100
AcDbCircle
 10
260.7202229999999
 20
468.1595029999998
 30
0.0
 40
25.0
100
AcDbArc
 50
140.403279
 51
220.291044
  0
LINE
  5
A4FC
330
A36C
100
AcDbEntity
  8
1
  6
Continuous
100
AcDbLine
 10
225.720223
 20
492.2594929999998
 30
0.0
 11
217.720223
 21
492.2594929999998
 31
0.0
  0
LINE
  5
A4FD
330
A36C
100
AcDbEntity
  8
1
  6
Continuous
100
AcDbLine
 10
224.5202229999999
 20
493.4594929999998
 30
0.0
 11
218.9202229999999
 21
493.4594929999998
 31
0.0
  0
ARC
  5
A4FE
330
A36C
100
AcDbEntity
  8
1
  6
Continuous
100
AcDbCircle
 10
224.720223
 20
493.3010939999999
 30
0.0
 40
6.841600999999998
100
AcDbArc
 50
243.992176
 51
296.0078240000001
  0
ARC
  5
A4FF
330
A36C
100
AcDbEntity
  8
1
  6
Continuous
100
AcDbCircle
 10
224.720223
 20
484.6178919999998
 30
0.0
 40
6.841600999999998
100
AcDbArc
 50
63.992176
 51
116.007824
  0
LINE
  5
A500
330
A36C
100
AcDbEntity
  8
1
  6
Continuous
100
AcDbLine
 10
218.9702229999999
 20
491.4594929999998
 30
0.0
 11
224.470223
 21
491.4594929999998
 31
0.0
  0
LINE
  5
A501
330
A36C
100
AcDbEntity
  8
1
  6
Continuous
100
AcDbLine
 10
210.7202229999999
 20
486.4594929999998
 30
0.0
 11
242.1807929999999
 21
486.4594929999998
 31
0.0
  0
LINE
  5
A502
330
A36C
100
AcDbEntity
  8
1
  6
Continuous
100
AcDbLine
 10
210.7202229999999
 20
484.1595029999998
 30
0.0
 11
213.8901769999999
 21
484.1595029999998
 31
0.0
  0
LINE
  5
A503
330
A36C
100
AcDbEntity
  8
4
  6
CENTER
100
AcDbLine
 10
221.720223
 20
493.4594929999998
 30
0.0
 11
221.720223
 21
491.4594929999998
 31
0.0
  0
LINE
  5
A504
330
A36C
100
AcDbEntity
  8
1
  6
Continuous
100
AcDbLine
 10
217.720223
 20
492.2594929999998
 30
0.0
 11
217.720223
 21
491.4594929999998
 31
0.0
  0
LINE
  5
A505
330
A36C
100
AcDbEntity
  8
2
  6
Continuous
100
AcDbLine
 10
218.3967229999999
 20
492.935993
 30
0.0
 11
218.3967229999999
 21
491.4594929999998
 31
0.0
  0
LINE
  5
A506
330
A36C
100
AcDbEntity
  8
1
  6
Continuous
100
AcDbLine
 10
218.9202229999999
 20
493.4594929999998
 30
0.0
 11
217.720223
 21
492.2594929999998
 31
0.0
  0
ARC
  5
A507
330
A36C
100
AcDbEntity
  8
1
  6
Continuous
100
AcDbCircle
 10
218.720223
 20
493.3010939999999
 30
0.0
 40
6.841600999999998
100
AcDbArc
 50
243.992176
 51
296.0078240000001
  0
ARC
  5
A508
330
A36C
100
AcDbEntity
  8
1
  6
Continuous
100
AcDbCircle
 10
218.720223
 20
484.6178919999998
 30
0.0
 40
6.841600999999998
100
AcDbArc
 50
63.992176
 51
116.007824
  0
LINE
  5
A509
330
A36C
100
AcDbEntity
  8
1
  6
Continuous
100
AcDbLine
 10
215.720223
 20
487.1523129999998
 30
0.0
 11
215.720223
 21
490.766673
 31
0.0
  0
LINE
  5
A50A
330
A36C
100
AcDbEntity
  8
1
  6
Continuous
100
AcDbLine
 10
221.720223
 20
486.4594929999998
 30
0.0
 11
221.720223
 21
490.766673
 31
0.0
  0
ARC
  5
A50B
330
A36C
100
AcDbEntity
  8
1
  6
Continuous
100
AcDbCircle
 10
128.2535629999999
 20
468.1595029999998
 30
0.0
 40
85.0
100
AcDbArc
 50
10.840782
 51
10.849816
  0
LINE
  5
A50C
330
A36C
100
AcDbEntity
  8
1
  6
Continuous
100
AcDbLine
 10
210.7202229999999
 20
484.1595029999998
 30
0.0
 11
210.7202229999999
 21
486.4594929999998
 31
0.0
  0
LINE
  5
A50D
330
A36C
100
AcDbEntity
  8
1
  6
Continuous
100
AcDbLine
 10
224.5202229999999
 20
493.4594929999998
 30
0.0
 11
225.720223
 21
492.2594929999998
 31
0.0
  0
LINE
  5
A50E
330
A36C
100
AcDbEntity
  8
1
  6
Continuous
100
AcDbLine
 10
225.720223
 20
492.2594929999998
 30
0.0
 11
225.720223
 21
491.4594929999998
 31
0.0
  0
LINE
  5
A50F
330
A36C
100
AcDbEntity
  8
2
  6
Continuous
100
AcDbLine
 10
225.043723
 20
492.935993
 30
0.0
 11
225.043723
 21
491.4594929999998
 31
0.0
  0
LINE
  5
A510
330
A36C
100
AcDbEntity
  8
1
  6
Continuous
100
AcDbLine
 10
227.7202229999998
 20
487.1523129999998
 30
0.0
 11
227.7202229999998
 21
490.766673
 31
0.0
  0
LINE
  5
A511
330
A36C
100
AcDbEntity
  8
1
  6
Continuous
100
AcDbLine
 10
217.470223
 20
446.659523
 30
0.0
 11
225.970223
 21
446.659523
 31
0.0
  0
LINE
  5
A512
330
A36C
100
AcDbEntity
  8
1
  6
Continuous
100
AcDbLine
 10
210.7202229999999
 20
449.859503
 30
0.0
 11
242.180805
 21
449.859503
 31
0.0
  0
LINE
  5
A513
330
A36C
100
AcDbEntity
  8
1
  6
Continuous
100
AcDbLine
 10
210.7202229999999
 20
452.1595029999998
 30
0.0
 11
213.890172
 21
452.1595029999998
 31
0.0
  0
LINE
  5
A514
330
A36C
100
AcDbEntity
  8
1
  6
Continuous
100
AcDbLine
 10
210.7202229999999
 20
449.859503
 30
0.0
 11
210.7202229999999
 21
452.1595029999998
 31
0.0
  0
LINE
  5
A515
330
A36C
100
AcDbEntity
  8
1
  6
Continuous
100
AcDbLine
 10
215.470223
 20
449.859503
 30
0.0
 11
215.470223
 21
448.6595229999998
 31
0.0
  0
ARC
  5
A516
330
A36C
100
AcDbEntity
  8
1
  6
Continuous
100
AcDbCircle
 10
217.470223
 20
448.6595229999998
 30
0.0
 40
2.0
100
AcDbArc
 50
180.0000179999999
 51
270.0
  0
LINE
  5
A517
330
A36C
100
AcDbEntity
  8
1
  6
Continuous
100
AcDbLine
 10
227.970223
 20
449.859503
 30
0.0
 11
227.970223
 21
448.6595229999998
 31
0.0
  0
ARC
  5
A518
330
A36C
100
AcDbEntity
  8
1
  6
Continuous
100
AcDbCircle
 10
225.970223
 20
448.6595229999998
 30
0.0
 40
2.0
100
AcDbArc
 50
270.0
 51
359.9999799999998
  0
ARC
  5
A519
330
A36C
100
AcDbEntity
  8
1
  6
Continuous
100
AcDbCircle
 10
242.1807929999999
 20
490.459493
 30
0.0
 40
4.0
100
AcDbArc
 50
270.0
 51
309.7389469999999
  0
ARC
  5
A51A
330
A36C
100
AcDbEntity
  8
1
  6
Continuous
100
AcDbCircle
 10
260.7202229999999
 20
468.1595029999998
 30
0.0
 40
25.0
100
AcDbArc
 50
230.2610839999999
 51
129.7389469999999
  0
ARC
  5
A51B
330
A36C
100
AcDbEntity
  8
1
  6
Continuous
100
AcDbCircle
 10
242.180805
 20
445.859503
 30
0.0
 40
4.0
100
AcDbArc
 50
50.261084
 51
90.0
  0
LINE
  5
A51C
330
A36C
100
AcDbEntity
  8
1
  6
Continuous
100
AcDbLine
 10
44.220166
 20
327.8716129999999
 30
0.0
 11
44.220166
 21
322.77161
 31
0.0
  0
LINE
  5
A51D
330
A36C
100
AcDbEntity
  8
1
  6
Continuous
100
AcDbLine
 10
70.220276
 20
327.8716129999999
 30
0.0
 11
70.220276
 21
322.77161
 31
0.0
  0
LINE
  5
A51E
330
A36C
100
AcDbEntity
  8
1
  6
Continuous
100
AcDbLine
 10
400.7202759999998
 20
327.8716129999999
 30
0.0
 11
400.7202759999998
 21
322.77161
 31
0.0
  0
LINE
  5
A51F
330
A36C
100
AcDbEntity
  8
1
  6
Continuous
100
AcDbLine
 10
374.7201659999998
 20
327.8716129999999
 30
0.0
 11
374.7201659999998
 21
322.77161
 31
0.0
  0
LINE
  5
A520
330
A36C
100
AcDbEntity
  8
1
  6
Continuous
100
AcDbLine
 10
249.320223
 20
461.741296
 30
0.0
 11
249.320223
 21
474.5777099999998
 31
0.0
  0
LINE
  5
A521
330
A36C
100
AcDbEntity
  8
1
  6
Continuous
100
AcDbLine
 10
272.120223
 20
461.741296
 30
0.0
 11
272.120223
 21
474.5777099999998
 31
0.0
  0
LINE
  5
A522
330
A36C
100
AcDbEntity
  8
1
  6
Continuous
100
AcDbLine
 10
260.7202229999999
 20
481.1595029999998
 30
0.0
 11
249.320223
 21
474.5777099999998
 31
0.0
  0
LINE
  5
A523
330
A36C
100
AcDbEntity
  8
1
  6
Continuous
100
AcDbLine
 10
272.120223
 20
461.741296
 30
0.0
 11
260.7202229999999
 21
455.1595029999998
 31
0.0
  0
LINE
  5
A524
330
A36C
100
AcDbEntity
  8
1
  6
Continuous
100
AcDbLine
 10
260.7202229999999
 20
481.1595029999998
 30
0.0
 11
272.120223
 21
474.5777099999998
 31
0.0
  0
LINE
  5
A525
330
A36C
100
AcDbEntity
  8
1
  6
Continuous
100
AcDbLine
 10
249.320223
 20
461.741296
 30
0.0
 11
260.7202229999999
 21
455.1595029999998
 31
0.0
  0
LINE
  5
A526
330
A36C
100
AcDbEntity
  8
1
  6
Continuous
100
AcDbLine
 10
249.320223
 20
327.8716129999999
 30
0.0
 11
272.120223
 21
327.8716129999999
 31
0.0
  0
LINE
  5
A527
330
A36C
100
AcDbEntity
  8
1
  6
Continuous
100
AcDbLine
 10
260.7202229999999
 20
327.8716129999999
 30
0.0
 11
260.7202229999999
 21
322.7716019999998
 31
0.0
  0
LINE
  5
A528
330
A36C
100
AcDbEntity
  8
1
  6
Continuous
100
AcDbLine
 10
272.120223
 20
327.8716129999999
 30
0.0
 11
272.120223
 21
322.7716019999998
 31
0.0
  0
LINE
  5
A529
330
A36C
100
AcDbEntity
  8
1
  6
Continuous
100
AcDbLine
 10
249.320223
 20
327.8716129999999
 30
0.0
 11
249.320223
 21
322.7716019999998
 31
0.0
  0
LINE
  5
A52A
330
A36C
100
AcDbEntity
  8
1
  6
Continuous
100
AcDbLine
 10
501.320223
 20
327.8716129999999
 30
0.0
 11
524.1202229999998
 21
327.8716129999999
 31
0.0
  0
LINE
  5
A52B
330
A36C
100
AcDbEntity
  8
1
  6
Continuous
100
AcDbLine
 10
512.720223
 20
327.8716129999999
 30
0.0
 11
512.720223
 21
322.7716019999998
 31
0.0
  0
LINE
  5
A52C
330
A36C
100
AcDbEntity
  8
1
  6
Continuous
100
AcDbLine
 10
524.1202229999998
 20
327.8716129999999
 30
0.0
 11
524.1202229999998
 21
322.7716019999998
 31
0.0
  0
LINE
  5
A52D
330
A36C
100
AcDbEntity
  8
1
  6
Continuous
100
AcDbLine
 10
501.320223
 20
327.8716129999999
 30
0.0
 11
501.320223
 21
322.7716019999998
 31
0.0
  0
ARC
  5
A52E
330
A36C
100
AcDbEntity
  8
1
  6
Continuous
100
AcDbCircle
 10
221.720223
 20
238.3716089999999
 30
0.0
 40
56.24260699999999
100
AcDbArc
 50
97.27867899999999
 51
49.40401000000001
  0
ARC
  5
A52F
330
A36C
100
AcDbEntity
  8
1
  6
Continuous
100
AcDbCircle
 10
221.720223
 20
238.3716089999999
 30
0.0
 40
62.5
100
AcDbArc
 50
96.13685500000002
 51
50.54584000000001
  0
LINE
  5
A530
330
A36C
100
AcDbEntity
  8
1
  6
Continuous
100
AcDbLine
 10
161.336365
 20
455.6595029999998
 30
0.0
 11
212.1970489999999
 21
455.6595029999998
 31
0.0
  0
LINE
  5
A531
330
A36C
100
AcDbEntity
  8
1
  6
Continuous
100
AcDbLine
 10
212.7202229999999
 20
453.159503
 30
0.0
 11
213.3534529999999
 21
453.159503
 31
0.0
  0
LINE
  5
A532
330
A36C
100
AcDbEntity
  8
1
  6
Continuous
100
AcDbLine
 10
161.336365
 20
480.6595029999998
 30
0.0
 11
212.197053
 21
480.6595029999998
 31
0.0
  0
LINE
  5
A533
330
A36C
100
AcDbEntity
  8
1
  6
Continuous
100
AcDbLine
 10
212.7202229999999
 20
483.1595029999999
 30
0.0
 11
213.353458
 21
483.1595029999999
 31
0.0
  0
LINE
  5
A534
330
A36C
100
AcDbEntity
  8
1
  6
Continuous
100
AcDbLine
 10
218.720223
 20
226.8390459999999
 30
0.0
 11
218.720223
 21
185.468159
 31
0.0
  0
ARC
  5
A535
330
A36C
100
AcDbEntity
  8
1
  6
Continuous
100
AcDbCircle
 10
215.720223
 20
185.468159
 30
0.0
 40
3.0
100
AcDbArc
 50
263.52951
 51
0.0
  0
LINE
  5
A536
330
A36C
100
AcDbEntity
  8
1
  6
Continuous
100
AcDbLine
 10
174.404494
 20
214.5179619999999
 30
0.0
 11
211.055072
 21
235.6781789999998
 31
0.0
  0
LINE
  5
A537
330
A36C
100
AcDbEntity
  8
1
  6
Continuous
100
AcDbLine
 10
177.4044879999999
 20
209.3217999999999
 30
0.0
 11
213.2327309999999
 21
230.007245
 31
0.0
  0
ARC
  5
A538
330
A36C
100
AcDbEntity
  8
1
  6
Continuous
100
AcDbCircle
 10
172.904488
 20
217.1160379999999
 30
0.0
 40
3.0
100
AcDbArc
 50
203.5294599999998
 51
300.00001
  0
ARC
  5
A539
330
A36C
100
AcDbEntity
  8
1
  6
Continuous
100
AcDbCircle
 10
178.9044879999999
 20
206.7237299999999
 30
0.0
 40
3.0
100
AcDbArc
 50
120.0000199999999
 51
216.4704399999999
  0
LINE
  5
A53A
330
A36C
100
AcDbEntity
  8
1
  6
Continuous
100
AcDbLine
 10
206.9725
 20
232.1664029999999
 30
0.0
 11
211.352728
 21
234.695328
 31
0.0
  0
ARC
  5
A53B
330
A36C
100
AcDbEntity
  8
1
  6
Continuous
100
AcDbCircle
 10
214.732731
 20
227.409174
 30
0.0
 40
3.0
100
AcDbArc
 50
100.5354899999999
 51
120.00003
  0
ARC
  5
A53C
330
A36C
100
AcDbEntity
  8
1
  6
Continuous
100
AcDbCircle
 10
215.720223
 20
226.8390459999999
 30
0.0
 40
3.0
100
AcDbArc
 50
0.0
 51
19.46448699999998
  0
ARC
  5
A53D
330
A36C
100
AcDbEntity
  8
1
  6
Continuous
100
AcDbCircle
 10
221.720223
 20
238.3716089999999
 30
0.0
 40
16.0
100
AcDbArc
 50
202.8192199999999
 51
217.1807299999999
  0
LINE
  5
A53E
330
A36C
100
AcDbEntity
  8
1
  6
Continuous
100
AcDbLine
 10
208.9725
 20
228.7023
 30
0.0
 11
213.3527299999999
 21
231.2312259999999
 31
0.0
  0
LINE
  5
A53F
330
A36C
100
AcDbEntity
  8
1
  6
Continuous
100
AcDbLine
 10
224.720223
 20
226.8390459999999
 30
0.0
 11
224.720223
 21
185.468159
 31
0.0
  0
ARC
  5
A540
330
A36C
100
AcDbEntity
  8
1
  6
Continuous
100
AcDbCircle
 10
227.7202229999998
 20
185.468159
 30
0.0
 40
3.0
100
AcDbArc
 50
179.9999799999999
 51
276.4704599999999
  0
LINE
  5
A541
330
A36C
100
AcDbEntity
  8
1
  6
Continuous
100
AcDbLine
 10
232.7162649999999
 20
235.48715
 30
0.0
 11
269.035973
 21
214.5179619999999
 31
0.0
  0
LINE
  5
A542
330
A36C
100
AcDbEntity
  8
1
  6
Continuous
100
AcDbLine
 10
230.207722
 20
230.007253
 30
0.0
 11
266.035973
 21
209.321808
 31
0.0
  0
LINE
  5
A543
330
A36C
100
AcDbEntity
  8
1
  6
Continuous
100
AcDbLine
 10
232.2265859999999
 20
234.6151669999999
 30
0.0
 11
236.4679649999999
 21
232.166407
 31
0.0
  0
ARC
  5
A544
330
A36C
100
AcDbEntity
  8
1
  6
Continuous
100
AcDbCircle
 10
221.720223
 20
238.3716089999999
 30
0.0
 40
16.0
100
AcDbArc
 50
322.8192399999998
 51
337.18076
  0
ARC
  5
A545
330
A36C
100
AcDbEntity
  8
1
  6
Continuous
100
AcDbCircle
 10
227.7202229999998
 20
226.8390459999999
 30
0.0
 40
3.0
100
AcDbArc
 50
160.5355129999999
 51
179.9999599999999
  0
ARC
  5
A546
330
A36C
100
AcDbEntity
  8
1
  6
Continuous
100
AcDbCircle
 10
228.707718
 20
227.409175
 30
0.0
 40
3.0
100
AcDbArc
 50
59.999995
 51
79.46454099999998
  0
LINE
  5
A547
330
A36C
100
AcDbEntity
  8
1
  6
Continuous
100
AcDbLine
 10
230.087723
 20
231.2312339999997
 30
0.0
 11
234.467953
 21
228.7023079999999
 31
0.0
  0
ARC
  5
A548
330
A36C
100
AcDbEntity
  8
1
  6
Continuous
100
AcDbCircle
 10
264.535958
 20
206.723732
 30
0.0
 40
3.0
100
AcDbArc
 50
323.5295299999999
 51
59.999995
  0
ARC
  5
A549
330
A36C
100
AcDbEntity
  8
1
  6
Continuous
100
AcDbCircle
 10
270.535958
 20
217.11604
 30
0.0
 40
3.0
100
AcDbArc
 50
239.99997
 51
336.47053
  0
ARC
  5
A54A
330
A36C
100
AcDbEntity
  8
1
  6
Continuous
100
AcDbCircle
 10
259.2202229999999
 20
468.1595029999998
 30
0.0
 40
100.0
100
AcDbArc
 50
173.5881149999999
 51
186.411904
  0
ARC
  5
A54B
330
A36C
100
AcDbEntity
  8
1
  6
Continuous
100
AcDbCircle
 10
212.7202229999999
 20
454.1595029999998
 30
0.0
 40
1.0
100
AcDbArc
 50
184.4115399999997
 51
270.00002
  0
LINE
  5
A54C
330
A36C
100
AcDbEntity
  8
1
  6
Continuous
100
AcDbLine
 10
211.7231819999997
 20
454.0825909999998
 30
0.0
 11
211.601527
 21
455.6595109999998
 31
0.0
  0
ARC
  5
A54D
330
A36C
100
AcDbEntity
  8
1
  6
Continuous
100
AcDbCircle
 10
161.336365
 20
457.159503
 30
0.0
 40
1.5
100
AcDbArc
 50
186.4118629999999
 51
270.00002
  0
ARC
  5
A54E
330
A36C
100
AcDbEntity
  8
1
  6
Continuous
100
AcDbCircle
 10
212.7202229999999
 20
482.159503
 30
0.0
 40
1.0
100
AcDbArc
 50
90.0
 51
175.588479
  0
LINE
  5
A54F
330
A36C
100
AcDbEntity
  8
1
  6
Continuous
100
AcDbLine
 10
211.6015319999999
 20
480.659518
 30
0.0
 11
211.723187
 21
482.23643
 31
0.0
  0
ARC
  5
A550
330
A36C
100
AcDbEntity
  8
1
  6
Continuous
100
AcDbCircle
 10
161.336365
 20
479.1595029999998
 30
0.0
 40
1.5
100
AcDbArc
 50
90.0
 51
173.5881559999999
  0
LINE
  5
A551
330
A36C
100
AcDbEntity
  8
1
  6
Continuous
100
AcDbLine
 10
177.4044879999999
 20
267.421414
 30
0.0
 11
211.3541
 21
247.820595
 31
0.0
  0
LINE
  5
A552
330
A36C
100
AcDbEntity
  8
1
  6
Continuous
100
AcDbLine
 10
174.4044949999999
 20
262.225258
 30
0.0
 11
210.8884329999999
 21
241.161249
 31
0.0
  0
ARC
  5
A553
330
A36C
100
AcDbEntity
  8
1
  6
Continuous
100
AcDbCircle
 10
172.904488
 20
259.6271799999998
 30
0.0
 40
3.0
100
AcDbArc
 50
59.999995
 51
156.47054
  0
ARC
  5
A554
330
A36C
100
AcDbEntity
  8
1
  6
Continuous
100
AcDbCircle
 10
178.9044879999999
 20
270.01949
 30
0.0
 40
3.0
100
AcDbArc
 50
143.52954
 51
239.99995
  0
LINE
  5
A555
330
A36C
100
AcDbEntity
  8
1
  6
Continuous
100
AcDbLine
 10
237.5102259999999
 20
244.0238609999999
 30
0.0
 11
269.035973
 21
262.225256
 31
0.0
  0
LINE
  5
A556
330
A36C
100
AcDbEntity
  8
1
  6
Continuous
100
AcDbLine
 10
243.267553
 20
254.276062
 30
0.0
 11
266.035973
 21
267.421414
 31
0.0
  0
ARC
  5
A557
330
A36C
100
AcDbEntity
  8
1
  6
Continuous
100
AcDbCircle
 10
264.535958
 20
270.0194859999999
 30
0.0
 40
3.0
100
AcDbArc
 50
300.00001
 51
36.47047500000001
  0
ARC
  5
A558
330
A36C
100
AcDbEntity
  8
1
  6
Continuous
100
AcDbCircle
 10
270.535958
 20
259.6271779999999
 30
0.0
 40
3.0
100
AcDbArc
 50
23.529474
 51
120.00003
  0
ARC
  5
A559
330
A36C
100
AcDbEntity
  8
1
  6
Continuous
100
AcDbCircle
 10
68.220223
 20
298.755467
 30
0.0
 40
1.5
100
AcDbArc
 50
0.0
 51
83.58815600000001
  0
ARC
  5
A55A
330
A36C
100
AcDbEntity
  8
1
  6
Continuous
100
AcDbCircle
 10
68.220223
 20
177.987751
 30
0.0
 40
1.5
100
AcDbArc
 50
276.41184
 51
0.0
  0
LINE
  5
A55B
330
A36C
100
AcDbEntity
  8
1
  6
Continuous
100
AcDbLine
 10
44.72022299999999
 20
298.755467
 30
0.0
 11
44.72022299999999
 21
177.987751
 31
0.0
  0
ARC
  5
A55C
330
A36C
100
AcDbEntity
  8
1
  6
Continuous
100
AcDbCircle
 10
57.22022299999999
 20
275.8716089999999
 30
0.0
 40
100.0
100
AcDbArc
 50
263.5880999999999
 51
276.4118899999999
  0
ARC
  5
A55D
330
A36C
100
AcDbEntity
  8
1
  6
Continuous
100
AcDbCircle
 10
46.220223
 20
177.987751
 30
0.0
 40
1.5
100
AcDbArc
 50
179.9999799999999
 51
263.5881499999999
  0
LINE
  5
A55E
330
A36C
100
AcDbEntity
  8
1
  6
Continuous
100
AcDbLine
 10
42.22022299999999
 20
247.3716089999999
 30
0.0
 11
42.22022299999999
 21
229.3716089999997
 31
0.0
  0
ARC
  5
A55F
330
A36C
100
AcDbEntity
  8
1
  6
Continuous
100
AcDbCircle
 10
43.22022299999999
 20
229.3716089999997
 30
0.0
 40
1.0
100
AcDbArc
 50
179.9999799999999
 51
265.5884599999998
  0
LINE
  5
A560
330
A36C
100
AcDbEntity
  8
1
  6
Continuous
100
AcDbLine
 10
43.14331099999999
 20
228.374568
 30
0.0
 11
44.720231
 21
228.2529129999999
 31
0.0
  0
ARC
  5
A561
330
A36C
100
AcDbEntity
  8
1
  6
Continuous
100
AcDbCircle
 10
43.22022299999999
 20
247.3716089999999
 30
0.0
 40
1.0
100
AcDbArc
 50
94.41154
 51
180.00002
  0
LINE
  5
A562
330
A36C
100
AcDbEntity
  8
1
  6
Continuous
100
AcDbLine
 10
43.14331099999999
 20
248.36865
 30
0.0
 11
44.720231
 21
248.4903049999998
 31
0.0
  0
ARC
  5
A563
330
A36C
100
AcDbEntity
  8
1
  6
Continuous
100
AcDbCircle
 10
57.22022299999999
 20
200.871609
 30
0.0
 40
100.0
100
AcDbArc
 50
83.58811499999999
 51
96.41190400000001
  0
ARC
  5
A564
330
A36C
100
AcDbEntity
  8
1
  6
Continuous
100
AcDbCircle
 10
46.220223
 20
298.755467
 30
0.0
 40
1.5
100
AcDbArc
 50
96.41186300000001
 51
180.00002
  0
LINE
  5
A565
330
A36C
100
AcDbEntity
  8
1
  6
Continuous
100
AcDbLine
 10
69.720223
 20
298.755467
 30
0.0
 11
69.720223
 21
177.987751
 31
0.0
  0
LINE
  5
A566
330
A36C
100
AcDbEntity
  8
1
  6
Continuous
100
AcDbLine
 10
72.220223
 20
247.3716089999999
 30
0.0
 11
72.220223
 21
229.3716089999997
 31
0.0
  0
ARC
  5
A567
330
A36C
100
AcDbEntity
  8
1
  6
Continuous
100
AcDbCircle
 10
71.22022300000002
 20
229.3716089999997
 30
0.0
 40
1.0
100
AcDbArc
 50
274.4115199999999
 51
0.0
  0
LINE
  5
A568
330
A36C
100
AcDbEntity
  8
1
  6
Continuous
100
AcDbLine
 10
69.72023799999999
 20
228.252918
 30
0.0
 11
71.29715
 21
228.374573
 31
0.0
  0
ARC
  5
A569
330
A36C
100
AcDbEntity
  8
1
  6
Continuous
100
AcDbCircle
 10
71.22022300000002
 20
247.3716089999999
 30
0.0
 40
1.0
100
AcDbArc
 50
0.0
 51
85.58847900000001
  0
LINE
  5
A56A
330
A36C
100
AcDbEntity
  8
1
  6
Continuous
100
AcDbLine
 10
69.72023799999999
 20
248.4903
 30
0.0
 11
71.29715
 21
248.3686449999999
 31
0.0
  0
ARC
  5
A56B
330
A36C
100
AcDbEntity
  8
1
  6
Continuous
100
AcDbCircle
 10
376.7202229999999
 20
177.987751
 30
0.0
 40
1.5
100
AcDbArc
 50
179.9999799999999
 51
263.5881499999999
  0
ARC
  5
A56C
330
A36C
100
AcDbEntity
  8
1
  6
Continuous
100
AcDbCircle
 10
398.7202229999999
 20
177.987751
 30
0.0
 40
1.5
100
AcDbArc
 50
276.41184
 51
0.0
  0
ARC
  5
A56D
330
A36C
100
AcDbEntity
  8
1
  6
Continuous
100
AcDbCircle
 10
387.7202229999999
 20
275.8716089999999
 30
0.0
 40
100.0
100
AcDbArc
 50
263.5880999999999
 51
276.4118899999999
  0
LINE
  5
A56E
330
A36C
100
AcDbEntity
  8
1
  6
Continuous
100
AcDbLine
 10
400.2202229999999
 20
298.755467
 30
0.0
 11
400.2202229999999
 21
177.987751
 31
0.0
  0
LINE
  5
A56F
330
A36C
100
AcDbEntity
  8
1
  6
Continuous
100
AcDbLine
 10
375.2202229999999
 20
298.755467
 30
0.0
 11
375.2202229999999
 21
177.987751
 31
0.0
  0
LINE
  5
A570
330
A36C
100
AcDbEntity
  8
1
  6
Continuous
100
AcDbLine
 10
372.7202229999999
 20
247.3716089999999
 30
0.0
 11
372.7202229999999
 21
229.3716089999997
 31
0.0
  0
LINE
  5
A571
330
A36C
100
AcDbEntity
  8
1
  6
Continuous
100
AcDbLine
 10
373.643311
 20
228.374568
 30
0.0
 11
375.220231
 21
228.2529129999999
 31
0.0
  0
ARC
  5
A572
330
A36C
100
AcDbEntity
  8
1
  6
Continuous
100
AcDbCircle
 10
373.7202229999998
 20
229.3716089999997
 30
0.0
 40
1.0
100
AcDbArc
 50
179.9999799999999
 51
265.5884599999998
  0
LINE
  5
A573
330
A36C
100
AcDbEntity
  8
1
  6
Continuous
100
AcDbLine
 10
373.643311
 20
248.36865
 30
0.0
 11
375.220231
 21
248.4903049999998
 31
0.0
  0
ARC
  5
A574
330
A36C
100
AcDbEntity
  8
1
  6
Continuous
100
AcDbCircle
 10
373.7202229999998
 20
247.3716089999999
 30
0.0
 40
1.0
100
AcDbArc
 50
94.41154
 51
180.00002
  0
LINE
  5
A575
330
A36C
100
AcDbEntity
  8
1
  6
Continuous
100
AcDbLine
 10
402.7202229999998
 20
247.3716089999999
 30
0.0
 11
402.7202229999998
 21
229.3716089999997
 31
0.0
  0
LINE
  5
A576
330
A36C
100
AcDbEntity
  8
1
  6
Continuous
100
AcDbLine
 10
400.2202379999998
 20
228.252918
 30
0.0
 11
401.7971499999998
 21
228.374573
 31
0.0
  0
ARC
  5
A577
330
A36C
100
AcDbEntity
  8
1
  6
Continuous
100
AcDbCircle
 10
401.7202229999998
 20
229.3716089999997
 30
0.0
 40
1.0
100
AcDbArc
 50
274.4115199999999
 51
0.0
  0
LINE
  5
A578
330
A36C
100
AcDbEntity
  8
1
  6
Continuous
100
AcDbLine
 10
400.2202379999998
 20
248.4903
 30
0.0
 11
401.7971499999998
 21
248.3686449999999
 31
0.0
  0
ARC
  5
A579
330
A36C
100
AcDbEntity
  8
1
  6
Continuous
100
AcDbCircle
 10
401.7202229999998
 20
247.3716089999999
 30
0.0
 40
1.0
100
AcDbArc
 50
0.0
 51
85.58847900000001
  0
ARC
  5
A57A
330
A36C
100
AcDbEntity
  8
1
  6
Continuous
100
AcDbCircle
 10
387.7202229999999
 20
200.871609
 30
0.0
 40
100.0
100
AcDbArc
 50
83.58811499999999
 51
96.41190400000001
  0
ARC
  5
A57B
330
A36C
100
AcDbEntity
  8
1
  6
Continuous
100
AcDbCircle
 10
376.7202229999999
 20
298.755467
 30
0.0
 40
1.5
100
AcDbArc
 50
96.41186300000001
 51
180.00002
  0
ARC
  5
A57C
330
A36C
100
AcDbEntity
  8
1
  6
Continuous
100
AcDbCircle
 10
398.7202229999999
 20
298.755467
 30
0.0
 40
1.5
100
AcDbArc
 50
0.0
 51
83.58815600000001
  0
LINE
  5
A57D
330
A36C
100
AcDbEntity
  8
1
  6
Continuous
100
AcDbLine
 10
161.336365
 20
86.37160899999996
 30
0.0
 11
282.1040809999999
 21
86.37160899999996
 31
0.0
  0
LINE
  5
A57E
330
A36C
100
AcDbEntity
  8
1
  6
Continuous
100
AcDbLine
 10
161.336365
 20
61.371609
 30
0.0
 11
282.1040809999999
 21
61.371609
 31
0.0
  0
ARC
  5
A57F
330
A36C
100
AcDbEntity
  8
1
  6
Continuous
100
AcDbCircle
 10
259.2202229999999
 20
73.87160899999997
 30
0.0
 40
100.0
100
AcDbArc
 50
173.5881149999999
 51
186.411904
  0
ARC
  5
A580
330
A36C
100
AcDbEntity
  8
1
  6
Continuous
100
AcDbCircle
 10
161.336365
 20
62.87160899999999
 30
0.0
 40
1.5
100
AcDbArc
 50
186.4118629999999
 51
270.00002
  0
ARC
  5
A581
330
A36C
100
AcDbEntity
  8
1
  6
Continuous
100
AcDbCircle
 10
161.336365
 20
84.87160899999997
 30
0.0
 40
1.5
100
AcDbArc
 50
90.0
 51
173.5881559999999
  0
LINE
  5
A582
330
A36C
100
AcDbEntity
  8
1
  6
Continuous
100
AcDbLine
 10
212.7202229999999
 20
88.87160899999996
 30
0.0
 11
230.720223
 21
88.87160899999996
 31
0.0
  0
LINE
  5
A583
330
A36C
100
AcDbEntity
  8
1
  6
Continuous
100
AcDbLine
 10
212.7202229999999
 20
58.871609
 30
0.0
 11
230.720223
 21
58.871609
 31
0.0
  0
LINE
  5
A584
330
A36C
100
AcDbEntity
  8
1
  6
Continuous
100
AcDbLine
 10
211.7231819999997
 20
59.794697
 30
0.0
 11
211.601527
 21
61.371617
 31
0.0
  0
ARC
  5
A585
330
A36C
100
AcDbEntity
  8
1
  6
Continuous
100
AcDbCircle
 10
212.7202229999999
 20
59.871609
 30
0.0
 40
1.0
100
AcDbArc
 50
184.4115399999997
 51
270.00002
  0
LINE
  5
A586
330
A36C
100
AcDbEntity
  8
1
  6
Continuous
100
AcDbLine
 10
211.6015319999999
 20
86.37162399999999
 30
0.0
 11
211.723187
 21
87.94853600000001
 31
0.0
  0
ARC
  5
A587
330
A36C
100
AcDbEntity
  8
1
  6
Continuous
100
AcDbCircle
 10
212.7202229999999
 20
87.87160899999998
 30
0.0
 40
1.0
100
AcDbArc
 50
90.0
 51
175.588479
  0
LINE
  5
A588
330
A36C
100
AcDbEntity
  8
1
  6
Continuous
100
AcDbLine
 10
231.7172629999999
 20
59.794697
 30
0.0
 11
231.8389189999999
 21
61.371617
 31
0.0
  0
ARC
  5
A589
330
A36C
100
AcDbEntity
  8
1
  6
Continuous
100
AcDbCircle
 10
230.720223
 20
59.871609
 30
0.0
 40
1.0
100
AcDbArc
 50
269.99998
 51
355.58846
  0
LINE
  5
A58A
330
A36C
100
AcDbEntity
  8
1
  6
Continuous
100
AcDbLine
 10
231.8389139999999
 20
86.37162399999999
 30
0.0
 11
231.7172589999999
 21
87.94853600000001
 31
0.0
  0
ARC
  5
A58B
330
A36C
100
AcDbEntity
  8
1
  6
Continuous
100
AcDbCircle
 10
230.720223
 20
87.87160899999998
 30
0.0
 40
1.0
100
AcDbArc
 50
4.411519999999998
 51
90.0
  0
ARC
  5
A58C
330
A36C
100
AcDbEntity
  8
1
  6
Continuous
100
AcDbCircle
 10
184.220223
 20
73.87160899999997
 30
0.0
 40
100.0
100
AcDbArc
 50
353.5880999999998
 51
6.411889999999998
  0
ARC
  5
A58D
330
A36C
100
AcDbEntity
  8
1
  6
Continuous
100
AcDbCircle
 10
282.1040809999999
 20
62.87160899999999
 30
0.0
 40
1.5
100
AcDbArc
 50
269.99998
 51
353.5881499999999
  0
ARC
  5
A58E
330
A36C
100
AcDbEntity
  8
1
  6
Continuous
100
AcDbCircle
 10
282.1040809999999
 20
84.87160899999997
 30
0.0
 40
1.5
100
AcDbArc
 50
6.411839999999997
 51
90.0
  0
ARC
  5
A58F
330
A36C
100
AcDbEntity
  8
1
  6
Continuous
100
AcDbCircle
 10
551.720223
 20
238.3716089999999
 30
0.0
 40
62.5
100
AcDbArc
 50
129.45416
 51
83.86314500000002
  0
ARC
  5
A590
330
A36C
100
AcDbEntity
  8
1
  6
Continuous
100
AcDbCircle
 10
551.720223
 20
238.3716089999999
 30
0.0
 40
56.24260699999999
100
AcDbArc
 50
130.59599
 51
82.721321
  0
LINE
  5
A591
330
A36C
100
AcDbEntity
  8
1
  6
Continuous
100
AcDbLine
 10
562.3853759999998
 20
235.678189
 30
0.0
 11
599.035973
 21
214.5179619999999
 31
0.0
  0
LINE
  5
A592
330
A36C
100
AcDbEntity
  8
1
  6
Continuous
100
AcDbLine
 10
562.5520129999999
 20
241.1612369999998
 30
0.0
 11
599.035973
 21
262.225256
 31
0.0
  0
LINE
  5
A593
330
A36C
100
AcDbEntity
  8
1
  6
Continuous
100
AcDbLine
 10
562.086346
 20
247.8205899999999
 30
0.0
 11
596.035973
 21
267.421414
 31
0.0
  0
LINE
  5
A594
330
A36C
100
AcDbEntity
  8
1
  6
Continuous
100
AcDbLine
 10
560.2077219999999
 20
230.007253
 30
0.0
 11
596.035973
 21
209.321808
 31
0.0
  0
LINE
  5
A595
330
A36C
100
AcDbEntity
  8
1
  6
Continuous
100
AcDbLine
 10
507.404488
 20
267.421414
 30
0.0
 11
530.1728869999998
 21
254.276071
 31
0.0
  0
LINE
  5
A596
330
A36C
100
AcDbEntity
  8
1
  6
Continuous
100
AcDbLine
 10
504.404494
 20
214.5179619999999
 30
0.0
 11
540.7241849999998
 21
235.487141
 31
0.0
  0
LINE
  5
A597
330
A36C
100
AcDbEntity
  8
1
  6
Continuous
100
AcDbLine
 10
504.4044949999998
 20
262.225258
 30
0.0
 11
535.9302089999999
 21
244.0238799999999
 31
0.0
  0
LINE
  5
A598
330
A36C
100
AcDbEntity
  8
1
  6
Continuous
100
AcDbLine
 10
507.404488
 20
209.3217999999999
 30
0.0
 11
543.2327309999998
 21
230.007245
 31
0.0
  0
ARC
  5
A599
330
A36C
100
AcDbEntity
  8
1
  6
Continuous
100
AcDbCircle
 10
508.904488
 20
206.7237299999999
 30
0.0
 40
3.0
100
AcDbArc
 50
120.0000199999999
 51
216.4704399999999
  0
ARC
  5
A59A
330
A36C
100
AcDbEntity
  8
1
  6
Continuous
100
AcDbCircle
 10
502.9044879999998
 20
217.1160379999999
 30
0.0
 40
3.0
100
AcDbArc
 50
203.5294599999998
 51
300.00001
  0
ARC
  5
A59B
330
A36C
100
AcDbEntity
  8
1
  6
Continuous
100
AcDbCircle
 10
502.9044879999998
 20
259.6271799999998
 30
0.0
 40
3.0
100
AcDbArc
 50
59.999995
 51
156.47054
  0
LINE
  5
A59C
330
A36C
100
AcDbEntity
  8
1
  6
Continuous
100
AcDbLine
 10
554.720223
 20
226.8390459999999
 30
0.0
 11
554.720223
 21
185.468159
 31
0.0
  0
LINE
  5
A59D
330
A36C
100
AcDbEntity
  8
1
  6
Continuous
100
AcDbLine
 10
548.720223
 20
226.8390459999999
 30
0.0
 11
548.720223
 21
185.468159
 31
0.0
  0
ARC
  5
A59E
330
A36C
100
AcDbEntity
  8
1
  6
Continuous
100
AcDbCircle
 10
545.720223
 20
185.468159
 30
0.0
 40
3.0
100
AcDbArc
 50
263.52951
 51
0.0
  0
ARC
  5
A59F
330
A36C
100
AcDbEntity
  8
1
  6
Continuous
100
AcDbCircle
 10
557.720223
 20
185.468159
 30
0.0
 40
3.0
100
AcDbArc
 50
179.9999799999999
 51
276.4704599999999
  0
LINE
  5
A5A0
330
A36C
100
AcDbEntity
  8
1
  6
Continuous
100
AcDbLine
 10
536.9724999999998
 20
232.1664029999999
 30
0.0
 11
541.213866
 21
234.615156
 31
0.0
  0
ARC
  5
A5A1
330
A36C
100
AcDbEntity
  8
1
  6
Continuous
100
AcDbCircle
 10
551.720223
 20
238.3716089999999
 30
0.0
 40
16.0
100
AcDbArc
 50
202.8192199999999
 51
217.1807299999999
  0
LINE
  5
A5A2
330
A36C
100
AcDbEntity
  8
1
  6
Continuous
100
AcDbLine
 10
538.9724999999998
 20
228.7023
 30
0.0
 11
543.3527299999998
 21
231.2312259999999
 31
0.0
  0
ARC
  5
A5A3
330
A36C
100
AcDbEntity
  8
1
  6
Continuous
100
AcDbCircle
 10
544.7327309999998
 20
227.409174
 30
0.0
 40
3.0
100
AcDbArc
 50
100.5354899999999
 51
120.00003
  0
ARC
  5
A5A4
330
A36C
100
AcDbEntity
  8
1
  6
Continuous
100
AcDbCircle
 10
545.720223
 20
226.8390459999999
 30
0.0
 40
3.0
100
AcDbArc
 50
0.0
 51
19.46448699999998
  0
LINE
  5
A5A5
330
A36C
100
AcDbEntity
  8
1
  6
Continuous
100
AcDbLine
 10
562.0877230000001
 20
234.6953399999999
 30
0.0
 11
566.4679650000001
 21
232.166407
 31
0.0
  0
ARC
  5
A5A6
330
A36C
100
AcDbEntity
  8
1
  6
Continuous
100
AcDbCircle
 10
557.720223
 20
226.8390459999999
 30
0.0
 40
3.0
100
AcDbArc
 50
160.5355129999999
 51
179.9999599999999
  0
ARC
  5
A5A7
330
A36C
100
AcDbEntity
  8
1
  6
Continuous
100
AcDbCircle
 10
558.707718
 20
227.409175
 30
0.0
 40
3.0
100
AcDbArc
 50
59.999995
 51
79.46454099999998
  0
LINE
  5
A5A8
330
A36C
100
AcDbEntity
  8
1
  6
Continuous
100
AcDbLine
 10
560.087723
 20
231.2312339999997
 30
0.0
 11
564.4679530000002
 21
228.7023079999999
 31
0.0
  0
ARC
  5
A5A9
330
A36C
100
AcDbEntity
  8
1
  6
Continuous
100
AcDbCircle
 10
551.720223
 20
238.3716089999999
 30
0.0
 40
16.0
100
AcDbArc
 50
322.8192399999998
 51
337.18076
  0
ARC
  5
A5AA
330
A36C
100
AcDbEntity
  8
1
  6
Continuous
100
AcDbCircle
 10
508.904488
 20
270.01949
 30
0.0
 40
3.0
100
AcDbArc
 50
143.52954
 51
239.99995
  0
ARC
  5
A5AB
330
A36C
100
AcDbEntity
  8
1
  6
Continuous
100
AcDbCircle
 10
600.5359580000003
 20
217.11604
 30
0.0
 40
3.0
100
AcDbArc
 50
239.99997
 51
336.47053
  0
ARC
  5
A5AC
330
A36C
100
AcDbEntity
  8
1
  6
Continuous
100
AcDbCircle
 10
594.5359580000001
 20
206.723732
 30
0.0
 40
3.0
100
AcDbArc
 50
323.5295299999999
 51
59.999995
  0
ARC
  5
A5AD
330
A36C
100
AcDbEntity
  8
1
  6
Continuous
100
AcDbCircle
 10
600.5359580000003
 20
259.6271779999999
 30
0.0
 40
3.0
100
AcDbArc
 50
23.529474
 51
120.00003
  0
ARC
  5
A5AE
330
A36C
100
AcDbEntity
  8
1
  6
Continuous
100
AcDbCircle
 10
594.5359580000001
 20
270.0194859999999
 30
0.0
 40
3.0
100
AcDbArc
 50
300.00001
 51
36.47047500000001
  0
ENDSEC
  0
SECTION
  2
OBJECTS
  0
DICTIONARY
  5
A35A
330
0
100
AcDbDictionary
281
     1
  3
ACAD_CIP_PREVIOUS_PRODUCT_INFO
350
A62B
  3
ACAD_COLOR
350
A60D
  3
ACAD_DETAILVIEWSTYLE
350
A626
  3
ACAD_GROUP
350
A35B
  3
ACAD_LAYOUT
350
A367
  3
ACAD_MATERIAL
350
A5DB
  3
ACAD_MLEADERSTYLE
350
A622
  3
ACAD_MLINESTYLE
350
A364
  3
ACAD_PLOTSETTINGS
350
A366
  3
ACAD_PLOTSTYLENAME
350
A5D9
  3
ACAD_SCALELIST
350
A610
  3
ACAD_SECTIONVIEWSTYLE
350
A624
  3
ACAD_TABLESTYLE
350
A60E
  3
ACAD_VISUALSTYLE
350
A5F4
  3
ACDB_RECOMPOSE_DATA
350
A649
  3
AcDbVariableDictionary
350
A63C
  3
DWGPROPS
350
A64A
  0
DICTIONARY
  5
A62C
330
A35E
100
AcDbDictionary
280
     1
281
     1
  3
ADSK_XREC_LAYER_RECONCILED
360
A62D
  0
DICTIONARY
  5
A62E
330
A374
100
AcDbDictionary
280
     1
281
     1
  3
ADSK_XREC_LAYER_RECONCILED
360
A62F
  0
DICTIONARY
  5
A630
330
A375
100
AcDbDictionary
280
     1
281
     1
  3
ADSK_XREC_LAYER_RECONCILED
360
A631
  0
DICTIONARY
  5
A632
330
A376
100
AcDbDictionary
280
     1
281
     1
  3
ADSK_XREC_LAYER_RECONCILED
360
A633
  0
DICTIONARY
  5
A634
330
A377
100
AcDbDictionary
280
     1
281
     1
  3
ADSK_XREC_LAYER_RECONCILED
360
A635
  0
DICTIONARY
  5
A636
330
A378
100
AcDbDictionary
280
     1
281
     1
  3
ADSK_XREC_LAYER_RECONCILED
360
A637
  0
DICTIONARY
  5
A638
330
A379
100
AcDbDictionary
280
     1
281
     1
  3
ADSK_XREC_LAYER_RECONCILED
360
A639
  0
DICTIONARY
  5
A63A
330
A37A
100
AcDbDictionary
280
     1
281
     1
  3
ADSK_XREC_LAYER_RECONCILED
360
A63B
  0
DICTIONARY
  5
A5B9
330
A36C
100
AcDbDictionary
281
     1
  3
ACAD_LAYOUTSELFREF
350
A5D5
  0
DICTIONARY
  5
A5B7
330
A368
100
AcDbDictionary
281
     1
  3
ACAD_LAYOUTSELFREF
350
A5D4
  0
XRECORD
  5
A62B
102
{ACAD_REACTORS
330
A35A
102
}
330
A35A
100
AcDbXrecord
280
     1
300
ACDLT
300
2014
300
ACDLT_F_S
  0
DICTIONARY
  5
A60D
102
{ACAD_REACTORS
330
A35A
102
}
330
A35A
100
AcDbDictionary
281
     1
  0
DICTIONARY
  5
A626
102
{ACAD_REACTORS
330
A35A
102
}
330
A35A
100
AcDbDictionary
281
     1
  3
Imperial24
350
A627
  0
DICTIONARY
  5
A35B
102
{ACAD_REACTORS
330
A35A
102
}
330
A35A
100
AcDbDictionary
281
     1
  0
DICTIONARY
  5
A367
102
{ACAD_REACTORS
330
A35A
102
}
330
A35A
100
AcDbDictionary
281
     1
  3
Model
350
A628
  3
レイアウト1
350
A629
  0
DICTIONARY
  5
A5DB
102
{ACAD_REACTORS
330
A35A
102
}
330
A35A
100
AcDbDictionary
281
     1
  3
ByBlock
350
A5E4
  3
ByLayer
350
A5DC
  3
Global
350
A5EC
  0
DICTIONARY
  5
A622
102
{ACAD_REACTORS
330
A35A
102
}
330
A35A
100
AcDbDictionary
281
     1
  3
Standard
350
A623
  0
DICTIONARY
  5
A364
102
{ACAD_REACTORS
330
A35A
102
}
330
A35A
100
AcDbDictionary
281
     1
  3
STANDARD
350
A365
  0
DICTIONARY
  5
A366
102
{ACAD_REACTORS
330
A35A
102
}
330
A35A
100
AcDbDictionary
281
     1
  0
ACDBDICTIONARYWDFLT
  5
A5D9
102
{ACAD_REACTORS
330
A35A
102
}
330
A35A
100
AcDbDictionary
281
     1
  3
Normal
350
A5DA
100
AcDbDictionaryWithDefault
340
A5DA
  0
DICTIONARY
  5
A610
102
{ACAD_REACTORS
330
A35A
102
}
330
A35A
100
AcDbDictionary
281
     1
  3
A0
350
A611
  3
A1
350
A612
  3
A2
350
A613
  3
A3
350
A614
  3
A4
350
A615
  3
A5
350
A616
  3
A6
350
A617
  3
A7
350
A618
  3
A8
350
A619
  3
A9
350
A61A
  3
B0
350
A61B
  3
B1
350
A61C
  3
B2
350
A61D
  3
B3
350
A61E
  3
B4
350
A61F
  3
B5
350
A620
  3
B6
350
A621
  0
DICTIONARY
  5
A624
102
{ACAD_REACTORS
330
A35A
102
}
330
A35A
100
AcDbDictionary
281
     1
  3
Imperial24
350
A625
  0
DICTIONARY
  5
A60E
102
{ACAD_REACTORS
330
A35A
102
}
330
A35A
100
AcDbDictionary
281
     1
  3
Standard
350
A60F
  0
DICTIONARY
  5
A5F4
102
{ACAD_REACTORS
330
A35A
102
}
330
A35A
100
AcDbDictionary
281
     1
  3
2dWireframe
350
A5FA
  3
Basic
350
A5F9
  3
Brighten
350
A600
  3
ColorChange
350
A604
  3
Conceptual
350
A5FD
  3
Dim
350
A5FF
  3
EdgeColorOff
350
A60C
  3
Facepattern
350
A603
  3
Flat
350
A5F5
  3
FlatWithEdges
350
A5F6
  3
Gouraud
350
A5F7
  3
GouraudWithEdges
350
A5F8
  3
Hidden
350
A5FC
  3
JitterOff
350
A60A
  3
Linepattern
350
A602
  3
OverhangOff
350
A60B
  3
Realistic
350
A5FE
  3
Shaded
350
A609
  3
Shaded with edges
350
A608
  3
Shades of Gray
350
A605
  3
Sketchy
350
A606
  3
Thicken
350
A601
  3
Wireframe
350
A5FB
  3
X-Ray
350
A607
  0
XRECORD
  5
A649
102
{ACAD_REACTORS
330
A35A
102
}
330
A35A
100
AcDbXrecord
280
     1
 90
        1
330
A60F
  0
DICTIONARY
  5
A63C
102
{ACAD_REACTORS
330
A35A
102
}
330
A35A
100
AcDbDictionary
281
     1
  3
CANNOSCALE
350
A641
  3
CMLEADERSTYLE
350
A63E
  3
CTABLESTYLE
350
A63D
  3
CVIEWDETAILSTYLE
350
A63F
  3
CVIEWSECTIONSTYLE
350
A640
  3
DIMASSOC
350
A644
  3
INDEXCTL
350
A643
  3
SORTENTS
350
A642
  3
XCLIPFRAME
350
A645
  0
XRECORD
  5
A64A
102
{ACAD_REACTORS
330
A35A
102
}
330
A35A
100
AcDbXrecord
280
     1
  1
DWGPROPS COOKIE
  2

  3

  4

  6

  7

  8
Yoshitsune
  9

300
=
301
=
302
=
303
=
304
=
305
=
306
=
307
=
308
=
309
=
 40
0.1454366782407408
 41
2451301.43546875
 42
2457192.690055625
  1

 90
        0
  0
XRECORD
  5
A62D
102
{ACAD_REACTORS
330
A62C
102
}
330
A62C
100
AcDbXrecord
280
     1
290
     1
  0
XRECORD
  5
A62F
102
{ACAD_REACTORS
330
A62E
102
}
330
A62E
100
AcDbXrecord
280
     1
290
     1
  0
XRECORD
  5
A631
102
{ACAD_REACTORS
330
A630
102
}
330
A630
100
AcDbXrecord
280
     1
290
     1
  0
XRECORD
  5
A633
102
{ACAD_REACTORS
330
A632
102
}
330
A632
100
AcDbXrecord
280
     1
290
     1
  0
XRECORD
  5
A635
102
{ACAD_REACTORS
330
A634
102
}
330
A634
100
AcDbXrecord
280
     1
290
     1
  0
XRECORD
  5
A637
102
{ACAD_REACTORS
330
A636
102
}
330
A636
100
AcDbXrecord
280
     1
290
     1
  0
XRECORD
  5
A639
102
{ACAD_REACTORS
330
A638
102
}
330
A638
100
AcDbXrecord
280
     1
290
     1
  0
XRECORD
  5
A63B
102
{ACAD_REACTORS
330
A63A
102
}
330
A63A
100
AcDbXrecord
280
     1
290
     1
  0
XRECORD
  5
A5D5
102
{ACAD_REACTORS
330
A5B9
102
}
330
A5B9
100
AcDbXrecord
280
     1
340
A36C
  0
XRECORD
  5
A5D4
102
{ACAD_REACTORS
330
A5B7
102
}
330
A5B7
100
AcDbXrecord
280
     1
340
A368
  0
ACDBDETAILVIEWSTYLE
  5
A627
102
{ACAD_XDICTIONARY
360
A682
102
}
102
{ACAD_REACTORS
330
A626
102
}
330
A626
100
AcDbModelDocViewStyle
 70
     0
  3
Imperial24
290
     0
100
AcDbDetailViewStyle
 70
     0
 71
     0
 90
        3
 71
     1
340
A35F
 40
0.24
340
0
 40
0.24
300

 40
0.36
280
     3
 71
     2
340
A363
 90
       25
 71
     3
340
A35F
 40
0.24
 90
        1
 40
0.75
 90
        1
300
%<\AcVar ViewType \f "%tc1">% %<\AcVar ViewDetailId>%\PSCALE %<\AcVar ViewScale \f "%sn">%
 71
     4
340
A363
 90
       25
340
A363
 90
       25
280
     0
  0
LAYOUT
  5
A628
102
{ACAD_XDICTIONARY
360
A684
102
}
102
{ACAD_REACTORS
330
A367
102
}
330
A367
100
AcDbPlotSettings
  1

  2
Canon LBP9100C
  4

  6

 40
0.0
 41
0.0
 42
0.0
 43
0.0
 44
0.0
 45
0.0
 46
0.0
 47
0.0
 48
0.0
 49
0.0
140
0.0
141
0.0
142
1.0
143
1.0
 70
  1712
 72
     0
 73
     0
 74
     0
  7

 75
     0
147
1.0
148
0.0
149
0.0
100
AcDbLayout
  1
Model
 70
     1
 71
     0
 10
0.0
 20
0.0
 11
12.0
 21
9.0
 12
0.0
 22
0.0
 32
0.0
 14
0.0
 24
0.0
 34
0.0
 15
0.0
 25
0.0
 35
0.0
146
0.0
 13
0.0
 23
0.0
 33
0.0
 16
1.0
 26
0.0
 36
0.0
 17
0.0
 27
1.0
 37
0.0
 76
     0
330
A36C
331
A5D3
  0
LAYOUT
  5
A629
102
{ACAD_XDICTIONARY
360
A686
102
}
102
{ACAD_REACTORS
330
A367
102
}
330
A367
100
AcDbPlotSettings
  1

  2
Canon LBP9100C
  4

  6

 40
0.0
 41
0.0
 42
0.0
 43
0.0
 44
0.0
 45
0.0
 46
0.0
 47
0.0
 48
0.0
 49
0.0
140
0.0
141
0.0
142
1.0
143
1.0
 70
   688
 72
     0
 73
     0
 74
     5
  7

 75
    16
147
1.0
148
0.0
149
0.0
100
AcDbLayout
  1
レイアウト1
 70
     0
 71
     1
 10
0.0
 20
0.0
 11
420.0
 21
297.0
 12
0.0
 22
0.0
 32
0.0
 14
1.000000000000000E+20
 24
1.000000000000000E+20
 34
1.000000000000000E+20
 15
-1.000000000000000E+20
 25
-1.000000000000000E+20
 35
-1.000000000000000E+20
146
0.0
 13
0.0
 23
0.0
 33
0.0
 16
1.0
 26
0.0
 36
0.0
 17
0.0
 27
1.0
 37
0.0
 76
     0
330
A368
  0
MATERIAL
  5
A5E4
102
{ACAD_XDICTIONARY
360
A5E5
102
}
102
{ACAD_REACTORS
330
A5DB
102
}
330
A5DB
100
AcDbMaterial
  1
ByBlock
 72
     0
 43
0.0208333333333333
 43
0.0
 43
0.0
 43
0.0
 43
0.0
 43
0.0208333333333333
 43
0.0
 43
0.0
 43
0.0
 43
0.0
 43
1.0
 43
0.0
 43
0.0
 43
0.0
 43
0.0
 43
1.0
 77
     0
 47
0.0208333333333333
 47
0.0
 47
0.0
 47
0.0
 47
0.0
 47
0.0208333333333333
 47
0.0
 47
0.0
 47
0.0
 47
0.0
 47
1.0
 47
0.0
 47
0.0
 47
0.0
 47
0.0
 47
1.0
171
     0
 49
0.0208333333333333
 49
0.0
 49
0.0
 49
0.0
 49
0.0
 49
0.0208333333333333
 49
0.0
 49
0.0
 49
0.0
 49
0.0
 49
1.0
 49
0.0
 49
0.0
 49
0.0
 49
0.0
 49
1.0
175
     0
142
0.0208333333333333
142
0.0
142
0.0
142
0.0
142
0.0
142
0.0208333333333333
142
0.0
142
0.0
142
0.0
142
0.0
142
1.0
142
0.0
142
0.0
142
0.0
142
0.0
142
1.0
179
     0
144
0.0208333333333333
144
0.0
144
0.0
144
0.0
144
0.0
144
0.0208333333333333
144
0.0
144
0.0
144
0.0
144
0.0
144
1.0
144
0.0
144
0.0
144
0.0
144
0.0
144
1.0
147
0.0208333333333333
147
0.0
147
0.0
147
0.0
147
0.0
147
0.0208333333333333
147
0.0
147
0.0
147
0.0
147
0.0
147
1.0
147
0.0
147
0.0
147
0.0
147
0.0
147
1.0
  0
MATERIAL
  5
A5DC
102
{ACAD_XDICTIONARY
360
A5DD
102
}
102
{ACAD_REACTORS
330
A5DB
102
}
330
A5DB
100
AcDbMaterial
  1
ByLayer
 72
     0
 43
0.0208333333333333
 43
0.0
 43
0.0
 43
0.0
 43
0.0
 43
0.0208333333333333
 43
0.0
 43
0.0
 43
0.0
 43
0.0
 43
1.0
 43
0.0
 43
0.0
 43
0.0
 43
0.0
 43
1.0
 77
     0
 47
0.0208333333333333
 47
0.0
 47
0.0
 47
0.0
 47
0.0
 47
0.0208333333333333
 47
0.0
 47
0.0
 47
0.0
 47
0.0
 47
1.0
 47
0.0
 47
0.0
 47
0.0
 47
0.0
 47
1.0
171
     0
 49
0.0208333333333333
 49
0.0
 49
0.0
 49
0.0
 49
0.0
 49
0.0208333333333333
 49
0.0
 49
0.0
 49
0.0
 49
0.0
 49
1.0
 49
0.0
 49
0.0
 49
0.0
 49
0.0
 49
1.0
175
     0
142
0.0208333333333333
142
0.0
142
0.0
142
0.0
142
0.0
142
0.0208333333333333
142
0.0
142
0.0
142
0.0
142
0.0
142
1.0
142
0.0
142
0.0
142
0.0
142
0.0
142
1.0
179
     0
144
0.0208333333333333
144
0.0
144
0.0
144
0.0
144
0.0
144
0.0208333333333333
144
0.0
144
0.0
144
0.0
144
0.0
144
1.0
144
0.0
144
0.0
144
0.0
144
0.0
144
1.0
147
0.0208333333333333
147
0.0
147
0.0
147
0.0
147
0.0
147
0.0208333333333333
147
0.0
147
0.0
147
0.0
147
0.0
147
1.0
147
0.0
147
0.0
147
0.0
147
0.0
147
1.0
  0
MATERIAL
  5
A5EC
102
{ACAD_XDICTIONARY
360
A5ED
102
}
102
{ACAD_REACTORS
330
A5DB
102
}
330
A5DB
100
AcDbMaterial
  1
Global
 72
     0
 43
0.0208333333333333
 43
0.0
 43
0.0
 43
0.0
 43
0.0
 43
0.0208333333333333
 43
0.0
 43
0.0
 43
0.0
 43
0.0
 43
1.0
 43
0.0
 43
0.0
 43
0.0
 43
0.0
 43
1.0
 77
     0
 47
0.0208333333333333
 47
0.0
 47
0.0
 47
0.0
 47
0.0
 47
0.0208333333333333
 47
0.0
 47
0.0
 47
0.0
 47
0.0
 47
1.0
 47
0.0
 47
0.0
 47
0.0
 47
0.0
 47
1.0
171
     0
 49
0.0208333333333333
 49
0.0
 49
0.0
 49
0.0
 49
0.0
 49
0.0208333333333333
 49
0.0
 49
0.0
 49
0.0
 49
0.0
 49
1.0
 49
0.0
 49
0.0
 49
0.0
 49
0.0
 49
1.0
175
     0
142
0.0208333333333333
142
0.0
142
0.0
142
0.0
142
0.0
142
0.0208333333333333
142
0.0
142
0.0
142
0.0
142
0.0
142
1.0
142
0.0
142
0.0
142
0.0
142
0.0
142
1.0
179
     0
144
0.0208333333333333
144
0.0
144
0.0
144
0.0
144
0.0
144
0.0208333333333333
144
0.0
144
0.0
144
0.0
144
0.0
144
1.0
144
0.0
144
0.0
144
0.0
144
0.0
144
1.0
147
0.0208333333333333
147
0.0
147
0.0
147
0.0
147
0.0
147
0.0208333333333333
147
0.0
147
0.0
147
0.0
147
0.0
147
1.0
147
0.0
147
0.0
147
0.0
147
0.0
147
1.0
  0
MLEADERSTYLE
  5
A623
102
{ACAD_REACTORS
330
A622
102
}
330
A622
100
AcDbMLeaderStyle
170
     2
171
     1
172
     0
 90
        2
 40
0.0
 41
0.0
173
     1
 91
-1056964608
340
A361
 92
       -2
290
     1
 42
0.09
291
     1
 43
0.36
  3
Standard
 44
0.18
300

342
A35F
174
     1
178
     6
175
     1
176
     0
 93
-1056964608
 45
0.18
292
     0
297
     0
 46
0.18
 94
-1056964608
 47
1.0
 49
1.0
140
1.0
293
     1
141
0.0
294
     1
177
     0
142
1.0
295
     0
296
     0
143
0.125
1001
ACAD_MLEADERVER
1070
     2
  0
MLINESTYLE
  5
A365
102
{ACAD_REACTORS
330
A364
102
}
330
A364
100
AcDbMlineStyle
  2
STANDARD
 70
     0
  3

 62
   256
 51
90.0
 52
90.0
 71
     2
 49
0.5
 62
   256
  6
BYLAYER
 49
-0.5
 62
   256
  6
BYLAYER
  0
ACDBPLACEHOLDER
  5
A5DA
102
{ACAD_REACTORS
330
A5D9
102
}
330
A5D9
  0
SCALE
  5
A611
102
{ACAD_REACTORS
330
A610
102
}
330
A610
100
AcDbScale
 70
     0
300
1:1
140
1.0
141
1.0
290
     1
  0
SCALE
  5
A612
102
{ACAD_REACTORS
330
A610
102
}
330
A610
100
AcDbScale
 70
     0
300
1/128" = 1'-0"
140
0.0078125
141
12.0
290
     0
  0
SCALE
  5
A613
102
{ACAD_REACTORS
330
A610
102
}
330
A610
100
AcDbScale
 70
     0
300
1/64" = 1'-0"
140
0.015625
141
12.0
290
     0
  0
SCALE
  5
A614
102
{ACAD_REACTORS
330
A610
102
}
330
A610
100
AcDbScale
 70
     0
300
1/32" = 1'-0"
140
0.03125
141
12.0
290
     0
  0
SCALE
  5
A615
102
{ACAD_REACTORS
330
A610
102
}
330
A610
100
AcDbScale
 70
     0
300
1/16" = 1'-0"
140
0.0625
141
12.0
290
     0
  0
SCALE
  5
A616
102
{ACAD_REACTORS
330
A610
102
}
330
A610
100
AcDbScale
 70
     0
300
3/32" = 1'-0"
140
0.09375
141
12.0
290
     0
  0
SCALE
  5
A617
102
{ACAD_REACTORS
330
A610
102
}
330
A610
100
AcDbScale
 70
     0
300
1/8" = 1'-0"
140
0.125
141
12.0
290
     0
  0
SCALE
  5
A618
102
{ACAD_REACTORS
330
A610
102
}
330
A610
100
AcDbScale
 70
     0
300
3/16" = 1'-0"
140
0.1875
141
12.0
290
     0
  0
SCALE
  5
A619
102
{ACAD_REACTORS
330
A610
102
}
330
A610
100
AcDbScale
 70
     0
300
1/4" = 1'-0"
140
0.25
141
12.0
290
     0
  0
SCALE
  5
A61A
102
{ACAD_REACTORS
330
A610
102
}
330
A610
100
AcDbScale
 70
     0
300
3/8" = 1'-0"
140
0.375
141
12.0
290
     0
  0
SCALE
  5
A61B
102
{ACAD_REACTORS
330
A610
102
}
330
A610
100
AcDbScale
 70
     0
300
1/2" = 1'-0"
140
0.5
141
12.0
290
     0
  0
SCALE
  5
A61C
102
{ACAD_REACTORS
330
A610
102
}
330
A610
100
AcDbScale
 70
     0
300
3/4" = 1'-0"
140
0.75
141
12.0
290
     0
  0
SCALE
  5
A61D
102
{ACAD_REACTORS
330
A610
102
}
330
A610
100
AcDbScale
 70
     0
300
1" = 1'-0"
140
1.0
141
12.0
290
     0
  0
SCALE
  5
A61E
102
{ACAD_REACTORS
330
A610
102
}
330
A610
100
AcDbScale
 70
     0
300
1-1/2" = 1'-0"
140
1.5
141
12.0
290
     0
  0
SCALE
  5
A61F
102
{ACAD_REACTORS
330
A610
102
}
330
A610
100
AcDbScale
 70
     0
300
3" = 1'-0"
140
3.0
141
12.0
290
     0
  0
SCALE
  5
A620
102
{ACAD_REACTORS
330
A610
102
}
330
A610
100
AcDbScale
 70
     0
300
6" = 1'-0"
140
6.0
141
12.0
290
     0
  0
SCALE
  5
A621
102
{ACAD_REACTORS
330
A610
102
}
330
A610
100
AcDbScale
 70
     0
300
1'-0" = 1'-0"
140
12.0
141
12.0
290
     0
  0
ACDBSECTIONVIEWSTYLE
  5
A625
102
{ACAD_XDICTIONARY
360
A680
102
}
102
{ACAD_REACTORS
330
A624
102
}
330
A624
100
AcDbModelDocViewStyle
 70
     0
  3
Imperial24
290
     0
100
AcDbSectionViewStyle
 70
     0
 71
     0
 90
       78
 71
     1
340
A35F
 40
0.24
340
0
340
0
 40
0.24
300
I, O, Q, S, X, Z
 40
0.48
 90
        3
 40
0.18
 90
        1
 71
     2
340
A363
 90
       25
340
A363
 90
       50
 40
0.24
 40
0.0
 40
0.24
 71
     3
340
A35F
 40
0.24
 90
        1
 40
0.75
 90
        1
300
%<\AcVar ViewType \f "%tc1">% %<\AcVar ViewSectionStartId>%-%<\AcVar ViewSectionEndId>%\PSCALE %<\AcVar ViewScale \f "%sn">%
 71
     4
300
ANSI31
 40
1.0
 90
        0
290
     0
290
     0
 90
        6
 40
0.0
 40
1.570796326794896
 40
0.2617993877991494
 40
1.308996938995747
 40
-0.2617993877991494
 40
1.832595714594046
  0
TABLESTYLE
  5
A60F
102
{ACAD_XDICTIONARY
360
A647
102
}
102
{ACAD_REACTORS
330
A60E
102
}
330
A60E
100
AcDbTableStyle
  3
Standard
 70
     0
 71
     0
 40
0.06
 41
0.06
280
     0
281
     0
  7
STANDARD
140
0.18
170
     2
 62
     0
 63
     7
283
     0
274
    -2
284
     1
 64
     0
275
    -2
285
     1
 65
     0
276
    -2
286
     1
 66
     0
277
    -2
287
     1
 67
     0
278
    -2
288
     1
 68
     0
279
    -2
289
     1
 69
     0
  7
STANDARD
140
0.25
170
     5
 62
     0
 63
     7
283
     0
274
    -2
284
     1
 64
     0
275
    -2
285
     1
 65
     0
276
    -2
286
     1
 66
     0
277
    -2
287
     1
 67
     0
278
    -2
288
     1
 68
     0
279
    -2
289
     1
 69
     0
  7
STANDARD
140
0.18
170
     5
 62
     0
 63
     7
283
     0
274
    -2
284
     1
 64
     0
275
    -2
285
     1
 65
     0
276
    -2
286
     1
 66
     0
277
    -2
287
     1
 67
     0
278
    -2
288
     1
 68
     0
279
    -2
289
     1
 69
     0
  0
VISUALSTYLE
  5
A5FA
102
{ACAD_XDICTIONARY
360
A658
102
}
102
{ACAD_REACTORS
330
A5F4
102
}
330
A5F4
100
AcDbVisualStyle
  2
2dWireframe
 70
     4
 71
     0
 72
     2
 73
     0
 90
        0
 40
-0.6
 41
-30.0
 62
     5
 63
     7
 74
     1
 91
        4
 64
     7
 65
   257
 75
     1
175
     1
 42
1.0
 92
        0
 66
   257
 43
1.0
 76
     1
 77
     6
 78
     2
 67
     7
 79
     5
170
     0
171
     0
290
     0
174
     0
 93
        1
 44
0.0
173
     0
291
     0
 45
0.0
1001
ACAD
1000
AcDbSavedByObjectVersion
1070
     0
  0
VISUALSTYLE
  5
A5F9
102
{ACAD_XDICTIONARY
360
A656
102
}
102
{ACAD_REACTORS
330
A5F4
102
}
330
A5F4
100
AcDbVisualStyle
  2
Basic
 70
     7
 71
     1
 72
     0
 73
     1
 90
        0
 40
-0.6
 41
-30.0
 62
     5
 63
     7
 74
     0
 91
        4
 64
     7
 65
   257
 75
     1
175
     1
 42
1.0
 92
        8
 66
     7
 43
1.0
 76
     1
 77
     6
 78
     2
 67
     7
 79
     5
170
     0
171
     0
290
     0
174
     0
 93
        1
 44
0.0
173
     0
291
     1
 45
0.0
1001
ACAD
1000
AcDbSavedByObjectVersion
1070
     0
  0
VISUALSTYLE
  5
A600
102
{ACAD_XDICTIONARY
360
A664
102
}
102
{ACAD_REACTORS
330
A5F4
102
}
330
A5F4
100
AcDbVisualStyle
  2
Brighten
 70
    12
 71
     2
 72
     2
 73
     0
 90
        0
 40
-0.6
 41
-30.0
 62
     5
 63
     7
 74
     1
 91
        4
 64
     7
 65
   257
 75
     1
175
     1
 42
1.0
 92
        8
 66
     7
 43
1.0
 76
     1
 77
     6
 78
     2
 67
     7
 79
     5
170
     0
171
     0
290
     0
174
     0
 93
        1
 44
50.0
173
     0
291
     1
 45
0.0
1001
ACAD
1000
AcDbSavedByObjectVersion
1070
     0
  0
VISUALSTYLE
  5
A604
102
{ACAD_XDICTIONARY
360
A66C
102
}
102
{ACAD_REACTORS
330
A5F4
102
}
330
A5F4
100
AcDbVisualStyle
  2
ColorChange
 70
    16
 71
     2
 72
     2
 73
     3
 90
        0
 40
-0.6
 41
-30.0
 62
     5
 63
     8
 74
     1
 91
        4
 64
     7
 65
   257
 75
     1
175
     1
 42
1.0
 92
        8
 66
     8
 43
1.0
 76
     1
 77
     6
 78
     2
 67
     7
 79
     5
170
     0
171
     0
290
     0
174
     0
 93
        1
 44
0.0
173
     0
291
     1
 45
0.0
1001
ACAD
1000
AcDbSavedByObjectVersion
1070
     0
  0
VISUALSTYLE
  5
A5FD
102
{ACAD_XDICTIONARY
360
A65E
102
}
102
{ACAD_REACTORS
330
A5F4
102
}
330
A5F4
100
AcDbVisualStyle
  2
Conceptual
 70
     9
 71
     3
 72
     2
 73
     0
 90
        0
 40
-0.6
 41
-30.0
 62
     5
 63
     7
 74
     2
 91
        2
 64
     7
 65
   257
 75
     1
175
     1
 42
179.0
 92
        8
 66
     7
 43
1.0
 76
     1
 77
     6
 78
     2
 67
     7
 79
     3
170
     0
171
     0
290
     0
174
     0
 93
        1
 44
0.0
173
     0
291
     0
 45
0.0
1001
ACAD
1000
AcDbSavedByObjectVersion
1070
     0
  0
VISUALSTYLE
  5
A5FF
102
{ACAD_XDICTIONARY
360
A662
102
}
102
{ACAD_REACTORS
330
A5F4
102
}
330
A5F4
100
AcDbVisualStyle
  2
Dim
 70
    11
 71
     2
 72
     2
 73
     0
 90
        0
 40
-0.6
 41
-30.0
 62
     5
 63
     7
 74
     1
 91
        4
 64
     7
 65
   257
 75
     1
175
     1
 42
1.0
 92
        8
 66
     7
 43
1.0
 76
     1
 77
     6
 78
     2
 67
     7
 79
     5
170
     0
171
     0
290
     0
174
     0
 93
        1
 44
-50.0
173
     0
291
     1
 45
0.0
1001
ACAD
1000
AcDbSavedByObjectVersion
1070
     0
  0
VISUALSTYLE
  5
A60C
102
{ACAD_XDICTIONARY
360
A67C
102
}
102
{ACAD_REACTORS
330
A5F4
102
}
330
A5F4
100
AcDbVisualStyle
  2
EdgeColorOff
 70
    22
 71
     2
 72
     2
 73
     0
 90
        0
 40
-0.6
 41
-30.0
 62
     5
 63
     7
 74
     1
 91
        4
 64
     7
 65
   257
 75
     1
175
     1
 42
1.0
 92
        8
 66
     7
 43
1.0
 76
     1
 77
     6
 78
     2
 67
     7
 79
     5
170
     0
171
     0
290
     0
174
     0
 93
        1
 44
0.0
173
     0
291
     1
 45
0.0
1001
ACAD
1000
AcDbSavedByObjectVersion
1070
     0
  0
VISUALSTYLE
  5
A603
102
{ACAD_XDICTIONARY
360
A66A
102
}
102
{ACAD_REACTORS
330
A5F4
102
}
330
A5F4
100
AcDbVisualStyle
  2
Facepattern
 70
    15
 71
     2
 72
     2
 73
     0
 90
        0
 40
-0.6
 41
-30.0
 62
     5
 63
     7
 74
     1
 91
        4
 64
     7
 65
   257
 75
     1
175
     1
 42
1.0
 92
        8
 66
     7
 43
1.0
 76
     1
 77
     6
 78
     2
 67
     7
 79
     5
170
     0
171
     0
290
     0
174
     0
 93
        1
 44
0.0
173
     0
291
     1
 45
0.0
1001
ACAD
1000
AcDbSavedByObjectVersion
1070
     0
  0
VISUALSTYLE
  5
A5F5
102
{ACAD_XDICTIONARY
360
A64E
102
}
102
{ACAD_REACTORS
330
A5F4
102
}
330
A5F4
100
AcDbVisualStyle
  2
Flat
 70
     0
 71
     2
 72
     1
 73
     1
 90
        2
 40
-0.6
 41
30.0
 62
     5
 63
     7
 74
     0
 91
        0
 64
     7
 65
   257
 75
     1
175
     1
 42
1.0
 92
        8
 66
     7
 43
1.0
 76
     1
 77
     6
 78
     2
 67
     7
 79
     5
170
     0
171
     0
290
     0
174
     0
 93
       13
 44
0.0
173
     0
291
     1
 45
0.0
1001
ACAD
1000
AcDbSavedByObjectVersion
1070
     0
  0
VISUALSTYLE
  5
A5F6
102
{ACAD_XDICTIONARY
360
A650
102
}
102
{ACAD_REACTORS
330
A5F4
102
}
330
A5F4
100
AcDbVisualStyle
  2
FlatWithEdges
 70
     1
 71
     2
 72
     1
 73
     1
 90
        2
 40
-0.6
 41
30.0
 62
     5
 63
     7
 74
     1
 91
        0
 64
     7
 65
   257
 75
     1
175
     1
 42
1.0
 92
        0
 66
   257
 43
1.0
 76
     1
 77
     6
 78
     2
 67
     7
 79
     5
170
     0
171
     0
290
     0
174
     0
 93
       13
 44
0.0
173
     0
291
     1
 45
0.0
1001
ACAD
1000
AcDbSavedByObjectVersion
1070
     0
  0
VISUALSTYLE
  5
A5F7
102
{ACAD_XDICTIONARY
360
A652
102
}
102
{ACAD_REACTORS
330
A5F4
102
}
330
A5F4
100
AcDbVisualStyle
  2
Gouraud
 70
     2
 71
     2
 72
     2
 73
     1
 90
        2
 40
-0.6
 41
30.0
 62
     5
 63
     7
 74
     0
 91
        0
 64
     7
 65
   257
 75
     1
175
     1
 42
1.0
 92
        0
 66
     7
 43
1.0
 76
     1
 77
     6
 78
     2
 67
     7
 79
     5
170
     0
171
     0
290
     0
174
     0
 93
       13
 44
0.0
173
     0
291
     1
 45
0.0
1001
ACAD
1000
AcDbSavedByObjectVersion
1070
     0
  0
VISUALSTYLE
  5
A5F8
102
{ACAD_XDICTIONARY
360
A654
102
}
102
{ACAD_REACTORS
330
A5F4
102
}
330
A5F4
100
AcDbVisualStyle
  2
GouraudWithEdges
 70
     3
 71
     2
 72
     2
 73
     1
 90
        2
 40
-0.6
 41
30.0
 62
     5
 63
     7
 74
     1
 91
        0
 64
     7
 65
   257
 75
     1
175
     1
 42
1.0
 92
        0
 66
   257
 43
1.0
 76
     1
 77
     6
 78
     2
 67
     7
 79
     5
170
     0
171
     0
290
     0
174
     0
 93
       13
 44
0.0
173
     0
291
     1
 45
0.0
1001
ACAD
1000
AcDbSavedByObjectVersion
1070
     0
  0
VISUALSTYLE
  5
A5FC
102
{ACAD_XDICTIONARY
360
A65C
102
}
102
{ACAD_REACTORS
330
A5F4
102
}
330
A5F4
100
AcDbVisualStyle
  2
Hidden
 70
     6
 71
     1
 72
     2
 73
     2
 90
        0
 40
-0.6
 41
-30.0
 62
     5
 63
     7
 74
     2
 91
        2
 64
     7
 65
   257
 75
     2
175
     1
 42
40.0
 92
        0
 66
   257
 43
1.0
 76
     1
 77
     6
 78
     2
 67
     7
 79
     3
170
     0
171
     0
290
     0
174
     0
 93
        1
 44
0.0
173
     0
291
     0
 45
0.0
1001
ACAD
1000
AcDbSavedByObjectVersion
1070
     0
  0
VISUALSTYLE
  5
A60A
102
{ACAD_XDICTIONARY
360
A678
102
}
102
{ACAD_REACTORS
330
A5F4
102
}
330
A5F4
100
AcDbVisualStyle
  2
JitterOff
 70
    20
 71
     2
 72
     2
 73
     0
 90
        0
 40
-0.6
 41
-30.0
 62
     5
 63
     7
 74
     1
 91
        4
 64
     7
 65
   257
 75
     1
175
     1
 42
1.0
 92
       10
 66
     7
 43
1.0
 76
     1
 77
     6
 78
     2
 67
     7
 79
     5
170
     0
171
     0
290
     0
174
     0
 93
        1
 44
0.0
173
     0
291
     1
 45
0.0
1001
ACAD
1000
AcDbSavedByObjectVersion
1070
     0
  0
VISUALSTYLE
  5
A602
102
{ACAD_XDICTIONARY
360
A668
102
}
102
{ACAD_REACTORS
330
A5F4
102
}
330
A5F4
100
AcDbVisualStyle
  2
Linepattern
 70
    14
 71
     2
 72
     2
 73
     0
 90
        0
 40
-0.6
 41
-30.0
 62
     5
 63
     7
 74
     1
 91
        4
 64
     7
 65
   257
 75
     7
175
     7
 42
1.0
 92
        8
 66
     7
 43
1.0
 76
     1
 77
     6
 78
     2
 67
     7
 79
     5
170
     0
171
     0
290
     0
174
     0
 93
        1
 44
0.0
173
     0
291
     1
 45
0.0
1001
ACAD
1000
AcDbSavedByObjectVersion
1070
     0
  0
VISUALSTYLE
  5
A60B
102
{ACAD_XDICTIONARY
360
A67A
102
}
102
{ACAD_REACTORS
330
A5F4
102
}
330
A5F4
100
AcDbVisualStyle
  2
OverhangOff
 70
    21
 71
     2
 72
     2
 73
     0
 90
        0
 40
-0.6
 41
-30.0
 62
     5
 63
     7
 74
     1
 91
        4
 64
     7
 65
   257
 75
     1
175
     1
 42
1.0
 92
        9
 66
     7
 43
1.0
 76
     1
 77
     6
 78
     2
 67
     7
 79
     5
170
     0
171
     0
290
     0
174
     0
 93
        1
 44
0.0
173
     0
291
     1
 45
0.0
1001
ACAD
1000
AcDbSavedByObjectVersion
1070
     0
  0
VISUALSTYLE
  5
A5FE
102
{ACAD_XDICTIONARY
360
A660
102
}
102
{ACAD_REACTORS
330
A5F4
102
}
330
A5F4
100
AcDbVisualStyle
  2
Realistic
 70
     8
 71
     2
 72
     3
 73
     0
 90
        2
 40
-0.6
 41
30.0
 62
     5
 63
     7
 74
     0
 91
        0
 64
     7
 65
   257
 75
     1
175
     1
 42
1.0
 92
        8
 66
   257
 43
1.0
 76
     1
 77
     6
 78
     2
 67
     7
 79
     3
170
     0
171
     0
290
     0
174
     0
 93
       13
 44
0.0
173
     0
291
     0
 45
0.0
1001
ACAD
1000
AcDbSavedByObjectVersion
1070
     0
  0
VISUALSTYLE
  5
A609
102
{ACAD_XDICTIONARY
360
A676
102
}
102
{ACAD_REACTORS
330
A5F4
102
}
330
A5F4
100
AcDbVisualStyle
  2
Shaded
 70
    27
 71
     2
 72
     2
 73
     1
 90
        2
 40
-0.6
 41
30.0
 62
     5
 63
     7
 74
     0
 91
        4
 64
     7
 65
   257
 75
     1
175
     1
 42
1.0
 92
        8
 66
   257
 43
1.0
 76
     1
 77
     6
 78
     2
 67
     8
 79
     3
170
     0
171
     0
290
     0
174
     0
 93
        5
 44
0.0
173
     0
291
     0
 45
0.0
1001
ACAD
1000
AcDbSavedByObjectVersion
1070
     0
  0
VISUALSTYLE
  5
A608
102
{ACAD_XDICTIONARY
360
A674
102
}
102
{ACAD_REACTORS
330
A5F4
102
}
330
A5F4
100
AcDbVisualStyle
  2
Shaded with edges
 70
    26
 71
     2
 72
     2
 73
     1
 90
        2
 40
-0.6
 41
30.0
 62
     5
 63
     7
 74
     1
 91
       10
 64
     7
 65
   257
 75
     2
175
     1
 42
1.0
 92
        8
 66
   257
 43
1.0
 76
     1
 77
     6
 78
     2
 67
     7
 79
     3
170
     0
171
     0
290
     0
174
     0
 93
        5
 44
0.0
173
     0
291
     0
 45
0.0
1001
ACAD
1000
AcDbSavedByObjectVersion
1070
     0
  0
VISUALSTYLE
  5
A605
102
{ACAD_XDICTIONARY
360
A66E
102
}
102
{ACAD_REACTORS
330
A5F4
102
}
330
A5F4
100
AcDbVisualStyle
  2
Shades of Gray
 70
    23
 71
     2
 72
     2
 73
     3
 90
        0
 40
-0.6
 41
-30.0
 62
     5
 63
     7
 74
     2
 91
        2
 64
     7
 65
     7
 75
     1
175
     1
 42
40.0
 92
        8
 66
     7
 43
1.0
 76
     1
 77
     6
 78
     2
 67
     7
 79
     3
170
     0
171
     0
290
     0
174
     0
 93
        1
 44
0.0
173
     0
291
     0
 45
0.0
1001
ACAD
1000
AcDbSavedByObjectVersion
1070
     0
  0
VISUALSTYLE
  5
A606
102
{ACAD_XDICTIONARY
360
A670
102
}
102
{ACAD_REACTORS
330
A5F4
102
}
330
A5F4
100
AcDbVisualStyle
  2
Sketchy
 70
    24
 71
     1
 72
     2
 73
     2
 90
        0
 40
-0.6
 41
-30.0
 62
     5
 63
     7
 74
     2
 91
        2
 64
     7
 65
     7
 75
     1
175
     1
 42
40.0
 92
       11
 66
     7
 43
1.0
 76
     1
 77
     6
 78
     2
 67
     7
 79
     6
170
     0
171
     0
290
     0
174
     0
 93
        1
 44
0.0
173
     0
291
     0
 45
0.0
1001
ACAD
1000
AcDbSavedByObjectVersion
1070
     0
  0
VISUALSTYLE
  5
A601
102
{ACAD_XDICTIONARY
360
A666
102
}
102
{ACAD_REACTORS
330
A5F4
102
}
330
A5F4
100
AcDbVisualStyle
  2
Thicken
 70
    13
 71
     2
 72
     2
 73
     0
 90
        0
 40
-0.6
 41
-30.0
 62
     5
 63
     7
 74
     1
 91
        4
 64
     7
 65
   257
 75
     1
175
     1
 42
1.0
 92
       12
 66
     7
 43
1.0
 76
     1
 77
     6
 78
     2
 67
     7
 79
     5
170
     0
171
     0
290
     0
174
     0
 93
        1
 44
0.0
173
     0
291
     1
 45
0.0
1001
ACAD
1000
AcDbSavedByObjectVersion
1070
     0
  0
VISUALSTYLE
  5
A5FB
102
{ACAD_XDICTIONARY
360
A65A
102
}
102
{ACAD_REACTORS
330
A5F4
102
}
330
A5F4
100
AcDbVisualStyle
  2
Wireframe
 70
     5
 71
     0
 72
     2
 73
     0
 90
        0
 40
-0.6
 41
-30.0
 62
     5
 63
     7
 74
     1
 91
        4
 64
     7
 65
   257
 75
     1
175
     1
 42
1.0
 92
        0
 66
   257
 43
1.0
 76
     1
 77
     6
 78
     2
 67
     7
 79
     3
170
     0
171
     0
290
     0
174
     0
 93
        1
 44
0.0
173
     0
291
     0
 45
0.0
1001
ACAD
1000
AcDbSavedByObjectVersion
1070
     0
  0
VISUALSTYLE
  5
A607
102
{ACAD_XDICTIONARY
360
A672
102
}
102
{ACAD_REACTORS
330
A5F4
102
}
330
A5F4
100
AcDbVisualStyle
  2
X-Ray
 70
    25
 71
     2
 72
     2
 73
     1
 90
        1
 40
0.5
 41
-30.0
 62
     5
 63
     7
 74
     1
 91
        0
 64
     7
 65
   257
 75
     1
175
     1
 42
1.0
 92
        8
 66
     7
 43
1.0
 76
     1
 77
     6
 78
     2
 67
     7
 79
     3
170
     0
171
     0
290
     0
174
     0
 93
       13
 44
0.0
173
     0
291
     0
 45
0.0
1001
ACAD
1000
AcDbSavedByObjectVersion
1070
     0
  0
DICTIONARYVAR
  5
A641
102
{ACAD_REACTORS
330
A63C
102
}
330
A63C
100
DictionaryVariables
280
     0
  1
1:1
  0
DICTIONARYVAR
  5
A63E
102
{ACAD_REACTORS
330
A63C
102
}
330
A63C
100
DictionaryVariables
280
     0
  1
STANDARD
  0
DICTIONARYVAR
  5
A63D
102
{ACAD_REACTORS
330
A63C
102
}
330
A63C
100
DictionaryVariables
280
     0
  1
STANDARD
  0
DICTIONARYVAR
  5
A63F
102
{ACAD_REACTORS
330
A63C
102
}
330
A63C
100
DictionaryVariables
280
     0
  1
Imperial24
  0
DICTIONARYVAR
  5
A640
102
{ACAD_REACTORS
330
A63C
102
}
330
A63C
100
DictionaryVariables
280
     0
  1
Imperial24
  0
DICTIONARYVAR
  5
A644
102
{ACAD_REACTORS
330
A63C
102
}
330
A63C
100
DictionaryVariables
280
     0
  1
1
  0
DICTIONARYVAR
  5
A643
102
{ACAD_REACTORS
330
A63C
102
}
330
A63C
100
DictionaryVariables
280
     0
  1
0
  0
DICTIONARYVAR
  5
A642
102
{ACAD_REACTORS
330
A63C
102
}
330
A63C
100
DictionaryVariables
280
     0
  1
127
  0
DICTIONARYVAR
  5
A645
102
{ACAD_REACTORS
330
A63C
102
}
330
A63C
100
DictionaryVariables
280
     0
  1
2
  0
DICTIONARY
  5
A682
330
A627
100
AcDbDictionary
280
     1
281
     1
  3
ACAD_XREC_ROUNDTRIP
360
A683
  0
DICTIONARY
  5
A684
330
A628
100
AcDbDictionary
280
     1
281
     1
  3
ACAD_XREC_ROUNDTRIP
360
A685
  0
DICTIONARY
  5
A686
330
A629
100
AcDbDictionary
280
     1
281
     1
  3
ACAD_XREC_ROUNDTRIP
360
A687
  0
DICTIONARY
  5
A5E5
330
A5E4
100
AcDbDictionary
280
     1
281
     1
  3
ACAD_XREC_ROUNDTRIP
360
A64C
  3
BUMPTILE
360
A5E7
  3
DIFFUSETILE
360
A5E6
  3
OPACITYTILE
360
A5EA
  3
REFLECTIONTILE
360
A5E9
  3
REFRACTIONTILE
360
A5EB
  3
SPECULARTILE
360
A5E8
  0
DICTIONARY
  5
A5DD
330
A5DC
100
AcDbDictionary
280
     1
281
     1
  3
ACAD_XREC_ROUNDTRIP
360
A64B
  3
BUMPTILE
360
A5DF
  3
DIFFUSETILE
360
A5DE
  3
OPACITYTILE
360
A5E2
  3
REFLECTIONTILE
360
A5E1
  3
REFRACTIONTILE
360
A5E3
  3
SPECULARTILE
360
A5E0
  0
DICTIONARY
  5
A5ED
330
A5EC
100
AcDbDictionary
280
     1
281
     1
  3
ACAD_XREC_ROUNDTRIP
360
A64D
  3
BUMPTILE
360
A5EF
  3
DIFFUSETILE
360
A5EE
  3
OPACITYTILE
360
A5F2
  3
REFLECTIONTILE
360
A5F1
  3
REFRACTIONTILE
360
A5F3
  3
SPECULARTILE
360
A5F0
  0
DICTIONARY
  5
A680
330
A625
100
AcDbDictionary
280
     1
281
     1
  3
ACAD_XREC_ROUNDTRIP
360
A681
  0
DICTIONARY
  5
A647
330
A60F
100
AcDbDictionary
280
     1
281
     1
  3
ACAD_ROUNDTRIP_2008_TABLESTYLE_CELLSTYLEMAP
360
A648
  3
ACAD_XREC_ROUNDTRIP
360
A67E
  0
DICTIONARY
  5
A658
330
A5FA
100
AcDbDictionary
280
     1
281
     1
  3
ACAD_XREC_ROUNDTRIP
360
A659
  0
DICTIONARY
  5
A656
330
A5F9
100
AcDbDictionary
280
     1
281
     1
  3
ACAD_XREC_ROUNDTRIP
360
A657
  0
DICTIONARY
  5
A664
330
A600
100
AcDbDictionary
280
     1
281
     1
  3
ACAD_XREC_ROUNDTRIP
360
A665
  0
DICTIONARY
  5
A66C
330
A604
100
AcDbDictionary
280
     1
281
     1
  3
ACAD_XREC_ROUNDTRIP
360
A66D
  0
DICTIONARY
  5
A65E
330
A5FD
100
AcDbDictionary
280
     1
281
     1
  3
ACAD_XREC_ROUNDTRIP
360
A65F
  0
DICTIONARY
  5
A662
330
A5FF
100
AcDbDictionary
280
     1
281
     1
  3
ACAD_XREC_ROUNDTRIP
360
A663
  0
DICTIONARY
  5
A67C
330
A60C
100
AcDbDictionary
280
     1
281
     1
  3
ACAD_XREC_ROUNDTRIP
360
A67D
  0
DICTIONARY
  5
A66A
330
A603
100
AcDbDictionary
280
     1
281
     1
  3
ACAD_XREC_ROUNDTRIP
360
A66B
  0
DICTIONARY
  5
A64E
330
A5F5
100
AcDbDictionary
280
     1
281
     1
  3
ACAD_XREC_ROUNDTRIP
360
A64F
  0
DICTIONARY
  5
A650
330
A5F6
100
AcDbDictionary
280
     1
281
     1
  3
ACAD_XREC_ROUNDTRIP
360
A651
  0
DICTIONARY
  5
A652
330
A5F7
100
AcDbDictionary
280
     1
281
     1
  3
ACAD_XREC_ROUNDTRIP
360
A653
  0
DICTIONARY
  5
A654
330
A5F8
100
AcDbDictionary
280
     1
281
     1
  3
ACAD_XREC_ROUNDTRIP
360
A655
  0
DICTIONARY
  5
A65C
330
A5FC
100
AcDbDictionary
280
     1
281
     1
  3
ACAD_XREC_ROUNDTRIP
360
A65D
  0
DICTIONARY
  5
A678
330
A60A
100
AcDbDictionary
280
     1
281
     1
  3
ACAD_XREC_ROUNDTRIP
360
A679
  0
DICTIONARY
  5
A668
330
A602
100
AcDbDictionary
280
     1
281
     1
  3
ACAD_XREC_ROUNDTRIP
360
A669
  0
DICTIONARY
  5
A67A
330
A60B
100
AcDbDictionary
280
     1
281
     1
  3
ACAD_XREC_ROUNDTRIP
360
A67B
  0
DICTIONARY
  5
A660
330
A5FE
100
AcDbDictionary
280
     1
281
     1
  3
ACAD_XREC_ROUNDTRIP
360
A661
  0
DICTIONARY
  5
A676
330
A609
100
AcDbDictionary
280
     1
281
     1
  3
ACAD_XREC_ROUNDTRIP
360
A677
  0
DICTIONARY
  5
A674
330
A608
100
AcDbDictionary
280
     1
281
     1
  3
ACAD_XREC_ROUNDTRIP
360
A675
  0
DICTIONARY
  5
A66E
330
A605
100
AcDbDictionary
280
     1
281
     1
  3
ACAD_XREC_ROUNDTRIP
360
A66F
  0
DICTIONARY
  5
A670
330
A606
100
AcDbDictionary
280
     1
281
     1
  3
ACAD_XREC_ROUNDTRIP
360
A671
  0
DICTIONARY
  5
A666
330
A601
100
AcDbDictionary
280
     1
281
     1
  3
ACAD_XREC_ROUNDTRIP
360
A667
  0
DICTIONARY
  5
A65A
330
A5FB
100
AcDbDictionary
280
     1
281
     1
  3
ACAD_XREC_ROUNDTRIP
360
A65B
  0
DICTIONARY
  5
A672
330
A607
100
AcDbDictionary
280
     1
281
     1
  3
ACAD_XREC_ROUNDTRIP
360
A673
  0
XRECORD
  5
A683
102
{ACAD_REACTORS
330
A682
102
}
330
A682
100
AcDbXrecord
280
     1
102
DISPLAYNAME
  1
Imperial24
102
FLAGS
 90
        0
  0
XRECORD
  5
A685
102
{ACAD_REACTORS
330
A684
102
}
330
A684
100
AcDbXrecord
280
     1
102
SHADEPLOT
 70
     0
102
SHADEPLOTRESLEVEL
 70
     2
102
SHADEPLOTCUSTOMDPI
 70
   300
  0
XRECORD
  5
A687
102
{ACAD_REACTORS
330
A686
102
}
330
A686
100
AcDbXrecord
280
     1
102
SHADEPLOT
 70
     0
102
SHADEPLOTRESLEVEL
 70
     2
102
SHADEPLOTCUSTOMDPI
 70
   300
  0
XRECORD
  5
A64C
102
{ACAD_REACTORS
330
A5E5
102
}
330
A5E5
100
AcDbXrecord
280
     1
102
MATERIAL
148
0.0
149
0.0
149
0.0
 93
        0
 94
      127
282
     0
 72
     0
 77
     0
171
     0
175
     0
179
     0
273
     0
  0
XRECORD
  5
A5E7
102
{ACAD_REACTORS
330
A5E5
102
}
330
A5E5
100
AcDbXrecord
280
     1
270
     1
271
     1
  0
XRECORD
  5
A5E6
102
{ACAD_REACTORS
330
A5E5
102
}
330
A5E5
100
AcDbXrecord
280
     1
270
     1
271
     1
  0
XRECORD
  5
A5EA
102
{ACAD_REACTORS
330
A5E5
102
}
330
A5E5
100
AcDbXrecord
280
     1
270
     1
271
     1
  0
XRECORD
  5
A5E9
102
{ACAD_REACTORS
330
A5E5
102
}
330
A5E5
100
AcDbXrecord
280
     1
270
     1
271
     1
  0
XRECORD
  5
A5EB
102
{ACAD_REACTORS
330
A5E5
102
}
330
A5E5
100
AcDbXrecord
280
     1
270
     1
271
     1
  0
XRECORD
  5
A5E8
102
{ACAD_REACTORS
330
A5E5
102
}
330
A5E5
100
AcDbXrecord
280
     1
270
     1
271
     1
  0
XRECORD
  5
A64B
102
{ACAD_REACTORS
330
A5DD
102
}
330
A5DD
100
AcDbXrecord
280
     1
102
MATERIAL
148
0.0
149
0.0
149
0.0
 93
        0
 94
      127
282
     0
 72
     0
 77
     0
171
     0
175
     0
179
     0
273
     0
  0
XRECORD
  5
A5DF
102
{ACAD_REACTORS
330
A5DD
102
}
330
A5DD
100
AcDbXrecord
280
     1
270
     1
271
     1
  0
XRECORD
  5
A5DE
102
{ACAD_REACTORS
330
A5DD
102
}
330
A5DD
100
AcDbXrecord
280
     1
270
     1
271
     1
  0
XRECORD
  5
A5E2
102
{ACAD_REACTORS
330
A5DD
102
}
330
A5DD
100
AcDbXrecord
280
     1
270
     1
271
     1
  0
XRECORD
  5
A5E1
102
{ACAD_REACTORS
330
A5DD
102
}
330
A5DD
100
AcDbXrecord
280
     1
270
     1
271
     1
  0
XRECORD
  5
A5E3
102
{ACAD_REACTORS
330
A5DD
102
}
330
A5DD
100
AcDbXrecord
280
     1
270
     1
271
     1
  0
XRECORD
  5
A5E0
102
{ACAD_REACTORS
330
A5DD
102
}
330
A5DD
100
AcDbXrecord
280
     1
270
     1
271
     1
  0
XRECORD
  5
A64D
102
{ACAD_REACTORS
330
A5ED
102
}
330
A5ED
100
AcDbXrecord
280
     1
102
MATERIAL
148
0.0
149
0.0
149
0.0
 93
        0
 94
      127
282
     0
 72
     0
 77
     0
171
     0
175
     0
179
     0
273
     0
  0
XRECORD
  5
A5EF
102
{ACAD_REACTORS
330
A5ED
102
}
330
A5ED
100
AcDbXrecord
280
     1
270
     1
271
     1
  0
XRECORD
  5
A5EE
102
{ACAD_REACTORS
330
A5ED
102
}
330
A5ED
100
AcDbXrecord
280
     1
270
     1
271
     1
  0
XRECORD
  5
A5F2
102
{ACAD_REACTORS
330
A5ED
102
}
330
A5ED
100
AcDbXrecord
280
     1
270
     1
271
     1
  0
XRECORD
  5
A5F1
102
{ACAD_REACTORS
330
A5ED
102
}
330
A5ED
100
AcDbXrecord
280
     1
270
     1
271
     1
  0
XRECORD
  5
A5F3
102
{ACAD_REACTORS
330
A5ED
102
}
330
A5ED
100
AcDbXrecord
280
     1
270
     1
271
     1
  0
XRECORD
  5
A5F0
102
{ACAD_REACTORS
330
A5ED
102
}
330
A5ED
100
AcDbXrecord
280
     1
270
     1
271
     1
  0
XRECORD
  5
A681
102
{ACAD_REACTORS
330
A680
102
}
330
A680
100
AcDbXrecord
280
     1
102
DISPLAYNAME
  1
Imperial24
102
FLAGS
 90
        0
  0
CELLSTYLEMAP
  5
A648
102
{ACAD_REACTORS
330
A647
102
}
330
A647
100
AcDbCellStyleMap
 90
        3
300
CELLSTYLE
  1
TABLEFORMAT_BEGIN
 90
        5
170
     1
 91
        0
 92
    32768
 62
   257
 93
        1
300
CONTENTFORMAT
  1
CONTENTFORMAT_BEGIN
 90
        0
 91
        0
 92
      512
 93
        0
300

 40
0.0
140
1.0
 94
        5
 62
     0
340
A35F
144
0.25
309
CONTENTFORMAT_END
171
     0
 94
        0
309
TABLEFORMAT_END
  1
CELLSTYLE_BEGIN
 90
        1
 91
        1
300
_TITLE
309
CELLSTYLE_END
300
CELLSTYLE
  1
TABLEFORMAT_BEGIN
 90
        5
170
     1
 91
        0
 92
        0
 62
   257
 93
        1
300
CONTENTFORMAT
  1
CONTENTFORMAT_BEGIN
 90
        0
 91
        0
 92
      512
 93
        0
300

 40
0.0
140
1.0
 94
        5
 62
     0
340
A35F
144
0.18
309
CONTENTFORMAT_END
171
     0
 94
        0
309
TABLEFORMAT_END
  1
CELLSTYLE_BEGIN
 90
        2
 91
        1
300
_HEADER
309
CELLSTYLE_END
300
CELLSTYLE
  1
TABLEFORMAT_BEGIN
 90
        5
170
     1
 91
        0
 92
        0
 62
   257
 93
        1
300
CONTENTFORMAT
  1
CONTENTFORMAT_BEGIN
 90
        0
 91
        0
 92
      512
 93
        0
300

 40
0.0
140
1.0
 94
        2
 62
     0
340
A35F
144
0.18
309
CONTENTFORMAT_END
171
     0
 94
        0
309
TABLEFORMAT_END
  1
CELLSTYLE_BEGIN
 90
        3
 91
        2
300
_DATA
309
CELLSTYLE_END
  0
XRECORD
  5
A67E
102
{ACAD_REACTORS
330
A647
102
}
330
A647
100
AcDbXrecord
280
     1
102
ACAD_ROUNDTRIP_PRE2007_TABLESTYLE
 90
      512
 91
        0
  1

 92
      512
 93
        0
  2

 94
      512
 95
        0
  3

  0
XRECORD
  5
A659
102
{ACAD_REACTORS
330
A658
102
}
330
A658
100
AcDbXrecord
280
     1
102
RTVSPost2010Prop28
280
     1
102
RTVSPost2010PropOp28
 70
     1
102
RTVSPost2010Prop29
280
     1
102
RTVSPost2010PropOp29
 70
     1
102
RTVSPost2010Prop30
280
     0
102
RTVSPost2010PropOp30
 70
     1
102
RTVSPost2010Prop31
280
     0
102
RTVSPost2010PropOp31
 70
     1
102
RTVSPost2010Prop32
280
     0
102
RTVSPost2010PropOp32
 70
     1
102
RTVSPost2010Prop33
280
     0
102
RTVSPost2010PropOp33
 70
     1
102
RTVSPost2010Prop34
280
     0
102
RTVSPost2010PropOp34
 70
     1
102
RTVSPost2010Prop35
280
     0
102
RTVSPost2010PropOp35
 70
     1
102
RTVSPost2010Prop36
280
     0
102
RTVSPost2010PropOp36
 70
     1
102
RTVSPost2010Prop37
 90
       50
102
RTVSPost2010PropOp37
 70
     1
102
RTVSPost2010Prop38
140
0.0
102
RTVSPost2010PropOp38
 70
     1
102
RTVSPost2010Prop39
140
1.0
102
RTVSPost2010PropOp39
 70
     1
102
RTVSPost2010Prop40
 90
        0
102
RTVSPost2010PropOp40
 70
     1
102
RTVSPost2010Prop41ColorIndex
 90
       18
102
RTVSPost2010Prop41ColorRGB
 90
        0
102
RTVSPost2010PropOp41
 70
     1
102
RTVSPost2010Prop42
 90
       50
102
RTVSPost2010PropOp42
 70
     1
102
RTVSPost2010Prop43
 90
        3
102
RTVSPost2010PropOp43
 70
     1
102
RTVSPost2010Prop44ColorIndex
 90
        5
102
RTVSPost2010Prop44ColorRGB
 90
      255
102
RTVSPost2010PropOp44
 70
     1
102
RTVSPost2010Prop45
280
     0
102
RTVSPost2010PropOp45
 70
     1
102
RTVSPost2010Prop46
 90
       50
102
RTVSPost2010PropOp46
 70
     1
102
RTVSPost2010Prop47
 90
       50
102
RTVSPost2010PropOp47
 70
     1
102
RTVSPost2010Prop48
 90
       50
102
RTVSPost2010PropOp48
 70
     1
102
RTVSPost2010Prop49
280
     0
102
RTVSPost2010PropOp49
 70
     1
102
RTVSPost2010Prop50
 90
       50
102
RTVSPost2010PropOp50
 70
     1
102
RTVSPost2010Prop51ColorIndex
 90
      256
102
RTVSPost2010Prop51ColorRGB
 90
-16777216
102
RTVSPost2010PropOp51
 70
     0
102
RTVSPost2010Prop52
140
1.0
102
RTVSPost2010PropOp52
 70
     0
102
RTVSPost2010Prop53
 90
        2
102
RTVSPost2010PropOp53
 70
     1
102
RTVSPost2010Prop54
  1
strokes_ogs.tif
102
RTVSPost2010PropOp54
 70
     1
102
RTVSPost2010Prop55
280
     0
102
RTVSPost2010PropOp55
 70
     1
102
RTVSPost2010Prop56
140
1.0
102
RTVSPost2010PropOp56
 70
     1
102
RTVSPost2010Prop57
140
1.0
102
RTVSPost2010PropOp57
 70
     1
102
RTVSPropertyOp0
 70
     1
102
RTVSPropertyOp1
 70
     1
102
RTVSPropertyOp2
 70
     1
102
RTVSPropertyOp3
 70
     1
102
RTVSPropertyOp4
 70
     1
102
RTVSPropertyOp5
 70
     1
102
RTVSPropertyOp6
 70
     1
102
RTVSPropertyOp7
 70
     1
102
RTVSPropertyOp8
 70
     1
102
RTVSPropertyOp9
 70
     1
102
RTVSPropertyOp10
 70
     1
102
RTVSPropertyOp11
 70
     1
102
RTVSPropertyOp12
 70
     1
102
RTVSPropertyOp13
 70
     1
102
RTVSPropertyOp14
 70
     1
102
RTVSPropertyOp15
 70
     1
102
RTVSPropertyOp16
 70
     1
102
RTVSPropertyOp17
 70
     1
102
RTVSPropertyOp18
 70
     1
102
RTVSPropertyOp19
 70
     1
102
RTVSPropertyOp20
 70
     1
102
RTVSPropertyOp21
 70
     1
102
RTVSPropertyOp22
 70
     1
102
RTVSPropertyOp23
 70
     1
102
RTVSPropertyOp24
 70
     1
102
RTVSPropertyOp25
 70
     1
102
RTVSPropertyOp26
 70
     1
102
RTVSPropertyOp27
 70
     1
102
RTVSPropertyOp28
 70
     1
102
RTVSPropertyOp29
 70
     1
102
RTVSPropertyOp30
 70
     1
102
RTVSPropertyOp31
 70
     1
102
RTVSPropertyOp32
 70
     1
102
RTVSPropertyOp33
 70
     1
102
RTVSPropertyOp34
 70
     1
102
RTVSPropertyOp35
 70
     1
102
RTVSPropertyOp36
 70
     1
102
RTVSPropertyOp37
 70
     1
102
RTVSPropertyOp38
 70
     1
102
RTVSPropertyOp39
 70
     1
102
RTVSPropertyOp40
 70
     1
102
RTVSPropertyOp41
 70
     1
102
RTVSPropertyOp42
 70
     1
102
RTVSPropertyOp43
 70
     1
102
RTVSPropertyOp44
 70
     1
102
RTVSPropertyOp45
 70
     1
102
RTVSPropertyOp46
 70
     1
102
RTVSPropertyOp47
 70
     1
102
RTVSPropertyOp48
 70
     1
102
RTVSPropertyOp49
 70
     1
102
RTVSPropertyOp50
 70
     1
102
RTVSPropertyOp51
 70
     0
102
RTVSPropertyOp52
 70
     0
102
RTVSPropertyOp53
 70
     1
102
RTVSPropertyOp54
 70
     1
102
RTVSPropertyOp55
 70
     1
102
RTVSPropertyOp56
 70
     1
102
RTVSPropertyOp57
 70
     1
102
RTVSPropertyOp58
 70
     1
102
RTVSPropertyOp59
 70
     1
102
RTVSPropertyOp60
 70
     1
102
RTVSPropertyOp61
 70
     1
102
RTVSPropertyOp62
 70
     1
  0
XRECORD
  5
A657
102
{ACAD_REACTORS
330
A656
102
}
330
A656
100
AcDbXrecord
280
     1
102
RTVSPost2010Prop28
280
     0
102
RTVSPost2010PropOp28
 70
     1
102
RTVSPost2010Prop29
280
     1
102
RTVSPost2010PropOp29
 70
     1
102
RTVSPost2010Prop30
280
     1
102
RTVSPost2010PropOp30
 70
     1
102
RTVSPost2010Prop31
280
     0
102
RTVSPost2010PropOp31
 70
     1
102
RTVSPost2010Prop32
280
     0
102
RTVSPost2010PropOp32
 70
     1
102
RTVSPost2010Prop33
280
     0
102
RTVSPost2010PropOp33
 70
     1
102
RTVSPost2010Prop34
280
     0
102
RTVSPost2010PropOp34
 70
     1
102
RTVSPost2010Prop35
280
     0
102
RTVSPost2010PropOp35
 70
     1
102
RTVSPost2010Prop36
280
     0
102
RTVSPost2010PropOp36
 70
     1
102
RTVSPost2010Prop37
 90
       50
102
RTVSPost2010PropOp37
 70
     1
102
RTVSPost2010Prop38
140
0.0
102
RTVSPost2010PropOp38
 70
     1
102
RTVSPost2010Prop39
140
1.0
102
RTVSPost2010PropOp39
 70
     1
102
RTVSPost2010Prop40
 90
        0
102
RTVSPost2010PropOp40
 70
     1
102
RTVSPost2010Prop41ColorIndex
 90
       18
102
RTVSPost2010Prop41ColorRGB
 90
        0
102
RTVSPost2010PropOp41
 70
     1
102
RTVSPost2010Prop42
 90
       50
102
RTVSPost2010PropOp42
 70
     1
102
RTVSPost2010Prop43
 90
        3
102
RTVSPost2010PropOp43
 70
     1
102
RTVSPost2010Prop44ColorIndex
 90
        5
102
RTVSPost2010Prop44ColorRGB
 90
      255
102
RTVSPost2010PropOp44
 70
     1
102
RTVSPost2010Prop45
280
     0
102
RTVSPost2010PropOp45
 70
     1
102
RTVSPost2010Prop46
 90
       50
102
RTVSPost2010PropOp46
 70
     1
102
RTVSPost2010Prop47
 90
       50
102
RTVSPost2010PropOp47
 70
     1
102
RTVSPost2010Prop48
 90
       50
102
RTVSPost2010PropOp48
 70
     1
102
RTVSPost2010Prop49
280
     0
102
RTVSPost2010PropOp49
 70
     1
102
RTVSPost2010Prop50
 90
       50
102
RTVSPost2010PropOp50
 70
     1
102
RTVSPost2010Prop51ColorIndex
 90
      256
102
RTVSPost2010Prop51ColorRGB
 90
-16777216
102
RTVSPost2010PropOp51
 70
     0
102
RTVSPost2010Prop52
140
1.0
102
RTVSPost2010PropOp52
 70
     0
102
RTVSPost2010Prop53
 90
        2
102
RTVSPost2010PropOp53
 70
     1
102
RTVSPost2010Prop54
  1
strokes_ogs.tif
102
RTVSPost2010PropOp54
 70
     1
102
RTVSPost2010Prop55
280
     0
102
RTVSPost2010PropOp55
 70
     1
102
RTVSPost2010Prop56
140
1.0
102
RTVSPost2010PropOp56
 70
     1
102
RTVSPost2010Prop57
140
1.0
102
RTVSPost2010PropOp57
 70
     1
102
RTVSPropertyOp0
 70
     1
102
RTVSPropertyOp1
 70
     1
102
RTVSPropertyOp2
 70
     1
102
RTVSPropertyOp3
 70
     1
102
RTVSPropertyOp4
 70
     1
102
RTVSPropertyOp5
 70
     1
102
RTVSPropertyOp6
 70
     1
102
RTVSPropertyOp7
 70
     1
102
RTVSPropertyOp8
 70
     1
102
RTVSPropertyOp9
 70
     1
102
RTVSPropertyOp10
 70
     1
102
RTVSPropertyOp11
 70
     1
102
RTVSPropertyOp12
 70
     1
102
RTVSPropertyOp13
 70
     1
102
RTVSPropertyOp14
 70
     1
102
RTVSPropertyOp15
 70
     1
102
RTVSPropertyOp16
 70
     1
102
RTVSPropertyOp17
 70
     1
102
RTVSPropertyOp18
 70
     1
102
RTVSPropertyOp19
 70
     1
102
RTVSPropertyOp20
 70
     1
102
RTVSPropertyOp21
 70
     1
102
RTVSPropertyOp22
 70
     1
102
RTVSPropertyOp23
 70
     1
102
RTVSPropertyOp24
 70
     1
102
RTVSPropertyOp25
 70
     1
102
RTVSPropertyOp26
 70
     1
102
RTVSPropertyOp27
 70
     1
102
RTVSPropertyOp28
 70
     1
102
RTVSPropertyOp29
 70
     1
102
RTVSPropertyOp30
 70
     1
102
RTVSPropertyOp31
 70
     1
102
RTVSPropertyOp32
 70
     1
102
RTVSPropertyOp33
 70
     1
102
RTVSPropertyOp34
 70
     1
102
RTVSPropertyOp35
 70
     1
102
RTVSPropertyOp36
 70
     1
102
RTVSPropertyOp37
 70
     1
102
RTVSPropertyOp38
 70
     1
102
RTVSPropertyOp39
 70
     1
102
RTVSPropertyOp40
 70
     1
102
RTVSPropertyOp41
 70
     1
102
RTVSPropertyOp42
 70
     1
102
RTVSPropertyOp43
 70
     1
102
RTVSPropertyOp44
 70
     1
102
RTVSPropertyOp45
 70
     1
102
RTVSPropertyOp46
 70
     1
102
RTVSPropertyOp47
 70
     1
102
RTVSPropertyOp48
 70
     1
102
RTVSPropertyOp49
 70
     1
102
RTVSPropertyOp50
 70
     1
102
RTVSPropertyOp51
 70
     0
102
RTVSPropertyOp52
 70
     0
102
RTVSPropertyOp53
 70
     1
102
RTVSPropertyOp54
 70
     1
102
RTVSPropertyOp55
 70
     1
102
RTVSPropertyOp56
 70
     1
102
RTVSPropertyOp57
 70
     1
102
RTVSPropertyOp58
 70
     1
102
RTVSPropertyOp59
 70
     1
102
RTVSPropertyOp60
 70
     1
102
RTVSPropertyOp61
 70
     1
102
RTVSPropertyOp62
 70
     1
  0
XRECORD
  5
A665
102
{ACAD_REACTORS
330
A664
102
}
330
A664
100
AcDbXrecord
280
     1
102
RTVSPost2010Prop28
280
     0
102
RTVSPost2010PropOp28
 70
     1
102
RTVSPost2010Prop29
280
     1
102
RTVSPost2010PropOp29
 70
     1
102
RTVSPost2010Prop30
280
     1
102
RTVSPost2010PropOp30
 70
     1
102
RTVSPost2010Prop31
280
     0
102
RTVSPost2010PropOp31
 70
     1
102
RTVSPost2010Prop32
280
     0
102
RTVSPost2010PropOp32
 70
     1
102
RTVSPost2010Prop33
280
     0
102
RTVSPost2010PropOp33
 70
     1
102
RTVSPost2010Prop34
280
     0
102
RTVSPost2010PropOp34
 70
     1
102
RTVSPost2010Prop35
280
     0
102
RTVSPost2010PropOp35
 70
     1
102
RTVSPost2010Prop36
280
     0
102
RTVSPost2010PropOp36
 70
     1
102
RTVSPost2010Prop37
 90
       50
102
RTVSPost2010PropOp37
 70
     1
102
RTVSPost2010Prop38
140
0.0
102
RTVSPost2010PropOp38
 70
     1
102
RTVSPost2010Prop39
140
1.0
102
RTVSPost2010PropOp39
 70
     1
102
RTVSPost2010Prop40
 90
        0
102
RTVSPost2010PropOp40
 70
     1
102
RTVSPost2010Prop41ColorIndex
 90
       18
102
RTVSPost2010Prop41ColorRGB
 90
        0
102
RTVSPost2010PropOp41
 70
     1
102
RTVSPost2010Prop42
 90
       50
102
RTVSPost2010PropOp42
 70
     1
102
RTVSPost2010Prop43
 90
        3
102
RTVSPost2010PropOp43
 70
     1
102
RTVSPost2010Prop44ColorIndex
 90
        5
102
RTVSPost2010Prop44ColorRGB
 90
      255
102
RTVSPost2010PropOp44
 70
     1
102
RTVSPost2010Prop45
280
     0
102
RTVSPost2010PropOp45
 70
     1
102
RTVSPost2010Prop46
 90
       50
102
RTVSPost2010PropOp46
 70
     1
102
RTVSPost2010Prop47
 90
       50
102
RTVSPost2010PropOp47
 70
     1
102
RTVSPost2010Prop48
 90
       50
102
RTVSPost2010PropOp48
 70
     1
102
RTVSPost2010Prop49
280
     0
102
RTVSPost2010PropOp49
 70
     1
102
RTVSPost2010Prop50
 90
       50
102
RTVSPost2010PropOp50
 70
     1
102
RTVSPost2010Prop51ColorIndex
 90
      256
102
RTVSPost2010Prop51ColorRGB
 90
-16777216
102
RTVSPost2010PropOp51
 70
     0
102
RTVSPost2010Prop52
140
1.0
102
RTVSPost2010PropOp52
 70
     0
102
RTVSPost2010Prop53
 90
        2
102
RTVSPost2010PropOp53
 70
     1
102
RTVSPost2010Prop54
  1
strokes_ogs.tif
102
RTVSPost2010PropOp54
 70
     1
102
RTVSPost2010Prop55
280
     0
102
RTVSPost2010PropOp55
 70
     1
102
RTVSPost2010Prop56
140
1.0
102
RTVSPost2010PropOp56
 70
     1
102
RTVSPost2010Prop57
140
1.0
102
RTVSPost2010PropOp57
 70
     1
102
RTVSPropertyOp0
 70
     1
102
RTVSPropertyOp1
 70
     1
102
RTVSPropertyOp2
 70
     1
102
RTVSPropertyOp3
 70
     1
102
RTVSPropertyOp4
 70
     1
102
RTVSPropertyOp5
 70
     1
102
RTVSPropertyOp6
 70
     1
102
RTVSPropertyOp7
 70
     1
102
RTVSPropertyOp8
 70
     1
102
RTVSPropertyOp9
 70
     1
102
RTVSPropertyOp10
 70
     1
102
RTVSPropertyOp11
 70
     1
102
RTVSPropertyOp12
 70
     1
102
RTVSPropertyOp13
 70
     1
102
RTVSPropertyOp14
 70
     1
102
RTVSPropertyOp15
 70
     1
102
RTVSPropertyOp16
 70
     1
102
RTVSPropertyOp17
 70
     1
102
RTVSPropertyOp18
 70
     1
102
RTVSPropertyOp19
 70
     1
102
RTVSPropertyOp20
 70
     1
102
RTVSPropertyOp21
 70
     1
102
RTVSPropertyOp22
 70
     1
102
RTVSPropertyOp23
 70
     1
102
RTVSPropertyOp24
 70
     1
102
RTVSPropertyOp25
 70
     1
102
RTVSPropertyOp26
 70
     1
102
RTVSPropertyOp27
 70
     1
102
RTVSPropertyOp28
 70
     1
102
RTVSPropertyOp29
 70
     1
102
RTVSPropertyOp30
 70
     1
102
RTVSPropertyOp31
 70
     1
102
RTVSPropertyOp32
 70
     1
102
RTVSPropertyOp33
 70
     1
102
RTVSPropertyOp34
 70
     1
102
RTVSPropertyOp35
 70
     1
102
RTVSPropertyOp36
 70
     1
102
RTVSPropertyOp37
 70
     1
102
RTVSPropertyOp38
 70
     1
102
RTVSPropertyOp39
 70
     1
102
RTVSPropertyOp40
 70
     1
102
RTVSPropertyOp41
 70
     1
102
RTVSPropertyOp42
 70
     1
102
RTVSPropertyOp43
 70
     1
102
RTVSPropertyOp44
 70
     1
102
RTVSPropertyOp45
 70
     1
102
RTVSPropertyOp46
 70
     1
102
RTVSPropertyOp47
 70
     1
102
RTVSPropertyOp48
 70
     1
102
RTVSPropertyOp49
 70
     1
102
RTVSPropertyOp50
 70
     1
102
RTVSPropertyOp51
 70
     0
102
RTVSPropertyOp52
 70
     0
102
RTVSPropertyOp53
 70
     1
102
RTVSPropertyOp54
 70
     1
102
RTVSPropertyOp55
 70
     1
102
RTVSPropertyOp56
 70
     1
102
RTVSPropertyOp57
 70
     1
102
RTVSPropertyOp58
 70
     1
102
RTVSPropertyOp59
 70
     1
102
RTVSPropertyOp60
 70
     1
102
RTVSPropertyOp61
 70
     1
102
RTVSPropertyOp62
 70
     1
  0
XRECORD
  5
A66D
102
{ACAD_REACTORS
330
A66C
102
}
330
A66C
100
AcDbXrecord
280
     1
102
RTVSPost2010Prop28
280
     0
102
RTVSPost2010PropOp28
 70
     1
102
RTVSPost2010Prop29
280
     1
102
RTVSPost2010PropOp29
 70
     1
102
RTVSPost2010Prop30
280
     1
102
RTVSPost2010PropOp30
 70
     1
102
RTVSPost2010Prop31
280
     0
102
RTVSPost2010PropOp31
 70
     1
102
RTVSPost2010Prop32
280
     0
102
RTVSPost2010PropOp32
 70
     1
102
RTVSPost2010Prop33
280
     0
102
RTVSPost2010PropOp33
 70
     1
102
RTVSPost2010Prop34
280
     0
102
RTVSPost2010PropOp34
 70
     1
102
RTVSPost2010Prop35
280
     0
102
RTVSPost2010PropOp35
 70
     1
102
RTVSPost2010Prop36
280
     0
102
RTVSPost2010PropOp36
 70
     1
102
RTVSPost2010Prop37
 90
       50
102
RTVSPost2010PropOp37
 70
     1
102
RTVSPost2010Prop38
140
0.0
102
RTVSPost2010PropOp38
 70
     1
102
RTVSPost2010Prop39
140
1.0
102
RTVSPost2010PropOp39
 70
     1
102
RTVSPost2010Prop40
 90
        0
102
RTVSPost2010PropOp40
 70
     1
102
RTVSPost2010Prop41ColorIndex
 90
       18
102
RTVSPost2010Prop41ColorRGB
 90
        0
102
RTVSPost2010PropOp41
 70
     1
102
RTVSPost2010Prop42
 90
       50
102
RTVSPost2010PropOp42
 70
     1
102
RTVSPost2010Prop43
 90
        3
102
RTVSPost2010PropOp43
 70
     1
102
RTVSPost2010Prop44ColorIndex
 90
        5
102
RTVSPost2010Prop44ColorRGB
 90
      255
102
RTVSPost2010PropOp44
 70
     1
102
RTVSPost2010Prop45
280
     0
102
RTVSPost2010PropOp45
 70
     1
102
RTVSPost2010Prop46
 90
       50
102
RTVSPost2010PropOp46
 70
     1
102
RTVSPost2010Prop47
 90
       50
102
RTVSPost2010PropOp47
 70
     1
102
RTVSPost2010Prop48
 90
       50
102
RTVSPost2010PropOp48
 70
     1
102
RTVSPost2010Prop49
280
     0
102
RTVSPost2010PropOp49
 70
     1
102
RTVSPost2010Prop50
 90
       50
102
RTVSPost2010PropOp50
 70
     1
102
RTVSPost2010Prop51ColorIndex
 90
      256
102
RTVSPost2010Prop51ColorRGB
 90
-16777216
102
RTVSPost2010PropOp51
 70
     0
102
RTVSPost2010Prop52
140
1.0
102
RTVSPost2010PropOp52
 70
     0
102
RTVSPost2010Prop53
 90
        2
102
RTVSPost2010PropOp53
 70
     1
102
RTVSPost2010Prop54
  1
strokes_ogs.tif
102
RTVSPost2010PropOp54
 70
     1
102
RTVSPost2010Prop55
280
     0
102
RTVSPost2010PropOp55
 70
     1
102
RTVSPost2010Prop56
140
1.0
102
RTVSPost2010PropOp56
 70
     1
102
RTVSPost2010Prop57
140
1.0
102
RTVSPost2010PropOp57
 70
     1
102
RTVSPropertyOp0
 70
     1
102
RTVSPropertyOp1
 70
     1
102
RTVSPropertyOp2
 70
     1
102
RTVSPropertyOp3
 70
     1
102
RTVSPropertyOp4
 70
     1
102
RTVSPropertyOp5
 70
     1
102
RTVSPropertyOp6
 70
     1
102
RTVSPropertyOp7
 70
     1
102
RTVSPropertyOp8
 70
     1
102
RTVSPropertyOp9
 70
     1
102
RTVSPropertyOp10
 70
     1
102
RTVSPropertyOp11
 70
     1
102
RTVSPropertyOp12
 70
     1
102
RTVSPropertyOp13
 70
     1
102
RTVSPropertyOp14
 70
     1
102
RTVSPropertyOp15
 70
     1
102
RTVSPropertyOp16
 70
     1
102
RTVSPropertyOp17
 70
     1
102
RTVSPropertyOp18
 70
     1
102
RTVSPropertyOp19
 70
     1
102
RTVSPropertyOp20
 70
     1
102
RTVSPropertyOp21
 70
     1
102
RTVSPropertyOp22
 70
     1
102
RTVSPropertyOp23
 70
     1
102
RTVSPropertyOp24
 70
     1
102
RTVSPropertyOp25
 70
     1
102
RTVSPropertyOp26
 70
     1
102
RTVSPropertyOp27
 70
     1
102
RTVSPropertyOp28
 70
     1
102
RTVSPropertyOp29
 70
     1
102
RTVSPropertyOp30
 70
     1
102
RTVSPropertyOp31
 70
     1
102
RTVSPropertyOp32
 70
     1
102
RTVSPropertyOp33
 70
     1
102
RTVSPropertyOp34
 70
     1
102
RTVSPropertyOp35
 70
     1
102
RTVSPropertyOp36
 70
     1
102
RTVSPropertyOp37
 70
     1
102
RTVSPropertyOp38
 70
     1
102
RTVSPropertyOp39
 70
     1
102
RTVSPropertyOp40
 70
     1
102
RTVSPropertyOp41
 70
     1
102
RTVSPropertyOp42
 70
     1
102
RTVSPropertyOp43
 70
     1
102
RTVSPropertyOp44
 70
     1
102
RTVSPropertyOp45
 70
     1
102
RTVSPropertyOp46
 70
     1
102
RTVSPropertyOp47
 70
     1
102
RTVSPropertyOp48
 70
     1
102
RTVSPropertyOp49
 70
     1
102
RTVSPropertyOp50
 70
     1
102
RTVSPropertyOp51
 70
     0
102
RTVSPropertyOp52
 70
     0
102
RTVSPropertyOp53
 70
     1
102
RTVSPropertyOp54
 70
     1
102
RTVSPropertyOp55
 70
     1
102
RTVSPropertyOp56
 70
     1
102
RTVSPropertyOp57
 70
     1
102
RTVSPropertyOp58
 70
     1
102
RTVSPropertyOp59
 70
     1
102
RTVSPropertyOp60
 70
     1
102
RTVSPropertyOp61
 70
     1
102
RTVSPropertyOp62
 70
     1
  0
XRECORD
  5
A65F
102
{ACAD_REACTORS
330
A65E
102
}
330
A65E
100
AcDbXrecord
280
     1
102
RTVSPost2010Prop28
280
     0
102
RTVSPost2010PropOp28
 70
     1
102
RTVSPost2010Prop29
280
     1
102
RTVSPost2010PropOp29
 70
     1
102
RTVSPost2010Prop30
280
     1
102
RTVSPost2010PropOp30
 70
     1
102
RTVSPost2010Prop31
280
     0
102
RTVSPost2010PropOp31
 70
     1
102
RTVSPost2010Prop32
280
     0
102
RTVSPost2010PropOp32
 70
     1
102
RTVSPost2010Prop33
280
     0
102
RTVSPost2010PropOp33
 70
     1
102
RTVSPost2010Prop34
280
     0
102
RTVSPost2010PropOp34
 70
     1
102
RTVSPost2010Prop35
280
     0
102
RTVSPost2010PropOp35
 70
     1
102
RTVSPost2010Prop36
280
     0
102
RTVSPost2010PropOp36
 70
     1
102
RTVSPost2010Prop37
 90
       50
102
RTVSPost2010PropOp37
 70
     1
102
RTVSPost2010Prop38
140
0.0
102
RTVSPost2010PropOp38
 70
     1
102
RTVSPost2010Prop39
140
1.0
102
RTVSPost2010PropOp39
 70
     1
102
RTVSPost2010Prop40
 90
        0
102
RTVSPost2010PropOp40
 70
     1
102
RTVSPost2010Prop41ColorIndex
 90
       18
102
RTVSPost2010Prop41ColorRGB
 90
        0
102
RTVSPost2010PropOp41
 70
     1
102
RTVSPost2010Prop42
 90
       50
102
RTVSPost2010PropOp42
 70
     1
102
RTVSPost2010Prop43
 90
        3
102
RTVSPost2010PropOp43
 70
     1
102
RTVSPost2010Prop44ColorIndex
 90
        5
102
RTVSPost2010Prop44ColorRGB
 90
      255
102
RTVSPost2010PropOp44
 70
     1
102
RTVSPost2010Prop45
280
     0
102
RTVSPost2010PropOp45
 70
     1
102
RTVSPost2010Prop46
 90
       50
102
RTVSPost2010PropOp46
 70
     1
102
RTVSPost2010Prop47
 90
       50
102
RTVSPost2010PropOp47
 70
     1
102
RTVSPost2010Prop48
 90
       50
102
RTVSPost2010PropOp48
 70
     1
102
RTVSPost2010Prop49
280
     0
102
RTVSPost2010PropOp49
 70
     1
102
RTVSPost2010Prop50
 90
       50
102
RTVSPost2010PropOp50
 70
     1
102
RTVSPost2010Prop51ColorIndex
 90
      256
102
RTVSPost2010Prop51ColorRGB
 90
-16777216
102
RTVSPost2010PropOp51
 70
     0
102
RTVSPost2010Prop52
140
1.0
102
RTVSPost2010PropOp52
 70
     0
102
RTVSPost2010Prop53
 90
        2
102
RTVSPost2010PropOp53
 70
     1
102
RTVSPost2010Prop54
  1
strokes_ogs.tif
102
RTVSPost2010PropOp54
 70
     1
102
RTVSPost2010Prop55
280
     0
102
RTVSPost2010PropOp55
 70
     1
102
RTVSPost2010Prop56
140
1.0
102
RTVSPost2010PropOp56
 70
     1
102
RTVSPost2010Prop57
140
1.0
102
RTVSPost2010PropOp57
 70
     1
102
RTVSPropertyOp0
 70
     1
102
RTVSPropertyOp1
 70
     1
102
RTVSPropertyOp2
 70
     1
102
RTVSPropertyOp3
 70
     1
102
RTVSPropertyOp4
 70
     1
102
RTVSPropertyOp5
 70
     1
102
RTVSPropertyOp6
 70
     1
102
RTVSPropertyOp7
 70
     1
102
RTVSPropertyOp8
 70
     1
102
RTVSPropertyOp9
 70
     1
102
RTVSPropertyOp10
 70
     1
102
RTVSPropertyOp11
 70
     1
102
RTVSPropertyOp12
 70
     1
102
RTVSPropertyOp13
 70
     1
102
RTVSPropertyOp14
 70
     1
102
RTVSPropertyOp15
 70
     1
102
RTVSPropertyOp16
 70
     1
102
RTVSPropertyOp17
 70
     1
102
RTVSPropertyOp18
 70
     1
102
RTVSPropertyOp19
 70
     1
102
RTVSPropertyOp20
 70
     1
102
RTVSPropertyOp21
 70
     1
102
RTVSPropertyOp22
 70
     1
102
RTVSPropertyOp23
 70
     1
102
RTVSPropertyOp24
 70
     1
102
RTVSPropertyOp25
 70
     1
102
RTVSPropertyOp26
 70
     1
102
RTVSPropertyOp27
 70
     1
102
RTVSPropertyOp28
 70
     1
102
RTVSPropertyOp29
 70
     1
102
RTVSPropertyOp30
 70
     1
102
RTVSPropertyOp31
 70
     1
102
RTVSPropertyOp32
 70
     1
102
RTVSPropertyOp33
 70
     1
102
RTVSPropertyOp34
 70
     1
102
RTVSPropertyOp35
 70
     1
102
RTVSPropertyOp36
 70
     1
102
RTVSPropertyOp37
 70
     1
102
RTVSPropertyOp38
 70
     1
102
RTVSPropertyOp39
 70
     1
102
RTVSPropertyOp40
 70
     1
102
RTVSPropertyOp41
 70
     1
102
RTVSPropertyOp42
 70
     1
102
RTVSPropertyOp43
 70
     1
102
RTVSPropertyOp44
 70
     1
102
RTVSPropertyOp45
 70
     1
102
RTVSPropertyOp46
 70
     1
102
RTVSPropertyOp47
 70
     1
102
RTVSPropertyOp48
 70
     1
102
RTVSPropertyOp49
 70
     1
102
RTVSPropertyOp50
 70
     1
102
RTVSPropertyOp51
 70
     0
102
RTVSPropertyOp52
 70
     0
102
RTVSPropertyOp53
 70
     1
102
RTVSPropertyOp54
 70
     1
102
RTVSPropertyOp55
 70
     1
102
RTVSPropertyOp56
 70
     1
102
RTVSPropertyOp57
 70
     1
102
RTVSPropertyOp58
 70
     1
102
RTVSPropertyOp59
 70
     1
102
RTVSPropertyOp60
 70
     1
102
RTVSPropertyOp61
 70
     1
102
RTVSPropertyOp62
 70
     1
  0
XRECORD
  5
A663
102
{ACAD_REACTORS
330
A662
102
}
330
A662
100
AcDbXrecord
280
     1
102
RTVSPost2010Prop28
280
     0
102
RTVSPost2010PropOp28
 70
     1
102
RTVSPost2010Prop29
280
     1
102
RTVSPost2010PropOp29
 70
     1
102
RTVSPost2010Prop30
280
     1
102
RTVSPost2010PropOp30
 70
     1
102
RTVSPost2010Prop31
280
     0
102
RTVSPost2010PropOp31
 70
     1
102
RTVSPost2010Prop32
280
     0
102
RTVSPost2010PropOp32
 70
     1
102
RTVSPost2010Prop33
280
     0
102
RTVSPost2010PropOp33
 70
     1
102
RTVSPost2010Prop34
280
     0
102
RTVSPost2010PropOp34
 70
     1
102
RTVSPost2010Prop35
280
     0
102
RTVSPost2010PropOp35
 70
     1
102
RTVSPost2010Prop36
280
     0
102
RTVSPost2010PropOp36
 70
     1
102
RTVSPost2010Prop37
 90
       50
102
RTVSPost2010PropOp37
 70
     1
102
RTVSPost2010Prop38
140
0.0
102
RTVSPost2010PropOp38
 70
     1
102
RTVSPost2010Prop39
140
1.0
102
RTVSPost2010PropOp39
 70
     1
102
RTVSPost2010Prop40
 90
        0
102
RTVSPost2010PropOp40
 70
     1
102
RTVSPost2010Prop41ColorIndex
 90
       18
102
RTVSPost2010Prop41ColorRGB
 90
        0
102
RTVSPost2010PropOp41
 70
     1
102
RTVSPost2010Prop42
 90
       50
102
RTVSPost2010PropOp42
 70
     1
102
RTVSPost2010Prop43
 90
        3
102
RTVSPost2010PropOp43
 70
     1
102
RTVSPost2010Prop44ColorIndex
 90
        5
102
RTVSPost2010Prop44ColorRGB
 90
      255
102
RTVSPost2010PropOp44
 70
     1
102
RTVSPost2010Prop45
280
     0
102
RTVSPost2010PropOp45
 70
     1
102
RTVSPost2010Prop46
 90
       50
102
RTVSPost2010PropOp46
 70
     1
102
RTVSPost2010Prop47
 90
       50
102
RTVSPost2010PropOp47
 70
     1
102
RTVSPost2010Prop48
 90
       50
102
RTVSPost2010PropOp48
 70
     1
102
RTVSPost2010Prop49
280
     0
102
RTVSPost2010PropOp49
 70
     1
102
RTVSPost2010Prop50
 90
       50
102
RTVSPost2010PropOp50
 70
     1
102
RTVSPost2010Prop51ColorIndex
 90
      256
102
RTVSPost2010Prop51ColorRGB
 90
-16777216
102
RTVSPost2010PropOp51
 70
     0
102
RTVSPost2010Prop52
140
1.0
102
RTVSPost2010PropOp52
 70
     0
102
RTVSPost2010Prop53
 90
        2
102
RTVSPost2010PropOp53
 70
     1
102
RTVSPost2010Prop54
  1
strokes_ogs.tif
102
RTVSPost2010PropOp54
 70
     1
102
RTVSPost2010Prop55
280
     0
102
RTVSPost2010PropOp55
 70
     1
102
RTVSPost2010Prop56
140
1.0
102
RTVSPost2010PropOp56
 70
     1
102
RTVSPost2010Prop57
140
1.0
102
RTVSPost2010PropOp57
 70
     1
102
RTVSPropertyOp0
 70
     1
102
RTVSPropertyOp1
 70
     1
102
RTVSPropertyOp2
 70
     1
102
RTVSPropertyOp3
 70
     1
102
RTVSPropertyOp4
 70
     1
102
RTVSPropertyOp5
 70
     1
102
RTVSPropertyOp6
 70
     1
102
RTVSPropertyOp7
 70
     1
102
RTVSPropertyOp8
 70
     1
102
RTVSPropertyOp9
 70
     1
102
RTVSPropertyOp10
 70
     1
102
RTVSPropertyOp11
 70
     1
102
RTVSPropertyOp12
 70
     1
102
RTVSPropertyOp13
 70
     1
102
RTVSPropertyOp14
 70
     1
102
RTVSPropertyOp15
 70
     1
102
RTVSPropertyOp16
 70
     1
102
RTVSPropertyOp17
 70
     1
102
RTVSPropertyOp18
 70
     1
102
RTVSPropertyOp19
 70
     1
102
RTVSPropertyOp20
 70
     1
102
RTVSPropertyOp21
 70
     1
102
RTVSPropertyOp22
 70
     1
102
RTVSPropertyOp23
 70
     1
102
RTVSPropertyOp24
 70
     1
102
RTVSPropertyOp25
 70
     1
102
RTVSPropertyOp26
 70
     1
102
RTVSPropertyOp27
 70
     1
102
RTVSPropertyOp28
 70
     1
102
RTVSPropertyOp29
 70
     1
102
RTVSPropertyOp30
 70
     1
102
RTVSPropertyOp31
 70
     1
102
RTVSPropertyOp32
 70
     1
102
RTVSPropertyOp33
 70
     1
102
RTVSPropertyOp34
 70
     1
102
RTVSPropertyOp35
 70
     1
102
RTVSPropertyOp36
 70
     1
102
RTVSPropertyOp37
 70
     1
102
RTVSPropertyOp38
 70
     1
102
RTVSPropertyOp39
 70
     1
102
RTVSPropertyOp40
 70
     1
102
RTVSPropertyOp41
 70
     1
102
RTVSPropertyOp42
 70
     1
102
RTVSPropertyOp43
 70
     1
102
RTVSPropertyOp44
 70
     1
102
RTVSPropertyOp45
 70
     1
102
RTVSPropertyOp46
 70
     1
102
RTVSPropertyOp47
 70
     1
102
RTVSPropertyOp48
 70
     1
102
RTVSPropertyOp49
 70
     1
102
RTVSPropertyOp50
 70
     1
102
RTVSPropertyOp51
 70
     0
102
RTVSPropertyOp52
 70
     0
102
RTVSPropertyOp53
 70
     1
102
RTVSPropertyOp54
 70
     1
102
RTVSPropertyOp55
 70
     1
102
RTVSPropertyOp56
 70
     1
102
RTVSPropertyOp57
 70
     1
102
RTVSPropertyOp58
 70
     1
102
RTVSPropertyOp59
 70
     1
102
RTVSPropertyOp60
 70
     1
102
RTVSPropertyOp61
 70
     1
102
RTVSPropertyOp62
 70
     1
  0
XRECORD
  5
A67D
102
{ACAD_REACTORS
330
A67C
102
}
330
A67C
100
AcDbXrecord
280
     1
102
RTVSPost2010Prop28
280
     0
102
RTVSPost2010PropOp28
 70
     1
102
RTVSPost2010Prop29
280
     1
102
RTVSPost2010PropOp29
 70
     1
102
RTVSPost2010Prop30
280
     1
102
RTVSPost2010PropOp30
 70
     1
102
RTVSPost2010Prop31
280
     0
102
RTVSPost2010PropOp31
 70
     1
102
RTVSPost2010Prop32
280
     0
102
RTVSPost2010PropOp32
 70
     1
102
RTVSPost2010Prop33
280
     0
102
RTVSPost2010PropOp33
 70
     1
102
RTVSPost2010Prop34
280
     0
102
RTVSPost2010PropOp34
 70
     1
102
RTVSPost2010Prop35
280
     0
102
RTVSPost2010PropOp35
 70
     1
102
RTVSPost2010Prop36
280
     0
102
RTVSPost2010PropOp36
 70
     1
102
RTVSPost2010Prop37
 90
       50
102
RTVSPost2010PropOp37
 70
     0
102
RTVSPost2010Prop38
140
0.0
102
RTVSPost2010PropOp38
 70
     0
102
RTVSPost2010Prop39
140
1.0
102
RTVSPost2010PropOp39
 70
     0
102
RTVSPost2010Prop40
 90
        0
102
RTVSPost2010PropOp40
 70
     0
102
RTVSPost2010Prop41ColorIndex
 90
       18
102
RTVSPost2010Prop41ColorRGB
 90
        0
102
RTVSPost2010PropOp41
 70
     0
102
RTVSPost2010Prop42
 90
       50
102
RTVSPost2010PropOp42
 70
     0
102
RTVSPost2010Prop43
 90
        3
102
RTVSPost2010PropOp43
 70
     0
102
RTVSPost2010Prop44ColorIndex
 90
        5
102
RTVSPost2010Prop44ColorRGB
 90
      255
102
RTVSPost2010PropOp44
 70
     0
102
RTVSPost2010Prop45
280
     0
102
RTVSPost2010PropOp45
 70
     1
102
RTVSPost2010Prop46
 90
       50
102
RTVSPost2010PropOp46
 70
     0
102
RTVSPost2010Prop47
 90
       50
102
RTVSPost2010PropOp47
 70
     0
102
RTVSPost2010Prop48
 90
       50
102
RTVSPost2010PropOp48
 70
     0
102
RTVSPost2010Prop49
280
     0
102
RTVSPost2010PropOp49
 70
     1
102
RTVSPost2010Prop50
 90
       50
102
RTVSPost2010PropOp50
 70
     0
102
RTVSPost2010Prop51ColorIndex
 90
      256
102
RTVSPost2010Prop51ColorRGB
 90
-16777216
102
RTVSPost2010PropOp51
 70
     0
102
RTVSPost2010Prop52
140
1.0
102
RTVSPost2010PropOp52
 70
     0
102
RTVSPost2010Prop53
 90
        2
102
RTVSPost2010PropOp53
 70
     0
102
RTVSPost2010Prop54
  1
strokes_ogs.tif
102
RTVSPost2010PropOp54
 70
     0
102
RTVSPost2010Prop55
280
     0
102
RTVSPost2010PropOp55
 70
     1
102
RTVSPost2010Prop56
140
1.0
102
RTVSPost2010PropOp56
 70
     0
102
RTVSPost2010Prop57
140
1.0
102
RTVSPost2010PropOp57
 70
     0
102
RTVSPropertyOp0
 70
     0
102
RTVSPropertyOp1
 70
     0
102
RTVSPropertyOp2
 70
     0
102
RTVSPropertyOp3
 70
     0
102
RTVSPropertyOp4
 70
     0
102
RTVSPropertyOp5
 70
     0
102
RTVSPropertyOp6
 70
     0
102
RTVSPropertyOp7
 70
     0
102
RTVSPropertyOp8
 70
     0
102
RTVSPropertyOp9
 70
     0
102
RTVSPropertyOp10
 70
     0
102
RTVSPropertyOp11
 70
     0
102
RTVSPropertyOp12
 70
     0
102
RTVSPropertyOp13
 70
     0
102
RTVSPropertyOp14
 70
     2
102
RTVSPropertyOp15
 70
     0
102
RTVSPropertyOp16
 70
     0
102
RTVSPropertyOp17
 70
     0
102
RTVSPropertyOp18
 70
     0
102
RTVSPropertyOp19
 70
     0
102
RTVSPropertyOp20
 70
     0
102
RTVSPropertyOp21
 70
     0
102
RTVSPropertyOp22
 70
     0
102
RTVSPropertyOp23
 70
     0
102
RTVSPropertyOp24
 70
     0
102
RTVSPropertyOp25
 70
     0
102
RTVSPropertyOp26
 70
     0
102
RTVSPropertyOp27
 70
     0
102
RTVSPropertyOp28
 70
     1
102
RTVSPropertyOp29
 70
     1
102
RTVSPropertyOp30
 70
     1
102
RTVSPropertyOp31
 70
     1
102
RTVSPropertyOp32
 70
     1
102
RTVSPropertyOp33
 70
     1
102
RTVSPropertyOp34
 70
     1
102
RTVSPropertyOp35
 70
     1
102
RTVSPropertyOp36
 70
     1
102
RTVSPropertyOp37
 70
     0
102
RTVSPropertyOp38
 70
     0
102
RTVSPropertyOp39
 70
     0
102
RTVSPropertyOp40
 70
     0
102
RTVSPropertyOp41
 70
     0
102
RTVSPropertyOp42
 70
     0
102
RTVSPropertyOp43
 70
     0
102
RTVSPropertyOp44
 70
     0
102
RTVSPropertyOp45
 70
     1
102
RTVSPropertyOp46
 70
     0
102
RTVSPropertyOp47
 70
     0
102
RTVSPropertyOp48
 70
     0
102
RTVSPropertyOp49
 70
     1
102
RTVSPropertyOp50
 70
     0
102
RTVSPropertyOp51
 70
     0
102
RTVSPropertyOp52
 70
     0
102
RTVSPropertyOp53
 70
     0
102
RTVSPropertyOp54
 70
     0
102
RTVSPropertyOp55
 70
     1
102
RTVSPropertyOp56
 70
     0
102
RTVSPropertyOp57
 70
     0
102
RTVSPropertyOp58
 70
     0
102
RTVSPropertyOp59
 70
     0
102
RTVSPropertyOp60
 70
     0
102
RTVSPropertyOp61
 70
     0
102
RTVSPropertyOp62
 70
     0
  0
XRECORD
  5
A66B
102
{ACAD_REACTORS
330
A66A
102
}
330
A66A
100
AcDbXrecord
280
     1
102
RTVSPost2010Prop28
280
     0
102
RTVSPost2010PropOp28
 70
     1
102
RTVSPost2010Prop29
280
     1
102
RTVSPost2010PropOp29
 70
     1
102
RTVSPost2010Prop30
280
     1
102
RTVSPost2010PropOp30
 70
     1
102
RTVSPost2010Prop31
280
     0
102
RTVSPost2010PropOp31
 70
     1
102
RTVSPost2010Prop32
280
     0
102
RTVSPost2010PropOp32
 70
     1
102
RTVSPost2010Prop33
280
     0
102
RTVSPost2010PropOp33
 70
     1
102
RTVSPost2010Prop34
280
     0
102
RTVSPost2010PropOp34
 70
     1
102
RTVSPost2010Prop35
280
     0
102
RTVSPost2010PropOp35
 70
     1
102
RTVSPost2010Prop36
280
     0
102
RTVSPost2010PropOp36
 70
     1
102
RTVSPost2010Prop37
 90
       50
102
RTVSPost2010PropOp37
 70
     1
102
RTVSPost2010Prop38
140
0.0
102
RTVSPost2010PropOp38
 70
     1
102
RTVSPost2010Prop39
140
1.0
102
RTVSPost2010PropOp39
 70
     1
102
RTVSPost2010Prop40
 90
        0
102
RTVSPost2010PropOp40
 70
     1
102
RTVSPost2010Prop41ColorIndex
 90
       18
102
RTVSPost2010Prop41ColorRGB
 90
        0
102
RTVSPost2010PropOp41
 70
     1
102
RTVSPost2010Prop42
 90
       50
102
RTVSPost2010PropOp42
 70
     1
102
RTVSPost2010Prop43
 90
        3
102
RTVSPost2010PropOp43
 70
     1
102
RTVSPost2010Prop44ColorIndex
 90
        5
102
RTVSPost2010Prop44ColorRGB
 90
      255
102
RTVSPost2010PropOp44
 70
     1
102
RTVSPost2010Prop45
280
     0
102
RTVSPost2010PropOp45
 70
     1
102
RTVSPost2010Prop46
 90
       50
102
RTVSPost2010PropOp46
 70
     1
102
RTVSPost2010Prop47
 90
       50
102
RTVSPost2010PropOp47
 70
     1
102
RTVSPost2010Prop48
 90
       50
102
RTVSPost2010PropOp48
 70
     1
102
RTVSPost2010Prop49
280
     0
102
RTVSPost2010PropOp49
 70
     1
102
RTVSPost2010Prop50
 90
       50
102
RTVSPost2010PropOp50
 70
     1
102
RTVSPost2010Prop51ColorIndex
 90
      256
102
RTVSPost2010Prop51ColorRGB
 90
-16777216
102
RTVSPost2010PropOp51
 70
     0
102
RTVSPost2010Prop52
140
1.0
102
RTVSPost2010PropOp52
 70
     0
102
RTVSPost2010Prop53
 90
        2
102
RTVSPost2010PropOp53
 70
     1
102
RTVSPost2010Prop54
  1
strokes_ogs.tif
102
RTVSPost2010PropOp54
 70
     1
102
RTVSPost2010Prop55
280
     0
102
RTVSPost2010PropOp55
 70
     1
102
RTVSPost2010Prop56
140
1.0
102
RTVSPost2010PropOp56
 70
     1
102
RTVSPost2010Prop57
140
1.0
102
RTVSPost2010PropOp57
 70
     1
102
RTVSPropertyOp0
 70
     1
102
RTVSPropertyOp1
 70
     1
102
RTVSPropertyOp2
 70
     1
102
RTVSPropertyOp3
 70
     1
102
RTVSPropertyOp4
 70
     1
102
RTVSPropertyOp5
 70
     1
102
RTVSPropertyOp6
 70
     1
102
RTVSPropertyOp7
 70
     1
102
RTVSPropertyOp8
 70
     1
102
RTVSPropertyOp9
 70
     1
102
RTVSPropertyOp10
 70
     1
102
RTVSPropertyOp11
 70
     1
102
RTVSPropertyOp12
 70
     1
102
RTVSPropertyOp13
 70
     1
102
RTVSPropertyOp14
 70
     1
102
RTVSPropertyOp15
 70
     1
102
RTVSPropertyOp16
 70
     1
102
RTVSPropertyOp17
 70
     1
102
RTVSPropertyOp18
 70
     1
102
RTVSPropertyOp19
 70
     1
102
RTVSPropertyOp20
 70
     1
102
RTVSPropertyOp21
 70
     1
102
RTVSPropertyOp22
 70
     1
102
RTVSPropertyOp23
 70
     1
102
RTVSPropertyOp24
 70
     1
102
RTVSPropertyOp25
 70
     1
102
RTVSPropertyOp26
 70
     1
102
RTVSPropertyOp27
 70
     1
102
RTVSPropertyOp28
 70
     1
102
RTVSPropertyOp29
 70
     1
102
RTVSPropertyOp30
 70
     1
102
RTVSPropertyOp31
 70
     1
102
RTVSPropertyOp32
 70
     1
102
RTVSPropertyOp33
 70
     1
102
RTVSPropertyOp34
 70
     1
102
RTVSPropertyOp35
 70
     1
102
RTVSPropertyOp36
 70
     1
102
RTVSPropertyOp37
 70
     1
102
RTVSPropertyOp38
 70
     1
102
RTVSPropertyOp39
 70
     1
102
RTVSPropertyOp40
 70
     1
102
RTVSPropertyOp41
 70
     1
102
RTVSPropertyOp42
 70
     1
102
RTVSPropertyOp43
 70
     1
102
RTVSPropertyOp44
 70
     1
102
RTVSPropertyOp45
 70
     1
102
RTVSPropertyOp46
 70
     1
102
RTVSPropertyOp47
 70
     1
102
RTVSPropertyOp48
 70
     1
102
RTVSPropertyOp49
 70
     1
102
RTVSPropertyOp50
 70
     1
102
RTVSPropertyOp51
 70
     0
102
RTVSPropertyOp52
 70
     0
102
RTVSPropertyOp53
 70
     1
102
RTVSPropertyOp54
 70
     1
102
RTVSPropertyOp55
 70
     1
102
RTVSPropertyOp56
 70
     1
102
RTVSPropertyOp57
 70
     1
102
RTVSPropertyOp58
 70
     1
102
RTVSPropertyOp59
 70
     1
102
RTVSPropertyOp60
 70
     1
102
RTVSPropertyOp61
 70
     1
102
RTVSPropertyOp62
 70
     1
  0
XRECORD
  5
A64F
102
{ACAD_REACTORS
330
A64E
102
}
330
A64E
100
AcDbXrecord
280
     1
102
RTVSPost2010Prop28
280
     0
102
RTVSPost2010PropOp28
 70
     1
102
RTVSPost2010Prop29
280
     1
102
RTVSPost2010PropOp29
 70
     1
102
RTVSPost2010Prop30
280
     1
102
RTVSPost2010PropOp30
 70
     1
102
RTVSPost2010Prop31
280
     0
102
RTVSPost2010PropOp31
 70
     1
102
RTVSPost2010Prop32
280
     0
102
RTVSPost2010PropOp32
 70
     1
102
RTVSPost2010Prop33
280
     0
102
RTVSPost2010PropOp33
 70
     1
102
RTVSPost2010Prop34
280
     0
102
RTVSPost2010PropOp34
 70
     1
102
RTVSPost2010Prop35
280
     0
102
RTVSPost2010PropOp35
 70
     1
102
RTVSPost2010Prop36
280
     0
102
RTVSPost2010PropOp36
 70
     1
102
RTVSPost2010Prop37
 90
       50
102
RTVSPost2010PropOp37
 70
     1
102
RTVSPost2010Prop38
140
0.0
102
RTVSPost2010PropOp38
 70
     1
102
RTVSPost2010Prop39
140
1.0
102
RTVSPost2010PropOp39
 70
     1
102
RTVSPost2010Prop40
 90
        0
102
RTVSPost2010PropOp40
 70
     1
102
RTVSPost2010Prop41ColorIndex
 90
       18
102
RTVSPost2010Prop41ColorRGB
 90
        0
102
RTVSPost2010PropOp41
 70
     1
102
RTVSPost2010Prop42
 90
       50
102
RTVSPost2010PropOp42
 70
     1
102
RTVSPost2010Prop43
 90
        3
102
RTVSPost2010PropOp43
 70
     1
102
RTVSPost2010Prop44ColorIndex
 90
        5
102
RTVSPost2010Prop44ColorRGB
 90
      255
102
RTVSPost2010PropOp44
 70
     1
102
RTVSPost2010Prop45
280
     0
102
RTVSPost2010PropOp45
 70
     1
102
RTVSPost2010Prop46
 90
       50
102
RTVSPost2010PropOp46
 70
     1
102
RTVSPost2010Prop47
 90
       50
102
RTVSPost2010PropOp47
 70
     1
102
RTVSPost2010Prop48
 90
       50
102
RTVSPost2010PropOp48
 70
     1
102
RTVSPost2010Prop49
280
     0
102
RTVSPost2010PropOp49
 70
     1
102
RTVSPost2010Prop50
 90
       50
102
RTVSPost2010PropOp50
 70
     1
102
RTVSPost2010Prop51ColorIndex
 90
      256
102
RTVSPost2010Prop51ColorRGB
 90
-16777216
102
RTVSPost2010PropOp51
 70
     0
102
RTVSPost2010Prop52
140
1.0
102
RTVSPost2010PropOp52
 70
     0
102
RTVSPost2010Prop53
 90
        2
102
RTVSPost2010PropOp53
 70
     1
102
RTVSPost2010Prop54
  1
strokes_ogs.tif
102
RTVSPost2010PropOp54
 70
     1
102
RTVSPost2010Prop55
280
     0
102
RTVSPost2010PropOp55
 70
     1
102
RTVSPost2010Prop56
140
1.0
102
RTVSPost2010PropOp56
 70
     1
102
RTVSPost2010Prop57
140
1.0
102
RTVSPost2010PropOp57
 70
     1
102
RTVSPropertyOp0
 70
     1
102
RTVSPropertyOp1
 70
     1
102
RTVSPropertyOp2
 70
     1
102
RTVSPropertyOp3
 70
     1
102
RTVSPropertyOp4
 70
     1
102
RTVSPropertyOp5
 70
     1
102
RTVSPropertyOp6
 70
     1
102
RTVSPropertyOp7
 70
     1
102
RTVSPropertyOp8
 70
     1
102
RTVSPropertyOp9
 70
     1
102
RTVSPropertyOp10
 70
     1
102
RTVSPropertyOp11
 70
     1
102
RTVSPropertyOp12
 70
     1
102
RTVSPropertyOp13
 70
     1
102
RTVSPropertyOp14
 70
     1
102
RTVSPropertyOp15
 70
     1
102
RTVSPropertyOp16
 70
     1
102
RTVSPropertyOp17
 70
     1
102
RTVSPropertyOp18
 70
     1
102
RTVSPropertyOp19
 70
     1
102
RTVSPropertyOp20
 70
     1
102
RTVSPropertyOp21
 70
     1
102
RTVSPropertyOp22
 70
     1
102
RTVSPropertyOp23
 70
     1
102
RTVSPropertyOp24
 70
     1
102
RTVSPropertyOp25
 70
     1
102
RTVSPropertyOp26
 70
     1
102
RTVSPropertyOp27
 70
     1
102
RTVSPropertyOp28
 70
     1
102
RTVSPropertyOp29
 70
     1
102
RTVSPropertyOp30
 70
     1
102
RTVSPropertyOp31
 70
     1
102
RTVSPropertyOp32
 70
     1
102
RTVSPropertyOp33
 70
     1
102
RTVSPropertyOp34
 70
     1
102
RTVSPropertyOp35
 70
     1
102
RTVSPropertyOp36
 70
     1
102
RTVSPropertyOp37
 70
     1
102
RTVSPropertyOp38
 70
     1
102
RTVSPropertyOp39
 70
     1
102
RTVSPropertyOp40
 70
     1
102
RTVSPropertyOp41
 70
     1
102
RTVSPropertyOp42
 70
     1
102
RTVSPropertyOp43
 70
     1
102
RTVSPropertyOp44
 70
     1
102
RTVSPropertyOp45
 70
     1
102
RTVSPropertyOp46
 70
     1
102
RTVSPropertyOp47
 70
     1
102
RTVSPropertyOp48
 70
     1
102
RTVSPropertyOp49
 70
     1
102
RTVSPropertyOp50
 70
     1
102
RTVSPropertyOp51
 70
     0
102
RTVSPropertyOp52
 70
     0
102
RTVSPropertyOp53
 70
     1
102
RTVSPropertyOp54
 70
     1
102
RTVSPropertyOp55
 70
     1
102
RTVSPropertyOp56
 70
     1
102
RTVSPropertyOp57
 70
     1
102
RTVSPropertyOp58
 70
     1
102
RTVSPropertyOp59
 70
     1
102
RTVSPropertyOp60
 70
     1
102
RTVSPropertyOp61
 70
     1
102
RTVSPropertyOp62
 70
     1
  0
XRECORD
  5
A651
102
{ACAD_REACTORS
330
A650
102
}
330
A650
100
AcDbXrecord
280
     1
102
RTVSPost2010Prop28
280
     0
102
RTVSPost2010PropOp28
 70
     1
102
RTVSPost2010Prop29
280
     1
102
RTVSPost2010PropOp29
 70
     1
102
RTVSPost2010Prop30
280
     1
102
RTVSPost2010PropOp30
 70
     1
102
RTVSPost2010Prop31
280
     0
102
RTVSPost2010PropOp31
 70
     1
102
RTVSPost2010Prop32
280
     0
102
RTVSPost2010PropOp32
 70
     1
102
RTVSPost2010Prop33
280
     0
102
RTVSPost2010PropOp33
 70
     1
102
RTVSPost2010Prop34
280
     0
102
RTVSPost2010PropOp34
 70
     1
102
RTVSPost2010Prop35
280
     0
102
RTVSPost2010PropOp35
 70
     1
102
RTVSPost2010Prop36
280
     0
102
RTVSPost2010PropOp36
 70
     1
102
RTVSPost2010Prop37
 90
       50
102
RTVSPost2010PropOp37
 70
     1
102
RTVSPost2010Prop38
140
0.0
102
RTVSPost2010PropOp38
 70
     1
102
RTVSPost2010Prop39
140
1.0
102
RTVSPost2010PropOp39
 70
     1
102
RTVSPost2010Prop40
 90
        0
102
RTVSPost2010PropOp40
 70
     1
102
RTVSPost2010Prop41ColorIndex
 90
       18
102
RTVSPost2010Prop41ColorRGB
 90
        0
102
RTVSPost2010PropOp41
 70
     1
102
RTVSPost2010Prop42
 90
       50
102
RTVSPost2010PropOp42
 70
     1
102
RTVSPost2010Prop43
 90
        3
102
RTVSPost2010PropOp43
 70
     1
102
RTVSPost2010Prop44ColorIndex
 90
        5
102
RTVSPost2010Prop44ColorRGB
 90
      255
102
RTVSPost2010PropOp44
 70
     1
102
RTVSPost2010Prop45
280
     0
102
RTVSPost2010PropOp45
 70
     1
102
RTVSPost2010Prop46
 90
       50
102
RTVSPost2010PropOp46
 70
     1
102
RTVSPost2010Prop47
 90
       50
102
RTVSPost2010PropOp47
 70
     1
102
RTVSPost2010Prop48
 90
       50
102
RTVSPost2010PropOp48
 70
     1
102
RTVSPost2010Prop49
280
     0
102
RTVSPost2010PropOp49
 70
     1
102
RTVSPost2010Prop50
 90
       50
102
RTVSPost2010PropOp50
 70
     1
102
RTVSPost2010Prop51ColorIndex
 90
      256
102
RTVSPost2010Prop51ColorRGB
 90
-16777216
102
RTVSPost2010PropOp51
 70
     0
102
RTVSPost2010Prop52
140
1.0
102
RTVSPost2010PropOp52
 70
     0
102
RTVSPost2010Prop53
 90
        2
102
RTVSPost2010PropOp53
 70
     1
102
RTVSPost2010Prop54
  1
strokes_ogs.tif
102
RTVSPost2010PropOp54
 70
     1
102
RTVSPost2010Prop55
280
     0
102
RTVSPost2010PropOp55
 70
     1
102
RTVSPost2010Prop56
140
1.0
102
RTVSPost2010PropOp56
 70
     1
102
RTVSPost2010Prop57
140
1.0
102
RTVSPost2010PropOp57
 70
     1
102
RTVSPropertyOp0
 70
     1
102
RTVSPropertyOp1
 70
     1
102
RTVSPropertyOp2
 70
     1
102
RTVSPropertyOp3
 70
     1
102
RTVSPropertyOp4
 70
     1
102
RTVSPropertyOp5
 70
     1
102
RTVSPropertyOp6
 70
     1
102
RTVSPropertyOp7
 70
     1
102
RTVSPropertyOp8
 70
     1
102
RTVSPropertyOp9
 70
     1
102
RTVSPropertyOp10
 70
     1
102
RTVSPropertyOp11
 70
     1
102
RTVSPropertyOp12
 70
     1
102
RTVSPropertyOp13
 70
     1
102
RTVSPropertyOp14
 70
     1
102
RTVSPropertyOp15
 70
     1
102
RTVSPropertyOp16
 70
     1
102
RTVSPropertyOp17
 70
     1
102
RTVSPropertyOp18
 70
     1
102
RTVSPropertyOp19
 70
     1
102
RTVSPropertyOp20
 70
     1
102
RTVSPropertyOp21
 70
     1
102
RTVSPropertyOp22
 70
     1
102
RTVSPropertyOp23
 70
     1
102
RTVSPropertyOp24
 70
     1
102
RTVSPropertyOp25
 70
     1
102
RTVSPropertyOp26
 70
     1
102
RTVSPropertyOp27
 70
     1
102
RTVSPropertyOp28
 70
     1
102
RTVSPropertyOp29
 70
     1
102
RTVSPropertyOp30
 70
     1
102
RTVSPropertyOp31
 70
     1
102
RTVSPropertyOp32
 70
     1
102
RTVSPropertyOp33
 70
     1
102
RTVSPropertyOp34
 70
     1
102
RTVSPropertyOp35
 70
     1
102
RTVSPropertyOp36
 70
     1
102
RTVSPropertyOp37
 70
     1
102
RTVSPropertyOp38
 70
     1
102
RTVSPropertyOp39
 70
     1
102
RTVSPropertyOp40
 70
     1
102
RTVSPropertyOp41
 70
     1
102
RTVSPropertyOp42
 70
     1
102
RTVSPropertyOp43
 70
     1
102
RTVSPropertyOp44
 70
     1
102
RTVSPropertyOp45
 70
     1
102
RTVSPropertyOp46
 70
     1
102
RTVSPropertyOp47
 70
     1
102
RTVSPropertyOp48
 70
     1
102
RTVSPropertyOp49
 70
     1
102
RTVSPropertyOp50
 70
     1
102
RTVSPropertyOp51
 70
     0
102
RTVSPropertyOp52
 70
     0
102
RTVSPropertyOp53
 70
     1
102
RTVSPropertyOp54
 70
     1
102
RTVSPropertyOp55
 70
     1
102
RTVSPropertyOp56
 70
     1
102
RTVSPropertyOp57
 70
     1
102
RTVSPropertyOp58
 70
     1
102
RTVSPropertyOp59
 70
     1
102
RTVSPropertyOp60
 70
     1
102
RTVSPropertyOp61
 70
     1
102
RTVSPropertyOp62
 70
     1
  0
XRECORD
  5
A653
102
{ACAD_REACTORS
330
A652
102
}
330
A652
100
AcDbXrecord
280
     1
102
RTVSPost2010Prop28
280
     0
102
RTVSPost2010PropOp28
 70
     1
102
RTVSPost2010Prop29
280
     1
102
RTVSPost2010PropOp29
 70
     1
102
RTVSPost2010Prop30
280
     1
102
RTVSPost2010PropOp30
 70
     1
102
RTVSPost2010Prop31
280
     0
102
RTVSPost2010PropOp31
 70
     1
102
RTVSPost2010Prop32
280
     0
102
RTVSPost2010PropOp32
 70
     1
102
RTVSPost2010Prop33
280
     0
102
RTVSPost2010PropOp33
 70
     1
102
RTVSPost2010Prop34
280
     0
102
RTVSPost2010PropOp34
 70
     1
102
RTVSPost2010Prop35
280
     0
102
RTVSPost2010PropOp35
 70
     1
102
RTVSPost2010Prop36
280
     0
102
RTVSPost2010PropOp36
 70
     1
102
RTVSPost2010Prop37
 90
       50
102
RTVSPost2010PropOp37
 70
     1
102
RTVSPost2010Prop38
140
0.0
102
RTVSPost2010PropOp38
 70
     1
102
RTVSPost2010Prop39
140
1.0
102
RTVSPost2010PropOp39
 70
     1
102
RTVSPost2010Prop40
 90
        0
102
RTVSPost2010PropOp40
 70
     1
102
RTVSPost2010Prop41ColorIndex
 90
       18
102
RTVSPost2010Prop41ColorRGB
 90
        0
102
RTVSPost2010PropOp41
 70
     1
102
RTVSPost2010Prop42
 90
       50
102
RTVSPost2010PropOp42
 70
     1
102
RTVSPost2010Prop43
 90
        3
102
RTVSPost2010PropOp43
 70
     1
102
RTVSPost2010Prop44ColorIndex
 90
        5
102
RTVSPost2010Prop44ColorRGB
 90
      255
102
RTVSPost2010PropOp44
 70
     1
102
RTVSPost2010Prop45
280
     0
102
RTVSPost2010PropOp45
 70
     1
102
RTVSPost2010Prop46
 90
       50
102
RTVSPost2010PropOp46
 70
     1
102
RTVSPost2010Prop47
 90
       50
102
RTVSPost2010PropOp47
 70
     1
102
RTVSPost2010Prop48
 90
       50
102
RTVSPost2010PropOp48
 70
     1
102
RTVSPost2010Prop49
280
     0
102
RTVSPost2010PropOp49
 70
     1
102
RTVSPost2010Prop50
 90
       50
102
RTVSPost2010PropOp50
 70
     1
102
RTVSPost2010Prop51ColorIndex
 90
      256
102
RTVSPost2010Prop51ColorRGB
 90
-16777216
102
RTVSPost2010PropOp51
 70
     0
102
RTVSPost2010Prop52
140
1.0
102
RTVSPost2010PropOp52
 70
     0
102
RTVSPost2010Prop53
 90
        2
102
RTVSPost2010PropOp53
 70
     1
102
RTVSPost2010Prop54
  1
strokes_ogs.tif
102
RTVSPost2010PropOp54
 70
     1
102
RTVSPost2010Prop55
280
     0
102
RTVSPost2010PropOp55
 70
     1
102
RTVSPost2010Prop56
140
1.0
102
RTVSPost2010PropOp56
 70
     1
102
RTVSPost2010Prop57
140
1.0
102
RTVSPost2010PropOp57
 70
     1
102
RTVSPropertyOp0
 70
     1
102
RTVSPropertyOp1
 70
     1
102
RTVSPropertyOp2
 70
     1
102
RTVSPropertyOp3
 70
     1
102
RTVSPropertyOp4
 70
     1
102
RTVSPropertyOp5
 70
     1
102
RTVSPropertyOp6
 70
     1
102
RTVSPropertyOp7
 70
     1
102
RTVSPropertyOp8
 70
     1
102
RTVSPropertyOp9
 70
     1
102
RTVSPropertyOp10
 70
     1
102
RTVSPropertyOp11
 70
     1
102
RTVSPropertyOp12
 70
     1
102
RTVSPropertyOp13
 70
     1
102
RTVSPropertyOp14
 70
     1
102
RTVSPropertyOp15
 70
     1
102
RTVSPropertyOp16
 70
     1
102
RTVSPropertyOp17
 70
     1
102
RTVSPropertyOp18
 70
     1
102
RTVSPropertyOp19
 70
     1
102
RTVSPropertyOp20
 70
     1
102
RTVSPropertyOp21
 70
     1
102
RTVSPropertyOp22
 70
     1
102
RTVSPropertyOp23
 70
     1
102
RTVSPropertyOp24
 70
     1
102
RTVSPropertyOp25
 70
     1
102
RTVSPropertyOp26
 70
     1
102
RTVSPropertyOp27
 70
     1
102
RTVSPropertyOp28
 70
     1
102
RTVSPropertyOp29
 70
     1
102
RTVSPropertyOp30
 70
     1
102
RTVSPropertyOp31
 70
     1
102
RTVSPropertyOp32
 70
     1
102
RTVSPropertyOp33
 70
     1
102
RTVSPropertyOp34
 70
     1
102
RTVSPropertyOp35
 70
     1
102
RTVSPropertyOp36
 70
     1
102
RTVSPropertyOp37
 70
     1
102
RTVSPropertyOp38
 70
     1
102
RTVSPropertyOp39
 70
     1
102
RTVSPropertyOp40
 70
     1
102
RTVSPropertyOp41
 70
     1
102
RTVSPropertyOp42
 70
     1
102
RTVSPropertyOp43
 70
     1
102
RTVSPropertyOp44
 70
     1
102
RTVSPropertyOp45
 70
     1
102
RTVSPropertyOp46
 70
     1
102
RTVSPropertyOp47
 70
     1
102
RTVSPropertyOp48
 70
     1
102
RTVSPropertyOp49
 70
     1
102
RTVSPropertyOp50
 70
     1
102
RTVSPropertyOp51
 70
     0
102
RTVSPropertyOp52
 70
     0
102
RTVSPropertyOp53
 70
     1
102
RTVSPropertyOp54
 70
     1
102
RTVSPropertyOp55
 70
     1
102
RTVSPropertyOp56
 70
     1
102
RTVSPropertyOp57
 70
     1
102
RTVSPropertyOp58
 70
     1
102
RTVSPropertyOp59
 70
     1
102
RTVSPropertyOp60
 70
     1
102
RTVSPropertyOp61
 70
     1
102
RTVSPropertyOp62
 70
     1
  0
XRECORD
  5
A655
102
{ACAD_REACTORS
330
A654
102
}
330
A654
100
AcDbXrecord
280
     1
102
RTVSPost2010Prop28
280
     0
102
RTVSPost2010PropOp28
 70
     1
102
RTVSPost2010Prop29
280
     1
102
RTVSPost2010PropOp29
 70
     1
102
RTVSPost2010Prop30
280
     1
102
RTVSPost2010PropOp30
 70
     1
102
RTVSPost2010Prop31
280
     0
102
RTVSPost2010PropOp31
 70
     1
102
RTVSPost2010Prop32
280
     0
102
RTVSPost2010PropOp32
 70
     1
102
RTVSPost2010Prop33
280
     0
102
RTVSPost2010PropOp33
 70
     1
102
RTVSPost2010Prop34
280
     0
102
RTVSPost2010PropOp34
 70
     1
102
RTVSPost2010Prop35
280
     0
102
RTVSPost2010PropOp35
 70
     1
102
RTVSPost2010Prop36
280
     0
102
RTVSPost2010PropOp36
 70
     1
102
RTVSPost2010Prop37
 90
       50
102
RTVSPost2010PropOp37
 70
     1
102
RTVSPost2010Prop38
140
0.0
102
RTVSPost2010PropOp38
 70
     1
102
RTVSPost2010Prop39
140
1.0
102
RTVSPost2010PropOp39
 70
     1
102
RTVSPost2010Prop40
 90
        0
102
RTVSPost2010PropOp40
 70
     1
102
RTVSPost2010Prop41ColorIndex
 90
       18
102
RTVSPost2010Prop41ColorRGB
 90
        0
102
RTVSPost2010PropOp41
 70
     1
102
RTVSPost2010Prop42
 90
       50
102
RTVSPost2010PropOp42
 70
     1
102
RTVSPost2010Prop43
 90
        3
102
RTVSPost2010PropOp43
 70
     1
102
RTVSPost2010Prop44ColorIndex
 90
        5
102
RTVSPost2010Prop44ColorRGB
 90
      255
102
RTVSPost2010PropOp44
 70
     1
102
RTVSPost2010Prop45
280
     0
102
RTVSPost2010PropOp45
 70
     1
102
RTVSPost2010Prop46
 90
       50
102
RTVSPost2010PropOp46
 70
     1
102
RTVSPost2010Prop47
 90
       50
102
RTVSPost2010PropOp47
 70
     1
102
RTVSPost2010Prop48
 90
       50
102
RTVSPost2010PropOp48
 70
     1
102
RTVSPost2010Prop49
280
     0
102
RTVSPost2010PropOp49
 70
     1
102
RTVSPost2010Prop50
 90
       50
102
RTVSPost2010PropOp50
 70
     1
102
RTVSPost2010Prop51ColorIndex
 90
      256
102
RTVSPost2010Prop51ColorRGB
 90
-16777216
102
RTVSPost2010PropOp51
 70
     0
102
RTVSPost2010Prop52
140
1.0
102
RTVSPost2010PropOp52
 70
     0
102
RTVSPost2010Prop53
 90
        2
102
RTVSPost2010PropOp53
 70
     1
102
RTVSPost2010Prop54
  1
strokes_ogs.tif
102
RTVSPost2010PropOp54
 70
     1
102
RTVSPost2010Prop55
280
     0
102
RTVSPost2010PropOp55
 70
     1
102
RTVSPost2010Prop56
140
1.0
102
RTVSPost2010PropOp56
 70
     1
102
RTVSPost2010Prop57
140
1.0
102
RTVSPost2010PropOp57
 70
     1
102
RTVSPropertyOp0
 70
     1
102
RTVSPropertyOp1
 70
     1
102
RTVSPropertyOp2
 70
     1
102
RTVSPropertyOp3
 70
     1
102
RTVSPropertyOp4
 70
     1
102
RTVSPropertyOp5
 70
     1
102
RTVSPropertyOp6
 70
     1
102
RTVSPropertyOp7
 70
     1
102
RTVSPropertyOp8
 70
     1
102
RTVSPropertyOp9
 70
     1
102
RTVSPropertyOp10
 70
     1
102
RTVSPropertyOp11
 70
     1
102
RTVSPropertyOp12
 70
     1
102
RTVSPropertyOp13
 70
     1
102
RTVSPropertyOp14
 70
     1
102
RTVSPropertyOp15
 70
     1
102
RTVSPropertyOp16
 70
     1
102
RTVSPropertyOp17
 70
     1
102
RTVSPropertyOp18
 70
     1
102
RTVSPropertyOp19
 70
     1
102
RTVSPropertyOp20
 70
     1
102
RTVSPropertyOp21
 70
     1
102
RTVSPropertyOp22
 70
     1
102
RTVSPropertyOp23
 70
     1
102
RTVSPropertyOp24
 70
     1
102
RTVSPropertyOp25
 70
     1
102
RTVSPropertyOp26
 70
     1
102
RTVSPropertyOp27
 70
     1
102
RTVSPropertyOp28
 70
     1
102
RTVSPropertyOp29
 70
     1
102
RTVSPropertyOp30
 70
     1
102
RTVSPropertyOp31
 70
     1
102
RTVSPropertyOp32
 70
     1
102
RTVSPropertyOp33
 70
     1
102
RTVSPropertyOp34
 70
     1
102
RTVSPropertyOp35
 70
     1
102
RTVSPropertyOp36
 70
     1
102
RTVSPropertyOp37
 70
     1
102
RTVSPropertyOp38
 70
     1
102
RTVSPropertyOp39
 70
     1
102
RTVSPropertyOp40
 70
     1
102
RTVSPropertyOp41
 70
     1
102
RTVSPropertyOp42
 70
     1
102
RTVSPropertyOp43
 70
     1
102
RTVSPropertyOp44
 70
     1
102
RTVSPropertyOp45
 70
     1
102
RTVSPropertyOp46
 70
     1
102
RTVSPropertyOp47
 70
     1
102
RTVSPropertyOp48
 70
     1
102
RTVSPropertyOp49
 70
     1
102
RTVSPropertyOp50
 70
     1
102
RTVSPropertyOp51
 70
     0
102
RTVSPropertyOp52
 70
     0
102
RTVSPropertyOp53
 70
     1
102
RTVSPropertyOp54
 70
     1
102
RTVSPropertyOp55
 70
     1
102
RTVSPropertyOp56
 70
     1
102
RTVSPropertyOp57
 70
     1
102
RTVSPropertyOp58
 70
     1
102
RTVSPropertyOp59
 70
     1
102
RTVSPropertyOp60
 70
     1
102
RTVSPropertyOp61
 70
     1
102
RTVSPropertyOp62
 70
     1
  0
XRECORD
  5
A65D
102
{ACAD_REACTORS
330
A65C
102
}
330
A65C
100
AcDbXrecord
280
     1
102
RTVSPost2010Prop28
280
     0
102
RTVSPost2010PropOp28
 70
     1
102
RTVSPost2010Prop29
280
     1
102
RTVSPost2010PropOp29
 70
     1
102
RTVSPost2010Prop30
280
     1
102
RTVSPost2010PropOp30
 70
     1
102
RTVSPost2010Prop31
280
     0
102
RTVSPost2010PropOp31
 70
     1
102
RTVSPost2010Prop32
280
     0
102
RTVSPost2010PropOp32
 70
     1
102
RTVSPost2010Prop33
280
     0
102
RTVSPost2010PropOp33
 70
     1
102
RTVSPost2010Prop34
280
     0
102
RTVSPost2010PropOp34
 70
     1
102
RTVSPost2010Prop35
280
     0
102
RTVSPost2010PropOp35
 70
     1
102
RTVSPost2010Prop36
280
     0
102
RTVSPost2010PropOp36
 70
     1
102
RTVSPost2010Prop37
 90
       50
102
RTVSPost2010PropOp37
 70
     1
102
RTVSPost2010Prop38
140
0.0
102
RTVSPost2010PropOp38
 70
     1
102
RTVSPost2010Prop39
140
1.0
102
RTVSPost2010PropOp39
 70
     1
102
RTVSPost2010Prop40
 90
        0
102
RTVSPost2010PropOp40
 70
     1
102
RTVSPost2010Prop41ColorIndex
 90
       18
102
RTVSPost2010Prop41ColorRGB
 90
        0
102
RTVSPost2010PropOp41
 70
     1
102
RTVSPost2010Prop42
 90
       50
102
RTVSPost2010PropOp42
 70
     1
102
RTVSPost2010Prop43
 90
        3
102
RTVSPost2010PropOp43
 70
     1
102
RTVSPost2010Prop44ColorIndex
 90
        5
102
RTVSPost2010Prop44ColorRGB
 90
      255
102
RTVSPost2010PropOp44
 70
     1
102
RTVSPost2010Prop45
280
     0
102
RTVSPost2010PropOp45
 70
     1
102
RTVSPost2010Prop46
 90
       50
102
RTVSPost2010PropOp46
 70
     1
102
RTVSPost2010Prop47
 90
       50
102
RTVSPost2010PropOp47
 70
     1
102
RTVSPost2010Prop48
 90
       50
102
RTVSPost2010PropOp48
 70
     1
102
RTVSPost2010Prop49
280
     0
102
RTVSPost2010PropOp49
 70
     1
102
RTVSPost2010Prop50
 90
       50
102
RTVSPost2010PropOp50
 70
     1
102
RTVSPost2010Prop51ColorIndex
 90
      256
102
RTVSPost2010Prop51ColorRGB
 90
-16777216
102
RTVSPost2010PropOp51
 70
     0
102
RTVSPost2010Prop52
140
1.0
102
RTVSPost2010PropOp52
 70
     0
102
RTVSPost2010Prop53
 90
        2
102
RTVSPost2010PropOp53
 70
     1
102
RTVSPost2010Prop54
  1
strokes_ogs.tif
102
RTVSPost2010PropOp54
 70
     1
102
RTVSPost2010Prop55
280
     0
102
RTVSPost2010PropOp55
 70
     1
102
RTVSPost2010Prop56
140
1.0
102
RTVSPost2010PropOp56
 70
     1
102
RTVSPost2010Prop57
140
1.0
102
RTVSPost2010PropOp57
 70
     1
102
RTVSPropertyOp0
 70
     1
102
RTVSPropertyOp1
 70
     1
102
RTVSPropertyOp2
 70
     1
102
RTVSPropertyOp3
 70
     1
102
RTVSPropertyOp4
 70
     1
102
RTVSPropertyOp5
 70
     1
102
RTVSPropertyOp6
 70
     1
102
RTVSPropertyOp7
 70
     1
102
RTVSPropertyOp8
 70
     1
102
RTVSPropertyOp9
 70
     1
102
RTVSPropertyOp10
 70
     1
102
RTVSPropertyOp11
 70
     1
102
RTVSPropertyOp12
 70
     1
102
RTVSPropertyOp13
 70
     1
102
RTVSPropertyOp14
 70
     1
102
RTVSPropertyOp15
 70
     1
102
RTVSPropertyOp16
 70
     1
102
RTVSPropertyOp17
 70
     1
102
RTVSPropertyOp18
 70
     1
102
RTVSPropertyOp19
 70
     1
102
RTVSPropertyOp20
 70
     1
102
RTVSPropertyOp21
 70
     1
102
RTVSPropertyOp22
 70
     1
102
RTVSPropertyOp23
 70
     1
102
RTVSPropertyOp24
 70
     1
102
RTVSPropertyOp25
 70
     1
102
RTVSPropertyOp26
 70
     1
102
RTVSPropertyOp27
 70
     1
102
RTVSPropertyOp28
 70
     1
102
RTVSPropertyOp29
 70
     1
102
RTVSPropertyOp30
 70
     1
102
RTVSPropertyOp31
 70
     1
102
RTVSPropertyOp32
 70
     1
102
RTVSPropertyOp33
 70
     1
102
RTVSPropertyOp34
 70
     1
102
RTVSPropertyOp35
 70
     1
102
RTVSPropertyOp36
 70
     1
102
RTVSPropertyOp37
 70
     1
102
RTVSPropertyOp38
 70
     1
102
RTVSPropertyOp39
 70
     1
102
RTVSPropertyOp40
 70
     1
102
RTVSPropertyOp41
 70
     1
102
RTVSPropertyOp42
 70
     1
102
RTVSPropertyOp43
 70
     1
102
RTVSPropertyOp44
 70
     1
102
RTVSPropertyOp45
 70
     1
102
RTVSPropertyOp46
 70
     1
102
RTVSPropertyOp47
 70
     1
102
RTVSPropertyOp48
 70
     1
102
RTVSPropertyOp49
 70
     1
102
RTVSPropertyOp50
 70
     1
102
RTVSPropertyOp51
 70
     0
102
RTVSPropertyOp52
 70
     0
102
RTVSPropertyOp53
 70
     1
102
RTVSPropertyOp54
 70
     1
102
RTVSPropertyOp55
 70
     1
102
RTVSPropertyOp56
 70
     1
102
RTVSPropertyOp57
 70
     1
102
RTVSPropertyOp58
 70
     1
102
RTVSPropertyOp59
 70
     1
102
RTVSPropertyOp60
 70
     1
102
RTVSPropertyOp61
 70
     1
102
RTVSPropertyOp62
 70
     1
  0
XRECORD
  5
A679
102
{ACAD_REACTORS
330
A678
102
}
330
A678
100
AcDbXrecord
280
     1
102
RTVSPost2010Prop28
280
     0
102
RTVSPost2010PropOp28
 70
     1
102
RTVSPost2010Prop29
280
     1
102
RTVSPost2010PropOp29
 70
     1
102
RTVSPost2010Prop30
280
     1
102
RTVSPost2010PropOp30
 70
     1
102
RTVSPost2010Prop31
280
     0
102
RTVSPost2010PropOp31
 70
     1
102
RTVSPost2010Prop32
280
     0
102
RTVSPost2010PropOp32
 70
     1
102
RTVSPost2010Prop33
280
     0
102
RTVSPost2010PropOp33
 70
     1
102
RTVSPost2010Prop34
280
     0
102
RTVSPost2010PropOp34
 70
     1
102
RTVSPost2010Prop35
280
     0
102
RTVSPost2010PropOp35
 70
     1
102
RTVSPost2010Prop36
280
     0
102
RTVSPost2010PropOp36
 70
     1
102
RTVSPost2010Prop37
 90
       50
102
RTVSPost2010PropOp37
 70
     0
102
RTVSPost2010Prop38
140
0.0
102
RTVSPost2010PropOp38
 70
     0
102
RTVSPost2010Prop39
140
1.0
102
RTVSPost2010PropOp39
 70
     0
102
RTVSPost2010Prop40
 90
        0
102
RTVSPost2010PropOp40
 70
     0
102
RTVSPost2010Prop41ColorIndex
 90
       18
102
RTVSPost2010Prop41ColorRGB
 90
        0
102
RTVSPost2010PropOp41
 70
     0
102
RTVSPost2010Prop42
 90
       50
102
RTVSPost2010PropOp42
 70
     0
102
RTVSPost2010Prop43
 90
        3
102
RTVSPost2010PropOp43
 70
     0
102
RTVSPost2010Prop44ColorIndex
 90
        5
102
RTVSPost2010Prop44ColorRGB
 90
      255
102
RTVSPost2010PropOp44
 70
     0
102
RTVSPost2010Prop45
280
     0
102
RTVSPost2010PropOp45
 70
     1
102
RTVSPost2010Prop46
 90
       50
102
RTVSPost2010PropOp46
 70
     0
102
RTVSPost2010Prop47
 90
       50
102
RTVSPost2010PropOp47
 70
     0
102
RTVSPost2010Prop48
 90
       50
102
RTVSPost2010PropOp48
 70
     0
102
RTVSPost2010Prop49
280
     0
102
RTVSPost2010PropOp49
 70
     1
102
RTVSPost2010Prop50
 90
       50
102
RTVSPost2010PropOp50
 70
     0
102
RTVSPost2010Prop51ColorIndex
 90
      256
102
RTVSPost2010Prop51ColorRGB
 90
-16777216
102
RTVSPost2010PropOp51
 70
     0
102
RTVSPost2010Prop52
140
1.0
102
RTVSPost2010PropOp52
 70
     0
102
RTVSPost2010Prop53
 90
        2
102
RTVSPost2010PropOp53
 70
     0
102
RTVSPost2010Prop54
  1
strokes_ogs.tif
102
RTVSPost2010PropOp54
 70
     0
102
RTVSPost2010Prop55
280
     0
102
RTVSPost2010PropOp55
 70
     1
102
RTVSPost2010Prop56
140
1.0
102
RTVSPost2010PropOp56
 70
     0
102
RTVSPost2010Prop57
140
1.0
102
RTVSPost2010PropOp57
 70
     0
102
RTVSPropertyOp0
 70
     0
102
RTVSPropertyOp1
 70
     0
102
RTVSPropertyOp2
 70
     0
102
RTVSPropertyOp3
 70
     0
102
RTVSPropertyOp4
 70
     0
102
RTVSPropertyOp5
 70
     0
102
RTVSPropertyOp6
 70
     0
102
RTVSPropertyOp7
 70
     0
102
RTVSPropertyOp8
 70
     0
102
RTVSPropertyOp9
 70
     0
102
RTVSPropertyOp10
 70
     0
102
RTVSPropertyOp11
 70
     0
102
RTVSPropertyOp12
 70
     0
102
RTVSPropertyOp13
 70
     0
102
RTVSPropertyOp14
 70
     2
102
RTVSPropertyOp15
 70
     0
102
RTVSPropertyOp16
 70
     0
102
RTVSPropertyOp17
 70
     0
102
RTVSPropertyOp18
 70
     0
102
RTVSPropertyOp19
 70
     0
102
RTVSPropertyOp20
 70
     0
102
RTVSPropertyOp21
 70
     0
102
RTVSPropertyOp22
 70
     0
102
RTVSPropertyOp23
 70
     0
102
RTVSPropertyOp24
 70
     0
102
RTVSPropertyOp25
 70
     0
102
RTVSPropertyOp26
 70
     0
102
RTVSPropertyOp27
 70
     0
102
RTVSPropertyOp28
 70
     1
102
RTVSPropertyOp29
 70
     1
102
RTVSPropertyOp30
 70
     1
102
RTVSPropertyOp31
 70
     1
102
RTVSPropertyOp32
 70
     1
102
RTVSPropertyOp33
 70
     1
102
RTVSPropertyOp34
 70
     1
102
RTVSPropertyOp35
 70
     1
102
RTVSPropertyOp36
 70
     1
102
RTVSPropertyOp37
 70
     0
102
RTVSPropertyOp38
 70
     0
102
RTVSPropertyOp39
 70
     0
102
RTVSPropertyOp40
 70
     0
102
RTVSPropertyOp41
 70
     0
102
RTVSPropertyOp42
 70
     0
102
RTVSPropertyOp43
 70
     0
102
RTVSPropertyOp44
 70
     0
102
RTVSPropertyOp45
 70
     1
102
RTVSPropertyOp46
 70
     0
102
RTVSPropertyOp47
 70
     0
102
RTVSPropertyOp48
 70
     0
102
RTVSPropertyOp49
 70
     1
102
RTVSPropertyOp50
 70
     0
102
RTVSPropertyOp51
 70
     0
102
RTVSPropertyOp52
 70
     0
102
RTVSPropertyOp53
 70
     0
102
RTVSPropertyOp54
 70
     0
102
RTVSPropertyOp55
 70
     1
102
RTVSPropertyOp56
 70
     0
102
RTVSPropertyOp57
 70
     0
102
RTVSPropertyOp58
 70
     0
102
RTVSPropertyOp59
 70
     0
102
RTVSPropertyOp60
 70
     0
102
RTVSPropertyOp61
 70
     0
102
RTVSPropertyOp62
 70
     0
  0
XRECORD
  5
A669
102
{ACAD_REACTORS
330
A668
102
}
330
A668
100
AcDbXrecord
280
     1
102
RTVSPost2010Prop28
280
     0
102
RTVSPost2010PropOp28
 70
     1
102
RTVSPost2010Prop29
280
     1
102
RTVSPost2010PropOp29
 70
     1
102
RTVSPost2010Prop30
280
     1
102
RTVSPost2010PropOp30
 70
     1
102
RTVSPost2010Prop31
280
     0
102
RTVSPost2010PropOp31
 70
     1
102
RTVSPost2010Prop32
280
     0
102
RTVSPost2010PropOp32
 70
     1
102
RTVSPost2010Prop33
280
     0
102
RTVSPost2010PropOp33
 70
     1
102
RTVSPost2010Prop34
280
     0
102
RTVSPost2010PropOp34
 70
     1
102
RTVSPost2010Prop35
280
     0
102
RTVSPost2010PropOp35
 70
     1
102
RTVSPost2010Prop36
280
     0
102
RTVSPost2010PropOp36
 70
     1
102
RTVSPost2010Prop37
 90
       50
102
RTVSPost2010PropOp37
 70
     1
102
RTVSPost2010Prop38
140
0.0
102
RTVSPost2010PropOp38
 70
     1
102
RTVSPost2010Prop39
140
1.0
102
RTVSPost2010PropOp39
 70
     1
102
RTVSPost2010Prop40
 90
        0
102
RTVSPost2010PropOp40
 70
     1
102
RTVSPost2010Prop41ColorIndex
 90
       18
102
RTVSPost2010Prop41ColorRGB
 90
        0
102
RTVSPost2010PropOp41
 70
     1
102
RTVSPost2010Prop42
 90
       50
102
RTVSPost2010PropOp42
 70
     1
102
RTVSPost2010Prop43
 90
        3
102
RTVSPost2010PropOp43
 70
     1
102
RTVSPost2010Prop44ColorIndex
 90
        5
102
RTVSPost2010Prop44ColorRGB
 90
      255
102
RTVSPost2010PropOp44
 70
     1
102
RTVSPost2010Prop45
280
     0
102
RTVSPost2010PropOp45
 70
     1
102
RTVSPost2010Prop46
 90
       50
102
RTVSPost2010PropOp46
 70
     1
102
RTVSPost2010Prop47
 90
       50
102
RTVSPost2010PropOp47
 70
     1
102
RTVSPost2010Prop48
 90
       50
102
RTVSPost2010PropOp48
 70
     1
102
RTVSPost2010Prop49
280
     0
102
RTVSPost2010PropOp49
 70
     1
102
RTVSPost2010Prop50
 90
       50
102
RTVSPost2010PropOp50
 70
     1
102
RTVSPost2010Prop51ColorIndex
 90
      256
102
RTVSPost2010Prop51ColorRGB
 90
-16777216
102
RTVSPost2010PropOp51
 70
     0
102
RTVSPost2010Prop52
140
1.0
102
RTVSPost2010PropOp52
 70
     0
102
RTVSPost2010Prop53
 90
        2
102
RTVSPost2010PropOp53
 70
     1
102
RTVSPost2010Prop54
  1
strokes_ogs.tif
102
RTVSPost2010PropOp54
 70
     1
102
RTVSPost2010Prop55
280
     0
102
RTVSPost2010PropOp55
 70
     1
102
RTVSPost2010Prop56
140
1.0
102
RTVSPost2010PropOp56
 70
     1
102
RTVSPost2010Prop57
140
1.0
102
RTVSPost2010PropOp57
 70
     1
102
RTVSPropertyOp0
 70
     1
102
RTVSPropertyOp1
 70
     1
102
RTVSPropertyOp2
 70
     1
102
RTVSPropertyOp3
 70
     1
102
RTVSPropertyOp4
 70
     1
102
RTVSPropertyOp5
 70
     1
102
RTVSPropertyOp6
 70
     1
102
RTVSPropertyOp7
 70
     1
102
RTVSPropertyOp8
 70
     1
102
RTVSPropertyOp9
 70
     1
102
RTVSPropertyOp10
 70
     1
102
RTVSPropertyOp11
 70
     1
102
RTVSPropertyOp12
 70
     1
102
RTVSPropertyOp13
 70
     1
102
RTVSPropertyOp14
 70
     1
102
RTVSPropertyOp15
 70
     1
102
RTVSPropertyOp16
 70
     1
102
RTVSPropertyOp17
 70
     1
102
RTVSPropertyOp18
 70
     1
102
RTVSPropertyOp19
 70
     1
102
RTVSPropertyOp20
 70
     1
102
RTVSPropertyOp21
 70
     1
102
RTVSPropertyOp22
 70
     1
102
RTVSPropertyOp23
 70
     1
102
RTVSPropertyOp24
 70
     1
102
RTVSPropertyOp25
 70
     1
102
RTVSPropertyOp26
 70
     1
102
RTVSPropertyOp27
 70
     1
102
RTVSPropertyOp28
 70
     1
102
RTVSPropertyOp29
 70
     1
102
RTVSPropertyOp30
 70
     1
102
RTVSPropertyOp31
 70
     1
102
RTVSPropertyOp32
 70
     1
102
RTVSPropertyOp33
 70
     1
102
RTVSPropertyOp34
 70
     1
102
RTVSPropertyOp35
 70
     1
102
RTVSPropertyOp36
 70
     1
102
RTVSPropertyOp37
 70
     1
102
RTVSPropertyOp38
 70
     1
102
RTVSPropertyOp39
 70
     1
102
RTVSPropertyOp40
 70
     1
102
RTVSPropertyOp41
 70
     1
102
RTVSPropertyOp42
 70
     1
102
RTVSPropertyOp43
 70
     1
102
RTVSPropertyOp44
 70
     1
102
RTVSPropertyOp45
 70
     1
102
RTVSPropertyOp46
 70
     1
102
RTVSPropertyOp47
 70
     1
102
RTVSPropertyOp48
 70
     1
102
RTVSPropertyOp49
 70
     1
102
RTVSPropertyOp50
 70
     1
102
RTVSPropertyOp51
 70
     0
102
RTVSPropertyOp52
 70
     0
102
RTVSPropertyOp53
 70
     1
102
RTVSPropertyOp54
 70
     1
102
RTVSPropertyOp55
 70
     1
102
RTVSPropertyOp56
 70
     1
102
RTVSPropertyOp57
 70
     1
102
RTVSPropertyOp58
 70
     1
102
RTVSPropertyOp59
 70
     1
102
RTVSPropertyOp60
 70
     1
102
RTVSPropertyOp61
 70
     1
102
RTVSPropertyOp62
 70
     1
  0
XRECORD
  5
A67B
102
{ACAD_REACTORS
330
A67A
102
}
330
A67A
100
AcDbXrecord
280
     1
102
RTVSPost2010Prop28
280
     0
102
RTVSPost2010PropOp28
 70
     1
102
RTVSPost2010Prop29
280
     1
102
RTVSPost2010PropOp29
 70
     1
102
RTVSPost2010Prop30
280
     1
102
RTVSPost2010PropOp30
 70
     1
102
RTVSPost2010Prop31
280
     0
102
RTVSPost2010PropOp31
 70
     1
102
RTVSPost2010Prop32
280
     0
102
RTVSPost2010PropOp32
 70
     1
102
RTVSPost2010Prop33
280
     0
102
RTVSPost2010PropOp33
 70
     1
102
RTVSPost2010Prop34
280
     0
102
RTVSPost2010PropOp34
 70
     1
102
RTVSPost2010Prop35
280
     0
102
RTVSPost2010PropOp35
 70
     1
102
RTVSPost2010Prop36
280
     0
102
RTVSPost2010PropOp36
 70
     1
102
RTVSPost2010Prop37
 90
       50
102
RTVSPost2010PropOp37
 70
     0
102
RTVSPost2010Prop38
140
0.0
102
RTVSPost2010PropOp38
 70
     0
102
RTVSPost2010Prop39
140
1.0
102
RTVSPost2010PropOp39
 70
     0
102
RTVSPost2010Prop40
 90
        0
102
RTVSPost2010PropOp40
 70
     0
102
RTVSPost2010Prop41ColorIndex
 90
       18
102
RTVSPost2010Prop41ColorRGB
 90
        0
102
RTVSPost2010PropOp41
 70
     0
102
RTVSPost2010Prop42
 90
       50
102
RTVSPost2010PropOp42
 70
     0
102
RTVSPost2010Prop43
 90
        3
102
RTVSPost2010PropOp43
 70
     0
102
RTVSPost2010Prop44ColorIndex
 90
        5
102
RTVSPost2010Prop44ColorRGB
 90
      255
102
RTVSPost2010PropOp44
 70
     0
102
RTVSPost2010Prop45
280
     0
102
RTVSPost2010PropOp45
 70
     1
102
RTVSPost2010Prop46
 90
       50
102
RTVSPost2010PropOp46
 70
     0
102
RTVSPost2010Prop47
 90
       50
102
RTVSPost2010PropOp47
 70
     0
102
RTVSPost2010Prop48
 90
       50
102
RTVSPost2010PropOp48
 70
     0
102
RTVSPost2010Prop49
280
     0
102
RTVSPost2010PropOp49
 70
     1
102
RTVSPost2010Prop50
 90
       50
102
RTVSPost2010PropOp50
 70
     0
102
RTVSPost2010Prop51ColorIndex
 90
      256
102
RTVSPost2010Prop51ColorRGB
 90
-16777216
102
RTVSPost2010PropOp51
 70
     0
102
RTVSPost2010Prop52
140
1.0
102
RTVSPost2010PropOp52
 70
     0
102
RTVSPost2010Prop53
 90
        2
102
RTVSPost2010PropOp53
 70
     0
102
RTVSPost2010Prop54
  1
strokes_ogs.tif
102
RTVSPost2010PropOp54
 70
     0
102
RTVSPost2010Prop55
280
     0
102
RTVSPost2010PropOp55
 70
     1
102
RTVSPost2010Prop56
140
1.0
102
RTVSPost2010PropOp56
 70
     0
102
RTVSPost2010Prop57
140
1.0
102
RTVSPost2010PropOp57
 70
     0
102
RTVSPropertyOp0
 70
     0
102
RTVSPropertyOp1
 70
     0
102
RTVSPropertyOp2
 70
     0
102
RTVSPropertyOp3
 70
     0
102
RTVSPropertyOp4
 70
     0
102
RTVSPropertyOp5
 70
     0
102
RTVSPropertyOp6
 70
     0
102
RTVSPropertyOp7
 70
     0
102
RTVSPropertyOp8
 70
     0
102
RTVSPropertyOp9
 70
     0
102
RTVSPropertyOp10
 70
     0
102
RTVSPropertyOp11
 70
     0
102
RTVSPropertyOp12
 70
     0
102
RTVSPropertyOp13
 70
     0
102
RTVSPropertyOp14
 70
     2
102
RTVSPropertyOp15
 70
     0
102
RTVSPropertyOp16
 70
     0
102
RTVSPropertyOp17
 70
     0
102
RTVSPropertyOp18
 70
     0
102
RTVSPropertyOp19
 70
     0
102
RTVSPropertyOp20
 70
     0
102
RTVSPropertyOp21
 70
     0
102
RTVSPropertyOp22
 70
     0
102
RTVSPropertyOp23
 70
     0
102
RTVSPropertyOp24
 70
     0
102
RTVSPropertyOp25
 70
     0
102
RTVSPropertyOp26
 70
     0
102
RTVSPropertyOp27
 70
     0
102
RTVSPropertyOp28
 70
     1
102
RTVSPropertyOp29
 70
     1
102
RTVSPropertyOp30
 70
     1
102
RTVSPropertyOp31
 70
     1
102
RTVSPropertyOp32
 70
     1
102
RTVSPropertyOp33
 70
     1
102
RTVSPropertyOp34
 70
     1
102
RTVSPropertyOp35
 70
     1
102
RTVSPropertyOp36
 70
     1
102
RTVSPropertyOp37
 70
     0
102
RTVSPropertyOp38
 70
     0
102
RTVSPropertyOp39
 70
     0
102
RTVSPropertyOp40
 70
     0
102
RTVSPropertyOp41
 70
     0
102
RTVSPropertyOp42
 70
     0
102
RTVSPropertyOp43
 70
     0
102
RTVSPropertyOp44
 70
     0
102
RTVSPropertyOp45
 70
     1
102
RTVSPropertyOp46
 70
     0
102
RTVSPropertyOp47
 70
     0
102
RTVSPropertyOp48
 70
     0
102
RTVSPropertyOp49
 70
     1
102
RTVSPropertyOp50
 70
     0
102
RTVSPropertyOp51
 70
     0
102
RTVSPropertyOp52
 70
     0
102
RTVSPropertyOp53
 70
     0
102
RTVSPropertyOp54
 70
     0
102
RTVSPropertyOp55
 70
     1
102
RTVSPropertyOp56
 70
     0
102
RTVSPropertyOp57
 70
     0
102
RTVSPropertyOp58
 70
     0
102
RTVSPropertyOp59
 70
     0
102
RTVSPropertyOp60
 70
     0
102
RTVSPropertyOp61
 70
     0
102
RTVSPropertyOp62
 70
     0
  0
XRECORD
  5
A661
102
{ACAD_REACTORS
330
A660
102
}
330
A660
100
AcDbXrecord
280
     1
102
RTVSPost2010Prop28
280
     0
102
RTVSPost2010PropOp28
 70
     1
102
RTVSPost2010Prop29
280
     1
102
RTVSPost2010PropOp29
 70
     1
102
RTVSPost2010Prop30
280
     1
102
RTVSPost2010PropOp30
 70
     1
102
RTVSPost2010Prop31
280
     0
102
RTVSPost2010PropOp31
 70
     1
102
RTVSPost2010Prop32
280
     0
102
RTVSPost2010PropOp32
 70
     1
102
RTVSPost2010Prop33
280
     0
102
RTVSPost2010PropOp33
 70
     1
102
RTVSPost2010Prop34
280
     0
102
RTVSPost2010PropOp34
 70
     1
102
RTVSPost2010Prop35
280
     0
102
RTVSPost2010PropOp35
 70
     1
102
RTVSPost2010Prop36
280
     0
102
RTVSPost2010PropOp36
 70
     1
102
RTVSPost2010Prop37
 90
       50
102
RTVSPost2010PropOp37
 70
     1
102
RTVSPost2010Prop38
140
0.0
102
RTVSPost2010PropOp38
 70
     1
102
RTVSPost2010Prop39
140
1.0
102
RTVSPost2010PropOp39
 70
     1
102
RTVSPost2010Prop40
 90
        0
102
RTVSPost2010PropOp40
 70
     1
102
RTVSPost2010Prop41ColorIndex
 90
       18
102
RTVSPost2010Prop41ColorRGB
 90
        0
102
RTVSPost2010PropOp41
 70
     1
102
RTVSPost2010Prop42
 90
       50
102
RTVSPost2010PropOp42
 70
     1
102
RTVSPost2010Prop43
 90
        3
102
RTVSPost2010PropOp43
 70
     1
102
RTVSPost2010Prop44ColorIndex
 90
        5
102
RTVSPost2010Prop44ColorRGB
 90
      255
102
RTVSPost2010PropOp44
 70
     1
102
RTVSPost2010Prop45
280
     0
102
RTVSPost2010PropOp45
 70
     1
102
RTVSPost2010Prop46
 90
       50
102
RTVSPost2010PropOp46
 70
     1
102
RTVSPost2010Prop47
 90
       50
102
RTVSPost2010PropOp47
 70
     1
102
RTVSPost2010Prop48
 90
       50
102
RTVSPost2010PropOp48
 70
     1
102
RTVSPost2010Prop49
280
     0
102
RTVSPost2010PropOp49
 70
     1
102
RTVSPost2010Prop50
 90
       50
102
RTVSPost2010PropOp50
 70
     1
102
RTVSPost2010Prop51ColorIndex
 90
      256
102
RTVSPost2010Prop51ColorRGB
 90
-16777216
102
RTVSPost2010PropOp51
 70
     0
102
RTVSPost2010Prop52
140
1.0
102
RTVSPost2010PropOp52
 70
     0
102
RTVSPost2010Prop53
 90
        2
102
RTVSPost2010PropOp53
 70
     1
102
RTVSPost2010Prop54
  1
strokes_ogs.tif
102
RTVSPost2010PropOp54
 70
     1
102
RTVSPost2010Prop55
280
     0
102
RTVSPost2010PropOp55
 70
     1
102
RTVSPost2010Prop56
140
1.0
102
RTVSPost2010PropOp56
 70
     1
102
RTVSPost2010Prop57
140
1.0
102
RTVSPost2010PropOp57
 70
     1
102
RTVSPropertyOp0
 70
     1
102
RTVSPropertyOp1
 70
     1
102
RTVSPropertyOp2
 70
     1
102
RTVSPropertyOp3
 70
     1
102
RTVSPropertyOp4
 70
     1
102
RTVSPropertyOp5
 70
     1
102
RTVSPropertyOp6
 70
     1
102
RTVSPropertyOp7
 70
     1
102
RTVSPropertyOp8
 70
     1
102
RTVSPropertyOp9
 70
     1
102
RTVSPropertyOp10
 70
     1
102
RTVSPropertyOp11
 70
     1
102
RTVSPropertyOp12
 70
     1
102
RTVSPropertyOp13
 70
     1
102
RTVSPropertyOp14
 70
     1
102
RTVSPropertyOp15
 70
     1
102
RTVSPropertyOp16
 70
     1
102
RTVSPropertyOp17
 70
     1
102
RTVSPropertyOp18
 70
     1
102
RTVSPropertyOp19
 70
     1
102
RTVSPropertyOp20
 70
     1
102
RTVSPropertyOp21
 70
     1
102
RTVSPropertyOp22
 70
     1
102
RTVSPropertyOp23
 70
     1
102
RTVSPropertyOp24
 70
     1
102
RTVSPropertyOp25
 70
     1
102
RTVSPropertyOp26
 70
     1
102
RTVSPropertyOp27
 70
     1
102
RTVSPropertyOp28
 70
     1
102
RTVSPropertyOp29
 70
     1
102
RTVSPropertyOp30
 70
     1
102
RTVSPropertyOp31
 70
     1
102
RTVSPropertyOp32
 70
     1
102
RTVSPropertyOp33
 70
     1
102
RTVSPropertyOp34
 70
     1
102
RTVSPropertyOp35
 70
     1
102
RTVSPropertyOp36
 70
     1
102
RTVSPropertyOp37
 70
     1
102
RTVSPropertyOp38
 70
     1
102
RTVSPropertyOp39
 70
     1
102
RTVSPropertyOp40
 70
     1
102
RTVSPropertyOp41
 70
     1
102
RTVSPropertyOp42
 70
     1
102
RTVSPropertyOp43
 70
     1
102
RTVSPropertyOp44
 70
     1
102
RTVSPropertyOp45
 70
     1
102
RTVSPropertyOp46
 70
     1
102
RTVSPropertyOp47
 70
     1
102
RTVSPropertyOp48
 70
     1
102
RTVSPropertyOp49
 70
     1
102
RTVSPropertyOp50
 70
     1
102
RTVSPropertyOp51
 70
     0
102
RTVSPropertyOp52
 70
     0
102
RTVSPropertyOp53
 70
     1
102
RTVSPropertyOp54
 70
     1
102
RTVSPropertyOp55
 70
     1
102
RTVSPropertyOp56
 70
     1
102
RTVSPropertyOp57
 70
     1
102
RTVSPropertyOp58
 70
     1
102
RTVSPropertyOp59
 70
     1
102
RTVSPropertyOp60
 70
     1
102
RTVSPropertyOp61
 70
     1
102
RTVSPropertyOp62
 70
     1
  0
XRECORD
  5
A677
102
{ACAD_REACTORS
330
A676
102
}
330
A676
100
AcDbXrecord
280
     1
102
RTVSPost2010Prop28
280
     0
102
RTVSPost2010PropOp28
 70
     1
102
RTVSPost2010Prop29
280
     1
102
RTVSPost2010PropOp29
 70
     1
102
RTVSPost2010Prop30
280
     1
102
RTVSPost2010PropOp30
 70
     1
102
RTVSPost2010Prop31
280
     0
102
RTVSPost2010PropOp31
 70
     1
102
RTVSPost2010Prop32
280
     0
102
RTVSPost2010PropOp32
 70
     1
102
RTVSPost2010Prop33
280
     0
102
RTVSPost2010PropOp33
 70
     1
102
RTVSPost2010Prop34
280
     0
102
RTVSPost2010PropOp34
 70
     1
102
RTVSPost2010Prop35
280
     0
102
RTVSPost2010PropOp35
 70
     1
102
RTVSPost2010Prop36
280
     0
102
RTVSPost2010PropOp36
 70
     1
102
RTVSPost2010Prop37
 90
       50
102
RTVSPost2010PropOp37
 70
     1
102
RTVSPost2010Prop38
140
0.0
102
RTVSPost2010PropOp38
 70
     1
102
RTVSPost2010Prop39
140
1.0
102
RTVSPost2010PropOp39
 70
     1
102
RTVSPost2010Prop40
 90
        0
102
RTVSPost2010PropOp40
 70
     1
102
RTVSPost2010Prop41ColorIndex
 90
       18
102
RTVSPost2010Prop41ColorRGB
 90
        0
102
RTVSPost2010PropOp41
 70
     1
102
RTVSPost2010Prop42
 90
       50
102
RTVSPost2010PropOp42
 70
     1
102
RTVSPost2010Prop43
 90
        3
102
RTVSPost2010PropOp43
 70
     1
102
RTVSPost2010Prop44ColorIndex
 90
        5
102
RTVSPost2010Prop44ColorRGB
 90
      255
102
RTVSPost2010PropOp44
 70
     1
102
RTVSPost2010Prop45
280
     0
102
RTVSPost2010PropOp45
 70
     1
102
RTVSPost2010Prop46
 90
       50
102
RTVSPost2010PropOp46
 70
     1
102
RTVSPost2010Prop47
 90
       50
102
RTVSPost2010PropOp47
 70
     1
102
RTVSPost2010Prop48
 90
       50
102
RTVSPost2010PropOp48
 70
     1
102
RTVSPost2010Prop49
280
     0
102
RTVSPost2010PropOp49
 70
     1
102
RTVSPost2010Prop50
 90
       50
102
RTVSPost2010PropOp50
 70
     1
102
RTVSPost2010Prop51ColorIndex
 90
      256
102
RTVSPost2010Prop51ColorRGB
 90
-16777216
102
RTVSPost2010PropOp51
 70
     0
102
RTVSPost2010Prop52
140
1.0
102
RTVSPost2010PropOp52
 70
     0
102
RTVSPost2010Prop53
 90
        2
102
RTVSPost2010PropOp53
 70
     1
102
RTVSPost2010Prop54
  1
strokes_ogs.tif
102
RTVSPost2010PropOp54
 70
     1
102
RTVSPost2010Prop55
280
     0
102
RTVSPost2010PropOp55
 70
     1
102
RTVSPost2010Prop56
140
1.0
102
RTVSPost2010PropOp56
 70
     1
102
RTVSPost2010Prop57
140
1.0
102
RTVSPost2010PropOp57
 70
     1
102
RTVSPropertyOp0
 70
     1
102
RTVSPropertyOp1
 70
     1
102
RTVSPropertyOp2
 70
     1
102
RTVSPropertyOp3
 70
     1
102
RTVSPropertyOp4
 70
     1
102
RTVSPropertyOp5
 70
     1
102
RTVSPropertyOp6
 70
     1
102
RTVSPropertyOp7
 70
     1
102
RTVSPropertyOp8
 70
     1
102
RTVSPropertyOp9
 70
     1
102
RTVSPropertyOp10
 70
     1
102
RTVSPropertyOp11
 70
     1
102
RTVSPropertyOp12
 70
     1
102
RTVSPropertyOp13
 70
     1
102
RTVSPropertyOp14
 70
     1
102
RTVSPropertyOp15
 70
     1
102
RTVSPropertyOp16
 70
     1
102
RTVSPropertyOp17
 70
     1
102
RTVSPropertyOp18
 70
     1
102
RTVSPropertyOp19
 70
     1
102
RTVSPropertyOp20
 70
     1
102
RTVSPropertyOp21
 70
     1
102
RTVSPropertyOp22
 70
     1
102
RTVSPropertyOp23
 70
     1
102
RTVSPropertyOp24
 70
     1
102
RTVSPropertyOp25
 70
     1
102
RTVSPropertyOp26
 70
     1
102
RTVSPropertyOp27
 70
     1
102
RTVSPropertyOp28
 70
     1
102
RTVSPropertyOp29
 70
     1
102
RTVSPropertyOp30
 70
     1
102
RTVSPropertyOp31
 70
     1
102
RTVSPropertyOp32
 70
     1
102
RTVSPropertyOp33
 70
     1
102
RTVSPropertyOp34
 70
     1
102
RTVSPropertyOp35
 70
     1
102
RTVSPropertyOp36
 70
     1
102
RTVSPropertyOp37
 70
     1
102
RTVSPropertyOp38
 70
     1
102
RTVSPropertyOp39
 70
     1
102
RTVSPropertyOp40
 70
     1
102
RTVSPropertyOp41
 70
     1
102
RTVSPropertyOp42
 70
     1
102
RTVSPropertyOp43
 70
     1
102
RTVSPropertyOp44
 70
     1
102
RTVSPropertyOp45
 70
     1
102
RTVSPropertyOp46
 70
     1
102
RTVSPropertyOp47
 70
     1
102
RTVSPropertyOp48
 70
     1
102
RTVSPropertyOp49
 70
     1
102
RTVSPropertyOp50
 70
     1
102
RTVSPropertyOp51
 70
     0
102
RTVSPropertyOp52
 70
     0
102
RTVSPropertyOp53
 70
     1
102
RTVSPropertyOp54
 70
     1
102
RTVSPropertyOp55
 70
     1
102
RTVSPropertyOp56
 70
     1
102
RTVSPropertyOp57
 70
     1
102
RTVSPropertyOp58
 70
     1
102
RTVSPropertyOp59
 70
     1
102
RTVSPropertyOp60
 70
     1
102
RTVSPropertyOp61
 70
     1
102
RTVSPropertyOp62
 70
     1
  0
XRECORD
  5
A675
102
{ACAD_REACTORS
330
A674
102
}
330
A674
100
AcDbXrecord
280
     1
102
RTVSPost2010Prop28
280
     0
102
RTVSPost2010PropOp28
 70
     1
102
RTVSPost2010Prop29
280
     1
102
RTVSPost2010PropOp29
 70
     1
102
RTVSPost2010Prop30
280
     1
102
RTVSPost2010PropOp30
 70
     1
102
RTVSPost2010Prop31
280
     0
102
RTVSPost2010PropOp31
 70
     1
102
RTVSPost2010Prop32
280
     0
102
RTVSPost2010PropOp32
 70
     1
102
RTVSPost2010Prop33
280
     0
102
RTVSPost2010PropOp33
 70
     1
102
RTVSPost2010Prop34
280
     0
102
RTVSPost2010PropOp34
 70
     1
102
RTVSPost2010Prop35
280
     0
102
RTVSPost2010PropOp35
 70
     1
102
RTVSPost2010Prop36
280
     0
102
RTVSPost2010PropOp36
 70
     1
102
RTVSPost2010Prop37
 90
       50
102
RTVSPost2010PropOp37
 70
     1
102
RTVSPost2010Prop38
140
0.0
102
RTVSPost2010PropOp38
 70
     1
102
RTVSPost2010Prop39
140
1.0
102
RTVSPost2010PropOp39
 70
     1
102
RTVSPost2010Prop40
 90
        0
102
RTVSPost2010PropOp40
 70
     1
102
RTVSPost2010Prop41ColorIndex
 90
       18
102
RTVSPost2010Prop41ColorRGB
 90
        0
102
RTVSPost2010PropOp41
 70
     1
102
RTVSPost2010Prop42
 90
       50
102
RTVSPost2010PropOp42
 70
     1
102
RTVSPost2010Prop43
 90
        3
102
RTVSPost2010PropOp43
 70
     1
102
RTVSPost2010Prop44ColorIndex
 90
        5
102
RTVSPost2010Prop44ColorRGB
 90
      255
102
RTVSPost2010PropOp44
 70
     1
102
RTVSPost2010Prop45
280
     0
102
RTVSPost2010PropOp45
 70
     1
102
RTVSPost2010Prop46
 90
       50
102
RTVSPost2010PropOp46
 70
     1
102
RTVSPost2010Prop47
 90
       50
102
RTVSPost2010PropOp47
 70
     1
102
RTVSPost2010Prop48
 90
       50
102
RTVSPost2010PropOp48
 70
     1
102
RTVSPost2010Prop49
280
     0
102
RTVSPost2010PropOp49
 70
     1
102
RTVSPost2010Prop50
 90
       50
102
RTVSPost2010PropOp50
 70
     1
102
RTVSPost2010Prop51ColorIndex
 90
      256
102
RTVSPost2010Prop51ColorRGB
 90
-16777216
102
RTVSPost2010PropOp51
 70
     0
102
RTVSPost2010Prop52
140
1.0
102
RTVSPost2010PropOp52
 70
     0
102
RTVSPost2010Prop53
 90
        2
102
RTVSPost2010PropOp53
 70
     1
102
RTVSPost2010Prop54
  1
strokes_ogs.tif
102
RTVSPost2010PropOp54
 70
     1
102
RTVSPost2010Prop55
280
     0
102
RTVSPost2010PropOp55
 70
     1
102
RTVSPost2010Prop56
140
1.0
102
RTVSPost2010PropOp56
 70
     1
102
RTVSPost2010Prop57
140
1.0
102
RTVSPost2010PropOp57
 70
     1
102
RTVSPropertyOp0
 70
     1
102
RTVSPropertyOp1
 70
     1
102
RTVSPropertyOp2
 70
     1
102
RTVSPropertyOp3
 70
     1
102
RTVSPropertyOp4
 70
     1
102
RTVSPropertyOp5
 70
     1
102
RTVSPropertyOp6
 70
     1
102
RTVSPropertyOp7
 70
     1
102
RTVSPropertyOp8
 70
     1
102
RTVSPropertyOp9
 70
     1
102
RTVSPropertyOp10
 70
     1
102
RTVSPropertyOp11
 70
     1
102
RTVSPropertyOp12
 70
     1
102
RTVSPropertyOp13
 70
     1
102
RTVSPropertyOp14
 70
     1
102
RTVSPropertyOp15
 70
     1
102
RTVSPropertyOp16
 70
     1
102
RTVSPropertyOp17
 70
     1
102
RTVSPropertyOp18
 70
     1
102
RTVSPropertyOp19
 70
     1
102
RTVSPropertyOp20
 70
     1
102
RTVSPropertyOp21
 70
     1
102
RTVSPropertyOp22
 70
     1
102
RTVSPropertyOp23
 70
     1
102
RTVSPropertyOp24
 70
     1
102
RTVSPropertyOp25
 70
     1
102
RTVSPropertyOp26
 70
     1
102
RTVSPropertyOp27
 70
     1
102
RTVSPropertyOp28
 70
     1
102
RTVSPropertyOp29
 70
     1
102
RTVSPropertyOp30
 70
     1
102
RTVSPropertyOp31
 70
     1
102
RTVSPropertyOp32
 70
     1
102
RTVSPropertyOp33
 70
     1
102
RTVSPropertyOp34
 70
     1
102
RTVSPropertyOp35
 70
     1
102
RTVSPropertyOp36
 70
     1
102
RTVSPropertyOp37
 70
     1
102
RTVSPropertyOp38
 70
     1
102
RTVSPropertyOp39
 70
     1
102
RTVSPropertyOp40
 70
     1
102
RTVSPropertyOp41
 70
     1
102
RTVSPropertyOp42
 70
     1
102
RTVSPropertyOp43
 70
     1
102
RTVSPropertyOp44
 70
     1
102
RTVSPropertyOp45
 70
     1
102
RTVSPropertyOp46
 70
     1
102
RTVSPropertyOp47
 70
     1
102
RTVSPropertyOp48
 70
     1
102
RTVSPropertyOp49
 70
     1
102
RTVSPropertyOp50
 70
     1
102
RTVSPropertyOp51
 70
     0
102
RTVSPropertyOp52
 70
     0
102
RTVSPropertyOp53
 70
     1
102
RTVSPropertyOp54
 70
     1
102
RTVSPropertyOp55
 70
     1
102
RTVSPropertyOp56
 70
     1
102
RTVSPropertyOp57
 70
     1
102
RTVSPropertyOp58
 70
     1
102
RTVSPropertyOp59
 70
     1
102
RTVSPropertyOp60
 70
     1
102
RTVSPropertyOp61
 70
     1
102
RTVSPropertyOp62
 70
     1
  0
XRECORD
  5
A66F
102
{ACAD_REACTORS
330
A66E
102
}
330
A66E
100
AcDbXrecord
280
     1
102
RTVSPost2010Prop28
280
     0
102
RTVSPost2010PropOp28
 70
     1
102
RTVSPost2010Prop29
280
     1
102
RTVSPost2010PropOp29
 70
     1
102
RTVSPost2010Prop30
280
     1
102
RTVSPost2010PropOp30
 70
     1
102
RTVSPost2010Prop31
280
     0
102
RTVSPost2010PropOp31
 70
     1
102
RTVSPost2010Prop32
280
     0
102
RTVSPost2010PropOp32
 70
     1
102
RTVSPost2010Prop33
280
     0
102
RTVSPost2010PropOp33
 70
     1
102
RTVSPost2010Prop34
280
     0
102
RTVSPost2010PropOp34
 70
     1
102
RTVSPost2010Prop35
280
     0
102
RTVSPost2010PropOp35
 70
     1
102
RTVSPost2010Prop36
280
     0
102
RTVSPost2010PropOp36
 70
     1
102
RTVSPost2010Prop37
 90
       50
102
RTVSPost2010PropOp37
 70
     1
102
RTVSPost2010Prop38
140
0.0
102
RTVSPost2010PropOp38
 70
     1
102
RTVSPost2010Prop39
140
1.0
102
RTVSPost2010PropOp39
 70
     1
102
RTVSPost2010Prop40
 90
        0
102
RTVSPost2010PropOp40
 70
     1
102
RTVSPost2010Prop41ColorIndex
 90
       18
102
RTVSPost2010Prop41ColorRGB
 90
        0
102
RTVSPost2010PropOp41
 70
     1
102
RTVSPost2010Prop42
 90
       50
102
RTVSPost2010PropOp42
 70
     1
102
RTVSPost2010Prop43
 90
        3
102
RTVSPost2010PropOp43
 70
     1
102
RTVSPost2010Prop44ColorIndex
 90
        5
102
RTVSPost2010Prop44ColorRGB
 90
      255
102
RTVSPost2010PropOp44
 70
     1
102
RTVSPost2010Prop45
280
     0
102
RTVSPost2010PropOp45
 70
     1
102
RTVSPost2010Prop46
 90
       50
102
RTVSPost2010PropOp46
 70
     1
102
RTVSPost2010Prop47
 90
       50
102
RTVSPost2010PropOp47
 70
     1
102
RTVSPost2010Prop48
 90
       50
102
RTVSPost2010PropOp48
 70
     1
102
RTVSPost2010Prop49
280
     0
102
RTVSPost2010PropOp49
 70
     1
102
RTVSPost2010Prop50
 90
       50
102
RTVSPost2010PropOp50
 70
     1
102
RTVSPost2010Prop51ColorIndex
 90
      256
102
RTVSPost2010Prop51ColorRGB
 90
-16777216
102
RTVSPost2010PropOp51
 70
     0
102
RTVSPost2010Prop52
140
1.0
102
RTVSPost2010PropOp52
 70
     0
102
RTVSPost2010Prop53
 90
        2
102
RTVSPost2010PropOp53
 70
     1
102
RTVSPost2010Prop54
  1
strokes_ogs.tif
102
RTVSPost2010PropOp54
 70
     1
102
RTVSPost2010Prop55
280
     0
102
RTVSPost2010PropOp55
 70
     1
102
RTVSPost2010Prop56
140
1.0
102
RTVSPost2010PropOp56
 70
     1
102
RTVSPost2010Prop57
140
1.0
102
RTVSPost2010PropOp57
 70
     1
102
RTVSPropertyOp0
 70
     1
102
RTVSPropertyOp1
 70
     1
102
RTVSPropertyOp2
 70
     1
102
RTVSPropertyOp3
 70
     1
102
RTVSPropertyOp4
 70
     1
102
RTVSPropertyOp5
 70
     1
102
RTVSPropertyOp6
 70
     1
102
RTVSPropertyOp7
 70
     1
102
RTVSPropertyOp8
 70
     1
102
RTVSPropertyOp9
 70
     1
102
RTVSPropertyOp10
 70
     1
102
RTVSPropertyOp11
 70
     1
102
RTVSPropertyOp12
 70
     1
102
RTVSPropertyOp13
 70
     1
102
RTVSPropertyOp14
 70
     1
102
RTVSPropertyOp15
 70
     1
102
RTVSPropertyOp16
 70
     1
102
RTVSPropertyOp17
 70
     1
102
RTVSPropertyOp18
 70
     1
102
RTVSPropertyOp19
 70
     1
102
RTVSPropertyOp20
 70
     1
102
RTVSPropertyOp21
 70
     1
102
RTVSPropertyOp22
 70
     1
102
RTVSPropertyOp23
 70
     1
102
RTVSPropertyOp24
 70
     1
102
RTVSPropertyOp25
 70
     1
102
RTVSPropertyOp26
 70
     1
102
RTVSPropertyOp27
 70
     1
102
RTVSPropertyOp28
 70
     1
102
RTVSPropertyOp29
 70
     1
102
RTVSPropertyOp30
 70
     1
102
RTVSPropertyOp31
 70
     1
102
RTVSPropertyOp32
 70
     1
102
RTVSPropertyOp33
 70
     1
102
RTVSPropertyOp34
 70
     1
102
RTVSPropertyOp35
 70
     1
102
RTVSPropertyOp36
 70
     1
102
RTVSPropertyOp37
 70
     1
102
RTVSPropertyOp38
 70
     1
102
RTVSPropertyOp39
 70
     1
102
RTVSPropertyOp40
 70
     1
102
RTVSPropertyOp41
 70
     1
102
RTVSPropertyOp42
 70
     1
102
RTVSPropertyOp43
 70
     1
102
RTVSPropertyOp44
 70
     1
102
RTVSPropertyOp45
 70
     1
102
RTVSPropertyOp46
 70
     1
102
RTVSPropertyOp47
 70
     1
102
RTVSPropertyOp48
 70
     1
102
RTVSPropertyOp49
 70
     1
102
RTVSPropertyOp50
 70
     1
102
RTVSPropertyOp51
 70
     0
102
RTVSPropertyOp52
 70
     0
102
RTVSPropertyOp53
 70
     1
102
RTVSPropertyOp54
 70
     1
102
RTVSPropertyOp55
 70
     1
102
RTVSPropertyOp56
 70
     1
102
RTVSPropertyOp57
 70
     1
102
RTVSPropertyOp58
 70
     1
102
RTVSPropertyOp59
 70
     1
102
RTVSPropertyOp60
 70
     1
102
RTVSPropertyOp61
 70
     1
102
RTVSPropertyOp62
 70
     1
  0
XRECORD
  5
A671
102
{ACAD_REACTORS
330
A670
102
}
330
A670
100
AcDbXrecord
280
     1
102
RTVSPost2010Prop28
280
     0
102
RTVSPost2010PropOp28
 70
     1
102
RTVSPost2010Prop29
280
     1
102
RTVSPost2010PropOp29
 70
     1
102
RTVSPost2010Prop30
280
     1
102
RTVSPost2010PropOp30
 70
     1
102
RTVSPost2010Prop31
280
     0
102
RTVSPost2010PropOp31
 70
     1
102
RTVSPost2010Prop32
280
     0
102
RTVSPost2010PropOp32
 70
     1
102
RTVSPost2010Prop33
280
     0
102
RTVSPost2010PropOp33
 70
     1
102
RTVSPost2010Prop34
280
     0
102
RTVSPost2010PropOp34
 70
     1
102
RTVSPost2010Prop35
280
     0
102
RTVSPost2010PropOp35
 70
     1
102
RTVSPost2010Prop36
280
     0
102
RTVSPost2010PropOp36
 70
     1
102
RTVSPost2010Prop37
 90
       50
102
RTVSPost2010PropOp37
 70
     1
102
RTVSPost2010Prop38
140
0.0
102
RTVSPost2010PropOp38
 70
     1
102
RTVSPost2010Prop39
140
1.0
102
RTVSPost2010PropOp39
 70
     1
102
RTVSPost2010Prop40
 90
        0
102
RTVSPost2010PropOp40
 70
     1
102
RTVSPost2010Prop41ColorIndex
 90
       18
102
RTVSPost2010Prop41ColorRGB
 90
        0
102
RTVSPost2010PropOp41
 70
     1
102
RTVSPost2010Prop42
 90
       50
102
RTVSPost2010PropOp42
 70
     1
102
RTVSPost2010Prop43
 90
        3
102
RTVSPost2010PropOp43
 70
     1
102
RTVSPost2010Prop44ColorIndex
 90
        5
102
RTVSPost2010Prop44ColorRGB
 90
      255
102
RTVSPost2010PropOp44
 70
     1
102
RTVSPost2010Prop45
280
     0
102
RTVSPost2010PropOp45
 70
     1
102
RTVSPost2010Prop46
 90
       50
102
RTVSPost2010PropOp46
 70
     1
102
RTVSPost2010Prop47
 90
       50
102
RTVSPost2010PropOp47
 70
     1
102
RTVSPost2010Prop48
 90
       50
102
RTVSPost2010PropOp48
 70
     1
102
RTVSPost2010Prop49
280
     0
102
RTVSPost2010PropOp49
 70
     1
102
RTVSPost2010Prop50
 90
       50
102
RTVSPost2010PropOp50
 70
     1
102
RTVSPost2010Prop51ColorIndex
 90
      256
102
RTVSPost2010Prop51ColorRGB
 90
-16777216
102
RTVSPost2010PropOp51
 70
     0
102
RTVSPost2010Prop52
140
1.0
102
RTVSPost2010PropOp52
 70
     0
102
RTVSPost2010Prop53
 90
        2
102
RTVSPost2010PropOp53
 70
     1
102
RTVSPost2010Prop54
  1
strokes_ogs.tif
102
RTVSPost2010PropOp54
 70
     1
102
RTVSPost2010Prop55
280
     0
102
RTVSPost2010PropOp55
 70
     1
102
RTVSPost2010Prop56
140
1.0
102
RTVSPost2010PropOp56
 70
     1
102
RTVSPost2010Prop57
140
1.0
102
RTVSPost2010PropOp57
 70
     1
102
RTVSPropertyOp0
 70
     1
102
RTVSPropertyOp1
 70
     1
102
RTVSPropertyOp2
 70
     1
102
RTVSPropertyOp3
 70
     1
102
RTVSPropertyOp4
 70
     1
102
RTVSPropertyOp5
 70
     1
102
RTVSPropertyOp6
 70
     1
102
RTVSPropertyOp7
 70
     1
102
RTVSPropertyOp8
 70
     1
102
RTVSPropertyOp9
 70
     1
102
RTVSPropertyOp10
 70
     1
102
RTVSPropertyOp11
 70
     1
102
RTVSPropertyOp12
 70
     1
102
RTVSPropertyOp13
 70
     1
102
RTVSPropertyOp14
 70
     1
102
RTVSPropertyOp15
 70
     1
102
RTVSPropertyOp16
 70
     1
102
RTVSPropertyOp17
 70
     1
102
RTVSPropertyOp18
 70
     1
102
RTVSPropertyOp19
 70
     1
102
RTVSPropertyOp20
 70
     1
102
RTVSPropertyOp21
 70
     1
102
RTVSPropertyOp22
 70
     1
102
RTVSPropertyOp23
 70
     1
102
RTVSPropertyOp24
 70
     1
102
RTVSPropertyOp25
 70
     1
102
RTVSPropertyOp26
 70
     1
102
RTVSPropertyOp27
 70
     1
102
RTVSPropertyOp28
 70
     1
102
RTVSPropertyOp29
 70
     1
102
RTVSPropertyOp30
 70
     1
102
RTVSPropertyOp31
 70
     1
102
RTVSPropertyOp32
 70
     1
102
RTVSPropertyOp33
 70
     1
102
RTVSPropertyOp34
 70
     1
102
RTVSPropertyOp35
 70
     1
102
RTVSPropertyOp36
 70
     1
102
RTVSPropertyOp37
 70
     1
102
RTVSPropertyOp38
 70
     1
102
RTVSPropertyOp39
 70
     1
102
RTVSPropertyOp40
 70
     1
102
RTVSPropertyOp41
 70
     1
102
RTVSPropertyOp42
 70
     1
102
RTVSPropertyOp43
 70
     1
102
RTVSPropertyOp44
 70
     1
102
RTVSPropertyOp45
 70
     1
102
RTVSPropertyOp46
 70
     1
102
RTVSPropertyOp47
 70
     1
102
RTVSPropertyOp48
 70
     1
102
RTVSPropertyOp49
 70
     1
102
RTVSPropertyOp50
 70
     1
102
RTVSPropertyOp51
 70
     0
102
RTVSPropertyOp52
 70
     0
102
RTVSPropertyOp53
 70
     1
102
RTVSPropertyOp54
 70
     1
102
RTVSPropertyOp55
 70
     1
102
RTVSPropertyOp56
 70
     1
102
RTVSPropertyOp57
 70
     1
102
RTVSPropertyOp58
 70
     1
102
RTVSPropertyOp59
 70
     1
102
RTVSPropertyOp60
 70
     1
102
RTVSPropertyOp61
 70
     1
102
RTVSPropertyOp62
 70
     1
  0
XRECORD
  5
A667
102
{ACAD_REACTORS
330
A666
102
}
330
A666
100
AcDbXrecord
280
     1
102
RTVSPost2010Prop28
280
     0
102
RTVSPost2010PropOp28
 70
     1
102
RTVSPost2010Prop29
280
     1
102
RTVSPost2010PropOp29
 70
     1
102
RTVSPost2010Prop30
280
     1
102
RTVSPost2010PropOp30
 70
     1
102
RTVSPost2010Prop31
280
     0
102
RTVSPost2010PropOp31
 70
     1
102
RTVSPost2010Prop32
280
     0
102
RTVSPost2010PropOp32
 70
     1
102
RTVSPost2010Prop33
280
     0
102
RTVSPost2010PropOp33
 70
     1
102
RTVSPost2010Prop34
280
     0
102
RTVSPost2010PropOp34
 70
     1
102
RTVSPost2010Prop35
280
     0
102
RTVSPost2010PropOp35
 70
     1
102
RTVSPost2010Prop36
280
     0
102
RTVSPost2010PropOp36
 70
     1
102
RTVSPost2010Prop37
 90
       50
102
RTVSPost2010PropOp37
 70
     1
102
RTVSPost2010Prop38
140
0.0
102
RTVSPost2010PropOp38
 70
     1
102
RTVSPost2010Prop39
140
1.0
102
RTVSPost2010PropOp39
 70
     1
102
RTVSPost2010Prop40
 90
        0
102
RTVSPost2010PropOp40
 70
     1
102
RTVSPost2010Prop41ColorIndex
 90
       18
102
RTVSPost2010Prop41ColorRGB
 90
        0
102
RTVSPost2010PropOp41
 70
     1
102
RTVSPost2010Prop42
 90
       50
102
RTVSPost2010PropOp42
 70
     1
102
RTVSPost2010Prop43
 90
        3
102
RTVSPost2010PropOp43
 70
     1
102
RTVSPost2010Prop44ColorIndex
 90
        5
102
RTVSPost2010Prop44ColorRGB
 90
      255
102
RTVSPost2010PropOp44
 70
     1
102
RTVSPost2010Prop45
280
     0
102
RTVSPost2010PropOp45
 70
     1
102
RTVSPost2010Prop46
 90
       50
102
RTVSPost2010PropOp46
 70
     1
102
RTVSPost2010Prop47
 90
       50
102
RTVSPost2010PropOp47
 70
     1
102
RTVSPost2010Prop48
 90
       50
102
RTVSPost2010PropOp48
 70
     1
102
RTVSPost2010Prop49
280
     0
102
RTVSPost2010PropOp49
 70
     1
102
RTVSPost2010Prop50
 90
       50
102
RTVSPost2010PropOp50
 70
     1
102
RTVSPost2010Prop51ColorIndex
 90
      256
102
RTVSPost2010Prop51ColorRGB
 90
-16777216
102
RTVSPost2010PropOp51
 70
     0
102
RTVSPost2010Prop52
140
1.0
102
RTVSPost2010PropOp52
 70
     0
102
RTVSPost2010Prop53
 90
        2
102
RTVSPost2010PropOp53
 70
     1
102
RTVSPost2010Prop54
  1
strokes_ogs.tif
102
RTVSPost2010PropOp54
 70
     1
102
RTVSPost2010Prop55
280
     0
102
RTVSPost2010PropOp55
 70
     1
102
RTVSPost2010Prop56
140
1.0
102
RTVSPost2010PropOp56
 70
     1
102
RTVSPost2010Prop57
140
1.0
102
RTVSPost2010PropOp57
 70
     1
102
RTVSPropertyOp0
 70
     1
102
RTVSPropertyOp1
 70
     1
102
RTVSPropertyOp2
 70
     1
102
RTVSPropertyOp3
 70
     1
102
RTVSPropertyOp4
 70
     1
102
RTVSPropertyOp5
 70
     1
102
RTVSPropertyOp6
 70
     1
102
RTVSPropertyOp7
 70
     1
102
RTVSPropertyOp8
 70
     1
102
RTVSPropertyOp9
 70
     1
102
RTVSPropertyOp10
 70
     1
102
RTVSPropertyOp11
 70
     1
102
RTVSPropertyOp12
 70
     1
102
RTVSPropertyOp13
 70
     1
102
RTVSPropertyOp14
 70
     1
102
RTVSPropertyOp15
 70
     1
102
RTVSPropertyOp16
 70
     1
102
RTVSPropertyOp17
 70
     1
102
RTVSPropertyOp18
 70
     1
102
RTVSPropertyOp19
 70
     1
102
RTVSPropertyOp20
 70
     1
102
RTVSPropertyOp21
 70
     1
102
RTVSPropertyOp22
 70
     1
102
RTVSPropertyOp23
 70
     1
102
RTVSPropertyOp24
 70
     1
102
RTVSPropertyOp25
 70
     1
102
RTVSPropertyOp26
 70
     1
102
RTVSPropertyOp27
 70
     1
102
RTVSPropertyOp28
 70
     1
102
RTVSPropertyOp29
 70
     1
102
RTVSPropertyOp30
 70
     1
102
RTVSPropertyOp31
 70
     1
102
RTVSPropertyOp32
 70
     1
102
RTVSPropertyOp33
 70
     1
102
RTVSPropertyOp34
 70
     1
102
RTVSPropertyOp35
 70
     1
102
RTVSPropertyOp36
 70
     1
102
RTVSPropertyOp37
 70
     1
102
RTVSPropertyOp38
 70
     1
102
RTVSPropertyOp39
 70
     1
102
RTVSPropertyOp40
 70
     1
102
RTVSPropertyOp41
 70
     1
102
RTVSPropertyOp42
 70
     1
102
RTVSPropertyOp43
 70
     1
102
RTVSPropertyOp44
 70
     1
102
RTVSPropertyOp45
 70
     1
102
RTVSPropertyOp46
 70
     1
102
RTVSPropertyOp47
 70
     1
102
RTVSPropertyOp48
 70
     1
102
RTVSPropertyOp49
 70
     1
102
RTVSPropertyOp50
 70
     1
102
RTVSPropertyOp51
 70
     0
102
RTVSPropertyOp52
 70
     0
102
RTVSPropertyOp53
 70
     1
102
RTVSPropertyOp54
 70
     1
102
RTVSPropertyOp55
 70
     1
102
RTVSPropertyOp56
 70
     1
102
RTVSPropertyOp57
 70
     1
102
RTVSPropertyOp58
 70
     1
102
RTVSPropertyOp59
 70
     1
102
RTVSPropertyOp60
 70
     1
102
RTVSPropertyOp61
 70
     1
102
RTVSPropertyOp62
 70
     1
  0
XRECORD
  5
A65B
102
{ACAD_REACTORS
330
A65A
102
}
330
A65A
100
AcDbXrecord
280
     1
102
RTVSPost2010Prop28
280
     0
102
RTVSPost2010PropOp28
 70
     1
102
RTVSPost2010Prop29
280
     1
102
RTVSPost2010PropOp29
 70
     1
102
RTVSPost2010Prop30
280
     1
102
RTVSPost2010PropOp30
 70
     1
102
RTVSPost2010Prop31
280
     0
102
RTVSPost2010PropOp31
 70
     1
102
RTVSPost2010Prop32
280
     0
102
RTVSPost2010PropOp32
 70
     1
102
RTVSPost2010Prop33
280
     0
102
RTVSPost2010PropOp33
 70
     1
102
RTVSPost2010Prop34
280
     0
102
RTVSPost2010PropOp34
 70
     1
102
RTVSPost2010Prop35
280
     0
102
RTVSPost2010PropOp35
 70
     1
102
RTVSPost2010Prop36
280
     0
102
RTVSPost2010PropOp36
 70
     1
102
RTVSPost2010Prop37
 90
       50
102
RTVSPost2010PropOp37
 70
     1
102
RTVSPost2010Prop38
140
0.0
102
RTVSPost2010PropOp38
 70
     1
102
RTVSPost2010Prop39
140
1.0
102
RTVSPost2010PropOp39
 70
     1
102
RTVSPost2010Prop40
 90
        0
102
RTVSPost2010PropOp40
 70
     1
102
RTVSPost2010Prop41ColorIndex
 90
       18
102
RTVSPost2010Prop41ColorRGB
 90
        0
102
RTVSPost2010PropOp41
 70
     1
102
RTVSPost2010Prop42
 90
       50
102
RTVSPost2010PropOp42
 70
     1
102
RTVSPost2010Prop43
 90
        3
102
RTVSPost2010PropOp43
 70
     1
102
RTVSPost2010Prop44ColorIndex
 90
        5
102
RTVSPost2010Prop44ColorRGB
 90
      255
102
RTVSPost2010PropOp44
 70
     1
102
RTVSPost2010Prop45
280
     0
102
RTVSPost2010PropOp45
 70
     1
102
RTVSPost2010Prop46
 90
       50
102
RTVSPost2010PropOp46
 70
     1
102
RTVSPost2010Prop47
 90
       50
102
RTVSPost2010PropOp47
 70
     1
102
RTVSPost2010Prop48
 90
       50
102
RTVSPost2010PropOp48
 70
     1
102
RTVSPost2010Prop49
280
     0
102
RTVSPost2010PropOp49
 70
     1
102
RTVSPost2010Prop50
 90
       50
102
RTVSPost2010PropOp50
 70
     1
102
RTVSPost2010Prop51ColorIndex
 90
      256
102
RTVSPost2010Prop51ColorRGB
 90
-16777216
102
RTVSPost2010PropOp51
 70
     0
102
RTVSPost2010Prop52
140
1.0
102
RTVSPost2010PropOp52
 70
     0
102
RTVSPost2010Prop53
 90
        2
102
RTVSPost2010PropOp53
 70
     1
102
RTVSPost2010Prop54
  1
strokes_ogs.tif
102
RTVSPost2010PropOp54
 70
     1
102
RTVSPost2010Prop55
280
     0
102
RTVSPost2010PropOp55
 70
     1
102
RTVSPost2010Prop56
140
1.0
102
RTVSPost2010PropOp56
 70
     1
102
RTVSPost2010Prop57
140
1.0
102
RTVSPost2010PropOp57
 70
     1
102
RTVSPropertyOp0
 70
     1
102
RTVSPropertyOp1
 70
     1
102
RTVSPropertyOp2
 70
     1
102
RTVSPropertyOp3
 70
     1
102
RTVSPropertyOp4
 70
     1
102
RTVSPropertyOp5
 70
     1
102
RTVSPropertyOp6
 70
     1
102
RTVSPropertyOp7
 70
     1
102
RTVSPropertyOp8
 70
     1
102
RTVSPropertyOp9
 70
     1
102
RTVSPropertyOp10
 70
     1
102
RTVSPropertyOp11
 70
     1
102
RTVSPropertyOp12
 70
     1
102
RTVSPropertyOp13
 70
     1
102
RTVSPropertyOp14
 70
     1
102
RTVSPropertyOp15
 70
     1
102
RTVSPropertyOp16
 70
     1
102
RTVSPropertyOp17
 70
     1
102
RTVSPropertyOp18
 70
     1
102
RTVSPropertyOp19
 70
     1
102
RTVSPropertyOp20
 70
     1
102
RTVSPropertyOp21
 70
     1
102
RTVSPropertyOp22
 70
     1
102
RTVSPropertyOp23
 70
     1
102
RTVSPropertyOp24
 70
     1
102
RTVSPropertyOp25
 70
     1
102
RTVSPropertyOp26
 70
     1
102
RTVSPropertyOp27
 70
     1
102
RTVSPropertyOp28
 70
     1
102
RTVSPropertyOp29
 70
     1
102
RTVSPropertyOp30
 70
     1
102
RTVSPropertyOp31
 70
     1
102
RTVSPropertyOp32
 70
     1
102
RTVSPropertyOp33
 70
     1
102
RTVSPropertyOp34
 70
     1
102
RTVSPropertyOp35
 70
     1
102
RTVSPropertyOp36
 70
     1
102
RTVSPropertyOp37
 70
     1
102
RTVSPropertyOp38
 70
     1
102
RTVSPropertyOp39
 70
     1
102
RTVSPropertyOp40
 70
     1
102
RTVSPropertyOp41
 70
     1
102
RTVSPropertyOp42
 70
     1
102
RTVSPropertyOp43
 70
     1
102
RTVSPropertyOp44
 70
     1
102
RTVSPropertyOp45
 70
     1
102
RTVSPropertyOp46
 70
     1
102
RTVSPropertyOp47
 70
     1
102
RTVSPropertyOp48
 70
     1
102
RTVSPropertyOp49
 70
     1
102
RTVSPropertyOp50
 70
     1
102
RTVSPropertyOp51
 70
     0
102
RTVSPropertyOp52
 70
     0
102
RTVSPropertyOp53
 70
     1
102
RTVSPropertyOp54
 70
     1
102
RTVSPropertyOp55
 70
     1
102
RTVSPropertyOp56
 70
     1
102
RTVSPropertyOp57
 70
     1
102
RTVSPropertyOp58
 70
     1
102
RTVSPropertyOp59
 70
     1
102
RTVSPropertyOp60
 70
     1
102
RTVSPropertyOp61
 70
     1
102
RTVSPropertyOp62
 70
     1
  0
XRECORD
  5
A673
102
{ACAD_REACTORS
330
A672
102
}
330
A672
100
AcDbXrecord
280
     1
102
RTVSPost2010Prop28
280
     0
102
RTVSPost2010PropOp28
 70
     1
102
RTVSPost2010Prop29
280
     1
102
RTVSPost2010PropOp29
 70
     1
102
RTVSPost2010Prop30
280
     1
102
RTVSPost2010PropOp30
 70
     1
102
RTVSPost2010Prop31
280
     0
102
RTVSPost2010PropOp31
 70
     1
102
RTVSPost2010Prop32
280
     0
102
RTVSPost2010PropOp32
 70
     1
102
RTVSPost2010Prop33
280
     0
102
RTVSPost2010PropOp33
 70
     1
102
RTVSPost2010Prop34
280
     0
102
RTVSPost2010PropOp34
 70
     1
102
RTVSPost2010Prop35
280
     0
102
RTVSPost2010PropOp35
 70
     1
102
RTVSPost2010Prop36
280
     0
102
RTVSPost2010PropOp36
 70
     1
102
RTVSPost2010Prop37
 90
       50
102
RTVSPost2010PropOp37
 70
     1
102
RTVSPost2010Prop38
140
0.0
102
RTVSPost2010PropOp38
 70
     1
102
RTVSPost2010Prop39
140
1.0
102
RTVSPost2010PropOp39
 70
     1
102
RTVSPost2010Prop40
 90
        0
102
RTVSPost2010PropOp40
 70
     1
102
RTVSPost2010Prop41ColorIndex
 90
       18
102
RTVSPost2010Prop41ColorRGB
 90
        0
102
RTVSPost2010PropOp41
 70
     1
102
RTVSPost2010Prop42
 90
       50
102
RTVSPost2010PropOp42
 70
     1
102
RTVSPost2010Prop43
 90
        3
102
RTVSPost2010PropOp43
 70
     1
102
RTVSPost2010Prop44ColorIndex
 90
        5
102
RTVSPost2010Prop44ColorRGB
 90
      255
102
RTVSPost2010PropOp44
 70
     1
102
RTVSPost2010Prop45
280
     0
102
RTVSPost2010PropOp45
 70
     1
102
RTVSPost2010Prop46
 90
       50
102
RTVSPost2010PropOp46
 70
     1
102
RTVSPost2010Prop47
 90
       50
102
RTVSPost2010PropOp47
 70
     1
102
RTVSPost2010Prop48
 90
       50
102
RTVSPost2010PropOp48
 70
     1
102
RTVSPost2010Prop49
280
     0
102
RTVSPost2010PropOp49
 70
     1
102
RTVSPost2010Prop50
 90
       50
102
RTVSPost2010PropOp50
 70
     1
102
RTVSPost2010Prop51ColorIndex
 90
      256
102
RTVSPost2010Prop51ColorRGB
 90
-16777216
102
RTVSPost2010PropOp51
 70
     0
102
RTVSPost2010Prop52
140
1.0
102
RTVSPost2010PropOp52
 70
     0
102
RTVSPost2010Prop53
 90
        2
102
RTVSPost2010PropOp53
 70
     1
102
RTVSPost2010Prop54
  1
strokes_ogs.tif
102
RTVSPost2010PropOp54
 70
     1
102
RTVSPost2010Prop55
280
     0
102
RTVSPost2010PropOp55
 70
     1
102
RTVSPost2010Prop56
140
1.0
102
RTVSPost2010PropOp56
 70
     1
102
RTVSPost2010Prop57
140
1.0
102
RTVSPost2010PropOp57
 70
     1
102
RTVSPropertyOp0
 70
     1
102
RTVSPropertyOp1
 70
     1
102
RTVSPropertyOp2
 70
     1
102
RTVSPropertyOp3
 70
     1
102
RTVSPropertyOp4
 70
     1
102
RTVSPropertyOp5
 70
     1
102
RTVSPropertyOp6
 70
     1
102
RTVSPropertyOp7
 70
     1
102
RTVSPropertyOp8
 70
     1
102
RTVSPropertyOp9
 70
     1
102
RTVSPropertyOp10
 70
     1
102
RTVSPropertyOp11
 70
     1
102
RTVSPropertyOp12
 70
     1
102
RTVSPropertyOp13
 70
     1
102
RTVSPropertyOp14
 70
     1
102
RTVSPropertyOp15
 70
     1
102
RTVSPropertyOp16
 70
     1
102
RTVSPropertyOp17
 70
     1
102
RTVSPropertyOp18
 70
     1
102
RTVSPropertyOp19
 70
     1
102
RTVSPropertyOp20
 70
     1
102
RTVSPropertyOp21
 70
     1
102
RTVSPropertyOp22
 70
     1
102
RTVSPropertyOp23
 70
     1
102
RTVSPropertyOp24
 70
     1
102
RTVSPropertyOp25
 70
     1
102
RTVSPropertyOp26
 70
     1
102
RTVSPropertyOp27
 70
     1
102
RTVSPropertyOp28
 70
     1
102
RTVSPropertyOp29
 70
     1
102
RTVSPropertyOp30
 70
     1
102
RTVSPropertyOp31
 70
     1
102
RTVSPropertyOp32
 70
     1
102
RTVSPropertyOp33
 70
     1
102
RTVSPropertyOp34
 70
     1
102
RTVSPropertyOp35
 70
     1
102
RTVSPropertyOp36
 70
     1
102
RTVSPropertyOp37
 70
     1
102
RTVSPropertyOp38
 70
     1
102
RTVSPropertyOp39
 70
     1
102
RTVSPropertyOp40
 70
     1
102
RTVSPropertyOp41
 70
     1
102
RTVSPropertyOp42
 70
     1
102
RTVSPropertyOp43
 70
     1
102
RTVSPropertyOp44
 70
     1
102
RTVSPropertyOp45
 70
     1
102
RTVSPropertyOp46
 70
     1
102
RTVSPropertyOp47
 70
     1
102
RTVSPropertyOp48
 70
     1
102
RTVSPropertyOp49
 70
     1
102
RTVSPropertyOp50
 70
     1
102
RTVSPropertyOp51
 70
     0
102
RTVSPropertyOp52
 70
     0
102
RTVSPropertyOp53
 70
     1
102
RTVSPropertyOp54
 70
     1
102
RTVSPropertyOp55
 70
     1
102
RTVSPropertyOp56
 70
     1
102
RTVSPropertyOp57
 70
     1
102
RTVSPropertyOp58
 70
     1
102
RTVSPropertyOp59
 70
     1
102
RTVSPropertyOp60
 70
     1
102
RTVSPropertyOp61
 70
     1
102
RTVSPropertyOp62
 70
     1
  0
ENDSEC
  0
EOF
