  0
SECTION
  2
HEADER
  9
$ACADVER
  1
AC1015
  9
$ACADMAINTVER
 70
    20
  9
$DWGCODEPAGE
  3
ANSI_932
  9
$INSBASE
 10
0.0
 20
0.0
 30
0.0
  9
$EXTMIN
 10
10.0
 20
9.999999999999998
 30
0.0
  9
$EXTMAX
 10
416.3529459999998
 20
352.433549
 30
0.0
  9
$LIMMIN
 10
0.0
 20
0.0
  9
$LIMMAX
 10
543.47
 20
374.6649239999999
  9
$ORTHOMODE
 70
     0
  9
$REGENMODE
 70
     1
  9
$FILLMODE
 70
     1
  9
$QTEXTMODE
 70
     0
  9
$MIRRTEXT
 70
     1
  9
$LTSCALE
 40
20.0
  9
$ATTMODE
 70
     1
  9
$TEXTSIZE
 40
5.0
  9
$TRACEWID
 40
1.0
  9
$TEXTSTYLE
  7
STANDARD
  9
$CLAYER
  8
0
  9
$CELTYPE
  6
BYLAYER
  9
$CECOLOR
 62
   256
  9
$CELTSCALE
 40
1.0
  9
$DISPSILH
 70
     0
  9
$DIMSCALE
 40
1.0
  9
$DIMASZ
 40
2.5
  9
$DIMEXO
 40
1.0
  9
$DIMDLI
 40
10.0
  9
$DIMRND
 40
0.0
  9
$DIMDLE
 40
0.0
  9
$DIMEXE
 40
1.0
  9
$DIMTP
 40
0.0
  9
$DIMTM
 40
0.0
  9
$DIMTXT
 40
3.2
  9
$DIMCEN
 40
0.0
  9
$DIMTSZ
 40
0.0
  9
$DIMTOL
 70
     0
  9
$DIMLIM
 70
     0
  9
$DIMTIH
 70
     0
  9
$DIMTOH
 70
     0
  9
$DIMSE1
 70
     0
  9
$DIMSE2
 70
     0
  9
$DIMTAD
 70
     3
  9
$DIMZIN
 70
     8
  9
$DIMBLK
  1

  9
$DIMASO
 70
     1
  9
$DIMSHO
 70
     1
  9
$DIMPOST
  1

  9
$DIMAPOST
  1

  9
$DIMALT
 70
     0
  9
$DIMALTD
 70
     2
  9
$DIMALTF
 40
25.4
  9
$DIMLFAC
 40
1.0
  9
$DIMTOFL
 70
     1
  9
$DIMTVP
 40
0.0
  9
$DIMTIX
 70
     0
  9
$DIMSOXD
 70
     0
  9
$DIMSAH
 70
     1
  9
$DIMBLK1
  1

  9
$DIMBLK2
  1

  9
$DIMSTYLE
  2
STANDARD
  9
$DIMCLRD
 70
     0
  9
$DIMCLRE
 70
     0
  9
$DIMCLRT
 70
     0
  9
$DIMTFAC
 40
1.0
  9
$DIMGAP
 40
1.0
  9
$DIMJUST
 70
     0
  9
$DIMSD1
 70
     0
  9
$DIMSD2
 70
     0
  9
$DIMTOLJ
 70
     1
  9
$DIMTZIN
 70
     0
  9
$DIMALTZ
 70
     0
  9
$DIMALTTZ
 70
     0
  9
$DIMUPT
 70
     0
  9
$DIMDEC
 70
     4
  9
$DIMTDEC
 70
     4
  9
$DIMALTU
 70
     2
  9
$DIMALTTD
 70
     2
  9
$DIMTXSTY
  7
STANDARD
  9
$DIMAUNIT
 70
     0
  9
$DIMADEC
 70
     0
  9
$DIMALTRND
 40
0.0
  9
$DIMAZIN
 70
     0
  9
$DIMDSEP
 70
    46
  9
$DIMATFIT
 70
     3
  9
$DIMFRAC
 70
     0
  9
$DIMLDRBLK
  1

  9
$DIMLUNIT
 70
     2
  9
$DIMLWD
 70
    -2
  9
$DIMLWE
 70
    -2
  9
$DIMTMOVE
 70
     0
  9
$LUNITS
 70
     2
  9
$LUPREC
 70
     4
  9
$SKETCHINC
 40
1.0
  9
$FILLETRAD
 40
4.0
  9
$AUNITS
 70
     0
  9
$AUPREC
 70
     2
  9
$MENU
  1
.
  9
$ELEVATION
 40
0.0
  9
$PELEVATION
 40
0.0
  9
$THICKNESS
 40
0.0
  9
$LIMCHECK
 70
     0
  9
$CHAMFERA
 40
10.0
  9
$CHAMFERB
 40
10.0
  9
$CHAMFERC
 40
0.0
  9
$CHAMFERD
 40
0.0
  9
$SKPOLY
 70
     0
  9
$TDCREATE
 40
2451301.436620370
  9
$TDUCREATE
 40
2451301.061620370
  9
$TDUPDATE
 40
2457192.690087500
  9
$TDUUPDATE
 40
2457192.315087500
  9
$TDINDWG
 40
0.1439143403
  9
$TDUSRTIMER
 40
0.1439138426
  9
$USRTIMER
 70
     1
  9
$ANGBASE
 50
0.0
  9
$ANGDIR
 70
     0
  9
$PDMODE
 70
     0
  9
$PDSIZE
 40
0.0
  9
$PLINEWID
 40
0.0
  9
$SPLFRAME
 70
     0
  9
$SPLINETYPE
 70
     6
  9
$SPLINESEGS
 70
     8
  9
$HANDSEED
  5
A373
  9
$SURFTAB1
 70
     6
  9
$SURFTAB2
 70
     6
  9
$SURFTYPE
 70
     6
  9
$SURFU
 70
     6
  9
$SURFV
 70
     6
  9
$UCSBASE
  2

  9
$UCSNAME
  2

  9
$UCSORG
 10
0.0
 20
0.0
 30
0.0
  9
$UCSXDIR
 10
1.0
 20
0.0
 30
0.0
  9
$UCSYDIR
 10
0.0
 20
1.0
 30
0.0
  9
$UCSORTHOREF
  2

  9
$UCSORTHOVIEW
 70
     0
  9
$UCSORGTOP
 10
0.0
 20
0.0
 30
0.0
  9
$UCSORGBOTTOM
 10
0.0
 20
0.0
 30
0.0
  9
$UCSORGLEFT
 10
0.0
 20
0.0
 30
0.0
  9
$UCSORGRIGHT
 10
0.0
 20
0.0
 30
0.0
  9
$UCSORGFRONT
 10
0.0
 20
0.0
 30
0.0
  9
$UCSORGBACK
 10
0.0
 20
0.0
 30
0.0
  9
$PUCSBASE
  2

  9
$PUCSNAME
  2

  9
$PUCSORG
 10
0.0
 20
0.0
 30
0.0
  9
$PUCSXDIR
 10
1.0
 20
0.0
 30
0.0
  9
$PUCSYDIR
 10
0.0
 20
1.0
 30
0.0
  9
$PUCSORTHOREF
  2

  9
$PUCSORTHOVIEW
 70
     0
  9
$PUCSORGTOP
 10
0.0
 20
0.0
 30
0.0
  9
$PUCSORGBOTTOM
 10
0.0
 20
0.0
 30
0.0
  9
$PUCSORGLEFT
 10
0.0
 20
0.0
 30
0.0
  9
$PUCSORGRIGHT
 10
0.0
 20
0.0
 30
0.0
  9
$PUCSORGFRONT
 10
0.0
 20
0.0
 30
0.0
  9
$PUCSORGBACK
 10
0.0
 20
0.0
 30
0.0
  9
$USERI1
 70
     0
  9
$USERI2
 70
     0
  9
$USERI3
 70
     0
  9
$USERI4
 70
     0
  9
$USERI5
 70
     0
  9
$USERR1
 40
0.0
  9
$USERR2
 40
0.0
  9
$USERR3
 40
0.0
  9
$USERR4
 40
0.0
  9
$USERR5
 40
0.0
  9
$WORLDVIEW
 70
     1
  9
$SHADEDGE
 70
     3
  9
$SHADEDIF
 70
    70
  9
$TILEMODE
 70
     1
  9
$MAXACTVP
 70
    16
  9
$PINSBASE
 10
0.0
 20
0.0
 30
0.0
  9
$PLIMCHECK
 70
     0
  9
$PEXTMIN
 10
1.000000000000000E+20
 20
1.000000000000000E+20
 30
1.000000000000000E+20
  9
$PEXTMAX
 10
-1.000000000000000E+20
 20
-1.000000000000000E+20
 30
-1.000000000000000E+20
  9
$PLIMMIN
 10
0.0
 20
0.0
  9
$PLIMMAX
 10
420.0
 20
297.0
  9
$UNITMODE
 70
     0
  9
$VISRETAIN
 70
     0
  9
$PLINEGEN
 70
     0
  9
$PSLTSCALE
 70
     0
  9
$TREEDEPTH
 70
  3020
  9
$CMLSTYLE
  2
STANDARD
  9
$CMLJUST
 70
     0
  9
$CMLSCALE
 40
1.0
  9
$PROXYGRAPHICS
 70
     1
  9
$MEASUREMENT
 70
     0
  9
$CELWEIGHT
370
    -1
  9
$ENDCAPS
280
     0
  9
$JOINSTYLE
280
     0
  9
$LWDISPLAY
290
     0
  9
$INSUNITS
 70
     0
  9
$HYPERLINKBASE
  1

  9
$STYLESHEET
  1

  9
$XEDIT
290
     1
  9
$CEPSNTYPE
380
     0
  9
$PSTYLEMODE
290
     1
  9
$FINGERPRINTGUID
  2
{BAB93187-A2B4-48C3-ACAC-73AF52CD380F}
  9
$VERSIONGUID
  2
{99426D4D-8263-4170-8E83-307191AC5ED0}
  9
$EXTNAMES
290
     1
  9
$PSVPSCALE
 40
0.0
  9
$OLESTARTUP
290
     0
  0
ENDSEC
  0
SECTION
  2
CLASSES
  0
CLASS
  1
ACDBDICTIONARYWDFLT
  2
AcDbDictionaryWithDefault
  3
ObjectDBX Classes
 90
        0
280
     0
281
     0
  0
CLASS
  1
ACDBPLACEHOLDER
  2
AcDbPlaceHolder
  3
ObjectDBX Classes
 90
        0
280
     0
281
     0
  0
CLASS
  1
LAYOUT
  2
AcDbLayout
  3
ObjectDBX Classes
 90
        0
280
     0
281
     0
  0
CLASS
  1
DICTIONARYVAR
  2
AcDbDictionaryVar
  3
ObjectDBX Classes
 90
        0
280
     0
281
     0
  0
CLASS
  1
MATERIAL
  2
AcDbMaterial
  3
ObjectDBX Classes
 90
     1153
280
     0
281
     0
  0
CLASS
  1
VISUALSTYLE
  2
AcDbVisualStyle
  3
ObjectDBX Classes
 90
     4095
280
     0
281
     0
  0
CLASS
  1
TABLESTYLE
  2
AcDbTableStyle
  3
ObjectDBX Classes
 90
     4095
280
     0
281
     0
  0
CLASS
  1
SCALE
  2
AcDbScale
  3
ObjectDBX Classes
 90
     1153
280
     0
281
     0
  0
CLASS
  1
MLEADERSTYLE
  2
AcDbMLeaderStyle
  3
ACDB_MLEADERSTYLE_CLASS
 90
     4095
280
     0
281
     0
  0
CLASS
  1
ACDBSECTIONVIEWSTYLE
  2
AcDbSectionViewStyle
  3
ObjectDBX Classes
 90
     1025
280
     0
281
     0
  0
CLASS
  1
ACDBDETAILVIEWSTYLE
  2
AcDbDetailViewStyle
  3
ObjectDBX Classes
 90
     1025
280
     0
281
     0
  0
CLASS
  1
CELLSTYLEMAP
  2
AcDbCellStyleMap
  3
ObjectDBX Classes
 90
     1152
280
     0
281
     0
  0
ENDSEC
  0
SECTION
  2
TABLES
  0
TABLE
  2
VPORT
  5
A059
330
0
100
AcDbSymbolTable
 70
     1
  0
VPORT
  5
A2BE
330
A059
100
AcDbSymbolTableRecord
100
AcDbViewportTableRecord
  2
*ACTIVE
 70
     0
 10
0.0
 20
0.0
 11
1.0
 21
1.0
 12
344.9743204785368
 22
181.2153445076696
 13
0.0
 23
0.0
 14
10.0
 24
10.0
 15
10.0
 25
10.0
 16
0.0
 26
0.0
 36
1.0
 17
0.0
 27
0.0
 37
0.0
 40
345.1477968713576
 41
2.35006605019815
 42
50.0
 43
0.0
 44
0.0
 50
0.0
 51
0.0
 71
     0
 72
   100
 73
     1
 74
     0
 75
     0
 76
     0
 77
     0
 78
     0
281
     0
 65
     1
110
0.0
120
0.0
130
0.0
111
1.0
121
0.0
131
0.0
112
0.0
122
1.0
132
0.0
 79
     0
146
0.0
1001
ACAD_NAV_VCDISPLAY
1070
     3
  0
ENDTAB
  0
TABLE
  2
LTYPE
  5
A056
330
0
100
AcDbSymbolTable
 70
     4
  0
LTYPE
  5
A064
330
A056
100
AcDbSymbolTableRecord
100
AcDbLinetypeTableRecord
  2
BYBLOCK
 70
     0
  3

 72
    65
 73
     0
 40
0.0
  0
LTYPE
  5
A065
330
A056
100
AcDbSymbolTableRecord
100
AcDbLinetypeTableRecord
  2
BYLAYER
 70
     0
  3

 72
    65
 73
     0
 40
0.0
  0
LTYPE
  5
A066
330
A056
100
AcDbSymbolTableRecord
100
AcDbLinetypeTableRecord
  2
CONTINUOUS
 70
     0
  3
Solid line
 72
    65
 73
     0
 40
0.0
  0
LTYPE
  5
A074
330
A056
100
AcDbSymbolTableRecord
100
AcDbLinetypeTableRecord
  2
DASHED
 70
     0
  3
__ __ __ __ __ __ __ __ __ __ __ __ __ __ __ __
 72
    65
 73
     2
 40
0.75
 49
0.5
 74
     0
 49
-0.25
 74
     0
  0
LTYPE
  5
A075
330
A056
100
AcDbSymbolTableRecord
100
AcDbLinetypeTableRecord
  2
CENTER
 70
     0
  3
____ _ ____ _ ____ _ ____ _ ____ _ ____ _ ____ 
 72
    65
 73
     4
 40
2.0
 49
1.25
 74
     0
 49
-0.25
 74
     0
 49
0.25
 74
     0
 49
-0.25
 74
     0
  0
LTYPE
  5
A076
330
A056
100
AcDbSymbolTableRecord
100
AcDbLinetypeTableRecord
  2
PHANTOM
 70
     0
  3
______  __  __  ______  __  __  ______  __  __ 
 72
    65
 73
     6
 40
2.5
 49
1.25
 74
     0
 49
-0.25
 74
     0
 49
0.25
 74
     0
 49
-0.25
 74
     0
 49
0.25
 74
     0
 49
-0.25
 74
     0
  0
ENDTAB
  0
TABLE
  2
LAYER
  5
A053
330
0
100
AcDbSymbolTable
 70
     8
  0
LAYER
  5
A061
102
{ACAD_XDICTIONARY
360
A317
102
}
330
A053
100
AcDbSymbolTableRecord
100
AcDbLayerTableRecord
  2
0
 70
     0
 62
     7
  6
CONTINUOUS
370
    -3
390
A2C5
  0
LAYER
  5
A077
102
{ACAD_XDICTIONARY
360
A319
102
}
330
A053
100
AcDbSymbolTableRecord
100
AcDbLayerTableRecord
  2
4
 70
     0
 62
     1
  6
CENTER
370
    -3
390
A2C5
  0
LAYER
  5
A078
102
{ACAD_XDICTIONARY
360
A31B
102
}
330
A053
100
AcDbSymbolTableRecord
100
AcDbLayerTableRecord
  2
5
 70
     0
 62
     6
  6
PHANTOM
370
    -3
390
A2C5
  0
LAYER
  5
A079
102
{ACAD_XDICTIONARY
360
A31D
102
}
330
A053
100
AcDbSymbolTableRecord
100
AcDbLayerTableRecord
  2
1
 70
     0
 62
     7
  6
CONTINUOUS
370
    -3
390
A2C5
  0
LAYER
  5
A07A
102
{ACAD_XDICTIONARY
360
A31F
102
}
330
A053
100
AcDbSymbolTableRecord
100
AcDbLayerTableRecord
  2
2
 70
     0
 62
     4
  6
CONTINUOUS
370
    -3
390
A2C5
  0
LAYER
  5
A07B
102
{ACAD_XDICTIONARY
360
A321
102
}
330
A053
100
AcDbSymbolTableRecord
100
AcDbLayerTableRecord
  2
3
 70
     0
 62
     2
  6
DASHED
370
    -3
390
A2C5
  0
LAYER
  5
A07C
102
{ACAD_XDICTIONARY
360
A323
102
}
330
A053
100
AcDbSymbolTableRecord
100
AcDbLayerTableRecord
  2
6
 70
     0
 62
     5
  6
CONTINUOUS
370
    -3
390
A2C5
  0
LAYER
  5
A07D
102
{ACAD_XDICTIONARY
360
A325
102
}
330
A053
100
AcDbSymbolTableRecord
100
AcDbLayerTableRecord
  2
7
 70
     0
 62
     3
  6
CONTINUOUS
370
    -3
390
A2C5
  0
ENDTAB
  0
TABLE
  2
STYLE
  5
A054
330
0
100
AcDbSymbolTable
 70
     1
  0
STYLE
  5
A062
330
A054
100
AcDbSymbolTableRecord
100
AcDbTextStyleTableRecord
  2
STANDARD
 70
     0
 40
0.0
 41
1.0
 50
0.0
 71
     0
 42
5.0
  3
txt
  4

  0
ENDTAB
  0
TABLE
  2
VIEW
  5
A057
330
0
100
AcDbSymbolTable
 70
     0
  0
ENDTAB
  0
TABLE
  2
UCS
  5
A058
330
0
100
AcDbSymbolTable
 70
     0
  0
ENDTAB
  0
TABLE
  2
APPID
  5
A05A
330
0
100
AcDbSymbolTable
 70
     3
  0
APPID
  5
A063
330
A05A
100
AcDbSymbolTableRecord
100
AcDbRegAppTableRecord
  2
ACAD
 70
     0
  0
APPID
  5
A331
330
A05A
100
AcDbSymbolTableRecord
100
AcDbRegAppTableRecord
  2
ACAD_NAV_VCDISPLAY
 70
     0
  0
APPID
  5
A36A
330
A05A
100
AcDbSymbolTableRecord
100
AcDbRegAppTableRecord
  2
ACAD_MLEADERVER
 70
     0
  0
ENDTAB
  0
TABLE
  2
DIMSTYLE
  5
A05B
330
0
100
AcDbSymbolTable
 70
     1
100
AcDbDimStyleTable
 71
     0
  0
DIMSTYLE
105
A07F
330
A05B
100
AcDbSymbolTableRecord
100
AcDbDimStyleTableRecord
  2
STANDARD
 70
     0
 41
2.5
 42
1.0
 43
10.0
 44
1.0
 73
     0
 74
     0
 77
     3
 78
     8
140
3.2
141
0.0
147
1.0
172
     1
173
     1
284
     8
285
     8
286
     8
340
A062
  0
ENDTAB
  0
TABLE
  2
BLOCK_RECORD
  5
A052
330
0
100
AcDbSymbolTable
 70
     0
  0
BLOCK_RECORD
  5
A06F
102
{ACAD_XDICTIONARY
360
A2A4
102
}
330
A052
100
AcDbSymbolTableRecord
100
AcDbBlockTableRecord
  2
*MODEL_SPACE
340
A313
  0
BLOCK_RECORD
  5
A06B
102
{ACAD_XDICTIONARY
360
A2A2
102
}
330
A052
100
AcDbSymbolTableRecord
100
AcDbBlockTableRecord
  2
*PAPER_SPACE
340
A314
  0
ENDTAB
  0
ENDSEC
  0
SECTION
  2
BLOCKS
  0
BLOCK
  5
A070
330
A06F
100
AcDbEntity
  8
0
100
AcDbBlockBegin
  2
*MODEL_SPACE
 70
     0
 10
0.0
 20
0.0
 30
0.0
  3
*MODEL_SPACE
  1

  0
ENDBLK
  5
A071
330
A06F
100
AcDbEntity
  8
0
100
AcDbBlockEnd
  0
BLOCK
  5
A06C
330
A06B
100
AcDbEntity
 67
     1
  8
0
100
AcDbBlockBegin
  2
*PAPER_SPACE
 70
     0
 10
0.0
 20
0.0
 30
0.0
  3
*PAPER_SPACE
  1

  0
ENDBLK
  5
A06D
330
A06B
100
AcDbEntity
 67
     1
  8
0
100
AcDbBlockEnd
  0
ENDSEC
  0
SECTION
  2
ENTITIES
  0
TEXT
  5
A087
330
A06F
100
AcDbEntity
  8
7
  6
Continuous
100
AcDbText
 10
10.0
 20
18.0
 30
0.0
 40
3.0
  1
TYPE No.TCA-420EA-N75
100
AcDbText
  0
TEXT
  5
A088
330
A06F
100
AcDbEntity
  8
7
  6
Continuous
100
AcDbText
 10
10.0
 20
26.0
 30
0.0
 40
3.0
  1
CODE No.9773
100
AcDbText
  0
TEXT
  5
A089
330
A06F
100
AcDbEntity
  8
1
  6
Continuous
100
AcDbText
 10
10.0
 20
10.0
 30
0.0
 40
1.399999999999999
  1
LAYER
100
AcDbText
  0
TEXT
  5
A08A
330
A06F
100
AcDbEntity
  8
1
  6
Continuous
100
AcDbText
 10
17.97951099999998
 20
10.04873699999998
 30
0.0
 40
1.399999999999999
  1
1
100
AcDbText
  0
TEXT
  5
A08B
330
A06F
100
AcDbEntity
  8
7
  6
Continuous
100
AcDbText
 10
29.97951099999999
 20
10.04873699999998
 30
0.0
 40
1.399999999999999
  1
7
100
AcDbText
  0
TEXT
  5
A08C
330
A06F
100
AcDbEntity
  8
4
  6
CENTER
100
AcDbText
 10
23.97951099999999
 20
10.04873699999998
 30
0.0
 40
1.399999999999999
  1
4
100
AcDbText
  0
TEXT
  5
A08D
330
A06F
100
AcDbEntity
  8
3
  6
DASHED
100
AcDbText
 10
21.979511
 20
10.04873699999998
 30
0.0
 40
1.399999999999999
  1
3
100
AcDbText
  0
TEXT
  5
A08E
330
A06F
100
AcDbEntity
  8
2
  6
Continuous
100
AcDbText
 10
19.97951099999998
 20
10.04873699999998
 30
0.0
 40
1.399999999999999
  1
2
100
AcDbText
  0
TEXT
  5
A08F
330
A06F
100
AcDbEntity
  8
6
  6
Continuous
100
AcDbText
 10
27.979511
 20
10.04873699999998
 30
0.0
 40
1.399999999999999
  1
6
100
AcDbText
  0
TEXT
  5
A090
330
A06F
100
AcDbEntity
  8
5
  6
PHANTOM
100
AcDbText
 10
25.97951099999999
 20
10.04873699999998
 30
0.0
 40
1.399999999999999
  1
5
100
AcDbText
  0
LINE
  5
A091
330
A06F
100
AcDbEntity
  8
4
  6
CENTER
 48
0.8
100
AcDbLine
 10
179.852946
 20
267.279712
 30
0.0
 11
179.852946
 21
187.4330389999999
 31
0.0
  0
LINE
  5
A092
330
A06F
100
AcDbEntity
  8
4
  6
CENTER
 48
0.8
100
AcDbLine
 10
108.352946
 20
169.7797109999999
 30
0.0
 11
193.352946
 21
169.7797109999999
 31
0.0
  0
LINE
  5
A093
330
A06F
100
AcDbEntity
  8
4
  6
CENTER
 48
0.8
100
AcDbLine
 10
150.852946
 20
207.831686
 30
0.0
 11
150.852946
 21
127.279711
 31
0.0
  0
LINE
  5
A094
330
A06F
100
AcDbEntity
  8
4
  6
CENTER
 48
0.8
100
AcDbLine
 10
49.852946
 20
267.279712
 30
0.0
 11
49.852946
 21
127.279711
 31
0.0
  0
LINE
  5
A095
330
A06F
100
AcDbEntity
  8
4
  6
CENTER
 48
0.8
100
AcDbLine
 10
23.25294599999998
 20
169.7797109999999
 30
0.0
 11
72.35103200000001
 21
169.7797109999999
 31
0.0
  0
LINE
  5
A096
330
A06F
100
AcDbEntity
  8
1
  6
Continuous
100
AcDbLine
 10
36.85294600000001
 20
166.529711
 30
0.0
 11
37.852946
 21
166.529711
 31
0.0
  0
LINE
  5
A097
330
A06F
100
AcDbEntity
  8
1
  6
Continuous
100
AcDbLine
 10
36.85294600000001
 20
173.0297109999999
 30
0.0
 11
37.852946
 21
173.0297109999999
 31
0.0
  0
LINE
  5
A098
330
A06F
100
AcDbEntity
  8
1
  6
Continuous
100
AcDbLine
 10
34.45294599999999
 20
175.3797089999999
 30
0.0
 11
31.252946
 21
175.3797089999999
 31
0.0
  0
LINE
  5
A099
330
A06F
100
AcDbEntity
  8
1
  6
Continuous
100
AcDbLine
 10
34.45294599999999
 20
172.779711
 30
0.0
 11
31.252946
 21
172.779711
 31
0.0
  0
LINE
  5
A09A
330
A06F
100
AcDbEntity
  8
1
  6
Continuous
100
AcDbLine
 10
30.252946
 20
173.579714
 30
0.0
 11
30.252946
 21
165.979716
 31
0.0
  0
LINE
  5
A09B
330
A06F
100
AcDbEntity
  8
1
  6
Continuous
100
AcDbLine
 10
34.45294599999999
 20
164.179713
 30
0.0
 11
31.252946
 21
164.179713
 31
0.0
  0
LINE
  5
A09C
330
A06F
100
AcDbEntity
  8
1
  6
Continuous
100
AcDbLine
 10
34.37614599999999
 20
166.7797109999999
 30
0.0
 11
31.252946
 21
166.7797109999999
 31
0.0
  0
LINE
  5
A09D
330
A06F
100
AcDbEntity
  8
1
  6
Continuous
100
AcDbLine
 10
30.25293599999999
 20
165.9796279999999
 30
0.0
 11
31.252936
 21
164.179705
 31
0.0
  0
LINE
  5
A09E
330
A06F
100
AcDbEntity
  8
1
  6
Continuous
100
AcDbLine
 10
30.25293599999999
 20
173.5797449999997
 30
0.0
 11
31.252936
 21
175.379717
 31
0.0
  0
LINE
  5
A09F
330
A06F
100
AcDbEntity
  8
4
  6
CENTER
 48
0.8
100
AcDbLine
 10
179.852946
 20
349.824967
 30
0.0
 11
179.852946
 21
301.824967
 31
0.0
  0
LINE
  5
A0A0
330
A06F
100
AcDbEntity
  8
4
  6
CENTER
 48
0.8
100
AcDbLine
 10
203.8529459999999
 20
325.824967
 30
0.0
 11
108.352946
 21
325.824967
 31
0.0
  0
LINE
  5
A0A1
330
A06F
100
AcDbEntity
  8
1
  6
Continuous
100
AcDbLine
 10
163.8529459999998
 20
218.17971
 30
0.0
 11
195.852946
 21
218.17971
 31
0.0
  0
LINE
  5
A0A2
330
A06F
100
AcDbEntity
  8
1
  6
Continuous
100
AcDbLine
 10
143.352946
 20
212.22346
 30
0.0
 11
163.665803
 21
215.8051649999999
 31
0.0
  0
LINE
  5
A0A3
330
A06F
100
AcDbEntity
  8
1
  6
Continuous
100
AcDbLine
 10
143.7002379999998
 20
210.253844
 30
0.0
 11
147.0215419999999
 21
210.8394799999999
 31
0.0
  0
LINE
  5
A0A4
330
A06F
100
AcDbEntity
  8
1
  6
Continuous
100
AcDbLine
 10
195.1760779999999
 20
209.7501199999999
 30
0.0
 11
198.852946
 21
210.1473069999999
 31
0.0
  0
LINE
  5
A0A5
330
A06F
100
AcDbEntity
  8
1
  6
Continuous
100
AcDbLine
 10
143.352947
 20
212.2234579999999
 30
0.0
 11
143.700244
 21
210.253841
 31
0.0
  0
LINE
  5
A0A6
330
A06F
100
AcDbEntity
  8
1
  6
Continuous
100
AcDbLine
 10
166.852946
 20
215.279736
 30
0.0
 11
166.852946
 21
180.212679
 31
0.0
  0
LINE
  5
A0A7
330
A06F
100
AcDbEntity
  8
1
  6
Continuous
100
AcDbLine
 10
146.6742469999998
 20
212.809095
 30
0.0
 11
147.0215429999998
 21
210.8394799999999
 31
0.0
  0
LINE
  5
A0A8
330
A06F
100
AcDbEntity
  8
1
  6
Continuous
100
AcDbLine
 10
33.852946
 20
218.17971
 30
0.0
 11
65.852946
 21
218.17971
 31
0.0
  0
LINE
  5
A0A9
330
A06F
100
AcDbEntity
  8
1
  6
Continuous
100
AcDbLine
 10
34.852946
 20
160.8797089999999
 30
0.0
 11
36.85294600000001
 21
160.8797089999999
 31
0.0
  0
LINE
  5
A0AA
330
A06F
100
AcDbEntity
  8
1
  6
Continuous
100
AcDbLine
 10
36.85294600000001
 20
210.5394759999998
 30
0.0
 11
36.85294600000001
 21
160.8797089999999
 31
0.0
  0
LINE
  5
A0AB
330
A06F
100
AcDbEntity
  8
1
  6
Continuous
100
AcDbLine
 10
34.852946
 20
211.379646
 30
0.0
 11
34.852946
 21
160.8797089999999
 31
0.0
  0
LINE
  5
A0AC
330
A06F
100
AcDbEntity
  8
1
  6
Continuous
100
AcDbLine
 10
64.852946
 20
211.379646
 30
0.0
 11
64.852946
 21
160.8797089999999
 31
0.0
  0
LINE
  5
A0AD
330
A06F
100
AcDbEntity
  8
1
  6
Continuous
100
AcDbLine
 10
62.852946
 20
210.5394759999998
 30
0.0
 11
62.852946
 21
160.8797089999999
 31
0.0
  0
LINE
  5
A0AE
330
A06F
100
AcDbEntity
  8
1
  6
Continuous
100
AcDbLine
 10
64.852946
 20
160.8797089999999
 30
0.0
 11
62.852946
 21
160.8797089999999
 31
0.0
  0
LINE
  5
A0AF
330
A06F
100
AcDbEntity
  8
1
  6
Continuous
100
AcDbLine
 10
67.354365
 20
173.077696
 30
0.0
 11
67.347689
 21
166.477698
 31
0.0
  0
LINE
  5
A0B0
330
A06F
100
AcDbEntity
  8
1
  6
Continuous
100
AcDbLine
 10
64.845652
 20
164.479708
 30
0.0
 11
65.34768199999999
 21
164.479708
 31
0.0
  0
LINE
  5
A0B1
330
A06F
100
AcDbEntity
  8
1
  6
Continuous
100
AcDbLine
 10
64.856379
 20
175.0797099999997
 30
0.0
 11
65.35434999999999
 21
175.0797099999997
 31
0.0
  0
LINE
  5
A0B2
330
A06F
100
AcDbEntity
  8
1
  6
Continuous
100
AcDbLine
 10
61.85294599999998
 20
173.0297109999999
 30
0.0
 11
62.852946
 21
173.0297109999999
 31
0.0
  0
LINE
  5
A0B3
330
A06F
100
AcDbEntity
  8
1
  6
Continuous
100
AcDbLine
 10
61.85294599999998
 20
166.529711
 30
0.0
 11
62.852946
 21
166.529711
 31
0.0
  0
LINE
  5
A0B4
330
A06F
100
AcDbEntity
  8
1
  6
Continuous
100
AcDbLine
 10
147.0215409999999
 20
210.839493
 30
0.0
 11
143.1843869999999
 21
169.065737
 31
0.0
  0
LINE
  5
A0B5
330
A06F
100
AcDbEntity
  8
1
  6
Continuous
100
AcDbLine
 10
156.5894609999998
 20
163.796286
 30
0.0
 11
189.705554
 21
206.688705
 31
0.0
  0
ARC
  5
A0B6
330
A06F
100
AcDbEntity
  8
1
  6
Continuous
100
AcDbCircle
 10
32.540446
 20
165.4797079999999
 30
0.0
 40
2.3125
100
AcDbArc
 50
325.79449
 51
34.20541
  0
ARC
  5
A0B7
330
A06F
100
AcDbEntity
  8
1
  6
Continuous
100
AcDbCircle
 10
23.402946
 20
169.7797109999999
 30
0.0
 40
11.450001
100
AcDbArc
 50
344.8107199999999
 51
15.189285
  0
ARC
  5
A0B8
330
A06F
100
AcDbEntity
  8
1
  6
Continuous
100
AcDbCircle
 10
32.540446
 20
174.0797139999999
 30
0.0
 40
2.3125
100
AcDbArc
 50
325.79455
 51
34.205461
  0
ARC
  5
A0B9
330
A06F
100
AcDbEntity
  8
1
  6
Continuous
100
AcDbCircle
 10
33.165446
 20
174.0797139999999
 30
0.0
 40
2.312498999999998
100
AcDbArc
 50
145.7945499999999
 51
214.2054299999998
  0
ARC
  5
A0BA
330
A06F
100
AcDbEntity
  8
1
  6
Continuous
100
AcDbCircle
 10
42.30294599999999
 20
169.7797109999999
 30
0.0
 40
11.44999799999999
100
AcDbArc
 50
164.81073
 51
195.1892499999999
  0
ARC
  5
A0BB
330
A06F
100
AcDbEntity
  8
1
  6
Continuous
100
AcDbCircle
 10
33.165446
 20
165.479716
 30
0.0
 40
2.312498999999998
100
AcDbArc
 50
145.7945499999999
 51
214.2054299999998
  0
ARC
  5
A0BC
330
A06F
100
AcDbEntity
  8
1
  6
Continuous
100
AcDbCircle
 10
57.314265
 20
219.3242129999999
 30
0.0
 40
1.984499999999996
100
AcDbArc
 50
324.7796799999998
 51
350.00299
  0
ARC
  5
A0BD
330
A06F
100
AcDbEntity
  8
1
  6
Continuous
100
AcDbCircle
 10
45.932322
 20
219.3242129999999
 30
0.0
 40
1.984499999999996
100
AcDbArc
 50
324.7796799999998
 51
350.0030499999998
  0
ARC
  5
A0BE
330
A06F
100
AcDbEntity
  8
1
  6
Continuous
100
AcDbCircle
 10
175.9323219999999
 20
219.3242129999999
 30
0.0
 40
1.984499999999996
100
AcDbArc
 50
324.7797499999998
 51
350.0030499999998
  0
ARC
  5
A0BF
330
A06F
100
AcDbEntity
  8
1
  6
Continuous
100
AcDbCircle
 10
53.77356999999999
 20
219.3242129999999
 30
0.0
 40
1.984499999999996
100
AcDbArc
 50
324.7796799999998
 51
350.00299
  0
ARC
  5
A0C0
330
A06F
100
AcDbEntity
  8
1
  6
Continuous
100
AcDbCircle
 10
42.391626
 20
219.3242129999999
 30
0.0
 40
1.984499999999996
100
AcDbArc
 50
324.7796799999998
 51
333.1367799999998
  0
ARC
  5
A0C1
330
A06F
100
AcDbEntity
  8
1
  6
Continuous
100
AcDbCircle
 10
172.391627
 20
219.3242129999999
 30
0.0
 40
1.984499999999996
100
AcDbArc
 50
324.7797499999998
 51
333.1367799999998
  0
ARC
  5
A0C2
330
A06F
100
AcDbEntity
  8
1
  6
Continuous
100
AcDbCircle
 10
53.77356999999999
 20
219.3242129999999
 30
0.0
 40
1.984499999999996
100
AcDbArc
 50
189.9969899999999
 51
215.2202999999999
  0
ARC
  5
A0C3
330
A06F
100
AcDbEntity
  8
1
  6
Continuous
100
AcDbCircle
 10
49.852946
 20
219.3242129999999
 30
0.0
 40
1.984499999999996
100
AcDbArc
 50
324.7796799999998
 51
350.00299
  0
ARC
  5
A0C4
330
A06F
100
AcDbEntity
  8
1
  6
Continuous
100
AcDbCircle
 10
57.314265
 20
219.3242129999999
 30
0.0
 40
1.984499999999996
100
AcDbArc
 50
206.86325
 51
215.2202999999999
  0
ARC
  5
A0C5
330
A06F
100
AcDbEntity
  8
1
  6
Continuous
100
AcDbCircle
 10
60.13193000000001
 20
219.3242129999999
 30
0.0
 40
1.984499999999996
100
AcDbArc
 50
324.77981
 51
350.00299
  0
ARC
  5
A0C6
330
A06F
100
AcDbEntity
  8
1
  6
Continuous
100
AcDbCircle
 10
61.95353199999999
 20
219.3242129999999
 30
0.0
 40
1.984499999999996
100
AcDbArc
 50
324.7797499999998
 51
350.00299
  0
ARC
  5
A0C7
330
A06F
100
AcDbEntity
  8
1
  6
Continuous
100
AcDbCircle
 10
62.60294599999999
 20
219.3242129999999
 30
0.0
 40
1.984499999999996
100
AcDbArc
 50
324.7797499999998
 51
350.00299
  0
ARC
  5
A0C8
330
A06F
100
AcDbEntity
  8
1
  6
Continuous
100
AcDbCircle
 10
45.932322
 20
219.3242129999999
 30
0.0
 40
1.984499999999996
100
AcDbArc
 50
189.99704
 51
215.2202999999999
  0
ARC
  5
A0C9
330
A06F
100
AcDbEntity
  8
1
  6
Continuous
100
AcDbCircle
 10
49.852946
 20
219.3242129999999
 30
0.0
 40
1.984499999999996
100
AcDbArc
 50
189.9970599999999
 51
215.2202999999999
  0
ARC
  5
A0CA
330
A06F
100
AcDbEntity
  8
1
  6
Continuous
100
AcDbCircle
 10
42.391626
 20
219.3242129999999
 30
0.0
 40
1.984499999999996
100
AcDbArc
 50
189.9970599999999
 51
215.2202999999999
  0
ARC
  5
A0CB
330
A06F
100
AcDbEntity
  8
1
  6
Continuous
100
AcDbCircle
 10
39.573956
 20
219.3242129999999
 30
0.0
 40
1.984499999999996
100
AcDbArc
 50
189.9970599999999
 51
215.2202999999999
  0
ARC
  5
A0CC
330
A06F
100
AcDbEntity
  8
1
  6
Continuous
100
AcDbCircle
 10
37.752356
 20
219.3242129999999
 30
0.0
 40
1.984499999999996
100
AcDbArc
 50
189.9970599999999
 51
215.2202999999999
  0
ARC
  5
A0CD
330
A06F
100
AcDbEntity
  8
1
  6
Continuous
100
AcDbCircle
 10
37.102946
 20
219.3242129999999
 30
0.0
 40
1.984499999999996
100
AcDbArc
 50
189.9970599999999
 51
215.2202999999999
  0
ARC
  5
A0CE
330
A06F
100
AcDbEntity
  8
1
  6
Continuous
100
AcDbCircle
 10
183.7735699999998
 20
219.3242129999999
 30
0.0
 40
1.984499999999996
100
AcDbArc
 50
189.9969899999999
 51
215.2202299999999
  0
ARC
  5
A0CF
330
A06F
100
AcDbEntity
  8
1
  6
Continuous
100
AcDbCircle
 10
179.852946
 20
219.3242129999999
 30
0.0
 40
1.984499999999996
100
AcDbArc
 50
324.7797499999998
 51
350.00299
  0
ARC
  5
A0D0
330
A06F
100
AcDbEntity
  8
1
  6
Continuous
100
AcDbCircle
 10
187.3142649999999
 20
219.3242129999999
 30
0.0
 40
1.984499999999996
100
AcDbArc
 50
206.86325
 51
215.2202299999999
  0
ARC
  5
A0D1
330
A06F
100
AcDbEntity
  8
1
  6
Continuous
100
AcDbCircle
 10
190.13193
 20
219.3242129999999
 30
0.0
 40
1.984499999999996
100
AcDbArc
 50
324.7797499999998
 51
350.00299
  0
ARC
  5
A0D2
330
A06F
100
AcDbEntity
  8
1
  6
Continuous
100
AcDbCircle
 10
191.9535319999999
 20
219.3242129999999
 30
0.0
 40
1.984499999999996
100
AcDbArc
 50
324.7797499999998
 51
350.00299
  0
ARC
  5
A0D3
330
A06F
100
AcDbEntity
  8
1
  6
Continuous
100
AcDbCircle
 10
192.602946
 20
219.3242129999999
 30
0.0
 40
1.984499999999996
100
AcDbArc
 50
324.7796799999998
 51
350.00299
  0
ARC
  5
A0D4
330
A06F
100
AcDbEntity
  8
1
  6
Continuous
100
AcDbCircle
 10
175.9323219999999
 20
219.3242129999999
 30
0.0
 40
1.984499999999996
100
AcDbArc
 50
189.99704
 51
215.2202299999999
  0
ARC
  5
A0D5
330
A06F
100
AcDbEntity
  8
1
  6
Continuous
100
AcDbCircle
 10
179.852946
 20
219.3242129999999
 30
0.0
 40
1.984499999999996
100
AcDbArc
 50
189.9970599999999
 51
215.2202299999999
  0
ARC
  5
A0D6
330
A06F
100
AcDbEntity
  8
1
  6
Continuous
100
AcDbCircle
 10
172.391627
 20
219.3242129999999
 30
0.0
 40
1.984499999999996
100
AcDbArc
 50
189.9970599999999
 51
215.2202299999999
  0
ARC
  5
A0D7
330
A06F
100
AcDbEntity
  8
1
  6
Continuous
100
AcDbCircle
 10
169.5739619999999
 20
219.3242129999999
 30
0.0
 40
1.984499999999996
100
AcDbArc
 50
189.9970599999999
 51
215.2202299999999
  0
ARC
  5
A0D8
330
A06F
100
AcDbEntity
  8
1
  6
Continuous
100
AcDbCircle
 10
167.75236
 20
219.3242129999999
 30
0.0
 40
1.984499999999996
100
AcDbArc
 50
189.99707
 51
215.2202299999999
  0
ARC
  5
A0D9
330
A06F
100
AcDbEntity
  8
1
  6
Continuous
100
AcDbCircle
 10
167.1029459999997
 20
219.3242129999999
 30
0.0
 40
1.984499999999996
100
AcDbArc
 50
189.9970599999999
 51
215.2202299999999
  0
ARC
  5
A0DA
330
A06F
100
AcDbEntity
  8
1
  6
Continuous
100
AcDbCircle
 10
183.7735699999998
 20
219.3242129999999
 30
0.0
 40
1.984499999999996
100
AcDbArc
 50
324.7797499999998
 51
350.00299
  0
ARC
  5
A0DB
330
A06F
100
AcDbEntity
  8
1
  6
Continuous
100
AcDbCircle
 10
187.3142649999999
 20
219.3242129999999
 30
0.0
 40
1.984499999999996
100
AcDbArc
 50
324.7797499999998
 51
350.00299
  0
ARC
  5
A0DC
330
A06F
100
AcDbEntity
  8
1
  6
Continuous
100
AcDbCircle
 10
196.0352659999998
 20
201.796391
 30
0.0
 40
8.0
100
AcDbArc
 50
96.16536199999998
 51
142.32923
  0
ARC
  5
A0DD
330
A06F
100
AcDbEntity
  8
1
  6
Continuous
100
AcDbCircle
 10
150.6529459999998
 20
168.3797089999998
 30
0.0
 40
7.5
100
AcDbArc
 50
174.7517799999999
 51
322.32922
  0
CIRCLE
  5
A0DE
330
A06F
100
AcDbEntity
  8
1
  6
Continuous
100
AcDbCircle
 10
150.852946
 20
169.7797109999999
 30
0.0
 40
5.299999999999998
  0
ARC
  5
A0DF
330
A06F
100
AcDbEntity
  8
1
  6
Continuous
100
AcDbCircle
 10
49.852946
 20
349.9214609999999
 30
0.0
 40
137.69801
100
AcDbArc
 50
264.43445
 51
275.5655299999999
  0
ARC
  5
A0E0
330
A06F
100
AcDbEntity
  8
1
  6
Continuous
100
AcDbCircle
 10
63.352946
 20
211.379646
 30
0.0
 40
1.5
100
AcDbArc
 50
0.0
 51
95.56557500000003
  0
ARC
  5
A0E1
330
A06F
100
AcDbEntity
  8
1
  6
Continuous
100
AcDbCircle
 10
36.352946
 20
211.379646
 30
0.0
 40
1.5
100
AcDbArc
 50
84.43444300000001
 51
179.9999599999999
  0
ARC
  5
A0E2
330
A06F
100
AcDbEntity
  8
1
  6
Continuous
100
AcDbCircle
 10
49.852946
 20
315.3797089999998
 30
0.0
 40
100.0
100
AcDbArc
 50
262.53039
 51
277.4695899999999
  0
ARC
  5
A0E3
330
A06F
100
AcDbEntity
  8
1
  6
Continuous
100
AcDbCircle
 10
65.85132900000001
 20
193.780977
 30
0.0
 40
35.0
100
AcDbArc
 50
179.4492899999999
 51
207.66612
  0
ARC
  5
A0E4
330
A06F
100
AcDbEntity
  8
1
  6
Continuous
100
AcDbCircle
 10
33.85456599999999
 20
193.780977
 30
0.0
 40
35.0
100
AcDbArc
 50
332.33384
 51
0.5506770000000003
  0
ARC
  5
A0E5
330
A06F
100
AcDbEntity
  8
1
  6
Continuous
100
AcDbCircle
 10
62.552943
 20
210.5394759999998
 30
0.0
 40
0.3
100
AcDbArc
 50
0.0
 51
95.28068799999999
  0
ARC
  5
A0E6
330
A06F
100
AcDbEntity
  8
1
  6
Continuous
100
AcDbCircle
 10
37.152946
 20
210.5394759999998
 30
0.0
 40
0.3
100
AcDbArc
 50
84.71933100000002
 51
179.9999599999999
  0
ARC
  5
A0E7
330
A06F
100
AcDbEntity
  8
1
  6
Continuous
100
AcDbCircle
 10
49.852946
 20
347.9518609999999
 30
0.0
 40
137.69801
100
AcDbArc
 50
264.7195599999998
 51
275.28041
  0
ARC
  5
A0E8
330
A06F
100
AcDbEntity
  8
1
  6
Continuous
100
AcDbCircle
 10
65.34768199999999
 20
166.479712
 30
0.0
 40
2.0
100
AcDbArc
 50
270.00002
 51
359.9420799999998
  0
ARC
  5
A0E9
330
A06F
100
AcDbEntity
  8
1
  6
Continuous
100
AcDbCircle
 10
65.35434999999999
 20
173.07971
 30
0.0
 40
2.0
100
AcDbArc
 50
359.9420799999998
 51
89.99998199999996
  0
LINE
  5
A0EA
330
A06F
100
AcDbEntity
  8
1
  6
Continuous
100
AcDbLine
 10
30.852946
 20
215.17971
 30
0.0
 11
30.852946
 21
193.4445429999999
 31
0.0
  0
LINE
  5
A0EB
330
A06F
100
AcDbEntity
  8
1
  6
Continuous
100
AcDbLine
 10
68.852946
 20
215.17971
 30
0.0
 11
68.852946
 21
193.444232
 31
0.0
  0
ARC
  5
A0EC
330
A06F
100
AcDbEntity
  8
1
  6
Continuous
100
AcDbCircle
 10
65.852946
 20
215.17971
 30
0.0
 40
3.0
100
AcDbArc
 50
0.0
 51
90.0
  0
ARC
  5
A0ED
330
A06F
100
AcDbEntity
  8
1
  6
Continuous
100
AcDbCircle
 10
33.852946
 20
215.17971
 30
0.0
 40
3.0
100
AcDbArc
 50
90.0
 51
180.0
  0
LINE
  5
A0EE
330
A06F
100
AcDbEntity
  8
1
  6
Continuous
100
AcDbLine
 10
198.852946
 20
215.17971
 30
0.0
 11
198.852946
 21
210.1473069999999
 31
0.0
  0
ARC
  5
A0EF
330
A06F
100
AcDbEntity
  8
1
  6
Continuous
100
AcDbCircle
 10
195.852946
 20
215.17971
 30
0.0
 40
3.0
100
AcDbArc
 50
0.0
 51
90.0
  0
LINE
  5
A0F0
330
A06F
100
AcDbEntity
  8
4
  6
CENTER
 48
0.8
100
AcDbLine
 10
262.3529459999999
 20
267.279712
 30
0.0
 11
262.3529459999999
 21
127.279711
 31
0.0
  0
LINE
  5
A0F1
330
A06F
100
AcDbEntity
  8
1
  6
Continuous
100
AcDbLine
 10
278.352946
 20
218.17971
 30
0.0
 11
246.352946
 21
218.17971
 31
0.0
  0
ARC
  5
A0F2
330
A06F
100
AcDbEntity
  8
1
  6
Continuous
100
AcDbCircle
 10
250.2523599999999
 20
219.3242129999999
 30
0.0
 40
1.984499999999996
100
AcDbArc
 50
189.99701
 51
215.22025
  0
LINE
  5
A0F3
330
A06F
100
AcDbEntity
  8
1
  6
Continuous
100
AcDbLine
 10
247.3529459999999
 20
160.8797089999999
 30
0.0
 11
249.3529459999999
 21
160.8797089999999
 31
0.0
  0
LINE
  5
A0F4
330
A06F
100
AcDbEntity
  8
4
  6
CENTER
 48
0.8
100
AcDbLine
 10
288.9529459999998
 20
169.7797109999999
 30
0.0
 11
239.854861
 21
169.7797109999999
 31
0.0
  0
LINE
  5
A0F5
330
A06F
100
AcDbEntity
  8
1
  6
Continuous
100
AcDbLine
 10
249.3529459999999
 20
208.356925
 30
0.0
 11
249.3529459999999
 21
160.8797089999999
 31
0.0
  0
LINE
  5
A0F6
330
A06F
100
AcDbEntity
  8
1
  6
Continuous
100
AcDbLine
 10
277.3529459999999
 20
178.6890629999998
 30
0.0
 11
277.3529459999999
 21
160.8797089999999
 31
0.0
  0
LINE
  5
A0F7
330
A06F
100
AcDbEntity
  8
1
  6
Continuous
100
AcDbLine
 10
275.3529459999999
 20
208.356925
 30
0.0
 11
275.3529459999999
 21
160.8797089999999
 31
0.0
  0
LINE
  5
A0F8
330
A06F
100
AcDbEntity
  8
1
  6
Continuous
100
AcDbLine
 10
277.829746
 20
166.7797109999999
 30
0.0
 11
280.9529459999998
 21
166.7797109999999
 31
0.0
  0
LINE
  5
A0F9
330
A06F
100
AcDbEntity
  8
1
  6
Continuous
100
AcDbLine
 10
277.752946
 20
164.179713
 30
0.0
 11
280.9529459999998
 21
164.179713
 31
0.0
  0
LINE
  5
A0FA
330
A06F
100
AcDbEntity
  8
1
  6
Continuous
100
AcDbLine
 10
277.752946
 20
172.779711
 30
0.0
 11
280.9529459999998
 21
172.779711
 31
0.0
  0
LINE
  5
A0FB
330
A06F
100
AcDbEntity
  8
1
  6
Continuous
100
AcDbLine
 10
277.752946
 20
175.3797089999999
 30
0.0
 11
280.9529459999998
 21
175.3797089999999
 31
0.0
  0
ARC
  5
A0FC
330
A06F
100
AcDbEntity
  8
1
  6
Continuous
100
AcDbCircle
 10
279.0404459999999
 20
165.479716
 30
0.0
 40
2.312498999999998
100
AcDbArc
 50
325.79457
 51
34.20545
  0
LINE
  5
A0FD
330
A06F
100
AcDbEntity
  8
1
  6
Continuous
100
AcDbLine
 10
281.952946
 20
173.579714
 30
0.0
 11
281.952946
 21
165.979716
 31
0.0
  0
LINE
  5
A0FE
330
A06F
100
AcDbEntity
  8
1
  6
Continuous
100
AcDbLine
 10
281.9529559999998
 20
165.9796279999999
 30
0.0
 11
280.9529559999999
 21
164.179705
 31
0.0
  0
ARC
  5
A0FF
330
A06F
100
AcDbEntity
  8
1
  6
Continuous
100
AcDbCircle
 10
269.9029459999997
 20
169.7797109999999
 30
0.0
 40
11.44999799999999
100
AcDbArc
 50
344.8107499999999
 51
15.18927
  0
ARC
  5
A100
330
A06F
100
AcDbEntity
  8
1
  6
Continuous
100
AcDbCircle
 10
279.0404459999999
 20
174.0797139999999
 30
0.0
 40
2.312498999999998
100
AcDbArc
 50
325.79457
 51
34.20545
  0
LINE
  5
A101
330
A06F
100
AcDbEntity
  8
1
  6
Continuous
100
AcDbLine
 10
281.9529559999998
 20
173.5797449999997
 30
0.0
 11
280.9529559999999
 21
175.379717
 31
0.0
  0
ARC
  5
A102
330
A06F
100
AcDbEntity
  8
1
  6
Continuous
100
AcDbCircle
 10
279.6654459999999
 20
165.4797079999999
 30
0.0
 40
2.3125
100
AcDbArc
 50
145.79459
 51
214.2055099999998
  0
LINE
  5
A103
330
A06F
100
AcDbEntity
  8
1
  6
Continuous
100
AcDbLine
 10
277.3529459999999
 20
160.8797089999999
 30
0.0
 11
275.3529459999999
 21
160.8797089999999
 31
0.0
  0
ARC
  5
A104
330
A06F
100
AcDbEntity
  8
1
  6
Continuous
100
AcDbCircle
 10
279.6654459999999
 20
174.0797139999999
 30
0.0
 40
2.3125
100
AcDbArc
 50
145.7945389999999
 51
214.2054499999999
  0
ARC
  5
A105
330
A06F
100
AcDbEntity
  8
1
  6
Continuous
100
AcDbCircle
 10
288.802946
 20
169.7797109999999
 30
0.0
 40
11.450001
100
AcDbArc
 50
164.8107149999999
 51
195.1892799999999
  0
LINE
  5
A106
330
A06F
100
AcDbEntity
  8
1
  6
Continuous
100
AcDbLine
 10
275.3529459999999
 20
173.0297109999999
 30
0.0
 11
274.3529459999999
 21
173.0297109999999
 31
0.0
  0
LINE
  5
A107
330
A06F
100
AcDbEntity
  8
1
  6
Continuous
100
AcDbLine
 10
275.3529459999999
 20
166.529711
 30
0.0
 11
274.3529459999999
 21
166.529711
 31
0.0
  0
LINE
  5
A108
330
A06F
100
AcDbEntity
  8
1
  6
Continuous
100
AcDbLine
 10
250.352946
 20
166.529711
 30
0.0
 11
249.3529459999999
 21
166.529711
 31
0.0
  0
LINE
  5
A109
330
A06F
100
AcDbEntity
  8
1
  6
Continuous
100
AcDbLine
 10
250.352946
 20
173.0297109999999
 30
0.0
 11
249.3529459999999
 21
173.0297109999999
 31
0.0
  0
ARC
  5
A10A
330
A06F
100
AcDbEntity
  8
1
  6
Continuous
100
AcDbCircle
 10
278.352946
 20
215.17971
 30
0.0
 40
3.0
100
AcDbArc
 50
0.0
 51
90.0
  0
LINE
  5
A10B
330
A06F
100
AcDbEntity
  8
1
  6
Continuous
100
AcDbLine
 10
281.3529459999999
 20
215.17971
 30
0.0
 11
281.3529459999999
 21
193.4445429999999
 31
0.0
  0
ARC
  5
A10C
330
A06F
100
AcDbEntity
  8
1
  6
Continuous
100
AcDbCircle
 10
262.3529459999999
 20
219.3242129999999
 30
0.0
 40
1.984499999999996
100
AcDbArc
 50
324.7796999999998
 51
350.0029399999998
  0
ARC
  5
A10D
330
A06F
100
AcDbEntity
  8
1
  6
Continuous
100
AcDbCircle
 10
266.27357
 20
219.3242129999999
 30
0.0
 40
1.984499999999996
100
AcDbArc
 50
189.99695
 51
215.2203199999999
  0
ARC
  5
A10E
330
A06F
100
AcDbEntity
  8
1
  6
Continuous
100
AcDbCircle
 10
275.1029459999999
 20
219.3242129999999
 30
0.0
 40
1.984499999999996
100
AcDbArc
 50
324.7796999999998
 51
350.0029399999998
  0
ARC
  5
A10F
330
A06F
100
AcDbEntity
  8
1
  6
Continuous
100
AcDbCircle
 10
274.4535359999998
 20
219.3242129999999
 30
0.0
 40
1.984499999999996
100
AcDbArc
 50
324.7796999999998
 51
350.0029399999998
  0
ARC
  5
A110
330
A06F
100
AcDbEntity
  8
1
  6
Continuous
100
AcDbCircle
 10
272.631936
 20
219.3242129999999
 30
0.0
 40
1.984499999999996
100
AcDbArc
 50
324.7796999999998
 51
350.0029399999998
  0
ARC
  5
A111
330
A06F
100
AcDbEntity
  8
1
  6
Continuous
100
AcDbCircle
 10
269.8142659999999
 20
219.3242129999999
 30
0.0
 40
1.984499999999996
100
AcDbArc
 50
324.7796999999998
 51
350.0029399999998
  0
ARC
  5
A112
330
A06F
100
AcDbEntity
  8
1
  6
Continuous
100
AcDbCircle
 10
266.27357
 20
219.3242129999999
 30
0.0
 40
1.984499999999996
100
AcDbArc
 50
324.7796999999998
 51
350.0029599999999
  0
ARC
  5
A113
330
A06F
100
AcDbEntity
  8
1
  6
Continuous
100
AcDbCircle
 10
269.8142659999999
 20
219.3242129999999
 30
0.0
 40
1.984499999999996
100
AcDbArc
 50
206.8632199999999
 51
215.2203199999999
  0
ARC
  5
A114
330
A06F
100
AcDbEntity
  8
1
  6
Continuous
100
AcDbCircle
 10
252.073962
 20
219.3242129999999
 30
0.0
 40
1.984499999999996
100
AcDbArc
 50
189.99701
 51
215.22019
  0
ARC
  5
A115
330
A06F
100
AcDbEntity
  8
1
  6
Continuous
100
AcDbCircle
 10
254.8916269999998
 20
219.3242129999999
 30
0.0
 40
1.984499999999996
100
AcDbArc
 50
324.7796999999998
 51
333.13675
  0
ARC
  5
A116
330
A06F
100
AcDbEntity
  8
1
  6
Continuous
100
AcDbCircle
 10
262.3529459999999
 20
219.3242129999999
 30
0.0
 40
1.984499999999996
100
AcDbArc
 50
189.99701
 51
215.2203199999999
  0
ARC
  5
A117
330
A06F
100
AcDbEntity
  8
1
  6
Continuous
100
AcDbCircle
 10
258.4323219999999
 20
219.3242129999999
 30
0.0
 40
1.984499999999996
100
AcDbArc
 50
324.7796999999998
 51
350.00301
  0
ARC
  5
A118
330
A06F
100
AcDbEntity
  8
1
  6
Continuous
100
AcDbCircle
 10
258.4323219999999
 20
219.3242129999999
 30
0.0
 40
1.984499999999996
100
AcDbArc
 50
189.99701
 51
215.2203199999999
  0
ARC
  5
A119
330
A06F
100
AcDbEntity
  8
1
  6
Continuous
100
AcDbCircle
 10
254.8916269999998
 20
219.3242129999999
 30
0.0
 40
1.984499999999996
100
AcDbArc
 50
189.99701
 51
215.2203199999999
  0
LINE
  5
A11A
330
A06F
100
AcDbEntity
  8
1
  6
Continuous
100
AcDbLine
 10
247.3529459999999
 20
178.6890629999998
 30
0.0
 11
247.3529459999999
 21
160.8797089999999
 31
0.0
  0
ARC
  5
A11B
330
A06F
100
AcDbEntity
  8
1
  6
Continuous
100
AcDbCircle
 10
246.85821
 20
166.479712
 30
0.0
 40
2.0
100
AcDbArc
 50
180.0579199999999
 51
269.99998
  0
LINE
  5
A11C
330
A06F
100
AcDbEntity
  8
1
  6
Continuous
100
AcDbLine
 10
247.36024
 20
164.479708
 30
0.0
 11
246.85821
 21
164.479708
 31
0.0
  0
ARC
  5
A11D
330
A06F
100
AcDbEntity
  8
1
  6
Continuous
100
AcDbCircle
 10
246.851542
 20
173.07971
 30
0.0
 40
2.0
100
AcDbArc
 50
90.00001800000005
 51
180.0579199999999
  0
LINE
  5
A11E
330
A06F
100
AcDbEntity
  8
1
  6
Continuous
100
AcDbLine
 10
247.3495129999998
 20
175.0797099999997
 30
0.0
 11
246.851542
 21
175.0797099999997
 31
0.0
  0
LINE
  5
A11F
330
A06F
100
AcDbEntity
  8
1
  6
Continuous
100
AcDbLine
 10
244.851527
 20
173.077696
 30
0.0
 11
244.8582029999998
 21
166.477698
 31
0.0
  0
LINE
  5
A120
330
A06F
100
AcDbEntity
  8
1
  6
Continuous
100
AcDbLine
 10
243.3529459999999
 20
215.17971
 30
0.0
 11
243.3529459999999
 21
193.444232
 31
0.0
  0
ARC
  5
A121
330
A06F
100
AcDbEntity
  8
1
  6
Continuous
100
AcDbCircle
 10
246.352946
 20
215.17971
 30
0.0
 40
3.0
100
AcDbArc
 50
90.0
 51
180.0
  0
ARC
  5
A122
330
A06F
100
AcDbEntity
  8
1
  6
Continuous
100
AcDbCircle
 10
249.6029459999999
 20
219.3242129999999
 30
0.0
 40
1.984499999999996
100
AcDbArc
 50
189.99701
 51
215.22025
  0
ARC
  5
A123
330
A06F
100
AcDbEntity
  8
1
  6
Continuous
100
AcDbCircle
 10
273.3790849999999
 20
193.927472
 30
0.0
 40
30.026139
100
AcDbArc
 50
149.5106899999998
 51
209.416028
  0
ARC
  5
A124
330
A06F
100
AcDbEntity
  8
1
  6
Continuous
100
AcDbCircle
 10
251.326808
 20
193.927472
 30
0.0
 40
30.026139
100
AcDbArc
 50
330.583972
 51
30.48931
  0
LINE
  5
A125
330
A06F
100
AcDbEntity
  8
1
  6
Continuous
100
AcDbLine
 10
249.228293
 20
210.1473069999999
 30
0.0
 11
275.4776
 21
210.1473069999999
 31
0.0
  0
ARC
  5
A126
330
A06F
100
AcDbEntity
  8
1
  6
Continuous
100
AcDbCircle
 10
246.352946
 20
178.6890629999998
 30
0.0
 40
1.0
100
AcDbArc
 50
0.0
 51
29.416028
  0
ARC
  5
A127
330
A06F
100
AcDbEntity
  8
1
  6
Continuous
100
AcDbCircle
 10
278.352946
 20
178.6890629999998
 30
0.0
 40
1.0
100
AcDbArc
 50
150.583972
 51
180.0
  0
ARC
  5
A128
330
A06F
100
AcDbEntity
  8
1
  6
Continuous
100
AcDbCircle
 10
251.326808
 20
193.927472
 30
0.0
 40
28.026139
100
AcDbArc
 50
330.583972
 51
35.361938
  0
ARC
  5
A129
330
A06F
100
AcDbEntity
  8
1
  6
Continuous
100
AcDbCircle
 10
273.3790849999999
 20
193.927472
 30
0.0
 40
28.026139
100
AcDbArc
 50
144.638062
 51
209.416028
  0
ARC
  5
A12A
330
A06F
100
AcDbEntity
  8
1
  6
Continuous
100
AcDbCircle
 10
275.4776
 20
208.147307
 30
0.0
 40
2.0
100
AcDbArc
 50
30.48931
 51
90.0
  0
ARC
  5
A12B
330
A06F
100
AcDbEntity
  8
1
  6
Continuous
100
AcDbCircle
 10
249.228293
 20
208.147307
 30
0.0
 40
2.0
100
AcDbArc
 50
90.0
 51
149.5106899999998
  0
ARC
  5
A12C
330
A06F
100
AcDbEntity
  8
1
  6
Continuous
100
AcDbCircle
 10
278.352946
 20
178.6890629999998
 30
0.0
 40
3.0
100
AcDbArc
 50
150.583972
 51
180.0
  0
ARC
  5
A12D
330
A06F
100
AcDbEntity
  8
1
  6
Continuous
100
AcDbCircle
 10
246.352946
 20
178.6890629999998
 30
0.0
 40
3.0
100
AcDbArc
 50
0.0
 51
29.416028
  0
LINE
  5
A12E
330
A06F
100
AcDbEntity
  8
4
  6
CENTER
 48
0.8
100
AcDbLine
 10
179.852946
 20
44.77971099999999
 30
0.0
 11
179.852946
 21
92.779711
 31
0.0
  0
LINE
  5
A12F
330
A06F
100
AcDbEntity
  8
4
  6
CENTER
 48
0.8
100
AcDbLine
 10
203.8529459999999
 20
68.77971099999999
 30
0.0
 11
108.352946
 21
68.77971099999999
 31
0.0
  0
LINE
  5
A130
330
A06F
100
AcDbEntity
  8
1
  6
Continuous
100
AcDbLine
 10
143.1529459999999
 20
312.824967
 30
0.0
 11
145.8164179999999
 21
312.824967
 31
0.0
  0
LINE
  5
A131
330
A06F
100
AcDbEntity
  8
1
  6
Continuous
100
AcDbLine
 10
143.1529459999999
 20
310.824967
 30
0.0
 11
144.9247469999999
 21
310.824967
 31
0.0
  0
LINE
  5
A132
330
A06F
100
AcDbEntity
  8
4
  6
CENTER
 48
0.8
100
AcDbLine
 10
150.852946
 20
42.17112899999999
 30
0.0
 11
150.852946
 21
91.27779403719214
 31
0.0
  0
LINE
  5
A133
330
A06F
100
AcDbEntity
  8
1
  6
Continuous
100
AcDbLine
 10
143.2499699999999
 20
81.77971099999998
 30
0.0
 11
166.8914649999998
 21
81.77971099999998
 31
0.0
  0
LINE
  5
A134
330
A06F
100
AcDbEntity
  8
1
  6
Continuous
100
AcDbLine
 10
143.2499699999999
 20
83.77971099999998
 30
0.0
 11
166.8914649999998
 21
83.77971099999998
 31
0.0
  0
LINE
  5
A135
330
A06F
100
AcDbEntity
  8
1
  6
Continuous
100
AcDbLine
 10
143.2499699999999
 20
53.77971099999999
 30
0.0
 11
166.852946
 21
53.77971099999999
 31
0.0
  0
LINE
  5
A136
330
A06F
100
AcDbEntity
  8
1
  6
Continuous
100
AcDbLine
 10
143.2499699999999
 20
55.779711
 30
0.0
 11
166.852946
 21
55.779711
 31
0.0
  0
ARC
  5
A137
330
A06F
100
AcDbEntity
  8
1
  6
Continuous
100
AcDbCircle
 10
179.852946
 20
68.77971099999999
 30
0.0
 40
19.0
100
AcDbArc
 50
235.6988470000001
 51
124.301153
  0
ARC
  5
A138
330
A06F
100
AcDbEntity
  8
1
  6
Continuous
100
AcDbCircle
 10
179.852946
 20
68.77971099999999
 30
0.0
 40
17.0
100
AcDbArc
 50
235.6988470000001
 51
124.301153
  0
LINE
  5
A139
330
A06F
100
AcDbEntity
  8
1
  6
Continuous
100
AcDbLine
 10
143.2499699999999
 20
83.77971099999998
 30
0.0
 11
143.2499699999999
 21
81.77971099999998
 31
0.0
  0
LINE
  5
A13A
330
A06F
100
AcDbEntity
  8
1
  6
Continuous
100
AcDbLine
 10
143.2499699999999
 20
55.779711
 30
0.0
 11
143.2499699999999
 21
53.77971099999999
 31
0.0
  0
ARC
  5
A13B
330
A06F
100
AcDbEntity
  8
1
  6
Continuous
100
AcDbCircle
 10
166.8914649999998
 20
87.779711
 30
0.0
 40
4.0
100
AcDbArc
 50
270.0
 51
304.301153
  0
ARC
  5
A13C
330
A06F
100
AcDbEntity
  8
1
  6
Continuous
100
AcDbCircle
 10
166.8914649999998
 20
87.779711
 30
0.0
 40
6.0
100
AcDbArc
 50
270.0
 51
304.301153
  0
ARC
  5
A13D
330
A06F
100
AcDbEntity
  8
1
  6
Continuous
100
AcDbCircle
 10
166.8914649999998
 20
49.779711
 30
0.0
 40
4.0
100
AcDbArc
 50
55.69884700000001
 51
90.0
  0
ARC
  5
A13E
330
A06F
100
AcDbEntity
  8
1
  6
Continuous
100
AcDbCircle
 10
166.8914649999998
 20
49.779711
 30
0.0
 40
6.0
100
AcDbArc
 50
55.69884700000001
 51
90.0
  0
ARC
  5
A13F
330
A06F
100
AcDbEntity
  8
1
  6
Continuous
100
AcDbCircle
 10
179.852946
 20
68.77971099999999
 30
0.0
 40
13.0
100
AcDbArc
 50
233.8710729999998
 51
126.128927
  0
ARC
  5
A140
330
A06F
100
AcDbEntity
  8
1
  6
Continuous
100
AcDbCircle
 10
179.852946
 20
68.77971099999999
 30
0.0
 40
10.0
100
AcDbArc
 50
325.8365559999998
 51
34.16344399999999
  0
LINE
  5
A141
330
A06F
100
AcDbEntity
  8
4
  6
CENTER
 48
0.8
100
AcDbLine
 10
150.852946
 20
352.433549
 30
0.0
 11
150.852946
 21
303.3268839628078
 31
0.0
  0
LINE
  5
A142
330
A06F
100
AcDbEntity
  8
1
  6
Continuous
100
AcDbLine
 10
143.1529459999999
 20
310.824967
 30
0.0
 11
143.1529459999999
 21
312.824967
 31
0.0
  0
ARC
  5
A143
330
A06F
100
AcDbEntity
  8
1
  6
Continuous
100
AcDbCircle
 10
178.885863
 20
325.824967
 30
0.0
 40
35.53291699999999
100
AcDbArc
 50
155.0299929999999
 51
204.970007
  0
ARC
  5
A144
330
A06F
100
AcDbEntity
  8
1
  6
Continuous
100
AcDbCircle
 10
178.885863
 20
68.77971099999999
 30
0.0
 40
35.53291699999999
100
AcDbArc
 50
158.539609
 51
160.262278
  0
ARC
  5
A145
330
A06F
100
AcDbEntity
  8
1
  6
Continuous
100
AcDbCircle
 10
178.885863
 20
68.77971099999999
 30
0.0
 40
35.53291699999999
100
AcDbArc
 50
199.7377219999999
 51
201.4603909999999
  0
LINE
  5
A146
330
A06F
100
AcDbEntity
  8
4
  6
CENTER
 48
0.8
100
AcDbLine
 10
373.8529459999999
 20
207.831686
 30
0.0
 11
373.8529459999999
 21
127.279711
 31
0.0
  0
LINE
  5
A147
330
A06F
100
AcDbEntity
  8
4
  6
CENTER
 48
0.8
100
AcDbLine
 10
416.3529459999998
 20
169.7797109999999
 30
0.0
 11
331.3529459999998
 21
169.7797109999999
 31
0.0
  0
LINE
  5
A148
330
A06F
100
AcDbEntity
  8
1
  6
Continuous
100
AcDbLine
 10
368.1164309999999
 20
163.796286
 30
0.0
 11
335.0003389999999
 21
206.688705
 31
0.0
  0
LINE
  5
A149
330
A06F
100
AcDbEntity
  8
1
  6
Continuous
100
AcDbLine
 10
360.8529459999999
 20
218.17971
 30
0.0
 11
328.8529459999998
 21
218.17971
 31
0.0
  0
LINE
  5
A14A
330
A06F
100
AcDbEntity
  8
1
  6
Continuous
100
AcDbLine
 10
377.6843519999998
 20
210.839493
 30
0.0
 11
381.5215059999999
 21
169.065737
 31
0.0
  0
LINE
  5
A14B
330
A06F
100
AcDbEntity
  8
1
  6
Continuous
100
AcDbLine
 10
357.8529459999999
 20
215.279736
 30
0.0
 11
357.8529459999999
 21
180.212679
 31
0.0
  0
LINE
  5
A14C
330
A06F
100
AcDbEntity
  8
4
  6
CENTER
 48
0.8
100
AcDbLine
 10
344.8529459999999
 20
267.279712
 30
0.0
 11
344.8529459999999
 21
187.4330389999999
 31
0.0
  0
ARC
  5
A14D
330
A06F
100
AcDbEntity
  8
1
  6
Continuous
100
AcDbCircle
 10
374.052947
 20
168.3797089999998
 30
0.0
 40
7.5
100
AcDbArc
 50
217.6707799999999
 51
5.248219999999998
  0
LINE
  5
A14E
330
A06F
100
AcDbEntity
  8
1
  6
Continuous
100
AcDbLine
 10
381.3529469999999
 20
212.22346
 30
0.0
 11
361.040089
 21
215.8051649999999
 31
0.0
  0
LINE
  5
A14F
330
A06F
100
AcDbEntity
  8
1
  6
Continuous
100
AcDbLine
 10
378.031646
 20
212.809095
 30
0.0
 11
377.684349
 21
210.8394799999999
 31
0.0
  0
LINE
  5
A150
330
A06F
100
AcDbEntity
  8
1
  6
Continuous
100
AcDbLine
 10
381.3529459999998
 20
212.2234579999999
 30
0.0
 11
381.005649
 21
210.253841
 31
0.0
  0
LINE
  5
A151
330
A06F
100
AcDbEntity
  8
1
  6
Continuous
100
AcDbLine
 10
381.005655
 20
210.253844
 30
0.0
 11
377.6843509999998
 21
210.8394799999999
 31
0.0
  0
ARC
  5
A152
330
A06F
100
AcDbEntity
  8
1
  6
Continuous
100
AcDbCircle
 10
357.6029459999999
 20
219.3242129999999
 30
0.0
 40
1.984499999999996
100
AcDbArc
 50
324.77977
 51
350.0029399999998
  0
ARC
  5
A153
330
A06F
100
AcDbEntity
  8
1
  6
Continuous
100
AcDbCircle
 10
356.9535319999998
 20
219.3242129999999
 30
0.0
 40
1.984499999999996
100
AcDbArc
 50
324.77977
 51
350.00293
  0
ARC
  5
A154
330
A06F
100
AcDbEntity
  8
1
  6
Continuous
100
AcDbCircle
 10
355.1319299999998
 20
219.3242129999999
 30
0.0
 40
1.984499999999996
100
AcDbArc
 50
324.77977
 51
350.0029399999998
  0
ARC
  5
A155
330
A06F
100
AcDbEntity
  8
1
  6
Continuous
100
AcDbCircle
 10
352.314265
 20
219.3242129999999
 30
0.0
 40
1.984499999999996
100
AcDbArc
 50
324.77977
 51
350.0029399999998
  0
ARC
  5
A156
330
A06F
100
AcDbEntity
  8
1
  6
Continuous
100
AcDbCircle
 10
344.8529459999999
 20
219.3242129999999
 30
0.0
 40
1.984499999999996
100
AcDbArc
 50
324.77977
 51
350.0029399999998
  0
ARC
  5
A157
330
A06F
100
AcDbEntity
  8
1
  6
Continuous
100
AcDbCircle
 10
348.7735699999998
 20
219.3242129999999
 30
0.0
 40
1.984499999999996
100
AcDbArc
 50
324.77977
 51
350.0029599999999
  0
ARC
  5
A158
330
A06F
100
AcDbEntity
  8
1
  6
Continuous
100
AcDbCircle
 10
344.8529459999999
 20
219.3242129999999
 30
0.0
 40
1.984499999999996
100
AcDbArc
 50
189.99701
 51
215.22025
  0
ARC
  5
A159
330
A06F
100
AcDbEntity
  8
1
  6
Continuous
100
AcDbCircle
 10
340.932322
 20
219.3242129999999
 30
0.0
 40
1.984499999999996
100
AcDbArc
 50
324.77977
 51
350.00301
  0
ARC
  5
A15A
330
A06F
100
AcDbEntity
  8
1
  6
Continuous
100
AcDbCircle
 10
352.314265
 20
219.3242129999999
 30
0.0
 40
1.984499999999996
100
AcDbArc
 50
206.8632199999999
 51
215.22025
  0
ARC
  5
A15B
330
A06F
100
AcDbEntity
  8
1
  6
Continuous
100
AcDbCircle
 10
348.7735699999998
 20
219.3242129999999
 30
0.0
 40
1.984499999999996
100
AcDbArc
 50
189.99695
 51
215.22025
  0
LINE
  5
A15C
330
A06F
100
AcDbEntity
  8
1
  6
Continuous
100
AcDbLine
 10
329.5298139999998
 20
209.7501199999999
 30
0.0
 11
325.8529459999998
 21
210.1473069999999
 31
0.0
  0
ARC
  5
A15D
330
A06F
100
AcDbEntity
  8
1
  6
Continuous
100
AcDbCircle
 10
328.6706259999998
 20
201.796391
 30
0.0
 40
8.0
100
AcDbArc
 50
37.67077
 51
83.83463799999999
  0
LINE
  5
A15E
330
A06F
100
AcDbEntity
  8
1
  6
Continuous
100
AcDbLine
 10
325.8529459999998
 20
215.17971
 30
0.0
 11
325.8529459999998
 21
210.1473069999999
 31
0.0
  0
ARC
  5
A15F
330
A06F
100
AcDbEntity
  8
1
  6
Continuous
100
AcDbCircle
 10
328.8529459999998
 20
215.17971
 30
0.0
 40
3.0
100
AcDbArc
 50
90.0
 51
180.0
  0
ARC
  5
A160
330
A06F
100
AcDbEntity
  8
1
  6
Continuous
100
AcDbCircle
 10
337.391627
 20
219.3242129999999
 30
0.0
 40
1.984499999999996
100
AcDbArc
 50
189.99701
 51
215.22025
  0
ARC
  5
A161
330
A06F
100
AcDbEntity
  8
1
  6
Continuous
100
AcDbCircle
 10
340.932322
 20
219.3242129999999
 30
0.0
 40
1.984499999999996
100
AcDbArc
 50
189.99701
 51
215.22025
  0
ARC
  5
A162
330
A06F
100
AcDbEntity
  8
1
  6
Continuous
100
AcDbCircle
 10
332.1029459999998
 20
219.3242129999999
 30
0.0
 40
1.984499999999996
100
AcDbArc
 50
189.99701
 51
215.2203199999999
  0
ARC
  5
A163
330
A06F
100
AcDbEntity
  8
1
  6
Continuous
100
AcDbCircle
 10
332.75236
 20
219.3242129999999
 30
0.0
 40
1.984499999999996
100
AcDbArc
 50
189.99701
 51
215.22025
  0
ARC
  5
A164
330
A06F
100
AcDbEntity
  8
1
  6
Continuous
100
AcDbCircle
 10
334.5739619999998
 20
219.3242129999999
 30
0.0
 40
1.984499999999996
100
AcDbArc
 50
189.99701
 51
215.22025
  0
ARC
  5
A165
330
A06F
100
AcDbEntity
  8
1
  6
Continuous
100
AcDbCircle
 10
337.391627
 20
219.3242129999999
 30
0.0
 40
1.984499999999996
100
AcDbArc
 50
324.77977
 51
333.13675
  0
LINE
  5
A166
330
A06F
100
AcDbEntity
  8
1
  6
Continuous
100
AcDbLine
 10
282.9529459999998
 20
172.779711
 30
0.0
 11
281.952946
 21
172.779711
 31
0.0
  0
LINE
  5
A167
330
A06F
100
AcDbEntity
  8
1
  6
Continuous
100
AcDbLine
 10
282.9529459999998
 20
166.7797109999999
 30
0.0
 11
281.952946
 21
166.7797109999999
 31
0.0
  0
LINE
  5
A168
330
A06F
100
AcDbEntity
  8
1
  6
Continuous
100
AcDbLine
 10
283.9529459999998
 20
171.779711
 30
0.0
 11
283.9529459999998
 21
167.779711
 31
0.0
  0
LINE
  5
A169
330
A06F
100
AcDbEntity
  8
2
  6
Continuous
100
AcDbLine
 10
283.4944459999998
 20
172.238211
 30
0.0
 11
281.952946
 21
172.238211
 31
0.0
  0
LINE
  5
A16A
330
A06F
100
AcDbEntity
  8
2
  6
Continuous
100
AcDbLine
 10
283.4944459999998
 20
167.321211
 30
0.0
 11
281.952946
 21
167.321211
 31
0.0
  0
LINE
  5
A16B
330
A06F
100
AcDbEntity
  8
1
  6
Continuous
100
AcDbLine
 10
282.9529459999998
 20
172.779711
 30
0.0
 11
282.9529459999998
 21
166.7797109999999
 31
0.0
  0
LINE
  5
A16C
330
A06F
100
AcDbEntity
  8
1
  6
Continuous
100
AcDbLine
 10
283.9529459999998
 20
171.779711
 30
0.0
 11
282.9529459999998
 21
172.779711
 31
0.0
  0
LINE
  5
A16D
330
A06F
100
AcDbEntity
  8
1
  6
Continuous
100
AcDbLine
 10
283.9529459999998
 20
167.779711
 30
0.0
 11
282.9529459999998
 21
166.7797109999999
 31
0.0
  0
LINE
  5
A16E
330
A06F
100
AcDbEntity
  8
1
  6
Continuous
100
AcDbLine
 10
368.8529459999998
 20
172.492959
 30
0.0
 11
373.8529459999999
 21
175.3797109999999
 31
0.0
  0
LINE
  5
A16F
330
A06F
100
AcDbEntity
  8
1
  6
Continuous
100
AcDbLine
 10
378.8529459999999
 20
172.492959
 30
0.0
 11
373.8529459999999
 21
175.3797109999999
 31
0.0
  0
LINE
  5
A170
330
A06F
100
AcDbEntity
  8
1
  6
Continuous
100
AcDbLine
 10
378.8529459999999
 20
167.066462
 30
0.0
 11
378.8529459999999
 21
172.492959
 31
0.0
  0
LINE
  5
A171
330
A06F
100
AcDbEntity
  8
1
  6
Continuous
100
AcDbLine
 10
368.8529459999998
 20
167.066462
 30
0.0
 11
373.8529459999999
 21
164.1797109999999
 31
0.0
  0
CIRCLE
  5
A172
330
A06F
100
AcDbEntity
  8
1
  6
Continuous
100
AcDbCircle
 10
373.8529459999999
 20
169.7797109999999
 30
0.0
 40
2.0
  0
CIRCLE
  5
A173
330
A06F
100
AcDbEntity
  8
2
  6
Continuous
100
AcDbCircle
 10
373.8529459999999
 20
169.7797109999999
 30
0.0
 40
2.458499999999999
  0
LINE
  5
A174
330
A06F
100
AcDbEntity
  8
1
  6
Continuous
100
AcDbLine
 10
368.8529459999998
 20
167.066462
 30
0.0
 11
368.8529459999998
 21
172.492959
 31
0.0
  0
LINE
  5
A175
330
A06F
100
AcDbEntity
  8
1
  6
Continuous
100
AcDbLine
 10
378.8529459999999
 20
167.066462
 30
0.0
 11
373.8529459999999
 21
164.1797109999999
 31
0.0
  0
CIRCLE
  5
A176
330
A06F
100
AcDbEntity
  8
1
  6
Continuous
100
AcDbCircle
 10
373.8529459999999
 20
169.7797109999999
 30
0.0
 40
3.799999999999998
  0
CIRCLE
  5
A177
330
A06F
100
AcDbEntity
  8
1
  6
Continuous
100
AcDbCircle
 10
373.8529459999999
 20
169.7797109999999
 30
0.0
 40
3.0
  0
LINE
  5
A178
330
A06F
100
AcDbEntity
  8
1
  6
Continuous
100
AcDbLine
 10
28.252946
 20
167.779711
 30
0.0
 11
29.252946
 21
166.7797109999999
 31
0.0
  0
LINE
  5
A179
330
A06F
100
AcDbEntity
  8
1
  6
Continuous
100
AcDbLine
 10
28.252946
 20
171.779711
 30
0.0
 11
29.252946
 21
172.779711
 31
0.0
  0
LINE
  5
A17A
330
A06F
100
AcDbEntity
  8
1
  6
Continuous
100
AcDbLine
 10
29.252946
 20
172.779711
 30
0.0
 11
29.252946
 21
166.7797109999999
 31
0.0
  0
LINE
  5
A17B
330
A06F
100
AcDbEntity
  8
1
  6
Continuous
100
AcDbLine
 10
28.252946
 20
171.779711
 30
0.0
 11
28.252946
 21
167.779711
 31
0.0
  0
LINE
  5
A17C
330
A06F
100
AcDbEntity
  8
2
  6
Continuous
100
AcDbLine
 10
28.711446
 20
167.321211
 30
0.0
 11
30.252946
 21
167.321211
 31
0.0
  0
LINE
  5
A17D
330
A06F
100
AcDbEntity
  8
1
  6
Continuous
100
AcDbLine
 10
29.252946
 20
166.7797109999999
 30
0.0
 11
30.252946
 21
166.7797109999999
 31
0.0
  0
LINE
  5
A17E
330
A06F
100
AcDbEntity
  8
2
  6
Continuous
100
AcDbLine
 10
28.711446
 20
172.238211
 30
0.0
 11
30.252946
 21
172.238211
 31
0.0
  0
LINE
  5
A17F
330
A06F
100
AcDbEntity
  8
1
  6
Continuous
100
AcDbLine
 10
29.252946
 20
172.779711
 30
0.0
 11
30.252946
 21
172.779711
 31
0.0
  0
LINE
  5
A180
330
A06F
100
AcDbEntity
  8
1
  6
Continuous
100
AcDbLine
 10
338.8529459999998
 20
260.279712
 30
0.0
 11
338.8529459999998
 21
227.2797119999999
 31
0.0
  0
LINE
  5
A181
330
A06F
100
AcDbEntity
  8
1
  6
Continuous
100
AcDbLine
 10
350.8529459999999
 20
260.279712
 30
0.0
 11
350.8529459999999
 21
227.2797119999999
 31
0.0
  0
LINE
  5
A182
330
A06F
100
AcDbEntity
  8
2
  6
Continuous
100
AcDbLine
 10
349.9059459999998
 20
261.226712
 30
0.0
 11
349.9059459999998
 21
228.919964
 31
0.0
  0
LINE
  5
A183
330
A06F
100
AcDbEntity
  8
2
  6
Continuous
100
AcDbLine
 10
339.7999459999998
 20
261.226712
 30
0.0
 11
339.7999459999998
 21
228.919964
 31
0.0
  0
LINE
  5
A184
330
A06F
100
AcDbEntity
  8
1
  6
Continuous
100
AcDbLine
 10
268.3529459999999
 20
260.279712
 30
0.0
 11
268.3529459999999
 21
227.2797119999999
 31
0.0
  0
LINE
  5
A185
330
A06F
100
AcDbEntity
  8
2
  6
Continuous
100
AcDbLine
 10
267.4059459999999
 20
261.226712
 30
0.0
 11
267.4059459999999
 21
228.919964
 31
0.0
  0
LINE
  5
A186
330
A06F
100
AcDbEntity
  8
1
  6
Continuous
100
AcDbLine
 10
256.3529459999999
 20
260.279712
 30
0.0
 11
256.3529459999999
 21
227.2797119999999
 31
0.0
  0
LINE
  5
A187
330
A06F
100
AcDbEntity
  8
2
  6
Continuous
100
AcDbLine
 10
257.2999459999999
 20
261.226712
 30
0.0
 11
257.2999459999999
 21
228.919964
 31
0.0
  0
LINE
  5
A188
330
A06F
100
AcDbEntity
  8
1
  6
Continuous
100
AcDbLine
 10
278.6529489999999
 20
220.579707
 30
0.0
 11
246.052943
 21
220.579707
 31
0.0
  0
LINE
  5
A189
330
A06F
100
AcDbEntity
  8
1
  6
Continuous
100
AcDbLine
 10
248.5529479999999
 20
223.0797069999999
 30
0.0
 11
276.152949
 21
223.0797069999999
 31
0.0
  0
LINE
  5
A18A
330
A06F
100
AcDbEntity
  8
1
  6
Continuous
100
AcDbLine
 10
252.538783
 20
227.2797119999999
 30
0.0
 11
272.167109
 21
227.2797119999999
 31
0.0
  0
LINE
  5
A18B
330
A06F
100
AcDbEntity
  8
1
  6
Continuous
100
AcDbLine
 10
278.6529489999999
 20
218.9797089999999
 30
0.0
 11
246.052943
 21
218.9797089999999
 31
0.0
  0
ARC
  5
A18C
330
A06F
100
AcDbEntity
  8
1
  6
Continuous
100
AcDbCircle
 10
249.6868389999999
 20
219.7684699999999
 30
0.0
 40
3.5
100
AcDbArc
 50
108.9031
 51
162.9964699999999
  0
ARC
  5
A18D
330
A06F
100
AcDbEntity
  8
1
  6
Continuous
100
AcDbCircle
 10
246.052943
 20
220.879707
 30
0.0
 40
0.3
100
AcDbArc
 50
270.00002
 51
342.9964799999999
  0
LINE
  5
A18E
330
A06F
100
AcDbEntity
  8
1
  6
Continuous
100
AcDbLine
 10
246.052943
 20
220.579707
 30
0.0
 11
246.052943
 21
218.9797089999999
 31
0.0
  0
ARC
  5
A18F
330
A06F
100
AcDbEntity
  8
1
  6
Continuous
100
AcDbCircle
 10
257.7529479999999
 20
225.0297119999999
 30
0.0
 40
6.0
100
AcDbArc
 50
161.4469
 51
198.96558
  0
ARC
  5
A190
330
A06F
100
AcDbEntity
  8
1
  6
Continuous
100
AcDbCircle
 10
252.538783
 20
226.7797119999999
 30
0.0
 40
0.5
100
AcDbArc
 50
89.99998199999996
 51
161.44681
  0
LINE
  5
A191
330
A06F
100
AcDbEntity
  8
2
  6
Continuous
100
AcDbLine
 10
267.4059459999999
 20
228.919964
 30
0.0
 11
268.3529459999999
 21
227.2797119999999
 31
0.0
  0
ARC
  5
A192
330
A06F
100
AcDbEntity
  8
1
  6
Continuous
100
AcDbCircle
 10
263.5550749999998
 20
225.0297119999999
 30
0.0
 40
3.5
100
AcDbArc
 50
326.14148
 51
40.005224
  0
ARC
  5
A193
330
A06F
100
AcDbEntity
  8
1
  6
Continuous
100
AcDbCircle
 10
271.729121
 20
225.0297119999999
 30
0.0
 40
3.5
100
AcDbArc
 50
139.99477
 51
213.8584799999999
  0
LINE
  5
A194
330
A06F
100
AcDbEntity
  8
2
  6
Continuous
100
AcDbLine
 10
257.2999459999999
 20
228.919964
 30
0.0
 11
256.3529459999999
 21
227.2797119999999
 31
0.0
  0
ARC
  5
A195
330
A06F
100
AcDbEntity
  8
1
  6
Continuous
100
AcDbCircle
 10
261.15082
 20
225.0297119999999
 30
0.0
 40
3.5
100
AcDbArc
 50
139.99471
 51
213.8584799999999
  0
ARC
  5
A196
330
A06F
100
AcDbEntity
  8
1
  6
Continuous
100
AcDbCircle
 10
252.9767709999999
 20
225.0297119999999
 30
0.0
 40
3.5
100
AcDbArc
 50
326.14148
 51
40.005169
  0
LINE
  5
A197
330
A06F
100
AcDbEntity
  8
1
  6
Continuous
100
AcDbLine
 10
256.3529459999999
 20
228.919964
 30
0.0
 11
268.3529459999999
 21
228.919964
 31
0.0
  0
ARC
  5
A198
330
A06F
100
AcDbEntity
  8
1
  6
Continuous
100
AcDbCircle
 10
275.0190529999998
 20
219.7684699999999
 30
0.0
 40
3.5
100
AcDbArc
 50
17.003496
 51
71.09685999999998
  0
ARC
  5
A199
330
A06F
100
AcDbEntity
  8
1
  6
Continuous
100
AcDbCircle
 10
278.6529489999999
 20
220.879707
 30
0.0
 40
0.3
100
AcDbArc
 50
197.00351
 51
269.9999599999998
  0
LINE
  5
A19A
330
A06F
100
AcDbEntity
  8
1
  6
Continuous
100
AcDbLine
 10
278.6529489999999
 20
220.579707
 30
0.0
 11
278.6529489999999
 21
218.9797089999999
 31
0.0
  0
ARC
  5
A19B
330
A06F
100
AcDbEntity
  8
1
  6
Continuous
100
AcDbCircle
 10
266.952944
 20
225.0297119999999
 30
0.0
 40
6.0
100
AcDbArc
 50
341.03438
 51
18.553034
  0
ARC
  5
A19C
330
A06F
100
AcDbEntity
  8
1
  6
Continuous
100
AcDbCircle
 10
272.167109
 20
226.7797119999999
 30
0.0
 40
0.5
100
AcDbArc
 50
18.55312999999998
 51
89.99996800000003
  0
ARC
  5
A19D
330
A06F
100
AcDbEntity
  8
1
  6
Continuous
100
AcDbCircle
 10
357.5190529999999
 20
219.7684699999999
 30
0.0
 40
3.5
100
AcDbArc
 50
17.003496
 51
71.09685999999998
  0
LINE
  5
A19E
330
A06F
100
AcDbEntity
  8
1
  6
Continuous
100
AcDbLine
 10
361.1529489999999
 20
220.579707
 30
0.0
 11
328.552943
 21
220.579707
 31
0.0
  0
LINE
  5
A19F
330
A06F
100
AcDbEntity
  8
1
  6
Continuous
100
AcDbLine
 10
361.1529489999999
 20
218.9797089999999
 30
0.0
 11
328.552943
 21
218.9797089999999
 31
0.0
  0
ARC
  5
A1A0
330
A06F
100
AcDbEntity
  8
1
  6
Continuous
100
AcDbCircle
 10
332.186839
 20
219.7684699999999
 30
0.0
 40
3.5
100
AcDbArc
 50
108.9031
 51
162.9964699999999
  0
ARC
  5
A1A1
330
A06F
100
AcDbEntity
  8
1
  6
Continuous
100
AcDbCircle
 10
328.552943
 20
220.879707
 30
0.0
 40
0.3
100
AcDbArc
 50
270.00002
 51
342.9964799999999
  0
LINE
  5
A1A2
330
A06F
100
AcDbEntity
  8
1
  6
Continuous
100
AcDbLine
 10
328.552943
 20
220.579707
 30
0.0
 11
328.552943
 21
218.9797089999999
 31
0.0
  0
LINE
  5
A1A3
330
A06F
100
AcDbEntity
  8
1
  6
Continuous
100
AcDbLine
 10
338.8529459999998
 20
228.919964
 30
0.0
 11
350.8529459999999
 21
228.919964
 31
0.0
  0
LINE
  5
A1A4
330
A06F
100
AcDbEntity
  8
1
  6
Continuous
100
AcDbLine
 10
335.3529459999998
 20
227.2797119999999
 30
0.0
 11
354.3529459999998
 21
227.2797119999999
 31
0.0
  0
LINE
  5
A1A5
330
A06F
100
AcDbEntity
  8
1
  6
Continuous
100
AcDbLine
 10
358.652945
 20
223.0797069999999
 30
0.0
 11
331.052943
 21
223.0797069999999
 31
0.0
  0
LINE
  5
A1A6
330
A06F
100
AcDbEntity
  8
2
  6
Continuous
100
AcDbLine
 10
339.7999459999998
 20
228.919964
 30
0.0
 11
338.8529459999998
 21
227.2797119999999
 31
0.0
  0
LINE
  5
A1A7
330
A06F
100
AcDbEntity
  8
1
  6
Continuous
100
AcDbLine
 10
335.3529459999998
 20
227.2797119999999
 30
0.0
 11
335.3529459999998
 21
223.0797069999999
 31
0.0
  0
ARC
  5
A1A8
330
A06F
100
AcDbEntity
  8
1
  6
Continuous
100
AcDbCircle
 10
338.8529459999998
 20
225.0297119999999
 30
0.0
 40
3.0
100
AcDbArc
 50
131.4096399999999
 51
220.5416599999999
  0
LINE
  5
A1A9
330
A06F
100
AcDbEntity
  8
1
  6
Continuous
100
AcDbLine
 10
354.3529459999998
 20
227.2797119999999
 30
0.0
 11
354.3529459999998
 21
223.0797069999999
 31
0.0
  0
ARC
  5
A1AA
330
A06F
100
AcDbEntity
  8
1
  6
Continuous
100
AcDbCircle
 10
350.8529459999999
 20
225.0297119999999
 30
0.0
 40
3.0
100
AcDbArc
 50
319.45831
 51
48.590321
  0
ARC
  5
A1AB
330
A06F
100
AcDbEntity
  8
1
  6
Continuous
100
AcDbCircle
 10
348.8529459999999
 20
225.0297119999999
 30
0.0
 40
3.5
100
AcDbArc
 50
139.9947899999999
 51
213.8584799999999
  0
ARC
  5
A1AC
330
A06F
100
AcDbEntity
  8
1
  6
Continuous
100
AcDbCircle
 10
340.852946
 20
225.0297119999999
 30
0.0
 40
3.5
100
AcDbArc
 50
326.14148
 51
40.005173
  0
LINE
  5
A1AD
330
A06F
100
AcDbEntity
  8
2
  6
Continuous
100
AcDbLine
 10
349.9059459999998
 20
228.919964
 30
0.0
 11
350.8529459999999
 21
227.2797119999999
 31
0.0
  0
ARC
  5
A1AE
330
A06F
100
AcDbEntity
  8
1
  6
Continuous
100
AcDbCircle
 10
361.1529489999999
 20
220.879707
 30
0.0
 40
0.3
100
AcDbArc
 50
197.00351
 51
269.9999599999998
  0
LINE
  5
A1AF
330
A06F
100
AcDbEntity
  8
1
  6
Continuous
100
AcDbLine
 10
361.1529489999999
 20
220.579707
 30
0.0
 11
361.1529489999999
 21
218.9797089999999
 31
0.0
  0
LINE
  5
A1B0
330
A06F
100
AcDbEntity
  8
1
  6
Continuous
100
AcDbLine
 10
180.9841639999999
 20
336.1218579999998
 30
0.0
 11
188.2229459999997
 21
331.942545
 31
0.0
  0
LINE
  5
A1B1
330
A06F
100
AcDbEntity
  8
1
  6
Continuous
100
AcDbLine
 10
180.9841639999999
 20
315.528076
 30
0.0
 11
188.2229459999997
 21
319.7073889999998
 31
0.0
  0
CIRCLE
  5
A1B2
330
A06F
100
AcDbEntity
  8
1
  6
Continuous
100
AcDbCircle
 10
179.852946
 20
325.824967
 30
0.0
 40
4.0
  0
LINE
  5
A1B3
330
A06F
100
AcDbEntity
  8
1
  6
Continuous
100
AcDbLine
 10
170.352946
 20
321.6646059999998
 30
0.0
 11
170.352946
 21
329.9853279999998
 31
0.0
  0
CIRCLE
  5
A1B4
330
A06F
100
AcDbEntity
  8
1
  6
Continuous
100
AcDbCircle
 10
179.852946
 20
325.824967
 30
0.0
 40
6.0
  0
CIRCLE
  5
A1B5
330
A06F
100
AcDbEntity
  8
2
  6
Continuous
100
AcDbCircle
 10
179.852946
 20
325.824967
 30
0.0
 40
5.052999999999999
  0
LINE
  5
A1B6
330
A06F
100
AcDbEntity
  8
1
  6
Continuous
100
AcDbLine
 10
266.3529459999999
 20
262.279712
 30
0.0
 11
268.3529459999999
 21
260.279712
 31
0.0
  0
LINE
  5
A1B7
330
A06F
100
AcDbEntity
  8
1
  6
Continuous
100
AcDbLine
 10
258.3529459999999
 20
262.279712
 30
0.0
 11
256.3529459999999
 21
260.279712
 31
0.0
  0
LINE
  5
A1B8
330
A06F
100
AcDbEntity
  8
1
  6
Continuous
100
AcDbLine
 10
258.3529459999999
 20
262.279712
 30
0.0
 11
266.3529459999999
 21
262.279712
 31
0.0
  0
LINE
  5
A1B9
330
A06F
100
AcDbEntity
  8
1
  6
Continuous
100
AcDbLine
 10
256.3529459999999
 20
260.279712
 30
0.0
 11
268.3529459999999
 21
260.279712
 31
0.0
  0
ARC
  5
A1BA
330
A06F
100
AcDbEntity
  8
1
  6
Continuous
100
AcDbCircle
 10
172.6129459999999
 20
321.6646059999998
 30
0.0
 40
2.259999999999998
100
AcDbArc
 50
180.0
 51
239.9999999999999
  0
ARC
  5
A1BB
330
A06F
100
AcDbEntity
  8
1
  6
Continuous
100
AcDbCircle
 10
179.852946
 20
317.4874029999998
 30
0.0
 40
2.262436
100
AcDbArc
 50
239.9999999999999
 51
300.0
  0
LINE
  5
A1BC
330
A06F
100
AcDbEntity
  8
1
  6
Continuous
100
AcDbLine
 10
171.4829459999999
 20
319.7073889999998
 30
0.0
 11
178.721729
 21
315.528076
 31
0.0
  0
ARC
  5
A1BD
330
A06F
100
AcDbEntity
  8
1
  6
Continuous
100
AcDbCircle
 10
172.6129459999999
 20
329.9853279999998
 30
0.0
 40
2.259999999999998
100
AcDbArc
 50
119.9999999999999
 51
180.0
  0
ARC
  5
A1BE
330
A06F
100
AcDbEntity
  8
1
  6
Continuous
100
AcDbCircle
 10
179.852946
 20
334.1625309999999
 30
0.0
 40
2.262436
100
AcDbArc
 50
60.0
 51
119.9999999999999
  0
LINE
  5
A1BF
330
A06F
100
AcDbEntity
  8
1
  6
Continuous
100
AcDbLine
 10
171.4829459999999
 20
331.942545
 30
0.0
 11
178.721729
 21
336.1218579999998
 31
0.0
  0
LINE
  5
A1C0
330
A06F
100
AcDbEntity
  8
1
  6
Continuous
100
AcDbLine
 10
189.352946
 20
321.6646059999998
 30
0.0
 11
189.352946
 21
329.9853279999998
 31
0.0
  0
LINE
  5
A1C1
330
A06F
100
AcDbEntity
  8
1
  6
Continuous
100
AcDbLine
 10
340.852946
 20
262.279712
 30
0.0
 11
348.8529459999999
 21
262.279712
 31
0.0
  0
LINE
  5
A1C2
330
A06F
100
AcDbEntity
  8
1
  6
Continuous
100
AcDbLine
 10
338.8529459999998
 20
260.279712
 30
0.0
 11
350.8529459999999
 21
260.279712
 31
0.0
  0
LINE
  5
A1C3
330
A06F
100
AcDbEntity
  8
1
  6
Continuous
100
AcDbLine
 10
340.852946
 20
262.279712
 30
0.0
 11
338.8529459999998
 21
260.279712
 31
0.0
  0
LINE
  5
A1C4
330
A06F
100
AcDbEntity
  8
1
  6
Continuous
100
AcDbLine
 10
348.8529459999999
 20
262.279712
 30
0.0
 11
350.8529459999999
 21
260.279712
 31
0.0
  0
ARC
  5
A1C5
330
A06F
100
AcDbEntity
  8
1
  6
Continuous
100
AcDbCircle
 10
187.0929459999999
 20
321.6646059999998
 30
0.0
 40
2.259999999999998
100
AcDbArc
 50
300.0
 51
0.0
  0
ARC
  5
A1C6
330
A06F
100
AcDbEntity
  8
1
  6
Continuous
100
AcDbCircle
 10
187.0929459999999
 20
329.9853279999998
 30
0.0
 40
2.259999999999998
100
AcDbArc
 50
0.0
 51
60.0
  0
LINE
  5
A1C7
330
A06F
100
AcDbEntity
  8
2
  6
Continuous
100
AcDbLine
 10
174.799946
 20
261.226712
 30
0.0
 11
174.799946
 21
228.919964
 31
0.0
  0
LINE
  5
A1C8
330
A06F
100
AcDbEntity
  8
2
  6
Continuous
100
AcDbLine
 10
184.905946
 20
261.226712
 30
0.0
 11
184.905946
 21
228.919964
 31
0.0
  0
LINE
  5
A1C9
330
A06F
100
AcDbEntity
  8
1
  6
Continuous
100
AcDbLine
 10
185.8529459999997
 20
260.279712
 30
0.0
 11
185.8529459999997
 21
227.2797119999999
 31
0.0
  0
LINE
  5
A1CA
330
A06F
100
AcDbEntity
  8
1
  6
Continuous
100
AcDbLine
 10
173.852946
 20
260.279712
 30
0.0
 11
173.852946
 21
227.2797119999999
 31
0.0
  0
LINE
  5
A1CB
330
A06F
100
AcDbEntity
  8
2
  6
Continuous
100
AcDbLine
 10
184.905946
 20
228.919964
 30
0.0
 11
185.8529459999997
 21
227.2797119999999
 31
0.0
  0
LINE
  5
A1CC
330
A06F
100
AcDbEntity
  8
1
  6
Continuous
100
AcDbLine
 10
193.6529449999999
 20
223.0797069999999
 30
0.0
 11
166.0529429999999
 21
223.0797069999999
 31
0.0
  0
LINE
  5
A1CD
330
A06F
100
AcDbEntity
  8
1
  6
Continuous
100
AcDbLine
 10
170.352946
 20
227.2797119999999
 30
0.0
 11
189.352946
 21
227.2797119999999
 31
0.0
  0
LINE
  5
A1CE
330
A06F
100
AcDbEntity
  8
1
  6
Continuous
100
AcDbLine
 10
173.852946
 20
228.919964
 30
0.0
 11
185.8529459999997
 21
228.919964
 31
0.0
  0
LINE
  5
A1CF
330
A06F
100
AcDbEntity
  8
1
  6
Continuous
100
AcDbLine
 10
196.152949
 20
218.9797089999999
 30
0.0
 11
163.552943
 21
218.9797089999999
 31
0.0
  0
LINE
  5
A1D0
330
A06F
100
AcDbEntity
  8
1
  6
Continuous
100
AcDbLine
 10
196.152949
 20
220.579707
 30
0.0
 11
163.552943
 21
220.579707
 31
0.0
  0
LINE
  5
A1D1
330
A06F
100
AcDbEntity
  8
1
  6
Continuous
100
AcDbLine
 10
163.552943
 20
220.579707
 30
0.0
 11
163.552943
 21
218.9797089999999
 31
0.0
  0
ARC
  5
A1D2
330
A06F
100
AcDbEntity
  8
1
  6
Continuous
100
AcDbCircle
 10
163.552943
 20
220.879707
 30
0.0
 40
0.3
100
AcDbArc
 50
270.00002
 51
342.9964799999999
  0
ARC
  5
A1D3
330
A06F
100
AcDbEntity
  8
1
  6
Continuous
100
AcDbCircle
 10
167.186839
 20
219.7684699999999
 30
0.0
 40
3.5
100
AcDbArc
 50
108.9031
 51
162.9964699999999
  0
ARC
  5
A1D4
330
A06F
100
AcDbEntity
  8
1
  6
Continuous
100
AcDbCircle
 10
175.852946
 20
225.0297119999999
 30
0.0
 40
3.5
100
AcDbArc
 50
326.14148
 51
40.005173
  0
ARC
  5
A1D5
330
A06F
100
AcDbEntity
  8
1
  6
Continuous
100
AcDbCircle
 10
183.852946
 20
225.0297119999999
 30
0.0
 40
3.5
100
AcDbArc
 50
139.9947899999999
 51
213.8584799999999
  0
ARC
  5
A1D6
330
A06F
100
AcDbEntity
  8
1
  6
Continuous
100
AcDbCircle
 10
173.852946
 20
225.0297119999999
 30
0.0
 40
3.0
100
AcDbArc
 50
131.4096399999999
 51
220.5416599999999
  0
LINE
  5
A1D7
330
A06F
100
AcDbEntity
  8
1
  6
Continuous
100
AcDbLine
 10
170.352946
 20
227.2797119999999
 30
0.0
 11
170.352946
 21
223.0797069999999
 31
0.0
  0
LINE
  5
A1D8
330
A06F
100
AcDbEntity
  8
2
  6
Continuous
100
AcDbLine
 10
174.799946
 20
228.919964
 30
0.0
 11
173.852946
 21
227.2797119999999
 31
0.0
  0
LINE
  5
A1D9
330
A06F
100
AcDbEntity
  8
1
  6
Continuous
100
AcDbLine
 10
196.152949
 20
220.579707
 30
0.0
 11
196.152949
 21
218.9797089999999
 31
0.0
  0
ARC
  5
A1DA
330
A06F
100
AcDbEntity
  8
1
  6
Continuous
100
AcDbCircle
 10
196.152949
 20
220.879707
 30
0.0
 40
0.3
100
AcDbArc
 50
197.00351
 51
269.9999599999998
  0
ARC
  5
A1DB
330
A06F
100
AcDbEntity
  8
1
  6
Continuous
100
AcDbCircle
 10
185.8529459999997
 20
225.0297119999999
 30
0.0
 40
3.0
100
AcDbArc
 50
319.45831
 51
48.590321
  0
LINE
  5
A1DC
330
A06F
100
AcDbEntity
  8
1
  6
Continuous
100
AcDbLine
 10
189.352946
 20
227.2797119999999
 30
0.0
 11
189.352946
 21
223.0797069999999
 31
0.0
  0
ARC
  5
A1DD
330
A06F
100
AcDbEntity
  8
1
  6
Continuous
100
AcDbCircle
 10
192.519053
 20
219.7684699999999
 30
0.0
 40
3.5
100
AcDbArc
 50
17.003496
 51
71.09685999999998
  0
LINE
  5
A1DE
330
A06F
100
AcDbEntity
  8
1
  6
Continuous
100
AcDbLine
 10
183.852946
 20
262.279712
 30
0.0
 11
185.8529459999997
 21
260.279712
 31
0.0
  0
LINE
  5
A1DF
330
A06F
100
AcDbEntity
  8
1
  6
Continuous
100
AcDbLine
 10
173.852946
 20
260.279712
 30
0.0
 11
185.8529459999997
 21
260.279712
 31
0.0
  0
LINE
  5
A1E0
330
A06F
100
AcDbEntity
  8
1
  6
Continuous
100
AcDbLine
 10
175.852946
 20
262.279712
 30
0.0
 11
173.852946
 21
260.279712
 31
0.0
  0
LINE
  5
A1E1
330
A06F
100
AcDbEntity
  8
1
  6
Continuous
100
AcDbLine
 10
175.852946
 20
262.279712
 30
0.0
 11
183.852946
 21
262.279712
 31
0.0
  0
LINE
  5
A1E2
330
A06F
100
AcDbEntity
  8
2
  6
Continuous
100
AcDbLine
 10
44.799946
 20
261.226712
 30
0.0
 11
44.799946
 21
228.919964
 31
0.0
  0
LINE
  5
A1E3
330
A06F
100
AcDbEntity
  8
1
  6
Continuous
100
AcDbLine
 10
43.852946
 20
260.279712
 30
0.0
 11
43.852946
 21
227.2797119999999
 31
0.0
  0
LINE
  5
A1E4
330
A06F
100
AcDbEntity
  8
2
  6
Continuous
100
AcDbLine
 10
54.90594599999999
 20
261.226712
 30
0.0
 11
54.90594599999999
 21
228.919964
 31
0.0
  0
LINE
  5
A1E5
330
A06F
100
AcDbEntity
  8
1
  6
Continuous
100
AcDbLine
 10
55.852946
 20
260.279712
 30
0.0
 11
55.852946
 21
227.2797119999999
 31
0.0
  0
LINE
  5
A1E6
330
A06F
100
AcDbEntity
  8
1
  6
Continuous
100
AcDbLine
 10
43.852946
 20
228.919964
 30
0.0
 11
55.852946
 21
228.919964
 31
0.0
  0
LINE
  5
A1E7
330
A06F
100
AcDbEntity
  8
1
  6
Continuous
100
AcDbLine
 10
66.15294899999999
 20
218.9797089999999
 30
0.0
 11
33.552943
 21
218.9797089999999
 31
0.0
  0
LINE
  5
A1E8
330
A06F
100
AcDbEntity
  8
1
  6
Continuous
100
AcDbLine
 10
40.038783
 20
227.2797119999999
 30
0.0
 11
59.66710899999998
 21
227.2797119999999
 31
0.0
  0
LINE
  5
A1E9
330
A06F
100
AcDbEntity
  8
1
  6
Continuous
100
AcDbLine
 10
36.052948
 20
223.0797069999999
 30
0.0
 11
63.652949
 21
223.0797069999999
 31
0.0
  0
LINE
  5
A1EA
330
A06F
100
AcDbEntity
  8
1
  6
Continuous
100
AcDbLine
 10
66.15294899999999
 20
220.579707
 30
0.0
 11
33.552943
 21
220.579707
 31
0.0
  0
ARC
  5
A1EB
330
A06F
100
AcDbEntity
  8
1
  6
Continuous
100
AcDbCircle
 10
40.476771
 20
225.0297119999999
 30
0.0
 40
3.5
100
AcDbArc
 50
326.14148
 51
40.005169
  0
ARC
  5
A1EC
330
A06F
100
AcDbEntity
  8
1
  6
Continuous
100
AcDbCircle
 10
48.65082000000001
 20
225.0297119999999
 30
0.0
 40
3.5
100
AcDbArc
 50
139.99471
 51
213.8584799999999
  0
LINE
  5
A1ED
330
A06F
100
AcDbEntity
  8
2
  6
Continuous
100
AcDbLine
 10
44.799946
 20
228.919964
 30
0.0
 11
43.852946
 21
227.2797119999999
 31
0.0
  0
ARC
  5
A1EE
330
A06F
100
AcDbEntity
  8
1
  6
Continuous
100
AcDbCircle
 10
40.038783
 20
226.7797119999999
 30
0.0
 40
0.5
100
AcDbArc
 50
89.99998199999996
 51
161.44681
  0
ARC
  5
A1EF
330
A06F
100
AcDbEntity
  8
1
  6
Continuous
100
AcDbCircle
 10
45.252948
 20
225.0297119999999
 30
0.0
 40
6.0
100
AcDbArc
 50
161.4469
 51
198.96558
  0
LINE
  5
A1F0
330
A06F
100
AcDbEntity
  8
1
  6
Continuous
100
AcDbLine
 10
33.552943
 20
220.579707
 30
0.0
 11
33.552943
 21
218.9797089999999
 31
0.0
  0
ARC
  5
A1F1
330
A06F
100
AcDbEntity
  8
1
  6
Continuous
100
AcDbCircle
 10
33.552943
 20
220.879707
 30
0.0
 40
0.3
100
AcDbArc
 50
270.00002
 51
342.9964799999999
  0
ARC
  5
A1F2
330
A06F
100
AcDbEntity
  8
1
  6
Continuous
100
AcDbCircle
 10
37.186839
 20
219.7684699999999
 30
0.0
 40
3.5
100
AcDbArc
 50
108.9031
 51
162.9964699999999
  0
ARC
  5
A1F3
330
A06F
100
AcDbEntity
  8
1
  6
Continuous
100
AcDbCircle
 10
62.519053
 20
219.7684699999999
 30
0.0
 40
3.5
100
AcDbArc
 50
17.003496
 51
71.09685999999998
  0
ARC
  5
A1F4
330
A06F
100
AcDbEntity
  8
1
  6
Continuous
100
AcDbCircle
 10
59.66710899999998
 20
226.7797119999999
 30
0.0
 40
0.5
100
AcDbArc
 50
18.55312999999998
 51
89.99996800000003
  0
ARC
  5
A1F5
330
A06F
100
AcDbEntity
  8
1
  6
Continuous
100
AcDbCircle
 10
54.45294399999998
 20
225.0297119999999
 30
0.0
 40
6.0
100
AcDbArc
 50
341.03438
 51
18.553034
  0
ARC
  5
A1F6
330
A06F
100
AcDbEntity
  8
1
  6
Continuous
100
AcDbCircle
 10
59.229121
 20
225.0297119999999
 30
0.0
 40
3.5
100
AcDbArc
 50
139.99477
 51
213.8584799999999
  0
ARC
  5
A1F7
330
A06F
100
AcDbEntity
  8
1
  6
Continuous
100
AcDbCircle
 10
51.055075
 20
225.0297119999999
 30
0.0
 40
3.5
100
AcDbArc
 50
326.14148
 51
40.005224
  0
LINE
  5
A1F8
330
A06F
100
AcDbEntity
  8
2
  6
Continuous
100
AcDbLine
 10
54.90594599999999
 20
228.919964
 30
0.0
 11
55.852946
 21
227.2797119999999
 31
0.0
  0
LINE
  5
A1F9
330
A06F
100
AcDbEntity
  8
1
  6
Continuous
100
AcDbLine
 10
66.15294899999999
 20
220.579707
 30
0.0
 11
66.15294899999999
 21
218.9797089999999
 31
0.0
  0
ARC
  5
A1FA
330
A06F
100
AcDbEntity
  8
1
  6
Continuous
100
AcDbCircle
 10
66.15294899999999
 20
220.879707
 30
0.0
 40
0.3
100
AcDbArc
 50
197.00351
 51
269.9999599999998
  0
LINE
  5
A1FB
330
A06F
100
AcDbEntity
  8
1
  6
Continuous
100
AcDbLine
 10
43.852946
 20
260.279712
 30
0.0
 11
55.852946
 21
260.279712
 31
0.0
  0
LINE
  5
A1FC
330
A06F
100
AcDbEntity
  8
1
  6
Continuous
100
AcDbLine
 10
45.852946
 20
262.279712
 30
0.0
 11
53.85294599999999
 21
262.279712
 31
0.0
  0
LINE
  5
A1FD
330
A06F
100
AcDbEntity
  8
1
  6
Continuous
100
AcDbLine
 10
45.852946
 20
262.279712
 30
0.0
 11
43.852946
 21
260.279712
 31
0.0
  0
LINE
  5
A1FE
330
A06F
100
AcDbEntity
  8
1
  6
Continuous
100
AcDbLine
 10
53.85294599999999
 20
262.279712
 30
0.0
 11
55.852946
 21
260.279712
 31
0.0
  0
CIRCLE
  5
A1FF
330
A06F
100
AcDbEntity
  8
1
  6
Continuous
100
AcDbCircle
 10
179.852946
 20
325.824967
 30
0.0
 40
13.8
  0
CIRCLE
  5
A200
330
A06F
100
AcDbEntity
  8
1
  6
Continuous
100
AcDbCircle
 10
179.852946
 20
325.824967
 30
0.0
 40
16.3
  0
ARC
  5
A201
330
A06F
100
AcDbEntity
  8
1
  6
Continuous
100
AcDbCircle
 10
179.852946
 20
325.824967
 30
0.0
 40
19.0
100
AcDbArc
 50
235.6988470000001
 51
124.301153
  0
LINE
  5
A202
330
A06F
100
AcDbEntity
  8
1
  6
Continuous
100
AcDbLine
 10
166.8914649999998
 20
310.824967
 30
0.0
 11
143.1529459999999
 21
310.824967
 31
0.0
  0
LINE
  5
A203
330
A06F
100
AcDbEntity
  8
1
  6
Continuous
100
AcDbLine
 10
166.8914649999998
 20
340.824967
 30
0.0
 11
143.1529459999999
 21
340.824967
 31
0.0
  0
LINE
  5
A204
330
A06F
100
AcDbEntity
  8
1
  6
Continuous
100
AcDbLine
 10
145.8164179999999
 20
338.824967
 30
0.0
 11
143.1529459999999
 21
338.824967
 31
0.0
  0
LINE
  5
A205
330
A06F
100
AcDbEntity
  8
1
  6
Continuous
100
AcDbLine
 10
143.1529459999999
 20
338.824967
 30
0.0
 11
143.1529459999999
 21
340.824967
 31
0.0
  0
ARC
  5
A206
330
A06F
100
AcDbEntity
  8
1
  6
Continuous
100
AcDbCircle
 10
166.8914649999998
 20
306.824967
 30
0.0
 40
4.0
100
AcDbArc
 50
55.69884700000001
 51
90.0
  0
ARC
  5
A207
330
A06F
100
AcDbEntity
  8
1
  6
Continuous
100
AcDbCircle
 10
166.8914649999998
 20
344.824967
 30
0.0
 40
4.0
100
AcDbArc
 50
270.0
 51
304.301153
  0
LINE
  5
A208
330
A06F
100
AcDbEntity
  8
1
  6
Continuous
100
AcDbLine
 10
147.602946
 20
55.779711
 30
0.0
 11
147.602946
 21
56.779711
 31
0.0
  0
LINE
  5
A209
330
A06F
100
AcDbEntity
  8
1
  6
Continuous
100
AcDbLine
 10
154.102946
 20
55.779711
 30
0.0
 11
154.102946
 21
56.779711
 31
0.0
  0
LINE
  5
A20A
330
A06F
100
AcDbEntity
  8
1
  6
Continuous
100
AcDbLine
 10
154.102946
 20
80.77971099999997
 30
0.0
 11
154.102946
 21
81.77971099999998
 31
0.0
  0
LINE
  5
A20B
330
A06F
100
AcDbEntity
  8
1
  6
Continuous
100
AcDbLine
 10
147.602946
 20
80.77971099999997
 30
0.0
 11
147.602946
 21
81.77971099999998
 31
0.0
  0
ARC
  5
A20C
330
A06F
100
AcDbEntity
  8
1
  6
Continuous
100
AcDbCircle
 10
147.5529469999998
 20
84.28111499999998
 30
0.0
 40
2.0
100
AcDbArc
 50
89.94208
 51
179.999982
  0
ARC
  5
A20D
330
A06F
100
AcDbEntity
  8
1
  6
Continuous
100
AcDbCircle
 10
154.1529449999998
 20
84.27444699999998
 30
0.0
 40
2.0
100
AcDbArc
 50
0.00002
 51
89.94208
  0
LINE
  5
A20E
330
A06F
100
AcDbEntity
  8
1
  6
Continuous
100
AcDbLine
 10
145.5529469999999
 20
83.78314399999998
 30
0.0
 11
145.5529469999999
 21
84.28111499999998
 31
0.0
  0
LINE
  5
A20F
330
A06F
100
AcDbEntity
  8
1
  6
Continuous
100
AcDbLine
 10
156.152949
 20
83.772417
 30
0.0
 11
156.152949
 21
84.27444699999998
 31
0.0
  0
LINE
  5
A210
330
A06F
100
AcDbEntity
  8
1
  6
Continuous
100
AcDbLine
 10
147.5549609999999
 20
86.28113
 30
0.0
 11
154.1549589999999
 21
86.274454
 31
0.0
  0
LINE
  5
A211
330
A06F
100
AcDbEntity
  8
2
  6
Continuous
100
AcDbLine
 10
153.311446
 20
47.629629
 30
0.0
 11
153.311446
 21
49.171129
 31
0.0
  0
LINE
  5
A212
330
A06F
100
AcDbEntity
  8
1
  6
Continuous
100
AcDbLine
 10
153.852946
 20
48.171129
 30
0.0
 11
153.852946
 21
49.171129
 31
0.0
  0
LINE
  5
A213
330
A06F
100
AcDbEntity
  8
1
  6
Continuous
100
AcDbLine
 10
152.852946
 20
47.171129
 30
0.0
 11
153.852946
 21
48.171129
 31
0.0
  0
LINE
  5
A214
330
A06F
100
AcDbEntity
  8
1
  6
Continuous
100
AcDbLine
 10
155.852946
 20
53.288963
 30
0.0
 11
155.852946
 21
49.661459
 31
0.0
  0
LINE
  5
A215
330
A06F
100
AcDbEntity
  8
1
  6
Continuous
100
AcDbLine
 10
145.852946
 20
53.288963
 30
0.0
 11
145.852946
 21
49.661459
 31
0.0
  0
LINE
  5
A216
330
A06F
100
AcDbEntity
  8
1
  6
Continuous
100
AcDbLine
 10
150.852946
 20
49.661459
 30
0.0
 11
150.852946
 21
53.77971099999999
 31
0.0
  0
LINE
  5
A217
330
A06F
100
AcDbEntity
  8
2
  6
Continuous
100
AcDbLine
 10
148.3944459999999
 20
47.629629
 30
0.0
 11
148.3944459999999
 21
49.171129
 31
0.0
  0
LINE
  5
A218
330
A06F
100
AcDbEntity
  8
1
  6
Continuous
100
AcDbLine
 10
147.852946
 20
48.171129
 30
0.0
 11
147.852946
 21
49.171129
 31
0.0
  0
LINE
  5
A219
330
A06F
100
AcDbEntity
  8
1
  6
Continuous
100
AcDbLine
 10
148.852946
 20
47.171129
 30
0.0
 11
147.852946
 21
48.171129
 31
0.0
  0
ARC
  5
A21A
330
A06F
100
AcDbEntity
  8
1
  6
Continuous
100
AcDbCircle
 10
148.3529459999997
 20
55.78391899999999
 30
0.0
 40
6.613208
100
AcDbArc
 50
247.7882049999999
 51
292.211795
  0
ARC
  5
A21B
330
A06F
100
AcDbEntity
  8
1
  6
Continuous
100
AcDbCircle
 10
148.3529459999997
 20
47.166503
 30
0.0
 40
6.613208
100
AcDbArc
 50
67.78820500000001
 51
112.211795
  0
ARC
  5
A21C
330
A06F
100
AcDbEntity
  8
1
  6
Continuous
100
AcDbCircle
 10
153.352946
 20
55.78391899999999
 30
0.0
 40
6.613208
100
AcDbArc
 50
247.7882049999999
 51
292.211795
  0
ARC
  5
A21D
330
A06F
100
AcDbEntity
  8
1
  6
Continuous
100
AcDbCircle
 10
153.352946
 20
47.166503
 30
0.0
 40
6.613208
100
AcDbArc
 50
67.78820500000001
 51
112.211795
  0
LINE
  5
A21E
330
A06F
100
AcDbEntity
  8
1
  6
Continuous
100
AcDbLine
 10
147.852946
 20
48.171129
 30
0.0
 11
153.852946
 21
48.171129
 31
0.0
  0
LINE
  5
A21F
330
A06F
100
AcDbEntity
  8
1
  6
Continuous
100
AcDbLine
 10
148.852946
 20
47.171129
 30
0.0
 11
152.852946
 21
47.171129
 31
0.0
  0
LINE
  5
A220
330
A06F
100
AcDbEntity
  8
1
  6
Continuous
100
AcDbLine
 10
148.3529459999997
 20
49.170711
 30
0.0
 11
153.352946
 21
49.170711
 31
0.0
  0
LINE
  5
A221
330
A06F
100
AcDbEntity
  8
1
  6
Continuous
100
AcDbLine
 10
148.3529459999997
 20
345.4339669999998
 30
0.0
 11
153.352946
 21
345.4339669999998
 31
0.0
  0
LINE
  5
A222
330
A06F
100
AcDbEntity
  8
1
  6
Continuous
100
AcDbLine
 10
148.852946
 20
347.433549
 30
0.0
 11
152.852946
 21
347.433549
 31
0.0
  0
LINE
  5
A223
330
A06F
100
AcDbEntity
  8
1
  6
Continuous
100
AcDbLine
 10
147.852946
 20
346.433549
 30
0.0
 11
153.852946
 21
346.433549
 31
0.0
  0
ARC
  5
A224
330
A06F
100
AcDbEntity
  8
1
  6
Continuous
100
AcDbCircle
 10
153.352946
 20
347.438175
 30
0.0
 40
6.613208
100
AcDbArc
 50
247.7882049999999
 51
292.211795
  0
ARC
  5
A225
330
A06F
100
AcDbEntity
  8
1
  6
Continuous
100
AcDbCircle
 10
153.352946
 20
338.820759
 30
0.0
 40
6.613208
100
AcDbArc
 50
67.78820500000001
 51
112.211795
  0
ARC
  5
A226
330
A06F
100
AcDbEntity
  8
1
  6
Continuous
100
AcDbCircle
 10
148.3529459999997
 20
347.438175
 30
0.0
 40
6.613208
100
AcDbArc
 50
247.7882049999999
 51
292.211795
  0
ARC
  5
A227
330
A06F
100
AcDbEntity
  8
1
  6
Continuous
100
AcDbCircle
 10
148.3529459999997
 20
338.820759
 30
0.0
 40
6.613208
100
AcDbArc
 50
67.78820500000001
 51
112.211795
  0
LINE
  5
A228
330
A06F
100
AcDbEntity
  8
1
  6
Continuous
100
AcDbLine
 10
148.852946
 20
347.433549
 30
0.0
 11
147.852946
 21
346.433549
 31
0.0
  0
LINE
  5
A229
330
A06F
100
AcDbEntity
  8
1
  6
Continuous
100
AcDbLine
 10
147.852946
 20
346.433549
 30
0.0
 11
147.852946
 21
345.433549
 31
0.0
  0
LINE
  5
A22A
330
A06F
100
AcDbEntity
  8
2
  6
Continuous
100
AcDbLine
 10
148.3944459999999
 20
346.975049
 30
0.0
 11
148.3944459999999
 21
345.433549
 31
0.0
  0
LINE
  5
A22B
330
A06F
100
AcDbEntity
  8
1
  6
Continuous
100
AcDbLine
 10
150.852946
 20
344.943219
 30
0.0
 11
150.852946
 21
340.824967
 31
0.0
  0
LINE
  5
A22C
330
A06F
100
AcDbEntity
  8
1
  6
Continuous
100
AcDbLine
 10
145.852946
 20
341.3157149999999
 30
0.0
 11
145.852946
 21
344.943219
 31
0.0
  0
LINE
  5
A22D
330
A06F
100
AcDbEntity
  8
1
  6
Continuous
100
AcDbLine
 10
155.852946
 20
341.3157149999999
 30
0.0
 11
155.852946
 21
344.943219
 31
0.0
  0
LINE
  5
A22E
330
A06F
100
AcDbEntity
  8
1
  6
Continuous
100
AcDbLine
 10
152.852946
 20
347.433549
 30
0.0
 11
153.852946
 21
346.433549
 31
0.0
  0
LINE
  5
A22F
330
A06F
100
AcDbEntity
  8
1
  6
Continuous
100
AcDbLine
 10
153.852946
 20
346.433549
 30
0.0
 11
153.852946
 21
345.433549
 31
0.0
  0
LINE
  5
A230
330
A06F
100
AcDbEntity
  8
2
  6
Continuous
100
AcDbLine
 10
153.311446
 20
346.975049
 30
0.0
 11
153.311446
 21
345.433549
 31
0.0
  0
LINE
  5
A231
330
A06F
100
AcDbEntity
  8
1
  6
Continuous
100
AcDbLine
 10
147.5549609999999
 20
308.323548
 30
0.0
 11
154.1549589999999
 21
308.330224
 31
0.0
  0
LINE
  5
A232
330
A06F
100
AcDbEntity
  8
1
  6
Continuous
100
AcDbLine
 10
156.152949
 20
310.8322609999999
 30
0.0
 11
156.152949
 21
310.3302310000001
 31
0.0
  0
LINE
  5
A233
330
A06F
100
AcDbEntity
  8
1
  6
Continuous
100
AcDbLine
 10
145.5529469999999
 20
310.821534
 30
0.0
 11
145.5529469999999
 21
310.3235629999998
 31
0.0
  0
ARC
  5
A234
330
A06F
100
AcDbEntity
  8
1
  6
Continuous
100
AcDbCircle
 10
154.1529449999998
 20
310.3302310000001
 30
0.0
 40
2.0
100
AcDbArc
 50
270.05792
 51
359.9999799999998
  0
ARC
  5
A235
330
A06F
100
AcDbEntity
  8
1
  6
Continuous
100
AcDbCircle
 10
147.5529469999998
 20
310.3235629999998
 30
0.0
 40
2.0
100
AcDbArc
 50
180.0000179999999
 51
270.05792
  0
ARC
  5
A236
330
A06F
100
AcDbEntity
  8
1
  6
Continuous
100
AcDbCircle
 10
163.8529459999998
 20
215.17971
 30
0.0
 40
3.0
100
AcDbArc
 50
90.0
 51
177.517007
  0
ARC
  5
A237
330
A06F
100
AcDbEntity
  8
1
  6
Continuous
100
AcDbCircle
 10
179.852946
 20
325.824967
 30
0.0
 40
19.0
100
AcDbArc
 50
137.044631
 51
222.9270399999998
  0
ARC
  5
A238
330
A06F
100
AcDbEntity
  8
1
  6
Continuous
100
AcDbCircle
 10
360.8529459999999
 20
215.17971
 30
0.0
 40
3.0
100
AcDbArc
 50
2.482993
 51
90.0
  0
ARC
  5
A239
330
A06F
100
AcDbEntity
  8
1
  6
Continuous
100
AcDbCircle
 10
150.852946
 20
169.7797109999999
 30
0.0
 40
12.0
100
AcDbArc
 50
315.5225199999998
 51
344.4775499999999
  0
LINE
  5
A23A
330
A06F
100
AcDbEntity
  8
1
  6
Continuous
100
AcDbLine
 10
175.4584299999999
 20
157.594454
 30
0.0
 11
162.009158
 21
165.3594009999999
 31
0.0
  0
ARC
  5
A23B
330
A06F
100
AcDbEntity
  8
1
  6
Continuous
100
AcDbCircle
 10
150.852946
 20
169.7797109999999
 30
0.0
 40
12.0
100
AcDbArc
 50
195.5225199999999
 51
224.4775399999999
  0
LINE
  5
A23C
330
A06F
100
AcDbEntity
  8
1
  6
Continuous
100
AcDbLine
 10
126.2474659999997
 20
157.594462
 30
0.0
 11
139.6967459999999
 21
165.3594029999998
 31
0.0
  0
ARC
  5
A23D
330
A06F
100
AcDbEntity
  8
1
  6
Continuous
100
AcDbCircle
 10
150.852946
 20
169.7797109999999
 30
0.0
 40
37.5
100
AcDbArc
 50
96.39964800000001
 51
39.702777
  0
ARC
  5
A23E
330
A06F
100
AcDbEntity
  8
1
  6
Continuous
100
AcDbCircle
 10
150.852946
 20
169.7797109999999
 30
0.0
 40
31.4
100
AcDbArc
 50
98.70432
 51
37.19629499999999
  0
LINE
  5
A23F
330
A06F
100
AcDbEntity
  8
1
  6
Continuous
100
AcDbLine
 10
127.9974659999999
 20
154.5633719999998
 30
0.0
 11
141.446742
 21
162.3283139999998
 31
0.0
  0
LINE
  5
A240
330
A06F
100
AcDbEntity
  8
1
  6
Continuous
100
AcDbLine
 10
142.2906409999999
 20
161.3721609999998
 30
0.0
 11
145.310605
 21
163.115737
 31
0.0
  0
LINE
  5
A241
330
A06F
100
AcDbEntity
  8
1
  6
Continuous
100
AcDbLine
 10
173.7084219999999
 20
154.5633639999998
 30
0.0
 11
160.25915
 21
162.328311
 31
0.0
  0
LINE
  5
A242
330
A06F
100
AcDbEntity
  8
1
  6
Continuous
100
AcDbLine
 10
159.4152629999999
 20
161.37216
 30
0.0
 11
156.137802
 21
163.264404
 31
0.0
  0
ARC
  5
A243
330
A06F
100
AcDbEntity
  8
1
  6
Continuous
100
AcDbCircle
 10
124.497466
 20
160.62555
 30
0.0
 40
3.5
100
AcDbArc
 50
199.1539399999999
 51
299.9999799999999
  0
ARC
  5
A244
330
A06F
100
AcDbEntity
  8
1
  6
Continuous
100
AcDbCircle
 10
129.747462
 20
151.532284
 30
0.0
 40
3.5
100
AcDbArc
 50
119.9999999999999
 51
220.8461799999998
  0
ARC
  5
A245
330
A06F
100
AcDbEntity
  8
1
  6
Continuous
100
AcDbCircle
 10
177.2084219999999
 20
160.6255339999998
 30
0.0
 40
3.5
100
AcDbArc
 50
240.00002
 51
340.8461799999999
  0
ARC
  5
A246
330
A06F
100
AcDbEntity
  8
1
  6
Continuous
100
AcDbCircle
 10
171.958415
 20
151.532273
 30
0.0
 40
3.5
100
AcDbArc
 50
319.1539399999998
 51
59.999988
  0
LINE
  5
A247
330
A06F
100
AcDbEntity
  8
1
  6
Continuous
100
AcDbLine
 10
139.2906409999999
 20
166.5683139999998
 30
0.0
 11
143.1650239999999
 21
168.8051909999998
 31
0.0
  0
LINE
  5
A248
330
A06F
100
AcDbEntity
  8
1
  6
Continuous
100
AcDbLine
 10
162.4152549999998
 20
166.5683129999998
 30
0.0
 11
159.8660139999998
 21
168.040122
 31
0.0
  0
ARC
  5
A249
330
A06F
100
AcDbEntity
  8
1
  6
Continuous
100
AcDbCircle
 10
61.35294599999999
 20
162.7797109999999
 30
0.0
 40
0.5
100
AcDbArc
 50
276.15237
 51
359.99995
  0
ARC
  5
A24A
330
A06F
100
AcDbEntity
  8
1
  6
Continuous
100
AcDbCircle
 10
61.35294599999999
 20
176.779711
 30
0.0
 40
0.5
100
AcDbArc
 50
0.000055
 51
83.847628
  0
LINE
  5
A24B
330
A06F
100
AcDbEntity
  8
1
  6
Continuous
100
AcDbLine
 10
60.352946
 20
205.1858999999998
 30
0.0
 11
60.352946
 21
134.373522
 31
0.0
  0
LINE
  5
A24C
330
A06F
100
AcDbEntity
  8
1
  6
Continuous
100
AcDbLine
 10
37.852946
 20
176.779711
 30
0.0
 11
37.852946
 21
162.7797109999999
 31
0.0
  0
LINE
  5
A24D
330
A06F
100
AcDbEntity
  8
1
  6
Continuous
100
AcDbLine
 10
39.352946
 20
205.1858999999998
 30
0.0
 11
39.352946
 21
134.373522
 31
0.0
  0
ARC
  5
A24E
330
A06F
100
AcDbEntity
  8
1
  6
Continuous
100
AcDbCircle
 10
49.852946
 20
202.2797109999999
 30
0.0
 40
70.0
100
AcDbArc
 50
262.45024
 51
277.5497399999998
  0
ARC
  5
A24F
330
A06F
100
AcDbEntity
  8
1
  6
Continuous
100
AcDbCircle
 10
40.852946
 20
134.373522
 30
0.0
 40
1.5
100
AcDbArc
 50
179.9999799999999
 51
262.45021
  0
ARC
  5
A250
330
A06F
100
AcDbEntity
  8
1
  6
Continuous
100
AcDbCircle
 10
58.85294599999999
 20
134.373522
 30
0.0
 40
1.5
100
AcDbArc
 50
277.54976
 51
0.0
  0
ARC
  5
A251
330
A06F
100
AcDbEntity
  8
1
  6
Continuous
100
AcDbCircle
 10
38.352946
 20
162.7797109999999
 30
0.0
 40
0.5
100
AcDbArc
 50
179.9999799999999
 51
263.8475
  0
LINE
  5
A252
330
A06F
100
AcDbEntity
  8
1
  6
Continuous
100
AcDbLine
 10
39.352938
 20
162.1690169999999
 30
0.0
 11
38.299357
 21
162.2825879999998
 31
0.0
  0
LINE
  5
A253
330
A06F
100
AcDbEntity
  8
1
  6
Continuous
100
AcDbLine
 10
60.35295399999998
 20
162.1690179999999
 30
0.0
 11
61.406542
 21
162.28259
 31
0.0
  0
ARC
  5
A254
330
A06F
100
AcDbEntity
  8
1
  6
Continuous
100
AcDbCircle
 10
38.352946
 20
176.779711
 30
0.0
 40
0.5
100
AcDbArc
 50
96.15250000000003
 51
180.00002
  0
LINE
  5
A255
330
A06F
100
AcDbEntity
  8
1
  6
Continuous
100
AcDbLine
 10
39.352938
 20
177.3904049999999
 30
0.0
 11
38.299357
 21
177.276834
 31
0.0
  0
LINE
  5
A256
330
A06F
100
AcDbEntity
  8
1
  6
Continuous
100
AcDbLine
 10
60.35295399999998
 20
177.3904039999999
 30
0.0
 11
61.406542
 21
177.276832
 31
0.0
  0
ARC
  5
A257
330
A06F
100
AcDbEntity
  8
1
  6
Continuous
100
AcDbCircle
 10
49.852946
 20
137.279711
 30
0.0
 40
70.0
100
AcDbArc
 50
82.45026000000001
 51
97.54975900000005
  0
ARC
  5
A258
330
A06F
100
AcDbEntity
  8
1
  6
Continuous
100
AcDbCircle
 10
40.852946
 20
205.1858999999998
 30
0.0
 40
1.5
100
AcDbArc
 50
97.549779
 51
180.00002
  0
ARC
  5
A259
330
A06F
100
AcDbEntity
  8
1
  6
Continuous
100
AcDbCircle
 10
58.85294599999999
 20
205.1858999999998
 30
0.0
 40
1.5
100
AcDbArc
 50
0.0
 51
82.45023899999997
  0
LINE
  5
A25A
330
A06F
100
AcDbEntity
  8
1
  6
Continuous
100
AcDbLine
 10
61.85294599999998
 20
176.779711
 30
0.0
 11
61.85294599999998
 21
162.7797109999999
 31
0.0
  0
LINE
  5
A25B
330
A06F
100
AcDbEntity
  8
1
  6
Continuous
100
AcDbLine
 10
251.8529459999998
 20
205.1858999999998
 30
0.0
 11
251.8529459999998
 21
134.373522
 31
0.0
  0
LINE
  5
A25C
330
A06F
100
AcDbEntity
  8
1
  6
Continuous
100
AcDbLine
 10
272.8529459999999
 20
205.1858999999998
 30
0.0
 11
272.8529459999999
 21
134.373522
 31
0.0
  0
ARC
  5
A25D
330
A06F
100
AcDbEntity
  8
1
  6
Continuous
100
AcDbCircle
 10
262.3529459999999
 20
202.2797109999999
 30
0.0
 40
70.0
100
AcDbArc
 50
262.45024
 51
277.5497399999998
  0
ARC
  5
A25E
330
A06F
100
AcDbEntity
  8
1
  6
Continuous
100
AcDbCircle
 10
253.352946
 20
134.373522
 30
0.0
 40
1.5
100
AcDbArc
 50
179.9999799999999
 51
262.45021
  0
ARC
  5
A25F
330
A06F
100
AcDbEntity
  8
1
  6
Continuous
100
AcDbCircle
 10
271.3529459999999
 20
134.373522
 30
0.0
 40
1.5
100
AcDbArc
 50
277.54976
 51
0.0
  0
LINE
  5
A260
330
A06F
100
AcDbEntity
  8
1
  6
Continuous
100
AcDbLine
 10
251.8529379999999
 20
177.3904049999999
 30
0.0
 11
250.799357
 21
177.276834
 31
0.0
  0
ARC
  5
A261
330
A06F
100
AcDbEntity
  8
1
  6
Continuous
100
AcDbCircle
 10
250.852946
 20
176.779711
 30
0.0
 40
0.5
100
AcDbArc
 50
96.15250000000003
 51
180.00002
  0
LINE
  5
A262
330
A06F
100
AcDbEntity
  8
1
  6
Continuous
100
AcDbLine
 10
251.8529379999999
 20
162.1690169999999
 30
0.0
 11
250.799357
 21
162.2825879999998
 31
0.0
  0
ARC
  5
A263
330
A06F
100
AcDbEntity
  8
1
  6
Continuous
100
AcDbCircle
 10
250.852946
 20
162.7797109999999
 30
0.0
 40
0.5
100
AcDbArc
 50
179.9999799999999
 51
263.8475
  0
LINE
  5
A264
330
A06F
100
AcDbEntity
  8
1
  6
Continuous
100
AcDbLine
 10
250.352946
 20
176.779711
 30
0.0
 11
250.352946
 21
162.7797109999999
 31
0.0
  0
LINE
  5
A265
330
A06F
100
AcDbEntity
  8
1
  6
Continuous
100
AcDbLine
 10
274.3529459999999
 20
176.779711
 30
0.0
 11
274.3529459999999
 21
162.7797109999999
 31
0.0
  0
LINE
  5
A266
330
A06F
100
AcDbEntity
  8
1
  6
Continuous
100
AcDbLine
 10
272.852954
 20
177.3904039999999
 30
0.0
 11
273.906542
 21
177.276832
 31
0.0
  0
LINE
  5
A267
330
A06F
100
AcDbEntity
  8
1
  6
Continuous
100
AcDbLine
 10
272.852954
 20
162.1690179999999
 30
0.0
 11
273.906542
 21
162.28259
 31
0.0
  0
ARC
  5
A268
330
A06F
100
AcDbEntity
  8
1
  6
Continuous
100
AcDbCircle
 10
273.8529459999999
 20
176.779711
 30
0.0
 40
0.5
100
AcDbArc
 50
0.000055
 51
83.847628
  0
ARC
  5
A269
330
A06F
100
AcDbEntity
  8
1
  6
Continuous
100
AcDbCircle
 10
273.8529459999999
 20
162.7797109999999
 30
0.0
 40
0.5
100
AcDbArc
 50
276.15237
 51
359.99995
  0
ARC
  5
A26A
330
A06F
100
AcDbEntity
  8
1
  6
Continuous
100
AcDbCircle
 10
262.3529459999999
 20
137.279711
 30
0.0
 40
70.0
100
AcDbArc
 50
82.45026000000001
 51
97.54975900000005
  0
ARC
  5
A26B
330
A06F
100
AcDbEntity
  8
1
  6
Continuous
100
AcDbCircle
 10
253.352946
 20
205.1858999999998
 30
0.0
 40
1.5
100
AcDbArc
 50
97.549779
 51
180.00002
  0
ARC
  5
A26C
330
A06F
100
AcDbEntity
  8
1
  6
Continuous
100
AcDbCircle
 10
271.3529459999999
 20
205.1858999999998
 30
0.0
 40
1.5
100
AcDbArc
 50
0.0
 51
82.45023899999997
  0
LINE
  5
A26D
330
A06F
100
AcDbEntity
  8
1
  6
Continuous
100
AcDbLine
 10
143.242253
 20
79.279719
 30
0.0
 11
143.355825
 21
80.33330699999998
 31
0.0
  0
LINE
  5
A26E
330
A06F
100
AcDbEntity
  8
1
  6
Continuous
100
AcDbLine
 10
158.463639
 20
79.279719
 30
0.0
 11
158.350068
 21
80.33330699999998
 31
0.0
  0
LINE
  5
A26F
330
A06F
100
AcDbEntity
  8
1
  6
Continuous
100
AcDbLine
 10
115.4467569999999
 20
58.279711
 30
0.0
 11
186.2591349999999
 21
58.279711
 31
0.0
  0
LINE
  5
A270
330
A06F
100
AcDbEntity
  8
1
  6
Continuous
100
AcDbLine
 10
115.4467569999999
 20
79.27971099999997
 30
0.0
 11
186.2591349999999
 21
79.27971099999997
 31
0.0
  0
ARC
  5
A271
330
A06F
100
AcDbEntity
  8
1
  6
Continuous
100
AcDbCircle
 10
115.4467569999999
 20
77.77971099999998
 30
0.0
 40
1.5
100
AcDbArc
 50
90.0
 51
172.4502389999999
  0
ARC
  5
A272
330
A06F
100
AcDbEntity
  8
1
  6
Continuous
100
AcDbCircle
 10
115.4467569999999
 20
59.779711
 30
0.0
 40
1.5
100
AcDbArc
 50
187.549779
 51
270.00002
  0
ARC
  5
A273
330
A06F
100
AcDbEntity
  8
1
  6
Continuous
100
AcDbCircle
 10
183.352946
 20
68.77971099999999
 30
0.0
 40
70.0
100
AcDbArc
 50
172.4502599999999
 51
187.5497589999999
  0
LINE
  5
A274
330
A06F
100
AcDbEntity
  8
1
  6
Continuous
100
AcDbLine
 10
143.242253
 20
58.279703
 30
0.0
 11
143.3558229999998
 21
57.226122
 31
0.0
  0
LINE
  5
A275
330
A06F
100
AcDbEntity
  8
1
  6
Continuous
100
AcDbLine
 10
158.4636399999999
 20
58.279703
 30
0.0
 11
158.3500699999999
 21
57.226122
 31
0.0
  0
LINE
  5
A276
330
A06F
100
AcDbEntity
  8
1
  6
Continuous
100
AcDbLine
 10
143.8529459999998
 20
56.779711
 30
0.0
 11
157.852946
 21
56.779711
 31
0.0
  0
ARC
  5
A277
330
A06F
100
AcDbEntity
  8
1
  6
Continuous
100
AcDbCircle
 10
143.8529459999998
 20
57.279711
 30
0.0
 40
0.5
100
AcDbArc
 50
186.1525
 51
270.00002
  0
ARC
  5
A278
330
A06F
100
AcDbEntity
  8
1
  6
Continuous
100
AcDbCircle
 10
157.852946
 20
57.279711
 30
0.0
 40
0.5
100
AcDbArc
 50
269.99998
 51
353.8475
  0
ARC
  5
A279
330
A06F
100
AcDbEntity
  8
1
  6
Continuous
100
AcDbCircle
 10
186.2591349999999
 20
77.77971099999998
 30
0.0
 40
1.5
100
AcDbArc
 50
7.549760000000001
 51
90.0
  0
ARC
  5
A27A
330
A06F
100
AcDbEntity
  8
1
  6
Continuous
100
AcDbCircle
 10
186.2591349999999
 20
59.779711
 30
0.0
 40
1.5
100
AcDbArc
 50
269.99998
 51
352.45021
  0
ARC
  5
A27B
330
A06F
100
AcDbEntity
  8
1
  6
Continuous
100
AcDbCircle
 10
118.352946
 20
68.77971099999999
 30
0.0
 40
70.0
100
AcDbArc
 50
352.45024
 51
7.549739999999999
  0
LINE
  5
A27C
330
A06F
100
AcDbEntity
  8
1
  6
Continuous
100
AcDbLine
 10
143.8529459999998
 20
80.77971099999997
 30
0.0
 11
157.852946
 21
80.77971099999997
 31
0.0
  0
ARC
  5
A27D
330
A06F
100
AcDbEntity
  8
1
  6
Continuous
100
AcDbCircle
 10
143.8529459999998
 20
80.279711
 30
0.0
 40
0.5
100
AcDbArc
 50
90.00005499999994
 51
173.8476279999999
  0
ARC
  5
A27E
330
A06F
100
AcDbEntity
  8
1
  6
Continuous
100
AcDbCircle
 10
157.852946
 20
80.279711
 30
0.0
 40
0.5
100
AcDbArc
 50
6.152369999999998
 51
89.99995000000001
  0
LINE
  5
A27F
330
A06F
100
AcDbEntity
  8
1
  6
Continuous
100
AcDbLine
 10
115.4467569999999
 20
336.324967
 30
0.0
 11
144.9397559999999
 21
336.324967
 31
0.0
  0
LINE
  5
A280
330
A06F
100
AcDbEntity
  8
1
  6
Continuous
100
AcDbLine
 10
115.4467569999999
 20
315.324967
 30
0.0
 11
144.9397559999999
 21
315.324967
 31
0.0
  0
ARC
  5
A281
330
A06F
100
AcDbEntity
  8
1
  6
Continuous
100
AcDbCircle
 10
183.352946
 20
325.824967
 30
0.0
 40
70.0
100
AcDbArc
 50
172.4502599999999
 51
187.5497589999999
  0
ARC
  5
A282
330
A06F
100
AcDbEntity
  8
1
  6
Continuous
100
AcDbCircle
 10
115.4467569999999
 20
316.824967
 30
0.0
 40
1.5
100
AcDbArc
 50
187.549779
 51
270.00002
  0
ARC
  5
A283
330
A06F
100
AcDbEntity
  8
1
  6
Continuous
100
AcDbCircle
 10
115.4467569999999
 20
334.824967
 30
0.0
 40
1.5
100
AcDbArc
 50
90.0
 51
172.4502389999999
  0
LINE
  5
A284
330
A06F
100
AcDbEntity
  8
1
  6
Continuous
100
AcDbLine
 10
143.8529459999998
 20
337.824967
 30
0.0
 11
145.440561
 21
337.824967
 31
0.0
  0
LINE
  5
A285
330
A06F
100
AcDbEntity
  8
1
  6
Continuous
100
AcDbLine
 10
143.8529459999998
 20
313.824967
 30
0.0
 11
145.440561
 21
313.824967
 31
0.0
  0
ARC
  5
A286
330
A06F
100
AcDbEntity
  8
1
  6
Continuous
100
AcDbCircle
 10
143.8529459999998
 20
314.324967
 30
0.0
 40
0.5
100
AcDbArc
 50
186.1525
 51
270.00002
  0
LINE
  5
A287
330
A06F
100
AcDbEntity
  8
1
  6
Continuous
100
AcDbLine
 10
143.242253
 20
315.3249589999998
 30
0.0
 11
143.3558229999998
 21
314.2713779999999
 31
0.0
  0
ARC
  5
A288
330
A06F
100
AcDbEntity
  8
1
  6
Continuous
100
AcDbCircle
 10
143.8529459999998
 20
337.324967
 30
0.0
 40
0.5
100
AcDbArc
 50
90.00005499999994
 51
173.8476279999999
  0
LINE
  5
A289
330
A06F
100
AcDbEntity
  8
1
  6
Continuous
100
AcDbLine
 10
143.242253
 20
336.324975
 30
0.0
 11
143.355825
 21
337.3785629999998
 31
0.0
  0
ARC
  5
A28A
330
A06F
100
AcDbEntity
  8
1
  6
Continuous
100
AcDbCircle
 10
373.8529459999999
 20
169.7797109999999
 30
0.0
 40
37.5
100
AcDbArc
 50
140.297223
 51
83.60035200000002
  0
ARC
  5
A28B
330
A06F
100
AcDbEntity
  8
1
  6
Continuous
100
AcDbCircle
 10
373.8529459999999
 20
169.7797109999999
 30
0.0
 40
31.4
100
AcDbArc
 50
142.803705
 51
81.29568
  0
ARC
  5
A28C
330
A06F
100
AcDbEntity
  8
1
  6
Continuous
100
AcDbCircle
 10
394.958415
 20
151.532273
 30
0.0
 40
3.5
100
AcDbArc
 50
319.1539399999998
 51
59.999988
  0
ARC
  5
A28D
330
A06F
100
AcDbEntity
  8
1
  6
Continuous
100
AcDbCircle
 10
400.2084219999998
 20
160.6255339999998
 30
0.0
 40
3.5
100
AcDbArc
 50
240.00002
 51
340.8461799999999
  0
LINE
  5
A28E
330
A06F
100
AcDbEntity
  8
1
  6
Continuous
100
AcDbLine
 10
396.7084219999999
 20
154.5633639999998
 30
0.0
 11
383.2591499999999
 21
162.328311
 31
0.0
  0
LINE
  5
A28F
330
A06F
100
AcDbEntity
  8
1
  6
Continuous
100
AcDbLine
 10
398.4584299999998
 20
157.594454
 30
0.0
 11
385.009158
 21
165.3594009999999
 31
0.0
  0
ARC
  5
A290
330
A06F
100
AcDbEntity
  8
1
  6
Continuous
100
AcDbCircle
 10
352.747462
 20
151.532284
 30
0.0
 40
3.5
100
AcDbArc
 50
119.9999999999999
 51
220.8461799999998
  0
LINE
  5
A291
330
A06F
100
AcDbEntity
  8
1
  6
Continuous
100
AcDbLine
 10
349.2474659999999
 20
157.594462
 30
0.0
 11
362.696746
 21
165.3594029999998
 31
0.0
  0
ARC
  5
A292
330
A06F
100
AcDbEntity
  8
1
  6
Continuous
100
AcDbCircle
 10
347.4974659999999
 20
160.62555
 30
0.0
 40
3.5
100
AcDbArc
 50
199.1539399999999
 51
299.9999799999999
  0
LINE
  5
A293
330
A06F
100
AcDbEntity
  8
1
  6
Continuous
100
AcDbLine
 10
350.9974659999999
 20
154.5633719999998
 30
0.0
 11
364.4467419999998
 21
162.3283139999998
 31
0.0
  0
ARC
  5
A294
330
A06F
100
AcDbEntity
  8
1
  6
Continuous
100
AcDbCircle
 10
373.8529459999999
 20
169.7797109999999
 30
0.0
 40
12.0
100
AcDbArc
 50
315.5225199999998
 51
344.4775499999999
  0
LINE
  5
A295
330
A06F
100
AcDbEntity
  8
1
  6
Continuous
100
AcDbLine
 10
382.415263
 20
161.37216
 30
0.0
 11
379.3952919999999
 21
163.1157419999999
 31
0.0
  0
LINE
  5
A296
330
A06F
100
AcDbEntity
  8
1
  6
Continuous
100
AcDbLine
 10
362.290641
 20
166.5683139999998
 30
0.0
 11
364.8398809999998
 21
168.0401189999997
 31
0.0
  0
ARC
  5
A297
330
A06F
100
AcDbEntity
  8
1
  6
Continuous
100
AcDbCircle
 10
373.8529459999999
 20
169.7797109999999
 30
0.0
 40
12.0
100
AcDbArc
 50
195.5225199999999
 51
224.4775399999999
  0
LINE
  5
A298
330
A06F
100
AcDbEntity
  8
1
  6
Continuous
100
AcDbLine
 10
365.2906409999998
 20
161.3721609999998
 30
0.0
 11
368.568095
 21
163.264399
 31
0.0
  0
LINE
  5
A299
330
A06F
100
AcDbEntity
  8
1
  6
Continuous
100
AcDbLine
 10
385.415255
 20
166.5683129999998
 30
0.0
 11
381.5408679999999
 21
168.805197
 31
0.0
  0
ENDSEC
  0
SECTION
  2
OBJECTS
  0
DICTIONARY
  5
A05D
330
0
100
AcDbDictionary
281
     1
  3
ACAD_CIP_PREVIOUS_PRODUCT_INFO
350
A316
  3
ACAD_COLOR
350
A2F8
  3
ACAD_DETAILVIEWSTYLE
350
A311
  3
ACAD_GROUP
350
A05E
  3
ACAD_LAYOUT
350
A06A
  3
ACAD_MATERIAL
350
A2C6
  3
ACAD_MLEADERSTYLE
350
A30D
  3
ACAD_MLINESTYLE
350
A067
  3
ACAD_PLOTSETTINGS
350
A069
  3
ACAD_PLOTSTYLENAME
350
A2C4
  3
ACAD_SCALELIST
350
A2FB
  3
ACAD_SECTIONVIEWSTYLE
350
A30F
  3
ACAD_TABLESTYLE
350
A2F9
  3
ACAD_VISUALSTYLE
350
A2DF
  3
ACDB_RECOMPOSE_DATA
350
A334
  3
AcDbVariableDictionary
350
A327
  3
DWGPROPS
350
A335
  0
DICTIONARY
  5
A317
330
A061
100
AcDbDictionary
280
     1
281
     1
  3
ADSK_XREC_LAYER_RECONCILED
360
A318
  0
DICTIONARY
  5
A319
330
A077
100
AcDbDictionary
280
     1
281
     1
  3
ADSK_XREC_LAYER_RECONCILED
360
A31A
  0
DICTIONARY
  5
A31B
330
A078
100
AcDbDictionary
280
     1
281
     1
  3
ADSK_XREC_LAYER_RECONCILED
360
A31C
  0
DICTIONARY
  5
A31D
330
A079
100
AcDbDictionary
280
     1
281
     1
  3
ADSK_XREC_LAYER_RECONCILED
360
A31E
  0
DICTIONARY
  5
A31F
330
A07A
100
AcDbDictionary
280
     1
281
     1
  3
ADSK_XREC_LAYER_RECONCILED
360
A320
  0
DICTIONARY
  5
A321
330
A07B
100
AcDbDictionary
280
     1
281
     1
  3
ADSK_XREC_LAYER_RECONCILED
360
A322
  0
DICTIONARY
  5
A323
330
A07C
100
AcDbDictionary
280
     1
281
     1
  3
ADSK_XREC_LAYER_RECONCILED
360
A324
  0
DICTIONARY
  5
A325
330
A07D
100
AcDbDictionary
280
     1
281
     1
  3
ADSK_XREC_LAYER_RECONCILED
360
A326
  0
DICTIONARY
  5
A2A4
330
A06F
100
AcDbDictionary
281
     1
  3
ACAD_LAYOUTSELFREF
350
A2C0
  0
DICTIONARY
  5
A2A2
330
A06B
100
AcDbDictionary
281
     1
  3
ACAD_LAYOUTSELFREF
350
A2BF
  0
XRECORD
  5
A316
102
{ACAD_REACTORS
330
A05D
102
}
330
A05D
100
AcDbXrecord
280
     1
300
ACDLT
300
2014
300
ACDLT_F_S
  0
DICTIONARY
  5
A2F8
102
{ACAD_REACTORS
330
A05D
102
}
330
A05D
100
AcDbDictionary
281
     1
  0
DICTIONARY
  5
A311
102
{ACAD_REACTORS
330
A05D
102
}
330
A05D
100
AcDbDictionary
281
     1
  3
Imperial24
350
A312
  0
DICTIONARY
  5
A05E
102
{ACAD_REACTORS
330
A05D
102
}
330
A05D
100
AcDbDictionary
281
     1
  0
DICTIONARY
  5
A06A
102
{ACAD_REACTORS
330
A05D
102
}
330
A05D
100
AcDbDictionary
281
     1
  3
Model
350
A313
  3
レイアウト1
350
A314
  0
DICTIONARY
  5
A2C6
102
{ACAD_REACTORS
330
A05D
102
}
330
A05D
100
AcDbDictionary
281
     1
  3
ByBlock
350
A2CF
  3
ByLayer
350
A2C7
  3
Global
350
A2D7
  0
DICTIONARY
  5
A30D
102
{ACAD_REACTORS
330
A05D
102
}
330
A05D
100
AcDbDictionary
281
     1
  3
Standard
350
A30E
  0
DICTIONARY
  5
A067
102
{ACAD_REACTORS
330
A05D
102
}
330
A05D
100
AcDbDictionary
281
     1
  3
STANDARD
350
A068
  0
DICTIONARY
  5
A069
102
{ACAD_REACTORS
330
A05D
102
}
330
A05D
100
AcDbDictionary
281
     1
  0
ACDBDICTIONARYWDFLT
  5
A2C4
102
{ACAD_REACTORS
330
A05D
102
}
330
A05D
100
AcDbDictionary
281
     1
  3
Normal
350
A2C5
100
AcDbDictionaryWithDefault
340
A2C5
  0
DICTIONARY
  5
A2FB
102
{ACAD_REACTORS
330
A05D
102
}
330
A05D
100
AcDbDictionary
281
     1
  3
A0
350
A2FC
  3
A1
350
A2FD
  3
A2
350
A2FE
  3
A3
350
A2FF
  3
A4
350
A300
  3
A5
350
A301
  3
A6
350
A302
  3
A7
350
A303
  3
A8
350
A304
  3
A9
350
A305
  3
B0
350
A306
  3
B1
350
A307
  3
B2
350
A308
  3
B3
350
A309
  3
B4
350
A30A
  3
B5
350
A30B
  3
B6
350
A30C
  0
DICTIONARY
  5
A30F
102
{ACAD_REACTORS
330
A05D
102
}
330
A05D
100
AcDbDictionary
281
     1
  3
Imperial24
350
A310
  0
DICTIONARY
  5
A2F9
102
{ACAD_REACTORS
330
A05D
102
}
330
A05D
100
AcDbDictionary
281
     1
  3
Standard
350
A2FA
  0
DICTIONARY
  5
A2DF
102
{ACAD_REACTORS
330
A05D
102
}
330
A05D
100
AcDbDictionary
281
     1
  3
2dWireframe
350
A2E5
  3
Basic
350
A2E4
  3
Brighten
350
A2EB
  3
ColorChange
350
A2EF
  3
Conceptual
350
A2E8
  3
Dim
350
A2EA
  3
EdgeColorOff
350
A2F7
  3
Facepattern
350
A2EE
  3
Flat
350
A2E0
  3
FlatWithEdges
350
A2E1
  3
Gouraud
350
A2E2
  3
GouraudWithEdges
350
A2E3
  3
Hidden
350
A2E7
  3
JitterOff
350
A2F5
  3
Linepattern
350
A2ED
  3
OverhangOff
350
A2F6
  3
Realistic
350
A2E9
  3
Shaded
350
A2F4
  3
Shaded with edges
350
A2F3
  3
Shades of Gray
350
A2F0
  3
Sketchy
350
A2F1
  3
Thicken
350
A2EC
  3
Wireframe
350
A2E6
  3
X-Ray
350
A2F2
  0
XRECORD
  5
A334
102
{ACAD_REACTORS
330
A05D
102
}
330
A05D
100
AcDbXrecord
280
     1
 90
        1
330
A2FA
  0
DICTIONARY
  5
A327
102
{ACAD_REACTORS
330
A05D
102
}
330
A05D
100
AcDbDictionary
281
     1
  3
CANNOSCALE
350
A32C
  3
CMLEADERSTYLE
350
A329
  3
CTABLESTYLE
350
A328
  3
CVIEWDETAILSTYLE
350
A32A
  3
CVIEWSECTIONSTYLE
350
A32B
  3
DIMASSOC
350
A32F
  3
INDEXCTL
350
A32E
  3
SORTENTS
350
A32D
  3
XCLIPFRAME
350
A330
  0
XRECORD
  5
A335
102
{ACAD_REACTORS
330
A05D
102
}
330
A05D
100
AcDbXrecord
280
     1
  1
DWGPROPS COOKIE
  2

  3

  4

  6

  7

  8
Yoshitsune
  9

300
=
301
=
302
=
303
=
304
=
305
=
306
=
307
=
308
=
309
=
 40
0.1439136805555556
 41
2451301.43662037
 42
2457192.6900875
  1

 90
        0
  0
XRECORD
  5
A318
102
{ACAD_REACTORS
330
A317
102
}
330
A317
100
AcDbXrecord
280
     1
290
     1
  0
XRECORD
  5
A31A
102
{ACAD_REACTORS
330
A319
102
}
330
A319
100
AcDbXrecord
280
     1
290
     1
  0
XRECORD
  5
A31C
102
{ACAD_REACTORS
330
A31B
102
}
330
A31B
100
AcDbXrecord
280
     1
290
     1
  0
XRECORD
  5
A31E
102
{ACAD_REACTORS
330
A31D
102
}
330
A31D
100
AcDbXrecord
280
     1
290
     1
  0
XRECORD
  5
A320
102
{ACAD_REACTORS
330
A31F
102
}
330
A31F
100
AcDbXrecord
280
     1
290
     1
  0
XRECORD
  5
A322
102
{ACAD_REACTORS
330
A321
102
}
330
A321
100
AcDbXrecord
280
     1
290
     1
  0
XRECORD
  5
A324
102
{ACAD_REACTORS
330
A323
102
}
330
A323
100
AcDbXrecord
280
     1
290
     1
  0
XRECORD
  5
A326
102
{ACAD_REACTORS
330
A325
102
}
330
A325
100
AcDbXrecord
280
     1
290
     1
  0
XRECORD
  5
A2C0
102
{ACAD_REACTORS
330
A2A4
102
}
330
A2A4
100
AcDbXrecord
280
     1
340
A06F
  0
XRECORD
  5
A2BF
102
{ACAD_REACTORS
330
A2A2
102
}
330
A2A2
100
AcDbXrecord
280
     1
340
A06B
  0
ACDBDETAILVIEWSTYLE
  5
A312
102
{ACAD_XDICTIONARY
360
A36D
102
}
102
{ACAD_REACTORS
330
A311
102
}
330
A311
100
AcDbModelDocViewStyle
 70
     0
  3
Imperial24
290
     0
100
AcDbDetailViewStyle
 70
     0
 71
     0
 90
        3
 71
     1
340
A062
 40
0.24
340
0
 40
0.24
300

 40
0.36
280
     3
 71
     2
340
A066
 90
       25
 71
     3
340
A062
 40
0.24
 90
        1
 40
0.75
 90
        1
300
%<\AcVar ViewType \f "%tc1">% %<\AcVar ViewDetailId>%\PSCALE %<\AcVar ViewScale \f "%sn">%
 71
     4
340
A066
 90
       25
340
A066
 90
       25
280
     0
  0
LAYOUT
  5
A313
102
{ACAD_XDICTIONARY
360
A36F
102
}
102
{ACAD_REACTORS
330
A06A
102
}
330
A06A
100
AcDbPlotSettings
  1

  2
Canon LBP9100C
  4

  6

 40
0.0
 41
0.0
 42
0.0
 43
0.0
 44
0.0
 45
0.0
 46
0.0
 47
0.0
 48
0.0
 49
0.0
140
0.0
141
0.0
142
1.0
143
1.0
 70
  1712
 72
     0
 73
     0
 74
     0
  7

 75
     0
147
1.0
148
0.0
149
0.0
100
AcDbLayout
  1
Model
 70
     1
 71
     0
 10
0.0
 20
0.0
 11
12.0
 21
9.0
 12
0.0
 22
0.0
 32
0.0
 14
0.0
 24
0.0
 34
0.0
 15
0.0
 25
0.0
 35
0.0
146
0.0
 13
0.0
 23
0.0
 33
0.0
 16
1.0
 26
0.0
 36
0.0
 17
0.0
 27
1.0
 37
0.0
 76
     0
330
A06F
331
A2BE
  0
LAYOUT
  5
A314
102
{ACAD_XDICTIONARY
360
A371
102
}
102
{ACAD_REACTORS
330
A06A
102
}
330
A06A
100
AcDbPlotSettings
  1

  2
Canon LBP9100C
  4

  6

 40
0.0
 41
0.0
 42
0.0
 43
0.0
 44
0.0
 45
0.0
 46
0.0
 47
0.0
 48
0.0
 49
0.0
140
0.0
141
0.0
142
1.0
143
1.0
 70
   688
 72
     0
 73
     0
 74
     5
  7

 75
    16
147
1.0
148
0.0
149
0.0
100
AcDbLayout
  1
レイアウト1
 70
     0
 71
     1
 10
0.0
 20
0.0
 11
420.0
 21
297.0
 12
0.0
 22
0.0
 32
0.0
 14
1.000000000000000E+20
 24
1.000000000000000E+20
 34
1.000000000000000E+20
 15
-1.000000000000000E+20
 25
-1.000000000000000E+20
 35
-1.000000000000000E+20
146
0.0
 13
0.0
 23
0.0
 33
0.0
 16
1.0
 26
0.0
 36
0.0
 17
0.0
 27
1.0
 37
0.0
 76
     0
330
A06B
  0
MATERIAL
  5
A2CF
102
{ACAD_XDICTIONARY
360
A2D0
102
}
102
{ACAD_REACTORS
330
A2C6
102
}
330
A2C6
100
AcDbMaterial
  1
ByBlock
 72
     0
 43
0.0208333333333333
 43
0.0
 43
0.0
 43
0.0
 43
0.0
 43
0.0208333333333333
 43
0.0
 43
0.0
 43
0.0
 43
0.0
 43
1.0
 43
0.0
 43
0.0
 43
0.0
 43
0.0
 43
1.0
 77
     0
 47
0.0208333333333333
 47
0.0
 47
0.0
 47
0.0
 47
0.0
 47
0.0208333333333333
 47
0.0
 47
0.0
 47
0.0
 47
0.0
 47
1.0
 47
0.0
 47
0.0
 47
0.0
 47
0.0
 47
1.0
171
     0
 49
0.0208333333333333
 49
0.0
 49
0.0
 49
0.0
 49
0.0
 49
0.0208333333333333
 49
0.0
 49
0.0
 49
0.0
 49
0.0
 49
1.0
 49
0.0
 49
0.0
 49
0.0
 49
0.0
 49
1.0
175
     0
142
0.0208333333333333
142
0.0
142
0.0
142
0.0
142
0.0
142
0.0208333333333333
142
0.0
142
0.0
142
0.0
142
0.0
142
1.0
142
0.0
142
0.0
142
0.0
142
0.0
142
1.0
179
     0
144
0.0208333333333333
144
0.0
144
0.0
144
0.0
144
0.0
144
0.0208333333333333
144
0.0
144
0.0
144
0.0
144
0.0
144
1.0
144
0.0
144
0.0
144
0.0
144
0.0
144
1.0
147
0.0208333333333333
147
0.0
147
0.0
147
0.0
147
0.0
147
0.0208333333333333
147
0.0
147
0.0
147
0.0
147
0.0
147
1.0
147
0.0
147
0.0
147
0.0
147
0.0
147
1.0
  0
MATERIAL
  5
A2C7
102
{ACAD_XDICTIONARY
360
A2C8
102
}
102
{ACAD_REACTORS
330
A2C6
102
}
330
A2C6
100
AcDbMaterial
  1
ByLayer
 72
     0
 43
0.0208333333333333
 43
0.0
 43
0.0
 43
0.0
 43
0.0
 43
0.0208333333333333
 43
0.0
 43
0.0
 43
0.0
 43
0.0
 43
1.0
 43
0.0
 43
0.0
 43
0.0
 43
0.0
 43
1.0
 77
     0
 47
0.0208333333333333
 47
0.0
 47
0.0
 47
0.0
 47
0.0
 47
0.0208333333333333
 47
0.0
 47
0.0
 47
0.0
 47
0.0
 47
1.0
 47
0.0
 47
0.0
 47
0.0
 47
0.0
 47
1.0
171
     0
 49
0.0208333333333333
 49
0.0
 49
0.0
 49
0.0
 49
0.0
 49
0.0208333333333333
 49
0.0
 49
0.0
 49
0.0
 49
0.0
 49
1.0
 49
0.0
 49
0.0
 49
0.0
 49
0.0
 49
1.0
175
     0
142
0.0208333333333333
142
0.0
142
0.0
142
0.0
142
0.0
142
0.0208333333333333
142
0.0
142
0.0
142
0.0
142
0.0
142
1.0
142
0.0
142
0.0
142
0.0
142
0.0
142
1.0
179
     0
144
0.0208333333333333
144
0.0
144
0.0
144
0.0
144
0.0
144
0.0208333333333333
144
0.0
144
0.0
144
0.0
144
0.0
144
1.0
144
0.0
144
0.0
144
0.0
144
0.0
144
1.0
147
0.0208333333333333
147
0.0
147
0.0
147
0.0
147
0.0
147
0.0208333333333333
147
0.0
147
0.0
147
0.0
147
0.0
147
1.0
147
0.0
147
0.0
147
0.0
147
0.0
147
1.0
  0
MATERIAL
  5
A2D7
102
{ACAD_XDICTIONARY
360
A2D8
102
}
102
{ACAD_REACTORS
330
A2C6
102
}
330
A2C6
100
AcDbMaterial
  1
Global
 72
     0
 43
0.0208333333333333
 43
0.0
 43
0.0
 43
0.0
 43
0.0
 43
0.0208333333333333
 43
0.0
 43
0.0
 43
0.0
 43
0.0
 43
1.0
 43
0.0
 43
0.0
 43
0.0
 43
0.0
 43
1.0
 77
     0
 47
0.0208333333333333
 47
0.0
 47
0.0
 47
0.0
 47
0.0
 47
0.0208333333333333
 47
0.0
 47
0.0
 47
0.0
 47
0.0
 47
1.0
 47
0.0
 47
0.0
 47
0.0
 47
0.0
 47
1.0
171
     0
 49
0.0208333333333333
 49
0.0
 49
0.0
 49
0.0
 49
0.0
 49
0.0208333333333333
 49
0.0
 49
0.0
 49
0.0
 49
0.0
 49
1.0
 49
0.0
 49
0.0
 49
0.0
 49
0.0
 49
1.0
175
     0
142
0.0208333333333333
142
0.0
142
0.0
142
0.0
142
0.0
142
0.0208333333333333
142
0.0
142
0.0
142
0.0
142
0.0
142
1.0
142
0.0
142
0.0
142
0.0
142
0.0
142
1.0
179
     0
144
0.0208333333333333
144
0.0
144
0.0
144
0.0
144
0.0
144
0.0208333333333333
144
0.0
144
0.0
144
0.0
144
0.0
144
1.0
144
0.0
144
0.0
144
0.0
144
0.0
144
1.0
147
0.0208333333333333
147
0.0
147
0.0
147
0.0
147
0.0
147
0.0208333333333333
147
0.0
147
0.0
147
0.0
147
0.0
147
1.0
147
0.0
147
0.0
147
0.0
147
0.0
147
1.0
  0
MLEADERSTYLE
  5
A30E
102
{ACAD_REACTORS
330
A30D
102
}
330
A30D
100
AcDbMLeaderStyle
170
     2
171
     1
172
     0
 90
        2
 40
0.0
 41
0.0
173
     1
 91
-1056964608
340
A064
 92
       -2
290
     1
 42
0.09
291
     1
 43
0.36
  3
Standard
 44
0.18
300

342
A062
174
     1
178
     6
175
     1
176
     0
 93
-1056964608
 45
0.18
292
     0
297
     0
 46
0.18
 94
-1056964608
 47
1.0
 49
1.0
140
1.0
293
     1
141
0.0
294
     1
177
     0
142
1.0
295
     0
296
     0
143
0.125
1001
ACAD_MLEADERVER
1070
     2
  0
MLINESTYLE
  5
A068
102
{ACAD_REACTORS
330
A067
102
}
330
A067
100
AcDbMlineStyle
  2
STANDARD
 70
     0
  3

 62
   256
 51
90.0
 52
90.0
 71
     2
 49
0.5
 62
   256
  6
BYLAYER
 49
-0.5
 62
   256
  6
BYLAYER
  0
ACDBPLACEHOLDER
  5
A2C5
102
{ACAD_REACTORS
330
A2C4
102
}
330
A2C4
  0
SCALE
  5
A2FC
102
{ACAD_REACTORS
330
A2FB
102
}
330
A2FB
100
AcDbScale
 70
     0
300
1:1
140
1.0
141
1.0
290
     1
  0
SCALE
  5
A2FD
102
{ACAD_REACTORS
330
A2FB
102
}
330
A2FB
100
AcDbScale
 70
     0
300
1/128" = 1'-0"
140
0.0078125
141
12.0
290
     0
  0
SCALE
  5
A2FE
102
{ACAD_REACTORS
330
A2FB
102
}
330
A2FB
100
AcDbScale
 70
     0
300
1/64" = 1'-0"
140
0.015625
141
12.0
290
     0
  0
SCALE
  5
A2FF
102
{ACAD_REACTORS
330
A2FB
102
}
330
A2FB
100
AcDbScale
 70
     0
300
1/32" = 1'-0"
140
0.03125
141
12.0
290
     0
  0
SCALE
  5
A300
102
{ACAD_REACTORS
330
A2FB
102
}
330
A2FB
100
AcDbScale
 70
     0
300
1/16" = 1'-0"
140
0.0625
141
12.0
290
     0
  0
SCALE
  5
A301
102
{ACAD_REACTORS
330
A2FB
102
}
330
A2FB
100
AcDbScale
 70
     0
300
3/32" = 1'-0"
140
0.09375
141
12.0
290
     0
  0
SCALE
  5
A302
102
{ACAD_REACTORS
330
A2FB
102
}
330
A2FB
100
AcDbScale
 70
     0
300
1/8" = 1'-0"
140
0.125
141
12.0
290
     0
  0
SCALE
  5
A303
102
{ACAD_REACTORS
330
A2FB
102
}
330
A2FB
100
AcDbScale
 70
     0
300
3/16" = 1'-0"
140
0.1875
141
12.0
290
     0
  0
SCALE
  5
A304
102
{ACAD_REACTORS
330
A2FB
102
}
330
A2FB
100
AcDbScale
 70
     0
300
1/4" = 1'-0"
140
0.25
141
12.0
290
     0
  0
SCALE
  5
A305
102
{ACAD_REACTORS
330
A2FB
102
}
330
A2FB
100
AcDbScale
 70
     0
300
3/8" = 1'-0"
140
0.375
141
12.0
290
     0
  0
SCALE
  5
A306
102
{ACAD_REACTORS
330
A2FB
102
}
330
A2FB
100
AcDbScale
 70
     0
300
1/2" = 1'-0"
140
0.5
141
12.0
290
     0
  0
SCALE
  5
A307
102
{ACAD_REACTORS
330
A2FB
102
}
330
A2FB
100
AcDbScale
 70
     0
300
3/4" = 1'-0"
140
0.75
141
12.0
290
     0
  0
SCALE
  5
A308
102
{ACAD_REACTORS
330
A2FB
102
}
330
A2FB
100
AcDbScale
 70
     0
300
1" = 1'-0"
140
1.0
141
12.0
290
     0
  0
SCALE
  5
A309
102
{ACAD_REACTORS
330
A2FB
102
}
330
A2FB
100
AcDbScale
 70
     0
300
1-1/2" = 1'-0"
140
1.5
141
12.0
290
     0
  0
SCALE
  5
A30A
102
{ACAD_REACTORS
330
A2FB
102
}
330
A2FB
100
AcDbScale
 70
     0
300
3" = 1'-0"
140
3.0
141
12.0
290
     0
  0
SCALE
  5
A30B
102
{ACAD_REACTORS
330
A2FB
102
}
330
A2FB
100
AcDbScale
 70
     0
300
6" = 1'-0"
140
6.0
141
12.0
290
     0
  0
SCALE
  5
A30C
102
{ACAD_REACTORS
330
A2FB
102
}
330
A2FB
100
AcDbScale
 70
     0
300
1'-0" = 1'-0"
140
12.0
141
12.0
290
     0
  0
ACDBSECTIONVIEWSTYLE
  5
A310
102
{ACAD_XDICTIONARY
360
A36B
102
}
102
{ACAD_REACTORS
330
A30F
102
}
330
A30F
100
AcDbModelDocViewStyle
 70
     0
  3
Imperial24
290
     0
100
AcDbSectionViewStyle
 70
     0
 71
     0
 90
       78
 71
     1
340
A062
 40
0.24
340
0
340
0
 40
0.24
300
I, O, Q, S, X, Z
 40
0.48
 90
        3
 40
0.18
 90
        1
 71
     2
340
A066
 90
       25
340
A066
 90
       50
 40
0.24
 40
0.0
 40
0.24
 71
     3
340
A062
 40
0.24
 90
        1
 40
0.75
 90
        1
300
%<\AcVar ViewType \f "%tc1">% %<\AcVar ViewSectionStartId>%-%<\AcVar ViewSectionEndId>%\PSCALE %<\AcVar ViewScale \f "%sn">%
 71
     4
300
ANSI31
 40
1.0
 90
        0
290
     0
290
     0
 90
        6
 40
0.0
 40
1.570796326794896
 40
0.2617993877991494
 40
1.308996938995747
 40
-0.2617993877991494
 40
1.832595714594046
  0
TABLESTYLE
  5
A2FA
102
{ACAD_XDICTIONARY
360
A332
102
}
102
{ACAD_REACTORS
330
A2F9
102
}
330
A2F9
100
AcDbTableStyle
  3
Standard
 70
     0
 71
     0
 40
0.06
 41
0.06
280
     0
281
     0
  7
STANDARD
140
0.18
170
     2
 62
     0
 63
     7
283
     0
274
    -2
284
     1
 64
     0
275
    -2
285
     1
 65
     0
276
    -2
286
     1
 66
     0
277
    -2
287
     1
 67
     0
278
    -2
288
     1
 68
     0
279
    -2
289
     1
 69
     0
  7
STANDARD
140
0.25
170
     5
 62
     0
 63
     7
283
     0
274
    -2
284
     1
 64
     0
275
    -2
285
     1
 65
     0
276
    -2
286
     1
 66
     0
277
    -2
287
     1
 67
     0
278
    -2
288
     1
 68
     0
279
    -2
289
     1
 69
     0
  7
STANDARD
140
0.18
170
     5
 62
     0
 63
     7
283
     0
274
    -2
284
     1
 64
     0
275
    -2
285
     1
 65
     0
276
    -2
286
     1
 66
     0
277
    -2
287
     1
 67
     0
278
    -2
288
     1
 68
     0
279
    -2
289
     1
 69
     0
  0
VISUALSTYLE
  5
A2E5
102
{ACAD_XDICTIONARY
360
A343
102
}
102
{ACAD_REACTORS
330
A2DF
102
}
330
A2DF
100
AcDbVisualStyle
  2
2dWireframe
 70
     4
 71
     0
 72
     2
 73
     0
 90
        0
 40
-0.6
 41
-30.0
 62
     5
 63
     7
 74
     1
 91
        4
 64
     7
 65
   257
 75
     1
175
     1
 42
1.0
 92
        0
 66
   257
 43
1.0
 76
     1
 77
     6
 78
     2
 67
     7
 79
     5
170
     0
171
     0
290
     0
174
     0
 93
        1
 44
0.0
173
     0
291
     0
 45
0.0
1001
ACAD
1000
AcDbSavedByObjectVersion
1070
     0
  0
VISUALSTYLE
  5
A2E4
102
{ACAD_XDICTIONARY
360
A341
102
}
102
{ACAD_REACTORS
330
A2DF
102
}
330
A2DF
100
AcDbVisualStyle
  2
Basic
 70
     7
 71
     1
 72
     0
 73
     1
 90
        0
 40
-0.6
 41
-30.0
 62
     5
 63
     7
 74
     0
 91
        4
 64
     7
 65
   257
 75
     1
175
     1
 42
1.0
 92
        8
 66
     7
 43
1.0
 76
     1
 77
     6
 78
     2
 67
     7
 79
     5
170
     0
171
     0
290
     0
174
     0
 93
        1
 44
0.0
173
     0
291
     1
 45
0.0
1001
ACAD
1000
AcDbSavedByObjectVersion
1070
     0
  0
VISUALSTYLE
  5
A2EB
102
{ACAD_XDICTIONARY
360
A34F
102
}
102
{ACAD_REACTORS
330
A2DF
102
}
330
A2DF
100
AcDbVisualStyle
  2
Brighten
 70
    12
 71
     2
 72
     2
 73
     0
 90
        0
 40
-0.6
 41
-30.0
 62
     5
 63
     7
 74
     1
 91
        4
 64
     7
 65
   257
 75
     1
175
     1
 42
1.0
 92
        8
 66
     7
 43
1.0
 76
     1
 77
     6
 78
     2
 67
     7
 79
     5
170
     0
171
     0
290
     0
174
     0
 93
        1
 44
50.0
173
     0
291
     1
 45
0.0
1001
ACAD
1000
AcDbSavedByObjectVersion
1070
     0
  0
VISUALSTYLE
  5
A2EF
102
{ACAD_XDICTIONARY
360
A357
102
}
102
{ACAD_REACTORS
330
A2DF
102
}
330
A2DF
100
AcDbVisualStyle
  2
ColorChange
 70
    16
 71
     2
 72
     2
 73
     3
 90
        0
 40
-0.6
 41
-30.0
 62
     5
 63
     8
 74
     1
 91
        4
 64
     7
 65
   257
 75
     1
175
     1
 42
1.0
 92
        8
 66
     8
 43
1.0
 76
     1
 77
     6
 78
     2
 67
     7
 79
     5
170
     0
171
     0
290
     0
174
     0
 93
        1
 44
0.0
173
     0
291
     1
 45
0.0
1001
ACAD
1000
AcDbSavedByObjectVersion
1070
     0
  0
VISUALSTYLE
  5
A2E8
102
{ACAD_XDICTIONARY
360
A349
102
}
102
{ACAD_REACTORS
330
A2DF
102
}
330
A2DF
100
AcDbVisualStyle
  2
Conceptual
 70
     9
 71
     3
 72
     2
 73
     0
 90
        0
 40
-0.6
 41
-30.0
 62
     5
 63
     7
 74
     2
 91
        2
 64
     7
 65
   257
 75
     1
175
     1
 42
179.0
 92
        8
 66
     7
 43
1.0
 76
     1
 77
     6
 78
     2
 67
     7
 79
     3
170
     0
171
     0
290
     0
174
     0
 93
        1
 44
0.0
173
     0
291
     0
 45
0.0
1001
ACAD
1000
AcDbSavedByObjectVersion
1070
     0
  0
VISUALSTYLE
  5
A2EA
102
{ACAD_XDICTIONARY
360
A34D
102
}
102
{ACAD_REACTORS
330
A2DF
102
}
330
A2DF
100
AcDbVisualStyle
  2
Dim
 70
    11
 71
     2
 72
     2
 73
     0
 90
        0
 40
-0.6
 41
-30.0
 62
     5
 63
     7
 74
     1
 91
        4
 64
     7
 65
   257
 75
     1
175
     1
 42
1.0
 92
        8
 66
     7
 43
1.0
 76
     1
 77
     6
 78
     2
 67
     7
 79
     5
170
     0
171
     0
290
     0
174
     0
 93
        1
 44
-50.0
173
     0
291
     1
 45
0.0
1001
ACAD
1000
AcDbSavedByObjectVersion
1070
     0
  0
VISUALSTYLE
  5
A2F7
102
{ACAD_XDICTIONARY
360
A367
102
}
102
{ACAD_REACTORS
330
A2DF
102
}
330
A2DF
100
AcDbVisualStyle
  2
EdgeColorOff
 70
    22
 71
     2
 72
     2
 73
     0
 90
        0
 40
-0.6
 41
-30.0
 62
     5
 63
     7
 74
     1
 91
        4
 64
     7
 65
   257
 75
     1
175
     1
 42
1.0
 92
        8
 66
     7
 43
1.0
 76
     1
 77
     6
 78
     2
 67
     7
 79
     5
170
     0
171
     0
290
     0
174
     0
 93
        1
 44
0.0
173
     0
291
     1
 45
0.0
1001
ACAD
1000
AcDbSavedByObjectVersion
1070
     0
  0
VISUALSTYLE
  5
A2EE
102
{ACAD_XDICTIONARY
360
A355
102
}
102
{ACAD_REACTORS
330
A2DF
102
}
330
A2DF
100
AcDbVisualStyle
  2
Facepattern
 70
    15
 71
     2
 72
     2
 73
     0
 90
        0
 40
-0.6
 41
-30.0
 62
     5
 63
     7
 74
     1
 91
        4
 64
     7
 65
   257
 75
     1
175
     1
 42
1.0
 92
        8
 66
     7
 43
1.0
 76
     1
 77
     6
 78
     2
 67
     7
 79
     5
170
     0
171
     0
290
     0
174
     0
 93
        1
 44
0.0
173
     0
291
     1
 45
0.0
1001
ACAD
1000
AcDbSavedByObjectVersion
1070
     0
  0
VISUALSTYLE
  5
A2E0
102
{ACAD_XDICTIONARY
360
A339
102
}
102
{ACAD_REACTORS
330
A2DF
102
}
330
A2DF
100
AcDbVisualStyle
  2
Flat
 70
     0
 71
     2
 72
     1
 73
     1
 90
        2
 40
-0.6
 41
30.0
 62
     5
 63
     7
 74
     0
 91
        0
 64
     7
 65
   257
 75
     1
175
     1
 42
1.0
 92
        8
 66
     7
 43
1.0
 76
     1
 77
     6
 78
     2
 67
     7
 79
     5
170
     0
171
     0
290
     0
174
     0
 93
       13
 44
0.0
173
     0
291
     1
 45
0.0
1001
ACAD
1000
AcDbSavedByObjectVersion
1070
     0
  0
VISUALSTYLE
  5
A2E1
102
{ACAD_XDICTIONARY
360
A33B
102
}
102
{ACAD_REACTORS
330
A2DF
102
}
330
A2DF
100
AcDbVisualStyle
  2
FlatWithEdges
 70
     1
 71
     2
 72
     1
 73
     1
 90
        2
 40
-0.6
 41
30.0
 62
     5
 63
     7
 74
     1
 91
        0
 64
     7
 65
   257
 75
     1
175
     1
 42
1.0
 92
        0
 66
   257
 43
1.0
 76
     1
 77
     6
 78
     2
 67
     7
 79
     5
170
     0
171
     0
290
     0
174
     0
 93
       13
 44
0.0
173
     0
291
     1
 45
0.0
1001
ACAD
1000
AcDbSavedByObjectVersion
1070
     0
  0
VISUALSTYLE
  5
A2E2
102
{ACAD_XDICTIONARY
360
A33D
102
}
102
{ACAD_REACTORS
330
A2DF
102
}
330
A2DF
100
AcDbVisualStyle
  2
Gouraud
 70
     2
 71
     2
 72
     2
 73
     1
 90
        2
 40
-0.6
 41
30.0
 62
     5
 63
     7
 74
     0
 91
        0
 64
     7
 65
   257
 75
     1
175
     1
 42
1.0
 92
        0
 66
     7
 43
1.0
 76
     1
 77
     6
 78
     2
 67
     7
 79
     5
170
     0
171
     0
290
     0
174
     0
 93
       13
 44
0.0
173
     0
291
     1
 45
0.0
1001
ACAD
1000
AcDbSavedByObjectVersion
1070
     0
  0
VISUALSTYLE
  5
A2E3
102
{ACAD_XDICTIONARY
360
A33F
102
}
102
{ACAD_REACTORS
330
A2DF
102
}
330
A2DF
100
AcDbVisualStyle
  2
GouraudWithEdges
 70
     3
 71
     2
 72
     2
 73
     1
 90
        2
 40
-0.6
 41
30.0
 62
     5
 63
     7
 74
     1
 91
        0
 64
     7
 65
   257
 75
     1
175
     1
 42
1.0
 92
        0
 66
   257
 43
1.0
 76
     1
 77
     6
 78
     2
 67
     7
 79
     5
170
     0
171
     0
290
     0
174
     0
 93
       13
 44
0.0
173
     0
291
     1
 45
0.0
1001
ACAD
1000
AcDbSavedByObjectVersion
1070
     0
  0
VISUALSTYLE
  5
A2E7
102
{ACAD_XDICTIONARY
360
A347
102
}
102
{ACAD_REACTORS
330
A2DF
102
}
330
A2DF
100
AcDbVisualStyle
  2
Hidden
 70
     6
 71
     1
 72
     2
 73
     2
 90
        0
 40
-0.6
 41
-30.0
 62
     5
 63
     7
 74
     2
 91
        2
 64
     7
 65
   257
 75
     2
175
     1
 42
40.0
 92
        0
 66
   257
 43
1.0
 76
     1
 77
     6
 78
     2
 67
     7
 79
     3
170
     0
171
     0
290
     0
174
     0
 93
        1
 44
0.0
173
     0
291
     0
 45
0.0
1001
ACAD
1000
AcDbSavedByObjectVersion
1070
     0
  0
VISUALSTYLE
  5
A2F5
102
{ACAD_XDICTIONARY
360
A363
102
}
102
{ACAD_REACTORS
330
A2DF
102
}
330
A2DF
100
AcDbVisualStyle
  2
JitterOff
 70
    20
 71
     2
 72
     2
 73
     0
 90
        0
 40
-0.6
 41
-30.0
 62
     5
 63
     7
 74
     1
 91
        4
 64
     7
 65
   257
 75
     1
175
     1
 42
1.0
 92
       10
 66
     7
 43
1.0
 76
     1
 77
     6
 78
     2
 67
     7
 79
     5
170
     0
171
     0
290
     0
174
     0
 93
        1
 44
0.0
173
     0
291
     1
 45
0.0
1001
ACAD
1000
AcDbSavedByObjectVersion
1070
     0
  0
VISUALSTYLE
  5
A2ED
102
{ACAD_XDICTIONARY
360
A353
102
}
102
{ACAD_REACTORS
330
A2DF
102
}
330
A2DF
100
AcDbVisualStyle
  2
Linepattern
 70
    14
 71
     2
 72
     2
 73
     0
 90
        0
 40
-0.6
 41
-30.0
 62
     5
 63
     7
 74
     1
 91
        4
 64
     7
 65
   257
 75
     7
175
     7
 42
1.0
 92
        8
 66
     7
 43
1.0
 76
     1
 77
     6
 78
     2
 67
     7
 79
     5
170
     0
171
     0
290
     0
174
     0
 93
        1
 44
0.0
173
     0
291
     1
 45
0.0
1001
ACAD
1000
AcDbSavedByObjectVersion
1070
     0
  0
VISUALSTYLE
  5
A2F6
102
{ACAD_XDICTIONARY
360
A365
102
}
102
{ACAD_REACTORS
330
A2DF
102
}
330
A2DF
100
AcDbVisualStyle
  2
OverhangOff
 70
    21
 71
     2
 72
     2
 73
     0
 90
        0
 40
-0.6
 41
-30.0
 62
     5
 63
     7
 74
     1
 91
        4
 64
     7
 65
   257
 75
     1
175
     1
 42
1.0
 92
        9
 66
     7
 43
1.0
 76
     1
 77
     6
 78
     2
 67
     7
 79
     5
170
     0
171
     0
290
     0
174
     0
 93
        1
 44
0.0
173
     0
291
     1
 45
0.0
1001
ACAD
1000
AcDbSavedByObjectVersion
1070
     0
  0
VISUALSTYLE
  5
A2E9
102
{ACAD_XDICTIONARY
360
A34B
102
}
102
{ACAD_REACTORS
330
A2DF
102
}
330
A2DF
100
AcDbVisualStyle
  2
Realistic
 70
     8
 71
     2
 72
     3
 73
     0
 90
        2
 40
-0.6
 41
30.0
 62
     5
 63
     7
 74
     0
 91
        0
 64
     7
 65
   257
 75
     1
175
     1
 42
1.0
 92
        8
 66
   257
 43
1.0
 76
     1
 77
     6
 78
     2
 67
     7
 79
     3
170
     0
171
     0
290
     0
174
     0
 93
       13
 44
0.0
173
     0
291
     0
 45
0.0
1001
ACAD
1000
AcDbSavedByObjectVersion
1070
     0
  0
VISUALSTYLE
  5
A2F4
102
{ACAD_XDICTIONARY
360
A361
102
}
102
{ACAD_REACTORS
330
A2DF
102
}
330
A2DF
100
AcDbVisualStyle
  2
Shaded
 70
    27
 71
     2
 72
     2
 73
     1
 90
        2
 40
-0.6
 41
30.0
 62
     5
 63
     7
 74
     0
 91
        4
 64
     7
 65
   257
 75
     1
175
     1
 42
1.0
 92
        8
 66
   257
 43
1.0
 76
     1
 77
     6
 78
     2
 67
     8
 79
     3
170
     0
171
     0
290
     0
174
     0
 93
        5
 44
0.0
173
     0
291
     0
 45
0.0
1001
ACAD
1000
AcDbSavedByObjectVersion
1070
     0
  0
VISUALSTYLE
  5
A2F3
102
{ACAD_XDICTIONARY
360
A35F
102
}
102
{ACAD_REACTORS
330
A2DF
102
}
330
A2DF
100
AcDbVisualStyle
  2
Shaded with edges
 70
    26
 71
     2
 72
     2
 73
     1
 90
        2
 40
-0.6
 41
30.0
 62
     5
 63
     7
 74
     1
 91
       10
 64
     7
 65
   257
 75
     2
175
     1
 42
1.0
 92
        8
 66
   257
 43
1.0
 76
     1
 77
     6
 78
     2
 67
     7
 79
     3
170
     0
171
     0
290
     0
174
     0
 93
        5
 44
0.0
173
     0
291
     0
 45
0.0
1001
ACAD
1000
AcDbSavedByObjectVersion
1070
     0
  0
VISUALSTYLE
  5
A2F0
102
{ACAD_XDICTIONARY
360
A359
102
}
102
{ACAD_REACTORS
330
A2DF
102
}
330
A2DF
100
AcDbVisualStyle
  2
Shades of Gray
 70
    23
 71
     2
 72
     2
 73
     3
 90
        0
 40
-0.6
 41
-30.0
 62
     5
 63
     7
 74
     2
 91
        2
 64
     7
 65
     7
 75
     1
175
     1
 42
40.0
 92
        8
 66
     7
 43
1.0
 76
     1
 77
     6
 78
     2
 67
     7
 79
     3
170
     0
171
     0
290
     0
174
     0
 93
        1
 44
0.0
173
     0
291
     0
 45
0.0
1001
ACAD
1000
AcDbSavedByObjectVersion
1070
     0
  0
VISUALSTYLE
  5
A2F1
102
{ACAD_XDICTIONARY
360
A35B
102
}
102
{ACAD_REACTORS
330
A2DF
102
}
330
A2DF
100
AcDbVisualStyle
  2
Sketchy
 70
    24
 71
     1
 72
     2
 73
     2
 90
        0
 40
-0.6
 41
-30.0
 62
     5
 63
     7
 74
     2
 91
        2
 64
     7
 65
     7
 75
     1
175
     1
 42
40.0
 92
       11
 66
     7
 43
1.0
 76
     1
 77
     6
 78
     2
 67
     7
 79
     6
170
     0
171
     0
290
     0
174
     0
 93
        1
 44
0.0
173
     0
291
     0
 45
0.0
1001
ACAD
1000
AcDbSavedByObjectVersion
1070
     0
  0
VISUALSTYLE
  5
A2EC
102
{ACAD_XDICTIONARY
360
A351
102
}
102
{ACAD_REACTORS
330
A2DF
102
}
330
A2DF
100
AcDbVisualStyle
  2
Thicken
 70
    13
 71
     2
 72
     2
 73
     0
 90
        0
 40
-0.6
 41
-30.0
 62
     5
 63
     7
 74
     1
 91
        4
 64
     7
 65
   257
 75
     1
175
     1
 42
1.0
 92
       12
 66
     7
 43
1.0
 76
     1
 77
     6
 78
     2
 67
     7
 79
     5
170
     0
171
     0
290
     0
174
     0
 93
        1
 44
0.0
173
     0
291
     1
 45
0.0
1001
ACAD
1000
AcDbSavedByObjectVersion
1070
     0
  0
VISUALSTYLE
  5
A2E6
102
{ACAD_XDICTIONARY
360
A345
102
}
102
{ACAD_REACTORS
330
A2DF
102
}
330
A2DF
100
AcDbVisualStyle
  2
Wireframe
 70
     5
 71
     0
 72
     2
 73
     0
 90
        0
 40
-0.6
 41
-30.0
 62
     5
 63
     7
 74
     1
 91
        4
 64
     7
 65
   257
 75
     1
175
     1
 42
1.0
 92
        0
 66
   257
 43
1.0
 76
     1
 77
     6
 78
     2
 67
     7
 79
     3
170
     0
171
     0
290
     0
174
     0
 93
        1
 44
0.0
173
     0
291
     0
 45
0.0
1001
ACAD
1000
AcDbSavedByObjectVersion
1070
     0
  0
VISUALSTYLE
  5
A2F2
102
{ACAD_XDICTIONARY
360
A35D
102
}
102
{ACAD_REACTORS
330
A2DF
102
}
330
A2DF
100
AcDbVisualStyle
  2
X-Ray
 70
    25
 71
     2
 72
     2
 73
     1
 90
        1
 40
0.5
 41
-30.0
 62
     5
 63
     7
 74
     1
 91
        0
 64
     7
 65
   257
 75
     1
175
     1
 42
1.0
 92
        8
 66
     7
 43
1.0
 76
     1
 77
     6
 78
     2
 67
     7
 79
     3
170
     0
171
     0
290
     0
174
     0
 93
       13
 44
0.0
173
     0
291
     0
 45
0.0
1001
ACAD
1000
AcDbSavedByObjectVersion
1070
     0
  0
DICTIONARYVAR
  5
A32C
102
{ACAD_REACTORS
330
A327
102
}
330
A327
100
DictionaryVariables
280
     0
  1
1:1
  0
DICTIONARYVAR
  5
A329
102
{ACAD_REACTORS
330
A327
102
}
330
A327
100
DictionaryVariables
280
     0
  1
STANDARD
  0
DICTIONARYVAR
  5
A328
102
{ACAD_REACTORS
330
A327
102
}
330
A327
100
DictionaryVariables
280
     0
  1
STANDARD
  0
DICTIONARYVAR
  5
A32A
102
{ACAD_REACTORS
330
A327
102
}
330
A327
100
DictionaryVariables
280
     0
  1
Imperial24
  0
DICTIONARYVAR
  5
A32B
102
{ACAD_REACTORS
330
A327
102
}
330
A327
100
DictionaryVariables
280
     0
  1
Imperial24
  0
DICTIONARYVAR
  5
A32F
102
{ACAD_REACTORS
330
A327
102
}
330
A327
100
DictionaryVariables
280
     0
  1
1
  0
DICTIONARYVAR
  5
A32E
102
{ACAD_REACTORS
330
A327
102
}
330
A327
100
DictionaryVariables
280
     0
  1
0
  0
DICTIONARYVAR
  5
A32D
102
{ACAD_REACTORS
330
A327
102
}
330
A327
100
DictionaryVariables
280
     0
  1
127
  0
DICTIONARYVAR
  5
A330
102
{ACAD_REACTORS
330
A327
102
}
330
A327
100
DictionaryVariables
280
     0
  1
2
  0
DICTIONARY
  5
A36D
330
A312
100
AcDbDictionary
280
     1
281
     1
  3
ACAD_XREC_ROUNDTRIP
360
A36E
  0
DICTIONARY
  5
A36F
330
A313
100
AcDbDictionary
280
     1
281
     1
  3
ACAD_XREC_ROUNDTRIP
360
A370
  0
DICTIONARY
  5
A371
330
A314
100
AcDbDictionary
280
     1
281
     1
  3
ACAD_XREC_ROUNDTRIP
360
A372
  0
DICTIONARY
  5
A2D0
330
A2CF
100
AcDbDictionary
280
     1
281
     1
  3
ACAD_XREC_ROUNDTRIP
360
A337
  3
BUMPTILE
360
A2D2
  3
DIFFUSETILE
360
A2D1
  3
OPACITYTILE
360
A2D5
  3
REFLECTIONTILE
360
A2D4
  3
REFRACTIONTILE
360
A2D6
  3
SPECULARTILE
360
A2D3
  0
DICTIONARY
  5
A2C8
330
A2C7
100
AcDbDictionary
280
     1
281
     1
  3
ACAD_XREC_ROUNDTRIP
360
A336
  3
BUMPTILE
360
A2CA
  3
DIFFUSETILE
360
A2C9
  3
OPACITYTILE
360
A2CD
  3
REFLECTIONTILE
360
A2CC
  3
REFRACTIONTILE
360
A2CE
  3
SPECULARTILE
360
A2CB
  0
DICTIONARY
  5
A2D8
330
A2D7
100
AcDbDictionary
280
     1
281
     1
  3
ACAD_XREC_ROUNDTRIP
360
A338
  3
BUMPTILE
360
A2DA
  3
DIFFUSETILE
360
A2D9
  3
OPACITYTILE
360
A2DD
  3
REFLECTIONTILE
360
A2DC
  3
REFRACTIONTILE
360
A2DE
  3
SPECULARTILE
360
A2DB
  0
DICTIONARY
  5
A36B
330
A310
100
AcDbDictionary
280
     1
281
     1
  3
ACAD_XREC_ROUNDTRIP
360
A36C
  0
DICTIONARY
  5
A332
330
A2FA
100
AcDbDictionary
280
     1
281
     1
  3
ACAD_ROUNDTRIP_2008_TABLESTYLE_CELLSTYLEMAP
360
A333
  3
ACAD_XREC_ROUNDTRIP
360
A369
  0
DICTIONARY
  5
A343
330
A2E5
100
AcDbDictionary
280
     1
281
     1
  3
ACAD_XREC_ROUNDTRIP
360
A344
  0
DICTIONARY
  5
A341
330
A2E4
100
AcDbDictionary
280
     1
281
     1
  3
ACAD_XREC_ROUNDTRIP
360
A342
  0
DICTIONARY
  5
A34F
330
A2EB
100
AcDbDictionary
280
     1
281
     1
  3
ACAD_XREC_ROUNDTRIP
360
A350
  0
DICTIONARY
  5
A357
330
A2EF
100
AcDbDictionary
280
     1
281
     1
  3
ACAD_XREC_ROUNDTRIP
360
A358
  0
DICTIONARY
  5
A349
330
A2E8
100
AcDbDictionary
280
     1
281
     1
  3
ACAD_XREC_ROUNDTRIP
360
A34A
  0
DICTIONARY
  5
A34D
330
A2EA
100
AcDbDictionary
280
     1
281
     1
  3
ACAD_XREC_ROUNDTRIP
360
A34E
  0
DICTIONARY
  5
A367
330
A2F7
100
AcDbDictionary
280
     1
281
     1
  3
ACAD_XREC_ROUNDTRIP
360
A368
  0
DICTIONARY
  5
A355
330
A2EE
100
AcDbDictionary
280
     1
281
     1
  3
ACAD_XREC_ROUNDTRIP
360
A356
  0
DICTIONARY
  5
A339
330
A2E0
100
AcDbDictionary
280
     1
281
     1
  3
ACAD_XREC_ROUNDTRIP
360
A33A
  0
DICTIONARY
  5
A33B
330
A2E1
100
AcDbDictionary
280
     1
281
     1
  3
ACAD_XREC_ROUNDTRIP
360
A33C
  0
DICTIONARY
  5
A33D
330
A2E2
100
AcDbDictionary
280
     1
281
     1
  3
ACAD_XREC_ROUNDTRIP
360
A33E
  0
DICTIONARY
  5
A33F
330
A2E3
100
AcDbDictionary
280
     1
281
     1
  3
ACAD_XREC_ROUNDTRIP
360
A340
  0
DICTIONARY
  5
A347
330
A2E7
100
AcDbDictionary
280
     1
281
     1
  3
ACAD_XREC_ROUNDTRIP
360
A348
  0
DICTIONARY
  5
A363
330
A2F5
100
AcDbDictionary
280
     1
281
     1
  3
ACAD_XREC_ROUNDTRIP
360
A364
  0
DICTIONARY
  5
A353
330
A2ED
100
AcDbDictionary
280
     1
281
     1
  3
ACAD_XREC_ROUNDTRIP
360
A354
  0
DICTIONARY
  5
A365
330
A2F6
100
AcDbDictionary
280
     1
281
     1
  3
ACAD_XREC_ROUNDTRIP
360
A366
  0
DICTIONARY
  5
A34B
330
A2E9
100
AcDbDictionary
280
     1
281
     1
  3
ACAD_XREC_ROUNDTRIP
360
A34C
  0
DICTIONARY
  5
A361
330
A2F4
100
AcDbDictionary
280
     1
281
     1
  3
ACAD_XREC_ROUNDTRIP
360
A362
  0
DICTIONARY
  5
A35F
330
A2F3
100
AcDbDictionary
280
     1
281
     1
  3
ACAD_XREC_ROUNDTRIP
360
A360
  0
DICTIONARY
  5
A359
330
A2F0
100
AcDbDictionary
280
     1
281
     1
  3
ACAD_XREC_ROUNDTRIP
360
A35A
  0
DICTIONARY
  5
A35B
330
A2F1
100
AcDbDictionary
280
     1
281
     1
  3
ACAD_XREC_ROUNDTRIP
360
A35C
  0
DICTIONARY
  5
A351
330
A2EC
100
AcDbDictionary
280
     1
281
     1
  3
ACAD_XREC_ROUNDTRIP
360
A352
  0
DICTIONARY
  5
A345
330
A2E6
100
AcDbDictionary
280
     1
281
     1
  3
ACAD_XREC_ROUNDTRIP
360
A346
  0
DICTIONARY
  5
A35D
330
A2F2
100
AcDbDictionary
280
     1
281
     1
  3
ACAD_XREC_ROUNDTRIP
360
A35E
  0
XRECORD
  5
A36E
102
{ACAD_REACTORS
330
A36D
102
}
330
A36D
100
AcDbXrecord
280
     1
102
DISPLAYNAME
  1
Imperial24
102
FLAGS
 90
        0
  0
XRECORD
  5
A370
102
{ACAD_REACTORS
330
A36F
102
}
330
A36F
100
AcDbXrecord
280
     1
102
SHADEPLOT
 70
     0
102
SHADEPLOTRESLEVEL
 70
     2
102
SHADEPLOTCUSTOMDPI
 70
   300
  0
XRECORD
  5
A372
102
{ACAD_REACTORS
330
A371
102
}
330
A371
100
AcDbXrecord
280
     1
102
SHADEPLOT
 70
     0
102
SHADEPLOTRESLEVEL
 70
     2
102
SHADEPLOTCUSTOMDPI
 70
   300
  0
XRECORD
  5
A337
102
{ACAD_REACTORS
330
A2D0
102
}
330
A2D0
100
AcDbXrecord
280
     1
102
MATERIAL
148
0.0
149
0.0
149
0.0
 93
        0
 94
      127
282
     0
 72
     0
 77
     0
171
     0
175
     0
179
     0
273
     0
  0
XRECORD
  5
A2D2
102
{ACAD_REACTORS
330
A2D0
102
}
330
A2D0
100
AcDbXrecord
280
     1
270
     1
271
     1
  0
XRECORD
  5
A2D1
102
{ACAD_REACTORS
330
A2D0
102
}
330
A2D0
100
AcDbXrecord
280
     1
270
     1
271
     1
  0
XRECORD
  5
A2D5
102
{ACAD_REACTORS
330
A2D0
102
}
330
A2D0
100
AcDbXrecord
280
     1
270
     1
271
     1
  0
XRECORD
  5
A2D4
102
{ACAD_REACTORS
330
A2D0
102
}
330
A2D0
100
AcDbXrecord
280
     1
270
     1
271
     1
  0
XRECORD
  5
A2D6
102
{ACAD_REACTORS
330
A2D0
102
}
330
A2D0
100
AcDbXrecord
280
     1
270
     1
271
     1
  0
XRECORD
  5
A2D3
102
{ACAD_REACTORS
330
A2D0
102
}
330
A2D0
100
AcDbXrecord
280
     1
270
     1
271
     1
  0
XRECORD
  5
A336
102
{ACAD_REACTORS
330
A2C8
102
}
330
A2C8
100
AcDbXrecord
280
     1
102
MATERIAL
148
0.0
149
0.0
149
0.0
 93
        0
 94
      127
282
     0
 72
     0
 77
     0
171
     0
175
     0
179
     0
273
     0
  0
XRECORD
  5
A2CA
102
{ACAD_REACTORS
330
A2C8
102
}
330
A2C8
100
AcDbXrecord
280
     1
270
     1
271
     1
  0
XRECORD
  5
A2C9
102
{ACAD_REACTORS
330
A2C8
102
}
330
A2C8
100
AcDbXrecord
280
     1
270
     1
271
     1
  0
XRECORD
  5
A2CD
102
{ACAD_REACTORS
330
A2C8
102
}
330
A2C8
100
AcDbXrecord
280
     1
270
     1
271
     1
  0
XRECORD
  5
A2CC
102
{ACAD_REACTORS
330
A2C8
102
}
330
A2C8
100
AcDbXrecord
280
     1
270
     1
271
     1
  0
XRECORD
  5
A2CE
102
{ACAD_REACTORS
330
A2C8
102
}
330
A2C8
100
AcDbXrecord
280
     1
270
     1
271
     1
  0
XRECORD
  5
A2CB
102
{ACAD_REACTORS
330
A2C8
102
}
330
A2C8
100
AcDbXrecord
280
     1
270
     1
271
     1
  0
XRECORD
  5
A338
102
{ACAD_REACTORS
330
A2D8
102
}
330
A2D8
100
AcDbXrecord
280
     1
102
MATERIAL
148
0.0
149
0.0
149
0.0
 93
        0
 94
      127
282
     0
 72
     0
 77
     0
171
     0
175
     0
179
     0
273
     0
  0
XRECORD
  5
A2DA
102
{ACAD_REACTORS
330
A2D8
102
}
330
A2D8
100
AcDbXrecord
280
     1
270
     1
271
     1
  0
XRECORD
  5
A2D9
102
{ACAD_REACTORS
330
A2D8
102
}
330
A2D8
100
AcDbXrecord
280
     1
270
     1
271
     1
  0
XRECORD
  5
A2DD
102
{ACAD_REACTORS
330
A2D8
102
}
330
A2D8
100
AcDbXrecord
280
     1
270
     1
271
     1
  0
XRECORD
  5
A2DC
102
{ACAD_REACTORS
330
A2D8
102
}
330
A2D8
100
AcDbXrecord
280
     1
270
     1
271
     1
  0
XRECORD
  5
A2DE
102
{ACAD_REACTORS
330
A2D8
102
}
330
A2D8
100
AcDbXrecord
280
     1
270
     1
271
     1
  0
XRECORD
  5
A2DB
102
{ACAD_REACTORS
330
A2D8
102
}
330
A2D8
100
AcDbXrecord
280
     1
270
     1
271
     1
  0
XRECORD
  5
A36C
102
{ACAD_REACTORS
330
A36B
102
}
330
A36B
100
AcDbXrecord
280
     1
102
DISPLAYNAME
  1
Imperial24
102
FLAGS
 90
        0
  0
CELLSTYLEMAP
  5
A333
102
{ACAD_REACTORS
330
A332
102
}
330
A332
100
AcDbCellStyleMap
 90
        3
300
CELLSTYLE
  1
TABLEFORMAT_BEGIN
 90
        5
170
     1
 91
        0
 92
    32768
 62
   257
 93
        1
300
CONTENTFORMAT
  1
CONTENTFORMAT_BEGIN
 90
        0
 91
        0
 92
      512
 93
        0
300

 40
0.0
140
1.0
 94
        5
 62
     0
340
A062
144
0.25
309
CONTENTFORMAT_END
171
     0
 94
        0
309
TABLEFORMAT_END
  1
CELLSTYLE_BEGIN
 90
        1
 91
        1
300
_TITLE
309
CELLSTYLE_END
300
CELLSTYLE
  1
TABLEFORMAT_BEGIN
 90
        5
170
     1
 91
        0
 92
        0
 62
   257
 93
        1
300
CONTENTFORMAT
  1
CONTENTFORMAT_BEGIN
 90
        0
 91
        0
 92
      512
 93
        0
300

 40
0.0
140
1.0
 94
        5
 62
     0
340
A062
144
0.18
309
CONTENTFORMAT_END
171
     0
 94
        0
309
TABLEFORMAT_END
  1
CELLSTYLE_BEGIN
 90
        2
 91
        1
300
_HEADER
309
CELLSTYLE_END
300
CELLSTYLE
  1
TABLEFORMAT_BEGIN
 90
        5
170
     1
 91
        0
 92
        0
 62
   257
 93
        1
300
CONTENTFORMAT
  1
CONTENTFORMAT_BEGIN
 90
        0
 91
        0
 92
      512
 93
        0
300

 40
0.0
140
1.0
 94
        2
 62
     0
340
A062
144
0.18
309
CONTENTFORMAT_END
171
     0
 94
        0
309
TABLEFORMAT_END
  1
CELLSTYLE_BEGIN
 90
        3
 91
        2
300
_DATA
309
CELLSTYLE_END
  0
XRECORD
  5
A369
102
{ACAD_REACTORS
330
A332
102
}
330
A332
100
AcDbXrecord
280
     1
102
ACAD_ROUNDTRIP_PRE2007_TABLESTYLE
 90
      512
 91
        0
  1

 92
      512
 93
        0
  2

 94
      512
 95
        0
  3

  0
XRECORD
  5
A344
102
{ACAD_REACTORS
330
A343
102
}
330
A343
100
AcDbXrecord
280
     1
102
RTVSPost2010Prop28
280
     1
102
RTVSPost2010PropOp28
 70
     1
102
RTVSPost2010Prop29
280
     1
102
RTVSPost2010PropOp29
 70
     1
102
RTVSPost2010Prop30
280
     0
102
RTVSPost2010PropOp30
 70
     1
102
RTVSPost2010Prop31
280
     0
102
RTVSPost2010PropOp31
 70
     1
102
RTVSPost2010Prop32
280
     0
102
RTVSPost2010PropOp32
 70
     1
102
RTVSPost2010Prop33
280
     0
102
RTVSPost2010PropOp33
 70
     1
102
RTVSPost2010Prop34
280
     0
102
RTVSPost2010PropOp34
 70
     1
102
RTVSPost2010Prop35
280
     0
102
RTVSPost2010PropOp35
 70
     1
102
RTVSPost2010Prop36
280
     0
102
RTVSPost2010PropOp36
 70
     1
102
RTVSPost2010Prop37
 90
       50
102
RTVSPost2010PropOp37
 70
     1
102
RTVSPost2010Prop38
140
0.0
102
RTVSPost2010PropOp38
 70
     1
102
RTVSPost2010Prop39
140
1.0
102
RTVSPost2010PropOp39
 70
     1
102
RTVSPost2010Prop40
 90
        0
102
RTVSPost2010PropOp40
 70
     1
102
RTVSPost2010Prop41ColorIndex
 90
       18
102
RTVSPost2010Prop41ColorRGB
 90
        0
102
RTVSPost2010PropOp41
 70
     1
102
RTVSPost2010Prop42
 90
       50
102
RTVSPost2010PropOp42
 70
     1
102
RTVSPost2010Prop43
 90
        3
102
RTVSPost2010PropOp43
 70
     1
102
RTVSPost2010Prop44ColorIndex
 90
        5
102
RTVSPost2010Prop44ColorRGB
 90
      255
102
RTVSPost2010PropOp44
 70
     1
102
RTVSPost2010Prop45
280
     0
102
RTVSPost2010PropOp45
 70
     1
102
RTVSPost2010Prop46
 90
       50
102
RTVSPost2010PropOp46
 70
     1
102
RTVSPost2010Prop47
 90
       50
102
RTVSPost2010PropOp47
 70
     1
102
RTVSPost2010Prop48
 90
       50
102
RTVSPost2010PropOp48
 70
     1
102
RTVSPost2010Prop49
280
     0
102
RTVSPost2010PropOp49
 70
     1
102
RTVSPost2010Prop50
 90
       50
102
RTVSPost2010PropOp50
 70
     1
102
RTVSPost2010Prop51ColorIndex
 90
      256
102
RTVSPost2010Prop51ColorRGB
 90
-16777216
102
RTVSPost2010PropOp51
 70
     0
102
RTVSPost2010Prop52
140
1.0
102
RTVSPost2010PropOp52
 70
     0
102
RTVSPost2010Prop53
 90
        2
102
RTVSPost2010PropOp53
 70
     1
102
RTVSPost2010Prop54
  1
strokes_ogs.tif
102
RTVSPost2010PropOp54
 70
     1
102
RTVSPost2010Prop55
280
     0
102
RTVSPost2010PropOp55
 70
     1
102
RTVSPost2010Prop56
140
1.0
102
RTVSPost2010PropOp56
 70
     1
102
RTVSPost2010Prop57
140
1.0
102
RTVSPost2010PropOp57
 70
     1
102
RTVSPropertyOp0
 70
     1
102
RTVSPropertyOp1
 70
     1
102
RTVSPropertyOp2
 70
     1
102
RTVSPropertyOp3
 70
     1
102
RTVSPropertyOp4
 70
     1
102
RTVSPropertyOp5
 70
     1
102
RTVSPropertyOp6
 70
     1
102
RTVSPropertyOp7
 70
     1
102
RTVSPropertyOp8
 70
     1
102
RTVSPropertyOp9
 70
     1
102
RTVSPropertyOp10
 70
     1
102
RTVSPropertyOp11
 70
     1
102
RTVSPropertyOp12
 70
     1
102
RTVSPropertyOp13
 70
     1
102
RTVSPropertyOp14
 70
     1
102
RTVSPropertyOp15
 70
     1
102
RTVSPropertyOp16
 70
     1
102
RTVSPropertyOp17
 70
     1
102
RTVSPropertyOp18
 70
     1
102
RTVSPropertyOp19
 70
     1
102
RTVSPropertyOp20
 70
     1
102
RTVSPropertyOp21
 70
     1
102
RTVSPropertyOp22
 70
     1
102
RTVSPropertyOp23
 70
     1
102
RTVSPropertyOp24
 70
     1
102
RTVSPropertyOp25
 70
     1
102
RTVSPropertyOp26
 70
     1
102
RTVSPropertyOp27
 70
     1
102
RTVSPropertyOp28
 70
     1
102
RTVSPropertyOp29
 70
     1
102
RTVSPropertyOp30
 70
     1
102
RTVSPropertyOp31
 70
     1
102
RTVSPropertyOp32
 70
     1
102
RTVSPropertyOp33
 70
     1
102
RTVSPropertyOp34
 70
     1
102
RTVSPropertyOp35
 70
     1
102
RTVSPropertyOp36
 70
     1
102
RTVSPropertyOp37
 70
     1
102
RTVSPropertyOp38
 70
     1
102
RTVSPropertyOp39
 70
     1
102
RTVSPropertyOp40
 70
     1
102
RTVSPropertyOp41
 70
     1
102
RTVSPropertyOp42
 70
     1
102
RTVSPropertyOp43
 70
     1
102
RTVSPropertyOp44
 70
     1
102
RTVSPropertyOp45
 70
     1
102
RTVSPropertyOp46
 70
     1
102
RTVSPropertyOp47
 70
     1
102
RTVSPropertyOp48
 70
     1
102
RTVSPropertyOp49
 70
     1
102
RTVSPropertyOp50
 70
     1
102
RTVSPropertyOp51
 70
     0
102
RTVSPropertyOp52
 70
     0
102
RTVSPropertyOp53
 70
     1
102
RTVSPropertyOp54
 70
     1
102
RTVSPropertyOp55
 70
     1
102
RTVSPropertyOp56
 70
     1
102
RTVSPropertyOp57
 70
     1
102
RTVSPropertyOp58
 70
     1
102
RTVSPropertyOp59
 70
     1
102
RTVSPropertyOp60
 70
     1
102
RTVSPropertyOp61
 70
     1
102
RTVSPropertyOp62
 70
     1
  0
XRECORD
  5
A342
102
{ACAD_REACTORS
330
A341
102
}
330
A341
100
AcDbXrecord
280
     1
102
RTVSPost2010Prop28
280
     0
102
RTVSPost2010PropOp28
 70
     1
102
RTVSPost2010Prop29
280
     1
102
RTVSPost2010PropOp29
 70
     1
102
RTVSPost2010Prop30
280
     1
102
RTVSPost2010PropOp30
 70
     1
102
RTVSPost2010Prop31
280
     0
102
RTVSPost2010PropOp31
 70
     1
102
RTVSPost2010Prop32
280
     0
102
RTVSPost2010PropOp32
 70
     1
102
RTVSPost2010Prop33
280
     0
102
RTVSPost2010PropOp33
 70
     1
102
RTVSPost2010Prop34
280
     0
102
RTVSPost2010PropOp34
 70
     1
102
RTVSPost2010Prop35
280
     0
102
RTVSPost2010PropOp35
 70
     1
102
RTVSPost2010Prop36
280
     0
102
RTVSPost2010PropOp36
 70
     1
102
RTVSPost2010Prop37
 90
       50
102
RTVSPost2010PropOp37
 70
     1
102
RTVSPost2010Prop38
140
0.0
102
RTVSPost2010PropOp38
 70
     1
102
RTVSPost2010Prop39
140
1.0
102
RTVSPost2010PropOp39
 70
     1
102
RTVSPost2010Prop40
 90
        0
102
RTVSPost2010PropOp40
 70
     1
102
RTVSPost2010Prop41ColorIndex
 90
       18
102
RTVSPost2010Prop41ColorRGB
 90
        0
102
RTVSPost2010PropOp41
 70
     1
102
RTVSPost2010Prop42
 90
       50
102
RTVSPost2010PropOp42
 70
     1
102
RTVSPost2010Prop43
 90
        3
102
RTVSPost2010PropOp43
 70
     1
102
RTVSPost2010Prop44ColorIndex
 90
        5
102
RTVSPost2010Prop44ColorRGB
 90
      255
102
RTVSPost2010PropOp44
 70
     1
102
RTVSPost2010Prop45
280
     0
102
RTVSPost2010PropOp45
 70
     1
102
RTVSPost2010Prop46
 90
       50
102
RTVSPost2010PropOp46
 70
     1
102
RTVSPost2010Prop47
 90
       50
102
RTVSPost2010PropOp47
 70
     1
102
RTVSPost2010Prop48
 90
       50
102
RTVSPost2010PropOp48
 70
     1
102
RTVSPost2010Prop49
280
     0
102
RTVSPost2010PropOp49
 70
     1
102
RTVSPost2010Prop50
 90
       50
102
RTVSPost2010PropOp50
 70
     1
102
RTVSPost2010Prop51ColorIndex
 90
      256
102
RTVSPost2010Prop51ColorRGB
 90
-16777216
102
RTVSPost2010PropOp51
 70
     0
102
RTVSPost2010Prop52
140
1.0
102
RTVSPost2010PropOp52
 70
     0
102
RTVSPost2010Prop53
 90
        2
102
RTVSPost2010PropOp53
 70
     1
102
RTVSPost2010Prop54
  1
strokes_ogs.tif
102
RTVSPost2010PropOp54
 70
     1
102
RTVSPost2010Prop55
280
     0
102
RTVSPost2010PropOp55
 70
     1
102
RTVSPost2010Prop56
140
1.0
102
RTVSPost2010PropOp56
 70
     1
102
RTVSPost2010Prop57
140
1.0
102
RTVSPost2010PropOp57
 70
     1
102
RTVSPropertyOp0
 70
     1
102
RTVSPropertyOp1
 70
     1
102
RTVSPropertyOp2
 70
     1
102
RTVSPropertyOp3
 70
     1
102
RTVSPropertyOp4
 70
     1
102
RTVSPropertyOp5
 70
     1
102
RTVSPropertyOp6
 70
     1
102
RTVSPropertyOp7
 70
     1
102
RTVSPropertyOp8
 70
     1
102
RTVSPropertyOp9
 70
     1
102
RTVSPropertyOp10
 70
     1
102
RTVSPropertyOp11
 70
     1
102
RTVSPropertyOp12
 70
     1
102
RTVSPropertyOp13
 70
     1
102
RTVSPropertyOp14
 70
     1
102
RTVSPropertyOp15
 70
     1
102
RTVSPropertyOp16
 70
     1
102
RTVSPropertyOp17
 70
     1
102
RTVSPropertyOp18
 70
     1
102
RTVSPropertyOp19
 70
     1
102
RTVSPropertyOp20
 70
     1
102
RTVSPropertyOp21
 70
     1
102
RTVSPropertyOp22
 70
     1
102
RTVSPropertyOp23
 70
     1
102
RTVSPropertyOp24
 70
     1
102
RTVSPropertyOp25
 70
     1
102
RTVSPropertyOp26
 70
     1
102
RTVSPropertyOp27
 70
     1
102
RTVSPropertyOp28
 70
     1
102
RTVSPropertyOp29
 70
     1
102
RTVSPropertyOp30
 70
     1
102
RTVSPropertyOp31
 70
     1
102
RTVSPropertyOp32
 70
     1
102
RTVSPropertyOp33
 70
     1
102
RTVSPropertyOp34
 70
     1
102
RTVSPropertyOp35
 70
     1
102
RTVSPropertyOp36
 70
     1
102
RTVSPropertyOp37
 70
     1
102
RTVSPropertyOp38
 70
     1
102
RTVSPropertyOp39
 70
     1
102
RTVSPropertyOp40
 70
     1
102
RTVSPropertyOp41
 70
     1
102
RTVSPropertyOp42
 70
     1
102
RTVSPropertyOp43
 70
     1
102
RTVSPropertyOp44
 70
     1
102
RTVSPropertyOp45
 70
     1
102
RTVSPropertyOp46
 70
     1
102
RTVSPropertyOp47
 70
     1
102
RTVSPropertyOp48
 70
     1
102
RTVSPropertyOp49
 70
     1
102
RTVSPropertyOp50
 70
     1
102
RTVSPropertyOp51
 70
     0
102
RTVSPropertyOp52
 70
     0
102
RTVSPropertyOp53
 70
     1
102
RTVSPropertyOp54
 70
     1
102
RTVSPropertyOp55
 70
     1
102
RTVSPropertyOp56
 70
     1
102
RTVSPropertyOp57
 70
     1
102
RTVSPropertyOp58
 70
     1
102
RTVSPropertyOp59
 70
     1
102
RTVSPropertyOp60
 70
     1
102
RTVSPropertyOp61
 70
     1
102
RTVSPropertyOp62
 70
     1
  0
XRECORD
  5
A350
102
{ACAD_REACTORS
330
A34F
102
}
330
A34F
100
AcDbXrecord
280
     1
102
RTVSPost2010Prop28
280
     0
102
RTVSPost2010PropOp28
 70
     1
102
RTVSPost2010Prop29
280
     1
102
RTVSPost2010PropOp29
 70
     1
102
RTVSPost2010Prop30
280
     1
102
RTVSPost2010PropOp30
 70
     1
102
RTVSPost2010Prop31
280
     0
102
RTVSPost2010PropOp31
 70
     1
102
RTVSPost2010Prop32
280
     0
102
RTVSPost2010PropOp32
 70
     1
102
RTVSPost2010Prop33
280
     0
102
RTVSPost2010PropOp33
 70
     1
102
RTVSPost2010Prop34
280
     0
102
RTVSPost2010PropOp34
 70
     1
102
RTVSPost2010Prop35
280
     0
102
RTVSPost2010PropOp35
 70
     1
102
RTVSPost2010Prop36
280
     0
102
RTVSPost2010PropOp36
 70
     1
102
RTVSPost2010Prop37
 90
       50
102
RTVSPost2010PropOp37
 70
     1
102
RTVSPost2010Prop38
140
0.0
102
RTVSPost2010PropOp38
 70
     1
102
RTVSPost2010Prop39
140
1.0
102
RTVSPost2010PropOp39
 70
     1
102
RTVSPost2010Prop40
 90
        0
102
RTVSPost2010PropOp40
 70
     1
102
RTVSPost2010Prop41ColorIndex
 90
       18
102
RTVSPost2010Prop41ColorRGB
 90
        0
102
RTVSPost2010PropOp41
 70
     1
102
RTVSPost2010Prop42
 90
       50
102
RTVSPost2010PropOp42
 70
     1
102
RTVSPost2010Prop43
 90
        3
102
RTVSPost2010PropOp43
 70
     1
102
RTVSPost2010Prop44ColorIndex
 90
        5
102
RTVSPost2010Prop44ColorRGB
 90
      255
102
RTVSPost2010PropOp44
 70
     1
102
RTVSPost2010Prop45
280
     0
102
RTVSPost2010PropOp45
 70
     1
102
RTVSPost2010Prop46
 90
       50
102
RTVSPost2010PropOp46
 70
     1
102
RTVSPost2010Prop47
 90
       50
102
RTVSPost2010PropOp47
 70
     1
102
RTVSPost2010Prop48
 90
       50
102
RTVSPost2010PropOp48
 70
     1
102
RTVSPost2010Prop49
280
     0
102
RTVSPost2010PropOp49
 70
     1
102
RTVSPost2010Prop50
 90
       50
102
RTVSPost2010PropOp50
 70
     1
102
RTVSPost2010Prop51ColorIndex
 90
      256
102
RTVSPost2010Prop51ColorRGB
 90
-16777216
102
RTVSPost2010PropOp51
 70
     0
102
RTVSPost2010Prop52
140
1.0
102
RTVSPost2010PropOp52
 70
     0
102
RTVSPost2010Prop53
 90
        2
102
RTVSPost2010PropOp53
 70
     1
102
RTVSPost2010Prop54
  1
strokes_ogs.tif
102
RTVSPost2010PropOp54
 70
     1
102
RTVSPost2010Prop55
280
     0
102
RTVSPost2010PropOp55
 70
     1
102
RTVSPost2010Prop56
140
1.0
102
RTVSPost2010PropOp56
 70
     1
102
RTVSPost2010Prop57
140
1.0
102
RTVSPost2010PropOp57
 70
     1
102
RTVSPropertyOp0
 70
     1
102
RTVSPropertyOp1
 70
     1
102
RTVSPropertyOp2
 70
     1
102
RTVSPropertyOp3
 70
     1
102
RTVSPropertyOp4
 70
     1
102
RTVSPropertyOp5
 70
     1
102
RTVSPropertyOp6
 70
     1
102
RTVSPropertyOp7
 70
     1
102
RTVSPropertyOp8
 70
     1
102
RTVSPropertyOp9
 70
     1
102
RTVSPropertyOp10
 70
     1
102
RTVSPropertyOp11
 70
     1
102
RTVSPropertyOp12
 70
     1
102
RTVSPropertyOp13
 70
     1
102
RTVSPropertyOp14
 70
     1
102
RTVSPropertyOp15
 70
     1
102
RTVSPropertyOp16
 70
     1
102
RTVSPropertyOp17
 70
     1
102
RTVSPropertyOp18
 70
     1
102
RTVSPropertyOp19
 70
     1
102
RTVSPropertyOp20
 70
     1
102
RTVSPropertyOp21
 70
     1
102
RTVSPropertyOp22
 70
     1
102
RTVSPropertyOp23
 70
     1
102
RTVSPropertyOp24
 70
     1
102
RTVSPropertyOp25
 70
     1
102
RTVSPropertyOp26
 70
     1
102
RTVSPropertyOp27
 70
     1
102
RTVSPropertyOp28
 70
     1
102
RTVSPropertyOp29
 70
     1
102
RTVSPropertyOp30
 70
     1
102
RTVSPropertyOp31
 70
     1
102
RTVSPropertyOp32
 70
     1
102
RTVSPropertyOp33
 70
     1
102
RTVSPropertyOp34
 70
     1
102
RTVSPropertyOp35
 70
     1
102
RTVSPropertyOp36
 70
     1
102
RTVSPropertyOp37
 70
     1
102
RTVSPropertyOp38
 70
     1
102
RTVSPropertyOp39
 70
     1
102
RTVSPropertyOp40
 70
     1
102
RTVSPropertyOp41
 70
     1
102
RTVSPropertyOp42
 70
     1
102
RTVSPropertyOp43
 70
     1
102
RTVSPropertyOp44
 70
     1
102
RTVSPropertyOp45
 70
     1
102
RTVSPropertyOp46
 70
     1
102
RTVSPropertyOp47
 70
     1
102
RTVSPropertyOp48
 70
     1
102
RTVSPropertyOp49
 70
     1
102
RTVSPropertyOp50
 70
     1
102
RTVSPropertyOp51
 70
     0
102
RTVSPropertyOp52
 70
     0
102
RTVSPropertyOp53
 70
     1
102
RTVSPropertyOp54
 70
     1
102
RTVSPropertyOp55
 70
     1
102
RTVSPropertyOp56
 70
     1
102
RTVSPropertyOp57
 70
     1
102
RTVSPropertyOp58
 70
     1
102
RTVSPropertyOp59
 70
     1
102
RTVSPropertyOp60
 70
     1
102
RTVSPropertyOp61
 70
     1
102
RTVSPropertyOp62
 70
     1
  0
XRECORD
  5
A358
102
{ACAD_REACTORS
330
A357
102
}
330
A357
100
AcDbXrecord
280
     1
102
RTVSPost2010Prop28
280
     0
102
RTVSPost2010PropOp28
 70
     1
102
RTVSPost2010Prop29
280
     1
102
RTVSPost2010PropOp29
 70
     1
102
RTVSPost2010Prop30
280
     1
102
RTVSPost2010PropOp30
 70
     1
102
RTVSPost2010Prop31
280
     0
102
RTVSPost2010PropOp31
 70
     1
102
RTVSPost2010Prop32
280
     0
102
RTVSPost2010PropOp32
 70
     1
102
RTVSPost2010Prop33
280
     0
102
RTVSPost2010PropOp33
 70
     1
102
RTVSPost2010Prop34
280
     0
102
RTVSPost2010PropOp34
 70
     1
102
RTVSPost2010Prop35
280
     0
102
RTVSPost2010PropOp35
 70
     1
102
RTVSPost2010Prop36
280
     0
102
RTVSPost2010PropOp36
 70
     1
102
RTVSPost2010Prop37
 90
       50
102
RTVSPost2010PropOp37
 70
     1
102
RTVSPost2010Prop38
140
0.0
102
RTVSPost2010PropOp38
 70
     1
102
RTVSPost2010Prop39
140
1.0
102
RTVSPost2010PropOp39
 70
     1
102
RTVSPost2010Prop40
 90
        0
102
RTVSPost2010PropOp40
 70
     1
102
RTVSPost2010Prop41ColorIndex
 90
       18
102
RTVSPost2010Prop41ColorRGB
 90
        0
102
RTVSPost2010PropOp41
 70
     1
102
RTVSPost2010Prop42
 90
       50
102
RTVSPost2010PropOp42
 70
     1
102
RTVSPost2010Prop43
 90
        3
102
RTVSPost2010PropOp43
 70
     1
102
RTVSPost2010Prop44ColorIndex
 90
        5
102
RTVSPost2010Prop44ColorRGB
 90
      255
102
RTVSPost2010PropOp44
 70
     1
102
RTVSPost2010Prop45
280
     0
102
RTVSPost2010PropOp45
 70
     1
102
RTVSPost2010Prop46
 90
       50
102
RTVSPost2010PropOp46
 70
     1
102
RTVSPost2010Prop47
 90
       50
102
RTVSPost2010PropOp47
 70
     1
102
RTVSPost2010Prop48
 90
       50
102
RTVSPost2010PropOp48
 70
     1
102
RTVSPost2010Prop49
280
     0
102
RTVSPost2010PropOp49
 70
     1
102
RTVSPost2010Prop50
 90
       50
102
RTVSPost2010PropOp50
 70
     1
102
RTVSPost2010Prop51ColorIndex
 90
      256
102
RTVSPost2010Prop51ColorRGB
 90
-16777216
102
RTVSPost2010PropOp51
 70
     0
102
RTVSPost2010Prop52
140
1.0
102
RTVSPost2010PropOp52
 70
     0
102
RTVSPost2010Prop53
 90
        2
102
RTVSPost2010PropOp53
 70
     1
102
RTVSPost2010Prop54
  1
strokes_ogs.tif
102
RTVSPost2010PropOp54
 70
     1
102
RTVSPost2010Prop55
280
     0
102
RTVSPost2010PropOp55
 70
     1
102
RTVSPost2010Prop56
140
1.0
102
RTVSPost2010PropOp56
 70
     1
102
RTVSPost2010Prop57
140
1.0
102
RTVSPost2010PropOp57
 70
     1
102
RTVSPropertyOp0
 70
     1
102
RTVSPropertyOp1
 70
     1
102
RTVSPropertyOp2
 70
     1
102
RTVSPropertyOp3
 70
     1
102
RTVSPropertyOp4
 70
     1
102
RTVSPropertyOp5
 70
     1
102
RTVSPropertyOp6
 70
     1
102
RTVSPropertyOp7
 70
     1
102
RTVSPropertyOp8
 70
     1
102
RTVSPropertyOp9
 70
     1
102
RTVSPropertyOp10
 70
     1
102
RTVSPropertyOp11
 70
     1
102
RTVSPropertyOp12
 70
     1
102
RTVSPropertyOp13
 70
     1
102
RTVSPropertyOp14
 70
     1
102
RTVSPropertyOp15
 70
     1
102
RTVSPropertyOp16
 70
     1
102
RTVSPropertyOp17
 70
     1
102
RTVSPropertyOp18
 70
     1
102
RTVSPropertyOp19
 70
     1
102
RTVSPropertyOp20
 70
     1
102
RTVSPropertyOp21
 70
     1
102
RTVSPropertyOp22
 70
     1
102
RTVSPropertyOp23
 70
     1
102
RTVSPropertyOp24
 70
     1
102
RTVSPropertyOp25
 70
     1
102
RTVSPropertyOp26
 70
     1
102
RTVSPropertyOp27
 70
     1
102
RTVSPropertyOp28
 70
     1
102
RTVSPropertyOp29
 70
     1
102
RTVSPropertyOp30
 70
     1
102
RTVSPropertyOp31
 70
     1
102
RTVSPropertyOp32
 70
     1
102
RTVSPropertyOp33
 70
     1
102
RTVSPropertyOp34
 70
     1
102
RTVSPropertyOp35
 70
     1
102
RTVSPropertyOp36
 70
     1
102
RTVSPropertyOp37
 70
     1
102
RTVSPropertyOp38
 70
     1
102
RTVSPropertyOp39
 70
     1
102
RTVSPropertyOp40
 70
     1
102
RTVSPropertyOp41
 70
     1
102
RTVSPropertyOp42
 70
     1
102
RTVSPropertyOp43
 70
     1
102
RTVSPropertyOp44
 70
     1
102
RTVSPropertyOp45
 70
     1
102
RTVSPropertyOp46
 70
     1
102
RTVSPropertyOp47
 70
     1
102
RTVSPropertyOp48
 70
     1
102
RTVSPropertyOp49
 70
     1
102
RTVSPropertyOp50
 70
     1
102
RTVSPropertyOp51
 70
     0
102
RTVSPropertyOp52
 70
     0
102
RTVSPropertyOp53
 70
     1
102
RTVSPropertyOp54
 70
     1
102
RTVSPropertyOp55
 70
     1
102
RTVSPropertyOp56
 70
     1
102
RTVSPropertyOp57
 70
     1
102
RTVSPropertyOp58
 70
     1
102
RTVSPropertyOp59
 70
     1
102
RTVSPropertyOp60
 70
     1
102
RTVSPropertyOp61
 70
     1
102
RTVSPropertyOp62
 70
     1
  0
XRECORD
  5
A34A
102
{ACAD_REACTORS
330
A349
102
}
330
A349
100
AcDbXrecord
280
     1
102
RTVSPost2010Prop28
280
     0
102
RTVSPost2010PropOp28
 70
     1
102
RTVSPost2010Prop29
280
     1
102
RTVSPost2010PropOp29
 70
     1
102
RTVSPost2010Prop30
280
     1
102
RTVSPost2010PropOp30
 70
     1
102
RTVSPost2010Prop31
280
     0
102
RTVSPost2010PropOp31
 70
     1
102
RTVSPost2010Prop32
280
     0
102
RTVSPost2010PropOp32
 70
     1
102
RTVSPost2010Prop33
280
     0
102
RTVSPost2010PropOp33
 70
     1
102
RTVSPost2010Prop34
280
     0
102
RTVSPost2010PropOp34
 70
     1
102
RTVSPost2010Prop35
280
     0
102
RTVSPost2010PropOp35
 70
     1
102
RTVSPost2010Prop36
280
     0
102
RTVSPost2010PropOp36
 70
     1
102
RTVSPost2010Prop37
 90
       50
102
RTVSPost2010PropOp37
 70
     1
102
RTVSPost2010Prop38
140
0.0
102
RTVSPost2010PropOp38
 70
     1
102
RTVSPost2010Prop39
140
1.0
102
RTVSPost2010PropOp39
 70
     1
102
RTVSPost2010Prop40
 90
        0
102
RTVSPost2010PropOp40
 70
     1
102
RTVSPost2010Prop41ColorIndex
 90
       18
102
RTVSPost2010Prop41ColorRGB
 90
        0
102
RTVSPost2010PropOp41
 70
     1
102
RTVSPost2010Prop42
 90
       50
102
RTVSPost2010PropOp42
 70
     1
102
RTVSPost2010Prop43
 90
        3
102
RTVSPost2010PropOp43
 70
     1
102
RTVSPost2010Prop44ColorIndex
 90
        5
102
RTVSPost2010Prop44ColorRGB
 90
      255
102
RTVSPost2010PropOp44
 70
     1
102
RTVSPost2010Prop45
280
     0
102
RTVSPost2010PropOp45
 70
     1
102
RTVSPost2010Prop46
 90
       50
102
RTVSPost2010PropOp46
 70
     1
102
RTVSPost2010Prop47
 90
       50
102
RTVSPost2010PropOp47
 70
     1
102
RTVSPost2010Prop48
 90
       50
102
RTVSPost2010PropOp48
 70
     1
102
RTVSPost2010Prop49
280
     0
102
RTVSPost2010PropOp49
 70
     1
102
RTVSPost2010Prop50
 90
       50
102
RTVSPost2010PropOp50
 70
     1
102
RTVSPost2010Prop51ColorIndex
 90
      256
102
RTVSPost2010Prop51ColorRGB
 90
-16777216
102
RTVSPost2010PropOp51
 70
     0
102
RTVSPost2010Prop52
140
1.0
102
RTVSPost2010PropOp52
 70
     0
102
RTVSPost2010Prop53
 90
        2
102
RTVSPost2010PropOp53
 70
     1
102
RTVSPost2010Prop54
  1
strokes_ogs.tif
102
RTVSPost2010PropOp54
 70
     1
102
RTVSPost2010Prop55
280
     0
102
RTVSPost2010PropOp55
 70
     1
102
RTVSPost2010Prop56
140
1.0
102
RTVSPost2010PropOp56
 70
     1
102
RTVSPost2010Prop57
140
1.0
102
RTVSPost2010PropOp57
 70
     1
102
RTVSPropertyOp0
 70
     1
102
RTVSPropertyOp1
 70
     1
102
RTVSPropertyOp2
 70
     1
102
RTVSPropertyOp3
 70
     1
102
RTVSPropertyOp4
 70
     1
102
RTVSPropertyOp5
 70
     1
102
RTVSPropertyOp6
 70
     1
102
RTVSPropertyOp7
 70
     1
102
RTVSPropertyOp8
 70
     1
102
RTVSPropertyOp9
 70
     1
102
RTVSPropertyOp10
 70
     1
102
RTVSPropertyOp11
 70
     1
102
RTVSPropertyOp12
 70
     1
102
RTVSPropertyOp13
 70
     1
102
RTVSPropertyOp14
 70
     1
102
RTVSPropertyOp15
 70
     1
102
RTVSPropertyOp16
 70
     1
102
RTVSPropertyOp17
 70
     1
102
RTVSPropertyOp18
 70
     1
102
RTVSPropertyOp19
 70
     1
102
RTVSPropertyOp20
 70
     1
102
RTVSPropertyOp21
 70
     1
102
RTVSPropertyOp22
 70
     1
102
RTVSPropertyOp23
 70
     1
102
RTVSPropertyOp24
 70
     1
102
RTVSPropertyOp25
 70
     1
102
RTVSPropertyOp26
 70
     1
102
RTVSPropertyOp27
 70
     1
102
RTVSPropertyOp28
 70
     1
102
RTVSPropertyOp29
 70
     1
102
RTVSPropertyOp30
 70
     1
102
RTVSPropertyOp31
 70
     1
102
RTVSPropertyOp32
 70
     1
102
RTVSPropertyOp33
 70
     1
102
RTVSPropertyOp34
 70
     1
102
RTVSPropertyOp35
 70
     1
102
RTVSPropertyOp36
 70
     1
102
RTVSPropertyOp37
 70
     1
102
RTVSPropertyOp38
 70
     1
102
RTVSPropertyOp39
 70
     1
102
RTVSPropertyOp40
 70
     1
102
RTVSPropertyOp41
 70
     1
102
RTVSPropertyOp42
 70
     1
102
RTVSPropertyOp43
 70
     1
102
RTVSPropertyOp44
 70
     1
102
RTVSPropertyOp45
 70
     1
102
RTVSPropertyOp46
 70
     1
102
RTVSPropertyOp47
 70
     1
102
RTVSPropertyOp48
 70
     1
102
RTVSPropertyOp49
 70
     1
102
RTVSPropertyOp50
 70
     1
102
RTVSPropertyOp51
 70
     0
102
RTVSPropertyOp52
 70
     0
102
RTVSPropertyOp53
 70
     1
102
RTVSPropertyOp54
 70
     1
102
RTVSPropertyOp55
 70
     1
102
RTVSPropertyOp56
 70
     1
102
RTVSPropertyOp57
 70
     1
102
RTVSPropertyOp58
 70
     1
102
RTVSPropertyOp59
 70
     1
102
RTVSPropertyOp60
 70
     1
102
RTVSPropertyOp61
 70
     1
102
RTVSPropertyOp62
 70
     1
  0
XRECORD
  5
A34E
102
{ACAD_REACTORS
330
A34D
102
}
330
A34D
100
AcDbXrecord
280
     1
102
RTVSPost2010Prop28
280
     0
102
RTVSPost2010PropOp28
 70
     1
102
RTVSPost2010Prop29
280
     1
102
RTVSPost2010PropOp29
 70
     1
102
RTVSPost2010Prop30
280
     1
102
RTVSPost2010PropOp30
 70
     1
102
RTVSPost2010Prop31
280
     0
102
RTVSPost2010PropOp31
 70
     1
102
RTVSPost2010Prop32
280
     0
102
RTVSPost2010PropOp32
 70
     1
102
RTVSPost2010Prop33
280
     0
102
RTVSPost2010PropOp33
 70
     1
102
RTVSPost2010Prop34
280
     0
102
RTVSPost2010PropOp34
 70
     1
102
RTVSPost2010Prop35
280
     0
102
RTVSPost2010PropOp35
 70
     1
102
RTVSPost2010Prop36
280
     0
102
RTVSPost2010PropOp36
 70
     1
102
RTVSPost2010Prop37
 90
       50
102
RTVSPost2010PropOp37
 70
     1
102
RTVSPost2010Prop38
140
0.0
102
RTVSPost2010PropOp38
 70
     1
102
RTVSPost2010Prop39
140
1.0
102
RTVSPost2010PropOp39
 70
     1
102
RTVSPost2010Prop40
 90
        0
102
RTVSPost2010PropOp40
 70
     1
102
RTVSPost2010Prop41ColorIndex
 90
       18
102
RTVSPost2010Prop41ColorRGB
 90
        0
102
RTVSPost2010PropOp41
 70
     1
102
RTVSPost2010Prop42
 90
       50
102
RTVSPost2010PropOp42
 70
     1
102
RTVSPost2010Prop43
 90
        3
102
RTVSPost2010PropOp43
 70
     1
102
RTVSPost2010Prop44ColorIndex
 90
        5
102
RTVSPost2010Prop44ColorRGB
 90
      255
102
RTVSPost2010PropOp44
 70
     1
102
RTVSPost2010Prop45
280
     0
102
RTVSPost2010PropOp45
 70
     1
102
RTVSPost2010Prop46
 90
       50
102
RTVSPost2010PropOp46
 70
     1
102
RTVSPost2010Prop47
 90
       50
102
RTVSPost2010PropOp47
 70
     1
102
RTVSPost2010Prop48
 90
       50
102
RTVSPost2010PropOp48
 70
     1
102
RTVSPost2010Prop49
280
     0
102
RTVSPost2010PropOp49
 70
     1
102
RTVSPost2010Prop50
 90
       50
102
RTVSPost2010PropOp50
 70
     1
102
RTVSPost2010Prop51ColorIndex
 90
      256
102
RTVSPost2010Prop51ColorRGB
 90
-16777216
102
RTVSPost2010PropOp51
 70
     0
102
RTVSPost2010Prop52
140
1.0
102
RTVSPost2010PropOp52
 70
     0
102
RTVSPost2010Prop53
 90
        2
102
RTVSPost2010PropOp53
 70
     1
102
RTVSPost2010Prop54
  1
strokes_ogs.tif
102
RTVSPost2010PropOp54
 70
     1
102
RTVSPost2010Prop55
280
     0
102
RTVSPost2010PropOp55
 70
     1
102
RTVSPost2010Prop56
140
1.0
102
RTVSPost2010PropOp56
 70
     1
102
RTVSPost2010Prop57
140
1.0
102
RTVSPost2010PropOp57
 70
     1
102
RTVSPropertyOp0
 70
     1
102
RTVSPropertyOp1
 70
     1
102
RTVSPropertyOp2
 70
     1
102
RTVSPropertyOp3
 70
     1
102
RTVSPropertyOp4
 70
     1
102
RTVSPropertyOp5
 70
     1
102
RTVSPropertyOp6
 70
     1
102
RTVSPropertyOp7
 70
     1
102
RTVSPropertyOp8
 70
     1
102
RTVSPropertyOp9
 70
     1
102
RTVSPropertyOp10
 70
     1
102
RTVSPropertyOp11
 70
     1
102
RTVSPropertyOp12
 70
     1
102
RTVSPropertyOp13
 70
     1
102
RTVSPropertyOp14
 70
     1
102
RTVSPropertyOp15
 70
     1
102
RTVSPropertyOp16
 70
     1
102
RTVSPropertyOp17
 70
     1
102
RTVSPropertyOp18
 70
     1
102
RTVSPropertyOp19
 70
     1
102
RTVSPropertyOp20
 70
     1
102
RTVSPropertyOp21
 70
     1
102
RTVSPropertyOp22
 70
     1
102
RTVSPropertyOp23
 70
     1
102
RTVSPropertyOp24
 70
     1
102
RTVSPropertyOp25
 70
     1
102
RTVSPropertyOp26
 70
     1
102
RTVSPropertyOp27
 70
     1
102
RTVSPropertyOp28
 70
     1
102
RTVSPropertyOp29
 70
     1
102
RTVSPropertyOp30
 70
     1
102
RTVSPropertyOp31
 70
     1
102
RTVSPropertyOp32
 70
     1
102
RTVSPropertyOp33
 70
     1
102
RTVSPropertyOp34
 70
     1
102
RTVSPropertyOp35
 70
     1
102
RTVSPropertyOp36
 70
     1
102
RTVSPropertyOp37
 70
     1
102
RTVSPropertyOp38
 70
     1
102
RTVSPropertyOp39
 70
     1
102
RTVSPropertyOp40
 70
     1
102
RTVSPropertyOp41
 70
     1
102
RTVSPropertyOp42
 70
     1
102
RTVSPropertyOp43
 70
     1
102
RTVSPropertyOp44
 70
     1
102
RTVSPropertyOp45
 70
     1
102
RTVSPropertyOp46
 70
     1
102
RTVSPropertyOp47
 70
     1
102
RTVSPropertyOp48
 70
     1
102
RTVSPropertyOp49
 70
     1
102
RTVSPropertyOp50
 70
     1
102
RTVSPropertyOp51
 70
     0
102
RTVSPropertyOp52
 70
     0
102
RTVSPropertyOp53
 70
     1
102
RTVSPropertyOp54
 70
     1
102
RTVSPropertyOp55
 70
     1
102
RTVSPropertyOp56
 70
     1
102
RTVSPropertyOp57
 70
     1
102
RTVSPropertyOp58
 70
     1
102
RTVSPropertyOp59
 70
     1
102
RTVSPropertyOp60
 70
     1
102
RTVSPropertyOp61
 70
     1
102
RTVSPropertyOp62
 70
     1
  0
XRECORD
  5
A368
102
{ACAD_REACTORS
330
A367
102
}
330
A367
100
AcDbXrecord
280
     1
102
RTVSPost2010Prop28
280
     0
102
RTVSPost2010PropOp28
 70
     1
102
RTVSPost2010Prop29
280
     1
102
RTVSPost2010PropOp29
 70
     1
102
RTVSPost2010Prop30
280
     1
102
RTVSPost2010PropOp30
 70
     1
102
RTVSPost2010Prop31
280
     0
102
RTVSPost2010PropOp31
 70
     1
102
RTVSPost2010Prop32
280
     0
102
RTVSPost2010PropOp32
 70
     1
102
RTVSPost2010Prop33
280
     0
102
RTVSPost2010PropOp33
 70
     1
102
RTVSPost2010Prop34
280
     0
102
RTVSPost2010PropOp34
 70
     1
102
RTVSPost2010Prop35
280
     0
102
RTVSPost2010PropOp35
 70
     1
102
RTVSPost2010Prop36
280
     0
102
RTVSPost2010PropOp36
 70
     1
102
RTVSPost2010Prop37
 90
       50
102
RTVSPost2010PropOp37
 70
     0
102
RTVSPost2010Prop38
140
0.0
102
RTVSPost2010PropOp38
 70
     0
102
RTVSPost2010Prop39
140
1.0
102
RTVSPost2010PropOp39
 70
     0
102
RTVSPost2010Prop40
 90
        0
102
RTVSPost2010PropOp40
 70
     0
102
RTVSPost2010Prop41ColorIndex
 90
       18
102
RTVSPost2010Prop41ColorRGB
 90
        0
102
RTVSPost2010PropOp41
 70
     0
102
RTVSPost2010Prop42
 90
       50
102
RTVSPost2010PropOp42
 70
     0
102
RTVSPost2010Prop43
 90
        3
102
RTVSPost2010PropOp43
 70
     0
102
RTVSPost2010Prop44ColorIndex
 90
        5
102
RTVSPost2010Prop44ColorRGB
 90
      255
102
RTVSPost2010PropOp44
 70
     0
102
RTVSPost2010Prop45
280
     0
102
RTVSPost2010PropOp45
 70
     1
102
RTVSPost2010Prop46
 90
       50
102
RTVSPost2010PropOp46
 70
     0
102
RTVSPost2010Prop47
 90
       50
102
RTVSPost2010PropOp47
 70
     0
102
RTVSPost2010Prop48
 90
       50
102
RTVSPost2010PropOp48
 70
     0
102
RTVSPost2010Prop49
280
     0
102
RTVSPost2010PropOp49
 70
     1
102
RTVSPost2010Prop50
 90
       50
102
RTVSPost2010PropOp50
 70
     0
102
RTVSPost2010Prop51ColorIndex
 90
      256
102
RTVSPost2010Prop51ColorRGB
 90
-16777216
102
RTVSPost2010PropOp51
 70
     0
102
RTVSPost2010Prop52
140
1.0
102
RTVSPost2010PropOp52
 70
     0
102
RTVSPost2010Prop53
 90
        2
102
RTVSPost2010PropOp53
 70
     0
102
RTVSPost2010Prop54
  1
strokes_ogs.tif
102
RTVSPost2010PropOp54
 70
     0
102
RTVSPost2010Prop55
280
     0
102
RTVSPost2010PropOp55
 70
     1
102
RTVSPost2010Prop56
140
1.0
102
RTVSPost2010PropOp56
 70
     0
102
RTVSPost2010Prop57
140
1.0
102
RTVSPost2010PropOp57
 70
     0
102
RTVSPropertyOp0
 70
     0
102
RTVSPropertyOp1
 70
     0
102
RTVSPropertyOp2
 70
     0
102
RTVSPropertyOp3
 70
     0
102
RTVSPropertyOp4
 70
     0
102
RTVSPropertyOp5
 70
     0
102
RTVSPropertyOp6
 70
     0
102
RTVSPropertyOp7
 70
     0
102
RTVSPropertyOp8
 70
     0
102
RTVSPropertyOp9
 70
     0
102
RTVSPropertyOp10
 70
     0
102
RTVSPropertyOp11
 70
     0
102
RTVSPropertyOp12
 70
     0
102
RTVSPropertyOp13
 70
     0
102
RTVSPropertyOp14
 70
     2
102
RTVSPropertyOp15
 70
     0
102
RTVSPropertyOp16
 70
     0
102
RTVSPropertyOp17
 70
     0
102
RTVSPropertyOp18
 70
     0
102
RTVSPropertyOp19
 70
     0
102
RTVSPropertyOp20
 70
     0
102
RTVSPropertyOp21
 70
     0
102
RTVSPropertyOp22
 70
     0
102
RTVSPropertyOp23
 70
     0
102
RTVSPropertyOp24
 70
     0
102
RTVSPropertyOp25
 70
     0
102
RTVSPropertyOp26
 70
     0
102
RTVSPropertyOp27
 70
     0
102
RTVSPropertyOp28
 70
     1
102
RTVSPropertyOp29
 70
     1
102
RTVSPropertyOp30
 70
     1
102
RTVSPropertyOp31
 70
     1
102
RTVSPropertyOp32
 70
     1
102
RTVSPropertyOp33
 70
     1
102
RTVSPropertyOp34
 70
     1
102
RTVSPropertyOp35
 70
     1
102
RTVSPropertyOp36
 70
     1
102
RTVSPropertyOp37
 70
     0
102
RTVSPropertyOp38
 70
     0
102
RTVSPropertyOp39
 70
     0
102
RTVSPropertyOp40
 70
     0
102
RTVSPropertyOp41
 70
     0
102
RTVSPropertyOp42
 70
     0
102
RTVSPropertyOp43
 70
     0
102
RTVSPropertyOp44
 70
     0
102
RTVSPropertyOp45
 70
     1
102
RTVSPropertyOp46
 70
     0
102
RTVSPropertyOp47
 70
     0
102
RTVSPropertyOp48
 70
     0
102
RTVSPropertyOp49
 70
     1
102
RTVSPropertyOp50
 70
     0
102
RTVSPropertyOp51
 70
     0
102
RTVSPropertyOp52
 70
     0
102
RTVSPropertyOp53
 70
     0
102
RTVSPropertyOp54
 70
     0
102
RTVSPropertyOp55
 70
     1
102
RTVSPropertyOp56
 70
     0
102
RTVSPropertyOp57
 70
     0
102
RTVSPropertyOp58
 70
     0
102
RTVSPropertyOp59
 70
     0
102
RTVSPropertyOp60
 70
     0
102
RTVSPropertyOp61
 70
     0
102
RTVSPropertyOp62
 70
     0
  0
XRECORD
  5
A356
102
{ACAD_REACTORS
330
A355
102
}
330
A355
100
AcDbXrecord
280
     1
102
RTVSPost2010Prop28
280
     0
102
RTVSPost2010PropOp28
 70
     1
102
RTVSPost2010Prop29
280
     1
102
RTVSPost2010PropOp29
 70
     1
102
RTVSPost2010Prop30
280
     1
102
RTVSPost2010PropOp30
 70
     1
102
RTVSPost2010Prop31
280
     0
102
RTVSPost2010PropOp31
 70
     1
102
RTVSPost2010Prop32
280
     0
102
RTVSPost2010PropOp32
 70
     1
102
RTVSPost2010Prop33
280
     0
102
RTVSPost2010PropOp33
 70
     1
102
RTVSPost2010Prop34
280
     0
102
RTVSPost2010PropOp34
 70
     1
102
RTVSPost2010Prop35
280
     0
102
RTVSPost2010PropOp35
 70
     1
102
RTVSPost2010Prop36
280
     0
102
RTVSPost2010PropOp36
 70
     1
102
RTVSPost2010Prop37
 90
       50
102
RTVSPost2010PropOp37
 70
     1
102
RTVSPost2010Prop38
140
0.0
102
RTVSPost2010PropOp38
 70
     1
102
RTVSPost2010Prop39
140
1.0
102
RTVSPost2010PropOp39
 70
     1
102
RTVSPost2010Prop40
 90
        0
102
RTVSPost2010PropOp40
 70
     1
102
RTVSPost2010Prop41ColorIndex
 90
       18
102
RTVSPost2010Prop41ColorRGB
 90
        0
102
RTVSPost2010PropOp41
 70
     1
102
RTVSPost2010Prop42
 90
       50
102
RTVSPost2010PropOp42
 70
     1
102
RTVSPost2010Prop43
 90
        3
102
RTVSPost2010PropOp43
 70
     1
102
RTVSPost2010Prop44ColorIndex
 90
        5
102
RTVSPost2010Prop44ColorRGB
 90
      255
102
RTVSPost2010PropOp44
 70
     1
102
RTVSPost2010Prop45
280
     0
102
RTVSPost2010PropOp45
 70
     1
102
RTVSPost2010Prop46
 90
       50
102
RTVSPost2010PropOp46
 70
     1
102
RTVSPost2010Prop47
 90
       50
102
RTVSPost2010PropOp47
 70
     1
102
RTVSPost2010Prop48
 90
       50
102
RTVSPost2010PropOp48
 70
     1
102
RTVSPost2010Prop49
280
     0
102
RTVSPost2010PropOp49
 70
     1
102
RTVSPost2010Prop50
 90
       50
102
RTVSPost2010PropOp50
 70
     1
102
RTVSPost2010Prop51ColorIndex
 90
      256
102
RTVSPost2010Prop51ColorRGB
 90
-16777216
102
RTVSPost2010PropOp51
 70
     0
102
RTVSPost2010Prop52
140
1.0
102
RTVSPost2010PropOp52
 70
     0
102
RTVSPost2010Prop53
 90
        2
102
RTVSPost2010PropOp53
 70
     1
102
RTVSPost2010Prop54
  1
strokes_ogs.tif
102
RTVSPost2010PropOp54
 70
     1
102
RTVSPost2010Prop55
280
     0
102
RTVSPost2010PropOp55
 70
     1
102
RTVSPost2010Prop56
140
1.0
102
RTVSPost2010PropOp56
 70
     1
102
RTVSPost2010Prop57
140
1.0
102
RTVSPost2010PropOp57
 70
     1
102
RTVSPropertyOp0
 70
     1
102
RTVSPropertyOp1
 70
     1
102
RTVSPropertyOp2
 70
     1
102
RTVSPropertyOp3
 70
     1
102
RTVSPropertyOp4
 70
     1
102
RTVSPropertyOp5
 70
     1
102
RTVSPropertyOp6
 70
     1
102
RTVSPropertyOp7
 70
     1
102
RTVSPropertyOp8
 70
     1
102
RTVSPropertyOp9
 70
     1
102
RTVSPropertyOp10
 70
     1
102
RTVSPropertyOp11
 70
     1
102
RTVSPropertyOp12
 70
     1
102
RTVSPropertyOp13
 70
     1
102
RTVSPropertyOp14
 70
     1
102
RTVSPropertyOp15
 70
     1
102
RTVSPropertyOp16
 70
     1
102
RTVSPropertyOp17
 70
     1
102
RTVSPropertyOp18
 70
     1
102
RTVSPropertyOp19
 70
     1
102
RTVSPropertyOp20
 70
     1
102
RTVSPropertyOp21
 70
     1
102
RTVSPropertyOp22
 70
     1
102
RTVSPropertyOp23
 70
     1
102
RTVSPropertyOp24
 70
     1
102
RTVSPropertyOp25
 70
     1
102
RTVSPropertyOp26
 70
     1
102
RTVSPropertyOp27
 70
     1
102
RTVSPropertyOp28
 70
     1
102
RTVSPropertyOp29
 70
     1
102
RTVSPropertyOp30
 70
     1
102
RTVSPropertyOp31
 70
     1
102
RTVSPropertyOp32
 70
     1
102
RTVSPropertyOp33
 70
     1
102
RTVSPropertyOp34
 70
     1
102
RTVSPropertyOp35
 70
     1
102
RTVSPropertyOp36
 70
     1
102
RTVSPropertyOp37
 70
     1
102
RTVSPropertyOp38
 70
     1
102
RTVSPropertyOp39
 70
     1
102
RTVSPropertyOp40
 70
     1
102
RTVSPropertyOp41
 70
     1
102
RTVSPropertyOp42
 70
     1
102
RTVSPropertyOp43
 70
     1
102
RTVSPropertyOp44
 70
     1
102
RTVSPropertyOp45
 70
     1
102
RTVSPropertyOp46
 70
     1
102
RTVSPropertyOp47
 70
     1
102
RTVSPropertyOp48
 70
     1
102
RTVSPropertyOp49
 70
     1
102
RTVSPropertyOp50
 70
     1
102
RTVSPropertyOp51
 70
     0
102
RTVSPropertyOp52
 70
     0
102
RTVSPropertyOp53
 70
     1
102
RTVSPropertyOp54
 70
     1
102
RTVSPropertyOp55
 70
     1
102
RTVSPropertyOp56
 70
     1
102
RTVSPropertyOp57
 70
     1
102
RTVSPropertyOp58
 70
     1
102
RTVSPropertyOp59
 70
     1
102
RTVSPropertyOp60
 70
     1
102
RTVSPropertyOp61
 70
     1
102
RTVSPropertyOp62
 70
     1
  0
XRECORD
  5
A33A
102
{ACAD_REACTORS
330
A339
102
}
330
A339
100
AcDbXrecord
280
     1
102
RTVSPost2010Prop28
280
     0
102
RTVSPost2010PropOp28
 70
     1
102
RTVSPost2010Prop29
280
     1
102
RTVSPost2010PropOp29
 70
     1
102
RTVSPost2010Prop30
280
     1
102
RTVSPost2010PropOp30
 70
     1
102
RTVSPost2010Prop31
280
     0
102
RTVSPost2010PropOp31
 70
     1
102
RTVSPost2010Prop32
280
     0
102
RTVSPost2010PropOp32
 70
     1
102
RTVSPost2010Prop33
280
     0
102
RTVSPost2010PropOp33
 70
     1
102
RTVSPost2010Prop34
280
     0
102
RTVSPost2010PropOp34
 70
     1
102
RTVSPost2010Prop35
280
     0
102
RTVSPost2010PropOp35
 70
     1
102
RTVSPost2010Prop36
280
     0
102
RTVSPost2010PropOp36
 70
     1
102
RTVSPost2010Prop37
 90
       50
102
RTVSPost2010PropOp37
 70
     1
102
RTVSPost2010Prop38
140
0.0
102
RTVSPost2010PropOp38
 70
     1
102
RTVSPost2010Prop39
140
1.0
102
RTVSPost2010PropOp39
 70
     1
102
RTVSPost2010Prop40
 90
        0
102
RTVSPost2010PropOp40
 70
     1
102
RTVSPost2010Prop41ColorIndex
 90
       18
102
RTVSPost2010Prop41ColorRGB
 90
        0
102
RTVSPost2010PropOp41
 70
     1
102
RTVSPost2010Prop42
 90
       50
102
RTVSPost2010PropOp42
 70
     1
102
RTVSPost2010Prop43
 90
        3
102
RTVSPost2010PropOp43
 70
     1
102
RTVSPost2010Prop44ColorIndex
 90
        5
102
RTVSPost2010Prop44ColorRGB
 90
      255
102
RTVSPost2010PropOp44
 70
     1
102
RTVSPost2010Prop45
280
     0
102
RTVSPost2010PropOp45
 70
     1
102
RTVSPost2010Prop46
 90
       50
102
RTVSPost2010PropOp46
 70
     1
102
RTVSPost2010Prop47
 90
       50
102
RTVSPost2010PropOp47
 70
     1
102
RTVSPost2010Prop48
 90
       50
102
RTVSPost2010PropOp48
 70
     1
102
RTVSPost2010Prop49
280
     0
102
RTVSPost2010PropOp49
 70
     1
102
RTVSPost2010Prop50
 90
       50
102
RTVSPost2010PropOp50
 70
     1
102
RTVSPost2010Prop51ColorIndex
 90
      256
102
RTVSPost2010Prop51ColorRGB
 90
-16777216
102
RTVSPost2010PropOp51
 70
     0
102
RTVSPost2010Prop52
140
1.0
102
RTVSPost2010PropOp52
 70
     0
102
RTVSPost2010Prop53
 90
        2
102
RTVSPost2010PropOp53
 70
     1
102
RTVSPost2010Prop54
  1
strokes_ogs.tif
102
RTVSPost2010PropOp54
 70
     1
102
RTVSPost2010Prop55
280
     0
102
RTVSPost2010PropOp55
 70
     1
102
RTVSPost2010Prop56
140
1.0
102
RTVSPost2010PropOp56
 70
     1
102
RTVSPost2010Prop57
140
1.0
102
RTVSPost2010PropOp57
 70
     1
102
RTVSPropertyOp0
 70
     1
102
RTVSPropertyOp1
 70
     1
102
RTVSPropertyOp2
 70
     1
102
RTVSPropertyOp3
 70
     1
102
RTVSPropertyOp4
 70
     1
102
RTVSPropertyOp5
 70
     1
102
RTVSPropertyOp6
 70
     1
102
RTVSPropertyOp7
 70
     1
102
RTVSPropertyOp8
 70
     1
102
RTVSPropertyOp9
 70
     1
102
RTVSPropertyOp10
 70
     1
102
RTVSPropertyOp11
 70
     1
102
RTVSPropertyOp12
 70
     1
102
RTVSPropertyOp13
 70
     1
102
RTVSPropertyOp14
 70
     1
102
RTVSPropertyOp15
 70
     1
102
RTVSPropertyOp16
 70
     1
102
RTVSPropertyOp17
 70
     1
102
RTVSPropertyOp18
 70
     1
102
RTVSPropertyOp19
 70
     1
102
RTVSPropertyOp20
 70
     1
102
RTVSPropertyOp21
 70
     1
102
RTVSPropertyOp22
 70
     1
102
RTVSPropertyOp23
 70
     1
102
RTVSPropertyOp24
 70
     1
102
RTVSPropertyOp25
 70
     1
102
RTVSPropertyOp26
 70
     1
102
RTVSPropertyOp27
 70
     1
102
RTVSPropertyOp28
 70
     1
102
RTVSPropertyOp29
 70
     1
102
RTVSPropertyOp30
 70
     1
102
RTVSPropertyOp31
 70
     1
102
RTVSPropertyOp32
 70
     1
102
RTVSPropertyOp33
 70
     1
102
RTVSPropertyOp34
 70
     1
102
RTVSPropertyOp35
 70
     1
102
RTVSPropertyOp36
 70
     1
102
RTVSPropertyOp37
 70
     1
102
RTVSPropertyOp38
 70
     1
102
RTVSPropertyOp39
 70
     1
102
RTVSPropertyOp40
 70
     1
102
RTVSPropertyOp41
 70
     1
102
RTVSPropertyOp42
 70
     1
102
RTVSPropertyOp43
 70
     1
102
RTVSPropertyOp44
 70
     1
102
RTVSPropertyOp45
 70
     1
102
RTVSPropertyOp46
 70
     1
102
RTVSPropertyOp47
 70
     1
102
RTVSPropertyOp48
 70
     1
102
RTVSPropertyOp49
 70
     1
102
RTVSPropertyOp50
 70
     1
102
RTVSPropertyOp51
 70
     0
102
RTVSPropertyOp52
 70
     0
102
RTVSPropertyOp53
 70
     1
102
RTVSPropertyOp54
 70
     1
102
RTVSPropertyOp55
 70
     1
102
RTVSPropertyOp56
 70
     1
102
RTVSPropertyOp57
 70
     1
102
RTVSPropertyOp58
 70
     1
102
RTVSPropertyOp59
 70
     1
102
RTVSPropertyOp60
 70
     1
102
RTVSPropertyOp61
 70
     1
102
RTVSPropertyOp62
 70
     1
  0
XRECORD
  5
A33C
102
{ACAD_REACTORS
330
A33B
102
}
330
A33B
100
AcDbXrecord
280
     1
102
RTVSPost2010Prop28
280
     0
102
RTVSPost2010PropOp28
 70
     1
102
RTVSPost2010Prop29
280
     1
102
RTVSPost2010PropOp29
 70
     1
102
RTVSPost2010Prop30
280
     1
102
RTVSPost2010PropOp30
 70
     1
102
RTVSPost2010Prop31
280
     0
102
RTVSPost2010PropOp31
 70
     1
102
RTVSPost2010Prop32
280
     0
102
RTVSPost2010PropOp32
 70
     1
102
RTVSPost2010Prop33
280
     0
102
RTVSPost2010PropOp33
 70
     1
102
RTVSPost2010Prop34
280
     0
102
RTVSPost2010PropOp34
 70
     1
102
RTVSPost2010Prop35
280
     0
102
RTVSPost2010PropOp35
 70
     1
102
RTVSPost2010Prop36
280
     0
102
RTVSPost2010PropOp36
 70
     1
102
RTVSPost2010Prop37
 90
       50
102
RTVSPost2010PropOp37
 70
     1
102
RTVSPost2010Prop38
140
0.0
102
RTVSPost2010PropOp38
 70
     1
102
RTVSPost2010Prop39
140
1.0
102
RTVSPost2010PropOp39
 70
     1
102
RTVSPost2010Prop40
 90
        0
102
RTVSPost2010PropOp40
 70
     1
102
RTVSPost2010Prop41ColorIndex
 90
       18
102
RTVSPost2010Prop41ColorRGB
 90
        0
102
RTVSPost2010PropOp41
 70
     1
102
RTVSPost2010Prop42
 90
       50
102
RTVSPost2010PropOp42
 70
     1
102
RTVSPost2010Prop43
 90
        3
102
RTVSPost2010PropOp43
 70
     1
102
RTVSPost2010Prop44ColorIndex
 90
        5
102
RTVSPost2010Prop44ColorRGB
 90
      255
102
RTVSPost2010PropOp44
 70
     1
102
RTVSPost2010Prop45
280
     0
102
RTVSPost2010PropOp45
 70
     1
102
RTVSPost2010Prop46
 90
       50
102
RTVSPost2010PropOp46
 70
     1
102
RTVSPost2010Prop47
 90
       50
102
RTVSPost2010PropOp47
 70
     1
102
RTVSPost2010Prop48
 90
       50
102
RTVSPost2010PropOp48
 70
     1
102
RTVSPost2010Prop49
280
     0
102
RTVSPost2010PropOp49
 70
     1
102
RTVSPost2010Prop50
 90
       50
102
RTVSPost2010PropOp50
 70
     1
102
RTVSPost2010Prop51ColorIndex
 90
      256
102
RTVSPost2010Prop51ColorRGB
 90
-16777216
102
RTVSPost2010PropOp51
 70
     0
102
RTVSPost2010Prop52
140
1.0
102
RTVSPost2010PropOp52
 70
     0
102
RTVSPost2010Prop53
 90
        2
102
RTVSPost2010PropOp53
 70
     1
102
RTVSPost2010Prop54
  1
strokes_ogs.tif
102
RTVSPost2010PropOp54
 70
     1
102
RTVSPost2010Prop55
280
     0
102
RTVSPost2010PropOp55
 70
     1
102
RTVSPost2010Prop56
140
1.0
102
RTVSPost2010PropOp56
 70
     1
102
RTVSPost2010Prop57
140
1.0
102
RTVSPost2010PropOp57
 70
     1
102
RTVSPropertyOp0
 70
     1
102
RTVSPropertyOp1
 70
     1
102
RTVSPropertyOp2
 70
     1
102
RTVSPropertyOp3
 70
     1
102
RTVSPropertyOp4
 70
     1
102
RTVSPropertyOp5
 70
     1
102
RTVSPropertyOp6
 70
     1
102
RTVSPropertyOp7
 70
     1
102
RTVSPropertyOp8
 70
     1
102
RTVSPropertyOp9
 70
     1
102
RTVSPropertyOp10
 70
     1
102
RTVSPropertyOp11
 70
     1
102
RTVSPropertyOp12
 70
     1
102
RTVSPropertyOp13
 70
     1
102
RTVSPropertyOp14
 70
     1
102
RTVSPropertyOp15
 70
     1
102
RTVSPropertyOp16
 70
     1
102
RTVSPropertyOp17
 70
     1
102
RTVSPropertyOp18
 70
     1
102
RTVSPropertyOp19
 70
     1
102
RTVSPropertyOp20
 70
     1
102
RTVSPropertyOp21
 70
     1
102
RTVSPropertyOp22
 70
     1
102
RTVSPropertyOp23
 70
     1
102
RTVSPropertyOp24
 70
     1
102
RTVSPropertyOp25
 70
     1
102
RTVSPropertyOp26
 70
     1
102
RTVSPropertyOp27
 70
     1
102
RTVSPropertyOp28
 70
     1
102
RTVSPropertyOp29
 70
     1
102
RTVSPropertyOp30
 70
     1
102
RTVSPropertyOp31
 70
     1
102
RTVSPropertyOp32
 70
     1
102
RTVSPropertyOp33
 70
     1
102
RTVSPropertyOp34
 70
     1
102
RTVSPropertyOp35
 70
     1
102
RTVSPropertyOp36
 70
     1
102
RTVSPropertyOp37
 70
     1
102
RTVSPropertyOp38
 70
     1
102
RTVSPropertyOp39
 70
     1
102
RTVSPropertyOp40
 70
     1
102
RTVSPropertyOp41
 70
     1
102
RTVSPropertyOp42
 70
     1
102
RTVSPropertyOp43
 70
     1
102
RTVSPropertyOp44
 70
     1
102
RTVSPropertyOp45
 70
     1
102
RTVSPropertyOp46
 70
     1
102
RTVSPropertyOp47
 70
     1
102
RTVSPropertyOp48
 70
     1
102
RTVSPropertyOp49
 70
     1
102
RTVSPropertyOp50
 70
     1
102
RTVSPropertyOp51
 70
     0
102
RTVSPropertyOp52
 70
     0
102
RTVSPropertyOp53
 70
     1
102
RTVSPropertyOp54
 70
     1
102
RTVSPropertyOp55
 70
     1
102
RTVSPropertyOp56
 70
     1
102
RTVSPropertyOp57
 70
     1
102
RTVSPropertyOp58
 70
     1
102
RTVSPropertyOp59
 70
     1
102
RTVSPropertyOp60
 70
     1
102
RTVSPropertyOp61
 70
     1
102
RTVSPropertyOp62
 70
     1
  0
XRECORD
  5
A33E
102
{ACAD_REACTORS
330
A33D
102
}
330
A33D
100
AcDbXrecord
280
     1
102
RTVSPost2010Prop28
280
     0
102
RTVSPost2010PropOp28
 70
     1
102
RTVSPost2010Prop29
280
     1
102
RTVSPost2010PropOp29
 70
     1
102
RTVSPost2010Prop30
280
     1
102
RTVSPost2010PropOp30
 70
     1
102
RTVSPost2010Prop31
280
     0
102
RTVSPost2010PropOp31
 70
     1
102
RTVSPost2010Prop32
280
     0
102
RTVSPost2010PropOp32
 70
     1
102
RTVSPost2010Prop33
280
     0
102
RTVSPost2010PropOp33
 70
     1
102
RTVSPost2010Prop34
280
     0
102
RTVSPost2010PropOp34
 70
     1
102
RTVSPost2010Prop35
280
     0
102
RTVSPost2010PropOp35
 70
     1
102
RTVSPost2010Prop36
280
     0
102
RTVSPost2010PropOp36
 70
     1
102
RTVSPost2010Prop37
 90
       50
102
RTVSPost2010PropOp37
 70
     1
102
RTVSPost2010Prop38
140
0.0
102
RTVSPost2010PropOp38
 70
     1
102
RTVSPost2010Prop39
140
1.0
102
RTVSPost2010PropOp39
 70
     1
102
RTVSPost2010Prop40
 90
        0
102
RTVSPost2010PropOp40
 70
     1
102
RTVSPost2010Prop41ColorIndex
 90
       18
102
RTVSPost2010Prop41ColorRGB
 90
        0
102
RTVSPost2010PropOp41
 70
     1
102
RTVSPost2010Prop42
 90
       50
102
RTVSPost2010PropOp42
 70
     1
102
RTVSPost2010Prop43
 90
        3
102
RTVSPost2010PropOp43
 70
     1
102
RTVSPost2010Prop44ColorIndex
 90
        5
102
RTVSPost2010Prop44ColorRGB
 90
      255
102
RTVSPost2010PropOp44
 70
     1
102
RTVSPost2010Prop45
280
     0
102
RTVSPost2010PropOp45
 70
     1
102
RTVSPost2010Prop46
 90
       50
102
RTVSPost2010PropOp46
 70
     1
102
RTVSPost2010Prop47
 90
       50
102
RTVSPost2010PropOp47
 70
     1
102
RTVSPost2010Prop48
 90
       50
102
RTVSPost2010PropOp48
 70
     1
102
RTVSPost2010Prop49
280
     0
102
RTVSPost2010PropOp49
 70
     1
102
RTVSPost2010Prop50
 90
       50
102
RTVSPost2010PropOp50
 70
     1
102
RTVSPost2010Prop51ColorIndex
 90
      256
102
RTVSPost2010Prop51ColorRGB
 90
-16777216
102
RTVSPost2010PropOp51
 70
     0
102
RTVSPost2010Prop52
140
1.0
102
RTVSPost2010PropOp52
 70
     0
102
RTVSPost2010Prop53
 90
        2
102
RTVSPost2010PropOp53
 70
     1
102
RTVSPost2010Prop54
  1
strokes_ogs.tif
102
RTVSPost2010PropOp54
 70
     1
102
RTVSPost2010Prop55
280
     0
102
RTVSPost2010PropOp55
 70
     1
102
RTVSPost2010Prop56
140
1.0
102
RTVSPost2010PropOp56
 70
     1
102
RTVSPost2010Prop57
140
1.0
102
RTVSPost2010PropOp57
 70
     1
102
RTVSPropertyOp0
 70
     1
102
RTVSPropertyOp1
 70
     1
102
RTVSPropertyOp2
 70
     1
102
RTVSPropertyOp3
 70
     1
102
RTVSPropertyOp4
 70
     1
102
RTVSPropertyOp5
 70
     1
102
RTVSPropertyOp6
 70
     1
102
RTVSPropertyOp7
 70
     1
102
RTVSPropertyOp8
 70
     1
102
RTVSPropertyOp9
 70
     1
102
RTVSPropertyOp10
 70
     1
102
RTVSPropertyOp11
 70
     1
102
RTVSPropertyOp12
 70
     1
102
RTVSPropertyOp13
 70
     1
102
RTVSPropertyOp14
 70
     1
102
RTVSPropertyOp15
 70
     1
102
RTVSPropertyOp16
 70
     1
102
RTVSPropertyOp17
 70
     1
102
RTVSPropertyOp18
 70
     1
102
RTVSPropertyOp19
 70
     1
102
RTVSPropertyOp20
 70
     1
102
RTVSPropertyOp21
 70
     1
102
RTVSPropertyOp22
 70
     1
102
RTVSPropertyOp23
 70
     1
102
RTVSPropertyOp24
 70
     1
102
RTVSPropertyOp25
 70
     1
102
RTVSPropertyOp26
 70
     1
102
RTVSPropertyOp27
 70
     1
102
RTVSPropertyOp28
 70
     1
102
RTVSPropertyOp29
 70
     1
102
RTVSPropertyOp30
 70
     1
102
RTVSPropertyOp31
 70
     1
102
RTVSPropertyOp32
 70
     1
102
RTVSPropertyOp33
 70
     1
102
RTVSPropertyOp34
 70
     1
102
RTVSPropertyOp35
 70
     1
102
RTVSPropertyOp36
 70
     1
102
RTVSPropertyOp37
 70
     1
102
RTVSPropertyOp38
 70
     1
102
RTVSPropertyOp39
 70
     1
102
RTVSPropertyOp40
 70
     1
102
RTVSPropertyOp41
 70
     1
102
RTVSPropertyOp42
 70
     1
102
RTVSPropertyOp43
 70
     1
102
RTVSPropertyOp44
 70
     1
102
RTVSPropertyOp45
 70
     1
102
RTVSPropertyOp46
 70
     1
102
RTVSPropertyOp47
 70
     1
102
RTVSPropertyOp48
 70
     1
102
RTVSPropertyOp49
 70
     1
102
RTVSPropertyOp50
 70
     1
102
RTVSPropertyOp51
 70
     0
102
RTVSPropertyOp52
 70
     0
102
RTVSPropertyOp53
 70
     1
102
RTVSPropertyOp54
 70
     1
102
RTVSPropertyOp55
 70
     1
102
RTVSPropertyOp56
 70
     1
102
RTVSPropertyOp57
 70
     1
102
RTVSPropertyOp58
 70
     1
102
RTVSPropertyOp59
 70
     1
102
RTVSPropertyOp60
 70
     1
102
RTVSPropertyOp61
 70
     1
102
RTVSPropertyOp62
 70
     1
  0
XRECORD
  5
A340
102
{ACAD_REACTORS
330
A33F
102
}
330
A33F
100
AcDbXrecord
280
     1
102
RTVSPost2010Prop28
280
     0
102
RTVSPost2010PropOp28
 70
     1
102
RTVSPost2010Prop29
280
     1
102
RTVSPost2010PropOp29
 70
     1
102
RTVSPost2010Prop30
280
     1
102
RTVSPost2010PropOp30
 70
     1
102
RTVSPost2010Prop31
280
     0
102
RTVSPost2010PropOp31
 70
     1
102
RTVSPost2010Prop32
280
     0
102
RTVSPost2010PropOp32
 70
     1
102
RTVSPost2010Prop33
280
     0
102
RTVSPost2010PropOp33
 70
     1
102
RTVSPost2010Prop34
280
     0
102
RTVSPost2010PropOp34
 70
     1
102
RTVSPost2010Prop35
280
     0
102
RTVSPost2010PropOp35
 70
     1
102
RTVSPost2010Prop36
280
     0
102
RTVSPost2010PropOp36
 70
     1
102
RTVSPost2010Prop37
 90
       50
102
RTVSPost2010PropOp37
 70
     1
102
RTVSPost2010Prop38
140
0.0
102
RTVSPost2010PropOp38
 70
     1
102
RTVSPost2010Prop39
140
1.0
102
RTVSPost2010PropOp39
 70
     1
102
RTVSPost2010Prop40
 90
        0
102
RTVSPost2010PropOp40
 70
     1
102
RTVSPost2010Prop41ColorIndex
 90
       18
102
RTVSPost2010Prop41ColorRGB
 90
        0
102
RTVSPost2010PropOp41
 70
     1
102
RTVSPost2010Prop42
 90
       50
102
RTVSPost2010PropOp42
 70
     1
102
RTVSPost2010Prop43
 90
        3
102
RTVSPost2010PropOp43
 70
     1
102
RTVSPost2010Prop44ColorIndex
 90
        5
102
RTVSPost2010Prop44ColorRGB
 90
      255
102
RTVSPost2010PropOp44
 70
     1
102
RTVSPost2010Prop45
280
     0
102
RTVSPost2010PropOp45
 70
     1
102
RTVSPost2010Prop46
 90
       50
102
RTVSPost2010PropOp46
 70
     1
102
RTVSPost2010Prop47
 90
       50
102
RTVSPost2010PropOp47
 70
     1
102
RTVSPost2010Prop48
 90
       50
102
RTVSPost2010PropOp48
 70
     1
102
RTVSPost2010Prop49
280
     0
102
RTVSPost2010PropOp49
 70
     1
102
RTVSPost2010Prop50
 90
       50
102
RTVSPost2010PropOp50
 70
     1
102
RTVSPost2010Prop51ColorIndex
 90
      256
102
RTVSPost2010Prop51ColorRGB
 90
-16777216
102
RTVSPost2010PropOp51
 70
     0
102
RTVSPost2010Prop52
140
1.0
102
RTVSPost2010PropOp52
 70
     0
102
RTVSPost2010Prop53
 90
        2
102
RTVSPost2010PropOp53
 70
     1
102
RTVSPost2010Prop54
  1
strokes_ogs.tif
102
RTVSPost2010PropOp54
 70
     1
102
RTVSPost2010Prop55
280
     0
102
RTVSPost2010PropOp55
 70
     1
102
RTVSPost2010Prop56
140
1.0
102
RTVSPost2010PropOp56
 70
     1
102
RTVSPost2010Prop57
140
1.0
102
RTVSPost2010PropOp57
 70
     1
102
RTVSPropertyOp0
 70
     1
102
RTVSPropertyOp1
 70
     1
102
RTVSPropertyOp2
 70
     1
102
RTVSPropertyOp3
 70
     1
102
RTVSPropertyOp4
 70
     1
102
RTVSPropertyOp5
 70
     1
102
RTVSPropertyOp6
 70
     1
102
RTVSPropertyOp7
 70
     1
102
RTVSPropertyOp8
 70
     1
102
RTVSPropertyOp9
 70
     1
102
RTVSPropertyOp10
 70
     1
102
RTVSPropertyOp11
 70
     1
102
RTVSPropertyOp12
 70
     1
102
RTVSPropertyOp13
 70
     1
102
RTVSPropertyOp14
 70
     1
102
RTVSPropertyOp15
 70
     1
102
RTVSPropertyOp16
 70
     1
102
RTVSPropertyOp17
 70
     1
102
RTVSPropertyOp18
 70
     1
102
RTVSPropertyOp19
 70
     1
102
RTVSPropertyOp20
 70
     1
102
RTVSPropertyOp21
 70
     1
102
RTVSPropertyOp22
 70
     1
102
RTVSPropertyOp23
 70
     1
102
RTVSPropertyOp24
 70
     1
102
RTVSPropertyOp25
 70
     1
102
RTVSPropertyOp26
 70
     1
102
RTVSPropertyOp27
 70
     1
102
RTVSPropertyOp28
 70
     1
102
RTVSPropertyOp29
 70
     1
102
RTVSPropertyOp30
 70
     1
102
RTVSPropertyOp31
 70
     1
102
RTVSPropertyOp32
 70
     1
102
RTVSPropertyOp33
 70
     1
102
RTVSPropertyOp34
 70
     1
102
RTVSPropertyOp35
 70
     1
102
RTVSPropertyOp36
 70
     1
102
RTVSPropertyOp37
 70
     1
102
RTVSPropertyOp38
 70
     1
102
RTVSPropertyOp39
 70
     1
102
RTVSPropertyOp40
 70
     1
102
RTVSPropertyOp41
 70
     1
102
RTVSPropertyOp42
 70
     1
102
RTVSPropertyOp43
 70
     1
102
RTVSPropertyOp44
 70
     1
102
RTVSPropertyOp45
 70
     1
102
RTVSPropertyOp46
 70
     1
102
RTVSPropertyOp47
 70
     1
102
RTVSPropertyOp48
 70
     1
102
RTVSPropertyOp49
 70
     1
102
RTVSPropertyOp50
 70
     1
102
RTVSPropertyOp51
 70
     0
102
RTVSPropertyOp52
 70
     0
102
RTVSPropertyOp53
 70
     1
102
RTVSPropertyOp54
 70
     1
102
RTVSPropertyOp55
 70
     1
102
RTVSPropertyOp56
 70
     1
102
RTVSPropertyOp57
 70
     1
102
RTVSPropertyOp58
 70
     1
102
RTVSPropertyOp59
 70
     1
102
RTVSPropertyOp60
 70
     1
102
RTVSPropertyOp61
 70
     1
102
RTVSPropertyOp62
 70
     1
  0
XRECORD
  5
A348
102
{ACAD_REACTORS
330
A347
102
}
330
A347
100
AcDbXrecord
280
     1
102
RTVSPost2010Prop28
280
     0
102
RTVSPost2010PropOp28
 70
     1
102
RTVSPost2010Prop29
280
     1
102
RTVSPost2010PropOp29
 70
     1
102
RTVSPost2010Prop30
280
     1
102
RTVSPost2010PropOp30
 70
     1
102
RTVSPost2010Prop31
280
     0
102
RTVSPost2010PropOp31
 70
     1
102
RTVSPost2010Prop32
280
     0
102
RTVSPost2010PropOp32
 70
     1
102
RTVSPost2010Prop33
280
     0
102
RTVSPost2010PropOp33
 70
     1
102
RTVSPost2010Prop34
280
     0
102
RTVSPost2010PropOp34
 70
     1
102
RTVSPost2010Prop35
280
     0
102
RTVSPost2010PropOp35
 70
     1
102
RTVSPost2010Prop36
280
     0
102
RTVSPost2010PropOp36
 70
     1
102
RTVSPost2010Prop37
 90
       50
102
RTVSPost2010PropOp37
 70
     1
102
RTVSPost2010Prop38
140
0.0
102
RTVSPost2010PropOp38
 70
     1
102
RTVSPost2010Prop39
140
1.0
102
RTVSPost2010PropOp39
 70
     1
102
RTVSPost2010Prop40
 90
        0
102
RTVSPost2010PropOp40
 70
     1
102
RTVSPost2010Prop41ColorIndex
 90
       18
102
RTVSPost2010Prop41ColorRGB
 90
        0
102
RTVSPost2010PropOp41
 70
     1
102
RTVSPost2010Prop42
 90
       50
102
RTVSPost2010PropOp42
 70
     1
102
RTVSPost2010Prop43
 90
        3
102
RTVSPost2010PropOp43
 70
     1
102
RTVSPost2010Prop44ColorIndex
 90
        5
102
RTVSPost2010Prop44ColorRGB
 90
      255
102
RTVSPost2010PropOp44
 70
     1
102
RTVSPost2010Prop45
280
     0
102
RTVSPost2010PropOp45
 70
     1
102
RTVSPost2010Prop46
 90
       50
102
RTVSPost2010PropOp46
 70
     1
102
RTVSPost2010Prop47
 90
       50
102
RTVSPost2010PropOp47
 70
     1
102
RTVSPost2010Prop48
 90
       50
102
RTVSPost2010PropOp48
 70
     1
102
RTVSPost2010Prop49
280
     0
102
RTVSPost2010PropOp49
 70
     1
102
RTVSPost2010Prop50
 90
       50
102
RTVSPost2010PropOp50
 70
     1
102
RTVSPost2010Prop51ColorIndex
 90
      256
102
RTVSPost2010Prop51ColorRGB
 90
-16777216
102
RTVSPost2010PropOp51
 70
     0
102
RTVSPost2010Prop52
140
1.0
102
RTVSPost2010PropOp52
 70
     0
102
RTVSPost2010Prop53
 90
        2
102
RTVSPost2010PropOp53
 70
     1
102
RTVSPost2010Prop54
  1
strokes_ogs.tif
102
RTVSPost2010PropOp54
 70
     1
102
RTVSPost2010Prop55
280
     0
102
RTVSPost2010PropOp55
 70
     1
102
RTVSPost2010Prop56
140
1.0
102
RTVSPost2010PropOp56
 70
     1
102
RTVSPost2010Prop57
140
1.0
102
RTVSPost2010PropOp57
 70
     1
102
RTVSPropertyOp0
 70
     1
102
RTVSPropertyOp1
 70
     1
102
RTVSPropertyOp2
 70
     1
102
RTVSPropertyOp3
 70
     1
102
RTVSPropertyOp4
 70
     1
102
RTVSPropertyOp5
 70
     1
102
RTVSPropertyOp6
 70
     1
102
RTVSPropertyOp7
 70
     1
102
RTVSPropertyOp8
 70
     1
102
RTVSPropertyOp9
 70
     1
102
RTVSPropertyOp10
 70
     1
102
RTVSPropertyOp11
 70
     1
102
RTVSPropertyOp12
 70
     1
102
RTVSPropertyOp13
 70
     1
102
RTVSPropertyOp14
 70
     1
102
RTVSPropertyOp15
 70
     1
102
RTVSPropertyOp16
 70
     1
102
RTVSPropertyOp17
 70
     1
102
RTVSPropertyOp18
 70
     1
102
RTVSPropertyOp19
 70
     1
102
RTVSPropertyOp20
 70
     1
102
RTVSPropertyOp21
 70
     1
102
RTVSPropertyOp22
 70
     1
102
RTVSPropertyOp23
 70
     1
102
RTVSPropertyOp24
 70
     1
102
RTVSPropertyOp25
 70
     1
102
RTVSPropertyOp26
 70
     1
102
RTVSPropertyOp27
 70
     1
102
RTVSPropertyOp28
 70
     1
102
RTVSPropertyOp29
 70
     1
102
RTVSPropertyOp30
 70
     1
102
RTVSPropertyOp31
 70
     1
102
RTVSPropertyOp32
 70
     1
102
RTVSPropertyOp33
 70
     1
102
RTVSPropertyOp34
 70
     1
102
RTVSPropertyOp35
 70
     1
102
RTVSPropertyOp36
 70
     1
102
RTVSPropertyOp37
 70
     1
102
RTVSPropertyOp38
 70
     1
102
RTVSPropertyOp39
 70
     1
102
RTVSPropertyOp40
 70
     1
102
RTVSPropertyOp41
 70
     1
102
RTVSPropertyOp42
 70
     1
102
RTVSPropertyOp43
 70
     1
102
RTVSPropertyOp44
 70
     1
102
RTVSPropertyOp45
 70
     1
102
RTVSPropertyOp46
 70
     1
102
RTVSPropertyOp47
 70
     1
102
RTVSPropertyOp48
 70
     1
102
RTVSPropertyOp49
 70
     1
102
RTVSPropertyOp50
 70
     1
102
RTVSPropertyOp51
 70
     0
102
RTVSPropertyOp52
 70
     0
102
RTVSPropertyOp53
 70
     1
102
RTVSPropertyOp54
 70
     1
102
RTVSPropertyOp55
 70
     1
102
RTVSPropertyOp56
 70
     1
102
RTVSPropertyOp57
 70
     1
102
RTVSPropertyOp58
 70
     1
102
RTVSPropertyOp59
 70
     1
102
RTVSPropertyOp60
 70
     1
102
RTVSPropertyOp61
 70
     1
102
RTVSPropertyOp62
 70
     1
  0
XRECORD
  5
A364
102
{ACAD_REACTORS
330
A363
102
}
330
A363
100
AcDbXrecord
280
     1
102
RTVSPost2010Prop28
280
     0
102
RTVSPost2010PropOp28
 70
     1
102
RTVSPost2010Prop29
280
     1
102
RTVSPost2010PropOp29
 70
     1
102
RTVSPost2010Prop30
280
     1
102
RTVSPost2010PropOp30
 70
     1
102
RTVSPost2010Prop31
280
     0
102
RTVSPost2010PropOp31
 70
     1
102
RTVSPost2010Prop32
280
     0
102
RTVSPost2010PropOp32
 70
     1
102
RTVSPost2010Prop33
280
     0
102
RTVSPost2010PropOp33
 70
     1
102
RTVSPost2010Prop34
280
     0
102
RTVSPost2010PropOp34
 70
     1
102
RTVSPost2010Prop35
280
     0
102
RTVSPost2010PropOp35
 70
     1
102
RTVSPost2010Prop36
280
     0
102
RTVSPost2010PropOp36
 70
     1
102
RTVSPost2010Prop37
 90
       50
102
RTVSPost2010PropOp37
 70
     0
102
RTVSPost2010Prop38
140
0.0
102
RTVSPost2010PropOp38
 70
     0
102
RTVSPost2010Prop39
140
1.0
102
RTVSPost2010PropOp39
 70
     0
102
RTVSPost2010Prop40
 90
        0
102
RTVSPost2010PropOp40
 70
     0
102
RTVSPost2010Prop41ColorIndex
 90
       18
102
RTVSPost2010Prop41ColorRGB
 90
        0
102
RTVSPost2010PropOp41
 70
     0
102
RTVSPost2010Prop42
 90
       50
102
RTVSPost2010PropOp42
 70
     0
102
RTVSPost2010Prop43
 90
        3
102
RTVSPost2010PropOp43
 70
     0
102
RTVSPost2010Prop44ColorIndex
 90
        5
102
RTVSPost2010Prop44ColorRGB
 90
      255
102
RTVSPost2010PropOp44
 70
     0
102
RTVSPost2010Prop45
280
     0
102
RTVSPost2010PropOp45
 70
     1
102
RTVSPost2010Prop46
 90
       50
102
RTVSPost2010PropOp46
 70
     0
102
RTVSPost2010Prop47
 90
       50
102
RTVSPost2010PropOp47
 70
     0
102
RTVSPost2010Prop48
 90
       50
102
RTVSPost2010PropOp48
 70
     0
102
RTVSPost2010Prop49
280
     0
102
RTVSPost2010PropOp49
 70
     1
102
RTVSPost2010Prop50
 90
       50
102
RTVSPost2010PropOp50
 70
     0
102
RTVSPost2010Prop51ColorIndex
 90
      256
102
RTVSPost2010Prop51ColorRGB
 90
-16777216
102
RTVSPost2010PropOp51
 70
     0
102
RTVSPost2010Prop52
140
1.0
102
RTVSPost2010PropOp52
 70
     0
102
RTVSPost2010Prop53
 90
        2
102
RTVSPost2010PropOp53
 70
     0
102
RTVSPost2010Prop54
  1
strokes_ogs.tif
102
RTVSPost2010PropOp54
 70
     0
102
RTVSPost2010Prop55
280
     0
102
RTVSPost2010PropOp55
 70
     1
102
RTVSPost2010Prop56
140
1.0
102
RTVSPost2010PropOp56
 70
     0
102
RTVSPost2010Prop57
140
1.0
102
RTVSPost2010PropOp57
 70
     0
102
RTVSPropertyOp0
 70
     0
102
RTVSPropertyOp1
 70
     0
102
RTVSPropertyOp2
 70
     0
102
RTVSPropertyOp3
 70
     0
102
RTVSPropertyOp4
 70
     0
102
RTVSPropertyOp5
 70
     0
102
RTVSPropertyOp6
 70
     0
102
RTVSPropertyOp7
 70
     0
102
RTVSPropertyOp8
 70
     0
102
RTVSPropertyOp9
 70
     0
102
RTVSPropertyOp10
 70
     0
102
RTVSPropertyOp11
 70
     0
102
RTVSPropertyOp12
 70
     0
102
RTVSPropertyOp13
 70
     0
102
RTVSPropertyOp14
 70
     2
102
RTVSPropertyOp15
 70
     0
102
RTVSPropertyOp16
 70
     0
102
RTVSPropertyOp17
 70
     0
102
RTVSPropertyOp18
 70
     0
102
RTVSPropertyOp19
 70
     0
102
RTVSPropertyOp20
 70
     0
102
RTVSPropertyOp21
 70
     0
102
RTVSPropertyOp22
 70
     0
102
RTVSPropertyOp23
 70
     0
102
RTVSPropertyOp24
 70
     0
102
RTVSPropertyOp25
 70
     0
102
RTVSPropertyOp26
 70
     0
102
RTVSPropertyOp27
 70
     0
102
RTVSPropertyOp28
 70
     1
102
RTVSPropertyOp29
 70
     1
102
RTVSPropertyOp30
 70
     1
102
RTVSPropertyOp31
 70
     1
102
RTVSPropertyOp32
 70
     1
102
RTVSPropertyOp33
 70
     1
102
RTVSPropertyOp34
 70
     1
102
RTVSPropertyOp35
 70
     1
102
RTVSPropertyOp36
 70
     1
102
RTVSPropertyOp37
 70
     0
102
RTVSPropertyOp38
 70
     0
102
RTVSPropertyOp39
 70
     0
102
RTVSPropertyOp40
 70
     0
102
RTVSPropertyOp41
 70
     0
102
RTVSPropertyOp42
 70
     0
102
RTVSPropertyOp43
 70
     0
102
RTVSPropertyOp44
 70
     0
102
RTVSPropertyOp45
 70
     1
102
RTVSPropertyOp46
 70
     0
102
RTVSPropertyOp47
 70
     0
102
RTVSPropertyOp48
 70
     0
102
RTVSPropertyOp49
 70
     1
102
RTVSPropertyOp50
 70
     0
102
RTVSPropertyOp51
 70
     0
102
RTVSPropertyOp52
 70
     0
102
RTVSPropertyOp53
 70
     0
102
RTVSPropertyOp54
 70
     0
102
RTVSPropertyOp55
 70
     1
102
RTVSPropertyOp56
 70
     0
102
RTVSPropertyOp57
 70
     0
102
RTVSPropertyOp58
 70
     0
102
RTVSPropertyOp59
 70
     0
102
RTVSPropertyOp60
 70
     0
102
RTVSPropertyOp61
 70
     0
102
RTVSPropertyOp62
 70
     0
  0
XRECORD
  5
A354
102
{ACAD_REACTORS
330
A353
102
}
330
A353
100
AcDbXrecord
280
     1
102
RTVSPost2010Prop28
280
     0
102
RTVSPost2010PropOp28
 70
     1
102
RTVSPost2010Prop29
280
     1
102
RTVSPost2010PropOp29
 70
     1
102
RTVSPost2010Prop30
280
     1
102
RTVSPost2010PropOp30
 70
     1
102
RTVSPost2010Prop31
280
     0
102
RTVSPost2010PropOp31
 70
     1
102
RTVSPost2010Prop32
280
     0
102
RTVSPost2010PropOp32
 70
     1
102
RTVSPost2010Prop33
280
     0
102
RTVSPost2010PropOp33
 70
     1
102
RTVSPost2010Prop34
280
     0
102
RTVSPost2010PropOp34
 70
     1
102
RTVSPost2010Prop35
280
     0
102
RTVSPost2010PropOp35
 70
     1
102
RTVSPost2010Prop36
280
     0
102
RTVSPost2010PropOp36
 70
     1
102
RTVSPost2010Prop37
 90
       50
102
RTVSPost2010PropOp37
 70
     1
102
RTVSPost2010Prop38
140
0.0
102
RTVSPost2010PropOp38
 70
     1
102
RTVSPost2010Prop39
140
1.0
102
RTVSPost2010PropOp39
 70
     1
102
RTVSPost2010Prop40
 90
        0
102
RTVSPost2010PropOp40
 70
     1
102
RTVSPost2010Prop41ColorIndex
 90
       18
102
RTVSPost2010Prop41ColorRGB
 90
        0
102
RTVSPost2010PropOp41
 70
     1
102
RTVSPost2010Prop42
 90
       50
102
RTVSPost2010PropOp42
 70
     1
102
RTVSPost2010Prop43
 90
        3
102
RTVSPost2010PropOp43
 70
     1
102
RTVSPost2010Prop44ColorIndex
 90
        5
102
RTVSPost2010Prop44ColorRGB
 90
      255
102
RTVSPost2010PropOp44
 70
     1
102
RTVSPost2010Prop45
280
     0
102
RTVSPost2010PropOp45
 70
     1
102
RTVSPost2010Prop46
 90
       50
102
RTVSPost2010PropOp46
 70
     1
102
RTVSPost2010Prop47
 90
       50
102
RTVSPost2010PropOp47
 70
     1
102
RTVSPost2010Prop48
 90
       50
102
RTVSPost2010PropOp48
 70
     1
102
RTVSPost2010Prop49
280
     0
102
RTVSPost2010PropOp49
 70
     1
102
RTVSPost2010Prop50
 90
       50
102
RTVSPost2010PropOp50
 70
     1
102
RTVSPost2010Prop51ColorIndex
 90
      256
102
RTVSPost2010Prop51ColorRGB
 90
-16777216
102
RTVSPost2010PropOp51
 70
     0
102
RTVSPost2010Prop52
140
1.0
102
RTVSPost2010PropOp52
 70
     0
102
RTVSPost2010Prop53
 90
        2
102
RTVSPost2010PropOp53
 70
     1
102
RTVSPost2010Prop54
  1
strokes_ogs.tif
102
RTVSPost2010PropOp54
 70
     1
102
RTVSPost2010Prop55
280
     0
102
RTVSPost2010PropOp55
 70
     1
102
RTVSPost2010Prop56
140
1.0
102
RTVSPost2010PropOp56
 70
     1
102
RTVSPost2010Prop57
140
1.0
102
RTVSPost2010PropOp57
 70
     1
102
RTVSPropertyOp0
 70
     1
102
RTVSPropertyOp1
 70
     1
102
RTVSPropertyOp2
 70
     1
102
RTVSPropertyOp3
 70
     1
102
RTVSPropertyOp4
 70
     1
102
RTVSPropertyOp5
 70
     1
102
RTVSPropertyOp6
 70
     1
102
RTVSPropertyOp7
 70
     1
102
RTVSPropertyOp8
 70
     1
102
RTVSPropertyOp9
 70
     1
102
RTVSPropertyOp10
 70
     1
102
RTVSPropertyOp11
 70
     1
102
RTVSPropertyOp12
 70
     1
102
RTVSPropertyOp13
 70
     1
102
RTVSPropertyOp14
 70
     1
102
RTVSPropertyOp15
 70
     1
102
RTVSPropertyOp16
 70
     1
102
RTVSPropertyOp17
 70
     1
102
RTVSPropertyOp18
 70
     1
102
RTVSPropertyOp19
 70
     1
102
RTVSPropertyOp20
 70
     1
102
RTVSPropertyOp21
 70
     1
102
RTVSPropertyOp22
 70
     1
102
RTVSPropertyOp23
 70
     1
102
RTVSPropertyOp24
 70
     1
102
RTVSPropertyOp25
 70
     1
102
RTVSPropertyOp26
 70
     1
102
RTVSPropertyOp27
 70
     1
102
RTVSPropertyOp28
 70
     1
102
RTVSPropertyOp29
 70
     1
102
RTVSPropertyOp30
 70
     1
102
RTVSPropertyOp31
 70
     1
102
RTVSPropertyOp32
 70
     1
102
RTVSPropertyOp33
 70
     1
102
RTVSPropertyOp34
 70
     1
102
RTVSPropertyOp35
 70
     1
102
RTVSPropertyOp36
 70
     1
102
RTVSPropertyOp37
 70
     1
102
RTVSPropertyOp38
 70
     1
102
RTVSPropertyOp39
 70
     1
102
RTVSPropertyOp40
 70
     1
102
RTVSPropertyOp41
 70
     1
102
RTVSPropertyOp42
 70
     1
102
RTVSPropertyOp43
 70
     1
102
RTVSPropertyOp44
 70
     1
102
RTVSPropertyOp45
 70
     1
102
RTVSPropertyOp46
 70
     1
102
RTVSPropertyOp47
 70
     1
102
RTVSPropertyOp48
 70
     1
102
RTVSPropertyOp49
 70
     1
102
RTVSPropertyOp50
 70
     1
102
RTVSPropertyOp51
 70
     0
102
RTVSPropertyOp52
 70
     0
102
RTVSPropertyOp53
 70
     1
102
RTVSPropertyOp54
 70
     1
102
RTVSPropertyOp55
 70
     1
102
RTVSPropertyOp56
 70
     1
102
RTVSPropertyOp57
 70
     1
102
RTVSPropertyOp58
 70
     1
102
RTVSPropertyOp59
 70
     1
102
RTVSPropertyOp60
 70
     1
102
RTVSPropertyOp61
 70
     1
102
RTVSPropertyOp62
 70
     1
  0
XRECORD
  5
A366
102
{ACAD_REACTORS
330
A365
102
}
330
A365
100
AcDbXrecord
280
     1
102
RTVSPost2010Prop28
280
     0
102
RTVSPost2010PropOp28
 70
     1
102
RTVSPost2010Prop29
280
     1
102
RTVSPost2010PropOp29
 70
     1
102
RTVSPost2010Prop30
280
     1
102
RTVSPost2010PropOp30
 70
     1
102
RTVSPost2010Prop31
280
     0
102
RTVSPost2010PropOp31
 70
     1
102
RTVSPost2010Prop32
280
     0
102
RTVSPost2010PropOp32
 70
     1
102
RTVSPost2010Prop33
280
     0
102
RTVSPost2010PropOp33
 70
     1
102
RTVSPost2010Prop34
280
     0
102
RTVSPost2010PropOp34
 70
     1
102
RTVSPost2010Prop35
280
     0
102
RTVSPost2010PropOp35
 70
     1
102
RTVSPost2010Prop36
280
     0
102
RTVSPost2010PropOp36
 70
     1
102
RTVSPost2010Prop37
 90
       50
102
RTVSPost2010PropOp37
 70
     0
102
RTVSPost2010Prop38
140
0.0
102
RTVSPost2010PropOp38
 70
     0
102
RTVSPost2010Prop39
140
1.0
102
RTVSPost2010PropOp39
 70
     0
102
RTVSPost2010Prop40
 90
        0
102
RTVSPost2010PropOp40
 70
     0
102
RTVSPost2010Prop41ColorIndex
 90
       18
102
RTVSPost2010Prop41ColorRGB
 90
        0
102
RTVSPost2010PropOp41
 70
     0
102
RTVSPost2010Prop42
 90
       50
102
RTVSPost2010PropOp42
 70
     0
102
RTVSPost2010Prop43
 90
        3
102
RTVSPost2010PropOp43
 70
     0
102
RTVSPost2010Prop44ColorIndex
 90
        5
102
RTVSPost2010Prop44ColorRGB
 90
      255
102
RTVSPost2010PropOp44
 70
     0
102
RTVSPost2010Prop45
280
     0
102
RTVSPost2010PropOp45
 70
     1
102
RTVSPost2010Prop46
 90
       50
102
RTVSPost2010PropOp46
 70
     0
102
RTVSPost2010Prop47
 90
       50
102
RTVSPost2010PropOp47
 70
     0
102
RTVSPost2010Prop48
 90
       50
102
RTVSPost2010PropOp48
 70
     0
102
RTVSPost2010Prop49
280
     0
102
RTVSPost2010PropOp49
 70
     1
102
RTVSPost2010Prop50
 90
       50
102
RTVSPost2010PropOp50
 70
     0
102
RTVSPost2010Prop51ColorIndex
 90
      256
102
RTVSPost2010Prop51ColorRGB
 90
-16777216
102
RTVSPost2010PropOp51
 70
     0
102
RTVSPost2010Prop52
140
1.0
102
RTVSPost2010PropOp52
 70
     0
102
RTVSPost2010Prop53
 90
        2
102
RTVSPost2010PropOp53
 70
     0
102
RTVSPost2010Prop54
  1
strokes_ogs.tif
102
RTVSPost2010PropOp54
 70
     0
102
RTVSPost2010Prop55
280
     0
102
RTVSPost2010PropOp55
 70
     1
102
RTVSPost2010Prop56
140
1.0
102
RTVSPost2010PropOp56
 70
     0
102
RTVSPost2010Prop57
140
1.0
102
RTVSPost2010PropOp57
 70
     0
102
RTVSPropertyOp0
 70
     0
102
RTVSPropertyOp1
 70
     0
102
RTVSPropertyOp2
 70
     0
102
RTVSPropertyOp3
 70
     0
102
RTVSPropertyOp4
 70
     0
102
RTVSPropertyOp5
 70
     0
102
RTVSPropertyOp6
 70
     0
102
RTVSPropertyOp7
 70
     0
102
RTVSPropertyOp8
 70
     0
102
RTVSPropertyOp9
 70
     0
102
RTVSPropertyOp10
 70
     0
102
RTVSPropertyOp11
 70
     0
102
RTVSPropertyOp12
 70
     0
102
RTVSPropertyOp13
 70
     0
102
RTVSPropertyOp14
 70
     2
102
RTVSPropertyOp15
 70
     0
102
RTVSPropertyOp16
 70
     0
102
RTVSPropertyOp17
 70
     0
102
RTVSPropertyOp18
 70
     0
102
RTVSPropertyOp19
 70
     0
102
RTVSPropertyOp20
 70
     0
102
RTVSPropertyOp21
 70
     0
102
RTVSPropertyOp22
 70
     0
102
RTVSPropertyOp23
 70
     0
102
RTVSPropertyOp24
 70
     0
102
RTVSPropertyOp25
 70
     0
102
RTVSPropertyOp26
 70
     0
102
RTVSPropertyOp27
 70
     0
102
RTVSPropertyOp28
 70
     1
102
RTVSPropertyOp29
 70
     1
102
RTVSPropertyOp30
 70
     1
102
RTVSPropertyOp31
 70
     1
102
RTVSPropertyOp32
 70
     1
102
RTVSPropertyOp33
 70
     1
102
RTVSPropertyOp34
 70
     1
102
RTVSPropertyOp35
 70
     1
102
RTVSPropertyOp36
 70
     1
102
RTVSPropertyOp37
 70
     0
102
RTVSPropertyOp38
 70
     0
102
RTVSPropertyOp39
 70
     0
102
RTVSPropertyOp40
 70
     0
102
RTVSPropertyOp41
 70
     0
102
RTVSPropertyOp42
 70
     0
102
RTVSPropertyOp43
 70
     0
102
RTVSPropertyOp44
 70
     0
102
RTVSPropertyOp45
 70
     1
102
RTVSPropertyOp46
 70
     0
102
RTVSPropertyOp47
 70
     0
102
RTVSPropertyOp48
 70
     0
102
RTVSPropertyOp49
 70
     1
102
RTVSPropertyOp50
 70
     0
102
RTVSPropertyOp51
 70
     0
102
RTVSPropertyOp52
 70
     0
102
RTVSPropertyOp53
 70
     0
102
RTVSPropertyOp54
 70
     0
102
RTVSPropertyOp55
 70
     1
102
RTVSPropertyOp56
 70
     0
102
RTVSPropertyOp57
 70
     0
102
RTVSPropertyOp58
 70
     0
102
RTVSPropertyOp59
 70
     0
102
RTVSPropertyOp60
 70
     0
102
RTVSPropertyOp61
 70
     0
102
RTVSPropertyOp62
 70
     0
  0
XRECORD
  5
A34C
102
{ACAD_REACTORS
330
A34B
102
}
330
A34B
100
AcDbXrecord
280
     1
102
RTVSPost2010Prop28
280
     0
102
RTVSPost2010PropOp28
 70
     1
102
RTVSPost2010Prop29
280
     1
102
RTVSPost2010PropOp29
 70
     1
102
RTVSPost2010Prop30
280
     1
102
RTVSPost2010PropOp30
 70
     1
102
RTVSPost2010Prop31
280
     0
102
RTVSPost2010PropOp31
 70
     1
102
RTVSPost2010Prop32
280
     0
102
RTVSPost2010PropOp32
 70
     1
102
RTVSPost2010Prop33
280
     0
102
RTVSPost2010PropOp33
 70
     1
102
RTVSPost2010Prop34
280
     0
102
RTVSPost2010PropOp34
 70
     1
102
RTVSPost2010Prop35
280
     0
102
RTVSPost2010PropOp35
 70
     1
102
RTVSPost2010Prop36
280
     0
102
RTVSPost2010PropOp36
 70
     1
102
RTVSPost2010Prop37
 90
       50
102
RTVSPost2010PropOp37
 70
     1
102
RTVSPost2010Prop38
140
0.0
102
RTVSPost2010PropOp38
 70
     1
102
RTVSPost2010Prop39
140
1.0
102
RTVSPost2010PropOp39
 70
     1
102
RTVSPost2010Prop40
 90
        0
102
RTVSPost2010PropOp40
 70
     1
102
RTVSPost2010Prop41ColorIndex
 90
       18
102
RTVSPost2010Prop41ColorRGB
 90
        0
102
RTVSPost2010PropOp41
 70
     1
102
RTVSPost2010Prop42
 90
       50
102
RTVSPost2010PropOp42
 70
     1
102
RTVSPost2010Prop43
 90
        3
102
RTVSPost2010PropOp43
 70
     1
102
RTVSPost2010Prop44ColorIndex
 90
        5
102
RTVSPost2010Prop44ColorRGB
 90
      255
102
RTVSPost2010PropOp44
 70
     1
102
RTVSPost2010Prop45
280
     0
102
RTVSPost2010PropOp45
 70
     1
102
RTVSPost2010Prop46
 90
       50
102
RTVSPost2010PropOp46
 70
     1
102
RTVSPost2010Prop47
 90
       50
102
RTVSPost2010PropOp47
 70
     1
102
RTVSPost2010Prop48
 90
       50
102
RTVSPost2010PropOp48
 70
     1
102
RTVSPost2010Prop49
280
     0
102
RTVSPost2010PropOp49
 70
     1
102
RTVSPost2010Prop50
 90
       50
102
RTVSPost2010PropOp50
 70
     1
102
RTVSPost2010Prop51ColorIndex
 90
      256
102
RTVSPost2010Prop51ColorRGB
 90
-16777216
102
RTVSPost2010PropOp51
 70
     0
102
RTVSPost2010Prop52
140
1.0
102
RTVSPost2010PropOp52
 70
     0
102
RTVSPost2010Prop53
 90
        2
102
RTVSPost2010PropOp53
 70
     1
102
RTVSPost2010Prop54
  1
strokes_ogs.tif
102
RTVSPost2010PropOp54
 70
     1
102
RTVSPost2010Prop55
280
     0
102
RTVSPost2010PropOp55
 70
     1
102
RTVSPost2010Prop56
140
1.0
102
RTVSPost2010PropOp56
 70
     1
102
RTVSPost2010Prop57
140
1.0
102
RTVSPost2010PropOp57
 70
     1
102
RTVSPropertyOp0
 70
     1
102
RTVSPropertyOp1
 70
     1
102
RTVSPropertyOp2
 70
     1
102
RTVSPropertyOp3
 70
     1
102
RTVSPropertyOp4
 70
     1
102
RTVSPropertyOp5
 70
     1
102
RTVSPropertyOp6
 70
     1
102
RTVSPropertyOp7
 70
     1
102
RTVSPropertyOp8
 70
     1
102
RTVSPropertyOp9
 70
     1
102
RTVSPropertyOp10
 70
     1
102
RTVSPropertyOp11
 70
     1
102
RTVSPropertyOp12
 70
     1
102
RTVSPropertyOp13
 70
     1
102
RTVSPropertyOp14
 70
     1
102
RTVSPropertyOp15
 70
     1
102
RTVSPropertyOp16
 70
     1
102
RTVSPropertyOp17
 70
     1
102
RTVSPropertyOp18
 70
     1
102
RTVSPropertyOp19
 70
     1
102
RTVSPropertyOp20
 70
     1
102
RTVSPropertyOp21
 70
     1
102
RTVSPropertyOp22
 70
     1
102
RTVSPropertyOp23
 70
     1
102
RTVSPropertyOp24
 70
     1
102
RTVSPropertyOp25
 70
     1
102
RTVSPropertyOp26
 70
     1
102
RTVSPropertyOp27
 70
     1
102
RTVSPropertyOp28
 70
     1
102
RTVSPropertyOp29
 70
     1
102
RTVSPropertyOp30
 70
     1
102
RTVSPropertyOp31
 70
     1
102
RTVSPropertyOp32
 70
     1
102
RTVSPropertyOp33
 70
     1
102
RTVSPropertyOp34
 70
     1
102
RTVSPropertyOp35
 70
     1
102
RTVSPropertyOp36
 70
     1
102
RTVSPropertyOp37
 70
     1
102
RTVSPropertyOp38
 70
     1
102
RTVSPropertyOp39
 70
     1
102
RTVSPropertyOp40
 70
     1
102
RTVSPropertyOp41
 70
     1
102
RTVSPropertyOp42
 70
     1
102
RTVSPropertyOp43
 70
     1
102
RTVSPropertyOp44
 70
     1
102
RTVSPropertyOp45
 70
     1
102
RTVSPropertyOp46
 70
     1
102
RTVSPropertyOp47
 70
     1
102
RTVSPropertyOp48
 70
     1
102
RTVSPropertyOp49
 70
     1
102
RTVSPropertyOp50
 70
     1
102
RTVSPropertyOp51
 70
     0
102
RTVSPropertyOp52
 70
     0
102
RTVSPropertyOp53
 70
     1
102
RTVSPropertyOp54
 70
     1
102
RTVSPropertyOp55
 70
     1
102
RTVSPropertyOp56
 70
     1
102
RTVSPropertyOp57
 70
     1
102
RTVSPropertyOp58
 70
     1
102
RTVSPropertyOp59
 70
     1
102
RTVSPropertyOp60
 70
     1
102
RTVSPropertyOp61
 70
     1
102
RTVSPropertyOp62
 70
     1
  0
XRECORD
  5
A362
102
{ACAD_REACTORS
330
A361
102
}
330
A361
100
AcDbXrecord
280
     1
102
RTVSPost2010Prop28
280
     0
102
RTVSPost2010PropOp28
 70
     1
102
RTVSPost2010Prop29
280
     1
102
RTVSPost2010PropOp29
 70
     1
102
RTVSPost2010Prop30
280
     1
102
RTVSPost2010PropOp30
 70
     1
102
RTVSPost2010Prop31
280
     0
102
RTVSPost2010PropOp31
 70
     1
102
RTVSPost2010Prop32
280
     0
102
RTVSPost2010PropOp32
 70
     1
102
RTVSPost2010Prop33
280
     0
102
RTVSPost2010PropOp33
 70
     1
102
RTVSPost2010Prop34
280
     0
102
RTVSPost2010PropOp34
 70
     1
102
RTVSPost2010Prop35
280
     0
102
RTVSPost2010PropOp35
 70
     1
102
RTVSPost2010Prop36
280
     0
102
RTVSPost2010PropOp36
 70
     1
102
RTVSPost2010Prop37
 90
       50
102
RTVSPost2010PropOp37
 70
     1
102
RTVSPost2010Prop38
140
0.0
102
RTVSPost2010PropOp38
 70
     1
102
RTVSPost2010Prop39
140
1.0
102
RTVSPost2010PropOp39
 70
     1
102
RTVSPost2010Prop40
 90
        0
102
RTVSPost2010PropOp40
 70
     1
102
RTVSPost2010Prop41ColorIndex
 90
       18
102
RTVSPost2010Prop41ColorRGB
 90
        0
102
RTVSPost2010PropOp41
 70
     1
102
RTVSPost2010Prop42
 90
       50
102
RTVSPost2010PropOp42
 70
     1
102
RTVSPost2010Prop43
 90
        3
102
RTVSPost2010PropOp43
 70
     1
102
RTVSPost2010Prop44ColorIndex
 90
        5
102
RTVSPost2010Prop44ColorRGB
 90
      255
102
RTVSPost2010PropOp44
 70
     1
102
RTVSPost2010Prop45
280
     0
102
RTVSPost2010PropOp45
 70
     1
102
RTVSPost2010Prop46
 90
       50
102
RTVSPost2010PropOp46
 70
     1
102
RTVSPost2010Prop47
 90
       50
102
RTVSPost2010PropOp47
 70
     1
102
RTVSPost2010Prop48
 90
       50
102
RTVSPost2010PropOp48
 70
     1
102
RTVSPost2010Prop49
280
     0
102
RTVSPost2010PropOp49
 70
     1
102
RTVSPost2010Prop50
 90
       50
102
RTVSPost2010PropOp50
 70
     1
102
RTVSPost2010Prop51ColorIndex
 90
      256
102
RTVSPost2010Prop51ColorRGB
 90
-16777216
102
RTVSPost2010PropOp51
 70
     0
102
RTVSPost2010Prop52
140
1.0
102
RTVSPost2010PropOp52
 70
     0
102
RTVSPost2010Prop53
 90
        2
102
RTVSPost2010PropOp53
 70
     1
102
RTVSPost2010Prop54
  1
strokes_ogs.tif
102
RTVSPost2010PropOp54
 70
     1
102
RTVSPost2010Prop55
280
     0
102
RTVSPost2010PropOp55
 70
     1
102
RTVSPost2010Prop56
140
1.0
102
RTVSPost2010PropOp56
 70
     1
102
RTVSPost2010Prop57
140
1.0
102
RTVSPost2010PropOp57
 70
     1
102
RTVSPropertyOp0
 70
     1
102
RTVSPropertyOp1
 70
     1
102
RTVSPropertyOp2
 70
     1
102
RTVSPropertyOp3
 70
     1
102
RTVSPropertyOp4
 70
     1
102
RTVSPropertyOp5
 70
     1
102
RTVSPropertyOp6
 70
     1
102
RTVSPropertyOp7
 70
     1
102
RTVSPropertyOp8
 70
     1
102
RTVSPropertyOp9
 70
     1
102
RTVSPropertyOp10
 70
     1
102
RTVSPropertyOp11
 70
     1
102
RTVSPropertyOp12
 70
     1
102
RTVSPropertyOp13
 70
     1
102
RTVSPropertyOp14
 70
     1
102
RTVSPropertyOp15
 70
     1
102
RTVSPropertyOp16
 70
     1
102
RTVSPropertyOp17
 70
     1
102
RTVSPropertyOp18
 70
     1
102
RTVSPropertyOp19
 70
     1
102
RTVSPropertyOp20
 70
     1
102
RTVSPropertyOp21
 70
     1
102
RTVSPropertyOp22
 70
     1
102
RTVSPropertyOp23
 70
     1
102
RTVSPropertyOp24
 70
     1
102
RTVSPropertyOp25
 70
     1
102
RTVSPropertyOp26
 70
     1
102
RTVSPropertyOp27
 70
     1
102
RTVSPropertyOp28
 70
     1
102
RTVSPropertyOp29
 70
     1
102
RTVSPropertyOp30
 70
     1
102
RTVSPropertyOp31
 70
     1
102
RTVSPropertyOp32
 70
     1
102
RTVSPropertyOp33
 70
     1
102
RTVSPropertyOp34
 70
     1
102
RTVSPropertyOp35
 70
     1
102
RTVSPropertyOp36
 70
     1
102
RTVSPropertyOp37
 70
     1
102
RTVSPropertyOp38
 70
     1
102
RTVSPropertyOp39
 70
     1
102
RTVSPropertyOp40
 70
     1
102
RTVSPropertyOp41
 70
     1
102
RTVSPropertyOp42
 70
     1
102
RTVSPropertyOp43
 70
     1
102
RTVSPropertyOp44
 70
     1
102
RTVSPropertyOp45
 70
     1
102
RTVSPropertyOp46
 70
     1
102
RTVSPropertyOp47
 70
     1
102
RTVSPropertyOp48
 70
     1
102
RTVSPropertyOp49
 70
     1
102
RTVSPropertyOp50
 70
     1
102
RTVSPropertyOp51
 70
     0
102
RTVSPropertyOp52
 70
     0
102
RTVSPropertyOp53
 70
     1
102
RTVSPropertyOp54
 70
     1
102
RTVSPropertyOp55
 70
     1
102
RTVSPropertyOp56
 70
     1
102
RTVSPropertyOp57
 70
     1
102
RTVSPropertyOp58
 70
     1
102
RTVSPropertyOp59
 70
     1
102
RTVSPropertyOp60
 70
     1
102
RTVSPropertyOp61
 70
     1
102
RTVSPropertyOp62
 70
     1
  0
XRECORD
  5
A360
102
{ACAD_REACTORS
330
A35F
102
}
330
A35F
100
AcDbXrecord
280
     1
102
RTVSPost2010Prop28
280
     0
102
RTVSPost2010PropOp28
 70
     1
102
RTVSPost2010Prop29
280
     1
102
RTVSPost2010PropOp29
 70
     1
102
RTVSPost2010Prop30
280
     1
102
RTVSPost2010PropOp30
 70
     1
102
RTVSPost2010Prop31
280
     0
102
RTVSPost2010PropOp31
 70
     1
102
RTVSPost2010Prop32
280
     0
102
RTVSPost2010PropOp32
 70
     1
102
RTVSPost2010Prop33
280
     0
102
RTVSPost2010PropOp33
 70
     1
102
RTVSPost2010Prop34
280
     0
102
RTVSPost2010PropOp34
 70
     1
102
RTVSPost2010Prop35
280
     0
102
RTVSPost2010PropOp35
 70
     1
102
RTVSPost2010Prop36
280
     0
102
RTVSPost2010PropOp36
 70
     1
102
RTVSPost2010Prop37
 90
       50
102
RTVSPost2010PropOp37
 70
     1
102
RTVSPost2010Prop38
140
0.0
102
RTVSPost2010PropOp38
 70
     1
102
RTVSPost2010Prop39
140
1.0
102
RTVSPost2010PropOp39
 70
     1
102
RTVSPost2010Prop40
 90
        0
102
RTVSPost2010PropOp40
 70
     1
102
RTVSPost2010Prop41ColorIndex
 90
       18
102
RTVSPost2010Prop41ColorRGB
 90
        0
102
RTVSPost2010PropOp41
 70
     1
102
RTVSPost2010Prop42
 90
       50
102
RTVSPost2010PropOp42
 70
     1
102
RTVSPost2010Prop43
 90
        3
102
RTVSPost2010PropOp43
 70
     1
102
RTVSPost2010Prop44ColorIndex
 90
        5
102
RTVSPost2010Prop44ColorRGB
 90
      255
102
RTVSPost2010PropOp44
 70
     1
102
RTVSPost2010Prop45
280
     0
102
RTVSPost2010PropOp45
 70
     1
102
RTVSPost2010Prop46
 90
       50
102
RTVSPost2010PropOp46
 70
     1
102
RTVSPost2010Prop47
 90
       50
102
RTVSPost2010PropOp47
 70
     1
102
RTVSPost2010Prop48
 90
       50
102
RTVSPost2010PropOp48
 70
     1
102
RTVSPost2010Prop49
280
     0
102
RTVSPost2010PropOp49
 70
     1
102
RTVSPost2010Prop50
 90
       50
102
RTVSPost2010PropOp50
 70
     1
102
RTVSPost2010Prop51ColorIndex
 90
      256
102
RTVSPost2010Prop51ColorRGB
 90
-16777216
102
RTVSPost2010PropOp51
 70
     0
102
RTVSPost2010Prop52
140
1.0
102
RTVSPost2010PropOp52
 70
     0
102
RTVSPost2010Prop53
 90
        2
102
RTVSPost2010PropOp53
 70
     1
102
RTVSPost2010Prop54
  1
strokes_ogs.tif
102
RTVSPost2010PropOp54
 70
     1
102
RTVSPost2010Prop55
280
     0
102
RTVSPost2010PropOp55
 70
     1
102
RTVSPost2010Prop56
140
1.0
102
RTVSPost2010PropOp56
 70
     1
102
RTVSPost2010Prop57
140
1.0
102
RTVSPost2010PropOp57
 70
     1
102
RTVSPropertyOp0
 70
     1
102
RTVSPropertyOp1
 70
     1
102
RTVSPropertyOp2
 70
     1
102
RTVSPropertyOp3
 70
     1
102
RTVSPropertyOp4
 70
     1
102
RTVSPropertyOp5
 70
     1
102
RTVSPropertyOp6
 70
     1
102
RTVSPropertyOp7
 70
     1
102
RTVSPropertyOp8
 70
     1
102
RTVSPropertyOp9
 70
     1
102
RTVSPropertyOp10
 70
     1
102
RTVSPropertyOp11
 70
     1
102
RTVSPropertyOp12
 70
     1
102
RTVSPropertyOp13
 70
     1
102
RTVSPropertyOp14
 70
     1
102
RTVSPropertyOp15
 70
     1
102
RTVSPropertyOp16
 70
     1
102
RTVSPropertyOp17
 70
     1
102
RTVSPropertyOp18
 70
     1
102
RTVSPropertyOp19
 70
     1
102
RTVSPropertyOp20
 70
     1
102
RTVSPropertyOp21
 70
     1
102
RTVSPropertyOp22
 70
     1
102
RTVSPropertyOp23
 70
     1
102
RTVSPropertyOp24
 70
     1
102
RTVSPropertyOp25
 70
     1
102
RTVSPropertyOp26
 70
     1
102
RTVSPropertyOp27
 70
     1
102
RTVSPropertyOp28
 70
     1
102
RTVSPropertyOp29
 70
     1
102
RTVSPropertyOp30
 70
     1
102
RTVSPropertyOp31
 70
     1
102
RTVSPropertyOp32
 70
     1
102
RTVSPropertyOp33
 70
     1
102
RTVSPropertyOp34
 70
     1
102
RTVSPropertyOp35
 70
     1
102
RTVSPropertyOp36
 70
     1
102
RTVSPropertyOp37
 70
     1
102
RTVSPropertyOp38
 70
     1
102
RTVSPropertyOp39
 70
     1
102
RTVSPropertyOp40
 70
     1
102
RTVSPropertyOp41
 70
     1
102
RTVSPropertyOp42
 70
     1
102
RTVSPropertyOp43
 70
     1
102
RTVSPropertyOp44
 70
     1
102
RTVSPropertyOp45
 70
     1
102
RTVSPropertyOp46
 70
     1
102
RTVSPropertyOp47
 70
     1
102
RTVSPropertyOp48
 70
     1
102
RTVSPropertyOp49
 70
     1
102
RTVSPropertyOp50
 70
     1
102
RTVSPropertyOp51
 70
     0
102
RTVSPropertyOp52
 70
     0
102
RTVSPropertyOp53
 70
     1
102
RTVSPropertyOp54
 70
     1
102
RTVSPropertyOp55
 70
     1
102
RTVSPropertyOp56
 70
     1
102
RTVSPropertyOp57
 70
     1
102
RTVSPropertyOp58
 70
     1
102
RTVSPropertyOp59
 70
     1
102
RTVSPropertyOp60
 70
     1
102
RTVSPropertyOp61
 70
     1
102
RTVSPropertyOp62
 70
     1
  0
XRECORD
  5
A35A
102
{ACAD_REACTORS
330
A359
102
}
330
A359
100
AcDbXrecord
280
     1
102
RTVSPost2010Prop28
280
     0
102
RTVSPost2010PropOp28
 70
     1
102
RTVSPost2010Prop29
280
     1
102
RTVSPost2010PropOp29
 70
     1
102
RTVSPost2010Prop30
280
     1
102
RTVSPost2010PropOp30
 70
     1
102
RTVSPost2010Prop31
280
     0
102
RTVSPost2010PropOp31
 70
     1
102
RTVSPost2010Prop32
280
     0
102
RTVSPost2010PropOp32
 70
     1
102
RTVSPost2010Prop33
280
     0
102
RTVSPost2010PropOp33
 70
     1
102
RTVSPost2010Prop34
280
     0
102
RTVSPost2010PropOp34
 70
     1
102
RTVSPost2010Prop35
280
     0
102
RTVSPost2010PropOp35
 70
     1
102
RTVSPost2010Prop36
280
     0
102
RTVSPost2010PropOp36
 70
     1
102
RTVSPost2010Prop37
 90
       50
102
RTVSPost2010PropOp37
 70
     1
102
RTVSPost2010Prop38
140
0.0
102
RTVSPost2010PropOp38
 70
     1
102
RTVSPost2010Prop39
140
1.0
102
RTVSPost2010PropOp39
 70
     1
102
RTVSPost2010Prop40
 90
        0
102
RTVSPost2010PropOp40
 70
     1
102
RTVSPost2010Prop41ColorIndex
 90
       18
102
RTVSPost2010Prop41ColorRGB
 90
        0
102
RTVSPost2010PropOp41
 70
     1
102
RTVSPost2010Prop42
 90
       50
102
RTVSPost2010PropOp42
 70
     1
102
RTVSPost2010Prop43
 90
        3
102
RTVSPost2010PropOp43
 70
     1
102
RTVSPost2010Prop44ColorIndex
 90
        5
102
RTVSPost2010Prop44ColorRGB
 90
      255
102
RTVSPost2010PropOp44
 70
     1
102
RTVSPost2010Prop45
280
     0
102
RTVSPost2010PropOp45
 70
     1
102
RTVSPost2010Prop46
 90
       50
102
RTVSPost2010PropOp46
 70
     1
102
RTVSPost2010Prop47
 90
       50
102
RTVSPost2010PropOp47
 70
     1
102
RTVSPost2010Prop48
 90
       50
102
RTVSPost2010PropOp48
 70
     1
102
RTVSPost2010Prop49
280
     0
102
RTVSPost2010PropOp49
 70
     1
102
RTVSPost2010Prop50
 90
       50
102
RTVSPost2010PropOp50
 70
     1
102
RTVSPost2010Prop51ColorIndex
 90
      256
102
RTVSPost2010Prop51ColorRGB
 90
-16777216
102
RTVSPost2010PropOp51
 70
     0
102
RTVSPost2010Prop52
140
1.0
102
RTVSPost2010PropOp52
 70
     0
102
RTVSPost2010Prop53
 90
        2
102
RTVSPost2010PropOp53
 70
     1
102
RTVSPost2010Prop54
  1
strokes_ogs.tif
102
RTVSPost2010PropOp54
 70
     1
102
RTVSPost2010Prop55
280
     0
102
RTVSPost2010PropOp55
 70
     1
102
RTVSPost2010Prop56
140
1.0
102
RTVSPost2010PropOp56
 70
     1
102
RTVSPost2010Prop57
140
1.0
102
RTVSPost2010PropOp57
 70
     1
102
RTVSPropertyOp0
 70
     1
102
RTVSPropertyOp1
 70
     1
102
RTVSPropertyOp2
 70
     1
102
RTVSPropertyOp3
 70
     1
102
RTVSPropertyOp4
 70
     1
102
RTVSPropertyOp5
 70
     1
102
RTVSPropertyOp6
 70
     1
102
RTVSPropertyOp7
 70
     1
102
RTVSPropertyOp8
 70
     1
102
RTVSPropertyOp9
 70
     1
102
RTVSPropertyOp10
 70
     1
102
RTVSPropertyOp11
 70
     1
102
RTVSPropertyOp12
 70
     1
102
RTVSPropertyOp13
 70
     1
102
RTVSPropertyOp14
 70
     1
102
RTVSPropertyOp15
 70
     1
102
RTVSPropertyOp16
 70
     1
102
RTVSPropertyOp17
 70
     1
102
RTVSPropertyOp18
 70
     1
102
RTVSPropertyOp19
 70
     1
102
RTVSPropertyOp20
 70
     1
102
RTVSPropertyOp21
 70
     1
102
RTVSPropertyOp22
 70
     1
102
RTVSPropertyOp23
 70
     1
102
RTVSPropertyOp24
 70
     1
102
RTVSPropertyOp25
 70
     1
102
RTVSPropertyOp26
 70
     1
102
RTVSPropertyOp27
 70
     1
102
RTVSPropertyOp28
 70
     1
102
RTVSPropertyOp29
 70
     1
102
RTVSPropertyOp30
 70
     1
102
RTVSPropertyOp31
 70
     1
102
RTVSPropertyOp32
 70
     1
102
RTVSPropertyOp33
 70
     1
102
RTVSPropertyOp34
 70
     1
102
RTVSPropertyOp35
 70
     1
102
RTVSPropertyOp36
 70
     1
102
RTVSPropertyOp37
 70
     1
102
RTVSPropertyOp38
 70
     1
102
RTVSPropertyOp39
 70
     1
102
RTVSPropertyOp40
 70
     1
102
RTVSPropertyOp41
 70
     1
102
RTVSPropertyOp42
 70
     1
102
RTVSPropertyOp43
 70
     1
102
RTVSPropertyOp44
 70
     1
102
RTVSPropertyOp45
 70
     1
102
RTVSPropertyOp46
 70
     1
102
RTVSPropertyOp47
 70
     1
102
RTVSPropertyOp48
 70
     1
102
RTVSPropertyOp49
 70
     1
102
RTVSPropertyOp50
 70
     1
102
RTVSPropertyOp51
 70
     0
102
RTVSPropertyOp52
 70
     0
102
RTVSPropertyOp53
 70
     1
102
RTVSPropertyOp54
 70
     1
102
RTVSPropertyOp55
 70
     1
102
RTVSPropertyOp56
 70
     1
102
RTVSPropertyOp57
 70
     1
102
RTVSPropertyOp58
 70
     1
102
RTVSPropertyOp59
 70
     1
102
RTVSPropertyOp60
 70
     1
102
RTVSPropertyOp61
 70
     1
102
RTVSPropertyOp62
 70
     1
  0
XRECORD
  5
A35C
102
{ACAD_REACTORS
330
A35B
102
}
330
A35B
100
AcDbXrecord
280
     1
102
RTVSPost2010Prop28
280
     0
102
RTVSPost2010PropOp28
 70
     1
102
RTVSPost2010Prop29
280
     1
102
RTVSPost2010PropOp29
 70
     1
102
RTVSPost2010Prop30
280
     1
102
RTVSPost2010PropOp30
 70
     1
102
RTVSPost2010Prop31
280
     0
102
RTVSPost2010PropOp31
 70
     1
102
RTVSPost2010Prop32
280
     0
102
RTVSPost2010PropOp32
 70
     1
102
RTVSPost2010Prop33
280
     0
102
RTVSPost2010PropOp33
 70
     1
102
RTVSPost2010Prop34
280
     0
102
RTVSPost2010PropOp34
 70
     1
102
RTVSPost2010Prop35
280
     0
102
RTVSPost2010PropOp35
 70
     1
102
RTVSPost2010Prop36
280
     0
102
RTVSPost2010PropOp36
 70
     1
102
RTVSPost2010Prop37
 90
       50
102
RTVSPost2010PropOp37
 70
     1
102
RTVSPost2010Prop38
140
0.0
102
RTVSPost2010PropOp38
 70
     1
102
RTVSPost2010Prop39
140
1.0
102
RTVSPost2010PropOp39
 70
     1
102
RTVSPost2010Prop40
 90
        0
102
RTVSPost2010PropOp40
 70
     1
102
RTVSPost2010Prop41ColorIndex
 90
       18
102
RTVSPost2010Prop41ColorRGB
 90
        0
102
RTVSPost2010PropOp41
 70
     1
102
RTVSPost2010Prop42
 90
       50
102
RTVSPost2010PropOp42
 70
     1
102
RTVSPost2010Prop43
 90
        3
102
RTVSPost2010PropOp43
 70
     1
102
RTVSPost2010Prop44ColorIndex
 90
        5
102
RTVSPost2010Prop44ColorRGB
 90
      255
102
RTVSPost2010PropOp44
 70
     1
102
RTVSPost2010Prop45
280
     0
102
RTVSPost2010PropOp45
 70
     1
102
RTVSPost2010Prop46
 90
       50
102
RTVSPost2010PropOp46
 70
     1
102
RTVSPost2010Prop47
 90
       50
102
RTVSPost2010PropOp47
 70
     1
102
RTVSPost2010Prop48
 90
       50
102
RTVSPost2010PropOp48
 70
     1
102
RTVSPost2010Prop49
280
     0
102
RTVSPost2010PropOp49
 70
     1
102
RTVSPost2010Prop50
 90
       50
102
RTVSPost2010PropOp50
 70
     1
102
RTVSPost2010Prop51ColorIndex
 90
      256
102
RTVSPost2010Prop51ColorRGB
 90
-16777216
102
RTVSPost2010PropOp51
 70
     0
102
RTVSPost2010Prop52
140
1.0
102
RTVSPost2010PropOp52
 70
     0
102
RTVSPost2010Prop53
 90
        2
102
RTVSPost2010PropOp53
 70
     1
102
RTVSPost2010Prop54
  1
strokes_ogs.tif
102
RTVSPost2010PropOp54
 70
     1
102
RTVSPost2010Prop55
280
     0
102
RTVSPost2010PropOp55
 70
     1
102
RTVSPost2010Prop56
140
1.0
102
RTVSPost2010PropOp56
 70
     1
102
RTVSPost2010Prop57
140
1.0
102
RTVSPost2010PropOp57
 70
     1
102
RTVSPropertyOp0
 70
     1
102
RTVSPropertyOp1
 70
     1
102
RTVSPropertyOp2
 70
     1
102
RTVSPropertyOp3
 70
     1
102
RTVSPropertyOp4
 70
     1
102
RTVSPropertyOp5
 70
     1
102
RTVSPropertyOp6
 70
     1
102
RTVSPropertyOp7
 70
     1
102
RTVSPropertyOp8
 70
     1
102
RTVSPropertyOp9
 70
     1
102
RTVSPropertyOp10
 70
     1
102
RTVSPropertyOp11
 70
     1
102
RTVSPropertyOp12
 70
     1
102
RTVSPropertyOp13
 70
     1
102
RTVSPropertyOp14
 70
     1
102
RTVSPropertyOp15
 70
     1
102
RTVSPropertyOp16
 70
     1
102
RTVSPropertyOp17
 70
     1
102
RTVSPropertyOp18
 70
     1
102
RTVSPropertyOp19
 70
     1
102
RTVSPropertyOp20
 70
     1
102
RTVSPropertyOp21
 70
     1
102
RTVSPropertyOp22
 70
     1
102
RTVSPropertyOp23
 70
     1
102
RTVSPropertyOp24
 70
     1
102
RTVSPropertyOp25
 70
     1
102
RTVSPropertyOp26
 70
     1
102
RTVSPropertyOp27
 70
     1
102
RTVSPropertyOp28
 70
     1
102
RTVSPropertyOp29
 70
     1
102
RTVSPropertyOp30
 70
     1
102
RTVSPropertyOp31
 70
     1
102
RTVSPropertyOp32
 70
     1
102
RTVSPropertyOp33
 70
     1
102
RTVSPropertyOp34
 70
     1
102
RTVSPropertyOp35
 70
     1
102
RTVSPropertyOp36
 70
     1
102
RTVSPropertyOp37
 70
     1
102
RTVSPropertyOp38
 70
     1
102
RTVSPropertyOp39
 70
     1
102
RTVSPropertyOp40
 70
     1
102
RTVSPropertyOp41
 70
     1
102
RTVSPropertyOp42
 70
     1
102
RTVSPropertyOp43
 70
     1
102
RTVSPropertyOp44
 70
     1
102
RTVSPropertyOp45
 70
     1
102
RTVSPropertyOp46
 70
     1
102
RTVSPropertyOp47
 70
     1
102
RTVSPropertyOp48
 70
     1
102
RTVSPropertyOp49
 70
     1
102
RTVSPropertyOp50
 70
     1
102
RTVSPropertyOp51
 70
     0
102
RTVSPropertyOp52
 70
     0
102
RTVSPropertyOp53
 70
     1
102
RTVSPropertyOp54
 70
     1
102
RTVSPropertyOp55
 70
     1
102
RTVSPropertyOp56
 70
     1
102
RTVSPropertyOp57
 70
     1
102
RTVSPropertyOp58
 70
     1
102
RTVSPropertyOp59
 70
     1
102
RTVSPropertyOp60
 70
     1
102
RTVSPropertyOp61
 70
     1
102
RTVSPropertyOp62
 70
     1
  0
XRECORD
  5
A352
102
{ACAD_REACTORS
330
A351
102
}
330
A351
100
AcDbXrecord
280
     1
102
RTVSPost2010Prop28
280
     0
102
RTVSPost2010PropOp28
 70
     1
102
RTVSPost2010Prop29
280
     1
102
RTVSPost2010PropOp29
 70
     1
102
RTVSPost2010Prop30
280
     1
102
RTVSPost2010PropOp30
 70
     1
102
RTVSPost2010Prop31
280
     0
102
RTVSPost2010PropOp31
 70
     1
102
RTVSPost2010Prop32
280
     0
102
RTVSPost2010PropOp32
 70
     1
102
RTVSPost2010Prop33
280
     0
102
RTVSPost2010PropOp33
 70
     1
102
RTVSPost2010Prop34
280
     0
102
RTVSPost2010PropOp34
 70
     1
102
RTVSPost2010Prop35
280
     0
102
RTVSPost2010PropOp35
 70
     1
102
RTVSPost2010Prop36
280
     0
102
RTVSPost2010PropOp36
 70
     1
102
RTVSPost2010Prop37
 90
       50
102
RTVSPost2010PropOp37
 70
     1
102
RTVSPost2010Prop38
140
0.0
102
RTVSPost2010PropOp38
 70
     1
102
RTVSPost2010Prop39
140
1.0
102
RTVSPost2010PropOp39
 70
     1
102
RTVSPost2010Prop40
 90
        0
102
RTVSPost2010PropOp40
 70
     1
102
RTVSPost2010Prop41ColorIndex
 90
       18
102
RTVSPost2010Prop41ColorRGB
 90
        0
102
RTVSPost2010PropOp41
 70
     1
102
RTVSPost2010Prop42
 90
       50
102
RTVSPost2010PropOp42
 70
     1
102
RTVSPost2010Prop43
 90
        3
102
RTVSPost2010PropOp43
 70
     1
102
RTVSPost2010Prop44ColorIndex
 90
        5
102
RTVSPost2010Prop44ColorRGB
 90
      255
102
RTVSPost2010PropOp44
 70
     1
102
RTVSPost2010Prop45
280
     0
102
RTVSPost2010PropOp45
 70
     1
102
RTVSPost2010Prop46
 90
       50
102
RTVSPost2010PropOp46
 70
     1
102
RTVSPost2010Prop47
 90
       50
102
RTVSPost2010PropOp47
 70
     1
102
RTVSPost2010Prop48
 90
       50
102
RTVSPost2010PropOp48
 70
     1
102
RTVSPost2010Prop49
280
     0
102
RTVSPost2010PropOp49
 70
     1
102
RTVSPost2010Prop50
 90
       50
102
RTVSPost2010PropOp50
 70
     1
102
RTVSPost2010Prop51ColorIndex
 90
      256
102
RTVSPost2010Prop51ColorRGB
 90
-16777216
102
RTVSPost2010PropOp51
 70
     0
102
RTVSPost2010Prop52
140
1.0
102
RTVSPost2010PropOp52
 70
     0
102
RTVSPost2010Prop53
 90
        2
102
RTVSPost2010PropOp53
 70
     1
102
RTVSPost2010Prop54
  1
strokes_ogs.tif
102
RTVSPost2010PropOp54
 70
     1
102
RTVSPost2010Prop55
280
     0
102
RTVSPost2010PropOp55
 70
     1
102
RTVSPost2010Prop56
140
1.0
102
RTVSPost2010PropOp56
 70
     1
102
RTVSPost2010Prop57
140
1.0
102
RTVSPost2010PropOp57
 70
     1
102
RTVSPropertyOp0
 70
     1
102
RTVSPropertyOp1
 70
     1
102
RTVSPropertyOp2
 70
     1
102
RTVSPropertyOp3
 70
     1
102
RTVSPropertyOp4
 70
     1
102
RTVSPropertyOp5
 70
     1
102
RTVSPropertyOp6
 70
     1
102
RTVSPropertyOp7
 70
     1
102
RTVSPropertyOp8
 70
     1
102
RTVSPropertyOp9
 70
     1
102
RTVSPropertyOp10
 70
     1
102
RTVSPropertyOp11
 70
     1
102
RTVSPropertyOp12
 70
     1
102
RTVSPropertyOp13
 70
     1
102
RTVSPropertyOp14
 70
     1
102
RTVSPropertyOp15
 70
     1
102
RTVSPropertyOp16
 70
     1
102
RTVSPropertyOp17
 70
     1
102
RTVSPropertyOp18
 70
     1
102
RTVSPropertyOp19
 70
     1
102
RTVSPropertyOp20
 70
     1
102
RTVSPropertyOp21
 70
     1
102
RTVSPropertyOp22
 70
     1
102
RTVSPropertyOp23
 70
     1
102
RTVSPropertyOp24
 70
     1
102
RTVSPropertyOp25
 70
     1
102
RTVSPropertyOp26
 70
     1
102
RTVSPropertyOp27
 70
     1
102
RTVSPropertyOp28
 70
     1
102
RTVSPropertyOp29
 70
     1
102
RTVSPropertyOp30
 70
     1
102
RTVSPropertyOp31
 70
     1
102
RTVSPropertyOp32
 70
     1
102
RTVSPropertyOp33
 70
     1
102
RTVSPropertyOp34
 70
     1
102
RTVSPropertyOp35
 70
     1
102
RTVSPropertyOp36
 70
     1
102
RTVSPropertyOp37
 70
     1
102
RTVSPropertyOp38
 70
     1
102
RTVSPropertyOp39
 70
     1
102
RTVSPropertyOp40
 70
     1
102
RTVSPropertyOp41
 70
     1
102
RTVSPropertyOp42
 70
     1
102
RTVSPropertyOp43
 70
     1
102
RTVSPropertyOp44
 70
     1
102
RTVSPropertyOp45
 70
     1
102
RTVSPropertyOp46
 70
     1
102
RTVSPropertyOp47
 70
     1
102
RTVSPropertyOp48
 70
     1
102
RTVSPropertyOp49
 70
     1
102
RTVSPropertyOp50
 70
     1
102
RTVSPropertyOp51
 70
     0
102
RTVSPropertyOp52
 70
     0
102
RTVSPropertyOp53
 70
     1
102
RTVSPropertyOp54
 70
     1
102
RTVSPropertyOp55
 70
     1
102
RTVSPropertyOp56
 70
     1
102
RTVSPropertyOp57
 70
     1
102
RTVSPropertyOp58
 70
     1
102
RTVSPropertyOp59
 70
     1
102
RTVSPropertyOp60
 70
     1
102
RTVSPropertyOp61
 70
     1
102
RTVSPropertyOp62
 70
     1
  0
XRECORD
  5
A346
102
{ACAD_REACTORS
330
A345
102
}
330
A345
100
AcDbXrecord
280
     1
102
RTVSPost2010Prop28
280
     0
102
RTVSPost2010PropOp28
 70
     1
102
RTVSPost2010Prop29
280
     1
102
RTVSPost2010PropOp29
 70
     1
102
RTVSPost2010Prop30
280
     1
102
RTVSPost2010PropOp30
 70
     1
102
RTVSPost2010Prop31
280
     0
102
RTVSPost2010PropOp31
 70
     1
102
RTVSPost2010Prop32
280
     0
102
RTVSPost2010PropOp32
 70
     1
102
RTVSPost2010Prop33
280
     0
102
RTVSPost2010PropOp33
 70
     1
102
RTVSPost2010Prop34
280
     0
102
RTVSPost2010PropOp34
 70
     1
102
RTVSPost2010Prop35
280
     0
102
RTVSPost2010PropOp35
 70
     1
102
RTVSPost2010Prop36
280
     0
102
RTVSPost2010PropOp36
 70
     1
102
RTVSPost2010Prop37
 90
       50
102
RTVSPost2010PropOp37
 70
     1
102
RTVSPost2010Prop38
140
0.0
102
RTVSPost2010PropOp38
 70
     1
102
RTVSPost2010Prop39
140
1.0
102
RTVSPost2010PropOp39
 70
     1
102
RTVSPost2010Prop40
 90
        0
102
RTVSPost2010PropOp40
 70
     1
102
RTVSPost2010Prop41ColorIndex
 90
       18
102
RTVSPost2010Prop41ColorRGB
 90
        0
102
RTVSPost2010PropOp41
 70
     1
102
RTVSPost2010Prop42
 90
       50
102
RTVSPost2010PropOp42
 70
     1
102
RTVSPost2010Prop43
 90
        3
102
RTVSPost2010PropOp43
 70
     1
102
RTVSPost2010Prop44ColorIndex
 90
        5
102
RTVSPost2010Prop44ColorRGB
 90
      255
102
RTVSPost2010PropOp44
 70
     1
102
RTVSPost2010Prop45
280
     0
102
RTVSPost2010PropOp45
 70
     1
102
RTVSPost2010Prop46
 90
       50
102
RTVSPost2010PropOp46
 70
     1
102
RTVSPost2010Prop47
 90
       50
102
RTVSPost2010PropOp47
 70
     1
102
RTVSPost2010Prop48
 90
       50
102
RTVSPost2010PropOp48
 70
     1
102
RTVSPost2010Prop49
280
     0
102
RTVSPost2010PropOp49
 70
     1
102
RTVSPost2010Prop50
 90
       50
102
RTVSPost2010PropOp50
 70
     1
102
RTVSPost2010Prop51ColorIndex
 90
      256
102
RTVSPost2010Prop51ColorRGB
 90
-16777216
102
RTVSPost2010PropOp51
 70
     0
102
RTVSPost2010Prop52
140
1.0
102
RTVSPost2010PropOp52
 70
     0
102
RTVSPost2010Prop53
 90
        2
102
RTVSPost2010PropOp53
 70
     1
102
RTVSPost2010Prop54
  1
strokes_ogs.tif
102
RTVSPost2010PropOp54
 70
     1
102
RTVSPost2010Prop55
280
     0
102
RTVSPost2010PropOp55
 70
     1
102
RTVSPost2010Prop56
140
1.0
102
RTVSPost2010PropOp56
 70
     1
102
RTVSPost2010Prop57
140
1.0
102
RTVSPost2010PropOp57
 70
     1
102
RTVSPropertyOp0
 70
     1
102
RTVSPropertyOp1
 70
     1
102
RTVSPropertyOp2
 70
     1
102
RTVSPropertyOp3
 70
     1
102
RTVSPropertyOp4
 70
     1
102
RTVSPropertyOp5
 70
     1
102
RTVSPropertyOp6
 70
     1
102
RTVSPropertyOp7
 70
     1
102
RTVSPropertyOp8
 70
     1
102
RTVSPropertyOp9
 70
     1
102
RTVSPropertyOp10
 70
     1
102
RTVSPropertyOp11
 70
     1
102
RTVSPropertyOp12
 70
     1
102
RTVSPropertyOp13
 70
     1
102
RTVSPropertyOp14
 70
     1
102
RTVSPropertyOp15
 70
     1
102
RTVSPropertyOp16
 70
     1
102
RTVSPropertyOp17
 70
     1
102
RTVSPropertyOp18
 70
     1
102
RTVSPropertyOp19
 70
     1
102
RTVSPropertyOp20
 70
     1
102
RTVSPropertyOp21
 70
     1
102
RTVSPropertyOp22
 70
     1
102
RTVSPropertyOp23
 70
     1
102
RTVSPropertyOp24
 70
     1
102
RTVSPropertyOp25
 70
     1
102
RTVSPropertyOp26
 70
     1
102
RTVSPropertyOp27
 70
     1
102
RTVSPropertyOp28
 70
     1
102
RTVSPropertyOp29
 70
     1
102
RTVSPropertyOp30
 70
     1
102
RTVSPropertyOp31
 70
     1
102
RTVSPropertyOp32
 70
     1
102
RTVSPropertyOp33
 70
     1
102
RTVSPropertyOp34
 70
     1
102
RTVSPropertyOp35
 70
     1
102
RTVSPropertyOp36
 70
     1
102
RTVSPropertyOp37
 70
     1
102
RTVSPropertyOp38
 70
     1
102
RTVSPropertyOp39
 70
     1
102
RTVSPropertyOp40
 70
     1
102
RTVSPropertyOp41
 70
     1
102
RTVSPropertyOp42
 70
     1
102
RTVSPropertyOp43
 70
     1
102
RTVSPropertyOp44
 70
     1
102
RTVSPropertyOp45
 70
     1
102
RTVSPropertyOp46
 70
     1
102
RTVSPropertyOp47
 70
     1
102
RTVSPropertyOp48
 70
     1
102
RTVSPropertyOp49
 70
     1
102
RTVSPropertyOp50
 70
     1
102
RTVSPropertyOp51
 70
     0
102
RTVSPropertyOp52
 70
     0
102
RTVSPropertyOp53
 70
     1
102
RTVSPropertyOp54
 70
     1
102
RTVSPropertyOp55
 70
     1
102
RTVSPropertyOp56
 70
     1
102
RTVSPropertyOp57
 70
     1
102
RTVSPropertyOp58
 70
     1
102
RTVSPropertyOp59
 70
     1
102
RTVSPropertyOp60
 70
     1
102
RTVSPropertyOp61
 70
     1
102
RTVSPropertyOp62
 70
     1
  0
XRECORD
  5
A35E
102
{ACAD_REACTORS
330
A35D
102
}
330
A35D
100
AcDbXrecord
280
     1
102
RTVSPost2010Prop28
280
     0
102
RTVSPost2010PropOp28
 70
     1
102
RTVSPost2010Prop29
280
     1
102
RTVSPost2010PropOp29
 70
     1
102
RTVSPost2010Prop30
280
     1
102
RTVSPost2010PropOp30
 70
     1
102
RTVSPost2010Prop31
280
     0
102
RTVSPost2010PropOp31
 70
     1
102
RTVSPost2010Prop32
280
     0
102
RTVSPost2010PropOp32
 70
     1
102
RTVSPost2010Prop33
280
     0
102
RTVSPost2010PropOp33
 70
     1
102
RTVSPost2010Prop34
280
     0
102
RTVSPost2010PropOp34
 70
     1
102
RTVSPost2010Prop35
280
     0
102
RTVSPost2010PropOp35
 70
     1
102
RTVSPost2010Prop36
280
     0
102
RTVSPost2010PropOp36
 70
     1
102
RTVSPost2010Prop37
 90
       50
102
RTVSPost2010PropOp37
 70
     1
102
RTVSPost2010Prop38
140
0.0
102
RTVSPost2010PropOp38
 70
     1
102
RTVSPost2010Prop39
140
1.0
102
RTVSPost2010PropOp39
 70
     1
102
RTVSPost2010Prop40
 90
        0
102
RTVSPost2010PropOp40
 70
     1
102
RTVSPost2010Prop41ColorIndex
 90
       18
102
RTVSPost2010Prop41ColorRGB
 90
        0
102
RTVSPost2010PropOp41
 70
     1
102
RTVSPost2010Prop42
 90
       50
102
RTVSPost2010PropOp42
 70
     1
102
RTVSPost2010Prop43
 90
        3
102
RTVSPost2010PropOp43
 70
     1
102
RTVSPost2010Prop44ColorIndex
 90
        5
102
RTVSPost2010Prop44ColorRGB
 90
      255
102
RTVSPost2010PropOp44
 70
     1
102
RTVSPost2010Prop45
280
     0
102
RTVSPost2010PropOp45
 70
     1
102
RTVSPost2010Prop46
 90
       50
102
RTVSPost2010PropOp46
 70
     1
102
RTVSPost2010Prop47
 90
       50
102
RTVSPost2010PropOp47
 70
     1
102
RTVSPost2010Prop48
 90
       50
102
RTVSPost2010PropOp48
 70
     1
102
RTVSPost2010Prop49
280
     0
102
RTVSPost2010PropOp49
 70
     1
102
RTVSPost2010Prop50
 90
       50
102
RTVSPost2010PropOp50
 70
     1
102
RTVSPost2010Prop51ColorIndex
 90
      256
102
RTVSPost2010Prop51ColorRGB
 90
-16777216
102
RTVSPost2010PropOp51
 70
     0
102
RTVSPost2010Prop52
140
1.0
102
RTVSPost2010PropOp52
 70
     0
102
RTVSPost2010Prop53
 90
        2
102
RTVSPost2010PropOp53
 70
     1
102
RTVSPost2010Prop54
  1
strokes_ogs.tif
102
RTVSPost2010PropOp54
 70
     1
102
RTVSPost2010Prop55
280
     0
102
RTVSPost2010PropOp55
 70
     1
102
RTVSPost2010Prop56
140
1.0
102
RTVSPost2010PropOp56
 70
     1
102
RTVSPost2010Prop57
140
1.0
102
RTVSPost2010PropOp57
 70
     1
102
RTVSPropertyOp0
 70
     1
102
RTVSPropertyOp1
 70
     1
102
RTVSPropertyOp2
 70
     1
102
RTVSPropertyOp3
 70
     1
102
RTVSPropertyOp4
 70
     1
102
RTVSPropertyOp5
 70
     1
102
RTVSPropertyOp6
 70
     1
102
RTVSPropertyOp7
 70
     1
102
RTVSPropertyOp8
 70
     1
102
RTVSPropertyOp9
 70
     1
102
RTVSPropertyOp10
 70
     1
102
RTVSPropertyOp11
 70
     1
102
RTVSPropertyOp12
 70
     1
102
RTVSPropertyOp13
 70
     1
102
RTVSPropertyOp14
 70
     1
102
RTVSPropertyOp15
 70
     1
102
RTVSPropertyOp16
 70
     1
102
RTVSPropertyOp17
 70
     1
102
RTVSPropertyOp18
 70
     1
102
RTVSPropertyOp19
 70
     1
102
RTVSPropertyOp20
 70
     1
102
RTVSPropertyOp21
 70
     1
102
RTVSPropertyOp22
 70
     1
102
RTVSPropertyOp23
 70
     1
102
RTVSPropertyOp24
 70
     1
102
RTVSPropertyOp25
 70
     1
102
RTVSPropertyOp26
 70
     1
102
RTVSPropertyOp27
 70
     1
102
RTVSPropertyOp28
 70
     1
102
RTVSPropertyOp29
 70
     1
102
RTVSPropertyOp30
 70
     1
102
RTVSPropertyOp31
 70
     1
102
RTVSPropertyOp32
 70
     1
102
RTVSPropertyOp33
 70
     1
102
RTVSPropertyOp34
 70
     1
102
RTVSPropertyOp35
 70
     1
102
RTVSPropertyOp36
 70
     1
102
RTVSPropertyOp37
 70
     1
102
RTVSPropertyOp38
 70
     1
102
RTVSPropertyOp39
 70
     1
102
RTVSPropertyOp40
 70
     1
102
RTVSPropertyOp41
 70
     1
102
RTVSPropertyOp42
 70
     1
102
RTVSPropertyOp43
 70
     1
102
RTVSPropertyOp44
 70
     1
102
RTVSPropertyOp45
 70
     1
102
RTVSPropertyOp46
 70
     1
102
RTVSPropertyOp47
 70
     1
102
RTVSPropertyOp48
 70
     1
102
RTVSPropertyOp49
 70
     1
102
RTVSPropertyOp50
 70
     1
102
RTVSPropertyOp51
 70
     0
102
RTVSPropertyOp52
 70
     0
102
RTVSPropertyOp53
 70
     1
102
RTVSPropertyOp54
 70
     1
102
RTVSPropertyOp55
 70
     1
102
RTVSPropertyOp56
 70
     1
102
RTVSPropertyOp57
 70
     1
102
RTVSPropertyOp58
 70
     1
102
RTVSPropertyOp59
 70
     1
102
RTVSPropertyOp60
 70
     1
102
RTVSPropertyOp61
 70
     1
102
RTVSPropertyOp62
 70
     1
  0
ENDSEC
  0
EOF
