  0
SECTION
  2
HEADER
  9
$ACADVER
  1
AC1015
  9
$ACADMAINTVER
 70
    20
  9
$DWGCODEPAGE
  3
ANSI_932
  9
$INSBASE
 10
0.0
 20
0.0
 30
0.0
  9
$EXTMIN
 10
10.0
 20
9.999999999999998
 30
0.0
  9
$EXTMAX
 10
627.220223
 20
505.3297524749825
 30
0.0
  9
$LIMMIN
 10
0.0
 20
0.0
  9
$LIMMAX
 10
792.0
 20
546.0
  9
$ORTHOMODE
 70
     1
  9
$REGENMODE
 70
     1
  9
$FILLMODE
 70
     1
  9
$QTEXTMODE
 70
     0
  9
$MIRRTEXT
 70
     1
  9
$LTSCALE
 40
20.0
  9
$ATTMODE
 70
     1
  9
$TEXTSIZE
 40
5.0
  9
$TRACEWID
 40
1.0
  9
$TEXTSTYLE
  7
STANDARD
  9
$CLAYER
  8
0
  9
$CELTYPE
  6
BYLAYER
  9
$CECOLOR
 62
   256
  9
$CELTSCALE
 40
1.0
  9
$DISPSILH
 70
     0
  9
$DIMSCALE
 40
1.0
  9
$DIMASZ
 40
2.5
  9
$DIMEXO
 40
1.0
  9
$DIMDLI
 40
10.0
  9
$DIMRND
 40
0.0
  9
$DIMDLE
 40
0.0
  9
$DIMEXE
 40
1.0
  9
$DIMTP
 40
0.0
  9
$DIMTM
 40
0.0
  9
$DIMTXT
 40
3.2
  9
$DIMCEN
 40
0.0
  9
$DIMTSZ
 40
0.0
  9
$DIMTOL
 70
     0
  9
$DIMLIM
 70
     0
  9
$DIMTIH
 70
     0
  9
$DIMTOH
 70
     0
  9
$DIMSE1
 70
     0
  9
$DIMSE2
 70
     0
  9
$DIMTAD
 70
     3
  9
$DIMZIN
 70
     8
  9
$DIMBLK
  1

  9
$DIMASO
 70
     1
  9
$DIMSHO
 70
     1
  9
$DIMPOST
  1

  9
$DIMAPOST
  1

  9
$DIMALT
 70
     0
  9
$DIMALTD
 70
     2
  9
$DIMALTF
 40
25.4
  9
$DIMLFAC
 40
1.0
  9
$DIMTOFL
 70
     1
  9
$DIMTVP
 40
0.0
  9
$DIMTIX
 70
     0
  9
$DIMSOXD
 70
     0
  9
$DIMSAH
 70
     1
  9
$DIMBLK1
  1

  9
$DIMBLK2
  1

  9
$DIMSTYLE
  2
STANDARD
  9
$DIMCLRD
 70
     0
  9
$DIMCLRE
 70
     0
  9
$DIMCLRT
 70
     0
  9
$DIMTFAC
 40
1.0
  9
$DIMGAP
 40
1.0
  9
$DIMJUST
 70
     0
  9
$DIMSD1
 70
     0
  9
$DIMSD2
 70
     0
  9
$DIMTOLJ
 70
     1
  9
$DIMTZIN
 70
     0
  9
$DIMALTZ
 70
     0
  9
$DIMALTTZ
 70
     0
  9
$DIMUPT
 70
     0
  9
$DIMDEC
 70
     4
  9
$DIMTDEC
 70
     4
  9
$DIMALTU
 70
     2
  9
$DIMALTTD
 70
     2
  9
$DIMTXSTY
  7
STANDARD
  9
$DIMAUNIT
 70
     0
  9
$DIMADEC
 70
     0
  9
$DIMALTRND
 40
0.0
  9
$DIMAZIN
 70
     0
  9
$DIMDSEP
 70
    46
  9
$DIMATFIT
 70
     3
  9
$DIMFRAC
 70
     0
  9
$DIMLDRBLK
  1

  9
$DIMLUNIT
 70
     2
  9
$DIMLWD
 70
    -2
  9
$DIMLWE
 70
    -2
  9
$DIMTMOVE
 70
     0
  9
$LUNITS
 70
     2
  9
$LUPREC
 70
     4
  9
$SKETCHINC
 40
1.0
  9
$FILLETRAD
 40
3.299999999999998
  9
$AUNITS
 70
     0
  9
$AUPREC
 70
     2
  9
$MENU
  1
.
  9
$ELEVATION
 40
0.0
  9
$PELEVATION
 40
0.0
  9
$THICKNESS
 40
0.0
  9
$LIMCHECK
 70
     0
  9
$CHAMFERA
 40
10.0
  9
$CHAMFERB
 40
10.0
  9
$CHAMFERC
 40
0.0
  9
$CHAMFERD
 40
0.0
  9
$SKPOLY
 70
     0
  9
$TDCREATE
 40
2451303.404406019
  9
$TDUCREATE
 40
2451303.029406019
  9
$TDUPDATE
 40
2457192.690119595
  9
$TDUUPDATE
 40
2457192.315119595
  9
$TDINDWG
 40
0.1411033449
  9
$TDUSRTIMER
 40
0.1411026620
  9
$USRTIMER
 70
     1
  9
$ANGBASE
 50
0.0
  9
$ANGDIR
 70
     0
  9
$PDMODE
 70
     0
  9
$PDSIZE
 40
0.0
  9
$PLINEWID
 40
0.0
  9
$SPLFRAME
 70
     0
  9
$SPLINETYPE
 70
     6
  9
$SPLINESEGS
 70
     8
  9
$HANDSEED
  5
AB40
  9
$SURFTAB1
 70
     6
  9
$SURFTAB2
 70
     6
  9
$SURFTYPE
 70
     6
  9
$SURFU
 70
     6
  9
$SURFV
 70
     6
  9
$UCSBASE
  2

  9
$UCSNAME
  2

  9
$UCSORG
 10
0.0
 20
0.0
 30
0.0
  9
$UCSXDIR
 10
1.0
 20
0.0
 30
0.0
  9
$UCSYDIR
 10
0.0
 20
1.0
 30
0.0
  9
$UCSORTHOREF
  2

  9
$UCSORTHOVIEW
 70
     0
  9
$UCSORGTOP
 10
0.0
 20
0.0
 30
0.0
  9
$UCSORGBOTTOM
 10
0.0
 20
0.0
 30
0.0
  9
$UCSORGLEFT
 10
0.0
 20
0.0
 30
0.0
  9
$UCSORGRIGHT
 10
0.0
 20
0.0
 30
0.0
  9
$UCSORGFRONT
 10
0.0
 20
0.0
 30
0.0
  9
$UCSORGBACK
 10
0.0
 20
0.0
 30
0.0
  9
$PUCSBASE
  2

  9
$PUCSNAME
  2

  9
$PUCSORG
 10
0.0
 20
0.0
 30
0.0
  9
$PUCSXDIR
 10
1.0
 20
0.0
 30
0.0
  9
$PUCSYDIR
 10
0.0
 20
1.0
 30
0.0
  9
$PUCSORTHOREF
  2

  9
$PUCSORTHOVIEW
 70
     0
  9
$PUCSORGTOP
 10
0.0
 20
0.0
 30
0.0
  9
$PUCSORGBOTTOM
 10
0.0
 20
0.0
 30
0.0
  9
$PUCSORGLEFT
 10
0.0
 20
0.0
 30
0.0
  9
$PUCSORGRIGHT
 10
0.0
 20
0.0
 30
0.0
  9
$PUCSORGFRONT
 10
0.0
 20
0.0
 30
0.0
  9
$PUCSORGBACK
 10
0.0
 20
0.0
 30
0.0
  9
$USERI1
 70
     0
  9
$USERI2
 70
     0
  9
$USERI3
 70
     0
  9
$USERI4
 70
     0
  9
$USERI5
 70
     0
  9
$USERR1
 40
0.0
  9
$USERR2
 40
0.0
  9
$USERR3
 40
0.0
  9
$USERR4
 40
0.0
  9
$USERR5
 40
0.0
  9
$WORLDVIEW
 70
     1
  9
$SHADEDGE
 70
     3
  9
$SHADEDIF
 70
    70
  9
$TILEMODE
 70
     1
  9
$MAXACTVP
 70
    16
  9
$PINSBASE
 10
0.0
 20
0.0
 30
0.0
  9
$PLIMCHECK
 70
     0
  9
$PEXTMIN
 10
1.000000000000000E+20
 20
1.000000000000000E+20
 30
1.000000000000000E+20
  9
$PEXTMAX
 10
-1.000000000000000E+20
 20
-1.000000000000000E+20
 30
-1.000000000000000E+20
  9
$PLIMMIN
 10
0.0
 20
0.0
  9
$PLIMMAX
 10
420.0
 20
297.0
  9
$UNITMODE
 70
     0
  9
$VISRETAIN
 70
     0
  9
$PLINEGEN
 70
     0
  9
$PSLTSCALE
 70
     0
  9
$TREEDEPTH
 70
  3020
  9
$CMLSTYLE
  2
STANDARD
  9
$CMLJUST
 70
     0
  9
$CMLSCALE
 40
1.0
  9
$PROXYGRAPHICS
 70
     1
  9
$MEASUREMENT
 70
     0
  9
$CELWEIGHT
370
    -1
  9
$ENDCAPS
280
     0
  9
$JOINSTYLE
280
     0
  9
$LWDISPLAY
290
     0
  9
$INSUNITS
 70
     0
  9
$HYPERLINKBASE
  1

  9
$STYLESHEET
  1

  9
$XEDIT
290
     1
  9
$CEPSNTYPE
380
     0
  9
$PSTYLEMODE
290
     1
  9
$FINGERPRINTGUID
  2
{D377E965-276F-4CBE-A3B0-9191FA0DA1EF}
  9
$VERSIONGUID
  2
{D427207E-0CAD-4FD7-8F51-0B711E7BECB2}
  9
$EXTNAMES
290
     1
  9
$PSVPSCALE
 40
0.0
  9
$OLESTARTUP
290
     0
  0
ENDSEC
  0
SECTION
  2
CLASSES
  0
CLASS
  1
ACDBDICTIONARYWDFLT
  2
AcDbDictionaryWithDefault
  3
ObjectDBX Classes
 90
        0
280
     0
281
     0
  0
CLASS
  1
ACDBPLACEHOLDER
  2
AcDbPlaceHolder
  3
ObjectDBX Classes
 90
        0
280
     0
281
     0
  0
CLASS
  1
LAYOUT
  2
AcDbLayout
  3
ObjectDBX Classes
 90
        0
280
     0
281
     0
  0
CLASS
  1
DICTIONARYVAR
  2
AcDbDictionaryVar
  3
ObjectDBX Classes
 90
        0
280
     0
281
     0
  0
CLASS
  1
MATERIAL
  2
AcDbMaterial
  3
ObjectDBX Classes
 90
     1153
280
     0
281
     0
  0
CLASS
  1
VISUALSTYLE
  2
AcDbVisualStyle
  3
ObjectDBX Classes
 90
     4095
280
     0
281
     0
  0
CLASS
  1
TABLESTYLE
  2
AcDbTableStyle
  3
ObjectDBX Classes
 90
     4095
280
     0
281
     0
  0
CLASS
  1
SCALE
  2
AcDbScale
  3
ObjectDBX Classes
 90
     1153
280
     0
281
     0
  0
CLASS
  1
MLEADERSTYLE
  2
AcDbMLeaderStyle
  3
ACDB_MLEADERSTYLE_CLASS
 90
     4095
280
     0
281
     0
  0
CLASS
  1
ACDBSECTIONVIEWSTYLE
  2
AcDbSectionViewStyle
  3
ObjectDBX Classes
 90
     1025
280
     0
281
     0
  0
CLASS
  1
ACDBDETAILVIEWSTYLE
  2
AcDbDetailViewStyle
  3
ObjectDBX Classes
 90
     1025
280
     0
281
     0
  0
CLASS
  1
CELLSTYLEMAP
  2
AcDbCellStyleMap
  3
ObjectDBX Classes
 90
     1152
280
     0
281
     0
  0
ENDSEC
  0
SECTION
  2
TABLES
  0
TABLE
  2
VPORT
  5
A849
330
0
100
AcDbSymbolTable
 70
     1
  0
VPORT
  5
AA8B
330
A849
100
AcDbSymbolTableRecord
100
AcDbViewportTableRecord
  2
*ACTIVE
 70
     0
 10
0.0
 20
0.0
 11
1.0
 21
1.0
 12
509.2667293676847
 22
257.6704114096592
 13
0.0
 23
0.0
 14
10.0
 24
10.0
 15
10.0
 25
10.0
 16
0.0
 26
0.0
 36
1.0
 17
0.0
 27
0.0
 37
0.0
 40
499.2899153266032
 41
2.35006605019815
 42
50.0
 43
0.0
 44
0.0
 50
0.0
 51
0.0
 71
     0
 72
   100
 73
     1
 74
     0
 75
     0
 76
     0
 77
     0
 78
     0
281
     0
 65
     1
110
0.0
120
0.0
130
0.0
111
1.0
121
0.0
131
0.0
112
0.0
122
1.0
132
0.0
 79
     0
146
0.0
1001
ACAD_NAV_VCDISPLAY
1070
     3
  0
ENDTAB
  0
TABLE
  2
LTYPE
  5
A846
330
0
100
AcDbSymbolTable
 70
     4
  0
LTYPE
  5
A854
330
A846
100
AcDbSymbolTableRecord
100
AcDbLinetypeTableRecord
  2
BYBLOCK
 70
     0
  3

 72
    65
 73
     0
 40
0.0
  0
LTYPE
  5
A855
330
A846
100
AcDbSymbolTableRecord
100
AcDbLinetypeTableRecord
  2
BYLAYER
 70
     0
  3

 72
    65
 73
     0
 40
0.0
  0
LTYPE
  5
A856
330
A846
100
AcDbSymbolTableRecord
100
AcDbLinetypeTableRecord
  2
CONTINUOUS
 70
     0
  3
Solid line
 72
    65
 73
     0
 40
0.0
  0
LTYPE
  5
A864
330
A846
100
AcDbSymbolTableRecord
100
AcDbLinetypeTableRecord
  2
DASHED
 70
     0
  3
__ __ __ __ __ __ __ __ __ __ __ __ __ __ __ __
 72
    65
 73
     2
 40
0.75
 49
0.5
 74
     0
 49
-0.25
 74
     0
  0
LTYPE
  5
A865
330
A846
100
AcDbSymbolTableRecord
100
AcDbLinetypeTableRecord
  2
CENTER
 70
     0
  3
____ _ ____ _ ____ _ ____ _ ____ _ ____ _ ____ 
 72
    65
 73
     4
 40
2.0
 49
1.25
 74
     0
 49
-0.25
 74
     0
 49
0.25
 74
     0
 49
-0.25
 74
     0
  0
LTYPE
  5
A866
330
A846
100
AcDbSymbolTableRecord
100
AcDbLinetypeTableRecord
  2
PHANTOM
 70
     0
  3
______  __  __  ______  __  __  ______  __  __ 
 72
    65
 73
     6
 40
2.5
 49
1.25
 74
     0
 49
-0.25
 74
     0
 49
0.25
 74
     0
 49
-0.25
 74
     0
 49
0.25
 74
     0
 49
-0.25
 74
     0
  0
ENDTAB
  0
TABLE
  2
LAYER
  5
A843
330
0
100
AcDbSymbolTable
 70
     8
  0
LAYER
  5
A851
102
{ACAD_XDICTIONARY
360
AAE4
102
}
330
A843
100
AcDbSymbolTableRecord
100
AcDbLayerTableRecord
  2
0
 70
     0
 62
     7
  6
CONTINUOUS
370
    -3
390
AA92
  0
LAYER
  5
A867
102
{ACAD_XDICTIONARY
360
AAE6
102
}
330
A843
100
AcDbSymbolTableRecord
100
AcDbLayerTableRecord
  2
4
 70
     0
 62
     1
  6
CENTER
370
    -3
390
AA92
  0
LAYER
  5
A868
102
{ACAD_XDICTIONARY
360
AAE8
102
}
330
A843
100
AcDbSymbolTableRecord
100
AcDbLayerTableRecord
  2
5
 70
     0
 62
     6
  6
PHANTOM
370
    -3
390
AA92
  0
LAYER
  5
A869
102
{ACAD_XDICTIONARY
360
AAEA
102
}
330
A843
100
AcDbSymbolTableRecord
100
AcDbLayerTableRecord
  2
1
 70
     0
 62
     7
  6
CONTINUOUS
370
    -3
390
AA92
  0
LAYER
  5
A86A
102
{ACAD_XDICTIONARY
360
AAEC
102
}
330
A843
100
AcDbSymbolTableRecord
100
AcDbLayerTableRecord
  2
2
 70
     0
 62
     4
  6
CONTINUOUS
370
    -3
390
AA92
  0
LAYER
  5
A86B
102
{ACAD_XDICTIONARY
360
AAEE
102
}
330
A843
100
AcDbSymbolTableRecord
100
AcDbLayerTableRecord
  2
3
 70
     0
 62
     2
  6
DASHED
370
    -3
390
AA92
  0
LAYER
  5
A86C
102
{ACAD_XDICTIONARY
360
AAF0
102
}
330
A843
100
AcDbSymbolTableRecord
100
AcDbLayerTableRecord
  2
6
 70
     0
 62
     5
  6
CONTINUOUS
370
    -3
390
AA92
  0
LAYER
  5
A86D
102
{ACAD_XDICTIONARY
360
AAF2
102
}
330
A843
100
AcDbSymbolTableRecord
100
AcDbLayerTableRecord
  2
7
 70
     0
 62
     3
  6
CONTINUOUS
370
    -3
390
AA92
  0
ENDTAB
  0
TABLE
  2
STYLE
  5
A844
330
0
100
AcDbSymbolTable
 70
     1
  0
STYLE
  5
A852
330
A844
100
AcDbSymbolTableRecord
100
AcDbTextStyleTableRecord
  2
STANDARD
 70
     0
 40
0.0
 41
1.0
 50
0.0
 71
     0
 42
5.0
  3
txt
  4

  0
ENDTAB
  0
TABLE
  2
VIEW
  5
A847
330
0
100
AcDbSymbolTable
 70
     0
  0
ENDTAB
  0
TABLE
  2
UCS
  5
A848
330
0
100
AcDbSymbolTable
 70
     0
  0
ENDTAB
  0
TABLE
  2
APPID
  5
A84A
330
0
100
AcDbSymbolTable
 70
     3
  0
APPID
  5
A853
330
A84A
100
AcDbSymbolTableRecord
100
AcDbRegAppTableRecord
  2
ACAD
 70
     0
  0
APPID
  5
AAFE
330
A84A
100
AcDbSymbolTableRecord
100
AcDbRegAppTableRecord
  2
ACAD_NAV_VCDISPLAY
 70
     0
  0
APPID
  5
AB37
330
A84A
100
AcDbSymbolTableRecord
100
AcDbRegAppTableRecord
  2
ACAD_MLEADERVER
 70
     0
  0
ENDTAB
  0
TABLE
  2
DIMSTYLE
  5
A84B
330
0
100
AcDbSymbolTable
 70
     1
100
AcDbDimStyleTable
 71
     0
  0
DIMSTYLE
105
A86F
330
A84B
100
AcDbSymbolTableRecord
100
AcDbDimStyleTableRecord
  2
STANDARD
 70
     0
 41
2.5
 42
1.0
 43
10.0
 44
1.0
 73
     0
 74
     0
 77
     3
 78
     8
140
3.2
141
0.0
147
1.0
172
     1
173
     1
284
     8
285
     8
286
     8
340
A852
  0
ENDTAB
  0
TABLE
  2
BLOCK_RECORD
  5
A842
330
0
100
AcDbSymbolTable
 70
     0
  0
BLOCK_RECORD
  5
A85F
102
{ACAD_XDICTIONARY
360
AA71
102
}
330
A842
100
AcDbSymbolTableRecord
100
AcDbBlockTableRecord
  2
*MODEL_SPACE
340
AAE0
  0
BLOCK_RECORD
  5
A85B
102
{ACAD_XDICTIONARY
360
AA6F
102
}
330
A842
100
AcDbSymbolTableRecord
100
AcDbBlockTableRecord
  2
*PAPER_SPACE
340
AAE1
  0
ENDTAB
  0
ENDSEC
  0
SECTION
  2
BLOCKS
  0
BLOCK
  5
A860
330
A85F
100
AcDbEntity
  8
0
100
AcDbBlockBegin
  2
*MODEL_SPACE
 70
     0
 10
0.0
 20
0.0
 30
0.0
  3
*MODEL_SPACE
  1

  0
ENDBLK
  5
A861
330
A85F
100
AcDbEntity
  8
0
100
AcDbBlockEnd
  0
BLOCK
  5
A85C
330
A85B
100
AcDbEntity
 67
     1
  8
0
100
AcDbBlockBegin
  2
*PAPER_SPACE
 70
     0
 10
0.0
 20
0.0
 30
0.0
  3
*PAPER_SPACE
  1

  0
ENDBLK
  5
A85D
330
A85B
100
AcDbEntity
 67
     1
  8
0
100
AcDbBlockEnd
  0
ENDSEC
  0
SECTION
  2
ENTITIES
  0
TEXT
  5
A877
330
A85F
100
AcDbEntity
  8
7
  6
Continuous
100
AcDbText
 10
10.0
 20
18.0
 30
0.0
 40
3.0
  1
TYPE No.TCA-420EA-R150
100
AcDbText
  0
TEXT
  5
A878
330
A85F
100
AcDbEntity
  8
7
  6
Continuous
100
AcDbText
 10
10.0
 20
26.0
 30
0.0
 40
3.0
  1
CODE No.9770
100
AcDbText
  0
TEXT
  5
A879
330
A85F
100
AcDbEntity
  8
1
  6
Continuous
100
AcDbText
 10
10.0
 20
10.0
 30
0.0
 40
1.399999999999999
  1
LAYER
100
AcDbText
  0
TEXT
  5
A87A
330
A85F
100
AcDbEntity
  8
1
  6
Continuous
100
AcDbText
 10
17.97951099999998
 20
10.04873699999998
 30
0.0
 40
1.399999999999999
  1
1
100
AcDbText
  0
TEXT
  5
A87B
330
A85F
100
AcDbEntity
  8
7
  6
Continuous
100
AcDbText
 10
29.97951099999999
 20
10.04873699999998
 30
0.0
 40
1.399999999999999
  1
7
100
AcDbText
  0
TEXT
  5
A87C
330
A85F
100
AcDbEntity
  8
4
  6
CENTER
100
AcDbText
 10
23.97951099999999
 20
10.04873699999998
 30
0.0
 40
1.399999999999999
  1
4
100
AcDbText
  0
TEXT
  5
A87D
330
A85F
100
AcDbEntity
  8
3
  6
DASHED
100
AcDbText
 10
21.979511
 20
10.04873699999998
 30
0.0
 40
1.399999999999999
  1
3
100
AcDbText
  0
TEXT
  5
A87E
330
A85F
100
AcDbEntity
  8
2
  6
Continuous
100
AcDbText
 10
19.97951099999998
 20
10.04873699999998
 30
0.0
 40
1.399999999999999
  1
2
100
AcDbText
  0
TEXT
  5
A87F
330
A85F
100
AcDbEntity
  8
6
  6
Continuous
100
AcDbText
 10
27.979511
 20
10.04873699999998
 30
0.0
 40
1.399999999999999
  1
6
100
AcDbText
  0
TEXT
  5
A880
330
A85F
100
AcDbEntity
  8
5
  6
PHANTOM
100
AcDbText
 10
25.97951099999999
 20
10.04873699999998
 30
0.0
 40
1.399999999999999
  1
5
100
AcDbText
  0
LINE
  5
A881
330
A85F
100
AcDbEntity
  8
4
  6
CENTER
100
AcDbLine
 10
57.22022299999999
 20
386.8716129999999
 30
0.0
 11
57.22022299999999
 21
156.871609
 31
0.0
  0
LINE
  5
A882
330
A85F
100
AcDbEntity
  8
4
  6
CENTER
100
AcDbLine
 10
137.220223
 20
471.9968709999998
 30
0.0
 11
303.2202229999998
 21
471.9968709999998
 31
0.0
  0
LINE
  5
A883
330
A85F
100
AcDbEntity
  8
4
  6
CENTER
100
AcDbLine
 10
262.2202229999999
 20
505.0131179999998
 30
0.0
 11
262.2202229999999
 21
439.0131180000001
 31
0.0
  0
LINE
  5
A884
330
A85F
100
AcDbEntity
  8
4
  6
CENTER
100
AcDbLine
 10
262.2202229999999
 20
40.87160899999996
 30
0.0
 11
262.2202229999999
 21
106.8716089999999
 31
0.0
  0
LINE
  5
A885
330
A85F
100
AcDbEntity
  8
4
  6
CENTER
100
AcDbLine
 10
137.220223
 20
73.87160899999997
 30
0.0
 11
303.2202229999998
 21
73.87160899999997
 31
0.0
  0
LINE
  5
A886
330
A85F
100
AcDbEntity
  8
4
  6
CENTER
100
AcDbLine
 10
262.2202229999999
 20
386.8716129999999
 30
0.0
 11
262.2202229999999
 21
283.6049389999999
 31
0.0
  0
LINE
  5
A887
330
A85F
100
AcDbEntity
  8
1
  6
Continuous
100
AcDbLine
 10
209.220223
 20
89.87160899999997
 30
0.0
 11
243.3228689999999
 21
89.87160899999997
 31
0.0
  0
LINE
  5
A888
330
A85F
100
AcDbEntity
  8
1
  6
Continuous
100
AcDbLine
 10
209.220223
 20
57.87160899999999
 30
0.0
 11
243.3228689999999
 21
57.87160899999999
 31
0.0
  0
LINE
  5
A889
330
A85F
100
AcDbEntity
  8
1
  6
Continuous
100
AcDbLine
 10
209.220223
 20
55.57161899999999
 30
0.0
 11
243.3228559999998
 21
55.57161899999999
 31
0.0
  0
LINE
  5
A88A
330
A85F
100
AcDbEntity
  8
1
  6
Continuous
100
AcDbLine
 10
209.220223
 20
92.17160900000001
 30
0.0
 11
243.3228689999999
 21
92.17160900000001
 31
0.0
  0
ARC
  5
A88B
330
A85F
100
AcDbEntity
  8
1
  6
Continuous
100
AcDbCircle
 10
262.2202229999999
 20
73.87160899999997
 30
0.0
 40
25.0
100
AcDbArc
 50
230.9563529999997
 51
327.3163609999998
  0
ARC
  5
A88C
330
A85F
100
AcDbEntity
  8
1
  6
Continuous
100
AcDbCircle
 10
129.7535629999997
 20
73.87160899999997
 30
0.0
 40
85.0
100
AcDbArc
 50
10.84078599999999
 51
10.849816
  0
ARC
  5
A88D
330
A85F
100
AcDbEntity
  8
1
  6
Continuous
100
AcDbCircle
 10
129.7535629999997
 20
73.87160899999997
 30
0.0
 40
85.0
100
AcDbArc
 50
349.1501839999998
 51
349.159218
  0
ARC
  5
A88E
330
A85F
100
AcDbEntity
  8
1
  6
Continuous
100
AcDbCircle
 10
275.6035719999999
 20
73.87161399999998
 30
0.0
 40
64.383349
100
AcDbArc
 50
165.6105589999999
 51
166.527454
  0
ARC
  5
A88F
330
A85F
100
AcDbEntity
  8
1
  6
Continuous
100
AcDbCircle
 10
275.6035719999999
 20
73.87161399999998
 30
0.0
 40
64.383349
100
AcDbArc
 50
193.4725549999997
 51
194.38945
  0
ARC
  5
A890
330
A85F
100
AcDbEntity
  8
1
  6
Continuous
100
AcDbCircle
 10
262.2202229999999
 20
73.87160899999997
 30
0.0
 40
22.7
100
AcDbArc
 50
230.956384
 51
323.5077779999998
  0
ARC
  5
A891
330
A85F
100
AcDbEntity
  8
1
  6
Continuous
100
AcDbCircle
 10
262.2202229999999
 20
73.87160899999997
 30
0.0
 40
25.0
100
AcDbArc
 50
32.683639
 51
129.0436159999997
  0
ARC
  5
A892
330
A85F
100
AcDbEntity
  8
1
  6
Continuous
100
AcDbCircle
 10
262.2202229999999
 20
73.87160899999997
 30
0.0
 40
22.7
100
AcDbArc
 50
36.492222
 51
129.0436159999997
  0
ARC
  5
A893
330
A85F
100
AcDbEntity
  8
1
  6
Continuous
100
AcDbCircle
 10
262.2202229999999
 20
73.87160899999997
 30
0.0
 40
17.7
100
AcDbArc
 50
49.70385700000001
 51
130.296143
  0
ARC
  5
A894
330
A85F
100
AcDbEntity
  8
1
  6
Continuous
100
AcDbCircle
 10
262.2202229999999
 20
73.87160899999997
 30
0.0
 40
17.7
100
AcDbArc
 50
229.7038569999999
 51
310.2961429999998
  0
LINE
  5
A895
330
A85F
100
AcDbEntity
  8
4
  6
CENTER
100
AcDbLine
 10
137.220223
 20
236.8716089999999
 30
0.0
 11
303.2202229999998
 21
236.8716089999999
 31
0.0
  0
ARC
  5
A896
330
A85F
100
AcDbEntity
  8
1
  6
Continuous
100
AcDbCircle
 10
220.220223
 20
236.8716089999999
 30
0.0
 40
75.0
100
AcDbArc
 50
93.07922299999999
 51
55.396095
  0
ARC
  5
A897
330
A85F
100
AcDbEntity
  8
1
  6
Continuous
100
AcDbCircle
 10
220.220223
 20
236.8716089999999
 30
0.0
 40
54.5
100
AcDbArc
 50
96.289691
 51
52.18563300000002
  0
ARC
  5
A898
330
A85F
100
AcDbEntity
  8
1
  6
Continuous
100
AcDbCircle
 10
220.220223
 20
236.8716089999999
 30
0.0
 40
44.0
100
AcDbArc
 50
99.12292900000002
 51
49.352389
  0
ARC
  5
A899
330
A85F
100
AcDbEntity
  8
1
  6
Continuous
100
AcDbCircle
 10
220.220223
 20
236.8716089999999
 30
0.0
 40
50.0
100
AcDbArc
 50
97.35445
 51
51.12086099999999
  0
LINE
  5
A89A
330
A85F
100
AcDbEntity
  8
4
  6
CENTER
100
AcDbLine
 10
220.220223
 20
314.2043569999998
 30
0.0
 11
220.220223
 21
153.871609
 31
0.0
  0
CIRCLE
  5
A89B
330
A85F
100
AcDbEntity
  8
1
  6
Continuous
100
AcDbCircle
 10
220.220223
 20
236.8716089999999
 30
0.0
 40
6.25
  0
ARC
  5
A89C
330
A85F
100
AcDbEntity
  8
1
  6
Continuous
100
AcDbCircle
 10
220.220223
 20
236.8716089999999
 30
0.0
 40
31.0
100
AcDbArc
 50
105.42898
 51
43.04634799999997
  0
ARC
  5
A89D
330
A85F
100
AcDbEntity
  8
1
  6
Continuous
100
AcDbCircle
 10
220.220223
 20
236.8716089999999
 30
0.0
 40
16.0
100
AcDbArc
 50
128.07796
 51
20.39735899999998
  0
LINE
  5
A89E
330
A85F
100
AcDbEntity
  8
1
  6
Continuous
100
AcDbLine
 10
209.268224
 20
237.898114
 30
0.0
 11
216.7989439999999
 21
318.2445259999998
 31
0.0
  0
LINE
  5
A89F
330
A85F
100
AcDbEntity
  8
1
  6
Continuous
100
AcDbLine
 10
230.092598
 20
232.020195
 30
0.0
 11
269.7386859999999
 21
312.697958
 31
0.0
  0
ARC
  5
A8A0
330
A85F
100
AcDbEntity
  8
1
  6
Continuous
100
AcDbCircle
 10
220.220223
 20
236.8716089999999
 30
0.0
 40
11.0
100
AcDbArc
 50
174.64542
 51
330.68273
  0
CIRCLE
  5
A8A1
330
A85F
100
AcDbEntity
  8
1
  6
Continuous
100
AcDbCircle
 10
220.220223
 20
236.8716089999999
 30
0.0
 40
1.5
  0
LINE
  5
A8A2
330
A85F
100
AcDbEntity
  8
1
  6
Continuous
100
AcDbLine
 10
241.220223
 20
320.771611
 30
0.0
 11
241.220223
 21
259.6821409999999
 31
0.0
  0
LINE
  5
A8A3
330
A85F
100
AcDbEntity
  8
1
  6
Continuous
100
AcDbLine
 10
211.2202179999999
 20
320.4716069999999
 30
0.0
 11
240.061743
 21
325.557144
 31
0.0
  0
ARC
  5
A8A4
330
A85F
100
AcDbEntity
  8
1
  6
Continuous
100
AcDbCircle
 10
214.3098529999999
 20
318.4778249999999
 30
0.0
 40
2.5
100
AcDbArc
 50
354.64542
 51
100.0000199999999
  0
ARC
  5
A8A5
330
A85F
100
AcDbEntity
  8
1
  6
Continuous
100
AcDbCircle
 10
215.774773
 20
317.923786
 30
0.0
 40
1.0
100
AcDbArc
 50
356.0
 51
100.00001
  0
LINE
  5
A8A6
330
A85F
100
AcDbEntity
  8
1
  6
Continuous
100
AcDbLine
 10
211.220227
 20
320.4716069999999
 30
0.0
 11
211.619618
 21
318.206551
 31
0.0
  0
LINE
  5
A8A7
330
A85F
100
AcDbEntity
  8
1
  6
Continuous
100
AcDbLine
 10
211.6196239999999
 20
318.2065469999999
 30
0.0
 11
215.601141
 21
318.9085959999998
 31
0.0
  0
ARC
  5
A8A8
330
A85F
100
AcDbEntity
  8
1
  6
Continuous
100
AcDbCircle
 10
283.19571
 20
306.0716080000001
 30
0.0
 40
15.0
100
AcDbArc
 50
89.99998199999996
 51
153.82993
  0
LINE
  5
A8A9
330
A85F
100
AcDbEntity
  8
1
  6
Continuous
100
AcDbLine
 10
283.19571
 20
321.0716059999998
 30
0.0
 11
287.2202229999998
 21
321.0716059999998
 31
0.0
  0
LINE
  5
A8AA
330
A85F
100
AcDbEntity
  8
1
  6
Continuous
100
AcDbLine
 10
242.2202229999999
 20
329.971604
 30
0.0
 11
282.2202229999998
 21
329.971604
 31
0.0
  0
ARC
  5
A8AB
330
A85F
100
AcDbEntity
  8
1
  6
Continuous
100
AcDbCircle
 10
251.7790529999998
 20
331.449612
 30
0.0
 40
2.778
100
AcDbArc
 50
189.9080999999999
 51
212.1434
  0
ARC
  5
A8AC
330
A85F
100
AcDbEntity
  8
1
  6
Continuous
100
AcDbCircle
 10
245.3078389999999
 20
331.449612
 30
0.0
 40
2.778
100
AcDbArc
 50
189.9080999999999
 51
212.1433699999999
  0
ARC
  5
A8AD
330
A85F
100
AcDbEntity
  8
1
  6
Continuous
100
AcDbCircle
 10
247.8430789999999
 20
331.449612
 30
0.0
 40
2.778
100
AcDbArc
 50
189.9080999999999
 51
212.1434
  0
ARC
  5
A8AE
330
A85F
100
AcDbEntity
  8
1
  6
Continuous
100
AcDbCircle
 10
244.420197
 20
331.449612
 30
0.0
 40
2.778
100
AcDbArc
 50
189.9080999999999
 51
212.1433699999999
  0
ARC
  5
A8AF
330
A85F
100
AcDbEntity
  8
1
  6
Continuous
100
AcDbCircle
 10
267.708123
 20
331.449612
 30
0.0
 40
2.778
100
AcDbArc
 50
189.90804
 51
212.1434
  0
ARC
  5
A8B0
330
A85F
100
AcDbEntity
  8
1
  6
Continuous
100
AcDbCircle
 10
256.732293
 20
331.449612
 30
0.0
 40
2.778
100
AcDbArc
 50
189.9080999999999
 51
212.1434
  0
ARC
  5
A8B1
330
A85F
100
AcDbEntity
  8
1
  6
Continuous
100
AcDbCircle
 10
256.732293
 20
331.449612
 30
0.0
 40
2.778
100
AcDbArc
 50
327.8565799999999
 51
350.0919899999999
  0
ARC
  5
A8B2
330
A85F
100
AcDbEntity
  8
1
  6
Continuous
100
AcDbCircle
 10
262.220208
 20
331.449612
 30
0.0
 40
2.778
100
AcDbArc
 50
189.9080999999999
 51
212.1434
  0
ARC
  5
A8B3
330
A85F
100
AcDbEntity
  8
1
  6
Continuous
100
AcDbCircle
 10
262.220208
 20
331.449612
 30
0.0
 40
2.778
100
AcDbArc
 50
327.8565799999999
 51
350.09193
  0
ARC
  5
A8B4
330
A85F
100
AcDbEntity
  8
1
  6
Continuous
100
AcDbCircle
 10
267.708123
 20
331.449612
 30
0.0
 40
2.778
100
AcDbArc
 50
327.8565799999999
 51
350.09193
  0
ARC
  5
A8B5
330
A85F
100
AcDbEntity
  8
1
  6
Continuous
100
AcDbCircle
 10
272.661362
 20
331.449612
 30
0.0
 40
2.778
100
AcDbArc
 50
327.8565799999999
 51
350.09193
  0
ARC
  5
A8B6
330
A85F
100
AcDbEntity
  8
1
  6
Continuous
100
AcDbCircle
 10
276.5973359999999
 20
331.449612
 30
0.0
 40
2.778
100
AcDbArc
 50
327.85663
 51
350.09193
  0
ARC
  5
A8B7
330
A85F
100
AcDbEntity
  8
1
  6
Continuous
100
AcDbCircle
 10
279.132577
 20
331.449612
 30
0.0
 40
2.778
100
AcDbArc
 50
327.85663
 51
350.09193
  0
ARC
  5
A8B8
330
A85F
100
AcDbEntity
  8
1
  6
Continuous
100
AcDbCircle
 10
280.0202179999999
 20
331.449612
 30
0.0
 40
2.778
100
AcDbArc
 50
327.85663
 51
350.09193
  0
LINE
  5
A8B9
330
A85F
100
AcDbEntity
  8
1
  6
Continuous
100
AcDbLine
 10
42.22022299999999
 20
224.329647
 30
0.0
 11
42.22022299999999
 21
249.413571
 31
0.0
  0
LINE
  5
A8BA
330
A85F
100
AcDbEntity
  8
1
  6
Continuous
100
AcDbLine
 10
72.220223
 20
224.329647
 30
0.0
 11
72.220223
 21
249.413571
 31
0.0
  0
LINE
  5
A8BB
330
A85F
100
AcDbEntity
  8
1
  6
Continuous
100
AcDbLine
 10
43.720223
 20
164.851099
 30
0.0
 11
43.720223
 21
308.892124
 31
0.0
  0
LINE
  5
A8BC
330
A85F
100
AcDbEntity
  8
1
  6
Continuous
100
AcDbLine
 10
70.720223
 20
164.851099
 30
0.0
 11
70.720223
 21
308.892124
 31
0.0
  0
ARC
  5
A8BD
330
A85F
100
AcDbEntity
  8
1
  6
Continuous
100
AcDbCircle
 10
46.920233
 20
236.8716089999999
 30
0.0
 40
12.0
100
AcDbArc
 50
164.2861599999999
 51
195.71383
  0
LINE
  5
A8BE
330
A85F
100
AcDbEntity
  8
1
  6
Continuous
100
AcDbLine
 10
33.920233
 20
241.973622
 30
0.0
 11
33.920233
 21
231.7695959999999
 31
0.0
  0
ARC
  5
A8BF
330
A85F
100
AcDbEntity
  8
1
  6
Continuous
100
AcDbCircle
 10
26.92023300000001
 20
236.8716089999999
 30
0.0
 40
12.0
100
AcDbArc
 50
344.2861399999999
 51
15.71386099999998
  0
LINE
  5
A8C0
330
A85F
100
AcDbEntity
  8
1
  6
Continuous
100
AcDbLine
 10
78.72020299999999
 20
241.1216089999999
 30
0.0
 11
78.72020299999999
 21
232.6216089999999
 31
0.0
  0
LINE
  5
A8C1
330
A85F
100
AcDbEntity
  8
1
  6
Continuous
100
AcDbLine
 10
75.520223
 20
318.0279509999998
 30
0.0
 11
75.520223
 21
225.8716089999999
 31
0.0
  0
LINE
  5
A8C2
330
A85F
100
AcDbEntity
  8
1
  6
Continuous
100
AcDbLine
 10
38.920233
 20
318.0279509999998
 30
0.0
 11
38.920233
 21
225.8716089999999
 31
0.0
  0
LINE
  5
A8C3
330
A85F
100
AcDbEntity
  8
1
  6
Continuous
100
AcDbLine
 10
41.220223
 20
318.078213
 30
0.0
 11
41.220223
 21
225.8716089999999
 31
0.0
  0
LINE
  5
A8C4
330
A85F
100
AcDbEntity
  8
1
  6
Continuous
100
AcDbLine
 10
73.220223
 20
318.078213
 30
0.0
 11
73.220223
 21
225.8716089999999
 31
0.0
  0
LINE
  5
A8C5
330
A85F
100
AcDbEntity
  8
4
  6
CENTER
100
AcDbLine
 10
26.92023300000001
 20
236.8716089999999
 30
0.0
 11
83.720203
 21
236.8716089999999
 31
0.0
  0
ARC
  5
A8C6
330
A85F
100
AcDbEntity
  8
1
  6
Continuous
100
AcDbCircle
 10
57.22022299999999
 20
231.8716089999998
 30
0.0
 40
70.0
100
AcDbArc
 50
260.26341
 51
279.7365199999999
  0
ARC
  5
A8C7
330
A85F
100
AcDbEntity
  8
1
  6
Continuous
100
AcDbCircle
 10
45.72022299999999
 20
164.851099
 30
0.0
 40
2.0
100
AcDbArc
 50
179.9999799999999
 51
260.2634299999999
  0
LINE
  5
A8C8
330
A85F
100
AcDbEntity
  8
1
  6
Continuous
100
AcDbLine
 10
41.220223
 20
232.8716089999999
 30
0.0
 11
42.22022299999999
 21
232.8716089999999
 31
0.0
  0
ARC
  5
A8C9
330
A85F
100
AcDbEntity
  8
1
  6
Continuous
100
AcDbCircle
 10
38.17023300000001
 20
231.9299809999999
 30
0.0
 40
3.25
100
AcDbArc
 50
148.63423
 51
208.6527299999999
  0
LINE
  5
A8CA
330
A85F
100
AcDbEntity
  8
1
  6
Continuous
100
AcDbLine
 10
35.318263
 20
230.3716169999999
 30
0.0
 11
33.92026299999999
 21
231.769608
 31
0.0
  0
ARC
  5
A8CB
330
A85F
100
AcDbEntity
  8
1
  6
Continuous
100
AcDbCircle
 10
35.67023300000001
 20
231.9299809999999
 30
0.0
 40
3.25
100
AcDbArc
 50
331.3472299999999
 51
31.365793
  0
LINE
  5
A8CC
330
A85F
100
AcDbEntity
  8
1
  6
Continuous
100
AcDbLine
 10
35.318233
 20
230.3716089999999
 30
0.0
 11
38.52224299999999
 21
230.3716089999999
 31
0.0
  0
LINE
  5
A8CD
330
A85F
100
AcDbEntity
  8
1
  6
Continuous
100
AcDbLine
 10
35.39518300000001
 20
233.6216089999997
 30
0.0
 11
38.44529299999999
 21
233.6216089999997
 31
0.0
  0
LINE
  5
A8CE
330
A85F
100
AcDbEntity
  8
1
  6
Continuous
100
AcDbLine
 10
38.920233
 20
225.8716089999999
 30
0.0
 11
41.220223
 21
225.8716089999999
 31
0.0
  0
ARC
  5
A8CF
330
A85F
100
AcDbEntity
  8
1
  6
Continuous
100
AcDbCircle
 10
45.22022299999998
 20
224.329647
 30
0.0
 40
3.0
100
AcDbArc
 50
179.9999799999999
 51
239.99998
  0
ARC
  5
A8D0
330
A85F
100
AcDbEntity
  8
1
  6
Continuous
100
AcDbCircle
 10
68.72022300000001
 20
164.851099
 30
0.0
 40
2.0
100
AcDbArc
 50
279.73649
 51
359.99995
  0
LINE
  5
A8D1
330
A85F
100
AcDbEntity
  8
1
  6
Continuous
100
AcDbLine
 10
75.520223
 20
225.8716089999999
 30
0.0
 11
73.220223
 21
225.8716089999999
 31
0.0
  0
ARC
  5
A8D2
330
A85F
100
AcDbEntity
  8
1
  6
Continuous
100
AcDbCircle
 10
69.220223
 20
224.329647
 30
0.0
 40
3.0
100
AcDbArc
 50
300.00001
 51
359.99995
  0
LINE
  5
A8D3
330
A85F
100
AcDbEntity
  8
1
  6
Continuous
100
AcDbLine
 10
72.220223
 20
232.8716089999999
 30
0.0
 11
73.220223
 21
232.8716089999999
 31
0.0
  0
ARC
  5
A8D4
330
A85F
100
AcDbEntity
  8
1
  6
Continuous
100
AcDbCircle
 10
76.72020299999998
 20
232.6216089999999
 30
0.0
 40
2.0
100
AcDbArc
 50
270.00002
 51
0.0
  0
LINE
  5
A8D5
330
A85F
100
AcDbEntity
  8
1
  6
Continuous
100
AcDbLine
 10
75.520223
 20
230.6216089999999
 30
0.0
 11
76.72020299999998
 21
230.6216089999999
 31
0.0
  0
ARC
  5
A8D6
330
A85F
100
AcDbEntity
  8
1
  6
Continuous
100
AcDbCircle
 10
57.22022299999999
 20
241.8716089999997
 30
0.0
 40
70.0
100
AcDbArc
 50
80.26348
 51
99.736594
  0
ARC
  5
A8D7
330
A85F
100
AcDbEntity
  8
1
  6
Continuous
100
AcDbCircle
 10
57.22022299999999
 20
453.573819
 30
0.0
 40
128.4999999999998
100
AcDbArc
 50
262.8473099999999
 51
277.1526699999999
  0
ARC
  5
A8D8
330
A85F
100
AcDbEntity
  8
1
  6
Continuous
100
AcDbCircle
 10
57.22022299999999
 20
446.7065589999998
 30
0.0
 40
128.4999999999998
100
AcDbArc
 50
263.34847
 51
276.6515099999999
  0
ARC
  5
A8D9
330
A85F
100
AcDbEntity
  8
1
  6
Continuous
100
AcDbCircle
 10
57.22022299999999
 20
448.971599
 30
0.0
 40
128.4999999999998
100
AcDbArc
 50
263.46506
 51
276.53492
  0
LINE
  5
A8DA
330
A85F
100
AcDbEntity
  8
1
  6
Continuous
100
AcDbLine
 10
37.22022299999999
 20
329.9716
 30
0.0
 11
77.220223
 21
329.9716
 31
0.0
  0
ARC
  5
A8DB
330
A85F
100
AcDbEntity
  8
1
  6
Continuous
100
AcDbCircle
 10
37.22022299999999
 20
324.9716
 30
0.0
 40
5.0
100
AcDbArc
 50
89.99998199999996
 51
179.9999599999999
  0
ARC
  5
A8DC
330
A85F
100
AcDbEntity
  8
1
  6
Continuous
100
AcDbCircle
 10
177.2202229999997
 20
297.398272
 30
0.0
 40
145.0
100
AcDbArc
 50
179.9999799999999
 51
197.4854799999997
  0
LINE
  5
A8DD
330
A85F
100
AcDbEntity
  8
1
  6
Continuous
100
AcDbLine
 10
41.220223
 20
240.8716089999999
 30
0.0
 11
42.22022299999999
 21
240.8716089999999
 31
0.0
  0
ARC
  5
A8DE
330
A85F
100
AcDbEntity
  8
1
  6
Continuous
100
AcDbCircle
 10
38.17023300000001
 20
241.8132369999999
 30
0.0
 40
3.25
100
AcDbArc
 50
151.34725
 51
211.3657499999999
  0
LINE
  5
A8DF
330
A85F
100
AcDbEntity
  8
1
  6
Continuous
100
AcDbLine
 10
33.92026299999999
 20
241.97361
 30
0.0
 11
35.318243
 21
243.371598
 31
0.0
  0
ARC
  5
A8E0
330
A85F
100
AcDbEntity
  8
1
  6
Continuous
100
AcDbCircle
 10
35.67023300000001
 20
241.8132369999999
 30
0.0
 40
3.25
100
AcDbArc
 50
328.6342
 51
28.65276699999999
  0
LINE
  5
A8E1
330
A85F
100
AcDbEntity
  8
1
  6
Continuous
100
AcDbLine
 10
35.318233
 20
243.3716089999998
 30
0.0
 11
38.52224299999999
 21
243.3716089999998
 31
0.0
  0
LINE
  5
A8E2
330
A85F
100
AcDbEntity
  8
1
  6
Continuous
100
AcDbLine
 10
35.36872299999997
 20
240.1216089999997
 30
0.0
 11
38.47175299999999
 21
240.1216089999997
 31
0.0
  0
ARC
  5
A8E3
330
A85F
100
AcDbEntity
  8
1
  6
Continuous
100
AcDbCircle
 10
45.22022299999998
 20
249.413571
 30
0.0
 40
3.0
100
AcDbArc
 50
120.0000199999999
 51
180.00002
  0
LINE
  5
A8E4
330
A85F
100
AcDbEntity
  8
1
  6
Continuous
100
AcDbLine
 10
32.22022299999999
 20
324.9716
 30
0.0
 11
32.22022299999999
 21
297.398272
 31
0.0
  0
ARC
  5
A8E5
330
A85F
100
AcDbEntity
  8
1
  6
Continuous
100
AcDbCircle
 10
42.22022299999999
 20
318.078213
 30
0.0
 40
1.0
100
AcDbArc
 50
83.348539
 51
179.9999599999999
  0
ARC
  5
A8E6
330
A85F
100
AcDbEntity
  8
1
  6
Continuous
100
AcDbCircle
 10
42.220243
 20
318.0279509999998
 30
0.0
 40
3.299999999999998
100
AcDbArc
 50
83.465158
 51
179.9999599999999
  0
ARC
  5
A8E7
330
A85F
100
AcDbEntity
  8
1
  6
Continuous
100
AcDbCircle
 10
45.72022299999999
 20
308.892124
 30
0.0
 40
2.0
100
AcDbArc
 50
99.73656
 51
180.00002
  0
ARC
  5
A8E8
330
A85F
100
AcDbEntity
  8
1
  6
Continuous
100
AcDbCircle
 10
40.30784299999999
 20
331.449612
 30
0.0
 40
2.778
100
AcDbArc
 50
189.9080999999999
 51
212.14351
  0
ARC
  5
A8E9
330
A85F
100
AcDbEntity
  8
1
  6
Continuous
100
AcDbCircle
 10
42.843083
 20
331.449612
 30
0.0
 40
2.778
100
AcDbArc
 50
189.9080999999999
 51
212.14351
  0
ARC
  5
A8EA
330
A85F
100
AcDbEntity
  8
1
  6
Continuous
100
AcDbCircle
 10
39.420203
 20
331.449612
 30
0.0
 40
2.778
100
AcDbArc
 50
189.9080999999999
 51
212.14351
  0
ARC
  5
A8EB
330
A85F
100
AcDbEntity
  8
1
  6
Continuous
100
AcDbCircle
 10
46.779063
 20
331.449612
 30
0.0
 40
2.778
100
AcDbArc
 50
327.8564799999998
 51
333.0638399999999
  0
ARC
  5
A8EC
330
A85F
100
AcDbEntity
  8
1
  6
Continuous
100
AcDbCircle
 10
51.732293
 20
331.449612
 30
0.0
 40
2.778
100
AcDbArc
 50
189.9080999999999
 51
212.14351
  0
ARC
  5
A8ED
330
A85F
100
AcDbEntity
  8
1
  6
Continuous
100
AcDbCircle
 10
46.779063
 20
331.449612
 30
0.0
 40
2.778
100
AcDbArc
 50
189.9080999999999
 51
212.14351
  0
ARC
  5
A8EE
330
A85F
100
AcDbEntity
  8
1
  6
Continuous
100
AcDbCircle
 10
51.732293
 20
331.449612
 30
0.0
 40
2.778
100
AcDbArc
 50
327.8564799999998
 51
350.0919899999999
  0
ARC
  5
A8EF
330
A85F
100
AcDbEntity
  8
1
  6
Continuous
100
AcDbCircle
 10
57.220203
 20
331.449612
 30
0.0
 40
2.778
100
AcDbArc
 50
189.9080999999999
 51
212.14351
  0
ARC
  5
A8F0
330
A85F
100
AcDbEntity
  8
1
  6
Continuous
100
AcDbCircle
 10
77.220223
 20
324.9716
 30
0.0
 40
5.0
100
AcDbArc
 50
0.0
 51
89.99998199999996
  0
ARC
  5
A8F1
330
A85F
100
AcDbEntity
  8
1
  6
Continuous
100
AcDbCircle
 10
-62.779777
 20
297.398272
 30
0.0
 40
145.0
100
AcDbArc
 50
342.5145
 51
0.0
  0
LINE
  5
A8F2
330
A85F
100
AcDbEntity
  8
1
  6
Continuous
100
AcDbLine
 10
72.220223
 20
240.8716089999999
 30
0.0
 11
73.220223
 21
240.8716089999999
 31
0.0
  0
ARC
  5
A8F3
330
A85F
100
AcDbEntity
  8
1
  6
Continuous
100
AcDbCircle
 10
69.220223
 20
249.413571
 30
0.0
 40
3.0
100
AcDbArc
 50
0.000055
 51
59.999995
  0
ARC
  5
A8F4
330
A85F
100
AcDbEntity
  8
1
  6
Continuous
100
AcDbCircle
 10
76.72020299999998
 20
241.1216089999999
 30
0.0
 40
2.0
100
AcDbArc
 50
0.0
 51
89.99998199999996
  0
LINE
  5
A8F5
330
A85F
100
AcDbEntity
  8
1
  6
Continuous
100
AcDbLine
 10
75.520223
 20
243.1216089999999
 30
0.0
 11
76.72020299999998
 21
243.1216089999999
 31
0.0
  0
LINE
  5
A8F6
330
A85F
100
AcDbEntity
  8
1
  6
Continuous
100
AcDbLine
 10
82.220223
 20
324.9716
 30
0.0
 11
82.220223
 21
297.398272
 31
0.0
  0
ARC
  5
A8F7
330
A85F
100
AcDbEntity
  8
1
  6
Continuous
100
AcDbCircle
 10
72.220223
 20
318.0279509999998
 30
0.0
 40
3.299999999999998
100
AcDbArc
 50
0.0
 51
96.53486100000002
  0
ARC
  5
A8F8
330
A85F
100
AcDbEntity
  8
1
  6
Continuous
100
AcDbCircle
 10
68.72022300000001
 20
308.892124
 30
0.0
 40
2.0
100
AcDbArc
 50
0.000055
 51
80.26351299999998
  0
ARC
  5
A8F9
330
A85F
100
AcDbEntity
  8
1
  6
Continuous
100
AcDbCircle
 10
72.220223
 20
318.078213
 30
0.0
 40
1.0
100
AcDbArc
 50
0.0
 51
96.65148000000002
  0
ARC
  5
A8FA
330
A85F
100
AcDbEntity
  8
1
  6
Continuous
100
AcDbCircle
 10
67.66135300000001
 20
331.449612
 30
0.0
 40
2.778
100
AcDbArc
 50
206.9362
 51
212.14351
  0
ARC
  5
A8FB
330
A85F
100
AcDbEntity
  8
1
  6
Continuous
100
AcDbCircle
 10
62.708123
 20
331.449612
 30
0.0
 40
2.778
100
AcDbArc
 50
327.8564799999998
 51
350.09193
  0
ARC
  5
A8FC
330
A85F
100
AcDbEntity
  8
1
  6
Continuous
100
AcDbCircle
 10
62.708123
 20
331.449612
 30
0.0
 40
2.778
100
AcDbArc
 50
189.90804
 51
212.14351
  0
ARC
  5
A8FD
330
A85F
100
AcDbEntity
  8
1
  6
Continuous
100
AcDbCircle
 10
57.220203
 20
331.449612
 30
0.0
 40
2.778
100
AcDbArc
 50
327.8564799999998
 51
350.09193
  0
ARC
  5
A8FE
330
A85F
100
AcDbEntity
  8
1
  6
Continuous
100
AcDbCircle
 10
67.66135300000001
 20
331.449612
 30
0.0
 40
2.778
100
AcDbArc
 50
327.8564799999998
 51
350.09193
  0
ARC
  5
A8FF
330
A85F
100
AcDbEntity
  8
1
  6
Continuous
100
AcDbCircle
 10
74.13257299999997
 20
331.449612
 30
0.0
 40
2.778
100
AcDbArc
 50
327.8564799999998
 51
350.09193
  0
ARC
  5
A900
330
A85F
100
AcDbEntity
  8
1
  6
Continuous
100
AcDbCircle
 10
71.59733299999998
 20
331.449612
 30
0.0
 40
2.778
100
AcDbArc
 50
327.8564799999998
 51
350.09193
  0
ARC
  5
A901
330
A85F
100
AcDbEntity
  8
1
  6
Continuous
100
AcDbCircle
 10
75.020213
 20
331.449612
 30
0.0
 40
2.778
100
AcDbArc
 50
327.80113
 51
350.09193
  0
LINE
  5
A902
330
A85F
100
AcDbEntity
  8
1
  6
Continuous
100
AcDbLine
 10
287.2202229999998
 20
324.971604
 30
0.0
 11
287.2202229999998
 21
321.0716059999998
 31
0.0
  0
ARC
  5
A903
330
A85F
100
AcDbEntity
  8
1
  6
Continuous
100
AcDbCircle
 10
282.2202229999998
 20
324.971604
 30
0.0
 40
5.0
100
AcDbArc
 50
0.0
 51
90.0
  0
LINE
  5
A904
330
A85F
100
AcDbEntity
  8
4
  6
CENTER
100
AcDbLine
 10
220.220223
 20
40.57161899999999
 30
0.0
 11
220.220223
 21
103.371589
 31
0.0
  0
LINE
  5
A905
330
A85F
100
AcDbEntity
  8
1
  6
Continuous
100
AcDbLine
 10
292.240733
 20
87.37160899999997
 30
0.0
 11
148.199708
 21
87.37160899999997
 31
0.0
  0
LINE
  5
A906
330
A85F
100
AcDbEntity
  8
1
  6
Continuous
100
AcDbLine
 10
292.240733
 20
60.37160899999999
 30
0.0
 11
148.199708
 21
60.37160899999999
 31
0.0
  0
ARC
  5
A907
330
A85F
100
AcDbEntity
  8
1
  6
Continuous
100
AcDbCircle
 10
215.2202229999998
 20
73.87160899999997
 30
0.0
 40
70.0
100
AcDbArc
 50
170.26348
 51
189.7365939999999
  0
ARC
  5
A908
330
A85F
100
AcDbEntity
  8
1
  6
Continuous
100
AcDbCircle
 10
148.199708
 20
62.371609
 30
0.0
 40
2.0
100
AcDbArc
 50
189.73656
 51
270.00002
  0
ARC
  5
A909
330
A85F
100
AcDbEntity
  8
1
  6
Continuous
100
AcDbCircle
 10
148.199708
 20
85.37160899999998
 30
0.0
 40
2.0
100
AcDbArc
 50
90.00005499999994
 51
170.2635129999999
  0
ARC
  5
A90A
330
A85F
100
AcDbEntity
  8
1
  6
Continuous
100
AcDbCircle
 10
225.2202229999999
 20
73.87160899999997
 30
0.0
 40
70.0
100
AcDbArc
 50
350.26341
 51
9.73652
  0
LINE
  5
A90B
330
A85F
100
AcDbEntity
  8
1
  6
Continuous
100
AcDbLine
 10
232.7621849999999
 20
58.871609
 30
0.0
 11
207.6782609999999
 21
58.871609
 31
0.0
  0
ARC
  5
A90C
330
A85F
100
AcDbEntity
  8
1
  6
Continuous
100
AcDbCircle
 10
207.6782609999999
 20
61.871609
 30
0.0
 40
3.0
100
AcDbArc
 50
210.00002
 51
270.00002
  0
LINE
  5
A90D
330
A85F
100
AcDbEntity
  8
1
  6
Continuous
100
AcDbLine
 10
216.220223
 20
57.87160899999999
 30
0.0
 11
216.220223
 21
58.871609
 31
0.0
  0
LINE
  5
A90E
330
A85F
100
AcDbEntity
  8
1
  6
Continuous
100
AcDbLine
 10
224.220223
 20
57.87160899999999
 30
0.0
 11
224.220223
 21
58.871609
 31
0.0
  0
ARC
  5
A90F
330
A85F
100
AcDbEntity
  8
1
  6
Continuous
100
AcDbCircle
 10
232.7621849999999
 20
61.871609
 30
0.0
 40
3.0
100
AcDbArc
 50
269.99998
 51
329.99998
  0
ARC
  5
A910
330
A85F
100
AcDbEntity
  8
1
  6
Continuous
100
AcDbCircle
 10
292.240733
 20
62.371609
 30
0.0
 40
2.0
100
AcDbArc
 50
269.99998
 51
350.2634299999999
  0
LINE
  5
A911
330
A85F
100
AcDbEntity
  8
1
  6
Continuous
100
AcDbLine
 10
232.7621849999999
 20
88.87160899999996
 30
0.0
 11
207.6782609999999
 21
88.87160899999996
 31
0.0
  0
ARC
  5
A912
330
A85F
100
AcDbEntity
  8
1
  6
Continuous
100
AcDbCircle
 10
207.6782609999999
 20
85.87160899999998
 30
0.0
 40
3.0
100
AcDbArc
 50
90.00005499999994
 51
149.9999949999998
  0
LINE
  5
A913
330
A85F
100
AcDbEntity
  8
1
  6
Continuous
100
AcDbLine
 10
216.220223
 20
88.87160899999996
 30
0.0
 11
216.220223
 21
89.87160899999997
 31
0.0
  0
LINE
  5
A914
330
A85F
100
AcDbEntity
  8
1
  6
Continuous
100
AcDbLine
 10
224.220223
 20
88.87160899999996
 30
0.0
 11
224.220223
 21
89.87160899999997
 31
0.0
  0
ARC
  5
A915
330
A85F
100
AcDbEntity
  8
1
  6
Continuous
100
AcDbCircle
 10
215.970223
 20
93.371589
 30
0.0
 40
2.0
100
AcDbArc
 50
90.0
 51
179.999982
  0
ARC
  5
A916
330
A85F
100
AcDbEntity
  8
1
  6
Continuous
100
AcDbCircle
 10
224.470223
 20
93.371589
 30
0.0
 40
2.0
100
AcDbArc
 50
0.00002
 51
90.0
  0
LINE
  5
A917
330
A85F
100
AcDbEntity
  8
1
  6
Continuous
100
AcDbLine
 10
226.470223
 20
92.17160900000001
 30
0.0
 11
226.470223
 21
93.371589
 31
0.0
  0
LINE
  5
A918
330
A85F
100
AcDbEntity
  8
1
  6
Continuous
100
AcDbLine
 10
213.970223
 20
92.17160900000001
 30
0.0
 11
213.970223
 21
93.371589
 31
0.0
  0
LINE
  5
A919
330
A85F
100
AcDbEntity
  8
1
  6
Continuous
100
AcDbLine
 10
215.970223
 20
95.37158899999999
 30
0.0
 11
224.470223
 21
95.37158899999999
 31
0.0
  0
ARC
  5
A91A
330
A85F
100
AcDbEntity
  8
1
  6
Continuous
100
AcDbCircle
 10
232.7621849999999
 20
85.87160899999998
 30
0.0
 40
3.0
100
AcDbArc
 50
30.00001
 51
89.99995000000001
  0
ARC
  5
A91B
330
A85F
100
AcDbEntity
  8
1
  6
Continuous
100
AcDbCircle
 10
292.240733
 20
85.37160899999998
 30
0.0
 40
2.0
100
AcDbArc
 50
9.736489999999999
 51
89.99995000000001
  0
LINE
  5
A91C
330
A85F
100
AcDbEntity
  8
1
  6
Continuous
100
AcDbLine
 10
209.220223
 20
92.17160900000001
 30
0.0
 11
209.220223
 21
89.87160899999997
 31
0.0
  0
LINE
  5
A91D
330
A85F
100
AcDbEntity
  8
1
  6
Continuous
100
AcDbLine
 10
209.220223
 20
57.87160899999999
 30
0.0
 11
209.220223
 21
55.57161899999999
 31
0.0
  0
LINE
  5
A91E
330
A85F
100
AcDbEntity
  8
4
  6
CENTER
100
AcDbLine
 10
220.2202229999999
 20
505.3297524749825
 30
0.0
 11
220.2202229999999
 21
442.5297786266504
 31
0.0
  0
LINE
  5
A91F
330
A85F
100
AcDbEntity
  8
1
  6
Continuous
100
AcDbLine
 10
212.651483
 20
458.496871
 30
0.0
 11
148.199708
 21
458.496871
 31
0.0
  0
LINE
  5
A920
330
A85F
100
AcDbEntity
  8
1
  6
Continuous
100
AcDbLine
 10
212.6514809999999
 20
485.496871
 30
0.0
 11
148.199708
 21
485.496871
 31
0.0
  0
ARC
  5
A921
330
A85F
100
AcDbEntity
  8
1
  6
Continuous
100
AcDbCircle
 10
215.2202229999998
 20
471.9968709999998
 30
0.0
 40
70.0
100
AcDbArc
 50
170.26348
 51
189.7365939999999
  0
ARC
  5
A922
330
A85F
100
AcDbEntity
  8
1
  6
Continuous
100
AcDbCircle
 10
148.199708
 20
460.496871
 30
0.0
 40
2.0
100
AcDbArc
 50
189.73656
 51
270.00002
  0
ARC
  5
A923
330
A85F
100
AcDbEntity
  8
1
  6
Continuous
100
AcDbCircle
 10
148.199708
 20
483.496871
 30
0.0
 40
2.0
100
AcDbArc
 50
90.00005499999994
 51
170.2635129999999
  0
ARC
  5
A924
330
A85F
100
AcDbEntity
  8
1
  6
Continuous
100
AcDbCircle
 10
275.6035719999999
 20
471.9968759999998
 30
0.0
 40
64.383349
100
AcDbArc
 50
163.454027
 51
196.4802689999999
  0
ARC
  5
A925
330
A85F
100
AcDbEntity
  8
1
  6
Continuous
100
AcDbCircle
 10
129.7535629999997
 20
471.9968709999998
 30
0.0
 40
85.0
100
AcDbArc
 50
349.1501839999998
 51
349.159218
  0
ARC
  5
A926
330
A85F
100
AcDbEntity
  8
1
  6
Continuous
100
AcDbCircle
 10
129.7535629999997
 20
471.9968709999998
 30
0.0
 40
85.0
100
AcDbArc
 50
10.84078599999999
 51
10.849816
  0
LINE
  5
A927
330
A85F
100
AcDbEntity
  8
1
  6
Continuous
100
AcDbLine
 10
549.849383
 20
240.121606
 30
0.0
 11
544.220223
 21
243.3716029999999
 31
0.0
  0
LINE
  5
A928
330
A85F
100
AcDbEntity
  8
1
  6
Continuous
100
AcDbLine
 10
544.220223
 20
243.3716029999999
 30
0.0
 11
538.5910619999998
 21
240.121606
 31
0.0
  0
LINE
  5
A929
330
A85F
100
AcDbEntity
  8
1
  6
Continuous
100
AcDbLine
 10
544.220223
 20
230.371614
 30
0.0
 11
549.849383
 21
233.6216109999998
 31
0.0
  0
LINE
  5
A92A
330
A85F
100
AcDbEntity
  8
1
  6
Continuous
100
AcDbLine
 10
538.5910619999998
 20
233.6216109999998
 30
0.0
 11
544.220223
 21
230.371614
 31
0.0
  0
CIRCLE
  5
A92B
330
A85F
100
AcDbEntity
  8
2
  6
Continuous
100
AcDbCircle
 10
544.220223
 20
236.8716089999999
 30
0.0
 40
3.3235
  0
CIRCLE
  5
A92C
330
A85F
100
AcDbEntity
  8
1
  6
Continuous
100
AcDbCircle
 10
544.220223
 20
236.8716089999999
 30
0.0
 40
4.0
  0
LINE
  5
A92D
330
A85F
100
AcDbEntity
  8
1
  6
Continuous
100
AcDbLine
 10
549.849383
 20
233.6216109999998
 30
0.0
 11
549.849383
 21
240.121606
 31
0.0
  0
LINE
  5
A92E
330
A85F
100
AcDbEntity
  8
1
  6
Continuous
100
AcDbLine
 10
538.5910619999998
 20
240.121606
 30
0.0
 11
538.5910619999998
 21
233.6216109999998
 31
0.0
  0
LINE
  5
A92F
330
A85F
100
AcDbEntity
  8
4
  6
CENTER
100
AcDbLine
 10
381.220223
 20
386.8716129999999
 30
0.0
 11
381.220223
 21
156.871609
 31
0.0
  0
LINE
  5
A930
330
A85F
100
AcDbEntity
  8
1
  6
Continuous
100
AcDbLine
 10
367.7202229999999
 20
164.851099
 30
0.0
 11
367.7202229999999
 21
308.892124
 31
0.0
  0
LINE
  5
A931
330
A85F
100
AcDbEntity
  8
1
  6
Continuous
100
AcDbLine
 10
394.7202229999999
 20
164.851099
 30
0.0
 11
394.7202229999999
 21
308.892124
 31
0.0
  0
ARC
  5
A932
330
A85F
100
AcDbEntity
  8
1
  6
Continuous
100
AcDbCircle
 10
381.220223
 20
231.8716089999998
 30
0.0
 40
70.0
100
AcDbArc
 50
260.2634799999999
 51
279.7365899999999
  0
ARC
  5
A933
330
A85F
100
AcDbEntity
  8
1
  6
Continuous
100
AcDbCircle
 10
392.7202229999999
 20
164.851099
 30
0.0
 40
2.0
100
AcDbArc
 50
279.7365699999999
 51
0.00002
  0
ARC
  5
A934
330
A85F
100
AcDbEntity
  8
1
  6
Continuous
100
AcDbCircle
 10
369.7202229999998
 20
164.851099
 30
0.0
 40
2.0
100
AcDbArc
 50
180.0000499999999
 51
260.26351
  0
LINE
  5
A935
330
A85F
100
AcDbEntity
  8
1
  6
Continuous
100
AcDbLine
 10
365.2202229999998
 20
318.0782109999999
 30
0.0
 11
365.2202229999998
 21
225.8716089999999
 31
0.0
  0
LINE
  5
A936
330
A85F
100
AcDbEntity
  8
1
  6
Continuous
100
AcDbLine
 10
397.2202229999999
 20
318.0782109999999
 30
0.0
 11
397.2202229999999
 21
225.8716089999999
 31
0.0
  0
LINE
  5
A937
330
A85F
100
AcDbEntity
  8
1
  6
Continuous
100
AcDbLine
 10
399.520213
 20
262.4312629999999
 30
0.0
 11
399.520213
 21
225.8716089999999
 31
0.0
  0
LINE
  5
A938
330
A85F
100
AcDbEntity
  8
1
  6
Continuous
100
AcDbLine
 10
362.920223
 20
262.431288
 30
0.0
 11
362.920223
 21
225.8716089999999
 31
0.0
  0
LINE
  5
A939
330
A85F
100
AcDbEntity
  8
4
  6
CENTER
100
AcDbLine
 10
411.520213
 20
236.8716089999999
 30
0.0
 11
354.720243
 21
236.8716089999999
 31
0.0
  0
LINE
  5
A93A
330
A85F
100
AcDbEntity
  8
1
  6
Continuous
100
AcDbLine
 10
396.2202229999999
 20
224.329647
 30
0.0
 11
396.2202229999999
 21
249.413571
 31
0.0
  0
ARC
  5
A93B
330
A85F
100
AcDbEntity
  8
1
  6
Continuous
100
AcDbCircle
 10
411.520213
 20
236.8716089999999
 30
0.0
 40
12.0
100
AcDbArc
 50
164.286139
 51
195.71386
  0
LINE
  5
A93C
330
A85F
100
AcDbEntity
  8
1
  6
Continuous
100
AcDbLine
 10
404.5202129999998
 20
241.973622
 30
0.0
 11
404.5202129999998
 21
231.7695959999999
 31
0.0
  0
ARC
  5
A93D
330
A85F
100
AcDbEntity
  8
1
  6
Continuous
100
AcDbCircle
 10
391.520213
 20
236.8716089999999
 30
0.0
 40
12.0
100
AcDbArc
 50
344.28617
 51
15.71384
  0
ARC
  5
A93E
330
A85F
100
AcDbEntity
  8
1
  6
Continuous
100
AcDbCircle
 10
393.2202229999999
 20
224.329647
 30
0.0
 40
3.0
100
AcDbArc
 50
300.00002
 51
0.00002
  0
LINE
  5
A93F
330
A85F
100
AcDbEntity
  8
1
  6
Continuous
100
AcDbLine
 10
399.520213
 20
225.8716089999999
 30
0.0
 11
397.2202229999999
 21
225.8716089999999
 31
0.0
  0
LINE
  5
A940
330
A85F
100
AcDbEntity
  8
1
  6
Continuous
100
AcDbLine
 10
403.045263
 20
233.6216089999997
 30
0.0
 11
399.9951529999998
 21
233.6216089999997
 31
0.0
  0
LINE
  5
A941
330
A85F
100
AcDbEntity
  8
1
  6
Continuous
100
AcDbLine
 10
403.1222129999998
 20
230.3716089999999
 30
0.0
 11
399.918203
 21
230.3716089999999
 31
0.0
  0
ARC
  5
A942
330
A85F
100
AcDbEntity
  8
1
  6
Continuous
100
AcDbCircle
 10
402.7702129999998
 20
231.9299809999999
 30
0.0
 40
3.25
100
AcDbArc
 50
148.634207
 51
208.6527699999999
  0
LINE
  5
A943
330
A85F
100
AcDbEntity
  8
1
  6
Continuous
100
AcDbLine
 10
403.1221829999998
 20
230.3716169999999
 30
0.0
 11
404.5201829999998
 21
231.769608
 31
0.0
  0
ARC
  5
A944
330
A85F
100
AcDbEntity
  8
1
  6
Continuous
100
AcDbCircle
 10
400.270213
 20
231.9299809999999
 30
0.0
 40
3.25
100
AcDbArc
 50
331.3472699999998
 51
31.36577
  0
LINE
  5
A945
330
A85F
100
AcDbEntity
  8
1
  6
Continuous
100
AcDbLine
 10
397.2202229999999
 20
232.8716089999999
 30
0.0
 11
396.2202229999999
 21
232.8716089999999
 31
0.0
  0
ARC
  5
A946
330
A85F
100
AcDbEntity
  8
1
  6
Continuous
100
AcDbCircle
 10
393.2202229999999
 20
249.413571
 30
0.0
 40
3.0
100
AcDbArc
 50
359.9999799999998
 51
59.99998000000001
  0
LINE
  5
A947
330
A85F
100
AcDbEntity
  8
1
  6
Continuous
100
AcDbLine
 10
403.071723
 20
240.1216089999997
 30
0.0
 11
399.9686929999999
 21
240.1216089999997
 31
0.0
  0
LINE
  5
A948
330
A85F
100
AcDbEntity
  8
1
  6
Continuous
100
AcDbLine
 10
403.1222129999998
 20
243.3716089999998
 30
0.0
 11
399.918203
 21
243.3716089999998
 31
0.0
  0
ARC
  5
A949
330
A85F
100
AcDbEntity
  8
1
  6
Continuous
100
AcDbCircle
 10
402.7702129999998
 20
241.8132369999999
 30
0.0
 40
3.25
100
AcDbArc
 50
151.3472329999999
 51
211.3658
  0
LINE
  5
A94A
330
A85F
100
AcDbEntity
  8
1
  6
Continuous
100
AcDbLine
 10
404.5201829999998
 20
241.97361
 30
0.0
 11
403.1222029999998
 21
243.371598
 31
0.0
  0
ARC
  5
A94B
330
A85F
100
AcDbEntity
  8
1
  6
Continuous
100
AcDbCircle
 10
400.270213
 20
241.8132369999999
 30
0.0
 40
3.25
100
AcDbArc
 50
328.6342499999999
 51
28.65275
  0
LINE
  5
A94C
330
A85F
100
AcDbEntity
  8
1
  6
Continuous
100
AcDbLine
 10
397.2202229999999
 20
240.8716089999999
 30
0.0
 11
396.2202229999999
 21
240.8716089999999
 31
0.0
  0
LINE
  5
A94D
330
A85F
100
AcDbEntity
  8
1
  6
Continuous
100
AcDbLine
 10
359.7202429999999
 20
241.1216089999999
 30
0.0
 11
359.7202429999999
 21
232.6216089999999
 31
0.0
  0
LINE
  5
A94E
330
A85F
100
AcDbEntity
  8
1
  6
Continuous
100
AcDbLine
 10
366.2202229999999
 20
224.329647
 30
0.0
 11
366.2202229999999
 21
249.413571
 31
0.0
  0
LINE
  5
A94F
330
A85F
100
AcDbEntity
  8
1
  6
Continuous
100
AcDbLine
 10
362.920223
 20
230.6216089999999
 30
0.0
 11
361.7202429999999
 21
230.6216089999999
 31
0.0
  0
ARC
  5
A950
330
A85F
100
AcDbEntity
  8
1
  6
Continuous
100
AcDbCircle
 10
361.7202429999999
 20
232.6216089999999
 30
0.0
 40
2.0
100
AcDbArc
 50
180.0
 51
269.99998
  0
ARC
  5
A951
330
A85F
100
AcDbEntity
  8
1
  6
Continuous
100
AcDbCircle
 10
369.2202229999999
 20
224.329647
 30
0.0
 40
3.0
100
AcDbArc
 50
180.0000499999999
 51
239.99999
  0
LINE
  5
A952
330
A85F
100
AcDbEntity
  8
1
  6
Continuous
100
AcDbLine
 10
366.2202229999999
 20
232.8716089999999
 30
0.0
 11
365.2202229999998
 21
232.8716089999999
 31
0.0
  0
LINE
  5
A953
330
A85F
100
AcDbEntity
  8
1
  6
Continuous
100
AcDbLine
 10
362.920223
 20
225.8716089999999
 30
0.0
 11
365.2202229999998
 21
225.8716089999999
 31
0.0
  0
LINE
  5
A954
330
A85F
100
AcDbEntity
  8
1
  6
Continuous
100
AcDbLine
 10
362.920223
 20
243.1216089999999
 30
0.0
 11
361.7202429999999
 21
243.1216089999999
 31
0.0
  0
ARC
  5
A955
330
A85F
100
AcDbEntity
  8
1
  6
Continuous
100
AcDbCircle
 10
361.7202429999999
 20
241.1216089999999
 30
0.0
 40
2.0
100
AcDbArc
 50
90.00001800000005
 51
180.0
  0
LINE
  5
A956
330
A85F
100
AcDbEntity
  8
1
  6
Continuous
100
AcDbLine
 10
366.2202229999999
 20
240.8716089999999
 30
0.0
 11
365.2202229999998
 21
240.8716089999999
 31
0.0
  0
ARC
  5
A957
330
A85F
100
AcDbEntity
  8
1
  6
Continuous
100
AcDbCircle
 10
369.2202229999999
 20
249.413571
 30
0.0
 40
3.0
100
AcDbArc
 50
120.000005
 51
179.999945
  0
ARC
  5
A958
330
A85F
100
AcDbEntity
  8
1
  6
Continuous
100
AcDbCircle
 10
381.220223
 20
241.8716089999997
 30
0.0
 40
70.0
100
AcDbArc
 50
80.26340600000002
 51
99.73652000000001
  0
LINE
  5
A959
330
A85F
100
AcDbEntity
  8
1
  6
Continuous
100
AcDbLine
 10
401.2202229999998
 20
329.9716
 30
0.0
 11
361.2202229999998
 21
329.9716
 31
0.0
  0
ARC
  5
A95A
330
A85F
100
AcDbEntity
  8
1
  6
Continuous
100
AcDbCircle
 10
401.2202229999998
 20
324.9716
 30
0.0
 40
5.0
100
AcDbArc
 50
0.00004
 51
90.00001800000005
  0
LINE
  5
A95B
330
A85F
100
AcDbEntity
  8
1
  6
Continuous
100
AcDbLine
 10
406.2202229999998
 20
324.9716
 30
0.0
 11
406.2202229999998
 21
297.3982689999999
 31
0.0
  0
ARC
  5
A95C
330
A85F
100
AcDbEntity
  8
1
  6
Continuous
100
AcDbCircle
 10
392.7202229999999
 20
308.892124
 30
0.0
 40
2.0
100
AcDbArc
 50
359.9999799999998
 51
80.26343999999998
  0
ARC
  5
A95D
330
A85F
100
AcDbEntity
  8
1
  6
Continuous
100
AcDbCircle
 10
391.661383
 20
331.449612
 30
0.0
 40
2.778
100
AcDbArc
 50
327.85649
 51
350.0919
  0
ARC
  5
A95E
330
A85F
100
AcDbEntity
  8
1
  6
Continuous
100
AcDbCircle
 10
399.020243
 20
331.449612
 30
0.0
 40
2.778
100
AcDbArc
 50
327.85649
 51
350.0919
  0
ARC
  5
A95F
330
A85F
100
AcDbEntity
  8
1
  6
Continuous
100
AcDbCircle
 10
395.5973629999999
 20
331.449612
 30
0.0
 40
2.778
100
AcDbArc
 50
327.85649
 51
350.0919
  0
ARC
  5
A960
330
A85F
100
AcDbEntity
  8
1
  6
Continuous
100
AcDbCircle
 10
398.1326029999999
 20
331.449612
 30
0.0
 40
2.778
100
AcDbArc
 50
327.85649
 51
350.0919
  0
ARC
  5
A961
330
A85F
100
AcDbEntity
  8
1
  6
Continuous
100
AcDbCircle
 10
381.2202429999999
 20
331.449612
 30
0.0
 40
2.778
100
AcDbArc
 50
189.90807
 51
212.14352
  0
ARC
  5
A962
330
A85F
100
AcDbEntity
  8
1
  6
Continuous
100
AcDbCircle
 10
375.732323
 20
331.449612
 30
0.0
 40
2.778
100
AcDbArc
 50
327.85649
 51
350.0919599999999
  0
ARC
  5
A963
330
A85F
100
AcDbEntity
  8
1
  6
Continuous
100
AcDbCircle
 10
381.2202429999999
 20
331.449612
 30
0.0
 40
2.778
100
AcDbArc
 50
327.85649
 51
350.0919
  0
ARC
  5
A964
330
A85F
100
AcDbEntity
  8
1
  6
Continuous
100
AcDbCircle
 10
386.708153
 20
331.449612
 30
0.0
 40
2.778
100
AcDbArc
 50
189.9080099999999
 51
212.14352
  0
ARC
  5
A965
330
A85F
100
AcDbEntity
  8
1
  6
Continuous
100
AcDbCircle
 10
386.708153
 20
331.449612
 30
0.0
 40
2.778
100
AcDbArc
 50
327.85649
 51
350.0919
  0
ARC
  5
A966
330
A85F
100
AcDbEntity
  8
1
  6
Continuous
100
AcDbCircle
 10
391.661383
 20
331.449612
 30
0.0
 40
2.778
100
AcDbArc
 50
206.93616
 51
212.14352
  0
ARC
  5
A967
330
A85F
100
AcDbEntity
  8
1
  6
Continuous
100
AcDbCircle
 10
361.2202229999998
 20
324.9716
 30
0.0
 40
5.0
100
AcDbArc
 50
90.00001800000005
 51
180.0
  0
ARC
  5
A968
330
A85F
100
AcDbEntity
  8
1
  6
Continuous
100
AcDbCircle
 10
369.7202229999998
 20
308.892124
 30
0.0
 40
2.0
100
AcDbArc
 50
99.736487
 51
179.999945
  0
ARC
  5
A969
330
A85F
100
AcDbEntity
  8
1
  6
Continuous
100
AcDbCircle
 10
363.4202329999998
 20
331.449612
 30
0.0
 40
2.778
100
AcDbArc
 50
189.90807
 51
212.19887
  0
ARC
  5
A96A
330
A85F
100
AcDbEntity
  8
1
  6
Continuous
100
AcDbCircle
 10
366.843113
 20
331.449612
 30
0.0
 40
2.778
100
AcDbArc
 50
189.90807
 51
212.14352
  0
ARC
  5
A96B
330
A85F
100
AcDbEntity
  8
1
  6
Continuous
100
AcDbCircle
 10
364.3078729999999
 20
331.449612
 30
0.0
 40
2.778
100
AcDbArc
 50
189.90807
 51
212.14352
  0
ARC
  5
A96C
330
A85F
100
AcDbEntity
  8
1
  6
Continuous
100
AcDbCircle
 10
370.7790929999999
 20
331.449612
 30
0.0
 40
2.778
100
AcDbArc
 50
189.90807
 51
212.14352
  0
ARC
  5
A96D
330
A85F
100
AcDbEntity
  8
1
  6
Continuous
100
AcDbCircle
 10
375.732323
 20
331.449612
 30
0.0
 40
2.778
100
AcDbArc
 50
189.90807
 51
212.14352
  0
ARC
  5
A96E
330
A85F
100
AcDbEntity
  8
1
  6
Continuous
100
AcDbCircle
 10
370.7790929999999
 20
331.449612
 30
0.0
 40
2.778
100
AcDbArc
 50
327.85649
 51
333.0638
  0
ARC
  5
A96F
330
A85F
100
AcDbEntity
  8
1
  6
Continuous
100
AcDbCircle
 10
381.220223
 20
446.7065569999999
 30
0.0
 40
128.4999999999998
100
AcDbArc
 50
263.3484899999999
 51
276.65153
  0
ARC
  5
A970
330
A85F
100
AcDbEntity
  8
1
  6
Continuous
100
AcDbCircle
 10
381.220223
 20
448.9715969999998
 30
0.0
 40
128.4999999999998
100
AcDbArc
 50
264.460965
 51
275.539035
  0
LINE
  5
A971
330
A85F
100
AcDbEntity
  8
1
  6
Continuous
100
AcDbLine
 10
360.821329
 20
321.0716059999998
 30
0.0
 11
401.6191169999998
 21
321.0716059999998
 31
0.0
  0
ARC
  5
A972
330
A85F
100
AcDbEntity
  8
1
  6
Continuous
100
AcDbCircle
 10
366.2202229999999
 20
318.0782109999999
 30
0.0
 40
1.0
100
AcDbArc
 50
83.34851999999996
 51
180.0
  0
ARC
  5
A973
330
A85F
100
AcDbEntity
  8
1
  6
Continuous
100
AcDbCircle
 10
396.2202229999999
 20
318.0782109999999
 30
0.0
 40
1.0
100
AcDbArc
 50
0.00004
 51
96.65146100000001
  0
LINE
  5
A974
330
A85F
100
AcDbEntity
  8
1
  6
Continuous
100
AcDbLine
 10
356.220223
 20
324.9716
 30
0.0
 11
356.220223
 21
297.3982689999999
 31
0.0
  0
ARC
  5
A975
330
A85F
100
AcDbEntity
  8
1
  6
Continuous
100
AcDbCircle
 10
217.2202229999999
 20
57.41321899999999
 30
0.0
 40
6.841600999999998
100
AcDbArc
 50
243.992176
 51
296.0078240000001
  0
LINE
  5
A976
330
A85F
100
AcDbEntity
  8
1
  6
Continuous
100
AcDbLine
 10
217.470223
 20
50.571619
 30
0.0
 11
222.970223
 21
50.571619
 31
0.0
  0
ARC
  5
A977
330
A85F
100
AcDbEntity
  8
1
  6
Continuous
100
AcDbCircle
 10
217.2202229999999
 20
48.730018
 30
0.0
 40
6.841600999999998
100
AcDbArc
 50
63.992176
 51
116.007824
  0
LINE
  5
A978
330
A85F
100
AcDbEntity
  8
1
  6
Continuous
100
AcDbLine
 10
214.220223
 20
54.87879799999999
 30
0.0
 11
214.220223
 21
51.264439
 31
0.0
  0
LINE
  5
A979
330
A85F
100
AcDbEntity
  8
1
  6
Continuous
100
AcDbLine
 10
220.220223
 20
55.57161899999999
 30
0.0
 11
220.220223
 21
51.264439
 31
0.0
  0
LINE
  5
A97A
330
A85F
100
AcDbEntity
  8
1
  6
Continuous
100
AcDbLine
 10
226.220223
 20
54.87879799999999
 30
0.0
 11
226.220223
 21
51.264439
 31
0.0
  0
ARC
  5
A97B
330
A85F
100
AcDbEntity
  8
1
  6
Continuous
100
AcDbCircle
 10
223.2202229999999
 20
57.41321899999999
 30
0.0
 40
6.841600999999998
100
AcDbArc
 50
243.992176
 51
296.0078240000001
  0
ARC
  5
A97C
330
A85F
100
AcDbEntity
  8
1
  6
Continuous
100
AcDbCircle
 10
223.2202229999999
 20
48.730018
 30
0.0
 40
6.841600999999998
100
AcDbArc
 50
63.992176
 51
116.007824
  0
ARC
  5
A97D
330
A85F
100
AcDbEntity
  8
1
  6
Continuous
100
AcDbCircle
 10
544.220223
 20
236.8716089999999
 30
0.0
 40
75.0
100
AcDbArc
 50
124.603905
 51
86.920777
  0
ARC
  5
A97E
330
A85F
100
AcDbEntity
  8
1
  6
Continuous
100
AcDbCircle
 10
544.220223
 20
236.8716089999999
 30
0.0
 40
54.5
100
AcDbArc
 50
127.8143669999999
 51
83.71030899999999
  0
ARC
  5
A97F
330
A85F
100
AcDbEntity
  8
1
  6
Continuous
100
AcDbCircle
 10
544.220223
 20
236.8716089999999
 30
0.0
 40
44.0
100
AcDbArc
 50
130.647611
 51
80.87707100000001
  0
ARC
  5
A980
330
A85F
100
AcDbEntity
  8
1
  6
Continuous
100
AcDbCircle
 10
544.220223
 20
236.8716089999999
 30
0.0
 40
50.0
100
AcDbArc
 50
128.8791389999997
 51
82.64554999999999
  0
LINE
  5
A981
330
A85F
100
AcDbEntity
  8
1
  6
Continuous
100
AcDbLine
 10
534.3478479999999
 20
232.020195
 30
0.0
 11
494.7070619999998
 21
312.6871679999998
 31
0.0
  0
LINE
  5
A982
330
A85F
100
AcDbEntity
  8
1
  6
Continuous
100
AcDbLine
 10
523.220223
 20
329.971604
 30
0.0
 11
482.220223
 21
329.971604
 31
0.0
  0
LINE
  5
A983
330
A85F
100
AcDbEntity
  8
4
  6
CENTER
100
AcDbLine
 10
544.220223
 20
314.2043569999998
 30
0.0
 11
544.220223
 21
153.871609
 31
0.0
  0
ARC
  5
A984
330
A85F
100
AcDbEntity
  8
1
  6
Continuous
100
AcDbCircle
 10
544.220223
 20
236.8716089999999
 30
0.0
 40
31.0
100
AcDbArc
 50
136.953652
 51
74.57101999999998
  0
LINE
  5
A985
330
A85F
100
AcDbEntity
  8
1
  6
Continuous
100
AcDbLine
 10
555.1722219999998
 20
237.898114
 30
0.0
 11
547.6415019999998
 21
318.2445259999998
 31
0.0
  0
LINE
  5
A986
330
A85F
100
AcDbEntity
  8
1
  6
Continuous
100
AcDbLine
 10
523.220223
 20
320.771611
 30
0.0
 11
523.220223
 21
259.6821409999999
 31
0.0
  0
ARC
  5
A987
330
A85F
100
AcDbEntity
  8
1
  6
Continuous
100
AcDbCircle
 10
544.220223
 20
236.8716089999999
 30
0.0
 40
11.0
100
AcDbArc
 50
209.31727
 51
5.35458
  0
ARC
  5
A988
330
A85F
100
AcDbEntity
  8
1
  6
Continuous
100
AcDbCircle
 10
544.220223
 20
236.8716089999999
 30
0.0
 40
16.0
100
AcDbArc
 50
159.602641
 51
51.92204000000001
  0
LINE
  5
A989
330
A85F
100
AcDbEntity
  8
1
  6
Continuous
100
AcDbLine
 10
553.2202279999998
 20
320.4716069999999
 30
0.0
 11
524.378703
 21
325.557144
 31
0.0
  0
ARC
  5
A98A
330
A85F
100
AcDbEntity
  8
1
  6
Continuous
100
AcDbCircle
 10
550.130593
 20
318.4778249999999
 30
0.0
 40
2.5
100
AcDbArc
 50
79.99997999999997
 51
185.3545799999999
  0
ARC
  5
A98B
330
A85F
100
AcDbEntity
  8
1
  6
Continuous
100
AcDbCircle
 10
548.6656729999999
 20
317.923786
 30
0.0
 40
1.0
100
AcDbArc
 50
79.99998999999998
 51
183.9999999999998
  0
LINE
  5
A98C
330
A85F
100
AcDbEntity
  8
1
  6
Continuous
100
AcDbLine
 10
553.220219
 20
320.4716069999999
 30
0.0
 11
552.820828
 21
318.206551
 31
0.0
  0
LINE
  5
A98D
330
A85F
100
AcDbEntity
  8
1
  6
Continuous
100
AcDbLine
 10
552.820822
 20
318.2065469999999
 30
0.0
 11
548.8393049999998
 21
318.9085959999998
 31
0.0
  0
ARC
  5
A98E
330
A85F
100
AcDbEntity
  8
1
  6
Continuous
100
AcDbCircle
 10
519.132607
 20
331.449612
 30
0.0
 40
2.778
100
AcDbArc
 50
327.85663
 51
350.0919
  0
ARC
  5
A98F
330
A85F
100
AcDbEntity
  8
1
  6
Continuous
100
AcDbCircle
 10
512.6613929999998
 20
331.449612
 30
0.0
 40
2.778
100
AcDbArc
 50
327.8566
 51
350.0919
  0
ARC
  5
A990
330
A85F
100
AcDbEntity
  8
1
  6
Continuous
100
AcDbCircle
 10
516.5973669999998
 20
331.449612
 30
0.0
 40
2.778
100
AcDbArc
 50
327.8566
 51
350.0919
  0
ARC
  5
A991
330
A85F
100
AcDbEntity
  8
1
  6
Continuous
100
AcDbCircle
 10
507.708153
 20
331.449612
 30
0.0
 40
2.778
100
AcDbArc
 50
327.8566
 51
350.0919
  0
ARC
  5
A992
330
A85F
100
AcDbEntity
  8
1
  6
Continuous
100
AcDbCircle
 10
520.020249
 20
331.449612
 30
0.0
 40
2.778
100
AcDbArc
 50
327.85663
 51
350.0919
  0
ARC
  5
A993
330
A85F
100
AcDbEntity
  8
1
  6
Continuous
100
AcDbCircle
 10
522.220223
 20
324.971604
 30
0.0
 40
5.0
100
AcDbArc
 50
0.0
 51
90.0
  0
LINE
  5
A994
330
A85F
100
AcDbEntity
  8
4
  6
CENTER
100
AcDbLine
 10
502.2202229999998
 20
386.8716129999999
 30
0.0
 11
502.2202229999998
 21
283.6049389999999
 31
0.0
  0
ARC
  5
A995
330
A85F
100
AcDbEntity
  8
1
  6
Continuous
100
AcDbCircle
 10
491.779084
 20
331.449612
 30
0.0
 40
2.778
100
AcDbArc
 50
189.90807
 51
212.1434199999999
  0
ARC
  5
A996
330
A85F
100
AcDbEntity
  8
1
  6
Continuous
100
AcDbCircle
 10
487.8431099999998
 20
331.449612
 30
0.0
 40
2.778
100
AcDbArc
 50
189.90807
 51
212.1433699999999
  0
ARC
  5
A997
330
A85F
100
AcDbEntity
  8
1
  6
Continuous
100
AcDbCircle
 10
485.307869
 20
331.449612
 30
0.0
 40
2.778
100
AcDbArc
 50
189.90807
 51
212.1433699999999
  0
ARC
  5
A998
330
A85F
100
AcDbEntity
  8
1
  6
Continuous
100
AcDbCircle
 10
484.420228
 20
331.449612
 30
0.0
 40
2.778
100
AcDbArc
 50
189.90807
 51
212.1433699999999
  0
ARC
  5
A999
330
A85F
100
AcDbEntity
  8
1
  6
Continuous
100
AcDbCircle
 10
507.708153
 20
331.449612
 30
0.0
 40
2.778
100
AcDbArc
 50
189.9080099999999
 51
212.1434199999999
  0
ARC
  5
A99A
330
A85F
100
AcDbEntity
  8
1
  6
Continuous
100
AcDbCircle
 10
502.220238
 20
331.449612
 30
0.0
 40
2.778
100
AcDbArc
 50
327.8566
 51
350.0919
  0
ARC
  5
A99B
330
A85F
100
AcDbEntity
  8
1
  6
Continuous
100
AcDbCircle
 10
496.7323229999998
 20
331.449612
 30
0.0
 40
2.778
100
AcDbArc
 50
327.8566
 51
350.0919599999999
  0
ARC
  5
A99C
330
A85F
100
AcDbEntity
  8
1
  6
Continuous
100
AcDbCircle
 10
502.220238
 20
331.449612
 30
0.0
 40
2.778
100
AcDbArc
 50
189.90807
 51
212.1434199999999
  0
ARC
  5
A99D
330
A85F
100
AcDbEntity
  8
1
  6
Continuous
100
AcDbCircle
 10
496.7323229999998
 20
331.449612
 30
0.0
 40
2.778
100
AcDbArc
 50
189.90807
 51
212.1434199999999
  0
ARC
  5
A99E
330
A85F
100
AcDbEntity
  8
1
  6
Continuous
100
AcDbCircle
 10
482.220223
 20
324.971604
 30
0.0
 40
5.0
100
AcDbArc
 50
90.0
 51
180.0
  0
ARC
  5
A99F
330
A85F
100
AcDbEntity
  8
1
  6
Continuous
100
AcDbCircle
 10
481.244736
 20
306.0716080000001
 30
0.0
 40
15.0
100
AcDbArc
 50
26.17007
 51
90.00001800000005
  0
LINE
  5
A9A0
330
A85F
100
AcDbEntity
  8
1
  6
Continuous
100
AcDbLine
 10
481.244736
 20
321.0716059999998
 30
0.0
 11
477.2202229999998
 21
321.0716059999998
 31
0.0
  0
LINE
  5
A9A1
330
A85F
100
AcDbEntity
  8
1
  6
Continuous
100
AcDbLine
 10
477.2202229999998
 20
324.971604
 30
0.0
 11
477.2202229999998
 21
321.0716059999998
 31
0.0
  0
LINE
  5
A9A2
330
A85F
100
AcDbEntity
  8
4
  6
CENTER
100
AcDbLine
 10
627.220223
 20
236.8716089999999
 30
0.0
 11
461.220223
 21
236.8716089999999
 31
0.0
  0
LINE
  5
A9A3
330
A85F
100
AcDbEntity
  8
2
  6
Continuous
100
AcDbLine
 10
405.996713
 20
240.1951089999998
 30
0.0
 11
404.5202129999998
 21
240.1951089999998
 31
0.0
  0
LINE
  5
A9A4
330
A85F
100
AcDbEntity
  8
2
  6
Continuous
100
AcDbLine
 10
405.996713
 20
233.548109
 30
0.0
 11
404.5202129999998
 21
233.548109
 31
0.0
  0
LINE
  5
A9A5
330
A85F
100
AcDbEntity
  8
1
  6
Continuous
100
AcDbLine
 10
405.3202129999998
 20
232.8716089999999
 30
0.0
 11
404.5202129999998
 21
232.8716089999999
 31
0.0
  0
LINE
  5
A9A6
330
A85F
100
AcDbEntity
  8
1
  6
Continuous
100
AcDbLine
 10
405.3202129999998
 20
240.8716089999999
 30
0.0
 11
404.5202129999998
 21
240.8716089999999
 31
0.0
  0
LINE
  5
A9A7
330
A85F
100
AcDbEntity
  8
1
  6
Continuous
100
AcDbLine
 10
405.3202129999998
 20
240.8716089999999
 30
0.0
 11
405.3202129999998
 21
232.8716089999999
 31
0.0
  0
LINE
  5
A9A8
330
A85F
100
AcDbEntity
  8
1
  6
Continuous
100
AcDbLine
 10
406.520213
 20
239.6716089999999
 30
0.0
 11
406.520213
 21
234.0716089999999
 31
0.0
  0
LINE
  5
A9A9
330
A85F
100
AcDbEntity
  8
1
  6
Continuous
100
AcDbLine
 10
406.520213
 20
239.6716089999999
 30
0.0
 11
405.3202129999998
 21
240.8716089999999
 31
0.0
  0
LINE
  5
A9AA
330
A85F
100
AcDbEntity
  8
1
  6
Continuous
100
AcDbLine
 10
406.520213
 20
234.0716089999999
 30
0.0
 11
405.3202129999998
 21
232.8716089999999
 31
0.0
  0
LINE
  5
A9AB
330
A85F
100
AcDbEntity
  8
1
  6
Continuous
100
AcDbLine
 10
31.92023300000001
 20
234.0716089999999
 30
0.0
 11
31.92023300000001
 21
239.6716089999999
 31
0.0
  0
LINE
  5
A9AC
330
A85F
100
AcDbEntity
  8
1
  6
Continuous
100
AcDbLine
 10
33.12023299999999
 20
232.8716089999999
 30
0.0
 11
33.12023299999999
 21
240.8716089999999
 31
0.0
  0
LINE
  5
A9AD
330
A85F
100
AcDbEntity
  8
1
  6
Continuous
100
AcDbLine
 10
31.92023300000001
 20
234.0716089999999
 30
0.0
 11
33.12023299999999
 21
232.8716089999999
 31
0.0
  0
LINE
  5
A9AE
330
A85F
100
AcDbEntity
  8
2
  6
Continuous
100
AcDbLine
 10
32.443733
 20
233.548109
 30
0.0
 11
33.920233
 21
233.548109
 31
0.0
  0
LINE
  5
A9AF
330
A85F
100
AcDbEntity
  8
1
  6
Continuous
100
AcDbLine
 10
33.12023299999999
 20
232.8716089999999
 30
0.0
 11
33.920233
 21
232.8716089999999
 31
0.0
  0
LINE
  5
A9B0
330
A85F
100
AcDbEntity
  8
1
  6
Continuous
100
AcDbLine
 10
31.92023300000001
 20
239.6716089999999
 30
0.0
 11
33.12023299999999
 21
240.8716089999999
 31
0.0
  0
LINE
  5
A9B1
330
A85F
100
AcDbEntity
  8
2
  6
Continuous
100
AcDbLine
 10
32.443733
 20
240.1951089999998
 30
0.0
 11
33.920233
 21
240.1951089999998
 31
0.0
  0
LINE
  5
A9B2
330
A85F
100
AcDbEntity
  8
1
  6
Continuous
100
AcDbLine
 10
33.12023299999999
 20
240.8716089999999
 30
0.0
 11
33.920233
 21
240.8716089999999
 31
0.0
  0
LINE
  5
A9B3
330
A85F
100
AcDbEntity
  8
1
  6
Continuous
100
AcDbLine
 10
223.0202229999999
 20
48.571619
 30
0.0
 11
217.420223
 21
48.571619
 31
0.0
  0
LINE
  5
A9B4
330
A85F
100
AcDbEntity
  8
1
  6
Continuous
100
AcDbLine
 10
224.220223
 20
49.771619
 30
0.0
 11
216.220223
 21
49.771619
 31
0.0
  0
LINE
  5
A9B5
330
A85F
100
AcDbEntity
  8
1
  6
Continuous
100
AcDbLine
 10
217.420223
 20
48.571619
 30
0.0
 11
216.220223
 21
49.771619
 31
0.0
  0
LINE
  5
A9B6
330
A85F
100
AcDbEntity
  8
2
  6
Continuous
100
AcDbLine
 10
216.896723
 20
49.095119
 30
0.0
 11
216.896723
 21
50.571619
 31
0.0
  0
LINE
  5
A9B7
330
A85F
100
AcDbEntity
  8
1
  6
Continuous
100
AcDbLine
 10
216.220223
 20
49.771619
 30
0.0
 11
216.220223
 21
50.571619
 31
0.0
  0
LINE
  5
A9B8
330
A85F
100
AcDbEntity
  8
1
  6
Continuous
100
AcDbLine
 10
223.0202229999999
 20
48.571619
 30
0.0
 11
224.220223
 21
49.771619
 31
0.0
  0
LINE
  5
A9B9
330
A85F
100
AcDbEntity
  8
2
  6
Continuous
100
AcDbLine
 10
223.543723
 20
49.095119
 30
0.0
 11
223.543723
 21
50.571619
 31
0.0
  0
LINE
  5
A9BA
330
A85F
100
AcDbEntity
  8
1
  6
Continuous
100
AcDbLine
 10
224.220223
 20
49.771619
 30
0.0
 11
224.220223
 21
50.571619
 31
0.0
  0
CIRCLE
  5
A9BB
330
A85F
100
AcDbEntity
  8
1
  6
Continuous
100
AcDbCircle
 10
544.220223
 20
236.8716089999999
 30
0.0
 40
2.799999999999998
  0
CIRCLE
  5
A9BC
330
A85F
100
AcDbEntity
  8
1
  6
Continuous
100
AcDbCircle
 10
544.220223
 20
236.8716089999999
 30
0.0
 40
5.102000999999997
  0
ARC
  5
A9BD
330
A85F
100
AcDbEntity
  8
1
  6
Continuous
100
AcDbCircle
 10
129.7535629999997
 20
471.9968709999998
 30
0.0
 40
85.0
100
AcDbArc
 50
10.840782
 51
10.849816
  0
ARC
  5
A9BE
330
A85F
100
AcDbEntity
  8
1
  6
Continuous
100
AcDbCircle
 10
129.7535629999997
 20
471.9968709999998
 30
0.0
 40
85.0
100
AcDbArc
 50
349.1501839999998
 51
349.159214
  0
ARC
  5
A9BF
330
A85F
100
AcDbEntity
  8
1
  6
Continuous
100
AcDbCircle
 10
449.815728
 20
297.3982689999999
 30
0.0
 40
93.595505
100
AcDbArc
 50
166.312859
 51
201.693872
  0
ARC
  5
A9C0
330
A85F
100
AcDbEntity
  8
1
  6
Continuous
100
AcDbCircle
 10
312.6247169999998
 20
297.3982689999999
 30
0.0
 40
93.595505
100
AcDbArc
 50
338.3061109999998
 51
13.687141
  0
ARC
  5
A9C1
330
A85F
100
AcDbEntity
  8
1
  6
Continuous
100
AcDbCircle
 10
312.6247169999998
 20
297.3982689999999
 30
0.0
 40
91.295505
100
AcDbArc
 50
338.306128
 51
15.028798
  0
ARC
  5
A9C2
330
A85F
100
AcDbEntity
  8
1
  6
Continuous
100
AcDbCircle
 10
449.815728
 20
297.3982689999999
 30
0.0
 40
91.295505
100
AcDbArc
 50
164.971202
 51
201.693872
  0
ARC
  5
A9C3
330
A85F
100
AcDbEntity
  8
1
  6
Continuous
100
AcDbCircle
 10
243.3228689999999
 20
97.17160900000001
 30
0.0
 40
5.0
100
AcDbArc
 50
270.0
 51
309.0436159999998
  0
ARC
  5
A9C4
330
A85F
100
AcDbEntity
  8
1
  6
Continuous
100
AcDbCircle
 10
243.3228689999999
 20
97.17160900000001
 30
0.0
 40
7.299999999999998
100
AcDbArc
 50
270.0
 51
309.0436159999998
  0
ARC
  5
A9C5
330
A85F
100
AcDbEntity
  8
1
  6
Continuous
100
AcDbCircle
 10
243.3228689999999
 20
50.571609
 30
0.0
 40
7.299999999999998
100
AcDbArc
 50
50.956384
 51
90.0
  0
ARC
  5
A9C6
330
A85F
100
AcDbEntity
  8
1
  6
Continuous
100
AcDbCircle
 10
243.3228559999998
 20
50.571619
 30
0.0
 40
5.0
100
AcDbArc
 50
50.956353
 51
90.0
  0
ARC
  5
A9C7
330
A85F
100
AcDbEntity
  8
1
  6
Continuous
100
AcDbCircle
 10
401.6191169999998
 20
319.0716059999998
 30
0.0
 40
2.0
100
AcDbArc
 50
13.687141
 51
90.0
  0
ARC
  5
A9C8
330
A85F
100
AcDbEntity
  8
1
  6
Continuous
100
AcDbCircle
 10
360.821329
 20
319.0716059999998
 30
0.0
 40
2.0
100
AcDbArc
 50
90.0
 51
166.312859
  0
ARC
  5
A9C9
330
A85F
100
AcDbEntity
  8
1
  6
Continuous
100
AcDbCircle
 10
361.920223
 20
262.431288
 30
0.0
 40
1.0
100
AcDbArc
 50
0.0
 51
21.693872
  0
ARC
  5
A9CA
330
A85F
100
AcDbEntity
  8
1
  6
Continuous
100
AcDbCircle
 10
400.5202129999998
 20
262.4312629999999
 30
0.0
 40
1.0
100
AcDbArc
 50
158.3061109999999
 51
180.0
  0
ARC
  5
A9CB
330
A85F
100
AcDbEntity
  8
1
  6
Continuous
100
AcDbCircle
 10
361.920223
 20
262.431288
 30
0.0
 40
3.299999999999998
100
AcDbArc
 50
0.0
 51
21.693872
  0
ARC
  5
A9CC
330
A85F
100
AcDbEntity
  8
1
  6
Continuous
100
AcDbCircle
 10
400.520223
 20
262.431288
 30
0.0
 40
3.299999999999998
100
AcDbArc
 50
158.306128
 51
180.0
  0
ARC
  5
A9CD
330
A85F
100
AcDbEntity
  8
1
  6
Continuous
100
AcDbCircle
 10
262.2202259999999
 20
472.013118
 30
0.0
 40
25.0
100
AcDbArc
 50
230.93368
 51
129.0209429999999
  0
ARC
  5
A9CE
330
A85F
100
AcDbEntity
  8
1
  6
Continuous
100
AcDbCircle
 10
207.6735129999999
 20
460.034731
 30
0.0
 40
3.0
100
AcDbArc
 50
209.9773009999999
 51
269.977241
  0
LINE
  5
A9CF
330
A85F
100
AcDbEntity
  8
1
  6
Continuous
100
AcDbLine
 10
223.030254
 20
497.3286389999998
 30
0.0
 11
224.229779
 21
496.128164
 31
0.0
  0
LINE
  5
A9D0
330
A85F
100
AcDbEntity
  8
1
  6
Continuous
100
AcDbLine
 10
224.229779
 20
496.128164
 30
0.0
 11
216.229779
 21
496.131334
 31
0.0
  0
ARC
  5
A9D1
330
A85F
100
AcDbEntity
  8
1
  6
Continuous
100
AcDbCircle
 10
223.2301919999999
 20
497.1701599999998
 30
0.0
 40
6.841600999999998
100
AcDbArc
 50
243.9694720000001
 51
295.98512
  0
ARC
  5
A9D2
330
A85F
100
AcDbEntity
  8
1
  6
Continuous
100
AcDbCircle
 10
223.2267509999998
 20
488.48696
 30
0.0
 40
6.841600999999998
100
AcDbArc
 50
63.969472
 51
115.98512
  0
LINE
  5
A9D3
330
A85F
100
AcDbEntity
  8
1
  6
Continuous
100
AcDbLine
 10
213.0005209999999
 20
487.032623
 30
0.0
 11
207.684212
 21
487.034729
 31
0.0
  0
LINE
  5
A9D4
330
A85F
100
AcDbEntity
  8
1
  6
Continuous
100
AcDbLine
 10
209.227482
 20
490.334108
 30
0.0
 11
243.330112
 21
490.320594
 31
0.0
  0
LINE
  5
A9D5
330
A85F
100
AcDbEntity
  8
1
  6
Continuous
100
AcDbLine
 10
209.22657
 20
488.034118
 30
0.0
 11
213.249152
 21
488.032524
 31
0.0
  0
ARC
  5
A9D6
330
A85F
100
AcDbEntity
  8
1
  6
Continuous
100
AcDbCircle
 10
207.683023
 20
484.034729
 30
0.0
 40
3.0
100
AcDbArc
 50
89.97727600000002
 51
149.9772759999999
  0
LINE
  5
A9D7
330
A85F
100
AcDbEntity
  8
1
  6
Continuous
100
AcDbLine
 10
216.229779
 20
496.131334
 30
0.0
 11
216.229462
 21
495.331334
 31
0.0
  0
LINE
  5
A9D8
330
A85F
100
AcDbEntity
  8
2
  6
Continuous
100
AcDbLine
 10
216.9065479999999
 20
496.807566
 30
0.0
 11
216.905962
 21
495.331066
 31
0.0
  0
LINE
  5
A9D9
330
A85F
100
AcDbEntity
  8
1
  6
Continuous
100
AcDbLine
 10
217.4302549999999
 20
497.330858
 30
0.0
 11
216.229779
 21
496.131334
 31
0.0
  0
LINE
  5
A9DA
330
A85F
100
AcDbEntity
  8
1
  6
Continuous
100
AcDbLine
 10
223.030254
 20
497.3286389999998
 30
0.0
 11
217.4302549999999
 21
497.330858
 31
0.0
  0
LINE
  5
A9DB
330
A85F
100
AcDbEntity
  8
1
  6
Continuous
100
AcDbLine
 10
220.227481
 20
490.3297489999998
 30
0.0
 11
220.229188
 21
494.6369279999998
 31
0.0
  0
LINE
  5
A9DC
330
A85F
100
AcDbEntity
  8
1
  6
Continuous
100
AcDbLine
 10
214.227756
 20
491.024947
 30
0.0
 11
214.229188
 21
494.639306
 31
0.0
  0
ARC
  5
A9DD
330
A85F
100
AcDbEntity
  8
1
  6
Continuous
100
AcDbCircle
 10
217.2301919999999
 20
497.1725379999998
 30
0.0
 40
6.841600999999998
100
AcDbArc
 50
243.9694720000001
 51
295.98512
  0
LINE
  5
A9DE
330
A85F
100
AcDbEntity
  8
1
  6
Continuous
100
AcDbLine
 10
217.479462
 20
495.330838
 30
0.0
 11
222.979462
 21
495.3286589999998
 31
0.0
  0
ARC
  5
A9DF
330
A85F
100
AcDbEntity
  8
1
  6
Continuous
100
AcDbCircle
 10
217.2267509999997
 20
488.4893369999998
 30
0.0
 40
6.841600999999998
100
AcDbArc
 50
63.969472
 51
115.98512
  0
LINE
  5
A9E0
330
A85F
100
AcDbEntity
  8
1
  6
Continuous
100
AcDbLine
 10
209.22657
 20
488.034118
 30
0.0
 11
209.227482
 21
490.334108
 31
0.0
  0
ARC
  5
A9E1
330
A85F
100
AcDbEntity
  8
1
  6
Continuous
100
AcDbCircle
 10
275.6035739999999
 20
472.007809
 30
0.0
 40
64.383349
100
AcDbArc
 50
165.5878459999998
 51
166.5047409999999
  0
ARC
  5
A9E2
330
A85F
100
AcDbEntity
  8
1
  6
Continuous
100
AcDbCircle
 10
129.753576
 20
472.065609
 30
0.0
 40
85.0
100
AcDbArc
 50
10.81807799999997
 51
10.827112
  0
LINE
  5
A9E3
330
A85F
100
AcDbEntity
  8
1
  6
Continuous
100
AcDbLine
 10
224.229779
 20
496.128164
 30
0.0
 11
224.229462
 21
495.3281639999998
 31
0.0
  0
LINE
  5
A9E4
330
A85F
100
AcDbEntity
  8
2
  6
Continuous
100
AcDbLine
 10
223.553547
 20
496.804932
 30
0.0
 11
223.552962
 21
495.328432
 31
0.0
  0
LINE
  5
A9E5
330
A85F
100
AcDbEntity
  8
1
  6
Continuous
100
AcDbLine
 10
226.2277549999998
 20
491.020192
 30
0.0
 11
226.229187
 21
494.6345509999998
 31
0.0
  0
ARC
  5
A9E6
330
A85F
100
AcDbEntity
  8
1
  6
Continuous
100
AcDbCircle
 10
243.3320939999999
 20
495.320594
 30
0.0
 40
5.0
100
AcDbArc
 50
269.977296
 51
309.0209429999998
  0
LINE
  5
A9E7
330
A85F
100
AcDbEntity
  8
1
  6
Continuous
100
AcDbLine
 10
215.96171
 20
450.531466
 30
0.0
 11
224.4617089999999
 21
450.5280980000001
 31
0.0
  0
LINE
  5
A9E8
330
A85F
100
AcDbEntity
  8
1
  6
Continuous
100
AcDbLine
 10
212.9833919999999
 20
457.0326269999998
 30
0.0
 11
207.672324
 21
457.034732
 31
0.0
  0
LINE
  5
A9E9
330
A85F
100
AcDbEntity
  8
1
  6
Continuous
100
AcDbLine
 10
209.2129789999999
 20
453.734121
 30
0.0
 11
243.3156219999999
 21
453.7206069999998
 31
0.0
  0
LINE
  5
A9EA
330
A85F
100
AcDbEntity
  8
1
  6
Continuous
100
AcDbLine
 10
209.21389
 20
456.0341209999998
 30
0.0
 11
213.230859
 21
456.032529
 31
0.0
  0
LINE
  5
A9EB
330
A85F
100
AcDbEntity
  8
1
  6
Continuous
100
AcDbLine
 10
209.2129789999999
 20
453.734121
 30
0.0
 11
209.21389
 21
456.0341209999998
 31
0.0
  0
LINE
  5
A9EC
330
A85F
100
AcDbEntity
  8
1
  6
Continuous
100
AcDbLine
 10
213.9629779999999
 20
453.7322389999998
 30
0.0
 11
213.9625029999999
 21
452.532259
 31
0.0
  0
ARC
  5
A9ED
330
A85F
100
AcDbEntity
  8
1
  6
Continuous
100
AcDbCircle
 10
215.9625029999999
 20
452.531466
 30
0.0
 40
2.0
100
AcDbArc
 50
179.9773139999999
 51
269.977296
  0
ARC
  5
A9EE
330
A85F
100
AcDbEntity
  8
1
  6
Continuous
100
AcDbCircle
 10
275.6035739999999
 20
472.007809
 30
0.0
 40
64.383349
100
AcDbArc
 50
193.4498419999999
 51
194.3667369999998
  0
ARC
  5
A9EF
330
A85F
100
AcDbEntity
  8
1
  6
Continuous
100
AcDbCircle
 10
129.753576
 20
472.065609
 30
0.0
 40
85.0
100
AcDbArc
 50
349.1274799999998
 51
349.1365109999999
  0
LINE
  5
A9F0
330
A85F
100
AcDbEntity
  8
1
  6
Continuous
100
AcDbLine
 10
226.4629769999999
 20
453.7272849999998
 30
0.0
 11
226.4625019999999
 21
452.527305
 31
0.0
  0
ARC
  5
A9F1
330
A85F
100
AcDbEntity
  8
1
  6
Continuous
100
AcDbCircle
 10
224.4625019999999
 20
452.528098
 30
0.0
 40
2.0
100
AcDbArc
 50
269.977296
 51
359.9772759999999
  0
ARC
  5
A9F2
330
A85F
100
AcDbEntity
  8
1
  6
Continuous
100
AcDbCircle
 10
243.3136399999999
 20
448.7206079999999
 30
0.0
 40
5.0
100
AcDbArc
 50
50.93367999999999
 51
89.97729599999997
  0
ARC
  5
A9F3
330
A85F
100
AcDbEntity
  8
1
  6
Continuous
100
AcDbCircle
 10
242.2202229999999
 20
324.971604
 30
0.0
 40
5.0
100
AcDbArc
 50
90.0
 51
179.030167
  0
LINE
  5
A9F4
330
A85F
100
AcDbEntity
  8
1
  6
Continuous
100
AcDbLine
 10
524.720223
 20
334.771602
 30
0.0
 11
524.720223
 21
332.2716019999998
 31
0.0
  0
LINE
  5
A9F5
330
A85F
100
AcDbEntity
  8
1
  6
Continuous
100
AcDbLine
 10
479.7202229999999
 20
334.771602
 30
0.0
 11
479.7202229999999
 21
332.2716019999998
 31
0.0
  0
LINE
  5
A9F6
330
A85F
100
AcDbEntity
  8
1
  6
Continuous
100
AcDbLine
 10
524.320239
 20
330.971607
 30
0.0
 11
480.120213
 21
330.971607
 31
0.0
  0
LINE
  5
A9F7
330
A85F
100
AcDbEntity
  8
1
  6
Continuous
100
AcDbLine
 10
480.120243
 20
330.9716029999999
 30
0.0
 11
479.7202429999998
 21
332.27161
 31
0.0
  0
LINE
  5
A9F8
330
A85F
100
AcDbEntity
  8
1
  6
Continuous
100
AcDbLine
 10
524.320237
 20
330.971599
 30
0.0
 11
524.720238
 21
332.2716019999998
 31
0.0
  0
LINE
  5
A9F9
330
A85F
100
AcDbEntity
  8
2
  6
Continuous
100
AcDbLine
 10
509.1377229999998
 20
347.8716129999999
 30
0.0
 11
509.1377229999998
 21
380.9541129999999
 31
0.0
  0
LINE
  5
A9FA
330
A85F
100
AcDbEntity
  8
2
  6
Continuous
100
AcDbLine
 10
495.302723
 20
347.8716129999999
 30
0.0
 11
495.302723
 21
380.9541129999999
 31
0.0
  0
LINE
  5
A9FB
330
A85F
100
AcDbEntity
  8
1
  6
Continuous
100
AcDbLine
 10
510.2202229999998
 20
341.8716129999999
 30
0.0
 11
510.2202229999998
 21
379.8716129999998
 31
0.0
  0
LINE
  5
A9FC
330
A85F
100
AcDbEntity
  8
1
  6
Continuous
100
AcDbLine
 10
494.2202229999998
 20
341.8716129999999
 30
0.0
 11
494.2202229999998
 21
379.8716129999998
 31
0.0
  0
LINE
  5
A9FD
330
A85F
100
AcDbEntity
  8
1
  6
Continuous
100
AcDbLine
 10
494.2202229999998
 20
347.8716129999999
 30
0.0
 11
510.2202229999998
 21
347.8716129999999
 31
0.0
  0
LINE
  5
A9FE
330
A85F
100
AcDbEntity
  8
2
  6
Continuous
100
AcDbLine
 10
495.302723
 20
347.8716129999999
 30
0.0
 11
494.2202229999998
 21
345.9966679999998
 31
0.0
  0
LINE
  5
A9FF
330
A85F
100
AcDbEntity
  8
1
  6
Continuous
100
AcDbLine
 10
490.820223
 20
341.8716129999999
 30
0.0
 11
513.620223
 21
341.8716129999999
 31
0.0
  0
LINE
  5
AA00
330
A85F
100
AcDbEntity
  8
1
  6
Continuous
100
AcDbLine
 10
520.47029
 20
336.7716019999998
 30
0.0
 11
483.9702229999998
 21
336.7716019999998
 31
0.0
  0
LINE
  5
AA01
330
A85F
100
AcDbEntity
  8
1
  6
Continuous
100
AcDbLine
 10
524.720223
 20
334.771602
 30
0.0
 11
479.7202229999999
 21
334.771602
 31
0.0
  0
ARC
  5
AA02
330
A85F
100
AcDbEntity
  8
1
  6
Continuous
100
AcDbCircle
 10
484.196163
 20
330.77586
 30
0.0
 40
6.0
100
AcDbArc
 50
92.158028
 51
138.2442
  0
LINE
  5
AA03
330
A85F
100
AcDbEntity
  8
2
  6
Continuous
100
AcDbLine
 10
509.1377229999998
 20
347.8716129999999
 30
0.0
 11
510.2202229999998
 21
345.9966679999998
 31
0.0
  0
LINE
  5
AA04
330
A85F
100
AcDbEntity
  8
1
  6
Continuous
100
AcDbLine
 10
502.2202229999998
 20
341.8716129999999
 30
0.0
 11
502.2202229999998
 21
336.7716019999998
 31
0.0
  0
ARC
  5
AA05
330
A85F
100
AcDbEntity
  8
1
  6
Continuous
100
AcDbCircle
 10
520.2442859999998
 20
330.77586
 30
0.0
 40
6.0
100
AcDbArc
 50
41.75575999999996
 51
87.841936
  0
LINE
  5
AA06
330
A85F
100
AcDbEntity
  8
1
  6
Continuous
100
AcDbLine
 10
494.2202229999998
 20
379.8716129999998
 30
0.0
 11
496.2202229999999
 21
381.8716129999998
 31
0.0
  0
LINE
  5
AA07
330
A85F
100
AcDbEntity
  8
1
  6
Continuous
100
AcDbLine
 10
494.2202229999998
 20
379.8716129999998
 30
0.0
 11
510.2202229999998
 21
379.8716129999998
 31
0.0
  0
LINE
  5
AA08
330
A85F
100
AcDbEntity
  8
1
  6
Continuous
100
AcDbLine
 10
508.220223
 20
381.8716129999998
 30
0.0
 11
510.2202229999998
 21
379.8716129999998
 31
0.0
  0
LINE
  5
AA09
330
A85F
100
AcDbEntity
  8
1
  6
Continuous
100
AcDbLine
 10
496.2202229999999
 20
381.8716129999998
 30
0.0
 11
508.220223
 21
381.8716129999998
 31
0.0
  0
CIRCLE
  5
AA0A
330
A85F
100
AcDbEntity
  8
1
  6
Continuous
100
AcDbCircle
 10
262.2202229999999
 20
471.9968709999998
 30
0.0
 40
8.0
  0
CIRCLE
  5
AA0B
330
A85F
100
AcDbEntity
  8
2
  6
Continuous
100
AcDbCircle
 10
262.2202229999999
 20
471.9968709999998
 30
0.0
 40
6.9175
  0
LINE
  5
AA0C
330
A85F
100
AcDbEntity
  8
1
  6
Continuous
100
AcDbLine
 10
358.7202229999999
 20
334.7716099999999
 30
0.0
 11
358.7202229999999
 21
332.27161
 31
0.0
  0
LINE
  5
AA0D
330
A85F
100
AcDbEntity
  8
1
  6
Continuous
100
AcDbLine
 10
403.720223
 20
334.7716099999999
 30
0.0
 11
403.720223
 21
332.27161
 31
0.0
  0
LINE
  5
AA0E
330
A85F
100
AcDbEntity
  8
1
  6
Continuous
100
AcDbLine
 10
403.320214
 20
330.971607
 30
0.0
 11
359.120223
 21
330.971607
 31
0.0
  0
LINE
  5
AA0F
330
A85F
100
AcDbEntity
  8
1
  6
Continuous
100
AcDbLine
 10
359.120219
 20
330.9716029999999
 30
0.0
 11
358.7202189999999
 21
332.271606
 31
0.0
  0
LINE
  5
AA10
330
A85F
100
AcDbEntity
  8
1
  6
Continuous
100
AcDbLine
 10
403.320214
 20
330.971611
 30
0.0
 11
403.7202149999997
 21
332.27161
 31
0.0
  0
LINE
  5
AA11
330
A85F
100
AcDbEntity
  8
1
  6
Continuous
100
AcDbLine
 10
389.2202229999999
 20
341.8716129999999
 30
0.0
 11
389.2202229999999
 21
379.8716129999998
 31
0.0
  0
LINE
  5
AA12
330
A85F
100
AcDbEntity
  8
2
  6
Continuous
100
AcDbLine
 10
388.137723
 20
347.8716129999999
 30
0.0
 11
388.137723
 21
380.9541129999999
 31
0.0
  0
LINE
  5
AA13
330
A85F
100
AcDbEntity
  8
1
  6
Continuous
100
AcDbLine
 10
373.2202229999999
 20
341.8716129999999
 30
0.0
 11
373.2202229999999
 21
379.8716129999998
 31
0.0
  0
LINE
  5
AA14
330
A85F
100
AcDbEntity
  8
2
  6
Continuous
100
AcDbLine
 10
374.302723
 20
347.8716129999999
 30
0.0
 11
374.302723
 21
380.9541129999999
 31
0.0
  0
LINE
  5
AA15
330
A85F
100
AcDbEntity
  8
1
  6
Continuous
100
AcDbLine
 10
399.2480869999998
 20
336.7716099999999
 30
0.0
 11
362.9702229999999
 21
336.7716099999999
 31
0.0
  0
LINE
  5
AA16
330
A85F
100
AcDbEntity
  8
1
  6
Continuous
100
AcDbLine
 10
403.720223
 20
334.7716099999999
 30
0.0
 11
358.7202229999999
 21
334.7716099999999
 31
0.0
  0
LINE
  5
AA17
330
A85F
100
AcDbEntity
  8
1
  6
Continuous
100
AcDbLine
 10
368.2202229999999
 20
341.8716129999999
 30
0.0
 11
394.2202229999999
 21
341.8716129999999
 31
0.0
  0
LINE
  5
AA18
330
A85F
100
AcDbEntity
  8
1
  6
Continuous
100
AcDbLine
 10
373.2202229999999
 20
347.8716129999999
 30
0.0
 11
389.2202229999999
 21
347.8716129999999
 31
0.0
  0
ARC
  5
AA19
330
A85F
100
AcDbEntity
  8
1
  6
Continuous
100
AcDbCircle
 10
363.196162
 20
330.775863
 30
0.0
 40
6.0
100
AcDbArc
 50
92.158028
 51
138.2442
  0
LINE
  5
AA1A
330
A85F
100
AcDbEntity
  8
1
  6
Continuous
100
AcDbLine
 10
374.580693
 20
341.8716129999999
 30
0.0
 11
374.580693
 21
336.7716099999999
 31
0.0
  0
LINE
  5
AA1B
330
A85F
100
AcDbEntity
  8
2
  6
Continuous
100
AcDbLine
 10
374.302723
 20
347.8716129999999
 30
0.0
 11
373.2202229999999
 21
345.9966679999998
 31
0.0
  0
LINE
  5
AA1C
330
A85F
100
AcDbEntity
  8
1
  6
Continuous
100
AcDbLine
 10
387.859749
 20
341.8716129999999
 30
0.0
 11
387.859749
 21
336.7716099999999
 31
0.0
  0
LINE
  5
AA1D
330
A85F
100
AcDbEntity
  8
2
  6
Continuous
100
AcDbLine
 10
388.137723
 20
347.8716129999999
 30
0.0
 11
389.2202229999999
 21
345.9966679999998
 31
0.0
  0
ARC
  5
AA1E
330
A85F
100
AcDbEntity
  8
1
  6
Continuous
100
AcDbCircle
 10
399.2480869999998
 20
330.77161
 30
0.0
 40
6.0
100
AcDbArc
 50
41.810315
 51
90.0
  0
LINE
  5
AA1F
330
A85F
100
AcDbEntity
  8
1
  6
Continuous
100
AcDbLine
 10
375.2202229999999
 20
381.8716129999998
 30
0.0
 11
387.2202229999999
 21
381.8716129999998
 31
0.0
  0
LINE
  5
AA20
330
A85F
100
AcDbEntity
  8
1
  6
Continuous
100
AcDbLine
 10
373.2202229999999
 20
379.8716129999998
 30
0.0
 11
389.2202229999999
 21
379.8716129999998
 31
0.0
  0
LINE
  5
AA21
330
A85F
100
AcDbEntity
  8
1
  6
Continuous
100
AcDbLine
 10
373.2202229999999
 20
379.8716129999998
 30
0.0
 11
375.2202229999999
 21
381.8716129999998
 31
0.0
  0
LINE
  5
AA22
330
A85F
100
AcDbEntity
  8
1
  6
Continuous
100
AcDbLine
 10
387.2202229999999
 20
381.8716129999998
 30
0.0
 11
389.2202229999999
 21
379.8716129999998
 31
0.0
  0
LINE
  5
AA23
330
A85F
100
AcDbEntity
  8
1
  6
Continuous
100
AcDbLine
 10
250.820223
 20
465.5786639999998
 30
0.0
 11
250.820223
 21
478.415078
 31
0.0
  0
LINE
  5
AA24
330
A85F
100
AcDbEntity
  8
1
  6
Continuous
100
AcDbLine
 10
273.6202229999999
 20
465.5786639999998
 30
0.0
 11
273.6202229999999
 21
478.415078
 31
0.0
  0
LINE
  5
AA25
330
A85F
100
AcDbEntity
  8
1
  6
Continuous
100
AcDbLine
 10
262.2202229999999
 20
484.9968709999997
 30
0.0
 11
250.820223
 21
478.415078
 31
0.0
  0
LINE
  5
AA26
330
A85F
100
AcDbEntity
  8
1
  6
Continuous
100
AcDbLine
 10
273.6202229999999
 20
465.5786639999998
 30
0.0
 11
262.2202229999999
 21
458.9968709999998
 31
0.0
  0
LINE
  5
AA27
330
A85F
100
AcDbEntity
  8
1
  6
Continuous
100
AcDbLine
 10
262.2202229999999
 20
484.9968709999997
 30
0.0
 11
273.6202229999999
 21
478.415078
 31
0.0
  0
LINE
  5
AA28
330
A85F
100
AcDbEntity
  8
1
  6
Continuous
100
AcDbLine
 10
250.820223
 20
465.5786639999998
 30
0.0
 11
262.2202229999999
 21
458.9968709999998
 31
0.0
  0
LINE
  5
AA29
330
A85F
100
AcDbEntity
  8
1
  6
Continuous
100
AcDbLine
 10
368.2202229999999
 20
341.8716129999999
 30
0.0
 11
368.2202229999999
 21
336.7716099999999
 31
0.0
  0
LINE
  5
AA2A
330
A85F
100
AcDbEntity
  8
1
  6
Continuous
100
AcDbLine
 10
394.2202229999999
 20
341.8716129999999
 30
0.0
 11
394.2202229999999
 21
336.7716099999999
 31
0.0
  0
LINE
  5
AA2B
330
A85F
100
AcDbEntity
  8
1
  6
Continuous
100
AcDbLine
 10
490.820223
 20
341.8716129999999
 30
0.0
 11
490.820223
 21
336.7716019999998
 31
0.0
  0
LINE
  5
AA2C
330
A85F
100
AcDbEntity
  8
1
  6
Continuous
100
AcDbLine
 10
513.620223
 20
341.8716129999999
 30
0.0
 11
513.620223
 21
336.7716019999998
 31
0.0
  0
CIRCLE
  5
AA2D
330
A85F
100
AcDbEntity
  8
1
  6
Continuous
100
AcDbCircle
 10
262.2202229999999
 20
471.9968709999998
 30
0.0
 40
6.0
  0
LINE
  5
AA2E
330
A85F
100
AcDbEntity
  8
1
  6
Continuous
100
AcDbLine
 10
63.220223
 20
381.8716129999998
 30
0.0
 11
65.220223
 21
379.8716129999998
 31
0.0
  0
LINE
  5
AA2F
330
A85F
100
AcDbEntity
  8
2
  6
Continuous
100
AcDbLine
 10
64.13772299999999
 20
347.8716129999999
 30
0.0
 11
64.13772299999999
 21
380.9541129999999
 31
0.0
  0
LINE
  5
AA30
330
A85F
100
AcDbEntity
  8
1
  6
Continuous
100
AcDbLine
 10
49.220223
 20
379.8716129999998
 30
0.0
 11
51.220223
 21
381.8716129999998
 31
0.0
  0
LINE
  5
AA31
330
A85F
100
AcDbEntity
  8
2
  6
Continuous
100
AcDbLine
 10
50.302723
 20
347.8716129999999
 30
0.0
 11
50.302723
 21
380.9541129999999
 31
0.0
  0
LINE
  5
AA32
330
A85F
100
AcDbEntity
  8
1
  6
Continuous
100
AcDbLine
 10
79.320214
 20
330.971607
 30
0.0
 11
35.12022299999999
 21
330.971607
 31
0.0
  0
LINE
  5
AA33
330
A85F
100
AcDbEntity
  8
1
  6
Continuous
100
AcDbLine
 10
75.248087
 20
336.7716099999999
 30
0.0
 11
38.97022299999999
 21
336.7716099999999
 31
0.0
  0
LINE
  5
AA34
330
A85F
100
AcDbEntity
  8
1
  6
Continuous
100
AcDbLine
 10
79.720223
 20
334.7716099999999
 30
0.0
 11
34.72022299999999
 21
334.7716099999999
 31
0.0
  0
ARC
  5
AA35
330
A85F
100
AcDbEntity
  8
1
  6
Continuous
100
AcDbCircle
 10
39.196162
 20
330.775863
 30
0.0
 40
6.0
100
AcDbArc
 50
92.158028
 51
138.2442
  0
LINE
  5
AA36
330
A85F
100
AcDbEntity
  8
1
  6
Continuous
100
AcDbLine
 10
34.72022299999999
 20
334.7716099999999
 30
0.0
 11
34.72022299999999
 21
332.27161
 31
0.0
  0
LINE
  5
AA37
330
A85F
100
AcDbEntity
  8
1
  6
Continuous
100
AcDbLine
 10
35.120219
 20
330.9716029999999
 30
0.0
 11
34.720219
 21
332.271606
 31
0.0
  0
ARC
  5
AA38
330
A85F
100
AcDbEntity
  8
1
  6
Continuous
100
AcDbCircle
 10
75.248087
 20
330.77161
 30
0.0
 40
6.0
100
AcDbArc
 50
41.810315
 51
90.0
  0
LINE
  5
AA39
330
A85F
100
AcDbEntity
  8
1
  6
Continuous
100
AcDbLine
 10
79.720223
 20
334.7716099999999
 30
0.0
 11
79.720223
 21
332.27161
 31
0.0
  0
LINE
  5
AA3A
330
A85F
100
AcDbEntity
  8
1
  6
Continuous
100
AcDbLine
 10
79.320214
 20
330.971611
 30
0.0
 11
79.72021499999998
 21
332.27161
 31
0.0
  0
LINE
  5
AA3B
330
A85F
100
AcDbEntity
  8
1
  6
Continuous
100
AcDbLine
 10
65.220223
 20
341.8716129999999
 30
0.0
 11
65.220223
 21
379.8716129999998
 31
0.0
  0
LINE
  5
AA3C
330
A85F
100
AcDbEntity
  8
1
  6
Continuous
100
AcDbLine
 10
49.220223
 20
341.8716129999999
 30
0.0
 11
49.220223
 21
379.8716129999998
 31
0.0
  0
LINE
  5
AA3D
330
A85F
100
AcDbEntity
  8
1
  6
Continuous
100
AcDbLine
 10
44.220223
 20
341.8716129999999
 30
0.0
 11
70.220223
 21
341.8716129999999
 31
0.0
  0
LINE
  5
AA3E
330
A85F
100
AcDbEntity
  8
1
  6
Continuous
100
AcDbLine
 10
49.220223
 20
347.8716129999999
 30
0.0
 11
65.220223
 21
347.8716129999999
 31
0.0
  0
LINE
  5
AA3F
330
A85F
100
AcDbEntity
  8
1
  6
Continuous
100
AcDbLine
 10
50.58069299999999
 20
341.8716129999999
 30
0.0
 11
50.58069299999999
 21
336.7716099999999
 31
0.0
  0
LINE
  5
AA40
330
A85F
100
AcDbEntity
  8
1
  6
Continuous
100
AcDbLine
 10
44.220223
 20
341.8716129999999
 30
0.0
 11
44.220223
 21
336.7716099999999
 31
0.0
  0
LINE
  5
AA41
330
A85F
100
AcDbEntity
  8
2
  6
Continuous
100
AcDbLine
 10
50.302723
 20
347.8716129999999
 30
0.0
 11
49.220223
 21
345.9966679999998
 31
0.0
  0
LINE
  5
AA42
330
A85F
100
AcDbEntity
  8
1
  6
Continuous
100
AcDbLine
 10
70.220223
 20
341.8716129999999
 30
0.0
 11
70.220223
 21
336.7716099999999
 31
0.0
  0
LINE
  5
AA43
330
A85F
100
AcDbEntity
  8
1
  6
Continuous
100
AcDbLine
 10
63.859749
 20
341.8716129999999
 30
0.0
 11
63.859749
 21
336.7716099999999
 31
0.0
  0
LINE
  5
AA44
330
A85F
100
AcDbEntity
  8
2
  6
Continuous
100
AcDbLine
 10
64.13772299999999
 20
347.8716129999999
 30
0.0
 11
65.220223
 21
345.9966679999998
 31
0.0
  0
LINE
  5
AA45
330
A85F
100
AcDbEntity
  8
1
  6
Continuous
100
AcDbLine
 10
49.220223
 20
379.8716129999998
 30
0.0
 11
65.220223
 21
379.8716129999998
 31
0.0
  0
LINE
  5
AA46
330
A85F
100
AcDbEntity
  8
1
  6
Continuous
100
AcDbLine
 10
51.220223
 20
381.8716129999998
 30
0.0
 11
63.220223
 21
381.8716129999998
 31
0.0
  0
LINE
  5
AA47
330
A85F
100
AcDbEntity
  8
1
  6
Continuous
100
AcDbLine
 10
254.220223
 20
341.8716129999999
 30
0.0
 11
254.220223
 21
379.8716129999998
 31
0.0
  0
LINE
  5
AA48
330
A85F
100
AcDbEntity
  8
2
  6
Continuous
100
AcDbLine
 10
255.302723
 20
347.8716129999999
 30
0.0
 11
255.302723
 21
380.9541129999999
 31
0.0
  0
LINE
  5
AA49
330
A85F
100
AcDbEntity
  8
1
  6
Continuous
100
AcDbLine
 10
270.2202229999999
 20
341.8716129999999
 30
0.0
 11
270.2202229999999
 21
379.8716129999998
 31
0.0
  0
LINE
  5
AA4A
330
A85F
100
AcDbEntity
  8
2
  6
Continuous
100
AcDbLine
 10
269.137723
 20
347.8716129999999
 30
0.0
 11
269.137723
 21
380.9541129999999
 31
0.0
  0
LINE
  5
AA4B
330
A85F
100
AcDbEntity
  8
1
  6
Continuous
100
AcDbLine
 10
250.820223
 20
341.8716129999999
 30
0.0
 11
273.6202229999999
 21
341.8716129999999
 31
0.0
  0
LINE
  5
AA4C
330
A85F
100
AcDbEntity
  8
1
  6
Continuous
100
AcDbLine
 10
254.220223
 20
347.8716129999999
 30
0.0
 11
270.2202229999999
 21
347.8716129999999
 31
0.0
  0
LINE
  5
AA4D
330
A85F
100
AcDbEntity
  8
1
  6
Continuous
100
AcDbLine
 10
280.4702899999999
 20
336.7716019999998
 30
0.0
 11
243.9702229999999
 21
336.7716019999998
 31
0.0
  0
LINE
  5
AA4E
330
A85F
100
AcDbEntity
  8
1
  6
Continuous
100
AcDbLine
 10
284.7202229999998
 20
334.771602
 30
0.0
 11
239.7202229999999
 21
334.771602
 31
0.0
  0
LINE
  5
AA4F
330
A85F
100
AcDbEntity
  8
1
  6
Continuous
100
AcDbLine
 10
284.320239
 20
330.971607
 30
0.0
 11
240.1202129999997
 21
330.971607
 31
0.0
  0
ARC
  5
AA50
330
A85F
100
AcDbEntity
  8
1
  6
Continuous
100
AcDbCircle
 10
244.1961629999999
 20
330.77586
 30
0.0
 40
6.0
100
AcDbArc
 50
92.158028
 51
138.2442
  0
LINE
  5
AA51
330
A85F
100
AcDbEntity
  8
1
  6
Continuous
100
AcDbLine
 10
240.120243
 20
330.9716029999999
 30
0.0
 11
239.720243
 21
332.27161
 31
0.0
  0
LINE
  5
AA52
330
A85F
100
AcDbEntity
  8
1
  6
Continuous
100
AcDbLine
 10
239.7202229999999
 20
334.771602
 30
0.0
 11
239.7202229999999
 21
332.2716019999998
 31
0.0
  0
LINE
  5
AA53
330
A85F
100
AcDbEntity
  8
1
  6
Continuous
100
AcDbLine
 10
250.820223
 20
341.8716129999999
 30
0.0
 11
250.820223
 21
336.7716019999998
 31
0.0
  0
LINE
  5
AA54
330
A85F
100
AcDbEntity
  8
2
  6
Continuous
100
AcDbLine
 10
255.302723
 20
347.8716129999999
 30
0.0
 11
254.220223
 21
345.9966679999998
 31
0.0
  0
ARC
  5
AA55
330
A85F
100
AcDbEntity
  8
1
  6
Continuous
100
AcDbCircle
 10
280.2442859999998
 20
330.77586
 30
0.0
 40
6.0
100
AcDbArc
 50
41.75575999999996
 51
87.841936
  0
LINE
  5
AA56
330
A85F
100
AcDbEntity
  8
1
  6
Continuous
100
AcDbLine
 10
284.320237
 20
330.971599
 30
0.0
 11
284.720238
 21
332.2716019999998
 31
0.0
  0
LINE
  5
AA57
330
A85F
100
AcDbEntity
  8
1
  6
Continuous
100
AcDbLine
 10
284.7202229999998
 20
334.771602
 30
0.0
 11
284.7202229999998
 21
332.2716019999998
 31
0.0
  0
LINE
  5
AA58
330
A85F
100
AcDbEntity
  8
1
  6
Continuous
100
AcDbLine
 10
262.2202229999999
 20
341.8716129999999
 30
0.0
 11
262.2202229999999
 21
336.7716019999998
 31
0.0
  0
LINE
  5
AA59
330
A85F
100
AcDbEntity
  8
1
  6
Continuous
100
AcDbLine
 10
273.6202229999999
 20
341.8716129999999
 30
0.0
 11
273.6202229999999
 21
336.7716019999998
 31
0.0
  0
LINE
  5
AA5A
330
A85F
100
AcDbEntity
  8
2
  6
Continuous
100
AcDbLine
 10
269.137723
 20
347.8716129999999
 30
0.0
 11
270.2202229999999
 21
345.9966679999998
 31
0.0
  0
LINE
  5
AA5B
330
A85F
100
AcDbEntity
  8
1
  6
Continuous
100
AcDbLine
 10
254.220223
 20
379.8716129999998
 30
0.0
 11
270.2202229999999
 21
379.8716129999998
 31
0.0
  0
LINE
  5
AA5C
330
A85F
100
AcDbEntity
  8
1
  6
Continuous
100
AcDbLine
 10
256.220223
 20
381.8716129999998
 30
0.0
 11
268.2202229999999
 21
381.8716129999998
 31
0.0
  0
LINE
  5
AA5D
330
A85F
100
AcDbEntity
  8
1
  6
Continuous
100
AcDbLine
 10
254.220223
 20
379.8716129999998
 30
0.0
 11
256.220223
 21
381.8716129999998
 31
0.0
  0
LINE
  5
AA5E
330
A85F
100
AcDbEntity
  8
1
  6
Continuous
100
AcDbLine
 10
268.2202229999999
 20
381.8716129999998
 30
0.0
 11
270.2202229999999
 21
379.8716129999998
 31
0.0
  0
CIRCLE
  5
AA5F
330
A85F
100
AcDbEntity
  8
1
  6
Continuous
100
AcDbCircle
 10
262.2202229999999
 20
471.9968709999998
 30
0.0
 40
18.25
  0
CIRCLE
  5
AA60
330
A85F
100
AcDbEntity
  8
1
  6
Continuous
100
AcDbCircle
 10
262.2202229999999
 20
471.9968709999998
 30
0.0
 40
22.5
  0
ARC
  5
AA61
330
A85F
100
AcDbEntity
  8
1
  6
Continuous
100
AcDbCircle
 10
262.2202259999999
 20
472.013118
 30
0.0
 40
25.0
100
AcDbArc
 50
140.3068849999999
 51
219.622718
  0
ARC
  5
AA62
330
A85F
100
AcDbEntity
  8
1
  6
Continuous
100
AcDbCircle
 10
225.2202229999999
 20
471.9968709999998
 30
0.0
 40
70.0
100
AcDbArc
 50
350.2634059999999
 51
9.73652
  0
ARC
  5
AA63
330
A85F
100
AcDbEntity
  8
1
  6
Continuous
100
AcDbCircle
 10
292.2407379999999
 20
460.496871
 30
0.0
 40
2.0
100
AcDbArc
 50
269.99998
 51
350.26344
  0
ARC
  5
AA64
330
A85F
100
AcDbEntity
  8
1
  6
Continuous
100
AcDbCircle
 10
292.2407379999999
 20
483.496871
 30
0.0
 40
2.0
100
AcDbArc
 50
9.736487
 51
89.99994499999997
  0
LINE
  5
AA65
330
A85F
100
AcDbEntity
  8
1
  6
Continuous
100
AcDbLine
 10
292.24074
 20
485.496871
 30
0.0
 11
283.2722659999999
 21
485.496871
 31
0.0
  0
LINE
  5
AA66
330
A85F
100
AcDbEntity
  8
1
  6
Continuous
100
AcDbLine
 10
292.240737
 20
458.496871
 30
0.0
 11
283.2514189999999
 21
458.496871
 31
0.0
  0
ENDSEC
  0
SECTION
  2
OBJECTS
  0
DICTIONARY
  5
A84D
330
0
100
AcDbDictionary
281
     1
  3
ACAD_CIP_PREVIOUS_PRODUCT_INFO
350
AAE3
  3
ACAD_COLOR
350
AAC5
  3
ACAD_DETAILVIEWSTYLE
350
AADE
  3
ACAD_GROUP
350
A84E
  3
ACAD_LAYOUT
350
A85A
  3
ACAD_MATERIAL
350
AA93
  3
ACAD_MLEADERSTYLE
350
AADA
  3
ACAD_MLINESTYLE
350
A857
  3
ACAD_PLOTSETTINGS
350
A859
  3
ACAD_PLOTSTYLENAME
350
AA91
  3
ACAD_SCALELIST
350
AAC8
  3
ACAD_SECTIONVIEWSTYLE
350
AADC
  3
ACAD_TABLESTYLE
350
AAC6
  3
ACAD_VISUALSTYLE
350
AAAC
  3
ACDB_RECOMPOSE_DATA
350
AB01
  3
AcDbVariableDictionary
350
AAF4
  3
DWGPROPS
350
AB02
  0
DICTIONARY
  5
AAE4
330
A851
100
AcDbDictionary
280
     1
281
     1
  3
ADSK_XREC_LAYER_RECONCILED
360
AAE5
  0
DICTIONARY
  5
AAE6
330
A867
100
AcDbDictionary
280
     1
281
     1
  3
ADSK_XREC_LAYER_RECONCILED
360
AAE7
  0
DICTIONARY
  5
AAE8
330
A868
100
AcDbDictionary
280
     1
281
     1
  3
ADSK_XREC_LAYER_RECONCILED
360
AAE9
  0
DICTIONARY
  5
AAEA
330
A869
100
AcDbDictionary
280
     1
281
     1
  3
ADSK_XREC_LAYER_RECONCILED
360
AAEB
  0
DICTIONARY
  5
AAEC
330
A86A
100
AcDbDictionary
280
     1
281
     1
  3
ADSK_XREC_LAYER_RECONCILED
360
AAED
  0
DICTIONARY
  5
AAEE
330
A86B
100
AcDbDictionary
280
     1
281
     1
  3
ADSK_XREC_LAYER_RECONCILED
360
AAEF
  0
DICTIONARY
  5
AAF0
330
A86C
100
AcDbDictionary
280
     1
281
     1
  3
ADSK_XREC_LAYER_RECONCILED
360
AAF1
  0
DICTIONARY
  5
AAF2
330
A86D
100
AcDbDictionary
280
     1
281
     1
  3
ADSK_XREC_LAYER_RECONCILED
360
AAF3
  0
DICTIONARY
  5
AA71
330
A85F
100
AcDbDictionary
281
     1
  3
ACAD_LAYOUTSELFREF
350
AA8D
  0
DICTIONARY
  5
AA6F
330
A85B
100
AcDbDictionary
281
     1
  3
ACAD_LAYOUTSELFREF
350
AA8C
  0
XRECORD
  5
AAE3
102
{ACAD_REACTORS
330
A84D
102
}
330
A84D
100
AcDbXrecord
280
     1
300
ACDLT
300
2014
300
ACDLT_F_S
  0
DICTIONARY
  5
AAC5
102
{ACAD_REACTORS
330
A84D
102
}
330
A84D
100
AcDbDictionary
281
     1
  0
DICTIONARY
  5
AADE
102
{ACAD_REACTORS
330
A84D
102
}
330
A84D
100
AcDbDictionary
281
     1
  3
Imperial24
350
AADF
  0
DICTIONARY
  5
A84E
102
{ACAD_REACTORS
330
A84D
102
}
330
A84D
100
AcDbDictionary
281
     1
  0
DICTIONARY
  5
A85A
102
{ACAD_REACTORS
330
A84D
102
}
330
A84D
100
AcDbDictionary
281
     1
  3
Model
350
AAE0
  3
レイアウト1
350
AAE1
  0
DICTIONARY
  5
AA93
102
{ACAD_REACTORS
330
A84D
102
}
330
A84D
100
AcDbDictionary
281
     1
  3
ByBlock
350
AA9C
  3
ByLayer
350
AA94
  3
Global
350
AAA4
  0
DICTIONARY
  5
AADA
102
{ACAD_REACTORS
330
A84D
102
}
330
A84D
100
AcDbDictionary
281
     1
  3
Standard
350
AADB
  0
DICTIONARY
  5
A857
102
{ACAD_REACTORS
330
A84D
102
}
330
A84D
100
AcDbDictionary
281
     1
  3
STANDARD
350
A858
  0
DICTIONARY
  5
A859
102
{ACAD_REACTORS
330
A84D
102
}
330
A84D
100
AcDbDictionary
281
     1
  0
ACDBDICTIONARYWDFLT
  5
AA91
102
{ACAD_REACTORS
330
A84D
102
}
330
A84D
100
AcDbDictionary
281
     1
  3
Normal
350
AA92
100
AcDbDictionaryWithDefault
340
AA92
  0
DICTIONARY
  5
AAC8
102
{ACAD_REACTORS
330
A84D
102
}
330
A84D
100
AcDbDictionary
281
     1
  3
A0
350
AAC9
  3
A1
350
AACA
  3
A2
350
AACB
  3
A3
350
AACC
  3
A4
350
AACD
  3
A5
350
AACE
  3
A6
350
AACF
  3
A7
350
AAD0
  3
A8
350
AAD1
  3
A9
350
AAD2
  3
B0
350
AAD3
  3
B1
350
AAD4
  3
B2
350
AAD5
  3
B3
350
AAD6
  3
B4
350
AAD7
  3
B5
350
AAD8
  3
B6
350
AAD9
  0
DICTIONARY
  5
AADC
102
{ACAD_REACTORS
330
A84D
102
}
330
A84D
100
AcDbDictionary
281
     1
  3
Imperial24
350
AADD
  0
DICTIONARY
  5
AAC6
102
{ACAD_REACTORS
330
A84D
102
}
330
A84D
100
AcDbDictionary
281
     1
  3
Standard
350
AAC7
  0
DICTIONARY
  5
AAAC
102
{ACAD_REACTORS
330
A84D
102
}
330
A84D
100
AcDbDictionary
281
     1
  3
2dWireframe
350
AAB2
  3
Basic
350
AAB1
  3
Brighten
350
AAB8
  3
ColorChange
350
AABC
  3
Conceptual
350
AAB5
  3
Dim
350
AAB7
  3
EdgeColorOff
350
AAC4
  3
Facepattern
350
AABB
  3
Flat
350
AAAD
  3
FlatWithEdges
350
AAAE
  3
Gouraud
350
AAAF
  3
GouraudWithEdges
350
AAB0
  3
Hidden
350
AAB4
  3
JitterOff
350
AAC2
  3
Linepattern
350
AABA
  3
OverhangOff
350
AAC3
  3
Realistic
350
AAB6
  3
Shaded
350
AAC1
  3
Shaded with edges
350
AAC0
  3
Shades of Gray
350
AABD
  3
Sketchy
350
AABE
  3
Thicken
350
AAB9
  3
Wireframe
350
AAB3
  3
X-Ray
350
AABF
  0
XRECORD
  5
AB01
102
{ACAD_REACTORS
330
A84D
102
}
330
A84D
100
AcDbXrecord
280
     1
 90
        1
330
AAC7
  0
DICTIONARY
  5
AAF4
102
{ACAD_REACTORS
330
A84D
102
}
330
A84D
100
AcDbDictionary
281
     1
  3
CANNOSCALE
350
AAF9
  3
CMLEADERSTYLE
350
AAF6
  3
CTABLESTYLE
350
AAF5
  3
CVIEWDETAILSTYLE
350
AAF7
  3
CVIEWSECTIONSTYLE
350
AAF8
  3
DIMASSOC
350
AAFC
  3
INDEXCTL
350
AAFB
  3
SORTENTS
350
AAFA
  3
XCLIPFRAME
350
AAFD
  0
XRECORD
  5
AB02
102
{ACAD_REACTORS
330
A84D
102
}
330
A84D
100
AcDbXrecord
280
     1
  1
DWGPROPS COOKIE
  2

  3

  4

  6

  7

  8
Yoshitsune
  9

300
=
301
=
302
=
303
=
304
=
305
=
306
=
307
=
308
=
309
=
 40
0.141102650462963
 41
2451303.404406019
 42
2457192.690119595
  1

 90
        0
  0
XRECORD
  5
AAE5
102
{ACAD_REACTORS
330
AAE4
102
}
330
AAE4
100
AcDbXrecord
280
     1
290
     1
  0
XRECORD
  5
AAE7
102
{ACAD_REACTORS
330
AAE6
102
}
330
AAE6
100
AcDbXrecord
280
     1
290
     1
  0
XRECORD
  5
AAE9
102
{ACAD_REACTORS
330
AAE8
102
}
330
AAE8
100
AcDbXrecord
280
     1
290
     1
  0
XRECORD
  5
AAEB
102
{ACAD_REACTORS
330
AAEA
102
}
330
AAEA
100
AcDbXrecord
280
     1
290
     1
  0
XRECORD
  5
AAED
102
{ACAD_REACTORS
330
AAEC
102
}
330
AAEC
100
AcDbXrecord
280
     1
290
     1
  0
XRECORD
  5
AAEF
102
{ACAD_REACTORS
330
AAEE
102
}
330
AAEE
100
AcDbXrecord
280
     1
290
     1
  0
XRECORD
  5
AAF1
102
{ACAD_REACTORS
330
AAF0
102
}
330
AAF0
100
AcDbXrecord
280
     1
290
     1
  0
XRECORD
  5
AAF3
102
{ACAD_REACTORS
330
AAF2
102
}
330
AAF2
100
AcDbXrecord
280
     1
290
     1
  0
XRECORD
  5
AA8D
102
{ACAD_REACTORS
330
AA71
102
}
330
AA71
100
AcDbXrecord
280
     1
340
A85F
  0
XRECORD
  5
AA8C
102
{ACAD_REACTORS
330
AA6F
102
}
330
AA6F
100
AcDbXrecord
280
     1
340
A85B
  0
ACDBDETAILVIEWSTYLE
  5
AADF
102
{ACAD_XDICTIONARY
360
AB3A
102
}
102
{ACAD_REACTORS
330
AADE
102
}
330
AADE
100
AcDbModelDocViewStyle
 70
     0
  3
Imperial24
290
     0
100
AcDbDetailViewStyle
 70
     0
 71
     0
 90
        3
 71
     1
340
A852
 40
0.24
340
0
 40
0.24
300

 40
0.36
280
     3
 71
     2
340
A856
 90
       25
 71
     3
340
A852
 40
0.24
 90
        1
 40
0.75
 90
        1
300
%<\AcVar ViewType \f "%tc1">% %<\AcVar ViewDetailId>%\PSCALE %<\AcVar ViewScale \f "%sn">%
 71
     4
340
A856
 90
       25
340
A856
 90
       25
280
     0
  0
LAYOUT
  5
AAE0
102
{ACAD_XDICTIONARY
360
AB3C
102
}
102
{ACAD_REACTORS
330
A85A
102
}
330
A85A
100
AcDbPlotSettings
  1

  2
Canon LBP9100C
  4

  6

 40
0.0
 41
0.0
 42
0.0
 43
0.0
 44
0.0
 45
0.0
 46
0.0
 47
0.0
 48
0.0
 49
0.0
140
0.0
141
0.0
142
1.0
143
1.0
 70
  1712
 72
     0
 73
     0
 74
     0
  7

 75
     0
147
1.0
148
0.0
149
0.0
100
AcDbLayout
  1
Model
 70
     1
 71
     0
 10
0.0
 20
0.0
 11
12.0
 21
9.0
 12
0.0
 22
0.0
 32
0.0
 14
0.0
 24
0.0
 34
0.0
 15
0.0
 25
0.0
 35
0.0
146
0.0
 13
0.0
 23
0.0
 33
0.0
 16
1.0
 26
0.0
 36
0.0
 17
0.0
 27
1.0
 37
0.0
 76
     0
330
A85F
331
AA8B
  0
LAYOUT
  5
AAE1
102
{ACAD_XDICTIONARY
360
AB3E
102
}
102
{ACAD_REACTORS
330
A85A
102
}
330
A85A
100
AcDbPlotSettings
  1

  2
Canon LBP9100C
  4

  6

 40
0.0
 41
0.0
 42
0.0
 43
0.0
 44
0.0
 45
0.0
 46
0.0
 47
0.0
 48
0.0
 49
0.0
140
0.0
141
0.0
142
1.0
143
1.0
 70
   688
 72
     0
 73
     0
 74
     5
  7

 75
    16
147
1.0
148
0.0
149
0.0
100
AcDbLayout
  1
レイアウト1
 70
     0
 71
     1
 10
0.0
 20
0.0
 11
420.0
 21
297.0
 12
0.0
 22
0.0
 32
0.0
 14
1.000000000000000E+20
 24
1.000000000000000E+20
 34
1.000000000000000E+20
 15
-1.000000000000000E+20
 25
-1.000000000000000E+20
 35
-1.000000000000000E+20
146
0.0
 13
0.0
 23
0.0
 33
0.0
 16
1.0
 26
0.0
 36
0.0
 17
0.0
 27
1.0
 37
0.0
 76
     0
330
A85B
  0
MATERIAL
  5
AA9C
102
{ACAD_XDICTIONARY
360
AA9D
102
}
102
{ACAD_REACTORS
330
AA93
102
}
330
AA93
100
AcDbMaterial
  1
ByBlock
 72
     0
 43
0.0208333333333333
 43
0.0
 43
0.0
 43
0.0
 43
0.0
 43
0.0208333333333333
 43
0.0
 43
0.0
 43
0.0
 43
0.0
 43
1.0
 43
0.0
 43
0.0
 43
0.0
 43
0.0
 43
1.0
 77
     0
 47
0.0208333333333333
 47
0.0
 47
0.0
 47
0.0
 47
0.0
 47
0.0208333333333333
 47
0.0
 47
0.0
 47
0.0
 47
0.0
 47
1.0
 47
0.0
 47
0.0
 47
0.0
 47
0.0
 47
1.0
171
     0
 49
0.0208333333333333
 49
0.0
 49
0.0
 49
0.0
 49
0.0
 49
0.0208333333333333
 49
0.0
 49
0.0
 49
0.0
 49
0.0
 49
1.0
 49
0.0
 49
0.0
 49
0.0
 49
0.0
 49
1.0
175
     0
142
0.0208333333333333
142
0.0
142
0.0
142
0.0
142
0.0
142
0.0208333333333333
142
0.0
142
0.0
142
0.0
142
0.0
142
1.0
142
0.0
142
0.0
142
0.0
142
0.0
142
1.0
179
     0
144
0.0208333333333333
144
0.0
144
0.0
144
0.0
144
0.0
144
0.0208333333333333
144
0.0
144
0.0
144
0.0
144
0.0
144
1.0
144
0.0
144
0.0
144
0.0
144
0.0
144
1.0
147
0.0208333333333333
147
0.0
147
0.0
147
0.0
147
0.0
147
0.0208333333333333
147
0.0
147
0.0
147
0.0
147
0.0
147
1.0
147
0.0
147
0.0
147
0.0
147
0.0
147
1.0
  0
MATERIAL
  5
AA94
102
{ACAD_XDICTIONARY
360
AA95
102
}
102
{ACAD_REACTORS
330
AA93
102
}
330
AA93
100
AcDbMaterial
  1
ByLayer
 72
     0
 43
0.0208333333333333
 43
0.0
 43
0.0
 43
0.0
 43
0.0
 43
0.0208333333333333
 43
0.0
 43
0.0
 43
0.0
 43
0.0
 43
1.0
 43
0.0
 43
0.0
 43
0.0
 43
0.0
 43
1.0
 77
     0
 47
0.0208333333333333
 47
0.0
 47
0.0
 47
0.0
 47
0.0
 47
0.0208333333333333
 47
0.0
 47
0.0
 47
0.0
 47
0.0
 47
1.0
 47
0.0
 47
0.0
 47
0.0
 47
0.0
 47
1.0
171
     0
 49
0.0208333333333333
 49
0.0
 49
0.0
 49
0.0
 49
0.0
 49
0.0208333333333333
 49
0.0
 49
0.0
 49
0.0
 49
0.0
 49
1.0
 49
0.0
 49
0.0
 49
0.0
 49
0.0
 49
1.0
175
     0
142
0.0208333333333333
142
0.0
142
0.0
142
0.0
142
0.0
142
0.0208333333333333
142
0.0
142
0.0
142
0.0
142
0.0
142
1.0
142
0.0
142
0.0
142
0.0
142
0.0
142
1.0
179
     0
144
0.0208333333333333
144
0.0
144
0.0
144
0.0
144
0.0
144
0.0208333333333333
144
0.0
144
0.0
144
0.0
144
0.0
144
1.0
144
0.0
144
0.0
144
0.0
144
0.0
144
1.0
147
0.0208333333333333
147
0.0
147
0.0
147
0.0
147
0.0
147
0.0208333333333333
147
0.0
147
0.0
147
0.0
147
0.0
147
1.0
147
0.0
147
0.0
147
0.0
147
0.0
147
1.0
  0
MATERIAL
  5
AAA4
102
{ACAD_XDICTIONARY
360
AAA5
102
}
102
{ACAD_REACTORS
330
AA93
102
}
330
AA93
100
AcDbMaterial
  1
Global
 72
     0
 43
0.0208333333333333
 43
0.0
 43
0.0
 43
0.0
 43
0.0
 43
0.0208333333333333
 43
0.0
 43
0.0
 43
0.0
 43
0.0
 43
1.0
 43
0.0
 43
0.0
 43
0.0
 43
0.0
 43
1.0
 77
     0
 47
0.0208333333333333
 47
0.0
 47
0.0
 47
0.0
 47
0.0
 47
0.0208333333333333
 47
0.0
 47
0.0
 47
0.0
 47
0.0
 47
1.0
 47
0.0
 47
0.0
 47
0.0
 47
0.0
 47
1.0
171
     0
 49
0.0208333333333333
 49
0.0
 49
0.0
 49
0.0
 49
0.0
 49
0.0208333333333333
 49
0.0
 49
0.0
 49
0.0
 49
0.0
 49
1.0
 49
0.0
 49
0.0
 49
0.0
 49
0.0
 49
1.0
175
     0
142
0.0208333333333333
142
0.0
142
0.0
142
0.0
142
0.0
142
0.0208333333333333
142
0.0
142
0.0
142
0.0
142
0.0
142
1.0
142
0.0
142
0.0
142
0.0
142
0.0
142
1.0
179
     0
144
0.0208333333333333
144
0.0
144
0.0
144
0.0
144
0.0
144
0.0208333333333333
144
0.0
144
0.0
144
0.0
144
0.0
144
1.0
144
0.0
144
0.0
144
0.0
144
0.0
144
1.0
147
0.0208333333333333
147
0.0
147
0.0
147
0.0
147
0.0
147
0.0208333333333333
147
0.0
147
0.0
147
0.0
147
0.0
147
1.0
147
0.0
147
0.0
147
0.0
147
0.0
147
1.0
  0
MLEADERSTYLE
  5
AADB
102
{ACAD_REACTORS
330
AADA
102
}
330
AADA
100
AcDbMLeaderStyle
170
     2
171
     1
172
     0
 90
        2
 40
0.0
 41
0.0
173
     1
 91
-1056964608
340
A854
 92
       -2
290
     1
 42
0.09
291
     1
 43
0.36
  3
Standard
 44
0.18
300

342
A852
174
     1
178
     6
175
     1
176
     0
 93
-1056964608
 45
0.18
292
     0
297
     0
 46
0.18
 94
-1056964608
 47
1.0
 49
1.0
140
1.0
293
     1
141
0.0
294
     1
177
     0
142
1.0
295
     0
296
     0
143
0.125
1001
ACAD_MLEADERVER
1070
     2
  0
MLINESTYLE
  5
A858
102
{ACAD_REACTORS
330
A857
102
}
330
A857
100
AcDbMlineStyle
  2
STANDARD
 70
     0
  3

 62
   256
 51
90.0
 52
90.0
 71
     2
 49
0.5
 62
   256
  6
BYLAYER
 49
-0.5
 62
   256
  6
BYLAYER
  0
ACDBPLACEHOLDER
  5
AA92
102
{ACAD_REACTORS
330
AA91
102
}
330
AA91
  0
SCALE
  5
AAC9
102
{ACAD_REACTORS
330
AAC8
102
}
330
AAC8
100
AcDbScale
 70
     0
300
1:1
140
1.0
141
1.0
290
     1
  0
SCALE
  5
AACA
102
{ACAD_REACTORS
330
AAC8
102
}
330
AAC8
100
AcDbScale
 70
     0
300
1/128" = 1'-0"
140
0.0078125
141
12.0
290
     0
  0
SCALE
  5
AACB
102
{ACAD_REACTORS
330
AAC8
102
}
330
AAC8
100
AcDbScale
 70
     0
300
1/64" = 1'-0"
140
0.015625
141
12.0
290
     0
  0
SCALE
  5
AACC
102
{ACAD_REACTORS
330
AAC8
102
}
330
AAC8
100
AcDbScale
 70
     0
300
1/32" = 1'-0"
140
0.03125
141
12.0
290
     0
  0
SCALE
  5
AACD
102
{ACAD_REACTORS
330
AAC8
102
}
330
AAC8
100
AcDbScale
 70
     0
300
1/16" = 1'-0"
140
0.0625
141
12.0
290
     0
  0
SCALE
  5
AACE
102
{ACAD_REACTORS
330
AAC8
102
}
330
AAC8
100
AcDbScale
 70
     0
300
3/32" = 1'-0"
140
0.09375
141
12.0
290
     0
  0
SCALE
  5
AACF
102
{ACAD_REACTORS
330
AAC8
102
}
330
AAC8
100
AcDbScale
 70
     0
300
1/8" = 1'-0"
140
0.125
141
12.0
290
     0
  0
SCALE
  5
AAD0
102
{ACAD_REACTORS
330
AAC8
102
}
330
AAC8
100
AcDbScale
 70
     0
300
3/16" = 1'-0"
140
0.1875
141
12.0
290
     0
  0
SCALE
  5
AAD1
102
{ACAD_REACTORS
330
AAC8
102
}
330
AAC8
100
AcDbScale
 70
     0
300
1/4" = 1'-0"
140
0.25
141
12.0
290
     0
  0
SCALE
  5
AAD2
102
{ACAD_REACTORS
330
AAC8
102
}
330
AAC8
100
AcDbScale
 70
     0
300
3/8" = 1'-0"
140
0.375
141
12.0
290
     0
  0
SCALE
  5
AAD3
102
{ACAD_REACTORS
330
AAC8
102
}
330
AAC8
100
AcDbScale
 70
     0
300
1/2" = 1'-0"
140
0.5
141
12.0
290
     0
  0
SCALE
  5
AAD4
102
{ACAD_REACTORS
330
AAC8
102
}
330
AAC8
100
AcDbScale
 70
     0
300
3/4" = 1'-0"
140
0.75
141
12.0
290
     0
  0
SCALE
  5
AAD5
102
{ACAD_REACTORS
330
AAC8
102
}
330
AAC8
100
AcDbScale
 70
     0
300
1" = 1'-0"
140
1.0
141
12.0
290
     0
  0
SCALE
  5
AAD6
102
{ACAD_REACTORS
330
AAC8
102
}
330
AAC8
100
AcDbScale
 70
     0
300
1-1/2" = 1'-0"
140
1.5
141
12.0
290
     0
  0
SCALE
  5
AAD7
102
{ACAD_REACTORS
330
AAC8
102
}
330
AAC8
100
AcDbScale
 70
     0
300
3" = 1'-0"
140
3.0
141
12.0
290
     0
  0
SCALE
  5
AAD8
102
{ACAD_REACTORS
330
AAC8
102
}
330
AAC8
100
AcDbScale
 70
     0
300
6" = 1'-0"
140
6.0
141
12.0
290
     0
  0
SCALE
  5
AAD9
102
{ACAD_REACTORS
330
AAC8
102
}
330
AAC8
100
AcDbScale
 70
     0
300
1'-0" = 1'-0"
140
12.0
141
12.0
290
     0
  0
ACDBSECTIONVIEWSTYLE
  5
AADD
102
{ACAD_XDICTIONARY
360
AB38
102
}
102
{ACAD_REACTORS
330
AADC
102
}
330
AADC
100
AcDbModelDocViewStyle
 70
     0
  3
Imperial24
290
     0
100
AcDbSectionViewStyle
 70
     0
 71
     0
 90
       78
 71
     1
340
A852
 40
0.24
340
0
340
0
 40
0.24
300
I, O, Q, S, X, Z
 40
0.48
 90
        3
 40
0.18
 90
        1
 71
     2
340
A856
 90
       25
340
A856
 90
       50
 40
0.24
 40
0.0
 40
0.24
 71
     3
340
A852
 40
0.24
 90
        1
 40
0.75
 90
        1
300
%<\AcVar ViewType \f "%tc1">% %<\AcVar ViewSectionStartId>%-%<\AcVar ViewSectionEndId>%\PSCALE %<\AcVar ViewScale \f "%sn">%
 71
     4
300
ANSI31
 40
1.0
 90
        0
290
     0
290
     0
 90
        6
 40
0.0
 40
1.570796326794896
 40
0.2617993877991494
 40
1.308996938995747
 40
-0.2617993877991494
 40
1.832595714594046
  0
TABLESTYLE
  5
AAC7
102
{ACAD_XDICTIONARY
360
AAFF
102
}
102
{ACAD_REACTORS
330
AAC6
102
}
330
AAC6
100
AcDbTableStyle
  3
Standard
 70
     0
 71
     0
 40
0.06
 41
0.06
280
     0
281
     0
  7
STANDARD
140
0.18
170
     2
 62
     0
 63
     7
283
     0
274
    -2
284
     1
 64
     0
275
    -2
285
     1
 65
     0
276
    -2
286
     1
 66
     0
277
    -2
287
     1
 67
     0
278
    -2
288
     1
 68
     0
279
    -2
289
     1
 69
     0
  7
STANDARD
140
0.25
170
     5
 62
     0
 63
     7
283
     0
274
    -2
284
     1
 64
     0
275
    -2
285
     1
 65
     0
276
    -2
286
     1
 66
     0
277
    -2
287
     1
 67
     0
278
    -2
288
     1
 68
     0
279
    -2
289
     1
 69
     0
  7
STANDARD
140
0.18
170
     5
 62
     0
 63
     7
283
     0
274
    -2
284
     1
 64
     0
275
    -2
285
     1
 65
     0
276
    -2
286
     1
 66
     0
277
    -2
287
     1
 67
     0
278
    -2
288
     1
 68
     0
279
    -2
289
     1
 69
     0
  0
VISUALSTYLE
  5
AAB2
102
{ACAD_XDICTIONARY
360
AB10
102
}
102
{ACAD_REACTORS
330
AAAC
102
}
330
AAAC
100
AcDbVisualStyle
  2
2dWireframe
 70
     4
 71
     0
 72
     2
 73
     0
 90
        0
 40
-0.6
 41
-30.0
 62
     5
 63
     7
 74
     1
 91
        4
 64
     7
 65
   257
 75
     1
175
     1
 42
1.0
 92
        0
 66
   257
 43
1.0
 76
     1
 77
     6
 78
     2
 67
     7
 79
     5
170
     0
171
     0
290
     0
174
     0
 93
        1
 44
0.0
173
     0
291
     0
 45
0.0
1001
ACAD
1000
AcDbSavedByObjectVersion
1070
     0
  0
VISUALSTYLE
  5
AAB1
102
{ACAD_XDICTIONARY
360
AB0E
102
}
102
{ACAD_REACTORS
330
AAAC
102
}
330
AAAC
100
AcDbVisualStyle
  2
Basic
 70
     7
 71
     1
 72
     0
 73
     1
 90
        0
 40
-0.6
 41
-30.0
 62
     5
 63
     7
 74
     0
 91
        4
 64
     7
 65
   257
 75
     1
175
     1
 42
1.0
 92
        8
 66
     7
 43
1.0
 76
     1
 77
     6
 78
     2
 67
     7
 79
     5
170
     0
171
     0
290
     0
174
     0
 93
        1
 44
0.0
173
     0
291
     1
 45
0.0
1001
ACAD
1000
AcDbSavedByObjectVersion
1070
     0
  0
VISUALSTYLE
  5
AAB8
102
{ACAD_XDICTIONARY
360
AB1C
102
}
102
{ACAD_REACTORS
330
AAAC
102
}
330
AAAC
100
AcDbVisualStyle
  2
Brighten
 70
    12
 71
     2
 72
     2
 73
     0
 90
        0
 40
-0.6
 41
-30.0
 62
     5
 63
     7
 74
     1
 91
        4
 64
     7
 65
   257
 75
     1
175
     1
 42
1.0
 92
        8
 66
     7
 43
1.0
 76
     1
 77
     6
 78
     2
 67
     7
 79
     5
170
     0
171
     0
290
     0
174
     0
 93
        1
 44
50.0
173
     0
291
     1
 45
0.0
1001
ACAD
1000
AcDbSavedByObjectVersion
1070
     0
  0
VISUALSTYLE
  5
AABC
102
{ACAD_XDICTIONARY
360
AB24
102
}
102
{ACAD_REACTORS
330
AAAC
102
}
330
AAAC
100
AcDbVisualStyle
  2
ColorChange
 70
    16
 71
     2
 72
     2
 73
     3
 90
        0
 40
-0.6
 41
-30.0
 62
     5
 63
     8
 74
     1
 91
        4
 64
     7
 65
   257
 75
     1
175
     1
 42
1.0
 92
        8
 66
     8
 43
1.0
 76
     1
 77
     6
 78
     2
 67
     7
 79
     5
170
     0
171
     0
290
     0
174
     0
 93
        1
 44
0.0
173
     0
291
     1
 45
0.0
1001
ACAD
1000
AcDbSavedByObjectVersion
1070
     0
  0
VISUALSTYLE
  5
AAB5
102
{ACAD_XDICTIONARY
360
AB16
102
}
102
{ACAD_REACTORS
330
AAAC
102
}
330
AAAC
100
AcDbVisualStyle
  2
Conceptual
 70
     9
 71
     3
 72
     2
 73
     0
 90
        0
 40
-0.6
 41
-30.0
 62
     5
 63
     7
 74
     2
 91
        2
 64
     7
 65
   257
 75
     1
175
     1
 42
179.0
 92
        8
 66
     7
 43
1.0
 76
     1
 77
     6
 78
     2
 67
     7
 79
     3
170
     0
171
     0
290
     0
174
     0
 93
        1
 44
0.0
173
     0
291
     0
 45
0.0
1001
ACAD
1000
AcDbSavedByObjectVersion
1070
     0
  0
VISUALSTYLE
  5
AAB7
102
{ACAD_XDICTIONARY
360
AB1A
102
}
102
{ACAD_REACTORS
330
AAAC
102
}
330
AAAC
100
AcDbVisualStyle
  2
Dim
 70
    11
 71
     2
 72
     2
 73
     0
 90
        0
 40
-0.6
 41
-30.0
 62
     5
 63
     7
 74
     1
 91
        4
 64
     7
 65
   257
 75
     1
175
     1
 42
1.0
 92
        8
 66
     7
 43
1.0
 76
     1
 77
     6
 78
     2
 67
     7
 79
     5
170
     0
171
     0
290
     0
174
     0
 93
        1
 44
-50.0
173
     0
291
     1
 45
0.0
1001
ACAD
1000
AcDbSavedByObjectVersion
1070
     0
  0
VISUALSTYLE
  5
AAC4
102
{ACAD_XDICTIONARY
360
AB34
102
}
102
{ACAD_REACTORS
330
AAAC
102
}
330
AAAC
100
AcDbVisualStyle
  2
EdgeColorOff
 70
    22
 71
     2
 72
     2
 73
     0
 90
        0
 40
-0.6
 41
-30.0
 62
     5
 63
     7
 74
     1
 91
        4
 64
     7
 65
   257
 75
     1
175
     1
 42
1.0
 92
        8
 66
     7
 43
1.0
 76
     1
 77
     6
 78
     2
 67
     7
 79
     5
170
     0
171
     0
290
     0
174
     0
 93
        1
 44
0.0
173
     0
291
     1
 45
0.0
1001
ACAD
1000
AcDbSavedByObjectVersion
1070
     0
  0
VISUALSTYLE
  5
AABB
102
{ACAD_XDICTIONARY
360
AB22
102
}
102
{ACAD_REACTORS
330
AAAC
102
}
330
AAAC
100
AcDbVisualStyle
  2
Facepattern
 70
    15
 71
     2
 72
     2
 73
     0
 90
        0
 40
-0.6
 41
-30.0
 62
     5
 63
     7
 74
     1
 91
        4
 64
     7
 65
   257
 75
     1
175
     1
 42
1.0
 92
        8
 66
     7
 43
1.0
 76
     1
 77
     6
 78
     2
 67
     7
 79
     5
170
     0
171
     0
290
     0
174
     0
 93
        1
 44
0.0
173
     0
291
     1
 45
0.0
1001
ACAD
1000
AcDbSavedByObjectVersion
1070
     0
  0
VISUALSTYLE
  5
AAAD
102
{ACAD_XDICTIONARY
360
AB06
102
}
102
{ACAD_REACTORS
330
AAAC
102
}
330
AAAC
100
AcDbVisualStyle
  2
Flat
 70
     0
 71
     2
 72
     1
 73
     1
 90
        2
 40
-0.6
 41
30.0
 62
     5
 63
     7
 74
     0
 91
        0
 64
     7
 65
   257
 75
     1
175
     1
 42
1.0
 92
        8
 66
     7
 43
1.0
 76
     1
 77
     6
 78
     2
 67
     7
 79
     5
170
     0
171
     0
290
     0
174
     0
 93
       13
 44
0.0
173
     0
291
     1
 45
0.0
1001
ACAD
1000
AcDbSavedByObjectVersion
1070
     0
  0
VISUALSTYLE
  5
AAAE
102
{ACAD_XDICTIONARY
360
AB08
102
}
102
{ACAD_REACTORS
330
AAAC
102
}
330
AAAC
100
AcDbVisualStyle
  2
FlatWithEdges
 70
     1
 71
     2
 72
     1
 73
     1
 90
        2
 40
-0.6
 41
30.0
 62
     5
 63
     7
 74
     1
 91
        0
 64
     7
 65
   257
 75
     1
175
     1
 42
1.0
 92
        0
 66
   257
 43
1.0
 76
     1
 77
     6
 78
     2
 67
     7
 79
     5
170
     0
171
     0
290
     0
174
     0
 93
       13
 44
0.0
173
     0
291
     1
 45
0.0
1001
ACAD
1000
AcDbSavedByObjectVersion
1070
     0
  0
VISUALSTYLE
  5
AAAF
102
{ACAD_XDICTIONARY
360
AB0A
102
}
102
{ACAD_REACTORS
330
AAAC
102
}
330
AAAC
100
AcDbVisualStyle
  2
Gouraud
 70
     2
 71
     2
 72
     2
 73
     1
 90
        2
 40
-0.6
 41
30.0
 62
     5
 63
     7
 74
     0
 91
        0
 64
     7
 65
   257
 75
     1
175
     1
 42
1.0
 92
        0
 66
     7
 43
1.0
 76
     1
 77
     6
 78
     2
 67
     7
 79
     5
170
     0
171
     0
290
     0
174
     0
 93
       13
 44
0.0
173
     0
291
     1
 45
0.0
1001
ACAD
1000
AcDbSavedByObjectVersion
1070
     0
  0
VISUALSTYLE
  5
AAB0
102
{ACAD_XDICTIONARY
360
AB0C
102
}
102
{ACAD_REACTORS
330
AAAC
102
}
330
AAAC
100
AcDbVisualStyle
  2
GouraudWithEdges
 70
     3
 71
     2
 72
     2
 73
     1
 90
        2
 40
-0.6
 41
30.0
 62
     5
 63
     7
 74
     1
 91
        0
 64
     7
 65
   257
 75
     1
175
     1
 42
1.0
 92
        0
 66
   257
 43
1.0
 76
     1
 77
     6
 78
     2
 67
     7
 79
     5
170
     0
171
     0
290
     0
174
     0
 93
       13
 44
0.0
173
     0
291
     1
 45
0.0
1001
ACAD
1000
AcDbSavedByObjectVersion
1070
     0
  0
VISUALSTYLE
  5
AAB4
102
{ACAD_XDICTIONARY
360
AB14
102
}
102
{ACAD_REACTORS
330
AAAC
102
}
330
AAAC
100
AcDbVisualStyle
  2
Hidden
 70
     6
 71
     1
 72
     2
 73
     2
 90
        0
 40
-0.6
 41
-30.0
 62
     5
 63
     7
 74
     2
 91
        2
 64
     7
 65
   257
 75
     2
175
     1
 42
40.0
 92
        0
 66
   257
 43
1.0
 76
     1
 77
     6
 78
     2
 67
     7
 79
     3
170
     0
171
     0
290
     0
174
     0
 93
        1
 44
0.0
173
     0
291
     0
 45
0.0
1001
ACAD
1000
AcDbSavedByObjectVersion
1070
     0
  0
VISUALSTYLE
  5
AAC2
102
{ACAD_XDICTIONARY
360
AB30
102
}
102
{ACAD_REACTORS
330
AAAC
102
}
330
AAAC
100
AcDbVisualStyle
  2
JitterOff
 70
    20
 71
     2
 72
     2
 73
     0
 90
        0
 40
-0.6
 41
-30.0
 62
     5
 63
     7
 74
     1
 91
        4
 64
     7
 65
   257
 75
     1
175
     1
 42
1.0
 92
       10
 66
     7
 43
1.0
 76
     1
 77
     6
 78
     2
 67
     7
 79
     5
170
     0
171
     0
290
     0
174
     0
 93
        1
 44
0.0
173
     0
291
     1
 45
0.0
1001
ACAD
1000
AcDbSavedByObjectVersion
1070
     0
  0
VISUALSTYLE
  5
AABA
102
{ACAD_XDICTIONARY
360
AB20
102
}
102
{ACAD_REACTORS
330
AAAC
102
}
330
AAAC
100
AcDbVisualStyle
  2
Linepattern
 70
    14
 71
     2
 72
     2
 73
     0
 90
        0
 40
-0.6
 41
-30.0
 62
     5
 63
     7
 74
     1
 91
        4
 64
     7
 65
   257
 75
     7
175
     7
 42
1.0
 92
        8
 66
     7
 43
1.0
 76
     1
 77
     6
 78
     2
 67
     7
 79
     5
170
     0
171
     0
290
     0
174
     0
 93
        1
 44
0.0
173
     0
291
     1
 45
0.0
1001
ACAD
1000
AcDbSavedByObjectVersion
1070
     0
  0
VISUALSTYLE
  5
AAC3
102
{ACAD_XDICTIONARY
360
AB32
102
}
102
{ACAD_REACTORS
330
AAAC
102
}
330
AAAC
100
AcDbVisualStyle
  2
OverhangOff
 70
    21
 71
     2
 72
     2
 73
     0
 90
        0
 40
-0.6
 41
-30.0
 62
     5
 63
     7
 74
     1
 91
        4
 64
     7
 65
   257
 75
     1
175
     1
 42
1.0
 92
        9
 66
     7
 43
1.0
 76
     1
 77
     6
 78
     2
 67
     7
 79
     5
170
     0
171
     0
290
     0
174
     0
 93
        1
 44
0.0
173
     0
291
     1
 45
0.0
1001
ACAD
1000
AcDbSavedByObjectVersion
1070
     0
  0
VISUALSTYLE
  5
AAB6
102
{ACAD_XDICTIONARY
360
AB18
102
}
102
{ACAD_REACTORS
330
AAAC
102
}
330
AAAC
100
AcDbVisualStyle
  2
Realistic
 70
     8
 71
     2
 72
     3
 73
     0
 90
        2
 40
-0.6
 41
30.0
 62
     5
 63
     7
 74
     0
 91
        0
 64
     7
 65
   257
 75
     1
175
     1
 42
1.0
 92
        8
 66
   257
 43
1.0
 76
     1
 77
     6
 78
     2
 67
     7
 79
     3
170
     0
171
     0
290
     0
174
     0
 93
       13
 44
0.0
173
     0
291
     0
 45
0.0
1001
ACAD
1000
AcDbSavedByObjectVersion
1070
     0
  0
VISUALSTYLE
  5
AAC1
102
{ACAD_XDICTIONARY
360
AB2E
102
}
102
{ACAD_REACTORS
330
AAAC
102
}
330
AAAC
100
AcDbVisualStyle
  2
Shaded
 70
    27
 71
     2
 72
     2
 73
     1
 90
        2
 40
-0.6
 41
30.0
 62
     5
 63
     7
 74
     0
 91
        4
 64
     7
 65
   257
 75
     1
175
     1
 42
1.0
 92
        8
 66
   257
 43
1.0
 76
     1
 77
     6
 78
     2
 67
     8
 79
     3
170
     0
171
     0
290
     0
174
     0
 93
        5
 44
0.0
173
     0
291
     0
 45
0.0
1001
ACAD
1000
AcDbSavedByObjectVersion
1070
     0
  0
VISUALSTYLE
  5
AAC0
102
{ACAD_XDICTIONARY
360
AB2C
102
}
102
{ACAD_REACTORS
330
AAAC
102
}
330
AAAC
100
AcDbVisualStyle
  2
Shaded with edges
 70
    26
 71
     2
 72
     2
 73
     1
 90
        2
 40
-0.6
 41
30.0
 62
     5
 63
     7
 74
     1
 91
       10
 64
     7
 65
   257
 75
     2
175
     1
 42
1.0
 92
        8
 66
   257
 43
1.0
 76
     1
 77
     6
 78
     2
 67
     7
 79
     3
170
     0
171
     0
290
     0
174
     0
 93
        5
 44
0.0
173
     0
291
     0
 45
0.0
1001
ACAD
1000
AcDbSavedByObjectVersion
1070
     0
  0
VISUALSTYLE
  5
AABD
102
{ACAD_XDICTIONARY
360
AB26
102
}
102
{ACAD_REACTORS
330
AAAC
102
}
330
AAAC
100
AcDbVisualStyle
  2
Shades of Gray
 70
    23
 71
     2
 72
     2
 73
     3
 90
        0
 40
-0.6
 41
-30.0
 62
     5
 63
     7
 74
     2
 91
        2
 64
     7
 65
     7
 75
     1
175
     1
 42
40.0
 92
        8
 66
     7
 43
1.0
 76
     1
 77
     6
 78
     2
 67
     7
 79
     3
170
     0
171
     0
290
     0
174
     0
 93
        1
 44
0.0
173
     0
291
     0
 45
0.0
1001
ACAD
1000
AcDbSavedByObjectVersion
1070
     0
  0
VISUALSTYLE
  5
AABE
102
{ACAD_XDICTIONARY
360
AB28
102
}
102
{ACAD_REACTORS
330
AAAC
102
}
330
AAAC
100
AcDbVisualStyle
  2
Sketchy
 70
    24
 71
     1
 72
     2
 73
     2
 90
        0
 40
-0.6
 41
-30.0
 62
     5
 63
     7
 74
     2
 91
        2
 64
     7
 65
     7
 75
     1
175
     1
 42
40.0
 92
       11
 66
     7
 43
1.0
 76
     1
 77
     6
 78
     2
 67
     7
 79
     6
170
     0
171
     0
290
     0
174
     0
 93
        1
 44
0.0
173
     0
291
     0
 45
0.0
1001
ACAD
1000
AcDbSavedByObjectVersion
1070
     0
  0
VISUALSTYLE
  5
AAB9
102
{ACAD_XDICTIONARY
360
AB1E
102
}
102
{ACAD_REACTORS
330
AAAC
102
}
330
AAAC
100
AcDbVisualStyle
  2
Thicken
 70
    13
 71
     2
 72
     2
 73
     0
 90
        0
 40
-0.6
 41
-30.0
 62
     5
 63
     7
 74
     1
 91
        4
 64
     7
 65
   257
 75
     1
175
     1
 42
1.0
 92
       12
 66
     7
 43
1.0
 76
     1
 77
     6
 78
     2
 67
     7
 79
     5
170
     0
171
     0
290
     0
174
     0
 93
        1
 44
0.0
173
     0
291
     1
 45
0.0
1001
ACAD
1000
AcDbSavedByObjectVersion
1070
     0
  0
VISUALSTYLE
  5
AAB3
102
{ACAD_XDICTIONARY
360
AB12
102
}
102
{ACAD_REACTORS
330
AAAC
102
}
330
AAAC
100
AcDbVisualStyle
  2
Wireframe
 70
     5
 71
     0
 72
     2
 73
     0
 90
        0
 40
-0.6
 41
-30.0
 62
     5
 63
     7
 74
     1
 91
        4
 64
     7
 65
   257
 75
     1
175
     1
 42
1.0
 92
        0
 66
   257
 43
1.0
 76
     1
 77
     6
 78
     2
 67
     7
 79
     3
170
     0
171
     0
290
     0
174
     0
 93
        1
 44
0.0
173
     0
291
     0
 45
0.0
1001
ACAD
1000
AcDbSavedByObjectVersion
1070
     0
  0
VISUALSTYLE
  5
AABF
102
{ACAD_XDICTIONARY
360
AB2A
102
}
102
{ACAD_REACTORS
330
AAAC
102
}
330
AAAC
100
AcDbVisualStyle
  2
X-Ray
 70
    25
 71
     2
 72
     2
 73
     1
 90
        1
 40
0.5
 41
-30.0
 62
     5
 63
     7
 74
     1
 91
        0
 64
     7
 65
   257
 75
     1
175
     1
 42
1.0
 92
        8
 66
     7
 43
1.0
 76
     1
 77
     6
 78
     2
 67
     7
 79
     3
170
     0
171
     0
290
     0
174
     0
 93
       13
 44
0.0
173
     0
291
     0
 45
0.0
1001
ACAD
1000
AcDbSavedByObjectVersion
1070
     0
  0
DICTIONARYVAR
  5
AAF9
102
{ACAD_REACTORS
330
AAF4
102
}
330
AAF4
100
DictionaryVariables
280
     0
  1
1:1
  0
DICTIONARYVAR
  5
AAF6
102
{ACAD_REACTORS
330
AAF4
102
}
330
AAF4
100
DictionaryVariables
280
     0
  1
STANDARD
  0
DICTIONARYVAR
  5
AAF5
102
{ACAD_REACTORS
330
AAF4
102
}
330
AAF4
100
DictionaryVariables
280
     0
  1
STANDARD
  0
DICTIONARYVAR
  5
AAF7
102
{ACAD_REACTORS
330
AAF4
102
}
330
AAF4
100
DictionaryVariables
280
     0
  1
Imperial24
  0
DICTIONARYVAR
  5
AAF8
102
{ACAD_REACTORS
330
AAF4
102
}
330
AAF4
100
DictionaryVariables
280
     0
  1
Imperial24
  0
DICTIONARYVAR
  5
AAFC
102
{ACAD_REACTORS
330
AAF4
102
}
330
AAF4
100
DictionaryVariables
280
     0
  1
1
  0
DICTIONARYVAR
  5
AAFB
102
{ACAD_REACTORS
330
AAF4
102
}
330
AAF4
100
DictionaryVariables
280
     0
  1
0
  0
DICTIONARYVAR
  5
AAFA
102
{ACAD_REACTORS
330
AAF4
102
}
330
AAF4
100
DictionaryVariables
280
     0
  1
127
  0
DICTIONARYVAR
  5
AAFD
102
{ACAD_REACTORS
330
AAF4
102
}
330
AAF4
100
DictionaryVariables
280
     0
  1
2
  0
DICTIONARY
  5
AB3A
330
AADF
100
AcDbDictionary
280
     1
281
     1
  3
ACAD_XREC_ROUNDTRIP
360
AB3B
  0
DICTIONARY
  5
AB3C
330
AAE0
100
AcDbDictionary
280
     1
281
     1
  3
ACAD_XREC_ROUNDTRIP
360
AB3D
  0
DICTIONARY
  5
AB3E
330
AAE1
100
AcDbDictionary
280
     1
281
     1
  3
ACAD_XREC_ROUNDTRIP
360
AB3F
  0
DICTIONARY
  5
AA9D
330
AA9C
100
AcDbDictionary
280
     1
281
     1
  3
ACAD_XREC_ROUNDTRIP
360
AB04
  3
BUMPTILE
360
AA9F
  3
DIFFUSETILE
360
AA9E
  3
OPACITYTILE
360
AAA2
  3
REFLECTIONTILE
360
AAA1
  3
REFRACTIONTILE
360
AAA3
  3
SPECULARTILE
360
AAA0
  0
DICTIONARY
  5
AA95
330
AA94
100
AcDbDictionary
280
     1
281
     1
  3
ACAD_XREC_ROUNDTRIP
360
AB03
  3
BUMPTILE
360
AA97
  3
DIFFUSETILE
360
AA96
  3
OPACITYTILE
360
AA9A
  3
REFLECTIONTILE
360
AA99
  3
REFRACTIONTILE
360
AA9B
  3
SPECULARTILE
360
AA98
  0
DICTIONARY
  5
AAA5
330
AAA4
100
AcDbDictionary
280
     1
281
     1
  3
ACAD_XREC_ROUNDTRIP
360
AB05
  3
BUMPTILE
360
AAA7
  3
DIFFUSETILE
360
AAA6
  3
OPACITYTILE
360
AAAA
  3
REFLECTIONTILE
360
AAA9
  3
REFRACTIONTILE
360
AAAB
  3
SPECULARTILE
360
AAA8
  0
DICTIONARY
  5
AB38
330
AADD
100
AcDbDictionary
280
     1
281
     1
  3
ACAD_XREC_ROUNDTRIP
360
AB39
  0
DICTIONARY
  5
AAFF
330
AAC7
100
AcDbDictionary
280
     1
281
     1
  3
ACAD_ROUNDTRIP_2008_TABLESTYLE_CELLSTYLEMAP
360
AB00
  3
ACAD_XREC_ROUNDTRIP
360
AB36
  0
DICTIONARY
  5
AB10
330
AAB2
100
AcDbDictionary
280
     1
281
     1
  3
ACAD_XREC_ROUNDTRIP
360
AB11
  0
DICTIONARY
  5
AB0E
330
AAB1
100
AcDbDictionary
280
     1
281
     1
  3
ACAD_XREC_ROUNDTRIP
360
AB0F
  0
DICTIONARY
  5
AB1C
330
AAB8
100
AcDbDictionary
280
     1
281
     1
  3
ACAD_XREC_ROUNDTRIP
360
AB1D
  0
DICTIONARY
  5
AB24
330
AABC
100
AcDbDictionary
280
     1
281
     1
  3
ACAD_XREC_ROUNDTRIP
360
AB25
  0
DICTIONARY
  5
AB16
330
AAB5
100
AcDbDictionary
280
     1
281
     1
  3
ACAD_XREC_ROUNDTRIP
360
AB17
  0
DICTIONARY
  5
AB1A
330
AAB7
100
AcDbDictionary
280
     1
281
     1
  3
ACAD_XREC_ROUNDTRIP
360
AB1B
  0
DICTIONARY
  5
AB34
330
AAC4
100
AcDbDictionary
280
     1
281
     1
  3
ACAD_XREC_ROUNDTRIP
360
AB35
  0
DICTIONARY
  5
AB22
330
AABB
100
AcDbDictionary
280
     1
281
     1
  3
ACAD_XREC_ROUNDTRIP
360
AB23
  0
DICTIONARY
  5
AB06
330
AAAD
100
AcDbDictionary
280
     1
281
     1
  3
ACAD_XREC_ROUNDTRIP
360
AB07
  0
DICTIONARY
  5
AB08
330
AAAE
100
AcDbDictionary
280
     1
281
     1
  3
ACAD_XREC_ROUNDTRIP
360
AB09
  0
DICTIONARY
  5
AB0A
330
AAAF
100
AcDbDictionary
280
     1
281
     1
  3
ACAD_XREC_ROUNDTRIP
360
AB0B
  0
DICTIONARY
  5
AB0C
330
AAB0
100
AcDbDictionary
280
     1
281
     1
  3
ACAD_XREC_ROUNDTRIP
360
AB0D
  0
DICTIONARY
  5
AB14
330
AAB4
100
AcDbDictionary
280
     1
281
     1
  3
ACAD_XREC_ROUNDTRIP
360
AB15
  0
DICTIONARY
  5
AB30
330
AAC2
100
AcDbDictionary
280
     1
281
     1
  3
ACAD_XREC_ROUNDTRIP
360
AB31
  0
DICTIONARY
  5
AB20
330
AABA
100
AcDbDictionary
280
     1
281
     1
  3
ACAD_XREC_ROUNDTRIP
360
AB21
  0
DICTIONARY
  5
AB32
330
AAC3
100
AcDbDictionary
280
     1
281
     1
  3
ACAD_XREC_ROUNDTRIP
360
AB33
  0
DICTIONARY
  5
AB18
330
AAB6
100
AcDbDictionary
280
     1
281
     1
  3
ACAD_XREC_ROUNDTRIP
360
AB19
  0
DICTIONARY
  5
AB2E
330
AAC1
100
AcDbDictionary
280
     1
281
     1
  3
ACAD_XREC_ROUNDTRIP
360
AB2F
  0
DICTIONARY
  5
AB2C
330
AAC0
100
AcDbDictionary
280
     1
281
     1
  3
ACAD_XREC_ROUNDTRIP
360
AB2D
  0
DICTIONARY
  5
AB26
330
AABD
100
AcDbDictionary
280
     1
281
     1
  3
ACAD_XREC_ROUNDTRIP
360
AB27
  0
DICTIONARY
  5
AB28
330
AABE
100
AcDbDictionary
280
     1
281
     1
  3
ACAD_XREC_ROUNDTRIP
360
AB29
  0
DICTIONARY
  5
AB1E
330
AAB9
100
AcDbDictionary
280
     1
281
     1
  3
ACAD_XREC_ROUNDTRIP
360
AB1F
  0
DICTIONARY
  5
AB12
330
AAB3
100
AcDbDictionary
280
     1
281
     1
  3
ACAD_XREC_ROUNDTRIP
360
AB13
  0
DICTIONARY
  5
AB2A
330
AABF
100
AcDbDictionary
280
     1
281
     1
  3
ACAD_XREC_ROUNDTRIP
360
AB2B
  0
XRECORD
  5
AB3B
102
{ACAD_REACTORS
330
AB3A
102
}
330
AB3A
100
AcDbXrecord
280
     1
102
DISPLAYNAME
  1
Imperial24
102
FLAGS
 90
        0
  0
XRECORD
  5
AB3D
102
{ACAD_REACTORS
330
AB3C
102
}
330
AB3C
100
AcDbXrecord
280
     1
102
SHADEPLOT
 70
     0
102
SHADEPLOTRESLEVEL
 70
     2
102
SHADEPLOTCUSTOMDPI
 70
   300
  0
XRECORD
  5
AB3F
102
{ACAD_REACTORS
330
AB3E
102
}
330
AB3E
100
AcDbXrecord
280
     1
102
SHADEPLOT
 70
     0
102
SHADEPLOTRESLEVEL
 70
     2
102
SHADEPLOTCUSTOMDPI
 70
   300
  0
XRECORD
  5
AB04
102
{ACAD_REACTORS
330
AA9D
102
}
330
AA9D
100
AcDbXrecord
280
     1
102
MATERIAL
148
0.0
149
0.0
149
0.0
 93
        0
 94
      127
282
     0
 72
     0
 77
     0
171
     0
175
     0
179
     0
273
     0
  0
XRECORD
  5
AA9F
102
{ACAD_REACTORS
330
AA9D
102
}
330
AA9D
100
AcDbXrecord
280
     1
270
     1
271
     1
  0
XRECORD
  5
AA9E
102
{ACAD_REACTORS
330
AA9D
102
}
330
AA9D
100
AcDbXrecord
280
     1
270
     1
271
     1
  0
XRECORD
  5
AAA2
102
{ACAD_REACTORS
330
AA9D
102
}
330
AA9D
100
AcDbXrecord
280
     1
270
     1
271
     1
  0
XRECORD
  5
AAA1
102
{ACAD_REACTORS
330
AA9D
102
}
330
AA9D
100
AcDbXrecord
280
     1
270
     1
271
     1
  0
XRECORD
  5
AAA3
102
{ACAD_REACTORS
330
AA9D
102
}
330
AA9D
100
AcDbXrecord
280
     1
270
     1
271
     1
  0
XRECORD
  5
AAA0
102
{ACAD_REACTORS
330
AA9D
102
}
330
AA9D
100
AcDbXrecord
280
     1
270
     1
271
     1
  0
XRECORD
  5
AB03
102
{ACAD_REACTORS
330
AA95
102
}
330
AA95
100
AcDbXrecord
280
     1
102
MATERIAL
148
0.0
149
0.0
149
0.0
 93
        0
 94
      127
282
     0
 72
     0
 77
     0
171
     0
175
     0
179
     0
273
     0
  0
XRECORD
  5
AA97
102
{ACAD_REACTORS
330
AA95
102
}
330
AA95
100
AcDbXrecord
280
     1
270
     1
271
     1
  0
XRECORD
  5
AA96
102
{ACAD_REACTORS
330
AA95
102
}
330
AA95
100
AcDbXrecord
280
     1
270
     1
271
     1
  0
XRECORD
  5
AA9A
102
{ACAD_REACTORS
330
AA95
102
}
330
AA95
100
AcDbXrecord
280
     1
270
     1
271
     1
  0
XRECORD
  5
AA99
102
{ACAD_REACTORS
330
AA95
102
}
330
AA95
100
AcDbXrecord
280
     1
270
     1
271
     1
  0
XRECORD
  5
AA9B
102
{ACAD_REACTORS
330
AA95
102
}
330
AA95
100
AcDbXrecord
280
     1
270
     1
271
     1
  0
XRECORD
  5
AA98
102
{ACAD_REACTORS
330
AA95
102
}
330
AA95
100
AcDbXrecord
280
     1
270
     1
271
     1
  0
XRECORD
  5
AB05
102
{ACAD_REACTORS
330
AAA5
102
}
330
AAA5
100
AcDbXrecord
280
     1
102
MATERIAL
148
0.0
149
0.0
149
0.0
 93
        0
 94
      127
282
     0
 72
     0
 77
     0
171
     0
175
     0
179
     0
273
     0
  0
XRECORD
  5
AAA7
102
{ACAD_REACTORS
330
AAA5
102
}
330
AAA5
100
AcDbXrecord
280
     1
270
     1
271
     1
  0
XRECORD
  5
AAA6
102
{ACAD_REACTORS
330
AAA5
102
}
330
AAA5
100
AcDbXrecord
280
     1
270
     1
271
     1
  0
XRECORD
  5
AAAA
102
{ACAD_REACTORS
330
AAA5
102
}
330
AAA5
100
AcDbXrecord
280
     1
270
     1
271
     1
  0
XRECORD
  5
AAA9
102
{ACAD_REACTORS
330
AAA5
102
}
330
AAA5
100
AcDbXrecord
280
     1
270
     1
271
     1
  0
XRECORD
  5
AAAB
102
{ACAD_REACTORS
330
AAA5
102
}
330
AAA5
100
AcDbXrecord
280
     1
270
     1
271
     1
  0
XRECORD
  5
AAA8
102
{ACAD_REACTORS
330
AAA5
102
}
330
AAA5
100
AcDbXrecord
280
     1
270
     1
271
     1
  0
XRECORD
  5
AB39
102
{ACAD_REACTORS
330
AB38
102
}
330
AB38
100
AcDbXrecord
280
     1
102
DISPLAYNAME
  1
Imperial24
102
FLAGS
 90
        0
  0
CELLSTYLEMAP
  5
AB00
102
{ACAD_REACTORS
330
AAFF
102
}
330
AAFF
100
AcDbCellStyleMap
 90
        3
300
CELLSTYLE
  1
TABLEFORMAT_BEGIN
 90
        5
170
     1
 91
        0
 92
    32768
 62
   257
 93
        1
300
CONTENTFORMAT
  1
CONTENTFORMAT_BEGIN
 90
        0
 91
        0
 92
      512
 93
        0
300

 40
0.0
140
1.0
 94
        5
 62
     0
340
A852
144
0.25
309
CONTENTFORMAT_END
171
     0
 94
        0
309
TABLEFORMAT_END
  1
CELLSTYLE_BEGIN
 90
        1
 91
        1
300
_TITLE
309
CELLSTYLE_END
300
CELLSTYLE
  1
TABLEFORMAT_BEGIN
 90
        5
170
     1
 91
        0
 92
        0
 62
   257
 93
        1
300
CONTENTFORMAT
  1
CONTENTFORMAT_BEGIN
 90
        0
 91
        0
 92
      512
 93
        0
300

 40
0.0
140
1.0
 94
        5
 62
     0
340
A852
144
0.18
309
CONTENTFORMAT_END
171
     0
 94
        0
309
TABLEFORMAT_END
  1
CELLSTYLE_BEGIN
 90
        2
 91
        1
300
_HEADER
309
CELLSTYLE_END
300
CELLSTYLE
  1
TABLEFORMAT_BEGIN
 90
        5
170
     1
 91
        0
 92
        0
 62
   257
 93
        1
300
CONTENTFORMAT
  1
CONTENTFORMAT_BEGIN
 90
        0
 91
        0
 92
      512
 93
        0
300

 40
0.0
140
1.0
 94
        2
 62
     0
340
A852
144
0.18
309
CONTENTFORMAT_END
171
     0
 94
        0
309
TABLEFORMAT_END
  1
CELLSTYLE_BEGIN
 90
        3
 91
        2
300
_DATA
309
CELLSTYLE_END
  0
XRECORD
  5
AB36
102
{ACAD_REACTORS
330
AAFF
102
}
330
AAFF
100
AcDbXrecord
280
     1
102
ACAD_ROUNDTRIP_PRE2007_TABLESTYLE
 90
      512
 91
        0
  1

 92
      512
 93
        0
  2

 94
      512
 95
        0
  3

  0
XRECORD
  5
AB11
102
{ACAD_REACTORS
330
AB10
102
}
330
AB10
100
AcDbXrecord
280
     1
102
RTVSPost2010Prop28
280
     1
102
RTVSPost2010PropOp28
 70
     1
102
RTVSPost2010Prop29
280
     1
102
RTVSPost2010PropOp29
 70
     1
102
RTVSPost2010Prop30
280
     0
102
RTVSPost2010PropOp30
 70
     1
102
RTVSPost2010Prop31
280
     0
102
RTVSPost2010PropOp31
 70
     1
102
RTVSPost2010Prop32
280
     0
102
RTVSPost2010PropOp32
 70
     1
102
RTVSPost2010Prop33
280
     0
102
RTVSPost2010PropOp33
 70
     1
102
RTVSPost2010Prop34
280
     0
102
RTVSPost2010PropOp34
 70
     1
102
RTVSPost2010Prop35
280
     0
102
RTVSPost2010PropOp35
 70
     1
102
RTVSPost2010Prop36
280
     0
102
RTVSPost2010PropOp36
 70
     1
102
RTVSPost2010Prop37
 90
       50
102
RTVSPost2010PropOp37
 70
     1
102
RTVSPost2010Prop38
140
0.0
102
RTVSPost2010PropOp38
 70
     1
102
RTVSPost2010Prop39
140
1.0
102
RTVSPost2010PropOp39
 70
     1
102
RTVSPost2010Prop40
 90
        0
102
RTVSPost2010PropOp40
 70
     1
102
RTVSPost2010Prop41ColorIndex
 90
       18
102
RTVSPost2010Prop41ColorRGB
 90
        0
102
RTVSPost2010PropOp41
 70
     1
102
RTVSPost2010Prop42
 90
       50
102
RTVSPost2010PropOp42
 70
     1
102
RTVSPost2010Prop43
 90
        3
102
RTVSPost2010PropOp43
 70
     1
102
RTVSPost2010Prop44ColorIndex
 90
        5
102
RTVSPost2010Prop44ColorRGB
 90
      255
102
RTVSPost2010PropOp44
 70
     1
102
RTVSPost2010Prop45
280
     0
102
RTVSPost2010PropOp45
 70
     1
102
RTVSPost2010Prop46
 90
       50
102
RTVSPost2010PropOp46
 70
     1
102
RTVSPost2010Prop47
 90
       50
102
RTVSPost2010PropOp47
 70
     1
102
RTVSPost2010Prop48
 90
       50
102
RTVSPost2010PropOp48
 70
     1
102
RTVSPost2010Prop49
280
     0
102
RTVSPost2010PropOp49
 70
     1
102
RTVSPost2010Prop50
 90
       50
102
RTVSPost2010PropOp50
 70
     1
102
RTVSPost2010Prop51ColorIndex
 90
      256
102
RTVSPost2010Prop51ColorRGB
 90
-16777216
102
RTVSPost2010PropOp51
 70
     0
102
RTVSPost2010Prop52
140
1.0
102
RTVSPost2010PropOp52
 70
     0
102
RTVSPost2010Prop53
 90
        2
102
RTVSPost2010PropOp53
 70
     1
102
RTVSPost2010Prop54
  1
strokes_ogs.tif
102
RTVSPost2010PropOp54
 70
     1
102
RTVSPost2010Prop55
280
     0
102
RTVSPost2010PropOp55
 70
     1
102
RTVSPost2010Prop56
140
1.0
102
RTVSPost2010PropOp56
 70
     1
102
RTVSPost2010Prop57
140
1.0
102
RTVSPost2010PropOp57
 70
     1
102
RTVSPropertyOp0
 70
     1
102
RTVSPropertyOp1
 70
     1
102
RTVSPropertyOp2
 70
     1
102
RTVSPropertyOp3
 70
     1
102
RTVSPropertyOp4
 70
     1
102
RTVSPropertyOp5
 70
     1
102
RTVSPropertyOp6
 70
     1
102
RTVSPropertyOp7
 70
     1
102
RTVSPropertyOp8
 70
     1
102
RTVSPropertyOp9
 70
     1
102
RTVSPropertyOp10
 70
     1
102
RTVSPropertyOp11
 70
     1
102
RTVSPropertyOp12
 70
     1
102
RTVSPropertyOp13
 70
     1
102
RTVSPropertyOp14
 70
     1
102
RTVSPropertyOp15
 70
     1
102
RTVSPropertyOp16
 70
     1
102
RTVSPropertyOp17
 70
     1
102
RTVSPropertyOp18
 70
     1
102
RTVSPropertyOp19
 70
     1
102
RTVSPropertyOp20
 70
     1
102
RTVSPropertyOp21
 70
     1
102
RTVSPropertyOp22
 70
     1
102
RTVSPropertyOp23
 70
     1
102
RTVSPropertyOp24
 70
     1
102
RTVSPropertyOp25
 70
     1
102
RTVSPropertyOp26
 70
     1
102
RTVSPropertyOp27
 70
     1
102
RTVSPropertyOp28
 70
     1
102
RTVSPropertyOp29
 70
     1
102
RTVSPropertyOp30
 70
     1
102
RTVSPropertyOp31
 70
     1
102
RTVSPropertyOp32
 70
     1
102
RTVSPropertyOp33
 70
     1
102
RTVSPropertyOp34
 70
     1
102
RTVSPropertyOp35
 70
     1
102
RTVSPropertyOp36
 70
     1
102
RTVSPropertyOp37
 70
     1
102
RTVSPropertyOp38
 70
     1
102
RTVSPropertyOp39
 70
     1
102
RTVSPropertyOp40
 70
     1
102
RTVSPropertyOp41
 70
     1
102
RTVSPropertyOp42
 70
     1
102
RTVSPropertyOp43
 70
     1
102
RTVSPropertyOp44
 70
     1
102
RTVSPropertyOp45
 70
     1
102
RTVSPropertyOp46
 70
     1
102
RTVSPropertyOp47
 70
     1
102
RTVSPropertyOp48
 70
     1
102
RTVSPropertyOp49
 70
     1
102
RTVSPropertyOp50
 70
     1
102
RTVSPropertyOp51
 70
     0
102
RTVSPropertyOp52
 70
     0
102
RTVSPropertyOp53
 70
     1
102
RTVSPropertyOp54
 70
     1
102
RTVSPropertyOp55
 70
     1
102
RTVSPropertyOp56
 70
     1
102
RTVSPropertyOp57
 70
     1
102
RTVSPropertyOp58
 70
     1
102
RTVSPropertyOp59
 70
     1
102
RTVSPropertyOp60
 70
     1
102
RTVSPropertyOp61
 70
     1
102
RTVSPropertyOp62
 70
     1
  0
XRECORD
  5
AB0F
102
{ACAD_REACTORS
330
AB0E
102
}
330
AB0E
100
AcDbXrecord
280
     1
102
RTVSPost2010Prop28
280
     0
102
RTVSPost2010PropOp28
 70
     1
102
RTVSPost2010Prop29
280
     1
102
RTVSPost2010PropOp29
 70
     1
102
RTVSPost2010Prop30
280
     1
102
RTVSPost2010PropOp30
 70
     1
102
RTVSPost2010Prop31
280
     0
102
RTVSPost2010PropOp31
 70
     1
102
RTVSPost2010Prop32
280
     0
102
RTVSPost2010PropOp32
 70
     1
102
RTVSPost2010Prop33
280
     0
102
RTVSPost2010PropOp33
 70
     1
102
RTVSPost2010Prop34
280
     0
102
RTVSPost2010PropOp34
 70
     1
102
RTVSPost2010Prop35
280
     0
102
RTVSPost2010PropOp35
 70
     1
102
RTVSPost2010Prop36
280
     0
102
RTVSPost2010PropOp36
 70
     1
102
RTVSPost2010Prop37
 90
       50
102
RTVSPost2010PropOp37
 70
     1
102
RTVSPost2010Prop38
140
0.0
102
RTVSPost2010PropOp38
 70
     1
102
RTVSPost2010Prop39
140
1.0
102
RTVSPost2010PropOp39
 70
     1
102
RTVSPost2010Prop40
 90
        0
102
RTVSPost2010PropOp40
 70
     1
102
RTVSPost2010Prop41ColorIndex
 90
       18
102
RTVSPost2010Prop41ColorRGB
 90
        0
102
RTVSPost2010PropOp41
 70
     1
102
RTVSPost2010Prop42
 90
       50
102
RTVSPost2010PropOp42
 70
     1
102
RTVSPost2010Prop43
 90
        3
102
RTVSPost2010PropOp43
 70
     1
102
RTVSPost2010Prop44ColorIndex
 90
        5
102
RTVSPost2010Prop44ColorRGB
 90
      255
102
RTVSPost2010PropOp44
 70
     1
102
RTVSPost2010Prop45
280
     0
102
RTVSPost2010PropOp45
 70
     1
102
RTVSPost2010Prop46
 90
       50
102
RTVSPost2010PropOp46
 70
     1
102
RTVSPost2010Prop47
 90
       50
102
RTVSPost2010PropOp47
 70
     1
102
RTVSPost2010Prop48
 90
       50
102
RTVSPost2010PropOp48
 70
     1
102
RTVSPost2010Prop49
280
     0
102
RTVSPost2010PropOp49
 70
     1
102
RTVSPost2010Prop50
 90
       50
102
RTVSPost2010PropOp50
 70
     1
102
RTVSPost2010Prop51ColorIndex
 90
      256
102
RTVSPost2010Prop51ColorRGB
 90
-16777216
102
RTVSPost2010PropOp51
 70
     0
102
RTVSPost2010Prop52
140
1.0
102
RTVSPost2010PropOp52
 70
     0
102
RTVSPost2010Prop53
 90
        2
102
RTVSPost2010PropOp53
 70
     1
102
RTVSPost2010Prop54
  1
strokes_ogs.tif
102
RTVSPost2010PropOp54
 70
     1
102
RTVSPost2010Prop55
280
     0
102
RTVSPost2010PropOp55
 70
     1
102
RTVSPost2010Prop56
140
1.0
102
RTVSPost2010PropOp56
 70
     1
102
RTVSPost2010Prop57
140
1.0
102
RTVSPost2010PropOp57
 70
     1
102
RTVSPropertyOp0
 70
     1
102
RTVSPropertyOp1
 70
     1
102
RTVSPropertyOp2
 70
     1
102
RTVSPropertyOp3
 70
     1
102
RTVSPropertyOp4
 70
     1
102
RTVSPropertyOp5
 70
     1
102
RTVSPropertyOp6
 70
     1
102
RTVSPropertyOp7
 70
     1
102
RTVSPropertyOp8
 70
     1
102
RTVSPropertyOp9
 70
     1
102
RTVSPropertyOp10
 70
     1
102
RTVSPropertyOp11
 70
     1
102
RTVSPropertyOp12
 70
     1
102
RTVSPropertyOp13
 70
     1
102
RTVSPropertyOp14
 70
     1
102
RTVSPropertyOp15
 70
     1
102
RTVSPropertyOp16
 70
     1
102
RTVSPropertyOp17
 70
     1
102
RTVSPropertyOp18
 70
     1
102
RTVSPropertyOp19
 70
     1
102
RTVSPropertyOp20
 70
     1
102
RTVSPropertyOp21
 70
     1
102
RTVSPropertyOp22
 70
     1
102
RTVSPropertyOp23
 70
     1
102
RTVSPropertyOp24
 70
     1
102
RTVSPropertyOp25
 70
     1
102
RTVSPropertyOp26
 70
     1
102
RTVSPropertyOp27
 70
     1
102
RTVSPropertyOp28
 70
     1
102
RTVSPropertyOp29
 70
     1
102
RTVSPropertyOp30
 70
     1
102
RTVSPropertyOp31
 70
     1
102
RTVSPropertyOp32
 70
     1
102
RTVSPropertyOp33
 70
     1
102
RTVSPropertyOp34
 70
     1
102
RTVSPropertyOp35
 70
     1
102
RTVSPropertyOp36
 70
     1
102
RTVSPropertyOp37
 70
     1
102
RTVSPropertyOp38
 70
     1
102
RTVSPropertyOp39
 70
     1
102
RTVSPropertyOp40
 70
     1
102
RTVSPropertyOp41
 70
     1
102
RTVSPropertyOp42
 70
     1
102
RTVSPropertyOp43
 70
     1
102
RTVSPropertyOp44
 70
     1
102
RTVSPropertyOp45
 70
     1
102
RTVSPropertyOp46
 70
     1
102
RTVSPropertyOp47
 70
     1
102
RTVSPropertyOp48
 70
     1
102
RTVSPropertyOp49
 70
     1
102
RTVSPropertyOp50
 70
     1
102
RTVSPropertyOp51
 70
     0
102
RTVSPropertyOp52
 70
     0
102
RTVSPropertyOp53
 70
     1
102
RTVSPropertyOp54
 70
     1
102
RTVSPropertyOp55
 70
     1
102
RTVSPropertyOp56
 70
     1
102
RTVSPropertyOp57
 70
     1
102
RTVSPropertyOp58
 70
     1
102
RTVSPropertyOp59
 70
     1
102
RTVSPropertyOp60
 70
     1
102
RTVSPropertyOp61
 70
     1
102
RTVSPropertyOp62
 70
     1
  0
XRECORD
  5
AB1D
102
{ACAD_REACTORS
330
AB1C
102
}
330
AB1C
100
AcDbXrecord
280
     1
102
RTVSPost2010Prop28
280
     0
102
RTVSPost2010PropOp28
 70
     1
102
RTVSPost2010Prop29
280
     1
102
RTVSPost2010PropOp29
 70
     1
102
RTVSPost2010Prop30
280
     1
102
RTVSPost2010PropOp30
 70
     1
102
RTVSPost2010Prop31
280
     0
102
RTVSPost2010PropOp31
 70
     1
102
RTVSPost2010Prop32
280
     0
102
RTVSPost2010PropOp32
 70
     1
102
RTVSPost2010Prop33
280
     0
102
RTVSPost2010PropOp33
 70
     1
102
RTVSPost2010Prop34
280
     0
102
RTVSPost2010PropOp34
 70
     1
102
RTVSPost2010Prop35
280
     0
102
RTVSPost2010PropOp35
 70
     1
102
RTVSPost2010Prop36
280
     0
102
RTVSPost2010PropOp36
 70
     1
102
RTVSPost2010Prop37
 90
       50
102
RTVSPost2010PropOp37
 70
     1
102
RTVSPost2010Prop38
140
0.0
102
RTVSPost2010PropOp38
 70
     1
102
RTVSPost2010Prop39
140
1.0
102
RTVSPost2010PropOp39
 70
     1
102
RTVSPost2010Prop40
 90
        0
102
RTVSPost2010PropOp40
 70
     1
102
RTVSPost2010Prop41ColorIndex
 90
       18
102
RTVSPost2010Prop41ColorRGB
 90
        0
102
RTVSPost2010PropOp41
 70
     1
102
RTVSPost2010Prop42
 90
       50
102
RTVSPost2010PropOp42
 70
     1
102
RTVSPost2010Prop43
 90
        3
102
RTVSPost2010PropOp43
 70
     1
102
RTVSPost2010Prop44ColorIndex
 90
        5
102
RTVSPost2010Prop44ColorRGB
 90
      255
102
RTVSPost2010PropOp44
 70
     1
102
RTVSPost2010Prop45
280
     0
102
RTVSPost2010PropOp45
 70
     1
102
RTVSPost2010Prop46
 90
       50
102
RTVSPost2010PropOp46
 70
     1
102
RTVSPost2010Prop47
 90
       50
102
RTVSPost2010PropOp47
 70
     1
102
RTVSPost2010Prop48
 90
       50
102
RTVSPost2010PropOp48
 70
     1
102
RTVSPost2010Prop49
280
     0
102
RTVSPost2010PropOp49
 70
     1
102
RTVSPost2010Prop50
 90
       50
102
RTVSPost2010PropOp50
 70
     1
102
RTVSPost2010Prop51ColorIndex
 90
      256
102
RTVSPost2010Prop51ColorRGB
 90
-16777216
102
RTVSPost2010PropOp51
 70
     0
102
RTVSPost2010Prop52
140
1.0
102
RTVSPost2010PropOp52
 70
     0
102
RTVSPost2010Prop53
 90
        2
102
RTVSPost2010PropOp53
 70
     1
102
RTVSPost2010Prop54
  1
strokes_ogs.tif
102
RTVSPost2010PropOp54
 70
     1
102
RTVSPost2010Prop55
280
     0
102
RTVSPost2010PropOp55
 70
     1
102
RTVSPost2010Prop56
140
1.0
102
RTVSPost2010PropOp56
 70
     1
102
RTVSPost2010Prop57
140
1.0
102
RTVSPost2010PropOp57
 70
     1
102
RTVSPropertyOp0
 70
     1
102
RTVSPropertyOp1
 70
     1
102
RTVSPropertyOp2
 70
     1
102
RTVSPropertyOp3
 70
     1
102
RTVSPropertyOp4
 70
     1
102
RTVSPropertyOp5
 70
     1
102
RTVSPropertyOp6
 70
     1
102
RTVSPropertyOp7
 70
     1
102
RTVSPropertyOp8
 70
     1
102
RTVSPropertyOp9
 70
     1
102
RTVSPropertyOp10
 70
     1
102
RTVSPropertyOp11
 70
     1
102
RTVSPropertyOp12
 70
     1
102
RTVSPropertyOp13
 70
     1
102
RTVSPropertyOp14
 70
     1
102
RTVSPropertyOp15
 70
     1
102
RTVSPropertyOp16
 70
     1
102
RTVSPropertyOp17
 70
     1
102
RTVSPropertyOp18
 70
     1
102
RTVSPropertyOp19
 70
     1
102
RTVSPropertyOp20
 70
     1
102
RTVSPropertyOp21
 70
     1
102
RTVSPropertyOp22
 70
     1
102
RTVSPropertyOp23
 70
     1
102
RTVSPropertyOp24
 70
     1
102
RTVSPropertyOp25
 70
     1
102
RTVSPropertyOp26
 70
     1
102
RTVSPropertyOp27
 70
     1
102
RTVSPropertyOp28
 70
     1
102
RTVSPropertyOp29
 70
     1
102
RTVSPropertyOp30
 70
     1
102
RTVSPropertyOp31
 70
     1
102
RTVSPropertyOp32
 70
     1
102
RTVSPropertyOp33
 70
     1
102
RTVSPropertyOp34
 70
     1
102
RTVSPropertyOp35
 70
     1
102
RTVSPropertyOp36
 70
     1
102
RTVSPropertyOp37
 70
     1
102
RTVSPropertyOp38
 70
     1
102
RTVSPropertyOp39
 70
     1
102
RTVSPropertyOp40
 70
     1
102
RTVSPropertyOp41
 70
     1
102
RTVSPropertyOp42
 70
     1
102
RTVSPropertyOp43
 70
     1
102
RTVSPropertyOp44
 70
     1
102
RTVSPropertyOp45
 70
     1
102
RTVSPropertyOp46
 70
     1
102
RTVSPropertyOp47
 70
     1
102
RTVSPropertyOp48
 70
     1
102
RTVSPropertyOp49
 70
     1
102
RTVSPropertyOp50
 70
     1
102
RTVSPropertyOp51
 70
     0
102
RTVSPropertyOp52
 70
     0
102
RTVSPropertyOp53
 70
     1
102
RTVSPropertyOp54
 70
     1
102
RTVSPropertyOp55
 70
     1
102
RTVSPropertyOp56
 70
     1
102
RTVSPropertyOp57
 70
     1
102
RTVSPropertyOp58
 70
     1
102
RTVSPropertyOp59
 70
     1
102
RTVSPropertyOp60
 70
     1
102
RTVSPropertyOp61
 70
     1
102
RTVSPropertyOp62
 70
     1
  0
XRECORD
  5
AB25
102
{ACAD_REACTORS
330
AB24
102
}
330
AB24
100
AcDbXrecord
280
     1
102
RTVSPost2010Prop28
280
     0
102
RTVSPost2010PropOp28
 70
     1
102
RTVSPost2010Prop29
280
     1
102
RTVSPost2010PropOp29
 70
     1
102
RTVSPost2010Prop30
280
     1
102
RTVSPost2010PropOp30
 70
     1
102
RTVSPost2010Prop31
280
     0
102
RTVSPost2010PropOp31
 70
     1
102
RTVSPost2010Prop32
280
     0
102
RTVSPost2010PropOp32
 70
     1
102
RTVSPost2010Prop33
280
     0
102
RTVSPost2010PropOp33
 70
     1
102
RTVSPost2010Prop34
280
     0
102
RTVSPost2010PropOp34
 70
     1
102
RTVSPost2010Prop35
280
     0
102
RTVSPost2010PropOp35
 70
     1
102
RTVSPost2010Prop36
280
     0
102
RTVSPost2010PropOp36
 70
     1
102
RTVSPost2010Prop37
 90
       50
102
RTVSPost2010PropOp37
 70
     1
102
RTVSPost2010Prop38
140
0.0
102
RTVSPost2010PropOp38
 70
     1
102
RTVSPost2010Prop39
140
1.0
102
RTVSPost2010PropOp39
 70
     1
102
RTVSPost2010Prop40
 90
        0
102
RTVSPost2010PropOp40
 70
     1
102
RTVSPost2010Prop41ColorIndex
 90
       18
102
RTVSPost2010Prop41ColorRGB
 90
        0
102
RTVSPost2010PropOp41
 70
     1
102
RTVSPost2010Prop42
 90
       50
102
RTVSPost2010PropOp42
 70
     1
102
RTVSPost2010Prop43
 90
        3
102
RTVSPost2010PropOp43
 70
     1
102
RTVSPost2010Prop44ColorIndex
 90
        5
102
RTVSPost2010Prop44ColorRGB
 90
      255
102
RTVSPost2010PropOp44
 70
     1
102
RTVSPost2010Prop45
280
     0
102
RTVSPost2010PropOp45
 70
     1
102
RTVSPost2010Prop46
 90
       50
102
RTVSPost2010PropOp46
 70
     1
102
RTVSPost2010Prop47
 90
       50
102
RTVSPost2010PropOp47
 70
     1
102
RTVSPost2010Prop48
 90
       50
102
RTVSPost2010PropOp48
 70
     1
102
RTVSPost2010Prop49
280
     0
102
RTVSPost2010PropOp49
 70
     1
102
RTVSPost2010Prop50
 90
       50
102
RTVSPost2010PropOp50
 70
     1
102
RTVSPost2010Prop51ColorIndex
 90
      256
102
RTVSPost2010Prop51ColorRGB
 90
-16777216
102
RTVSPost2010PropOp51
 70
     0
102
RTVSPost2010Prop52
140
1.0
102
RTVSPost2010PropOp52
 70
     0
102
RTVSPost2010Prop53
 90
        2
102
RTVSPost2010PropOp53
 70
     1
102
RTVSPost2010Prop54
  1
strokes_ogs.tif
102
RTVSPost2010PropOp54
 70
     1
102
RTVSPost2010Prop55
280
     0
102
RTVSPost2010PropOp55
 70
     1
102
RTVSPost2010Prop56
140
1.0
102
RTVSPost2010PropOp56
 70
     1
102
RTVSPost2010Prop57
140
1.0
102
RTVSPost2010PropOp57
 70
     1
102
RTVSPropertyOp0
 70
     1
102
RTVSPropertyOp1
 70
     1
102
RTVSPropertyOp2
 70
     1
102
RTVSPropertyOp3
 70
     1
102
RTVSPropertyOp4
 70
     1
102
RTVSPropertyOp5
 70
     1
102
RTVSPropertyOp6
 70
     1
102
RTVSPropertyOp7
 70
     1
102
RTVSPropertyOp8
 70
     1
102
RTVSPropertyOp9
 70
     1
102
RTVSPropertyOp10
 70
     1
102
RTVSPropertyOp11
 70
     1
102
RTVSPropertyOp12
 70
     1
102
RTVSPropertyOp13
 70
     1
102
RTVSPropertyOp14
 70
     1
102
RTVSPropertyOp15
 70
     1
102
RTVSPropertyOp16
 70
     1
102
RTVSPropertyOp17
 70
     1
102
RTVSPropertyOp18
 70
     1
102
RTVSPropertyOp19
 70
     1
102
RTVSPropertyOp20
 70
     1
102
RTVSPropertyOp21
 70
     1
102
RTVSPropertyOp22
 70
     1
102
RTVSPropertyOp23
 70
     1
102
RTVSPropertyOp24
 70
     1
102
RTVSPropertyOp25
 70
     1
102
RTVSPropertyOp26
 70
     1
102
RTVSPropertyOp27
 70
     1
102
RTVSPropertyOp28
 70
     1
102
RTVSPropertyOp29
 70
     1
102
RTVSPropertyOp30
 70
     1
102
RTVSPropertyOp31
 70
     1
102
RTVSPropertyOp32
 70
     1
102
RTVSPropertyOp33
 70
     1
102
RTVSPropertyOp34
 70
     1
102
RTVSPropertyOp35
 70
     1
102
RTVSPropertyOp36
 70
     1
102
RTVSPropertyOp37
 70
     1
102
RTVSPropertyOp38
 70
     1
102
RTVSPropertyOp39
 70
     1
102
RTVSPropertyOp40
 70
     1
102
RTVSPropertyOp41
 70
     1
102
RTVSPropertyOp42
 70
     1
102
RTVSPropertyOp43
 70
     1
102
RTVSPropertyOp44
 70
     1
102
RTVSPropertyOp45
 70
     1
102
RTVSPropertyOp46
 70
     1
102
RTVSPropertyOp47
 70
     1
102
RTVSPropertyOp48
 70
     1
102
RTVSPropertyOp49
 70
     1
102
RTVSPropertyOp50
 70
     1
102
RTVSPropertyOp51
 70
     0
102
RTVSPropertyOp52
 70
     0
102
RTVSPropertyOp53
 70
     1
102
RTVSPropertyOp54
 70
     1
102
RTVSPropertyOp55
 70
     1
102
RTVSPropertyOp56
 70
     1
102
RTVSPropertyOp57
 70
     1
102
RTVSPropertyOp58
 70
     1
102
RTVSPropertyOp59
 70
     1
102
RTVSPropertyOp60
 70
     1
102
RTVSPropertyOp61
 70
     1
102
RTVSPropertyOp62
 70
     1
  0
XRECORD
  5
AB17
102
{ACAD_REACTORS
330
AB16
102
}
330
AB16
100
AcDbXrecord
280
     1
102
RTVSPost2010Prop28
280
     0
102
RTVSPost2010PropOp28
 70
     1
102
RTVSPost2010Prop29
280
     1
102
RTVSPost2010PropOp29
 70
     1
102
RTVSPost2010Prop30
280
     1
102
RTVSPost2010PropOp30
 70
     1
102
RTVSPost2010Prop31
280
     0
102
RTVSPost2010PropOp31
 70
     1
102
RTVSPost2010Prop32
280
     0
102
RTVSPost2010PropOp32
 70
     1
102
RTVSPost2010Prop33
280
     0
102
RTVSPost2010PropOp33
 70
     1
102
RTVSPost2010Prop34
280
     0
102
RTVSPost2010PropOp34
 70
     1
102
RTVSPost2010Prop35
280
     0
102
RTVSPost2010PropOp35
 70
     1
102
RTVSPost2010Prop36
280
     0
102
RTVSPost2010PropOp36
 70
     1
102
RTVSPost2010Prop37
 90
       50
102
RTVSPost2010PropOp37
 70
     1
102
RTVSPost2010Prop38
140
0.0
102
RTVSPost2010PropOp38
 70
     1
102
RTVSPost2010Prop39
140
1.0
102
RTVSPost2010PropOp39
 70
     1
102
RTVSPost2010Prop40
 90
        0
102
RTVSPost2010PropOp40
 70
     1
102
RTVSPost2010Prop41ColorIndex
 90
       18
102
RTVSPost2010Prop41ColorRGB
 90
        0
102
RTVSPost2010PropOp41
 70
     1
102
RTVSPost2010Prop42
 90
       50
102
RTVSPost2010PropOp42
 70
     1
102
RTVSPost2010Prop43
 90
        3
102
RTVSPost2010PropOp43
 70
     1
102
RTVSPost2010Prop44ColorIndex
 90
        5
102
RTVSPost2010Prop44ColorRGB
 90
      255
102
RTVSPost2010PropOp44
 70
     1
102
RTVSPost2010Prop45
280
     0
102
RTVSPost2010PropOp45
 70
     1
102
RTVSPost2010Prop46
 90
       50
102
RTVSPost2010PropOp46
 70
     1
102
RTVSPost2010Prop47
 90
       50
102
RTVSPost2010PropOp47
 70
     1
102
RTVSPost2010Prop48
 90
       50
102
RTVSPost2010PropOp48
 70
     1
102
RTVSPost2010Prop49
280
     0
102
RTVSPost2010PropOp49
 70
     1
102
RTVSPost2010Prop50
 90
       50
102
RTVSPost2010PropOp50
 70
     1
102
RTVSPost2010Prop51ColorIndex
 90
      256
102
RTVSPost2010Prop51ColorRGB
 90
-16777216
102
RTVSPost2010PropOp51
 70
     0
102
RTVSPost2010Prop52
140
1.0
102
RTVSPost2010PropOp52
 70
     0
102
RTVSPost2010Prop53
 90
        2
102
RTVSPost2010PropOp53
 70
     1
102
RTVSPost2010Prop54
  1
strokes_ogs.tif
102
RTVSPost2010PropOp54
 70
     1
102
RTVSPost2010Prop55
280
     0
102
RTVSPost2010PropOp55
 70
     1
102
RTVSPost2010Prop56
140
1.0
102
RTVSPost2010PropOp56
 70
     1
102
RTVSPost2010Prop57
140
1.0
102
RTVSPost2010PropOp57
 70
     1
102
RTVSPropertyOp0
 70
     1
102
RTVSPropertyOp1
 70
     1
102
RTVSPropertyOp2
 70
     1
102
RTVSPropertyOp3
 70
     1
102
RTVSPropertyOp4
 70
     1
102
RTVSPropertyOp5
 70
     1
102
RTVSPropertyOp6
 70
     1
102
RTVSPropertyOp7
 70
     1
102
RTVSPropertyOp8
 70
     1
102
RTVSPropertyOp9
 70
     1
102
RTVSPropertyOp10
 70
     1
102
RTVSPropertyOp11
 70
     1
102
RTVSPropertyOp12
 70
     1
102
RTVSPropertyOp13
 70
     1
102
RTVSPropertyOp14
 70
     1
102
RTVSPropertyOp15
 70
     1
102
RTVSPropertyOp16
 70
     1
102
RTVSPropertyOp17
 70
     1
102
RTVSPropertyOp18
 70
     1
102
RTVSPropertyOp19
 70
     1
102
RTVSPropertyOp20
 70
     1
102
RTVSPropertyOp21
 70
     1
102
RTVSPropertyOp22
 70
     1
102
RTVSPropertyOp23
 70
     1
102
RTVSPropertyOp24
 70
     1
102
RTVSPropertyOp25
 70
     1
102
RTVSPropertyOp26
 70
     1
102
RTVSPropertyOp27
 70
     1
102
RTVSPropertyOp28
 70
     1
102
RTVSPropertyOp29
 70
     1
102
RTVSPropertyOp30
 70
     1
102
RTVSPropertyOp31
 70
     1
102
RTVSPropertyOp32
 70
     1
102
RTVSPropertyOp33
 70
     1
102
RTVSPropertyOp34
 70
     1
102
RTVSPropertyOp35
 70
     1
102
RTVSPropertyOp36
 70
     1
102
RTVSPropertyOp37
 70
     1
102
RTVSPropertyOp38
 70
     1
102
RTVSPropertyOp39
 70
     1
102
RTVSPropertyOp40
 70
     1
102
RTVSPropertyOp41
 70
     1
102
RTVSPropertyOp42
 70
     1
102
RTVSPropertyOp43
 70
     1
102
RTVSPropertyOp44
 70
     1
102
RTVSPropertyOp45
 70
     1
102
RTVSPropertyOp46
 70
     1
102
RTVSPropertyOp47
 70
     1
102
RTVSPropertyOp48
 70
     1
102
RTVSPropertyOp49
 70
     1
102
RTVSPropertyOp50
 70
     1
102
RTVSPropertyOp51
 70
     0
102
RTVSPropertyOp52
 70
     0
102
RTVSPropertyOp53
 70
     1
102
RTVSPropertyOp54
 70
     1
102
RTVSPropertyOp55
 70
     1
102
RTVSPropertyOp56
 70
     1
102
RTVSPropertyOp57
 70
     1
102
RTVSPropertyOp58
 70
     1
102
RTVSPropertyOp59
 70
     1
102
RTVSPropertyOp60
 70
     1
102
RTVSPropertyOp61
 70
     1
102
RTVSPropertyOp62
 70
     1
  0
XRECORD
  5
AB1B
102
{ACAD_REACTORS
330
AB1A
102
}
330
AB1A
100
AcDbXrecord
280
     1
102
RTVSPost2010Prop28
280
     0
102
RTVSPost2010PropOp28
 70
     1
102
RTVSPost2010Prop29
280
     1
102
RTVSPost2010PropOp29
 70
     1
102
RTVSPost2010Prop30
280
     1
102
RTVSPost2010PropOp30
 70
     1
102
RTVSPost2010Prop31
280
     0
102
RTVSPost2010PropOp31
 70
     1
102
RTVSPost2010Prop32
280
     0
102
RTVSPost2010PropOp32
 70
     1
102
RTVSPost2010Prop33
280
     0
102
RTVSPost2010PropOp33
 70
     1
102
RTVSPost2010Prop34
280
     0
102
RTVSPost2010PropOp34
 70
     1
102
RTVSPost2010Prop35
280
     0
102
RTVSPost2010PropOp35
 70
     1
102
RTVSPost2010Prop36
280
     0
102
RTVSPost2010PropOp36
 70
     1
102
RTVSPost2010Prop37
 90
       50
102
RTVSPost2010PropOp37
 70
     1
102
RTVSPost2010Prop38
140
0.0
102
RTVSPost2010PropOp38
 70
     1
102
RTVSPost2010Prop39
140
1.0
102
RTVSPost2010PropOp39
 70
     1
102
RTVSPost2010Prop40
 90
        0
102
RTVSPost2010PropOp40
 70
     1
102
RTVSPost2010Prop41ColorIndex
 90
       18
102
RTVSPost2010Prop41ColorRGB
 90
        0
102
RTVSPost2010PropOp41
 70
     1
102
RTVSPost2010Prop42
 90
       50
102
RTVSPost2010PropOp42
 70
     1
102
RTVSPost2010Prop43
 90
        3
102
RTVSPost2010PropOp43
 70
     1
102
RTVSPost2010Prop44ColorIndex
 90
        5
102
RTVSPost2010Prop44ColorRGB
 90
      255
102
RTVSPost2010PropOp44
 70
     1
102
RTVSPost2010Prop45
280
     0
102
RTVSPost2010PropOp45
 70
     1
102
RTVSPost2010Prop46
 90
       50
102
RTVSPost2010PropOp46
 70
     1
102
RTVSPost2010Prop47
 90
       50
102
RTVSPost2010PropOp47
 70
     1
102
RTVSPost2010Prop48
 90
       50
102
RTVSPost2010PropOp48
 70
     1
102
RTVSPost2010Prop49
280
     0
102
RTVSPost2010PropOp49
 70
     1
102
RTVSPost2010Prop50
 90
       50
102
RTVSPost2010PropOp50
 70
     1
102
RTVSPost2010Prop51ColorIndex
 90
      256
102
RTVSPost2010Prop51ColorRGB
 90
-16777216
102
RTVSPost2010PropOp51
 70
     0
102
RTVSPost2010Prop52
140
1.0
102
RTVSPost2010PropOp52
 70
     0
102
RTVSPost2010Prop53
 90
        2
102
RTVSPost2010PropOp53
 70
     1
102
RTVSPost2010Prop54
  1
strokes_ogs.tif
102
RTVSPost2010PropOp54
 70
     1
102
RTVSPost2010Prop55
280
     0
102
RTVSPost2010PropOp55
 70
     1
102
RTVSPost2010Prop56
140
1.0
102
RTVSPost2010PropOp56
 70
     1
102
RTVSPost2010Prop57
140
1.0
102
RTVSPost2010PropOp57
 70
     1
102
RTVSPropertyOp0
 70
     1
102
RTVSPropertyOp1
 70
     1
102
RTVSPropertyOp2
 70
     1
102
RTVSPropertyOp3
 70
     1
102
RTVSPropertyOp4
 70
     1
102
RTVSPropertyOp5
 70
     1
102
RTVSPropertyOp6
 70
     1
102
RTVSPropertyOp7
 70
     1
102
RTVSPropertyOp8
 70
     1
102
RTVSPropertyOp9
 70
     1
102
RTVSPropertyOp10
 70
     1
102
RTVSPropertyOp11
 70
     1
102
RTVSPropertyOp12
 70
     1
102
RTVSPropertyOp13
 70
     1
102
RTVSPropertyOp14
 70
     1
102
RTVSPropertyOp15
 70
     1
102
RTVSPropertyOp16
 70
     1
102
RTVSPropertyOp17
 70
     1
102
RTVSPropertyOp18
 70
     1
102
RTVSPropertyOp19
 70
     1
102
RTVSPropertyOp20
 70
     1
102
RTVSPropertyOp21
 70
     1
102
RTVSPropertyOp22
 70
     1
102
RTVSPropertyOp23
 70
     1
102
RTVSPropertyOp24
 70
     1
102
RTVSPropertyOp25
 70
     1
102
RTVSPropertyOp26
 70
     1
102
RTVSPropertyOp27
 70
     1
102
RTVSPropertyOp28
 70
     1
102
RTVSPropertyOp29
 70
     1
102
RTVSPropertyOp30
 70
     1
102
RTVSPropertyOp31
 70
     1
102
RTVSPropertyOp32
 70
     1
102
RTVSPropertyOp33
 70
     1
102
RTVSPropertyOp34
 70
     1
102
RTVSPropertyOp35
 70
     1
102
RTVSPropertyOp36
 70
     1
102
RTVSPropertyOp37
 70
     1
102
RTVSPropertyOp38
 70
     1
102
RTVSPropertyOp39
 70
     1
102
RTVSPropertyOp40
 70
     1
102
RTVSPropertyOp41
 70
     1
102
RTVSPropertyOp42
 70
     1
102
RTVSPropertyOp43
 70
     1
102
RTVSPropertyOp44
 70
     1
102
RTVSPropertyOp45
 70
     1
102
RTVSPropertyOp46
 70
     1
102
RTVSPropertyOp47
 70
     1
102
RTVSPropertyOp48
 70
     1
102
RTVSPropertyOp49
 70
     1
102
RTVSPropertyOp50
 70
     1
102
RTVSPropertyOp51
 70
     0
102
RTVSPropertyOp52
 70
     0
102
RTVSPropertyOp53
 70
     1
102
RTVSPropertyOp54
 70
     1
102
RTVSPropertyOp55
 70
     1
102
RTVSPropertyOp56
 70
     1
102
RTVSPropertyOp57
 70
     1
102
RTVSPropertyOp58
 70
     1
102
RTVSPropertyOp59
 70
     1
102
RTVSPropertyOp60
 70
     1
102
RTVSPropertyOp61
 70
     1
102
RTVSPropertyOp62
 70
     1
  0
XRECORD
  5
AB35
102
{ACAD_REACTORS
330
AB34
102
}
330
AB34
100
AcDbXrecord
280
     1
102
RTVSPost2010Prop28
280
     0
102
RTVSPost2010PropOp28
 70
     1
102
RTVSPost2010Prop29
280
     1
102
RTVSPost2010PropOp29
 70
     1
102
RTVSPost2010Prop30
280
     1
102
RTVSPost2010PropOp30
 70
     1
102
RTVSPost2010Prop31
280
     0
102
RTVSPost2010PropOp31
 70
     1
102
RTVSPost2010Prop32
280
     0
102
RTVSPost2010PropOp32
 70
     1
102
RTVSPost2010Prop33
280
     0
102
RTVSPost2010PropOp33
 70
     1
102
RTVSPost2010Prop34
280
     0
102
RTVSPost2010PropOp34
 70
     1
102
RTVSPost2010Prop35
280
     0
102
RTVSPost2010PropOp35
 70
     1
102
RTVSPost2010Prop36
280
     0
102
RTVSPost2010PropOp36
 70
     1
102
RTVSPost2010Prop37
 90
       50
102
RTVSPost2010PropOp37
 70
     0
102
RTVSPost2010Prop38
140
0.0
102
RTVSPost2010PropOp38
 70
     0
102
RTVSPost2010Prop39
140
1.0
102
RTVSPost2010PropOp39
 70
     0
102
RTVSPost2010Prop40
 90
        0
102
RTVSPost2010PropOp40
 70
     0
102
RTVSPost2010Prop41ColorIndex
 90
       18
102
RTVSPost2010Prop41ColorRGB
 90
        0
102
RTVSPost2010PropOp41
 70
     0
102
RTVSPost2010Prop42
 90
       50
102
RTVSPost2010PropOp42
 70
     0
102
RTVSPost2010Prop43
 90
        3
102
RTVSPost2010PropOp43
 70
     0
102
RTVSPost2010Prop44ColorIndex
 90
        5
102
RTVSPost2010Prop44ColorRGB
 90
      255
102
RTVSPost2010PropOp44
 70
     0
102
RTVSPost2010Prop45
280
     0
102
RTVSPost2010PropOp45
 70
     1
102
RTVSPost2010Prop46
 90
       50
102
RTVSPost2010PropOp46
 70
     0
102
RTVSPost2010Prop47
 90
       50
102
RTVSPost2010PropOp47
 70
     0
102
RTVSPost2010Prop48
 90
       50
102
RTVSPost2010PropOp48
 70
     0
102
RTVSPost2010Prop49
280
     0
102
RTVSPost2010PropOp49
 70
     1
102
RTVSPost2010Prop50
 90
       50
102
RTVSPost2010PropOp50
 70
     0
102
RTVSPost2010Prop51ColorIndex
 90
      256
102
RTVSPost2010Prop51ColorRGB
 90
-16777216
102
RTVSPost2010PropOp51
 70
     0
102
RTVSPost2010Prop52
140
1.0
102
RTVSPost2010PropOp52
 70
     0
102
RTVSPost2010Prop53
 90
        2
102
RTVSPost2010PropOp53
 70
     0
102
RTVSPost2010Prop54
  1
strokes_ogs.tif
102
RTVSPost2010PropOp54
 70
     0
102
RTVSPost2010Prop55
280
     0
102
RTVSPost2010PropOp55
 70
     1
102
RTVSPost2010Prop56
140
1.0
102
RTVSPost2010PropOp56
 70
     0
102
RTVSPost2010Prop57
140
1.0
102
RTVSPost2010PropOp57
 70
     0
102
RTVSPropertyOp0
 70
     0
102
RTVSPropertyOp1
 70
     0
102
RTVSPropertyOp2
 70
     0
102
RTVSPropertyOp3
 70
     0
102
RTVSPropertyOp4
 70
     0
102
RTVSPropertyOp5
 70
     0
102
RTVSPropertyOp6
 70
     0
102
RTVSPropertyOp7
 70
     0
102
RTVSPropertyOp8
 70
     0
102
RTVSPropertyOp9
 70
     0
102
RTVSPropertyOp10
 70
     0
102
RTVSPropertyOp11
 70
     0
102
RTVSPropertyOp12
 70
     0
102
RTVSPropertyOp13
 70
     0
102
RTVSPropertyOp14
 70
     2
102
RTVSPropertyOp15
 70
     0
102
RTVSPropertyOp16
 70
     0
102
RTVSPropertyOp17
 70
     0
102
RTVSPropertyOp18
 70
     0
102
RTVSPropertyOp19
 70
     0
102
RTVSPropertyOp20
 70
     0
102
RTVSPropertyOp21
 70
     0
102
RTVSPropertyOp22
 70
     0
102
RTVSPropertyOp23
 70
     0
102
RTVSPropertyOp24
 70
     0
102
RTVSPropertyOp25
 70
     0
102
RTVSPropertyOp26
 70
     0
102
RTVSPropertyOp27
 70
     0
102
RTVSPropertyOp28
 70
     1
102
RTVSPropertyOp29
 70
     1
102
RTVSPropertyOp30
 70
     1
102
RTVSPropertyOp31
 70
     1
102
RTVSPropertyOp32
 70
     1
102
RTVSPropertyOp33
 70
     1
102
RTVSPropertyOp34
 70
     1
102
RTVSPropertyOp35
 70
     1
102
RTVSPropertyOp36
 70
     1
102
RTVSPropertyOp37
 70
     0
102
RTVSPropertyOp38
 70
     0
102
RTVSPropertyOp39
 70
     0
102
RTVSPropertyOp40
 70
     0
102
RTVSPropertyOp41
 70
     0
102
RTVSPropertyOp42
 70
     0
102
RTVSPropertyOp43
 70
     0
102
RTVSPropertyOp44
 70
     0
102
RTVSPropertyOp45
 70
     1
102
RTVSPropertyOp46
 70
     0
102
RTVSPropertyOp47
 70
     0
102
RTVSPropertyOp48
 70
     0
102
RTVSPropertyOp49
 70
     1
102
RTVSPropertyOp50
 70
     0
102
RTVSPropertyOp51
 70
     0
102
RTVSPropertyOp52
 70
     0
102
RTVSPropertyOp53
 70
     0
102
RTVSPropertyOp54
 70
     0
102
RTVSPropertyOp55
 70
     1
102
RTVSPropertyOp56
 70
     0
102
RTVSPropertyOp57
 70
     0
102
RTVSPropertyOp58
 70
     0
102
RTVSPropertyOp59
 70
     0
102
RTVSPropertyOp60
 70
     0
102
RTVSPropertyOp61
 70
     0
102
RTVSPropertyOp62
 70
     0
  0
XRECORD
  5
AB23
102
{ACAD_REACTORS
330
AB22
102
}
330
AB22
100
AcDbXrecord
280
     1
102
RTVSPost2010Prop28
280
     0
102
RTVSPost2010PropOp28
 70
     1
102
RTVSPost2010Prop29
280
     1
102
RTVSPost2010PropOp29
 70
     1
102
RTVSPost2010Prop30
280
     1
102
RTVSPost2010PropOp30
 70
     1
102
RTVSPost2010Prop31
280
     0
102
RTVSPost2010PropOp31
 70
     1
102
RTVSPost2010Prop32
280
     0
102
RTVSPost2010PropOp32
 70
     1
102
RTVSPost2010Prop33
280
     0
102
RTVSPost2010PropOp33
 70
     1
102
RTVSPost2010Prop34
280
     0
102
RTVSPost2010PropOp34
 70
     1
102
RTVSPost2010Prop35
280
     0
102
RTVSPost2010PropOp35
 70
     1
102
RTVSPost2010Prop36
280
     0
102
RTVSPost2010PropOp36
 70
     1
102
RTVSPost2010Prop37
 90
       50
102
RTVSPost2010PropOp37
 70
     1
102
RTVSPost2010Prop38
140
0.0
102
RTVSPost2010PropOp38
 70
     1
102
RTVSPost2010Prop39
140
1.0
102
RTVSPost2010PropOp39
 70
     1
102
RTVSPost2010Prop40
 90
        0
102
RTVSPost2010PropOp40
 70
     1
102
RTVSPost2010Prop41ColorIndex
 90
       18
102
RTVSPost2010Prop41ColorRGB
 90
        0
102
RTVSPost2010PropOp41
 70
     1
102
RTVSPost2010Prop42
 90
       50
102
RTVSPost2010PropOp42
 70
     1
102
RTVSPost2010Prop43
 90
        3
102
RTVSPost2010PropOp43
 70
     1
102
RTVSPost2010Prop44ColorIndex
 90
        5
102
RTVSPost2010Prop44ColorRGB
 90
      255
102
RTVSPost2010PropOp44
 70
     1
102
RTVSPost2010Prop45
280
     0
102
RTVSPost2010PropOp45
 70
     1
102
RTVSPost2010Prop46
 90
       50
102
RTVSPost2010PropOp46
 70
     1
102
RTVSPost2010Prop47
 90
       50
102
RTVSPost2010PropOp47
 70
     1
102
RTVSPost2010Prop48
 90
       50
102
RTVSPost2010PropOp48
 70
     1
102
RTVSPost2010Prop49
280
     0
102
RTVSPost2010PropOp49
 70
     1
102
RTVSPost2010Prop50
 90
       50
102
RTVSPost2010PropOp50
 70
     1
102
RTVSPost2010Prop51ColorIndex
 90
      256
102
RTVSPost2010Prop51ColorRGB
 90
-16777216
102
RTVSPost2010PropOp51
 70
     0
102
RTVSPost2010Prop52
140
1.0
102
RTVSPost2010PropOp52
 70
     0
102
RTVSPost2010Prop53
 90
        2
102
RTVSPost2010PropOp53
 70
     1
102
RTVSPost2010Prop54
  1
strokes_ogs.tif
102
RTVSPost2010PropOp54
 70
     1
102
RTVSPost2010Prop55
280
     0
102
RTVSPost2010PropOp55
 70
     1
102
RTVSPost2010Prop56
140
1.0
102
RTVSPost2010PropOp56
 70
     1
102
RTVSPost2010Prop57
140
1.0
102
RTVSPost2010PropOp57
 70
     1
102
RTVSPropertyOp0
 70
     1
102
RTVSPropertyOp1
 70
     1
102
RTVSPropertyOp2
 70
     1
102
RTVSPropertyOp3
 70
     1
102
RTVSPropertyOp4
 70
     1
102
RTVSPropertyOp5
 70
     1
102
RTVSPropertyOp6
 70
     1
102
RTVSPropertyOp7
 70
     1
102
RTVSPropertyOp8
 70
     1
102
RTVSPropertyOp9
 70
     1
102
RTVSPropertyOp10
 70
     1
102
RTVSPropertyOp11
 70
     1
102
RTVSPropertyOp12
 70
     1
102
RTVSPropertyOp13
 70
     1
102
RTVSPropertyOp14
 70
     1
102
RTVSPropertyOp15
 70
     1
102
RTVSPropertyOp16
 70
     1
102
RTVSPropertyOp17
 70
     1
102
RTVSPropertyOp18
 70
     1
102
RTVSPropertyOp19
 70
     1
102
RTVSPropertyOp20
 70
     1
102
RTVSPropertyOp21
 70
     1
102
RTVSPropertyOp22
 70
     1
102
RTVSPropertyOp23
 70
     1
102
RTVSPropertyOp24
 70
     1
102
RTVSPropertyOp25
 70
     1
102
RTVSPropertyOp26
 70
     1
102
RTVSPropertyOp27
 70
     1
102
RTVSPropertyOp28
 70
     1
102
RTVSPropertyOp29
 70
     1
102
RTVSPropertyOp30
 70
     1
102
RTVSPropertyOp31
 70
     1
102
RTVSPropertyOp32
 70
     1
102
RTVSPropertyOp33
 70
     1
102
RTVSPropertyOp34
 70
     1
102
RTVSPropertyOp35
 70
     1
102
RTVSPropertyOp36
 70
     1
102
RTVSPropertyOp37
 70
     1
102
RTVSPropertyOp38
 70
     1
102
RTVSPropertyOp39
 70
     1
102
RTVSPropertyOp40
 70
     1
102
RTVSPropertyOp41
 70
     1
102
RTVSPropertyOp42
 70
     1
102
RTVSPropertyOp43
 70
     1
102
RTVSPropertyOp44
 70
     1
102
RTVSPropertyOp45
 70
     1
102
RTVSPropertyOp46
 70
     1
102
RTVSPropertyOp47
 70
     1
102
RTVSPropertyOp48
 70
     1
102
RTVSPropertyOp49
 70
     1
102
RTVSPropertyOp50
 70
     1
102
RTVSPropertyOp51
 70
     0
102
RTVSPropertyOp52
 70
     0
102
RTVSPropertyOp53
 70
     1
102
RTVSPropertyOp54
 70
     1
102
RTVSPropertyOp55
 70
     1
102
RTVSPropertyOp56
 70
     1
102
RTVSPropertyOp57
 70
     1
102
RTVSPropertyOp58
 70
     1
102
RTVSPropertyOp59
 70
     1
102
RTVSPropertyOp60
 70
     1
102
RTVSPropertyOp61
 70
     1
102
RTVSPropertyOp62
 70
     1
  0
XRECORD
  5
AB07
102
{ACAD_REACTORS
330
AB06
102
}
330
AB06
100
AcDbXrecord
280
     1
102
RTVSPost2010Prop28
280
     0
102
RTVSPost2010PropOp28
 70
     1
102
RTVSPost2010Prop29
280
     1
102
RTVSPost2010PropOp29
 70
     1
102
RTVSPost2010Prop30
280
     1
102
RTVSPost2010PropOp30
 70
     1
102
RTVSPost2010Prop31
280
     0
102
RTVSPost2010PropOp31
 70
     1
102
RTVSPost2010Prop32
280
     0
102
RTVSPost2010PropOp32
 70
     1
102
RTVSPost2010Prop33
280
     0
102
RTVSPost2010PropOp33
 70
     1
102
RTVSPost2010Prop34
280
     0
102
RTVSPost2010PropOp34
 70
     1
102
RTVSPost2010Prop35
280
     0
102
RTVSPost2010PropOp35
 70
     1
102
RTVSPost2010Prop36
280
     0
102
RTVSPost2010PropOp36
 70
     1
102
RTVSPost2010Prop37
 90
       50
102
RTVSPost2010PropOp37
 70
     1
102
RTVSPost2010Prop38
140
0.0
102
RTVSPost2010PropOp38
 70
     1
102
RTVSPost2010Prop39
140
1.0
102
RTVSPost2010PropOp39
 70
     1
102
RTVSPost2010Prop40
 90
        0
102
RTVSPost2010PropOp40
 70
     1
102
RTVSPost2010Prop41ColorIndex
 90
       18
102
RTVSPost2010Prop41ColorRGB
 90
        0
102
RTVSPost2010PropOp41
 70
     1
102
RTVSPost2010Prop42
 90
       50
102
RTVSPost2010PropOp42
 70
     1
102
RTVSPost2010Prop43
 90
        3
102
RTVSPost2010PropOp43
 70
     1
102
RTVSPost2010Prop44ColorIndex
 90
        5
102
RTVSPost2010Prop44ColorRGB
 90
      255
102
RTVSPost2010PropOp44
 70
     1
102
RTVSPost2010Prop45
280
     0
102
RTVSPost2010PropOp45
 70
     1
102
RTVSPost2010Prop46
 90
       50
102
RTVSPost2010PropOp46
 70
     1
102
RTVSPost2010Prop47
 90
       50
102
RTVSPost2010PropOp47
 70
     1
102
RTVSPost2010Prop48
 90
       50
102
RTVSPost2010PropOp48
 70
     1
102
RTVSPost2010Prop49
280
     0
102
RTVSPost2010PropOp49
 70
     1
102
RTVSPost2010Prop50
 90
       50
102
RTVSPost2010PropOp50
 70
     1
102
RTVSPost2010Prop51ColorIndex
 90
      256
102
RTVSPost2010Prop51ColorRGB
 90
-16777216
102
RTVSPost2010PropOp51
 70
     0
102
RTVSPost2010Prop52
140
1.0
102
RTVSPost2010PropOp52
 70
     0
102
RTVSPost2010Prop53
 90
        2
102
RTVSPost2010PropOp53
 70
     1
102
RTVSPost2010Prop54
  1
strokes_ogs.tif
102
RTVSPost2010PropOp54
 70
     1
102
RTVSPost2010Prop55
280
     0
102
RTVSPost2010PropOp55
 70
     1
102
RTVSPost2010Prop56
140
1.0
102
RTVSPost2010PropOp56
 70
     1
102
RTVSPost2010Prop57
140
1.0
102
RTVSPost2010PropOp57
 70
     1
102
RTVSPropertyOp0
 70
     1
102
RTVSPropertyOp1
 70
     1
102
RTVSPropertyOp2
 70
     1
102
RTVSPropertyOp3
 70
     1
102
RTVSPropertyOp4
 70
     1
102
RTVSPropertyOp5
 70
     1
102
RTVSPropertyOp6
 70
     1
102
RTVSPropertyOp7
 70
     1
102
RTVSPropertyOp8
 70
     1
102
RTVSPropertyOp9
 70
     1
102
RTVSPropertyOp10
 70
     1
102
RTVSPropertyOp11
 70
     1
102
RTVSPropertyOp12
 70
     1
102
RTVSPropertyOp13
 70
     1
102
RTVSPropertyOp14
 70
     1
102
RTVSPropertyOp15
 70
     1
102
RTVSPropertyOp16
 70
     1
102
RTVSPropertyOp17
 70
     1
102
RTVSPropertyOp18
 70
     1
102
RTVSPropertyOp19
 70
     1
102
RTVSPropertyOp20
 70
     1
102
RTVSPropertyOp21
 70
     1
102
RTVSPropertyOp22
 70
     1
102
RTVSPropertyOp23
 70
     1
102
RTVSPropertyOp24
 70
     1
102
RTVSPropertyOp25
 70
     1
102
RTVSPropertyOp26
 70
     1
102
RTVSPropertyOp27
 70
     1
102
RTVSPropertyOp28
 70
     1
102
RTVSPropertyOp29
 70
     1
102
RTVSPropertyOp30
 70
     1
102
RTVSPropertyOp31
 70
     1
102
RTVSPropertyOp32
 70
     1
102
RTVSPropertyOp33
 70
     1
102
RTVSPropertyOp34
 70
     1
102
RTVSPropertyOp35
 70
     1
102
RTVSPropertyOp36
 70
     1
102
RTVSPropertyOp37
 70
     1
102
RTVSPropertyOp38
 70
     1
102
RTVSPropertyOp39
 70
     1
102
RTVSPropertyOp40
 70
     1
102
RTVSPropertyOp41
 70
     1
102
RTVSPropertyOp42
 70
     1
102
RTVSPropertyOp43
 70
     1
102
RTVSPropertyOp44
 70
     1
102
RTVSPropertyOp45
 70
     1
102
RTVSPropertyOp46
 70
     1
102
RTVSPropertyOp47
 70
     1
102
RTVSPropertyOp48
 70
     1
102
RTVSPropertyOp49
 70
     1
102
RTVSPropertyOp50
 70
     1
102
RTVSPropertyOp51
 70
     0
102
RTVSPropertyOp52
 70
     0
102
RTVSPropertyOp53
 70
     1
102
RTVSPropertyOp54
 70
     1
102
RTVSPropertyOp55
 70
     1
102
RTVSPropertyOp56
 70
     1
102
RTVSPropertyOp57
 70
     1
102
RTVSPropertyOp58
 70
     1
102
RTVSPropertyOp59
 70
     1
102
RTVSPropertyOp60
 70
     1
102
RTVSPropertyOp61
 70
     1
102
RTVSPropertyOp62
 70
     1
  0
XRECORD
  5
AB09
102
{ACAD_REACTORS
330
AB08
102
}
330
AB08
100
AcDbXrecord
280
     1
102
RTVSPost2010Prop28
280
     0
102
RTVSPost2010PropOp28
 70
     1
102
RTVSPost2010Prop29
280
     1
102
RTVSPost2010PropOp29
 70
     1
102
RTVSPost2010Prop30
280
     1
102
RTVSPost2010PropOp30
 70
     1
102
RTVSPost2010Prop31
280
     0
102
RTVSPost2010PropOp31
 70
     1
102
RTVSPost2010Prop32
280
     0
102
RTVSPost2010PropOp32
 70
     1
102
RTVSPost2010Prop33
280
     0
102
RTVSPost2010PropOp33
 70
     1
102
RTVSPost2010Prop34
280
     0
102
RTVSPost2010PropOp34
 70
     1
102
RTVSPost2010Prop35
280
     0
102
RTVSPost2010PropOp35
 70
     1
102
RTVSPost2010Prop36
280
     0
102
RTVSPost2010PropOp36
 70
     1
102
RTVSPost2010Prop37
 90
       50
102
RTVSPost2010PropOp37
 70
     1
102
RTVSPost2010Prop38
140
0.0
102
RTVSPost2010PropOp38
 70
     1
102
RTVSPost2010Prop39
140
1.0
102
RTVSPost2010PropOp39
 70
     1
102
RTVSPost2010Prop40
 90
        0
102
RTVSPost2010PropOp40
 70
     1
102
RTVSPost2010Prop41ColorIndex
 90
       18
102
RTVSPost2010Prop41ColorRGB
 90
        0
102
RTVSPost2010PropOp41
 70
     1
102
RTVSPost2010Prop42
 90
       50
102
RTVSPost2010PropOp42
 70
     1
102
RTVSPost2010Prop43
 90
        3
102
RTVSPost2010PropOp43
 70
     1
102
RTVSPost2010Prop44ColorIndex
 90
        5
102
RTVSPost2010Prop44ColorRGB
 90
      255
102
RTVSPost2010PropOp44
 70
     1
102
RTVSPost2010Prop45
280
     0
102
RTVSPost2010PropOp45
 70
     1
102
RTVSPost2010Prop46
 90
       50
102
RTVSPost2010PropOp46
 70
     1
102
RTVSPost2010Prop47
 90
       50
102
RTVSPost2010PropOp47
 70
     1
102
RTVSPost2010Prop48
 90
       50
102
RTVSPost2010PropOp48
 70
     1
102
RTVSPost2010Prop49
280
     0
102
RTVSPost2010PropOp49
 70
     1
102
RTVSPost2010Prop50
 90
       50
102
RTVSPost2010PropOp50
 70
     1
102
RTVSPost2010Prop51ColorIndex
 90
      256
102
RTVSPost2010Prop51ColorRGB
 90
-16777216
102
RTVSPost2010PropOp51
 70
     0
102
RTVSPost2010Prop52
140
1.0
102
RTVSPost2010PropOp52
 70
     0
102
RTVSPost2010Prop53
 90
        2
102
RTVSPost2010PropOp53
 70
     1
102
RTVSPost2010Prop54
  1
strokes_ogs.tif
102
RTVSPost2010PropOp54
 70
     1
102
RTVSPost2010Prop55
280
     0
102
RTVSPost2010PropOp55
 70
     1
102
RTVSPost2010Prop56
140
1.0
102
RTVSPost2010PropOp56
 70
     1
102
RTVSPost2010Prop57
140
1.0
102
RTVSPost2010PropOp57
 70
     1
102
RTVSPropertyOp0
 70
     1
102
RTVSPropertyOp1
 70
     1
102
RTVSPropertyOp2
 70
     1
102
RTVSPropertyOp3
 70
     1
102
RTVSPropertyOp4
 70
     1
102
RTVSPropertyOp5
 70
     1
102
RTVSPropertyOp6
 70
     1
102
RTVSPropertyOp7
 70
     1
102
RTVSPropertyOp8
 70
     1
102
RTVSPropertyOp9
 70
     1
102
RTVSPropertyOp10
 70
     1
102
RTVSPropertyOp11
 70
     1
102
RTVSPropertyOp12
 70
     1
102
RTVSPropertyOp13
 70
     1
102
RTVSPropertyOp14
 70
     1
102
RTVSPropertyOp15
 70
     1
102
RTVSPropertyOp16
 70
     1
102
RTVSPropertyOp17
 70
     1
102
RTVSPropertyOp18
 70
     1
102
RTVSPropertyOp19
 70
     1
102
RTVSPropertyOp20
 70
     1
102
RTVSPropertyOp21
 70
     1
102
RTVSPropertyOp22
 70
     1
102
RTVSPropertyOp23
 70
     1
102
RTVSPropertyOp24
 70
     1
102
RTVSPropertyOp25
 70
     1
102
RTVSPropertyOp26
 70
     1
102
RTVSPropertyOp27
 70
     1
102
RTVSPropertyOp28
 70
     1
102
RTVSPropertyOp29
 70
     1
102
RTVSPropertyOp30
 70
     1
102
RTVSPropertyOp31
 70
     1
102
RTVSPropertyOp32
 70
     1
102
RTVSPropertyOp33
 70
     1
102
RTVSPropertyOp34
 70
     1
102
RTVSPropertyOp35
 70
     1
102
RTVSPropertyOp36
 70
     1
102
RTVSPropertyOp37
 70
     1
102
RTVSPropertyOp38
 70
     1
102
RTVSPropertyOp39
 70
     1
102
RTVSPropertyOp40
 70
     1
102
RTVSPropertyOp41
 70
     1
102
RTVSPropertyOp42
 70
     1
102
RTVSPropertyOp43
 70
     1
102
RTVSPropertyOp44
 70
     1
102
RTVSPropertyOp45
 70
     1
102
RTVSPropertyOp46
 70
     1
102
RTVSPropertyOp47
 70
     1
102
RTVSPropertyOp48
 70
     1
102
RTVSPropertyOp49
 70
     1
102
RTVSPropertyOp50
 70
     1
102
RTVSPropertyOp51
 70
     0
102
RTVSPropertyOp52
 70
     0
102
RTVSPropertyOp53
 70
     1
102
RTVSPropertyOp54
 70
     1
102
RTVSPropertyOp55
 70
     1
102
RTVSPropertyOp56
 70
     1
102
RTVSPropertyOp57
 70
     1
102
RTVSPropertyOp58
 70
     1
102
RTVSPropertyOp59
 70
     1
102
RTVSPropertyOp60
 70
     1
102
RTVSPropertyOp61
 70
     1
102
RTVSPropertyOp62
 70
     1
  0
XRECORD
  5
AB0B
102
{ACAD_REACTORS
330
AB0A
102
}
330
AB0A
100
AcDbXrecord
280
     1
102
RTVSPost2010Prop28
280
     0
102
RTVSPost2010PropOp28
 70
     1
102
RTVSPost2010Prop29
280
     1
102
RTVSPost2010PropOp29
 70
     1
102
RTVSPost2010Prop30
280
     1
102
RTVSPost2010PropOp30
 70
     1
102
RTVSPost2010Prop31
280
     0
102
RTVSPost2010PropOp31
 70
     1
102
RTVSPost2010Prop32
280
     0
102
RTVSPost2010PropOp32
 70
     1
102
RTVSPost2010Prop33
280
     0
102
RTVSPost2010PropOp33
 70
     1
102
RTVSPost2010Prop34
280
     0
102
RTVSPost2010PropOp34
 70
     1
102
RTVSPost2010Prop35
280
     0
102
RTVSPost2010PropOp35
 70
     1
102
RTVSPost2010Prop36
280
     0
102
RTVSPost2010PropOp36
 70
     1
102
RTVSPost2010Prop37
 90
       50
102
RTVSPost2010PropOp37
 70
     1
102
RTVSPost2010Prop38
140
0.0
102
RTVSPost2010PropOp38
 70
     1
102
RTVSPost2010Prop39
140
1.0
102
RTVSPost2010PropOp39
 70
     1
102
RTVSPost2010Prop40
 90
        0
102
RTVSPost2010PropOp40
 70
     1
102
RTVSPost2010Prop41ColorIndex
 90
       18
102
RTVSPost2010Prop41ColorRGB
 90
        0
102
RTVSPost2010PropOp41
 70
     1
102
RTVSPost2010Prop42
 90
       50
102
RTVSPost2010PropOp42
 70
     1
102
RTVSPost2010Prop43
 90
        3
102
RTVSPost2010PropOp43
 70
     1
102
RTVSPost2010Prop44ColorIndex
 90
        5
102
RTVSPost2010Prop44ColorRGB
 90
      255
102
RTVSPost2010PropOp44
 70
     1
102
RTVSPost2010Prop45
280
     0
102
RTVSPost2010PropOp45
 70
     1
102
RTVSPost2010Prop46
 90
       50
102
RTVSPost2010PropOp46
 70
     1
102
RTVSPost2010Prop47
 90
       50
102
RTVSPost2010PropOp47
 70
     1
102
RTVSPost2010Prop48
 90
       50
102
RTVSPost2010PropOp48
 70
     1
102
RTVSPost2010Prop49
280
     0
102
RTVSPost2010PropOp49
 70
     1
102
RTVSPost2010Prop50
 90
       50
102
RTVSPost2010PropOp50
 70
     1
102
RTVSPost2010Prop51ColorIndex
 90
      256
102
RTVSPost2010Prop51ColorRGB
 90
-16777216
102
RTVSPost2010PropOp51
 70
     0
102
RTVSPost2010Prop52
140
1.0
102
RTVSPost2010PropOp52
 70
     0
102
RTVSPost2010Prop53
 90
        2
102
RTVSPost2010PropOp53
 70
     1
102
RTVSPost2010Prop54
  1
strokes_ogs.tif
102
RTVSPost2010PropOp54
 70
     1
102
RTVSPost2010Prop55
280
     0
102
RTVSPost2010PropOp55
 70
     1
102
RTVSPost2010Prop56
140
1.0
102
RTVSPost2010PropOp56
 70
     1
102
RTVSPost2010Prop57
140
1.0
102
RTVSPost2010PropOp57
 70
     1
102
RTVSPropertyOp0
 70
     1
102
RTVSPropertyOp1
 70
     1
102
RTVSPropertyOp2
 70
     1
102
RTVSPropertyOp3
 70
     1
102
RTVSPropertyOp4
 70
     1
102
RTVSPropertyOp5
 70
     1
102
RTVSPropertyOp6
 70
     1
102
RTVSPropertyOp7
 70
     1
102
RTVSPropertyOp8
 70
     1
102
RTVSPropertyOp9
 70
     1
102
RTVSPropertyOp10
 70
     1
102
RTVSPropertyOp11
 70
     1
102
RTVSPropertyOp12
 70
     1
102
RTVSPropertyOp13
 70
     1
102
RTVSPropertyOp14
 70
     1
102
RTVSPropertyOp15
 70
     1
102
RTVSPropertyOp16
 70
     1
102
RTVSPropertyOp17
 70
     1
102
RTVSPropertyOp18
 70
     1
102
RTVSPropertyOp19
 70
     1
102
RTVSPropertyOp20
 70
     1
102
RTVSPropertyOp21
 70
     1
102
RTVSPropertyOp22
 70
     1
102
RTVSPropertyOp23
 70
     1
102
RTVSPropertyOp24
 70
     1
102
RTVSPropertyOp25
 70
     1
102
RTVSPropertyOp26
 70
     1
102
RTVSPropertyOp27
 70
     1
102
RTVSPropertyOp28
 70
     1
102
RTVSPropertyOp29
 70
     1
102
RTVSPropertyOp30
 70
     1
102
RTVSPropertyOp31
 70
     1
102
RTVSPropertyOp32
 70
     1
102
RTVSPropertyOp33
 70
     1
102
RTVSPropertyOp34
 70
     1
102
RTVSPropertyOp35
 70
     1
102
RTVSPropertyOp36
 70
     1
102
RTVSPropertyOp37
 70
     1
102
RTVSPropertyOp38
 70
     1
102
RTVSPropertyOp39
 70
     1
102
RTVSPropertyOp40
 70
     1
102
RTVSPropertyOp41
 70
     1
102
RTVSPropertyOp42
 70
     1
102
RTVSPropertyOp43
 70
     1
102
RTVSPropertyOp44
 70
     1
102
RTVSPropertyOp45
 70
     1
102
RTVSPropertyOp46
 70
     1
102
RTVSPropertyOp47
 70
     1
102
RTVSPropertyOp48
 70
     1
102
RTVSPropertyOp49
 70
     1
102
RTVSPropertyOp50
 70
     1
102
RTVSPropertyOp51
 70
     0
102
RTVSPropertyOp52
 70
     0
102
RTVSPropertyOp53
 70
     1
102
RTVSPropertyOp54
 70
     1
102
RTVSPropertyOp55
 70
     1
102
RTVSPropertyOp56
 70
     1
102
RTVSPropertyOp57
 70
     1
102
RTVSPropertyOp58
 70
     1
102
RTVSPropertyOp59
 70
     1
102
RTVSPropertyOp60
 70
     1
102
RTVSPropertyOp61
 70
     1
102
RTVSPropertyOp62
 70
     1
  0
XRECORD
  5
AB0D
102
{ACAD_REACTORS
330
AB0C
102
}
330
AB0C
100
AcDbXrecord
280
     1
102
RTVSPost2010Prop28
280
     0
102
RTVSPost2010PropOp28
 70
     1
102
RTVSPost2010Prop29
280
     1
102
RTVSPost2010PropOp29
 70
     1
102
RTVSPost2010Prop30
280
     1
102
RTVSPost2010PropOp30
 70
     1
102
RTVSPost2010Prop31
280
     0
102
RTVSPost2010PropOp31
 70
     1
102
RTVSPost2010Prop32
280
     0
102
RTVSPost2010PropOp32
 70
     1
102
RTVSPost2010Prop33
280
     0
102
RTVSPost2010PropOp33
 70
     1
102
RTVSPost2010Prop34
280
     0
102
RTVSPost2010PropOp34
 70
     1
102
RTVSPost2010Prop35
280
     0
102
RTVSPost2010PropOp35
 70
     1
102
RTVSPost2010Prop36
280
     0
102
RTVSPost2010PropOp36
 70
     1
102
RTVSPost2010Prop37
 90
       50
102
RTVSPost2010PropOp37
 70
     1
102
RTVSPost2010Prop38
140
0.0
102
RTVSPost2010PropOp38
 70
     1
102
RTVSPost2010Prop39
140
1.0
102
RTVSPost2010PropOp39
 70
     1
102
RTVSPost2010Prop40
 90
        0
102
RTVSPost2010PropOp40
 70
     1
102
RTVSPost2010Prop41ColorIndex
 90
       18
102
RTVSPost2010Prop41ColorRGB
 90
        0
102
RTVSPost2010PropOp41
 70
     1
102
RTVSPost2010Prop42
 90
       50
102
RTVSPost2010PropOp42
 70
     1
102
RTVSPost2010Prop43
 90
        3
102
RTVSPost2010PropOp43
 70
     1
102
RTVSPost2010Prop44ColorIndex
 90
        5
102
RTVSPost2010Prop44ColorRGB
 90
      255
102
RTVSPost2010PropOp44
 70
     1
102
RTVSPost2010Prop45
280
     0
102
RTVSPost2010PropOp45
 70
     1
102
RTVSPost2010Prop46
 90
       50
102
RTVSPost2010PropOp46
 70
     1
102
RTVSPost2010Prop47
 90
       50
102
RTVSPost2010PropOp47
 70
     1
102
RTVSPost2010Prop48
 90
       50
102
RTVSPost2010PropOp48
 70
     1
102
RTVSPost2010Prop49
280
     0
102
RTVSPost2010PropOp49
 70
     1
102
RTVSPost2010Prop50
 90
       50
102
RTVSPost2010PropOp50
 70
     1
102
RTVSPost2010Prop51ColorIndex
 90
      256
102
RTVSPost2010Prop51ColorRGB
 90
-16777216
102
RTVSPost2010PropOp51
 70
     0
102
RTVSPost2010Prop52
140
1.0
102
RTVSPost2010PropOp52
 70
     0
102
RTVSPost2010Prop53
 90
        2
102
RTVSPost2010PropOp53
 70
     1
102
RTVSPost2010Prop54
  1
strokes_ogs.tif
102
RTVSPost2010PropOp54
 70
     1
102
RTVSPost2010Prop55
280
     0
102
RTVSPost2010PropOp55
 70
     1
102
RTVSPost2010Prop56
140
1.0
102
RTVSPost2010PropOp56
 70
     1
102
RTVSPost2010Prop57
140
1.0
102
RTVSPost2010PropOp57
 70
     1
102
RTVSPropertyOp0
 70
     1
102
RTVSPropertyOp1
 70
     1
102
RTVSPropertyOp2
 70
     1
102
RTVSPropertyOp3
 70
     1
102
RTVSPropertyOp4
 70
     1
102
RTVSPropertyOp5
 70
     1
102
RTVSPropertyOp6
 70
     1
102
RTVSPropertyOp7
 70
     1
102
RTVSPropertyOp8
 70
     1
102
RTVSPropertyOp9
 70
     1
102
RTVSPropertyOp10
 70
     1
102
RTVSPropertyOp11
 70
     1
102
RTVSPropertyOp12
 70
     1
102
RTVSPropertyOp13
 70
     1
102
RTVSPropertyOp14
 70
     1
102
RTVSPropertyOp15
 70
     1
102
RTVSPropertyOp16
 70
     1
102
RTVSPropertyOp17
 70
     1
102
RTVSPropertyOp18
 70
     1
102
RTVSPropertyOp19
 70
     1
102
RTVSPropertyOp20
 70
     1
102
RTVSPropertyOp21
 70
     1
102
RTVSPropertyOp22
 70
     1
102
RTVSPropertyOp23
 70
     1
102
RTVSPropertyOp24
 70
     1
102
RTVSPropertyOp25
 70
     1
102
RTVSPropertyOp26
 70
     1
102
RTVSPropertyOp27
 70
     1
102
RTVSPropertyOp28
 70
     1
102
RTVSPropertyOp29
 70
     1
102
RTVSPropertyOp30
 70
     1
102
RTVSPropertyOp31
 70
     1
102
RTVSPropertyOp32
 70
     1
102
RTVSPropertyOp33
 70
     1
102
RTVSPropertyOp34
 70
     1
102
RTVSPropertyOp35
 70
     1
102
RTVSPropertyOp36
 70
     1
102
RTVSPropertyOp37
 70
     1
102
RTVSPropertyOp38
 70
     1
102
RTVSPropertyOp39
 70
     1
102
RTVSPropertyOp40
 70
     1
102
RTVSPropertyOp41
 70
     1
102
RTVSPropertyOp42
 70
     1
102
RTVSPropertyOp43
 70
     1
102
RTVSPropertyOp44
 70
     1
102
RTVSPropertyOp45
 70
     1
102
RTVSPropertyOp46
 70
     1
102
RTVSPropertyOp47
 70
     1
102
RTVSPropertyOp48
 70
     1
102
RTVSPropertyOp49
 70
     1
102
RTVSPropertyOp50
 70
     1
102
RTVSPropertyOp51
 70
     0
102
RTVSPropertyOp52
 70
     0
102
RTVSPropertyOp53
 70
     1
102
RTVSPropertyOp54
 70
     1
102
RTVSPropertyOp55
 70
     1
102
RTVSPropertyOp56
 70
     1
102
RTVSPropertyOp57
 70
     1
102
RTVSPropertyOp58
 70
     1
102
RTVSPropertyOp59
 70
     1
102
RTVSPropertyOp60
 70
     1
102
RTVSPropertyOp61
 70
     1
102
RTVSPropertyOp62
 70
     1
  0
XRECORD
  5
AB15
102
{ACAD_REACTORS
330
AB14
102
}
330
AB14
100
AcDbXrecord
280
     1
102
RTVSPost2010Prop28
280
     0
102
RTVSPost2010PropOp28
 70
     1
102
RTVSPost2010Prop29
280
     1
102
RTVSPost2010PropOp29
 70
     1
102
RTVSPost2010Prop30
280
     1
102
RTVSPost2010PropOp30
 70
     1
102
RTVSPost2010Prop31
280
     0
102
RTVSPost2010PropOp31
 70
     1
102
RTVSPost2010Prop32
280
     0
102
RTVSPost2010PropOp32
 70
     1
102
RTVSPost2010Prop33
280
     0
102
RTVSPost2010PropOp33
 70
     1
102
RTVSPost2010Prop34
280
     0
102
RTVSPost2010PropOp34
 70
     1
102
RTVSPost2010Prop35
280
     0
102
RTVSPost2010PropOp35
 70
     1
102
RTVSPost2010Prop36
280
     0
102
RTVSPost2010PropOp36
 70
     1
102
RTVSPost2010Prop37
 90
       50
102
RTVSPost2010PropOp37
 70
     1
102
RTVSPost2010Prop38
140
0.0
102
RTVSPost2010PropOp38
 70
     1
102
RTVSPost2010Prop39
140
1.0
102
RTVSPost2010PropOp39
 70
     1
102
RTVSPost2010Prop40
 90
        0
102
RTVSPost2010PropOp40
 70
     1
102
RTVSPost2010Prop41ColorIndex
 90
       18
102
RTVSPost2010Prop41ColorRGB
 90
        0
102
RTVSPost2010PropOp41
 70
     1
102
RTVSPost2010Prop42
 90
       50
102
RTVSPost2010PropOp42
 70
     1
102
RTVSPost2010Prop43
 90
        3
102
RTVSPost2010PropOp43
 70
     1
102
RTVSPost2010Prop44ColorIndex
 90
        5
102
RTVSPost2010Prop44ColorRGB
 90
      255
102
RTVSPost2010PropOp44
 70
     1
102
RTVSPost2010Prop45
280
     0
102
RTVSPost2010PropOp45
 70
     1
102
RTVSPost2010Prop46
 90
       50
102
RTVSPost2010PropOp46
 70
     1
102
RTVSPost2010Prop47
 90
       50
102
RTVSPost2010PropOp47
 70
     1
102
RTVSPost2010Prop48
 90
       50
102
RTVSPost2010PropOp48
 70
     1
102
RTVSPost2010Prop49
280
     0
102
RTVSPost2010PropOp49
 70
     1
102
RTVSPost2010Prop50
 90
       50
102
RTVSPost2010PropOp50
 70
     1
102
RTVSPost2010Prop51ColorIndex
 90
      256
102
RTVSPost2010Prop51ColorRGB
 90
-16777216
102
RTVSPost2010PropOp51
 70
     0
102
RTVSPost2010Prop52
140
1.0
102
RTVSPost2010PropOp52
 70
     0
102
RTVSPost2010Prop53
 90
        2
102
RTVSPost2010PropOp53
 70
     1
102
RTVSPost2010Prop54
  1
strokes_ogs.tif
102
RTVSPost2010PropOp54
 70
     1
102
RTVSPost2010Prop55
280
     0
102
RTVSPost2010PropOp55
 70
     1
102
RTVSPost2010Prop56
140
1.0
102
RTVSPost2010PropOp56
 70
     1
102
RTVSPost2010Prop57
140
1.0
102
RTVSPost2010PropOp57
 70
     1
102
RTVSPropertyOp0
 70
     1
102
RTVSPropertyOp1
 70
     1
102
RTVSPropertyOp2
 70
     1
102
RTVSPropertyOp3
 70
     1
102
RTVSPropertyOp4
 70
     1
102
RTVSPropertyOp5
 70
     1
102
RTVSPropertyOp6
 70
     1
102
RTVSPropertyOp7
 70
     1
102
RTVSPropertyOp8
 70
     1
102
RTVSPropertyOp9
 70
     1
102
RTVSPropertyOp10
 70
     1
102
RTVSPropertyOp11
 70
     1
102
RTVSPropertyOp12
 70
     1
102
RTVSPropertyOp13
 70
     1
102
RTVSPropertyOp14
 70
     1
102
RTVSPropertyOp15
 70
     1
102
RTVSPropertyOp16
 70
     1
102
RTVSPropertyOp17
 70
     1
102
RTVSPropertyOp18
 70
     1
102
RTVSPropertyOp19
 70
     1
102
RTVSPropertyOp20
 70
     1
102
RTVSPropertyOp21
 70
     1
102
RTVSPropertyOp22
 70
     1
102
RTVSPropertyOp23
 70
     1
102
RTVSPropertyOp24
 70
     1
102
RTVSPropertyOp25
 70
     1
102
RTVSPropertyOp26
 70
     1
102
RTVSPropertyOp27
 70
     1
102
RTVSPropertyOp28
 70
     1
102
RTVSPropertyOp29
 70
     1
102
RTVSPropertyOp30
 70
     1
102
RTVSPropertyOp31
 70
     1
102
RTVSPropertyOp32
 70
     1
102
RTVSPropertyOp33
 70
     1
102
RTVSPropertyOp34
 70
     1
102
RTVSPropertyOp35
 70
     1
102
RTVSPropertyOp36
 70
     1
102
RTVSPropertyOp37
 70
     1
102
RTVSPropertyOp38
 70
     1
102
RTVSPropertyOp39
 70
     1
102
RTVSPropertyOp40
 70
     1
102
RTVSPropertyOp41
 70
     1
102
RTVSPropertyOp42
 70
     1
102
RTVSPropertyOp43
 70
     1
102
RTVSPropertyOp44
 70
     1
102
RTVSPropertyOp45
 70
     1
102
RTVSPropertyOp46
 70
     1
102
RTVSPropertyOp47
 70
     1
102
RTVSPropertyOp48
 70
     1
102
RTVSPropertyOp49
 70
     1
102
RTVSPropertyOp50
 70
     1
102
RTVSPropertyOp51
 70
     0
102
RTVSPropertyOp52
 70
     0
102
RTVSPropertyOp53
 70
     1
102
RTVSPropertyOp54
 70
     1
102
RTVSPropertyOp55
 70
     1
102
RTVSPropertyOp56
 70
     1
102
RTVSPropertyOp57
 70
     1
102
RTVSPropertyOp58
 70
     1
102
RTVSPropertyOp59
 70
     1
102
RTVSPropertyOp60
 70
     1
102
RTVSPropertyOp61
 70
     1
102
RTVSPropertyOp62
 70
     1
  0
XRECORD
  5
AB31
102
{ACAD_REACTORS
330
AB30
102
}
330
AB30
100
AcDbXrecord
280
     1
102
RTVSPost2010Prop28
280
     0
102
RTVSPost2010PropOp28
 70
     1
102
RTVSPost2010Prop29
280
     1
102
RTVSPost2010PropOp29
 70
     1
102
RTVSPost2010Prop30
280
     1
102
RTVSPost2010PropOp30
 70
     1
102
RTVSPost2010Prop31
280
     0
102
RTVSPost2010PropOp31
 70
     1
102
RTVSPost2010Prop32
280
     0
102
RTVSPost2010PropOp32
 70
     1
102
RTVSPost2010Prop33
280
     0
102
RTVSPost2010PropOp33
 70
     1
102
RTVSPost2010Prop34
280
     0
102
RTVSPost2010PropOp34
 70
     1
102
RTVSPost2010Prop35
280
     0
102
RTVSPost2010PropOp35
 70
     1
102
RTVSPost2010Prop36
280
     0
102
RTVSPost2010PropOp36
 70
     1
102
RTVSPost2010Prop37
 90
       50
102
RTVSPost2010PropOp37
 70
     0
102
RTVSPost2010Prop38
140
0.0
102
RTVSPost2010PropOp38
 70
     0
102
RTVSPost2010Prop39
140
1.0
102
RTVSPost2010PropOp39
 70
     0
102
RTVSPost2010Prop40
 90
        0
102
RTVSPost2010PropOp40
 70
     0
102
RTVSPost2010Prop41ColorIndex
 90
       18
102
RTVSPost2010Prop41ColorRGB
 90
        0
102
RTVSPost2010PropOp41
 70
     0
102
RTVSPost2010Prop42
 90
       50
102
RTVSPost2010PropOp42
 70
     0
102
RTVSPost2010Prop43
 90
        3
102
RTVSPost2010PropOp43
 70
     0
102
RTVSPost2010Prop44ColorIndex
 90
        5
102
RTVSPost2010Prop44ColorRGB
 90
      255
102
RTVSPost2010PropOp44
 70
     0
102
RTVSPost2010Prop45
280
     0
102
RTVSPost2010PropOp45
 70
     1
102
RTVSPost2010Prop46
 90
       50
102
RTVSPost2010PropOp46
 70
     0
102
RTVSPost2010Prop47
 90
       50
102
RTVSPost2010PropOp47
 70
     0
102
RTVSPost2010Prop48
 90
       50
102
RTVSPost2010PropOp48
 70
     0
102
RTVSPost2010Prop49
280
     0
102
RTVSPost2010PropOp49
 70
     1
102
RTVSPost2010Prop50
 90
       50
102
RTVSPost2010PropOp50
 70
     0
102
RTVSPost2010Prop51ColorIndex
 90
      256
102
RTVSPost2010Prop51ColorRGB
 90
-16777216
102
RTVSPost2010PropOp51
 70
     0
102
RTVSPost2010Prop52
140
1.0
102
RTVSPost2010PropOp52
 70
     0
102
RTVSPost2010Prop53
 90
        2
102
RTVSPost2010PropOp53
 70
     0
102
RTVSPost2010Prop54
  1
strokes_ogs.tif
102
RTVSPost2010PropOp54
 70
     0
102
RTVSPost2010Prop55
280
     0
102
RTVSPost2010PropOp55
 70
     1
102
RTVSPost2010Prop56
140
1.0
102
RTVSPost2010PropOp56
 70
     0
102
RTVSPost2010Prop57
140
1.0
102
RTVSPost2010PropOp57
 70
     0
102
RTVSPropertyOp0
 70
     0
102
RTVSPropertyOp1
 70
     0
102
RTVSPropertyOp2
 70
     0
102
RTVSPropertyOp3
 70
     0
102
RTVSPropertyOp4
 70
     0
102
RTVSPropertyOp5
 70
     0
102
RTVSPropertyOp6
 70
     0
102
RTVSPropertyOp7
 70
     0
102
RTVSPropertyOp8
 70
     0
102
RTVSPropertyOp9
 70
     0
102
RTVSPropertyOp10
 70
     0
102
RTVSPropertyOp11
 70
     0
102
RTVSPropertyOp12
 70
     0
102
RTVSPropertyOp13
 70
     0
102
RTVSPropertyOp14
 70
     2
102
RTVSPropertyOp15
 70
     0
102
RTVSPropertyOp16
 70
     0
102
RTVSPropertyOp17
 70
     0
102
RTVSPropertyOp18
 70
     0
102
RTVSPropertyOp19
 70
     0
102
RTVSPropertyOp20
 70
     0
102
RTVSPropertyOp21
 70
     0
102
RTVSPropertyOp22
 70
     0
102
RTVSPropertyOp23
 70
     0
102
RTVSPropertyOp24
 70
     0
102
RTVSPropertyOp25
 70
     0
102
RTVSPropertyOp26
 70
     0
102
RTVSPropertyOp27
 70
     0
102
RTVSPropertyOp28
 70
     1
102
RTVSPropertyOp29
 70
     1
102
RTVSPropertyOp30
 70
     1
102
RTVSPropertyOp31
 70
     1
102
RTVSPropertyOp32
 70
     1
102
RTVSPropertyOp33
 70
     1
102
RTVSPropertyOp34
 70
     1
102
RTVSPropertyOp35
 70
     1
102
RTVSPropertyOp36
 70
     1
102
RTVSPropertyOp37
 70
     0
102
RTVSPropertyOp38
 70
     0
102
RTVSPropertyOp39
 70
     0
102
RTVSPropertyOp40
 70
     0
102
RTVSPropertyOp41
 70
     0
102
RTVSPropertyOp42
 70
     0
102
RTVSPropertyOp43
 70
     0
102
RTVSPropertyOp44
 70
     0
102
RTVSPropertyOp45
 70
     1
102
RTVSPropertyOp46
 70
     0
102
RTVSPropertyOp47
 70
     0
102
RTVSPropertyOp48
 70
     0
102
RTVSPropertyOp49
 70
     1
102
RTVSPropertyOp50
 70
     0
102
RTVSPropertyOp51
 70
     0
102
RTVSPropertyOp52
 70
     0
102
RTVSPropertyOp53
 70
     0
102
RTVSPropertyOp54
 70
     0
102
RTVSPropertyOp55
 70
     1
102
RTVSPropertyOp56
 70
     0
102
RTVSPropertyOp57
 70
     0
102
RTVSPropertyOp58
 70
     0
102
RTVSPropertyOp59
 70
     0
102
RTVSPropertyOp60
 70
     0
102
RTVSPropertyOp61
 70
     0
102
RTVSPropertyOp62
 70
     0
  0
XRECORD
  5
AB21
102
{ACAD_REACTORS
330
AB20
102
}
330
AB20
100
AcDbXrecord
280
     1
102
RTVSPost2010Prop28
280
     0
102
RTVSPost2010PropOp28
 70
     1
102
RTVSPost2010Prop29
280
     1
102
RTVSPost2010PropOp29
 70
     1
102
RTVSPost2010Prop30
280
     1
102
RTVSPost2010PropOp30
 70
     1
102
RTVSPost2010Prop31
280
     0
102
RTVSPost2010PropOp31
 70
     1
102
RTVSPost2010Prop32
280
     0
102
RTVSPost2010PropOp32
 70
     1
102
RTVSPost2010Prop33
280
     0
102
RTVSPost2010PropOp33
 70
     1
102
RTVSPost2010Prop34
280
     0
102
RTVSPost2010PropOp34
 70
     1
102
RTVSPost2010Prop35
280
     0
102
RTVSPost2010PropOp35
 70
     1
102
RTVSPost2010Prop36
280
     0
102
RTVSPost2010PropOp36
 70
     1
102
RTVSPost2010Prop37
 90
       50
102
RTVSPost2010PropOp37
 70
     1
102
RTVSPost2010Prop38
140
0.0
102
RTVSPost2010PropOp38
 70
     1
102
RTVSPost2010Prop39
140
1.0
102
RTVSPost2010PropOp39
 70
     1
102
RTVSPost2010Prop40
 90
        0
102
RTVSPost2010PropOp40
 70
     1
102
RTVSPost2010Prop41ColorIndex
 90
       18
102
RTVSPost2010Prop41ColorRGB
 90
        0
102
RTVSPost2010PropOp41
 70
     1
102
RTVSPost2010Prop42
 90
       50
102
RTVSPost2010PropOp42
 70
     1
102
RTVSPost2010Prop43
 90
        3
102
RTVSPost2010PropOp43
 70
     1
102
RTVSPost2010Prop44ColorIndex
 90
        5
102
RTVSPost2010Prop44ColorRGB
 90
      255
102
RTVSPost2010PropOp44
 70
     1
102
RTVSPost2010Prop45
280
     0
102
RTVSPost2010PropOp45
 70
     1
102
RTVSPost2010Prop46
 90
       50
102
RTVSPost2010PropOp46
 70
     1
102
RTVSPost2010Prop47
 90
       50
102
RTVSPost2010PropOp47
 70
     1
102
RTVSPost2010Prop48
 90
       50
102
RTVSPost2010PropOp48
 70
     1
102
RTVSPost2010Prop49
280
     0
102
RTVSPost2010PropOp49
 70
     1
102
RTVSPost2010Prop50
 90
       50
102
RTVSPost2010PropOp50
 70
     1
102
RTVSPost2010Prop51ColorIndex
 90
      256
102
RTVSPost2010Prop51ColorRGB
 90
-16777216
102
RTVSPost2010PropOp51
 70
     0
102
RTVSPost2010Prop52
140
1.0
102
RTVSPost2010PropOp52
 70
     0
102
RTVSPost2010Prop53
 90
        2
102
RTVSPost2010PropOp53
 70
     1
102
RTVSPost2010Prop54
  1
strokes_ogs.tif
102
RTVSPost2010PropOp54
 70
     1
102
RTVSPost2010Prop55
280
     0
102
RTVSPost2010PropOp55
 70
     1
102
RTVSPost2010Prop56
140
1.0
102
RTVSPost2010PropOp56
 70
     1
102
RTVSPost2010Prop57
140
1.0
102
RTVSPost2010PropOp57
 70
     1
102
RTVSPropertyOp0
 70
     1
102
RTVSPropertyOp1
 70
     1
102
RTVSPropertyOp2
 70
     1
102
RTVSPropertyOp3
 70
     1
102
RTVSPropertyOp4
 70
     1
102
RTVSPropertyOp5
 70
     1
102
RTVSPropertyOp6
 70
     1
102
RTVSPropertyOp7
 70
     1
102
RTVSPropertyOp8
 70
     1
102
RTVSPropertyOp9
 70
     1
102
RTVSPropertyOp10
 70
     1
102
RTVSPropertyOp11
 70
     1
102
RTVSPropertyOp12
 70
     1
102
RTVSPropertyOp13
 70
     1
102
RTVSPropertyOp14
 70
     1
102
RTVSPropertyOp15
 70
     1
102
RTVSPropertyOp16
 70
     1
102
RTVSPropertyOp17
 70
     1
102
RTVSPropertyOp18
 70
     1
102
RTVSPropertyOp19
 70
     1
102
RTVSPropertyOp20
 70
     1
102
RTVSPropertyOp21
 70
     1
102
RTVSPropertyOp22
 70
     1
102
RTVSPropertyOp23
 70
     1
102
RTVSPropertyOp24
 70
     1
102
RTVSPropertyOp25
 70
     1
102
RTVSPropertyOp26
 70
     1
102
RTVSPropertyOp27
 70
     1
102
RTVSPropertyOp28
 70
     1
102
RTVSPropertyOp29
 70
     1
102
RTVSPropertyOp30
 70
     1
102
RTVSPropertyOp31
 70
     1
102
RTVSPropertyOp32
 70
     1
102
RTVSPropertyOp33
 70
     1
102
RTVSPropertyOp34
 70
     1
102
RTVSPropertyOp35
 70
     1
102
RTVSPropertyOp36
 70
     1
102
RTVSPropertyOp37
 70
     1
102
RTVSPropertyOp38
 70
     1
102
RTVSPropertyOp39
 70
     1
102
RTVSPropertyOp40
 70
     1
102
RTVSPropertyOp41
 70
     1
102
RTVSPropertyOp42
 70
     1
102
RTVSPropertyOp43
 70
     1
102
RTVSPropertyOp44
 70
     1
102
RTVSPropertyOp45
 70
     1
102
RTVSPropertyOp46
 70
     1
102
RTVSPropertyOp47
 70
     1
102
RTVSPropertyOp48
 70
     1
102
RTVSPropertyOp49
 70
     1
102
RTVSPropertyOp50
 70
     1
102
RTVSPropertyOp51
 70
     0
102
RTVSPropertyOp52
 70
     0
102
RTVSPropertyOp53
 70
     1
102
RTVSPropertyOp54
 70
     1
102
RTVSPropertyOp55
 70
     1
102
RTVSPropertyOp56
 70
     1
102
RTVSPropertyOp57
 70
     1
102
RTVSPropertyOp58
 70
     1
102
RTVSPropertyOp59
 70
     1
102
RTVSPropertyOp60
 70
     1
102
RTVSPropertyOp61
 70
     1
102
RTVSPropertyOp62
 70
     1
  0
XRECORD
  5
AB33
102
{ACAD_REACTORS
330
AB32
102
}
330
AB32
100
AcDbXrecord
280
     1
102
RTVSPost2010Prop28
280
     0
102
RTVSPost2010PropOp28
 70
     1
102
RTVSPost2010Prop29
280
     1
102
RTVSPost2010PropOp29
 70
     1
102
RTVSPost2010Prop30
280
     1
102
RTVSPost2010PropOp30
 70
     1
102
RTVSPost2010Prop31
280
     0
102
RTVSPost2010PropOp31
 70
     1
102
RTVSPost2010Prop32
280
     0
102
RTVSPost2010PropOp32
 70
     1
102
RTVSPost2010Prop33
280
     0
102
RTVSPost2010PropOp33
 70
     1
102
RTVSPost2010Prop34
280
     0
102
RTVSPost2010PropOp34
 70
     1
102
RTVSPost2010Prop35
280
     0
102
RTVSPost2010PropOp35
 70
     1
102
RTVSPost2010Prop36
280
     0
102
RTVSPost2010PropOp36
 70
     1
102
RTVSPost2010Prop37
 90
       50
102
RTVSPost2010PropOp37
 70
     0
102
RTVSPost2010Prop38
140
0.0
102
RTVSPost2010PropOp38
 70
     0
102
RTVSPost2010Prop39
140
1.0
102
RTVSPost2010PropOp39
 70
     0
102
RTVSPost2010Prop40
 90
        0
102
RTVSPost2010PropOp40
 70
     0
102
RTVSPost2010Prop41ColorIndex
 90
       18
102
RTVSPost2010Prop41ColorRGB
 90
        0
102
RTVSPost2010PropOp41
 70
     0
102
RTVSPost2010Prop42
 90
       50
102
RTVSPost2010PropOp42
 70
     0
102
RTVSPost2010Prop43
 90
        3
102
RTVSPost2010PropOp43
 70
     0
102
RTVSPost2010Prop44ColorIndex
 90
        5
102
RTVSPost2010Prop44ColorRGB
 90
      255
102
RTVSPost2010PropOp44
 70
     0
102
RTVSPost2010Prop45
280
     0
102
RTVSPost2010PropOp45
 70
     1
102
RTVSPost2010Prop46
 90
       50
102
RTVSPost2010PropOp46
 70
     0
102
RTVSPost2010Prop47
 90
       50
102
RTVSPost2010PropOp47
 70
     0
102
RTVSPost2010Prop48
 90
       50
102
RTVSPost2010PropOp48
 70
     0
102
RTVSPost2010Prop49
280
     0
102
RTVSPost2010PropOp49
 70
     1
102
RTVSPost2010Prop50
 90
       50
102
RTVSPost2010PropOp50
 70
     0
102
RTVSPost2010Prop51ColorIndex
 90
      256
102
RTVSPost2010Prop51ColorRGB
 90
-16777216
102
RTVSPost2010PropOp51
 70
     0
102
RTVSPost2010Prop52
140
1.0
102
RTVSPost2010PropOp52
 70
     0
102
RTVSPost2010Prop53
 90
        2
102
RTVSPost2010PropOp53
 70
     0
102
RTVSPost2010Prop54
  1
strokes_ogs.tif
102
RTVSPost2010PropOp54
 70
     0
102
RTVSPost2010Prop55
280
     0
102
RTVSPost2010PropOp55
 70
     1
102
RTVSPost2010Prop56
140
1.0
102
RTVSPost2010PropOp56
 70
     0
102
RTVSPost2010Prop57
140
1.0
102
RTVSPost2010PropOp57
 70
     0
102
RTVSPropertyOp0
 70
     0
102
RTVSPropertyOp1
 70
     0
102
RTVSPropertyOp2
 70
     0
102
RTVSPropertyOp3
 70
     0
102
RTVSPropertyOp4
 70
     0
102
RTVSPropertyOp5
 70
     0
102
RTVSPropertyOp6
 70
     0
102
RTVSPropertyOp7
 70
     0
102
RTVSPropertyOp8
 70
     0
102
RTVSPropertyOp9
 70
     0
102
RTVSPropertyOp10
 70
     0
102
RTVSPropertyOp11
 70
     0
102
RTVSPropertyOp12
 70
     0
102
RTVSPropertyOp13
 70
     0
102
RTVSPropertyOp14
 70
     2
102
RTVSPropertyOp15
 70
     0
102
RTVSPropertyOp16
 70
     0
102
RTVSPropertyOp17
 70
     0
102
RTVSPropertyOp18
 70
     0
102
RTVSPropertyOp19
 70
     0
102
RTVSPropertyOp20
 70
     0
102
RTVSPropertyOp21
 70
     0
102
RTVSPropertyOp22
 70
     0
102
RTVSPropertyOp23
 70
     0
102
RTVSPropertyOp24
 70
     0
102
RTVSPropertyOp25
 70
     0
102
RTVSPropertyOp26
 70
     0
102
RTVSPropertyOp27
 70
     0
102
RTVSPropertyOp28
 70
     1
102
RTVSPropertyOp29
 70
     1
102
RTVSPropertyOp30
 70
     1
102
RTVSPropertyOp31
 70
     1
102
RTVSPropertyOp32
 70
     1
102
RTVSPropertyOp33
 70
     1
102
RTVSPropertyOp34
 70
     1
102
RTVSPropertyOp35
 70
     1
102
RTVSPropertyOp36
 70
     1
102
RTVSPropertyOp37
 70
     0
102
RTVSPropertyOp38
 70
     0
102
RTVSPropertyOp39
 70
     0
102
RTVSPropertyOp40
 70
     0
102
RTVSPropertyOp41
 70
     0
102
RTVSPropertyOp42
 70
     0
102
RTVSPropertyOp43
 70
     0
102
RTVSPropertyOp44
 70
     0
102
RTVSPropertyOp45
 70
     1
102
RTVSPropertyOp46
 70
     0
102
RTVSPropertyOp47
 70
     0
102
RTVSPropertyOp48
 70
     0
102
RTVSPropertyOp49
 70
     1
102
RTVSPropertyOp50
 70
     0
102
RTVSPropertyOp51
 70
     0
102
RTVSPropertyOp52
 70
     0
102
RTVSPropertyOp53
 70
     0
102
RTVSPropertyOp54
 70
     0
102
RTVSPropertyOp55
 70
     1
102
RTVSPropertyOp56
 70
     0
102
RTVSPropertyOp57
 70
     0
102
RTVSPropertyOp58
 70
     0
102
RTVSPropertyOp59
 70
     0
102
RTVSPropertyOp60
 70
     0
102
RTVSPropertyOp61
 70
     0
102
RTVSPropertyOp62
 70
     0
  0
XRECORD
  5
AB19
102
{ACAD_REACTORS
330
AB18
102
}
330
AB18
100
AcDbXrecord
280
     1
102
RTVSPost2010Prop28
280
     0
102
RTVSPost2010PropOp28
 70
     1
102
RTVSPost2010Prop29
280
     1
102
RTVSPost2010PropOp29
 70
     1
102
RTVSPost2010Prop30
280
     1
102
RTVSPost2010PropOp30
 70
     1
102
RTVSPost2010Prop31
280
     0
102
RTVSPost2010PropOp31
 70
     1
102
RTVSPost2010Prop32
280
     0
102
RTVSPost2010PropOp32
 70
     1
102
RTVSPost2010Prop33
280
     0
102
RTVSPost2010PropOp33
 70
     1
102
RTVSPost2010Prop34
280
     0
102
RTVSPost2010PropOp34
 70
     1
102
RTVSPost2010Prop35
280
     0
102
RTVSPost2010PropOp35
 70
     1
102
RTVSPost2010Prop36
280
     0
102
RTVSPost2010PropOp36
 70
     1
102
RTVSPost2010Prop37
 90
       50
102
RTVSPost2010PropOp37
 70
     1
102
RTVSPost2010Prop38
140
0.0
102
RTVSPost2010PropOp38
 70
     1
102
RTVSPost2010Prop39
140
1.0
102
RTVSPost2010PropOp39
 70
     1
102
RTVSPost2010Prop40
 90
        0
102
RTVSPost2010PropOp40
 70
     1
102
RTVSPost2010Prop41ColorIndex
 90
       18
102
RTVSPost2010Prop41ColorRGB
 90
        0
102
RTVSPost2010PropOp41
 70
     1
102
RTVSPost2010Prop42
 90
       50
102
RTVSPost2010PropOp42
 70
     1
102
RTVSPost2010Prop43
 90
        3
102
RTVSPost2010PropOp43
 70
     1
102
RTVSPost2010Prop44ColorIndex
 90
        5
102
RTVSPost2010Prop44ColorRGB
 90
      255
102
RTVSPost2010PropOp44
 70
     1
102
RTVSPost2010Prop45
280
     0
102
RTVSPost2010PropOp45
 70
     1
102
RTVSPost2010Prop46
 90
       50
102
RTVSPost2010PropOp46
 70
     1
102
RTVSPost2010Prop47
 90
       50
102
RTVSPost2010PropOp47
 70
     1
102
RTVSPost2010Prop48
 90
       50
102
RTVSPost2010PropOp48
 70
     1
102
RTVSPost2010Prop49
280
     0
102
RTVSPost2010PropOp49
 70
     1
102
RTVSPost2010Prop50
 90
       50
102
RTVSPost2010PropOp50
 70
     1
102
RTVSPost2010Prop51ColorIndex
 90
      256
102
RTVSPost2010Prop51ColorRGB
 90
-16777216
102
RTVSPost2010PropOp51
 70
     0
102
RTVSPost2010Prop52
140
1.0
102
RTVSPost2010PropOp52
 70
     0
102
RTVSPost2010Prop53
 90
        2
102
RTVSPost2010PropOp53
 70
     1
102
RTVSPost2010Prop54
  1
strokes_ogs.tif
102
RTVSPost2010PropOp54
 70
     1
102
RTVSPost2010Prop55
280
     0
102
RTVSPost2010PropOp55
 70
     1
102
RTVSPost2010Prop56
140
1.0
102
RTVSPost2010PropOp56
 70
     1
102
RTVSPost2010Prop57
140
1.0
102
RTVSPost2010PropOp57
 70
     1
102
RTVSPropertyOp0
 70
     1
102
RTVSPropertyOp1
 70
     1
102
RTVSPropertyOp2
 70
     1
102
RTVSPropertyOp3
 70
     1
102
RTVSPropertyOp4
 70
     1
102
RTVSPropertyOp5
 70
     1
102
RTVSPropertyOp6
 70
     1
102
RTVSPropertyOp7
 70
     1
102
RTVSPropertyOp8
 70
     1
102
RTVSPropertyOp9
 70
     1
102
RTVSPropertyOp10
 70
     1
102
RTVSPropertyOp11
 70
     1
102
RTVSPropertyOp12
 70
     1
102
RTVSPropertyOp13
 70
     1
102
RTVSPropertyOp14
 70
     1
102
RTVSPropertyOp15
 70
     1
102
RTVSPropertyOp16
 70
     1
102
RTVSPropertyOp17
 70
     1
102
RTVSPropertyOp18
 70
     1
102
RTVSPropertyOp19
 70
     1
102
RTVSPropertyOp20
 70
     1
102
RTVSPropertyOp21
 70
     1
102
RTVSPropertyOp22
 70
     1
102
RTVSPropertyOp23
 70
     1
102
RTVSPropertyOp24
 70
     1
102
RTVSPropertyOp25
 70
     1
102
RTVSPropertyOp26
 70
     1
102
RTVSPropertyOp27
 70
     1
102
RTVSPropertyOp28
 70
     1
102
RTVSPropertyOp29
 70
     1
102
RTVSPropertyOp30
 70
     1
102
RTVSPropertyOp31
 70
     1
102
RTVSPropertyOp32
 70
     1
102
RTVSPropertyOp33
 70
     1
102
RTVSPropertyOp34
 70
     1
102
RTVSPropertyOp35
 70
     1
102
RTVSPropertyOp36
 70
     1
102
RTVSPropertyOp37
 70
     1
102
RTVSPropertyOp38
 70
     1
102
RTVSPropertyOp39
 70
     1
102
RTVSPropertyOp40
 70
     1
102
RTVSPropertyOp41
 70
     1
102
RTVSPropertyOp42
 70
     1
102
RTVSPropertyOp43
 70
     1
102
RTVSPropertyOp44
 70
     1
102
RTVSPropertyOp45
 70
     1
102
RTVSPropertyOp46
 70
     1
102
RTVSPropertyOp47
 70
     1
102
RTVSPropertyOp48
 70
     1
102
RTVSPropertyOp49
 70
     1
102
RTVSPropertyOp50
 70
     1
102
RTVSPropertyOp51
 70
     0
102
RTVSPropertyOp52
 70
     0
102
RTVSPropertyOp53
 70
     1
102
RTVSPropertyOp54
 70
     1
102
RTVSPropertyOp55
 70
     1
102
RTVSPropertyOp56
 70
     1
102
RTVSPropertyOp57
 70
     1
102
RTVSPropertyOp58
 70
     1
102
RTVSPropertyOp59
 70
     1
102
RTVSPropertyOp60
 70
     1
102
RTVSPropertyOp61
 70
     1
102
RTVSPropertyOp62
 70
     1
  0
XRECORD
  5
AB2F
102
{ACAD_REACTORS
330
AB2E
102
}
330
AB2E
100
AcDbXrecord
280
     1
102
RTVSPost2010Prop28
280
     0
102
RTVSPost2010PropOp28
 70
     1
102
RTVSPost2010Prop29
280
     1
102
RTVSPost2010PropOp29
 70
     1
102
RTVSPost2010Prop30
280
     1
102
RTVSPost2010PropOp30
 70
     1
102
RTVSPost2010Prop31
280
     0
102
RTVSPost2010PropOp31
 70
     1
102
RTVSPost2010Prop32
280
     0
102
RTVSPost2010PropOp32
 70
     1
102
RTVSPost2010Prop33
280
     0
102
RTVSPost2010PropOp33
 70
     1
102
RTVSPost2010Prop34
280
     0
102
RTVSPost2010PropOp34
 70
     1
102
RTVSPost2010Prop35
280
     0
102
RTVSPost2010PropOp35
 70
     1
102
RTVSPost2010Prop36
280
     0
102
RTVSPost2010PropOp36
 70
     1
102
RTVSPost2010Prop37
 90
       50
102
RTVSPost2010PropOp37
 70
     1
102
RTVSPost2010Prop38
140
0.0
102
RTVSPost2010PropOp38
 70
     1
102
RTVSPost2010Prop39
140
1.0
102
RTVSPost2010PropOp39
 70
     1
102
RTVSPost2010Prop40
 90
        0
102
RTVSPost2010PropOp40
 70
     1
102
RTVSPost2010Prop41ColorIndex
 90
       18
102
RTVSPost2010Prop41ColorRGB
 90
        0
102
RTVSPost2010PropOp41
 70
     1
102
RTVSPost2010Prop42
 90
       50
102
RTVSPost2010PropOp42
 70
     1
102
RTVSPost2010Prop43
 90
        3
102
RTVSPost2010PropOp43
 70
     1
102
RTVSPost2010Prop44ColorIndex
 90
        5
102
RTVSPost2010Prop44ColorRGB
 90
      255
102
RTVSPost2010PropOp44
 70
     1
102
RTVSPost2010Prop45
280
     0
102
RTVSPost2010PropOp45
 70
     1
102
RTVSPost2010Prop46
 90
       50
102
RTVSPost2010PropOp46
 70
     1
102
RTVSPost2010Prop47
 90
       50
102
RTVSPost2010PropOp47
 70
     1
102
RTVSPost2010Prop48
 90
       50
102
RTVSPost2010PropOp48
 70
     1
102
RTVSPost2010Prop49
280
     0
102
RTVSPost2010PropOp49
 70
     1
102
RTVSPost2010Prop50
 90
       50
102
RTVSPost2010PropOp50
 70
     1
102
RTVSPost2010Prop51ColorIndex
 90
      256
102
RTVSPost2010Prop51ColorRGB
 90
-16777216
102
RTVSPost2010PropOp51
 70
     0
102
RTVSPost2010Prop52
140
1.0
102
RTVSPost2010PropOp52
 70
     0
102
RTVSPost2010Prop53
 90
        2
102
RTVSPost2010PropOp53
 70
     1
102
RTVSPost2010Prop54
  1
strokes_ogs.tif
102
RTVSPost2010PropOp54
 70
     1
102
RTVSPost2010Prop55
280
     0
102
RTVSPost2010PropOp55
 70
     1
102
RTVSPost2010Prop56
140
1.0
102
RTVSPost2010PropOp56
 70
     1
102
RTVSPost2010Prop57
140
1.0
102
RTVSPost2010PropOp57
 70
     1
102
RTVSPropertyOp0
 70
     1
102
RTVSPropertyOp1
 70
     1
102
RTVSPropertyOp2
 70
     1
102
RTVSPropertyOp3
 70
     1
102
RTVSPropertyOp4
 70
     1
102
RTVSPropertyOp5
 70
     1
102
RTVSPropertyOp6
 70
     1
102
RTVSPropertyOp7
 70
     1
102
RTVSPropertyOp8
 70
     1
102
RTVSPropertyOp9
 70
     1
102
RTVSPropertyOp10
 70
     1
102
RTVSPropertyOp11
 70
     1
102
RTVSPropertyOp12
 70
     1
102
RTVSPropertyOp13
 70
     1
102
RTVSPropertyOp14
 70
     1
102
RTVSPropertyOp15
 70
     1
102
RTVSPropertyOp16
 70
     1
102
RTVSPropertyOp17
 70
     1
102
RTVSPropertyOp18
 70
     1
102
RTVSPropertyOp19
 70
     1
102
RTVSPropertyOp20
 70
     1
102
RTVSPropertyOp21
 70
     1
102
RTVSPropertyOp22
 70
     1
102
RTVSPropertyOp23
 70
     1
102
RTVSPropertyOp24
 70
     1
102
RTVSPropertyOp25
 70
     1
102
RTVSPropertyOp26
 70
     1
102
RTVSPropertyOp27
 70
     1
102
RTVSPropertyOp28
 70
     1
102
RTVSPropertyOp29
 70
     1
102
RTVSPropertyOp30
 70
     1
102
RTVSPropertyOp31
 70
     1
102
RTVSPropertyOp32
 70
     1
102
RTVSPropertyOp33
 70
     1
102
RTVSPropertyOp34
 70
     1
102
RTVSPropertyOp35
 70
     1
102
RTVSPropertyOp36
 70
     1
102
RTVSPropertyOp37
 70
     1
102
RTVSPropertyOp38
 70
     1
102
RTVSPropertyOp39
 70
     1
102
RTVSPropertyOp40
 70
     1
102
RTVSPropertyOp41
 70
     1
102
RTVSPropertyOp42
 70
     1
102
RTVSPropertyOp43
 70
     1
102
RTVSPropertyOp44
 70
     1
102
RTVSPropertyOp45
 70
     1
102
RTVSPropertyOp46
 70
     1
102
RTVSPropertyOp47
 70
     1
102
RTVSPropertyOp48
 70
     1
102
RTVSPropertyOp49
 70
     1
102
RTVSPropertyOp50
 70
     1
102
RTVSPropertyOp51
 70
     0
102
RTVSPropertyOp52
 70
     0
102
RTVSPropertyOp53
 70
     1
102
RTVSPropertyOp54
 70
     1
102
RTVSPropertyOp55
 70
     1
102
RTVSPropertyOp56
 70
     1
102
RTVSPropertyOp57
 70
     1
102
RTVSPropertyOp58
 70
     1
102
RTVSPropertyOp59
 70
     1
102
RTVSPropertyOp60
 70
     1
102
RTVSPropertyOp61
 70
     1
102
RTVSPropertyOp62
 70
     1
  0
XRECORD
  5
AB2D
102
{ACAD_REACTORS
330
AB2C
102
}
330
AB2C
100
AcDbXrecord
280
     1
102
RTVSPost2010Prop28
280
     0
102
RTVSPost2010PropOp28
 70
     1
102
RTVSPost2010Prop29
280
     1
102
RTVSPost2010PropOp29
 70
     1
102
RTVSPost2010Prop30
280
     1
102
RTVSPost2010PropOp30
 70
     1
102
RTVSPost2010Prop31
280
     0
102
RTVSPost2010PropOp31
 70
     1
102
RTVSPost2010Prop32
280
     0
102
RTVSPost2010PropOp32
 70
     1
102
RTVSPost2010Prop33
280
     0
102
RTVSPost2010PropOp33
 70
     1
102
RTVSPost2010Prop34
280
     0
102
RTVSPost2010PropOp34
 70
     1
102
RTVSPost2010Prop35
280
     0
102
RTVSPost2010PropOp35
 70
     1
102
RTVSPost2010Prop36
280
     0
102
RTVSPost2010PropOp36
 70
     1
102
RTVSPost2010Prop37
 90
       50
102
RTVSPost2010PropOp37
 70
     1
102
RTVSPost2010Prop38
140
0.0
102
RTVSPost2010PropOp38
 70
     1
102
RTVSPost2010Prop39
140
1.0
102
RTVSPost2010PropOp39
 70
     1
102
RTVSPost2010Prop40
 90
        0
102
RTVSPost2010PropOp40
 70
     1
102
RTVSPost2010Prop41ColorIndex
 90
       18
102
RTVSPost2010Prop41ColorRGB
 90
        0
102
RTVSPost2010PropOp41
 70
     1
102
RTVSPost2010Prop42
 90
       50
102
RTVSPost2010PropOp42
 70
     1
102
RTVSPost2010Prop43
 90
        3
102
RTVSPost2010PropOp43
 70
     1
102
RTVSPost2010Prop44ColorIndex
 90
        5
102
RTVSPost2010Prop44ColorRGB
 90
      255
102
RTVSPost2010PropOp44
 70
     1
102
RTVSPost2010Prop45
280
     0
102
RTVSPost2010PropOp45
 70
     1
102
RTVSPost2010Prop46
 90
       50
102
RTVSPost2010PropOp46
 70
     1
102
RTVSPost2010Prop47
 90
       50
102
RTVSPost2010PropOp47
 70
     1
102
RTVSPost2010Prop48
 90
       50
102
RTVSPost2010PropOp48
 70
     1
102
RTVSPost2010Prop49
280
     0
102
RTVSPost2010PropOp49
 70
     1
102
RTVSPost2010Prop50
 90
       50
102
RTVSPost2010PropOp50
 70
     1
102
RTVSPost2010Prop51ColorIndex
 90
      256
102
RTVSPost2010Prop51ColorRGB
 90
-16777216
102
RTVSPost2010PropOp51
 70
     0
102
RTVSPost2010Prop52
140
1.0
102
RTVSPost2010PropOp52
 70
     0
102
RTVSPost2010Prop53
 90
        2
102
RTVSPost2010PropOp53
 70
     1
102
RTVSPost2010Prop54
  1
strokes_ogs.tif
102
RTVSPost2010PropOp54
 70
     1
102
RTVSPost2010Prop55
280
     0
102
RTVSPost2010PropOp55
 70
     1
102
RTVSPost2010Prop56
140
1.0
102
RTVSPost2010PropOp56
 70
     1
102
RTVSPost2010Prop57
140
1.0
102
RTVSPost2010PropOp57
 70
     1
102
RTVSPropertyOp0
 70
     1
102
RTVSPropertyOp1
 70
     1
102
RTVSPropertyOp2
 70
     1
102
RTVSPropertyOp3
 70
     1
102
RTVSPropertyOp4
 70
     1
102
RTVSPropertyOp5
 70
     1
102
RTVSPropertyOp6
 70
     1
102
RTVSPropertyOp7
 70
     1
102
RTVSPropertyOp8
 70
     1
102
RTVSPropertyOp9
 70
     1
102
RTVSPropertyOp10
 70
     1
102
RTVSPropertyOp11
 70
     1
102
RTVSPropertyOp12
 70
     1
102
RTVSPropertyOp13
 70
     1
102
RTVSPropertyOp14
 70
     1
102
RTVSPropertyOp15
 70
     1
102
RTVSPropertyOp16
 70
     1
102
RTVSPropertyOp17
 70
     1
102
RTVSPropertyOp18
 70
     1
102
RTVSPropertyOp19
 70
     1
102
RTVSPropertyOp20
 70
     1
102
RTVSPropertyOp21
 70
     1
102
RTVSPropertyOp22
 70
     1
102
RTVSPropertyOp23
 70
     1
102
RTVSPropertyOp24
 70
     1
102
RTVSPropertyOp25
 70
     1
102
RTVSPropertyOp26
 70
     1
102
RTVSPropertyOp27
 70
     1
102
RTVSPropertyOp28
 70
     1
102
RTVSPropertyOp29
 70
     1
102
RTVSPropertyOp30
 70
     1
102
RTVSPropertyOp31
 70
     1
102
RTVSPropertyOp32
 70
     1
102
RTVSPropertyOp33
 70
     1
102
RTVSPropertyOp34
 70
     1
102
RTVSPropertyOp35
 70
     1
102
RTVSPropertyOp36
 70
     1
102
RTVSPropertyOp37
 70
     1
102
RTVSPropertyOp38
 70
     1
102
RTVSPropertyOp39
 70
     1
102
RTVSPropertyOp40
 70
     1
102
RTVSPropertyOp41
 70
     1
102
RTVSPropertyOp42
 70
     1
102
RTVSPropertyOp43
 70
     1
102
RTVSPropertyOp44
 70
     1
102
RTVSPropertyOp45
 70
     1
102
RTVSPropertyOp46
 70
     1
102
RTVSPropertyOp47
 70
     1
102
RTVSPropertyOp48
 70
     1
102
RTVSPropertyOp49
 70
     1
102
RTVSPropertyOp50
 70
     1
102
RTVSPropertyOp51
 70
     0
102
RTVSPropertyOp52
 70
     0
102
RTVSPropertyOp53
 70
     1
102
RTVSPropertyOp54
 70
     1
102
RTVSPropertyOp55
 70
     1
102
RTVSPropertyOp56
 70
     1
102
RTVSPropertyOp57
 70
     1
102
RTVSPropertyOp58
 70
     1
102
RTVSPropertyOp59
 70
     1
102
RTVSPropertyOp60
 70
     1
102
RTVSPropertyOp61
 70
     1
102
RTVSPropertyOp62
 70
     1
  0
XRECORD
  5
AB27
102
{ACAD_REACTORS
330
AB26
102
}
330
AB26
100
AcDbXrecord
280
     1
102
RTVSPost2010Prop28
280
     0
102
RTVSPost2010PropOp28
 70
     1
102
RTVSPost2010Prop29
280
     1
102
RTVSPost2010PropOp29
 70
     1
102
RTVSPost2010Prop30
280
     1
102
RTVSPost2010PropOp30
 70
     1
102
RTVSPost2010Prop31
280
     0
102
RTVSPost2010PropOp31
 70
     1
102
RTVSPost2010Prop32
280
     0
102
RTVSPost2010PropOp32
 70
     1
102
RTVSPost2010Prop33
280
     0
102
RTVSPost2010PropOp33
 70
     1
102
RTVSPost2010Prop34
280
     0
102
RTVSPost2010PropOp34
 70
     1
102
RTVSPost2010Prop35
280
     0
102
RTVSPost2010PropOp35
 70
     1
102
RTVSPost2010Prop36
280
     0
102
RTVSPost2010PropOp36
 70
     1
102
RTVSPost2010Prop37
 90
       50
102
RTVSPost2010PropOp37
 70
     1
102
RTVSPost2010Prop38
140
0.0
102
RTVSPost2010PropOp38
 70
     1
102
RTVSPost2010Prop39
140
1.0
102
RTVSPost2010PropOp39
 70
     1
102
RTVSPost2010Prop40
 90
        0
102
RTVSPost2010PropOp40
 70
     1
102
RTVSPost2010Prop41ColorIndex
 90
       18
102
RTVSPost2010Prop41ColorRGB
 90
        0
102
RTVSPost2010PropOp41
 70
     1
102
RTVSPost2010Prop42
 90
       50
102
RTVSPost2010PropOp42
 70
     1
102
RTVSPost2010Prop43
 90
        3
102
RTVSPost2010PropOp43
 70
     1
102
RTVSPost2010Prop44ColorIndex
 90
        5
102
RTVSPost2010Prop44ColorRGB
 90
      255
102
RTVSPost2010PropOp44
 70
     1
102
RTVSPost2010Prop45
280
     0
102
RTVSPost2010PropOp45
 70
     1
102
RTVSPost2010Prop46
 90
       50
102
RTVSPost2010PropOp46
 70
     1
102
RTVSPost2010Prop47
 90
       50
102
RTVSPost2010PropOp47
 70
     1
102
RTVSPost2010Prop48
 90
       50
102
RTVSPost2010PropOp48
 70
     1
102
RTVSPost2010Prop49
280
     0
102
RTVSPost2010PropOp49
 70
     1
102
RTVSPost2010Prop50
 90
       50
102
RTVSPost2010PropOp50
 70
     1
102
RTVSPost2010Prop51ColorIndex
 90
      256
102
RTVSPost2010Prop51ColorRGB
 90
-16777216
102
RTVSPost2010PropOp51
 70
     0
102
RTVSPost2010Prop52
140
1.0
102
RTVSPost2010PropOp52
 70
     0
102
RTVSPost2010Prop53
 90
        2
102
RTVSPost2010PropOp53
 70
     1
102
RTVSPost2010Prop54
  1
strokes_ogs.tif
102
RTVSPost2010PropOp54
 70
     1
102
RTVSPost2010Prop55
280
     0
102
RTVSPost2010PropOp55
 70
     1
102
RTVSPost2010Prop56
140
1.0
102
RTVSPost2010PropOp56
 70
     1
102
RTVSPost2010Prop57
140
1.0
102
RTVSPost2010PropOp57
 70
     1
102
RTVSPropertyOp0
 70
     1
102
RTVSPropertyOp1
 70
     1
102
RTVSPropertyOp2
 70
     1
102
RTVSPropertyOp3
 70
     1
102
RTVSPropertyOp4
 70
     1
102
RTVSPropertyOp5
 70
     1
102
RTVSPropertyOp6
 70
     1
102
RTVSPropertyOp7
 70
     1
102
RTVSPropertyOp8
 70
     1
102
RTVSPropertyOp9
 70
     1
102
RTVSPropertyOp10
 70
     1
102
RTVSPropertyOp11
 70
     1
102
RTVSPropertyOp12
 70
     1
102
RTVSPropertyOp13
 70
     1
102
RTVSPropertyOp14
 70
     1
102
RTVSPropertyOp15
 70
     1
102
RTVSPropertyOp16
 70
     1
102
RTVSPropertyOp17
 70
     1
102
RTVSPropertyOp18
 70
     1
102
RTVSPropertyOp19
 70
     1
102
RTVSPropertyOp20
 70
     1
102
RTVSPropertyOp21
 70
     1
102
RTVSPropertyOp22
 70
     1
102
RTVSPropertyOp23
 70
     1
102
RTVSPropertyOp24
 70
     1
102
RTVSPropertyOp25
 70
     1
102
RTVSPropertyOp26
 70
     1
102
RTVSPropertyOp27
 70
     1
102
RTVSPropertyOp28
 70
     1
102
RTVSPropertyOp29
 70
     1
102
RTVSPropertyOp30
 70
     1
102
RTVSPropertyOp31
 70
     1
102
RTVSPropertyOp32
 70
     1
102
RTVSPropertyOp33
 70
     1
102
RTVSPropertyOp34
 70
     1
102
RTVSPropertyOp35
 70
     1
102
RTVSPropertyOp36
 70
     1
102
RTVSPropertyOp37
 70
     1
102
RTVSPropertyOp38
 70
     1
102
RTVSPropertyOp39
 70
     1
102
RTVSPropertyOp40
 70
     1
102
RTVSPropertyOp41
 70
     1
102
RTVSPropertyOp42
 70
     1
102
RTVSPropertyOp43
 70
     1
102
RTVSPropertyOp44
 70
     1
102
RTVSPropertyOp45
 70
     1
102
RTVSPropertyOp46
 70
     1
102
RTVSPropertyOp47
 70
     1
102
RTVSPropertyOp48
 70
     1
102
RTVSPropertyOp49
 70
     1
102
RTVSPropertyOp50
 70
     1
102
RTVSPropertyOp51
 70
     0
102
RTVSPropertyOp52
 70
     0
102
RTVSPropertyOp53
 70
     1
102
RTVSPropertyOp54
 70
     1
102
RTVSPropertyOp55
 70
     1
102
RTVSPropertyOp56
 70
     1
102
RTVSPropertyOp57
 70
     1
102
RTVSPropertyOp58
 70
     1
102
RTVSPropertyOp59
 70
     1
102
RTVSPropertyOp60
 70
     1
102
RTVSPropertyOp61
 70
     1
102
RTVSPropertyOp62
 70
     1
  0
XRECORD
  5
AB29
102
{ACAD_REACTORS
330
AB28
102
}
330
AB28
100
AcDbXrecord
280
     1
102
RTVSPost2010Prop28
280
     0
102
RTVSPost2010PropOp28
 70
     1
102
RTVSPost2010Prop29
280
     1
102
RTVSPost2010PropOp29
 70
     1
102
RTVSPost2010Prop30
280
     1
102
RTVSPost2010PropOp30
 70
     1
102
RTVSPost2010Prop31
280
     0
102
RTVSPost2010PropOp31
 70
     1
102
RTVSPost2010Prop32
280
     0
102
RTVSPost2010PropOp32
 70
     1
102
RTVSPost2010Prop33
280
     0
102
RTVSPost2010PropOp33
 70
     1
102
RTVSPost2010Prop34
280
     0
102
RTVSPost2010PropOp34
 70
     1
102
RTVSPost2010Prop35
280
     0
102
RTVSPost2010PropOp35
 70
     1
102
RTVSPost2010Prop36
280
     0
102
RTVSPost2010PropOp36
 70
     1
102
RTVSPost2010Prop37
 90
       50
102
RTVSPost2010PropOp37
 70
     1
102
RTVSPost2010Prop38
140
0.0
102
RTVSPost2010PropOp38
 70
     1
102
RTVSPost2010Prop39
140
1.0
102
RTVSPost2010PropOp39
 70
     1
102
RTVSPost2010Prop40
 90
        0
102
RTVSPost2010PropOp40
 70
     1
102
RTVSPost2010Prop41ColorIndex
 90
       18
102
RTVSPost2010Prop41ColorRGB
 90
        0
102
RTVSPost2010PropOp41
 70
     1
102
RTVSPost2010Prop42
 90
       50
102
RTVSPost2010PropOp42
 70
     1
102
RTVSPost2010Prop43
 90
        3
102
RTVSPost2010PropOp43
 70
     1
102
RTVSPost2010Prop44ColorIndex
 90
        5
102
RTVSPost2010Prop44ColorRGB
 90
      255
102
RTVSPost2010PropOp44
 70
     1
102
RTVSPost2010Prop45
280
     0
102
RTVSPost2010PropOp45
 70
     1
102
RTVSPost2010Prop46
 90
       50
102
RTVSPost2010PropOp46
 70
     1
102
RTVSPost2010Prop47
 90
       50
102
RTVSPost2010PropOp47
 70
     1
102
RTVSPost2010Prop48
 90
       50
102
RTVSPost2010PropOp48
 70
     1
102
RTVSPost2010Prop49
280
     0
102
RTVSPost2010PropOp49
 70
     1
102
RTVSPost2010Prop50
 90
       50
102
RTVSPost2010PropOp50
 70
     1
102
RTVSPost2010Prop51ColorIndex
 90
      256
102
RTVSPost2010Prop51ColorRGB
 90
-16777216
102
RTVSPost2010PropOp51
 70
     0
102
RTVSPost2010Prop52
140
1.0
102
RTVSPost2010PropOp52
 70
     0
102
RTVSPost2010Prop53
 90
        2
102
RTVSPost2010PropOp53
 70
     1
102
RTVSPost2010Prop54
  1
strokes_ogs.tif
102
RTVSPost2010PropOp54
 70
     1
102
RTVSPost2010Prop55
280
     0
102
RTVSPost2010PropOp55
 70
     1
102
RTVSPost2010Prop56
140
1.0
102
RTVSPost2010PropOp56
 70
     1
102
RTVSPost2010Prop57
140
1.0
102
RTVSPost2010PropOp57
 70
     1
102
RTVSPropertyOp0
 70
     1
102
RTVSPropertyOp1
 70
     1
102
RTVSPropertyOp2
 70
     1
102
RTVSPropertyOp3
 70
     1
102
RTVSPropertyOp4
 70
     1
102
RTVSPropertyOp5
 70
     1
102
RTVSPropertyOp6
 70
     1
102
RTVSPropertyOp7
 70
     1
102
RTVSPropertyOp8
 70
     1
102
RTVSPropertyOp9
 70
     1
102
RTVSPropertyOp10
 70
     1
102
RTVSPropertyOp11
 70
     1
102
RTVSPropertyOp12
 70
     1
102
RTVSPropertyOp13
 70
     1
102
RTVSPropertyOp14
 70
     1
102
RTVSPropertyOp15
 70
     1
102
RTVSPropertyOp16
 70
     1
102
RTVSPropertyOp17
 70
     1
102
RTVSPropertyOp18
 70
     1
102
RTVSPropertyOp19
 70
     1
102
RTVSPropertyOp20
 70
     1
102
RTVSPropertyOp21
 70
     1
102
RTVSPropertyOp22
 70
     1
102
RTVSPropertyOp23
 70
     1
102
RTVSPropertyOp24
 70
     1
102
RTVSPropertyOp25
 70
     1
102
RTVSPropertyOp26
 70
     1
102
RTVSPropertyOp27
 70
     1
102
RTVSPropertyOp28
 70
     1
102
RTVSPropertyOp29
 70
     1
102
RTVSPropertyOp30
 70
     1
102
RTVSPropertyOp31
 70
     1
102
RTVSPropertyOp32
 70
     1
102
RTVSPropertyOp33
 70
     1
102
RTVSPropertyOp34
 70
     1
102
RTVSPropertyOp35
 70
     1
102
RTVSPropertyOp36
 70
     1
102
RTVSPropertyOp37
 70
     1
102
RTVSPropertyOp38
 70
     1
102
RTVSPropertyOp39
 70
     1
102
RTVSPropertyOp40
 70
     1
102
RTVSPropertyOp41
 70
     1
102
RTVSPropertyOp42
 70
     1
102
RTVSPropertyOp43
 70
     1
102
RTVSPropertyOp44
 70
     1
102
RTVSPropertyOp45
 70
     1
102
RTVSPropertyOp46
 70
     1
102
RTVSPropertyOp47
 70
     1
102
RTVSPropertyOp48
 70
     1
102
RTVSPropertyOp49
 70
     1
102
RTVSPropertyOp50
 70
     1
102
RTVSPropertyOp51
 70
     0
102
RTVSPropertyOp52
 70
     0
102
RTVSPropertyOp53
 70
     1
102
RTVSPropertyOp54
 70
     1
102
RTVSPropertyOp55
 70
     1
102
RTVSPropertyOp56
 70
     1
102
RTVSPropertyOp57
 70
     1
102
RTVSPropertyOp58
 70
     1
102
RTVSPropertyOp59
 70
     1
102
RTVSPropertyOp60
 70
     1
102
RTVSPropertyOp61
 70
     1
102
RTVSPropertyOp62
 70
     1
  0
XRECORD
  5
AB1F
102
{ACAD_REACTORS
330
AB1E
102
}
330
AB1E
100
AcDbXrecord
280
     1
102
RTVSPost2010Prop28
280
     0
102
RTVSPost2010PropOp28
 70
     1
102
RTVSPost2010Prop29
280
     1
102
RTVSPost2010PropOp29
 70
     1
102
RTVSPost2010Prop30
280
     1
102
RTVSPost2010PropOp30
 70
     1
102
RTVSPost2010Prop31
280
     0
102
RTVSPost2010PropOp31
 70
     1
102
RTVSPost2010Prop32
280
     0
102
RTVSPost2010PropOp32
 70
     1
102
RTVSPost2010Prop33
280
     0
102
RTVSPost2010PropOp33
 70
     1
102
RTVSPost2010Prop34
280
     0
102
RTVSPost2010PropOp34
 70
     1
102
RTVSPost2010Prop35
280
     0
102
RTVSPost2010PropOp35
 70
     1
102
RTVSPost2010Prop36
280
     0
102
RTVSPost2010PropOp36
 70
     1
102
RTVSPost2010Prop37
 90
       50
102
RTVSPost2010PropOp37
 70
     1
102
RTVSPost2010Prop38
140
0.0
102
RTVSPost2010PropOp38
 70
     1
102
RTVSPost2010Prop39
140
1.0
102
RTVSPost2010PropOp39
 70
     1
102
RTVSPost2010Prop40
 90
        0
102
RTVSPost2010PropOp40
 70
     1
102
RTVSPost2010Prop41ColorIndex
 90
       18
102
RTVSPost2010Prop41ColorRGB
 90
        0
102
RTVSPost2010PropOp41
 70
     1
102
RTVSPost2010Prop42
 90
       50
102
RTVSPost2010PropOp42
 70
     1
102
RTVSPost2010Prop43
 90
        3
102
RTVSPost2010PropOp43
 70
     1
102
RTVSPost2010Prop44ColorIndex
 90
        5
102
RTVSPost2010Prop44ColorRGB
 90
      255
102
RTVSPost2010PropOp44
 70
     1
102
RTVSPost2010Prop45
280
     0
102
RTVSPost2010PropOp45
 70
     1
102
RTVSPost2010Prop46
 90
       50
102
RTVSPost2010PropOp46
 70
     1
102
RTVSPost2010Prop47
 90
       50
102
RTVSPost2010PropOp47
 70
     1
102
RTVSPost2010Prop48
 90
       50
102
RTVSPost2010PropOp48
 70
     1
102
RTVSPost2010Prop49
280
     0
102
RTVSPost2010PropOp49
 70
     1
102
RTVSPost2010Prop50
 90
       50
102
RTVSPost2010PropOp50
 70
     1
102
RTVSPost2010Prop51ColorIndex
 90
      256
102
RTVSPost2010Prop51ColorRGB
 90
-16777216
102
RTVSPost2010PropOp51
 70
     0
102
RTVSPost2010Prop52
140
1.0
102
RTVSPost2010PropOp52
 70
     0
102
RTVSPost2010Prop53
 90
        2
102
RTVSPost2010PropOp53
 70
     1
102
RTVSPost2010Prop54
  1
strokes_ogs.tif
102
RTVSPost2010PropOp54
 70
     1
102
RTVSPost2010Prop55
280
     0
102
RTVSPost2010PropOp55
 70
     1
102
RTVSPost2010Prop56
140
1.0
102
RTVSPost2010PropOp56
 70
     1
102
RTVSPost2010Prop57
140
1.0
102
RTVSPost2010PropOp57
 70
     1
102
RTVSPropertyOp0
 70
     1
102
RTVSPropertyOp1
 70
     1
102
RTVSPropertyOp2
 70
     1
102
RTVSPropertyOp3
 70
     1
102
RTVSPropertyOp4
 70
     1
102
RTVSPropertyOp5
 70
     1
102
RTVSPropertyOp6
 70
     1
102
RTVSPropertyOp7
 70
     1
102
RTVSPropertyOp8
 70
     1
102
RTVSPropertyOp9
 70
     1
102
RTVSPropertyOp10
 70
     1
102
RTVSPropertyOp11
 70
     1
102
RTVSPropertyOp12
 70
     1
102
RTVSPropertyOp13
 70
     1
102
RTVSPropertyOp14
 70
     1
102
RTVSPropertyOp15
 70
     1
102
RTVSPropertyOp16
 70
     1
102
RTVSPropertyOp17
 70
     1
102
RTVSPropertyOp18
 70
     1
102
RTVSPropertyOp19
 70
     1
102
RTVSPropertyOp20
 70
     1
102
RTVSPropertyOp21
 70
     1
102
RTVSPropertyOp22
 70
     1
102
RTVSPropertyOp23
 70
     1
102
RTVSPropertyOp24
 70
     1
102
RTVSPropertyOp25
 70
     1
102
RTVSPropertyOp26
 70
     1
102
RTVSPropertyOp27
 70
     1
102
RTVSPropertyOp28
 70
     1
102
RTVSPropertyOp29
 70
     1
102
RTVSPropertyOp30
 70
     1
102
RTVSPropertyOp31
 70
     1
102
RTVSPropertyOp32
 70
     1
102
RTVSPropertyOp33
 70
     1
102
RTVSPropertyOp34
 70
     1
102
RTVSPropertyOp35
 70
     1
102
RTVSPropertyOp36
 70
     1
102
RTVSPropertyOp37
 70
     1
102
RTVSPropertyOp38
 70
     1
102
RTVSPropertyOp39
 70
     1
102
RTVSPropertyOp40
 70
     1
102
RTVSPropertyOp41
 70
     1
102
RTVSPropertyOp42
 70
     1
102
RTVSPropertyOp43
 70
     1
102
RTVSPropertyOp44
 70
     1
102
RTVSPropertyOp45
 70
     1
102
RTVSPropertyOp46
 70
     1
102
RTVSPropertyOp47
 70
     1
102
RTVSPropertyOp48
 70
     1
102
RTVSPropertyOp49
 70
     1
102
RTVSPropertyOp50
 70
     1
102
RTVSPropertyOp51
 70
     0
102
RTVSPropertyOp52
 70
     0
102
RTVSPropertyOp53
 70
     1
102
RTVSPropertyOp54
 70
     1
102
RTVSPropertyOp55
 70
     1
102
RTVSPropertyOp56
 70
     1
102
RTVSPropertyOp57
 70
     1
102
RTVSPropertyOp58
 70
     1
102
RTVSPropertyOp59
 70
     1
102
RTVSPropertyOp60
 70
     1
102
RTVSPropertyOp61
 70
     1
102
RTVSPropertyOp62
 70
     1
  0
XRECORD
  5
AB13
102
{ACAD_REACTORS
330
AB12
102
}
330
AB12
100
AcDbXrecord
280
     1
102
RTVSPost2010Prop28
280
     0
102
RTVSPost2010PropOp28
 70
     1
102
RTVSPost2010Prop29
280
     1
102
RTVSPost2010PropOp29
 70
     1
102
RTVSPost2010Prop30
280
     1
102
RTVSPost2010PropOp30
 70
     1
102
RTVSPost2010Prop31
280
     0
102
RTVSPost2010PropOp31
 70
     1
102
RTVSPost2010Prop32
280
     0
102
RTVSPost2010PropOp32
 70
     1
102
RTVSPost2010Prop33
280
     0
102
RTVSPost2010PropOp33
 70
     1
102
RTVSPost2010Prop34
280
     0
102
RTVSPost2010PropOp34
 70
     1
102
RTVSPost2010Prop35
280
     0
102
RTVSPost2010PropOp35
 70
     1
102
RTVSPost2010Prop36
280
     0
102
RTVSPost2010PropOp36
 70
     1
102
RTVSPost2010Prop37
 90
       50
102
RTVSPost2010PropOp37
 70
     1
102
RTVSPost2010Prop38
140
0.0
102
RTVSPost2010PropOp38
 70
     1
102
RTVSPost2010Prop39
140
1.0
102
RTVSPost2010PropOp39
 70
     1
102
RTVSPost2010Prop40
 90
        0
102
RTVSPost2010PropOp40
 70
     1
102
RTVSPost2010Prop41ColorIndex
 90
       18
102
RTVSPost2010Prop41ColorRGB
 90
        0
102
RTVSPost2010PropOp41
 70
     1
102
RTVSPost2010Prop42
 90
       50
102
RTVSPost2010PropOp42
 70
     1
102
RTVSPost2010Prop43
 90
        3
102
RTVSPost2010PropOp43
 70
     1
102
RTVSPost2010Prop44ColorIndex
 90
        5
102
RTVSPost2010Prop44ColorRGB
 90
      255
102
RTVSPost2010PropOp44
 70
     1
102
RTVSPost2010Prop45
280
     0
102
RTVSPost2010PropOp45
 70
     1
102
RTVSPost2010Prop46
 90
       50
102
RTVSPost2010PropOp46
 70
     1
102
RTVSPost2010Prop47
 90
       50
102
RTVSPost2010PropOp47
 70
     1
102
RTVSPost2010Prop48
 90
       50
102
RTVSPost2010PropOp48
 70
     1
102
RTVSPost2010Prop49
280
     0
102
RTVSPost2010PropOp49
 70
     1
102
RTVSPost2010Prop50
 90
       50
102
RTVSPost2010PropOp50
 70
     1
102
RTVSPost2010Prop51ColorIndex
 90
      256
102
RTVSPost2010Prop51ColorRGB
 90
-16777216
102
RTVSPost2010PropOp51
 70
     0
102
RTVSPost2010Prop52
140
1.0
102
RTVSPost2010PropOp52
 70
     0
102
RTVSPost2010Prop53
 90
        2
102
RTVSPost2010PropOp53
 70
     1
102
RTVSPost2010Prop54
  1
strokes_ogs.tif
102
RTVSPost2010PropOp54
 70
     1
102
RTVSPost2010Prop55
280
     0
102
RTVSPost2010PropOp55
 70
     1
102
RTVSPost2010Prop56
140
1.0
102
RTVSPost2010PropOp56
 70
     1
102
RTVSPost2010Prop57
140
1.0
102
RTVSPost2010PropOp57
 70
     1
102
RTVSPropertyOp0
 70
     1
102
RTVSPropertyOp1
 70
     1
102
RTVSPropertyOp2
 70
     1
102
RTVSPropertyOp3
 70
     1
102
RTVSPropertyOp4
 70
     1
102
RTVSPropertyOp5
 70
     1
102
RTVSPropertyOp6
 70
     1
102
RTVSPropertyOp7
 70
     1
102
RTVSPropertyOp8
 70
     1
102
RTVSPropertyOp9
 70
     1
102
RTVSPropertyOp10
 70
     1
102
RTVSPropertyOp11
 70
     1
102
RTVSPropertyOp12
 70
     1
102
RTVSPropertyOp13
 70
     1
102
RTVSPropertyOp14
 70
     1
102
RTVSPropertyOp15
 70
     1
102
RTVSPropertyOp16
 70
     1
102
RTVSPropertyOp17
 70
     1
102
RTVSPropertyOp18
 70
     1
102
RTVSPropertyOp19
 70
     1
102
RTVSPropertyOp20
 70
     1
102
RTVSPropertyOp21
 70
     1
102
RTVSPropertyOp22
 70
     1
102
RTVSPropertyOp23
 70
     1
102
RTVSPropertyOp24
 70
     1
102
RTVSPropertyOp25
 70
     1
102
RTVSPropertyOp26
 70
     1
102
RTVSPropertyOp27
 70
     1
102
RTVSPropertyOp28
 70
     1
102
RTVSPropertyOp29
 70
     1
102
RTVSPropertyOp30
 70
     1
102
RTVSPropertyOp31
 70
     1
102
RTVSPropertyOp32
 70
     1
102
RTVSPropertyOp33
 70
     1
102
RTVSPropertyOp34
 70
     1
102
RTVSPropertyOp35
 70
     1
102
RTVSPropertyOp36
 70
     1
102
RTVSPropertyOp37
 70
     1
102
RTVSPropertyOp38
 70
     1
102
RTVSPropertyOp39
 70
     1
102
RTVSPropertyOp40
 70
     1
102
RTVSPropertyOp41
 70
     1
102
RTVSPropertyOp42
 70
     1
102
RTVSPropertyOp43
 70
     1
102
RTVSPropertyOp44
 70
     1
102
RTVSPropertyOp45
 70
     1
102
RTVSPropertyOp46
 70
     1
102
RTVSPropertyOp47
 70
     1
102
RTVSPropertyOp48
 70
     1
102
RTVSPropertyOp49
 70
     1
102
RTVSPropertyOp50
 70
     1
102
RTVSPropertyOp51
 70
     0
102
RTVSPropertyOp52
 70
     0
102
RTVSPropertyOp53
 70
     1
102
RTVSPropertyOp54
 70
     1
102
RTVSPropertyOp55
 70
     1
102
RTVSPropertyOp56
 70
     1
102
RTVSPropertyOp57
 70
     1
102
RTVSPropertyOp58
 70
     1
102
RTVSPropertyOp59
 70
     1
102
RTVSPropertyOp60
 70
     1
102
RTVSPropertyOp61
 70
     1
102
RTVSPropertyOp62
 70
     1
  0
XRECORD
  5
AB2B
102
{ACAD_REACTORS
330
AB2A
102
}
330
AB2A
100
AcDbXrecord
280
     1
102
RTVSPost2010Prop28
280
     0
102
RTVSPost2010PropOp28
 70
     1
102
RTVSPost2010Prop29
280
     1
102
RTVSPost2010PropOp29
 70
     1
102
RTVSPost2010Prop30
280
     1
102
RTVSPost2010PropOp30
 70
     1
102
RTVSPost2010Prop31
280
     0
102
RTVSPost2010PropOp31
 70
     1
102
RTVSPost2010Prop32
280
     0
102
RTVSPost2010PropOp32
 70
     1
102
RTVSPost2010Prop33
280
     0
102
RTVSPost2010PropOp33
 70
     1
102
RTVSPost2010Prop34
280
     0
102
RTVSPost2010PropOp34
 70
     1
102
RTVSPost2010Prop35
280
     0
102
RTVSPost2010PropOp35
 70
     1
102
RTVSPost2010Prop36
280
     0
102
RTVSPost2010PropOp36
 70
     1
102
RTVSPost2010Prop37
 90
       50
102
RTVSPost2010PropOp37
 70
     1
102
RTVSPost2010Prop38
140
0.0
102
RTVSPost2010PropOp38
 70
     1
102
RTVSPost2010Prop39
140
1.0
102
RTVSPost2010PropOp39
 70
     1
102
RTVSPost2010Prop40
 90
        0
102
RTVSPost2010PropOp40
 70
     1
102
RTVSPost2010Prop41ColorIndex
 90
       18
102
RTVSPost2010Prop41ColorRGB
 90
        0
102
RTVSPost2010PropOp41
 70
     1
102
RTVSPost2010Prop42
 90
       50
102
RTVSPost2010PropOp42
 70
     1
102
RTVSPost2010Prop43
 90
        3
102
RTVSPost2010PropOp43
 70
     1
102
RTVSPost2010Prop44ColorIndex
 90
        5
102
RTVSPost2010Prop44ColorRGB
 90
      255
102
RTVSPost2010PropOp44
 70
     1
102
RTVSPost2010Prop45
280
     0
102
RTVSPost2010PropOp45
 70
     1
102
RTVSPost2010Prop46
 90
       50
102
RTVSPost2010PropOp46
 70
     1
102
RTVSPost2010Prop47
 90
       50
102
RTVSPost2010PropOp47
 70
     1
102
RTVSPost2010Prop48
 90
       50
102
RTVSPost2010PropOp48
 70
     1
102
RTVSPost2010Prop49
280
     0
102
RTVSPost2010PropOp49
 70
     1
102
RTVSPost2010Prop50
 90
       50
102
RTVSPost2010PropOp50
 70
     1
102
RTVSPost2010Prop51ColorIndex
 90
      256
102
RTVSPost2010Prop51ColorRGB
 90
-16777216
102
RTVSPost2010PropOp51
 70
     0
102
RTVSPost2010Prop52
140
1.0
102
RTVSPost2010PropOp52
 70
     0
102
RTVSPost2010Prop53
 90
        2
102
RTVSPost2010PropOp53
 70
     1
102
RTVSPost2010Prop54
  1
strokes_ogs.tif
102
RTVSPost2010PropOp54
 70
     1
102
RTVSPost2010Prop55
280
     0
102
RTVSPost2010PropOp55
 70
     1
102
RTVSPost2010Prop56
140
1.0
102
RTVSPost2010PropOp56
 70
     1
102
RTVSPost2010Prop57
140
1.0
102
RTVSPost2010PropOp57
 70
     1
102
RTVSPropertyOp0
 70
     1
102
RTVSPropertyOp1
 70
     1
102
RTVSPropertyOp2
 70
     1
102
RTVSPropertyOp3
 70
     1
102
RTVSPropertyOp4
 70
     1
102
RTVSPropertyOp5
 70
     1
102
RTVSPropertyOp6
 70
     1
102
RTVSPropertyOp7
 70
     1
102
RTVSPropertyOp8
 70
     1
102
RTVSPropertyOp9
 70
     1
102
RTVSPropertyOp10
 70
     1
102
RTVSPropertyOp11
 70
     1
102
RTVSPropertyOp12
 70
     1
102
RTVSPropertyOp13
 70
     1
102
RTVSPropertyOp14
 70
     1
102
RTVSPropertyOp15
 70
     1
102
RTVSPropertyOp16
 70
     1
102
RTVSPropertyOp17
 70
     1
102
RTVSPropertyOp18
 70
     1
102
RTVSPropertyOp19
 70
     1
102
RTVSPropertyOp20
 70
     1
102
RTVSPropertyOp21
 70
     1
102
RTVSPropertyOp22
 70
     1
102
RTVSPropertyOp23
 70
     1
102
RTVSPropertyOp24
 70
     1
102
RTVSPropertyOp25
 70
     1
102
RTVSPropertyOp26
 70
     1
102
RTVSPropertyOp27
 70
     1
102
RTVSPropertyOp28
 70
     1
102
RTVSPropertyOp29
 70
     1
102
RTVSPropertyOp30
 70
     1
102
RTVSPropertyOp31
 70
     1
102
RTVSPropertyOp32
 70
     1
102
RTVSPropertyOp33
 70
     1
102
RTVSPropertyOp34
 70
     1
102
RTVSPropertyOp35
 70
     1
102
RTVSPropertyOp36
 70
     1
102
RTVSPropertyOp37
 70
     1
102
RTVSPropertyOp38
 70
     1
102
RTVSPropertyOp39
 70
     1
102
RTVSPropertyOp40
 70
     1
102
RTVSPropertyOp41
 70
     1
102
RTVSPropertyOp42
 70
     1
102
RTVSPropertyOp43
 70
     1
102
RTVSPropertyOp44
 70
     1
102
RTVSPropertyOp45
 70
     1
102
RTVSPropertyOp46
 70
     1
102
RTVSPropertyOp47
 70
     1
102
RTVSPropertyOp48
 70
     1
102
RTVSPropertyOp49
 70
     1
102
RTVSPropertyOp50
 70
     1
102
RTVSPropertyOp51
 70
     0
102
RTVSPropertyOp52
 70
     0
102
RTVSPropertyOp53
 70
     1
102
RTVSPropertyOp54
 70
     1
102
RTVSPropertyOp55
 70
     1
102
RTVSPropertyOp56
 70
     1
102
RTVSPropertyOp57
 70
     1
102
RTVSPropertyOp58
 70
     1
102
RTVSPropertyOp59
 70
     1
102
RTVSPropertyOp60
 70
     1
102
RTVSPropertyOp61
 70
     1
102
RTVSPropertyOp62
 70
     1
  0
ENDSEC
  0
EOF
