  0
SECTION
  2
HEADER
  9
$ACADVER
  1
AC1015
  9
$ACADMAINTVER
 70
    20
  9
$DWGCODEPAGE
  3
ANSI_932
  9
$INSBASE
 10
0.0
 20
0.0
 30
0.0
  9
$EXTMIN
 10
10.0
 20
9.999999999999998
 30
0.0
  9
$EXTMAX
 10
422.533949
 20
342.0500289999998
 30
0.0
  9
$LIMMIN
 10
0.0
 20
0.0
  9
$LIMMAX
 10
495.0
 20
341.25
  9
$ORTHOMODE
 70
     1
  9
$REGENMODE
 70
     1
  9
$FILLMODE
 70
     1
  9
$QTEXTMODE
 70
     0
  9
$MIRRTEXT
 70
     1
  9
$LTSCALE
 40
20.0
  9
$ATTMODE
 70
     1
  9
$TEXTSIZE
 40
5.0
  9
$TRACEWID
 40
1.0
  9
$TEXTSTYLE
  7
STANDARD
  9
$CLAYER
  8
0
  9
$CELTYPE
  6
BYLAYER
  9
$CECOLOR
 62
   256
  9
$CELTSCALE
 40
1.0
  9
$DISPSILH
 70
     0
  9
$DIMSCALE
 40
1.0
  9
$DIMASZ
 40
2.5
  9
$DIMEXO
 40
1.0
  9
$DIMDLI
 40
10.0
  9
$DIMRND
 40
0.0
  9
$DIMDLE
 40
0.0
  9
$DIMEXE
 40
1.0
  9
$DIMTP
 40
0.0
  9
$DIMTM
 40
0.0
  9
$DIMTXT
 40
3.2
  9
$DIMCEN
 40
0.0
  9
$DIMTSZ
 40
0.0
  9
$DIMTOL
 70
     0
  9
$DIMLIM
 70
     0
  9
$DIMTIH
 70
     0
  9
$DIMTOH
 70
     0
  9
$DIMSE1
 70
     0
  9
$DIMSE2
 70
     0
  9
$DIMTAD
 70
     3
  9
$DIMZIN
 70
     8
  9
$DIMBLK
  1

  9
$DIMASO
 70
     1
  9
$DIMSHO
 70
     1
  9
$DIMPOST
  1

  9
$DIMAPOST
  1

  9
$DIMALT
 70
     0
  9
$DIMALTD
 70
     2
  9
$DIMALTF
 40
25.4
  9
$DIMLFAC
 40
1.0
  9
$DIMTOFL
 70
     1
  9
$DIMTVP
 40
0.0
  9
$DIMTIX
 70
     0
  9
$DIMSOXD
 70
     0
  9
$DIMSAH
 70
     1
  9
$DIMBLK1
  1

  9
$DIMBLK2
  1

  9
$DIMSTYLE
  2
STANDARD
  9
$DIMCLRD
 70
     0
  9
$DIMCLRE
 70
     0
  9
$DIMCLRT
 70
     0
  9
$DIMTFAC
 40
1.0
  9
$DIMGAP
 40
1.0
  9
$DIMJUST
 70
     0
  9
$DIMSD1
 70
     0
  9
$DIMSD2
 70
     0
  9
$DIMTOLJ
 70
     1
  9
$DIMTZIN
 70
     0
  9
$DIMALTZ
 70
     0
  9
$DIMALTTZ
 70
     0
  9
$DIMUPT
 70
     0
  9
$DIMDEC
 70
     4
  9
$DIMTDEC
 70
     4
  9
$DIMALTU
 70
     2
  9
$DIMALTTD
 70
     2
  9
$DIMTXSTY
  7
STANDARD
  9
$DIMAUNIT
 70
     0
  9
$DIMADEC
 70
     0
  9
$DIMALTRND
 40
0.0
  9
$DIMAZIN
 70
     0
  9
$DIMDSEP
 70
    46
  9
$DIMATFIT
 70
     3
  9
$DIMFRAC
 70
     0
  9
$DIMLDRBLK
  1

  9
$DIMLUNIT
 70
     2
  9
$DIMLWD
 70
    -2
  9
$DIMLWE
 70
    -2
  9
$DIMTMOVE
 70
     0
  9
$LUNITS
 70
     2
  9
$LUPREC
 70
     4
  9
$SKETCHINC
 40
1.0
  9
$FILLETRAD
 40
4.0
  9
$AUNITS
 70
     0
  9
$AUPREC
 70
     2
  9
$MENU
  1
.
  9
$ELEVATION
 40
0.0
  9
$PELEVATION
 40
0.0
  9
$THICKNESS
 40
0.0
  9
$LIMCHECK
 70
     0
  9
$CHAMFERA
 40
10.0
  9
$CHAMFERB
 40
10.0
  9
$CHAMFERC
 40
0.0
  9
$CHAMFERD
 40
0.0
  9
$SKPOLY
 70
     0
  9
$TDCREATE
 40
2451301.438380324
  9
$TDUCREATE
 40
2451301.063380324
  9
$TDUPDATE
 40
2457192.690127998
  9
$TDUUPDATE
 40
2457192.315127998
  9
$TDINDWG
 40
0.1400638079
  9
$TDUSRTIMER
 40
0.1400633218
  9
$USRTIMER
 70
     1
  9
$ANGBASE
 50
0.0
  9
$ANGDIR
 70
     0
  9
$PDMODE
 70
     0
  9
$PDSIZE
 40
0.0
  9
$PLINEWID
 40
0.0
  9
$SPLFRAME
 70
     0
  9
$SPLINETYPE
 70
     6
  9
$SPLINESEGS
 70
     8
  9
$HANDSEED
  5
A690
  9
$SURFTAB1
 70
     6
  9
$SURFTAB2
 70
     6
  9
$SURFTYPE
 70
     6
  9
$SURFU
 70
     6
  9
$SURFV
 70
     6
  9
$UCSBASE
  2

  9
$UCSNAME
  2

  9
$UCSORG
 10
0.0
 20
0.0
 30
0.0
  9
$UCSXDIR
 10
1.0
 20
0.0
 30
0.0
  9
$UCSYDIR
 10
0.0
 20
1.0
 30
0.0
  9
$UCSORTHOREF
  2

  9
$UCSORTHOVIEW
 70
     0
  9
$UCSORGTOP
 10
0.0
 20
0.0
 30
0.0
  9
$UCSORGBOTTOM
 10
0.0
 20
0.0
 30
0.0
  9
$UCSORGLEFT
 10
0.0
 20
0.0
 30
0.0
  9
$UCSORGRIGHT
 10
0.0
 20
0.0
 30
0.0
  9
$UCSORGFRONT
 10
0.0
 20
0.0
 30
0.0
  9
$UCSORGBACK
 10
0.0
 20
0.0
 30
0.0
  9
$PUCSBASE
  2

  9
$PUCSNAME
  2

  9
$PUCSORG
 10
0.0
 20
0.0
 30
0.0
  9
$PUCSXDIR
 10
1.0
 20
0.0
 30
0.0
  9
$PUCSYDIR
 10
0.0
 20
1.0
 30
0.0
  9
$PUCSORTHOREF
  2

  9
$PUCSORTHOVIEW
 70
     0
  9
$PUCSORGTOP
 10
0.0
 20
0.0
 30
0.0
  9
$PUCSORGBOTTOM
 10
0.0
 20
0.0
 30
0.0
  9
$PUCSORGLEFT
 10
0.0
 20
0.0
 30
0.0
  9
$PUCSORGRIGHT
 10
0.0
 20
0.0
 30
0.0
  9
$PUCSORGFRONT
 10
0.0
 20
0.0
 30
0.0
  9
$PUCSORGBACK
 10
0.0
 20
0.0
 30
0.0
  9
$USERI1
 70
     0
  9
$USERI2
 70
     0
  9
$USERI3
 70
     0
  9
$USERI4
 70
     0
  9
$USERI5
 70
     0
  9
$USERR1
 40
0.0
  9
$USERR2
 40
0.0
  9
$USERR3
 40
0.0
  9
$USERR4
 40
0.0
  9
$USERR5
 40
0.0
  9
$WORLDVIEW
 70
     1
  9
$SHADEDGE
 70
     3
  9
$SHADEDIF
 70
    70
  9
$TILEMODE
 70
     1
  9
$MAXACTVP
 70
    16
  9
$PINSBASE
 10
0.0
 20
0.0
 30
0.0
  9
$PLIMCHECK
 70
     0
  9
$PEXTMIN
 10
1.000000000000000E+20
 20
1.000000000000000E+20
 30
1.000000000000000E+20
  9
$PEXTMAX
 10
-1.000000000000000E+20
 20
-1.000000000000000E+20
 30
-1.000000000000000E+20
  9
$PLIMMIN
 10
0.0
 20
0.0
  9
$PLIMMAX
 10
420.0
 20
297.0
  9
$UNITMODE
 70
     0
  9
$VISRETAIN
 70
     0
  9
$PLINEGEN
 70
     0
  9
$PSLTSCALE
 70
     0
  9
$TREEDEPTH
 70
  3020
  9
$CMLSTYLE
  2
STANDARD
  9
$CMLJUST
 70
     0
  9
$CMLSCALE
 40
1.0
  9
$PROXYGRAPHICS
 70
     1
  9
$MEASUREMENT
 70
     0
  9
$CELWEIGHT
370
    -1
  9
$ENDCAPS
280
     0
  9
$JOINSTYLE
280
     0
  9
$LWDISPLAY
290
     0
  9
$INSUNITS
 70
     0
  9
$HYPERLINKBASE
  1

  9
$STYLESHEET
  1

  9
$XEDIT
290
     1
  9
$CEPSNTYPE
380
     0
  9
$PSTYLEMODE
290
     1
  9
$FINGERPRINTGUID
  2
{016C1F61-9E1C-41F6-8AEB-B3DA07CD9845}
  9
$VERSIONGUID
  2
{0D9AC386-C10C-4633-814C-419868E47CE0}
  9
$EXTNAMES
290
     1
  9
$PSVPSCALE
 40
0.0
  9
$OLESTARTUP
290
     0
  0
ENDSEC
  0
SECTION
  2
CLASSES
  0
CLASS
  1
ACDBDICTIONARYWDFLT
  2
AcDbDictionaryWithDefault
  3
ObjectDBX Classes
 90
        0
280
     0
281
     0
  0
CLASS
  1
ACDBPLACEHOLDER
  2
AcDbPlaceHolder
  3
ObjectDBX Classes
 90
        0
280
     0
281
     0
  0
CLASS
  1
LAYOUT
  2
AcDbLayout
  3
ObjectDBX Classes
 90
        0
280
     0
281
     0
  0
CLASS
  1
DICTIONARYVAR
  2
AcDbDictionaryVar
  3
ObjectDBX Classes
 90
        0
280
     0
281
     0
  0
CLASS
  1
MATERIAL
  2
AcDbMaterial
  3
ObjectDBX Classes
 90
     1153
280
     0
281
     0
  0
CLASS
  1
VISUALSTYLE
  2
AcDbVisualStyle
  3
ObjectDBX Classes
 90
     4095
280
     0
281
     0
  0
CLASS
  1
TABLESTYLE
  2
AcDbTableStyle
  3
ObjectDBX Classes
 90
     4095
280
     0
281
     0
  0
CLASS
  1
SCALE
  2
AcDbScale
  3
ObjectDBX Classes
 90
     1153
280
     0
281
     0
  0
CLASS
  1
MLEADERSTYLE
  2
AcDbMLeaderStyle
  3
ACDB_MLEADERSTYLE_CLASS
 90
     4095
280
     0
281
     0
  0
CLASS
  1
ACDBSECTIONVIEWSTYLE
  2
AcDbSectionViewStyle
  3
ObjectDBX Classes
 90
     1025
280
     0
281
     0
  0
CLASS
  1
ACDBDETAILVIEWSTYLE
  2
AcDbDetailViewStyle
  3
ObjectDBX Classes
 90
     1025
280
     0
281
     0
  0
CLASS
  1
CELLSTYLEMAP
  2
AcDbCellStyleMap
  3
ObjectDBX Classes
 90
     1152
280
     0
281
     0
  0
ENDSEC
  0
SECTION
  2
TABLES
  0
TABLE
  2
VPORT
  5
A3C4
330
0
100
AcDbSymbolTable
 70
     1
  0
VPORT
  5
A5DB
330
A3C4
100
AcDbSymbolTableRecord
100
AcDbViewportTableRecord
  2
*ACTIVE
 70
     0
 10
0.0
 20
0.0
 11
1.0
 21
1.0
 12
344.0853368826006
 22
176.0273273846859
 13
0.0
 23
0.0
 14
10.0
 24
10.0
 15
10.0
 25
10.0
 16
0.0
 26
0.0
 36
1.0
 17
0.0
 27
0.0
 37
0.0
 40
334.7020513025406
 41
2.35006605019815
 42
50.0
 43
0.0
 44
0.0
 50
0.0
 51
0.0
 71
     0
 72
   100
 73
     1
 74
     0
 75
     0
 76
     0
 77
     0
 78
     0
281
     0
 65
     1
110
0.0
120
0.0
130
0.0
111
1.0
121
0.0
131
0.0
112
0.0
122
1.0
132
0.0
 79
     0
146
0.0
1001
ACAD_NAV_VCDISPLAY
1070
     3
  0
ENDTAB
  0
TABLE
  2
LTYPE
  5
A3C1
330
0
100
AcDbSymbolTable
 70
     4
  0
LTYPE
  5
A3CF
330
A3C1
100
AcDbSymbolTableRecord
100
AcDbLinetypeTableRecord
  2
BYBLOCK
 70
     0
  3

 72
    65
 73
     0
 40
0.0
  0
LTYPE
  5
A3D0
330
A3C1
100
AcDbSymbolTableRecord
100
AcDbLinetypeTableRecord
  2
BYLAYER
 70
     0
  3

 72
    65
 73
     0
 40
0.0
  0
LTYPE
  5
A3D1
330
A3C1
100
AcDbSymbolTableRecord
100
AcDbLinetypeTableRecord
  2
CONTINUOUS
 70
     0
  3
Solid line
 72
    65
 73
     0
 40
0.0
  0
LTYPE
  5
A3DF
330
A3C1
100
AcDbSymbolTableRecord
100
AcDbLinetypeTableRecord
  2
DASHED
 70
     0
  3
__ __ __ __ __ __ __ __ __ __ __ __ __ __ __ __
 72
    65
 73
     2
 40
0.75
 49
0.5
 74
     0
 49
-0.25
 74
     0
  0
LTYPE
  5
A3E0
330
A3C1
100
AcDbSymbolTableRecord
100
AcDbLinetypeTableRecord
  2
CENTER
 70
     0
  3
____ _ ____ _ ____ _ ____ _ ____ _ ____ _ ____ 
 72
    65
 73
     4
 40
2.0
 49
1.25
 74
     0
 49
-0.25
 74
     0
 49
0.25
 74
     0
 49
-0.25
 74
     0
  0
LTYPE
  5
A3E1
330
A3C1
100
AcDbSymbolTableRecord
100
AcDbLinetypeTableRecord
  2
PHANTOM
 70
     0
  3
______  __  __  ______  __  __  ______  __  __ 
 72
    65
 73
     6
 40
2.5
 49
1.25
 74
     0
 49
-0.25
 74
     0
 49
0.25
 74
     0
 49
-0.25
 74
     0
 49
0.25
 74
     0
 49
-0.25
 74
     0
  0
ENDTAB
  0
TABLE
  2
LAYER
  5
A3BE
330
0
100
AcDbSymbolTable
 70
     8
  0
LAYER
  5
A3CC
102
{ACAD_XDICTIONARY
360
A634
102
}
330
A3BE
100
AcDbSymbolTableRecord
100
AcDbLayerTableRecord
  2
0
 70
     0
 62
     7
  6
CONTINUOUS
370
    -3
390
A5E2
  0
LAYER
  5
A3E2
102
{ACAD_XDICTIONARY
360
A636
102
}
330
A3BE
100
AcDbSymbolTableRecord
100
AcDbLayerTableRecord
  2
4
 70
     0
 62
     1
  6
CENTER
370
    -3
390
A5E2
  0
LAYER
  5
A3E3
102
{ACAD_XDICTIONARY
360
A638
102
}
330
A3BE
100
AcDbSymbolTableRecord
100
AcDbLayerTableRecord
  2
5
 70
     0
 62
     6
  6
PHANTOM
370
    -3
390
A5E2
  0
LAYER
  5
A3E4
102
{ACAD_XDICTIONARY
360
A63A
102
}
330
A3BE
100
AcDbSymbolTableRecord
100
AcDbLayerTableRecord
  2
1
 70
     0
 62
     7
  6
CONTINUOUS
370
    -3
390
A5E2
  0
LAYER
  5
A3E5
102
{ACAD_XDICTIONARY
360
A63C
102
}
330
A3BE
100
AcDbSymbolTableRecord
100
AcDbLayerTableRecord
  2
2
 70
     0
 62
     4
  6
CONTINUOUS
370
    -3
390
A5E2
  0
LAYER
  5
A3E6
102
{ACAD_XDICTIONARY
360
A63E
102
}
330
A3BE
100
AcDbSymbolTableRecord
100
AcDbLayerTableRecord
  2
3
 70
     0
 62
     2
  6
DASHED
370
    -3
390
A5E2
  0
LAYER
  5
A3E7
102
{ACAD_XDICTIONARY
360
A640
102
}
330
A3BE
100
AcDbSymbolTableRecord
100
AcDbLayerTableRecord
  2
6
 70
     0
 62
     5
  6
CONTINUOUS
370
    -3
390
A5E2
  0
LAYER
  5
A3E8
102
{ACAD_XDICTIONARY
360
A642
102
}
330
A3BE
100
AcDbSymbolTableRecord
100
AcDbLayerTableRecord
  2
7
 70
     0
 62
     3
  6
CONTINUOUS
370
    -3
390
A5E2
  0
ENDTAB
  0
TABLE
  2
STYLE
  5
A3BF
330
0
100
AcDbSymbolTable
 70
     1
  0
STYLE
  5
A3CD
330
A3BF
100
AcDbSymbolTableRecord
100
AcDbTextStyleTableRecord
  2
STANDARD
 70
     0
 40
0.0
 41
1.0
 50
0.0
 71
     0
 42
5.0
  3
txt
  4

  0
ENDTAB
  0
TABLE
  2
VIEW
  5
A3C2
330
0
100
AcDbSymbolTable
 70
     0
  0
ENDTAB
  0
TABLE
  2
UCS
  5
A3C3
330
0
100
AcDbSymbolTable
 70
     0
  0
ENDTAB
  0
TABLE
  2
APPID
  5
A3C5
330
0
100
AcDbSymbolTable
 70
     3
  0
APPID
  5
A3CE
330
A3C5
100
AcDbSymbolTableRecord
100
AcDbRegAppTableRecord
  2
ACAD
 70
     0
  0
APPID
  5
A64E
330
A3C5
100
AcDbSymbolTableRecord
100
AcDbRegAppTableRecord
  2
ACAD_NAV_VCDISPLAY
 70
     0
  0
APPID
  5
A687
330
A3C5
100
AcDbSymbolTableRecord
100
AcDbRegAppTableRecord
  2
ACAD_MLEADERVER
 70
     0
  0
ENDTAB
  0
TABLE
  2
DIMSTYLE
  5
A3C6
330
0
100
AcDbSymbolTable
 70
     1
100
AcDbDimStyleTable
 71
     0
  0
DIMSTYLE
105
A3EA
330
A3C6
100
AcDbSymbolTableRecord
100
AcDbDimStyleTableRecord
  2
STANDARD
 70
     0
 41
2.5
 42
1.0
 43
10.0
 44
1.0
 73
     0
 74
     0
 77
     3
 78
     8
140
3.2
141
0.0
147
1.0
172
     1
173
     1
284
     8
285
     8
286
     8
340
A3CD
  0
ENDTAB
  0
TABLE
  2
BLOCK_RECORD
  5
A3BD
330
0
100
AcDbSymbolTable
 70
     0
  0
BLOCK_RECORD
  5
A3DA
102
{ACAD_XDICTIONARY
360
A5C0
102
}
330
A3BD
100
AcDbSymbolTableRecord
100
AcDbBlockTableRecord
  2
*MODEL_SPACE
340
A630
  0
BLOCK_RECORD
  5
A3D6
102
{ACAD_XDICTIONARY
360
A5BE
102
}
330
A3BD
100
AcDbSymbolTableRecord
100
AcDbBlockTableRecord
  2
*PAPER_SPACE
340
A631
  0
ENDTAB
  0
ENDSEC
  0
SECTION
  2
BLOCKS
  0
BLOCK
  5
A3DB
330
A3DA
100
AcDbEntity
  8
0
100
AcDbBlockBegin
  2
*MODEL_SPACE
 70
     0
 10
0.0
 20
0.0
 30
0.0
  3
*MODEL_SPACE
  1

  0
ENDBLK
  5
A3DC
330
A3DA
100
AcDbEntity
  8
0
100
AcDbBlockEnd
  0
BLOCK
  5
A3D7
330
A3D6
100
AcDbEntity
 67
     1
  8
0
100
AcDbBlockBegin
  2
*PAPER_SPACE
 70
     0
 10
0.0
 20
0.0
 30
0.0
  3
*PAPER_SPACE
  1

  0
ENDBLK
  5
A3D8
330
A3D6
100
AcDbEntity
 67
     1
  8
0
100
AcDbBlockEnd
  0
ENDSEC
  0
SECTION
  2
ENTITIES
  0
TEXT
  5
A3F2
330
A3DA
100
AcDbEntity
  8
7
  6
Continuous
100
AcDbText
 10
10.0
 20
18.0
 30
0.0
 40
3.0
  1
TYPE No.TCA-420EA-R50
100
AcDbText
  0
TEXT
  5
A3F3
330
A3DA
100
AcDbEntity
  8
7
  6
Continuous
100
AcDbText
 10
10.0
 20
26.0
 30
0.0
 40
3.0
  1
CODE No.9765
100
AcDbText
  0
TEXT
  5
A3F4
330
A3DA
100
AcDbEntity
  8
1
  6
Continuous
100
AcDbText
 10
10.0
 20
10.0
 30
0.0
 40
1.399999999999999
  1
LAYER
100
AcDbText
  0
TEXT
  5
A3F5
330
A3DA
100
AcDbEntity
  8
1
  6
Continuous
100
AcDbText
 10
17.97951099999998
 20
10.04873699999998
 30
0.0
 40
1.399999999999999
  1
1
100
AcDbText
  0
TEXT
  5
A3F6
330
A3DA
100
AcDbEntity
  8
7
  6
Continuous
100
AcDbText
 10
29.97951099999999
 20
10.04873699999998
 30
0.0
 40
1.399999999999999
  1
7
100
AcDbText
  0
TEXT
  5
A3F7
330
A3DA
100
AcDbEntity
  8
4
  6
CENTER
100
AcDbText
 10
23.97951099999999
 20
10.04873699999998
 30
0.0
 40
1.399999999999999
  1
4
100
AcDbText
  0
TEXT
  5
A3F8
330
A3DA
100
AcDbEntity
  8
3
  6
DASHED
100
AcDbText
 10
21.979511
 20
10.04873699999998
 30
0.0
 40
1.399999999999999
  1
3
100
AcDbText
  0
TEXT
  5
A3F9
330
A3DA
100
AcDbEntity
  8
2
  6
Continuous
100
AcDbText
 10
19.97951099999998
 20
10.04873699999998
 30
0.0
 40
1.399999999999999
  1
2
100
AcDbText
  0
TEXT
  5
A3FA
330
A3DA
100
AcDbEntity
  8
6
  6
Continuous
100
AcDbText
 10
27.979511
 20
10.04873699999998
 30
0.0
 40
1.399999999999999
  1
6
100
AcDbText
  0
TEXT
  5
A3FB
330
A3DA
100
AcDbEntity
  8
5
  6
PHANTOM
100
AcDbText
 10
25.97951099999999
 20
10.04873699999998
 30
0.0
 40
1.399999999999999
  1
5
100
AcDbText
  0
LINE
  5
A3FC
330
A3DA
100
AcDbEntity
  8
4
  6
CENTER
 48
0.8
100
AcDbLine
 10
49.033949
 20
246.465895
 30
0.0
 11
49.033949
 21
133.465892
 31
0.0
  0
LINE
  5
A3FD
330
A3DA
100
AcDbEntity
  8
4
  6
CENTER
 48
0.8
100
AcDbLine
 10
27.533964
 20
163.4658919999999
 30
0.0
 11
71.83393000000002
 21
163.4658919999999
 31
0.0
  0
LINE
  5
A3FE
330
A3DA
100
AcDbEntity
  8
1
  6
Continuous
100
AcDbLine
 10
36.033949
 20
160.2158919999999
 30
0.0
 11
37.033949
 21
160.2158919999999
 31
0.0
  0
LINE
  5
A3FF
330
A3DA
100
AcDbEntity
  8
1
  6
Continuous
100
AcDbLine
 10
36.033949
 20
166.715892
 30
0.0
 11
37.033949
 21
166.715892
 31
0.0
  0
LINE
  5
A400
330
A3DA
100
AcDbEntity
  8
1
  6
Continuous
100
AcDbLine
 10
37.75704000000001
 20
190.1583489999999
 30
0.0
 11
60.31085799999999
 21
190.1583489999999
 31
0.0
  0
LINE
  5
A401
330
A3DA
100
AcDbEntity
  8
1
  6
Continuous
100
AcDbLine
 10
37.20402299999999
 20
191.392124
 30
0.0
 11
37.75703200000001
 21
190.1583439999997
 31
0.0
  0
LINE
  5
A402
330
A3DA
100
AcDbEntity
  8
1
  6
Continuous
100
AcDbLine
 10
60.863852
 20
191.392132
 30
0.0
 11
60.310835
 21
190.158351
 31
0.0
  0
LINE
  5
A403
330
A3DA
100
AcDbEntity
  8
4
  6
CENTER
 48
0.8
100
AcDbLine
 10
174.533949
 20
342.0500289999998
 30
0.0
 11
174.533949
 21
294.0500289999998
 31
0.0
  0
LINE
  5
A404
330
A3DA
100
AcDbEntity
  8
4
  6
CENTER
 48
0.8
100
AcDbLine
 10
198.533949
 20
318.0500289999999
 30
0.0
 11
123.533949
 21
318.0500289999999
 31
0.0
  0
LINE
  5
A405
330
A3DA
100
AcDbEntity
  8
1
  6
Continuous
100
AcDbLine
 10
33.033949
 20
197.4258909999998
 30
0.0
 11
65.03394899999999
 21
197.4258909999998
 31
0.0
  0
LINE
  5
A406
330
A3DA
100
AcDbEntity
  8
1
  6
Continuous
100
AcDbLine
 10
36.033949
 20
156.517783
 30
0.0
 11
36.033949
 21
191.4692569999999
 31
0.0
  0
LINE
  5
A407
330
A3DA
100
AcDbEntity
  8
1
  6
Continuous
100
AcDbLine
 10
34.033964
 20
156.517787
 30
0.0
 11
36.03396399999999
 21
156.517787
 31
0.0
  0
LINE
  5
A408
330
A3DA
100
AcDbEntity
  8
1
  6
Continuous
100
AcDbLine
 10
34.033964
 20
156.517787
 30
0.0
 11
34.033964
 21
191.4692559999997
 31
0.0
  0
LINE
  5
A409
330
A3DA
100
AcDbEntity
  8
1
  6
Continuous
100
AcDbLine
 10
62.033949
 20
156.517783
 30
0.0
 11
62.033949
 21
191.4692569999999
 31
0.0
  0
LINE
  5
A40A
330
A3DA
100
AcDbEntity
  8
1
  6
Continuous
100
AcDbLine
 10
64.033934
 20
156.517787
 30
0.0
 11
62.03393399999999
 21
156.517787
 31
0.0
  0
LINE
  5
A40B
330
A3DA
100
AcDbEntity
  8
1
  6
Continuous
100
AcDbLine
 10
64.033934
 20
156.517787
 30
0.0
 11
64.033934
 21
191.4692559999997
 31
0.0
  0
LINE
  5
A40C
330
A3DA
100
AcDbEntity
  8
1
  6
Continuous
100
AcDbLine
 10
64.033934
 20
158.715892
 30
0.0
 11
64.333937
 21
158.715892
 31
0.0
  0
LINE
  5
A40D
330
A3DA
100
AcDbEntity
  8
1
  6
Continuous
100
AcDbLine
 10
64.033934
 20
168.215892
 30
0.0
 11
64.333937
 21
168.215892
 31
0.0
  0
LINE
  5
A40E
330
A3DA
100
AcDbEntity
  8
1
  6
Continuous
100
AcDbLine
 10
64.333937
 20
158.715892
 30
0.0
 11
64.333937
 21
168.215892
 31
0.0
  0
LINE
  5
A40F
330
A3DA
100
AcDbEntity
  8
1
  6
Continuous
100
AcDbLine
 10
32.53396399999999
 20
159.9658919999999
 30
0.0
 11
32.53396399999999
 21
166.9658939999998
 31
0.0
  0
LINE
  5
A410
330
A3DA
100
AcDbEntity
  8
1
  6
Continuous
100
AcDbLine
 10
33.53396399999999
 20
158.865894
 30
0.0
 11
33.53396399999999
 21
168.065889
 31
0.0
  0
LINE
  5
A411
330
A3DA
100
AcDbEntity
  8
1
  6
Continuous
100
AcDbLine
 10
33.533957
 20
158.865894
 30
0.0
 11
34.033957
 21
160.2158959999998
 31
0.0
  0
LINE
  5
A412
330
A3DA
100
AcDbEntity
  8
1
  6
Continuous
100
AcDbLine
 10
34.033964
 20
166.715892
 30
0.0
 11
33.53396399999999
 21
168.0658919999999
 31
0.0
  0
LINE
  5
A413
330
A3DA
100
AcDbEntity
  8
1
  6
Continuous
100
AcDbLine
 10
147.781242
 20
191.0209659999999
 30
0.0
 11
150.2432599999998
 21
191.455086
 31
0.0
  0
LINE
  5
A414
330
A3DA
100
AcDbEntity
  8
1
  6
Continuous
100
AcDbLine
 10
147.4339409999998
 20
192.9905819999999
 30
0.0
 11
158.678883
 21
194.9733679999999
 31
0.0
  0
LINE
  5
A415
330
A3DA
100
AcDbEntity
  8
1
  6
Continuous
100
AcDbLine
 10
147.4339449999999
 20
192.990578
 30
0.0
 11
147.781242
 21
191.020961
 31
0.0
  0
LINE
  5
A416
330
A3DA
100
AcDbEntity
  8
1
  6
Continuous
100
AcDbLine
 10
158.791521
 20
197.4258909999998
 30
0.0
 11
190.2763809999999
 21
197.4258909999998
 31
0.0
  0
LINE
  5
A417
330
A3DA
100
AcDbEntity
  8
1
  6
Continuous
100
AcDbLine
 10
149.8959659999998
 20
193.424698
 30
0.0
 11
150.2599739999998
 21
191.360296
 31
0.0
  0
LINE
  5
A418
330
A3DA
100
AcDbEntity
  8
1
  6
Continuous
100
AcDbLine
 10
161.533949
 20
193.7065119999998
 30
0.0
 11
161.533949
 21
167.3580179999999
 31
0.0
  0
LINE
  5
A419
330
A3DA
100
AcDbEntity
  8
4
  6
CENTER
 48
0.8
100
AcDbLine
 10
183.533949
 20
163.4658919999999
 30
0.0
 11
123.5339489999997
 21
163.4658919999999
 31
0.0
  0
LINE
  5
A41A
330
A3DA
100
AcDbEntity
  8
4
  6
CENTER
 48
0.8
100
AcDbLine
 10
153.533949
 20
190.965892
 30
0.0
 11
153.533949
 21
133.465892
 31
0.0
  0
LINE
  5
A41B
330
A3DA
100
AcDbEntity
  8
1
  6
Continuous
100
AcDbLine
 10
150.2658919999998
 20
191.050751
 30
0.0
 11
146.5988879999999
 21
164.317165
 31
0.0
  0
LINE
  5
A41C
330
A3DA
100
AcDbEntity
  8
1
  6
Continuous
100
AcDbLine
 10
178.785651
 20
185.714977
 30
0.0
 11
159.160315
 21
159.2012819999998
 31
0.0
  0
LINE
  5
A41D
330
A3DA
100
AcDbEntity
  8
1
  6
Continuous
100
AcDbLine
 10
184.883993
 20
188.880301
 30
0.0
 11
193.533949
 21
189.182365
 31
0.0
  0
LINE
  5
A41E
330
A3DA
100
AcDbEntity
  8
1
  6
Continuous
100
AcDbLine
 10
61.033949
 20
173.465892
 30
0.0
 11
61.033949
 21
153.465892
 31
0.0
  0
LINE
  5
A41F
330
A3DA
100
AcDbEntity
  8
1
  6
Continuous
100
AcDbLine
 10
37.033949
 20
173.465892
 30
0.0
 11
37.033949
 21
153.465892
 31
0.0
  0
LINE
  5
A420
330
A3DA
100
AcDbEntity
  8
1
  6
Continuous
100
AcDbLine
 10
38.033949
 20
152.465892
 30
0.0
 11
39.033949
 21
152.465892
 31
0.0
  0
LINE
  5
A421
330
A3DA
100
AcDbEntity
  8
1
  6
Continuous
100
AcDbLine
 10
59.033949
 20
152.465892
 30
0.0
 11
60.03394899999999
 21
152.465892
 31
0.0
  0
LINE
  5
A422
330
A3DA
100
AcDbEntity
  8
1
  6
Continuous
100
AcDbLine
 10
39.033949
 20
185.7945319999998
 30
0.0
 11
39.033949
 21
141.137252
 31
0.0
  0
LINE
  5
A423
330
A3DA
100
AcDbEntity
  8
1
  6
Continuous
100
AcDbLine
 10
59.033949
 20
185.7945319999998
 30
0.0
 11
59.033949
 21
141.137252
 31
0.0
  0
LINE
  5
A424
330
A3DA
100
AcDbEntity
  8
1
  6
Continuous
100
AcDbLine
 10
38.033949
 20
174.465892
 30
0.0
 11
39.033949
 21
174.465892
 31
0.0
  0
LINE
  5
A425
330
A3DA
100
AcDbEntity
  8
1
  6
Continuous
100
AcDbLine
 10
59.033949
 20
174.465892
 30
0.0
 11
60.03394899999999
 21
174.465892
 31
0.0
  0
LINE
  5
A426
330
A3DA
100
AcDbEntity
  8
1
  6
Continuous
100
AcDbLine
 10
61.033949
 20
166.715892
 30
0.0
 11
62.033949
 21
166.715892
 31
0.0
  0
LINE
  5
A427
330
A3DA
100
AcDbEntity
  8
1
  6
Continuous
100
AcDbLine
 10
61.033949
 20
160.2158919999999
 30
0.0
 11
62.033949
 21
160.2158919999999
 31
0.0
  0
ARC
  5
A428
330
A3DA
100
AcDbEntity
  8
1
  6
Continuous
100
AcDbCircle
 10
52.95457299999998
 20
198.510391
 30
0.0
 40
1.984499999999996
100
AcDbArc
 50
189.9969899999999
 51
213.12621
  0
ARC
  5
A429
330
A3DA
100
AcDbEntity
  8
1
  6
Continuous
100
AcDbCircle
 10
49.033949
 20
198.510391
 30
0.0
 40
1.984499999999996
100
AcDbArc
 50
326.8737799999998
 51
350.00299
  0
ARC
  5
A42A
330
A3DA
100
AcDbEntity
  8
1
  6
Continuous
100
AcDbCircle
 10
56.495268
 20
198.510391
 30
0.0
 40
1.984499999999996
100
AcDbArc
 50
206.86325
 51
213.12621
  0
ARC
  5
A42B
330
A3DA
100
AcDbEntity
  8
1
  6
Continuous
100
AcDbCircle
 10
59.312933
 20
198.510391
 30
0.0
 40
1.984499999999996
100
AcDbArc
 50
326.8737799999998
 51
350.00299
  0
ARC
  5
A42C
330
A3DA
100
AcDbEntity
  8
1
  6
Continuous
100
AcDbCircle
 10
61.134535
 20
198.510391
 30
0.0
 40
1.984499999999996
100
AcDbArc
 50
326.8737799999998
 51
350.00299
  0
ARC
  5
A42D
330
A3DA
100
AcDbEntity
  8
1
  6
Continuous
100
AcDbCircle
 10
61.783949
 20
198.510391
 30
0.0
 40
1.984499999999996
100
AcDbArc
 50
326.8737799999998
 51
350.00299
  0
ARC
  5
A42E
330
A3DA
100
AcDbEntity
  8
1
  6
Continuous
100
AcDbCircle
 10
45.113325
 20
198.510391
 30
0.0
 40
1.984499999999996
100
AcDbArc
 50
189.99704
 51
213.12621
  0
ARC
  5
A42F
330
A3DA
100
AcDbEntity
  8
1
  6
Continuous
100
AcDbCircle
 10
49.033949
 20
198.510391
 30
0.0
 40
1.984499999999996
100
AcDbArc
 50
189.9970599999999
 51
213.12621
  0
ARC
  5
A430
330
A3DA
100
AcDbEntity
  8
1
  6
Continuous
100
AcDbCircle
 10
41.57262999999999
 20
198.510391
 30
0.0
 40
1.984499999999996
100
AcDbArc
 50
189.9970599999999
 51
213.12621
  0
ARC
  5
A431
330
A3DA
100
AcDbEntity
  8
1
  6
Continuous
100
AcDbCircle
 10
38.754965
 20
198.510391
 30
0.0
 40
1.984499999999996
100
AcDbArc
 50
189.9970599999999
 51
213.12621
  0
ARC
  5
A432
330
A3DA
100
AcDbEntity
  8
1
  6
Continuous
100
AcDbCircle
 10
36.933363
 20
198.510391
 30
0.0
 40
1.984499999999996
100
AcDbArc
 50
189.9970599999999
 51
213.12621
  0
ARC
  5
A433
330
A3DA
100
AcDbEntity
  8
1
  6
Continuous
100
AcDbCircle
 10
36.28394899999999
 20
198.510391
 30
0.0
 40
1.984499999999996
100
AcDbArc
 50
189.9970599999999
 51
213.12621
  0
ARC
  5
A434
330
A3DA
100
AcDbEntity
  8
1
  6
Continuous
100
AcDbCircle
 10
178.454573
 20
198.510391
 30
0.0
 40
1.984499999999996
100
AcDbArc
 50
189.9969899999999
 51
213.12621
  0
ARC
  5
A435
330
A3DA
100
AcDbEntity
  8
1
  6
Continuous
100
AcDbCircle
 10
174.533949
 20
198.510391
 30
0.0
 40
1.984499999999996
100
AcDbArc
 50
326.8737699999998
 51
350.00299
  0
ARC
  5
A436
330
A3DA
100
AcDbEntity
  8
1
  6
Continuous
100
AcDbCircle
 10
181.9952679999999
 20
198.510391
 30
0.0
 40
1.984499999999996
100
AcDbArc
 50
206.86325
 51
213.12621
  0
ARC
  5
A437
330
A3DA
100
AcDbEntity
  8
1
  6
Continuous
100
AcDbCircle
 10
184.8129329999999
 20
198.510391
 30
0.0
 40
1.984499999999996
100
AcDbArc
 50
326.8737699999998
 51
350.00299
  0
ARC
  5
A438
330
A3DA
100
AcDbEntity
  8
1
  6
Continuous
100
AcDbCircle
 10
186.6345349999997
 20
198.510391
 30
0.0
 40
1.984499999999996
100
AcDbArc
 50
326.8737699999998
 51
350.00299
  0
ARC
  5
A439
330
A3DA
100
AcDbEntity
  8
1
  6
Continuous
100
AcDbCircle
 10
187.283949
 20
198.510391
 30
0.0
 40
1.984499999999996
100
AcDbArc
 50
326.8737699999998
 51
350.00299
  0
ARC
  5
A43A
330
A3DA
100
AcDbEntity
  8
1
  6
Continuous
100
AcDbCircle
 10
170.613325
 20
198.510391
 30
0.0
 40
1.984499999999996
100
AcDbArc
 50
189.99704
 51
213.12621
  0
ARC
  5
A43B
330
A3DA
100
AcDbEntity
  8
1
  6
Continuous
100
AcDbCircle
 10
174.533949
 20
198.510391
 30
0.0
 40
1.984499999999996
100
AcDbArc
 50
189.9970599999999
 51
213.12621
  0
ARC
  5
A43C
330
A3DA
100
AcDbEntity
  8
1
  6
Continuous
100
AcDbCircle
 10
167.07263
 20
198.510391
 30
0.0
 40
1.984499999999996
100
AcDbArc
 50
189.9970599999999
 51
213.12621
  0
ARC
  5
A43D
330
A3DA
100
AcDbEntity
  8
1
  6
Continuous
100
AcDbCircle
 10
164.254965
 20
198.510391
 30
0.0
 40
1.984499999999996
100
AcDbArc
 50
189.9970599999999
 51
213.12621
  0
ARC
  5
A43E
330
A3DA
100
AcDbEntity
  8
1
  6
Continuous
100
AcDbCircle
 10
162.4333629999999
 20
198.510391
 30
0.0
 40
1.984499999999996
100
AcDbArc
 50
189.9970599999999
 51
213.12621
  0
ARC
  5
A43F
330
A3DA
100
AcDbEntity
  8
1
  6
Continuous
100
AcDbCircle
 10
161.783949
 20
198.510391
 30
0.0
 40
1.984499999999996
100
AcDbArc
 50
189.9970599999999
 51
213.12621
  0
ARC
  5
A440
330
A3DA
100
AcDbEntity
  8
1
  6
Continuous
100
AcDbCircle
 10
49.033949
 20
379.7372219999999
 30
0.0
 40
188.71625
100
AcDbArc
 50
266.04995
 51
273.9500299999999
  0
ARC
  5
A441
330
A3DA
100
AcDbEntity
  8
1
  6
Continuous
100
AcDbCircle
 10
36.033949
 20
191.4692559999997
 30
0.0
 40
2.0
100
AcDbArc
 50
112.0263899999999
 51
179.9999899999999
  0
ARC
  5
A442
330
A3DA
100
AcDbEntity
  8
1
  6
Continuous
100
AcDbCircle
 10
49.033949
 20
477.267892
 30
0.0
 40
284.27734
100
AcDbArc
 50
267.2275899999998
 51
272.7723899999999
  0
ARC
  5
A443
330
A3DA
100
AcDbEntity
  8
1
  6
Continuous
100
AcDbCircle
 10
49.033949
 20
287.0041459999999
 30
0.0
 40
92.611763
100
AcDbArc
 50
261.46176
 51
278.53822
  0
ARC
  5
A444
330
A3DA
100
AcDbEntity
  8
1
  6
Continuous
100
AcDbCircle
 10
61.97495100000001
 20
180.562307
 30
0.0
 40
32.0
100
AcDbArc
 50
183.47975
 51
204.29943
  0
ARC
  5
A445
330
A3DA
100
AcDbEntity
  8
1
  6
Continuous
100
AcDbCircle
 10
36.09294699999999
 20
180.562307
 30
0.0
 40
32.0
100
AcDbArc
 50
335.74236
 51
356.5202499999998
  0
ARC
  5
A446
330
A3DA
100
AcDbEntity
  8
1
  6
Continuous
100
AcDbCircle
 10
62.033949
 20
191.4692559999997
 30
0.0
 40
2.0
100
AcDbArc
 50
359.99997
 51
67.97357099999999
  0
ARC
  5
A447
330
A3DA
100
AcDbEntity
  8
1
  6
Continuous
100
AcDbCircle
 10
61.071425
 20
163.4658919999999
 30
0.0
 40
5.762504999999999
100
AcDbArc
 50
304.48304
 51
55.51696899999999
  0
ARC
  5
A448
330
A3DA
100
AcDbEntity
  8
1
  6
Continuous
100
AcDbCircle
 10
35.18456900000001
 20
165.560798
 30
0.0
 40
3.0
100
AcDbArc
 50
123.38087
 51
152.0717699999998
  0
ARC
  5
A449
330
A3DA
100
AcDbEntity
  8
1
  6
Continuous
100
AcDbCircle
 10
35.18456900000001
 20
161.3709899999998
 30
0.0
 40
3.0
100
AcDbArc
 50
207.9282599999999
 51
236.6191499999999
  0
ARC
  5
A44A
330
A3DA
100
AcDbEntity
  8
1
  6
Continuous
100
AcDbCircle
 10
45.113325
 20
198.510391
 30
0.0
 40
1.984499999999996
100
AcDbArc
 50
326.8737799999998
 51
350.0030499999998
  0
ARC
  5
A44B
330
A3DA
100
AcDbEntity
  8
1
  6
Continuous
100
AcDbCircle
 10
41.57262999999999
 20
198.510391
 30
0.0
 40
1.984499999999996
100
AcDbArc
 50
326.8737799999998
 51
333.1367799999998
  0
ARC
  5
A44C
330
A3DA
100
AcDbEntity
  8
1
  6
Continuous
100
AcDbCircle
 10
52.95457299999998
 20
198.510391
 30
0.0
 40
1.984499999999996
100
AcDbArc
 50
326.8737799999998
 51
350.00299
  0
ARC
  5
A44D
330
A3DA
100
AcDbEntity
  8
1
  6
Continuous
100
AcDbCircle
 10
56.495268
 20
198.510391
 30
0.0
 40
1.984499999999996
100
AcDbArc
 50
326.8737799999998
 51
350.00299
  0
ARC
  5
A44E
330
A3DA
100
AcDbEntity
  8
1
  6
Continuous
100
AcDbCircle
 10
170.613325
 20
198.510391
 30
0.0
 40
1.984499999999996
100
AcDbArc
 50
326.8737699999998
 51
350.0030499999998
  0
ARC
  5
A44F
330
A3DA
100
AcDbEntity
  8
1
  6
Continuous
100
AcDbCircle
 10
153.533949
 20
163.365894
 30
0.0
 40
7.0
100
AcDbArc
 50
172.1895899999999
 51
323.4912799999999
  0
ARC
  5
A450
330
A3DA
100
AcDbEntity
  8
1
  6
Continuous
100
AcDbCircle
 10
190.2763809999999
 20
194.4258909999998
 30
0.0
 40
3.0
100
AcDbArc
 50
6.796801999999997
 51
89.99998199999996
  0
ARC
  5
A451
330
A3DA
100
AcDbEntity
  8
1
  6
Continuous
100
AcDbCircle
 10
149.2751679999997
 20
191.1866469999999
 30
0.0
 40
1.0
100
AcDbArc
 50
352.1895799999999
 51
10.0
  0
CIRCLE
  5
A452
330
A3DA
100
AcDbEntity
  8
1
  6
Continuous
100
AcDbCircle
 10
153.533949
 20
163.4658919999999
 30
0.0
 40
4.75
  0
ARC
  5
A453
330
A3DA
100
AcDbEntity
  8
1
  6
Continuous
100
AcDbCircle
 10
178.454573
 20
198.510391
 30
0.0
 40
1.984499999999996
100
AcDbArc
 50
326.8737699999998
 51
350.00299
  0
ARC
  5
A454
330
A3DA
100
AcDbEntity
  8
1
  6
Continuous
100
AcDbCircle
 10
181.9952679999999
 20
198.510391
 30
0.0
 40
1.984499999999996
100
AcDbArc
 50
326.8737699999998
 51
350.00299
  0
ARC
  5
A455
330
A3DA
100
AcDbEntity
  8
1
  6
Continuous
100
AcDbCircle
 10
167.07263
 20
198.510391
 30
0.0
 40
1.984499999999996
100
AcDbArc
 50
326.8737699999998
 51
333.1367799999998
  0
ARC
  5
A456
330
A3DA
100
AcDbEntity
  8
1
  6
Continuous
100
AcDbCircle
 10
185.1631909999999
 20
180.885175
 30
0.0
 40
8.0
100
AcDbArc
 50
92.00003199999995
 51
143.32582
  0
ARC
  5
A457
330
A3DA
100
AcDbEntity
  8
1
  6
Continuous
100
AcDbCircle
 10
153.533949
 20
163.4658919999999
 30
0.0
 40
25.0
100
AcDbArc
 50
98.41733600000001
 51
37.08900299999999
  0
ARC
  5
A458
330
A3DA
100
AcDbEntity
  8
1
  6
Continuous
100
AcDbCircle
 10
153.533949
 20
163.4658919999999
 30
0.0
 40
18.0
100
AcDbArc
 50
105.0279999999998
 51
30.400198
  0
ARC
  5
A459
330
A3DA
100
AcDbEntity
  8
1
  6
Continuous
100
AcDbCircle
 10
153.533949
 20
163.4658919999999
 30
0.0
 40
11.0
100
AcDbArc
 50
121.61906
 51
13.56719699999999
  0
ARC
  5
A45A
330
A3DA
100
AcDbEntity
  8
1
  6
Continuous
100
AcDbCircle
 10
49.033949
 20
188.4658919999999
 30
0.0
 40
50.0
100
AcDbArc
 50
260.40591
 51
279.59407
  0
ARC
  5
A45B
330
A3DA
100
AcDbEntity
  8
1
  6
Continuous
100
AcDbCircle
 10
57.033949
 20
141.137252
 30
0.0
 40
2.0
100
AcDbArc
 50
279.59415
 51
0.0
  0
ARC
  5
A45C
330
A3DA
100
AcDbEntity
  8
1
  6
Continuous
100
AcDbCircle
 10
41.033949
 20
141.137252
 30
0.0
 40
2.0
100
AcDbArc
 50
179.9999799999999
 51
260.4058299999999
  0
ARC
  5
A45D
330
A3DA
100
AcDbEntity
  8
1
  6
Continuous
100
AcDbCircle
 10
60.03394899999999
 20
153.465892
 30
0.0
 40
1.0
100
AcDbArc
 50
270.00002
 51
0.0
  0
ARC
  5
A45E
330
A3DA
100
AcDbEntity
  8
1
  6
Continuous
100
AcDbCircle
 10
38.033949
 20
153.465892
 30
0.0
 40
1.0
100
AcDbArc
 50
179.9999799999999
 51
270.0000299999999
  0
ARC
  5
A45F
330
A3DA
100
AcDbEntity
  8
1
  6
Continuous
100
AcDbCircle
 10
38.033949
 20
173.465892
 30
0.0
 40
1.0
100
AcDbArc
 50
89.99998199999996
 51
180.00002
  0
ARC
  5
A460
330
A3DA
100
AcDbEntity
  8
1
  6
Continuous
100
AcDbCircle
 10
60.03394899999999
 20
173.465892
 30
0.0
 40
1.0
100
AcDbArc
 50
0.0
 51
89.99998199999996
  0
ARC
  5
A461
330
A3DA
100
AcDbEntity
  8
1
  6
Continuous
100
AcDbCircle
 10
57.033949
 20
185.7945319999998
 30
0.0
 40
2.0
100
AcDbArc
 50
0.0
 51
80.40585400000002
  0
ARC
  5
A462
330
A3DA
100
AcDbEntity
  8
1
  6
Continuous
100
AcDbCircle
 10
41.033949
 20
185.7945319999998
 30
0.0
 40
2.0
100
AcDbArc
 50
99.59416400000003
 51
180.00002
  0
ARC
  5
A463
330
A3DA
100
AcDbEntity
  8
1
  6
Continuous
100
AcDbCircle
 10
49.033949
 20
138.4658919999999
 30
0.0
 40
50.0
100
AcDbArc
 50
80.40592900000001
 51
99.59408899999999
  0
LINE
  5
A464
330
A3DA
100
AcDbEntity
  8
1
  6
Continuous
100
AcDbLine
 10
68.03394899999999
 20
194.4258909999998
 30
0.0
 11
68.03394899999999
 21
178.6200419999999
 31
0.0
  0
LINE
  5
A465
330
A3DA
100
AcDbEntity
  8
1
  6
Continuous
100
AcDbLine
 10
30.03394899999999
 20
194.4258909999998
 30
0.0
 11
30.03394899999999
 21
178.6200419999999
 31
0.0
  0
ARC
  5
A466
330
A3DA
100
AcDbEntity
  8
1
  6
Continuous
100
AcDbCircle
 10
65.03394899999999
 20
194.4258909999998
 30
0.0
 40
3.0
100
AcDbArc
 50
0.0
 51
90.0
  0
ARC
  5
A467
330
A3DA
100
AcDbEntity
  8
1
  6
Continuous
100
AcDbCircle
 10
33.033949
 20
194.4258909999998
 30
0.0
 40
3.0
100
AcDbArc
 50
90.0
 51
180.0
  0
LINE
  5
A468
330
A3DA
100
AcDbEntity
  8
1
  6
Continuous
100
AcDbLine
 10
193.2552969999999
 20
194.780937
 30
0.0
 11
193.533949
 21
189.182365
 31
0.0
  0
LINE
  5
A469
330
A3DA
100
AcDbEntity
  8
4
  6
CENTER
 48
0.8
100
AcDbLine
 10
153.533949
 20
339.5500139999998
 30
0.0
 11
153.533949
 21
295.2500479999999
 31
0.0
  0
LINE
  5
A46A
330
A3DA
100
AcDbEntity
  8
4
  6
CENTER
 48
0.8
100
AcDbLine
 10
198.533949
 20
60.265892
 30
0.0
 11
123.533949
 21
60.265892
 31
0.0
  0
LINE
  5
A46B
330
A3DA
100
AcDbEntity
  8
4
  6
CENTER
 48
0.8
100
AcDbLine
 10
153.533949
 20
38.76590699999999
 30
0.0
 11
153.533949
 21
83.06587300000002
 31
0.0
  0
LINE
  5
A46C
330
A3DA
100
AcDbEntity
  8
4
  6
CENTER
 48
0.8
100
AcDbLine
 10
174.533949
 20
36.265892
 30
0.0
 11
174.533949
 21
84.265892
 31
0.0
  0
LINE
  5
A46D
330
A3DA
100
AcDbEntity
  8
1
  6
Continuous
100
AcDbLine
 10
263.033949
 20
185.7945319999998
 30
0.0
 11
263.033949
 21
141.137252
 31
0.0
  0
LINE
  5
A46E
330
A3DA
100
AcDbEntity
  8
1
  6
Continuous
100
AcDbLine
 10
283.033949
 20
185.7945319999998
 30
0.0
 11
283.033949
 21
141.137252
 31
0.0
  0
LINE
  5
A46F
330
A3DA
100
AcDbEntity
  8
4
  6
CENTER
 48
0.8
100
AcDbLine
 10
273.0339489999999
 20
246.4658959999999
 30
0.0
 11
273.0339489999999
 21
133.465892
 31
0.0
  0
ARC
  5
A470
330
A3DA
100
AcDbEntity
  8
1
  6
Continuous
100
AcDbCircle
 10
273.0339489999999
 20
188.4658919999999
 30
0.0
 40
50.0
100
AcDbArc
 50
260.4059299999998
 51
279.59409
  0
ARC
  5
A471
330
A3DA
100
AcDbEntity
  8
1
  6
Continuous
100
AcDbCircle
 10
281.033949
 20
141.137252
 30
0.0
 40
2.0
100
AcDbArc
 50
279.59417
 51
0.00002
  0
ARC
  5
A472
330
A3DA
100
AcDbEntity
  8
1
  6
Continuous
100
AcDbCircle
 10
265.0339489999999
 20
141.137252
 30
0.0
 40
2.0
100
AcDbArc
 50
180.0
 51
260.4058499999998
  0
LINE
  5
A473
330
A3DA
100
AcDbEntity
  8
1
  6
Continuous
100
AcDbLine
 10
258.033964
 20
156.517787
 30
0.0
 11
260.033964
 21
156.517787
 31
0.0
  0
LINE
  5
A474
330
A3DA
100
AcDbEntity
  8
1
  6
Continuous
100
AcDbLine
 10
289.033949
 20
197.4258909999998
 30
0.0
 11
257.033949
 21
197.4258909999998
 31
0.0
  0
LINE
  5
A475
330
A3DA
100
AcDbEntity
  8
1
  6
Continuous
100
AcDbLine
 10
289.3339519999999
 20
198.165889
 30
0.0
 11
256.7339459999999
 21
198.165889
 31
0.0
  0
LINE
  5
A476
330
A3DA
100
AcDbEntity
  8
4
  6
CENTER
 48
0.8
100
AcDbLine
 10
294.5339339999998
 20
163.4658919999999
 30
0.0
 11
250.233967
 21
163.4658919999999
 31
0.0
  0
LINE
  5
A477
330
A3DA
100
AcDbEntity
  8
1
  6
Continuous
100
AcDbLine
 10
292.0339489999999
 20
194.4258909999998
 30
0.0
 11
292.0339489999999
 21
178.6200419999999
 31
0.0
  0
LINE
  5
A478
330
A3DA
100
AcDbEntity
  8
1
  6
Continuous
100
AcDbLine
 10
260.033949
 20
156.517783
 30
0.0
 11
260.033949
 21
189.182365
 31
0.0
  0
LINE
  5
A479
330
A3DA
100
AcDbEntity
  8
1
  6
Continuous
100
AcDbLine
 10
288.0339339999998
 20
156.517787
 30
0.0
 11
288.0339339999998
 21
164.110576
 31
0.0
  0
LINE
  5
A47A
330
A3DA
100
AcDbEntity
  8
1
  6
Continuous
100
AcDbLine
 10
286.033949
 20
156.517783
 30
0.0
 11
286.033949
 21
189.182365
 31
0.0
  0
ARC
  5
A47B
330
A3DA
100
AcDbEntity
  8
1
  6
Continuous
100
AcDbCircle
 10
286.8833289999999
 20
165.560798
 30
0.0
 40
3.0
100
AcDbArc
 50
27.92823
 51
32.723196
  0
LINE
  5
A47C
330
A3DA
100
AcDbEntity
  8
1
  6
Continuous
100
AcDbLine
 10
285.0339489999999
 20
173.465892
 30
0.0
 11
285.0339489999999
 21
153.465892
 31
0.0
  0
LINE
  5
A47D
330
A3DA
100
AcDbEntity
  8
1
  6
Continuous
100
AcDbLine
 10
261.033949
 20
173.465892
 30
0.0
 11
261.033949
 21
153.465892
 31
0.0
  0
LINE
  5
A47E
330
A3DA
100
AcDbEntity
  8
1
  6
Continuous
100
AcDbLine
 10
288.5339339999998
 20
158.865894
 30
0.0
 11
288.5339339999998
 21
165.3129279999999
 31
0.0
  0
ARC
  5
A47F
330
A3DA
100
AcDbEntity
  8
1
  6
Continuous
100
AcDbCircle
 10
284.033949
 20
153.465892
 30
0.0
 40
1.0
100
AcDbArc
 50
269.99997
 51
0.00002
  0
ARC
  5
A480
330
A3DA
100
AcDbEntity
  8
1
  6
Continuous
100
AcDbCircle
 10
286.8833289999999
 20
161.3709899999998
 30
0.0
 40
3.0
100
AcDbArc
 50
303.38085
 51
332.0717399999998
  0
LINE
  5
A481
330
A3DA
100
AcDbEntity
  8
1
  6
Continuous
100
AcDbLine
 10
284.033949
 20
152.465892
 30
0.0
 11
283.033949
 21
152.465892
 31
0.0
  0
LINE
  5
A482
330
A3DA
100
AcDbEntity
  8
1
  6
Continuous
100
AcDbLine
 10
288.533941
 20
158.865894
 30
0.0
 11
288.033941
 21
160.2158959999998
 31
0.0
  0
LINE
  5
A483
330
A3DA
100
AcDbEntity
  8
1
  6
Continuous
100
AcDbLine
 10
289.5339339999998
 20
159.9658919999999
 30
0.0
 11
289.5339339999998
 21
167.4821559999998
 31
0.0
  0
LINE
  5
A484
330
A3DA
100
AcDbEntity
  8
1
  6
Continuous
100
AcDbLine
 10
288.0339339999998
 20
156.517787
 30
0.0
 11
286.0339339999999
 21
156.517787
 31
0.0
  0
LINE
  5
A485
330
A3DA
100
AcDbEntity
  8
1
  6
Continuous
100
AcDbLine
 10
286.033949
 20
166.715892
 30
0.0
 11
285.0339489999999
 21
166.715892
 31
0.0
  0
LINE
  5
A486
330
A3DA
100
AcDbEntity
  8
1
  6
Continuous
100
AcDbLine
 10
286.033949
 20
160.2158919999999
 30
0.0
 11
285.0339489999999
 21
160.2158919999999
 31
0.0
  0
ARC
  5
A487
330
A3DA
100
AcDbEntity
  8
1
  6
Continuous
100
AcDbCircle
 10
262.033949
 20
153.465892
 30
0.0
 40
1.0
100
AcDbArc
 50
180.0
 51
269.99998
  0
LINE
  5
A488
330
A3DA
100
AcDbEntity
  8
1
  6
Continuous
100
AcDbLine
 10
261.033949
 20
160.2158919999999
 30
0.0
 11
260.033949
 21
160.2158919999999
 31
0.0
  0
LINE
  5
A489
330
A3DA
100
AcDbEntity
  8
1
  6
Continuous
100
AcDbLine
 10
261.033949
 20
166.715892
 30
0.0
 11
260.033949
 21
166.715892
 31
0.0
  0
LINE
  5
A48A
330
A3DA
100
AcDbEntity
  8
1
  6
Continuous
100
AcDbLine
 10
263.033949
 20
152.465892
 30
0.0
 11
262.033949
 21
152.465892
 31
0.0
  0
ARC
  5
A48B
330
A3DA
100
AcDbEntity
  8
1
  6
Continuous
100
AcDbCircle
 10
273.0339489999999
 20
138.4658919999999
 30
0.0
 40
50.0
100
AcDbArc
 50
80.405911
 51
99.59407099999999
  0
ARC
  5
A48C
330
A3DA
100
AcDbEntity
  8
1
  6
Continuous
100
AcDbCircle
 10
281.033949
 20
185.7945319999998
 30
0.0
 40
2.0
100
AcDbArc
 50
359.9999799999998
 51
80.40583599999996
  0
ARC
  5
A48D
330
A3DA
100
AcDbEntity
  8
1
  6
Continuous
100
AcDbCircle
 10
284.033949
 20
173.465892
 30
0.0
 40
1.0
100
AcDbArc
 50
359.9999799999998
 51
90.00001800000005
  0
LINE
  5
A48E
330
A3DA
100
AcDbEntity
  8
1
  6
Continuous
100
AcDbLine
 10
284.033949
 20
174.465892
 30
0.0
 11
283.033949
 21
174.465892
 31
0.0
  0
ARC
  5
A48F
330
A3DA
100
AcDbEntity
  8
1
  6
Continuous
100
AcDbCircle
 10
265.0339489999999
 20
185.7945319999998
 30
0.0
 40
2.0
100
AcDbArc
 50
99.594146
 51
180.0
  0
ARC
  5
A490
330
A3DA
100
AcDbEntity
  8
1
  6
Continuous
100
AcDbCircle
 10
262.033949
 20
173.465892
 30
0.0
 40
1.0
100
AcDbArc
 50
90.00001800000005
 51
180.0
  0
LINE
  5
A491
330
A3DA
100
AcDbEntity
  8
1
  6
Continuous
100
AcDbLine
 10
263.033949
 20
174.465892
 30
0.0
 11
262.033949
 21
174.465892
 31
0.0
  0
ARC
  5
A492
330
A3DA
100
AcDbEntity
  8
1
  6
Continuous
100
AcDbCircle
 10
289.033949
 20
194.4258909999998
 30
0.0
 40
3.0
100
AcDbArc
 50
0.0
 51
90.0
  0
ARC
  5
A493
330
A3DA
100
AcDbEntity
  8
1
  6
Continuous
100
AcDbCircle
 10
280.4952679999999
 20
198.510391
 30
0.0
 40
1.984499999999996
100
AcDbArc
 50
206.8632199999999
 51
213.12622
  0
ARC
  5
A494
330
A3DA
100
AcDbEntity
  8
1
  6
Continuous
100
AcDbCircle
 10
276.9545729999999
 20
198.510391
 30
0.0
 40
1.984499999999996
100
AcDbArc
 50
189.99695
 51
213.12622
  0
ARC
  5
A495
330
A3DA
100
AcDbEntity
  8
1
  6
Continuous
100
AcDbCircle
 10
285.7839489999999
 20
198.510391
 30
0.0
 40
1.984499999999996
100
AcDbArc
 50
326.87379
 51
350.0029399999998
  0
ARC
  5
A496
330
A3DA
100
AcDbEntity
  8
1
  6
Continuous
100
AcDbCircle
 10
285.134535
 20
198.510391
 30
0.0
 40
1.984499999999996
100
AcDbArc
 50
326.87379
 51
350.0029399999998
  0
ARC
  5
A497
330
A3DA
100
AcDbEntity
  8
1
  6
Continuous
100
AcDbCircle
 10
283.3129329999998
 20
198.510391
 30
0.0
 40
1.984499999999996
100
AcDbArc
 50
326.87379
 51
350.0029399999998
  0
ARC
  5
A498
330
A3DA
100
AcDbEntity
  8
1
  6
Continuous
100
AcDbCircle
 10
280.4952679999999
 20
198.510391
 30
0.0
 40
1.984499999999996
100
AcDbArc
 50
326.87379
 51
350.0029399999998
  0
ARC
  5
A499
330
A3DA
100
AcDbEntity
  8
1
  6
Continuous
100
AcDbCircle
 10
273.0339489999999
 20
198.510391
 30
0.0
 40
1.984499999999996
100
AcDbArc
 50
326.87379
 51
350.0029399999998
  0
ARC
  5
A49A
330
A3DA
100
AcDbEntity
  8
1
  6
Continuous
100
AcDbCircle
 10
276.9545729999999
 20
198.510391
 30
0.0
 40
1.984499999999996
100
AcDbArc
 50
326.87379
 51
350.0029599999999
  0
ARC
  5
A49B
330
A3DA
100
AcDbEntity
  8
1
  6
Continuous
100
AcDbCircle
 10
265.5726299999999
 20
198.510391
 30
0.0
 40
1.984499999999996
100
AcDbArc
 50
189.99701
 51
213.12622
  0
ARC
  5
A49C
330
A3DA
100
AcDbEntity
  8
1
  6
Continuous
100
AcDbCircle
 10
269.1133249999999
 20
198.510391
 30
0.0
 40
1.984499999999996
100
AcDbArc
 50
189.99701
 51
213.12622
  0
ARC
  5
A49D
330
A3DA
100
AcDbEntity
  8
1
  6
Continuous
100
AcDbCircle
 10
260.283949
 20
198.510391
 30
0.0
 40
1.984499999999996
100
AcDbArc
 50
189.99701
 51
213.12622
  0
ARC
  5
A49E
330
A3DA
100
AcDbEntity
  8
1
  6
Continuous
100
AcDbCircle
 10
260.933363
 20
198.510391
 30
0.0
 40
1.984499999999996
100
AcDbArc
 50
189.99701
 51
213.12622
  0
ARC
  5
A49F
330
A3DA
100
AcDbEntity
  8
1
  6
Continuous
100
AcDbCircle
 10
262.7549649999999
 20
198.510391
 30
0.0
 40
1.984499999999996
100
AcDbArc
 50
189.99701
 51
213.12622
  0
ARC
  5
A4A0
330
A3DA
100
AcDbEntity
  8
1
  6
Continuous
100
AcDbCircle
 10
265.5726299999999
 20
198.510391
 30
0.0
 40
1.984499999999996
100
AcDbArc
 50
326.87379
 51
333.13675
  0
ARC
  5
A4A1
330
A3DA
100
AcDbEntity
  8
1
  6
Continuous
100
AcDbCircle
 10
273.0339489999999
 20
198.510391
 30
0.0
 40
1.984499999999996
100
AcDbArc
 50
189.99701
 51
213.12622
  0
ARC
  5
A4A2
330
A3DA
100
AcDbEntity
  8
1
  6
Continuous
100
AcDbCircle
 10
269.1133249999999
 20
198.510391
 30
0.0
 40
1.984499999999996
100
AcDbArc
 50
326.87379
 51
350.00301
  0
LINE
  5
A4A3
330
A3DA
100
AcDbEntity
  8
1
  6
Continuous
100
AcDbLine
 10
258.033964
 20
156.517787
 30
0.0
 11
258.033964
 21
164.110576
 31
0.0
  0
ARC
  5
A4A4
330
A3DA
100
AcDbEntity
  8
1
  6
Continuous
100
AcDbCircle
 10
260.9964729999999
 20
163.4658919999999
 30
0.0
 40
5.762504999999999
100
AcDbArc
 50
139.1432849999999
 51
235.5169599999999
  0
LINE
  5
A4A5
330
A3DA
100
AcDbEntity
  8
1
  6
Continuous
100
AcDbLine
 10
257.7339609999999
 20
158.715892
 30
0.0
 11
257.7339609999999
 21
164.924523
 31
0.0
  0
LINE
  5
A4A6
330
A3DA
100
AcDbEntity
  8
1
  6
Continuous
100
AcDbLine
 10
258.033964
 20
158.715892
 30
0.0
 11
257.7339609999999
 21
158.715892
 31
0.0
  0
ARC
  5
A4A7
330
A3DA
100
AcDbEntity
  8
1
  6
Continuous
100
AcDbCircle
 10
257.033949
 20
194.4258909999998
 30
0.0
 40
3.0
100
AcDbArc
 50
90.0
 51
180.0
  0
LINE
  5
A4A8
330
A3DA
100
AcDbEntity
  8
1
  6
Continuous
100
AcDbLine
 10
256.125065
 20
189.182365
 30
0.0
 11
289.942832
 21
189.182365
 31
0.0
  0
LINE
  5
A4A9
330
A3DA
100
AcDbEntity
  8
1
  6
Continuous
100
AcDbLine
 10
254.033949
 20
194.4258909999998
 30
0.0
 11
254.033949
 21
178.6200419999999
 31
0.0
  0
LINE
  5
A4AA
330
A3DA
100
AcDbEntity
  8
1
  6
Continuous
100
AcDbLine
 10
131.205309
 20
328.0500289999999
 30
0.0
 11
148.5118479999998
 21
328.0500289999999
 31
0.0
  0
LINE
  5
A4AB
330
A3DA
100
AcDbEntity
  8
1
  6
Continuous
100
AcDbLine
 10
131.205309
 20
308.0500289999998
 30
0.0
 11
148.5118479999998
 21
308.0500289999998
 31
0.0
  0
ARC
  5
A4AC
330
A3DA
100
AcDbEntity
  8
1
  6
Continuous
100
AcDbCircle
 10
178.533949
 20
318.0500289999999
 30
0.0
 40
50.0
100
AcDbArc
 50
170.405929
 51
189.594089
  0
ARC
  5
A4AD
330
A3DA
100
AcDbEntity
  8
1
  6
Continuous
100
AcDbCircle
 10
131.205309
 20
310.0500289999998
 30
0.0
 40
2.0
100
AcDbArc
 50
189.5941639999998
 51
270.00002
  0
ARC
  5
A4AE
330
A3DA
100
AcDbEntity
  8
1
  6
Continuous
100
AcDbCircle
 10
131.205309
 20
326.0500289999999
 30
0.0
 40
2.0
100
AcDbArc
 50
90.0
 51
170.405854
  0
LINE
  5
A4AF
330
A3DA
100
AcDbEntity
  8
1
  6
Continuous
100
AcDbLine
 10
158.283949
 20
75.56588000000002
 30
0.0
 11
148.7839489999998
 21
75.56588000000002
 31
0.0
  0
ARC
  5
A4B0
330
A3DA
100
AcDbEntity
  8
1
  6
Continuous
100
AcDbCircle
 10
153.533949
 20
72.303368
 30
0.0
 40
5.762504999999999
100
AcDbArc
 50
34.48304
 51
145.5169689999999
  0
LINE
  5
A4B1
330
A3DA
100
AcDbEntity
  8
1
  6
Continuous
100
AcDbLine
 10
143.533949
 20
72.26589199999998
 30
0.0
 11
163.5339489999998
 21
72.26589199999998
 31
0.0
  0
LINE
  5
A4B2
330
A3DA
100
AcDbEntity
  8
1
  6
Continuous
100
AcDbLine
 10
158.133947
 20
44.765907
 30
0.0
 11
148.9339469999999
 21
44.765907
 31
0.0
  0
LINE
  5
A4B3
330
A3DA
100
AcDbEntity
  8
1
  6
Continuous
100
AcDbLine
 10
143.533949
 20
48.265892
 30
0.0
 11
163.5339489999998
 21
48.265892
 31
0.0
  0
LINE
  5
A4B4
330
A3DA
100
AcDbEntity
  8
1
  6
Continuous
100
AcDbLine
 10
157.033949
 20
43.765907
 30
0.0
 11
150.0339469999999
 21
43.765907
 31
0.0
  0
LINE
  5
A4B5
330
A3DA
100
AcDbEntity
  8
1
  6
Continuous
100
AcDbLine
 10
131.205309
 20
50.265892
 30
0.0
 11
175.8625889999999
 21
50.265892
 31
0.0
  0
LINE
  5
A4B6
330
A3DA
100
AcDbEntity
  8
1
  6
Continuous
100
AcDbLine
 10
131.205309
 20
70.265892
 30
0.0
 11
175.8625889999999
 21
70.265892
 31
0.0
  0
ARC
  5
A4B7
330
A3DA
100
AcDbEntity
  8
1
  6
Continuous
100
AcDbCircle
 10
178.533949
 20
60.265892
 30
0.0
 40
50.0
100
AcDbArc
 50
170.405929
 51
189.594089
  0
ARC
  5
A4B8
330
A3DA
100
AcDbEntity
  8
1
  6
Continuous
100
AcDbCircle
 10
131.205309
 20
52.265892
 30
0.0
 40
2.0
100
AcDbArc
 50
189.5941639999998
 51
270.00002
  0
LINE
  5
A4B9
330
A3DA
100
AcDbEntity
  8
1
  6
Continuous
100
AcDbLine
 10
150.283949
 20
45.26590699999998
 30
0.0
 11
148.933949
 21
44.765907
 31
0.0
  0
ARC
  5
A4BA
330
A3DA
100
AcDbEntity
  8
1
  6
Continuous
100
AcDbCircle
 10
151.4390429999999
 20
46.416512
 30
0.0
 40
3.0
100
AcDbArc
 50
213.380849
 51
242.0717699999999
  0
LINE
  5
A4BB
330
A3DA
100
AcDbEntity
  8
1
  6
Continuous
100
AcDbLine
 10
150.283949
 20
47.265892
 30
0.0
 11
150.283949
 21
48.265892
 31
0.0
  0
LINE
  5
A4BC
330
A3DA
100
AcDbEntity
  8
1
  6
Continuous
100
AcDbLine
 10
142.5339489999998
 20
49.265892
 30
0.0
 11
142.5339489999998
 21
50.265892
 31
0.0
  0
ARC
  5
A4BD
330
A3DA
100
AcDbEntity
  8
1
  6
Continuous
100
AcDbCircle
 10
143.533949
 20
49.265892
 30
0.0
 40
1.0
100
AcDbArc
 50
179.999982
 51
270.00002
  0
ARC
  5
A4BE
330
A3DA
100
AcDbEntity
  8
1
  6
Continuous
100
AcDbCircle
 10
131.205309
 20
68.26589199999999
 30
0.0
 40
2.0
100
AcDbArc
 50
90.0
 51
170.405854
  0
LINE
  5
A4BF
330
A3DA
100
AcDbEntity
  8
1
  6
Continuous
100
AcDbLine
 10
148.7839489999998
 20
75.265877
 30
0.0
 11
148.7839489999998
 21
75.56588000000002
 31
0.0
  0
LINE
  5
A4C0
330
A3DA
100
AcDbEntity
  8
1
  6
Continuous
100
AcDbLine
 10
150.283949
 20
72.26589199999998
 30
0.0
 11
150.283949
 21
73.26589199999998
 31
0.0
  0
LINE
  5
A4C1
330
A3DA
100
AcDbEntity
  8
1
  6
Continuous
100
AcDbLine
 10
142.5339489999998
 20
70.265892
 30
0.0
 11
142.5339489999998
 21
71.26589200000002
 31
0.0
  0
ARC
  5
A4C2
330
A3DA
100
AcDbEntity
  8
1
  6
Continuous
100
AcDbCircle
 10
143.533949
 20
71.26589200000002
 30
0.0
 40
1.0
100
AcDbArc
 50
90.0
 51
179.999982
  0
ARC
  5
A4C3
330
A3DA
100
AcDbEntity
  8
1
  6
Continuous
100
AcDbCircle
 10
128.533949
 20
60.265892
 30
0.0
 40
50.0
100
AcDbArc
 50
350.40591
 51
9.59407
  0
LINE
  5
A4C4
330
A3DA
100
AcDbEntity
  8
1
  6
Continuous
100
AcDbLine
 10
156.783949
 20
47.265892
 30
0.0
 11
156.783949
 21
48.265892
 31
0.0
  0
LINE
  5
A4C5
330
A3DA
100
AcDbEntity
  8
1
  6
Continuous
100
AcDbLine
 10
164.533949
 20
49.265892
 30
0.0
 11
164.533949
 21
50.265892
 31
0.0
  0
ARC
  5
A4C6
330
A3DA
100
AcDbEntity
  8
1
  6
Continuous
100
AcDbCircle
 10
155.6288509999999
 20
46.416512
 30
0.0
 40
3.0
100
AcDbArc
 50
297.92826
 51
326.61915
  0
ARC
  5
A4C7
330
A3DA
100
AcDbEntity
  8
1
  6
Continuous
100
AcDbCircle
 10
163.5339489999998
 20
49.265892
 30
0.0
 40
1.0
100
AcDbArc
 50
269.99998
 51
0.00003
  0
LINE
  5
A4C8
330
A3DA
100
AcDbEntity
  8
1
  6
Continuous
100
AcDbLine
 10
158.133947
 20
44.7659
 30
0.0
 11
156.7839449999999
 21
45.2659
 31
0.0
  0
ARC
  5
A4C9
330
A3DA
100
AcDbEntity
  8
1
  6
Continuous
100
AcDbCircle
 10
175.8625889999999
 20
52.265892
 30
0.0
 40
2.0
100
AcDbArc
 50
269.99998
 51
350.40583
  0
LINE
  5
A4CA
330
A3DA
100
AcDbEntity
  8
1
  6
Continuous
100
AcDbLine
 10
156.783949
 20
72.26589199999998
 30
0.0
 11
156.783949
 21
73.26589199999998
 31
0.0
  0
LINE
  5
A4CB
330
A3DA
100
AcDbEntity
  8
1
  6
Continuous
100
AcDbLine
 10
158.283949
 20
75.265877
 30
0.0
 11
158.283949
 21
75.56588000000002
 31
0.0
  0
LINE
  5
A4CC
330
A3DA
100
AcDbEntity
  8
1
  6
Continuous
100
AcDbLine
 10
164.533949
 20
70.265892
 30
0.0
 11
164.533949
 21
71.26589200000002
 31
0.0
  0
ARC
  5
A4CD
330
A3DA
100
AcDbEntity
  8
1
  6
Continuous
100
AcDbCircle
 10
163.5339489999998
 20
71.26589200000002
 30
0.0
 40
1.0
100
AcDbArc
 50
0.00002
 51
90.0
  0
ARC
  5
A4CE
330
A3DA
100
AcDbEntity
  8
1
  6
Continuous
100
AcDbCircle
 10
175.8625889999999
 20
68.26589199999999
 30
0.0
 40
2.0
100
AcDbArc
 50
9.59415
 51
90.0
  0
LINE
  5
A4CF
330
A3DA
100
AcDbEntity
  8
1
  6
Continuous
100
AcDbLine
 10
161.5724449999999
 20
73.26587700000001
 30
0.0
 11
146.5346629999999
 21
73.26587700000001
 31
0.0
  0
LINE
  5
A4D0
330
A3DA
100
AcDbEntity
  8
1
  6
Continuous
100
AcDbLine
 10
161.5724449999999
 20
75.265877
 30
0.0
 11
146.5346629999999
 21
75.265877
 31
0.0
  0
LINE
  5
A4D1
330
A3DA
100
AcDbEntity
  8
1
  6
Continuous
100
AcDbLine
 10
146.5346629999999
 20
75.265877
 30
0.0
 11
146.5346629999999
 21
73.26587700000001
 31
0.0
  0
LINE
  5
A4D2
330
A3DA
100
AcDbEntity
  8
1
  6
Continuous
100
AcDbLine
 10
161.5724449999999
 20
47.265907
 30
0.0
 11
146.5346629999999
 21
47.265907
 31
0.0
  0
LINE
  5
A4D3
330
A3DA
100
AcDbEntity
  8
1
  6
Continuous
100
AcDbLine
 10
161.5724449999999
 20
45.26590699999998
 30
0.0
 11
146.5346629999999
 21
45.26590699999998
 31
0.0
  0
LINE
  5
A4D4
330
A3DA
100
AcDbEntity
  8
1
  6
Continuous
100
AcDbLine
 10
146.5346629999999
 20
47.265907
 30
0.0
 11
146.5346629999999
 21
45.26590699999998
 31
0.0
  0
ARC
  5
A4D5
330
A3DA
100
AcDbEntity
  8
1
  6
Continuous
100
AcDbCircle
 10
174.533949
 20
60.265892
 30
0.0
 40
19.0
100
AcDbArc
 50
235.7944209999997
 51
124.3012189999999
  0
ARC
  5
A4D6
330
A3DA
100
AcDbEntity
  8
1
  6
Continuous
100
AcDbCircle
 10
174.533949
 20
60.265892
 30
0.0
 40
17.0
100
AcDbArc
 50
235.698781
 51
124.3012189999999
  0
ARC
  5
A4D7
330
A3DA
100
AcDbEntity
  8
1
  6
Continuous
100
AcDbCircle
 10
194.3590309999999
 20
60.265892
 30
0.0
 40
46.925087
100
AcDbArc
 50
163.916557
 51
165.1833469999999
  0
ARC
  5
A4D8
330
A3DA
100
AcDbEntity
  8
1
  6
Continuous
100
AcDbCircle
 10
194.3590309999999
 20
60.265892
 30
0.0
 40
46.925087
100
AcDbArc
 50
194.816653
 51
196.083443
  0
ARC
  5
A4D9
330
A3DA
100
AcDbEntity
  8
1
  6
Continuous
100
AcDbCircle
 10
392.533949
 20
163.4658919999999
 30
0.0
 40
18.0
100
AcDbArc
 50
149.599802
 51
74.97199999999998
  0
ARC
  5
A4DA
330
A3DA
100
AcDbEntity
  8
1
  6
Continuous
100
AcDbCircle
 10
392.533949
 20
163.4658919999999
 30
0.0
 40
25.0
100
AcDbArc
 50
142.910997
 51
81.58266399999998
  0
LINE
  5
A4DB
330
A3DA
100
AcDbEntity
  8
4
  6
CENTER
 48
0.8
100
AcDbLine
 10
392.533949
 20
190.965892
 30
0.0
 11
392.533949
 21
133.465892
 31
0.0
  0
LINE
  5
A4DC
330
A3DA
100
AcDbEntity
  8
4
  6
CENTER
 48
0.8
100
AcDbLine
 10
362.5339489999998
 20
163.4658919999999
 30
0.0
 11
422.533949
 21
163.4658919999999
 31
0.0
  0
ARC
  5
A4DD
330
A3DA
100
AcDbEntity
  8
1
  6
Continuous
100
AcDbCircle
 10
355.791517
 20
194.4258909999998
 30
0.0
 40
3.0
100
AcDbArc
 50
90.00001800000005
 51
173.2031979999999
  0
LINE
  5
A4DE
330
A3DA
100
AcDbEntity
  8
1
  6
Continuous
100
AcDbLine
 10
361.1839049999999
 20
188.880301
 30
0.0
 11
352.533949
 21
189.182365
 31
0.0
  0
LINE
  5
A4DF
330
A3DA
100
AcDbEntity
  8
1
  6
Continuous
100
AcDbLine
 10
395.8020059999999
 20
191.050751
 30
0.0
 11
399.46901
 21
164.317165
 31
0.0
  0
LINE
  5
A4E0
330
A3DA
100
AcDbEntity
  8
1
  6
Continuous
100
AcDbLine
 10
384.533949
 20
193.7065119999998
 30
0.0
 11
384.533949
 21
167.3580179999999
 31
0.0
  0
LINE
  5
A4E1
330
A3DA
100
AcDbEntity
  8
4
  6
CENTER
 48
0.8
100
AcDbLine
 10
371.533949
 20
246.4658959999999
 30
0.0
 11
371.533949
 21
174.9709555560579
 31
0.0
  0
ARC
  5
A4E2
330
A3DA
100
AcDbEntity
  8
1
  6
Continuous
100
AcDbCircle
 10
392.533949
 20
163.4658919999999
 30
0.0
 40
11.0
100
AcDbArc
 50
166.432803
 51
58.38094000000001
  0
ARC
  5
A4E3
330
A3DA
100
AcDbEntity
  8
1
  6
Continuous
100
AcDbCircle
 10
392.533949
 20
163.365894
 30
0.0
 40
7.0
100
AcDbArc
 50
216.50872
 51
7.810410000000001
  0
CIRCLE
  5
A4E4
330
A3DA
100
AcDbEntity
  8
1
  6
Continuous
100
AcDbCircle
 10
392.533949
 20
163.4658919999999
 30
0.0
 40
4.75
  0
LINE
  5
A4E5
330
A3DA
100
AcDbEntity
  8
1
  6
Continuous
100
AcDbLine
 10
367.2822459999999
 20
185.714977
 30
0.0
 11
386.9075829999999
 21
159.2012819999998
 31
0.0
  0
ARC
  5
A4E6
330
A3DA
100
AcDbEntity
  8
1
  6
Continuous
100
AcDbCircle
 10
360.9047069999999
 20
180.885175
 30
0.0
 40
8.0
100
AcDbArc
 50
36.67418
 51
87.99996799999998
  0
LINE
  5
A4E7
330
A3DA
100
AcDbEntity
  8
1
  6
Continuous
100
AcDbLine
 10
387.276377
 20
197.4258909999998
 30
0.0
 11
355.791517
 21
197.4258909999998
 31
0.0
  0
ARC
  5
A4E8
330
A3DA
100
AcDbEntity
  8
1
  6
Continuous
100
AcDbCircle
 10
396.7927299999999
 20
191.1866469999999
 30
0.0
 40
1.0
100
AcDbArc
 50
170.0
 51
187.8104199999999
  0
LINE
  5
A4E9
330
A3DA
100
AcDbEntity
  8
1
  6
Continuous
100
AcDbLine
 10
396.1719319999998
 20
193.424698
 30
0.0
 11
395.807924
 21
191.360296
 31
0.0
  0
LINE
  5
A4EA
330
A3DA
100
AcDbEntity
  8
1
  6
Continuous
100
AcDbLine
 10
398.6339529999998
 20
192.990578
 30
0.0
 11
398.286656
 21
191.020961
 31
0.0
  0
LINE
  5
A4EB
330
A3DA
100
AcDbEntity
  8
1
  6
Continuous
100
AcDbLine
 10
398.633957
 20
192.9905819999999
 30
0.0
 11
387.3890149999999
 21
194.9733679999999
 31
0.0
  0
LINE
  5
A4EC
330
A3DA
100
AcDbEntity
  8
1
  6
Continuous
100
AcDbLine
 10
398.286656
 20
191.0209659999999
 30
0.0
 11
395.8246379999998
 21
191.455086
 31
0.0
  0
ARC
  5
A4ED
330
A3DA
100
AcDbEntity
  8
1
  6
Continuous
100
AcDbCircle
 10
378.995268
 20
198.510391
 30
0.0
 40
1.984499999999996
100
AcDbArc
 50
206.8632199999999
 51
213.1262299999999
  0
ARC
  5
A4EE
330
A3DA
100
AcDbEntity
  8
1
  6
Continuous
100
AcDbCircle
 10
375.4545729999999
 20
198.510391
 30
0.0
 40
1.984499999999996
100
AcDbArc
 50
189.99695
 51
213.1262299999999
  0
ARC
  5
A4EF
330
A3DA
100
AcDbEntity
  8
1
  6
Continuous
100
AcDbCircle
 10
384.283949
 20
198.510391
 30
0.0
 40
1.984499999999996
100
AcDbArc
 50
326.87379
 51
350.0029399999998
  0
ARC
  5
A4F0
330
A3DA
100
AcDbEntity
  8
1
  6
Continuous
100
AcDbCircle
 10
383.634535
 20
198.510391
 30
0.0
 40
1.984499999999996
100
AcDbArc
 50
326.87379
 51
350.0029399999998
  0
ARC
  5
A4F1
330
A3DA
100
AcDbEntity
  8
1
  6
Continuous
100
AcDbCircle
 10
381.812933
 20
198.510391
 30
0.0
 40
1.984499999999996
100
AcDbArc
 50
326.87379
 51
350.0029399999998
  0
ARC
  5
A4F2
330
A3DA
100
AcDbEntity
  8
1
  6
Continuous
100
AcDbCircle
 10
378.995268
 20
198.510391
 30
0.0
 40
1.984499999999996
100
AcDbArc
 50
326.87379
 51
350.0029399999998
  0
ARC
  5
A4F3
330
A3DA
100
AcDbEntity
  8
1
  6
Continuous
100
AcDbCircle
 10
371.533949
 20
198.510391
 30
0.0
 40
1.984499999999996
100
AcDbArc
 50
326.87379
 51
350.0029399999998
  0
ARC
  5
A4F4
330
A3DA
100
AcDbEntity
  8
1
  6
Continuous
100
AcDbCircle
 10
375.4545729999999
 20
198.510391
 30
0.0
 40
1.984499999999996
100
AcDbArc
 50
326.87379
 51
350.0029599999999
  0
ARC
  5
A4F5
330
A3DA
100
AcDbEntity
  8
1
  6
Continuous
100
AcDbCircle
 10
364.07263
 20
198.510391
 30
0.0
 40
1.984499999999996
100
AcDbArc
 50
189.99701
 51
213.1262299999999
  0
ARC
  5
A4F6
330
A3DA
100
AcDbEntity
  8
1
  6
Continuous
100
AcDbCircle
 10
367.6133249999999
 20
198.510391
 30
0.0
 40
1.984499999999996
100
AcDbArc
 50
189.99701
 51
213.1262299999999
  0
ARC
  5
A4F7
330
A3DA
100
AcDbEntity
  8
1
  6
Continuous
100
AcDbCircle
 10
358.783949
 20
198.510391
 30
0.0
 40
1.984499999999996
100
AcDbArc
 50
189.99701
 51
213.1262299999999
  0
ARC
  5
A4F8
330
A3DA
100
AcDbEntity
  8
1
  6
Continuous
100
AcDbCircle
 10
359.4333629999999
 20
198.510391
 30
0.0
 40
1.984499999999996
100
AcDbArc
 50
189.99701
 51
213.1262299999999
  0
ARC
  5
A4F9
330
A3DA
100
AcDbEntity
  8
1
  6
Continuous
100
AcDbCircle
 10
361.2549649999999
 20
198.510391
 30
0.0
 40
1.984499999999996
100
AcDbArc
 50
189.99701
 51
213.1262299999999
  0
ARC
  5
A4FA
330
A3DA
100
AcDbEntity
  8
1
  6
Continuous
100
AcDbCircle
 10
364.07263
 20
198.510391
 30
0.0
 40
1.984499999999996
100
AcDbArc
 50
326.87379
 51
333.13675
  0
ARC
  5
A4FB
330
A3DA
100
AcDbEntity
  8
1
  6
Continuous
100
AcDbCircle
 10
371.533949
 20
198.510391
 30
0.0
 40
1.984499999999996
100
AcDbArc
 50
189.99701
 51
213.1262299999999
  0
ARC
  5
A4FC
330
A3DA
100
AcDbEntity
  8
1
  6
Continuous
100
AcDbCircle
 10
367.6133249999999
 20
198.510391
 30
0.0
 40
1.984499999999996
100
AcDbArc
 50
326.87379
 51
350.00301
  0
LINE
  5
A4FD
330
A3DA
100
AcDbEntity
  8
1
  6
Continuous
100
AcDbLine
 10
352.8125999999998
 20
194.780937
 30
0.0
 11
352.533949
 21
189.182365
 31
0.0
  0
ARC
  5
A4FE
330
A3DA
100
AcDbEntity
  8
1
  6
Continuous
100
AcDbCircle
 10
174.533949
 20
60.265892
 30
0.0
 40
13.5
100
AcDbArc
 50
227.794554
 51
132.2054459999999
  0
ARC
  5
A4FF
330
A3DA
100
AcDbEntity
  8
1
  6
Continuous
100
AcDbCircle
 10
174.533949
 20
60.265892
 30
0.0
 40
10.5
100
AcDbArc
 50
252.2472099999998
 51
107.7527899999999
  0
ARC
  5
A500
330
A3DA
100
AcDbEntity
  8
1
  6
Continuous
100
AcDbCircle
 10
175.766274
 20
59.03359
 30
0.0
 40
3.623304
100
AcDbArc
 50
316.5091669999998
 51
358.2470069999998
  0
ARC
  5
A501
330
A3DA
100
AcDbEntity
  8
1
  6
Continuous
100
AcDbCircle
 10
175.7663169999999
 20
61.498341
 30
0.0
 40
3.623247999999998
100
AcDbArc
 50
1.753413
 51
43.491106
  0
LINE
  5
A502
330
A3DA
100
AcDbEntity
  8
1
  6
Continuous
100
AcDbLine
 10
178.7839189999999
 20
60.265948
 30
0.0
 11
179.3459389999999
 21
61.515952
 31
0.0
  0
LINE
  5
A503
330
A3DA
100
AcDbEntity
  8
1
  6
Continuous
100
AcDbLine
 10
179.345977
 20
59.015967
 30
0.0
 11
178.7839569999999
 21
60.265963
 31
0.0
  0
ARC
  5
A504
330
A3DA
100
AcDbEntity
  8
1
  6
Continuous
100
AcDbCircle
 10
178.1100219999999
 20
58.16595
 30
0.0
 40
1.5
100
AcDbArc
 50
34.51822999999999
 51
73.756776
  0
ARC
  5
A505
330
A3DA
100
AcDbEntity
  8
1
  6
Continuous
100
AcDbCircle
 10
178.1100219999999
 20
62.365946
 30
0.0
 40
1.5
100
AcDbArc
 50
286.2431649999998
 51
325.48158
  0
CIRCLE
  5
A506
330
A3DA
100
AcDbEntity
  8
1
  6
Continuous
100
AcDbCircle
 10
392.533949
 20
163.4658919999999
 30
0.0
 40
2.049999999999998
  0
ARC
  5
A507
330
A3DA
100
AcDbEntity
  8
1
  6
Continuous
100
AcDbCircle
 10
286.477794
 20
179.970956
 30
0.0
 40
32.44384500000001
100
AcDbArc
 50
164.8619749999998
 51
208.309821
  0
ARC
  5
A508
330
A3DA
100
AcDbEntity
  8
1
  6
Continuous
100
AcDbCircle
 10
259.5901029999998
 20
179.970956
 30
0.0
 40
32.44384500000001
100
AcDbArc
 50
331.690179
 51
15.138025
  0
ARC
  5
A509
330
A3DA
100
AcDbEntity
  8
1
  6
Continuous
100
AcDbCircle
 10
259.5901029999998
 20
179.970956
 30
0.0
 40
30.443845
100
AcDbArc
 50
331.690233
 51
17.61205799999998
  0
ARC
  5
A50A
330
A3DA
100
AcDbEntity
  8
1
  6
Continuous
100
AcDbCircle
 10
286.477794
 20
179.970956
 30
0.0
 40
30.443845
100
AcDbArc
 50
162.3879419999999
 51
208.3097669999999
  0
ARC
  5
A50B
330
A3DA
100
AcDbEntity
  8
1
  6
Continuous
100
AcDbCircle
 10
289.942832
 20
188.182365
 30
0.0
 40
1.0
100
AcDbArc
 50
15.138025
 51
90.0
  0
ARC
  5
A50C
330
A3DA
100
AcDbEntity
  8
1
  6
Continuous
100
AcDbCircle
 10
256.125065
 20
188.182365
 30
0.0
 40
1.0
100
AcDbArc
 50
90.0
 51
164.8619749999998
  0
ARC
  5
A50D
330
A3DA
100
AcDbEntity
  8
1
  6
Continuous
100
AcDbCircle
 10
257.033964
 20
164.110576
 30
0.0
 40
1.0
100
AcDbArc
 50
0.0
 51
28.30982099999999
  0
ARC
  5
A50E
330
A3DA
100
AcDbEntity
  8
1
  6
Continuous
100
AcDbCircle
 10
257.033949
 20
164.1106039999999
 30
0.0
 40
3.0
100
AcDbArc
 50
0.0
 51
28.30976699999999
  0
ARC
  5
A50F
330
A3DA
100
AcDbEntity
  8
1
  6
Continuous
100
AcDbCircle
 10
289.033934
 20
164.110576
 30
0.0
 40
1.0
100
AcDbArc
 50
151.690179
 51
180.0
  0
ARC
  5
A510
330
A3DA
100
AcDbEntity
  8
1
  6
Continuous
100
AcDbCircle
 10
289.033949
 20
164.1106039999999
 30
0.0
 40
3.0
100
AcDbArc
 50
151.690233
 51
180.0
  0
ARC
  5
A511
330
A3DA
100
AcDbEntity
  8
1
  6
Continuous
100
AcDbCircle
 10
161.5724449999999
 20
79.265877
 30
0.0
 40
4.0
100
AcDbArc
 50
270.0
 51
304.301219
  0
ARC
  5
A512
330
A3DA
100
AcDbEntity
  8
1
  6
Continuous
100
AcDbCircle
 10
161.5724449999999
 20
79.265877
 30
0.0
 40
6.0
100
AcDbArc
 50
270.0
 51
304.301219
  0
ARC
  5
A513
330
A3DA
100
AcDbEntity
  8
1
  6
Continuous
100
AcDbCircle
 10
161.5724449999999
 20
41.265907
 30
0.0
 40
4.0
100
AcDbArc
 50
55.698781
 51
90.0
  0
ARC
  5
A514
330
A3DA
100
AcDbEntity
  8
1
  6
Continuous
100
AcDbCircle
 10
161.5724449999999
 20
41.265907
 30
0.0
 40
6.0
100
AcDbArc
 50
55.698781
 51
90.0
  0
LINE
  5
A515
330
A3DA
100
AcDbEntity
  8
1
  6
Continuous
100
AcDbLine
 10
387.833952
 20
198.165889
 30
0.0
 11
355.233946
 21
198.165889
 31
0.0
  0
LINE
  5
A516
330
A3DA
100
AcDbEntity
  8
1
  6
Continuous
100
AcDbLine
 10
362.033949
 20
206.4658919999998
 30
0.0
 11
381.033949
 21
206.4658919999998
 31
0.0
  0
LINE
  5
A517
330
A3DA
100
AcDbEntity
  8
1
  6
Continuous
100
AcDbLine
 10
387.833952
 20
199.765887
 30
0.0
 11
355.233946
 21
199.765887
 31
0.0
  0
LINE
  5
A518
330
A3DA
100
AcDbEntity
  8
1
  6
Continuous
100
AcDbLine
 10
385.333947
 20
202.2658869999999
 30
0.0
 11
357.733946
 21
202.2658869999999
 31
0.0
  0
LINE
  5
A519
330
A3DA
100
AcDbEntity
  8
1
  6
Continuous
100
AcDbLine
 10
362.033949
 20
206.4658919999998
 30
0.0
 11
362.033949
 21
202.2658869999999
 31
0.0
  0
LINE
  5
A51A
330
A3DA
100
AcDbEntity
  8
1
  6
Continuous
100
AcDbLine
 10
355.233946
 20
199.765887
 30
0.0
 11
355.233946
 21
198.165889
 31
0.0
  0
ARC
  5
A51B
330
A3DA
100
AcDbEntity
  8
1
  6
Continuous
100
AcDbCircle
 10
365.533949
 20
204.2158919999998
 30
0.0
 40
3.0
100
AcDbArc
 50
131.4096399999999
 51
220.5416599999999
  0
ARC
  5
A51C
330
A3DA
100
AcDbEntity
  8
1
  6
Continuous
100
AcDbCircle
 10
355.233946
 20
200.065887
 30
0.0
 40
0.3
100
AcDbArc
 50
270.00002
 51
342.9964799999999
  0
ARC
  5
A51D
330
A3DA
100
AcDbEntity
  8
1
  6
Continuous
100
AcDbCircle
 10
358.8678419999998
 20
198.9546499999999
 30
0.0
 40
3.5
100
AcDbArc
 50
108.9031
 51
162.9964699999999
  0
LINE
  5
A51E
330
A3DA
100
AcDbEntity
  8
1
  6
Continuous
100
AcDbLine
 10
381.033949
 20
206.4658919999998
 30
0.0
 11
381.033949
 21
202.2658869999999
 31
0.0
  0
ARC
  5
A51F
330
A3DA
100
AcDbEntity
  8
1
  6
Continuous
100
AcDbCircle
 10
367.533949
 20
204.2158919999998
 30
0.0
 40
3.5
100
AcDbArc
 50
326.14148
 51
40.005173
  0
ARC
  5
A520
330
A3DA
100
AcDbEntity
  8
1
  6
Continuous
100
AcDbCircle
 10
375.533949
 20
204.2158919999998
 30
0.0
 40
3.5
100
AcDbArc
 50
139.9947899999999
 51
213.8584799999999
  0
ARC
  5
A521
330
A3DA
100
AcDbEntity
  8
1
  6
Continuous
100
AcDbCircle
 10
377.533949
 20
204.2158919999998
 30
0.0
 40
3.0
100
AcDbArc
 50
319.45831
 51
48.590321
  0
LINE
  5
A522
330
A3DA
100
AcDbEntity
  8
1
  6
Continuous
100
AcDbLine
 10
387.833952
 20
199.765887
 30
0.0
 11
387.833952
 21
198.165889
 31
0.0
  0
ARC
  5
A523
330
A3DA
100
AcDbEntity
  8
1
  6
Continuous
100
AcDbCircle
 10
384.200056
 20
198.9546499999999
 30
0.0
 40
3.5
100
AcDbArc
 50
17.003496
 51
71.09685999999998
  0
ARC
  5
A524
330
A3DA
100
AcDbEntity
  8
1
  6
Continuous
100
AcDbCircle
 10
387.833952
 20
200.065887
 30
0.0
 40
0.3
100
AcDbArc
 50
197.00351
 51
269.9999599999998
  0
LINE
  5
A525
330
A3DA
100
AcDbEntity
  8
1
  6
Continuous
100
AcDbLine
 10
65.333952
 20
198.1658879999999
 30
0.0
 11
32.733946
 21
198.1658879999999
 31
0.0
  0
LINE
  5
A526
330
A3DA
100
AcDbEntity
  8
1
  6
Continuous
100
AcDbLine
 10
65.333952
 20
199.7658859999999
 30
0.0
 11
32.733946
 21
199.7658859999999
 31
0.0
  0
LINE
  5
A527
330
A3DA
100
AcDbEntity
  8
1
  6
Continuous
100
AcDbLine
 10
39.219786
 20
206.4658909999999
 30
0.0
 11
58.848112
 21
206.4658909999999
 31
0.0
  0
LINE
  5
A528
330
A3DA
100
AcDbEntity
  8
1
  6
Continuous
100
AcDbLine
 10
32.733946
 20
199.7658859999999
 30
0.0
 11
32.733946
 21
198.1658879999999
 31
0.0
  0
ARC
  5
A529
330
A3DA
100
AcDbEntity
  8
1
  6
Continuous
100
AcDbCircle
 10
32.733946
 20
200.065886
 30
0.0
 40
0.3
100
AcDbArc
 50
270.00002
 51
342.9964799999999
  0
ARC
  5
A52A
330
A3DA
100
AcDbEntity
  8
1
  6
Continuous
100
AcDbCircle
 10
36.36784199999999
 20
198.954649
 30
0.0
 40
3.5
100
AcDbArc
 50
108.9031
 51
162.9964699999999
  0
ARC
  5
A52B
330
A3DA
100
AcDbEntity
  8
1
  6
Continuous
100
AcDbCircle
 10
39.219786
 20
205.965891
 30
0.0
 40
0.5
100
AcDbArc
 50
89.99998199999996
 51
161.44681
  0
ARC
  5
A52C
330
A3DA
100
AcDbEntity
  8
1
  6
Continuous
100
AcDbCircle
 10
44.433951
 20
204.2158909999999
 30
0.0
 40
6.0
100
AcDbArc
 50
161.4469
 51
198.96558
  0
ARC
  5
A52D
330
A3DA
100
AcDbEntity
  8
1
  6
Continuous
100
AcDbCircle
 10
39.65777399999997
 20
204.2158909999999
 30
0.0
 40
3.5
100
AcDbArc
 50
326.14148
 51
40.005169
  0
ARC
  5
A52E
330
A3DA
100
AcDbEntity
  8
1
  6
Continuous
100
AcDbCircle
 10
47.83182299999999
 20
204.2158909999999
 30
0.0
 40
3.5
100
AcDbArc
 50
139.99471
 51
213.8584799999999
  0
ARC
  5
A52F
330
A3DA
100
AcDbEntity
  8
1
  6
Continuous
100
AcDbCircle
 10
61.70005599999999
 20
198.954649
 30
0.0
 40
3.5
100
AcDbArc
 50
17.003496
 51
71.09685999999998
  0
LINE
  5
A530
330
A3DA
100
AcDbEntity
  8
1
  6
Continuous
100
AcDbLine
 10
35.23395
 20
202.2658859999999
 30
0.0
 11
62.83395200000001
 21
202.2658859999999
 31
0.0
  0
ARC
  5
A531
330
A3DA
100
AcDbEntity
  8
1
  6
Continuous
100
AcDbCircle
 10
58.848112
 20
205.965891
 30
0.0
 40
0.5
100
AcDbArc
 50
18.55312999999998
 51
89.99996800000003
  0
ARC
  5
A532
330
A3DA
100
AcDbEntity
  8
1
  6
Continuous
100
AcDbCircle
 10
58.410124
 20
204.2158909999999
 30
0.0
 40
3.5
100
AcDbArc
 50
139.99477
 51
213.8584799999999
  0
ARC
  5
A533
330
A3DA
100
AcDbEntity
  8
1
  6
Continuous
100
AcDbCircle
 10
50.236078
 20
204.2158909999999
 30
0.0
 40
3.5
100
AcDbArc
 50
326.14148
 51
40.005224
  0
ARC
  5
A534
330
A3DA
100
AcDbEntity
  8
1
  6
Continuous
100
AcDbCircle
 10
53.633947
 20
204.2158909999999
 30
0.0
 40
6.0
100
AcDbArc
 50
341.03438
 51
18.553034
  0
LINE
  5
A535
330
A3DA
100
AcDbEntity
  8
1
  6
Continuous
100
AcDbLine
 10
65.333952
 20
199.7658859999999
 30
0.0
 11
65.333952
 21
198.1658879999999
 31
0.0
  0
ARC
  5
A536
330
A3DA
100
AcDbEntity
  8
1
  6
Continuous
100
AcDbCircle
 10
65.333952
 20
200.065886
 30
0.0
 40
0.3
100
AcDbArc
 50
197.00351
 51
269.9999599999998
  0
LINE
  5
A537
330
A3DA
100
AcDbEntity
  8
4
  6
CENTER
 48
0.8
100
AcDbLine
 10
174.533949
 20
246.849173
 30
0.0
 11
174.533949
 21
174.970956
 31
0.0
  0
LINE
  5
A538
330
A3DA
100
AcDbEntity
  8
1
  6
Continuous
100
AcDbLine
 10
190.833952
 20
198.165889
 30
0.0
 11
158.233946
 21
198.165889
 31
0.0
  0
LINE
  5
A539
330
A3DA
100
AcDbEntity
  8
1
  6
Continuous
100
AcDbLine
 10
289.3339519999999
 20
199.765887
 30
0.0
 11
256.7339459999999
 21
199.765887
 31
0.0
  0
LINE
  5
A53A
330
A3DA
100
AcDbEntity
  8
1
  6
Continuous
100
AcDbLine
 10
286.833947
 20
202.2658869999999
 30
0.0
 11
259.233946
 21
202.2658869999999
 31
0.0
  0
LINE
  5
A53B
330
A3DA
100
AcDbEntity
  8
1
  6
Continuous
100
AcDbLine
 10
256.7339459999999
 20
199.765887
 30
0.0
 11
256.7339459999999
 21
198.165889
 31
0.0
  0
ARC
  5
A53C
330
A3DA
100
AcDbEntity
  8
1
  6
Continuous
100
AcDbCircle
 10
256.7339459999999
 20
200.065887
 30
0.0
 40
0.3
100
AcDbArc
 50
270.00002
 51
342.9964799999999
  0
ARC
  5
A53D
330
A3DA
100
AcDbEntity
  8
1
  6
Continuous
100
AcDbCircle
 10
260.367842
 20
198.9546499999999
 30
0.0
 40
3.5
100
AcDbArc
 50
108.9031
 51
162.9964699999999
  0
ARC
  5
A53E
330
A3DA
100
AcDbEntity
  8
1
  6
Continuous
100
AcDbCircle
 10
263.219786
 20
205.9658919999999
 30
0.0
 40
0.5
100
AcDbArc
 50
89.99998199999996
 51
161.44681
  0
ARC
  5
A53F
330
A3DA
100
AcDbEntity
  8
1
  6
Continuous
100
AcDbCircle
 10
268.433951
 20
204.2158919999998
 30
0.0
 40
6.0
100
AcDbArc
 50
161.4469
 51
198.96558
  0
ARC
  5
A540
330
A3DA
100
AcDbEntity
  8
1
  6
Continuous
100
AcDbCircle
 10
263.657774
 20
204.2158919999998
 30
0.0
 40
3.5
100
AcDbArc
 50
326.14148
 51
40.005169
  0
ARC
  5
A541
330
A3DA
100
AcDbEntity
  8
1
  6
Continuous
100
AcDbCircle
 10
271.8318229999998
 20
204.2158919999998
 30
0.0
 40
3.5
100
AcDbArc
 50
139.99471
 51
213.8584799999999
  0
LINE
  5
A542
330
A3DA
100
AcDbEntity
  8
1
  6
Continuous
100
AcDbLine
 10
263.219786
 20
206.4658919999998
 30
0.0
 11
282.848112
 21
206.4658919999998
 31
0.0
  0
LINE
  5
A543
330
A3DA
100
AcDbEntity
  8
1
  6
Continuous
100
AcDbLine
 10
289.3339519999999
 20
199.765887
 30
0.0
 11
289.3339519999999
 21
198.165889
 31
0.0
  0
ARC
  5
A544
330
A3DA
100
AcDbEntity
  8
1
  6
Continuous
100
AcDbCircle
 10
289.3339519999999
 20
200.065887
 30
0.0
 40
0.3
100
AcDbArc
 50
197.00351
 51
269.9999599999998
  0
ARC
  5
A545
330
A3DA
100
AcDbEntity
  8
1
  6
Continuous
100
AcDbCircle
 10
282.848112
 20
205.9658919999999
 30
0.0
 40
0.5
100
AcDbArc
 50
18.55312999999998
 51
89.99996800000003
  0
ARC
  5
A546
330
A3DA
100
AcDbEntity
  8
1
  6
Continuous
100
AcDbCircle
 10
282.410124
 20
204.2158919999998
 30
0.0
 40
3.5
100
AcDbArc
 50
139.99477
 51
213.8584799999999
  0
ARC
  5
A547
330
A3DA
100
AcDbEntity
  8
1
  6
Continuous
100
AcDbCircle
 10
274.2360779999998
 20
204.2158919999998
 30
0.0
 40
3.5
100
AcDbArc
 50
326.14148
 51
40.005224
  0
ARC
  5
A548
330
A3DA
100
AcDbEntity
  8
1
  6
Continuous
100
AcDbCircle
 10
277.6339469999999
 20
204.2158919999998
 30
0.0
 40
6.0
100
AcDbArc
 50
341.03438
 51
18.553034
  0
ARC
  5
A549
330
A3DA
100
AcDbEntity
  8
1
  6
Continuous
100
AcDbCircle
 10
285.700056
 20
198.9546499999999
 30
0.0
 40
3.5
100
AcDbArc
 50
17.003496
 51
71.09685999999998
  0
ARC
  5
A54A
330
A3DA
100
AcDbEntity
  8
1
  6
Continuous
100
AcDbCircle
 10
161.8678419999999
 20
198.9546499999999
 30
0.0
 40
3.5
100
AcDbArc
 50
108.9031
 51
162.9964699999999
  0
LINE
  5
A54B
330
A3DA
100
AcDbEntity
  8
1
  6
Continuous
100
AcDbLine
 10
190.833952
 20
199.765887
 30
0.0
 11
158.233946
 21
199.765887
 31
0.0
  0
LINE
  5
A54C
330
A3DA
100
AcDbEntity
  8
1
  6
Continuous
100
AcDbLine
 10
174.533949
 20
198.165889
 30
0.0
 11
158.233946
 21
198.165889
 31
0.0
  0
ARC
  5
A54D
330
A3DA
100
AcDbEntity
  8
1
  6
Continuous
100
AcDbCircle
 10
158.233946
 20
200.065887
 30
0.0
 40
0.3
100
AcDbArc
 50
270.00002
 51
342.9964799999999
  0
LINE
  5
A54E
330
A3DA
100
AcDbEntity
  8
1
  6
Continuous
100
AcDbLine
 10
158.233946
 20
199.765887
 30
0.0
 11
158.233946
 21
198.165889
 31
0.0
  0
ARC
  5
A54F
330
A3DA
100
AcDbEntity
  8
1
  6
Continuous
100
AcDbCircle
 10
178.533949
 20
204.2158919999998
 30
0.0
 40
3.5
100
AcDbArc
 50
139.9947899999999
 51
213.8584799999999
  0
ARC
  5
A550
330
A3DA
100
AcDbEntity
  8
1
  6
Continuous
100
AcDbCircle
 10
170.533949
 20
204.2158919999998
 30
0.0
 40
3.5
100
AcDbArc
 50
326.14148
 51
40.005173
  0
ARC
  5
A551
330
A3DA
100
AcDbEntity
  8
1
  6
Continuous
100
AcDbCircle
 10
168.533949
 20
204.2158919999998
 30
0.0
 40
3.0
100
AcDbArc
 50
131.4096399999999
 51
220.5416599999999
  0
LINE
  5
A552
330
A3DA
100
AcDbEntity
  8
1
  6
Continuous
100
AcDbLine
 10
165.033949
 20
206.4658919999998
 30
0.0
 11
165.033949
 21
202.2658869999999
 31
0.0
  0
LINE
  5
A553
330
A3DA
100
AcDbEntity
  8
1
  6
Continuous
100
AcDbLine
 10
188.3339469999999
 20
202.2658869999999
 30
0.0
 11
160.733946
 21
202.2658869999999
 31
0.0
  0
LINE
  5
A554
330
A3DA
100
AcDbEntity
  8
1
  6
Continuous
100
AcDbLine
 10
165.033949
 20
206.4658919999998
 30
0.0
 11
184.033949
 21
206.4658919999998
 31
0.0
  0
ARC
  5
A555
330
A3DA
100
AcDbEntity
  8
1
  6
Continuous
100
AcDbCircle
 10
190.833952
 20
200.065887
 30
0.0
 40
0.3
100
AcDbArc
 50
197.00351
 51
269.9999599999998
  0
ARC
  5
A556
330
A3DA
100
AcDbEntity
  8
1
  6
Continuous
100
AcDbCircle
 10
187.200056
 20
198.9546499999999
 30
0.0
 40
3.5
100
AcDbArc
 50
17.003496
 51
71.09685999999998
  0
LINE
  5
A557
330
A3DA
100
AcDbEntity
  8
1
  6
Continuous
100
AcDbLine
 10
190.833952
 20
199.765887
 30
0.0
 11
190.833952
 21
198.165889
 31
0.0
  0
ARC
  5
A558
330
A3DA
100
AcDbEntity
  8
1
  6
Continuous
100
AcDbCircle
 10
180.533949
 20
204.2158919999998
 30
0.0
 40
3.0
100
AcDbArc
 50
319.45831
 51
48.590321
  0
LINE
  5
A559
330
A3DA
100
AcDbEntity
  8
1
  6
Continuous
100
AcDbLine
 10
184.033949
 20
206.4658919999998
 30
0.0
 11
184.033949
 21
202.2658869999999
 31
0.0
  0
LINE
  5
A55A
330
A3DA
100
AcDbEntity
  8
2
  6
Continuous
100
AcDbLine
 10
366.480949
 20
240.412892
 30
0.0
 11
366.480949
 21
208.106144
 31
0.0
  0
LINE
  5
A55B
330
A3DA
100
AcDbEntity
  8
2
  6
Continuous
100
AcDbLine
 10
376.586949
 20
240.412892
 30
0.0
 11
376.586949
 21
208.106144
 31
0.0
  0
LINE
  5
A55C
330
A3DA
100
AcDbEntity
  8
1
  6
Continuous
100
AcDbLine
 10
377.533949
 20
239.4658919999999
 30
0.0
 11
377.533949
 21
206.4658919999998
 31
0.0
  0
LINE
  5
A55D
330
A3DA
100
AcDbEntity
  8
1
  6
Continuous
100
AcDbLine
 10
365.533949
 20
239.4658919999999
 30
0.0
 11
365.533949
 21
206.4658919999998
 31
0.0
  0
LINE
  5
A55E
330
A3DA
100
AcDbEntity
  8
2
  6
Continuous
100
AcDbLine
 10
366.480949
 20
208.106144
 30
0.0
 11
365.533949
 21
206.4658919999998
 31
0.0
  0
LINE
  5
A55F
330
A3DA
100
AcDbEntity
  8
2
  6
Continuous
100
AcDbLine
 10
376.586949
 20
208.106144
 30
0.0
 11
377.533949
 21
206.4658919999998
 31
0.0
  0
LINE
  5
A560
330
A3DA
100
AcDbEntity
  8
1
  6
Continuous
100
AcDbLine
 10
365.533949
 20
208.106144
 30
0.0
 11
377.533949
 21
208.106144
 31
0.0
  0
LINE
  5
A561
330
A3DA
100
AcDbEntity
  8
1
  6
Continuous
100
AcDbLine
 10
365.533949
 20
239.4658919999999
 30
0.0
 11
377.533949
 21
239.4658919999999
 31
0.0
  0
LINE
  5
A562
330
A3DA
100
AcDbEntity
  8
1
  6
Continuous
100
AcDbLine
 10
375.533949
 20
241.4658919999999
 30
0.0
 11
377.533949
 21
239.4658919999999
 31
0.0
  0
LINE
  5
A563
330
A3DA
100
AcDbEntity
  8
1
  6
Continuous
100
AcDbLine
 10
367.533949
 20
241.4658919999999
 30
0.0
 11
365.533949
 21
239.4658919999999
 31
0.0
  0
LINE
  5
A564
330
A3DA
100
AcDbEntity
  8
1
  6
Continuous
100
AcDbLine
 10
367.533949
 20
241.4658919999999
 30
0.0
 11
375.533949
 21
241.4658919999999
 31
0.0
  0
LINE
  5
A565
330
A3DA
100
AcDbEntity
  8
2
  6
Continuous
100
AcDbLine
 10
54.086949
 20
240.412891
 30
0.0
 11
54.086949
 21
208.106143
 31
0.0
  0
LINE
  5
A566
330
A3DA
100
AcDbEntity
  8
2
  6
Continuous
100
AcDbLine
 10
43.980949
 20
240.412891
 30
0.0
 11
43.980949
 21
208.106143
 31
0.0
  0
LINE
  5
A567
330
A3DA
100
AcDbEntity
  8
1
  6
Continuous
100
AcDbLine
 10
43.03394899999999
 20
208.106143
 30
0.0
 11
55.03394899999999
 21
208.106143
 31
0.0
  0
LINE
  5
A568
330
A3DA
100
AcDbEntity
  8
2
  6
Continuous
100
AcDbLine
 10
43.980949
 20
208.106143
 30
0.0
 11
43.03394899999999
 21
206.4658909999999
 31
0.0
  0
LINE
  5
A569
330
A3DA
100
AcDbEntity
  8
2
  6
Continuous
100
AcDbLine
 10
54.086949
 20
208.106143
 30
0.0
 11
55.03394899999999
 21
206.4658909999999
 31
0.0
  0
LINE
  5
A56A
330
A3DA
100
AcDbEntity
  8
1
  6
Continuous
100
AcDbLine
 10
53.033949
 20
241.465891
 30
0.0
 11
55.03394899999999
 21
239.465891
 31
0.0
  0
LINE
  5
A56B
330
A3DA
100
AcDbEntity
  8
1
  6
Continuous
100
AcDbLine
 10
43.03394899999999
 20
239.465891
 30
0.0
 11
55.03394899999999
 21
239.465891
 31
0.0
  0
LINE
  5
A56C
330
A3DA
100
AcDbEntity
  8
1
  6
Continuous
100
AcDbLine
 10
45.03394899999999
 20
241.465891
 30
0.0
 11
53.033949
 21
241.465891
 31
0.0
  0
LINE
  5
A56D
330
A3DA
100
AcDbEntity
  8
1
  6
Continuous
100
AcDbLine
 10
45.03394899999999
 20
241.465891
 30
0.0
 11
43.03394899999999
 21
239.465891
 31
0.0
  0
LINE
  5
A56E
330
A3DA
100
AcDbEntity
  8
1
  6
Continuous
100
AcDbLine
 10
55.03394899999999
 20
239.465891
 30
0.0
 11
55.03394899999999
 21
206.4658909999999
 31
0.0
  0
LINE
  5
A56F
330
A3DA
100
AcDbEntity
  8
1
  6
Continuous
100
AcDbLine
 10
43.03394899999999
 20
239.465891
 30
0.0
 11
43.03394899999999
 21
206.4658909999999
 31
0.0
  0
LINE
  5
A570
330
A3DA
100
AcDbEntity
  8
1
  6
Continuous
100
AcDbLine
 10
168.533949
 20
239.4658919999999
 30
0.0
 11
180.533949
 21
239.4658919999999
 31
0.0
  0
LINE
  5
A571
330
A3DA
100
AcDbEntity
  8
1
  6
Continuous
100
AcDbLine
 10
178.533949
 20
241.4658919999999
 30
0.0
 11
180.533949
 21
239.4658919999999
 31
0.0
  0
LINE
  5
A572
330
A3DA
100
AcDbEntity
  8
1
  6
Continuous
100
AcDbLine
 10
168.533949
 20
208.106144
 30
0.0
 11
180.533949
 21
208.106144
 31
0.0
  0
LINE
  5
A573
330
A3DA
100
AcDbEntity
  8
2
  6
Continuous
100
AcDbLine
 10
169.480949
 20
240.412892
 30
0.0
 11
169.480949
 21
208.106144
 31
0.0
  0
LINE
  5
A574
330
A3DA
100
AcDbEntity
  8
2
  6
Continuous
100
AcDbLine
 10
169.480949
 20
208.106144
 30
0.0
 11
168.533949
 21
206.4658919999998
 31
0.0
  0
LINE
  5
A575
330
A3DA
100
AcDbEntity
  8
1
  6
Continuous
100
AcDbLine
 10
170.533949
 20
241.4658919999999
 30
0.0
 11
168.533949
 21
239.4658919999999
 31
0.0
  0
LINE
  5
A576
330
A3DA
100
AcDbEntity
  8
1
  6
Continuous
100
AcDbLine
 10
170.533949
 20
241.4658919999999
 30
0.0
 11
178.533949
 21
241.4658919999999
 31
0.0
  0
LINE
  5
A577
330
A3DA
100
AcDbEntity
  8
2
  6
Continuous
100
AcDbLine
 10
179.586949
 20
240.412892
 30
0.0
 11
179.586949
 21
208.106144
 31
0.0
  0
LINE
  5
A578
330
A3DA
100
AcDbEntity
  8
2
  6
Continuous
100
AcDbLine
 10
179.586949
 20
208.106144
 30
0.0
 11
180.533949
 21
206.4658919999998
 31
0.0
  0
LINE
  5
A579
330
A3DA
100
AcDbEntity
  8
1
  6
Continuous
100
AcDbLine
 10
180.533949
 20
239.4658919999999
 30
0.0
 11
180.533949
 21
206.4658919999998
 31
0.0
  0
LINE
  5
A57A
330
A3DA
100
AcDbEntity
  8
1
  6
Continuous
100
AcDbLine
 10
168.533949
 20
239.4658919999999
 30
0.0
 11
168.533949
 21
206.4658919999998
 31
0.0
  0
LINE
  5
A57B
330
A3DA
100
AcDbEntity
  8
2
  6
Continuous
100
AcDbLine
 10
278.086949
 20
240.412892
 30
0.0
 11
278.086949
 21
208.106144
 31
0.0
  0
LINE
  5
A57C
330
A3DA
100
AcDbEntity
  8
2
  6
Continuous
100
AcDbLine
 10
267.980949
 20
240.412892
 30
0.0
 11
267.980949
 21
208.106144
 31
0.0
  0
LINE
  5
A57D
330
A3DA
100
AcDbEntity
  8
1
  6
Continuous
100
AcDbLine
 10
267.0339489999999
 20
208.106144
 30
0.0
 11
279.033949
 21
208.106144
 31
0.0
  0
LINE
  5
A57E
330
A3DA
100
AcDbEntity
  8
2
  6
Continuous
100
AcDbLine
 10
267.980949
 20
208.106144
 30
0.0
 11
267.0339489999999
 21
206.4658919999998
 31
0.0
  0
LINE
  5
A57F
330
A3DA
100
AcDbEntity
  8
2
  6
Continuous
100
AcDbLine
 10
278.086949
 20
208.106144
 30
0.0
 11
279.033949
 21
206.4658919999998
 31
0.0
  0
LINE
  5
A580
330
A3DA
100
AcDbEntity
  8
1
  6
Continuous
100
AcDbLine
 10
277.033949
 20
241.4658919999999
 30
0.0
 11
279.033949
 21
239.4658919999999
 31
0.0
  0
LINE
  5
A581
330
A3DA
100
AcDbEntity
  8
1
  6
Continuous
100
AcDbLine
 10
267.0339489999999
 20
239.4658919999999
 30
0.0
 11
279.033949
 21
239.4658919999999
 31
0.0
  0
LINE
  5
A582
330
A3DA
100
AcDbEntity
  8
1
  6
Continuous
100
AcDbLine
 10
269.0339489999999
 20
241.4658919999999
 30
0.0
 11
277.033949
 21
241.4658919999999
 31
0.0
  0
LINE
  5
A583
330
A3DA
100
AcDbEntity
  8
1
  6
Continuous
100
AcDbLine
 10
269.0339489999999
 20
241.4658919999999
 30
0.0
 11
267.0339489999999
 21
239.4658919999999
 31
0.0
  0
LINE
  5
A584
330
A3DA
100
AcDbEntity
  8
1
  6
Continuous
100
AcDbLine
 10
279.033949
 20
239.4658919999999
 30
0.0
 11
279.033949
 21
206.4658919999998
 31
0.0
  0
LINE
  5
A585
330
A3DA
100
AcDbEntity
  8
1
  6
Continuous
100
AcDbLine
 10
267.0339489999999
 20
239.4658919999999
 30
0.0
 11
267.0339489999999
 21
206.4658919999998
 31
0.0
  0
LINE
  5
A586
330
A3DA
100
AcDbEntity
  8
1
  6
Continuous
100
AcDbLine
 10
165.033949
 20
313.8896679999998
 30
0.0
 11
165.033949
 21
322.21039
 31
0.0
  0
LINE
  5
A587
330
A3DA
100
AcDbEntity
  8
1
  6
Continuous
100
AcDbLine
 10
184.033949
 20
313.8896679999998
 30
0.0
 11
184.033949
 21
322.21039
 31
0.0
  0
CIRCLE
  5
A588
330
A3DA
100
AcDbEntity
  8
2
  6
Continuous
100
AcDbCircle
 10
174.533949
 20
318.0500289999999
 30
0.0
 40
5.052999999999999
  0
CIRCLE
  5
A589
330
A3DA
100
AcDbEntity
  8
1
  6
Continuous
100
AcDbCircle
 10
174.533949
 20
318.0500289999999
 30
0.0
 40
6.0
  0
CIRCLE
  5
A58A
330
A3DA
100
AcDbEntity
  8
1
  6
Continuous
100
AcDbCircle
 10
174.533949
 20
318.0500289999999
 30
0.0
 40
4.0
  0
LINE
  5
A58B
330
A3DA
100
AcDbEntity
  8
1
  6
Continuous
100
AcDbLine
 10
166.1639489999997
 20
311.9324509999997
 30
0.0
 11
173.4027309999999
 21
307.7531379999998
 31
0.0
  0
LINE
  5
A58C
330
A3DA
100
AcDbEntity
  8
1
  6
Continuous
100
AcDbLine
 10
175.6651659999999
 20
307.7531379999998
 30
0.0
 11
182.903949
 21
311.9324509999997
 31
0.0
  0
LINE
  5
A58D
330
A3DA
100
AcDbEntity
  8
1
  6
Continuous
100
AcDbLine
 10
166.1639489999997
 20
324.1676079999998
 30
0.0
 11
173.4027309999999
 21
328.34692
 31
0.0
  0
ARC
  5
A58E
330
A3DA
100
AcDbEntity
  8
1
  6
Continuous
100
AcDbCircle
 10
174.533949
 20
326.3875939999998
 30
0.0
 40
2.262436
100
AcDbArc
 50
60.0
 51
119.9999999999999
  0
LINE
  5
A58F
330
A3DA
100
AcDbEntity
  8
1
  6
Continuous
100
AcDbLine
 10
175.6651659999999
 20
328.34692
 30
0.0
 11
182.903949
 21
324.1676079999998
 31
0.0
  0
ARC
  5
A590
330
A3DA
100
AcDbEntity
  8
1
  6
Continuous
100
AcDbCircle
 10
174.533949
 20
309.712465
 30
0.0
 40
2.262436
100
AcDbArc
 50
239.9999999999999
 51
300.0
  0
ARC
  5
A591
330
A3DA
100
AcDbEntity
  8
1
  6
Continuous
100
AcDbCircle
 10
181.7739489999999
 20
322.21039
 30
0.0
 40
2.259999999999998
100
AcDbArc
 50
0.0
 51
60.0
  0
ARC
  5
A592
330
A3DA
100
AcDbEntity
  8
1
  6
Continuous
100
AcDbCircle
 10
167.293949
 20
322.21039
 30
0.0
 40
2.259999999999998
100
AcDbArc
 50
119.9999999999999
 51
180.0
  0
ARC
  5
A593
330
A3DA
100
AcDbEntity
  8
1
  6
Continuous
100
AcDbCircle
 10
167.293949
 20
313.8896679999998
 30
0.0
 40
2.259999999999998
100
AcDbArc
 50
180.0
 51
239.9999999999999
  0
ARC
  5
A594
330
A3DA
100
AcDbEntity
  8
1
  6
Continuous
100
AcDbCircle
 10
181.7739489999999
 20
313.8896679999998
 30
0.0
 40
2.259999999999998
100
AcDbArc
 50
300.0
 51
0.0
  0
CIRCLE
  5
A595
330
A3DA
100
AcDbEntity
  8
1
  6
Continuous
100
AcDbCircle
 10
174.533949
 20
318.0500289999999
 30
0.0
 40
13.8
  0
CIRCLE
  5
A596
330
A3DA
100
AcDbEntity
  8
1
  6
Continuous
100
AcDbCircle
 10
174.533949
 20
318.0500289999999
 30
0.0
 40
16.3
  0
ARC
  5
A597
330
A3DA
100
AcDbEntity
  8
1
  6
Continuous
100
AcDbCircle
 10
194.359046
 20
318.0500289999999
 30
0.0
 40
46.925106
100
AcDbArc
 50
161.3577379999999
 51
198.6422619999999
  0
ARC
  5
A598
330
A3DA
100
AcDbEntity
  8
1
  6
Continuous
100
AcDbCircle
 10
174.533949
 20
318.0500289999999
 30
0.0
 40
19.0
100
AcDbArc
 50
235.6988470000001
 51
124.301153
  0
LINE
  5
A599
330
A3DA
100
AcDbEntity
  8
1
  6
Continuous
100
AcDbLine
 10
161.5724669999998
 20
333.0500289999998
 30
0.0
 11
146.5346629999999
 21
333.0500289999998
 31
0.0
  0
LINE
  5
A59A
330
A3DA
100
AcDbEntity
  8
1
  6
Continuous
100
AcDbLine
 10
161.5724669999998
 20
303.0500289999999
 30
0.0
 11
146.5346629999999
 21
303.0500289999999
 31
0.0
  0
ARC
  5
A59B
330
A3DA
100
AcDbEntity
  8
1
  6
Continuous
100
AcDbCircle
 10
161.5724669999998
 20
337.0500289999998
 30
0.0
 40
4.0
100
AcDbArc
 50
270.0
 51
304.301153
  0
ARC
  5
A59C
330
A3DA
100
AcDbEntity
  8
1
  6
Continuous
100
AcDbCircle
 10
161.5724669999998
 20
299.0500289999999
 30
0.0
 40
4.0
100
AcDbArc
 50
55.69884700000001
 51
90.0
  0
LINE
  5
A59D
330
A3DA
100
AcDbEntity
  8
1
  6
Continuous
100
AcDbLine
 10
146.5346629999999
 20
303.0500289999999
 30
0.0
 11
146.5346629999999
 21
305.050029
 31
0.0
  0
LINE
  5
A59E
330
A3DA
100
AcDbEntity
  8
1
  6
Continuous
100
AcDbLine
 10
149.270627
 20
331.050029
 30
0.0
 11
146.5346629999999
 21
331.050029
 31
0.0
  0
LINE
  5
A59F
330
A3DA
100
AcDbEntity
  8
1
  6
Continuous
100
AcDbLine
 10
149.270627
 20
305.050029
 30
0.0
 11
146.5346629999999
 21
305.050029
 31
0.0
  0
LINE
  5
A5A0
330
A3DA
100
AcDbEntity
  8
1
  6
Continuous
100
AcDbLine
 10
146.5346629999999
 20
331.050029
 30
0.0
 11
146.5346629999999
 21
333.0500289999998
 31
0.0
  0
ARC
  5
A5A1
330
A3DA
100
AcDbEntity
  8
1
  6
Continuous
100
AcDbCircle
 10
143.533949
 20
329.050029
 30
0.0
 40
1.0
100
AcDbArc
 50
90.0
 51
179.999982
  0
LINE
  5
A5A2
330
A3DA
100
AcDbEntity
  8
1
  6
Continuous
100
AcDbLine
 10
143.533949
 20
330.050029
 30
0.0
 11
148.9942409999999
 21
330.050029
 31
0.0
  0
LINE
  5
A5A3
330
A3DA
100
AcDbEntity
  8
1
  6
Continuous
100
AcDbLine
 10
142.5339489999998
 20
328.0500289999999
 30
0.0
 11
142.5339489999998
 21
329.050029
 31
0.0
  0
LINE
  5
A5A4
330
A3DA
100
AcDbEntity
  8
1
  6
Continuous
100
AcDbLine
 10
143.533949
 20
306.050029
 30
0.0
 11
148.9942409999999
 21
306.050029
 31
0.0
  0
ARC
  5
A5A5
330
A3DA
100
AcDbEntity
  8
1
  6
Continuous
100
AcDbCircle
 10
143.533949
 20
307.050029
 30
0.0
 40
1.0
100
AcDbArc
 50
179.999982
 51
270.00002
  0
LINE
  5
A5A6
330
A3DA
100
AcDbEntity
  8
1
  6
Continuous
100
AcDbLine
 10
142.5339489999998
 20
307.050029
 30
0.0
 11
142.5339489999998
 21
308.0500289999998
 31
0.0
  0
LINE
  5
A5A7
330
A3DA
100
AcDbEntity
  8
1
  6
Continuous
100
AcDbLine
 10
158.133947
 20
333.5500139999998
 30
0.0
 11
148.9339469999999
 21
333.5500139999998
 31
0.0
  0
LINE
  5
A5A8
330
A3DA
100
AcDbEntity
  8
1
  6
Continuous
100
AcDbLine
 10
150.283949
 20
333.0500139999998
 30
0.0
 11
148.933949
 21
333.5500139999998
 31
0.0
  0
ARC
  5
A5A9
330
A3DA
100
AcDbEntity
  8
1
  6
Continuous
100
AcDbCircle
 10
151.4390429999999
 20
331.8994089999999
 30
0.0
 40
3.0
100
AcDbArc
 50
117.9282299999997
 51
146.6191509999999
  0
LINE
  5
A5AA
330
A3DA
100
AcDbEntity
  8
1
  6
Continuous
100
AcDbLine
 10
158.133947
 20
333.550021
 30
0.0
 11
156.7839449999999
 21
333.050021
 31
0.0
  0
ARC
  5
A5AB
330
A3DA
100
AcDbEntity
  8
1
  6
Continuous
100
AcDbCircle
 10
155.6288509999999
 20
331.8994089999999
 30
0.0
 40
3.0
100
AcDbArc
 50
33.38085000000001
 51
62.07174000000001
  0
LINE
  5
A5AC
330
A3DA
100
AcDbEntity
  8
1
  6
Continuous
100
AcDbLine
 10
157.033949
 20
334.5500139999998
 30
0.0
 11
150.0339469999999
 21
334.5500139999998
 31
0.0
  0
LINE
  5
A5AD
330
A3DA
100
AcDbEntity
  8
1
  6
Continuous
100
AcDbLine
 10
158.283949
 20
303.050044
 30
0.0
 11
158.283949
 21
302.750041
 31
0.0
  0
LINE
  5
A5AE
330
A3DA
100
AcDbEntity
  8
1
  6
Continuous
100
AcDbLine
 10
148.7839489999998
 20
303.050044
 30
0.0
 11
148.7839489999998
 21
302.750041
 31
0.0
  0
ARC
  5
A5AF
330
A3DA
100
AcDbEntity
  8
1
  6
Continuous
100
AcDbCircle
 10
153.533949
 20
306.0125529999999
 30
0.0
 40
5.762504999999999
100
AcDbArc
 50
214.483031
 51
325.5169599999998
  0
LINE
  5
A5B0
330
A3DA
100
AcDbEntity
  8
1
  6
Continuous
100
AcDbLine
 10
158.283949
 20
302.750041
 30
0.0
 11
148.7839489999998
 21
302.750041
 31
0.0
  0
ARC
  5
A5B1
330
A3DA
100
AcDbEntity
  8
1
  6
Continuous
100
AcDbCircle
 10
158.791517
 20
194.4258909999998
 30
0.0
 40
3.0
100
AcDbArc
 50
90.00001800000005
 51
173.2031979999999
  0
LINE
  5
A5B2
330
A3DA
100
AcDbEntity
  8
1
  6
Continuous
100
AcDbLine
 10
155.8126
 20
194.780937
 30
0.0
 11
155.7968849999998
 21
194.4651939999999
 31
0.0
  0
ARC
  5
A5B3
330
A3DA
100
AcDbEntity
  8
1
  6
Continuous
100
AcDbCircle
 10
174.533949
 20
318.0500289999999
 30
0.0
 40
19.0
100
AcDbArc
 50
136.4579239999999
 51
222.873929
  0
LINE
  5
A5B4
330
A3DA
100
AcDbEntity
  8
1
  6
Continuous
100
AcDbLine
 10
390.2552969999999
 20
194.780937
 30
0.0
 11
390.271012
 21
194.4651939999999
 31
0.0
  0
ARC
  5
A5B5
330
A3DA
100
AcDbEntity
  8
1
  6
Continuous
100
AcDbCircle
 10
387.276381
 20
194.4258909999998
 30
0.0
 40
3.0
100
AcDbArc
 50
6.796801999999997
 51
89.99998199999996
  0
ENDSEC
  0
SECTION
  2
OBJECTS
  0
DICTIONARY
  5
A3C8
330
0
100
AcDbDictionary
281
     1
  3
ACAD_CIP_PREVIOUS_PRODUCT_INFO
350
A633
  3
ACAD_COLOR
350
A615
  3
ACAD_DETAILVIEWSTYLE
350
A62E
  3
ACAD_GROUP
350
A3C9
  3
ACAD_LAYOUT
350
A3D5
  3
ACAD_MATERIAL
350
A5E3
  3
ACAD_MLEADERSTYLE
350
A62A
  3
ACAD_MLINESTYLE
350
A3D2
  3
ACAD_PLOTSETTINGS
350
A3D4
  3
ACAD_PLOTSTYLENAME
350
A5E1
  3
ACAD_SCALELIST
350
A618
  3
ACAD_SECTIONVIEWSTYLE
350
A62C
  3
ACAD_TABLESTYLE
350
A616
  3
ACAD_VISUALSTYLE
350
A5FC
  3
ACDB_RECOMPOSE_DATA
350
A651
  3
AcDbVariableDictionary
350
A644
  3
DWGPROPS
350
A652
  0
DICTIONARY
  5
A634
330
A3CC
100
AcDbDictionary
280
     1
281
     1
  3
ADSK_XREC_LAYER_RECONCILED
360
A635
  0
DICTIONARY
  5
A636
330
A3E2
100
AcDbDictionary
280
     1
281
     1
  3
ADSK_XREC_LAYER_RECONCILED
360
A637
  0
DICTIONARY
  5
A638
330
A3E3
100
AcDbDictionary
280
     1
281
     1
  3
ADSK_XREC_LAYER_RECONCILED
360
A639
  0
DICTIONARY
  5
A63A
330
A3E4
100
AcDbDictionary
280
     1
281
     1
  3
ADSK_XREC_LAYER_RECONCILED
360
A63B
  0
DICTIONARY
  5
A63C
330
A3E5
100
AcDbDictionary
280
     1
281
     1
  3
ADSK_XREC_LAYER_RECONCILED
360
A63D
  0
DICTIONARY
  5
A63E
330
A3E6
100
AcDbDictionary
280
     1
281
     1
  3
ADSK_XREC_LAYER_RECONCILED
360
A63F
  0
DICTIONARY
  5
A640
330
A3E7
100
AcDbDictionary
280
     1
281
     1
  3
ADSK_XREC_LAYER_RECONCILED
360
A641
  0
DICTIONARY
  5
A642
330
A3E8
100
AcDbDictionary
280
     1
281
     1
  3
ADSK_XREC_LAYER_RECONCILED
360
A643
  0
DICTIONARY
  5
A5C0
330
A3DA
100
AcDbDictionary
281
     1
  3
ACAD_LAYOUTSELFREF
350
A5DD
  0
DICTIONARY
  5
A5BE
330
A3D6
100
AcDbDictionary
281
     1
  3
ACAD_LAYOUTSELFREF
350
A5DC
  0
XRECORD
  5
A633
102
{ACAD_REACTORS
330
A3C8
102
}
330
A3C8
100
AcDbXrecord
280
     1
300
ACDLT
300
2014
300
ACDLT_F_S
  0
DICTIONARY
  5
A615
102
{ACAD_REACTORS
330
A3C8
102
}
330
A3C8
100
AcDbDictionary
281
     1
  0
DICTIONARY
  5
A62E
102
{ACAD_REACTORS
330
A3C8
102
}
330
A3C8
100
AcDbDictionary
281
     1
  3
Imperial24
350
A62F
  0
DICTIONARY
  5
A3C9
102
{ACAD_REACTORS
330
A3C8
102
}
330
A3C8
100
AcDbDictionary
281
     1
  0
DICTIONARY
  5
A3D5
102
{ACAD_REACTORS
330
A3C8
102
}
330
A3C8
100
AcDbDictionary
281
     1
  3
Model
350
A630
  3
レイアウト1
350
A631
  0
DICTIONARY
  5
A5E3
102
{ACAD_REACTORS
330
A3C8
102
}
330
A3C8
100
AcDbDictionary
281
     1
  3
ByBlock
350
A5EC
  3
ByLayer
350
A5E4
  3
Global
350
A5F4
  0
DICTIONARY
  5
A62A
102
{ACAD_REACTORS
330
A3C8
102
}
330
A3C8
100
AcDbDictionary
281
     1
  3
Standard
350
A62B
  0
DICTIONARY
  5
A3D2
102
{ACAD_REACTORS
330
A3C8
102
}
330
A3C8
100
AcDbDictionary
281
     1
  3
STANDARD
350
A3D3
  0
DICTIONARY
  5
A3D4
102
{ACAD_REACTORS
330
A3C8
102
}
330
A3C8
100
AcDbDictionary
281
     1
  0
ACDBDICTIONARYWDFLT
  5
A5E1
102
{ACAD_REACTORS
330
A3C8
102
}
330
A3C8
100
AcDbDictionary
281
     1
  3
Normal
350
A5E2
100
AcDbDictionaryWithDefault
340
A5E2
  0
DICTIONARY
  5
A618
102
{ACAD_REACTORS
330
A3C8
102
}
330
A3C8
100
AcDbDictionary
281
     1
  3
A0
350
A619
  3
A1
350
A61A
  3
A2
350
A61B
  3
A3
350
A61C
  3
A4
350
A61D
  3
A5
350
A61E
  3
A6
350
A61F
  3
A7
350
A620
  3
A8
350
A621
  3
A9
350
A622
  3
B0
350
A623
  3
B1
350
A624
  3
B2
350
A625
  3
B3
350
A626
  3
B4
350
A627
  3
B5
350
A628
  3
B6
350
A629
  0
DICTIONARY
  5
A62C
102
{ACAD_REACTORS
330
A3C8
102
}
330
A3C8
100
AcDbDictionary
281
     1
  3
Imperial24
350
A62D
  0
DICTIONARY
  5
A616
102
{ACAD_REACTORS
330
A3C8
102
}
330
A3C8
100
AcDbDictionary
281
     1
  3
Standard
350
A617
  0
DICTIONARY
  5
A5FC
102
{ACAD_REACTORS
330
A3C8
102
}
330
A3C8
100
AcDbDictionary
281
     1
  3
2dWireframe
350
A602
  3
Basic
350
A601
  3
Brighten
350
A608
  3
ColorChange
350
A60C
  3
Conceptual
350
A605
  3
Dim
350
A607
  3
EdgeColorOff
350
A614
  3
Facepattern
350
A60B
  3
Flat
350
A5FD
  3
FlatWithEdges
350
A5FE
  3
Gouraud
350
A5FF
  3
GouraudWithEdges
350
A600
  3
Hidden
350
A604
  3
JitterOff
350
A612
  3
Linepattern
350
A60A
  3
OverhangOff
350
A613
  3
Realistic
350
A606
  3
Shaded
350
A611
  3
Shaded with edges
350
A610
  3
Shades of Gray
350
A60D
  3
Sketchy
350
A60E
  3
Thicken
350
A609
  3
Wireframe
350
A603
  3
X-Ray
350
A60F
  0
XRECORD
  5
A651
102
{ACAD_REACTORS
330
A3C8
102
}
330
A3C8
100
AcDbXrecord
280
     1
 90
        1
330
A617
  0
DICTIONARY
  5
A644
102
{ACAD_REACTORS
330
A3C8
102
}
330
A3C8
100
AcDbDictionary
281
     1
  3
CANNOSCALE
350
A649
  3
CMLEADERSTYLE
350
A646
  3
CTABLESTYLE
350
A645
  3
CVIEWDETAILSTYLE
350
A647
  3
CVIEWSECTIONSTYLE
350
A648
  3
DIMASSOC
350
A64C
  3
INDEXCTL
350
A64B
  3
SORTENTS
350
A64A
  3
XCLIPFRAME
350
A64D
  0
XRECORD
  5
A652
102
{ACAD_REACTORS
330
A3C8
102
}
330
A3C8
100
AcDbXrecord
280
     1
  1
DWGPROPS COOKIE
  2

  3

  4

  6

  7

  8
Yoshitsune
  9

300
=
301
=
302
=
303
=
304
=
305
=
306
=
307
=
308
=
309
=
 40
0.1400631481481481
 41
2451301.438380324
 42
2457192.690127998
  1

 90
        0
  0
XRECORD
  5
A635
102
{ACAD_REACTORS
330
A634
102
}
330
A634
100
AcDbXrecord
280
     1
290
     1
  0
XRECORD
  5
A637
102
{ACAD_REACTORS
330
A636
102
}
330
A636
100
AcDbXrecord
280
     1
290
     1
  0
XRECORD
  5
A639
102
{ACAD_REACTORS
330
A638
102
}
330
A638
100
AcDbXrecord
280
     1
290
     1
  0
XRECORD
  5
A63B
102
{ACAD_REACTORS
330
A63A
102
}
330
A63A
100
AcDbXrecord
280
     1
290
     1
  0
XRECORD
  5
A63D
102
{ACAD_REACTORS
330
A63C
102
}
330
A63C
100
AcDbXrecord
280
     1
290
     1
  0
XRECORD
  5
A63F
102
{ACAD_REACTORS
330
A63E
102
}
330
A63E
100
AcDbXrecord
280
     1
290
     1
  0
XRECORD
  5
A641
102
{ACAD_REACTORS
330
A640
102
}
330
A640
100
AcDbXrecord
280
     1
290
     1
  0
XRECORD
  5
A643
102
{ACAD_REACTORS
330
A642
102
}
330
A642
100
AcDbXrecord
280
     1
290
     1
  0
XRECORD
  5
A5DD
102
{ACAD_REACTORS
330
A5C0
102
}
330
A5C0
100
AcDbXrecord
280
     1
340
A3DA
  0
XRECORD
  5
A5DC
102
{ACAD_REACTORS
330
A5BE
102
}
330
A5BE
100
AcDbXrecord
280
     1
340
A3D6
  0
ACDBDETAILVIEWSTYLE
  5
A62F
102
{ACAD_XDICTIONARY
360
A68A
102
}
102
{ACAD_REACTORS
330
A62E
102
}
330
A62E
100
AcDbModelDocViewStyle
 70
     0
  3
Imperial24
290
     0
100
AcDbDetailViewStyle
 70
     0
 71
     0
 90
        3
 71
     1
340
A3CD
 40
0.24
340
0
 40
0.24
300

 40
0.36
280
     3
 71
     2
340
A3D1
 90
       25
 71
     3
340
A3CD
 40
0.24
 90
        1
 40
0.75
 90
        1
300
%<\AcVar ViewType \f "%tc1">% %<\AcVar ViewDetailId>%\PSCALE %<\AcVar ViewScale \f "%sn">%
 71
     4
340
A3D1
 90
       25
340
A3D1
 90
       25
280
     0
  0
LAYOUT
  5
A630
102
{ACAD_XDICTIONARY
360
A68C
102
}
102
{ACAD_REACTORS
330
A3D5
102
}
330
A3D5
100
AcDbPlotSettings
  1

  2
Canon LBP9100C
  4

  6

 40
0.0
 41
0.0
 42
0.0
 43
0.0
 44
0.0
 45
0.0
 46
0.0
 47
0.0
 48
0.0
 49
0.0
140
0.0
141
0.0
142
1.0
143
1.0
 70
  1712
 72
     0
 73
     0
 74
     0
  7

 75
     0
147
1.0
148
0.0
149
0.0
100
AcDbLayout
  1
Model
 70
     1
 71
     0
 10
0.0
 20
0.0
 11
12.0
 21
9.0
 12
0.0
 22
0.0
 32
0.0
 14
0.0
 24
0.0
 34
0.0
 15
0.0
 25
0.0
 35
0.0
146
0.0
 13
0.0
 23
0.0
 33
0.0
 16
1.0
 26
0.0
 36
0.0
 17
0.0
 27
1.0
 37
0.0
 76
     0
330
A3DA
331
A5DB
  0
LAYOUT
  5
A631
102
{ACAD_XDICTIONARY
360
A68E
102
}
102
{ACAD_REACTORS
330
A3D5
102
}
330
A3D5
100
AcDbPlotSettings
  1

  2
Canon LBP9100C
  4

  6

 40
0.0
 41
0.0
 42
0.0
 43
0.0
 44
0.0
 45
0.0
 46
0.0
 47
0.0
 48
0.0
 49
0.0
140
0.0
141
0.0
142
1.0
143
1.0
 70
   688
 72
     0
 73
     0
 74
     5
  7

 75
    16
147
1.0
148
0.0
149
0.0
100
AcDbLayout
  1
レイアウト1
 70
     0
 71
     1
 10
0.0
 20
0.0
 11
420.0
 21
297.0
 12
0.0
 22
0.0
 32
0.0
 14
1.000000000000000E+20
 24
1.000000000000000E+20
 34
1.000000000000000E+20
 15
-1.000000000000000E+20
 25
-1.000000000000000E+20
 35
-1.000000000000000E+20
146
0.0
 13
0.0
 23
0.0
 33
0.0
 16
1.0
 26
0.0
 36
0.0
 17
0.0
 27
1.0
 37
0.0
 76
     0
330
A3D6
  0
MATERIAL
  5
A5EC
102
{ACAD_XDICTIONARY
360
A5ED
102
}
102
{ACAD_REACTORS
330
A5E3
102
}
330
A5E3
100
AcDbMaterial
  1
ByBlock
 72
     0
 43
0.0208333333333333
 43
0.0
 43
0.0
 43
0.0
 43
0.0
 43
0.0208333333333333
 43
0.0
 43
0.0
 43
0.0
 43
0.0
 43
1.0
 43
0.0
 43
0.0
 43
0.0
 43
0.0
 43
1.0
 77
     0
 47
0.0208333333333333
 47
0.0
 47
0.0
 47
0.0
 47
0.0
 47
0.0208333333333333
 47
0.0
 47
0.0
 47
0.0
 47
0.0
 47
1.0
 47
0.0
 47
0.0
 47
0.0
 47
0.0
 47
1.0
171
     0
 49
0.0208333333333333
 49
0.0
 49
0.0
 49
0.0
 49
0.0
 49
0.0208333333333333
 49
0.0
 49
0.0
 49
0.0
 49
0.0
 49
1.0
 49
0.0
 49
0.0
 49
0.0
 49
0.0
 49
1.0
175
     0
142
0.0208333333333333
142
0.0
142
0.0
142
0.0
142
0.0
142
0.0208333333333333
142
0.0
142
0.0
142
0.0
142
0.0
142
1.0
142
0.0
142
0.0
142
0.0
142
0.0
142
1.0
179
     0
144
0.0208333333333333
144
0.0
144
0.0
144
0.0
144
0.0
144
0.0208333333333333
144
0.0
144
0.0
144
0.0
144
0.0
144
1.0
144
0.0
144
0.0
144
0.0
144
0.0
144
1.0
147
0.0208333333333333
147
0.0
147
0.0
147
0.0
147
0.0
147
0.0208333333333333
147
0.0
147
0.0
147
0.0
147
0.0
147
1.0
147
0.0
147
0.0
147
0.0
147
0.0
147
1.0
  0
MATERIAL
  5
A5E4
102
{ACAD_XDICTIONARY
360
A5E5
102
}
102
{ACAD_REACTORS
330
A5E3
102
}
330
A5E3
100
AcDbMaterial
  1
ByLayer
 72
     0
 43
0.0208333333333333
 43
0.0
 43
0.0
 43
0.0
 43
0.0
 43
0.0208333333333333
 43
0.0
 43
0.0
 43
0.0
 43
0.0
 43
1.0
 43
0.0
 43
0.0
 43
0.0
 43
0.0
 43
1.0
 77
     0
 47
0.0208333333333333
 47
0.0
 47
0.0
 47
0.0
 47
0.0
 47
0.0208333333333333
 47
0.0
 47
0.0
 47
0.0
 47
0.0
 47
1.0
 47
0.0
 47
0.0
 47
0.0
 47
0.0
 47
1.0
171
     0
 49
0.0208333333333333
 49
0.0
 49
0.0
 49
0.0
 49
0.0
 49
0.0208333333333333
 49
0.0
 49
0.0
 49
0.0
 49
0.0
 49
1.0
 49
0.0
 49
0.0
 49
0.0
 49
0.0
 49
1.0
175
     0
142
0.0208333333333333
142
0.0
142
0.0
142
0.0
142
0.0
142
0.0208333333333333
142
0.0
142
0.0
142
0.0
142
0.0
142
1.0
142
0.0
142
0.0
142
0.0
142
0.0
142
1.0
179
     0
144
0.0208333333333333
144
0.0
144
0.0
144
0.0
144
0.0
144
0.0208333333333333
144
0.0
144
0.0
144
0.0
144
0.0
144
1.0
144
0.0
144
0.0
144
0.0
144
0.0
144
1.0
147
0.0208333333333333
147
0.0
147
0.0
147
0.0
147
0.0
147
0.0208333333333333
147
0.0
147
0.0
147
0.0
147
0.0
147
1.0
147
0.0
147
0.0
147
0.0
147
0.0
147
1.0
  0
MATERIAL
  5
A5F4
102
{ACAD_XDICTIONARY
360
A5F5
102
}
102
{ACAD_REACTORS
330
A5E3
102
}
330
A5E3
100
AcDbMaterial
  1
Global
 72
     0
 43
0.0208333333333333
 43
0.0
 43
0.0
 43
0.0
 43
0.0
 43
0.0208333333333333
 43
0.0
 43
0.0
 43
0.0
 43
0.0
 43
1.0
 43
0.0
 43
0.0
 43
0.0
 43
0.0
 43
1.0
 77
     0
 47
0.0208333333333333
 47
0.0
 47
0.0
 47
0.0
 47
0.0
 47
0.0208333333333333
 47
0.0
 47
0.0
 47
0.0
 47
0.0
 47
1.0
 47
0.0
 47
0.0
 47
0.0
 47
0.0
 47
1.0
171
     0
 49
0.0208333333333333
 49
0.0
 49
0.0
 49
0.0
 49
0.0
 49
0.0208333333333333
 49
0.0
 49
0.0
 49
0.0
 49
0.0
 49
1.0
 49
0.0
 49
0.0
 49
0.0
 49
0.0
 49
1.0
175
     0
142
0.0208333333333333
142
0.0
142
0.0
142
0.0
142
0.0
142
0.0208333333333333
142
0.0
142
0.0
142
0.0
142
0.0
142
1.0
142
0.0
142
0.0
142
0.0
142
0.0
142
1.0
179
     0
144
0.0208333333333333
144
0.0
144
0.0
144
0.0
144
0.0
144
0.0208333333333333
144
0.0
144
0.0
144
0.0
144
0.0
144
1.0
144
0.0
144
0.0
144
0.0
144
0.0
144
1.0
147
0.0208333333333333
147
0.0
147
0.0
147
0.0
147
0.0
147
0.0208333333333333
147
0.0
147
0.0
147
0.0
147
0.0
147
1.0
147
0.0
147
0.0
147
0.0
147
0.0
147
1.0
  0
MLEADERSTYLE
  5
A62B
102
{ACAD_REACTORS
330
A62A
102
}
330
A62A
100
AcDbMLeaderStyle
170
     2
171
     1
172
     0
 90
        2
 40
0.0
 41
0.0
173
     1
 91
-1056964608
340
A3CF
 92
       -2
290
     1
 42
0.09
291
     1
 43
0.36
  3
Standard
 44
0.18
300

342
A3CD
174
     1
178
     6
175
     1
176
     0
 93
-1056964608
 45
0.18
292
     0
297
     0
 46
0.18
 94
-1056964608
 47
1.0
 49
1.0
140
1.0
293
     1
141
0.0
294
     1
177
     0
142
1.0
295
     0
296
     0
143
0.125
1001
ACAD_MLEADERVER
1070
     2
  0
MLINESTYLE
  5
A3D3
102
{ACAD_REACTORS
330
A3D2
102
}
330
A3D2
100
AcDbMlineStyle
  2
STANDARD
 70
     0
  3

 62
   256
 51
90.0
 52
90.0
 71
     2
 49
0.5
 62
   256
  6
BYLAYER
 49
-0.5
 62
   256
  6
BYLAYER
  0
ACDBPLACEHOLDER
  5
A5E2
102
{ACAD_REACTORS
330
A5E1
102
}
330
A5E1
  0
SCALE
  5
A619
102
{ACAD_REACTORS
330
A618
102
}
330
A618
100
AcDbScale
 70
     0
300
1:1
140
1.0
141
1.0
290
     1
  0
SCALE
  5
A61A
102
{ACAD_REACTORS
330
A618
102
}
330
A618
100
AcDbScale
 70
     0
300
1/128" = 1'-0"
140
0.0078125
141
12.0
290
     0
  0
SCALE
  5
A61B
102
{ACAD_REACTORS
330
A618
102
}
330
A618
100
AcDbScale
 70
     0
300
1/64" = 1'-0"
140
0.015625
141
12.0
290
     0
  0
SCALE
  5
A61C
102
{ACAD_REACTORS
330
A618
102
}
330
A618
100
AcDbScale
 70
     0
300
1/32" = 1'-0"
140
0.03125
141
12.0
290
     0
  0
SCALE
  5
A61D
102
{ACAD_REACTORS
330
A618
102
}
330
A618
100
AcDbScale
 70
     0
300
1/16" = 1'-0"
140
0.0625
141
12.0
290
     0
  0
SCALE
  5
A61E
102
{ACAD_REACTORS
330
A618
102
}
330
A618
100
AcDbScale
 70
     0
300
3/32" = 1'-0"
140
0.09375
141
12.0
290
     0
  0
SCALE
  5
A61F
102
{ACAD_REACTORS
330
A618
102
}
330
A618
100
AcDbScale
 70
     0
300
1/8" = 1'-0"
140
0.125
141
12.0
290
     0
  0
SCALE
  5
A620
102
{ACAD_REACTORS
330
A618
102
}
330
A618
100
AcDbScale
 70
     0
300
3/16" = 1'-0"
140
0.1875
141
12.0
290
     0
  0
SCALE
  5
A621
102
{ACAD_REACTORS
330
A618
102
}
330
A618
100
AcDbScale
 70
     0
300
1/4" = 1'-0"
140
0.25
141
12.0
290
     0
  0
SCALE
  5
A622
102
{ACAD_REACTORS
330
A618
102
}
330
A618
100
AcDbScale
 70
     0
300
3/8" = 1'-0"
140
0.375
141
12.0
290
     0
  0
SCALE
  5
A623
102
{ACAD_REACTORS
330
A618
102
}
330
A618
100
AcDbScale
 70
     0
300
1/2" = 1'-0"
140
0.5
141
12.0
290
     0
  0
SCALE
  5
A624
102
{ACAD_REACTORS
330
A618
102
}
330
A618
100
AcDbScale
 70
     0
300
3/4" = 1'-0"
140
0.75
141
12.0
290
     0
  0
SCALE
  5
A625
102
{ACAD_REACTORS
330
A618
102
}
330
A618
100
AcDbScale
 70
     0
300
1" = 1'-0"
140
1.0
141
12.0
290
     0
  0
SCALE
  5
A626
102
{ACAD_REACTORS
330
A618
102
}
330
A618
100
AcDbScale
 70
     0
300
1-1/2" = 1'-0"
140
1.5
141
12.0
290
     0
  0
SCALE
  5
A627
102
{ACAD_REACTORS
330
A618
102
}
330
A618
100
AcDbScale
 70
     0
300
3" = 1'-0"
140
3.0
141
12.0
290
     0
  0
SCALE
  5
A628
102
{ACAD_REACTORS
330
A618
102
}
330
A618
100
AcDbScale
 70
     0
300
6" = 1'-0"
140
6.0
141
12.0
290
     0
  0
SCALE
  5
A629
102
{ACAD_REACTORS
330
A618
102
}
330
A618
100
AcDbScale
 70
     0
300
1'-0" = 1'-0"
140
12.0
141
12.0
290
     0
  0
ACDBSECTIONVIEWSTYLE
  5
A62D
102
{ACAD_XDICTIONARY
360
A688
102
}
102
{ACAD_REACTORS
330
A62C
102
}
330
A62C
100
AcDbModelDocViewStyle
 70
     0
  3
Imperial24
290
     0
100
AcDbSectionViewStyle
 70
     0
 71
     0
 90
       78
 71
     1
340
A3CD
 40
0.24
340
0
340
0
 40
0.24
300
I, O, Q, S, X, Z
 40
0.48
 90
        3
 40
0.18
 90
        1
 71
     2
340
A3D1
 90
       25
340
A3D1
 90
       50
 40
0.24
 40
0.0
 40
0.24
 71
     3
340
A3CD
 40
0.24
 90
        1
 40
0.75
 90
        1
300
%<\AcVar ViewType \f "%tc1">% %<\AcVar ViewSectionStartId>%-%<\AcVar ViewSectionEndId>%\PSCALE %<\AcVar ViewScale \f "%sn">%
 71
     4
300
ANSI31
 40
1.0
 90
        0
290
     0
290
     0
 90
        6
 40
0.0
 40
1.570796326794896
 40
0.2617993877991494
 40
1.308996938995747
 40
-0.2617993877991494
 40
1.832595714594046
  0
TABLESTYLE
  5
A617
102
{ACAD_XDICTIONARY
360
A64F
102
}
102
{ACAD_REACTORS
330
A616
102
}
330
A616
100
AcDbTableStyle
  3
Standard
 70
     0
 71
     0
 40
0.06
 41
0.06
280
     0
281
     0
  7
STANDARD
140
0.18
170
     2
 62
     0
 63
     7
283
     0
274
    -2
284
     1
 64
     0
275
    -2
285
     1
 65
     0
276
    -2
286
     1
 66
     0
277
    -2
287
     1
 67
     0
278
    -2
288
     1
 68
     0
279
    -2
289
     1
 69
     0
  7
STANDARD
140
0.25
170
     5
 62
     0
 63
     7
283
     0
274
    -2
284
     1
 64
     0
275
    -2
285
     1
 65
     0
276
    -2
286
     1
 66
     0
277
    -2
287
     1
 67
     0
278
    -2
288
     1
 68
     0
279
    -2
289
     1
 69
     0
  7
STANDARD
140
0.18
170
     5
 62
     0
 63
     7
283
     0
274
    -2
284
     1
 64
     0
275
    -2
285
     1
 65
     0
276
    -2
286
     1
 66
     0
277
    -2
287
     1
 67
     0
278
    -2
288
     1
 68
     0
279
    -2
289
     1
 69
     0
  0
VISUALSTYLE
  5
A602
102
{ACAD_XDICTIONARY
360
A660
102
}
102
{ACAD_REACTORS
330
A5FC
102
}
330
A5FC
100
AcDbVisualStyle
  2
2dWireframe
 70
     4
 71
     0
 72
     2
 73
     0
 90
        0
 40
-0.6
 41
-30.0
 62
     5
 63
     7
 74
     1
 91
        4
 64
     7
 65
   257
 75
     1
175
     1
 42
1.0
 92
        0
 66
   257
 43
1.0
 76
     1
 77
     6
 78
     2
 67
     7
 79
     5
170
     0
171
     0
290
     0
174
     0
 93
        1
 44
0.0
173
     0
291
     0
 45
0.0
1001
ACAD
1000
AcDbSavedByObjectVersion
1070
     0
  0
VISUALSTYLE
  5
A601
102
{ACAD_XDICTIONARY
360
A65E
102
}
102
{ACAD_REACTORS
330
A5FC
102
}
330
A5FC
100
AcDbVisualStyle
  2
Basic
 70
     7
 71
     1
 72
     0
 73
     1
 90
        0
 40
-0.6
 41
-30.0
 62
     5
 63
     7
 74
     0
 91
        4
 64
     7
 65
   257
 75
     1
175
     1
 42
1.0
 92
        8
 66
     7
 43
1.0
 76
     1
 77
     6
 78
     2
 67
     7
 79
     5
170
     0
171
     0
290
     0
174
     0
 93
        1
 44
0.0
173
     0
291
     1
 45
0.0
1001
ACAD
1000
AcDbSavedByObjectVersion
1070
     0
  0
VISUALSTYLE
  5
A608
102
{ACAD_XDICTIONARY
360
A66C
102
}
102
{ACAD_REACTORS
330
A5FC
102
}
330
A5FC
100
AcDbVisualStyle
  2
Brighten
 70
    12
 71
     2
 72
     2
 73
     0
 90
        0
 40
-0.6
 41
-30.0
 62
     5
 63
     7
 74
     1
 91
        4
 64
     7
 65
   257
 75
     1
175
     1
 42
1.0
 92
        8
 66
     7
 43
1.0
 76
     1
 77
     6
 78
     2
 67
     7
 79
     5
170
     0
171
     0
290
     0
174
     0
 93
        1
 44
50.0
173
     0
291
     1
 45
0.0
1001
ACAD
1000
AcDbSavedByObjectVersion
1070
     0
  0
VISUALSTYLE
  5
A60C
102
{ACAD_XDICTIONARY
360
A674
102
}
102
{ACAD_REACTORS
330
A5FC
102
}
330
A5FC
100
AcDbVisualStyle
  2
ColorChange
 70
    16
 71
     2
 72
     2
 73
     3
 90
        0
 40
-0.6
 41
-30.0
 62
     5
 63
     8
 74
     1
 91
        4
 64
     7
 65
   257
 75
     1
175
     1
 42
1.0
 92
        8
 66
     8
 43
1.0
 76
     1
 77
     6
 78
     2
 67
     7
 79
     5
170
     0
171
     0
290
     0
174
     0
 93
        1
 44
0.0
173
     0
291
     1
 45
0.0
1001
ACAD
1000
AcDbSavedByObjectVersion
1070
     0
  0
VISUALSTYLE
  5
A605
102
{ACAD_XDICTIONARY
360
A666
102
}
102
{ACAD_REACTORS
330
A5FC
102
}
330
A5FC
100
AcDbVisualStyle
  2
Conceptual
 70
     9
 71
     3
 72
     2
 73
     0
 90
        0
 40
-0.6
 41
-30.0
 62
     5
 63
     7
 74
     2
 91
        2
 64
     7
 65
   257
 75
     1
175
     1
 42
179.0
 92
        8
 66
     7
 43
1.0
 76
     1
 77
     6
 78
     2
 67
     7
 79
     3
170
     0
171
     0
290
     0
174
     0
 93
        1
 44
0.0
173
     0
291
     0
 45
0.0
1001
ACAD
1000
AcDbSavedByObjectVersion
1070
     0
  0
VISUALSTYLE
  5
A607
102
{ACAD_XDICTIONARY
360
A66A
102
}
102
{ACAD_REACTORS
330
A5FC
102
}
330
A5FC
100
AcDbVisualStyle
  2
Dim
 70
    11
 71
     2
 72
     2
 73
     0
 90
        0
 40
-0.6
 41
-30.0
 62
     5
 63
     7
 74
     1
 91
        4
 64
     7
 65
   257
 75
     1
175
     1
 42
1.0
 92
        8
 66
     7
 43
1.0
 76
     1
 77
     6
 78
     2
 67
     7
 79
     5
170
     0
171
     0
290
     0
174
     0
 93
        1
 44
-50.0
173
     0
291
     1
 45
0.0
1001
ACAD
1000
AcDbSavedByObjectVersion
1070
     0
  0
VISUALSTYLE
  5
A614
102
{ACAD_XDICTIONARY
360
A684
102
}
102
{ACAD_REACTORS
330
A5FC
102
}
330
A5FC
100
AcDbVisualStyle
  2
EdgeColorOff
 70
    22
 71
     2
 72
     2
 73
     0
 90
        0
 40
-0.6
 41
-30.0
 62
     5
 63
     7
 74
     1
 91
        4
 64
     7
 65
   257
 75
     1
175
     1
 42
1.0
 92
        8
 66
     7
 43
1.0
 76
     1
 77
     6
 78
     2
 67
     7
 79
     5
170
     0
171
     0
290
     0
174
     0
 93
        1
 44
0.0
173
     0
291
     1
 45
0.0
1001
ACAD
1000
AcDbSavedByObjectVersion
1070
     0
  0
VISUALSTYLE
  5
A60B
102
{ACAD_XDICTIONARY
360
A672
102
}
102
{ACAD_REACTORS
330
A5FC
102
}
330
A5FC
100
AcDbVisualStyle
  2
Facepattern
 70
    15
 71
     2
 72
     2
 73
     0
 90
        0
 40
-0.6
 41
-30.0
 62
     5
 63
     7
 74
     1
 91
        4
 64
     7
 65
   257
 75
     1
175
     1
 42
1.0
 92
        8
 66
     7
 43
1.0
 76
     1
 77
     6
 78
     2
 67
     7
 79
     5
170
     0
171
     0
290
     0
174
     0
 93
        1
 44
0.0
173
     0
291
     1
 45
0.0
1001
ACAD
1000
AcDbSavedByObjectVersion
1070
     0
  0
VISUALSTYLE
  5
A5FD
102
{ACAD_XDICTIONARY
360
A656
102
}
102
{ACAD_REACTORS
330
A5FC
102
}
330
A5FC
100
AcDbVisualStyle
  2
Flat
 70
     0
 71
     2
 72
     1
 73
     1
 90
        2
 40
-0.6
 41
30.0
 62
     5
 63
     7
 74
     0
 91
        0
 64
     7
 65
   257
 75
     1
175
     1
 42
1.0
 92
        8
 66
     7
 43
1.0
 76
     1
 77
     6
 78
     2
 67
     7
 79
     5
170
     0
171
     0
290
     0
174
     0
 93
       13
 44
0.0
173
     0
291
     1
 45
0.0
1001
ACAD
1000
AcDbSavedByObjectVersion
1070
     0
  0
VISUALSTYLE
  5
A5FE
102
{ACAD_XDICTIONARY
360
A658
102
}
102
{ACAD_REACTORS
330
A5FC
102
}
330
A5FC
100
AcDbVisualStyle
  2
FlatWithEdges
 70
     1
 71
     2
 72
     1
 73
     1
 90
        2
 40
-0.6
 41
30.0
 62
     5
 63
     7
 74
     1
 91
        0
 64
     7
 65
   257
 75
     1
175
     1
 42
1.0
 92
        0
 66
   257
 43
1.0
 76
     1
 77
     6
 78
     2
 67
     7
 79
     5
170
     0
171
     0
290
     0
174
     0
 93
       13
 44
0.0
173
     0
291
     1
 45
0.0
1001
ACAD
1000
AcDbSavedByObjectVersion
1070
     0
  0
VISUALSTYLE
  5
A5FF
102
{ACAD_XDICTIONARY
360
A65A
102
}
102
{ACAD_REACTORS
330
A5FC
102
}
330
A5FC
100
AcDbVisualStyle
  2
Gouraud
 70
     2
 71
     2
 72
     2
 73
     1
 90
        2
 40
-0.6
 41
30.0
 62
     5
 63
     7
 74
     0
 91
        0
 64
     7
 65
   257
 75
     1
175
     1
 42
1.0
 92
        0
 66
     7
 43
1.0
 76
     1
 77
     6
 78
     2
 67
     7
 79
     5
170
     0
171
     0
290
     0
174
     0
 93
       13
 44
0.0
173
     0
291
     1
 45
0.0
1001
ACAD
1000
AcDbSavedByObjectVersion
1070
     0
  0
VISUALSTYLE
  5
A600
102
{ACAD_XDICTIONARY
360
A65C
102
}
102
{ACAD_REACTORS
330
A5FC
102
}
330
A5FC
100
AcDbVisualStyle
  2
GouraudWithEdges
 70
     3
 71
     2
 72
     2
 73
     1
 90
        2
 40
-0.6
 41
30.0
 62
     5
 63
     7
 74
     1
 91
        0
 64
     7
 65
   257
 75
     1
175
     1
 42
1.0
 92
        0
 66
   257
 43
1.0
 76
     1
 77
     6
 78
     2
 67
     7
 79
     5
170
     0
171
     0
290
     0
174
     0
 93
       13
 44
0.0
173
     0
291
     1
 45
0.0
1001
ACAD
1000
AcDbSavedByObjectVersion
1070
     0
  0
VISUALSTYLE
  5
A604
102
{ACAD_XDICTIONARY
360
A664
102
}
102
{ACAD_REACTORS
330
A5FC
102
}
330
A5FC
100
AcDbVisualStyle
  2
Hidden
 70
     6
 71
     1
 72
     2
 73
     2
 90
        0
 40
-0.6
 41
-30.0
 62
     5
 63
     7
 74
     2
 91
        2
 64
     7
 65
   257
 75
     2
175
     1
 42
40.0
 92
        0
 66
   257
 43
1.0
 76
     1
 77
     6
 78
     2
 67
     7
 79
     3
170
     0
171
     0
290
     0
174
     0
 93
        1
 44
0.0
173
     0
291
     0
 45
0.0
1001
ACAD
1000
AcDbSavedByObjectVersion
1070
     0
  0
VISUALSTYLE
  5
A612
102
{ACAD_XDICTIONARY
360
A680
102
}
102
{ACAD_REACTORS
330
A5FC
102
}
330
A5FC
100
AcDbVisualStyle
  2
JitterOff
 70
    20
 71
     2
 72
     2
 73
     0
 90
        0
 40
-0.6
 41
-30.0
 62
     5
 63
     7
 74
     1
 91
        4
 64
     7
 65
   257
 75
     1
175
     1
 42
1.0
 92
       10
 66
     7
 43
1.0
 76
     1
 77
     6
 78
     2
 67
     7
 79
     5
170
     0
171
     0
290
     0
174
     0
 93
        1
 44
0.0
173
     0
291
     1
 45
0.0
1001
ACAD
1000
AcDbSavedByObjectVersion
1070
     0
  0
VISUALSTYLE
  5
A60A
102
{ACAD_XDICTIONARY
360
A670
102
}
102
{ACAD_REACTORS
330
A5FC
102
}
330
A5FC
100
AcDbVisualStyle
  2
Linepattern
 70
    14
 71
     2
 72
     2
 73
     0
 90
        0
 40
-0.6
 41
-30.0
 62
     5
 63
     7
 74
     1
 91
        4
 64
     7
 65
   257
 75
     7
175
     7
 42
1.0
 92
        8
 66
     7
 43
1.0
 76
     1
 77
     6
 78
     2
 67
     7
 79
     5
170
     0
171
     0
290
     0
174
     0
 93
        1
 44
0.0
173
     0
291
     1
 45
0.0
1001
ACAD
1000
AcDbSavedByObjectVersion
1070
     0
  0
VISUALSTYLE
  5
A613
102
{ACAD_XDICTIONARY
360
A682
102
}
102
{ACAD_REACTORS
330
A5FC
102
}
330
A5FC
100
AcDbVisualStyle
  2
OverhangOff
 70
    21
 71
     2
 72
     2
 73
     0
 90
        0
 40
-0.6
 41
-30.0
 62
     5
 63
     7
 74
     1
 91
        4
 64
     7
 65
   257
 75
     1
175
     1
 42
1.0
 92
        9
 66
     7
 43
1.0
 76
     1
 77
     6
 78
     2
 67
     7
 79
     5
170
     0
171
     0
290
     0
174
     0
 93
        1
 44
0.0
173
     0
291
     1
 45
0.0
1001
ACAD
1000
AcDbSavedByObjectVersion
1070
     0
  0
VISUALSTYLE
  5
A606
102
{ACAD_XDICTIONARY
360
A668
102
}
102
{ACAD_REACTORS
330
A5FC
102
}
330
A5FC
100
AcDbVisualStyle
  2
Realistic
 70
     8
 71
     2
 72
     3
 73
     0
 90
        2
 40
-0.6
 41
30.0
 62
     5
 63
     7
 74
     0
 91
        0
 64
     7
 65
   257
 75
     1
175
     1
 42
1.0
 92
        8
 66
   257
 43
1.0
 76
     1
 77
     6
 78
     2
 67
     7
 79
     3
170
     0
171
     0
290
     0
174
     0
 93
       13
 44
0.0
173
     0
291
     0
 45
0.0
1001
ACAD
1000
AcDbSavedByObjectVersion
1070
     0
  0
VISUALSTYLE
  5
A611
102
{ACAD_XDICTIONARY
360
A67E
102
}
102
{ACAD_REACTORS
330
A5FC
102
}
330
A5FC
100
AcDbVisualStyle
  2
Shaded
 70
    27
 71
     2
 72
     2
 73
     1
 90
        2
 40
-0.6
 41
30.0
 62
     5
 63
     7
 74
     0
 91
        4
 64
     7
 65
   257
 75
     1
175
     1
 42
1.0
 92
        8
 66
   257
 43
1.0
 76
     1
 77
     6
 78
     2
 67
     8
 79
     3
170
     0
171
     0
290
     0
174
     0
 93
        5
 44
0.0
173
     0
291
     0
 45
0.0
1001
ACAD
1000
AcDbSavedByObjectVersion
1070
     0
  0
VISUALSTYLE
  5
A610
102
{ACAD_XDICTIONARY
360
A67C
102
}
102
{ACAD_REACTORS
330
A5FC
102
}
330
A5FC
100
AcDbVisualStyle
  2
Shaded with edges
 70
    26
 71
     2
 72
     2
 73
     1
 90
        2
 40
-0.6
 41
30.0
 62
     5
 63
     7
 74
     1
 91
       10
 64
     7
 65
   257
 75
     2
175
     1
 42
1.0
 92
        8
 66
   257
 43
1.0
 76
     1
 77
     6
 78
     2
 67
     7
 79
     3
170
     0
171
     0
290
     0
174
     0
 93
        5
 44
0.0
173
     0
291
     0
 45
0.0
1001
ACAD
1000
AcDbSavedByObjectVersion
1070
     0
  0
VISUALSTYLE
  5
A60D
102
{ACAD_XDICTIONARY
360
A676
102
}
102
{ACAD_REACTORS
330
A5FC
102
}
330
A5FC
100
AcDbVisualStyle
  2
Shades of Gray
 70
    23
 71
     2
 72
     2
 73
     3
 90
        0
 40
-0.6
 41
-30.0
 62
     5
 63
     7
 74
     2
 91
        2
 64
     7
 65
     7
 75
     1
175
     1
 42
40.0
 92
        8
 66
     7
 43
1.0
 76
     1
 77
     6
 78
     2
 67
     7
 79
     3
170
     0
171
     0
290
     0
174
     0
 93
        1
 44
0.0
173
     0
291
     0
 45
0.0
1001
ACAD
1000
AcDbSavedByObjectVersion
1070
     0
  0
VISUALSTYLE
  5
A60E
102
{ACAD_XDICTIONARY
360
A678
102
}
102
{ACAD_REACTORS
330
A5FC
102
}
330
A5FC
100
AcDbVisualStyle
  2
Sketchy
 70
    24
 71
     1
 72
     2
 73
     2
 90
        0
 40
-0.6
 41
-30.0
 62
     5
 63
     7
 74
     2
 91
        2
 64
     7
 65
     7
 75
     1
175
     1
 42
40.0
 92
       11
 66
     7
 43
1.0
 76
     1
 77
     6
 78
     2
 67
     7
 79
     6
170
     0
171
     0
290
     0
174
     0
 93
        1
 44
0.0
173
     0
291
     0
 45
0.0
1001
ACAD
1000
AcDbSavedByObjectVersion
1070
     0
  0
VISUALSTYLE
  5
A609
102
{ACAD_XDICTIONARY
360
A66E
102
}
102
{ACAD_REACTORS
330
A5FC
102
}
330
A5FC
100
AcDbVisualStyle
  2
Thicken
 70
    13
 71
     2
 72
     2
 73
     0
 90
        0
 40
-0.6
 41
-30.0
 62
     5
 63
     7
 74
     1
 91
        4
 64
     7
 65
   257
 75
     1
175
     1
 42
1.0
 92
       12
 66
     7
 43
1.0
 76
     1
 77
     6
 78
     2
 67
     7
 79
     5
170
     0
171
     0
290
     0
174
     0
 93
        1
 44
0.0
173
     0
291
     1
 45
0.0
1001
ACAD
1000
AcDbSavedByObjectVersion
1070
     0
  0
VISUALSTYLE
  5
A603
102
{ACAD_XDICTIONARY
360
A662
102
}
102
{ACAD_REACTORS
330
A5FC
102
}
330
A5FC
100
AcDbVisualStyle
  2
Wireframe
 70
     5
 71
     0
 72
     2
 73
     0
 90
        0
 40
-0.6
 41
-30.0
 62
     5
 63
     7
 74
     1
 91
        4
 64
     7
 65
   257
 75
     1
175
     1
 42
1.0
 92
        0
 66
   257
 43
1.0
 76
     1
 77
     6
 78
     2
 67
     7
 79
     3
170
     0
171
     0
290
     0
174
     0
 93
        1
 44
0.0
173
     0
291
     0
 45
0.0
1001
ACAD
1000
AcDbSavedByObjectVersion
1070
     0
  0
VISUALSTYLE
  5
A60F
102
{ACAD_XDICTIONARY
360
A67A
102
}
102
{ACAD_REACTORS
330
A5FC
102
}
330
A5FC
100
AcDbVisualStyle
  2
X-Ray
 70
    25
 71
     2
 72
     2
 73
     1
 90
        1
 40
0.5
 41
-30.0
 62
     5
 63
     7
 74
     1
 91
        0
 64
     7
 65
   257
 75
     1
175
     1
 42
1.0
 92
        8
 66
     7
 43
1.0
 76
     1
 77
     6
 78
     2
 67
     7
 79
     3
170
     0
171
     0
290
     0
174
     0
 93
       13
 44
0.0
173
     0
291
     0
 45
0.0
1001
ACAD
1000
AcDbSavedByObjectVersion
1070
     0
  0
DICTIONARYVAR
  5
A649
102
{ACAD_REACTORS
330
A644
102
}
330
A644
100
DictionaryVariables
280
     0
  1
1:1
  0
DICTIONARYVAR
  5
A646
102
{ACAD_REACTORS
330
A644
102
}
330
A644
100
DictionaryVariables
280
     0
  1
STANDARD
  0
DICTIONARYVAR
  5
A645
102
{ACAD_REACTORS
330
A644
102
}
330
A644
100
DictionaryVariables
280
     0
  1
STANDARD
  0
DICTIONARYVAR
  5
A647
102
{ACAD_REACTORS
330
A644
102
}
330
A644
100
DictionaryVariables
280
     0
  1
Imperial24
  0
DICTIONARYVAR
  5
A648
102
{ACAD_REACTORS
330
A644
102
}
330
A644
100
DictionaryVariables
280
     0
  1
Imperial24
  0
DICTIONARYVAR
  5
A64C
102
{ACAD_REACTORS
330
A644
102
}
330
A644
100
DictionaryVariables
280
     0
  1
1
  0
DICTIONARYVAR
  5
A64B
102
{ACAD_REACTORS
330
A644
102
}
330
A644
100
DictionaryVariables
280
     0
  1
0
  0
DICTIONARYVAR
  5
A64A
102
{ACAD_REACTORS
330
A644
102
}
330
A644
100
DictionaryVariables
280
     0
  1
127
  0
DICTIONARYVAR
  5
A64D
102
{ACAD_REACTORS
330
A644
102
}
330
A644
100
DictionaryVariables
280
     0
  1
2
  0
DICTIONARY
  5
A68A
330
A62F
100
AcDbDictionary
280
     1
281
     1
  3
ACAD_XREC_ROUNDTRIP
360
A68B
  0
DICTIONARY
  5
A68C
330
A630
100
AcDbDictionary
280
     1
281
     1
  3
ACAD_XREC_ROUNDTRIP
360
A68D
  0
DICTIONARY
  5
A68E
330
A631
100
AcDbDictionary
280
     1
281
     1
  3
ACAD_XREC_ROUNDTRIP
360
A68F
  0
DICTIONARY
  5
A5ED
330
A5EC
100
AcDbDictionary
280
     1
281
     1
  3
ACAD_XREC_ROUNDTRIP
360
A654
  3
BUMPTILE
360
A5EF
  3
DIFFUSETILE
360
A5EE
  3
OPACITYTILE
360
A5F2
  3
REFLECTIONTILE
360
A5F1
  3
REFRACTIONTILE
360
A5F3
  3
SPECULARTILE
360
A5F0
  0
DICTIONARY
  5
A5E5
330
A5E4
100
AcDbDictionary
280
     1
281
     1
  3
ACAD_XREC_ROUNDTRIP
360
A653
  3
BUMPTILE
360
A5E7
  3
DIFFUSETILE
360
A5E6
  3
OPACITYTILE
360
A5EA
  3
REFLECTIONTILE
360
A5E9
  3
REFRACTIONTILE
360
A5EB
  3
SPECULARTILE
360
A5E8
  0
DICTIONARY
  5
A5F5
330
A5F4
100
AcDbDictionary
280
     1
281
     1
  3
ACAD_XREC_ROUNDTRIP
360
A655
  3
BUMPTILE
360
A5F7
  3
DIFFUSETILE
360
A5F6
  3
OPACITYTILE
360
A5FA
  3
REFLECTIONTILE
360
A5F9
  3
REFRACTIONTILE
360
A5FB
  3
SPECULARTILE
360
A5F8
  0
DICTIONARY
  5
A688
330
A62D
100
AcDbDictionary
280
     1
281
     1
  3
ACAD_XREC_ROUNDTRIP
360
A689
  0
DICTIONARY
  5
A64F
330
A617
100
AcDbDictionary
280
     1
281
     1
  3
ACAD_ROUNDTRIP_2008_TABLESTYLE_CELLSTYLEMAP
360
A650
  3
ACAD_XREC_ROUNDTRIP
360
A686
  0
DICTIONARY
  5
A660
330
A602
100
AcDbDictionary
280
     1
281
     1
  3
ACAD_XREC_ROUNDTRIP
360
A661
  0
DICTIONARY
  5
A65E
330
A601
100
AcDbDictionary
280
     1
281
     1
  3
ACAD_XREC_ROUNDTRIP
360
A65F
  0
DICTIONARY
  5
A66C
330
A608
100
AcDbDictionary
280
     1
281
     1
  3
ACAD_XREC_ROUNDTRIP
360
A66D
  0
DICTIONARY
  5
A674
330
A60C
100
AcDbDictionary
280
     1
281
     1
  3
ACAD_XREC_ROUNDTRIP
360
A675
  0
DICTIONARY
  5
A666
330
A605
100
AcDbDictionary
280
     1
281
     1
  3
ACAD_XREC_ROUNDTRIP
360
A667
  0
DICTIONARY
  5
A66A
330
A607
100
AcDbDictionary
280
     1
281
     1
  3
ACAD_XREC_ROUNDTRIP
360
A66B
  0
DICTIONARY
  5
A684
330
A614
100
AcDbDictionary
280
     1
281
     1
  3
ACAD_XREC_ROUNDTRIP
360
A685
  0
DICTIONARY
  5
A672
330
A60B
100
AcDbDictionary
280
     1
281
     1
  3
ACAD_XREC_ROUNDTRIP
360
A673
  0
DICTIONARY
  5
A656
330
A5FD
100
AcDbDictionary
280
     1
281
     1
  3
ACAD_XREC_ROUNDTRIP
360
A657
  0
DICTIONARY
  5
A658
330
A5FE
100
AcDbDictionary
280
     1
281
     1
  3
ACAD_XREC_ROUNDTRIP
360
A659
  0
DICTIONARY
  5
A65A
330
A5FF
100
AcDbDictionary
280
     1
281
     1
  3
ACAD_XREC_ROUNDTRIP
360
A65B
  0
DICTIONARY
  5
A65C
330
A600
100
AcDbDictionary
280
     1
281
     1
  3
ACAD_XREC_ROUNDTRIP
360
A65D
  0
DICTIONARY
  5
A664
330
A604
100
AcDbDictionary
280
     1
281
     1
  3
ACAD_XREC_ROUNDTRIP
360
A665
  0
DICTIONARY
  5
A680
330
A612
100
AcDbDictionary
280
     1
281
     1
  3
ACAD_XREC_ROUNDTRIP
360
A681
  0
DICTIONARY
  5
A670
330
A60A
100
AcDbDictionary
280
     1
281
     1
  3
ACAD_XREC_ROUNDTRIP
360
A671
  0
DICTIONARY
  5
A682
330
A613
100
AcDbDictionary
280
     1
281
     1
  3
ACAD_XREC_ROUNDTRIP
360
A683
  0
DICTIONARY
  5
A668
330
A606
100
AcDbDictionary
280
     1
281
     1
  3
ACAD_XREC_ROUNDTRIP
360
A669
  0
DICTIONARY
  5
A67E
330
A611
100
AcDbDictionary
280
     1
281
     1
  3
ACAD_XREC_ROUNDTRIP
360
A67F
  0
DICTIONARY
  5
A67C
330
A610
100
AcDbDictionary
280
     1
281
     1
  3
ACAD_XREC_ROUNDTRIP
360
A67D
  0
DICTIONARY
  5
A676
330
A60D
100
AcDbDictionary
280
     1
281
     1
  3
ACAD_XREC_ROUNDTRIP
360
A677
  0
DICTIONARY
  5
A678
330
A60E
100
AcDbDictionary
280
     1
281
     1
  3
ACAD_XREC_ROUNDTRIP
360
A679
  0
DICTIONARY
  5
A66E
330
A609
100
AcDbDictionary
280
     1
281
     1
  3
ACAD_XREC_ROUNDTRIP
360
A66F
  0
DICTIONARY
  5
A662
330
A603
100
AcDbDictionary
280
     1
281
     1
  3
ACAD_XREC_ROUNDTRIP
360
A663
  0
DICTIONARY
  5
A67A
330
A60F
100
AcDbDictionary
280
     1
281
     1
  3
ACAD_XREC_ROUNDTRIP
360
A67B
  0
XRECORD
  5
A68B
102
{ACAD_REACTORS
330
A68A
102
}
330
A68A
100
AcDbXrecord
280
     1
102
DISPLAYNAME
  1
Imperial24
102
FLAGS
 90
        0
  0
XRECORD
  5
A68D
102
{ACAD_REACTORS
330
A68C
102
}
330
A68C
100
AcDbXrecord
280
     1
102
SHADEPLOT
 70
     0
102
SHADEPLOTRESLEVEL
 70
     2
102
SHADEPLOTCUSTOMDPI
 70
   300
  0
XRECORD
  5
A68F
102
{ACAD_REACTORS
330
A68E
102
}
330
A68E
100
AcDbXrecord
280
     1
102
SHADEPLOT
 70
     0
102
SHADEPLOTRESLEVEL
 70
     2
102
SHADEPLOTCUSTOMDPI
 70
   300
  0
XRECORD
  5
A654
102
{ACAD_REACTORS
330
A5ED
102
}
330
A5ED
100
AcDbXrecord
280
     1
102
MATERIAL
148
0.0
149
0.0
149
0.0
 93
        0
 94
      127
282
     0
 72
     0
 77
     0
171
     0
175
     0
179
     0
273
     0
  0
XRECORD
  5
A5EF
102
{ACAD_REACTORS
330
A5ED
102
}
330
A5ED
100
AcDbXrecord
280
     1
270
     1
271
     1
  0
XRECORD
  5
A5EE
102
{ACAD_REACTORS
330
A5ED
102
}
330
A5ED
100
AcDbXrecord
280
     1
270
     1
271
     1
  0
XRECORD
  5
A5F2
102
{ACAD_REACTORS
330
A5ED
102
}
330
A5ED
100
AcDbXrecord
280
     1
270
     1
271
     1
  0
XRECORD
  5
A5F1
102
{ACAD_REACTORS
330
A5ED
102
}
330
A5ED
100
AcDbXrecord
280
     1
270
     1
271
     1
  0
XRECORD
  5
A5F3
102
{ACAD_REACTORS
330
A5ED
102
}
330
A5ED
100
AcDbXrecord
280
     1
270
     1
271
     1
  0
XRECORD
  5
A5F0
102
{ACAD_REACTORS
330
A5ED
102
}
330
A5ED
100
AcDbXrecord
280
     1
270
     1
271
     1
  0
XRECORD
  5
A653
102
{ACAD_REACTORS
330
A5E5
102
}
330
A5E5
100
AcDbXrecord
280
     1
102
MATERIAL
148
0.0
149
0.0
149
0.0
 93
        0
 94
      127
282
     0
 72
     0
 77
     0
171
     0
175
     0
179
     0
273
     0
  0
XRECORD
  5
A5E7
102
{ACAD_REACTORS
330
A5E5
102
}
330
A5E5
100
AcDbXrecord
280
     1
270
     1
271
     1
  0
XRECORD
  5
A5E6
102
{ACAD_REACTORS
330
A5E5
102
}
330
A5E5
100
AcDbXrecord
280
     1
270
     1
271
     1
  0
XRECORD
  5
A5EA
102
{ACAD_REACTORS
330
A5E5
102
}
330
A5E5
100
AcDbXrecord
280
     1
270
     1
271
     1
  0
XRECORD
  5
A5E9
102
{ACAD_REACTORS
330
A5E5
102
}
330
A5E5
100
AcDbXrecord
280
     1
270
     1
271
     1
  0
XRECORD
  5
A5EB
102
{ACAD_REACTORS
330
A5E5
102
}
330
A5E5
100
AcDbXrecord
280
     1
270
     1
271
     1
  0
XRECORD
  5
A5E8
102
{ACAD_REACTORS
330
A5E5
102
}
330
A5E5
100
AcDbXrecord
280
     1
270
     1
271
     1
  0
XRECORD
  5
A655
102
{ACAD_REACTORS
330
A5F5
102
}
330
A5F5
100
AcDbXrecord
280
     1
102
MATERIAL
148
0.0
149
0.0
149
0.0
 93
        0
 94
      127
282
     0
 72
     0
 77
     0
171
     0
175
     0
179
     0
273
     0
  0
XRECORD
  5
A5F7
102
{ACAD_REACTORS
330
A5F5
102
}
330
A5F5
100
AcDbXrecord
280
     1
270
     1
271
     1
  0
XRECORD
  5
A5F6
102
{ACAD_REACTORS
330
A5F5
102
}
330
A5F5
100
AcDbXrecord
280
     1
270
     1
271
     1
  0
XRECORD
  5
A5FA
102
{ACAD_REACTORS
330
A5F5
102
}
330
A5F5
100
AcDbXrecord
280
     1
270
     1
271
     1
  0
XRECORD
  5
A5F9
102
{ACAD_REACTORS
330
A5F5
102
}
330
A5F5
100
AcDbXrecord
280
     1
270
     1
271
     1
  0
XRECORD
  5
A5FB
102
{ACAD_REACTORS
330
A5F5
102
}
330
A5F5
100
AcDbXrecord
280
     1
270
     1
271
     1
  0
XRECORD
  5
A5F8
102
{ACAD_REACTORS
330
A5F5
102
}
330
A5F5
100
AcDbXrecord
280
     1
270
     1
271
     1
  0
XRECORD
  5
A689
102
{ACAD_REACTORS
330
A688
102
}
330
A688
100
AcDbXrecord
280
     1
102
DISPLAYNAME
  1
Imperial24
102
FLAGS
 90
        0
  0
CELLSTYLEMAP
  5
A650
102
{ACAD_REACTORS
330
A64F
102
}
330
A64F
100
AcDbCellStyleMap
 90
        3
300
CELLSTYLE
  1
TABLEFORMAT_BEGIN
 90
        5
170
     1
 91
        0
 92
    32768
 62
   257
 93
        1
300
CONTENTFORMAT
  1
CONTENTFORMAT_BEGIN
 90
        0
 91
        0
 92
      512
 93
        0
300

 40
0.0
140
1.0
 94
        5
 62
     0
340
A3CD
144
0.25
309
CONTENTFORMAT_END
171
     0
 94
        0
309
TABLEFORMAT_END
  1
CELLSTYLE_BEGIN
 90
        1
 91
        1
300
_TITLE
309
CELLSTYLE_END
300
CELLSTYLE
  1
TABLEFORMAT_BEGIN
 90
        5
170
     1
 91
        0
 92
        0
 62
   257
 93
        1
300
CONTENTFORMAT
  1
CONTENTFORMAT_BEGIN
 90
        0
 91
        0
 92
      512
 93
        0
300

 40
0.0
140
1.0
 94
        5
 62
     0
340
A3CD
144
0.18
309
CONTENTFORMAT_END
171
     0
 94
        0
309
TABLEFORMAT_END
  1
CELLSTYLE_BEGIN
 90
        2
 91
        1
300
_HEADER
309
CELLSTYLE_END
300
CELLSTYLE
  1
TABLEFORMAT_BEGIN
 90
        5
170
     1
 91
        0
 92
        0
 62
   257
 93
        1
300
CONTENTFORMAT
  1
CONTENTFORMAT_BEGIN
 90
        0
 91
        0
 92
      512
 93
        0
300

 40
0.0
140
1.0
 94
        2
 62
     0
340
A3CD
144
0.18
309
CONTENTFORMAT_END
171
     0
 94
        0
309
TABLEFORMAT_END
  1
CELLSTYLE_BEGIN
 90
        3
 91
        2
300
_DATA
309
CELLSTYLE_END
  0
XRECORD
  5
A686
102
{ACAD_REACTORS
330
A64F
102
}
330
A64F
100
AcDbXrecord
280
     1
102
ACAD_ROUNDTRIP_PRE2007_TABLESTYLE
 90
      512
 91
        0
  1

 92
      512
 93
        0
  2

 94
      512
 95
        0
  3

  0
XRECORD
  5
A661
102
{ACAD_REACTORS
330
A660
102
}
330
A660
100
AcDbXrecord
280
     1
102
RTVSPost2010Prop28
280
     1
102
RTVSPost2010PropOp28
 70
     1
102
RTVSPost2010Prop29
280
     1
102
RTVSPost2010PropOp29
 70
     1
102
RTVSPost2010Prop30
280
     0
102
RTVSPost2010PropOp30
 70
     1
102
RTVSPost2010Prop31
280
     0
102
RTVSPost2010PropOp31
 70
     1
102
RTVSPost2010Prop32
280
     0
102
RTVSPost2010PropOp32
 70
     1
102
RTVSPost2010Prop33
280
     0
102
RTVSPost2010PropOp33
 70
     1
102
RTVSPost2010Prop34
280
     0
102
RTVSPost2010PropOp34
 70
     1
102
RTVSPost2010Prop35
280
     0
102
RTVSPost2010PropOp35
 70
     1
102
RTVSPost2010Prop36
280
     0
102
RTVSPost2010PropOp36
 70
     1
102
RTVSPost2010Prop37
 90
       50
102
RTVSPost2010PropOp37
 70
     1
102
RTVSPost2010Prop38
140
0.0
102
RTVSPost2010PropOp38
 70
     1
102
RTVSPost2010Prop39
140
1.0
102
RTVSPost2010PropOp39
 70
     1
102
RTVSPost2010Prop40
 90
        0
102
RTVSPost2010PropOp40
 70
     1
102
RTVSPost2010Prop41ColorIndex
 90
       18
102
RTVSPost2010Prop41ColorRGB
 90
        0
102
RTVSPost2010PropOp41
 70
     1
102
RTVSPost2010Prop42
 90
       50
102
RTVSPost2010PropOp42
 70
     1
102
RTVSPost2010Prop43
 90
        3
102
RTVSPost2010PropOp43
 70
     1
102
RTVSPost2010Prop44ColorIndex
 90
        5
102
RTVSPost2010Prop44ColorRGB
 90
      255
102
RTVSPost2010PropOp44
 70
     1
102
RTVSPost2010Prop45
280
     0
102
RTVSPost2010PropOp45
 70
     1
102
RTVSPost2010Prop46
 90
       50
102
RTVSPost2010PropOp46
 70
     1
102
RTVSPost2010Prop47
 90
       50
102
RTVSPost2010PropOp47
 70
     1
102
RTVSPost2010Prop48
 90
       50
102
RTVSPost2010PropOp48
 70
     1
102
RTVSPost2010Prop49
280
     0
102
RTVSPost2010PropOp49
 70
     1
102
RTVSPost2010Prop50
 90
       50
102
RTVSPost2010PropOp50
 70
     1
102
RTVSPost2010Prop51ColorIndex
 90
      256
102
RTVSPost2010Prop51ColorRGB
 90
-16777216
102
RTVSPost2010PropOp51
 70
     0
102
RTVSPost2010Prop52
140
1.0
102
RTVSPost2010PropOp52
 70
     0
102
RTVSPost2010Prop53
 90
        2
102
RTVSPost2010PropOp53
 70
     1
102
RTVSPost2010Prop54
  1
strokes_ogs.tif
102
RTVSPost2010PropOp54
 70
     1
102
RTVSPost2010Prop55
280
     0
102
RTVSPost2010PropOp55
 70
     1
102
RTVSPost2010Prop56
140
1.0
102
RTVSPost2010PropOp56
 70
     1
102
RTVSPost2010Prop57
140
1.0
102
RTVSPost2010PropOp57
 70
     1
102
RTVSPropertyOp0
 70
     1
102
RTVSPropertyOp1
 70
     1
102
RTVSPropertyOp2
 70
     1
102
RTVSPropertyOp3
 70
     1
102
RTVSPropertyOp4
 70
     1
102
RTVSPropertyOp5
 70
     1
102
RTVSPropertyOp6
 70
     1
102
RTVSPropertyOp7
 70
     1
102
RTVSPropertyOp8
 70
     1
102
RTVSPropertyOp9
 70
     1
102
RTVSPropertyOp10
 70
     1
102
RTVSPropertyOp11
 70
     1
102
RTVSPropertyOp12
 70
     1
102
RTVSPropertyOp13
 70
     1
102
RTVSPropertyOp14
 70
     1
102
RTVSPropertyOp15
 70
     1
102
RTVSPropertyOp16
 70
     1
102
RTVSPropertyOp17
 70
     1
102
RTVSPropertyOp18
 70
     1
102
RTVSPropertyOp19
 70
     1
102
RTVSPropertyOp20
 70
     1
102
RTVSPropertyOp21
 70
     1
102
RTVSPropertyOp22
 70
     1
102
RTVSPropertyOp23
 70
     1
102
RTVSPropertyOp24
 70
     1
102
RTVSPropertyOp25
 70
     1
102
RTVSPropertyOp26
 70
     1
102
RTVSPropertyOp27
 70
     1
102
RTVSPropertyOp28
 70
     1
102
RTVSPropertyOp29
 70
     1
102
RTVSPropertyOp30
 70
     1
102
RTVSPropertyOp31
 70
     1
102
RTVSPropertyOp32
 70
     1
102
RTVSPropertyOp33
 70
     1
102
RTVSPropertyOp34
 70
     1
102
RTVSPropertyOp35
 70
     1
102
RTVSPropertyOp36
 70
     1
102
RTVSPropertyOp37
 70
     1
102
RTVSPropertyOp38
 70
     1
102
RTVSPropertyOp39
 70
     1
102
RTVSPropertyOp40
 70
     1
102
RTVSPropertyOp41
 70
     1
102
RTVSPropertyOp42
 70
     1
102
RTVSPropertyOp43
 70
     1
102
RTVSPropertyOp44
 70
     1
102
RTVSPropertyOp45
 70
     1
102
RTVSPropertyOp46
 70
     1
102
RTVSPropertyOp47
 70
     1
102
RTVSPropertyOp48
 70
     1
102
RTVSPropertyOp49
 70
     1
102
RTVSPropertyOp50
 70
     1
102
RTVSPropertyOp51
 70
     0
102
RTVSPropertyOp52
 70
     0
102
RTVSPropertyOp53
 70
     1
102
RTVSPropertyOp54
 70
     1
102
RTVSPropertyOp55
 70
     1
102
RTVSPropertyOp56
 70
     1
102
RTVSPropertyOp57
 70
     1
102
RTVSPropertyOp58
 70
     1
102
RTVSPropertyOp59
 70
     1
102
RTVSPropertyOp60
 70
     1
102
RTVSPropertyOp61
 70
     1
102
RTVSPropertyOp62
 70
     1
  0
XRECORD
  5
A65F
102
{ACAD_REACTORS
330
A65E
102
}
330
A65E
100
AcDbXrecord
280
     1
102
RTVSPost2010Prop28
280
     0
102
RTVSPost2010PropOp28
 70
     1
102
RTVSPost2010Prop29
280
     1
102
RTVSPost2010PropOp29
 70
     1
102
RTVSPost2010Prop30
280
     1
102
RTVSPost2010PropOp30
 70
     1
102
RTVSPost2010Prop31
280
     0
102
RTVSPost2010PropOp31
 70
     1
102
RTVSPost2010Prop32
280
     0
102
RTVSPost2010PropOp32
 70
     1
102
RTVSPost2010Prop33
280
     0
102
RTVSPost2010PropOp33
 70
     1
102
RTVSPost2010Prop34
280
     0
102
RTVSPost2010PropOp34
 70
     1
102
RTVSPost2010Prop35
280
     0
102
RTVSPost2010PropOp35
 70
     1
102
RTVSPost2010Prop36
280
     0
102
RTVSPost2010PropOp36
 70
     1
102
RTVSPost2010Prop37
 90
       50
102
RTVSPost2010PropOp37
 70
     1
102
RTVSPost2010Prop38
140
0.0
102
RTVSPost2010PropOp38
 70
     1
102
RTVSPost2010Prop39
140
1.0
102
RTVSPost2010PropOp39
 70
     1
102
RTVSPost2010Prop40
 90
        0
102
RTVSPost2010PropOp40
 70
     1
102
RTVSPost2010Prop41ColorIndex
 90
       18
102
RTVSPost2010Prop41ColorRGB
 90
        0
102
RTVSPost2010PropOp41
 70
     1
102
RTVSPost2010Prop42
 90
       50
102
RTVSPost2010PropOp42
 70
     1
102
RTVSPost2010Prop43
 90
        3
102
RTVSPost2010PropOp43
 70
     1
102
RTVSPost2010Prop44ColorIndex
 90
        5
102
RTVSPost2010Prop44ColorRGB
 90
      255
102
RTVSPost2010PropOp44
 70
     1
102
RTVSPost2010Prop45
280
     0
102
RTVSPost2010PropOp45
 70
     1
102
RTVSPost2010Prop46
 90
       50
102
RTVSPost2010PropOp46
 70
     1
102
RTVSPost2010Prop47
 90
       50
102
RTVSPost2010PropOp47
 70
     1
102
RTVSPost2010Prop48
 90
       50
102
RTVSPost2010PropOp48
 70
     1
102
RTVSPost2010Prop49
280
     0
102
RTVSPost2010PropOp49
 70
     1
102
RTVSPost2010Prop50
 90
       50
102
RTVSPost2010PropOp50
 70
     1
102
RTVSPost2010Prop51ColorIndex
 90
      256
102
RTVSPost2010Prop51ColorRGB
 90
-16777216
102
RTVSPost2010PropOp51
 70
     0
102
RTVSPost2010Prop52
140
1.0
102
RTVSPost2010PropOp52
 70
     0
102
RTVSPost2010Prop53
 90
        2
102
RTVSPost2010PropOp53
 70
     1
102
RTVSPost2010Prop54
  1
strokes_ogs.tif
102
RTVSPost2010PropOp54
 70
     1
102
RTVSPost2010Prop55
280
     0
102
RTVSPost2010PropOp55
 70
     1
102
RTVSPost2010Prop56
140
1.0
102
RTVSPost2010PropOp56
 70
     1
102
RTVSPost2010Prop57
140
1.0
102
RTVSPost2010PropOp57
 70
     1
102
RTVSPropertyOp0
 70
     1
102
RTVSPropertyOp1
 70
     1
102
RTVSPropertyOp2
 70
     1
102
RTVSPropertyOp3
 70
     1
102
RTVSPropertyOp4
 70
     1
102
RTVSPropertyOp5
 70
     1
102
RTVSPropertyOp6
 70
     1
102
RTVSPropertyOp7
 70
     1
102
RTVSPropertyOp8
 70
     1
102
RTVSPropertyOp9
 70
     1
102
RTVSPropertyOp10
 70
     1
102
RTVSPropertyOp11
 70
     1
102
RTVSPropertyOp12
 70
     1
102
RTVSPropertyOp13
 70
     1
102
RTVSPropertyOp14
 70
     1
102
RTVSPropertyOp15
 70
     1
102
RTVSPropertyOp16
 70
     1
102
RTVSPropertyOp17
 70
     1
102
RTVSPropertyOp18
 70
     1
102
RTVSPropertyOp19
 70
     1
102
RTVSPropertyOp20
 70
     1
102
RTVSPropertyOp21
 70
     1
102
RTVSPropertyOp22
 70
     1
102
RTVSPropertyOp23
 70
     1
102
RTVSPropertyOp24
 70
     1
102
RTVSPropertyOp25
 70
     1
102
RTVSPropertyOp26
 70
     1
102
RTVSPropertyOp27
 70
     1
102
RTVSPropertyOp28
 70
     1
102
RTVSPropertyOp29
 70
     1
102
RTVSPropertyOp30
 70
     1
102
RTVSPropertyOp31
 70
     1
102
RTVSPropertyOp32
 70
     1
102
RTVSPropertyOp33
 70
     1
102
RTVSPropertyOp34
 70
     1
102
RTVSPropertyOp35
 70
     1
102
RTVSPropertyOp36
 70
     1
102
RTVSPropertyOp37
 70
     1
102
RTVSPropertyOp38
 70
     1
102
RTVSPropertyOp39
 70
     1
102
RTVSPropertyOp40
 70
     1
102
RTVSPropertyOp41
 70
     1
102
RTVSPropertyOp42
 70
     1
102
RTVSPropertyOp43
 70
     1
102
RTVSPropertyOp44
 70
     1
102
RTVSPropertyOp45
 70
     1
102
RTVSPropertyOp46
 70
     1
102
RTVSPropertyOp47
 70
     1
102
RTVSPropertyOp48
 70
     1
102
RTVSPropertyOp49
 70
     1
102
RTVSPropertyOp50
 70
     1
102
RTVSPropertyOp51
 70
     0
102
RTVSPropertyOp52
 70
     0
102
RTVSPropertyOp53
 70
     1
102
RTVSPropertyOp54
 70
     1
102
RTVSPropertyOp55
 70
     1
102
RTVSPropertyOp56
 70
     1
102
RTVSPropertyOp57
 70
     1
102
RTVSPropertyOp58
 70
     1
102
RTVSPropertyOp59
 70
     1
102
RTVSPropertyOp60
 70
     1
102
RTVSPropertyOp61
 70
     1
102
RTVSPropertyOp62
 70
     1
  0
XRECORD
  5
A66D
102
{ACAD_REACTORS
330
A66C
102
}
330
A66C
100
AcDbXrecord
280
     1
102
RTVSPost2010Prop28
280
     0
102
RTVSPost2010PropOp28
 70
     1
102
RTVSPost2010Prop29
280
     1
102
RTVSPost2010PropOp29
 70
     1
102
RTVSPost2010Prop30
280
     1
102
RTVSPost2010PropOp30
 70
     1
102
RTVSPost2010Prop31
280
     0
102
RTVSPost2010PropOp31
 70
     1
102
RTVSPost2010Prop32
280
     0
102
RTVSPost2010PropOp32
 70
     1
102
RTVSPost2010Prop33
280
     0
102
RTVSPost2010PropOp33
 70
     1
102
RTVSPost2010Prop34
280
     0
102
RTVSPost2010PropOp34
 70
     1
102
RTVSPost2010Prop35
280
     0
102
RTVSPost2010PropOp35
 70
     1
102
RTVSPost2010Prop36
280
     0
102
RTVSPost2010PropOp36
 70
     1
102
RTVSPost2010Prop37
 90
       50
102
RTVSPost2010PropOp37
 70
     1
102
RTVSPost2010Prop38
140
0.0
102
RTVSPost2010PropOp38
 70
     1
102
RTVSPost2010Prop39
140
1.0
102
RTVSPost2010PropOp39
 70
     1
102
RTVSPost2010Prop40
 90
        0
102
RTVSPost2010PropOp40
 70
     1
102
RTVSPost2010Prop41ColorIndex
 90
       18
102
RTVSPost2010Prop41ColorRGB
 90
        0
102
RTVSPost2010PropOp41
 70
     1
102
RTVSPost2010Prop42
 90
       50
102
RTVSPost2010PropOp42
 70
     1
102
RTVSPost2010Prop43
 90
        3
102
RTVSPost2010PropOp43
 70
     1
102
RTVSPost2010Prop44ColorIndex
 90
        5
102
RTVSPost2010Prop44ColorRGB
 90
      255
102
RTVSPost2010PropOp44
 70
     1
102
RTVSPost2010Prop45
280
     0
102
RTVSPost2010PropOp45
 70
     1
102
RTVSPost2010Prop46
 90
       50
102
RTVSPost2010PropOp46
 70
     1
102
RTVSPost2010Prop47
 90
       50
102
RTVSPost2010PropOp47
 70
     1
102
RTVSPost2010Prop48
 90
       50
102
RTVSPost2010PropOp48
 70
     1
102
RTVSPost2010Prop49
280
     0
102
RTVSPost2010PropOp49
 70
     1
102
RTVSPost2010Prop50
 90
       50
102
RTVSPost2010PropOp50
 70
     1
102
RTVSPost2010Prop51ColorIndex
 90
      256
102
RTVSPost2010Prop51ColorRGB
 90
-16777216
102
RTVSPost2010PropOp51
 70
     0
102
RTVSPost2010Prop52
140
1.0
102
RTVSPost2010PropOp52
 70
     0
102
RTVSPost2010Prop53
 90
        2
102
RTVSPost2010PropOp53
 70
     1
102
RTVSPost2010Prop54
  1
strokes_ogs.tif
102
RTVSPost2010PropOp54
 70
     1
102
RTVSPost2010Prop55
280
     0
102
RTVSPost2010PropOp55
 70
     1
102
RTVSPost2010Prop56
140
1.0
102
RTVSPost2010PropOp56
 70
     1
102
RTVSPost2010Prop57
140
1.0
102
RTVSPost2010PropOp57
 70
     1
102
RTVSPropertyOp0
 70
     1
102
RTVSPropertyOp1
 70
     1
102
RTVSPropertyOp2
 70
     1
102
RTVSPropertyOp3
 70
     1
102
RTVSPropertyOp4
 70
     1
102
RTVSPropertyOp5
 70
     1
102
RTVSPropertyOp6
 70
     1
102
RTVSPropertyOp7
 70
     1
102
RTVSPropertyOp8
 70
     1
102
RTVSPropertyOp9
 70
     1
102
RTVSPropertyOp10
 70
     1
102
RTVSPropertyOp11
 70
     1
102
RTVSPropertyOp12
 70
     1
102
RTVSPropertyOp13
 70
     1
102
RTVSPropertyOp14
 70
     1
102
RTVSPropertyOp15
 70
     1
102
RTVSPropertyOp16
 70
     1
102
RTVSPropertyOp17
 70
     1
102
RTVSPropertyOp18
 70
     1
102
RTVSPropertyOp19
 70
     1
102
RTVSPropertyOp20
 70
     1
102
RTVSPropertyOp21
 70
     1
102
RTVSPropertyOp22
 70
     1
102
RTVSPropertyOp23
 70
     1
102
RTVSPropertyOp24
 70
     1
102
RTVSPropertyOp25
 70
     1
102
RTVSPropertyOp26
 70
     1
102
RTVSPropertyOp27
 70
     1
102
RTVSPropertyOp28
 70
     1
102
RTVSPropertyOp29
 70
     1
102
RTVSPropertyOp30
 70
     1
102
RTVSPropertyOp31
 70
     1
102
RTVSPropertyOp32
 70
     1
102
RTVSPropertyOp33
 70
     1
102
RTVSPropertyOp34
 70
     1
102
RTVSPropertyOp35
 70
     1
102
RTVSPropertyOp36
 70
     1
102
RTVSPropertyOp37
 70
     1
102
RTVSPropertyOp38
 70
     1
102
RTVSPropertyOp39
 70
     1
102
RTVSPropertyOp40
 70
     1
102
RTVSPropertyOp41
 70
     1
102
RTVSPropertyOp42
 70
     1
102
RTVSPropertyOp43
 70
     1
102
RTVSPropertyOp44
 70
     1
102
RTVSPropertyOp45
 70
     1
102
RTVSPropertyOp46
 70
     1
102
RTVSPropertyOp47
 70
     1
102
RTVSPropertyOp48
 70
     1
102
RTVSPropertyOp49
 70
     1
102
RTVSPropertyOp50
 70
     1
102
RTVSPropertyOp51
 70
     0
102
RTVSPropertyOp52
 70
     0
102
RTVSPropertyOp53
 70
     1
102
RTVSPropertyOp54
 70
     1
102
RTVSPropertyOp55
 70
     1
102
RTVSPropertyOp56
 70
     1
102
RTVSPropertyOp57
 70
     1
102
RTVSPropertyOp58
 70
     1
102
RTVSPropertyOp59
 70
     1
102
RTVSPropertyOp60
 70
     1
102
RTVSPropertyOp61
 70
     1
102
RTVSPropertyOp62
 70
     1
  0
XRECORD
  5
A675
102
{ACAD_REACTORS
330
A674
102
}
330
A674
100
AcDbXrecord
280
     1
102
RTVSPost2010Prop28
280
     0
102
RTVSPost2010PropOp28
 70
     1
102
RTVSPost2010Prop29
280
     1
102
RTVSPost2010PropOp29
 70
     1
102
RTVSPost2010Prop30
280
     1
102
RTVSPost2010PropOp30
 70
     1
102
RTVSPost2010Prop31
280
     0
102
RTVSPost2010PropOp31
 70
     1
102
RTVSPost2010Prop32
280
     0
102
RTVSPost2010PropOp32
 70
     1
102
RTVSPost2010Prop33
280
     0
102
RTVSPost2010PropOp33
 70
     1
102
RTVSPost2010Prop34
280
     0
102
RTVSPost2010PropOp34
 70
     1
102
RTVSPost2010Prop35
280
     0
102
RTVSPost2010PropOp35
 70
     1
102
RTVSPost2010Prop36
280
     0
102
RTVSPost2010PropOp36
 70
     1
102
RTVSPost2010Prop37
 90
       50
102
RTVSPost2010PropOp37
 70
     1
102
RTVSPost2010Prop38
140
0.0
102
RTVSPost2010PropOp38
 70
     1
102
RTVSPost2010Prop39
140
1.0
102
RTVSPost2010PropOp39
 70
     1
102
RTVSPost2010Prop40
 90
        0
102
RTVSPost2010PropOp40
 70
     1
102
RTVSPost2010Prop41ColorIndex
 90
       18
102
RTVSPost2010Prop41ColorRGB
 90
        0
102
RTVSPost2010PropOp41
 70
     1
102
RTVSPost2010Prop42
 90
       50
102
RTVSPost2010PropOp42
 70
     1
102
RTVSPost2010Prop43
 90
        3
102
RTVSPost2010PropOp43
 70
     1
102
RTVSPost2010Prop44ColorIndex
 90
        5
102
RTVSPost2010Prop44ColorRGB
 90
      255
102
RTVSPost2010PropOp44
 70
     1
102
RTVSPost2010Prop45
280
     0
102
RTVSPost2010PropOp45
 70
     1
102
RTVSPost2010Prop46
 90
       50
102
RTVSPost2010PropOp46
 70
     1
102
RTVSPost2010Prop47
 90
       50
102
RTVSPost2010PropOp47
 70
     1
102
RTVSPost2010Prop48
 90
       50
102
RTVSPost2010PropOp48
 70
     1
102
RTVSPost2010Prop49
280
     0
102
RTVSPost2010PropOp49
 70
     1
102
RTVSPost2010Prop50
 90
       50
102
RTVSPost2010PropOp50
 70
     1
102
RTVSPost2010Prop51ColorIndex
 90
      256
102
RTVSPost2010Prop51ColorRGB
 90
-16777216
102
RTVSPost2010PropOp51
 70
     0
102
RTVSPost2010Prop52
140
1.0
102
RTVSPost2010PropOp52
 70
     0
102
RTVSPost2010Prop53
 90
        2
102
RTVSPost2010PropOp53
 70
     1
102
RTVSPost2010Prop54
  1
strokes_ogs.tif
102
RTVSPost2010PropOp54
 70
     1
102
RTVSPost2010Prop55
280
     0
102
RTVSPost2010PropOp55
 70
     1
102
RTVSPost2010Prop56
140
1.0
102
RTVSPost2010PropOp56
 70
     1
102
RTVSPost2010Prop57
140
1.0
102
RTVSPost2010PropOp57
 70
     1
102
RTVSPropertyOp0
 70
     1
102
RTVSPropertyOp1
 70
     1
102
RTVSPropertyOp2
 70
     1
102
RTVSPropertyOp3
 70
     1
102
RTVSPropertyOp4
 70
     1
102
RTVSPropertyOp5
 70
     1
102
RTVSPropertyOp6
 70
     1
102
RTVSPropertyOp7
 70
     1
102
RTVSPropertyOp8
 70
     1
102
RTVSPropertyOp9
 70
     1
102
RTVSPropertyOp10
 70
     1
102
RTVSPropertyOp11
 70
     1
102
RTVSPropertyOp12
 70
     1
102
RTVSPropertyOp13
 70
     1
102
RTVSPropertyOp14
 70
     1
102
RTVSPropertyOp15
 70
     1
102
RTVSPropertyOp16
 70
     1
102
RTVSPropertyOp17
 70
     1
102
RTVSPropertyOp18
 70
     1
102
RTVSPropertyOp19
 70
     1
102
RTVSPropertyOp20
 70
     1
102
RTVSPropertyOp21
 70
     1
102
RTVSPropertyOp22
 70
     1
102
RTVSPropertyOp23
 70
     1
102
RTVSPropertyOp24
 70
     1
102
RTVSPropertyOp25
 70
     1
102
RTVSPropertyOp26
 70
     1
102
RTVSPropertyOp27
 70
     1
102
RTVSPropertyOp28
 70
     1
102
RTVSPropertyOp29
 70
     1
102
RTVSPropertyOp30
 70
     1
102
RTVSPropertyOp31
 70
     1
102
RTVSPropertyOp32
 70
     1
102
RTVSPropertyOp33
 70
     1
102
RTVSPropertyOp34
 70
     1
102
RTVSPropertyOp35
 70
     1
102
RTVSPropertyOp36
 70
     1
102
RTVSPropertyOp37
 70
     1
102
RTVSPropertyOp38
 70
     1
102
RTVSPropertyOp39
 70
     1
102
RTVSPropertyOp40
 70
     1
102
RTVSPropertyOp41
 70
     1
102
RTVSPropertyOp42
 70
     1
102
RTVSPropertyOp43
 70
     1
102
RTVSPropertyOp44
 70
     1
102
RTVSPropertyOp45
 70
     1
102
RTVSPropertyOp46
 70
     1
102
RTVSPropertyOp47
 70
     1
102
RTVSPropertyOp48
 70
     1
102
RTVSPropertyOp49
 70
     1
102
RTVSPropertyOp50
 70
     1
102
RTVSPropertyOp51
 70
     0
102
RTVSPropertyOp52
 70
     0
102
RTVSPropertyOp53
 70
     1
102
RTVSPropertyOp54
 70
     1
102
RTVSPropertyOp55
 70
     1
102
RTVSPropertyOp56
 70
     1
102
RTVSPropertyOp57
 70
     1
102
RTVSPropertyOp58
 70
     1
102
RTVSPropertyOp59
 70
     1
102
RTVSPropertyOp60
 70
     1
102
RTVSPropertyOp61
 70
     1
102
RTVSPropertyOp62
 70
     1
  0
XRECORD
  5
A667
102
{ACAD_REACTORS
330
A666
102
}
330
A666
100
AcDbXrecord
280
     1
102
RTVSPost2010Prop28
280
     0
102
RTVSPost2010PropOp28
 70
     1
102
RTVSPost2010Prop29
280
     1
102
RTVSPost2010PropOp29
 70
     1
102
RTVSPost2010Prop30
280
     1
102
RTVSPost2010PropOp30
 70
     1
102
RTVSPost2010Prop31
280
     0
102
RTVSPost2010PropOp31
 70
     1
102
RTVSPost2010Prop32
280
     0
102
RTVSPost2010PropOp32
 70
     1
102
RTVSPost2010Prop33
280
     0
102
RTVSPost2010PropOp33
 70
     1
102
RTVSPost2010Prop34
280
     0
102
RTVSPost2010PropOp34
 70
     1
102
RTVSPost2010Prop35
280
     0
102
RTVSPost2010PropOp35
 70
     1
102
RTVSPost2010Prop36
280
     0
102
RTVSPost2010PropOp36
 70
     1
102
RTVSPost2010Prop37
 90
       50
102
RTVSPost2010PropOp37
 70
     1
102
RTVSPost2010Prop38
140
0.0
102
RTVSPost2010PropOp38
 70
     1
102
RTVSPost2010Prop39
140
1.0
102
RTVSPost2010PropOp39
 70
     1
102
RTVSPost2010Prop40
 90
        0
102
RTVSPost2010PropOp40
 70
     1
102
RTVSPost2010Prop41ColorIndex
 90
       18
102
RTVSPost2010Prop41ColorRGB
 90
        0
102
RTVSPost2010PropOp41
 70
     1
102
RTVSPost2010Prop42
 90
       50
102
RTVSPost2010PropOp42
 70
     1
102
RTVSPost2010Prop43
 90
        3
102
RTVSPost2010PropOp43
 70
     1
102
RTVSPost2010Prop44ColorIndex
 90
        5
102
RTVSPost2010Prop44ColorRGB
 90
      255
102
RTVSPost2010PropOp44
 70
     1
102
RTVSPost2010Prop45
280
     0
102
RTVSPost2010PropOp45
 70
     1
102
RTVSPost2010Prop46
 90
       50
102
RTVSPost2010PropOp46
 70
     1
102
RTVSPost2010Prop47
 90
       50
102
RTVSPost2010PropOp47
 70
     1
102
RTVSPost2010Prop48
 90
       50
102
RTVSPost2010PropOp48
 70
     1
102
RTVSPost2010Prop49
280
     0
102
RTVSPost2010PropOp49
 70
     1
102
RTVSPost2010Prop50
 90
       50
102
RTVSPost2010PropOp50
 70
     1
102
RTVSPost2010Prop51ColorIndex
 90
      256
102
RTVSPost2010Prop51ColorRGB
 90
-16777216
102
RTVSPost2010PropOp51
 70
     0
102
RTVSPost2010Prop52
140
1.0
102
RTVSPost2010PropOp52
 70
     0
102
RTVSPost2010Prop53
 90
        2
102
RTVSPost2010PropOp53
 70
     1
102
RTVSPost2010Prop54
  1
strokes_ogs.tif
102
RTVSPost2010PropOp54
 70
     1
102
RTVSPost2010Prop55
280
     0
102
RTVSPost2010PropOp55
 70
     1
102
RTVSPost2010Prop56
140
1.0
102
RTVSPost2010PropOp56
 70
     1
102
RTVSPost2010Prop57
140
1.0
102
RTVSPost2010PropOp57
 70
     1
102
RTVSPropertyOp0
 70
     1
102
RTVSPropertyOp1
 70
     1
102
RTVSPropertyOp2
 70
     1
102
RTVSPropertyOp3
 70
     1
102
RTVSPropertyOp4
 70
     1
102
RTVSPropertyOp5
 70
     1
102
RTVSPropertyOp6
 70
     1
102
RTVSPropertyOp7
 70
     1
102
RTVSPropertyOp8
 70
     1
102
RTVSPropertyOp9
 70
     1
102
RTVSPropertyOp10
 70
     1
102
RTVSPropertyOp11
 70
     1
102
RTVSPropertyOp12
 70
     1
102
RTVSPropertyOp13
 70
     1
102
RTVSPropertyOp14
 70
     1
102
RTVSPropertyOp15
 70
     1
102
RTVSPropertyOp16
 70
     1
102
RTVSPropertyOp17
 70
     1
102
RTVSPropertyOp18
 70
     1
102
RTVSPropertyOp19
 70
     1
102
RTVSPropertyOp20
 70
     1
102
RTVSPropertyOp21
 70
     1
102
RTVSPropertyOp22
 70
     1
102
RTVSPropertyOp23
 70
     1
102
RTVSPropertyOp24
 70
     1
102
RTVSPropertyOp25
 70
     1
102
RTVSPropertyOp26
 70
     1
102
RTVSPropertyOp27
 70
     1
102
RTVSPropertyOp28
 70
     1
102
RTVSPropertyOp29
 70
     1
102
RTVSPropertyOp30
 70
     1
102
RTVSPropertyOp31
 70
     1
102
RTVSPropertyOp32
 70
     1
102
RTVSPropertyOp33
 70
     1
102
RTVSPropertyOp34
 70
     1
102
RTVSPropertyOp35
 70
     1
102
RTVSPropertyOp36
 70
     1
102
RTVSPropertyOp37
 70
     1
102
RTVSPropertyOp38
 70
     1
102
RTVSPropertyOp39
 70
     1
102
RTVSPropertyOp40
 70
     1
102
RTVSPropertyOp41
 70
     1
102
RTVSPropertyOp42
 70
     1
102
RTVSPropertyOp43
 70
     1
102
RTVSPropertyOp44
 70
     1
102
RTVSPropertyOp45
 70
     1
102
RTVSPropertyOp46
 70
     1
102
RTVSPropertyOp47
 70
     1
102
RTVSPropertyOp48
 70
     1
102
RTVSPropertyOp49
 70
     1
102
RTVSPropertyOp50
 70
     1
102
RTVSPropertyOp51
 70
     0
102
RTVSPropertyOp52
 70
     0
102
RTVSPropertyOp53
 70
     1
102
RTVSPropertyOp54
 70
     1
102
RTVSPropertyOp55
 70
     1
102
RTVSPropertyOp56
 70
     1
102
RTVSPropertyOp57
 70
     1
102
RTVSPropertyOp58
 70
     1
102
RTVSPropertyOp59
 70
     1
102
RTVSPropertyOp60
 70
     1
102
RTVSPropertyOp61
 70
     1
102
RTVSPropertyOp62
 70
     1
  0
XRECORD
  5
A66B
102
{ACAD_REACTORS
330
A66A
102
}
330
A66A
100
AcDbXrecord
280
     1
102
RTVSPost2010Prop28
280
     0
102
RTVSPost2010PropOp28
 70
     1
102
RTVSPost2010Prop29
280
     1
102
RTVSPost2010PropOp29
 70
     1
102
RTVSPost2010Prop30
280
     1
102
RTVSPost2010PropOp30
 70
     1
102
RTVSPost2010Prop31
280
     0
102
RTVSPost2010PropOp31
 70
     1
102
RTVSPost2010Prop32
280
     0
102
RTVSPost2010PropOp32
 70
     1
102
RTVSPost2010Prop33
280
     0
102
RTVSPost2010PropOp33
 70
     1
102
RTVSPost2010Prop34
280
     0
102
RTVSPost2010PropOp34
 70
     1
102
RTVSPost2010Prop35
280
     0
102
RTVSPost2010PropOp35
 70
     1
102
RTVSPost2010Prop36
280
     0
102
RTVSPost2010PropOp36
 70
     1
102
RTVSPost2010Prop37
 90
       50
102
RTVSPost2010PropOp37
 70
     1
102
RTVSPost2010Prop38
140
0.0
102
RTVSPost2010PropOp38
 70
     1
102
RTVSPost2010Prop39
140
1.0
102
RTVSPost2010PropOp39
 70
     1
102
RTVSPost2010Prop40
 90
        0
102
RTVSPost2010PropOp40
 70
     1
102
RTVSPost2010Prop41ColorIndex
 90
       18
102
RTVSPost2010Prop41ColorRGB
 90
        0
102
RTVSPost2010PropOp41
 70
     1
102
RTVSPost2010Prop42
 90
       50
102
RTVSPost2010PropOp42
 70
     1
102
RTVSPost2010Prop43
 90
        3
102
RTVSPost2010PropOp43
 70
     1
102
RTVSPost2010Prop44ColorIndex
 90
        5
102
RTVSPost2010Prop44ColorRGB
 90
      255
102
RTVSPost2010PropOp44
 70
     1
102
RTVSPost2010Prop45
280
     0
102
RTVSPost2010PropOp45
 70
     1
102
RTVSPost2010Prop46
 90
       50
102
RTVSPost2010PropOp46
 70
     1
102
RTVSPost2010Prop47
 90
       50
102
RTVSPost2010PropOp47
 70
     1
102
RTVSPost2010Prop48
 90
       50
102
RTVSPost2010PropOp48
 70
     1
102
RTVSPost2010Prop49
280
     0
102
RTVSPost2010PropOp49
 70
     1
102
RTVSPost2010Prop50
 90
       50
102
RTVSPost2010PropOp50
 70
     1
102
RTVSPost2010Prop51ColorIndex
 90
      256
102
RTVSPost2010Prop51ColorRGB
 90
-16777216
102
RTVSPost2010PropOp51
 70
     0
102
RTVSPost2010Prop52
140
1.0
102
RTVSPost2010PropOp52
 70
     0
102
RTVSPost2010Prop53
 90
        2
102
RTVSPost2010PropOp53
 70
     1
102
RTVSPost2010Prop54
  1
strokes_ogs.tif
102
RTVSPost2010PropOp54
 70
     1
102
RTVSPost2010Prop55
280
     0
102
RTVSPost2010PropOp55
 70
     1
102
RTVSPost2010Prop56
140
1.0
102
RTVSPost2010PropOp56
 70
     1
102
RTVSPost2010Prop57
140
1.0
102
RTVSPost2010PropOp57
 70
     1
102
RTVSPropertyOp0
 70
     1
102
RTVSPropertyOp1
 70
     1
102
RTVSPropertyOp2
 70
     1
102
RTVSPropertyOp3
 70
     1
102
RTVSPropertyOp4
 70
     1
102
RTVSPropertyOp5
 70
     1
102
RTVSPropertyOp6
 70
     1
102
RTVSPropertyOp7
 70
     1
102
RTVSPropertyOp8
 70
     1
102
RTVSPropertyOp9
 70
     1
102
RTVSPropertyOp10
 70
     1
102
RTVSPropertyOp11
 70
     1
102
RTVSPropertyOp12
 70
     1
102
RTVSPropertyOp13
 70
     1
102
RTVSPropertyOp14
 70
     1
102
RTVSPropertyOp15
 70
     1
102
RTVSPropertyOp16
 70
     1
102
RTVSPropertyOp17
 70
     1
102
RTVSPropertyOp18
 70
     1
102
RTVSPropertyOp19
 70
     1
102
RTVSPropertyOp20
 70
     1
102
RTVSPropertyOp21
 70
     1
102
RTVSPropertyOp22
 70
     1
102
RTVSPropertyOp23
 70
     1
102
RTVSPropertyOp24
 70
     1
102
RTVSPropertyOp25
 70
     1
102
RTVSPropertyOp26
 70
     1
102
RTVSPropertyOp27
 70
     1
102
RTVSPropertyOp28
 70
     1
102
RTVSPropertyOp29
 70
     1
102
RTVSPropertyOp30
 70
     1
102
RTVSPropertyOp31
 70
     1
102
RTVSPropertyOp32
 70
     1
102
RTVSPropertyOp33
 70
     1
102
RTVSPropertyOp34
 70
     1
102
RTVSPropertyOp35
 70
     1
102
RTVSPropertyOp36
 70
     1
102
RTVSPropertyOp37
 70
     1
102
RTVSPropertyOp38
 70
     1
102
RTVSPropertyOp39
 70
     1
102
RTVSPropertyOp40
 70
     1
102
RTVSPropertyOp41
 70
     1
102
RTVSPropertyOp42
 70
     1
102
RTVSPropertyOp43
 70
     1
102
RTVSPropertyOp44
 70
     1
102
RTVSPropertyOp45
 70
     1
102
RTVSPropertyOp46
 70
     1
102
RTVSPropertyOp47
 70
     1
102
RTVSPropertyOp48
 70
     1
102
RTVSPropertyOp49
 70
     1
102
RTVSPropertyOp50
 70
     1
102
RTVSPropertyOp51
 70
     0
102
RTVSPropertyOp52
 70
     0
102
RTVSPropertyOp53
 70
     1
102
RTVSPropertyOp54
 70
     1
102
RTVSPropertyOp55
 70
     1
102
RTVSPropertyOp56
 70
     1
102
RTVSPropertyOp57
 70
     1
102
RTVSPropertyOp58
 70
     1
102
RTVSPropertyOp59
 70
     1
102
RTVSPropertyOp60
 70
     1
102
RTVSPropertyOp61
 70
     1
102
RTVSPropertyOp62
 70
     1
  0
XRECORD
  5
A685
102
{ACAD_REACTORS
330
A684
102
}
330
A684
100
AcDbXrecord
280
     1
102
RTVSPost2010Prop28
280
     0
102
RTVSPost2010PropOp28
 70
     1
102
RTVSPost2010Prop29
280
     1
102
RTVSPost2010PropOp29
 70
     1
102
RTVSPost2010Prop30
280
     1
102
RTVSPost2010PropOp30
 70
     1
102
RTVSPost2010Prop31
280
     0
102
RTVSPost2010PropOp31
 70
     1
102
RTVSPost2010Prop32
280
     0
102
RTVSPost2010PropOp32
 70
     1
102
RTVSPost2010Prop33
280
     0
102
RTVSPost2010PropOp33
 70
     1
102
RTVSPost2010Prop34
280
     0
102
RTVSPost2010PropOp34
 70
     1
102
RTVSPost2010Prop35
280
     0
102
RTVSPost2010PropOp35
 70
     1
102
RTVSPost2010Prop36
280
     0
102
RTVSPost2010PropOp36
 70
     1
102
RTVSPost2010Prop37
 90
       50
102
RTVSPost2010PropOp37
 70
     0
102
RTVSPost2010Prop38
140
0.0
102
RTVSPost2010PropOp38
 70
     0
102
RTVSPost2010Prop39
140
1.0
102
RTVSPost2010PropOp39
 70
     0
102
RTVSPost2010Prop40
 90
        0
102
RTVSPost2010PropOp40
 70
     0
102
RTVSPost2010Prop41ColorIndex
 90
       18
102
RTVSPost2010Prop41ColorRGB
 90
        0
102
RTVSPost2010PropOp41
 70
     0
102
RTVSPost2010Prop42
 90
       50
102
RTVSPost2010PropOp42
 70
     0
102
RTVSPost2010Prop43
 90
        3
102
RTVSPost2010PropOp43
 70
     0
102
RTVSPost2010Prop44ColorIndex
 90
        5
102
RTVSPost2010Prop44ColorRGB
 90
      255
102
RTVSPost2010PropOp44
 70
     0
102
RTVSPost2010Prop45
280
     0
102
RTVSPost2010PropOp45
 70
     1
102
RTVSPost2010Prop46
 90
       50
102
RTVSPost2010PropOp46
 70
     0
102
RTVSPost2010Prop47
 90
       50
102
RTVSPost2010PropOp47
 70
     0
102
RTVSPost2010Prop48
 90
       50
102
RTVSPost2010PropOp48
 70
     0
102
RTVSPost2010Prop49
280
     0
102
RTVSPost2010PropOp49
 70
     1
102
RTVSPost2010Prop50
 90
       50
102
RTVSPost2010PropOp50
 70
     0
102
RTVSPost2010Prop51ColorIndex
 90
      256
102
RTVSPost2010Prop51ColorRGB
 90
-16777216
102
RTVSPost2010PropOp51
 70
     0
102
RTVSPost2010Prop52
140
1.0
102
RTVSPost2010PropOp52
 70
     0
102
RTVSPost2010Prop53
 90
        2
102
RTVSPost2010PropOp53
 70
     0
102
RTVSPost2010Prop54
  1
strokes_ogs.tif
102
RTVSPost2010PropOp54
 70
     0
102
RTVSPost2010Prop55
280
     0
102
RTVSPost2010PropOp55
 70
     1
102
RTVSPost2010Prop56
140
1.0
102
RTVSPost2010PropOp56
 70
     0
102
RTVSPost2010Prop57
140
1.0
102
RTVSPost2010PropOp57
 70
     0
102
RTVSPropertyOp0
 70
     0
102
RTVSPropertyOp1
 70
     0
102
RTVSPropertyOp2
 70
     0
102
RTVSPropertyOp3
 70
     0
102
RTVSPropertyOp4
 70
     0
102
RTVSPropertyOp5
 70
     0
102
RTVSPropertyOp6
 70
     0
102
RTVSPropertyOp7
 70
     0
102
RTVSPropertyOp8
 70
     0
102
RTVSPropertyOp9
 70
     0
102
RTVSPropertyOp10
 70
     0
102
RTVSPropertyOp11
 70
     0
102
RTVSPropertyOp12
 70
     0
102
RTVSPropertyOp13
 70
     0
102
RTVSPropertyOp14
 70
     2
102
RTVSPropertyOp15
 70
     0
102
RTVSPropertyOp16
 70
     0
102
RTVSPropertyOp17
 70
     0
102
RTVSPropertyOp18
 70
     0
102
RTVSPropertyOp19
 70
     0
102
RTVSPropertyOp20
 70
     0
102
RTVSPropertyOp21
 70
     0
102
RTVSPropertyOp22
 70
     0
102
RTVSPropertyOp23
 70
     0
102
RTVSPropertyOp24
 70
     0
102
RTVSPropertyOp25
 70
     0
102
RTVSPropertyOp26
 70
     0
102
RTVSPropertyOp27
 70
     0
102
RTVSPropertyOp28
 70
     1
102
RTVSPropertyOp29
 70
     1
102
RTVSPropertyOp30
 70
     1
102
RTVSPropertyOp31
 70
     1
102
RTVSPropertyOp32
 70
     1
102
RTVSPropertyOp33
 70
     1
102
RTVSPropertyOp34
 70
     1
102
RTVSPropertyOp35
 70
     1
102
RTVSPropertyOp36
 70
     1
102
RTVSPropertyOp37
 70
     0
102
RTVSPropertyOp38
 70
     0
102
RTVSPropertyOp39
 70
     0
102
RTVSPropertyOp40
 70
     0
102
RTVSPropertyOp41
 70
     0
102
RTVSPropertyOp42
 70
     0
102
RTVSPropertyOp43
 70
     0
102
RTVSPropertyOp44
 70
     0
102
RTVSPropertyOp45
 70
     1
102
RTVSPropertyOp46
 70
     0
102
RTVSPropertyOp47
 70
     0
102
RTVSPropertyOp48
 70
     0
102
RTVSPropertyOp49
 70
     1
102
RTVSPropertyOp50
 70
     0
102
RTVSPropertyOp51
 70
     0
102
RTVSPropertyOp52
 70
     0
102
RTVSPropertyOp53
 70
     0
102
RTVSPropertyOp54
 70
     0
102
RTVSPropertyOp55
 70
     1
102
RTVSPropertyOp56
 70
     0
102
RTVSPropertyOp57
 70
     0
102
RTVSPropertyOp58
 70
     0
102
RTVSPropertyOp59
 70
     0
102
RTVSPropertyOp60
 70
     0
102
RTVSPropertyOp61
 70
     0
102
RTVSPropertyOp62
 70
     0
  0
XRECORD
  5
A673
102
{ACAD_REACTORS
330
A672
102
}
330
A672
100
AcDbXrecord
280
     1
102
RTVSPost2010Prop28
280
     0
102
RTVSPost2010PropOp28
 70
     1
102
RTVSPost2010Prop29
280
     1
102
RTVSPost2010PropOp29
 70
     1
102
RTVSPost2010Prop30
280
     1
102
RTVSPost2010PropOp30
 70
     1
102
RTVSPost2010Prop31
280
     0
102
RTVSPost2010PropOp31
 70
     1
102
RTVSPost2010Prop32
280
     0
102
RTVSPost2010PropOp32
 70
     1
102
RTVSPost2010Prop33
280
     0
102
RTVSPost2010PropOp33
 70
     1
102
RTVSPost2010Prop34
280
     0
102
RTVSPost2010PropOp34
 70
     1
102
RTVSPost2010Prop35
280
     0
102
RTVSPost2010PropOp35
 70
     1
102
RTVSPost2010Prop36
280
     0
102
RTVSPost2010PropOp36
 70
     1
102
RTVSPost2010Prop37
 90
       50
102
RTVSPost2010PropOp37
 70
     1
102
RTVSPost2010Prop38
140
0.0
102
RTVSPost2010PropOp38
 70
     1
102
RTVSPost2010Prop39
140
1.0
102
RTVSPost2010PropOp39
 70
     1
102
RTVSPost2010Prop40
 90
        0
102
RTVSPost2010PropOp40
 70
     1
102
RTVSPost2010Prop41ColorIndex
 90
       18
102
RTVSPost2010Prop41ColorRGB
 90
        0
102
RTVSPost2010PropOp41
 70
     1
102
RTVSPost2010Prop42
 90
       50
102
RTVSPost2010PropOp42
 70
     1
102
RTVSPost2010Prop43
 90
        3
102
RTVSPost2010PropOp43
 70
     1
102
RTVSPost2010Prop44ColorIndex
 90
        5
102
RTVSPost2010Prop44ColorRGB
 90
      255
102
RTVSPost2010PropOp44
 70
     1
102
RTVSPost2010Prop45
280
     0
102
RTVSPost2010PropOp45
 70
     1
102
RTVSPost2010Prop46
 90
       50
102
RTVSPost2010PropOp46
 70
     1
102
RTVSPost2010Prop47
 90
       50
102
RTVSPost2010PropOp47
 70
     1
102
RTVSPost2010Prop48
 90
       50
102
RTVSPost2010PropOp48
 70
     1
102
RTVSPost2010Prop49
280
     0
102
RTVSPost2010PropOp49
 70
     1
102
RTVSPost2010Prop50
 90
       50
102
RTVSPost2010PropOp50
 70
     1
102
RTVSPost2010Prop51ColorIndex
 90
      256
102
RTVSPost2010Prop51ColorRGB
 90
-16777216
102
RTVSPost2010PropOp51
 70
     0
102
RTVSPost2010Prop52
140
1.0
102
RTVSPost2010PropOp52
 70
     0
102
RTVSPost2010Prop53
 90
        2
102
RTVSPost2010PropOp53
 70
     1
102
RTVSPost2010Prop54
  1
strokes_ogs.tif
102
RTVSPost2010PropOp54
 70
     1
102
RTVSPost2010Prop55
280
     0
102
RTVSPost2010PropOp55
 70
     1
102
RTVSPost2010Prop56
140
1.0
102
RTVSPost2010PropOp56
 70
     1
102
RTVSPost2010Prop57
140
1.0
102
RTVSPost2010PropOp57
 70
     1
102
RTVSPropertyOp0
 70
     1
102
RTVSPropertyOp1
 70
     1
102
RTVSPropertyOp2
 70
     1
102
RTVSPropertyOp3
 70
     1
102
RTVSPropertyOp4
 70
     1
102
RTVSPropertyOp5
 70
     1
102
RTVSPropertyOp6
 70
     1
102
RTVSPropertyOp7
 70
     1
102
RTVSPropertyOp8
 70
     1
102
RTVSPropertyOp9
 70
     1
102
RTVSPropertyOp10
 70
     1
102
RTVSPropertyOp11
 70
     1
102
RTVSPropertyOp12
 70
     1
102
RTVSPropertyOp13
 70
     1
102
RTVSPropertyOp14
 70
     1
102
RTVSPropertyOp15
 70
     1
102
RTVSPropertyOp16
 70
     1
102
RTVSPropertyOp17
 70
     1
102
RTVSPropertyOp18
 70
     1
102
RTVSPropertyOp19
 70
     1
102
RTVSPropertyOp20
 70
     1
102
RTVSPropertyOp21
 70
     1
102
RTVSPropertyOp22
 70
     1
102
RTVSPropertyOp23
 70
     1
102
RTVSPropertyOp24
 70
     1
102
RTVSPropertyOp25
 70
     1
102
RTVSPropertyOp26
 70
     1
102
RTVSPropertyOp27
 70
     1
102
RTVSPropertyOp28
 70
     1
102
RTVSPropertyOp29
 70
     1
102
RTVSPropertyOp30
 70
     1
102
RTVSPropertyOp31
 70
     1
102
RTVSPropertyOp32
 70
     1
102
RTVSPropertyOp33
 70
     1
102
RTVSPropertyOp34
 70
     1
102
RTVSPropertyOp35
 70
     1
102
RTVSPropertyOp36
 70
     1
102
RTVSPropertyOp37
 70
     1
102
RTVSPropertyOp38
 70
     1
102
RTVSPropertyOp39
 70
     1
102
RTVSPropertyOp40
 70
     1
102
RTVSPropertyOp41
 70
     1
102
RTVSPropertyOp42
 70
     1
102
RTVSPropertyOp43
 70
     1
102
RTVSPropertyOp44
 70
     1
102
RTVSPropertyOp45
 70
     1
102
RTVSPropertyOp46
 70
     1
102
RTVSPropertyOp47
 70
     1
102
RTVSPropertyOp48
 70
     1
102
RTVSPropertyOp49
 70
     1
102
RTVSPropertyOp50
 70
     1
102
RTVSPropertyOp51
 70
     0
102
RTVSPropertyOp52
 70
     0
102
RTVSPropertyOp53
 70
     1
102
RTVSPropertyOp54
 70
     1
102
RTVSPropertyOp55
 70
     1
102
RTVSPropertyOp56
 70
     1
102
RTVSPropertyOp57
 70
     1
102
RTVSPropertyOp58
 70
     1
102
RTVSPropertyOp59
 70
     1
102
RTVSPropertyOp60
 70
     1
102
RTVSPropertyOp61
 70
     1
102
RTVSPropertyOp62
 70
     1
  0
XRECORD
  5
A657
102
{ACAD_REACTORS
330
A656
102
}
330
A656
100
AcDbXrecord
280
     1
102
RTVSPost2010Prop28
280
     0
102
RTVSPost2010PropOp28
 70
     1
102
RTVSPost2010Prop29
280
     1
102
RTVSPost2010PropOp29
 70
     1
102
RTVSPost2010Prop30
280
     1
102
RTVSPost2010PropOp30
 70
     1
102
RTVSPost2010Prop31
280
     0
102
RTVSPost2010PropOp31
 70
     1
102
RTVSPost2010Prop32
280
     0
102
RTVSPost2010PropOp32
 70
     1
102
RTVSPost2010Prop33
280
     0
102
RTVSPost2010PropOp33
 70
     1
102
RTVSPost2010Prop34
280
     0
102
RTVSPost2010PropOp34
 70
     1
102
RTVSPost2010Prop35
280
     0
102
RTVSPost2010PropOp35
 70
     1
102
RTVSPost2010Prop36
280
     0
102
RTVSPost2010PropOp36
 70
     1
102
RTVSPost2010Prop37
 90
       50
102
RTVSPost2010PropOp37
 70
     1
102
RTVSPost2010Prop38
140
0.0
102
RTVSPost2010PropOp38
 70
     1
102
RTVSPost2010Prop39
140
1.0
102
RTVSPost2010PropOp39
 70
     1
102
RTVSPost2010Prop40
 90
        0
102
RTVSPost2010PropOp40
 70
     1
102
RTVSPost2010Prop41ColorIndex
 90
       18
102
RTVSPost2010Prop41ColorRGB
 90
        0
102
RTVSPost2010PropOp41
 70
     1
102
RTVSPost2010Prop42
 90
       50
102
RTVSPost2010PropOp42
 70
     1
102
RTVSPost2010Prop43
 90
        3
102
RTVSPost2010PropOp43
 70
     1
102
RTVSPost2010Prop44ColorIndex
 90
        5
102
RTVSPost2010Prop44ColorRGB
 90
      255
102
RTVSPost2010PropOp44
 70
     1
102
RTVSPost2010Prop45
280
     0
102
RTVSPost2010PropOp45
 70
     1
102
RTVSPost2010Prop46
 90
       50
102
RTVSPost2010PropOp46
 70
     1
102
RTVSPost2010Prop47
 90
       50
102
RTVSPost2010PropOp47
 70
     1
102
RTVSPost2010Prop48
 90
       50
102
RTVSPost2010PropOp48
 70
     1
102
RTVSPost2010Prop49
280
     0
102
RTVSPost2010PropOp49
 70
     1
102
RTVSPost2010Prop50
 90
       50
102
RTVSPost2010PropOp50
 70
     1
102
RTVSPost2010Prop51ColorIndex
 90
      256
102
RTVSPost2010Prop51ColorRGB
 90
-16777216
102
RTVSPost2010PropOp51
 70
     0
102
RTVSPost2010Prop52
140
1.0
102
RTVSPost2010PropOp52
 70
     0
102
RTVSPost2010Prop53
 90
        2
102
RTVSPost2010PropOp53
 70
     1
102
RTVSPost2010Prop54
  1
strokes_ogs.tif
102
RTVSPost2010PropOp54
 70
     1
102
RTVSPost2010Prop55
280
     0
102
RTVSPost2010PropOp55
 70
     1
102
RTVSPost2010Prop56
140
1.0
102
RTVSPost2010PropOp56
 70
     1
102
RTVSPost2010Prop57
140
1.0
102
RTVSPost2010PropOp57
 70
     1
102
RTVSPropertyOp0
 70
     1
102
RTVSPropertyOp1
 70
     1
102
RTVSPropertyOp2
 70
     1
102
RTVSPropertyOp3
 70
     1
102
RTVSPropertyOp4
 70
     1
102
RTVSPropertyOp5
 70
     1
102
RTVSPropertyOp6
 70
     1
102
RTVSPropertyOp7
 70
     1
102
RTVSPropertyOp8
 70
     1
102
RTVSPropertyOp9
 70
     1
102
RTVSPropertyOp10
 70
     1
102
RTVSPropertyOp11
 70
     1
102
RTVSPropertyOp12
 70
     1
102
RTVSPropertyOp13
 70
     1
102
RTVSPropertyOp14
 70
     1
102
RTVSPropertyOp15
 70
     1
102
RTVSPropertyOp16
 70
     1
102
RTVSPropertyOp17
 70
     1
102
RTVSPropertyOp18
 70
     1
102
RTVSPropertyOp19
 70
     1
102
RTVSPropertyOp20
 70
     1
102
RTVSPropertyOp21
 70
     1
102
RTVSPropertyOp22
 70
     1
102
RTVSPropertyOp23
 70
     1
102
RTVSPropertyOp24
 70
     1
102
RTVSPropertyOp25
 70
     1
102
RTVSPropertyOp26
 70
     1
102
RTVSPropertyOp27
 70
     1
102
RTVSPropertyOp28
 70
     1
102
RTVSPropertyOp29
 70
     1
102
RTVSPropertyOp30
 70
     1
102
RTVSPropertyOp31
 70
     1
102
RTVSPropertyOp32
 70
     1
102
RTVSPropertyOp33
 70
     1
102
RTVSPropertyOp34
 70
     1
102
RTVSPropertyOp35
 70
     1
102
RTVSPropertyOp36
 70
     1
102
RTVSPropertyOp37
 70
     1
102
RTVSPropertyOp38
 70
     1
102
RTVSPropertyOp39
 70
     1
102
RTVSPropertyOp40
 70
     1
102
RTVSPropertyOp41
 70
     1
102
RTVSPropertyOp42
 70
     1
102
RTVSPropertyOp43
 70
     1
102
RTVSPropertyOp44
 70
     1
102
RTVSPropertyOp45
 70
     1
102
RTVSPropertyOp46
 70
     1
102
RTVSPropertyOp47
 70
     1
102
RTVSPropertyOp48
 70
     1
102
RTVSPropertyOp49
 70
     1
102
RTVSPropertyOp50
 70
     1
102
RTVSPropertyOp51
 70
     0
102
RTVSPropertyOp52
 70
     0
102
RTVSPropertyOp53
 70
     1
102
RTVSPropertyOp54
 70
     1
102
RTVSPropertyOp55
 70
     1
102
RTVSPropertyOp56
 70
     1
102
RTVSPropertyOp57
 70
     1
102
RTVSPropertyOp58
 70
     1
102
RTVSPropertyOp59
 70
     1
102
RTVSPropertyOp60
 70
     1
102
RTVSPropertyOp61
 70
     1
102
RTVSPropertyOp62
 70
     1
  0
XRECORD
  5
A659
102
{ACAD_REACTORS
330
A658
102
}
330
A658
100
AcDbXrecord
280
     1
102
RTVSPost2010Prop28
280
     0
102
RTVSPost2010PropOp28
 70
     1
102
RTVSPost2010Prop29
280
     1
102
RTVSPost2010PropOp29
 70
     1
102
RTVSPost2010Prop30
280
     1
102
RTVSPost2010PropOp30
 70
     1
102
RTVSPost2010Prop31
280
     0
102
RTVSPost2010PropOp31
 70
     1
102
RTVSPost2010Prop32
280
     0
102
RTVSPost2010PropOp32
 70
     1
102
RTVSPost2010Prop33
280
     0
102
RTVSPost2010PropOp33
 70
     1
102
RTVSPost2010Prop34
280
     0
102
RTVSPost2010PropOp34
 70
     1
102
RTVSPost2010Prop35
280
     0
102
RTVSPost2010PropOp35
 70
     1
102
RTVSPost2010Prop36
280
     0
102
RTVSPost2010PropOp36
 70
     1
102
RTVSPost2010Prop37
 90
       50
102
RTVSPost2010PropOp37
 70
     1
102
RTVSPost2010Prop38
140
0.0
102
RTVSPost2010PropOp38
 70
     1
102
RTVSPost2010Prop39
140
1.0
102
RTVSPost2010PropOp39
 70
     1
102
RTVSPost2010Prop40
 90
        0
102
RTVSPost2010PropOp40
 70
     1
102
RTVSPost2010Prop41ColorIndex
 90
       18
102
RTVSPost2010Prop41ColorRGB
 90
        0
102
RTVSPost2010PropOp41
 70
     1
102
RTVSPost2010Prop42
 90
       50
102
RTVSPost2010PropOp42
 70
     1
102
RTVSPost2010Prop43
 90
        3
102
RTVSPost2010PropOp43
 70
     1
102
RTVSPost2010Prop44ColorIndex
 90
        5
102
RTVSPost2010Prop44ColorRGB
 90
      255
102
RTVSPost2010PropOp44
 70
     1
102
RTVSPost2010Prop45
280
     0
102
RTVSPost2010PropOp45
 70
     1
102
RTVSPost2010Prop46
 90
       50
102
RTVSPost2010PropOp46
 70
     1
102
RTVSPost2010Prop47
 90
       50
102
RTVSPost2010PropOp47
 70
     1
102
RTVSPost2010Prop48
 90
       50
102
RTVSPost2010PropOp48
 70
     1
102
RTVSPost2010Prop49
280
     0
102
RTVSPost2010PropOp49
 70
     1
102
RTVSPost2010Prop50
 90
       50
102
RTVSPost2010PropOp50
 70
     1
102
RTVSPost2010Prop51ColorIndex
 90
      256
102
RTVSPost2010Prop51ColorRGB
 90
-16777216
102
RTVSPost2010PropOp51
 70
     0
102
RTVSPost2010Prop52
140
1.0
102
RTVSPost2010PropOp52
 70
     0
102
RTVSPost2010Prop53
 90
        2
102
RTVSPost2010PropOp53
 70
     1
102
RTVSPost2010Prop54
  1
strokes_ogs.tif
102
RTVSPost2010PropOp54
 70
     1
102
RTVSPost2010Prop55
280
     0
102
RTVSPost2010PropOp55
 70
     1
102
RTVSPost2010Prop56
140
1.0
102
RTVSPost2010PropOp56
 70
     1
102
RTVSPost2010Prop57
140
1.0
102
RTVSPost2010PropOp57
 70
     1
102
RTVSPropertyOp0
 70
     1
102
RTVSPropertyOp1
 70
     1
102
RTVSPropertyOp2
 70
     1
102
RTVSPropertyOp3
 70
     1
102
RTVSPropertyOp4
 70
     1
102
RTVSPropertyOp5
 70
     1
102
RTVSPropertyOp6
 70
     1
102
RTVSPropertyOp7
 70
     1
102
RTVSPropertyOp8
 70
     1
102
RTVSPropertyOp9
 70
     1
102
RTVSPropertyOp10
 70
     1
102
RTVSPropertyOp11
 70
     1
102
RTVSPropertyOp12
 70
     1
102
RTVSPropertyOp13
 70
     1
102
RTVSPropertyOp14
 70
     1
102
RTVSPropertyOp15
 70
     1
102
RTVSPropertyOp16
 70
     1
102
RTVSPropertyOp17
 70
     1
102
RTVSPropertyOp18
 70
     1
102
RTVSPropertyOp19
 70
     1
102
RTVSPropertyOp20
 70
     1
102
RTVSPropertyOp21
 70
     1
102
RTVSPropertyOp22
 70
     1
102
RTVSPropertyOp23
 70
     1
102
RTVSPropertyOp24
 70
     1
102
RTVSPropertyOp25
 70
     1
102
RTVSPropertyOp26
 70
     1
102
RTVSPropertyOp27
 70
     1
102
RTVSPropertyOp28
 70
     1
102
RTVSPropertyOp29
 70
     1
102
RTVSPropertyOp30
 70
     1
102
RTVSPropertyOp31
 70
     1
102
RTVSPropertyOp32
 70
     1
102
RTVSPropertyOp33
 70
     1
102
RTVSPropertyOp34
 70
     1
102
RTVSPropertyOp35
 70
     1
102
RTVSPropertyOp36
 70
     1
102
RTVSPropertyOp37
 70
     1
102
RTVSPropertyOp38
 70
     1
102
RTVSPropertyOp39
 70
     1
102
RTVSPropertyOp40
 70
     1
102
RTVSPropertyOp41
 70
     1
102
RTVSPropertyOp42
 70
     1
102
RTVSPropertyOp43
 70
     1
102
RTVSPropertyOp44
 70
     1
102
RTVSPropertyOp45
 70
     1
102
RTVSPropertyOp46
 70
     1
102
RTVSPropertyOp47
 70
     1
102
RTVSPropertyOp48
 70
     1
102
RTVSPropertyOp49
 70
     1
102
RTVSPropertyOp50
 70
     1
102
RTVSPropertyOp51
 70
     0
102
RTVSPropertyOp52
 70
     0
102
RTVSPropertyOp53
 70
     1
102
RTVSPropertyOp54
 70
     1
102
RTVSPropertyOp55
 70
     1
102
RTVSPropertyOp56
 70
     1
102
RTVSPropertyOp57
 70
     1
102
RTVSPropertyOp58
 70
     1
102
RTVSPropertyOp59
 70
     1
102
RTVSPropertyOp60
 70
     1
102
RTVSPropertyOp61
 70
     1
102
RTVSPropertyOp62
 70
     1
  0
XRECORD
  5
A65B
102
{ACAD_REACTORS
330
A65A
102
}
330
A65A
100
AcDbXrecord
280
     1
102
RTVSPost2010Prop28
280
     0
102
RTVSPost2010PropOp28
 70
     1
102
RTVSPost2010Prop29
280
     1
102
RTVSPost2010PropOp29
 70
     1
102
RTVSPost2010Prop30
280
     1
102
RTVSPost2010PropOp30
 70
     1
102
RTVSPost2010Prop31
280
     0
102
RTVSPost2010PropOp31
 70
     1
102
RTVSPost2010Prop32
280
     0
102
RTVSPost2010PropOp32
 70
     1
102
RTVSPost2010Prop33
280
     0
102
RTVSPost2010PropOp33
 70
     1
102
RTVSPost2010Prop34
280
     0
102
RTVSPost2010PropOp34
 70
     1
102
RTVSPost2010Prop35
280
     0
102
RTVSPost2010PropOp35
 70
     1
102
RTVSPost2010Prop36
280
     0
102
RTVSPost2010PropOp36
 70
     1
102
RTVSPost2010Prop37
 90
       50
102
RTVSPost2010PropOp37
 70
     1
102
RTVSPost2010Prop38
140
0.0
102
RTVSPost2010PropOp38
 70
     1
102
RTVSPost2010Prop39
140
1.0
102
RTVSPost2010PropOp39
 70
     1
102
RTVSPost2010Prop40
 90
        0
102
RTVSPost2010PropOp40
 70
     1
102
RTVSPost2010Prop41ColorIndex
 90
       18
102
RTVSPost2010Prop41ColorRGB
 90
        0
102
RTVSPost2010PropOp41
 70
     1
102
RTVSPost2010Prop42
 90
       50
102
RTVSPost2010PropOp42
 70
     1
102
RTVSPost2010Prop43
 90
        3
102
RTVSPost2010PropOp43
 70
     1
102
RTVSPost2010Prop44ColorIndex
 90
        5
102
RTVSPost2010Prop44ColorRGB
 90
      255
102
RTVSPost2010PropOp44
 70
     1
102
RTVSPost2010Prop45
280
     0
102
RTVSPost2010PropOp45
 70
     1
102
RTVSPost2010Prop46
 90
       50
102
RTVSPost2010PropOp46
 70
     1
102
RTVSPost2010Prop47
 90
       50
102
RTVSPost2010PropOp47
 70
     1
102
RTVSPost2010Prop48
 90
       50
102
RTVSPost2010PropOp48
 70
     1
102
RTVSPost2010Prop49
280
     0
102
RTVSPost2010PropOp49
 70
     1
102
RTVSPost2010Prop50
 90
       50
102
RTVSPost2010PropOp50
 70
     1
102
RTVSPost2010Prop51ColorIndex
 90
      256
102
RTVSPost2010Prop51ColorRGB
 90
-16777216
102
RTVSPost2010PropOp51
 70
     0
102
RTVSPost2010Prop52
140
1.0
102
RTVSPost2010PropOp52
 70
     0
102
RTVSPost2010Prop53
 90
        2
102
RTVSPost2010PropOp53
 70
     1
102
RTVSPost2010Prop54
  1
strokes_ogs.tif
102
RTVSPost2010PropOp54
 70
     1
102
RTVSPost2010Prop55
280
     0
102
RTVSPost2010PropOp55
 70
     1
102
RTVSPost2010Prop56
140
1.0
102
RTVSPost2010PropOp56
 70
     1
102
RTVSPost2010Prop57
140
1.0
102
RTVSPost2010PropOp57
 70
     1
102
RTVSPropertyOp0
 70
     1
102
RTVSPropertyOp1
 70
     1
102
RTVSPropertyOp2
 70
     1
102
RTVSPropertyOp3
 70
     1
102
RTVSPropertyOp4
 70
     1
102
RTVSPropertyOp5
 70
     1
102
RTVSPropertyOp6
 70
     1
102
RTVSPropertyOp7
 70
     1
102
RTVSPropertyOp8
 70
     1
102
RTVSPropertyOp9
 70
     1
102
RTVSPropertyOp10
 70
     1
102
RTVSPropertyOp11
 70
     1
102
RTVSPropertyOp12
 70
     1
102
RTVSPropertyOp13
 70
     1
102
RTVSPropertyOp14
 70
     1
102
RTVSPropertyOp15
 70
     1
102
RTVSPropertyOp16
 70
     1
102
RTVSPropertyOp17
 70
     1
102
RTVSPropertyOp18
 70
     1
102
RTVSPropertyOp19
 70
     1
102
RTVSPropertyOp20
 70
     1
102
RTVSPropertyOp21
 70
     1
102
RTVSPropertyOp22
 70
     1
102
RTVSPropertyOp23
 70
     1
102
RTVSPropertyOp24
 70
     1
102
RTVSPropertyOp25
 70
     1
102
RTVSPropertyOp26
 70
     1
102
RTVSPropertyOp27
 70
     1
102
RTVSPropertyOp28
 70
     1
102
RTVSPropertyOp29
 70
     1
102
RTVSPropertyOp30
 70
     1
102
RTVSPropertyOp31
 70
     1
102
RTVSPropertyOp32
 70
     1
102
RTVSPropertyOp33
 70
     1
102
RTVSPropertyOp34
 70
     1
102
RTVSPropertyOp35
 70
     1
102
RTVSPropertyOp36
 70
     1
102
RTVSPropertyOp37
 70
     1
102
RTVSPropertyOp38
 70
     1
102
RTVSPropertyOp39
 70
     1
102
RTVSPropertyOp40
 70
     1
102
RTVSPropertyOp41
 70
     1
102
RTVSPropertyOp42
 70
     1
102
RTVSPropertyOp43
 70
     1
102
RTVSPropertyOp44
 70
     1
102
RTVSPropertyOp45
 70
     1
102
RTVSPropertyOp46
 70
     1
102
RTVSPropertyOp47
 70
     1
102
RTVSPropertyOp48
 70
     1
102
RTVSPropertyOp49
 70
     1
102
RTVSPropertyOp50
 70
     1
102
RTVSPropertyOp51
 70
     0
102
RTVSPropertyOp52
 70
     0
102
RTVSPropertyOp53
 70
     1
102
RTVSPropertyOp54
 70
     1
102
RTVSPropertyOp55
 70
     1
102
RTVSPropertyOp56
 70
     1
102
RTVSPropertyOp57
 70
     1
102
RTVSPropertyOp58
 70
     1
102
RTVSPropertyOp59
 70
     1
102
RTVSPropertyOp60
 70
     1
102
RTVSPropertyOp61
 70
     1
102
RTVSPropertyOp62
 70
     1
  0
XRECORD
  5
A65D
102
{ACAD_REACTORS
330
A65C
102
}
330
A65C
100
AcDbXrecord
280
     1
102
RTVSPost2010Prop28
280
     0
102
RTVSPost2010PropOp28
 70
     1
102
RTVSPost2010Prop29
280
     1
102
RTVSPost2010PropOp29
 70
     1
102
RTVSPost2010Prop30
280
     1
102
RTVSPost2010PropOp30
 70
     1
102
RTVSPost2010Prop31
280
     0
102
RTVSPost2010PropOp31
 70
     1
102
RTVSPost2010Prop32
280
     0
102
RTVSPost2010PropOp32
 70
     1
102
RTVSPost2010Prop33
280
     0
102
RTVSPost2010PropOp33
 70
     1
102
RTVSPost2010Prop34
280
     0
102
RTVSPost2010PropOp34
 70
     1
102
RTVSPost2010Prop35
280
     0
102
RTVSPost2010PropOp35
 70
     1
102
RTVSPost2010Prop36
280
     0
102
RTVSPost2010PropOp36
 70
     1
102
RTVSPost2010Prop37
 90
       50
102
RTVSPost2010PropOp37
 70
     1
102
RTVSPost2010Prop38
140
0.0
102
RTVSPost2010PropOp38
 70
     1
102
RTVSPost2010Prop39
140
1.0
102
RTVSPost2010PropOp39
 70
     1
102
RTVSPost2010Prop40
 90
        0
102
RTVSPost2010PropOp40
 70
     1
102
RTVSPost2010Prop41ColorIndex
 90
       18
102
RTVSPost2010Prop41ColorRGB
 90
        0
102
RTVSPost2010PropOp41
 70
     1
102
RTVSPost2010Prop42
 90
       50
102
RTVSPost2010PropOp42
 70
     1
102
RTVSPost2010Prop43
 90
        3
102
RTVSPost2010PropOp43
 70
     1
102
RTVSPost2010Prop44ColorIndex
 90
        5
102
RTVSPost2010Prop44ColorRGB
 90
      255
102
RTVSPost2010PropOp44
 70
     1
102
RTVSPost2010Prop45
280
     0
102
RTVSPost2010PropOp45
 70
     1
102
RTVSPost2010Prop46
 90
       50
102
RTVSPost2010PropOp46
 70
     1
102
RTVSPost2010Prop47
 90
       50
102
RTVSPost2010PropOp47
 70
     1
102
RTVSPost2010Prop48
 90
       50
102
RTVSPost2010PropOp48
 70
     1
102
RTVSPost2010Prop49
280
     0
102
RTVSPost2010PropOp49
 70
     1
102
RTVSPost2010Prop50
 90
       50
102
RTVSPost2010PropOp50
 70
     1
102
RTVSPost2010Prop51ColorIndex
 90
      256
102
RTVSPost2010Prop51ColorRGB
 90
-16777216
102
RTVSPost2010PropOp51
 70
     0
102
RTVSPost2010Prop52
140
1.0
102
RTVSPost2010PropOp52
 70
     0
102
RTVSPost2010Prop53
 90
        2
102
RTVSPost2010PropOp53
 70
     1
102
RTVSPost2010Prop54
  1
strokes_ogs.tif
102
RTVSPost2010PropOp54
 70
     1
102
RTVSPost2010Prop55
280
     0
102
RTVSPost2010PropOp55
 70
     1
102
RTVSPost2010Prop56
140
1.0
102
RTVSPost2010PropOp56
 70
     1
102
RTVSPost2010Prop57
140
1.0
102
RTVSPost2010PropOp57
 70
     1
102
RTVSPropertyOp0
 70
     1
102
RTVSPropertyOp1
 70
     1
102
RTVSPropertyOp2
 70
     1
102
RTVSPropertyOp3
 70
     1
102
RTVSPropertyOp4
 70
     1
102
RTVSPropertyOp5
 70
     1
102
RTVSPropertyOp6
 70
     1
102
RTVSPropertyOp7
 70
     1
102
RTVSPropertyOp8
 70
     1
102
RTVSPropertyOp9
 70
     1
102
RTVSPropertyOp10
 70
     1
102
RTVSPropertyOp11
 70
     1
102
RTVSPropertyOp12
 70
     1
102
RTVSPropertyOp13
 70
     1
102
RTVSPropertyOp14
 70
     1
102
RTVSPropertyOp15
 70
     1
102
RTVSPropertyOp16
 70
     1
102
RTVSPropertyOp17
 70
     1
102
RTVSPropertyOp18
 70
     1
102
RTVSPropertyOp19
 70
     1
102
RTVSPropertyOp20
 70
     1
102
RTVSPropertyOp21
 70
     1
102
RTVSPropertyOp22
 70
     1
102
RTVSPropertyOp23
 70
     1
102
RTVSPropertyOp24
 70
     1
102
RTVSPropertyOp25
 70
     1
102
RTVSPropertyOp26
 70
     1
102
RTVSPropertyOp27
 70
     1
102
RTVSPropertyOp28
 70
     1
102
RTVSPropertyOp29
 70
     1
102
RTVSPropertyOp30
 70
     1
102
RTVSPropertyOp31
 70
     1
102
RTVSPropertyOp32
 70
     1
102
RTVSPropertyOp33
 70
     1
102
RTVSPropertyOp34
 70
     1
102
RTVSPropertyOp35
 70
     1
102
RTVSPropertyOp36
 70
     1
102
RTVSPropertyOp37
 70
     1
102
RTVSPropertyOp38
 70
     1
102
RTVSPropertyOp39
 70
     1
102
RTVSPropertyOp40
 70
     1
102
RTVSPropertyOp41
 70
     1
102
RTVSPropertyOp42
 70
     1
102
RTVSPropertyOp43
 70
     1
102
RTVSPropertyOp44
 70
     1
102
RTVSPropertyOp45
 70
     1
102
RTVSPropertyOp46
 70
     1
102
RTVSPropertyOp47
 70
     1
102
RTVSPropertyOp48
 70
     1
102
RTVSPropertyOp49
 70
     1
102
RTVSPropertyOp50
 70
     1
102
RTVSPropertyOp51
 70
     0
102
RTVSPropertyOp52
 70
     0
102
RTVSPropertyOp53
 70
     1
102
RTVSPropertyOp54
 70
     1
102
RTVSPropertyOp55
 70
     1
102
RTVSPropertyOp56
 70
     1
102
RTVSPropertyOp57
 70
     1
102
RTVSPropertyOp58
 70
     1
102
RTVSPropertyOp59
 70
     1
102
RTVSPropertyOp60
 70
     1
102
RTVSPropertyOp61
 70
     1
102
RTVSPropertyOp62
 70
     1
  0
XRECORD
  5
A665
102
{ACAD_REACTORS
330
A664
102
}
330
A664
100
AcDbXrecord
280
     1
102
RTVSPost2010Prop28
280
     0
102
RTVSPost2010PropOp28
 70
     1
102
RTVSPost2010Prop29
280
     1
102
RTVSPost2010PropOp29
 70
     1
102
RTVSPost2010Prop30
280
     1
102
RTVSPost2010PropOp30
 70
     1
102
RTVSPost2010Prop31
280
     0
102
RTVSPost2010PropOp31
 70
     1
102
RTVSPost2010Prop32
280
     0
102
RTVSPost2010PropOp32
 70
     1
102
RTVSPost2010Prop33
280
     0
102
RTVSPost2010PropOp33
 70
     1
102
RTVSPost2010Prop34
280
     0
102
RTVSPost2010PropOp34
 70
     1
102
RTVSPost2010Prop35
280
     0
102
RTVSPost2010PropOp35
 70
     1
102
RTVSPost2010Prop36
280
     0
102
RTVSPost2010PropOp36
 70
     1
102
RTVSPost2010Prop37
 90
       50
102
RTVSPost2010PropOp37
 70
     1
102
RTVSPost2010Prop38
140
0.0
102
RTVSPost2010PropOp38
 70
     1
102
RTVSPost2010Prop39
140
1.0
102
RTVSPost2010PropOp39
 70
     1
102
RTVSPost2010Prop40
 90
        0
102
RTVSPost2010PropOp40
 70
     1
102
RTVSPost2010Prop41ColorIndex
 90
       18
102
RTVSPost2010Prop41ColorRGB
 90
        0
102
RTVSPost2010PropOp41
 70
     1
102
RTVSPost2010Prop42
 90
       50
102
RTVSPost2010PropOp42
 70
     1
102
RTVSPost2010Prop43
 90
        3
102
RTVSPost2010PropOp43
 70
     1
102
RTVSPost2010Prop44ColorIndex
 90
        5
102
RTVSPost2010Prop44ColorRGB
 90
      255
102
RTVSPost2010PropOp44
 70
     1
102
RTVSPost2010Prop45
280
     0
102
RTVSPost2010PropOp45
 70
     1
102
RTVSPost2010Prop46
 90
       50
102
RTVSPost2010PropOp46
 70
     1
102
RTVSPost2010Prop47
 90
       50
102
RTVSPost2010PropOp47
 70
     1
102
RTVSPost2010Prop48
 90
       50
102
RTVSPost2010PropOp48
 70
     1
102
RTVSPost2010Prop49
280
     0
102
RTVSPost2010PropOp49
 70
     1
102
RTVSPost2010Prop50
 90
       50
102
RTVSPost2010PropOp50
 70
     1
102
RTVSPost2010Prop51ColorIndex
 90
      256
102
RTVSPost2010Prop51ColorRGB
 90
-16777216
102
RTVSPost2010PropOp51
 70
     0
102
RTVSPost2010Prop52
140
1.0
102
RTVSPost2010PropOp52
 70
     0
102
RTVSPost2010Prop53
 90
        2
102
RTVSPost2010PropOp53
 70
     1
102
RTVSPost2010Prop54
  1
strokes_ogs.tif
102
RTVSPost2010PropOp54
 70
     1
102
RTVSPost2010Prop55
280
     0
102
RTVSPost2010PropOp55
 70
     1
102
RTVSPost2010Prop56
140
1.0
102
RTVSPost2010PropOp56
 70
     1
102
RTVSPost2010Prop57
140
1.0
102
RTVSPost2010PropOp57
 70
     1
102
RTVSPropertyOp0
 70
     1
102
RTVSPropertyOp1
 70
     1
102
RTVSPropertyOp2
 70
     1
102
RTVSPropertyOp3
 70
     1
102
RTVSPropertyOp4
 70
     1
102
RTVSPropertyOp5
 70
     1
102
RTVSPropertyOp6
 70
     1
102
RTVSPropertyOp7
 70
     1
102
RTVSPropertyOp8
 70
     1
102
RTVSPropertyOp9
 70
     1
102
RTVSPropertyOp10
 70
     1
102
RTVSPropertyOp11
 70
     1
102
RTVSPropertyOp12
 70
     1
102
RTVSPropertyOp13
 70
     1
102
RTVSPropertyOp14
 70
     1
102
RTVSPropertyOp15
 70
     1
102
RTVSPropertyOp16
 70
     1
102
RTVSPropertyOp17
 70
     1
102
RTVSPropertyOp18
 70
     1
102
RTVSPropertyOp19
 70
     1
102
RTVSPropertyOp20
 70
     1
102
RTVSPropertyOp21
 70
     1
102
RTVSPropertyOp22
 70
     1
102
RTVSPropertyOp23
 70
     1
102
RTVSPropertyOp24
 70
     1
102
RTVSPropertyOp25
 70
     1
102
RTVSPropertyOp26
 70
     1
102
RTVSPropertyOp27
 70
     1
102
RTVSPropertyOp28
 70
     1
102
RTVSPropertyOp29
 70
     1
102
RTVSPropertyOp30
 70
     1
102
RTVSPropertyOp31
 70
     1
102
RTVSPropertyOp32
 70
     1
102
RTVSPropertyOp33
 70
     1
102
RTVSPropertyOp34
 70
     1
102
RTVSPropertyOp35
 70
     1
102
RTVSPropertyOp36
 70
     1
102
RTVSPropertyOp37
 70
     1
102
RTVSPropertyOp38
 70
     1
102
RTVSPropertyOp39
 70
     1
102
RTVSPropertyOp40
 70
     1
102
RTVSPropertyOp41
 70
     1
102
RTVSPropertyOp42
 70
     1
102
RTVSPropertyOp43
 70
     1
102
RTVSPropertyOp44
 70
     1
102
RTVSPropertyOp45
 70
     1
102
RTVSPropertyOp46
 70
     1
102
RTVSPropertyOp47
 70
     1
102
RTVSPropertyOp48
 70
     1
102
RTVSPropertyOp49
 70
     1
102
RTVSPropertyOp50
 70
     1
102
RTVSPropertyOp51
 70
     0
102
RTVSPropertyOp52
 70
     0
102
RTVSPropertyOp53
 70
     1
102
RTVSPropertyOp54
 70
     1
102
RTVSPropertyOp55
 70
     1
102
RTVSPropertyOp56
 70
     1
102
RTVSPropertyOp57
 70
     1
102
RTVSPropertyOp58
 70
     1
102
RTVSPropertyOp59
 70
     1
102
RTVSPropertyOp60
 70
     1
102
RTVSPropertyOp61
 70
     1
102
RTVSPropertyOp62
 70
     1
  0
XRECORD
  5
A681
102
{ACAD_REACTORS
330
A680
102
}
330
A680
100
AcDbXrecord
280
     1
102
RTVSPost2010Prop28
280
     0
102
RTVSPost2010PropOp28
 70
     1
102
RTVSPost2010Prop29
280
     1
102
RTVSPost2010PropOp29
 70
     1
102
RTVSPost2010Prop30
280
     1
102
RTVSPost2010PropOp30
 70
     1
102
RTVSPost2010Prop31
280
     0
102
RTVSPost2010PropOp31
 70
     1
102
RTVSPost2010Prop32
280
     0
102
RTVSPost2010PropOp32
 70
     1
102
RTVSPost2010Prop33
280
     0
102
RTVSPost2010PropOp33
 70
     1
102
RTVSPost2010Prop34
280
     0
102
RTVSPost2010PropOp34
 70
     1
102
RTVSPost2010Prop35
280
     0
102
RTVSPost2010PropOp35
 70
     1
102
RTVSPost2010Prop36
280
     0
102
RTVSPost2010PropOp36
 70
     1
102
RTVSPost2010Prop37
 90
       50
102
RTVSPost2010PropOp37
 70
     0
102
RTVSPost2010Prop38
140
0.0
102
RTVSPost2010PropOp38
 70
     0
102
RTVSPost2010Prop39
140
1.0
102
RTVSPost2010PropOp39
 70
     0
102
RTVSPost2010Prop40
 90
        0
102
RTVSPost2010PropOp40
 70
     0
102
RTVSPost2010Prop41ColorIndex
 90
       18
102
RTVSPost2010Prop41ColorRGB
 90
        0
102
RTVSPost2010PropOp41
 70
     0
102
RTVSPost2010Prop42
 90
       50
102
RTVSPost2010PropOp42
 70
     0
102
RTVSPost2010Prop43
 90
        3
102
RTVSPost2010PropOp43
 70
     0
102
RTVSPost2010Prop44ColorIndex
 90
        5
102
RTVSPost2010Prop44ColorRGB
 90
      255
102
RTVSPost2010PropOp44
 70
     0
102
RTVSPost2010Prop45
280
     0
102
RTVSPost2010PropOp45
 70
     1
102
RTVSPost2010Prop46
 90
       50
102
RTVSPost2010PropOp46
 70
     0
102
RTVSPost2010Prop47
 90
       50
102
RTVSPost2010PropOp47
 70
     0
102
RTVSPost2010Prop48
 90
       50
102
RTVSPost2010PropOp48
 70
     0
102
RTVSPost2010Prop49
280
     0
102
RTVSPost2010PropOp49
 70
     1
102
RTVSPost2010Prop50
 90
       50
102
RTVSPost2010PropOp50
 70
     0
102
RTVSPost2010Prop51ColorIndex
 90
      256
102
RTVSPost2010Prop51ColorRGB
 90
-16777216
102
RTVSPost2010PropOp51
 70
     0
102
RTVSPost2010Prop52
140
1.0
102
RTVSPost2010PropOp52
 70
     0
102
RTVSPost2010Prop53
 90
        2
102
RTVSPost2010PropOp53
 70
     0
102
RTVSPost2010Prop54
  1
strokes_ogs.tif
102
RTVSPost2010PropOp54
 70
     0
102
RTVSPost2010Prop55
280
     0
102
RTVSPost2010PropOp55
 70
     1
102
RTVSPost2010Prop56
140
1.0
102
RTVSPost2010PropOp56
 70
     0
102
RTVSPost2010Prop57
140
1.0
102
RTVSPost2010PropOp57
 70
     0
102
RTVSPropertyOp0
 70
     0
102
RTVSPropertyOp1
 70
     0
102
RTVSPropertyOp2
 70
     0
102
RTVSPropertyOp3
 70
     0
102
RTVSPropertyOp4
 70
     0
102
RTVSPropertyOp5
 70
     0
102
RTVSPropertyOp6
 70
     0
102
RTVSPropertyOp7
 70
     0
102
RTVSPropertyOp8
 70
     0
102
RTVSPropertyOp9
 70
     0
102
RTVSPropertyOp10
 70
     0
102
RTVSPropertyOp11
 70
     0
102
RTVSPropertyOp12
 70
     0
102
RTVSPropertyOp13
 70
     0
102
RTVSPropertyOp14
 70
     2
102
RTVSPropertyOp15
 70
     0
102
RTVSPropertyOp16
 70
     0
102
RTVSPropertyOp17
 70
     0
102
RTVSPropertyOp18
 70
     0
102
RTVSPropertyOp19
 70
     0
102
RTVSPropertyOp20
 70
     0
102
RTVSPropertyOp21
 70
     0
102
RTVSPropertyOp22
 70
     0
102
RTVSPropertyOp23
 70
     0
102
RTVSPropertyOp24
 70
     0
102
RTVSPropertyOp25
 70
     0
102
RTVSPropertyOp26
 70
     0
102
RTVSPropertyOp27
 70
     0
102
RTVSPropertyOp28
 70
     1
102
RTVSPropertyOp29
 70
     1
102
RTVSPropertyOp30
 70
     1
102
RTVSPropertyOp31
 70
     1
102
RTVSPropertyOp32
 70
     1
102
RTVSPropertyOp33
 70
     1
102
RTVSPropertyOp34
 70
     1
102
RTVSPropertyOp35
 70
     1
102
RTVSPropertyOp36
 70
     1
102
RTVSPropertyOp37
 70
     0
102
RTVSPropertyOp38
 70
     0
102
RTVSPropertyOp39
 70
     0
102
RTVSPropertyOp40
 70
     0
102
RTVSPropertyOp41
 70
     0
102
RTVSPropertyOp42
 70
     0
102
RTVSPropertyOp43
 70
     0
102
RTVSPropertyOp44
 70
     0
102
RTVSPropertyOp45
 70
     1
102
RTVSPropertyOp46
 70
     0
102
RTVSPropertyOp47
 70
     0
102
RTVSPropertyOp48
 70
     0
102
RTVSPropertyOp49
 70
     1
102
RTVSPropertyOp50
 70
     0
102
RTVSPropertyOp51
 70
     0
102
RTVSPropertyOp52
 70
     0
102
RTVSPropertyOp53
 70
     0
102
RTVSPropertyOp54
 70
     0
102
RTVSPropertyOp55
 70
     1
102
RTVSPropertyOp56
 70
     0
102
RTVSPropertyOp57
 70
     0
102
RTVSPropertyOp58
 70
     0
102
RTVSPropertyOp59
 70
     0
102
RTVSPropertyOp60
 70
     0
102
RTVSPropertyOp61
 70
     0
102
RTVSPropertyOp62
 70
     0
  0
XRECORD
  5
A671
102
{ACAD_REACTORS
330
A670
102
}
330
A670
100
AcDbXrecord
280
     1
102
RTVSPost2010Prop28
280
     0
102
RTVSPost2010PropOp28
 70
     1
102
RTVSPost2010Prop29
280
     1
102
RTVSPost2010PropOp29
 70
     1
102
RTVSPost2010Prop30
280
     1
102
RTVSPost2010PropOp30
 70
     1
102
RTVSPost2010Prop31
280
     0
102
RTVSPost2010PropOp31
 70
     1
102
RTVSPost2010Prop32
280
     0
102
RTVSPost2010PropOp32
 70
     1
102
RTVSPost2010Prop33
280
     0
102
RTVSPost2010PropOp33
 70
     1
102
RTVSPost2010Prop34
280
     0
102
RTVSPost2010PropOp34
 70
     1
102
RTVSPost2010Prop35
280
     0
102
RTVSPost2010PropOp35
 70
     1
102
RTVSPost2010Prop36
280
     0
102
RTVSPost2010PropOp36
 70
     1
102
RTVSPost2010Prop37
 90
       50
102
RTVSPost2010PropOp37
 70
     1
102
RTVSPost2010Prop38
140
0.0
102
RTVSPost2010PropOp38
 70
     1
102
RTVSPost2010Prop39
140
1.0
102
RTVSPost2010PropOp39
 70
     1
102
RTVSPost2010Prop40
 90
        0
102
RTVSPost2010PropOp40
 70
     1
102
RTVSPost2010Prop41ColorIndex
 90
       18
102
RTVSPost2010Prop41ColorRGB
 90
        0
102
RTVSPost2010PropOp41
 70
     1
102
RTVSPost2010Prop42
 90
       50
102
RTVSPost2010PropOp42
 70
     1
102
RTVSPost2010Prop43
 90
        3
102
RTVSPost2010PropOp43
 70
     1
102
RTVSPost2010Prop44ColorIndex
 90
        5
102
RTVSPost2010Prop44ColorRGB
 90
      255
102
RTVSPost2010PropOp44
 70
     1
102
RTVSPost2010Prop45
280
     0
102
RTVSPost2010PropOp45
 70
     1
102
RTVSPost2010Prop46
 90
       50
102
RTVSPost2010PropOp46
 70
     1
102
RTVSPost2010Prop47
 90
       50
102
RTVSPost2010PropOp47
 70
     1
102
RTVSPost2010Prop48
 90
       50
102
RTVSPost2010PropOp48
 70
     1
102
RTVSPost2010Prop49
280
     0
102
RTVSPost2010PropOp49
 70
     1
102
RTVSPost2010Prop50
 90
       50
102
RTVSPost2010PropOp50
 70
     1
102
RTVSPost2010Prop51ColorIndex
 90
      256
102
RTVSPost2010Prop51ColorRGB
 90
-16777216
102
RTVSPost2010PropOp51
 70
     0
102
RTVSPost2010Prop52
140
1.0
102
RTVSPost2010PropOp52
 70
     0
102
RTVSPost2010Prop53
 90
        2
102
RTVSPost2010PropOp53
 70
     1
102
RTVSPost2010Prop54
  1
strokes_ogs.tif
102
RTVSPost2010PropOp54
 70
     1
102
RTVSPost2010Prop55
280
     0
102
RTVSPost2010PropOp55
 70
     1
102
RTVSPost2010Prop56
140
1.0
102
RTVSPost2010PropOp56
 70
     1
102
RTVSPost2010Prop57
140
1.0
102
RTVSPost2010PropOp57
 70
     1
102
RTVSPropertyOp0
 70
     1
102
RTVSPropertyOp1
 70
     1
102
RTVSPropertyOp2
 70
     1
102
RTVSPropertyOp3
 70
     1
102
RTVSPropertyOp4
 70
     1
102
RTVSPropertyOp5
 70
     1
102
RTVSPropertyOp6
 70
     1
102
RTVSPropertyOp7
 70
     1
102
RTVSPropertyOp8
 70
     1
102
RTVSPropertyOp9
 70
     1
102
RTVSPropertyOp10
 70
     1
102
RTVSPropertyOp11
 70
     1
102
RTVSPropertyOp12
 70
     1
102
RTVSPropertyOp13
 70
     1
102
RTVSPropertyOp14
 70
     1
102
RTVSPropertyOp15
 70
     1
102
RTVSPropertyOp16
 70
     1
102
RTVSPropertyOp17
 70
     1
102
RTVSPropertyOp18
 70
     1
102
RTVSPropertyOp19
 70
     1
102
RTVSPropertyOp20
 70
     1
102
RTVSPropertyOp21
 70
     1
102
RTVSPropertyOp22
 70
     1
102
RTVSPropertyOp23
 70
     1
102
RTVSPropertyOp24
 70
     1
102
RTVSPropertyOp25
 70
     1
102
RTVSPropertyOp26
 70
     1
102
RTVSPropertyOp27
 70
     1
102
RTVSPropertyOp28
 70
     1
102
RTVSPropertyOp29
 70
     1
102
RTVSPropertyOp30
 70
     1
102
RTVSPropertyOp31
 70
     1
102
RTVSPropertyOp32
 70
     1
102
RTVSPropertyOp33
 70
     1
102
RTVSPropertyOp34
 70
     1
102
RTVSPropertyOp35
 70
     1
102
RTVSPropertyOp36
 70
     1
102
RTVSPropertyOp37
 70
     1
102
RTVSPropertyOp38
 70
     1
102
RTVSPropertyOp39
 70
     1
102
RTVSPropertyOp40
 70
     1
102
RTVSPropertyOp41
 70
     1
102
RTVSPropertyOp42
 70
     1
102
RTVSPropertyOp43
 70
     1
102
RTVSPropertyOp44
 70
     1
102
RTVSPropertyOp45
 70
     1
102
RTVSPropertyOp46
 70
     1
102
RTVSPropertyOp47
 70
     1
102
RTVSPropertyOp48
 70
     1
102
RTVSPropertyOp49
 70
     1
102
RTVSPropertyOp50
 70
     1
102
RTVSPropertyOp51
 70
     0
102
RTVSPropertyOp52
 70
     0
102
RTVSPropertyOp53
 70
     1
102
RTVSPropertyOp54
 70
     1
102
RTVSPropertyOp55
 70
     1
102
RTVSPropertyOp56
 70
     1
102
RTVSPropertyOp57
 70
     1
102
RTVSPropertyOp58
 70
     1
102
RTVSPropertyOp59
 70
     1
102
RTVSPropertyOp60
 70
     1
102
RTVSPropertyOp61
 70
     1
102
RTVSPropertyOp62
 70
     1
  0
XRECORD
  5
A683
102
{ACAD_REACTORS
330
A682
102
}
330
A682
100
AcDbXrecord
280
     1
102
RTVSPost2010Prop28
280
     0
102
RTVSPost2010PropOp28
 70
     1
102
RTVSPost2010Prop29
280
     1
102
RTVSPost2010PropOp29
 70
     1
102
RTVSPost2010Prop30
280
     1
102
RTVSPost2010PropOp30
 70
     1
102
RTVSPost2010Prop31
280
     0
102
RTVSPost2010PropOp31
 70
     1
102
RTVSPost2010Prop32
280
     0
102
RTVSPost2010PropOp32
 70
     1
102
RTVSPost2010Prop33
280
     0
102
RTVSPost2010PropOp33
 70
     1
102
RTVSPost2010Prop34
280
     0
102
RTVSPost2010PropOp34
 70
     1
102
RTVSPost2010Prop35
280
     0
102
RTVSPost2010PropOp35
 70
     1
102
RTVSPost2010Prop36
280
     0
102
RTVSPost2010PropOp36
 70
     1
102
RTVSPost2010Prop37
 90
       50
102
RTVSPost2010PropOp37
 70
     0
102
RTVSPost2010Prop38
140
0.0
102
RTVSPost2010PropOp38
 70
     0
102
RTVSPost2010Prop39
140
1.0
102
RTVSPost2010PropOp39
 70
     0
102
RTVSPost2010Prop40
 90
        0
102
RTVSPost2010PropOp40
 70
     0
102
RTVSPost2010Prop41ColorIndex
 90
       18
102
RTVSPost2010Prop41ColorRGB
 90
        0
102
RTVSPost2010PropOp41
 70
     0
102
RTVSPost2010Prop42
 90
       50
102
RTVSPost2010PropOp42
 70
     0
102
RTVSPost2010Prop43
 90
        3
102
RTVSPost2010PropOp43
 70
     0
102
RTVSPost2010Prop44ColorIndex
 90
        5
102
RTVSPost2010Prop44ColorRGB
 90
      255
102
RTVSPost2010PropOp44
 70
     0
102
RTVSPost2010Prop45
280
     0
102
RTVSPost2010PropOp45
 70
     1
102
RTVSPost2010Prop46
 90
       50
102
RTVSPost2010PropOp46
 70
     0
102
RTVSPost2010Prop47
 90
       50
102
RTVSPost2010PropOp47
 70
     0
102
RTVSPost2010Prop48
 90
       50
102
RTVSPost2010PropOp48
 70
     0
102
RTVSPost2010Prop49
280
     0
102
RTVSPost2010PropOp49
 70
     1
102
RTVSPost2010Prop50
 90
       50
102
RTVSPost2010PropOp50
 70
     0
102
RTVSPost2010Prop51ColorIndex
 90
      256
102
RTVSPost2010Prop51ColorRGB
 90
-16777216
102
RTVSPost2010PropOp51
 70
     0
102
RTVSPost2010Prop52
140
1.0
102
RTVSPost2010PropOp52
 70
     0
102
RTVSPost2010Prop53
 90
        2
102
RTVSPost2010PropOp53
 70
     0
102
RTVSPost2010Prop54
  1
strokes_ogs.tif
102
RTVSPost2010PropOp54
 70
     0
102
RTVSPost2010Prop55
280
     0
102
RTVSPost2010PropOp55
 70
     1
102
RTVSPost2010Prop56
140
1.0
102
RTVSPost2010PropOp56
 70
     0
102
RTVSPost2010Prop57
140
1.0
102
RTVSPost2010PropOp57
 70
     0
102
RTVSPropertyOp0
 70
     0
102
RTVSPropertyOp1
 70
     0
102
RTVSPropertyOp2
 70
     0
102
RTVSPropertyOp3
 70
     0
102
RTVSPropertyOp4
 70
     0
102
RTVSPropertyOp5
 70
     0
102
RTVSPropertyOp6
 70
     0
102
RTVSPropertyOp7
 70
     0
102
RTVSPropertyOp8
 70
     0
102
RTVSPropertyOp9
 70
     0
102
RTVSPropertyOp10
 70
     0
102
RTVSPropertyOp11
 70
     0
102
RTVSPropertyOp12
 70
     0
102
RTVSPropertyOp13
 70
     0
102
RTVSPropertyOp14
 70
     2
102
RTVSPropertyOp15
 70
     0
102
RTVSPropertyOp16
 70
     0
102
RTVSPropertyOp17
 70
     0
102
RTVSPropertyOp18
 70
     0
102
RTVSPropertyOp19
 70
     0
102
RTVSPropertyOp20
 70
     0
102
RTVSPropertyOp21
 70
     0
102
RTVSPropertyOp22
 70
     0
102
RTVSPropertyOp23
 70
     0
102
RTVSPropertyOp24
 70
     0
102
RTVSPropertyOp25
 70
     0
102
RTVSPropertyOp26
 70
     0
102
RTVSPropertyOp27
 70
     0
102
RTVSPropertyOp28
 70
     1
102
RTVSPropertyOp29
 70
     1
102
RTVSPropertyOp30
 70
     1
102
RTVSPropertyOp31
 70
     1
102
RTVSPropertyOp32
 70
     1
102
RTVSPropertyOp33
 70
     1
102
RTVSPropertyOp34
 70
     1
102
RTVSPropertyOp35
 70
     1
102
RTVSPropertyOp36
 70
     1
102
RTVSPropertyOp37
 70
     0
102
RTVSPropertyOp38
 70
     0
102
RTVSPropertyOp39
 70
     0
102
RTVSPropertyOp40
 70
     0
102
RTVSPropertyOp41
 70
     0
102
RTVSPropertyOp42
 70
     0
102
RTVSPropertyOp43
 70
     0
102
RTVSPropertyOp44
 70
     0
102
RTVSPropertyOp45
 70
     1
102
RTVSPropertyOp46
 70
     0
102
RTVSPropertyOp47
 70
     0
102
RTVSPropertyOp48
 70
     0
102
RTVSPropertyOp49
 70
     1
102
RTVSPropertyOp50
 70
     0
102
RTVSPropertyOp51
 70
     0
102
RTVSPropertyOp52
 70
     0
102
RTVSPropertyOp53
 70
     0
102
RTVSPropertyOp54
 70
     0
102
RTVSPropertyOp55
 70
     1
102
RTVSPropertyOp56
 70
     0
102
RTVSPropertyOp57
 70
     0
102
RTVSPropertyOp58
 70
     0
102
RTVSPropertyOp59
 70
     0
102
RTVSPropertyOp60
 70
     0
102
RTVSPropertyOp61
 70
     0
102
RTVSPropertyOp62
 70
     0
  0
XRECORD
  5
A669
102
{ACAD_REACTORS
330
A668
102
}
330
A668
100
AcDbXrecord
280
     1
102
RTVSPost2010Prop28
280
     0
102
RTVSPost2010PropOp28
 70
     1
102
RTVSPost2010Prop29
280
     1
102
RTVSPost2010PropOp29
 70
     1
102
RTVSPost2010Prop30
280
     1
102
RTVSPost2010PropOp30
 70
     1
102
RTVSPost2010Prop31
280
     0
102
RTVSPost2010PropOp31
 70
     1
102
RTVSPost2010Prop32
280
     0
102
RTVSPost2010PropOp32
 70
     1
102
RTVSPost2010Prop33
280
     0
102
RTVSPost2010PropOp33
 70
     1
102
RTVSPost2010Prop34
280
     0
102
RTVSPost2010PropOp34
 70
     1
102
RTVSPost2010Prop35
280
     0
102
RTVSPost2010PropOp35
 70
     1
102
RTVSPost2010Prop36
280
     0
102
RTVSPost2010PropOp36
 70
     1
102
RTVSPost2010Prop37
 90
       50
102
RTVSPost2010PropOp37
 70
     1
102
RTVSPost2010Prop38
140
0.0
102
RTVSPost2010PropOp38
 70
     1
102
RTVSPost2010Prop39
140
1.0
102
RTVSPost2010PropOp39
 70
     1
102
RTVSPost2010Prop40
 90
        0
102
RTVSPost2010PropOp40
 70
     1
102
RTVSPost2010Prop41ColorIndex
 90
       18
102
RTVSPost2010Prop41ColorRGB
 90
        0
102
RTVSPost2010PropOp41
 70
     1
102
RTVSPost2010Prop42
 90
       50
102
RTVSPost2010PropOp42
 70
     1
102
RTVSPost2010Prop43
 90
        3
102
RTVSPost2010PropOp43
 70
     1
102
RTVSPost2010Prop44ColorIndex
 90
        5
102
RTVSPost2010Prop44ColorRGB
 90
      255
102
RTVSPost2010PropOp44
 70
     1
102
RTVSPost2010Prop45
280
     0
102
RTVSPost2010PropOp45
 70
     1
102
RTVSPost2010Prop46
 90
       50
102
RTVSPost2010PropOp46
 70
     1
102
RTVSPost2010Prop47
 90
       50
102
RTVSPost2010PropOp47
 70
     1
102
RTVSPost2010Prop48
 90
       50
102
RTVSPost2010PropOp48
 70
     1
102
RTVSPost2010Prop49
280
     0
102
RTVSPost2010PropOp49
 70
     1
102
RTVSPost2010Prop50
 90
       50
102
RTVSPost2010PropOp50
 70
     1
102
RTVSPost2010Prop51ColorIndex
 90
      256
102
RTVSPost2010Prop51ColorRGB
 90
-16777216
102
RTVSPost2010PropOp51
 70
     0
102
RTVSPost2010Prop52
140
1.0
102
RTVSPost2010PropOp52
 70
     0
102
RTVSPost2010Prop53
 90
        2
102
RTVSPost2010PropOp53
 70
     1
102
RTVSPost2010Prop54
  1
strokes_ogs.tif
102
RTVSPost2010PropOp54
 70
     1
102
RTVSPost2010Prop55
280
     0
102
RTVSPost2010PropOp55
 70
     1
102
RTVSPost2010Prop56
140
1.0
102
RTVSPost2010PropOp56
 70
     1
102
RTVSPost2010Prop57
140
1.0
102
RTVSPost2010PropOp57
 70
     1
102
RTVSPropertyOp0
 70
     1
102
RTVSPropertyOp1
 70
     1
102
RTVSPropertyOp2
 70
     1
102
RTVSPropertyOp3
 70
     1
102
RTVSPropertyOp4
 70
     1
102
RTVSPropertyOp5
 70
     1
102
RTVSPropertyOp6
 70
     1
102
RTVSPropertyOp7
 70
     1
102
RTVSPropertyOp8
 70
     1
102
RTVSPropertyOp9
 70
     1
102
RTVSPropertyOp10
 70
     1
102
RTVSPropertyOp11
 70
     1
102
RTVSPropertyOp12
 70
     1
102
RTVSPropertyOp13
 70
     1
102
RTVSPropertyOp14
 70
     1
102
RTVSPropertyOp15
 70
     1
102
RTVSPropertyOp16
 70
     1
102
RTVSPropertyOp17
 70
     1
102
RTVSPropertyOp18
 70
     1
102
RTVSPropertyOp19
 70
     1
102
RTVSPropertyOp20
 70
     1
102
RTVSPropertyOp21
 70
     1
102
RTVSPropertyOp22
 70
     1
102
RTVSPropertyOp23
 70
     1
102
RTVSPropertyOp24
 70
     1
102
RTVSPropertyOp25
 70
     1
102
RTVSPropertyOp26
 70
     1
102
RTVSPropertyOp27
 70
     1
102
RTVSPropertyOp28
 70
     1
102
RTVSPropertyOp29
 70
     1
102
RTVSPropertyOp30
 70
     1
102
RTVSPropertyOp31
 70
     1
102
RTVSPropertyOp32
 70
     1
102
RTVSPropertyOp33
 70
     1
102
RTVSPropertyOp34
 70
     1
102
RTVSPropertyOp35
 70
     1
102
RTVSPropertyOp36
 70
     1
102
RTVSPropertyOp37
 70
     1
102
RTVSPropertyOp38
 70
     1
102
RTVSPropertyOp39
 70
     1
102
RTVSPropertyOp40
 70
     1
102
RTVSPropertyOp41
 70
     1
102
RTVSPropertyOp42
 70
     1
102
RTVSPropertyOp43
 70
     1
102
RTVSPropertyOp44
 70
     1
102
RTVSPropertyOp45
 70
     1
102
RTVSPropertyOp46
 70
     1
102
RTVSPropertyOp47
 70
     1
102
RTVSPropertyOp48
 70
     1
102
RTVSPropertyOp49
 70
     1
102
RTVSPropertyOp50
 70
     1
102
RTVSPropertyOp51
 70
     0
102
RTVSPropertyOp52
 70
     0
102
RTVSPropertyOp53
 70
     1
102
RTVSPropertyOp54
 70
     1
102
RTVSPropertyOp55
 70
     1
102
RTVSPropertyOp56
 70
     1
102
RTVSPropertyOp57
 70
     1
102
RTVSPropertyOp58
 70
     1
102
RTVSPropertyOp59
 70
     1
102
RTVSPropertyOp60
 70
     1
102
RTVSPropertyOp61
 70
     1
102
RTVSPropertyOp62
 70
     1
  0
XRECORD
  5
A67F
102
{ACAD_REACTORS
330
A67E
102
}
330
A67E
100
AcDbXrecord
280
     1
102
RTVSPost2010Prop28
280
     0
102
RTVSPost2010PropOp28
 70
     1
102
RTVSPost2010Prop29
280
     1
102
RTVSPost2010PropOp29
 70
     1
102
RTVSPost2010Prop30
280
     1
102
RTVSPost2010PropOp30
 70
     1
102
RTVSPost2010Prop31
280
     0
102
RTVSPost2010PropOp31
 70
     1
102
RTVSPost2010Prop32
280
     0
102
RTVSPost2010PropOp32
 70
     1
102
RTVSPost2010Prop33
280
     0
102
RTVSPost2010PropOp33
 70
     1
102
RTVSPost2010Prop34
280
     0
102
RTVSPost2010PropOp34
 70
     1
102
RTVSPost2010Prop35
280
     0
102
RTVSPost2010PropOp35
 70
     1
102
RTVSPost2010Prop36
280
     0
102
RTVSPost2010PropOp36
 70
     1
102
RTVSPost2010Prop37
 90
       50
102
RTVSPost2010PropOp37
 70
     1
102
RTVSPost2010Prop38
140
0.0
102
RTVSPost2010PropOp38
 70
     1
102
RTVSPost2010Prop39
140
1.0
102
RTVSPost2010PropOp39
 70
     1
102
RTVSPost2010Prop40
 90
        0
102
RTVSPost2010PropOp40
 70
     1
102
RTVSPost2010Prop41ColorIndex
 90
       18
102
RTVSPost2010Prop41ColorRGB
 90
        0
102
RTVSPost2010PropOp41
 70
     1
102
RTVSPost2010Prop42
 90
       50
102
RTVSPost2010PropOp42
 70
     1
102
RTVSPost2010Prop43
 90
        3
102
RTVSPost2010PropOp43
 70
     1
102
RTVSPost2010Prop44ColorIndex
 90
        5
102
RTVSPost2010Prop44ColorRGB
 90
      255
102
RTVSPost2010PropOp44
 70
     1
102
RTVSPost2010Prop45
280
     0
102
RTVSPost2010PropOp45
 70
     1
102
RTVSPost2010Prop46
 90
       50
102
RTVSPost2010PropOp46
 70
     1
102
RTVSPost2010Prop47
 90
       50
102
RTVSPost2010PropOp47
 70
     1
102
RTVSPost2010Prop48
 90
       50
102
RTVSPost2010PropOp48
 70
     1
102
RTVSPost2010Prop49
280
     0
102
RTVSPost2010PropOp49
 70
     1
102
RTVSPost2010Prop50
 90
       50
102
RTVSPost2010PropOp50
 70
     1
102
RTVSPost2010Prop51ColorIndex
 90
      256
102
RTVSPost2010Prop51ColorRGB
 90
-16777216
102
RTVSPost2010PropOp51
 70
     0
102
RTVSPost2010Prop52
140
1.0
102
RTVSPost2010PropOp52
 70
     0
102
RTVSPost2010Prop53
 90
        2
102
RTVSPost2010PropOp53
 70
     1
102
RTVSPost2010Prop54
  1
strokes_ogs.tif
102
RTVSPost2010PropOp54
 70
     1
102
RTVSPost2010Prop55
280
     0
102
RTVSPost2010PropOp55
 70
     1
102
RTVSPost2010Prop56
140
1.0
102
RTVSPost2010PropOp56
 70
     1
102
RTVSPost2010Prop57
140
1.0
102
RTVSPost2010PropOp57
 70
     1
102
RTVSPropertyOp0
 70
     1
102
RTVSPropertyOp1
 70
     1
102
RTVSPropertyOp2
 70
     1
102
RTVSPropertyOp3
 70
     1
102
RTVSPropertyOp4
 70
     1
102
RTVSPropertyOp5
 70
     1
102
RTVSPropertyOp6
 70
     1
102
RTVSPropertyOp7
 70
     1
102
RTVSPropertyOp8
 70
     1
102
RTVSPropertyOp9
 70
     1
102
RTVSPropertyOp10
 70
     1
102
RTVSPropertyOp11
 70
     1
102
RTVSPropertyOp12
 70
     1
102
RTVSPropertyOp13
 70
     1
102
RTVSPropertyOp14
 70
     1
102
RTVSPropertyOp15
 70
     1
102
RTVSPropertyOp16
 70
     1
102
RTVSPropertyOp17
 70
     1
102
RTVSPropertyOp18
 70
     1
102
RTVSPropertyOp19
 70
     1
102
RTVSPropertyOp20
 70
     1
102
RTVSPropertyOp21
 70
     1
102
RTVSPropertyOp22
 70
     1
102
RTVSPropertyOp23
 70
     1
102
RTVSPropertyOp24
 70
     1
102
RTVSPropertyOp25
 70
     1
102
RTVSPropertyOp26
 70
     1
102
RTVSPropertyOp27
 70
     1
102
RTVSPropertyOp28
 70
     1
102
RTVSPropertyOp29
 70
     1
102
RTVSPropertyOp30
 70
     1
102
RTVSPropertyOp31
 70
     1
102
RTVSPropertyOp32
 70
     1
102
RTVSPropertyOp33
 70
     1
102
RTVSPropertyOp34
 70
     1
102
RTVSPropertyOp35
 70
     1
102
RTVSPropertyOp36
 70
     1
102
RTVSPropertyOp37
 70
     1
102
RTVSPropertyOp38
 70
     1
102
RTVSPropertyOp39
 70
     1
102
RTVSPropertyOp40
 70
     1
102
RTVSPropertyOp41
 70
     1
102
RTVSPropertyOp42
 70
     1
102
RTVSPropertyOp43
 70
     1
102
RTVSPropertyOp44
 70
     1
102
RTVSPropertyOp45
 70
     1
102
RTVSPropertyOp46
 70
     1
102
RTVSPropertyOp47
 70
     1
102
RTVSPropertyOp48
 70
     1
102
RTVSPropertyOp49
 70
     1
102
RTVSPropertyOp50
 70
     1
102
RTVSPropertyOp51
 70
     0
102
RTVSPropertyOp52
 70
     0
102
RTVSPropertyOp53
 70
     1
102
RTVSPropertyOp54
 70
     1
102
RTVSPropertyOp55
 70
     1
102
RTVSPropertyOp56
 70
     1
102
RTVSPropertyOp57
 70
     1
102
RTVSPropertyOp58
 70
     1
102
RTVSPropertyOp59
 70
     1
102
RTVSPropertyOp60
 70
     1
102
RTVSPropertyOp61
 70
     1
102
RTVSPropertyOp62
 70
     1
  0
XRECORD
  5
A67D
102
{ACAD_REACTORS
330
A67C
102
}
330
A67C
100
AcDbXrecord
280
     1
102
RTVSPost2010Prop28
280
     0
102
RTVSPost2010PropOp28
 70
     1
102
RTVSPost2010Prop29
280
     1
102
RTVSPost2010PropOp29
 70
     1
102
RTVSPost2010Prop30
280
     1
102
RTVSPost2010PropOp30
 70
     1
102
RTVSPost2010Prop31
280
     0
102
RTVSPost2010PropOp31
 70
     1
102
RTVSPost2010Prop32
280
     0
102
RTVSPost2010PropOp32
 70
     1
102
RTVSPost2010Prop33
280
     0
102
RTVSPost2010PropOp33
 70
     1
102
RTVSPost2010Prop34
280
     0
102
RTVSPost2010PropOp34
 70
     1
102
RTVSPost2010Prop35
280
     0
102
RTVSPost2010PropOp35
 70
     1
102
RTVSPost2010Prop36
280
     0
102
RTVSPost2010PropOp36
 70
     1
102
RTVSPost2010Prop37
 90
       50
102
RTVSPost2010PropOp37
 70
     1
102
RTVSPost2010Prop38
140
0.0
102
RTVSPost2010PropOp38
 70
     1
102
RTVSPost2010Prop39
140
1.0
102
RTVSPost2010PropOp39
 70
     1
102
RTVSPost2010Prop40
 90
        0
102
RTVSPost2010PropOp40
 70
     1
102
RTVSPost2010Prop41ColorIndex
 90
       18
102
RTVSPost2010Prop41ColorRGB
 90
        0
102
RTVSPost2010PropOp41
 70
     1
102
RTVSPost2010Prop42
 90
       50
102
RTVSPost2010PropOp42
 70
     1
102
RTVSPost2010Prop43
 90
        3
102
RTVSPost2010PropOp43
 70
     1
102
RTVSPost2010Prop44ColorIndex
 90
        5
102
RTVSPost2010Prop44ColorRGB
 90
      255
102
RTVSPost2010PropOp44
 70
     1
102
RTVSPost2010Prop45
280
     0
102
RTVSPost2010PropOp45
 70
     1
102
RTVSPost2010Prop46
 90
       50
102
RTVSPost2010PropOp46
 70
     1
102
RTVSPost2010Prop47
 90
       50
102
RTVSPost2010PropOp47
 70
     1
102
RTVSPost2010Prop48
 90
       50
102
RTVSPost2010PropOp48
 70
     1
102
RTVSPost2010Prop49
280
     0
102
RTVSPost2010PropOp49
 70
     1
102
RTVSPost2010Prop50
 90
       50
102
RTVSPost2010PropOp50
 70
     1
102
RTVSPost2010Prop51ColorIndex
 90
      256
102
RTVSPost2010Prop51ColorRGB
 90
-16777216
102
RTVSPost2010PropOp51
 70
     0
102
RTVSPost2010Prop52
140
1.0
102
RTVSPost2010PropOp52
 70
     0
102
RTVSPost2010Prop53
 90
        2
102
RTVSPost2010PropOp53
 70
     1
102
RTVSPost2010Prop54
  1
strokes_ogs.tif
102
RTVSPost2010PropOp54
 70
     1
102
RTVSPost2010Prop55
280
     0
102
RTVSPost2010PropOp55
 70
     1
102
RTVSPost2010Prop56
140
1.0
102
RTVSPost2010PropOp56
 70
     1
102
RTVSPost2010Prop57
140
1.0
102
RTVSPost2010PropOp57
 70
     1
102
RTVSPropertyOp0
 70
     1
102
RTVSPropertyOp1
 70
     1
102
RTVSPropertyOp2
 70
     1
102
RTVSPropertyOp3
 70
     1
102
RTVSPropertyOp4
 70
     1
102
RTVSPropertyOp5
 70
     1
102
RTVSPropertyOp6
 70
     1
102
RTVSPropertyOp7
 70
     1
102
RTVSPropertyOp8
 70
     1
102
RTVSPropertyOp9
 70
     1
102
RTVSPropertyOp10
 70
     1
102
RTVSPropertyOp11
 70
     1
102
RTVSPropertyOp12
 70
     1
102
RTVSPropertyOp13
 70
     1
102
RTVSPropertyOp14
 70
     1
102
RTVSPropertyOp15
 70
     1
102
RTVSPropertyOp16
 70
     1
102
RTVSPropertyOp17
 70
     1
102
RTVSPropertyOp18
 70
     1
102
RTVSPropertyOp19
 70
     1
102
RTVSPropertyOp20
 70
     1
102
RTVSPropertyOp21
 70
     1
102
RTVSPropertyOp22
 70
     1
102
RTVSPropertyOp23
 70
     1
102
RTVSPropertyOp24
 70
     1
102
RTVSPropertyOp25
 70
     1
102
RTVSPropertyOp26
 70
     1
102
RTVSPropertyOp27
 70
     1
102
RTVSPropertyOp28
 70
     1
102
RTVSPropertyOp29
 70
     1
102
RTVSPropertyOp30
 70
     1
102
RTVSPropertyOp31
 70
     1
102
RTVSPropertyOp32
 70
     1
102
RTVSPropertyOp33
 70
     1
102
RTVSPropertyOp34
 70
     1
102
RTVSPropertyOp35
 70
     1
102
RTVSPropertyOp36
 70
     1
102
RTVSPropertyOp37
 70
     1
102
RTVSPropertyOp38
 70
     1
102
RTVSPropertyOp39
 70
     1
102
RTVSPropertyOp40
 70
     1
102
RTVSPropertyOp41
 70
     1
102
RTVSPropertyOp42
 70
     1
102
RTVSPropertyOp43
 70
     1
102
RTVSPropertyOp44
 70
     1
102
RTVSPropertyOp45
 70
     1
102
RTVSPropertyOp46
 70
     1
102
RTVSPropertyOp47
 70
     1
102
RTVSPropertyOp48
 70
     1
102
RTVSPropertyOp49
 70
     1
102
RTVSPropertyOp50
 70
     1
102
RTVSPropertyOp51
 70
     0
102
RTVSPropertyOp52
 70
     0
102
RTVSPropertyOp53
 70
     1
102
RTVSPropertyOp54
 70
     1
102
RTVSPropertyOp55
 70
     1
102
RTVSPropertyOp56
 70
     1
102
RTVSPropertyOp57
 70
     1
102
RTVSPropertyOp58
 70
     1
102
RTVSPropertyOp59
 70
     1
102
RTVSPropertyOp60
 70
     1
102
RTVSPropertyOp61
 70
     1
102
RTVSPropertyOp62
 70
     1
  0
XRECORD
  5
A677
102
{ACAD_REACTORS
330
A676
102
}
330
A676
100
AcDbXrecord
280
     1
102
RTVSPost2010Prop28
280
     0
102
RTVSPost2010PropOp28
 70
     1
102
RTVSPost2010Prop29
280
     1
102
RTVSPost2010PropOp29
 70
     1
102
RTVSPost2010Prop30
280
     1
102
RTVSPost2010PropOp30
 70
     1
102
RTVSPost2010Prop31
280
     0
102
RTVSPost2010PropOp31
 70
     1
102
RTVSPost2010Prop32
280
     0
102
RTVSPost2010PropOp32
 70
     1
102
RTVSPost2010Prop33
280
     0
102
RTVSPost2010PropOp33
 70
     1
102
RTVSPost2010Prop34
280
     0
102
RTVSPost2010PropOp34
 70
     1
102
RTVSPost2010Prop35
280
     0
102
RTVSPost2010PropOp35
 70
     1
102
RTVSPost2010Prop36
280
     0
102
RTVSPost2010PropOp36
 70
     1
102
RTVSPost2010Prop37
 90
       50
102
RTVSPost2010PropOp37
 70
     1
102
RTVSPost2010Prop38
140
0.0
102
RTVSPost2010PropOp38
 70
     1
102
RTVSPost2010Prop39
140
1.0
102
RTVSPost2010PropOp39
 70
     1
102
RTVSPost2010Prop40
 90
        0
102
RTVSPost2010PropOp40
 70
     1
102
RTVSPost2010Prop41ColorIndex
 90
       18
102
RTVSPost2010Prop41ColorRGB
 90
        0
102
RTVSPost2010PropOp41
 70
     1
102
RTVSPost2010Prop42
 90
       50
102
RTVSPost2010PropOp42
 70
     1
102
RTVSPost2010Prop43
 90
        3
102
RTVSPost2010PropOp43
 70
     1
102
RTVSPost2010Prop44ColorIndex
 90
        5
102
RTVSPost2010Prop44ColorRGB
 90
      255
102
RTVSPost2010PropOp44
 70
     1
102
RTVSPost2010Prop45
280
     0
102
RTVSPost2010PropOp45
 70
     1
102
RTVSPost2010Prop46
 90
       50
102
RTVSPost2010PropOp46
 70
     1
102
RTVSPost2010Prop47
 90
       50
102
RTVSPost2010PropOp47
 70
     1
102
RTVSPost2010Prop48
 90
       50
102
RTVSPost2010PropOp48
 70
     1
102
RTVSPost2010Prop49
280
     0
102
RTVSPost2010PropOp49
 70
     1
102
RTVSPost2010Prop50
 90
       50
102
RTVSPost2010PropOp50
 70
     1
102
RTVSPost2010Prop51ColorIndex
 90
      256
102
RTVSPost2010Prop51ColorRGB
 90
-16777216
102
RTVSPost2010PropOp51
 70
     0
102
RTVSPost2010Prop52
140
1.0
102
RTVSPost2010PropOp52
 70
     0
102
RTVSPost2010Prop53
 90
        2
102
RTVSPost2010PropOp53
 70
     1
102
RTVSPost2010Prop54
  1
strokes_ogs.tif
102
RTVSPost2010PropOp54
 70
     1
102
RTVSPost2010Prop55
280
     0
102
RTVSPost2010PropOp55
 70
     1
102
RTVSPost2010Prop56
140
1.0
102
RTVSPost2010PropOp56
 70
     1
102
RTVSPost2010Prop57
140
1.0
102
RTVSPost2010PropOp57
 70
     1
102
RTVSPropertyOp0
 70
     1
102
RTVSPropertyOp1
 70
     1
102
RTVSPropertyOp2
 70
     1
102
RTVSPropertyOp3
 70
     1
102
RTVSPropertyOp4
 70
     1
102
RTVSPropertyOp5
 70
     1
102
RTVSPropertyOp6
 70
     1
102
RTVSPropertyOp7
 70
     1
102
RTVSPropertyOp8
 70
     1
102
RTVSPropertyOp9
 70
     1
102
RTVSPropertyOp10
 70
     1
102
RTVSPropertyOp11
 70
     1
102
RTVSPropertyOp12
 70
     1
102
RTVSPropertyOp13
 70
     1
102
RTVSPropertyOp14
 70
     1
102
RTVSPropertyOp15
 70
     1
102
RTVSPropertyOp16
 70
     1
102
RTVSPropertyOp17
 70
     1
102
RTVSPropertyOp18
 70
     1
102
RTVSPropertyOp19
 70
     1
102
RTVSPropertyOp20
 70
     1
102
RTVSPropertyOp21
 70
     1
102
RTVSPropertyOp22
 70
     1
102
RTVSPropertyOp23
 70
     1
102
RTVSPropertyOp24
 70
     1
102
RTVSPropertyOp25
 70
     1
102
RTVSPropertyOp26
 70
     1
102
RTVSPropertyOp27
 70
     1
102
RTVSPropertyOp28
 70
     1
102
RTVSPropertyOp29
 70
     1
102
RTVSPropertyOp30
 70
     1
102
RTVSPropertyOp31
 70
     1
102
RTVSPropertyOp32
 70
     1
102
RTVSPropertyOp33
 70
     1
102
RTVSPropertyOp34
 70
     1
102
RTVSPropertyOp35
 70
     1
102
RTVSPropertyOp36
 70
     1
102
RTVSPropertyOp37
 70
     1
102
RTVSPropertyOp38
 70
     1
102
RTVSPropertyOp39
 70
     1
102
RTVSPropertyOp40
 70
     1
102
RTVSPropertyOp41
 70
     1
102
RTVSPropertyOp42
 70
     1
102
RTVSPropertyOp43
 70
     1
102
RTVSPropertyOp44
 70
     1
102
RTVSPropertyOp45
 70
     1
102
RTVSPropertyOp46
 70
     1
102
RTVSPropertyOp47
 70
     1
102
RTVSPropertyOp48
 70
     1
102
RTVSPropertyOp49
 70
     1
102
RTVSPropertyOp50
 70
     1
102
RTVSPropertyOp51
 70
     0
102
RTVSPropertyOp52
 70
     0
102
RTVSPropertyOp53
 70
     1
102
RTVSPropertyOp54
 70
     1
102
RTVSPropertyOp55
 70
     1
102
RTVSPropertyOp56
 70
     1
102
RTVSPropertyOp57
 70
     1
102
RTVSPropertyOp58
 70
     1
102
RTVSPropertyOp59
 70
     1
102
RTVSPropertyOp60
 70
     1
102
RTVSPropertyOp61
 70
     1
102
RTVSPropertyOp62
 70
     1
  0
XRECORD
  5
A679
102
{ACAD_REACTORS
330
A678
102
}
330
A678
100
AcDbXrecord
280
     1
102
RTVSPost2010Prop28
280
     0
102
RTVSPost2010PropOp28
 70
     1
102
RTVSPost2010Prop29
280
     1
102
RTVSPost2010PropOp29
 70
     1
102
RTVSPost2010Prop30
280
     1
102
RTVSPost2010PropOp30
 70
     1
102
RTVSPost2010Prop31
280
     0
102
RTVSPost2010PropOp31
 70
     1
102
RTVSPost2010Prop32
280
     0
102
RTVSPost2010PropOp32
 70
     1
102
RTVSPost2010Prop33
280
     0
102
RTVSPost2010PropOp33
 70
     1
102
RTVSPost2010Prop34
280
     0
102
RTVSPost2010PropOp34
 70
     1
102
RTVSPost2010Prop35
280
     0
102
RTVSPost2010PropOp35
 70
     1
102
RTVSPost2010Prop36
280
     0
102
RTVSPost2010PropOp36
 70
     1
102
RTVSPost2010Prop37
 90
       50
102
RTVSPost2010PropOp37
 70
     1
102
RTVSPost2010Prop38
140
0.0
102
RTVSPost2010PropOp38
 70
     1
102
RTVSPost2010Prop39
140
1.0
102
RTVSPost2010PropOp39
 70
     1
102
RTVSPost2010Prop40
 90
        0
102
RTVSPost2010PropOp40
 70
     1
102
RTVSPost2010Prop41ColorIndex
 90
       18
102
RTVSPost2010Prop41ColorRGB
 90
        0
102
RTVSPost2010PropOp41
 70
     1
102
RTVSPost2010Prop42
 90
       50
102
RTVSPost2010PropOp42
 70
     1
102
RTVSPost2010Prop43
 90
        3
102
RTVSPost2010PropOp43
 70
     1
102
RTVSPost2010Prop44ColorIndex
 90
        5
102
RTVSPost2010Prop44ColorRGB
 90
      255
102
RTVSPost2010PropOp44
 70
     1
102
RTVSPost2010Prop45
280
     0
102
RTVSPost2010PropOp45
 70
     1
102
RTVSPost2010Prop46
 90
       50
102
RTVSPost2010PropOp46
 70
     1
102
RTVSPost2010Prop47
 90
       50
102
RTVSPost2010PropOp47
 70
     1
102
RTVSPost2010Prop48
 90
       50
102
RTVSPost2010PropOp48
 70
     1
102
RTVSPost2010Prop49
280
     0
102
RTVSPost2010PropOp49
 70
     1
102
RTVSPost2010Prop50
 90
       50
102
RTVSPost2010PropOp50
 70
     1
102
RTVSPost2010Prop51ColorIndex
 90
      256
102
RTVSPost2010Prop51ColorRGB
 90
-16777216
102
RTVSPost2010PropOp51
 70
     0
102
RTVSPost2010Prop52
140
1.0
102
RTVSPost2010PropOp52
 70
     0
102
RTVSPost2010Prop53
 90
        2
102
RTVSPost2010PropOp53
 70
     1
102
RTVSPost2010Prop54
  1
strokes_ogs.tif
102
RTVSPost2010PropOp54
 70
     1
102
RTVSPost2010Prop55
280
     0
102
RTVSPost2010PropOp55
 70
     1
102
RTVSPost2010Prop56
140
1.0
102
RTVSPost2010PropOp56
 70
     1
102
RTVSPost2010Prop57
140
1.0
102
RTVSPost2010PropOp57
 70
     1
102
RTVSPropertyOp0
 70
     1
102
RTVSPropertyOp1
 70
     1
102
RTVSPropertyOp2
 70
     1
102
RTVSPropertyOp3
 70
     1
102
RTVSPropertyOp4
 70
     1
102
RTVSPropertyOp5
 70
     1
102
RTVSPropertyOp6
 70
     1
102
RTVSPropertyOp7
 70
     1
102
RTVSPropertyOp8
 70
     1
102
RTVSPropertyOp9
 70
     1
102
RTVSPropertyOp10
 70
     1
102
RTVSPropertyOp11
 70
     1
102
RTVSPropertyOp12
 70
     1
102
RTVSPropertyOp13
 70
     1
102
RTVSPropertyOp14
 70
     1
102
RTVSPropertyOp15
 70
     1
102
RTVSPropertyOp16
 70
     1
102
RTVSPropertyOp17
 70
     1
102
RTVSPropertyOp18
 70
     1
102
RTVSPropertyOp19
 70
     1
102
RTVSPropertyOp20
 70
     1
102
RTVSPropertyOp21
 70
     1
102
RTVSPropertyOp22
 70
     1
102
RTVSPropertyOp23
 70
     1
102
RTVSPropertyOp24
 70
     1
102
RTVSPropertyOp25
 70
     1
102
RTVSPropertyOp26
 70
     1
102
RTVSPropertyOp27
 70
     1
102
RTVSPropertyOp28
 70
     1
102
RTVSPropertyOp29
 70
     1
102
RTVSPropertyOp30
 70
     1
102
RTVSPropertyOp31
 70
     1
102
RTVSPropertyOp32
 70
     1
102
RTVSPropertyOp33
 70
     1
102
RTVSPropertyOp34
 70
     1
102
RTVSPropertyOp35
 70
     1
102
RTVSPropertyOp36
 70
     1
102
RTVSPropertyOp37
 70
     1
102
RTVSPropertyOp38
 70
     1
102
RTVSPropertyOp39
 70
     1
102
RTVSPropertyOp40
 70
     1
102
RTVSPropertyOp41
 70
     1
102
RTVSPropertyOp42
 70
     1
102
RTVSPropertyOp43
 70
     1
102
RTVSPropertyOp44
 70
     1
102
RTVSPropertyOp45
 70
     1
102
RTVSPropertyOp46
 70
     1
102
RTVSPropertyOp47
 70
     1
102
RTVSPropertyOp48
 70
     1
102
RTVSPropertyOp49
 70
     1
102
RTVSPropertyOp50
 70
     1
102
RTVSPropertyOp51
 70
     0
102
RTVSPropertyOp52
 70
     0
102
RTVSPropertyOp53
 70
     1
102
RTVSPropertyOp54
 70
     1
102
RTVSPropertyOp55
 70
     1
102
RTVSPropertyOp56
 70
     1
102
RTVSPropertyOp57
 70
     1
102
RTVSPropertyOp58
 70
     1
102
RTVSPropertyOp59
 70
     1
102
RTVSPropertyOp60
 70
     1
102
RTVSPropertyOp61
 70
     1
102
RTVSPropertyOp62
 70
     1
  0
XRECORD
  5
A66F
102
{ACAD_REACTORS
330
A66E
102
}
330
A66E
100
AcDbXrecord
280
     1
102
RTVSPost2010Prop28
280
     0
102
RTVSPost2010PropOp28
 70
     1
102
RTVSPost2010Prop29
280
     1
102
RTVSPost2010PropOp29
 70
     1
102
RTVSPost2010Prop30
280
     1
102
RTVSPost2010PropOp30
 70
     1
102
RTVSPost2010Prop31
280
     0
102
RTVSPost2010PropOp31
 70
     1
102
RTVSPost2010Prop32
280
     0
102
RTVSPost2010PropOp32
 70
     1
102
RTVSPost2010Prop33
280
     0
102
RTVSPost2010PropOp33
 70
     1
102
RTVSPost2010Prop34
280
     0
102
RTVSPost2010PropOp34
 70
     1
102
RTVSPost2010Prop35
280
     0
102
RTVSPost2010PropOp35
 70
     1
102
RTVSPost2010Prop36
280
     0
102
RTVSPost2010PropOp36
 70
     1
102
RTVSPost2010Prop37
 90
       50
102
RTVSPost2010PropOp37
 70
     1
102
RTVSPost2010Prop38
140
0.0
102
RTVSPost2010PropOp38
 70
     1
102
RTVSPost2010Prop39
140
1.0
102
RTVSPost2010PropOp39
 70
     1
102
RTVSPost2010Prop40
 90
        0
102
RTVSPost2010PropOp40
 70
     1
102
RTVSPost2010Prop41ColorIndex
 90
       18
102
RTVSPost2010Prop41ColorRGB
 90
        0
102
RTVSPost2010PropOp41
 70
     1
102
RTVSPost2010Prop42
 90
       50
102
RTVSPost2010PropOp42
 70
     1
102
RTVSPost2010Prop43
 90
        3
102
RTVSPost2010PropOp43
 70
     1
102
RTVSPost2010Prop44ColorIndex
 90
        5
102
RTVSPost2010Prop44ColorRGB
 90
      255
102
RTVSPost2010PropOp44
 70
     1
102
RTVSPost2010Prop45
280
     0
102
RTVSPost2010PropOp45
 70
     1
102
RTVSPost2010Prop46
 90
       50
102
RTVSPost2010PropOp46
 70
     1
102
RTVSPost2010Prop47
 90
       50
102
RTVSPost2010PropOp47
 70
     1
102
RTVSPost2010Prop48
 90
       50
102
RTVSPost2010PropOp48
 70
     1
102
RTVSPost2010Prop49
280
     0
102
RTVSPost2010PropOp49
 70
     1
102
RTVSPost2010Prop50
 90
       50
102
RTVSPost2010PropOp50
 70
     1
102
RTVSPost2010Prop51ColorIndex
 90
      256
102
RTVSPost2010Prop51ColorRGB
 90
-16777216
102
RTVSPost2010PropOp51
 70
     0
102
RTVSPost2010Prop52
140
1.0
102
RTVSPost2010PropOp52
 70
     0
102
RTVSPost2010Prop53
 90
        2
102
RTVSPost2010PropOp53
 70
     1
102
RTVSPost2010Prop54
  1
strokes_ogs.tif
102
RTVSPost2010PropOp54
 70
     1
102
RTVSPost2010Prop55
280
     0
102
RTVSPost2010PropOp55
 70
     1
102
RTVSPost2010Prop56
140
1.0
102
RTVSPost2010PropOp56
 70
     1
102
RTVSPost2010Prop57
140
1.0
102
RTVSPost2010PropOp57
 70
     1
102
RTVSPropertyOp0
 70
     1
102
RTVSPropertyOp1
 70
     1
102
RTVSPropertyOp2
 70
     1
102
RTVSPropertyOp3
 70
     1
102
RTVSPropertyOp4
 70
     1
102
RTVSPropertyOp5
 70
     1
102
RTVSPropertyOp6
 70
     1
102
RTVSPropertyOp7
 70
     1
102
RTVSPropertyOp8
 70
     1
102
RTVSPropertyOp9
 70
     1
102
RTVSPropertyOp10
 70
     1
102
RTVSPropertyOp11
 70
     1
102
RTVSPropertyOp12
 70
     1
102
RTVSPropertyOp13
 70
     1
102
RTVSPropertyOp14
 70
     1
102
RTVSPropertyOp15
 70
     1
102
RTVSPropertyOp16
 70
     1
102
RTVSPropertyOp17
 70
     1
102
RTVSPropertyOp18
 70
     1
102
RTVSPropertyOp19
 70
     1
102
RTVSPropertyOp20
 70
     1
102
RTVSPropertyOp21
 70
     1
102
RTVSPropertyOp22
 70
     1
102
RTVSPropertyOp23
 70
     1
102
RTVSPropertyOp24
 70
     1
102
RTVSPropertyOp25
 70
     1
102
RTVSPropertyOp26
 70
     1
102
RTVSPropertyOp27
 70
     1
102
RTVSPropertyOp28
 70
     1
102
RTVSPropertyOp29
 70
     1
102
RTVSPropertyOp30
 70
     1
102
RTVSPropertyOp31
 70
     1
102
RTVSPropertyOp32
 70
     1
102
RTVSPropertyOp33
 70
     1
102
RTVSPropertyOp34
 70
     1
102
RTVSPropertyOp35
 70
     1
102
RTVSPropertyOp36
 70
     1
102
RTVSPropertyOp37
 70
     1
102
RTVSPropertyOp38
 70
     1
102
RTVSPropertyOp39
 70
     1
102
RTVSPropertyOp40
 70
     1
102
RTVSPropertyOp41
 70
     1
102
RTVSPropertyOp42
 70
     1
102
RTVSPropertyOp43
 70
     1
102
RTVSPropertyOp44
 70
     1
102
RTVSPropertyOp45
 70
     1
102
RTVSPropertyOp46
 70
     1
102
RTVSPropertyOp47
 70
     1
102
RTVSPropertyOp48
 70
     1
102
RTVSPropertyOp49
 70
     1
102
RTVSPropertyOp50
 70
     1
102
RTVSPropertyOp51
 70
     0
102
RTVSPropertyOp52
 70
     0
102
RTVSPropertyOp53
 70
     1
102
RTVSPropertyOp54
 70
     1
102
RTVSPropertyOp55
 70
     1
102
RTVSPropertyOp56
 70
     1
102
RTVSPropertyOp57
 70
     1
102
RTVSPropertyOp58
 70
     1
102
RTVSPropertyOp59
 70
     1
102
RTVSPropertyOp60
 70
     1
102
RTVSPropertyOp61
 70
     1
102
RTVSPropertyOp62
 70
     1
  0
XRECORD
  5
A663
102
{ACAD_REACTORS
330
A662
102
}
330
A662
100
AcDbXrecord
280
     1
102
RTVSPost2010Prop28
280
     0
102
RTVSPost2010PropOp28
 70
     1
102
RTVSPost2010Prop29
280
     1
102
RTVSPost2010PropOp29
 70
     1
102
RTVSPost2010Prop30
280
     1
102
RTVSPost2010PropOp30
 70
     1
102
RTVSPost2010Prop31
280
     0
102
RTVSPost2010PropOp31
 70
     1
102
RTVSPost2010Prop32
280
     0
102
RTVSPost2010PropOp32
 70
     1
102
RTVSPost2010Prop33
280
     0
102
RTVSPost2010PropOp33
 70
     1
102
RTVSPost2010Prop34
280
     0
102
RTVSPost2010PropOp34
 70
     1
102
RTVSPost2010Prop35
280
     0
102
RTVSPost2010PropOp35
 70
     1
102
RTVSPost2010Prop36
280
     0
102
RTVSPost2010PropOp36
 70
     1
102
RTVSPost2010Prop37
 90
       50
102
RTVSPost2010PropOp37
 70
     1
102
RTVSPost2010Prop38
140
0.0
102
RTVSPost2010PropOp38
 70
     1
102
RTVSPost2010Prop39
140
1.0
102
RTVSPost2010PropOp39
 70
     1
102
RTVSPost2010Prop40
 90
        0
102
RTVSPost2010PropOp40
 70
     1
102
RTVSPost2010Prop41ColorIndex
 90
       18
102
RTVSPost2010Prop41ColorRGB
 90
        0
102
RTVSPost2010PropOp41
 70
     1
102
RTVSPost2010Prop42
 90
       50
102
RTVSPost2010PropOp42
 70
     1
102
RTVSPost2010Prop43
 90
        3
102
RTVSPost2010PropOp43
 70
     1
102
RTVSPost2010Prop44ColorIndex
 90
        5
102
RTVSPost2010Prop44ColorRGB
 90
      255
102
RTVSPost2010PropOp44
 70
     1
102
RTVSPost2010Prop45
280
     0
102
RTVSPost2010PropOp45
 70
     1
102
RTVSPost2010Prop46
 90
       50
102
RTVSPost2010PropOp46
 70
     1
102
RTVSPost2010Prop47
 90
       50
102
RTVSPost2010PropOp47
 70
     1
102
RTVSPost2010Prop48
 90
       50
102
RTVSPost2010PropOp48
 70
     1
102
RTVSPost2010Prop49
280
     0
102
RTVSPost2010PropOp49
 70
     1
102
RTVSPost2010Prop50
 90
       50
102
RTVSPost2010PropOp50
 70
     1
102
RTVSPost2010Prop51ColorIndex
 90
      256
102
RTVSPost2010Prop51ColorRGB
 90
-16777216
102
RTVSPost2010PropOp51
 70
     0
102
RTVSPost2010Prop52
140
1.0
102
RTVSPost2010PropOp52
 70
     0
102
RTVSPost2010Prop53
 90
        2
102
RTVSPost2010PropOp53
 70
     1
102
RTVSPost2010Prop54
  1
strokes_ogs.tif
102
RTVSPost2010PropOp54
 70
     1
102
RTVSPost2010Prop55
280
     0
102
RTVSPost2010PropOp55
 70
     1
102
RTVSPost2010Prop56
140
1.0
102
RTVSPost2010PropOp56
 70
     1
102
RTVSPost2010Prop57
140
1.0
102
RTVSPost2010PropOp57
 70
     1
102
RTVSPropertyOp0
 70
     1
102
RTVSPropertyOp1
 70
     1
102
RTVSPropertyOp2
 70
     1
102
RTVSPropertyOp3
 70
     1
102
RTVSPropertyOp4
 70
     1
102
RTVSPropertyOp5
 70
     1
102
RTVSPropertyOp6
 70
     1
102
RTVSPropertyOp7
 70
     1
102
RTVSPropertyOp8
 70
     1
102
RTVSPropertyOp9
 70
     1
102
RTVSPropertyOp10
 70
     1
102
RTVSPropertyOp11
 70
     1
102
RTVSPropertyOp12
 70
     1
102
RTVSPropertyOp13
 70
     1
102
RTVSPropertyOp14
 70
     1
102
RTVSPropertyOp15
 70
     1
102
RTVSPropertyOp16
 70
     1
102
RTVSPropertyOp17
 70
     1
102
RTVSPropertyOp18
 70
     1
102
RTVSPropertyOp19
 70
     1
102
RTVSPropertyOp20
 70
     1
102
RTVSPropertyOp21
 70
     1
102
RTVSPropertyOp22
 70
     1
102
RTVSPropertyOp23
 70
     1
102
RTVSPropertyOp24
 70
     1
102
RTVSPropertyOp25
 70
     1
102
RTVSPropertyOp26
 70
     1
102
RTVSPropertyOp27
 70
     1
102
RTVSPropertyOp28
 70
     1
102
RTVSPropertyOp29
 70
     1
102
RTVSPropertyOp30
 70
     1
102
RTVSPropertyOp31
 70
     1
102
RTVSPropertyOp32
 70
     1
102
RTVSPropertyOp33
 70
     1
102
RTVSPropertyOp34
 70
     1
102
RTVSPropertyOp35
 70
     1
102
RTVSPropertyOp36
 70
     1
102
RTVSPropertyOp37
 70
     1
102
RTVSPropertyOp38
 70
     1
102
RTVSPropertyOp39
 70
     1
102
RTVSPropertyOp40
 70
     1
102
RTVSPropertyOp41
 70
     1
102
RTVSPropertyOp42
 70
     1
102
RTVSPropertyOp43
 70
     1
102
RTVSPropertyOp44
 70
     1
102
RTVSPropertyOp45
 70
     1
102
RTVSPropertyOp46
 70
     1
102
RTVSPropertyOp47
 70
     1
102
RTVSPropertyOp48
 70
     1
102
RTVSPropertyOp49
 70
     1
102
RTVSPropertyOp50
 70
     1
102
RTVSPropertyOp51
 70
     0
102
RTVSPropertyOp52
 70
     0
102
RTVSPropertyOp53
 70
     1
102
RTVSPropertyOp54
 70
     1
102
RTVSPropertyOp55
 70
     1
102
RTVSPropertyOp56
 70
     1
102
RTVSPropertyOp57
 70
     1
102
RTVSPropertyOp58
 70
     1
102
RTVSPropertyOp59
 70
     1
102
RTVSPropertyOp60
 70
     1
102
RTVSPropertyOp61
 70
     1
102
RTVSPropertyOp62
 70
     1
  0
XRECORD
  5
A67B
102
{ACAD_REACTORS
330
A67A
102
}
330
A67A
100
AcDbXrecord
280
     1
102
RTVSPost2010Prop28
280
     0
102
RTVSPost2010PropOp28
 70
     1
102
RTVSPost2010Prop29
280
     1
102
RTVSPost2010PropOp29
 70
     1
102
RTVSPost2010Prop30
280
     1
102
RTVSPost2010PropOp30
 70
     1
102
RTVSPost2010Prop31
280
     0
102
RTVSPost2010PropOp31
 70
     1
102
RTVSPost2010Prop32
280
     0
102
RTVSPost2010PropOp32
 70
     1
102
RTVSPost2010Prop33
280
     0
102
RTVSPost2010PropOp33
 70
     1
102
RTVSPost2010Prop34
280
     0
102
RTVSPost2010PropOp34
 70
     1
102
RTVSPost2010Prop35
280
     0
102
RTVSPost2010PropOp35
 70
     1
102
RTVSPost2010Prop36
280
     0
102
RTVSPost2010PropOp36
 70
     1
102
RTVSPost2010Prop37
 90
       50
102
RTVSPost2010PropOp37
 70
     1
102
RTVSPost2010Prop38
140
0.0
102
RTVSPost2010PropOp38
 70
     1
102
RTVSPost2010Prop39
140
1.0
102
RTVSPost2010PropOp39
 70
     1
102
RTVSPost2010Prop40
 90
        0
102
RTVSPost2010PropOp40
 70
     1
102
RTVSPost2010Prop41ColorIndex
 90
       18
102
RTVSPost2010Prop41ColorRGB
 90
        0
102
RTVSPost2010PropOp41
 70
     1
102
RTVSPost2010Prop42
 90
       50
102
RTVSPost2010PropOp42
 70
     1
102
RTVSPost2010Prop43
 90
        3
102
RTVSPost2010PropOp43
 70
     1
102
RTVSPost2010Prop44ColorIndex
 90
        5
102
RTVSPost2010Prop44ColorRGB
 90
      255
102
RTVSPost2010PropOp44
 70
     1
102
RTVSPost2010Prop45
280
     0
102
RTVSPost2010PropOp45
 70
     1
102
RTVSPost2010Prop46
 90
       50
102
RTVSPost2010PropOp46
 70
     1
102
RTVSPost2010Prop47
 90
       50
102
RTVSPost2010PropOp47
 70
     1
102
RTVSPost2010Prop48
 90
       50
102
RTVSPost2010PropOp48
 70
     1
102
RTVSPost2010Prop49
280
     0
102
RTVSPost2010PropOp49
 70
     1
102
RTVSPost2010Prop50
 90
       50
102
RTVSPost2010PropOp50
 70
     1
102
RTVSPost2010Prop51ColorIndex
 90
      256
102
RTVSPost2010Prop51ColorRGB
 90
-16777216
102
RTVSPost2010PropOp51
 70
     0
102
RTVSPost2010Prop52
140
1.0
102
RTVSPost2010PropOp52
 70
     0
102
RTVSPost2010Prop53
 90
        2
102
RTVSPost2010PropOp53
 70
     1
102
RTVSPost2010Prop54
  1
strokes_ogs.tif
102
RTVSPost2010PropOp54
 70
     1
102
RTVSPost2010Prop55
280
     0
102
RTVSPost2010PropOp55
 70
     1
102
RTVSPost2010Prop56
140
1.0
102
RTVSPost2010PropOp56
 70
     1
102
RTVSPost2010Prop57
140
1.0
102
RTVSPost2010PropOp57
 70
     1
102
RTVSPropertyOp0
 70
     1
102
RTVSPropertyOp1
 70
     1
102
RTVSPropertyOp2
 70
     1
102
RTVSPropertyOp3
 70
     1
102
RTVSPropertyOp4
 70
     1
102
RTVSPropertyOp5
 70
     1
102
RTVSPropertyOp6
 70
     1
102
RTVSPropertyOp7
 70
     1
102
RTVSPropertyOp8
 70
     1
102
RTVSPropertyOp9
 70
     1
102
RTVSPropertyOp10
 70
     1
102
RTVSPropertyOp11
 70
     1
102
RTVSPropertyOp12
 70
     1
102
RTVSPropertyOp13
 70
     1
102
RTVSPropertyOp14
 70
     1
102
RTVSPropertyOp15
 70
     1
102
RTVSPropertyOp16
 70
     1
102
RTVSPropertyOp17
 70
     1
102
RTVSPropertyOp18
 70
     1
102
RTVSPropertyOp19
 70
     1
102
RTVSPropertyOp20
 70
     1
102
RTVSPropertyOp21
 70
     1
102
RTVSPropertyOp22
 70
     1
102
RTVSPropertyOp23
 70
     1
102
RTVSPropertyOp24
 70
     1
102
RTVSPropertyOp25
 70
     1
102
RTVSPropertyOp26
 70
     1
102
RTVSPropertyOp27
 70
     1
102
RTVSPropertyOp28
 70
     1
102
RTVSPropertyOp29
 70
     1
102
RTVSPropertyOp30
 70
     1
102
RTVSPropertyOp31
 70
     1
102
RTVSPropertyOp32
 70
     1
102
RTVSPropertyOp33
 70
     1
102
RTVSPropertyOp34
 70
     1
102
RTVSPropertyOp35
 70
     1
102
RTVSPropertyOp36
 70
     1
102
RTVSPropertyOp37
 70
     1
102
RTVSPropertyOp38
 70
     1
102
RTVSPropertyOp39
 70
     1
102
RTVSPropertyOp40
 70
     1
102
RTVSPropertyOp41
 70
     1
102
RTVSPropertyOp42
 70
     1
102
RTVSPropertyOp43
 70
     1
102
RTVSPropertyOp44
 70
     1
102
RTVSPropertyOp45
 70
     1
102
RTVSPropertyOp46
 70
     1
102
RTVSPropertyOp47
 70
     1
102
RTVSPropertyOp48
 70
     1
102
RTVSPropertyOp49
 70
     1
102
RTVSPropertyOp50
 70
     1
102
RTVSPropertyOp51
 70
     0
102
RTVSPropertyOp52
 70
     0
102
RTVSPropertyOp53
 70
     1
102
RTVSPropertyOp54
 70
     1
102
RTVSPropertyOp55
 70
     1
102
RTVSPropertyOp56
 70
     1
102
RTVSPropertyOp57
 70
     1
102
RTVSPropertyOp58
 70
     1
102
RTVSPropertyOp59
 70
     1
102
RTVSPropertyOp60
 70
     1
102
RTVSPropertyOp61
 70
     1
102
RTVSPropertyOp62
 70
     1
  0
ENDSEC
  0
EOF
