  0
SECTION
  2
HEADER
  9
$ACADVER
  1
AC1015
  9
$ACADMAINTVER
 70
    20
  9
$DWGCODEPAGE
  3
ANSI_932
  9
$INSBASE
 10
0.0
 20
0.0
 30
0.0
  9
$EXTMIN
 10
10.0
 20
9.999999999999998
 30
0.0
  9
$EXTMAX
 10
394.5599209999999
 20
335.1929769999999
 30
0.0
  9
$LIMMIN
 10
0.0
 20
0.0
  9
$LIMMAX
 10
495.0
 20
341.25
  9
$ORTHOMODE
 70
     1
  9
$REGENMODE
 70
     1
  9
$FILLMODE
 70
     1
  9
$QTEXTMODE
 70
     0
  9
$MIRRTEXT
 70
     1
  9
$LTSCALE
 40
20.0
  9
$ATTMODE
 70
     1
  9
$TEXTSIZE
 40
5.0
  9
$TRACEWID
 40
1.0
  9
$TEXTSTYLE
  7
STANDARD
  9
$CLAYER
  8
0
  9
$CELTYPE
  6
BYLAYER
  9
$CECOLOR
 62
   256
  9
$CELTSCALE
 40
1.0
  9
$DISPSILH
 70
     0
  9
$DIMSCALE
 40
1.0
  9
$DIMASZ
 40
2.5
  9
$DIMEXO
 40
1.0
  9
$DIMDLI
 40
10.0
  9
$DIMRND
 40
0.0
  9
$DIMDLE
 40
0.0
  9
$DIMEXE
 40
1.0
  9
$DIMTP
 40
0.0
  9
$DIMTM
 40
0.0
  9
$DIMTXT
 40
3.2
  9
$DIMCEN
 40
0.0
  9
$DIMTSZ
 40
0.0
  9
$DIMTOL
 70
     0
  9
$DIMLIM
 70
     0
  9
$DIMTIH
 70
     0
  9
$DIMTOH
 70
     0
  9
$DIMSE1
 70
     0
  9
$DIMSE2
 70
     0
  9
$DIMTAD
 70
     3
  9
$DIMZIN
 70
     8
  9
$DIMBLK
  1

  9
$DIMASO
 70
     1
  9
$DIMSHO
 70
     1
  9
$DIMPOST
  1

  9
$DIMAPOST
  1

  9
$DIMALT
 70
     0
  9
$DIMALTD
 70
     2
  9
$DIMALTF
 40
25.4
  9
$DIMLFAC
 40
1.0
  9
$DIMTOFL
 70
     1
  9
$DIMTVP
 40
0.0
  9
$DIMTIX
 70
     0
  9
$DIMSOXD
 70
     0
  9
$DIMSAH
 70
     1
  9
$DIMBLK1
  1

  9
$DIMBLK2
  1

  9
$DIMSTYLE
  2
STANDARD
  9
$DIMCLRD
 70
     0
  9
$DIMCLRE
 70
     0
  9
$DIMCLRT
 70
     0
  9
$DIMTFAC
 40
1.0
  9
$DIMGAP
 40
1.0
  9
$DIMJUST
 70
     0
  9
$DIMSD1
 70
     0
  9
$DIMSD2
 70
     0
  9
$DIMTOLJ
 70
     1
  9
$DIMTZIN
 70
     0
  9
$DIMALTZ
 70
     0
  9
$DIMALTTZ
 70
     0
  9
$DIMUPT
 70
     0
  9
$DIMDEC
 70
     4
  9
$DIMTDEC
 70
     4
  9
$DIMALTU
 70
     2
  9
$DIMALTTD
 70
     2
  9
$DIMTXSTY
  7
STANDARD
  9
$DIMAUNIT
 70
     0
  9
$DIMADEC
 70
     0
  9
$DIMALTRND
 40
0.0
  9
$DIMAZIN
 70
     0
  9
$DIMDSEP
 70
    46
  9
$DIMATFIT
 70
     3
  9
$DIMFRAC
 70
     0
  9
$DIMLDRBLK
  1

  9
$DIMLUNIT
 70
     2
  9
$DIMLWD
 70
    -2
  9
$DIMLWE
 70
    -2
  9
$DIMTMOVE
 70
     0
  9
$LUNITS
 70
     2
  9
$LUPREC
 70
     4
  9
$SKETCHINC
 40
1.0
  9
$FILLETRAD
 40
4.0
  9
$AUNITS
 70
     0
  9
$AUPREC
 70
     2
  9
$MENU
  1
.
  9
$ELEVATION
 40
0.0
  9
$PELEVATION
 40
0.0
  9
$THICKNESS
 40
0.0
  9
$LIMCHECK
 70
     0
  9
$CHAMFERA
 40
10.0
  9
$CHAMFERB
 40
10.0
  9
$CHAMFERC
 40
0.0
  9
$CHAMFERD
 40
0.0
  9
$SKPOLY
 70
     0
  9
$TDCREATE
 40
2451301.438770255
  9
$TDUCREATE
 40
2451301.063770255
  9
$TDUPDATE
 40
2457192.690137095
  9
$TDUUPDATE
 40
2457192.315137095
  9
$TDINDWG
 40
0.1174453472
  9
$TDUSRTIMER
 40
0.1174451620
  9
$USRTIMER
 70
     1
  9
$ANGBASE
 50
0.0
  9
$ANGDIR
 70
     0
  9
$PDMODE
 70
     0
  9
$PDSIZE
 40
0.0
  9
$PLINEWID
 40
0.0
  9
$SPLFRAME
 70
     0
  9
$SPLINETYPE
 70
     6
  9
$SPLINESEGS
 70
     8
  9
$HANDSEED
  5
A6B1
  9
$SURFTAB1
 70
     6
  9
$SURFTAB2
 70
     6
  9
$SURFTYPE
 70
     6
  9
$SURFU
 70
     6
  9
$SURFV
 70
     6
  9
$UCSBASE
  2

  9
$UCSNAME
  2

  9
$UCSORG
 10
0.0
 20
0.0
 30
0.0
  9
$UCSXDIR
 10
1.0
 20
0.0
 30
0.0
  9
$UCSYDIR
 10
0.0
 20
1.0
 30
0.0
  9
$UCSORTHOREF
  2

  9
$UCSORTHOVIEW
 70
     0
  9
$UCSORGTOP
 10
0.0
 20
0.0
 30
0.0
  9
$UCSORGBOTTOM
 10
0.0
 20
0.0
 30
0.0
  9
$UCSORGLEFT
 10
0.0
 20
0.0
 30
0.0
  9
$UCSORGRIGHT
 10
0.0
 20
0.0
 30
0.0
  9
$UCSORGFRONT
 10
0.0
 20
0.0
 30
0.0
  9
$UCSORGBACK
 10
0.0
 20
0.0
 30
0.0
  9
$PUCSBASE
  2

  9
$PUCSNAME
  2

  9
$PUCSORG
 10
0.0
 20
0.0
 30
0.0
  9
$PUCSXDIR
 10
1.0
 20
0.0
 30
0.0
  9
$PUCSYDIR
 10
0.0
 20
1.0
 30
0.0
  9
$PUCSORTHOREF
  2

  9
$PUCSORTHOVIEW
 70
     0
  9
$PUCSORGTOP
 10
0.0
 20
0.0
 30
0.0
  9
$PUCSORGBOTTOM
 10
0.0
 20
0.0
 30
0.0
  9
$PUCSORGLEFT
 10
0.0
 20
0.0
 30
0.0
  9
$PUCSORGRIGHT
 10
0.0
 20
0.0
 30
0.0
  9
$PUCSORGFRONT
 10
0.0
 20
0.0
 30
0.0
  9
$PUCSORGBACK
 10
0.0
 20
0.0
 30
0.0
  9
$USERI1
 70
     0
  9
$USERI2
 70
     0
  9
$USERI3
 70
     0
  9
$USERI4
 70
     0
  9
$USERI5
 70
     0
  9
$USERR1
 40
0.0
  9
$USERR2
 40
0.0
  9
$USERR3
 40
0.0
  9
$USERR4
 40
0.0
  9
$USERR5
 40
0.0
  9
$WORLDVIEW
 70
     1
  9
$SHADEDGE
 70
     3
  9
$SHADEDIF
 70
    70
  9
$TILEMODE
 70
     1
  9
$MAXACTVP
 70
    16
  9
$PINSBASE
 10
0.0
 20
0.0
 30
0.0
  9
$PLIMCHECK
 70
     0
  9
$PEXTMIN
 10
1.000000000000000E+20
 20
1.000000000000000E+20
 30
1.000000000000000E+20
  9
$PEXTMAX
 10
-1.000000000000000E+20
 20
-1.000000000000000E+20
 30
-1.000000000000000E+20
  9
$PLIMMIN
 10
0.0
 20
0.0
  9
$PLIMMAX
 10
420.0
 20
297.0
  9
$UNITMODE
 70
     0
  9
$VISRETAIN
 70
     0
  9
$PLINEGEN
 70
     0
  9
$PSLTSCALE
 70
     0
  9
$TREEDEPTH
 70
  3020
  9
$CMLSTYLE
  2
STANDARD
  9
$CMLJUST
 70
     0
  9
$CMLSCALE
 40
1.0
  9
$PROXYGRAPHICS
 70
     1
  9
$MEASUREMENT
 70
     0
  9
$CELWEIGHT
370
    -1
  9
$ENDCAPS
280
     0
  9
$JOINSTYLE
280
     0
  9
$LWDISPLAY
290
     0
  9
$INSUNITS
 70
     0
  9
$HYPERLINKBASE
  1

  9
$STYLESHEET
  1

  9
$XEDIT
290
     1
  9
$CEPSNTYPE
380
     0
  9
$PSTYLEMODE
290
     1
  9
$FINGERPRINTGUID
  2
{04A1D8B1-1432-4AB0-B0BD-67CCA5139ED4}
  9
$VERSIONGUID
  2
{0D5AA694-57EA-4558-A4C2-2554D63CBD39}
  9
$EXTNAMES
290
     1
  9
$PSVPSCALE
 40
0.0
  9
$OLESTARTUP
290
     0
  0
ENDSEC
  0
SECTION
  2
CLASSES
  0
CLASS
  1
ACDBDICTIONARYWDFLT
  2
AcDbDictionaryWithDefault
  3
ObjectDBX Classes
 90
        0
280
     0
281
     0
  0
CLASS
  1
ACDBPLACEHOLDER
  2
AcDbPlaceHolder
  3
ObjectDBX Classes
 90
        0
280
     0
281
     0
  0
CLASS
  1
LAYOUT
  2
AcDbLayout
  3
ObjectDBX Classes
 90
        0
280
     0
281
     0
  0
CLASS
  1
DICTIONARYVAR
  2
AcDbDictionaryVar
  3
ObjectDBX Classes
 90
        0
280
     0
281
     0
  0
CLASS
  1
MATERIAL
  2
AcDbMaterial
  3
ObjectDBX Classes
 90
     1153
280
     0
281
     0
  0
CLASS
  1
VISUALSTYLE
  2
AcDbVisualStyle
  3
ObjectDBX Classes
 90
     4095
280
     0
281
     0
  0
CLASS
  1
TABLESTYLE
  2
AcDbTableStyle
  3
ObjectDBX Classes
 90
     4095
280
     0
281
     0
  0
CLASS
  1
SCALE
  2
AcDbScale
  3
ObjectDBX Classes
 90
     1153
280
     0
281
     0
  0
CLASS
  1
MLEADERSTYLE
  2
AcDbMLeaderStyle
  3
ACDB_MLEADERSTYLE_CLASS
 90
     4095
280
     0
281
     0
  0
CLASS
  1
ACDBSECTIONVIEWSTYLE
  2
AcDbSectionViewStyle
  3
ObjectDBX Classes
 90
     1025
280
     0
281
     0
  0
CLASS
  1
ACDBDETAILVIEWSTYLE
  2
AcDbDetailViewStyle
  3
ObjectDBX Classes
 90
     1025
280
     0
281
     0
  0
CLASS
  1
CELLSTYLEMAP
  2
AcDbCellStyleMap
  3
ObjectDBX Classes
 90
     1152
280
     0
281
     0
  0
ENDSEC
  0
SECTION
  2
TABLES
  0
TABLE
  2
VPORT
  5
A3B2
330
0
100
AcDbSymbolTable
 70
     1
  0
VPORT
  5
A5FC
330
A3B2
100
AcDbSymbolTableRecord
100
AcDbViewportTableRecord
  2
*ACTIVE
 70
     0
 10
0.0
 20
0.0
 11
1.0
 21
1.0
 12
327.4665660582142
 22
172.5906666140835
 13
0.0
 23
0.0
 14
10.0
 24
10.0
 15
10.0
 25
10.0
 16
0.0
 26
0.0
 36
1.0
 17
0.0
 27
0.0
 37
0.0
 40
327.774466696537
 41
2.35006605019815
 42
50.0
 43
0.0
 44
0.0
 50
0.0
 51
0.0
 71
     0
 72
   100
 73
     1
 74
     0
 75
     0
 76
     0
 77
     0
 78
     0
281
     0
 65
     1
110
0.0
120
0.0
130
0.0
111
1.0
121
0.0
131
0.0
112
0.0
122
1.0
132
0.0
 79
     0
146
0.0
1001
ACAD_NAV_VCDISPLAY
1070
     3
  0
ENDTAB
  0
TABLE
  2
LTYPE
  5
A3AF
330
0
100
AcDbSymbolTable
 70
     4
  0
LTYPE
  5
A3BD
330
A3AF
100
AcDbSymbolTableRecord
100
AcDbLinetypeTableRecord
  2
BYBLOCK
 70
     0
  3

 72
    65
 73
     0
 40
0.0
  0
LTYPE
  5
A3BE
330
A3AF
100
AcDbSymbolTableRecord
100
AcDbLinetypeTableRecord
  2
BYLAYER
 70
     0
  3

 72
    65
 73
     0
 40
0.0
  0
LTYPE
  5
A3BF
330
A3AF
100
AcDbSymbolTableRecord
100
AcDbLinetypeTableRecord
  2
CONTINUOUS
 70
     0
  3
Solid line
 72
    65
 73
     0
 40
0.0
  0
LTYPE
  5
A3CD
330
A3AF
100
AcDbSymbolTableRecord
100
AcDbLinetypeTableRecord
  2
DASHED
 70
     0
  3
__ __ __ __ __ __ __ __ __ __ __ __ __ __ __ __
 72
    65
 73
     2
 40
0.75
 49
0.5
 74
     0
 49
-0.25
 74
     0
  0
LTYPE
  5
A3CE
330
A3AF
100
AcDbSymbolTableRecord
100
AcDbLinetypeTableRecord
  2
CENTER
 70
     0
  3
____ _ ____ _ ____ _ ____ _ ____ _ ____ _ ____ 
 72
    65
 73
     4
 40
2.0
 49
1.25
 74
     0
 49
-0.25
 74
     0
 49
0.25
 74
     0
 49
-0.25
 74
     0
  0
LTYPE
  5
A3CF
330
A3AF
100
AcDbSymbolTableRecord
100
AcDbLinetypeTableRecord
  2
PHANTOM
 70
     0
  3
______  __  __  ______  __  __  ______  __  __ 
 72
    65
 73
     6
 40
2.5
 49
1.25
 74
     0
 49
-0.25
 74
     0
 49
0.25
 74
     0
 49
-0.25
 74
     0
 49
0.25
 74
     0
 49
-0.25
 74
     0
  0
ENDTAB
  0
TABLE
  2
LAYER
  5
A3AC
330
0
100
AcDbSymbolTable
 70
     8
  0
LAYER
  5
A3BA
102
{ACAD_XDICTIONARY
360
A655
102
}
330
A3AC
100
AcDbSymbolTableRecord
100
AcDbLayerTableRecord
  2
0
 70
     0
 62
     7
  6
CONTINUOUS
370
    -3
390
A603
  0
LAYER
  5
A3D0
102
{ACAD_XDICTIONARY
360
A657
102
}
330
A3AC
100
AcDbSymbolTableRecord
100
AcDbLayerTableRecord
  2
4
 70
     0
 62
     1
  6
CENTER
370
    -3
390
A603
  0
LAYER
  5
A3D1
102
{ACAD_XDICTIONARY
360
A659
102
}
330
A3AC
100
AcDbSymbolTableRecord
100
AcDbLayerTableRecord
  2
5
 70
     0
 62
     6
  6
PHANTOM
370
    -3
390
A603
  0
LAYER
  5
A3D2
102
{ACAD_XDICTIONARY
360
A65B
102
}
330
A3AC
100
AcDbSymbolTableRecord
100
AcDbLayerTableRecord
  2
1
 70
     0
 62
     7
  6
CONTINUOUS
370
    -3
390
A603
  0
LAYER
  5
A3D3
102
{ACAD_XDICTIONARY
360
A65D
102
}
330
A3AC
100
AcDbSymbolTableRecord
100
AcDbLayerTableRecord
  2
2
 70
     0
 62
     4
  6
CONTINUOUS
370
    -3
390
A603
  0
LAYER
  5
A3D4
102
{ACAD_XDICTIONARY
360
A65F
102
}
330
A3AC
100
AcDbSymbolTableRecord
100
AcDbLayerTableRecord
  2
3
 70
     0
 62
     2
  6
DASHED
370
    -3
390
A603
  0
LAYER
  5
A3D5
102
{ACAD_XDICTIONARY
360
A661
102
}
330
A3AC
100
AcDbSymbolTableRecord
100
AcDbLayerTableRecord
  2
6
 70
     0
 62
     5
  6
CONTINUOUS
370
    -3
390
A603
  0
LAYER
  5
A3D6
102
{ACAD_XDICTIONARY
360
A663
102
}
330
A3AC
100
AcDbSymbolTableRecord
100
AcDbLayerTableRecord
  2
7
 70
     0
 62
     3
  6
CONTINUOUS
370
    -3
390
A603
  0
ENDTAB
  0
TABLE
  2
STYLE
  5
A3AD
330
0
100
AcDbSymbolTable
 70
     1
  0
STYLE
  5
A3BB
330
A3AD
100
AcDbSymbolTableRecord
100
AcDbTextStyleTableRecord
  2
STANDARD
 70
     0
 40
0.0
 41
1.0
 50
0.0
 71
     0
 42
5.0
  3
txt
  4

  0
ENDTAB
  0
TABLE
  2
VIEW
  5
A3B0
330
0
100
AcDbSymbolTable
 70
     0
  0
ENDTAB
  0
TABLE
  2
UCS
  5
A3B1
330
0
100
AcDbSymbolTable
 70
     0
  0
ENDTAB
  0
TABLE
  2
APPID
  5
A3B3
330
0
100
AcDbSymbolTable
 70
     3
  0
APPID
  5
A3BC
330
A3B3
100
AcDbSymbolTableRecord
100
AcDbRegAppTableRecord
  2
ACAD
 70
     0
  0
APPID
  5
A66F
330
A3B3
100
AcDbSymbolTableRecord
100
AcDbRegAppTableRecord
  2
ACAD_NAV_VCDISPLAY
 70
     0
  0
APPID
  5
A6A8
330
A3B3
100
AcDbSymbolTableRecord
100
AcDbRegAppTableRecord
  2
ACAD_MLEADERVER
 70
     0
  0
ENDTAB
  0
TABLE
  2
DIMSTYLE
  5
A3B4
330
0
100
AcDbSymbolTable
 70
     1
100
AcDbDimStyleTable
 71
     0
  0
DIMSTYLE
105
A3D8
330
A3B4
100
AcDbSymbolTableRecord
100
AcDbDimStyleTableRecord
  2
STANDARD
 70
     0
 41
2.5
 42
1.0
 43
10.0
 44
1.0
 73
     0
 74
     0
 77
     3
 78
     8
140
3.2
141
0.0
147
1.0
172
     1
173
     1
284
     8
285
     8
286
     8
340
A3BB
  0
ENDTAB
  0
TABLE
  2
BLOCK_RECORD
  5
A3AB
330
0
100
AcDbSymbolTable
 70
     0
  0
BLOCK_RECORD
  5
A3C8
102
{ACAD_XDICTIONARY
360
A5E1
102
}
330
A3AB
100
AcDbSymbolTableRecord
100
AcDbBlockTableRecord
  2
*MODEL_SPACE
340
A651
  0
BLOCK_RECORD
  5
A3C4
102
{ACAD_XDICTIONARY
360
A5DF
102
}
330
A3AB
100
AcDbSymbolTableRecord
100
AcDbBlockTableRecord
  2
*PAPER_SPACE
340
A652
  0
ENDTAB
  0
ENDSEC
  0
SECTION
  2
BLOCKS
  0
BLOCK
  5
A3C9
330
A3C8
100
AcDbEntity
  8
0
100
AcDbBlockBegin
  2
*MODEL_SPACE
 70
     0
 10
0.0
 20
0.0
 30
0.0
  3
*MODEL_SPACE
  1

  0
ENDBLK
  5
A3CA
330
A3C8
100
AcDbEntity
  8
0
100
AcDbBlockEnd
  0
BLOCK
  5
A3C5
330
A3C4
100
AcDbEntity
 67
     1
  8
0
100
AcDbBlockBegin
  2
*PAPER_SPACE
 70
     0
 10
0.0
 20
0.0
 30
0.0
  3
*PAPER_SPACE
  1

  0
ENDBLK
  5
A3C6
330
A3C4
100
AcDbEntity
 67
     1
  8
0
100
AcDbBlockEnd
  0
ENDSEC
  0
SECTION
  2
ENTITIES
  0
TEXT
  5
A3E0
330
A3C8
100
AcDbEntity
  8
7
  6
Continuous
100
AcDbText
 10
10.0
 20
18.0
 30
0.0
 40
3.0
  1
TYPE No.TCA-420EA-R65
100
AcDbText
  0
TEXT
  5
A3E1
330
A3C8
100
AcDbEntity
  8
7
  6
Continuous
100
AcDbText
 10
10.0
 20
26.0
 30
0.0
 40
3.0
  1
CODE No.9766
100
AcDbText
  0
TEXT
  5
A3E2
330
A3C8
100
AcDbEntity
  8
1
  6
Continuous
100
AcDbText
 10
10.0
 20
10.0
 30
0.0
 40
1.399999999999999
  1
LAYER
100
AcDbText
  0
TEXT
  5
A3E3
330
A3C8
100
AcDbEntity
  8
1
  6
Continuous
100
AcDbText
 10
17.97951099999998
 20
10.04873699999998
 30
0.0
 40
1.399999999999999
  1
1
100
AcDbText
  0
TEXT
  5
A3E4
330
A3C8
100
AcDbEntity
  8
7
  6
Continuous
100
AcDbText
 10
29.97951099999999
 20
10.04873699999998
 30
0.0
 40
1.399999999999999
  1
7
100
AcDbText
  0
TEXT
  5
A3E5
330
A3C8
100
AcDbEntity
  8
4
  6
CENTER
100
AcDbText
 10
23.97951099999999
 20
10.04873699999998
 30
0.0
 40
1.399999999999999
  1
4
100
AcDbText
  0
TEXT
  5
A3E6
330
A3C8
100
AcDbEntity
  8
3
  6
DASHED
100
AcDbText
 10
21.979511
 20
10.04873699999998
 30
0.0
 40
1.399999999999999
  1
3
100
AcDbText
  0
TEXT
  5
A3E7
330
A3C8
100
AcDbEntity
  8
2
  6
Continuous
100
AcDbText
 10
19.97951099999998
 20
10.04873699999998
 30
0.0
 40
1.399999999999999
  1
2
100
AcDbText
  0
TEXT
  5
A3E8
330
A3C8
100
AcDbEntity
  8
6
  6
Continuous
100
AcDbText
 10
27.979511
 20
10.04873699999998
 30
0.0
 40
1.399999999999999
  1
6
100
AcDbText
  0
TEXT
  5
A3E9
330
A3C8
100
AcDbEntity
  8
5
  6
PHANTOM
100
AcDbText
 10
25.97951099999999
 20
10.04873699999998
 30
0.0
 40
1.399999999999999
  1
5
100
AcDbText
  0
LINE
  5
A3EA
330
A3C8
100
AcDbEntity
  8
4
  6
CENTER
 48
0.8
100
AcDbLine
 10
169.059921
 20
332.5949249999999
 30
0.0
 11
169.059921
 21
284.5949249999999
 31
0.0
  0
LINE
  5
A3EB
330
A3C8
100
AcDbEntity
  8
4
  6
CENTER
 48
0.8
100
AcDbLine
 10
193.0599209999999
 20
308.594925
 30
0.0
 11
107.559921
 21
308.594925
 31
0.0
  0
LINE
  5
A3EC
330
A3C8
100
AcDbEntity
  8
4
  6
CENTER
 48
0.8
100
AcDbLine
 10
49.559921
 20
250.5734499999999
 30
0.0
 11
49.559921
 21
120.5734459999999
 31
0.0
  0
LINE
  5
A3ED
330
A3C8
100
AcDbEntity
  8
4
  6
CENTER
 48
0.8
100
AcDbLine
 10
169.059921
 20
250.5734499999999
 30
0.0
 11
169.059921
 21
178.1804979999997
 31
0.0
  0
LINE
  5
A3EE
330
A3C8
100
AcDbEntity
  8
1
  6
Continuous
100
AcDbLine
 10
153.059921
 20
201.4734489999999
 30
0.0
 11
185.059921
 21
201.4734489999999
 31
0.0
  0
LINE
  5
A3EF
330
A3C8
100
AcDbEntity
  8
1
  6
Continuous
100
AcDbLine
 10
179.409973
 20
194.027858
 30
0.0
 11
188.0599209999997
 21
194.32992
 31
0.0
  0
LINE
  5
A3F0
330
A3C8
100
AcDbEntity
  8
1
  6
Continuous
100
AcDbLine
 10
136.85992
 20
196.275405
 30
0.0
 11
154.3383629999999
 21
199.3573259999998
 31
0.0
  0
LINE
  5
A3F1
330
A3C8
100
AcDbEntity
  8
1
  6
Continuous
100
AcDbLine
 10
137.2072139999999
 20
194.3057889999998
 30
0.0
 11
139.964681
 21
194.792005
 31
0.0
  0
LINE
  5
A3F2
330
A3C8
100
AcDbEntity
  8
1
  6
Continuous
100
AcDbLine
 10
136.859926
 20
196.275404
 30
0.0
 11
137.2072219999997
 21
194.305787
 31
0.0
  0
LINE
  5
A3F3
330
A3C8
100
AcDbEntity
  8
1
  6
Continuous
100
AcDbLine
 10
156.6599189999998
 20
198.7967629999999
 30
0.0
 11
156.6599189999998
 21
166.391594
 31
0.0
  0
LINE
  5
A3F4
330
A3C8
100
AcDbEntity
  8
4
  6
CENTER
 48
0.8
100
AcDbLine
 10
182.559921
 20
158.0734459999999
 30
0.0
 11
107.559921
 21
158.0734459999999
 31
0.0
  0
LINE
  5
A3F5
330
A3C8
100
AcDbEntity
  8
4
  6
CENTER
 48
0.8
100
AcDbLine
 10
145.059921
 20
191.4662649999999
 30
0.0
 11
145.059921
 21
120.5734459999999
 31
0.0
  0
LINE
  5
A3F6
330
A3C8
100
AcDbEntity
  8
1
  6
Continuous
100
AcDbLine
 10
139.789701
 20
196.7920039999999
 30
0.0
 11
139.964679
 21
194.792005
 31
0.0
  0
LINE
  5
A3F7
330
A3C8
100
AcDbEntity
  8
1
  6
Continuous
100
AcDbLine
 10
33.559921
 20
201.4734489999999
 30
0.0
 11
65.559921
 21
201.4734489999999
 31
0.0
  0
LINE
  5
A3F8
330
A3C8
100
AcDbEntity
  8
4
  6
CENTER
 48
0.8
100
AcDbLine
 10
22.961853
 20
158.0734459999999
 30
0.0
 11
72.057996
 21
158.0734459999999
 31
0.0
  0
LINE
  5
A3F9
330
A3C8
100
AcDbEntity
  8
1
  6
Continuous
100
AcDbLine
 10
34.57045
 20
149.5734459999999
 30
0.0
 11
36.57045699999999
 21
149.5734459999999
 31
0.0
  0
LINE
  5
A3FA
330
A3C8
100
AcDbEntity
  8
1
  6
Continuous
100
AcDbLine
 10
64.549392
 20
149.5734459999999
 30
0.0
 11
62.549385
 21
149.5734459999999
 31
0.0
  0
LINE
  5
A3FB
330
A3C8
100
AcDbEntity
  8
1
  6
Continuous
100
AcDbLine
 10
36.558571
 20
161.3234459999999
 30
0.0
 11
37.559921
 21
161.3234459999999
 31
0.0
  0
LINE
  5
A3FC
330
A3C8
100
AcDbEntity
  8
1
  6
Continuous
100
AcDbLine
 10
36.56514699999997
 20
154.8234459999999
 30
0.0
 11
37.559921
 21
154.8234459999999
 31
0.0
  0
LINE
  5
A3FD
330
A3C8
100
AcDbEntity
  8
1
  6
Continuous
100
AcDbLine
 10
64.56335
 20
163.373445
 30
0.0
 11
65.061329
 21
163.373445
 31
0.0
  0
LINE
  5
A3FE
330
A3C8
100
AcDbEntity
  8
1
  6
Continuous
100
AcDbLine
 10
34.16185
 20
163.6734449999998
 30
0.0
 11
30.961853
 21
163.6734449999998
 31
0.0
  0
LINE
  5
A3FF
330
A3C8
100
AcDbEntity
  8
1
  6
Continuous
100
AcDbLine
 10
34.16185
 20
161.0734459999999
 30
0.0
 11
30.961853
 21
161.0734459999999
 31
0.0
  0
LINE
  5
A400
330
A3C8
100
AcDbEntity
  8
1
  6
Continuous
100
AcDbLine
 10
29.961853
 20
161.873449
 30
0.0
 11
29.961853
 21
154.273451
 31
0.0
  0
LINE
  5
A401
330
A3C8
100
AcDbEntity
  8
1
  6
Continuous
100
AcDbLine
 10
34.16185
 20
152.473448
 30
0.0
 11
30.961853
 21
152.473448
 31
0.0
  0
LINE
  5
A402
330
A3C8
100
AcDbEntity
  8
1
  6
Continuous
100
AcDbLine
 10
34.085052
 20
155.0734459999999
 30
0.0
 11
30.961853
 21
155.0734459999999
 31
0.0
  0
LINE
  5
A403
330
A3C8
100
AcDbEntity
  8
1
  6
Continuous
100
AcDbLine
 10
28.961853
 20
161.0734459999999
 30
0.0
 11
29.961853
 21
161.0734459999999
 31
0.0
  0
LINE
  5
A404
330
A3C8
100
AcDbEntity
  8
1
  6
Continuous
100
AcDbLine
 10
28.961853
 20
155.0734459999999
 30
0.0
 11
29.961853
 21
155.0734459999999
 31
0.0
  0
LINE
  5
A405
330
A3C8
100
AcDbEntity
  8
1
  6
Continuous
100
AcDbLine
 10
27.961853
 20
160.0734459999999
 30
0.0
 11
27.961853
 21
156.0734459999999
 31
0.0
  0
LINE
  5
A406
330
A3C8
100
AcDbEntity
  8
1
  6
Continuous
100
AcDbLine
 10
29.961853
 20
154.273371
 30
0.0
 11
30.961853
 21
152.473448
 31
0.0
  0
LINE
  5
A407
330
A3C8
100
AcDbEntity
  8
1
  6
Continuous
100
AcDbLine
 10
29.961853
 20
161.8734719999999
 30
0.0
 11
30.961853
 21
163.673441
 31
0.0
  0
LINE
  5
A408
330
A3C8
100
AcDbEntity
  8
1
  6
Continuous
100
AcDbLine
 10
37.559921
 20
148.323446
 30
0.0
 11
37.559921
 21
167.8234459999998
 31
0.0
  0
LINE
  5
A409
330
A3C8
100
AcDbEntity
  8
1
  6
Continuous
100
AcDbLine
 10
39.059921
 20
147.323446
 30
0.0
 11
38.559921
 21
147.323446
 31
0.0
  0
LINE
  5
A40A
330
A3C8
100
AcDbEntity
  8
1
  6
Continuous
100
AcDbLine
 10
39.059921
 20
128.536302
 30
0.0
 11
39.059921
 21
187.6105899999997
 31
0.0
  0
LINE
  5
A40B
330
A3C8
100
AcDbEntity
  8
1
  6
Continuous
100
AcDbLine
 10
61.55992099999998
 20
148.323446
 30
0.0
 11
61.55992099999998
 21
167.8234459999998
 31
0.0
  0
LINE
  5
A40C
330
A3C8
100
AcDbEntity
  8
1
  6
Continuous
100
AcDbLine
 10
60.059921
 20
147.323446
 30
0.0
 11
60.559921
 21
147.323446
 31
0.0
  0
LINE
  5
A40D
330
A3C8
100
AcDbEntity
  8
1
  6
Continuous
100
AcDbLine
 10
60.059921
 20
128.536302
 30
0.0
 11
60.059921
 21
187.6105899999997
 31
0.0
  0
LINE
  5
A40E
330
A3C8
100
AcDbEntity
  8
1
  6
Continuous
100
AcDbLine
 10
39.059921
 20
168.8234459999998
 30
0.0
 11
38.559921
 21
168.8234459999998
 31
0.0
  0
LINE
  5
A40F
330
A3C8
100
AcDbEntity
  8
1
  6
Continuous
100
AcDbLine
 10
60.059921
 20
168.8234459999998
 30
0.0
 11
60.559921
 21
168.8234459999998
 31
0.0
  0
LINE
  5
A410
330
A3C8
100
AcDbEntity
  8
1
  6
Continuous
100
AcDbLine
 10
61.55992099999998
 20
161.3234459999999
 30
0.0
 11
62.561268
 21
161.3234459999999
 31
0.0
  0
LINE
  5
A411
330
A3C8
100
AcDbEntity
  8
1
  6
Continuous
100
AcDbLine
 10
61.55992099999998
 20
154.8234459999999
 30
0.0
 11
62.554695
 21
154.8234459999999
 31
0.0
  0
LINE
  5
A412
330
A3C8
100
AcDbEntity
  8
1
  6
Continuous
100
AcDbLine
 10
139.964679
 20
194.792005
 30
0.0
 11
137.180879
 21
157.6337569999997
 31
0.0
  0
LINE
  5
A413
330
A3C8
100
AcDbEntity
  8
1
  6
Continuous
100
AcDbLine
 10
172.7965799999997
 20
190.0938039999997
 30
0.0
 11
151.1235389999999
 21
153.2692889999998
 31
0.0
  0
ARC
  5
A414
330
A3C8
100
AcDbEntity
  8
1
  6
Continuous
100
AcDbCircle
 10
161.598602
 20
202.6179519999999
 30
0.0
 40
1.984499999999996
100
AcDbArc
 50
324.7797499999998
 51
333.1367799999998
  0
ARC
  5
A415
330
A3C8
100
AcDbEntity
  8
1
  6
Continuous
100
AcDbCircle
 10
53.48054499999999
 20
202.6179519999999
 30
0.0
 40
1.984499999999996
100
AcDbArc
 50
189.9969899999999
 51
215.2202999999999
  0
ARC
  5
A416
330
A3C8
100
AcDbEntity
  8
1
  6
Continuous
100
AcDbCircle
 10
49.559921
 20
202.6179519999999
 30
0.0
 40
1.984499999999996
100
AcDbArc
 50
324.7796799999998
 51
350.00299
  0
ARC
  5
A417
330
A3C8
100
AcDbEntity
  8
1
  6
Continuous
100
AcDbCircle
 10
57.02124
 20
202.6179519999999
 30
0.0
 40
1.984499999999996
100
AcDbArc
 50
206.86325
 51
215.2202999999999
  0
ARC
  5
A418
330
A3C8
100
AcDbEntity
  8
1
  6
Continuous
100
AcDbCircle
 10
59.83890500000001
 20
202.6179519999999
 30
0.0
 40
1.984499999999996
100
AcDbArc
 50
324.77981
 51
350.00299
  0
ARC
  5
A419
330
A3C8
100
AcDbEntity
  8
1
  6
Continuous
100
AcDbCircle
 10
61.66050699999999
 20
202.6179519999999
 30
0.0
 40
1.984499999999996
100
AcDbArc
 50
324.7797499999998
 51
350.00299
  0
ARC
  5
A41A
330
A3C8
100
AcDbEntity
  8
1
  6
Continuous
100
AcDbCircle
 10
62.30992099999999
 20
202.6179519999999
 30
0.0
 40
1.984499999999996
100
AcDbArc
 50
324.7797499999998
 51
350.00299
  0
ARC
  5
A41B
330
A3C8
100
AcDbEntity
  8
1
  6
Continuous
100
AcDbCircle
 10
45.639297
 20
202.6179519999999
 30
0.0
 40
1.984499999999996
100
AcDbArc
 50
189.99704
 51
215.2202999999999
  0
ARC
  5
A41C
330
A3C8
100
AcDbEntity
  8
1
  6
Continuous
100
AcDbCircle
 10
49.559921
 20
202.6179519999999
 30
0.0
 40
1.984499999999996
100
AcDbArc
 50
189.9970599999999
 51
215.2202999999999
  0
ARC
  5
A41D
330
A3C8
100
AcDbEntity
  8
1
  6
Continuous
100
AcDbCircle
 10
42.098602
 20
202.6179519999999
 30
0.0
 40
1.984499999999996
100
AcDbArc
 50
189.9970599999999
 51
215.2202999999999
  0
ARC
  5
A41E
330
A3C8
100
AcDbEntity
  8
1
  6
Continuous
100
AcDbCircle
 10
39.280929
 20
202.6179519999999
 30
0.0
 40
1.984499999999996
100
AcDbArc
 50
189.9970599999999
 51
215.2202999999999
  0
ARC
  5
A41F
330
A3C8
100
AcDbEntity
  8
1
  6
Continuous
100
AcDbCircle
 10
37.45933499999999
 20
202.6179519999999
 30
0.0
 40
1.984499999999996
100
AcDbArc
 50
189.9970599999999
 51
215.2202999999999
  0
ARC
  5
A420
330
A3C8
100
AcDbEntity
  8
1
  6
Continuous
100
AcDbCircle
 10
36.809921
 20
202.6179519999999
 30
0.0
 40
1.984499999999996
100
AcDbArc
 50
189.9970599999999
 51
215.2202999999999
  0
ARC
  5
A421
330
A3C8
100
AcDbEntity
  8
1
  6
Continuous
100
AcDbCircle
 10
172.980545
 20
202.6179519999999
 30
0.0
 40
1.984499999999996
100
AcDbArc
 50
189.9969899999999
 51
215.2202299999999
  0
ARC
  5
A422
330
A3C8
100
AcDbEntity
  8
1
  6
Continuous
100
AcDbCircle
 10
169.059921
 20
202.6179519999999
 30
0.0
 40
1.984499999999996
100
AcDbArc
 50
324.7797499999998
 51
350.00299
  0
ARC
  5
A423
330
A3C8
100
AcDbEntity
  8
1
  6
Continuous
100
AcDbCircle
 10
176.5212399999998
 20
202.6179519999999
 30
0.0
 40
1.984499999999996
100
AcDbArc
 50
206.86325
 51
215.2202299999999
  0
ARC
  5
A424
330
A3C8
100
AcDbEntity
  8
1
  6
Continuous
100
AcDbCircle
 10
179.338905
 20
202.6179519999999
 30
0.0
 40
1.984499999999996
100
AcDbArc
 50
324.7797499999998
 51
350.00299
  0
ARC
  5
A425
330
A3C8
100
AcDbEntity
  8
1
  6
Continuous
100
AcDbCircle
 10
181.1605069999997
 20
202.6179519999999
 30
0.0
 40
1.984499999999996
100
AcDbArc
 50
324.7797499999998
 51
350.00299
  0
ARC
  5
A426
330
A3C8
100
AcDbEntity
  8
1
  6
Continuous
100
AcDbCircle
 10
181.8099209999997
 20
202.6179519999999
 30
0.0
 40
1.984499999999996
100
AcDbArc
 50
324.7796799999998
 51
350.00299
  0
ARC
  5
A427
330
A3C8
100
AcDbEntity
  8
1
  6
Continuous
100
AcDbCircle
 10
165.139297
 20
202.6179519999999
 30
0.0
 40
1.984499999999996
100
AcDbArc
 50
189.99704
 51
215.2202299999999
  0
ARC
  5
A428
330
A3C8
100
AcDbEntity
  8
1
  6
Continuous
100
AcDbCircle
 10
169.059921
 20
202.6179519999999
 30
0.0
 40
1.984499999999996
100
AcDbArc
 50
189.9970599999999
 51
215.2202299999999
  0
ARC
  5
A429
330
A3C8
100
AcDbEntity
  8
1
  6
Continuous
100
AcDbCircle
 10
161.598602
 20
202.6179519999999
 30
0.0
 40
1.984499999999996
100
AcDbArc
 50
189.9970599999999
 51
215.2202299999999
  0
ARC
  5
A42A
330
A3C8
100
AcDbEntity
  8
1
  6
Continuous
100
AcDbCircle
 10
158.7809369999999
 20
202.6179519999999
 30
0.0
 40
1.984499999999996
100
AcDbArc
 50
189.9970599999999
 51
215.2202299999999
  0
ARC
  5
A42B
330
A3C8
100
AcDbEntity
  8
1
  6
Continuous
100
AcDbCircle
 10
156.959335
 20
202.6179519999999
 30
0.0
 40
1.984499999999996
100
AcDbArc
 50
189.99707
 51
215.2202299999999
  0
ARC
  5
A42C
330
A3C8
100
AcDbEntity
  8
1
  6
Continuous
100
AcDbCircle
 10
156.309921
 20
202.6179519999999
 30
0.0
 40
1.984499999999996
100
AcDbArc
 50
189.9970599999999
 51
215.2202299999999
  0
ARC
  5
A42D
330
A3C8
100
AcDbEntity
  8
1
  6
Continuous
100
AcDbCircle
 10
172.980545
 20
202.6179519999999
 30
0.0
 40
1.984499999999996
100
AcDbArc
 50
324.7797499999998
 51
350.00299
  0
ARC
  5
A42E
330
A3C8
100
AcDbEntity
  8
1
  6
Continuous
100
AcDbCircle
 10
176.5212399999998
 20
202.6179519999999
 30
0.0
 40
1.984499999999996
100
AcDbArc
 50
324.7797499999998
 51
350.00299
  0
ARC
  5
A42F
330
A3C8
100
AcDbEntity
  8
1
  6
Continuous
100
AcDbCircle
 10
45.639297
 20
202.6179519999999
 30
0.0
 40
1.984499999999996
100
AcDbArc
 50
324.7796799999998
 51
350.0030499999998
  0
ARC
  5
A430
330
A3C8
100
AcDbEntity
  8
1
  6
Continuous
100
AcDbCircle
 10
42.098602
 20
202.6179519999999
 30
0.0
 40
1.984499999999996
100
AcDbArc
 50
324.7796799999998
 51
333.1367799999998
  0
ARC
  5
A431
330
A3C8
100
AcDbEntity
  8
1
  6
Continuous
100
AcDbCircle
 10
53.48054499999999
 20
202.6179519999999
 30
0.0
 40
1.984499999999996
100
AcDbArc
 50
324.7796799999998
 51
350.00299
  0
ARC
  5
A432
330
A3C8
100
AcDbEntity
  8
1
  6
Continuous
100
AcDbCircle
 10
57.02124
 20
202.6179519999999
 30
0.0
 40
1.984499999999996
100
AcDbArc
 50
324.7796799999998
 51
350.00299
  0
ARC
  5
A433
330
A3C8
100
AcDbEntity
  8
1
  6
Continuous
100
AcDbCircle
 10
165.139297
 20
202.6179519999999
 30
0.0
 40
1.984499999999996
100
AcDbArc
 50
324.7797499999998
 51
350.0030499999998
  0
ARC
  5
A434
330
A3C8
100
AcDbEntity
  8
1
  6
Continuous
100
AcDbCircle
 10
179.6891629999999
 20
186.032733
 30
0.0
 40
8.0
100
AcDbArc
 50
92.00003199999995
 51
149.52109
  0
ARC
  5
A435
330
A3C8
100
AcDbEntity
  8
1
  6
Continuous
100
AcDbCircle
 10
144.659919
 20
157.0734459999999
 30
0.0
 40
7.5
100
AcDbArc
 50
175.71555
 51
329.5210799999998
  0
CIRCLE
  5
A436
330
A3C8
100
AcDbEntity
  8
1
  6
Continuous
100
AcDbCircle
 10
145.059921
 20
158.0734459999999
 30
0.0
 40
5.4
  0
ARC
  5
A437
330
A3C8
100
AcDbEntity
  8
1
  6
Continuous
100
AcDbCircle
 10
84.49803499999999
 20
182.7341529999999
 30
0.0
 40
54.0
100
AcDbArc
 50
182.743332
 51
200.669454
  0
ARC
  5
A438
330
A3C8
100
AcDbEntity
  8
1
  6
Continuous
100
AcDbCircle
 10
49.559921
 20
356.27345
 30
0.0
 40
162.0
100
AcDbArc
 50
265.512
 51
274.4879879999999
  0
ARC
  5
A439
330
A3C8
100
AcDbEntity
  8
1
  6
Continuous
100
AcDbCircle
 10
36.859932
 20
194.471099
 30
0.0
 40
0.3
100
AcDbArc
 50
85.51197399999997
 51
164.7781929999998
  0
ARC
  5
A43A
330
A3C8
100
AcDbEntity
  8
1
  6
Continuous
100
AcDbCircle
 10
49.559921
 20
358.2753999999998
 30
0.0
 40
162.0
100
AcDbArc
 50
265.1518299999997
 51
274.8481579999999
  0
ARC
  5
A43B
330
A3C8
100
AcDbEntity
  8
1
  6
Continuous
100
AcDbCircle
 10
62.25991
 20
194.471099
 30
0.0
 40
0.3
100
AcDbArc
 50
15.221807
 51
94.48798999999999
  0
ARC
  5
A43C
330
A3C8
100
AcDbEntity
  8
1
  6
Continuous
100
AcDbCircle
 10
49.559921
 20
298.67345
 30
0.0
 40
100.0
100
AcDbArc
 50
262.53039
 51
277.4695899999999
  0
ARC
  5
A43D
330
A3C8
100
AcDbEntity
  8
1
  6
Continuous
100
AcDbCircle
 10
36.024132
 20
195.363111
 30
0.0
 40
1.5
100
AcDbArc
 50
95.95749199999996
 51
165.7245169999999
  0
ARC
  5
A43E
330
A3C8
100
AcDbEntity
  8
1
  6
Continuous
100
AcDbCircle
 10
63.09571
 20
195.363111
 30
0.0
 40
1.5
100
AcDbArc
 50
14.27548299999999
 51
84.042472
  0
ARC
  5
A43F
330
A3C8
100
AcDbEntity
  8
1
  6
Continuous
100
AcDbCircle
 10
14.621811
 20
182.7341529999999
 30
0.0
 40
54.0
100
AcDbArc
 50
338.98996
 51
357.256579
  0
ARC
  5
A440
330
A3C8
100
AcDbEntity
  8
1
  6
Continuous
100
AcDbCircle
 10
65.061329
 20
161.373445
 30
0.0
 40
2.0
100
AcDbArc
 50
359.9420799999998
 51
89.99998199999996
  0
ARC
  5
A441
330
A3C8
100
AcDbEntity
  8
1
  6
Continuous
100
AcDbCircle
 10
32.24935099999999
 20
153.7734429999999
 30
0.0
 40
2.3125
100
AcDbArc
 50
325.79449
 51
34.20541
  0
ARC
  5
A442
330
A3C8
100
AcDbEntity
  8
1
  6
Continuous
100
AcDbCircle
 10
23.111851
 20
158.0734459999999
 30
0.0
 40
11.450001
100
AcDbArc
 50
344.8107199999999
 51
15.189285
  0
ARC
  5
A443
330
A3C8
100
AcDbEntity
  8
1
  6
Continuous
100
AcDbCircle
 10
32.24935099999999
 20
162.3734489999999
 30
0.0
 40
2.3125
100
AcDbArc
 50
325.79455
 51
34.205461
  0
ARC
  5
A444
330
A3C8
100
AcDbEntity
  8
1
  6
Continuous
100
AcDbCircle
 10
32.87435099999999
 20
162.3734489999999
 30
0.0
 40
2.312498999999998
100
AcDbArc
 50
145.7945499999999
 51
214.2054299999998
  0
ARC
  5
A445
330
A3C8
100
AcDbEntity
  8
1
  6
Continuous
100
AcDbCircle
 10
42.011848
 20
158.0734459999999
 30
0.0
 40
11.44999799999999
100
AcDbArc
 50
164.81073
 51
195.1892499999999
  0
ARC
  5
A446
330
A3C8
100
AcDbEntity
  8
1
  6
Continuous
100
AcDbCircle
 10
32.87435099999999
 20
153.7734509999999
 30
0.0
 40
2.312498999999998
100
AcDbArc
 50
145.7945499999999
 51
214.2054299999998
  0
ARC
  5
A447
330
A3C8
100
AcDbEntity
  8
1
  6
Continuous
100
AcDbCircle
 10
145.059921
 20
158.0734459999999
 30
0.0
 40
10.74999999999998
100
AcDbArc
 50
132.4203599999999
 51
14.058725
  0
ARC
  5
A448
330
A3C8
100
AcDbEntity
  8
1
  6
Continuous
100
AcDbCircle
 10
145.059921
 20
158.0734459999999
 30
0.0
 40
16.0
100
AcDbArc
 50
114.99115
 51
30.907135
  0
ARC
  5
A449
330
A3C8
100
AcDbEntity
  8
1
  6
Continuous
100
AcDbCircle
 10
145.059921
 20
158.0734459999999
 30
0.0
 40
25.0
100
AcDbArc
 50
103.95368
 51
41.672688
  0
ARC
  5
A44A
330
A3C8
100
AcDbEntity
  8
1
  6
Continuous
100
AcDbCircle
 10
145.059921
 20
158.0734459999999
 30
0.0
 40
32.5
100
AcDbArc
 50
99.64599900000001
 51
45.88412799999999
  0
ARC
  5
A44B
330
A3C8
100
AcDbEntity
  8
1
  6
Continuous
100
AcDbCircle
 10
49.559921
 20
165.5734459999998
 30
0.0
 40
40.0
100
AcDbArc
 50
257.0745099999999
 51
282.9275309999998
  0
ARC
  5
A44C
330
A3C8
100
AcDbEntity
  8
1
  6
Continuous
100
AcDbCircle
 10
41.059921
 20
128.536302
 30
0.0
 40
2.0
100
AcDbArc
 50
180.0000399999998
 51
257.0745099999999
  0
ARC
  5
A44D
330
A3C8
100
AcDbEntity
  8
1
  6
Continuous
100
AcDbCircle
 10
58.059921
 20
128.536302
 30
0.0
 40
2.0
100
AcDbArc
 50
282.92545
 51
359.99995
  0
ARC
  5
A44E
330
A3C8
100
AcDbEntity
  8
1
  6
Continuous
100
AcDbCircle
 10
60.559921
 20
148.323446
 30
0.0
 40
1.0
100
AcDbArc
 50
269.9999599999998
 51
359.99995
  0
ARC
  5
A44F
330
A3C8
100
AcDbEntity
  8
1
  6
Continuous
100
AcDbCircle
 10
38.559921
 20
148.323446
 30
0.0
 40
1.0
100
AcDbArc
 50
180.0000399999998
 51
270.00002
  0
ARC
  5
A450
330
A3C8
100
AcDbEntity
  8
1
  6
Continuous
100
AcDbCircle
 10
38.559921
 20
167.8234459999998
 30
0.0
 40
1.0
100
AcDbArc
 50
89.99998199999996
 51
179.9999599999999
  0
ARC
  5
A451
330
A3C8
100
AcDbEntity
  8
1
  6
Continuous
100
AcDbCircle
 10
60.559921
 20
167.8234459999998
 30
0.0
 40
1.0
100
AcDbArc
 50
0.000055
 51
90.000037
  0
ARC
  5
A452
330
A3C8
100
AcDbEntity
  8
1
  6
Continuous
100
AcDbCircle
 10
58.059921
 20
187.6105899999997
 30
0.0
 40
2.0
100
AcDbArc
 50
0.000055
 51
77.074546
  0
ARC
  5
A453
330
A3C8
100
AcDbEntity
  8
1
  6
Continuous
100
AcDbCircle
 10
41.059921
 20
187.6105899999997
 30
0.0
 40
2.0
100
AcDbArc
 50
102.9254899999999
 51
179.9999599999999
  0
ARC
  5
A454
330
A3C8
100
AcDbEntity
  8
1
  6
Continuous
100
AcDbCircle
 10
49.559921
 20
150.573446
 30
0.0
 40
40.0
100
AcDbArc
 50
77.07269000000002
 51
102.9254899999999
  0
LINE
  5
A455
330
A3C8
100
AcDbEntity
  8
4
  6
CENTER
 48
0.8
100
AcDbLine
 10
193.0599209999999
 20
62.07345
 30
0.0
 11
107.559921
 21
62.07345
 31
0.0
  0
LINE
  5
A456
330
A3C8
100
AcDbEntity
  8
4
  6
CENTER
 48
0.8
100
AcDbLine
 10
169.059921
 20
38.07345
 30
0.0
 11
169.059921
 21
86.07345
 31
0.0
  0
LINE
  5
A457
330
A3C8
100
AcDbEntity
  8
1
  6
Continuous
100
AcDbLine
 10
30.559921
 20
198.4734489999999
 30
0.0
 11
30.559921
 21
180.149611
 31
0.0
  0
LINE
  5
A458
330
A3C8
100
AcDbEntity
  8
1
  6
Continuous
100
AcDbLine
 10
68.559921
 20
198.4734489999999
 30
0.0
 11
68.559921
 21
180.149527
 31
0.0
  0
ARC
  5
A459
330
A3C8
100
AcDbEntity
  8
1
  6
Continuous
100
AcDbCircle
 10
65.559921
 20
198.4734489999999
 30
0.0
 40
3.0
100
AcDbArc
 50
0.0
 51
90.0
  0
ARC
  5
A45A
330
A3C8
100
AcDbEntity
  8
1
  6
Continuous
100
AcDbCircle
 10
33.559921
 20
198.4734489999999
 30
0.0
 40
3.0
100
AcDbArc
 50
90.0
 51
180.0
  0
LINE
  5
A45B
330
A3C8
100
AcDbEntity
  8
1
  6
Continuous
100
AcDbLine
 10
34.57045
 20
149.5734459999999
 30
0.0
 11
34.57045
 21
195.732987
 31
0.0
  0
LINE
  5
A45C
330
A3C8
100
AcDbEntity
  8
1
  6
Continuous
100
AcDbLine
 10
36.57045699999999
 20
149.5734459999999
 30
0.0
 11
36.57045699999999
 21
194.5498659999999
 31
0.0
  0
LINE
  5
A45D
330
A3C8
100
AcDbEntity
  8
1
  6
Continuous
100
AcDbLine
 10
62.549385
 20
149.5734459999999
 30
0.0
 11
62.549385
 21
194.5498659999999
 31
0.0
  0
LINE
  5
A45E
330
A3C8
100
AcDbEntity
  8
1
  6
Continuous
100
AcDbLine
 10
64.549392
 20
149.5734459999999
 30
0.0
 11
64.549392
 21
195.732987
 31
0.0
  0
LINE
  5
A45F
330
A3C8
100
AcDbEntity
  8
1
  6
Continuous
100
AcDbLine
 10
188.0599209999997
 20
198.4734489999999
 30
0.0
 11
188.0599209999997
 21
194.32992
 31
0.0
  0
ARC
  5
A460
330
A3C8
100
AcDbEntity
  8
1
  6
Continuous
100
AcDbCircle
 10
185.059921
 20
198.4734489999999
 30
0.0
 40
3.0
100
AcDbArc
 50
0.0
 51
90.0
  0
LINE
  5
A461
330
A3C8
100
AcDbEntity
  8
1
  6
Continuous
100
AcDbLine
 10
138.2676129999999
 20
319.094925
 30
0.0
 11
115.5227769999999
 21
319.094925
 31
0.0
  0
LINE
  5
A462
330
A3C8
100
AcDbEntity
  8
1
  6
Continuous
100
AcDbLine
 10
138.2676129999999
 20
298.094925
 30
0.0
 11
115.5227769999999
 21
298.094925
 31
0.0
  0
ARC
  5
A463
330
A3C8
100
AcDbEntity
  8
1
  6
Continuous
100
AcDbCircle
 10
152.559921
 20
308.594925
 30
0.0
 40
40.0
100
AcDbArc
 50
167.07269
 51
192.92549
  0
ARC
  5
A464
330
A3C8
100
AcDbEntity
  8
1
  6
Continuous
100
AcDbCircle
 10
115.5227769999999
 20
300.094925
 30
0.0
 40
2.0
100
AcDbArc
 50
192.92549
 51
269.9999599999998
  0
ARC
  5
A465
330
A3C8
100
AcDbEntity
  8
1
  6
Continuous
100
AcDbCircle
 10
115.5227769999999
 20
317.094925
 30
0.0
 40
2.0
100
AcDbArc
 50
90.00005499999994
 51
167.074546
  0
LINE
  5
A466
330
A3C8
100
AcDbEntity
  8
4
  6
CENTER
 48
0.8
100
AcDbLine
 10
145.059921
 20
35.475397
 30
0.0
 11
145.059921
 21
84.56844999999999
 31
0.0
  0
ARC
  5
A467
330
A3C8
100
AcDbEntity
  8
1
  6
Continuous
100
AcDbCircle
 10
152.559921
 20
62.07345
 30
0.0
 40
40.0
100
AcDbArc
 50
167.07269
 51
192.92549
  0
ARC
  5
A468
330
A3C8
100
AcDbEntity
  8
1
  6
Continuous
100
AcDbCircle
 10
137.559921
 20
62.07345
 30
0.0
 40
40.0
100
AcDbArc
 50
347.0745100000002
 51
12.927531
  0
LINE
  5
A469
330
A3C8
100
AcDbEntity
  8
1
  6
Continuous
100
AcDbLine
 10
174.5970649999999
 20
51.57345
 30
0.0
 11
115.5227769999999
 21
51.57345
 31
0.0
  0
LINE
  5
A46A
330
A3C8
100
AcDbEntity
  8
1
  6
Continuous
100
AcDbLine
 10
156.083019
 20
47.083979
 30
0.0
 11
137.213819
 21
47.083979
 31
0.0
  0
LINE
  5
A46B
330
A3C8
100
AcDbEntity
  8
1
  6
Continuous
100
AcDbLine
 10
156.083009
 20
49.08398599999999
 30
0.0
 11
137.213819
 21
49.08398599999999
 31
0.0
  0
LINE
  5
A46C
330
A3C8
100
AcDbEntity
  8
1
  6
Continuous
100
AcDbLine
 10
154.809921
 20
50.07345
 30
0.0
 11
135.309921
 21
50.07345
 31
0.0
  0
ARC
  5
A46D
330
A3C8
100
AcDbEntity
  8
1
  6
Continuous
100
AcDbCircle
 10
115.5227769999999
 20
53.57345
 30
0.0
 40
2.0
100
AcDbArc
 50
192.92549
 51
269.9999599999998
  0
LINE
  5
A46E
330
A3C8
100
AcDbEntity
  8
1
  6
Continuous
100
AcDbLine
 10
141.809921
 20
49.0721
 30
0.0
 11
141.809921
 21
50.07345
 31
0.0
  0
LINE
  5
A46F
330
A3C8
100
AcDbEntity
  8
1
  6
Continuous
100
AcDbLine
 10
134.309921
 20
51.57345
 30
0.0
 11
134.309921
 21
51.07345
 31
0.0
  0
ARC
  5
A470
330
A3C8
100
AcDbEntity
  8
1
  6
Continuous
100
AcDbCircle
 10
135.309921
 20
51.07345
 30
0.0
 40
1.0
100
AcDbArc
 50
179.999982
 51
269.9999599999998
  0
LINE
  5
A471
330
A3C8
100
AcDbEntity
  8
1
  6
Continuous
100
AcDbLine
 10
148.3099209999998
 20
49.078676
 30
0.0
 11
148.3099209999998
 21
50.07345
 31
0.0
  0
LINE
  5
A472
330
A3C8
100
AcDbEntity
  8
1
  6
Continuous
100
AcDbLine
 10
155.8099209999998
 20
51.57345
 30
0.0
 11
155.8099209999998
 21
51.07345
 31
0.0
  0
ARC
  5
A473
330
A3C8
100
AcDbEntity
  8
1
  6
Continuous
100
AcDbCircle
 10
154.809921
 20
51.07345
 30
0.0
 40
1.0
100
AcDbArc
 50
270.0000399999999
 51
0.00002
  0
ARC
  5
A474
330
A3C8
100
AcDbEntity
  8
1
  6
Continuous
100
AcDbCircle
 10
174.5970649999999
 20
53.57345
 30
0.0
 40
2.0
100
AcDbArc
 50
270.0000399999999
 51
347.0745100000002
  0
LINE
  5
A475
330
A3C8
100
AcDbEntity
  8
1
  6
Continuous
100
AcDbLine
 10
174.5970649999999
 20
72.57344999999998
 30
0.0
 11
115.5227769999999
 21
72.57344999999998
 31
0.0
  0
LINE
  5
A476
330
A3C8
100
AcDbEntity
  8
1
  6
Continuous
100
AcDbLine
 10
156.083009
 20
75.06291400000002
 30
0.0
 11
137.213819
 21
75.06291400000002
 31
0.0
  0
LINE
  5
A477
330
A3C8
100
AcDbEntity
  8
1
  6
Continuous
100
AcDbLine
 10
154.809921
 20
74.07344999999998
 30
0.0
 11
135.309921
 21
74.07344999999998
 31
0.0
  0
LINE
  5
A478
330
A3C8
100
AcDbEntity
  8
1
  6
Continuous
100
AcDbLine
 10
156.083019
 20
77.062921
 30
0.0
 11
137.213819
 21
77.062921
 31
0.0
  0
ARC
  5
A479
330
A3C8
100
AcDbEntity
  8
1
  6
Continuous
100
AcDbCircle
 10
115.5227769999999
 20
70.57344999999997
 30
0.0
 40
2.0
100
AcDbArc
 50
90.00005499999994
 51
167.074546
  0
LINE
  5
A47A
330
A3C8
100
AcDbEntity
  8
1
  6
Continuous
100
AcDbLine
 10
141.809921
 20
74.07344999999998
 30
0.0
 11
141.809921
 21
75.06291400000002
 31
0.0
  0
LINE
  5
A47B
330
A3C8
100
AcDbEntity
  8
1
  6
Continuous
100
AcDbLine
 10
134.309921
 20
72.57344999999998
 30
0.0
 11
134.309921
 21
73.07344999999997
 31
0.0
  0
ARC
  5
A47C
330
A3C8
100
AcDbEntity
  8
1
  6
Continuous
100
AcDbCircle
 10
135.309921
 20
73.07344999999997
 30
0.0
 40
1.0
100
AcDbArc
 50
90.00005499999994
 51
180.000037
  0
LINE
  5
A47D
330
A3C8
100
AcDbEntity
  8
1
  6
Continuous
100
AcDbLine
 10
139.7599219999999
 20
77.076879
 30
0.0
 11
139.7599219999999
 21
77.57485799999997
 31
0.0
  0
ARC
  5
A47E
330
A3C8
100
AcDbEntity
  8
1
  6
Continuous
100
AcDbCircle
 10
141.7599219999999
 20
77.57485799999997
 30
0.0
 40
2.0
100
AcDbArc
 50
85.22653100000002
 51
179.999982
  0
LINE
  5
A47F
330
A3C8
100
AcDbEntity
  8
1
  6
Continuous
100
AcDbLine
 10
155.8099209999998
 20
72.57344999999998
 30
0.0
 11
155.8099209999998
 21
73.07344999999997
 31
0.0
  0
LINE
  5
A480
330
A3C8
100
AcDbEntity
  8
1
  6
Continuous
100
AcDbLine
 10
148.3099209999998
 20
74.07344999999998
 30
0.0
 11
148.3099209999998
 21
75.068224
 31
0.0
  0
ARC
  5
A481
330
A3C8
100
AcDbEntity
  8
1
  6
Continuous
100
AcDbCircle
 10
154.809921
 20
73.07344999999997
 30
0.0
 40
1.0
100
AcDbArc
 50
359.9999599999999
 51
89.99995000000001
  0
ARC
  5
A482
330
A3C8
100
AcDbEntity
  8
1
  6
Continuous
100
AcDbCircle
 10
174.5970649999999
 20
70.57344999999997
 30
0.0
 40
2.0
100
AcDbArc
 50
12.92545
 51
89.99995000000001
  0
LINE
  5
A483
330
A3C8
100
AcDbEntity
  8
1
  6
Continuous
100
AcDbLine
 10
137.213819
 20
77.062921
 30
0.0
 11
137.213819
 21
75.06291400000002
 31
0.0
  0
LINE
  5
A484
330
A3C8
100
AcDbEntity
  8
1
  6
Continuous
100
AcDbLine
 10
137.213819
 20
49.08398599999999
 30
0.0
 11
137.213819
 21
47.083979
 31
0.0
  0
ARC
  5
A485
330
A3C8
100
AcDbEntity
  8
1
  6
Continuous
100
AcDbCircle
 10
176.8940369999999
 20
62.11728299999999
 30
0.0
 40
40.03413499999999
100
AcDbArc
 50
161.1334629999998
 51
162.623505
  0
ARC
  5
A486
330
A3C8
100
AcDbEntity
  8
1
  6
Continuous
100
AcDbCircle
 10
176.8940369999999
 20
62.11728299999999
 30
0.0
 40
40.03413499999999
100
AcDbArc
 50
197.5080089999999
 51
198.9991789999996
  0
ARC
  5
A487
330
A3C8
100
AcDbEntity
  8
1
  6
Continuous
100
AcDbCircle
 10
169.059921
 20
62.07345
 30
0.0
 40
19.0
100
AcDbArc
 50
235.6523319999999
 51
124.3476679999999
  0
ARC
  5
A488
330
A3C8
100
AcDbEntity
  8
1
  6
Continuous
100
AcDbCircle
 10
169.059921
 20
62.07345
 30
0.0
 40
17.0
100
AcDbArc
 50
235.652301
 51
124.347699
  0
ARC
  5
A489
330
A3C8
100
AcDbEntity
  8
1
  6
Continuous
100
AcDbCircle
 10
169.059921
 20
62.07345
 30
0.0
 40
13.0
100
AcDbArc
 50
233.8710729999998
 51
126.128927
  0
ARC
  5
A48A
330
A3C8
100
AcDbEntity
  8
1
  6
Continuous
100
AcDbCircle
 10
169.059921
 20
62.07345
 30
0.0
 40
10.5
100
AcDbArc
 50
318.770756
 51
41.229244
  0
LINE
  5
A48B
330
A3C8
100
AcDbEntity
  8
4
  6
CENTER
 48
0.8
100
AcDbLine
 10
145.059921
 20
335.1929769999999
 30
0.0
 11
145.059921
 21
286.0999249999998
 31
0.0
  0
LINE
  5
A48C
330
A3C8
100
AcDbEntity
  8
1
  6
Continuous
100
AcDbLine
 10
145.059921
 20
42.965727
 30
0.0
 11
145.059921
 21
47.083979
 31
0.0
  0
LINE
  5
A48D
330
A3C8
100
AcDbEntity
  8
1
  6
Continuous
100
AcDbLine
 10
150.059921
 20
46.593231
 30
0.0
 11
150.059921
 21
42.965727
 31
0.0
  0
LINE
  5
A48E
330
A3C8
100
AcDbEntity
  8
1
  6
Continuous
100
AcDbLine
 10
142.559921
 20
42.47497899999999
 30
0.0
 11
147.559921
 21
42.47497899999999
 31
0.0
  0
LINE
  5
A48F
330
A3C8
100
AcDbEntity
  8
1
  6
Continuous
100
AcDbLine
 10
140.059921
 20
46.593231
 30
0.0
 11
140.059921
 21
42.965727
 31
0.0
  0
ARC
  5
A490
330
A3C8
100
AcDbEntity
  8
1
  6
Continuous
100
AcDbCircle
 10
142.559921
 20
49.088187
 30
0.0
 40
6.613208
100
AcDbArc
 50
247.7882049999999
 51
292.211795
  0
ARC
  5
A491
330
A3C8
100
AcDbEntity
  8
1
  6
Continuous
100
AcDbCircle
 10
147.559921
 20
49.088187
 30
0.0
 40
6.613208
100
AcDbArc
 50
247.7882049999999
 51
292.211795
  0
LINE
  5
A492
330
A3C8
100
AcDbEntity
  8
1
  6
Continuous
100
AcDbLine
 10
352.0599209999998
 20
155.360197
 30
0.0
 11
352.0599209999998
 21
160.786695
 31
0.0
  0
CIRCLE
  5
A493
330
A3C8
100
AcDbEntity
  8
1
  6
Continuous
100
AcDbCircle
 10
357.0599209999999
 20
158.0734459999999
 30
0.0
 40
3.0
  0
CIRCLE
  5
A494
330
A3C8
100
AcDbEntity
  8
2
  6
Continuous
100
AcDbCircle
 10
357.0599209999999
 20
158.0734459999999
 30
0.0
 40
2.458499999999999
  0
CIRCLE
  5
A495
330
A3C8
100
AcDbEntity
  8
1
  6
Continuous
100
AcDbCircle
 10
357.0599209999999
 20
158.0734459999999
 30
0.0
 40
2.0
  0
LINE
  5
A496
330
A3C8
100
AcDbEntity
  8
2
  6
Continuous
100
AcDbLine
 10
28.420353
 20
160.531946
 30
0.0
 11
29.961853
 21
160.531946
 31
0.0
  0
LINE
  5
A497
330
A3C8
100
AcDbEntity
  8
2
  6
Continuous
100
AcDbLine
 10
28.420353
 20
155.614946
 30
0.0
 11
29.961853
 21
155.614946
 31
0.0
  0
LINE
  5
A498
330
A3C8
100
AcDbEntity
  8
1
  6
Continuous
100
AcDbLine
 10
28.961853
 20
161.0734459999999
 30
0.0
 11
28.961853
 21
155.0734459999999
 31
0.0
  0
LINE
  5
A499
330
A3C8
100
AcDbEntity
  8
1
  6
Continuous
100
AcDbLine
 10
27.961853
 20
160.0734459999999
 30
0.0
 11
28.961853
 21
161.0734459999999
 31
0.0
  0
LINE
  5
A49A
330
A3C8
100
AcDbEntity
  8
1
  6
Continuous
100
AcDbLine
 10
27.961853
 20
156.0734459999999
 30
0.0
 11
28.961853
 21
155.0734459999999
 31
0.0
  0
CIRCLE
  5
A49B
330
A3C8
100
AcDbEntity
  8
1
  6
Continuous
100
AcDbCircle
 10
357.0599209999999
 20
158.0734459999999
 30
0.0
 40
3.799999999999998
  0
LINE
  5
A49C
330
A3C8
100
AcDbEntity
  8
1
  6
Continuous
100
AcDbLine
 10
352.0599209999998
 20
160.786695
 30
0.0
 11
357.0599209999999
 21
163.6734459999999
 31
0.0
  0
LINE
  5
A49D
330
A3C8
100
AcDbEntity
  8
1
  6
Continuous
100
AcDbLine
 10
352.0599209999998
 20
155.360197
 30
0.0
 11
357.0599209999999
 21
152.4734459999999
 31
0.0
  0
LINE
  5
A49E
330
A3C8
100
AcDbEntity
  8
1
  6
Continuous
100
AcDbLine
 10
362.0599209999999
 20
155.360197
 30
0.0
 11
362.0599209999999
 21
160.786695
 31
0.0
  0
LINE
  5
A49F
330
A3C8
100
AcDbEntity
  8
1
  6
Continuous
100
AcDbLine
 10
362.0599209999999
 20
160.786695
 30
0.0
 11
357.0599209999999
 21
163.6734459999999
 31
0.0
  0
LINE
  5
A4A0
330
A3C8
100
AcDbEntity
  8
1
  6
Continuous
100
AcDbLine
 10
362.0599209999999
 20
155.360197
 30
0.0
 11
357.0599209999999
 21
152.4734459999999
 31
0.0
  0
ARC
  5
A4A1
330
A3C8
100
AcDbEntity
  8
1
  6
Continuous
100
AcDbCircle
 10
147.559921
 20
40.470771
 30
0.0
 40
6.613208
100
AcDbArc
 50
67.78820500000001
 51
112.211795
  0
ARC
  5
A4A2
330
A3C8
100
AcDbEntity
  8
1
  6
Continuous
100
AcDbCircle
 10
142.559921
 20
40.470771
 30
0.0
 40
6.613208
100
AcDbArc
 50
67.78820500000001
 51
112.211795
  0
LINE
  5
A4A3
330
A3C8
100
AcDbEntity
  8
1
  6
Continuous
100
AcDbLine
 10
143.059921
 20
40.47539699999999
 30
0.0
 11
147.059921
 21
40.47539699999999
 31
0.0
  0
LINE
  5
A4A4
330
A3C8
100
AcDbEntity
  8
1
  6
Continuous
100
AcDbLine
 10
142.0599209999998
 20
41.47539699999999
 30
0.0
 11
148.059921
 21
41.47539699999999
 31
0.0
  0
LINE
  5
A4A5
330
A3C8
100
AcDbEntity
  8
1
  6
Continuous
100
AcDbLine
 10
147.059921
 20
40.47539699999999
 30
0.0
 11
148.059921
 21
41.47539699999999
 31
0.0
  0
LINE
  5
A4A6
330
A3C8
100
AcDbEntity
  8
1
  6
Continuous
100
AcDbLine
 10
148.059921
 20
41.47539699999999
 30
0.0
 11
148.059921
 21
42.47539699999999
 31
0.0
  0
LINE
  5
A4A7
330
A3C8
100
AcDbEntity
  8
2
  6
Continuous
100
AcDbLine
 10
147.5184209999999
 20
40.93389699999996
 30
0.0
 11
147.5184209999999
 21
42.47539699999999
 31
0.0
  0
LINE
  5
A4A8
330
A3C8
100
AcDbEntity
  8
1
  6
Continuous
100
AcDbLine
 10
143.059921
 20
40.47539699999999
 30
0.0
 11
142.0599209999998
 21
41.47539699999999
 31
0.0
  0
LINE
  5
A4A9
330
A3C8
100
AcDbEntity
  8
1
  6
Continuous
100
AcDbLine
 10
142.0599209999998
 20
41.47539699999999
 30
0.0
 11
142.0599209999998
 21
42.47539699999999
 31
0.0
  0
LINE
  5
A4AA
330
A3C8
100
AcDbEntity
  8
2
  6
Continuous
100
AcDbLine
 10
142.6014209999999
 20
40.93389699999996
 30
0.0
 11
142.6014209999999
 21
42.47539699999999
 31
0.0
  0
LINE
  5
A4AB
330
A3C8
100
AcDbEntity
  8
1
  6
Continuous
100
AcDbLine
 10
67.05485300000001
 20
161.534262
 30
0.0
 11
67.05485300000001
 21
154.61263
 31
0.0
  0
ARC
  5
A4AC
330
A3C8
100
AcDbEntity
  8
1
  6
Continuous
100
AcDbCircle
 10
65.061329
 20
154.7734469999998
 30
0.0
 40
2.0
100
AcDbArc
 50
270.0000179999999
 51
0.05792
  0
LINE
  5
A4AD
330
A3C8
100
AcDbEntity
  8
1
  6
Continuous
100
AcDbLine
 10
64.56335
 20
152.773447
 30
0.0
 11
65.061329
 21
152.773447
 31
0.0
  0
LINE
  5
A4AE
330
A3C8
100
AcDbEntity
  8
1
  6
Continuous
100
AcDbLine
 10
148.519892
 20
79.56845
 30
0.0
 11
141.59995
 21
79.56845
 31
0.0
  0
ARC
  5
A4AF
330
A3C8
100
AcDbEntity
  8
1
  6
Continuous
100
AcDbCircle
 10
148.35992
 20
77.57485799999997
 30
0.0
 40
2.0
100
AcDbArc
 50
0.000018
 51
94.77346899999997
  0
LINE
  5
A4B0
330
A3C8
100
AcDbEntity
  8
1
  6
Continuous
100
AcDbLine
 10
150.35992
 20
77.076879
 30
0.0
 11
150.35992
 21
77.57485799999997
 31
0.0
  0
LINE
  5
A4B1
330
A3C8
100
AcDbEntity
  8
1
  6
Continuous
100
AcDbLine
 10
240.559921
 20
128.536302
 30
0.0
 11
240.559921
 21
187.6105899999997
 31
0.0
  0
LINE
  5
A4B2
330
A3C8
100
AcDbEntity
  8
1
  6
Continuous
100
AcDbLine
 10
261.5599209999999
 20
128.536302
 30
0.0
 11
261.5599209999999
 21
187.6105899999997
 31
0.0
  0
LINE
  5
A4B3
330
A3C8
100
AcDbEntity
  8
4
  6
CENTER
 48
0.8
100
AcDbLine
 10
251.059921
 20
250.5734499999999
 30
0.0
 11
251.059921
 21
120.5734459999999
 31
0.0
  0
ARC
  5
A4B4
330
A3C8
100
AcDbEntity
  8
1
  6
Continuous
100
AcDbCircle
 10
251.059921
 20
165.5734459999998
 30
0.0
 40
40.0
100
AcDbArc
 50
257.072469
 51
282.9254899999999
  0
ARC
  5
A4B5
330
A3C8
100
AcDbEntity
  8
1
  6
Continuous
100
AcDbCircle
 10
259.5599209999999
 20
128.536302
 30
0.0
 40
2.0
100
AcDbArc
 50
282.9254899999999
 51
359.9999599999999
  0
ARC
  5
A4B6
330
A3C8
100
AcDbEntity
  8
1
  6
Continuous
100
AcDbCircle
 10
242.559921
 20
128.536302
 30
0.0
 40
2.0
100
AcDbArc
 50
180.0000499999999
 51
257.07455
  0
LINE
  5
A4B7
330
A3C8
100
AcDbEntity
  8
4
  6
CENTER
 48
0.8
100
AcDbLine
 10
277.6579889999998
 20
158.0734459999999
 30
0.0
 11
228.561846
 21
158.0734459999999
 31
0.0
  0
LINE
  5
A4B8
330
A3C8
100
AcDbEntity
  8
1
  6
Continuous
100
AcDbLine
 10
267.0599209999999
 20
201.4734489999999
 30
0.0
 11
235.0599209999999
 21
201.4734489999999
 31
0.0
  0
LINE
  5
A4B9
330
A3C8
100
AcDbEntity
  8
1
  6
Continuous
100
AcDbLine
 10
236.07045
 20
149.5734459999999
 30
0.0
 11
238.0704569999998
 21
149.5734459999999
 31
0.0
  0
LINE
  5
A4BA
330
A3C8
100
AcDbEntity
  8
1
  6
Continuous
100
AcDbLine
 10
264.0493849999999
 20
149.5734459999999
 30
0.0
 11
264.0493849999999
 21
194.32992
 31
0.0
  0
LINE
  5
A4BB
330
A3C8
100
AcDbEntity
  8
1
  6
Continuous
100
AcDbLine
 10
238.0704569999998
 20
149.5734459999999
 30
0.0
 11
238.0704569999998
 21
194.32992
 31
0.0
  0
LINE
  5
A4BC
330
A3C8
100
AcDbEntity
  8
1
  6
Continuous
100
AcDbLine
 10
266.0493919999999
 20
149.5734459999999
 30
0.0
 11
266.0493919999999
 21
164.120295
 31
0.0
  0
LINE
  5
A4BD
330
A3C8
100
AcDbEntity
  8
1
  6
Continuous
100
AcDbLine
 10
266.5347899999998
 20
155.0734459999999
 30
0.0
 11
269.6579889999998
 21
155.0734459999999
 31
0.0
  0
LINE
  5
A4BE
330
A3C8
100
AcDbEntity
  8
1
  6
Continuous
100
AcDbLine
 10
266.4579919999998
 20
152.473448
 30
0.0
 11
269.6579889999998
 21
152.473448
 31
0.0
  0
LINE
  5
A4BF
330
A3C8
100
AcDbEntity
  8
1
  6
Continuous
100
AcDbLine
 10
266.4579919999998
 20
161.0734459999999
 30
0.0
 11
269.6579889999998
 21
161.0734459999999
 31
0.0
  0
LINE
  5
A4C0
330
A3C8
100
AcDbEntity
  8
1
  6
Continuous
100
AcDbLine
 10
266.4579919999998
 20
163.6734449999998
 30
0.0
 11
269.6579889999998
 21
163.6734449999998
 31
0.0
  0
ARC
  5
A4C1
330
A3C8
100
AcDbEntity
  8
1
  6
Continuous
100
AcDbCircle
 10
267.745491
 20
162.3734489999999
 30
0.0
 40
2.312498999999998
100
AcDbArc
 50
325.79457
 51
34.20545
  0
LINE
  5
A4C2
330
A3C8
100
AcDbEntity
  8
1
  6
Continuous
100
AcDbLine
 10
270.6579889999998
 20
161.8734719999999
 30
0.0
 11
269.6579889999998
 21
163.673441
 31
0.0
  0
LINE
  5
A4C3
330
A3C8
100
AcDbEntity
  8
2
  6
Continuous
100
AcDbLine
 10
272.199489
 20
155.614946
 30
0.0
 11
270.6579889999998
 21
155.614946
 31
0.0
  0
LINE
  5
A4C4
330
A3C8
100
AcDbEntity
  8
2
  6
Continuous
100
AcDbLine
 10
272.199489
 20
160.531946
 30
0.0
 11
270.6579889999998
 21
160.531946
 31
0.0
  0
LINE
  5
A4C5
330
A3C8
100
AcDbEntity
  8
1
  6
Continuous
100
AcDbLine
 10
271.6579889999997
 20
155.0734459999999
 30
0.0
 11
270.6579889999998
 21
155.0734459999999
 31
0.0
  0
LINE
  5
A4C6
330
A3C8
100
AcDbEntity
  8
1
  6
Continuous
100
AcDbLine
 10
271.6579889999997
 20
161.0734459999999
 30
0.0
 11
270.6579889999998
 21
161.0734459999999
 31
0.0
  0
LINE
  5
A4C7
330
A3C8
100
AcDbEntity
  8
1
  6
Continuous
100
AcDbLine
 10
272.657989
 20
156.0734459999999
 30
0.0
 11
271.6579889999997
 21
155.0734459999999
 31
0.0
  0
LINE
  5
A4C8
330
A3C8
100
AcDbEntity
  8
1
  6
Continuous
100
AcDbLine
 10
272.657989
 20
160.0734459999999
 30
0.0
 11
271.6579889999997
 21
161.0734459999999
 31
0.0
  0
LINE
  5
A4C9
330
A3C8
100
AcDbEntity
  8
1
  6
Continuous
100
AcDbLine
 10
271.6579889999997
 20
161.0734459999999
 30
0.0
 11
271.6579889999997
 21
155.0734459999999
 31
0.0
  0
LINE
  5
A4CA
330
A3C8
100
AcDbEntity
  8
1
  6
Continuous
100
AcDbLine
 10
272.657989
 20
160.0734459999999
 30
0.0
 11
272.657989
 21
156.0734459999999
 31
0.0
  0
ARC
  5
A4CB
330
A3C8
100
AcDbEntity
  8
1
  6
Continuous
100
AcDbCircle
 10
267.745491
 20
153.7734509999999
 30
0.0
 40
2.312498999999998
100
AcDbArc
 50
325.79457
 51
34.20545
  0
ARC
  5
A4CC
330
A3C8
100
AcDbEntity
  8
1
  6
Continuous
100
AcDbCircle
 10
258.607994
 20
158.0734459999999
 30
0.0
 40
11.44999799999999
100
AcDbArc
 50
344.8107499999999
 51
15.18927
  0
LINE
  5
A4CD
330
A3C8
100
AcDbEntity
  8
1
  6
Continuous
100
AcDbLine
 10
270.6579889999998
 20
154.273371
 30
0.0
 11
269.6579889999998
 21
152.473448
 31
0.0
  0
LINE
  5
A4CE
330
A3C8
100
AcDbEntity
  8
1
  6
Continuous
100
AcDbLine
 10
270.6579889999998
 20
161.873449
 30
0.0
 11
270.6579889999998
 21
154.273451
 31
0.0
  0
ARC
  5
A4CF
330
A3C8
100
AcDbEntity
  8
1
  6
Continuous
100
AcDbCircle
 10
268.370491
 20
162.3734489999999
 30
0.0
 40
2.3125
100
AcDbArc
 50
145.7945389999999
 51
214.2054499999999
  0
LINE
  5
A4D0
330
A3C8
100
AcDbEntity
  8
1
  6
Continuous
100
AcDbLine
 10
239.0599209999999
 20
148.323446
 30
0.0
 11
239.0599209999999
 21
167.8234459999998
 31
0.0
  0
LINE
  5
A4D1
330
A3C8
100
AcDbEntity
  8
1
  6
Continuous
100
AcDbLine
 10
263.0599209999999
 20
148.323446
 30
0.0
 11
263.0599209999999
 21
167.8234459999998
 31
0.0
  0
ARC
  5
A4D2
330
A3C8
100
AcDbEntity
  8
1
  6
Continuous
100
AcDbCircle
 10
262.0599209999999
 20
148.323446
 30
0.0
 40
1.0
100
AcDbArc
 50
269.99998
 51
359.9999599999999
  0
ARC
  5
A4D3
330
A3C8
100
AcDbEntity
  8
1
  6
Continuous
100
AcDbCircle
 10
277.507991
 20
158.0734459999999
 30
0.0
 40
11.450001
100
AcDbArc
 50
164.8107149999999
 51
195.1892799999999
  0
ARC
  5
A4D4
330
A3C8
100
AcDbEntity
  8
1
  6
Continuous
100
AcDbCircle
 10
268.370491
 20
153.7734429999999
 30
0.0
 40
2.3125
100
AcDbArc
 50
145.79459
 51
214.2055099999998
  0
LINE
  5
A4D5
330
A3C8
100
AcDbEntity
  8
1
  6
Continuous
100
AcDbLine
 10
261.5599209999999
 20
147.323446
 30
0.0
 11
262.0599209999999
 21
147.323446
 31
0.0
  0
LINE
  5
A4D6
330
A3C8
100
AcDbEntity
  8
1
  6
Continuous
100
AcDbLine
 10
264.054695
 20
154.8234459999999
 30
0.0
 11
263.0599209999999
 21
154.8234459999999
 31
0.0
  0
LINE
  5
A4D7
330
A3C8
100
AcDbEntity
  8
1
  6
Continuous
100
AcDbLine
 10
264.0612709999999
 20
161.3234459999999
 30
0.0
 11
263.0599209999999
 21
161.3234459999999
 31
0.0
  0
LINE
  5
A4D8
330
A3C8
100
AcDbEntity
  8
1
  6
Continuous
100
AcDbLine
 10
266.0493919999999
 20
149.5734459999999
 30
0.0
 11
264.0493849999999
 21
149.5734459999999
 31
0.0
  0
ARC
  5
A4D9
330
A3C8
100
AcDbEntity
  8
1
  6
Continuous
100
AcDbCircle
 10
240.059921
 20
148.323446
 30
0.0
 40
1.0
100
AcDbArc
 50
180.0000499999999
 51
270.0000399999999
  0
LINE
  5
A4DA
330
A3C8
100
AcDbEntity
  8
1
  6
Continuous
100
AcDbLine
 10
239.0599209999999
 20
154.8234459999999
 30
0.0
 11
238.065147
 21
154.8234459999999
 31
0.0
  0
LINE
  5
A4DB
330
A3C8
100
AcDbEntity
  8
1
  6
Continuous
100
AcDbLine
 10
239.0599209999999
 20
161.3234459999999
 30
0.0
 11
238.0585739999999
 21
161.3234459999999
 31
0.0
  0
LINE
  5
A4DC
330
A3C8
100
AcDbEntity
  8
1
  6
Continuous
100
AcDbLine
 10
240.559921
 20
147.323446
 30
0.0
 11
240.059921
 21
147.323446
 31
0.0
  0
ARC
  5
A4DD
330
A3C8
100
AcDbEntity
  8
1
  6
Continuous
100
AcDbCircle
 10
262.0599209999999
 20
167.8234459999998
 30
0.0
 40
1.0
100
AcDbArc
 50
0.00004
 51
90.00001800000005
  0
LINE
  5
A4DE
330
A3C8
100
AcDbEntity
  8
1
  6
Continuous
100
AcDbLine
 10
261.5599209999999
 20
168.8234459999998
 30
0.0
 11
262.0599209999999
 21
168.8234459999998
 31
0.0
  0
ARC
  5
A4DF
330
A3C8
100
AcDbEntity
  8
1
  6
Continuous
100
AcDbCircle
 10
240.059921
 20
167.8234459999998
 30
0.0
 40
1.0
100
AcDbArc
 50
89.99996299999997
 51
179.999945
  0
LINE
  5
A4E0
330
A3C8
100
AcDbEntity
  8
1
  6
Continuous
100
AcDbLine
 10
240.559921
 20
168.8234459999998
 30
0.0
 11
240.059921
 21
168.8234459999998
 31
0.0
  0
ARC
  5
A4E1
330
A3C8
100
AcDbEntity
  8
1
  6
Continuous
100
AcDbCircle
 10
267.0599209999999
 20
198.4734489999999
 30
0.0
 40
3.0
100
AcDbArc
 50
0.0
 51
90.0
  0
ARC
  5
A4E2
330
A3C8
100
AcDbEntity
  8
1
  6
Continuous
100
AcDbCircle
 10
251.059921
 20
150.573446
 30
0.0
 40
40.0
100
AcDbArc
 50
77.07451000000003
 51
102.9273099999999
  0
ARC
  5
A4E3
330
A3C8
100
AcDbEntity
  8
1
  6
Continuous
100
AcDbCircle
 10
251.059921
 20
202.6179519999999
 30
0.0
 40
1.984499999999996
100
AcDbArc
 50
324.7796999999998
 51
350.0029399999998
  0
ARC
  5
A4E4
330
A3C8
100
AcDbEntity
  8
1
  6
Continuous
100
AcDbCircle
 10
259.5599209999999
 20
187.6105899999997
 30
0.0
 40
2.0
100
AcDbArc
 50
0.00004
 51
77.07451000000003
  0
ARC
  5
A4E5
330
A3C8
100
AcDbEntity
  8
1
  6
Continuous
100
AcDbCircle
 10
258.5212399999999
 20
202.6179519999999
 30
0.0
 40
1.984499999999996
100
AcDbArc
 50
206.8632199999999
 51
215.2203199999999
  0
ARC
  5
A4E6
330
A3C8
100
AcDbEntity
  8
1
  6
Continuous
100
AcDbCircle
 10
254.980545
 20
202.6179519999999
 30
0.0
 40
1.984499999999996
100
AcDbArc
 50
189.99695
 51
215.2203199999999
  0
ARC
  5
A4E7
330
A3C8
100
AcDbEntity
  8
1
  6
Continuous
100
AcDbCircle
 10
263.8099209999999
 20
202.6179519999999
 30
0.0
 40
1.984499999999996
100
AcDbArc
 50
324.7796999999998
 51
350.0029399999998
  0
ARC
  5
A4E8
330
A3C8
100
AcDbEntity
  8
1
  6
Continuous
100
AcDbCircle
 10
263.1605069999998
 20
202.6179519999999
 30
0.0
 40
1.984499999999996
100
AcDbArc
 50
324.7796999999998
 51
350.0029399999998
  0
ARC
  5
A4E9
330
A3C8
100
AcDbEntity
  8
1
  6
Continuous
100
AcDbCircle
 10
261.3389129999998
 20
202.6179519999999
 30
0.0
 40
1.984499999999996
100
AcDbArc
 50
324.7796999999998
 51
350.0029399999998
  0
ARC
  5
A4EA
330
A3C8
100
AcDbEntity
  8
1
  6
Continuous
100
AcDbCircle
 10
258.5212399999999
 20
202.6179519999999
 30
0.0
 40
1.984499999999996
100
AcDbArc
 50
324.7796999999998
 51
350.0029399999998
  0
ARC
  5
A4EB
330
A3C8
100
AcDbEntity
  8
1
  6
Continuous
100
AcDbCircle
 10
254.980545
 20
202.6179519999999
 30
0.0
 40
1.984499999999996
100
AcDbArc
 50
324.7796999999998
 51
350.0029599999999
  0
ARC
  5
A4EC
330
A3C8
100
AcDbEntity
  8
1
  6
Continuous
100
AcDbCircle
 10
242.559921
 20
187.6105899999997
 30
0.0
 40
2.0
100
AcDbArc
 50
102.9254539999999
 51
179.999945
  0
ARC
  5
A4ED
330
A3C8
100
AcDbEntity
  8
1
  6
Continuous
100
AcDbCircle
 10
243.598602
 20
202.6179519999999
 30
0.0
 40
1.984499999999996
100
AcDbArc
 50
189.99701
 51
215.2203199999999
  0
ARC
  5
A4EE
330
A3C8
100
AcDbEntity
  8
1
  6
Continuous
100
AcDbCircle
 10
247.139297
 20
202.6179519999999
 30
0.0
 40
1.984499999999996
100
AcDbArc
 50
189.99701
 51
215.2203199999999
  0
ARC
  5
A4EF
330
A3C8
100
AcDbEntity
  8
1
  6
Continuous
100
AcDbCircle
 10
238.959335
 20
202.6179519999999
 30
0.0
 40
1.984499999999996
100
AcDbArc
 50
189.99701
 51
215.22025
  0
ARC
  5
A4F0
330
A3C8
100
AcDbEntity
  8
1
  6
Continuous
100
AcDbCircle
 10
240.7809369999999
 20
202.6179519999999
 30
0.0
 40
1.984499999999996
100
AcDbArc
 50
189.99701
 51
215.22019
  0
ARC
  5
A4F1
330
A3C8
100
AcDbEntity
  8
1
  6
Continuous
100
AcDbCircle
 10
243.598602
 20
202.6179519999999
 30
0.0
 40
1.984499999999996
100
AcDbArc
 50
324.7796999999998
 51
333.13675
  0
ARC
  5
A4F2
330
A3C8
100
AcDbEntity
  8
1
  6
Continuous
100
AcDbCircle
 10
251.059921
 20
202.6179519999999
 30
0.0
 40
1.984499999999996
100
AcDbArc
 50
189.99701
 51
215.2203199999999
  0
ARC
  5
A4F3
330
A3C8
100
AcDbEntity
  8
1
  6
Continuous
100
AcDbCircle
 10
247.139297
 20
202.6179519999999
 30
0.0
 40
1.984499999999996
100
AcDbArc
 50
324.7796999999998
 51
350.00301
  0
LINE
  5
A4F4
330
A3C8
100
AcDbEntity
  8
1
  6
Continuous
100
AcDbLine
 10
236.07045
 20
149.5734459999999
 30
0.0
 11
236.07045
 21
164.120295
 31
0.0
  0
LINE
  5
A4F5
330
A3C8
100
AcDbEntity
  8
1
  6
Continuous
100
AcDbLine
 10
232.059921
 20
198.4734489999999
 30
0.0
 11
232.059921
 21
183.744873
 31
0.0
  0
ARC
  5
A4F6
330
A3C8
100
AcDbEntity
  8
1
  6
Continuous
100
AcDbCircle
 10
235.5585129999997
 20
161.373445
 30
0.0
 40
2.0
100
AcDbArc
 50
90.00001800000005
 51
180.0579199999999
  0
LINE
  5
A4F7
330
A3C8
100
AcDbEntity
  8
1
  6
Continuous
100
AcDbLine
 10
233.564989
 20
161.534262
 30
0.0
 11
233.564989
 21
154.61263
 31
0.0
  0
LINE
  5
A4F8
330
A3C8
100
AcDbEntity
  8
1
  6
Continuous
100
AcDbLine
 10
236.0564919999999
 20
152.773447
 30
0.0
 11
235.5585129999997
 21
152.773447
 31
0.0
  0
ARC
  5
A4F9
330
A3C8
100
AcDbEntity
  8
1
  6
Continuous
100
AcDbCircle
 10
235.5585129999997
 20
154.7734469999998
 30
0.0
 40
2.0
100
AcDbArc
 50
179.94208
 51
269.9999819999998
  0
LINE
  5
A4FA
330
A3C8
100
AcDbEntity
  8
1
  6
Continuous
100
AcDbLine
 10
236.0564919999999
 20
163.373445
 30
0.0
 11
235.5585129999997
 21
163.373445
 31
0.0
  0
ARC
  5
A4FB
330
A3C8
100
AcDbEntity
  8
1
  6
Continuous
100
AcDbCircle
 10
235.0599209999999
 20
198.4734489999999
 30
0.0
 40
3.0
100
AcDbArc
 50
90.0
 51
180.0
  0
ARC
  5
A4FC
330
A3C8
100
AcDbEntity
  8
1
  6
Continuous
100
AcDbCircle
 10
238.309921
 20
202.6179519999999
 30
0.0
 40
1.984499999999996
100
AcDbArc
 50
189.99701
 51
215.22025
  0
LINE
  5
A4FD
330
A3C8
100
AcDbEntity
  8
1
  6
Continuous
100
AcDbLine
 10
234.8335839999998
 20
194.32992
 30
0.0
 11
267.2862579999999
 21
194.32992
 31
0.0
  0
LINE
  5
A4FE
330
A3C8
100
AcDbEntity
  8
1
  6
Continuous
100
AcDbLine
 10
270.0599209999999
 20
198.4734489999999
 30
0.0
 11
270.0599209999999
 21
183.744873
 31
0.0
  0
ARC
  5
A4FF
330
A3C8
100
AcDbEntity
  8
1
  6
Continuous
100
AcDbCircle
 10
357.0599209999999
 20
158.0734459999999
 30
0.0
 40
32.5
100
AcDbArc
 50
134.1158719999999
 51
80.35400099999998
  0
ARC
  5
A500
330
A3C8
100
AcDbEntity
  8
1
  6
Continuous
100
AcDbCircle
 10
357.0599209999999
 20
158.0734459999999
 30
0.0
 40
25.0
100
AcDbArc
 50
138.327312
 51
76.04631999999998
  0
LINE
  5
A501
330
A3C8
100
AcDbEntity
  8
4
  6
CENTER
 48
0.8
100
AcDbLine
 10
357.0599209999999
 20
191.4662649999999
 30
0.0
 11
357.0599209999999
 21
120.5734459999999
 31
0.0
  0
LINE
  5
A502
330
A3C8
100
AcDbEntity
  8
4
  6
CENTER
 48
0.8
100
AcDbLine
 10
319.5599209999998
 20
158.0734459999999
 30
0.0
 11
394.5599209999999
 21
158.0734459999999
 31
0.0
  0
LINE
  5
A503
330
A3C8
100
AcDbEntity
  8
1
  6
Continuous
100
AcDbLine
 10
349.0599209999999
 20
201.4734489999999
 30
0.0
 11
317.0599209999998
 21
201.4734489999999
 31
0.0
  0
LINE
  5
A504
330
A3C8
100
AcDbEntity
  8
1
  6
Continuous
100
AcDbLine
 10
322.7098689999999
 20
194.027858
 30
0.0
 11
314.0599209999998
 21
194.32992
 31
0.0
  0
LINE
  5
A505
330
A3C8
100
AcDbEntity
  8
1
  6
Continuous
100
AcDbLine
 10
329.3232619999999
 20
190.0938039999997
 30
0.0
 11
350.9963029999998
 21
153.2692889999998
 31
0.0
  0
LINE
  5
A506
330
A3C8
100
AcDbEntity
  8
1
  6
Continuous
100
AcDbLine
 10
362.155163
 20
194.792005
 30
0.0
 11
364.9389629999998
 21
157.6337569999997
 31
0.0
  0
LINE
  5
A507
330
A3C8
100
AcDbEntity
  8
1
  6
Continuous
100
AcDbLine
 10
345.4599229999999
 20
198.7967629999999
 30
0.0
 11
345.4599229999999
 21
166.391594
 31
0.0
  0
LINE
  5
A508
330
A3C8
100
AcDbEntity
  8
4
  6
CENTER
 48
0.8
100
AcDbLine
 10
333.0599209999998
 20
250.5734499999999
 30
0.0
 11
333.0599209999998
 21
178.1804979999997
 31
0.0
  0
ARC
  5
A509
330
A3C8
100
AcDbEntity
  8
1
  6
Continuous
100
AcDbCircle
 10
357.0599209999999
 20
158.0734459999999
 30
0.0
 40
16.0
100
AcDbArc
 50
149.0928649999998
 51
65.00885
  0
ARC
  5
A50A
330
A3C8
100
AcDbEntity
  8
1
  6
Continuous
100
AcDbCircle
 10
357.0599209999999
 20
158.0734459999999
 30
0.0
 40
10.74999999999998
100
AcDbArc
 50
165.9412749999999
 51
47.57963999999999
  0
ARC
  5
A50B
330
A3C8
100
AcDbEntity
  8
1
  6
Continuous
100
AcDbCircle
 10
357.459923
 20
157.0734459999999
 30
0.0
 40
7.5
100
AcDbArc
 50
210.47892
 51
4.284449999999996
  0
LINE
  5
A50C
330
A3C8
100
AcDbEntity
  8
1
  6
Continuous
100
AcDbLine
 10
365.259922
 20
196.275405
 30
0.0
 11
347.781479
 21
199.3573259999998
 31
0.0
  0
LINE
  5
A50D
330
A3C8
100
AcDbEntity
  8
1
  6
Continuous
100
AcDbLine
 10
365.2599159999998
 20
196.275404
 30
0.0
 11
364.9126199999998
 21
194.305787
 31
0.0
  0
LINE
  5
A50E
330
A3C8
100
AcDbEntity
  8
1
  6
Continuous
100
AcDbLine
 10
362.330141
 20
196.7920039999999
 30
0.0
 11
362.155163
 21
194.792005
 31
0.0
  0
LINE
  5
A50F
330
A3C8
100
AcDbEntity
  8
1
  6
Continuous
100
AcDbLine
 10
364.9126279999999
 20
194.3057889999998
 30
0.0
 11
362.1551609999999
 21
194.792005
 31
0.0
  0
ARC
  5
A510
330
A3C8
100
AcDbEntity
  8
1
  6
Continuous
100
AcDbCircle
 10
336.980545
 20
202.6179519999999
 30
0.0
 40
1.984499999999996
100
AcDbArc
 50
189.99695
 51
215.22025
  0
ARC
  5
A511
330
A3C8
100
AcDbEntity
  8
1
  6
Continuous
100
AcDbCircle
 10
345.8099209999998
 20
202.6179519999999
 30
0.0
 40
1.984499999999996
100
AcDbArc
 50
324.77977
 51
350.0029399999998
  0
ARC
  5
A512
330
A3C8
100
AcDbEntity
  8
1
  6
Continuous
100
AcDbCircle
 10
345.1605069999998
 20
202.6179519999999
 30
0.0
 40
1.984499999999996
100
AcDbArc
 50
324.77977
 51
350.00293
  0
ARC
  5
A513
330
A3C8
100
AcDbEntity
  8
1
  6
Continuous
100
AcDbCircle
 10
343.3389049999997
 20
202.6179519999999
 30
0.0
 40
1.984499999999996
100
AcDbArc
 50
324.77977
 51
350.0029399999998
  0
ARC
  5
A514
330
A3C8
100
AcDbEntity
  8
1
  6
Continuous
100
AcDbCircle
 10
340.5212399999998
 20
202.6179519999999
 30
0.0
 40
1.984499999999996
100
AcDbArc
 50
324.77977
 51
350.0029399999998
  0
ARC
  5
A515
330
A3C8
100
AcDbEntity
  8
1
  6
Continuous
100
AcDbCircle
 10
333.0599209999998
 20
202.6179519999999
 30
0.0
 40
1.984499999999996
100
AcDbArc
 50
324.77977
 51
350.0029399999998
  0
ARC
  5
A516
330
A3C8
100
AcDbEntity
  8
1
  6
Continuous
100
AcDbCircle
 10
336.980545
 20
202.6179519999999
 30
0.0
 40
1.984499999999996
100
AcDbArc
 50
324.77977
 51
350.0029599999999
  0
ARC
  5
A517
330
A3C8
100
AcDbEntity
  8
1
  6
Continuous
100
AcDbCircle
 10
340.5212399999998
 20
202.6179519999999
 30
0.0
 40
1.984499999999996
100
AcDbArc
 50
206.8632199999999
 51
215.22025
  0
ARC
  5
A518
330
A3C8
100
AcDbEntity
  8
1
  6
Continuous
100
AcDbCircle
 10
322.4306789999999
 20
186.032733
 30
0.0
 40
8.0
100
AcDbArc
 50
30.47891
 51
87.99996799999998
  0
ARC
  5
A519
330
A3C8
100
AcDbEntity
  8
1
  6
Continuous
100
AcDbCircle
 10
325.598602
 20
202.6179519999999
 30
0.0
 40
1.984499999999996
100
AcDbArc
 50
189.99701
 51
215.22025
  0
ARC
  5
A51A
330
A3C8
100
AcDbEntity
  8
1
  6
Continuous
100
AcDbCircle
 10
329.1392969999999
 20
202.6179519999999
 30
0.0
 40
1.984499999999996
100
AcDbArc
 50
189.99701
 51
215.22025
  0
ARC
  5
A51B
330
A3C8
100
AcDbEntity
  8
1
  6
Continuous
100
AcDbCircle
 10
320.3099209999998
 20
202.6179519999999
 30
0.0
 40
1.984499999999996
100
AcDbArc
 50
189.99701
 51
215.2203199999999
  0
ARC
  5
A51C
330
A3C8
100
AcDbEntity
  8
1
  6
Continuous
100
AcDbCircle
 10
320.959335
 20
202.6179519999999
 30
0.0
 40
1.984499999999996
100
AcDbArc
 50
189.99701
 51
215.22025
  0
ARC
  5
A51D
330
A3C8
100
AcDbEntity
  8
1
  6
Continuous
100
AcDbCircle
 10
322.780937
 20
202.6179519999999
 30
0.0
 40
1.984499999999996
100
AcDbArc
 50
189.99701
 51
215.22025
  0
ARC
  5
A51E
330
A3C8
100
AcDbEntity
  8
1
  6
Continuous
100
AcDbCircle
 10
325.598602
 20
202.6179519999999
 30
0.0
 40
1.984499999999996
100
AcDbArc
 50
324.77977
 51
333.13675
  0
ARC
  5
A51F
330
A3C8
100
AcDbEntity
  8
1
  6
Continuous
100
AcDbCircle
 10
333.0599209999998
 20
202.6179519999999
 30
0.0
 40
1.984499999999996
100
AcDbArc
 50
189.99701
 51
215.22025
  0
ARC
  5
A520
330
A3C8
100
AcDbEntity
  8
1
  6
Continuous
100
AcDbCircle
 10
329.1392969999999
 20
202.6179519999999
 30
0.0
 40
1.984499999999996
100
AcDbArc
 50
324.77977
 51
350.00301
  0
ARC
  5
A521
330
A3C8
100
AcDbEntity
  8
1
  6
Continuous
100
AcDbCircle
 10
317.0599209999998
 20
198.4734489999999
 30
0.0
 40
3.0
100
AcDbArc
 50
90.0
 51
180.0
  0
LINE
  5
A522
330
A3C8
100
AcDbEntity
  8
1
  6
Continuous
100
AcDbLine
 10
314.0599209999998
 20
198.4734489999999
 30
0.0
 11
314.0599209999998
 21
194.32992
 31
0.0
  0
ARC
  5
A523
330
A3C8
100
AcDbEntity
  8
1
  6
Continuous
100
AcDbCircle
 10
282.0793049999998
 20
183.744873
 30
0.0
 40
50.019384
100
AcDbArc
 50
169.701121
 51
203.100145
  0
ARC
  5
A524
330
A3C8
100
AcDbEntity
  8
1
  6
Continuous
100
AcDbCircle
 10
220.0405379999998
 20
183.744873
 30
0.0
 40
50.019384
100
AcDbArc
 50
336.899855
 51
10.298879
  0
ARC
  5
A525
330
A3C8
100
AcDbEntity
  8
1
  6
Continuous
100
AcDbCircle
 10
220.0405379999998
 20
183.744873
 30
0.0
 40
48.019384
100
AcDbArc
 50
336.899855
 51
12.734456
  0
ARC
  5
A526
330
A3C8
100
AcDbEntity
  8
1
  6
Continuous
100
AcDbCircle
 10
282.0793049999998
 20
183.744873
 30
0.0
 40
48.019384
100
AcDbArc
 50
167.2655439999997
 51
203.100145
  0
ARC
  5
A527
330
A3C8
100
AcDbEntity
  8
1
  6
Continuous
100
AcDbCircle
 10
267.2862579999999
 20
192.3299199999999
 30
0.0
 40
2.0
100
AcDbArc
 50
10.298879
 51
90.0
  0
ARC
  5
A528
330
A3C8
100
AcDbEntity
  8
1
  6
Continuous
100
AcDbCircle
 10
234.8335839999998
 20
192.3299199999999
 30
0.0
 40
2.0
100
AcDbArc
 50
90.0
 51
169.701121
  0
ARC
  5
A529
330
A3C8
100
AcDbEntity
  8
1
  6
Continuous
100
AcDbCircle
 10
156.083019
 20
81.062921
 30
0.0
 40
4.0
100
AcDbArc
 50
270.0
 51
304.3476679999999
  0
ARC
  5
A52A
330
A3C8
100
AcDbEntity
  8
1
  6
Continuous
100
AcDbCircle
 10
156.083009
 20
81.06291400000001
 30
0.0
 40
6.0
100
AcDbArc
 50
270.0
 51
304.3476989999998
  0
ARC
  5
A52B
330
A3C8
100
AcDbEntity
  8
1
  6
Continuous
100
AcDbCircle
 10
156.083009
 20
43.08398599999999
 30
0.0
 40
6.0
100
AcDbArc
 50
55.652301
 51
90.0
  0
ARC
  5
A52C
330
A3C8
100
AcDbEntity
  8
1
  6
Continuous
100
AcDbCircle
 10
156.083019
 20
43.083979
 30
0.0
 40
4.0
100
AcDbArc
 50
55.65233199999998
 51
90.0
  0
LINE
  5
A52D
330
A3C8
100
AcDbEntity
  8
1
  6
Continuous
100
AcDbLine
 10
327.0599209999998
 20
243.57345
 30
0.0
 11
327.0599209999998
 21
210.57345
 31
0.0
  0
LINE
  5
A52E
330
A3C8
100
AcDbEntity
  8
1
  6
Continuous
100
AcDbLine
 10
339.0599209999998
 20
243.57345
 30
0.0
 11
339.0599209999998
 21
210.57345
 31
0.0
  0
LINE
  5
A52F
330
A3C8
100
AcDbEntity
  8
2
  6
Continuous
100
AcDbLine
 10
338.1129209999998
 20
244.52045
 30
0.0
 11
338.1129209999998
 21
212.213702
 31
0.0
  0
LINE
  5
A530
330
A3C8
100
AcDbEntity
  8
2
  6
Continuous
100
AcDbLine
 10
328.0069209999998
 20
244.52045
 30
0.0
 11
328.0069209999998
 21
212.213702
 31
0.0
  0
LINE
  5
A531
330
A3C8
100
AcDbEntity
  8
1
  6
Continuous
100
AcDbLine
 10
257.0599209999999
 20
243.57345
 30
0.0
 11
257.0599209999999
 21
210.57345
 31
0.0
  0
LINE
  5
A532
330
A3C8
100
AcDbEntity
  8
2
  6
Continuous
100
AcDbLine
 10
256.1129209999999
 20
244.52045
 30
0.0
 11
256.1129209999999
 21
212.213702
 31
0.0
  0
LINE
  5
A533
330
A3C8
100
AcDbEntity
  8
1
  6
Continuous
100
AcDbLine
 10
245.059921
 20
243.57345
 30
0.0
 11
245.059921
 21
210.57345
 31
0.0
  0
LINE
  5
A534
330
A3C8
100
AcDbEntity
  8
2
  6
Continuous
100
AcDbLine
 10
246.0069209999999
 20
244.52045
 30
0.0
 11
246.0069209999999
 21
212.213702
 31
0.0
  0
LINE
  5
A535
330
A3C8
100
AcDbEntity
  8
1
  6
Continuous
100
AcDbLine
 10
267.3599239999999
 20
203.873445
 30
0.0
 11
234.759918
 21
203.873445
 31
0.0
  0
LINE
  5
A536
330
A3C8
100
AcDbEntity
  8
1
  6
Continuous
100
AcDbLine
 10
237.259923
 20
206.373445
 30
0.0
 11
264.8599239999999
 21
206.373445
 31
0.0
  0
LINE
  5
A537
330
A3C8
100
AcDbEntity
  8
1
  6
Continuous
100
AcDbLine
 10
241.2457579999998
 20
210.57345
 30
0.0
 11
260.8740839999999
 21
210.57345
 31
0.0
  0
LINE
  5
A538
330
A3C8
100
AcDbEntity
  8
1
  6
Continuous
100
AcDbLine
 10
267.3599239999999
 20
202.273447
 30
0.0
 11
234.759918
 21
202.273447
 31
0.0
  0
ARC
  5
A539
330
A3C8
100
AcDbEntity
  8
1
  6
Continuous
100
AcDbCircle
 10
238.393814
 20
203.062208
 30
0.0
 40
3.5
100
AcDbArc
 50
108.9031
 51
162.9964699999999
  0
ARC
  5
A53A
330
A3C8
100
AcDbEntity
  8
1
  6
Continuous
100
AcDbCircle
 10
234.759918
 20
204.1734449999999
 30
0.0
 40
0.3
100
AcDbArc
 50
270.00002
 51
342.9964799999999
  0
LINE
  5
A53B
330
A3C8
100
AcDbEntity
  8
1
  6
Continuous
100
AcDbLine
 10
234.759918
 20
203.873445
 30
0.0
 11
234.759918
 21
202.273447
 31
0.0
  0
ARC
  5
A53C
330
A3C8
100
AcDbEntity
  8
1
  6
Continuous
100
AcDbCircle
 10
246.459923
 20
208.32345
 30
0.0
 40
6.0
100
AcDbArc
 50
161.4469
 51
198.96558
  0
ARC
  5
A53D
330
A3C8
100
AcDbEntity
  8
1
  6
Continuous
100
AcDbCircle
 10
241.2457579999998
 20
210.07345
 30
0.0
 40
0.5
100
AcDbArc
 50
89.99998199999996
 51
161.44681
  0
LINE
  5
A53E
330
A3C8
100
AcDbEntity
  8
2
  6
Continuous
100
AcDbLine
 10
256.1129209999999
 20
212.213702
 30
0.0
 11
257.0599209999999
 21
210.57345
 31
0.0
  0
ARC
  5
A53F
330
A3C8
100
AcDbEntity
  8
1
  6
Continuous
100
AcDbCircle
 10
252.2620499999999
 20
208.32345
 30
0.0
 40
3.5
100
AcDbArc
 50
326.14148
 51
40.005224
  0
ARC
  5
A540
330
A3C8
100
AcDbEntity
  8
1
  6
Continuous
100
AcDbCircle
 10
260.436096
 20
208.32345
 30
0.0
 40
3.5
100
AcDbArc
 50
139.99477
 51
213.8584799999999
  0
LINE
  5
A541
330
A3C8
100
AcDbEntity
  8
2
  6
Continuous
100
AcDbLine
 10
246.0069209999999
 20
212.213702
 30
0.0
 11
245.059921
 21
210.57345
 31
0.0
  0
ARC
  5
A542
330
A3C8
100
AcDbEntity
  8
1
  6
Continuous
100
AcDbCircle
 10
249.857795
 20
208.32345
 30
0.0
 40
3.5
100
AcDbArc
 50
139.99471
 51
213.8584799999999
  0
ARC
  5
A543
330
A3C8
100
AcDbEntity
  8
1
  6
Continuous
100
AcDbCircle
 10
241.6837459999999
 20
208.32345
 30
0.0
 40
3.5
100
AcDbArc
 50
326.14148
 51
40.005169
  0
LINE
  5
A544
330
A3C8
100
AcDbEntity
  8
1
  6
Continuous
100
AcDbLine
 10
245.059921
 20
212.213702
 30
0.0
 11
257.0599209999999
 21
212.213702
 31
0.0
  0
ARC
  5
A545
330
A3C8
100
AcDbEntity
  8
1
  6
Continuous
100
AcDbCircle
 10
263.726028
 20
203.062208
 30
0.0
 40
3.5
100
AcDbArc
 50
17.003496
 51
71.09685999999998
  0
ARC
  5
A546
330
A3C8
100
AcDbEntity
  8
1
  6
Continuous
100
AcDbCircle
 10
267.3599239999999
 20
204.1734449999999
 30
0.0
 40
0.3
100
AcDbArc
 50
197.00351
 51
269.9999599999998
  0
LINE
  5
A547
330
A3C8
100
AcDbEntity
  8
1
  6
Continuous
100
AcDbLine
 10
267.3599239999999
 20
203.873445
 30
0.0
 11
267.3599239999999
 21
202.273447
 31
0.0
  0
ARC
  5
A548
330
A3C8
100
AcDbEntity
  8
1
  6
Continuous
100
AcDbCircle
 10
255.659919
 20
208.32345
 30
0.0
 40
6.0
100
AcDbArc
 50
341.03438
 51
18.553034
  0
ARC
  5
A549
330
A3C8
100
AcDbEntity
  8
1
  6
Continuous
100
AcDbCircle
 10
260.8740839999999
 20
210.07345
 30
0.0
 40
0.5
100
AcDbArc
 50
18.55312999999998
 51
89.99996800000003
  0
ARC
  5
A54A
330
A3C8
100
AcDbEntity
  8
1
  6
Continuous
100
AcDbCircle
 10
345.7260279999999
 20
203.062208
 30
0.0
 40
3.5
100
AcDbArc
 50
17.003496
 51
71.09685999999998
  0
LINE
  5
A54B
330
A3C8
100
AcDbEntity
  8
1
  6
Continuous
100
AcDbLine
 10
349.3599239999999
 20
203.873445
 30
0.0
 11
316.759918
 21
203.873445
 31
0.0
  0
LINE
  5
A54C
330
A3C8
100
AcDbEntity
  8
1
  6
Continuous
100
AcDbLine
 10
349.3599239999999
 20
202.273447
 30
0.0
 11
316.759918
 21
202.273447
 31
0.0
  0
ARC
  5
A54D
330
A3C8
100
AcDbEntity
  8
1
  6
Continuous
100
AcDbCircle
 10
320.393814
 20
203.062208
 30
0.0
 40
3.5
100
AcDbArc
 50
108.9031
 51
162.9964699999999
  0
ARC
  5
A54E
330
A3C8
100
AcDbEntity
  8
1
  6
Continuous
100
AcDbCircle
 10
316.759918
 20
204.1734449999999
 30
0.0
 40
0.3
100
AcDbArc
 50
270.00002
 51
342.9964799999999
  0
LINE
  5
A54F
330
A3C8
100
AcDbEntity
  8
1
  6
Continuous
100
AcDbLine
 10
316.759918
 20
203.873445
 30
0.0
 11
316.759918
 21
202.273447
 31
0.0
  0
LINE
  5
A550
330
A3C8
100
AcDbEntity
  8
1
  6
Continuous
100
AcDbLine
 10
327.0599209999998
 20
212.213702
 30
0.0
 11
339.0599209999998
 21
212.213702
 31
0.0
  0
LINE
  5
A551
330
A3C8
100
AcDbEntity
  8
1
  6
Continuous
100
AcDbLine
 10
323.5599209999998
 20
210.57345
 30
0.0
 11
342.5599209999998
 21
210.57345
 31
0.0
  0
LINE
  5
A552
330
A3C8
100
AcDbEntity
  8
1
  6
Continuous
100
AcDbLine
 10
346.8599189999998
 20
206.373445
 30
0.0
 11
319.2599180000001
 21
206.373445
 31
0.0
  0
LINE
  5
A553
330
A3C8
100
AcDbEntity
  8
2
  6
Continuous
100
AcDbLine
 10
328.0069209999998
 20
212.213702
 30
0.0
 11
327.0599209999998
 21
210.57345
 31
0.0
  0
LINE
  5
A554
330
A3C8
100
AcDbEntity
  8
1
  6
Continuous
100
AcDbLine
 10
323.5599209999998
 20
210.57345
 30
0.0
 11
323.5599209999998
 21
206.373445
 31
0.0
  0
ARC
  5
A555
330
A3C8
100
AcDbEntity
  8
1
  6
Continuous
100
AcDbCircle
 10
327.0599209999998
 20
208.32345
 30
0.0
 40
3.0
100
AcDbArc
 50
131.4096399999999
 51
220.5416599999999
  0
LINE
  5
A556
330
A3C8
100
AcDbEntity
  8
1
  6
Continuous
100
AcDbLine
 10
342.5599209999998
 20
210.57345
 30
0.0
 11
342.5599209999998
 21
206.373445
 31
0.0
  0
ARC
  5
A557
330
A3C8
100
AcDbEntity
  8
1
  6
Continuous
100
AcDbCircle
 10
339.0599209999998
 20
208.32345
 30
0.0
 40
3.0
100
AcDbArc
 50
319.45831
 51
48.590321
  0
ARC
  5
A558
330
A3C8
100
AcDbEntity
  8
1
  6
Continuous
100
AcDbCircle
 10
337.0599209999998
 20
208.32345
 30
0.0
 40
3.5
100
AcDbArc
 50
139.9947899999999
 51
213.8584799999999
  0
ARC
  5
A559
330
A3C8
100
AcDbEntity
  8
1
  6
Continuous
100
AcDbCircle
 10
329.0599209999998
 20
208.32345
 30
0.0
 40
3.5
100
AcDbArc
 50
326.14148
 51
40.005173
  0
LINE
  5
A55A
330
A3C8
100
AcDbEntity
  8
2
  6
Continuous
100
AcDbLine
 10
338.1129209999998
 20
212.213702
 30
0.0
 11
339.0599209999998
 21
210.57345
 31
0.0
  0
ARC
  5
A55B
330
A3C8
100
AcDbEntity
  8
1
  6
Continuous
100
AcDbCircle
 10
349.3599239999999
 20
204.1734449999999
 30
0.0
 40
0.3
100
AcDbArc
 50
197.00351
 51
269.9999599999998
  0
LINE
  5
A55C
330
A3C8
100
AcDbEntity
  8
1
  6
Continuous
100
AcDbLine
 10
349.3599239999999
 20
203.873445
 30
0.0
 11
349.3599239999999
 21
202.273447
 31
0.0
  0
LINE
  5
A55D
330
A3C8
100
AcDbEntity
  8
1
  6
Continuous
100
AcDbLine
 10
170.191139
 20
318.891816
 30
0.0
 11
177.429921
 21
314.7125029999999
 31
0.0
  0
LINE
  5
A55E
330
A3C8
100
AcDbEntity
  8
1
  6
Continuous
100
AcDbLine
 10
170.191139
 20
298.2980339999998
 30
0.0
 11
177.429921
 21
302.4773469999999
 31
0.0
  0
CIRCLE
  5
A55F
330
A3C8
100
AcDbEntity
  8
1
  6
Continuous
100
AcDbCircle
 10
169.059921
 20
308.594925
 30
0.0
 40
4.0
  0
LINE
  5
A560
330
A3C8
100
AcDbEntity
  8
1
  6
Continuous
100
AcDbLine
 10
159.559921
 20
304.434564
 30
0.0
 11
159.559921
 21
312.755286
 31
0.0
  0
CIRCLE
  5
A561
330
A3C8
100
AcDbEntity
  8
1
  6
Continuous
100
AcDbCircle
 10
169.059921
 20
308.594925
 30
0.0
 40
6.0
  0
CIRCLE
  5
A562
330
A3C8
100
AcDbEntity
  8
2
  6
Continuous
100
AcDbCircle
 10
169.059921
 20
308.594925
 30
0.0
 40
5.052999999999999
  0
LINE
  5
A563
330
A3C8
100
AcDbEntity
  8
1
  6
Continuous
100
AcDbLine
 10
255.059921
 20
245.57345
 30
0.0
 11
257.0599209999999
 21
243.57345
 31
0.0
  0
LINE
  5
A564
330
A3C8
100
AcDbEntity
  8
1
  6
Continuous
100
AcDbLine
 10
247.059921
 20
245.57345
 30
0.0
 11
245.059921
 21
243.57345
 31
0.0
  0
LINE
  5
A565
330
A3C8
100
AcDbEntity
  8
1
  6
Continuous
100
AcDbLine
 10
247.059921
 20
245.57345
 30
0.0
 11
255.059921
 21
245.57345
 31
0.0
  0
LINE
  5
A566
330
A3C8
100
AcDbEntity
  8
1
  6
Continuous
100
AcDbLine
 10
245.059921
 20
243.57345
 30
0.0
 11
257.0599209999999
 21
243.57345
 31
0.0
  0
ARC
  5
A567
330
A3C8
100
AcDbEntity
  8
1
  6
Continuous
100
AcDbCircle
 10
161.819921
 20
304.434564
 30
0.0
 40
2.259999999999998
100
AcDbArc
 50
180.0
 51
239.9999999999999
  0
ARC
  5
A568
330
A3C8
100
AcDbEntity
  8
1
  6
Continuous
100
AcDbCircle
 10
169.059921
 20
300.25736
 30
0.0
 40
2.262436
100
AcDbArc
 50
239.9999999999999
 51
300.0
  0
LINE
  5
A569
330
A3C8
100
AcDbEntity
  8
1
  6
Continuous
100
AcDbLine
 10
160.6899209999999
 20
302.4773469999999
 30
0.0
 11
167.928703
 21
298.2980339999998
 31
0.0
  0
ARC
  5
A56A
330
A3C8
100
AcDbEntity
  8
1
  6
Continuous
100
AcDbCircle
 10
161.819921
 20
312.755286
 30
0.0
 40
2.259999999999998
100
AcDbArc
 50
119.9999999999999
 51
180.0
  0
ARC
  5
A56B
330
A3C8
100
AcDbEntity
  8
1
  6
Continuous
100
AcDbCircle
 10
169.059921
 20
316.9324889999998
 30
0.0
 40
2.262436
100
AcDbArc
 50
60.0
 51
119.9999999999999
  0
LINE
  5
A56C
330
A3C8
100
AcDbEntity
  8
1
  6
Continuous
100
AcDbLine
 10
160.6899209999999
 20
314.7125029999999
 30
0.0
 11
167.928703
 21
318.891816
 31
0.0
  0
LINE
  5
A56D
330
A3C8
100
AcDbEntity
  8
1
  6
Continuous
100
AcDbLine
 10
178.5599209999998
 20
304.434564
 30
0.0
 11
178.5599209999998
 21
312.755286
 31
0.0
  0
LINE
  5
A56E
330
A3C8
100
AcDbEntity
  8
1
  6
Continuous
100
AcDbLine
 10
329.0599209999998
 20
245.57345
 30
0.0
 11
337.0599209999998
 21
245.57345
 31
0.0
  0
LINE
  5
A56F
330
A3C8
100
AcDbEntity
  8
1
  6
Continuous
100
AcDbLine
 10
327.0599209999998
 20
243.57345
 30
0.0
 11
339.0599209999998
 21
243.57345
 31
0.0
  0
LINE
  5
A570
330
A3C8
100
AcDbEntity
  8
1
  6
Continuous
100
AcDbLine
 10
329.0599209999998
 20
245.57345
 30
0.0
 11
327.0599209999998
 21
243.57345
 31
0.0
  0
LINE
  5
A571
330
A3C8
100
AcDbEntity
  8
1
  6
Continuous
100
AcDbLine
 10
337.0599209999998
 20
245.57345
 30
0.0
 11
339.0599209999998
 21
243.57345
 31
0.0
  0
ARC
  5
A572
330
A3C8
100
AcDbEntity
  8
1
  6
Continuous
100
AcDbCircle
 10
176.2999209999999
 20
304.434564
 30
0.0
 40
2.259999999999998
100
AcDbArc
 50
300.0
 51
0.0
  0
ARC
  5
A573
330
A3C8
100
AcDbEntity
  8
1
  6
Continuous
100
AcDbCircle
 10
176.2999209999999
 20
312.755286
 30
0.0
 40
2.259999999999998
100
AcDbArc
 50
0.0
 51
60.0
  0
LINE
  5
A574
330
A3C8
100
AcDbEntity
  8
1
  6
Continuous
100
AcDbLine
 10
163.0599209999997
 20
243.57345
 30
0.0
 11
163.0599209999997
 21
210.57345
 31
0.0
  0
LINE
  5
A575
330
A3C8
100
AcDbEntity
  8
1
  6
Continuous
100
AcDbLine
 10
175.059921
 20
243.57345
 30
0.0
 11
175.059921
 21
210.57345
 31
0.0
  0
LINE
  5
A576
330
A3C8
100
AcDbEntity
  8
2
  6
Continuous
100
AcDbLine
 10
174.1129209999997
 20
244.52045
 30
0.0
 11
174.1129209999997
 21
212.213702
 31
0.0
  0
LINE
  5
A577
330
A3C8
100
AcDbEntity
  8
2
  6
Continuous
100
AcDbLine
 10
164.006921
 20
244.52045
 30
0.0
 11
164.006921
 21
212.213702
 31
0.0
  0
LINE
  5
A578
330
A3C8
100
AcDbEntity
  8
1
  6
Continuous
100
AcDbLine
 10
185.359924
 20
203.873445
 30
0.0
 11
152.7599179999999
 21
203.873445
 31
0.0
  0
LINE
  5
A579
330
A3C8
100
AcDbEntity
  8
1
  6
Continuous
100
AcDbLine
 10
185.359924
 20
202.273447
 30
0.0
 11
152.7599179999999
 21
202.273447
 31
0.0
  0
LINE
  5
A57A
330
A3C8
100
AcDbEntity
  8
1
  6
Continuous
100
AcDbLine
 10
159.559921
 20
210.57345
 30
0.0
 11
178.5599209999998
 21
210.57345
 31
0.0
  0
LINE
  5
A57B
330
A3C8
100
AcDbEntity
  8
1
  6
Continuous
100
AcDbLine
 10
182.859919
 20
206.373445
 30
0.0
 11
155.259918
 21
206.373445
 31
0.0
  0
ARC
  5
A57C
330
A3C8
100
AcDbEntity
  8
1
  6
Continuous
100
AcDbCircle
 10
156.3938139999999
 20
203.062208
 30
0.0
 40
3.5
100
AcDbArc
 50
108.9031
 51
162.9964699999999
  0
ARC
  5
A57D
330
A3C8
100
AcDbEntity
  8
1
  6
Continuous
100
AcDbCircle
 10
152.7599179999999
 20
204.1734449999999
 30
0.0
 40
0.3
100
AcDbArc
 50
270.00002
 51
342.9964799999999
  0
LINE
  5
A57E
330
A3C8
100
AcDbEntity
  8
1
  6
Continuous
100
AcDbLine
 10
152.7599179999999
 20
203.873445
 30
0.0
 11
152.7599179999999
 21
202.273447
 31
0.0
  0
LINE
  5
A57F
330
A3C8
100
AcDbEntity
  8
1
  6
Continuous
100
AcDbLine
 10
163.0599209999997
 20
212.213702
 30
0.0
 11
175.059921
 21
212.213702
 31
0.0
  0
LINE
  5
A580
330
A3C8
100
AcDbEntity
  8
2
  6
Continuous
100
AcDbLine
 10
164.006921
 20
212.213702
 30
0.0
 11
163.0599209999997
 21
210.57345
 31
0.0
  0
LINE
  5
A581
330
A3C8
100
AcDbEntity
  8
2
  6
Continuous
100
AcDbLine
 10
174.1129209999997
 20
212.213702
 30
0.0
 11
175.059921
 21
210.57345
 31
0.0
  0
ARC
  5
A582
330
A3C8
100
AcDbEntity
  8
1
  6
Continuous
100
AcDbCircle
 10
173.059921
 20
208.32345
 30
0.0
 40
3.5
100
AcDbArc
 50
139.9947899999999
 51
213.8584799999999
  0
ARC
  5
A583
330
A3C8
100
AcDbEntity
  8
1
  6
Continuous
100
AcDbCircle
 10
165.059921
 20
208.32345
 30
0.0
 40
3.5
100
AcDbArc
 50
326.14148
 51
40.005173
  0
LINE
  5
A584
330
A3C8
100
AcDbEntity
  8
1
  6
Continuous
100
AcDbLine
 10
159.559921
 20
210.57345
 30
0.0
 11
159.559921
 21
206.373445
 31
0.0
  0
ARC
  5
A585
330
A3C8
100
AcDbEntity
  8
1
  6
Continuous
100
AcDbCircle
 10
163.0599209999997
 20
208.32345
 30
0.0
 40
3.0
100
AcDbArc
 50
131.4096399999999
 51
220.5416599999999
  0
ARC
  5
A586
330
A3C8
100
AcDbEntity
  8
1
  6
Continuous
100
AcDbCircle
 10
181.726028
 20
203.062208
 30
0.0
 40
3.5
100
AcDbArc
 50
17.003496
 51
71.09685999999998
  0
LINE
  5
A587
330
A3C8
100
AcDbEntity
  8
1
  6
Continuous
100
AcDbLine
 10
178.5599209999998
 20
210.57345
 30
0.0
 11
178.5599209999998
 21
206.373445
 31
0.0
  0
ARC
  5
A588
330
A3C8
100
AcDbEntity
  8
1
  6
Continuous
100
AcDbCircle
 10
175.059921
 20
208.32345
 30
0.0
 40
3.0
100
AcDbArc
 50
319.45831
 51
48.590321
  0
ARC
  5
A589
330
A3C8
100
AcDbEntity
  8
1
  6
Continuous
100
AcDbCircle
 10
185.359924
 20
204.1734449999999
 30
0.0
 40
0.3
100
AcDbArc
 50
197.00351
 51
269.9999599999998
  0
LINE
  5
A58A
330
A3C8
100
AcDbEntity
  8
1
  6
Continuous
100
AcDbLine
 10
185.359924
 20
203.873445
 30
0.0
 11
185.359924
 21
202.273447
 31
0.0
  0
LINE
  5
A58B
330
A3C8
100
AcDbEntity
  8
1
  6
Continuous
100
AcDbLine
 10
165.059921
 20
245.57345
 30
0.0
 11
173.059921
 21
245.57345
 31
0.0
  0
LINE
  5
A58C
330
A3C8
100
AcDbEntity
  8
1
  6
Continuous
100
AcDbLine
 10
163.0599209999997
 20
243.57345
 30
0.0
 11
175.059921
 21
243.57345
 31
0.0
  0
LINE
  5
A58D
330
A3C8
100
AcDbEntity
  8
1
  6
Continuous
100
AcDbLine
 10
165.059921
 20
245.57345
 30
0.0
 11
163.0599209999997
 21
243.57345
 31
0.0
  0
LINE
  5
A58E
330
A3C8
100
AcDbEntity
  8
1
  6
Continuous
100
AcDbLine
 10
173.059921
 20
245.57345
 30
0.0
 11
175.059921
 21
243.57345
 31
0.0
  0
LINE
  5
A58F
330
A3C8
100
AcDbEntity
  8
1
  6
Continuous
100
AcDbLine
 10
55.559921
 20
243.57345
 30
0.0
 11
55.559921
 21
210.57345
 31
0.0
  0
LINE
  5
A590
330
A3C8
100
AcDbEntity
  8
2
  6
Continuous
100
AcDbLine
 10
54.61292099999999
 20
244.52045
 30
0.0
 11
54.61292099999999
 21
212.213702
 31
0.0
  0
LINE
  5
A591
330
A3C8
100
AcDbEntity
  8
1
  6
Continuous
100
AcDbLine
 10
43.559921
 20
243.57345
 30
0.0
 11
43.559921
 21
210.57345
 31
0.0
  0
LINE
  5
A592
330
A3C8
100
AcDbEntity
  8
2
  6
Continuous
100
AcDbLine
 10
44.506921
 20
244.52045
 30
0.0
 11
44.506921
 21
212.213702
 31
0.0
  0
LINE
  5
A593
330
A3C8
100
AcDbEntity
  8
1
  6
Continuous
100
AcDbLine
 10
43.559921
 20
212.213702
 30
0.0
 11
55.559921
 21
212.213702
 31
0.0
  0
LINE
  5
A594
330
A3C8
100
AcDbEntity
  8
1
  6
Continuous
100
AcDbLine
 10
35.759923
 20
206.373445
 30
0.0
 11
63.359924
 21
206.373445
 31
0.0
  0
LINE
  5
A595
330
A3C8
100
AcDbEntity
  8
1
  6
Continuous
100
AcDbLine
 10
39.745758
 20
210.57345
 30
0.0
 11
59.37408399999998
 21
210.57345
 31
0.0
  0
LINE
  5
A596
330
A3C8
100
AcDbEntity
  8
1
  6
Continuous
100
AcDbLine
 10
65.85992399999999
 20
203.873445
 30
0.0
 11
33.259918
 21
203.873445
 31
0.0
  0
LINE
  5
A597
330
A3C8
100
AcDbEntity
  8
1
  6
Continuous
100
AcDbLine
 10
65.85992399999999
 20
202.273447
 30
0.0
 11
33.259918
 21
202.273447
 31
0.0
  0
ARC
  5
A598
330
A3C8
100
AcDbEntity
  8
1
  6
Continuous
100
AcDbCircle
 10
33.259918
 20
204.1734449999999
 30
0.0
 40
0.3
100
AcDbArc
 50
270.00002
 51
342.9964799999999
  0
ARC
  5
A599
330
A3C8
100
AcDbEntity
  8
1
  6
Continuous
100
AcDbCircle
 10
36.893814
 20
203.062208
 30
0.0
 40
3.5
100
AcDbArc
 50
108.9031
 51
162.9964699999999
  0
LINE
  5
A59A
330
A3C8
100
AcDbEntity
  8
1
  6
Continuous
100
AcDbLine
 10
33.259918
 20
203.873445
 30
0.0
 11
33.259918
 21
202.273447
 31
0.0
  0
LINE
  5
A59B
330
A3C8
100
AcDbEntity
  8
2
  6
Continuous
100
AcDbLine
 10
44.506921
 20
212.213702
 30
0.0
 11
43.559921
 21
210.57345
 31
0.0
  0
ARC
  5
A59C
330
A3C8
100
AcDbEntity
  8
1
  6
Continuous
100
AcDbCircle
 10
44.959923
 20
208.32345
 30
0.0
 40
6.0
100
AcDbArc
 50
161.4469
 51
198.96558
  0
ARC
  5
A59D
330
A3C8
100
AcDbEntity
  8
1
  6
Continuous
100
AcDbCircle
 10
39.745758
 20
210.07345
 30
0.0
 40
0.5
100
AcDbArc
 50
89.99998199999996
 51
161.44681
  0
ARC
  5
A59E
330
A3C8
100
AcDbEntity
  8
1
  6
Continuous
100
AcDbCircle
 10
48.35779500000001
 20
208.32345
 30
0.0
 40
3.5
100
AcDbArc
 50
139.99471
 51
213.8584799999999
  0
ARC
  5
A59F
330
A3C8
100
AcDbEntity
  8
1
  6
Continuous
100
AcDbCircle
 10
40.183746
 20
208.32345
 30
0.0
 40
3.5
100
AcDbArc
 50
326.14148
 51
40.005169
  0
ARC
  5
A5A0
330
A3C8
100
AcDbEntity
  8
1
  6
Continuous
100
AcDbCircle
 10
62.226028
 20
203.062208
 30
0.0
 40
3.5
100
AcDbArc
 50
17.003496
 51
71.09685999999998
  0
LINE
  5
A5A1
330
A3C8
100
AcDbEntity
  8
2
  6
Continuous
100
AcDbLine
 10
54.61292099999999
 20
212.213702
 30
0.0
 11
55.559921
 21
210.57345
 31
0.0
  0
ARC
  5
A5A2
330
A3C8
100
AcDbEntity
  8
1
  6
Continuous
100
AcDbCircle
 10
50.76205
 20
208.32345
 30
0.0
 40
3.5
100
AcDbArc
 50
326.14148
 51
40.005224
  0
ARC
  5
A5A3
330
A3C8
100
AcDbEntity
  8
1
  6
Continuous
100
AcDbCircle
 10
58.936096
 20
208.32345
 30
0.0
 40
3.5
100
AcDbArc
 50
139.99477
 51
213.8584799999999
  0
ARC
  5
A5A4
330
A3C8
100
AcDbEntity
  8
1
  6
Continuous
100
AcDbCircle
 10
54.15991899999998
 20
208.32345
 30
0.0
 40
6.0
100
AcDbArc
 50
341.03438
 51
18.553034
  0
ARC
  5
A5A5
330
A3C8
100
AcDbEntity
  8
1
  6
Continuous
100
AcDbCircle
 10
59.37408399999998
 20
210.07345
 30
0.0
 40
0.5
100
AcDbArc
 50
18.55312999999998
 51
89.99996800000003
  0
ARC
  5
A5A6
330
A3C8
100
AcDbEntity
  8
1
  6
Continuous
100
AcDbCircle
 10
65.85992399999999
 20
204.1734449999999
 30
0.0
 40
0.3
100
AcDbArc
 50
197.00351
 51
269.9999599999998
  0
LINE
  5
A5A7
330
A3C8
100
AcDbEntity
  8
1
  6
Continuous
100
AcDbLine
 10
65.85992399999999
 20
203.873445
 30
0.0
 11
65.85992399999999
 21
202.273447
 31
0.0
  0
LINE
  5
A5A8
330
A3C8
100
AcDbEntity
  8
1
  6
Continuous
100
AcDbLine
 10
45.559921
 20
245.57345
 30
0.0
 11
53.55992099999999
 21
245.57345
 31
0.0
  0
LINE
  5
A5A9
330
A3C8
100
AcDbEntity
  8
1
  6
Continuous
100
AcDbLine
 10
43.559921
 20
243.57345
 30
0.0
 11
55.559921
 21
243.57345
 31
0.0
  0
LINE
  5
A5AA
330
A3C8
100
AcDbEntity
  8
1
  6
Continuous
100
AcDbLine
 10
45.559921
 20
245.57345
 30
0.0
 11
43.559921
 21
243.57345
 31
0.0
  0
LINE
  5
A5AB
330
A3C8
100
AcDbEntity
  8
1
  6
Continuous
100
AcDbLine
 10
53.55992099999999
 20
245.57345
 30
0.0
 11
55.559921
 21
243.57345
 31
0.0
  0
CIRCLE
  5
A5AC
330
A3C8
100
AcDbEntity
  8
1
  6
Continuous
100
AcDbCircle
 10
169.059921
 20
308.594925
 30
0.0
 40
13.8
  0
CIRCLE
  5
A5AD
330
A3C8
100
AcDbEntity
  8
1
  6
Continuous
100
AcDbCircle
 10
169.059921
 20
308.594925
 30
0.0
 40
16.3
  0
ARC
  5
A5AE
330
A3C8
100
AcDbEntity
  8
1
  6
Continuous
100
AcDbCircle
 10
169.059921
 20
308.594925
 30
0.0
 40
19.0
100
AcDbArc
 50
235.6988470000001
 51
124.301153
  0
LINE
  5
A5AF
330
A3C8
100
AcDbEntity
  8
1
  6
Continuous
100
AcDbLine
 10
156.0984399999999
 20
323.5949249999998
 30
0.0
 11
137.213819
 21
323.5949249999998
 31
0.0
  0
LINE
  5
A5B0
330
A3C8
100
AcDbEntity
  8
1
  6
Continuous
100
AcDbLine
 10
156.0984399999999
 20
293.5949249999998
 30
0.0
 11
137.213819
 21
293.5949249999998
 31
0.0
  0
ARC
  5
A5B1
330
A3C8
100
AcDbEntity
  8
1
  6
Continuous
100
AcDbCircle
 10
176.723585
 20
308.594925
 30
0.0
 40
39.86366499999999
100
AcDbArc
 50
157.896398
 51
202.1036019999999
  0
ARC
  5
A5B2
330
A3C8
100
AcDbEntity
  8
1
  6
Continuous
100
AcDbCircle
 10
156.0984399999999
 20
327.594925
 30
0.0
 40
4.0
100
AcDbArc
 50
270.0
 51
304.301153
  0
ARC
  5
A5B3
330
A3C8
100
AcDbEntity
  8
1
  6
Continuous
100
AcDbCircle
 10
156.0984399999999
 20
289.594925
 30
0.0
 40
4.0
100
AcDbArc
 50
55.69884700000001
 51
90.0
  0
LINE
  5
A5B4
330
A3C8
100
AcDbEntity
  8
1
  6
Continuous
100
AcDbLine
 10
140.059921
 20
324.075143
 30
0.0
 11
140.059921
 21
327.7026479999999
 31
0.0
  0
LINE
  5
A5B5
330
A3C8
100
AcDbEntity
  8
1
  6
Continuous
100
AcDbLine
 10
150.059921
 20
324.075143
 30
0.0
 11
150.059921
 21
327.7026479999999
 31
0.0
  0
LINE
  5
A5B6
330
A3C8
100
AcDbEntity
  8
1
  6
Continuous
100
AcDbLine
 10
145.059921
 20
327.7026479999999
 30
0.0
 11
145.059921
 21
323.5843959999999
 31
0.0
  0
LINE
  5
A5B7
330
A3C8
100
AcDbEntity
  8
1
  6
Continuous
100
AcDbLine
 10
142.0599209999998
 20
329.1929769999998
 30
0.0
 11
148.059921
 21
329.1929769999998
 31
0.0
  0
LINE
  5
A5B8
330
A3C8
100
AcDbEntity
  8
1
  6
Continuous
100
AcDbLine
 10
143.059921
 20
330.192977
 30
0.0
 11
147.059921
 21
330.192977
 31
0.0
  0
ARC
  5
A5B9
330
A3C8
100
AcDbEntity
  8
1
  6
Continuous
100
AcDbCircle
 10
142.559921
 20
321.5801879999999
 30
0.0
 40
6.613208
100
AcDbArc
 50
67.78820500000001
 51
112.211795
  0
LINE
  5
A5BA
330
A3C8
100
AcDbEntity
  8
1
  6
Continuous
100
AcDbLine
 10
142.559921
 20
328.1933959999999
 30
0.0
 11
147.559921
 21
328.1933959999999
 31
0.0
  0
LINE
  5
A5BB
330
A3C8
100
AcDbEntity
  8
2
  6
Continuous
100
AcDbLine
 10
142.6014209999999
 20
329.734477
 30
0.0
 11
142.6014209999999
 21
328.192977
 31
0.0
  0
LINE
  5
A5BC
330
A3C8
100
AcDbEntity
  8
1
  6
Continuous
100
AcDbLine
 10
142.0599209999998
 20
329.1929769999998
 30
0.0
 11
142.0599209999998
 21
328.192977
 31
0.0
  0
LINE
  5
A5BD
330
A3C8
100
AcDbEntity
  8
1
  6
Continuous
100
AcDbLine
 10
143.059921
 20
330.192977
 30
0.0
 11
142.0599209999998
 21
329.1929769999998
 31
0.0
  0
LINE
  5
A5BE
330
A3C8
100
AcDbEntity
  8
2
  6
Continuous
100
AcDbLine
 10
147.5184209999999
 20
329.734477
 30
0.0
 11
147.5184209999999
 21
328.192977
 31
0.0
  0
LINE
  5
A5BF
330
A3C8
100
AcDbEntity
  8
1
  6
Continuous
100
AcDbLine
 10
148.059921
 20
329.1929769999998
 30
0.0
 11
148.059921
 21
328.192977
 31
0.0
  0
LINE
  5
A5C0
330
A3C8
100
AcDbEntity
  8
1
  6
Continuous
100
AcDbLine
 10
147.059921
 20
330.192977
 30
0.0
 11
148.059921
 21
329.1929769999998
 31
0.0
  0
ARC
  5
A5C1
330
A3C8
100
AcDbEntity
  8
1
  6
Continuous
100
AcDbCircle
 10
147.559921
 20
321.5801879999999
 30
0.0
 40
6.613208
100
AcDbArc
 50
67.78820500000001
 51
112.211795
  0
ARC
  5
A5C2
330
A3C8
100
AcDbEntity
  8
1
  6
Continuous
100
AcDbCircle
 10
142.559921
 20
330.1976029999999
 30
0.0
 40
6.613208
100
AcDbArc
 50
247.7882049999999
 51
292.211795
  0
LINE
  5
A5C3
330
A3C8
100
AcDbEntity
  8
1
  6
Continuous
100
AcDbLine
 10
138.7089589999999
 20
320.5949249999998
 30
0.0
 11
135.309921
 21
320.5949249999998
 31
0.0
  0
ARC
  5
A5C4
330
A3C8
100
AcDbEntity
  8
1
  6
Continuous
100
AcDbCircle
 10
176.8940369999999
 20
308.5510909999998
 30
0.0
 40
40.03413499999999
100
AcDbArc
 50
161.000821
 51
162.4919909999999
  0
LINE
  5
A5C5
330
A3C8
100
AcDbEntity
  8
1
  6
Continuous
100
AcDbLine
 10
137.213819
 20
321.5949249999998
 30
0.0
 11
137.213819
 21
323.5949249999998
 31
0.0
  0
ARC
  5
A5C6
330
A3C8
100
AcDbEntity
  8
1
  6
Continuous
100
AcDbCircle
 10
135.309921
 20
319.5949249999998
 30
0.0
 40
1.0
100
AcDbArc
 50
90.00004000000002
 51
180.0000179999999
  0
LINE
  5
A5C7
330
A3C8
100
AcDbEntity
  8
1
  6
Continuous
100
AcDbLine
 10
134.309921
 20
319.094925
 30
0.0
 11
134.309921
 21
319.5949249999998
 31
0.0
  0
ARC
  5
A5C8
330
A3C8
100
AcDbEntity
  8
1
  6
Continuous
100
AcDbCircle
 10
147.559921
 20
330.1976029999999
 30
0.0
 40
6.613208
100
AcDbArc
 50
247.7882049999999
 51
292.211795
  0
LINE
  5
A5C9
330
A3C8
100
AcDbEntity
  8
1
  6
Continuous
100
AcDbLine
 10
148.519892
 20
291.0999249999998
 30
0.0
 11
141.59995
 21
291.0999249999998
 31
0.0
  0
LINE
  5
A5CA
330
A3C8
100
AcDbEntity
  8
1
  6
Continuous
100
AcDbLine
 10
138.7089589999999
 20
296.5949249999998
 30
0.0
 11
135.309921
 21
296.5949249999998
 31
0.0
  0
LINE
  5
A5CB
330
A3C8
100
AcDbEntity
  8
1
  6
Continuous
100
AcDbLine
 10
137.213819
 20
293.5949249999998
 30
0.0
 11
137.213819
 21
295.5949249999998
 31
0.0
  0
ARC
  5
A5CC
330
A3C8
100
AcDbEntity
  8
1
  6
Continuous
100
AcDbCircle
 10
141.7599219999999
 20
293.093517
 30
0.0
 40
2.0
100
AcDbArc
 50
180.0000179999999
 51
274.7734689999999
  0
LINE
  5
A5CD
330
A3C8
100
AcDbEntity
  8
1
  6
Continuous
100
AcDbLine
 10
139.7599219999999
 20
293.591496
 30
0.0
 11
139.7599219999999
 21
293.093517
 31
0.0
  0
ARC
  5
A5CE
330
A3C8
100
AcDbEntity
  8
1
  6
Continuous
100
AcDbCircle
 10
135.309921
 20
297.5949249999998
 30
0.0
 40
1.0
100
AcDbArc
 50
179.9999629999998
 51
269.999945
  0
LINE
  5
A5CF
330
A3C8
100
AcDbEntity
  8
1
  6
Continuous
100
AcDbLine
 10
134.309921
 20
298.094925
 30
0.0
 11
134.309921
 21
297.5949249999998
 31
0.0
  0
LINE
  5
A5D0
330
A3C8
100
AcDbEntity
  8
1
  6
Continuous
100
AcDbLine
 10
150.35992
 20
293.591496
 30
0.0
 11
150.35992
 21
293.093517
 31
0.0
  0
ARC
  5
A5D1
330
A3C8
100
AcDbEntity
  8
1
  6
Continuous
100
AcDbCircle
 10
148.35992
 20
293.093517
 30
0.0
 40
2.0
100
AcDbArc
 50
265.226531
 51
359.9999819999999
  0
LINE
  5
A5D2
330
A3C8
100
AcDbEntity
  8
1
  6
Continuous
100
AcDbLine
 10
139.0392139999997
 20
321.5949249999998
 30
0.0
 11
137.213819
 21
321.5949249999998
 31
0.0
  0
LINE
  5
A5D3
330
A3C8
100
AcDbEntity
  8
1
  6
Continuous
100
AcDbLine
 10
139.0392139999997
 20
295.5949249999998
 30
0.0
 11
137.213819
 21
295.5949249999998
 31
0.0
  0
ARC
  5
A5D4
330
A3C8
100
AcDbEntity
  8
1
  6
Continuous
100
AcDbCircle
 10
153.059921
 20
198.4734489999999
 30
0.0
 40
3.0
100
AcDbArc
 50
90.0
 51
177.516999
  0
ARC
  5
A5D5
330
A3C8
100
AcDbEntity
  8
1
  6
Continuous
100
AcDbCircle
 10
169.059921
 20
308.594925
 30
0.0
 40
19.0
100
AcDbArc
 50
137.3365599999999
 51
222.971441
  0
ARC
  5
A5D6
330
A3C8
100
AcDbEntity
  8
1
  6
Continuous
100
AcDbCircle
 10
349.0599209999999
 20
198.4734489999999
 30
0.0
 40
3.0
100
AcDbArc
 50
2.483000999999998
 51
90.0
  0
ENDSEC
  0
SECTION
  2
OBJECTS
  0
DICTIONARY
  5
A3B6
330
0
100
AcDbDictionary
281
     1
  3
ACAD_CIP_PREVIOUS_PRODUCT_INFO
350
A654
  3
ACAD_COLOR
350
A636
  3
ACAD_DETAILVIEWSTYLE
350
A64F
  3
ACAD_GROUP
350
A3B7
  3
ACAD_LAYOUT
350
A3C3
  3
ACAD_MATERIAL
350
A604
  3
ACAD_MLEADERSTYLE
350
A64B
  3
ACAD_MLINESTYLE
350
A3C0
  3
ACAD_PLOTSETTINGS
350
A3C2
  3
ACAD_PLOTSTYLENAME
350
A602
  3
ACAD_SCALELIST
350
A639
  3
ACAD_SECTIONVIEWSTYLE
350
A64D
  3
ACAD_TABLESTYLE
350
A637
  3
ACAD_VISUALSTYLE
350
A61D
  3
ACDB_RECOMPOSE_DATA
350
A672
  3
AcDbVariableDictionary
350
A665
  3
DWGPROPS
350
A673
  0
DICTIONARY
  5
A655
330
A3BA
100
AcDbDictionary
280
     1
281
     1
  3
ADSK_XREC_LAYER_RECONCILED
360
A656
  0
DICTIONARY
  5
A657
330
A3D0
100
AcDbDictionary
280
     1
281
     1
  3
ADSK_XREC_LAYER_RECONCILED
360
A658
  0
DICTIONARY
  5
A659
330
A3D1
100
AcDbDictionary
280
     1
281
     1
  3
ADSK_XREC_LAYER_RECONCILED
360
A65A
  0
DICTIONARY
  5
A65B
330
A3D2
100
AcDbDictionary
280
     1
281
     1
  3
ADSK_XREC_LAYER_RECONCILED
360
A65C
  0
DICTIONARY
  5
A65D
330
A3D3
100
AcDbDictionary
280
     1
281
     1
  3
ADSK_XREC_LAYER_RECONCILED
360
A65E
  0
DICTIONARY
  5
A65F
330
A3D4
100
AcDbDictionary
280
     1
281
     1
  3
ADSK_XREC_LAYER_RECONCILED
360
A660
  0
DICTIONARY
  5
A661
330
A3D5
100
AcDbDictionary
280
     1
281
     1
  3
ADSK_XREC_LAYER_RECONCILED
360
A662
  0
DICTIONARY
  5
A663
330
A3D6
100
AcDbDictionary
280
     1
281
     1
  3
ADSK_XREC_LAYER_RECONCILED
360
A664
  0
DICTIONARY
  5
A5E1
330
A3C8
100
AcDbDictionary
281
     1
  3
ACAD_LAYOUTSELFREF
350
A5FE
  0
DICTIONARY
  5
A5DF
330
A3C4
100
AcDbDictionary
281
     1
  3
ACAD_LAYOUTSELFREF
350
A5FD
  0
XRECORD
  5
A654
102
{ACAD_REACTORS
330
A3B6
102
}
330
A3B6
100
AcDbXrecord
280
     1
300
ACDLT
300
2014
300
ACDLT_F_S
  0
DICTIONARY
  5
A636
102
{ACAD_REACTORS
330
A3B6
102
}
330
A3B6
100
AcDbDictionary
281
     1
  0
DICTIONARY
  5
A64F
102
{ACAD_REACTORS
330
A3B6
102
}
330
A3B6
100
AcDbDictionary
281
     1
  3
Imperial24
350
A650
  0
DICTIONARY
  5
A3B7
102
{ACAD_REACTORS
330
A3B6
102
}
330
A3B6
100
AcDbDictionary
281
     1
  0
DICTIONARY
  5
A3C3
102
{ACAD_REACTORS
330
A3B6
102
}
330
A3B6
100
AcDbDictionary
281
     1
  3
Model
350
A651
  3
レイアウト1
350
A652
  0
DICTIONARY
  5
A604
102
{ACAD_REACTORS
330
A3B6
102
}
330
A3B6
100
AcDbDictionary
281
     1
  3
ByBlock
350
A60D
  3
ByLayer
350
A605
  3
Global
350
A615
  0
DICTIONARY
  5
A64B
102
{ACAD_REACTORS
330
A3B6
102
}
330
A3B6
100
AcDbDictionary
281
     1
  3
Standard
350
A64C
  0
DICTIONARY
  5
A3C0
102
{ACAD_REACTORS
330
A3B6
102
}
330
A3B6
100
AcDbDictionary
281
     1
  3
STANDARD
350
A3C1
  0
DICTIONARY
  5
A3C2
102
{ACAD_REACTORS
330
A3B6
102
}
330
A3B6
100
AcDbDictionary
281
     1
  0
ACDBDICTIONARYWDFLT
  5
A602
102
{ACAD_REACTORS
330
A3B6
102
}
330
A3B6
100
AcDbDictionary
281
     1
  3
Normal
350
A603
100
AcDbDictionaryWithDefault
340
A603
  0
DICTIONARY
  5
A639
102
{ACAD_REACTORS
330
A3B6
102
}
330
A3B6
100
AcDbDictionary
281
     1
  3
A0
350
A63A
  3
A1
350
A63B
  3
A2
350
A63C
  3
A3
350
A63D
  3
A4
350
A63E
  3
A5
350
A63F
  3
A6
350
A640
  3
A7
350
A641
  3
A8
350
A642
  3
A9
350
A643
  3
B0
350
A644
  3
B1
350
A645
  3
B2
350
A646
  3
B3
350
A647
  3
B4
350
A648
  3
B5
350
A649
  3
B6
350
A64A
  0
DICTIONARY
  5
A64D
102
{ACAD_REACTORS
330
A3B6
102
}
330
A3B6
100
AcDbDictionary
281
     1
  3
Imperial24
350
A64E
  0
DICTIONARY
  5
A637
102
{ACAD_REACTORS
330
A3B6
102
}
330
A3B6
100
AcDbDictionary
281
     1
  3
Standard
350
A638
  0
DICTIONARY
  5
A61D
102
{ACAD_REACTORS
330
A3B6
102
}
330
A3B6
100
AcDbDictionary
281
     1
  3
2dWireframe
350
A623
  3
Basic
350
A622
  3
Brighten
350
A629
  3
ColorChange
350
A62D
  3
Conceptual
350
A626
  3
Dim
350
A628
  3
EdgeColorOff
350
A635
  3
Facepattern
350
A62C
  3
Flat
350
A61E
  3
FlatWithEdges
350
A61F
  3
Gouraud
350
A620
  3
GouraudWithEdges
350
A621
  3
Hidden
350
A625
  3
JitterOff
350
A633
  3
Linepattern
350
A62B
  3
OverhangOff
350
A634
  3
Realistic
350
A627
  3
Shaded
350
A632
  3
Shaded with edges
350
A631
  3
Shades of Gray
350
A62E
  3
Sketchy
350
A62F
  3
Thicken
350
A62A
  3
Wireframe
350
A624
  3
X-Ray
350
A630
  0
XRECORD
  5
A672
102
{ACAD_REACTORS
330
A3B6
102
}
330
A3B6
100
AcDbXrecord
280
     1
 90
        1
330
A638
  0
DICTIONARY
  5
A665
102
{ACAD_REACTORS
330
A3B6
102
}
330
A3B6
100
AcDbDictionary
281
     1
  3
CANNOSCALE
350
A66A
  3
CMLEADERSTYLE
350
A667
  3
CTABLESTYLE
350
A666
  3
CVIEWDETAILSTYLE
350
A668
  3
CVIEWSECTIONSTYLE
350
A669
  3
DIMASSOC
350
A66D
  3
INDEXCTL
350
A66C
  3
SORTENTS
350
A66B
  3
XCLIPFRAME
350
A66E
  0
XRECORD
  5
A673
102
{ACAD_REACTORS
330
A3B6
102
}
330
A3B6
100
AcDbXrecord
280
     1
  1
DWGPROPS COOKIE
  2

  3

  4

  6

  7

  8
Yoshitsune
  9

300
=
301
=
302
=
303
=
304
=
305
=
306
=
307
=
308
=
309
=
 40
0.1174446759259259
 41
2451301.438770255
 42
2457192.690137095
  1

 90
        0
  0
XRECORD
  5
A656
102
{ACAD_REACTORS
330
A655
102
}
330
A655
100
AcDbXrecord
280
     1
290
     1
  0
XRECORD
  5
A658
102
{ACAD_REACTORS
330
A657
102
}
330
A657
100
AcDbXrecord
280
     1
290
     1
  0
XRECORD
  5
A65A
102
{ACAD_REACTORS
330
A659
102
}
330
A659
100
AcDbXrecord
280
     1
290
     1
  0
XRECORD
  5
A65C
102
{ACAD_REACTORS
330
A65B
102
}
330
A65B
100
AcDbXrecord
280
     1
290
     1
  0
XRECORD
  5
A65E
102
{ACAD_REACTORS
330
A65D
102
}
330
A65D
100
AcDbXrecord
280
     1
290
     1
  0
XRECORD
  5
A660
102
{ACAD_REACTORS
330
A65F
102
}
330
A65F
100
AcDbXrecord
280
     1
290
     1
  0
XRECORD
  5
A662
102
{ACAD_REACTORS
330
A661
102
}
330
A661
100
AcDbXrecord
280
     1
290
     1
  0
XRECORD
  5
A664
102
{ACAD_REACTORS
330
A663
102
}
330
A663
100
AcDbXrecord
280
     1
290
     1
  0
XRECORD
  5
A5FE
102
{ACAD_REACTORS
330
A5E1
102
}
330
A5E1
100
AcDbXrecord
280
     1
340
A3C8
  0
XRECORD
  5
A5FD
102
{ACAD_REACTORS
330
A5DF
102
}
330
A5DF
100
AcDbXrecord
280
     1
340
A3C4
  0
ACDBDETAILVIEWSTYLE
  5
A650
102
{ACAD_XDICTIONARY
360
A6AB
102
}
102
{ACAD_REACTORS
330
A64F
102
}
330
A64F
100
AcDbModelDocViewStyle
 70
     0
  3
Imperial24
290
     0
100
AcDbDetailViewStyle
 70
     0
 71
     0
 90
        3
 71
     1
340
A3BB
 40
0.24
340
0
 40
0.24
300

 40
0.36
280
     3
 71
     2
340
A3BF
 90
       25
 71
     3
340
A3BB
 40
0.24
 90
        1
 40
0.75
 90
        1
300
%<\AcVar ViewType \f "%tc1">% %<\AcVar ViewDetailId>%\PSCALE %<\AcVar ViewScale \f "%sn">%
 71
     4
340
A3BF
 90
       25
340
A3BF
 90
       25
280
     0
  0
LAYOUT
  5
A651
102
{ACAD_XDICTIONARY
360
A6AD
102
}
102
{ACAD_REACTORS
330
A3C3
102
}
330
A3C3
100
AcDbPlotSettings
  1

  2
Canon LBP9100C
  4

  6

 40
0.0
 41
0.0
 42
0.0
 43
0.0
 44
0.0
 45
0.0
 46
0.0
 47
0.0
 48
0.0
 49
0.0
140
0.0
141
0.0
142
1.0
143
1.0
 70
  1712
 72
     0
 73
     0
 74
     0
  7

 75
     0
147
1.0
148
0.0
149
0.0
100
AcDbLayout
  1
Model
 70
     1
 71
     0
 10
0.0
 20
0.0
 11
12.0
 21
9.0
 12
0.0
 22
0.0
 32
0.0
 14
0.0
 24
0.0
 34
0.0
 15
0.0
 25
0.0
 35
0.0
146
0.0
 13
0.0
 23
0.0
 33
0.0
 16
1.0
 26
0.0
 36
0.0
 17
0.0
 27
1.0
 37
0.0
 76
     0
330
A3C8
331
A5FC
  0
LAYOUT
  5
A652
102
{ACAD_XDICTIONARY
360
A6AF
102
}
102
{ACAD_REACTORS
330
A3C3
102
}
330
A3C3
100
AcDbPlotSettings
  1

  2
Canon LBP9100C
  4

  6

 40
0.0
 41
0.0
 42
0.0
 43
0.0
 44
0.0
 45
0.0
 46
0.0
 47
0.0
 48
0.0
 49
0.0
140
0.0
141
0.0
142
1.0
143
1.0
 70
   688
 72
     0
 73
     0
 74
     5
  7

 75
    16
147
1.0
148
0.0
149
0.0
100
AcDbLayout
  1
レイアウト1
 70
     0
 71
     1
 10
0.0
 20
0.0
 11
420.0
 21
297.0
 12
0.0
 22
0.0
 32
0.0
 14
1.000000000000000E+20
 24
1.000000000000000E+20
 34
1.000000000000000E+20
 15
-1.000000000000000E+20
 25
-1.000000000000000E+20
 35
-1.000000000000000E+20
146
0.0
 13
0.0
 23
0.0
 33
0.0
 16
1.0
 26
0.0
 36
0.0
 17
0.0
 27
1.0
 37
0.0
 76
     0
330
A3C4
  0
MATERIAL
  5
A60D
102
{ACAD_XDICTIONARY
360
A60E
102
}
102
{ACAD_REACTORS
330
A604
102
}
330
A604
100
AcDbMaterial
  1
ByBlock
 72
     0
 43
0.0208333333333333
 43
0.0
 43
0.0
 43
0.0
 43
0.0
 43
0.0208333333333333
 43
0.0
 43
0.0
 43
0.0
 43
0.0
 43
1.0
 43
0.0
 43
0.0
 43
0.0
 43
0.0
 43
1.0
 77
     0
 47
0.0208333333333333
 47
0.0
 47
0.0
 47
0.0
 47
0.0
 47
0.0208333333333333
 47
0.0
 47
0.0
 47
0.0
 47
0.0
 47
1.0
 47
0.0
 47
0.0
 47
0.0
 47
0.0
 47
1.0
171
     0
 49
0.0208333333333333
 49
0.0
 49
0.0
 49
0.0
 49
0.0
 49
0.0208333333333333
 49
0.0
 49
0.0
 49
0.0
 49
0.0
 49
1.0
 49
0.0
 49
0.0
 49
0.0
 49
0.0
 49
1.0
175
     0
142
0.0208333333333333
142
0.0
142
0.0
142
0.0
142
0.0
142
0.0208333333333333
142
0.0
142
0.0
142
0.0
142
0.0
142
1.0
142
0.0
142
0.0
142
0.0
142
0.0
142
1.0
179
     0
144
0.0208333333333333
144
0.0
144
0.0
144
0.0
144
0.0
144
0.0208333333333333
144
0.0
144
0.0
144
0.0
144
0.0
144
1.0
144
0.0
144
0.0
144
0.0
144
0.0
144
1.0
147
0.0208333333333333
147
0.0
147
0.0
147
0.0
147
0.0
147
0.0208333333333333
147
0.0
147
0.0
147
0.0
147
0.0
147
1.0
147
0.0
147
0.0
147
0.0
147
0.0
147
1.0
  0
MATERIAL
  5
A605
102
{ACAD_XDICTIONARY
360
A606
102
}
102
{ACAD_REACTORS
330
A604
102
}
330
A604
100
AcDbMaterial
  1
ByLayer
 72
     0
 43
0.0208333333333333
 43
0.0
 43
0.0
 43
0.0
 43
0.0
 43
0.0208333333333333
 43
0.0
 43
0.0
 43
0.0
 43
0.0
 43
1.0
 43
0.0
 43
0.0
 43
0.0
 43
0.0
 43
1.0
 77
     0
 47
0.0208333333333333
 47
0.0
 47
0.0
 47
0.0
 47
0.0
 47
0.0208333333333333
 47
0.0
 47
0.0
 47
0.0
 47
0.0
 47
1.0
 47
0.0
 47
0.0
 47
0.0
 47
0.0
 47
1.0
171
     0
 49
0.0208333333333333
 49
0.0
 49
0.0
 49
0.0
 49
0.0
 49
0.0208333333333333
 49
0.0
 49
0.0
 49
0.0
 49
0.0
 49
1.0
 49
0.0
 49
0.0
 49
0.0
 49
0.0
 49
1.0
175
     0
142
0.0208333333333333
142
0.0
142
0.0
142
0.0
142
0.0
142
0.0208333333333333
142
0.0
142
0.0
142
0.0
142
0.0
142
1.0
142
0.0
142
0.0
142
0.0
142
0.0
142
1.0
179
     0
144
0.0208333333333333
144
0.0
144
0.0
144
0.0
144
0.0
144
0.0208333333333333
144
0.0
144
0.0
144
0.0
144
0.0
144
1.0
144
0.0
144
0.0
144
0.0
144
0.0
144
1.0
147
0.0208333333333333
147
0.0
147
0.0
147
0.0
147
0.0
147
0.0208333333333333
147
0.0
147
0.0
147
0.0
147
0.0
147
1.0
147
0.0
147
0.0
147
0.0
147
0.0
147
1.0
  0
MATERIAL
  5
A615
102
{ACAD_XDICTIONARY
360
A616
102
}
102
{ACAD_REACTORS
330
A604
102
}
330
A604
100
AcDbMaterial
  1
Global
 72
     0
 43
0.0208333333333333
 43
0.0
 43
0.0
 43
0.0
 43
0.0
 43
0.0208333333333333
 43
0.0
 43
0.0
 43
0.0
 43
0.0
 43
1.0
 43
0.0
 43
0.0
 43
0.0
 43
0.0
 43
1.0
 77
     0
 47
0.0208333333333333
 47
0.0
 47
0.0
 47
0.0
 47
0.0
 47
0.0208333333333333
 47
0.0
 47
0.0
 47
0.0
 47
0.0
 47
1.0
 47
0.0
 47
0.0
 47
0.0
 47
0.0
 47
1.0
171
     0
 49
0.0208333333333333
 49
0.0
 49
0.0
 49
0.0
 49
0.0
 49
0.0208333333333333
 49
0.0
 49
0.0
 49
0.0
 49
0.0
 49
1.0
 49
0.0
 49
0.0
 49
0.0
 49
0.0
 49
1.0
175
     0
142
0.0208333333333333
142
0.0
142
0.0
142
0.0
142
0.0
142
0.0208333333333333
142
0.0
142
0.0
142
0.0
142
0.0
142
1.0
142
0.0
142
0.0
142
0.0
142
0.0
142
1.0
179
     0
144
0.0208333333333333
144
0.0
144
0.0
144
0.0
144
0.0
144
0.0208333333333333
144
0.0
144
0.0
144
0.0
144
0.0
144
1.0
144
0.0
144
0.0
144
0.0
144
0.0
144
1.0
147
0.0208333333333333
147
0.0
147
0.0
147
0.0
147
0.0
147
0.0208333333333333
147
0.0
147
0.0
147
0.0
147
0.0
147
1.0
147
0.0
147
0.0
147
0.0
147
0.0
147
1.0
  0
MLEADERSTYLE
  5
A64C
102
{ACAD_REACTORS
330
A64B
102
}
330
A64B
100
AcDbMLeaderStyle
170
     2
171
     1
172
     0
 90
        2
 40
0.0
 41
0.0
173
     1
 91
-1056964608
340
A3BD
 92
       -2
290
     1
 42
0.09
291
     1
 43
0.36
  3
Standard
 44
0.18
300

342
A3BB
174
     1
178
     6
175
     1
176
     0
 93
-1056964608
 45
0.18
292
     0
297
     0
 46
0.18
 94
-1056964608
 47
1.0
 49
1.0
140
1.0
293
     1
141
0.0
294
     1
177
     0
142
1.0
295
     0
296
     0
143
0.125
1001
ACAD_MLEADERVER
1070
     2
  0
MLINESTYLE
  5
A3C1
102
{ACAD_REACTORS
330
A3C0
102
}
330
A3C0
100
AcDbMlineStyle
  2
STANDARD
 70
     0
  3

 62
   256
 51
90.0
 52
90.0
 71
     2
 49
0.5
 62
   256
  6
BYLAYER
 49
-0.5
 62
   256
  6
BYLAYER
  0
ACDBPLACEHOLDER
  5
A603
102
{ACAD_REACTORS
330
A602
102
}
330
A602
  0
SCALE
  5
A63A
102
{ACAD_REACTORS
330
A639
102
}
330
A639
100
AcDbScale
 70
     0
300
1:1
140
1.0
141
1.0
290
     1
  0
SCALE
  5
A63B
102
{ACAD_REACTORS
330
A639
102
}
330
A639
100
AcDbScale
 70
     0
300
1/128" = 1'-0"
140
0.0078125
141
12.0
290
     0
  0
SCALE
  5
A63C
102
{ACAD_REACTORS
330
A639
102
}
330
A639
100
AcDbScale
 70
     0
300
1/64" = 1'-0"
140
0.015625
141
12.0
290
     0
  0
SCALE
  5
A63D
102
{ACAD_REACTORS
330
A639
102
}
330
A639
100
AcDbScale
 70
     0
300
1/32" = 1'-0"
140
0.03125
141
12.0
290
     0
  0
SCALE
  5
A63E
102
{ACAD_REACTORS
330
A639
102
}
330
A639
100
AcDbScale
 70
     0
300
1/16" = 1'-0"
140
0.0625
141
12.0
290
     0
  0
SCALE
  5
A63F
102
{ACAD_REACTORS
330
A639
102
}
330
A639
100
AcDbScale
 70
     0
300
3/32" = 1'-0"
140
0.09375
141
12.0
290
     0
  0
SCALE
  5
A640
102
{ACAD_REACTORS
330
A639
102
}
330
A639
100
AcDbScale
 70
     0
300
1/8" = 1'-0"
140
0.125
141
12.0
290
     0
  0
SCALE
  5
A641
102
{ACAD_REACTORS
330
A639
102
}
330
A639
100
AcDbScale
 70
     0
300
3/16" = 1'-0"
140
0.1875
141
12.0
290
     0
  0
SCALE
  5
A642
102
{ACAD_REACTORS
330
A639
102
}
330
A639
100
AcDbScale
 70
     0
300
1/4" = 1'-0"
140
0.25
141
12.0
290
     0
  0
SCALE
  5
A643
102
{ACAD_REACTORS
330
A639
102
}
330
A639
100
AcDbScale
 70
     0
300
3/8" = 1'-0"
140
0.375
141
12.0
290
     0
  0
SCALE
  5
A644
102
{ACAD_REACTORS
330
A639
102
}
330
A639
100
AcDbScale
 70
     0
300
1/2" = 1'-0"
140
0.5
141
12.0
290
     0
  0
SCALE
  5
A645
102
{ACAD_REACTORS
330
A639
102
}
330
A639
100
AcDbScale
 70
     0
300
3/4" = 1'-0"
140
0.75
141
12.0
290
     0
  0
SCALE
  5
A646
102
{ACAD_REACTORS
330
A639
102
}
330
A639
100
AcDbScale
 70
     0
300
1" = 1'-0"
140
1.0
141
12.0
290
     0
  0
SCALE
  5
A647
102
{ACAD_REACTORS
330
A639
102
}
330
A639
100
AcDbScale
 70
     0
300
1-1/2" = 1'-0"
140
1.5
141
12.0
290
     0
  0
SCALE
  5
A648
102
{ACAD_REACTORS
330
A639
102
}
330
A639
100
AcDbScale
 70
     0
300
3" = 1'-0"
140
3.0
141
12.0
290
     0
  0
SCALE
  5
A649
102
{ACAD_REACTORS
330
A639
102
}
330
A639
100
AcDbScale
 70
     0
300
6" = 1'-0"
140
6.0
141
12.0
290
     0
  0
SCALE
  5
A64A
102
{ACAD_REACTORS
330
A639
102
}
330
A639
100
AcDbScale
 70
     0
300
1'-0" = 1'-0"
140
12.0
141
12.0
290
     0
  0
ACDBSECTIONVIEWSTYLE
  5
A64E
102
{ACAD_XDICTIONARY
360
A6A9
102
}
102
{ACAD_REACTORS
330
A64D
102
}
330
A64D
100
AcDbModelDocViewStyle
 70
     0
  3
Imperial24
290
     0
100
AcDbSectionViewStyle
 70
     0
 71
     0
 90
       78
 71
     1
340
A3BB
 40
0.24
340
0
340
0
 40
0.24
300
I, O, Q, S, X, Z
 40
0.48
 90
        3
 40
0.18
 90
        1
 71
     2
340
A3BF
 90
       25
340
A3BF
 90
       50
 40
0.24
 40
0.0
 40
0.24
 71
     3
340
A3BB
 40
0.24
 90
        1
 40
0.75
 90
        1
300
%<\AcVar ViewType \f "%tc1">% %<\AcVar ViewSectionStartId>%-%<\AcVar ViewSectionEndId>%\PSCALE %<\AcVar ViewScale \f "%sn">%
 71
     4
300
ANSI31
 40
1.0
 90
        0
290
     0
290
     0
 90
        6
 40
0.0
 40
1.570796326794896
 40
0.2617993877991494
 40
1.308996938995747
 40
-0.2617993877991494
 40
1.832595714594046
  0
TABLESTYLE
  5
A638
102
{ACAD_XDICTIONARY
360
A670
102
}
102
{ACAD_REACTORS
330
A637
102
}
330
A637
100
AcDbTableStyle
  3
Standard
 70
     0
 71
     0
 40
0.06
 41
0.06
280
     0
281
     0
  7
STANDARD
140
0.18
170
     2
 62
     0
 63
     7
283
     0
274
    -2
284
     1
 64
     0
275
    -2
285
     1
 65
     0
276
    -2
286
     1
 66
     0
277
    -2
287
     1
 67
     0
278
    -2
288
     1
 68
     0
279
    -2
289
     1
 69
     0
  7
STANDARD
140
0.25
170
     5
 62
     0
 63
     7
283
     0
274
    -2
284
     1
 64
     0
275
    -2
285
     1
 65
     0
276
    -2
286
     1
 66
     0
277
    -2
287
     1
 67
     0
278
    -2
288
     1
 68
     0
279
    -2
289
     1
 69
     0
  7
STANDARD
140
0.18
170
     5
 62
     0
 63
     7
283
     0
274
    -2
284
     1
 64
     0
275
    -2
285
     1
 65
     0
276
    -2
286
     1
 66
     0
277
    -2
287
     1
 67
     0
278
    -2
288
     1
 68
     0
279
    -2
289
     1
 69
     0
  0
VISUALSTYLE
  5
A623
102
{ACAD_XDICTIONARY
360
A681
102
}
102
{ACAD_REACTORS
330
A61D
102
}
330
A61D
100
AcDbVisualStyle
  2
2dWireframe
 70
     4
 71
     0
 72
     2
 73
     0
 90
        0
 40
-0.6
 41
-30.0
 62
     5
 63
     7
 74
     1
 91
        4
 64
     7
 65
   257
 75
     1
175
     1
 42
1.0
 92
        0
 66
   257
 43
1.0
 76
     1
 77
     6
 78
     2
 67
     7
 79
     5
170
     0
171
     0
290
     0
174
     0
 93
        1
 44
0.0
173
     0
291
     0
 45
0.0
1001
ACAD
1000
AcDbSavedByObjectVersion
1070
     0
  0
VISUALSTYLE
  5
A622
102
{ACAD_XDICTIONARY
360
A67F
102
}
102
{ACAD_REACTORS
330
A61D
102
}
330
A61D
100
AcDbVisualStyle
  2
Basic
 70
     7
 71
     1
 72
     0
 73
     1
 90
        0
 40
-0.6
 41
-30.0
 62
     5
 63
     7
 74
     0
 91
        4
 64
     7
 65
   257
 75
     1
175
     1
 42
1.0
 92
        8
 66
     7
 43
1.0
 76
     1
 77
     6
 78
     2
 67
     7
 79
     5
170
     0
171
     0
290
     0
174
     0
 93
        1
 44
0.0
173
     0
291
     1
 45
0.0
1001
ACAD
1000
AcDbSavedByObjectVersion
1070
     0
  0
VISUALSTYLE
  5
A629
102
{ACAD_XDICTIONARY
360
A68D
102
}
102
{ACAD_REACTORS
330
A61D
102
}
330
A61D
100
AcDbVisualStyle
  2
Brighten
 70
    12
 71
     2
 72
     2
 73
     0
 90
        0
 40
-0.6
 41
-30.0
 62
     5
 63
     7
 74
     1
 91
        4
 64
     7
 65
   257
 75
     1
175
     1
 42
1.0
 92
        8
 66
     7
 43
1.0
 76
     1
 77
     6
 78
     2
 67
     7
 79
     5
170
     0
171
     0
290
     0
174
     0
 93
        1
 44
50.0
173
     0
291
     1
 45
0.0
1001
ACAD
1000
AcDbSavedByObjectVersion
1070
     0
  0
VISUALSTYLE
  5
A62D
102
{ACAD_XDICTIONARY
360
A695
102
}
102
{ACAD_REACTORS
330
A61D
102
}
330
A61D
100
AcDbVisualStyle
  2
ColorChange
 70
    16
 71
     2
 72
     2
 73
     3
 90
        0
 40
-0.6
 41
-30.0
 62
     5
 63
     8
 74
     1
 91
        4
 64
     7
 65
   257
 75
     1
175
     1
 42
1.0
 92
        8
 66
     8
 43
1.0
 76
     1
 77
     6
 78
     2
 67
     7
 79
     5
170
     0
171
     0
290
     0
174
     0
 93
        1
 44
0.0
173
     0
291
     1
 45
0.0
1001
ACAD
1000
AcDbSavedByObjectVersion
1070
     0
  0
VISUALSTYLE
  5
A626
102
{ACAD_XDICTIONARY
360
A687
102
}
102
{ACAD_REACTORS
330
A61D
102
}
330
A61D
100
AcDbVisualStyle
  2
Conceptual
 70
     9
 71
     3
 72
     2
 73
     0
 90
        0
 40
-0.6
 41
-30.0
 62
     5
 63
     7
 74
     2
 91
        2
 64
     7
 65
   257
 75
     1
175
     1
 42
179.0
 92
        8
 66
     7
 43
1.0
 76
     1
 77
     6
 78
     2
 67
     7
 79
     3
170
     0
171
     0
290
     0
174
     0
 93
        1
 44
0.0
173
     0
291
     0
 45
0.0
1001
ACAD
1000
AcDbSavedByObjectVersion
1070
     0
  0
VISUALSTYLE
  5
A628
102
{ACAD_XDICTIONARY
360
A68B
102
}
102
{ACAD_REACTORS
330
A61D
102
}
330
A61D
100
AcDbVisualStyle
  2
Dim
 70
    11
 71
     2
 72
     2
 73
     0
 90
        0
 40
-0.6
 41
-30.0
 62
     5
 63
     7
 74
     1
 91
        4
 64
     7
 65
   257
 75
     1
175
     1
 42
1.0
 92
        8
 66
     7
 43
1.0
 76
     1
 77
     6
 78
     2
 67
     7
 79
     5
170
     0
171
     0
290
     0
174
     0
 93
        1
 44
-50.0
173
     0
291
     1
 45
0.0
1001
ACAD
1000
AcDbSavedByObjectVersion
1070
     0
  0
VISUALSTYLE
  5
A635
102
{ACAD_XDICTIONARY
360
A6A5
102
}
102
{ACAD_REACTORS
330
A61D
102
}
330
A61D
100
AcDbVisualStyle
  2
EdgeColorOff
 70
    22
 71
     2
 72
     2
 73
     0
 90
        0
 40
-0.6
 41
-30.0
 62
     5
 63
     7
 74
     1
 91
        4
 64
     7
 65
   257
 75
     1
175
     1
 42
1.0
 92
        8
 66
     7
 43
1.0
 76
     1
 77
     6
 78
     2
 67
     7
 79
     5
170
     0
171
     0
290
     0
174
     0
 93
        1
 44
0.0
173
     0
291
     1
 45
0.0
1001
ACAD
1000
AcDbSavedByObjectVersion
1070
     0
  0
VISUALSTYLE
  5
A62C
102
{ACAD_XDICTIONARY
360
A693
102
}
102
{ACAD_REACTORS
330
A61D
102
}
330
A61D
100
AcDbVisualStyle
  2
Facepattern
 70
    15
 71
     2
 72
     2
 73
     0
 90
        0
 40
-0.6
 41
-30.0
 62
     5
 63
     7
 74
     1
 91
        4
 64
     7
 65
   257
 75
     1
175
     1
 42
1.0
 92
        8
 66
     7
 43
1.0
 76
     1
 77
     6
 78
     2
 67
     7
 79
     5
170
     0
171
     0
290
     0
174
     0
 93
        1
 44
0.0
173
     0
291
     1
 45
0.0
1001
ACAD
1000
AcDbSavedByObjectVersion
1070
     0
  0
VISUALSTYLE
  5
A61E
102
{ACAD_XDICTIONARY
360
A677
102
}
102
{ACAD_REACTORS
330
A61D
102
}
330
A61D
100
AcDbVisualStyle
  2
Flat
 70
     0
 71
     2
 72
     1
 73
     1
 90
        2
 40
-0.6
 41
30.0
 62
     5
 63
     7
 74
     0
 91
        0
 64
     7
 65
   257
 75
     1
175
     1
 42
1.0
 92
        8
 66
     7
 43
1.0
 76
     1
 77
     6
 78
     2
 67
     7
 79
     5
170
     0
171
     0
290
     0
174
     0
 93
       13
 44
0.0
173
     0
291
     1
 45
0.0
1001
ACAD
1000
AcDbSavedByObjectVersion
1070
     0
  0
VISUALSTYLE
  5
A61F
102
{ACAD_XDICTIONARY
360
A679
102
}
102
{ACAD_REACTORS
330
A61D
102
}
330
A61D
100
AcDbVisualStyle
  2
FlatWithEdges
 70
     1
 71
     2
 72
     1
 73
     1
 90
        2
 40
-0.6
 41
30.0
 62
     5
 63
     7
 74
     1
 91
        0
 64
     7
 65
   257
 75
     1
175
     1
 42
1.0
 92
        0
 66
   257
 43
1.0
 76
     1
 77
     6
 78
     2
 67
     7
 79
     5
170
     0
171
     0
290
     0
174
     0
 93
       13
 44
0.0
173
     0
291
     1
 45
0.0
1001
ACAD
1000
AcDbSavedByObjectVersion
1070
     0
  0
VISUALSTYLE
  5
A620
102
{ACAD_XDICTIONARY
360
A67B
102
}
102
{ACAD_REACTORS
330
A61D
102
}
330
A61D
100
AcDbVisualStyle
  2
Gouraud
 70
     2
 71
     2
 72
     2
 73
     1
 90
        2
 40
-0.6
 41
30.0
 62
     5
 63
     7
 74
     0
 91
        0
 64
     7
 65
   257
 75
     1
175
     1
 42
1.0
 92
        0
 66
     7
 43
1.0
 76
     1
 77
     6
 78
     2
 67
     7
 79
     5
170
     0
171
     0
290
     0
174
     0
 93
       13
 44
0.0
173
     0
291
     1
 45
0.0
1001
ACAD
1000
AcDbSavedByObjectVersion
1070
     0
  0
VISUALSTYLE
  5
A621
102
{ACAD_XDICTIONARY
360
A67D
102
}
102
{ACAD_REACTORS
330
A61D
102
}
330
A61D
100
AcDbVisualStyle
  2
GouraudWithEdges
 70
     3
 71
     2
 72
     2
 73
     1
 90
        2
 40
-0.6
 41
30.0
 62
     5
 63
     7
 74
     1
 91
        0
 64
     7
 65
   257
 75
     1
175
     1
 42
1.0
 92
        0
 66
   257
 43
1.0
 76
     1
 77
     6
 78
     2
 67
     7
 79
     5
170
     0
171
     0
290
     0
174
     0
 93
       13
 44
0.0
173
     0
291
     1
 45
0.0
1001
ACAD
1000
AcDbSavedByObjectVersion
1070
     0
  0
VISUALSTYLE
  5
A625
102
{ACAD_XDICTIONARY
360
A685
102
}
102
{ACAD_REACTORS
330
A61D
102
}
330
A61D
100
AcDbVisualStyle
  2
Hidden
 70
     6
 71
     1
 72
     2
 73
     2
 90
        0
 40
-0.6
 41
-30.0
 62
     5
 63
     7
 74
     2
 91
        2
 64
     7
 65
   257
 75
     2
175
     1
 42
40.0
 92
        0
 66
   257
 43
1.0
 76
     1
 77
     6
 78
     2
 67
     7
 79
     3
170
     0
171
     0
290
     0
174
     0
 93
        1
 44
0.0
173
     0
291
     0
 45
0.0
1001
ACAD
1000
AcDbSavedByObjectVersion
1070
     0
  0
VISUALSTYLE
  5
A633
102
{ACAD_XDICTIONARY
360
A6A1
102
}
102
{ACAD_REACTORS
330
A61D
102
}
330
A61D
100
AcDbVisualStyle
  2
JitterOff
 70
    20
 71
     2
 72
     2
 73
     0
 90
        0
 40
-0.6
 41
-30.0
 62
     5
 63
     7
 74
     1
 91
        4
 64
     7
 65
   257
 75
     1
175
     1
 42
1.0
 92
       10
 66
     7
 43
1.0
 76
     1
 77
     6
 78
     2
 67
     7
 79
     5
170
     0
171
     0
290
     0
174
     0
 93
        1
 44
0.0
173
     0
291
     1
 45
0.0
1001
ACAD
1000
AcDbSavedByObjectVersion
1070
     0
  0
VISUALSTYLE
  5
A62B
102
{ACAD_XDICTIONARY
360
A691
102
}
102
{ACAD_REACTORS
330
A61D
102
}
330
A61D
100
AcDbVisualStyle
  2
Linepattern
 70
    14
 71
     2
 72
     2
 73
     0
 90
        0
 40
-0.6
 41
-30.0
 62
     5
 63
     7
 74
     1
 91
        4
 64
     7
 65
   257
 75
     7
175
     7
 42
1.0
 92
        8
 66
     7
 43
1.0
 76
     1
 77
     6
 78
     2
 67
     7
 79
     5
170
     0
171
     0
290
     0
174
     0
 93
        1
 44
0.0
173
     0
291
     1
 45
0.0
1001
ACAD
1000
AcDbSavedByObjectVersion
1070
     0
  0
VISUALSTYLE
  5
A634
102
{ACAD_XDICTIONARY
360
A6A3
102
}
102
{ACAD_REACTORS
330
A61D
102
}
330
A61D
100
AcDbVisualStyle
  2
OverhangOff
 70
    21
 71
     2
 72
     2
 73
     0
 90
        0
 40
-0.6
 41
-30.0
 62
     5
 63
     7
 74
     1
 91
        4
 64
     7
 65
   257
 75
     1
175
     1
 42
1.0
 92
        9
 66
     7
 43
1.0
 76
     1
 77
     6
 78
     2
 67
     7
 79
     5
170
     0
171
     0
290
     0
174
     0
 93
        1
 44
0.0
173
     0
291
     1
 45
0.0
1001
ACAD
1000
AcDbSavedByObjectVersion
1070
     0
  0
VISUALSTYLE
  5
A627
102
{ACAD_XDICTIONARY
360
A689
102
}
102
{ACAD_REACTORS
330
A61D
102
}
330
A61D
100
AcDbVisualStyle
  2
Realistic
 70
     8
 71
     2
 72
     3
 73
     0
 90
        2
 40
-0.6
 41
30.0
 62
     5
 63
     7
 74
     0
 91
        0
 64
     7
 65
   257
 75
     1
175
     1
 42
1.0
 92
        8
 66
   257
 43
1.0
 76
     1
 77
     6
 78
     2
 67
     7
 79
     3
170
     0
171
     0
290
     0
174
     0
 93
       13
 44
0.0
173
     0
291
     0
 45
0.0
1001
ACAD
1000
AcDbSavedByObjectVersion
1070
     0
  0
VISUALSTYLE
  5
A632
102
{ACAD_XDICTIONARY
360
A69F
102
}
102
{ACAD_REACTORS
330
A61D
102
}
330
A61D
100
AcDbVisualStyle
  2
Shaded
 70
    27
 71
     2
 72
     2
 73
     1
 90
        2
 40
-0.6
 41
30.0
 62
     5
 63
     7
 74
     0
 91
        4
 64
     7
 65
   257
 75
     1
175
     1
 42
1.0
 92
        8
 66
   257
 43
1.0
 76
     1
 77
     6
 78
     2
 67
     8
 79
     3
170
     0
171
     0
290
     0
174
     0
 93
        5
 44
0.0
173
     0
291
     0
 45
0.0
1001
ACAD
1000
AcDbSavedByObjectVersion
1070
     0
  0
VISUALSTYLE
  5
A631
102
{ACAD_XDICTIONARY
360
A69D
102
}
102
{ACAD_REACTORS
330
A61D
102
}
330
A61D
100
AcDbVisualStyle
  2
Shaded with edges
 70
    26
 71
     2
 72
     2
 73
     1
 90
        2
 40
-0.6
 41
30.0
 62
     5
 63
     7
 74
     1
 91
       10
 64
     7
 65
   257
 75
     2
175
     1
 42
1.0
 92
        8
 66
   257
 43
1.0
 76
     1
 77
     6
 78
     2
 67
     7
 79
     3
170
     0
171
     0
290
     0
174
     0
 93
        5
 44
0.0
173
     0
291
     0
 45
0.0
1001
ACAD
1000
AcDbSavedByObjectVersion
1070
     0
  0
VISUALSTYLE
  5
A62E
102
{ACAD_XDICTIONARY
360
A697
102
}
102
{ACAD_REACTORS
330
A61D
102
}
330
A61D
100
AcDbVisualStyle
  2
Shades of Gray
 70
    23
 71
     2
 72
     2
 73
     3
 90
        0
 40
-0.6
 41
-30.0
 62
     5
 63
     7
 74
     2
 91
        2
 64
     7
 65
     7
 75
     1
175
     1
 42
40.0
 92
        8
 66
     7
 43
1.0
 76
     1
 77
     6
 78
     2
 67
     7
 79
     3
170
     0
171
     0
290
     0
174
     0
 93
        1
 44
0.0
173
     0
291
     0
 45
0.0
1001
ACAD
1000
AcDbSavedByObjectVersion
1070
     0
  0
VISUALSTYLE
  5
A62F
102
{ACAD_XDICTIONARY
360
A699
102
}
102
{ACAD_REACTORS
330
A61D
102
}
330
A61D
100
AcDbVisualStyle
  2
Sketchy
 70
    24
 71
     1
 72
     2
 73
     2
 90
        0
 40
-0.6
 41
-30.0
 62
     5
 63
     7
 74
     2
 91
        2
 64
     7
 65
     7
 75
     1
175
     1
 42
40.0
 92
       11
 66
     7
 43
1.0
 76
     1
 77
     6
 78
     2
 67
     7
 79
     6
170
     0
171
     0
290
     0
174
     0
 93
        1
 44
0.0
173
     0
291
     0
 45
0.0
1001
ACAD
1000
AcDbSavedByObjectVersion
1070
     0
  0
VISUALSTYLE
  5
A62A
102
{ACAD_XDICTIONARY
360
A68F
102
}
102
{ACAD_REACTORS
330
A61D
102
}
330
A61D
100
AcDbVisualStyle
  2
Thicken
 70
    13
 71
     2
 72
     2
 73
     0
 90
        0
 40
-0.6
 41
-30.0
 62
     5
 63
     7
 74
     1
 91
        4
 64
     7
 65
   257
 75
     1
175
     1
 42
1.0
 92
       12
 66
     7
 43
1.0
 76
     1
 77
     6
 78
     2
 67
     7
 79
     5
170
     0
171
     0
290
     0
174
     0
 93
        1
 44
0.0
173
     0
291
     1
 45
0.0
1001
ACAD
1000
AcDbSavedByObjectVersion
1070
     0
  0
VISUALSTYLE
  5
A624
102
{ACAD_XDICTIONARY
360
A683
102
}
102
{ACAD_REACTORS
330
A61D
102
}
330
A61D
100
AcDbVisualStyle
  2
Wireframe
 70
     5
 71
     0
 72
     2
 73
     0
 90
        0
 40
-0.6
 41
-30.0
 62
     5
 63
     7
 74
     1
 91
        4
 64
     7
 65
   257
 75
     1
175
     1
 42
1.0
 92
        0
 66
   257
 43
1.0
 76
     1
 77
     6
 78
     2
 67
     7
 79
     3
170
     0
171
     0
290
     0
174
     0
 93
        1
 44
0.0
173
     0
291
     0
 45
0.0
1001
ACAD
1000
AcDbSavedByObjectVersion
1070
     0
  0
VISUALSTYLE
  5
A630
102
{ACAD_XDICTIONARY
360
A69B
102
}
102
{ACAD_REACTORS
330
A61D
102
}
330
A61D
100
AcDbVisualStyle
  2
X-Ray
 70
    25
 71
     2
 72
     2
 73
     1
 90
        1
 40
0.5
 41
-30.0
 62
     5
 63
     7
 74
     1
 91
        0
 64
     7
 65
   257
 75
     1
175
     1
 42
1.0
 92
        8
 66
     7
 43
1.0
 76
     1
 77
     6
 78
     2
 67
     7
 79
     3
170
     0
171
     0
290
     0
174
     0
 93
       13
 44
0.0
173
     0
291
     0
 45
0.0
1001
ACAD
1000
AcDbSavedByObjectVersion
1070
     0
  0
DICTIONARYVAR
  5
A66A
102
{ACAD_REACTORS
330
A665
102
}
330
A665
100
DictionaryVariables
280
     0
  1
1:1
  0
DICTIONARYVAR
  5
A667
102
{ACAD_REACTORS
330
A665
102
}
330
A665
100
DictionaryVariables
280
     0
  1
STANDARD
  0
DICTIONARYVAR
  5
A666
102
{ACAD_REACTORS
330
A665
102
}
330
A665
100
DictionaryVariables
280
     0
  1
STANDARD
  0
DICTIONARYVAR
  5
A668
102
{ACAD_REACTORS
330
A665
102
}
330
A665
100
DictionaryVariables
280
     0
  1
Imperial24
  0
DICTIONARYVAR
  5
A669
102
{ACAD_REACTORS
330
A665
102
}
330
A665
100
DictionaryVariables
280
     0
  1
Imperial24
  0
DICTIONARYVAR
  5
A66D
102
{ACAD_REACTORS
330
A665
102
}
330
A665
100
DictionaryVariables
280
     0
  1
1
  0
DICTIONARYVAR
  5
A66C
102
{ACAD_REACTORS
330
A665
102
}
330
A665
100
DictionaryVariables
280
     0
  1
0
  0
DICTIONARYVAR
  5
A66B
102
{ACAD_REACTORS
330
A665
102
}
330
A665
100
DictionaryVariables
280
     0
  1
127
  0
DICTIONARYVAR
  5
A66E
102
{ACAD_REACTORS
330
A665
102
}
330
A665
100
DictionaryVariables
280
     0
  1
2
  0
DICTIONARY
  5
A6AB
330
A650
100
AcDbDictionary
280
     1
281
     1
  3
ACAD_XREC_ROUNDTRIP
360
A6AC
  0
DICTIONARY
  5
A6AD
330
A651
100
AcDbDictionary
280
     1
281
     1
  3
ACAD_XREC_ROUNDTRIP
360
A6AE
  0
DICTIONARY
  5
A6AF
330
A652
100
AcDbDictionary
280
     1
281
     1
  3
ACAD_XREC_ROUNDTRIP
360
A6B0
  0
DICTIONARY
  5
A60E
330
A60D
100
AcDbDictionary
280
     1
281
     1
  3
ACAD_XREC_ROUNDTRIP
360
A675
  3
BUMPTILE
360
A610
  3
DIFFUSETILE
360
A60F
  3
OPACITYTILE
360
A613
  3
REFLECTIONTILE
360
A612
  3
REFRACTIONTILE
360
A614
  3
SPECULARTILE
360
A611
  0
DICTIONARY
  5
A606
330
A605
100
AcDbDictionary
280
     1
281
     1
  3
ACAD_XREC_ROUNDTRIP
360
A674
  3
BUMPTILE
360
A608
  3
DIFFUSETILE
360
A607
  3
OPACITYTILE
360
A60B
  3
REFLECTIONTILE
360
A60A
  3
REFRACTIONTILE
360
A60C
  3
SPECULARTILE
360
A609
  0
DICTIONARY
  5
A616
330
A615
100
AcDbDictionary
280
     1
281
     1
  3
ACAD_XREC_ROUNDTRIP
360
A676
  3
BUMPTILE
360
A618
  3
DIFFUSETILE
360
A617
  3
OPACITYTILE
360
A61B
  3
REFLECTIONTILE
360
A61A
  3
REFRACTIONTILE
360
A61C
  3
SPECULARTILE
360
A619
  0
DICTIONARY
  5
A6A9
330
A64E
100
AcDbDictionary
280
     1
281
     1
  3
ACAD_XREC_ROUNDTRIP
360
A6AA
  0
DICTIONARY
  5
A670
330
A638
100
AcDbDictionary
280
     1
281
     1
  3
ACAD_ROUNDTRIP_2008_TABLESTYLE_CELLSTYLEMAP
360
A671
  3
ACAD_XREC_ROUNDTRIP
360
A6A7
  0
DICTIONARY
  5
A681
330
A623
100
AcDbDictionary
280
     1
281
     1
  3
ACAD_XREC_ROUNDTRIP
360
A682
  0
DICTIONARY
  5
A67F
330
A622
100
AcDbDictionary
280
     1
281
     1
  3
ACAD_XREC_ROUNDTRIP
360
A680
  0
DICTIONARY
  5
A68D
330
A629
100
AcDbDictionary
280
     1
281
     1
  3
ACAD_XREC_ROUNDTRIP
360
A68E
  0
DICTIONARY
  5
A695
330
A62D
100
AcDbDictionary
280
     1
281
     1
  3
ACAD_XREC_ROUNDTRIP
360
A696
  0
DICTIONARY
  5
A687
330
A626
100
AcDbDictionary
280
     1
281
     1
  3
ACAD_XREC_ROUNDTRIP
360
A688
  0
DICTIONARY
  5
A68B
330
A628
100
AcDbDictionary
280
     1
281
     1
  3
ACAD_XREC_ROUNDTRIP
360
A68C
  0
DICTIONARY
  5
A6A5
330
A635
100
AcDbDictionary
280
     1
281
     1
  3
ACAD_XREC_ROUNDTRIP
360
A6A6
  0
DICTIONARY
  5
A693
330
A62C
100
AcDbDictionary
280
     1
281
     1
  3
ACAD_XREC_ROUNDTRIP
360
A694
  0
DICTIONARY
  5
A677
330
A61E
100
AcDbDictionary
280
     1
281
     1
  3
ACAD_XREC_ROUNDTRIP
360
A678
  0
DICTIONARY
  5
A679
330
A61F
100
AcDbDictionary
280
     1
281
     1
  3
ACAD_XREC_ROUNDTRIP
360
A67A
  0
DICTIONARY
  5
A67B
330
A620
100
AcDbDictionary
280
     1
281
     1
  3
ACAD_XREC_ROUNDTRIP
360
A67C
  0
DICTIONARY
  5
A67D
330
A621
100
AcDbDictionary
280
     1
281
     1
  3
ACAD_XREC_ROUNDTRIP
360
A67E
  0
DICTIONARY
  5
A685
330
A625
100
AcDbDictionary
280
     1
281
     1
  3
ACAD_XREC_ROUNDTRIP
360
A686
  0
DICTIONARY
  5
A6A1
330
A633
100
AcDbDictionary
280
     1
281
     1
  3
ACAD_XREC_ROUNDTRIP
360
A6A2
  0
DICTIONARY
  5
A691
330
A62B
100
AcDbDictionary
280
     1
281
     1
  3
ACAD_XREC_ROUNDTRIP
360
A692
  0
DICTIONARY
  5
A6A3
330
A634
100
AcDbDictionary
280
     1
281
     1
  3
ACAD_XREC_ROUNDTRIP
360
A6A4
  0
DICTIONARY
  5
A689
330
A627
100
AcDbDictionary
280
     1
281
     1
  3
ACAD_XREC_ROUNDTRIP
360
A68A
  0
DICTIONARY
  5
A69F
330
A632
100
AcDbDictionary
280
     1
281
     1
  3
ACAD_XREC_ROUNDTRIP
360
A6A0
  0
DICTIONARY
  5
A69D
330
A631
100
AcDbDictionary
280
     1
281
     1
  3
ACAD_XREC_ROUNDTRIP
360
A69E
  0
DICTIONARY
  5
A697
330
A62E
100
AcDbDictionary
280
     1
281
     1
  3
ACAD_XREC_ROUNDTRIP
360
A698
  0
DICTIONARY
  5
A699
330
A62F
100
AcDbDictionary
280
     1
281
     1
  3
ACAD_XREC_ROUNDTRIP
360
A69A
  0
DICTIONARY
  5
A68F
330
A62A
100
AcDbDictionary
280
     1
281
     1
  3
ACAD_XREC_ROUNDTRIP
360
A690
  0
DICTIONARY
  5
A683
330
A624
100
AcDbDictionary
280
     1
281
     1
  3
ACAD_XREC_ROUNDTRIP
360
A684
  0
DICTIONARY
  5
A69B
330
A630
100
AcDbDictionary
280
     1
281
     1
  3
ACAD_XREC_ROUNDTRIP
360
A69C
  0
XRECORD
  5
A6AC
102
{ACAD_REACTORS
330
A6AB
102
}
330
A6AB
100
AcDbXrecord
280
     1
102
DISPLAYNAME
  1
Imperial24
102
FLAGS
 90
        0
  0
XRECORD
  5
A6AE
102
{ACAD_REACTORS
330
A6AD
102
}
330
A6AD
100
AcDbXrecord
280
     1
102
SHADEPLOT
 70
     0
102
SHADEPLOTRESLEVEL
 70
     2
102
SHADEPLOTCUSTOMDPI
 70
   300
  0
XRECORD
  5
A6B0
102
{ACAD_REACTORS
330
A6AF
102
}
330
A6AF
100
AcDbXrecord
280
     1
102
SHADEPLOT
 70
     0
102
SHADEPLOTRESLEVEL
 70
     2
102
SHADEPLOTCUSTOMDPI
 70
   300
  0
XRECORD
  5
A675
102
{ACAD_REACTORS
330
A60E
102
}
330
A60E
100
AcDbXrecord
280
     1
102
MATERIAL
148
0.0
149
0.0
149
0.0
 93
        0
 94
      127
282
     0
 72
     0
 77
     0
171
     0
175
     0
179
     0
273
     0
  0
XRECORD
  5
A610
102
{ACAD_REACTORS
330
A60E
102
}
330
A60E
100
AcDbXrecord
280
     1
270
     1
271
     1
  0
XRECORD
  5
A60F
102
{ACAD_REACTORS
330
A60E
102
}
330
A60E
100
AcDbXrecord
280
     1
270
     1
271
     1
  0
XRECORD
  5
A613
102
{ACAD_REACTORS
330
A60E
102
}
330
A60E
100
AcDbXrecord
280
     1
270
     1
271
     1
  0
XRECORD
  5
A612
102
{ACAD_REACTORS
330
A60E
102
}
330
A60E
100
AcDbXrecord
280
     1
270
     1
271
     1
  0
XRECORD
  5
A614
102
{ACAD_REACTORS
330
A60E
102
}
330
A60E
100
AcDbXrecord
280
     1
270
     1
271
     1
  0
XRECORD
  5
A611
102
{ACAD_REACTORS
330
A60E
102
}
330
A60E
100
AcDbXrecord
280
     1
270
     1
271
     1
  0
XRECORD
  5
A674
102
{ACAD_REACTORS
330
A606
102
}
330
A606
100
AcDbXrecord
280
     1
102
MATERIAL
148
0.0
149
0.0
149
0.0
 93
        0
 94
      127
282
     0
 72
     0
 77
     0
171
     0
175
     0
179
     0
273
     0
  0
XRECORD
  5
A608
102
{ACAD_REACTORS
330
A606
102
}
330
A606
100
AcDbXrecord
280
     1
270
     1
271
     1
  0
XRECORD
  5
A607
102
{ACAD_REACTORS
330
A606
102
}
330
A606
100
AcDbXrecord
280
     1
270
     1
271
     1
  0
XRECORD
  5
A60B
102
{ACAD_REACTORS
330
A606
102
}
330
A606
100
AcDbXrecord
280
     1
270
     1
271
     1
  0
XRECORD
  5
A60A
102
{ACAD_REACTORS
330
A606
102
}
330
A606
100
AcDbXrecord
280
     1
270
     1
271
     1
  0
XRECORD
  5
A60C
102
{ACAD_REACTORS
330
A606
102
}
330
A606
100
AcDbXrecord
280
     1
270
     1
271
     1
  0
XRECORD
  5
A609
102
{ACAD_REACTORS
330
A606
102
}
330
A606
100
AcDbXrecord
280
     1
270
     1
271
     1
  0
XRECORD
  5
A676
102
{ACAD_REACTORS
330
A616
102
}
330
A616
100
AcDbXrecord
280
     1
102
MATERIAL
148
0.0
149
0.0
149
0.0
 93
        0
 94
      127
282
     0
 72
     0
 77
     0
171
     0
175
     0
179
     0
273
     0
  0
XRECORD
  5
A618
102
{ACAD_REACTORS
330
A616
102
}
330
A616
100
AcDbXrecord
280
     1
270
     1
271
     1
  0
XRECORD
  5
A617
102
{ACAD_REACTORS
330
A616
102
}
330
A616
100
AcDbXrecord
280
     1
270
     1
271
     1
  0
XRECORD
  5
A61B
102
{ACAD_REACTORS
330
A616
102
}
330
A616
100
AcDbXrecord
280
     1
270
     1
271
     1
  0
XRECORD
  5
A61A
102
{ACAD_REACTORS
330
A616
102
}
330
A616
100
AcDbXrecord
280
     1
270
     1
271
     1
  0
XRECORD
  5
A61C
102
{ACAD_REACTORS
330
A616
102
}
330
A616
100
AcDbXrecord
280
     1
270
     1
271
     1
  0
XRECORD
  5
A619
102
{ACAD_REACTORS
330
A616
102
}
330
A616
100
AcDbXrecord
280
     1
270
     1
271
     1
  0
XRECORD
  5
A6AA
102
{ACAD_REACTORS
330
A6A9
102
}
330
A6A9
100
AcDbXrecord
280
     1
102
DISPLAYNAME
  1
Imperial24
102
FLAGS
 90
        0
  0
CELLSTYLEMAP
  5
A671
102
{ACAD_REACTORS
330
A670
102
}
330
A670
100
AcDbCellStyleMap
 90
        3
300
CELLSTYLE
  1
TABLEFORMAT_BEGIN
 90
        5
170
     1
 91
        0
 92
    32768
 62
   257
 93
        1
300
CONTENTFORMAT
  1
CONTENTFORMAT_BEGIN
 90
        0
 91
        0
 92
      512
 93
        0
300

 40
0.0
140
1.0
 94
        5
 62
     0
340
A3BB
144
0.25
309
CONTENTFORMAT_END
171
     0
 94
        0
309
TABLEFORMAT_END
  1
CELLSTYLE_BEGIN
 90
        1
 91
        1
300
_TITLE
309
CELLSTYLE_END
300
CELLSTYLE
  1
TABLEFORMAT_BEGIN
 90
        5
170
     1
 91
        0
 92
        0
 62
   257
 93
        1
300
CONTENTFORMAT
  1
CONTENTFORMAT_BEGIN
 90
        0
 91
        0
 92
      512
 93
        0
300

 40
0.0
140
1.0
 94
        5
 62
     0
340
A3BB
144
0.18
309
CONTENTFORMAT_END
171
     0
 94
        0
309
TABLEFORMAT_END
  1
CELLSTYLE_BEGIN
 90
        2
 91
        1
300
_HEADER
309
CELLSTYLE_END
300
CELLSTYLE
  1
TABLEFORMAT_BEGIN
 90
        5
170
     1
 91
        0
 92
        0
 62
   257
 93
        1
300
CONTENTFORMAT
  1
CONTENTFORMAT_BEGIN
 90
        0
 91
        0
 92
      512
 93
        0
300

 40
0.0
140
1.0
 94
        2
 62
     0
340
A3BB
144
0.18
309
CONTENTFORMAT_END
171
     0
 94
        0
309
TABLEFORMAT_END
  1
CELLSTYLE_BEGIN
 90
        3
 91
        2
300
_DATA
309
CELLSTYLE_END
  0
XRECORD
  5
A6A7
102
{ACAD_REACTORS
330
A670
102
}
330
A670
100
AcDbXrecord
280
     1
102
ACAD_ROUNDTRIP_PRE2007_TABLESTYLE
 90
      512
 91
        0
  1

 92
      512
 93
        0
  2

 94
      512
 95
        0
  3

  0
XRECORD
  5
A682
102
{ACAD_REACTORS
330
A681
102
}
330
A681
100
AcDbXrecord
280
     1
102
RTVSPost2010Prop28
280
     1
102
RTVSPost2010PropOp28
 70
     1
102
RTVSPost2010Prop29
280
     1
102
RTVSPost2010PropOp29
 70
     1
102
RTVSPost2010Prop30
280
     0
102
RTVSPost2010PropOp30
 70
     1
102
RTVSPost2010Prop31
280
     0
102
RTVSPost2010PropOp31
 70
     1
102
RTVSPost2010Prop32
280
     0
102
RTVSPost2010PropOp32
 70
     1
102
RTVSPost2010Prop33
280
     0
102
RTVSPost2010PropOp33
 70
     1
102
RTVSPost2010Prop34
280
     0
102
RTVSPost2010PropOp34
 70
     1
102
RTVSPost2010Prop35
280
     0
102
RTVSPost2010PropOp35
 70
     1
102
RTVSPost2010Prop36
280
     0
102
RTVSPost2010PropOp36
 70
     1
102
RTVSPost2010Prop37
 90
       50
102
RTVSPost2010PropOp37
 70
     1
102
RTVSPost2010Prop38
140
0.0
102
RTVSPost2010PropOp38
 70
     1
102
RTVSPost2010Prop39
140
1.0
102
RTVSPost2010PropOp39
 70
     1
102
RTVSPost2010Prop40
 90
        0
102
RTVSPost2010PropOp40
 70
     1
102
RTVSPost2010Prop41ColorIndex
 90
       18
102
RTVSPost2010Prop41ColorRGB
 90
        0
102
RTVSPost2010PropOp41
 70
     1
102
RTVSPost2010Prop42
 90
       50
102
RTVSPost2010PropOp42
 70
     1
102
RTVSPost2010Prop43
 90
        3
102
RTVSPost2010PropOp43
 70
     1
102
RTVSPost2010Prop44ColorIndex
 90
        5
102
RTVSPost2010Prop44ColorRGB
 90
      255
102
RTVSPost2010PropOp44
 70
     1
102
RTVSPost2010Prop45
280
     0
102
RTVSPost2010PropOp45
 70
     1
102
RTVSPost2010Prop46
 90
       50
102
RTVSPost2010PropOp46
 70
     1
102
RTVSPost2010Prop47
 90
       50
102
RTVSPost2010PropOp47
 70
     1
102
RTVSPost2010Prop48
 90
       50
102
RTVSPost2010PropOp48
 70
     1
102
RTVSPost2010Prop49
280
     0
102
RTVSPost2010PropOp49
 70
     1
102
RTVSPost2010Prop50
 90
       50
102
RTVSPost2010PropOp50
 70
     1
102
RTVSPost2010Prop51ColorIndex
 90
      256
102
RTVSPost2010Prop51ColorRGB
 90
-16777216
102
RTVSPost2010PropOp51
 70
     0
102
RTVSPost2010Prop52
140
1.0
102
RTVSPost2010PropOp52
 70
     0
102
RTVSPost2010Prop53
 90
        2
102
RTVSPost2010PropOp53
 70
     1
102
RTVSPost2010Prop54
  1
strokes_ogs.tif
102
RTVSPost2010PropOp54
 70
     1
102
RTVSPost2010Prop55
280
     0
102
RTVSPost2010PropOp55
 70
     1
102
RTVSPost2010Prop56
140
1.0
102
RTVSPost2010PropOp56
 70
     1
102
RTVSPost2010Prop57
140
1.0
102
RTVSPost2010PropOp57
 70
     1
102
RTVSPropertyOp0
 70
     1
102
RTVSPropertyOp1
 70
     1
102
RTVSPropertyOp2
 70
     1
102
RTVSPropertyOp3
 70
     1
102
RTVSPropertyOp4
 70
     1
102
RTVSPropertyOp5
 70
     1
102
RTVSPropertyOp6
 70
     1
102
RTVSPropertyOp7
 70
     1
102
RTVSPropertyOp8
 70
     1
102
RTVSPropertyOp9
 70
     1
102
RTVSPropertyOp10
 70
     1
102
RTVSPropertyOp11
 70
     1
102
RTVSPropertyOp12
 70
     1
102
RTVSPropertyOp13
 70
     1
102
RTVSPropertyOp14
 70
     1
102
RTVSPropertyOp15
 70
     1
102
RTVSPropertyOp16
 70
     1
102
RTVSPropertyOp17
 70
     1
102
RTVSPropertyOp18
 70
     1
102
RTVSPropertyOp19
 70
     1
102
RTVSPropertyOp20
 70
     1
102
RTVSPropertyOp21
 70
     1
102
RTVSPropertyOp22
 70
     1
102
RTVSPropertyOp23
 70
     1
102
RTVSPropertyOp24
 70
     1
102
RTVSPropertyOp25
 70
     1
102
RTVSPropertyOp26
 70
     1
102
RTVSPropertyOp27
 70
     1
102
RTVSPropertyOp28
 70
     1
102
RTVSPropertyOp29
 70
     1
102
RTVSPropertyOp30
 70
     1
102
RTVSPropertyOp31
 70
     1
102
RTVSPropertyOp32
 70
     1
102
RTVSPropertyOp33
 70
     1
102
RTVSPropertyOp34
 70
     1
102
RTVSPropertyOp35
 70
     1
102
RTVSPropertyOp36
 70
     1
102
RTVSPropertyOp37
 70
     1
102
RTVSPropertyOp38
 70
     1
102
RTVSPropertyOp39
 70
     1
102
RTVSPropertyOp40
 70
     1
102
RTVSPropertyOp41
 70
     1
102
RTVSPropertyOp42
 70
     1
102
RTVSPropertyOp43
 70
     1
102
RTVSPropertyOp44
 70
     1
102
RTVSPropertyOp45
 70
     1
102
RTVSPropertyOp46
 70
     1
102
RTVSPropertyOp47
 70
     1
102
RTVSPropertyOp48
 70
     1
102
RTVSPropertyOp49
 70
     1
102
RTVSPropertyOp50
 70
     1
102
RTVSPropertyOp51
 70
     0
102
RTVSPropertyOp52
 70
     0
102
RTVSPropertyOp53
 70
     1
102
RTVSPropertyOp54
 70
     1
102
RTVSPropertyOp55
 70
     1
102
RTVSPropertyOp56
 70
     1
102
RTVSPropertyOp57
 70
     1
102
RTVSPropertyOp58
 70
     1
102
RTVSPropertyOp59
 70
     1
102
RTVSPropertyOp60
 70
     1
102
RTVSPropertyOp61
 70
     1
102
RTVSPropertyOp62
 70
     1
  0
XRECORD
  5
A680
102
{ACAD_REACTORS
330
A67F
102
}
330
A67F
100
AcDbXrecord
280
     1
102
RTVSPost2010Prop28
280
     0
102
RTVSPost2010PropOp28
 70
     1
102
RTVSPost2010Prop29
280
     1
102
RTVSPost2010PropOp29
 70
     1
102
RTVSPost2010Prop30
280
     1
102
RTVSPost2010PropOp30
 70
     1
102
RTVSPost2010Prop31
280
     0
102
RTVSPost2010PropOp31
 70
     1
102
RTVSPost2010Prop32
280
     0
102
RTVSPost2010PropOp32
 70
     1
102
RTVSPost2010Prop33
280
     0
102
RTVSPost2010PropOp33
 70
     1
102
RTVSPost2010Prop34
280
     0
102
RTVSPost2010PropOp34
 70
     1
102
RTVSPost2010Prop35
280
     0
102
RTVSPost2010PropOp35
 70
     1
102
RTVSPost2010Prop36
280
     0
102
RTVSPost2010PropOp36
 70
     1
102
RTVSPost2010Prop37
 90
       50
102
RTVSPost2010PropOp37
 70
     1
102
RTVSPost2010Prop38
140
0.0
102
RTVSPost2010PropOp38
 70
     1
102
RTVSPost2010Prop39
140
1.0
102
RTVSPost2010PropOp39
 70
     1
102
RTVSPost2010Prop40
 90
        0
102
RTVSPost2010PropOp40
 70
     1
102
RTVSPost2010Prop41ColorIndex
 90
       18
102
RTVSPost2010Prop41ColorRGB
 90
        0
102
RTVSPost2010PropOp41
 70
     1
102
RTVSPost2010Prop42
 90
       50
102
RTVSPost2010PropOp42
 70
     1
102
RTVSPost2010Prop43
 90
        3
102
RTVSPost2010PropOp43
 70
     1
102
RTVSPost2010Prop44ColorIndex
 90
        5
102
RTVSPost2010Prop44ColorRGB
 90
      255
102
RTVSPost2010PropOp44
 70
     1
102
RTVSPost2010Prop45
280
     0
102
RTVSPost2010PropOp45
 70
     1
102
RTVSPost2010Prop46
 90
       50
102
RTVSPost2010PropOp46
 70
     1
102
RTVSPost2010Prop47
 90
       50
102
RTVSPost2010PropOp47
 70
     1
102
RTVSPost2010Prop48
 90
       50
102
RTVSPost2010PropOp48
 70
     1
102
RTVSPost2010Prop49
280
     0
102
RTVSPost2010PropOp49
 70
     1
102
RTVSPost2010Prop50
 90
       50
102
RTVSPost2010PropOp50
 70
     1
102
RTVSPost2010Prop51ColorIndex
 90
      256
102
RTVSPost2010Prop51ColorRGB
 90
-16777216
102
RTVSPost2010PropOp51
 70
     0
102
RTVSPost2010Prop52
140
1.0
102
RTVSPost2010PropOp52
 70
     0
102
RTVSPost2010Prop53
 90
        2
102
RTVSPost2010PropOp53
 70
     1
102
RTVSPost2010Prop54
  1
strokes_ogs.tif
102
RTVSPost2010PropOp54
 70
     1
102
RTVSPost2010Prop55
280
     0
102
RTVSPost2010PropOp55
 70
     1
102
RTVSPost2010Prop56
140
1.0
102
RTVSPost2010PropOp56
 70
     1
102
RTVSPost2010Prop57
140
1.0
102
RTVSPost2010PropOp57
 70
     1
102
RTVSPropertyOp0
 70
     1
102
RTVSPropertyOp1
 70
     1
102
RTVSPropertyOp2
 70
     1
102
RTVSPropertyOp3
 70
     1
102
RTVSPropertyOp4
 70
     1
102
RTVSPropertyOp5
 70
     1
102
RTVSPropertyOp6
 70
     1
102
RTVSPropertyOp7
 70
     1
102
RTVSPropertyOp8
 70
     1
102
RTVSPropertyOp9
 70
     1
102
RTVSPropertyOp10
 70
     1
102
RTVSPropertyOp11
 70
     1
102
RTVSPropertyOp12
 70
     1
102
RTVSPropertyOp13
 70
     1
102
RTVSPropertyOp14
 70
     1
102
RTVSPropertyOp15
 70
     1
102
RTVSPropertyOp16
 70
     1
102
RTVSPropertyOp17
 70
     1
102
RTVSPropertyOp18
 70
     1
102
RTVSPropertyOp19
 70
     1
102
RTVSPropertyOp20
 70
     1
102
RTVSPropertyOp21
 70
     1
102
RTVSPropertyOp22
 70
     1
102
RTVSPropertyOp23
 70
     1
102
RTVSPropertyOp24
 70
     1
102
RTVSPropertyOp25
 70
     1
102
RTVSPropertyOp26
 70
     1
102
RTVSPropertyOp27
 70
     1
102
RTVSPropertyOp28
 70
     1
102
RTVSPropertyOp29
 70
     1
102
RTVSPropertyOp30
 70
     1
102
RTVSPropertyOp31
 70
     1
102
RTVSPropertyOp32
 70
     1
102
RTVSPropertyOp33
 70
     1
102
RTVSPropertyOp34
 70
     1
102
RTVSPropertyOp35
 70
     1
102
RTVSPropertyOp36
 70
     1
102
RTVSPropertyOp37
 70
     1
102
RTVSPropertyOp38
 70
     1
102
RTVSPropertyOp39
 70
     1
102
RTVSPropertyOp40
 70
     1
102
RTVSPropertyOp41
 70
     1
102
RTVSPropertyOp42
 70
     1
102
RTVSPropertyOp43
 70
     1
102
RTVSPropertyOp44
 70
     1
102
RTVSPropertyOp45
 70
     1
102
RTVSPropertyOp46
 70
     1
102
RTVSPropertyOp47
 70
     1
102
RTVSPropertyOp48
 70
     1
102
RTVSPropertyOp49
 70
     1
102
RTVSPropertyOp50
 70
     1
102
RTVSPropertyOp51
 70
     0
102
RTVSPropertyOp52
 70
     0
102
RTVSPropertyOp53
 70
     1
102
RTVSPropertyOp54
 70
     1
102
RTVSPropertyOp55
 70
     1
102
RTVSPropertyOp56
 70
     1
102
RTVSPropertyOp57
 70
     1
102
RTVSPropertyOp58
 70
     1
102
RTVSPropertyOp59
 70
     1
102
RTVSPropertyOp60
 70
     1
102
RTVSPropertyOp61
 70
     1
102
RTVSPropertyOp62
 70
     1
  0
XRECORD
  5
A68E
102
{ACAD_REACTORS
330
A68D
102
}
330
A68D
100
AcDbXrecord
280
     1
102
RTVSPost2010Prop28
280
     0
102
RTVSPost2010PropOp28
 70
     1
102
RTVSPost2010Prop29
280
     1
102
RTVSPost2010PropOp29
 70
     1
102
RTVSPost2010Prop30
280
     1
102
RTVSPost2010PropOp30
 70
     1
102
RTVSPost2010Prop31
280
     0
102
RTVSPost2010PropOp31
 70
     1
102
RTVSPost2010Prop32
280
     0
102
RTVSPost2010PropOp32
 70
     1
102
RTVSPost2010Prop33
280
     0
102
RTVSPost2010PropOp33
 70
     1
102
RTVSPost2010Prop34
280
     0
102
RTVSPost2010PropOp34
 70
     1
102
RTVSPost2010Prop35
280
     0
102
RTVSPost2010PropOp35
 70
     1
102
RTVSPost2010Prop36
280
     0
102
RTVSPost2010PropOp36
 70
     1
102
RTVSPost2010Prop37
 90
       50
102
RTVSPost2010PropOp37
 70
     1
102
RTVSPost2010Prop38
140
0.0
102
RTVSPost2010PropOp38
 70
     1
102
RTVSPost2010Prop39
140
1.0
102
RTVSPost2010PropOp39
 70
     1
102
RTVSPost2010Prop40
 90
        0
102
RTVSPost2010PropOp40
 70
     1
102
RTVSPost2010Prop41ColorIndex
 90
       18
102
RTVSPost2010Prop41ColorRGB
 90
        0
102
RTVSPost2010PropOp41
 70
     1
102
RTVSPost2010Prop42
 90
       50
102
RTVSPost2010PropOp42
 70
     1
102
RTVSPost2010Prop43
 90
        3
102
RTVSPost2010PropOp43
 70
     1
102
RTVSPost2010Prop44ColorIndex
 90
        5
102
RTVSPost2010Prop44ColorRGB
 90
      255
102
RTVSPost2010PropOp44
 70
     1
102
RTVSPost2010Prop45
280
     0
102
RTVSPost2010PropOp45
 70
     1
102
RTVSPost2010Prop46
 90
       50
102
RTVSPost2010PropOp46
 70
     1
102
RTVSPost2010Prop47
 90
       50
102
RTVSPost2010PropOp47
 70
     1
102
RTVSPost2010Prop48
 90
       50
102
RTVSPost2010PropOp48
 70
     1
102
RTVSPost2010Prop49
280
     0
102
RTVSPost2010PropOp49
 70
     1
102
RTVSPost2010Prop50
 90
       50
102
RTVSPost2010PropOp50
 70
     1
102
RTVSPost2010Prop51ColorIndex
 90
      256
102
RTVSPost2010Prop51ColorRGB
 90
-16777216
102
RTVSPost2010PropOp51
 70
     0
102
RTVSPost2010Prop52
140
1.0
102
RTVSPost2010PropOp52
 70
     0
102
RTVSPost2010Prop53
 90
        2
102
RTVSPost2010PropOp53
 70
     1
102
RTVSPost2010Prop54
  1
strokes_ogs.tif
102
RTVSPost2010PropOp54
 70
     1
102
RTVSPost2010Prop55
280
     0
102
RTVSPost2010PropOp55
 70
     1
102
RTVSPost2010Prop56
140
1.0
102
RTVSPost2010PropOp56
 70
     1
102
RTVSPost2010Prop57
140
1.0
102
RTVSPost2010PropOp57
 70
     1
102
RTVSPropertyOp0
 70
     1
102
RTVSPropertyOp1
 70
     1
102
RTVSPropertyOp2
 70
     1
102
RTVSPropertyOp3
 70
     1
102
RTVSPropertyOp4
 70
     1
102
RTVSPropertyOp5
 70
     1
102
RTVSPropertyOp6
 70
     1
102
RTVSPropertyOp7
 70
     1
102
RTVSPropertyOp8
 70
     1
102
RTVSPropertyOp9
 70
     1
102
RTVSPropertyOp10
 70
     1
102
RTVSPropertyOp11
 70
     1
102
RTVSPropertyOp12
 70
     1
102
RTVSPropertyOp13
 70
     1
102
RTVSPropertyOp14
 70
     1
102
RTVSPropertyOp15
 70
     1
102
RTVSPropertyOp16
 70
     1
102
RTVSPropertyOp17
 70
     1
102
RTVSPropertyOp18
 70
     1
102
RTVSPropertyOp19
 70
     1
102
RTVSPropertyOp20
 70
     1
102
RTVSPropertyOp21
 70
     1
102
RTVSPropertyOp22
 70
     1
102
RTVSPropertyOp23
 70
     1
102
RTVSPropertyOp24
 70
     1
102
RTVSPropertyOp25
 70
     1
102
RTVSPropertyOp26
 70
     1
102
RTVSPropertyOp27
 70
     1
102
RTVSPropertyOp28
 70
     1
102
RTVSPropertyOp29
 70
     1
102
RTVSPropertyOp30
 70
     1
102
RTVSPropertyOp31
 70
     1
102
RTVSPropertyOp32
 70
     1
102
RTVSPropertyOp33
 70
     1
102
RTVSPropertyOp34
 70
     1
102
RTVSPropertyOp35
 70
     1
102
RTVSPropertyOp36
 70
     1
102
RTVSPropertyOp37
 70
     1
102
RTVSPropertyOp38
 70
     1
102
RTVSPropertyOp39
 70
     1
102
RTVSPropertyOp40
 70
     1
102
RTVSPropertyOp41
 70
     1
102
RTVSPropertyOp42
 70
     1
102
RTVSPropertyOp43
 70
     1
102
RTVSPropertyOp44
 70
     1
102
RTVSPropertyOp45
 70
     1
102
RTVSPropertyOp46
 70
     1
102
RTVSPropertyOp47
 70
     1
102
RTVSPropertyOp48
 70
     1
102
RTVSPropertyOp49
 70
     1
102
RTVSPropertyOp50
 70
     1
102
RTVSPropertyOp51
 70
     0
102
RTVSPropertyOp52
 70
     0
102
RTVSPropertyOp53
 70
     1
102
RTVSPropertyOp54
 70
     1
102
RTVSPropertyOp55
 70
     1
102
RTVSPropertyOp56
 70
     1
102
RTVSPropertyOp57
 70
     1
102
RTVSPropertyOp58
 70
     1
102
RTVSPropertyOp59
 70
     1
102
RTVSPropertyOp60
 70
     1
102
RTVSPropertyOp61
 70
     1
102
RTVSPropertyOp62
 70
     1
  0
XRECORD
  5
A696
102
{ACAD_REACTORS
330
A695
102
}
330
A695
100
AcDbXrecord
280
     1
102
RTVSPost2010Prop28
280
     0
102
RTVSPost2010PropOp28
 70
     1
102
RTVSPost2010Prop29
280
     1
102
RTVSPost2010PropOp29
 70
     1
102
RTVSPost2010Prop30
280
     1
102
RTVSPost2010PropOp30
 70
     1
102
RTVSPost2010Prop31
280
     0
102
RTVSPost2010PropOp31
 70
     1
102
RTVSPost2010Prop32
280
     0
102
RTVSPost2010PropOp32
 70
     1
102
RTVSPost2010Prop33
280
     0
102
RTVSPost2010PropOp33
 70
     1
102
RTVSPost2010Prop34
280
     0
102
RTVSPost2010PropOp34
 70
     1
102
RTVSPost2010Prop35
280
     0
102
RTVSPost2010PropOp35
 70
     1
102
RTVSPost2010Prop36
280
     0
102
RTVSPost2010PropOp36
 70
     1
102
RTVSPost2010Prop37
 90
       50
102
RTVSPost2010PropOp37
 70
     1
102
RTVSPost2010Prop38
140
0.0
102
RTVSPost2010PropOp38
 70
     1
102
RTVSPost2010Prop39
140
1.0
102
RTVSPost2010PropOp39
 70
     1
102
RTVSPost2010Prop40
 90
        0
102
RTVSPost2010PropOp40
 70
     1
102
RTVSPost2010Prop41ColorIndex
 90
       18
102
RTVSPost2010Prop41ColorRGB
 90
        0
102
RTVSPost2010PropOp41
 70
     1
102
RTVSPost2010Prop42
 90
       50
102
RTVSPost2010PropOp42
 70
     1
102
RTVSPost2010Prop43
 90
        3
102
RTVSPost2010PropOp43
 70
     1
102
RTVSPost2010Prop44ColorIndex
 90
        5
102
RTVSPost2010Prop44ColorRGB
 90
      255
102
RTVSPost2010PropOp44
 70
     1
102
RTVSPost2010Prop45
280
     0
102
RTVSPost2010PropOp45
 70
     1
102
RTVSPost2010Prop46
 90
       50
102
RTVSPost2010PropOp46
 70
     1
102
RTVSPost2010Prop47
 90
       50
102
RTVSPost2010PropOp47
 70
     1
102
RTVSPost2010Prop48
 90
       50
102
RTVSPost2010PropOp48
 70
     1
102
RTVSPost2010Prop49
280
     0
102
RTVSPost2010PropOp49
 70
     1
102
RTVSPost2010Prop50
 90
       50
102
RTVSPost2010PropOp50
 70
     1
102
RTVSPost2010Prop51ColorIndex
 90
      256
102
RTVSPost2010Prop51ColorRGB
 90
-16777216
102
RTVSPost2010PropOp51
 70
     0
102
RTVSPost2010Prop52
140
1.0
102
RTVSPost2010PropOp52
 70
     0
102
RTVSPost2010Prop53
 90
        2
102
RTVSPost2010PropOp53
 70
     1
102
RTVSPost2010Prop54
  1
strokes_ogs.tif
102
RTVSPost2010PropOp54
 70
     1
102
RTVSPost2010Prop55
280
     0
102
RTVSPost2010PropOp55
 70
     1
102
RTVSPost2010Prop56
140
1.0
102
RTVSPost2010PropOp56
 70
     1
102
RTVSPost2010Prop57
140
1.0
102
RTVSPost2010PropOp57
 70
     1
102
RTVSPropertyOp0
 70
     1
102
RTVSPropertyOp1
 70
     1
102
RTVSPropertyOp2
 70
     1
102
RTVSPropertyOp3
 70
     1
102
RTVSPropertyOp4
 70
     1
102
RTVSPropertyOp5
 70
     1
102
RTVSPropertyOp6
 70
     1
102
RTVSPropertyOp7
 70
     1
102
RTVSPropertyOp8
 70
     1
102
RTVSPropertyOp9
 70
     1
102
RTVSPropertyOp10
 70
     1
102
RTVSPropertyOp11
 70
     1
102
RTVSPropertyOp12
 70
     1
102
RTVSPropertyOp13
 70
     1
102
RTVSPropertyOp14
 70
     1
102
RTVSPropertyOp15
 70
     1
102
RTVSPropertyOp16
 70
     1
102
RTVSPropertyOp17
 70
     1
102
RTVSPropertyOp18
 70
     1
102
RTVSPropertyOp19
 70
     1
102
RTVSPropertyOp20
 70
     1
102
RTVSPropertyOp21
 70
     1
102
RTVSPropertyOp22
 70
     1
102
RTVSPropertyOp23
 70
     1
102
RTVSPropertyOp24
 70
     1
102
RTVSPropertyOp25
 70
     1
102
RTVSPropertyOp26
 70
     1
102
RTVSPropertyOp27
 70
     1
102
RTVSPropertyOp28
 70
     1
102
RTVSPropertyOp29
 70
     1
102
RTVSPropertyOp30
 70
     1
102
RTVSPropertyOp31
 70
     1
102
RTVSPropertyOp32
 70
     1
102
RTVSPropertyOp33
 70
     1
102
RTVSPropertyOp34
 70
     1
102
RTVSPropertyOp35
 70
     1
102
RTVSPropertyOp36
 70
     1
102
RTVSPropertyOp37
 70
     1
102
RTVSPropertyOp38
 70
     1
102
RTVSPropertyOp39
 70
     1
102
RTVSPropertyOp40
 70
     1
102
RTVSPropertyOp41
 70
     1
102
RTVSPropertyOp42
 70
     1
102
RTVSPropertyOp43
 70
     1
102
RTVSPropertyOp44
 70
     1
102
RTVSPropertyOp45
 70
     1
102
RTVSPropertyOp46
 70
     1
102
RTVSPropertyOp47
 70
     1
102
RTVSPropertyOp48
 70
     1
102
RTVSPropertyOp49
 70
     1
102
RTVSPropertyOp50
 70
     1
102
RTVSPropertyOp51
 70
     0
102
RTVSPropertyOp52
 70
     0
102
RTVSPropertyOp53
 70
     1
102
RTVSPropertyOp54
 70
     1
102
RTVSPropertyOp55
 70
     1
102
RTVSPropertyOp56
 70
     1
102
RTVSPropertyOp57
 70
     1
102
RTVSPropertyOp58
 70
     1
102
RTVSPropertyOp59
 70
     1
102
RTVSPropertyOp60
 70
     1
102
RTVSPropertyOp61
 70
     1
102
RTVSPropertyOp62
 70
     1
  0
XRECORD
  5
A688
102
{ACAD_REACTORS
330
A687
102
}
330
A687
100
AcDbXrecord
280
     1
102
RTVSPost2010Prop28
280
     0
102
RTVSPost2010PropOp28
 70
     1
102
RTVSPost2010Prop29
280
     1
102
RTVSPost2010PropOp29
 70
     1
102
RTVSPost2010Prop30
280
     1
102
RTVSPost2010PropOp30
 70
     1
102
RTVSPost2010Prop31
280
     0
102
RTVSPost2010PropOp31
 70
     1
102
RTVSPost2010Prop32
280
     0
102
RTVSPost2010PropOp32
 70
     1
102
RTVSPost2010Prop33
280
     0
102
RTVSPost2010PropOp33
 70
     1
102
RTVSPost2010Prop34
280
     0
102
RTVSPost2010PropOp34
 70
     1
102
RTVSPost2010Prop35
280
     0
102
RTVSPost2010PropOp35
 70
     1
102
RTVSPost2010Prop36
280
     0
102
RTVSPost2010PropOp36
 70
     1
102
RTVSPost2010Prop37
 90
       50
102
RTVSPost2010PropOp37
 70
     1
102
RTVSPost2010Prop38
140
0.0
102
RTVSPost2010PropOp38
 70
     1
102
RTVSPost2010Prop39
140
1.0
102
RTVSPost2010PropOp39
 70
     1
102
RTVSPost2010Prop40
 90
        0
102
RTVSPost2010PropOp40
 70
     1
102
RTVSPost2010Prop41ColorIndex
 90
       18
102
RTVSPost2010Prop41ColorRGB
 90
        0
102
RTVSPost2010PropOp41
 70
     1
102
RTVSPost2010Prop42
 90
       50
102
RTVSPost2010PropOp42
 70
     1
102
RTVSPost2010Prop43
 90
        3
102
RTVSPost2010PropOp43
 70
     1
102
RTVSPost2010Prop44ColorIndex
 90
        5
102
RTVSPost2010Prop44ColorRGB
 90
      255
102
RTVSPost2010PropOp44
 70
     1
102
RTVSPost2010Prop45
280
     0
102
RTVSPost2010PropOp45
 70
     1
102
RTVSPost2010Prop46
 90
       50
102
RTVSPost2010PropOp46
 70
     1
102
RTVSPost2010Prop47
 90
       50
102
RTVSPost2010PropOp47
 70
     1
102
RTVSPost2010Prop48
 90
       50
102
RTVSPost2010PropOp48
 70
     1
102
RTVSPost2010Prop49
280
     0
102
RTVSPost2010PropOp49
 70
     1
102
RTVSPost2010Prop50
 90
       50
102
RTVSPost2010PropOp50
 70
     1
102
RTVSPost2010Prop51ColorIndex
 90
      256
102
RTVSPost2010Prop51ColorRGB
 90
-16777216
102
RTVSPost2010PropOp51
 70
     0
102
RTVSPost2010Prop52
140
1.0
102
RTVSPost2010PropOp52
 70
     0
102
RTVSPost2010Prop53
 90
        2
102
RTVSPost2010PropOp53
 70
     1
102
RTVSPost2010Prop54
  1
strokes_ogs.tif
102
RTVSPost2010PropOp54
 70
     1
102
RTVSPost2010Prop55
280
     0
102
RTVSPost2010PropOp55
 70
     1
102
RTVSPost2010Prop56
140
1.0
102
RTVSPost2010PropOp56
 70
     1
102
RTVSPost2010Prop57
140
1.0
102
RTVSPost2010PropOp57
 70
     1
102
RTVSPropertyOp0
 70
     1
102
RTVSPropertyOp1
 70
     1
102
RTVSPropertyOp2
 70
     1
102
RTVSPropertyOp3
 70
     1
102
RTVSPropertyOp4
 70
     1
102
RTVSPropertyOp5
 70
     1
102
RTVSPropertyOp6
 70
     1
102
RTVSPropertyOp7
 70
     1
102
RTVSPropertyOp8
 70
     1
102
RTVSPropertyOp9
 70
     1
102
RTVSPropertyOp10
 70
     1
102
RTVSPropertyOp11
 70
     1
102
RTVSPropertyOp12
 70
     1
102
RTVSPropertyOp13
 70
     1
102
RTVSPropertyOp14
 70
     1
102
RTVSPropertyOp15
 70
     1
102
RTVSPropertyOp16
 70
     1
102
RTVSPropertyOp17
 70
     1
102
RTVSPropertyOp18
 70
     1
102
RTVSPropertyOp19
 70
     1
102
RTVSPropertyOp20
 70
     1
102
RTVSPropertyOp21
 70
     1
102
RTVSPropertyOp22
 70
     1
102
RTVSPropertyOp23
 70
     1
102
RTVSPropertyOp24
 70
     1
102
RTVSPropertyOp25
 70
     1
102
RTVSPropertyOp26
 70
     1
102
RTVSPropertyOp27
 70
     1
102
RTVSPropertyOp28
 70
     1
102
RTVSPropertyOp29
 70
     1
102
RTVSPropertyOp30
 70
     1
102
RTVSPropertyOp31
 70
     1
102
RTVSPropertyOp32
 70
     1
102
RTVSPropertyOp33
 70
     1
102
RTVSPropertyOp34
 70
     1
102
RTVSPropertyOp35
 70
     1
102
RTVSPropertyOp36
 70
     1
102
RTVSPropertyOp37
 70
     1
102
RTVSPropertyOp38
 70
     1
102
RTVSPropertyOp39
 70
     1
102
RTVSPropertyOp40
 70
     1
102
RTVSPropertyOp41
 70
     1
102
RTVSPropertyOp42
 70
     1
102
RTVSPropertyOp43
 70
     1
102
RTVSPropertyOp44
 70
     1
102
RTVSPropertyOp45
 70
     1
102
RTVSPropertyOp46
 70
     1
102
RTVSPropertyOp47
 70
     1
102
RTVSPropertyOp48
 70
     1
102
RTVSPropertyOp49
 70
     1
102
RTVSPropertyOp50
 70
     1
102
RTVSPropertyOp51
 70
     0
102
RTVSPropertyOp52
 70
     0
102
RTVSPropertyOp53
 70
     1
102
RTVSPropertyOp54
 70
     1
102
RTVSPropertyOp55
 70
     1
102
RTVSPropertyOp56
 70
     1
102
RTVSPropertyOp57
 70
     1
102
RTVSPropertyOp58
 70
     1
102
RTVSPropertyOp59
 70
     1
102
RTVSPropertyOp60
 70
     1
102
RTVSPropertyOp61
 70
     1
102
RTVSPropertyOp62
 70
     1
  0
XRECORD
  5
A68C
102
{ACAD_REACTORS
330
A68B
102
}
330
A68B
100
AcDbXrecord
280
     1
102
RTVSPost2010Prop28
280
     0
102
RTVSPost2010PropOp28
 70
     1
102
RTVSPost2010Prop29
280
     1
102
RTVSPost2010PropOp29
 70
     1
102
RTVSPost2010Prop30
280
     1
102
RTVSPost2010PropOp30
 70
     1
102
RTVSPost2010Prop31
280
     0
102
RTVSPost2010PropOp31
 70
     1
102
RTVSPost2010Prop32
280
     0
102
RTVSPost2010PropOp32
 70
     1
102
RTVSPost2010Prop33
280
     0
102
RTVSPost2010PropOp33
 70
     1
102
RTVSPost2010Prop34
280
     0
102
RTVSPost2010PropOp34
 70
     1
102
RTVSPost2010Prop35
280
     0
102
RTVSPost2010PropOp35
 70
     1
102
RTVSPost2010Prop36
280
     0
102
RTVSPost2010PropOp36
 70
     1
102
RTVSPost2010Prop37
 90
       50
102
RTVSPost2010PropOp37
 70
     1
102
RTVSPost2010Prop38
140
0.0
102
RTVSPost2010PropOp38
 70
     1
102
RTVSPost2010Prop39
140
1.0
102
RTVSPost2010PropOp39
 70
     1
102
RTVSPost2010Prop40
 90
        0
102
RTVSPost2010PropOp40
 70
     1
102
RTVSPost2010Prop41ColorIndex
 90
       18
102
RTVSPost2010Prop41ColorRGB
 90
        0
102
RTVSPost2010PropOp41
 70
     1
102
RTVSPost2010Prop42
 90
       50
102
RTVSPost2010PropOp42
 70
     1
102
RTVSPost2010Prop43
 90
        3
102
RTVSPost2010PropOp43
 70
     1
102
RTVSPost2010Prop44ColorIndex
 90
        5
102
RTVSPost2010Prop44ColorRGB
 90
      255
102
RTVSPost2010PropOp44
 70
     1
102
RTVSPost2010Prop45
280
     0
102
RTVSPost2010PropOp45
 70
     1
102
RTVSPost2010Prop46
 90
       50
102
RTVSPost2010PropOp46
 70
     1
102
RTVSPost2010Prop47
 90
       50
102
RTVSPost2010PropOp47
 70
     1
102
RTVSPost2010Prop48
 90
       50
102
RTVSPost2010PropOp48
 70
     1
102
RTVSPost2010Prop49
280
     0
102
RTVSPost2010PropOp49
 70
     1
102
RTVSPost2010Prop50
 90
       50
102
RTVSPost2010PropOp50
 70
     1
102
RTVSPost2010Prop51ColorIndex
 90
      256
102
RTVSPost2010Prop51ColorRGB
 90
-16777216
102
RTVSPost2010PropOp51
 70
     0
102
RTVSPost2010Prop52
140
1.0
102
RTVSPost2010PropOp52
 70
     0
102
RTVSPost2010Prop53
 90
        2
102
RTVSPost2010PropOp53
 70
     1
102
RTVSPost2010Prop54
  1
strokes_ogs.tif
102
RTVSPost2010PropOp54
 70
     1
102
RTVSPost2010Prop55
280
     0
102
RTVSPost2010PropOp55
 70
     1
102
RTVSPost2010Prop56
140
1.0
102
RTVSPost2010PropOp56
 70
     1
102
RTVSPost2010Prop57
140
1.0
102
RTVSPost2010PropOp57
 70
     1
102
RTVSPropertyOp0
 70
     1
102
RTVSPropertyOp1
 70
     1
102
RTVSPropertyOp2
 70
     1
102
RTVSPropertyOp3
 70
     1
102
RTVSPropertyOp4
 70
     1
102
RTVSPropertyOp5
 70
     1
102
RTVSPropertyOp6
 70
     1
102
RTVSPropertyOp7
 70
     1
102
RTVSPropertyOp8
 70
     1
102
RTVSPropertyOp9
 70
     1
102
RTVSPropertyOp10
 70
     1
102
RTVSPropertyOp11
 70
     1
102
RTVSPropertyOp12
 70
     1
102
RTVSPropertyOp13
 70
     1
102
RTVSPropertyOp14
 70
     1
102
RTVSPropertyOp15
 70
     1
102
RTVSPropertyOp16
 70
     1
102
RTVSPropertyOp17
 70
     1
102
RTVSPropertyOp18
 70
     1
102
RTVSPropertyOp19
 70
     1
102
RTVSPropertyOp20
 70
     1
102
RTVSPropertyOp21
 70
     1
102
RTVSPropertyOp22
 70
     1
102
RTVSPropertyOp23
 70
     1
102
RTVSPropertyOp24
 70
     1
102
RTVSPropertyOp25
 70
     1
102
RTVSPropertyOp26
 70
     1
102
RTVSPropertyOp27
 70
     1
102
RTVSPropertyOp28
 70
     1
102
RTVSPropertyOp29
 70
     1
102
RTVSPropertyOp30
 70
     1
102
RTVSPropertyOp31
 70
     1
102
RTVSPropertyOp32
 70
     1
102
RTVSPropertyOp33
 70
     1
102
RTVSPropertyOp34
 70
     1
102
RTVSPropertyOp35
 70
     1
102
RTVSPropertyOp36
 70
     1
102
RTVSPropertyOp37
 70
     1
102
RTVSPropertyOp38
 70
     1
102
RTVSPropertyOp39
 70
     1
102
RTVSPropertyOp40
 70
     1
102
RTVSPropertyOp41
 70
     1
102
RTVSPropertyOp42
 70
     1
102
RTVSPropertyOp43
 70
     1
102
RTVSPropertyOp44
 70
     1
102
RTVSPropertyOp45
 70
     1
102
RTVSPropertyOp46
 70
     1
102
RTVSPropertyOp47
 70
     1
102
RTVSPropertyOp48
 70
     1
102
RTVSPropertyOp49
 70
     1
102
RTVSPropertyOp50
 70
     1
102
RTVSPropertyOp51
 70
     0
102
RTVSPropertyOp52
 70
     0
102
RTVSPropertyOp53
 70
     1
102
RTVSPropertyOp54
 70
     1
102
RTVSPropertyOp55
 70
     1
102
RTVSPropertyOp56
 70
     1
102
RTVSPropertyOp57
 70
     1
102
RTVSPropertyOp58
 70
     1
102
RTVSPropertyOp59
 70
     1
102
RTVSPropertyOp60
 70
     1
102
RTVSPropertyOp61
 70
     1
102
RTVSPropertyOp62
 70
     1
  0
XRECORD
  5
A6A6
102
{ACAD_REACTORS
330
A6A5
102
}
330
A6A5
100
AcDbXrecord
280
     1
102
RTVSPost2010Prop28
280
     0
102
RTVSPost2010PropOp28
 70
     1
102
RTVSPost2010Prop29
280
     1
102
RTVSPost2010PropOp29
 70
     1
102
RTVSPost2010Prop30
280
     1
102
RTVSPost2010PropOp30
 70
     1
102
RTVSPost2010Prop31
280
     0
102
RTVSPost2010PropOp31
 70
     1
102
RTVSPost2010Prop32
280
     0
102
RTVSPost2010PropOp32
 70
     1
102
RTVSPost2010Prop33
280
     0
102
RTVSPost2010PropOp33
 70
     1
102
RTVSPost2010Prop34
280
     0
102
RTVSPost2010PropOp34
 70
     1
102
RTVSPost2010Prop35
280
     0
102
RTVSPost2010PropOp35
 70
     1
102
RTVSPost2010Prop36
280
     0
102
RTVSPost2010PropOp36
 70
     1
102
RTVSPost2010Prop37
 90
       50
102
RTVSPost2010PropOp37
 70
     0
102
RTVSPost2010Prop38
140
0.0
102
RTVSPost2010PropOp38
 70
     0
102
RTVSPost2010Prop39
140
1.0
102
RTVSPost2010PropOp39
 70
     0
102
RTVSPost2010Prop40
 90
        0
102
RTVSPost2010PropOp40
 70
     0
102
RTVSPost2010Prop41ColorIndex
 90
       18
102
RTVSPost2010Prop41ColorRGB
 90
        0
102
RTVSPost2010PropOp41
 70
     0
102
RTVSPost2010Prop42
 90
       50
102
RTVSPost2010PropOp42
 70
     0
102
RTVSPost2010Prop43
 90
        3
102
RTVSPost2010PropOp43
 70
     0
102
RTVSPost2010Prop44ColorIndex
 90
        5
102
RTVSPost2010Prop44ColorRGB
 90
      255
102
RTVSPost2010PropOp44
 70
     0
102
RTVSPost2010Prop45
280
     0
102
RTVSPost2010PropOp45
 70
     1
102
RTVSPost2010Prop46
 90
       50
102
RTVSPost2010PropOp46
 70
     0
102
RTVSPost2010Prop47
 90
       50
102
RTVSPost2010PropOp47
 70
     0
102
RTVSPost2010Prop48
 90
       50
102
RTVSPost2010PropOp48
 70
     0
102
RTVSPost2010Prop49
280
     0
102
RTVSPost2010PropOp49
 70
     1
102
RTVSPost2010Prop50
 90
       50
102
RTVSPost2010PropOp50
 70
     0
102
RTVSPost2010Prop51ColorIndex
 90
      256
102
RTVSPost2010Prop51ColorRGB
 90
-16777216
102
RTVSPost2010PropOp51
 70
     0
102
RTVSPost2010Prop52
140
1.0
102
RTVSPost2010PropOp52
 70
     0
102
RTVSPost2010Prop53
 90
        2
102
RTVSPost2010PropOp53
 70
     0
102
RTVSPost2010Prop54
  1
strokes_ogs.tif
102
RTVSPost2010PropOp54
 70
     0
102
RTVSPost2010Prop55
280
     0
102
RTVSPost2010PropOp55
 70
     1
102
RTVSPost2010Prop56
140
1.0
102
RTVSPost2010PropOp56
 70
     0
102
RTVSPost2010Prop57
140
1.0
102
RTVSPost2010PropOp57
 70
     0
102
RTVSPropertyOp0
 70
     0
102
RTVSPropertyOp1
 70
     0
102
RTVSPropertyOp2
 70
     0
102
RTVSPropertyOp3
 70
     0
102
RTVSPropertyOp4
 70
     0
102
RTVSPropertyOp5
 70
     0
102
RTVSPropertyOp6
 70
     0
102
RTVSPropertyOp7
 70
     0
102
RTVSPropertyOp8
 70
     0
102
RTVSPropertyOp9
 70
     0
102
RTVSPropertyOp10
 70
     0
102
RTVSPropertyOp11
 70
     0
102
RTVSPropertyOp12
 70
     0
102
RTVSPropertyOp13
 70
     0
102
RTVSPropertyOp14
 70
     2
102
RTVSPropertyOp15
 70
     0
102
RTVSPropertyOp16
 70
     0
102
RTVSPropertyOp17
 70
     0
102
RTVSPropertyOp18
 70
     0
102
RTVSPropertyOp19
 70
     0
102
RTVSPropertyOp20
 70
     0
102
RTVSPropertyOp21
 70
     0
102
RTVSPropertyOp22
 70
     0
102
RTVSPropertyOp23
 70
     0
102
RTVSPropertyOp24
 70
     0
102
RTVSPropertyOp25
 70
     0
102
RTVSPropertyOp26
 70
     0
102
RTVSPropertyOp27
 70
     0
102
RTVSPropertyOp28
 70
     1
102
RTVSPropertyOp29
 70
     1
102
RTVSPropertyOp30
 70
     1
102
RTVSPropertyOp31
 70
     1
102
RTVSPropertyOp32
 70
     1
102
RTVSPropertyOp33
 70
     1
102
RTVSPropertyOp34
 70
     1
102
RTVSPropertyOp35
 70
     1
102
RTVSPropertyOp36
 70
     1
102
RTVSPropertyOp37
 70
     0
102
RTVSPropertyOp38
 70
     0
102
RTVSPropertyOp39
 70
     0
102
RTVSPropertyOp40
 70
     0
102
RTVSPropertyOp41
 70
     0
102
RTVSPropertyOp42
 70
     0
102
RTVSPropertyOp43
 70
     0
102
RTVSPropertyOp44
 70
     0
102
RTVSPropertyOp45
 70
     1
102
RTVSPropertyOp46
 70
     0
102
RTVSPropertyOp47
 70
     0
102
RTVSPropertyOp48
 70
     0
102
RTVSPropertyOp49
 70
     1
102
RTVSPropertyOp50
 70
     0
102
RTVSPropertyOp51
 70
     0
102
RTVSPropertyOp52
 70
     0
102
RTVSPropertyOp53
 70
     0
102
RTVSPropertyOp54
 70
     0
102
RTVSPropertyOp55
 70
     1
102
RTVSPropertyOp56
 70
     0
102
RTVSPropertyOp57
 70
     0
102
RTVSPropertyOp58
 70
     0
102
RTVSPropertyOp59
 70
     0
102
RTVSPropertyOp60
 70
     0
102
RTVSPropertyOp61
 70
     0
102
RTVSPropertyOp62
 70
     0
  0
XRECORD
  5
A694
102
{ACAD_REACTORS
330
A693
102
}
330
A693
100
AcDbXrecord
280
     1
102
RTVSPost2010Prop28
280
     0
102
RTVSPost2010PropOp28
 70
     1
102
RTVSPost2010Prop29
280
     1
102
RTVSPost2010PropOp29
 70
     1
102
RTVSPost2010Prop30
280
     1
102
RTVSPost2010PropOp30
 70
     1
102
RTVSPost2010Prop31
280
     0
102
RTVSPost2010PropOp31
 70
     1
102
RTVSPost2010Prop32
280
     0
102
RTVSPost2010PropOp32
 70
     1
102
RTVSPost2010Prop33
280
     0
102
RTVSPost2010PropOp33
 70
     1
102
RTVSPost2010Prop34
280
     0
102
RTVSPost2010PropOp34
 70
     1
102
RTVSPost2010Prop35
280
     0
102
RTVSPost2010PropOp35
 70
     1
102
RTVSPost2010Prop36
280
     0
102
RTVSPost2010PropOp36
 70
     1
102
RTVSPost2010Prop37
 90
       50
102
RTVSPost2010PropOp37
 70
     1
102
RTVSPost2010Prop38
140
0.0
102
RTVSPost2010PropOp38
 70
     1
102
RTVSPost2010Prop39
140
1.0
102
RTVSPost2010PropOp39
 70
     1
102
RTVSPost2010Prop40
 90
        0
102
RTVSPost2010PropOp40
 70
     1
102
RTVSPost2010Prop41ColorIndex
 90
       18
102
RTVSPost2010Prop41ColorRGB
 90
        0
102
RTVSPost2010PropOp41
 70
     1
102
RTVSPost2010Prop42
 90
       50
102
RTVSPost2010PropOp42
 70
     1
102
RTVSPost2010Prop43
 90
        3
102
RTVSPost2010PropOp43
 70
     1
102
RTVSPost2010Prop44ColorIndex
 90
        5
102
RTVSPost2010Prop44ColorRGB
 90
      255
102
RTVSPost2010PropOp44
 70
     1
102
RTVSPost2010Prop45
280
     0
102
RTVSPost2010PropOp45
 70
     1
102
RTVSPost2010Prop46
 90
       50
102
RTVSPost2010PropOp46
 70
     1
102
RTVSPost2010Prop47
 90
       50
102
RTVSPost2010PropOp47
 70
     1
102
RTVSPost2010Prop48
 90
       50
102
RTVSPost2010PropOp48
 70
     1
102
RTVSPost2010Prop49
280
     0
102
RTVSPost2010PropOp49
 70
     1
102
RTVSPost2010Prop50
 90
       50
102
RTVSPost2010PropOp50
 70
     1
102
RTVSPost2010Prop51ColorIndex
 90
      256
102
RTVSPost2010Prop51ColorRGB
 90
-16777216
102
RTVSPost2010PropOp51
 70
     0
102
RTVSPost2010Prop52
140
1.0
102
RTVSPost2010PropOp52
 70
     0
102
RTVSPost2010Prop53
 90
        2
102
RTVSPost2010PropOp53
 70
     1
102
RTVSPost2010Prop54
  1
strokes_ogs.tif
102
RTVSPost2010PropOp54
 70
     1
102
RTVSPost2010Prop55
280
     0
102
RTVSPost2010PropOp55
 70
     1
102
RTVSPost2010Prop56
140
1.0
102
RTVSPost2010PropOp56
 70
     1
102
RTVSPost2010Prop57
140
1.0
102
RTVSPost2010PropOp57
 70
     1
102
RTVSPropertyOp0
 70
     1
102
RTVSPropertyOp1
 70
     1
102
RTVSPropertyOp2
 70
     1
102
RTVSPropertyOp3
 70
     1
102
RTVSPropertyOp4
 70
     1
102
RTVSPropertyOp5
 70
     1
102
RTVSPropertyOp6
 70
     1
102
RTVSPropertyOp7
 70
     1
102
RTVSPropertyOp8
 70
     1
102
RTVSPropertyOp9
 70
     1
102
RTVSPropertyOp10
 70
     1
102
RTVSPropertyOp11
 70
     1
102
RTVSPropertyOp12
 70
     1
102
RTVSPropertyOp13
 70
     1
102
RTVSPropertyOp14
 70
     1
102
RTVSPropertyOp15
 70
     1
102
RTVSPropertyOp16
 70
     1
102
RTVSPropertyOp17
 70
     1
102
RTVSPropertyOp18
 70
     1
102
RTVSPropertyOp19
 70
     1
102
RTVSPropertyOp20
 70
     1
102
RTVSPropertyOp21
 70
     1
102
RTVSPropertyOp22
 70
     1
102
RTVSPropertyOp23
 70
     1
102
RTVSPropertyOp24
 70
     1
102
RTVSPropertyOp25
 70
     1
102
RTVSPropertyOp26
 70
     1
102
RTVSPropertyOp27
 70
     1
102
RTVSPropertyOp28
 70
     1
102
RTVSPropertyOp29
 70
     1
102
RTVSPropertyOp30
 70
     1
102
RTVSPropertyOp31
 70
     1
102
RTVSPropertyOp32
 70
     1
102
RTVSPropertyOp33
 70
     1
102
RTVSPropertyOp34
 70
     1
102
RTVSPropertyOp35
 70
     1
102
RTVSPropertyOp36
 70
     1
102
RTVSPropertyOp37
 70
     1
102
RTVSPropertyOp38
 70
     1
102
RTVSPropertyOp39
 70
     1
102
RTVSPropertyOp40
 70
     1
102
RTVSPropertyOp41
 70
     1
102
RTVSPropertyOp42
 70
     1
102
RTVSPropertyOp43
 70
     1
102
RTVSPropertyOp44
 70
     1
102
RTVSPropertyOp45
 70
     1
102
RTVSPropertyOp46
 70
     1
102
RTVSPropertyOp47
 70
     1
102
RTVSPropertyOp48
 70
     1
102
RTVSPropertyOp49
 70
     1
102
RTVSPropertyOp50
 70
     1
102
RTVSPropertyOp51
 70
     0
102
RTVSPropertyOp52
 70
     0
102
RTVSPropertyOp53
 70
     1
102
RTVSPropertyOp54
 70
     1
102
RTVSPropertyOp55
 70
     1
102
RTVSPropertyOp56
 70
     1
102
RTVSPropertyOp57
 70
     1
102
RTVSPropertyOp58
 70
     1
102
RTVSPropertyOp59
 70
     1
102
RTVSPropertyOp60
 70
     1
102
RTVSPropertyOp61
 70
     1
102
RTVSPropertyOp62
 70
     1
  0
XRECORD
  5
A678
102
{ACAD_REACTORS
330
A677
102
}
330
A677
100
AcDbXrecord
280
     1
102
RTVSPost2010Prop28
280
     0
102
RTVSPost2010PropOp28
 70
     1
102
RTVSPost2010Prop29
280
     1
102
RTVSPost2010PropOp29
 70
     1
102
RTVSPost2010Prop30
280
     1
102
RTVSPost2010PropOp30
 70
     1
102
RTVSPost2010Prop31
280
     0
102
RTVSPost2010PropOp31
 70
     1
102
RTVSPost2010Prop32
280
     0
102
RTVSPost2010PropOp32
 70
     1
102
RTVSPost2010Prop33
280
     0
102
RTVSPost2010PropOp33
 70
     1
102
RTVSPost2010Prop34
280
     0
102
RTVSPost2010PropOp34
 70
     1
102
RTVSPost2010Prop35
280
     0
102
RTVSPost2010PropOp35
 70
     1
102
RTVSPost2010Prop36
280
     0
102
RTVSPost2010PropOp36
 70
     1
102
RTVSPost2010Prop37
 90
       50
102
RTVSPost2010PropOp37
 70
     1
102
RTVSPost2010Prop38
140
0.0
102
RTVSPost2010PropOp38
 70
     1
102
RTVSPost2010Prop39
140
1.0
102
RTVSPost2010PropOp39
 70
     1
102
RTVSPost2010Prop40
 90
        0
102
RTVSPost2010PropOp40
 70
     1
102
RTVSPost2010Prop41ColorIndex
 90
       18
102
RTVSPost2010Prop41ColorRGB
 90
        0
102
RTVSPost2010PropOp41
 70
     1
102
RTVSPost2010Prop42
 90
       50
102
RTVSPost2010PropOp42
 70
     1
102
RTVSPost2010Prop43
 90
        3
102
RTVSPost2010PropOp43
 70
     1
102
RTVSPost2010Prop44ColorIndex
 90
        5
102
RTVSPost2010Prop44ColorRGB
 90
      255
102
RTVSPost2010PropOp44
 70
     1
102
RTVSPost2010Prop45
280
     0
102
RTVSPost2010PropOp45
 70
     1
102
RTVSPost2010Prop46
 90
       50
102
RTVSPost2010PropOp46
 70
     1
102
RTVSPost2010Prop47
 90
       50
102
RTVSPost2010PropOp47
 70
     1
102
RTVSPost2010Prop48
 90
       50
102
RTVSPost2010PropOp48
 70
     1
102
RTVSPost2010Prop49
280
     0
102
RTVSPost2010PropOp49
 70
     1
102
RTVSPost2010Prop50
 90
       50
102
RTVSPost2010PropOp50
 70
     1
102
RTVSPost2010Prop51ColorIndex
 90
      256
102
RTVSPost2010Prop51ColorRGB
 90
-16777216
102
RTVSPost2010PropOp51
 70
     0
102
RTVSPost2010Prop52
140
1.0
102
RTVSPost2010PropOp52
 70
     0
102
RTVSPost2010Prop53
 90
        2
102
RTVSPost2010PropOp53
 70
     1
102
RTVSPost2010Prop54
  1
strokes_ogs.tif
102
RTVSPost2010PropOp54
 70
     1
102
RTVSPost2010Prop55
280
     0
102
RTVSPost2010PropOp55
 70
     1
102
RTVSPost2010Prop56
140
1.0
102
RTVSPost2010PropOp56
 70
     1
102
RTVSPost2010Prop57
140
1.0
102
RTVSPost2010PropOp57
 70
     1
102
RTVSPropertyOp0
 70
     1
102
RTVSPropertyOp1
 70
     1
102
RTVSPropertyOp2
 70
     1
102
RTVSPropertyOp3
 70
     1
102
RTVSPropertyOp4
 70
     1
102
RTVSPropertyOp5
 70
     1
102
RTVSPropertyOp6
 70
     1
102
RTVSPropertyOp7
 70
     1
102
RTVSPropertyOp8
 70
     1
102
RTVSPropertyOp9
 70
     1
102
RTVSPropertyOp10
 70
     1
102
RTVSPropertyOp11
 70
     1
102
RTVSPropertyOp12
 70
     1
102
RTVSPropertyOp13
 70
     1
102
RTVSPropertyOp14
 70
     1
102
RTVSPropertyOp15
 70
     1
102
RTVSPropertyOp16
 70
     1
102
RTVSPropertyOp17
 70
     1
102
RTVSPropertyOp18
 70
     1
102
RTVSPropertyOp19
 70
     1
102
RTVSPropertyOp20
 70
     1
102
RTVSPropertyOp21
 70
     1
102
RTVSPropertyOp22
 70
     1
102
RTVSPropertyOp23
 70
     1
102
RTVSPropertyOp24
 70
     1
102
RTVSPropertyOp25
 70
     1
102
RTVSPropertyOp26
 70
     1
102
RTVSPropertyOp27
 70
     1
102
RTVSPropertyOp28
 70
     1
102
RTVSPropertyOp29
 70
     1
102
RTVSPropertyOp30
 70
     1
102
RTVSPropertyOp31
 70
     1
102
RTVSPropertyOp32
 70
     1
102
RTVSPropertyOp33
 70
     1
102
RTVSPropertyOp34
 70
     1
102
RTVSPropertyOp35
 70
     1
102
RTVSPropertyOp36
 70
     1
102
RTVSPropertyOp37
 70
     1
102
RTVSPropertyOp38
 70
     1
102
RTVSPropertyOp39
 70
     1
102
RTVSPropertyOp40
 70
     1
102
RTVSPropertyOp41
 70
     1
102
RTVSPropertyOp42
 70
     1
102
RTVSPropertyOp43
 70
     1
102
RTVSPropertyOp44
 70
     1
102
RTVSPropertyOp45
 70
     1
102
RTVSPropertyOp46
 70
     1
102
RTVSPropertyOp47
 70
     1
102
RTVSPropertyOp48
 70
     1
102
RTVSPropertyOp49
 70
     1
102
RTVSPropertyOp50
 70
     1
102
RTVSPropertyOp51
 70
     0
102
RTVSPropertyOp52
 70
     0
102
RTVSPropertyOp53
 70
     1
102
RTVSPropertyOp54
 70
     1
102
RTVSPropertyOp55
 70
     1
102
RTVSPropertyOp56
 70
     1
102
RTVSPropertyOp57
 70
     1
102
RTVSPropertyOp58
 70
     1
102
RTVSPropertyOp59
 70
     1
102
RTVSPropertyOp60
 70
     1
102
RTVSPropertyOp61
 70
     1
102
RTVSPropertyOp62
 70
     1
  0
XRECORD
  5
A67A
102
{ACAD_REACTORS
330
A679
102
}
330
A679
100
AcDbXrecord
280
     1
102
RTVSPost2010Prop28
280
     0
102
RTVSPost2010PropOp28
 70
     1
102
RTVSPost2010Prop29
280
     1
102
RTVSPost2010PropOp29
 70
     1
102
RTVSPost2010Prop30
280
     1
102
RTVSPost2010PropOp30
 70
     1
102
RTVSPost2010Prop31
280
     0
102
RTVSPost2010PropOp31
 70
     1
102
RTVSPost2010Prop32
280
     0
102
RTVSPost2010PropOp32
 70
     1
102
RTVSPost2010Prop33
280
     0
102
RTVSPost2010PropOp33
 70
     1
102
RTVSPost2010Prop34
280
     0
102
RTVSPost2010PropOp34
 70
     1
102
RTVSPost2010Prop35
280
     0
102
RTVSPost2010PropOp35
 70
     1
102
RTVSPost2010Prop36
280
     0
102
RTVSPost2010PropOp36
 70
     1
102
RTVSPost2010Prop37
 90
       50
102
RTVSPost2010PropOp37
 70
     1
102
RTVSPost2010Prop38
140
0.0
102
RTVSPost2010PropOp38
 70
     1
102
RTVSPost2010Prop39
140
1.0
102
RTVSPost2010PropOp39
 70
     1
102
RTVSPost2010Prop40
 90
        0
102
RTVSPost2010PropOp40
 70
     1
102
RTVSPost2010Prop41ColorIndex
 90
       18
102
RTVSPost2010Prop41ColorRGB
 90
        0
102
RTVSPost2010PropOp41
 70
     1
102
RTVSPost2010Prop42
 90
       50
102
RTVSPost2010PropOp42
 70
     1
102
RTVSPost2010Prop43
 90
        3
102
RTVSPost2010PropOp43
 70
     1
102
RTVSPost2010Prop44ColorIndex
 90
        5
102
RTVSPost2010Prop44ColorRGB
 90
      255
102
RTVSPost2010PropOp44
 70
     1
102
RTVSPost2010Prop45
280
     0
102
RTVSPost2010PropOp45
 70
     1
102
RTVSPost2010Prop46
 90
       50
102
RTVSPost2010PropOp46
 70
     1
102
RTVSPost2010Prop47
 90
       50
102
RTVSPost2010PropOp47
 70
     1
102
RTVSPost2010Prop48
 90
       50
102
RTVSPost2010PropOp48
 70
     1
102
RTVSPost2010Prop49
280
     0
102
RTVSPost2010PropOp49
 70
     1
102
RTVSPost2010Prop50
 90
       50
102
RTVSPost2010PropOp50
 70
     1
102
RTVSPost2010Prop51ColorIndex
 90
      256
102
RTVSPost2010Prop51ColorRGB
 90
-16777216
102
RTVSPost2010PropOp51
 70
     0
102
RTVSPost2010Prop52
140
1.0
102
RTVSPost2010PropOp52
 70
     0
102
RTVSPost2010Prop53
 90
        2
102
RTVSPost2010PropOp53
 70
     1
102
RTVSPost2010Prop54
  1
strokes_ogs.tif
102
RTVSPost2010PropOp54
 70
     1
102
RTVSPost2010Prop55
280
     0
102
RTVSPost2010PropOp55
 70
     1
102
RTVSPost2010Prop56
140
1.0
102
RTVSPost2010PropOp56
 70
     1
102
RTVSPost2010Prop57
140
1.0
102
RTVSPost2010PropOp57
 70
     1
102
RTVSPropertyOp0
 70
     1
102
RTVSPropertyOp1
 70
     1
102
RTVSPropertyOp2
 70
     1
102
RTVSPropertyOp3
 70
     1
102
RTVSPropertyOp4
 70
     1
102
RTVSPropertyOp5
 70
     1
102
RTVSPropertyOp6
 70
     1
102
RTVSPropertyOp7
 70
     1
102
RTVSPropertyOp8
 70
     1
102
RTVSPropertyOp9
 70
     1
102
RTVSPropertyOp10
 70
     1
102
RTVSPropertyOp11
 70
     1
102
RTVSPropertyOp12
 70
     1
102
RTVSPropertyOp13
 70
     1
102
RTVSPropertyOp14
 70
     1
102
RTVSPropertyOp15
 70
     1
102
RTVSPropertyOp16
 70
     1
102
RTVSPropertyOp17
 70
     1
102
RTVSPropertyOp18
 70
     1
102
RTVSPropertyOp19
 70
     1
102
RTVSPropertyOp20
 70
     1
102
RTVSPropertyOp21
 70
     1
102
RTVSPropertyOp22
 70
     1
102
RTVSPropertyOp23
 70
     1
102
RTVSPropertyOp24
 70
     1
102
RTVSPropertyOp25
 70
     1
102
RTVSPropertyOp26
 70
     1
102
RTVSPropertyOp27
 70
     1
102
RTVSPropertyOp28
 70
     1
102
RTVSPropertyOp29
 70
     1
102
RTVSPropertyOp30
 70
     1
102
RTVSPropertyOp31
 70
     1
102
RTVSPropertyOp32
 70
     1
102
RTVSPropertyOp33
 70
     1
102
RTVSPropertyOp34
 70
     1
102
RTVSPropertyOp35
 70
     1
102
RTVSPropertyOp36
 70
     1
102
RTVSPropertyOp37
 70
     1
102
RTVSPropertyOp38
 70
     1
102
RTVSPropertyOp39
 70
     1
102
RTVSPropertyOp40
 70
     1
102
RTVSPropertyOp41
 70
     1
102
RTVSPropertyOp42
 70
     1
102
RTVSPropertyOp43
 70
     1
102
RTVSPropertyOp44
 70
     1
102
RTVSPropertyOp45
 70
     1
102
RTVSPropertyOp46
 70
     1
102
RTVSPropertyOp47
 70
     1
102
RTVSPropertyOp48
 70
     1
102
RTVSPropertyOp49
 70
     1
102
RTVSPropertyOp50
 70
     1
102
RTVSPropertyOp51
 70
     0
102
RTVSPropertyOp52
 70
     0
102
RTVSPropertyOp53
 70
     1
102
RTVSPropertyOp54
 70
     1
102
RTVSPropertyOp55
 70
     1
102
RTVSPropertyOp56
 70
     1
102
RTVSPropertyOp57
 70
     1
102
RTVSPropertyOp58
 70
     1
102
RTVSPropertyOp59
 70
     1
102
RTVSPropertyOp60
 70
     1
102
RTVSPropertyOp61
 70
     1
102
RTVSPropertyOp62
 70
     1
  0
XRECORD
  5
A67C
102
{ACAD_REACTORS
330
A67B
102
}
330
A67B
100
AcDbXrecord
280
     1
102
RTVSPost2010Prop28
280
     0
102
RTVSPost2010PropOp28
 70
     1
102
RTVSPost2010Prop29
280
     1
102
RTVSPost2010PropOp29
 70
     1
102
RTVSPost2010Prop30
280
     1
102
RTVSPost2010PropOp30
 70
     1
102
RTVSPost2010Prop31
280
     0
102
RTVSPost2010PropOp31
 70
     1
102
RTVSPost2010Prop32
280
     0
102
RTVSPost2010PropOp32
 70
     1
102
RTVSPost2010Prop33
280
     0
102
RTVSPost2010PropOp33
 70
     1
102
RTVSPost2010Prop34
280
     0
102
RTVSPost2010PropOp34
 70
     1
102
RTVSPost2010Prop35
280
     0
102
RTVSPost2010PropOp35
 70
     1
102
RTVSPost2010Prop36
280
     0
102
RTVSPost2010PropOp36
 70
     1
102
RTVSPost2010Prop37
 90
       50
102
RTVSPost2010PropOp37
 70
     1
102
RTVSPost2010Prop38
140
0.0
102
RTVSPost2010PropOp38
 70
     1
102
RTVSPost2010Prop39
140
1.0
102
RTVSPost2010PropOp39
 70
     1
102
RTVSPost2010Prop40
 90
        0
102
RTVSPost2010PropOp40
 70
     1
102
RTVSPost2010Prop41ColorIndex
 90
       18
102
RTVSPost2010Prop41ColorRGB
 90
        0
102
RTVSPost2010PropOp41
 70
     1
102
RTVSPost2010Prop42
 90
       50
102
RTVSPost2010PropOp42
 70
     1
102
RTVSPost2010Prop43
 90
        3
102
RTVSPost2010PropOp43
 70
     1
102
RTVSPost2010Prop44ColorIndex
 90
        5
102
RTVSPost2010Prop44ColorRGB
 90
      255
102
RTVSPost2010PropOp44
 70
     1
102
RTVSPost2010Prop45
280
     0
102
RTVSPost2010PropOp45
 70
     1
102
RTVSPost2010Prop46
 90
       50
102
RTVSPost2010PropOp46
 70
     1
102
RTVSPost2010Prop47
 90
       50
102
RTVSPost2010PropOp47
 70
     1
102
RTVSPost2010Prop48
 90
       50
102
RTVSPost2010PropOp48
 70
     1
102
RTVSPost2010Prop49
280
     0
102
RTVSPost2010PropOp49
 70
     1
102
RTVSPost2010Prop50
 90
       50
102
RTVSPost2010PropOp50
 70
     1
102
RTVSPost2010Prop51ColorIndex
 90
      256
102
RTVSPost2010Prop51ColorRGB
 90
-16777216
102
RTVSPost2010PropOp51
 70
     0
102
RTVSPost2010Prop52
140
1.0
102
RTVSPost2010PropOp52
 70
     0
102
RTVSPost2010Prop53
 90
        2
102
RTVSPost2010PropOp53
 70
     1
102
RTVSPost2010Prop54
  1
strokes_ogs.tif
102
RTVSPost2010PropOp54
 70
     1
102
RTVSPost2010Prop55
280
     0
102
RTVSPost2010PropOp55
 70
     1
102
RTVSPost2010Prop56
140
1.0
102
RTVSPost2010PropOp56
 70
     1
102
RTVSPost2010Prop57
140
1.0
102
RTVSPost2010PropOp57
 70
     1
102
RTVSPropertyOp0
 70
     1
102
RTVSPropertyOp1
 70
     1
102
RTVSPropertyOp2
 70
     1
102
RTVSPropertyOp3
 70
     1
102
RTVSPropertyOp4
 70
     1
102
RTVSPropertyOp5
 70
     1
102
RTVSPropertyOp6
 70
     1
102
RTVSPropertyOp7
 70
     1
102
RTVSPropertyOp8
 70
     1
102
RTVSPropertyOp9
 70
     1
102
RTVSPropertyOp10
 70
     1
102
RTVSPropertyOp11
 70
     1
102
RTVSPropertyOp12
 70
     1
102
RTVSPropertyOp13
 70
     1
102
RTVSPropertyOp14
 70
     1
102
RTVSPropertyOp15
 70
     1
102
RTVSPropertyOp16
 70
     1
102
RTVSPropertyOp17
 70
     1
102
RTVSPropertyOp18
 70
     1
102
RTVSPropertyOp19
 70
     1
102
RTVSPropertyOp20
 70
     1
102
RTVSPropertyOp21
 70
     1
102
RTVSPropertyOp22
 70
     1
102
RTVSPropertyOp23
 70
     1
102
RTVSPropertyOp24
 70
     1
102
RTVSPropertyOp25
 70
     1
102
RTVSPropertyOp26
 70
     1
102
RTVSPropertyOp27
 70
     1
102
RTVSPropertyOp28
 70
     1
102
RTVSPropertyOp29
 70
     1
102
RTVSPropertyOp30
 70
     1
102
RTVSPropertyOp31
 70
     1
102
RTVSPropertyOp32
 70
     1
102
RTVSPropertyOp33
 70
     1
102
RTVSPropertyOp34
 70
     1
102
RTVSPropertyOp35
 70
     1
102
RTVSPropertyOp36
 70
     1
102
RTVSPropertyOp37
 70
     1
102
RTVSPropertyOp38
 70
     1
102
RTVSPropertyOp39
 70
     1
102
RTVSPropertyOp40
 70
     1
102
RTVSPropertyOp41
 70
     1
102
RTVSPropertyOp42
 70
     1
102
RTVSPropertyOp43
 70
     1
102
RTVSPropertyOp44
 70
     1
102
RTVSPropertyOp45
 70
     1
102
RTVSPropertyOp46
 70
     1
102
RTVSPropertyOp47
 70
     1
102
RTVSPropertyOp48
 70
     1
102
RTVSPropertyOp49
 70
     1
102
RTVSPropertyOp50
 70
     1
102
RTVSPropertyOp51
 70
     0
102
RTVSPropertyOp52
 70
     0
102
RTVSPropertyOp53
 70
     1
102
RTVSPropertyOp54
 70
     1
102
RTVSPropertyOp55
 70
     1
102
RTVSPropertyOp56
 70
     1
102
RTVSPropertyOp57
 70
     1
102
RTVSPropertyOp58
 70
     1
102
RTVSPropertyOp59
 70
     1
102
RTVSPropertyOp60
 70
     1
102
RTVSPropertyOp61
 70
     1
102
RTVSPropertyOp62
 70
     1
  0
XRECORD
  5
A67E
102
{ACAD_REACTORS
330
A67D
102
}
330
A67D
100
AcDbXrecord
280
     1
102
RTVSPost2010Prop28
280
     0
102
RTVSPost2010PropOp28
 70
     1
102
RTVSPost2010Prop29
280
     1
102
RTVSPost2010PropOp29
 70
     1
102
RTVSPost2010Prop30
280
     1
102
RTVSPost2010PropOp30
 70
     1
102
RTVSPost2010Prop31
280
     0
102
RTVSPost2010PropOp31
 70
     1
102
RTVSPost2010Prop32
280
     0
102
RTVSPost2010PropOp32
 70
     1
102
RTVSPost2010Prop33
280
     0
102
RTVSPost2010PropOp33
 70
     1
102
RTVSPost2010Prop34
280
     0
102
RTVSPost2010PropOp34
 70
     1
102
RTVSPost2010Prop35
280
     0
102
RTVSPost2010PropOp35
 70
     1
102
RTVSPost2010Prop36
280
     0
102
RTVSPost2010PropOp36
 70
     1
102
RTVSPost2010Prop37
 90
       50
102
RTVSPost2010PropOp37
 70
     1
102
RTVSPost2010Prop38
140
0.0
102
RTVSPost2010PropOp38
 70
     1
102
RTVSPost2010Prop39
140
1.0
102
RTVSPost2010PropOp39
 70
     1
102
RTVSPost2010Prop40
 90
        0
102
RTVSPost2010PropOp40
 70
     1
102
RTVSPost2010Prop41ColorIndex
 90
       18
102
RTVSPost2010Prop41ColorRGB
 90
        0
102
RTVSPost2010PropOp41
 70
     1
102
RTVSPost2010Prop42
 90
       50
102
RTVSPost2010PropOp42
 70
     1
102
RTVSPost2010Prop43
 90
        3
102
RTVSPost2010PropOp43
 70
     1
102
RTVSPost2010Prop44ColorIndex
 90
        5
102
RTVSPost2010Prop44ColorRGB
 90
      255
102
RTVSPost2010PropOp44
 70
     1
102
RTVSPost2010Prop45
280
     0
102
RTVSPost2010PropOp45
 70
     1
102
RTVSPost2010Prop46
 90
       50
102
RTVSPost2010PropOp46
 70
     1
102
RTVSPost2010Prop47
 90
       50
102
RTVSPost2010PropOp47
 70
     1
102
RTVSPost2010Prop48
 90
       50
102
RTVSPost2010PropOp48
 70
     1
102
RTVSPost2010Prop49
280
     0
102
RTVSPost2010PropOp49
 70
     1
102
RTVSPost2010Prop50
 90
       50
102
RTVSPost2010PropOp50
 70
     1
102
RTVSPost2010Prop51ColorIndex
 90
      256
102
RTVSPost2010Prop51ColorRGB
 90
-16777216
102
RTVSPost2010PropOp51
 70
     0
102
RTVSPost2010Prop52
140
1.0
102
RTVSPost2010PropOp52
 70
     0
102
RTVSPost2010Prop53
 90
        2
102
RTVSPost2010PropOp53
 70
     1
102
RTVSPost2010Prop54
  1
strokes_ogs.tif
102
RTVSPost2010PropOp54
 70
     1
102
RTVSPost2010Prop55
280
     0
102
RTVSPost2010PropOp55
 70
     1
102
RTVSPost2010Prop56
140
1.0
102
RTVSPost2010PropOp56
 70
     1
102
RTVSPost2010Prop57
140
1.0
102
RTVSPost2010PropOp57
 70
     1
102
RTVSPropertyOp0
 70
     1
102
RTVSPropertyOp1
 70
     1
102
RTVSPropertyOp2
 70
     1
102
RTVSPropertyOp3
 70
     1
102
RTVSPropertyOp4
 70
     1
102
RTVSPropertyOp5
 70
     1
102
RTVSPropertyOp6
 70
     1
102
RTVSPropertyOp7
 70
     1
102
RTVSPropertyOp8
 70
     1
102
RTVSPropertyOp9
 70
     1
102
RTVSPropertyOp10
 70
     1
102
RTVSPropertyOp11
 70
     1
102
RTVSPropertyOp12
 70
     1
102
RTVSPropertyOp13
 70
     1
102
RTVSPropertyOp14
 70
     1
102
RTVSPropertyOp15
 70
     1
102
RTVSPropertyOp16
 70
     1
102
RTVSPropertyOp17
 70
     1
102
RTVSPropertyOp18
 70
     1
102
RTVSPropertyOp19
 70
     1
102
RTVSPropertyOp20
 70
     1
102
RTVSPropertyOp21
 70
     1
102
RTVSPropertyOp22
 70
     1
102
RTVSPropertyOp23
 70
     1
102
RTVSPropertyOp24
 70
     1
102
RTVSPropertyOp25
 70
     1
102
RTVSPropertyOp26
 70
     1
102
RTVSPropertyOp27
 70
     1
102
RTVSPropertyOp28
 70
     1
102
RTVSPropertyOp29
 70
     1
102
RTVSPropertyOp30
 70
     1
102
RTVSPropertyOp31
 70
     1
102
RTVSPropertyOp32
 70
     1
102
RTVSPropertyOp33
 70
     1
102
RTVSPropertyOp34
 70
     1
102
RTVSPropertyOp35
 70
     1
102
RTVSPropertyOp36
 70
     1
102
RTVSPropertyOp37
 70
     1
102
RTVSPropertyOp38
 70
     1
102
RTVSPropertyOp39
 70
     1
102
RTVSPropertyOp40
 70
     1
102
RTVSPropertyOp41
 70
     1
102
RTVSPropertyOp42
 70
     1
102
RTVSPropertyOp43
 70
     1
102
RTVSPropertyOp44
 70
     1
102
RTVSPropertyOp45
 70
     1
102
RTVSPropertyOp46
 70
     1
102
RTVSPropertyOp47
 70
     1
102
RTVSPropertyOp48
 70
     1
102
RTVSPropertyOp49
 70
     1
102
RTVSPropertyOp50
 70
     1
102
RTVSPropertyOp51
 70
     0
102
RTVSPropertyOp52
 70
     0
102
RTVSPropertyOp53
 70
     1
102
RTVSPropertyOp54
 70
     1
102
RTVSPropertyOp55
 70
     1
102
RTVSPropertyOp56
 70
     1
102
RTVSPropertyOp57
 70
     1
102
RTVSPropertyOp58
 70
     1
102
RTVSPropertyOp59
 70
     1
102
RTVSPropertyOp60
 70
     1
102
RTVSPropertyOp61
 70
     1
102
RTVSPropertyOp62
 70
     1
  0
XRECORD
  5
A686
102
{ACAD_REACTORS
330
A685
102
}
330
A685
100
AcDbXrecord
280
     1
102
RTVSPost2010Prop28
280
     0
102
RTVSPost2010PropOp28
 70
     1
102
RTVSPost2010Prop29
280
     1
102
RTVSPost2010PropOp29
 70
     1
102
RTVSPost2010Prop30
280
     1
102
RTVSPost2010PropOp30
 70
     1
102
RTVSPost2010Prop31
280
     0
102
RTVSPost2010PropOp31
 70
     1
102
RTVSPost2010Prop32
280
     0
102
RTVSPost2010PropOp32
 70
     1
102
RTVSPost2010Prop33
280
     0
102
RTVSPost2010PropOp33
 70
     1
102
RTVSPost2010Prop34
280
     0
102
RTVSPost2010PropOp34
 70
     1
102
RTVSPost2010Prop35
280
     0
102
RTVSPost2010PropOp35
 70
     1
102
RTVSPost2010Prop36
280
     0
102
RTVSPost2010PropOp36
 70
     1
102
RTVSPost2010Prop37
 90
       50
102
RTVSPost2010PropOp37
 70
     1
102
RTVSPost2010Prop38
140
0.0
102
RTVSPost2010PropOp38
 70
     1
102
RTVSPost2010Prop39
140
1.0
102
RTVSPost2010PropOp39
 70
     1
102
RTVSPost2010Prop40
 90
        0
102
RTVSPost2010PropOp40
 70
     1
102
RTVSPost2010Prop41ColorIndex
 90
       18
102
RTVSPost2010Prop41ColorRGB
 90
        0
102
RTVSPost2010PropOp41
 70
     1
102
RTVSPost2010Prop42
 90
       50
102
RTVSPost2010PropOp42
 70
     1
102
RTVSPost2010Prop43
 90
        3
102
RTVSPost2010PropOp43
 70
     1
102
RTVSPost2010Prop44ColorIndex
 90
        5
102
RTVSPost2010Prop44ColorRGB
 90
      255
102
RTVSPost2010PropOp44
 70
     1
102
RTVSPost2010Prop45
280
     0
102
RTVSPost2010PropOp45
 70
     1
102
RTVSPost2010Prop46
 90
       50
102
RTVSPost2010PropOp46
 70
     1
102
RTVSPost2010Prop47
 90
       50
102
RTVSPost2010PropOp47
 70
     1
102
RTVSPost2010Prop48
 90
       50
102
RTVSPost2010PropOp48
 70
     1
102
RTVSPost2010Prop49
280
     0
102
RTVSPost2010PropOp49
 70
     1
102
RTVSPost2010Prop50
 90
       50
102
RTVSPost2010PropOp50
 70
     1
102
RTVSPost2010Prop51ColorIndex
 90
      256
102
RTVSPost2010Prop51ColorRGB
 90
-16777216
102
RTVSPost2010PropOp51
 70
     0
102
RTVSPost2010Prop52
140
1.0
102
RTVSPost2010PropOp52
 70
     0
102
RTVSPost2010Prop53
 90
        2
102
RTVSPost2010PropOp53
 70
     1
102
RTVSPost2010Prop54
  1
strokes_ogs.tif
102
RTVSPost2010PropOp54
 70
     1
102
RTVSPost2010Prop55
280
     0
102
RTVSPost2010PropOp55
 70
     1
102
RTVSPost2010Prop56
140
1.0
102
RTVSPost2010PropOp56
 70
     1
102
RTVSPost2010Prop57
140
1.0
102
RTVSPost2010PropOp57
 70
     1
102
RTVSPropertyOp0
 70
     1
102
RTVSPropertyOp1
 70
     1
102
RTVSPropertyOp2
 70
     1
102
RTVSPropertyOp3
 70
     1
102
RTVSPropertyOp4
 70
     1
102
RTVSPropertyOp5
 70
     1
102
RTVSPropertyOp6
 70
     1
102
RTVSPropertyOp7
 70
     1
102
RTVSPropertyOp8
 70
     1
102
RTVSPropertyOp9
 70
     1
102
RTVSPropertyOp10
 70
     1
102
RTVSPropertyOp11
 70
     1
102
RTVSPropertyOp12
 70
     1
102
RTVSPropertyOp13
 70
     1
102
RTVSPropertyOp14
 70
     1
102
RTVSPropertyOp15
 70
     1
102
RTVSPropertyOp16
 70
     1
102
RTVSPropertyOp17
 70
     1
102
RTVSPropertyOp18
 70
     1
102
RTVSPropertyOp19
 70
     1
102
RTVSPropertyOp20
 70
     1
102
RTVSPropertyOp21
 70
     1
102
RTVSPropertyOp22
 70
     1
102
RTVSPropertyOp23
 70
     1
102
RTVSPropertyOp24
 70
     1
102
RTVSPropertyOp25
 70
     1
102
RTVSPropertyOp26
 70
     1
102
RTVSPropertyOp27
 70
     1
102
RTVSPropertyOp28
 70
     1
102
RTVSPropertyOp29
 70
     1
102
RTVSPropertyOp30
 70
     1
102
RTVSPropertyOp31
 70
     1
102
RTVSPropertyOp32
 70
     1
102
RTVSPropertyOp33
 70
     1
102
RTVSPropertyOp34
 70
     1
102
RTVSPropertyOp35
 70
     1
102
RTVSPropertyOp36
 70
     1
102
RTVSPropertyOp37
 70
     1
102
RTVSPropertyOp38
 70
     1
102
RTVSPropertyOp39
 70
     1
102
RTVSPropertyOp40
 70
     1
102
RTVSPropertyOp41
 70
     1
102
RTVSPropertyOp42
 70
     1
102
RTVSPropertyOp43
 70
     1
102
RTVSPropertyOp44
 70
     1
102
RTVSPropertyOp45
 70
     1
102
RTVSPropertyOp46
 70
     1
102
RTVSPropertyOp47
 70
     1
102
RTVSPropertyOp48
 70
     1
102
RTVSPropertyOp49
 70
     1
102
RTVSPropertyOp50
 70
     1
102
RTVSPropertyOp51
 70
     0
102
RTVSPropertyOp52
 70
     0
102
RTVSPropertyOp53
 70
     1
102
RTVSPropertyOp54
 70
     1
102
RTVSPropertyOp55
 70
     1
102
RTVSPropertyOp56
 70
     1
102
RTVSPropertyOp57
 70
     1
102
RTVSPropertyOp58
 70
     1
102
RTVSPropertyOp59
 70
     1
102
RTVSPropertyOp60
 70
     1
102
RTVSPropertyOp61
 70
     1
102
RTVSPropertyOp62
 70
     1
  0
XRECORD
  5
A6A2
102
{ACAD_REACTORS
330
A6A1
102
}
330
A6A1
100
AcDbXrecord
280
     1
102
RTVSPost2010Prop28
280
     0
102
RTVSPost2010PropOp28
 70
     1
102
RTVSPost2010Prop29
280
     1
102
RTVSPost2010PropOp29
 70
     1
102
RTVSPost2010Prop30
280
     1
102
RTVSPost2010PropOp30
 70
     1
102
RTVSPost2010Prop31
280
     0
102
RTVSPost2010PropOp31
 70
     1
102
RTVSPost2010Prop32
280
     0
102
RTVSPost2010PropOp32
 70
     1
102
RTVSPost2010Prop33
280
     0
102
RTVSPost2010PropOp33
 70
     1
102
RTVSPost2010Prop34
280
     0
102
RTVSPost2010PropOp34
 70
     1
102
RTVSPost2010Prop35
280
     0
102
RTVSPost2010PropOp35
 70
     1
102
RTVSPost2010Prop36
280
     0
102
RTVSPost2010PropOp36
 70
     1
102
RTVSPost2010Prop37
 90
       50
102
RTVSPost2010PropOp37
 70
     0
102
RTVSPost2010Prop38
140
0.0
102
RTVSPost2010PropOp38
 70
     0
102
RTVSPost2010Prop39
140
1.0
102
RTVSPost2010PropOp39
 70
     0
102
RTVSPost2010Prop40
 90
        0
102
RTVSPost2010PropOp40
 70
     0
102
RTVSPost2010Prop41ColorIndex
 90
       18
102
RTVSPost2010Prop41ColorRGB
 90
        0
102
RTVSPost2010PropOp41
 70
     0
102
RTVSPost2010Prop42
 90
       50
102
RTVSPost2010PropOp42
 70
     0
102
RTVSPost2010Prop43
 90
        3
102
RTVSPost2010PropOp43
 70
     0
102
RTVSPost2010Prop44ColorIndex
 90
        5
102
RTVSPost2010Prop44ColorRGB
 90
      255
102
RTVSPost2010PropOp44
 70
     0
102
RTVSPost2010Prop45
280
     0
102
RTVSPost2010PropOp45
 70
     1
102
RTVSPost2010Prop46
 90
       50
102
RTVSPost2010PropOp46
 70
     0
102
RTVSPost2010Prop47
 90
       50
102
RTVSPost2010PropOp47
 70
     0
102
RTVSPost2010Prop48
 90
       50
102
RTVSPost2010PropOp48
 70
     0
102
RTVSPost2010Prop49
280
     0
102
RTVSPost2010PropOp49
 70
     1
102
RTVSPost2010Prop50
 90
       50
102
RTVSPost2010PropOp50
 70
     0
102
RTVSPost2010Prop51ColorIndex
 90
      256
102
RTVSPost2010Prop51ColorRGB
 90
-16777216
102
RTVSPost2010PropOp51
 70
     0
102
RTVSPost2010Prop52
140
1.0
102
RTVSPost2010PropOp52
 70
     0
102
RTVSPost2010Prop53
 90
        2
102
RTVSPost2010PropOp53
 70
     0
102
RTVSPost2010Prop54
  1
strokes_ogs.tif
102
RTVSPost2010PropOp54
 70
     0
102
RTVSPost2010Prop55
280
     0
102
RTVSPost2010PropOp55
 70
     1
102
RTVSPost2010Prop56
140
1.0
102
RTVSPost2010PropOp56
 70
     0
102
RTVSPost2010Prop57
140
1.0
102
RTVSPost2010PropOp57
 70
     0
102
RTVSPropertyOp0
 70
     0
102
RTVSPropertyOp1
 70
     0
102
RTVSPropertyOp2
 70
     0
102
RTVSPropertyOp3
 70
     0
102
RTVSPropertyOp4
 70
     0
102
RTVSPropertyOp5
 70
     0
102
RTVSPropertyOp6
 70
     0
102
RTVSPropertyOp7
 70
     0
102
RTVSPropertyOp8
 70
     0
102
RTVSPropertyOp9
 70
     0
102
RTVSPropertyOp10
 70
     0
102
RTVSPropertyOp11
 70
     0
102
RTVSPropertyOp12
 70
     0
102
RTVSPropertyOp13
 70
     0
102
RTVSPropertyOp14
 70
     2
102
RTVSPropertyOp15
 70
     0
102
RTVSPropertyOp16
 70
     0
102
RTVSPropertyOp17
 70
     0
102
RTVSPropertyOp18
 70
     0
102
RTVSPropertyOp19
 70
     0
102
RTVSPropertyOp20
 70
     0
102
RTVSPropertyOp21
 70
     0
102
RTVSPropertyOp22
 70
     0
102
RTVSPropertyOp23
 70
     0
102
RTVSPropertyOp24
 70
     0
102
RTVSPropertyOp25
 70
     0
102
RTVSPropertyOp26
 70
     0
102
RTVSPropertyOp27
 70
     0
102
RTVSPropertyOp28
 70
     1
102
RTVSPropertyOp29
 70
     1
102
RTVSPropertyOp30
 70
     1
102
RTVSPropertyOp31
 70
     1
102
RTVSPropertyOp32
 70
     1
102
RTVSPropertyOp33
 70
     1
102
RTVSPropertyOp34
 70
     1
102
RTVSPropertyOp35
 70
     1
102
RTVSPropertyOp36
 70
     1
102
RTVSPropertyOp37
 70
     0
102
RTVSPropertyOp38
 70
     0
102
RTVSPropertyOp39
 70
     0
102
RTVSPropertyOp40
 70
     0
102
RTVSPropertyOp41
 70
     0
102
RTVSPropertyOp42
 70
     0
102
RTVSPropertyOp43
 70
     0
102
RTVSPropertyOp44
 70
     0
102
RTVSPropertyOp45
 70
     1
102
RTVSPropertyOp46
 70
     0
102
RTVSPropertyOp47
 70
     0
102
RTVSPropertyOp48
 70
     0
102
RTVSPropertyOp49
 70
     1
102
RTVSPropertyOp50
 70
     0
102
RTVSPropertyOp51
 70
     0
102
RTVSPropertyOp52
 70
     0
102
RTVSPropertyOp53
 70
     0
102
RTVSPropertyOp54
 70
     0
102
RTVSPropertyOp55
 70
     1
102
RTVSPropertyOp56
 70
     0
102
RTVSPropertyOp57
 70
     0
102
RTVSPropertyOp58
 70
     0
102
RTVSPropertyOp59
 70
     0
102
RTVSPropertyOp60
 70
     0
102
RTVSPropertyOp61
 70
     0
102
RTVSPropertyOp62
 70
     0
  0
XRECORD
  5
A692
102
{ACAD_REACTORS
330
A691
102
}
330
A691
100
AcDbXrecord
280
     1
102
RTVSPost2010Prop28
280
     0
102
RTVSPost2010PropOp28
 70
     1
102
RTVSPost2010Prop29
280
     1
102
RTVSPost2010PropOp29
 70
     1
102
RTVSPost2010Prop30
280
     1
102
RTVSPost2010PropOp30
 70
     1
102
RTVSPost2010Prop31
280
     0
102
RTVSPost2010PropOp31
 70
     1
102
RTVSPost2010Prop32
280
     0
102
RTVSPost2010PropOp32
 70
     1
102
RTVSPost2010Prop33
280
     0
102
RTVSPost2010PropOp33
 70
     1
102
RTVSPost2010Prop34
280
     0
102
RTVSPost2010PropOp34
 70
     1
102
RTVSPost2010Prop35
280
     0
102
RTVSPost2010PropOp35
 70
     1
102
RTVSPost2010Prop36
280
     0
102
RTVSPost2010PropOp36
 70
     1
102
RTVSPost2010Prop37
 90
       50
102
RTVSPost2010PropOp37
 70
     1
102
RTVSPost2010Prop38
140
0.0
102
RTVSPost2010PropOp38
 70
     1
102
RTVSPost2010Prop39
140
1.0
102
RTVSPost2010PropOp39
 70
     1
102
RTVSPost2010Prop40
 90
        0
102
RTVSPost2010PropOp40
 70
     1
102
RTVSPost2010Prop41ColorIndex
 90
       18
102
RTVSPost2010Prop41ColorRGB
 90
        0
102
RTVSPost2010PropOp41
 70
     1
102
RTVSPost2010Prop42
 90
       50
102
RTVSPost2010PropOp42
 70
     1
102
RTVSPost2010Prop43
 90
        3
102
RTVSPost2010PropOp43
 70
     1
102
RTVSPost2010Prop44ColorIndex
 90
        5
102
RTVSPost2010Prop44ColorRGB
 90
      255
102
RTVSPost2010PropOp44
 70
     1
102
RTVSPost2010Prop45
280
     0
102
RTVSPost2010PropOp45
 70
     1
102
RTVSPost2010Prop46
 90
       50
102
RTVSPost2010PropOp46
 70
     1
102
RTVSPost2010Prop47
 90
       50
102
RTVSPost2010PropOp47
 70
     1
102
RTVSPost2010Prop48
 90
       50
102
RTVSPost2010PropOp48
 70
     1
102
RTVSPost2010Prop49
280
     0
102
RTVSPost2010PropOp49
 70
     1
102
RTVSPost2010Prop50
 90
       50
102
RTVSPost2010PropOp50
 70
     1
102
RTVSPost2010Prop51ColorIndex
 90
      256
102
RTVSPost2010Prop51ColorRGB
 90
-16777216
102
RTVSPost2010PropOp51
 70
     0
102
RTVSPost2010Prop52
140
1.0
102
RTVSPost2010PropOp52
 70
     0
102
RTVSPost2010Prop53
 90
        2
102
RTVSPost2010PropOp53
 70
     1
102
RTVSPost2010Prop54
  1
strokes_ogs.tif
102
RTVSPost2010PropOp54
 70
     1
102
RTVSPost2010Prop55
280
     0
102
RTVSPost2010PropOp55
 70
     1
102
RTVSPost2010Prop56
140
1.0
102
RTVSPost2010PropOp56
 70
     1
102
RTVSPost2010Prop57
140
1.0
102
RTVSPost2010PropOp57
 70
     1
102
RTVSPropertyOp0
 70
     1
102
RTVSPropertyOp1
 70
     1
102
RTVSPropertyOp2
 70
     1
102
RTVSPropertyOp3
 70
     1
102
RTVSPropertyOp4
 70
     1
102
RTVSPropertyOp5
 70
     1
102
RTVSPropertyOp6
 70
     1
102
RTVSPropertyOp7
 70
     1
102
RTVSPropertyOp8
 70
     1
102
RTVSPropertyOp9
 70
     1
102
RTVSPropertyOp10
 70
     1
102
RTVSPropertyOp11
 70
     1
102
RTVSPropertyOp12
 70
     1
102
RTVSPropertyOp13
 70
     1
102
RTVSPropertyOp14
 70
     1
102
RTVSPropertyOp15
 70
     1
102
RTVSPropertyOp16
 70
     1
102
RTVSPropertyOp17
 70
     1
102
RTVSPropertyOp18
 70
     1
102
RTVSPropertyOp19
 70
     1
102
RTVSPropertyOp20
 70
     1
102
RTVSPropertyOp21
 70
     1
102
RTVSPropertyOp22
 70
     1
102
RTVSPropertyOp23
 70
     1
102
RTVSPropertyOp24
 70
     1
102
RTVSPropertyOp25
 70
     1
102
RTVSPropertyOp26
 70
     1
102
RTVSPropertyOp27
 70
     1
102
RTVSPropertyOp28
 70
     1
102
RTVSPropertyOp29
 70
     1
102
RTVSPropertyOp30
 70
     1
102
RTVSPropertyOp31
 70
     1
102
RTVSPropertyOp32
 70
     1
102
RTVSPropertyOp33
 70
     1
102
RTVSPropertyOp34
 70
     1
102
RTVSPropertyOp35
 70
     1
102
RTVSPropertyOp36
 70
     1
102
RTVSPropertyOp37
 70
     1
102
RTVSPropertyOp38
 70
     1
102
RTVSPropertyOp39
 70
     1
102
RTVSPropertyOp40
 70
     1
102
RTVSPropertyOp41
 70
     1
102
RTVSPropertyOp42
 70
     1
102
RTVSPropertyOp43
 70
     1
102
RTVSPropertyOp44
 70
     1
102
RTVSPropertyOp45
 70
     1
102
RTVSPropertyOp46
 70
     1
102
RTVSPropertyOp47
 70
     1
102
RTVSPropertyOp48
 70
     1
102
RTVSPropertyOp49
 70
     1
102
RTVSPropertyOp50
 70
     1
102
RTVSPropertyOp51
 70
     0
102
RTVSPropertyOp52
 70
     0
102
RTVSPropertyOp53
 70
     1
102
RTVSPropertyOp54
 70
     1
102
RTVSPropertyOp55
 70
     1
102
RTVSPropertyOp56
 70
     1
102
RTVSPropertyOp57
 70
     1
102
RTVSPropertyOp58
 70
     1
102
RTVSPropertyOp59
 70
     1
102
RTVSPropertyOp60
 70
     1
102
RTVSPropertyOp61
 70
     1
102
RTVSPropertyOp62
 70
     1
  0
XRECORD
  5
A6A4
102
{ACAD_REACTORS
330
A6A3
102
}
330
A6A3
100
AcDbXrecord
280
     1
102
RTVSPost2010Prop28
280
     0
102
RTVSPost2010PropOp28
 70
     1
102
RTVSPost2010Prop29
280
     1
102
RTVSPost2010PropOp29
 70
     1
102
RTVSPost2010Prop30
280
     1
102
RTVSPost2010PropOp30
 70
     1
102
RTVSPost2010Prop31
280
     0
102
RTVSPost2010PropOp31
 70
     1
102
RTVSPost2010Prop32
280
     0
102
RTVSPost2010PropOp32
 70
     1
102
RTVSPost2010Prop33
280
     0
102
RTVSPost2010PropOp33
 70
     1
102
RTVSPost2010Prop34
280
     0
102
RTVSPost2010PropOp34
 70
     1
102
RTVSPost2010Prop35
280
     0
102
RTVSPost2010PropOp35
 70
     1
102
RTVSPost2010Prop36
280
     0
102
RTVSPost2010PropOp36
 70
     1
102
RTVSPost2010Prop37
 90
       50
102
RTVSPost2010PropOp37
 70
     0
102
RTVSPost2010Prop38
140
0.0
102
RTVSPost2010PropOp38
 70
     0
102
RTVSPost2010Prop39
140
1.0
102
RTVSPost2010PropOp39
 70
     0
102
RTVSPost2010Prop40
 90
        0
102
RTVSPost2010PropOp40
 70
     0
102
RTVSPost2010Prop41ColorIndex
 90
       18
102
RTVSPost2010Prop41ColorRGB
 90
        0
102
RTVSPost2010PropOp41
 70
     0
102
RTVSPost2010Prop42
 90
       50
102
RTVSPost2010PropOp42
 70
     0
102
RTVSPost2010Prop43
 90
        3
102
RTVSPost2010PropOp43
 70
     0
102
RTVSPost2010Prop44ColorIndex
 90
        5
102
RTVSPost2010Prop44ColorRGB
 90
      255
102
RTVSPost2010PropOp44
 70
     0
102
RTVSPost2010Prop45
280
     0
102
RTVSPost2010PropOp45
 70
     1
102
RTVSPost2010Prop46
 90
       50
102
RTVSPost2010PropOp46
 70
     0
102
RTVSPost2010Prop47
 90
       50
102
RTVSPost2010PropOp47
 70
     0
102
RTVSPost2010Prop48
 90
       50
102
RTVSPost2010PropOp48
 70
     0
102
RTVSPost2010Prop49
280
     0
102
RTVSPost2010PropOp49
 70
     1
102
RTVSPost2010Prop50
 90
       50
102
RTVSPost2010PropOp50
 70
     0
102
RTVSPost2010Prop51ColorIndex
 90
      256
102
RTVSPost2010Prop51ColorRGB
 90
-16777216
102
RTVSPost2010PropOp51
 70
     0
102
RTVSPost2010Prop52
140
1.0
102
RTVSPost2010PropOp52
 70
     0
102
RTVSPost2010Prop53
 90
        2
102
RTVSPost2010PropOp53
 70
     0
102
RTVSPost2010Prop54
  1
strokes_ogs.tif
102
RTVSPost2010PropOp54
 70
     0
102
RTVSPost2010Prop55
280
     0
102
RTVSPost2010PropOp55
 70
     1
102
RTVSPost2010Prop56
140
1.0
102
RTVSPost2010PropOp56
 70
     0
102
RTVSPost2010Prop57
140
1.0
102
RTVSPost2010PropOp57
 70
     0
102
RTVSPropertyOp0
 70
     0
102
RTVSPropertyOp1
 70
     0
102
RTVSPropertyOp2
 70
     0
102
RTVSPropertyOp3
 70
     0
102
RTVSPropertyOp4
 70
     0
102
RTVSPropertyOp5
 70
     0
102
RTVSPropertyOp6
 70
     0
102
RTVSPropertyOp7
 70
     0
102
RTVSPropertyOp8
 70
     0
102
RTVSPropertyOp9
 70
     0
102
RTVSPropertyOp10
 70
     0
102
RTVSPropertyOp11
 70
     0
102
RTVSPropertyOp12
 70
     0
102
RTVSPropertyOp13
 70
     0
102
RTVSPropertyOp14
 70
     2
102
RTVSPropertyOp15
 70
     0
102
RTVSPropertyOp16
 70
     0
102
RTVSPropertyOp17
 70
     0
102
RTVSPropertyOp18
 70
     0
102
RTVSPropertyOp19
 70
     0
102
RTVSPropertyOp20
 70
     0
102
RTVSPropertyOp21
 70
     0
102
RTVSPropertyOp22
 70
     0
102
RTVSPropertyOp23
 70
     0
102
RTVSPropertyOp24
 70
     0
102
RTVSPropertyOp25
 70
     0
102
RTVSPropertyOp26
 70
     0
102
RTVSPropertyOp27
 70
     0
102
RTVSPropertyOp28
 70
     1
102
RTVSPropertyOp29
 70
     1
102
RTVSPropertyOp30
 70
     1
102
RTVSPropertyOp31
 70
     1
102
RTVSPropertyOp32
 70
     1
102
RTVSPropertyOp33
 70
     1
102
RTVSPropertyOp34
 70
     1
102
RTVSPropertyOp35
 70
     1
102
RTVSPropertyOp36
 70
     1
102
RTVSPropertyOp37
 70
     0
102
RTVSPropertyOp38
 70
     0
102
RTVSPropertyOp39
 70
     0
102
RTVSPropertyOp40
 70
     0
102
RTVSPropertyOp41
 70
     0
102
RTVSPropertyOp42
 70
     0
102
RTVSPropertyOp43
 70
     0
102
RTVSPropertyOp44
 70
     0
102
RTVSPropertyOp45
 70
     1
102
RTVSPropertyOp46
 70
     0
102
RTVSPropertyOp47
 70
     0
102
RTVSPropertyOp48
 70
     0
102
RTVSPropertyOp49
 70
     1
102
RTVSPropertyOp50
 70
     0
102
RTVSPropertyOp51
 70
     0
102
RTVSPropertyOp52
 70
     0
102
RTVSPropertyOp53
 70
     0
102
RTVSPropertyOp54
 70
     0
102
RTVSPropertyOp55
 70
     1
102
RTVSPropertyOp56
 70
     0
102
RTVSPropertyOp57
 70
     0
102
RTVSPropertyOp58
 70
     0
102
RTVSPropertyOp59
 70
     0
102
RTVSPropertyOp60
 70
     0
102
RTVSPropertyOp61
 70
     0
102
RTVSPropertyOp62
 70
     0
  0
XRECORD
  5
A68A
102
{ACAD_REACTORS
330
A689
102
}
330
A689
100
AcDbXrecord
280
     1
102
RTVSPost2010Prop28
280
     0
102
RTVSPost2010PropOp28
 70
     1
102
RTVSPost2010Prop29
280
     1
102
RTVSPost2010PropOp29
 70
     1
102
RTVSPost2010Prop30
280
     1
102
RTVSPost2010PropOp30
 70
     1
102
RTVSPost2010Prop31
280
     0
102
RTVSPost2010PropOp31
 70
     1
102
RTVSPost2010Prop32
280
     0
102
RTVSPost2010PropOp32
 70
     1
102
RTVSPost2010Prop33
280
     0
102
RTVSPost2010PropOp33
 70
     1
102
RTVSPost2010Prop34
280
     0
102
RTVSPost2010PropOp34
 70
     1
102
RTVSPost2010Prop35
280
     0
102
RTVSPost2010PropOp35
 70
     1
102
RTVSPost2010Prop36
280
     0
102
RTVSPost2010PropOp36
 70
     1
102
RTVSPost2010Prop37
 90
       50
102
RTVSPost2010PropOp37
 70
     1
102
RTVSPost2010Prop38
140
0.0
102
RTVSPost2010PropOp38
 70
     1
102
RTVSPost2010Prop39
140
1.0
102
RTVSPost2010PropOp39
 70
     1
102
RTVSPost2010Prop40
 90
        0
102
RTVSPost2010PropOp40
 70
     1
102
RTVSPost2010Prop41ColorIndex
 90
       18
102
RTVSPost2010Prop41ColorRGB
 90
        0
102
RTVSPost2010PropOp41
 70
     1
102
RTVSPost2010Prop42
 90
       50
102
RTVSPost2010PropOp42
 70
     1
102
RTVSPost2010Prop43
 90
        3
102
RTVSPost2010PropOp43
 70
     1
102
RTVSPost2010Prop44ColorIndex
 90
        5
102
RTVSPost2010Prop44ColorRGB
 90
      255
102
RTVSPost2010PropOp44
 70
     1
102
RTVSPost2010Prop45
280
     0
102
RTVSPost2010PropOp45
 70
     1
102
RTVSPost2010Prop46
 90
       50
102
RTVSPost2010PropOp46
 70
     1
102
RTVSPost2010Prop47
 90
       50
102
RTVSPost2010PropOp47
 70
     1
102
RTVSPost2010Prop48
 90
       50
102
RTVSPost2010PropOp48
 70
     1
102
RTVSPost2010Prop49
280
     0
102
RTVSPost2010PropOp49
 70
     1
102
RTVSPost2010Prop50
 90
       50
102
RTVSPost2010PropOp50
 70
     1
102
RTVSPost2010Prop51ColorIndex
 90
      256
102
RTVSPost2010Prop51ColorRGB
 90
-16777216
102
RTVSPost2010PropOp51
 70
     0
102
RTVSPost2010Prop52
140
1.0
102
RTVSPost2010PropOp52
 70
     0
102
RTVSPost2010Prop53
 90
        2
102
RTVSPost2010PropOp53
 70
     1
102
RTVSPost2010Prop54
  1
strokes_ogs.tif
102
RTVSPost2010PropOp54
 70
     1
102
RTVSPost2010Prop55
280
     0
102
RTVSPost2010PropOp55
 70
     1
102
RTVSPost2010Prop56
140
1.0
102
RTVSPost2010PropOp56
 70
     1
102
RTVSPost2010Prop57
140
1.0
102
RTVSPost2010PropOp57
 70
     1
102
RTVSPropertyOp0
 70
     1
102
RTVSPropertyOp1
 70
     1
102
RTVSPropertyOp2
 70
     1
102
RTVSPropertyOp3
 70
     1
102
RTVSPropertyOp4
 70
     1
102
RTVSPropertyOp5
 70
     1
102
RTVSPropertyOp6
 70
     1
102
RTVSPropertyOp7
 70
     1
102
RTVSPropertyOp8
 70
     1
102
RTVSPropertyOp9
 70
     1
102
RTVSPropertyOp10
 70
     1
102
RTVSPropertyOp11
 70
     1
102
RTVSPropertyOp12
 70
     1
102
RTVSPropertyOp13
 70
     1
102
RTVSPropertyOp14
 70
     1
102
RTVSPropertyOp15
 70
     1
102
RTVSPropertyOp16
 70
     1
102
RTVSPropertyOp17
 70
     1
102
RTVSPropertyOp18
 70
     1
102
RTVSPropertyOp19
 70
     1
102
RTVSPropertyOp20
 70
     1
102
RTVSPropertyOp21
 70
     1
102
RTVSPropertyOp22
 70
     1
102
RTVSPropertyOp23
 70
     1
102
RTVSPropertyOp24
 70
     1
102
RTVSPropertyOp25
 70
     1
102
RTVSPropertyOp26
 70
     1
102
RTVSPropertyOp27
 70
     1
102
RTVSPropertyOp28
 70
     1
102
RTVSPropertyOp29
 70
     1
102
RTVSPropertyOp30
 70
     1
102
RTVSPropertyOp31
 70
     1
102
RTVSPropertyOp32
 70
     1
102
RTVSPropertyOp33
 70
     1
102
RTVSPropertyOp34
 70
     1
102
RTVSPropertyOp35
 70
     1
102
RTVSPropertyOp36
 70
     1
102
RTVSPropertyOp37
 70
     1
102
RTVSPropertyOp38
 70
     1
102
RTVSPropertyOp39
 70
     1
102
RTVSPropertyOp40
 70
     1
102
RTVSPropertyOp41
 70
     1
102
RTVSPropertyOp42
 70
     1
102
RTVSPropertyOp43
 70
     1
102
RTVSPropertyOp44
 70
     1
102
RTVSPropertyOp45
 70
     1
102
RTVSPropertyOp46
 70
     1
102
RTVSPropertyOp47
 70
     1
102
RTVSPropertyOp48
 70
     1
102
RTVSPropertyOp49
 70
     1
102
RTVSPropertyOp50
 70
     1
102
RTVSPropertyOp51
 70
     0
102
RTVSPropertyOp52
 70
     0
102
RTVSPropertyOp53
 70
     1
102
RTVSPropertyOp54
 70
     1
102
RTVSPropertyOp55
 70
     1
102
RTVSPropertyOp56
 70
     1
102
RTVSPropertyOp57
 70
     1
102
RTVSPropertyOp58
 70
     1
102
RTVSPropertyOp59
 70
     1
102
RTVSPropertyOp60
 70
     1
102
RTVSPropertyOp61
 70
     1
102
RTVSPropertyOp62
 70
     1
  0
XRECORD
  5
A6A0
102
{ACAD_REACTORS
330
A69F
102
}
330
A69F
100
AcDbXrecord
280
     1
102
RTVSPost2010Prop28
280
     0
102
RTVSPost2010PropOp28
 70
     1
102
RTVSPost2010Prop29
280
     1
102
RTVSPost2010PropOp29
 70
     1
102
RTVSPost2010Prop30
280
     1
102
RTVSPost2010PropOp30
 70
     1
102
RTVSPost2010Prop31
280
     0
102
RTVSPost2010PropOp31
 70
     1
102
RTVSPost2010Prop32
280
     0
102
RTVSPost2010PropOp32
 70
     1
102
RTVSPost2010Prop33
280
     0
102
RTVSPost2010PropOp33
 70
     1
102
RTVSPost2010Prop34
280
     0
102
RTVSPost2010PropOp34
 70
     1
102
RTVSPost2010Prop35
280
     0
102
RTVSPost2010PropOp35
 70
     1
102
RTVSPost2010Prop36
280
     0
102
RTVSPost2010PropOp36
 70
     1
102
RTVSPost2010Prop37
 90
       50
102
RTVSPost2010PropOp37
 70
     1
102
RTVSPost2010Prop38
140
0.0
102
RTVSPost2010PropOp38
 70
     1
102
RTVSPost2010Prop39
140
1.0
102
RTVSPost2010PropOp39
 70
     1
102
RTVSPost2010Prop40
 90
        0
102
RTVSPost2010PropOp40
 70
     1
102
RTVSPost2010Prop41ColorIndex
 90
       18
102
RTVSPost2010Prop41ColorRGB
 90
        0
102
RTVSPost2010PropOp41
 70
     1
102
RTVSPost2010Prop42
 90
       50
102
RTVSPost2010PropOp42
 70
     1
102
RTVSPost2010Prop43
 90
        3
102
RTVSPost2010PropOp43
 70
     1
102
RTVSPost2010Prop44ColorIndex
 90
        5
102
RTVSPost2010Prop44ColorRGB
 90
      255
102
RTVSPost2010PropOp44
 70
     1
102
RTVSPost2010Prop45
280
     0
102
RTVSPost2010PropOp45
 70
     1
102
RTVSPost2010Prop46
 90
       50
102
RTVSPost2010PropOp46
 70
     1
102
RTVSPost2010Prop47
 90
       50
102
RTVSPost2010PropOp47
 70
     1
102
RTVSPost2010Prop48
 90
       50
102
RTVSPost2010PropOp48
 70
     1
102
RTVSPost2010Prop49
280
     0
102
RTVSPost2010PropOp49
 70
     1
102
RTVSPost2010Prop50
 90
       50
102
RTVSPost2010PropOp50
 70
     1
102
RTVSPost2010Prop51ColorIndex
 90
      256
102
RTVSPost2010Prop51ColorRGB
 90
-16777216
102
RTVSPost2010PropOp51
 70
     0
102
RTVSPost2010Prop52
140
1.0
102
RTVSPost2010PropOp52
 70
     0
102
RTVSPost2010Prop53
 90
        2
102
RTVSPost2010PropOp53
 70
     1
102
RTVSPost2010Prop54
  1
strokes_ogs.tif
102
RTVSPost2010PropOp54
 70
     1
102
RTVSPost2010Prop55
280
     0
102
RTVSPost2010PropOp55
 70
     1
102
RTVSPost2010Prop56
140
1.0
102
RTVSPost2010PropOp56
 70
     1
102
RTVSPost2010Prop57
140
1.0
102
RTVSPost2010PropOp57
 70
     1
102
RTVSPropertyOp0
 70
     1
102
RTVSPropertyOp1
 70
     1
102
RTVSPropertyOp2
 70
     1
102
RTVSPropertyOp3
 70
     1
102
RTVSPropertyOp4
 70
     1
102
RTVSPropertyOp5
 70
     1
102
RTVSPropertyOp6
 70
     1
102
RTVSPropertyOp7
 70
     1
102
RTVSPropertyOp8
 70
     1
102
RTVSPropertyOp9
 70
     1
102
RTVSPropertyOp10
 70
     1
102
RTVSPropertyOp11
 70
     1
102
RTVSPropertyOp12
 70
     1
102
RTVSPropertyOp13
 70
     1
102
RTVSPropertyOp14
 70
     1
102
RTVSPropertyOp15
 70
     1
102
RTVSPropertyOp16
 70
     1
102
RTVSPropertyOp17
 70
     1
102
RTVSPropertyOp18
 70
     1
102
RTVSPropertyOp19
 70
     1
102
RTVSPropertyOp20
 70
     1
102
RTVSPropertyOp21
 70
     1
102
RTVSPropertyOp22
 70
     1
102
RTVSPropertyOp23
 70
     1
102
RTVSPropertyOp24
 70
     1
102
RTVSPropertyOp25
 70
     1
102
RTVSPropertyOp26
 70
     1
102
RTVSPropertyOp27
 70
     1
102
RTVSPropertyOp28
 70
     1
102
RTVSPropertyOp29
 70
     1
102
RTVSPropertyOp30
 70
     1
102
RTVSPropertyOp31
 70
     1
102
RTVSPropertyOp32
 70
     1
102
RTVSPropertyOp33
 70
     1
102
RTVSPropertyOp34
 70
     1
102
RTVSPropertyOp35
 70
     1
102
RTVSPropertyOp36
 70
     1
102
RTVSPropertyOp37
 70
     1
102
RTVSPropertyOp38
 70
     1
102
RTVSPropertyOp39
 70
     1
102
RTVSPropertyOp40
 70
     1
102
RTVSPropertyOp41
 70
     1
102
RTVSPropertyOp42
 70
     1
102
RTVSPropertyOp43
 70
     1
102
RTVSPropertyOp44
 70
     1
102
RTVSPropertyOp45
 70
     1
102
RTVSPropertyOp46
 70
     1
102
RTVSPropertyOp47
 70
     1
102
RTVSPropertyOp48
 70
     1
102
RTVSPropertyOp49
 70
     1
102
RTVSPropertyOp50
 70
     1
102
RTVSPropertyOp51
 70
     0
102
RTVSPropertyOp52
 70
     0
102
RTVSPropertyOp53
 70
     1
102
RTVSPropertyOp54
 70
     1
102
RTVSPropertyOp55
 70
     1
102
RTVSPropertyOp56
 70
     1
102
RTVSPropertyOp57
 70
     1
102
RTVSPropertyOp58
 70
     1
102
RTVSPropertyOp59
 70
     1
102
RTVSPropertyOp60
 70
     1
102
RTVSPropertyOp61
 70
     1
102
RTVSPropertyOp62
 70
     1
  0
XRECORD
  5
A69E
102
{ACAD_REACTORS
330
A69D
102
}
330
A69D
100
AcDbXrecord
280
     1
102
RTVSPost2010Prop28
280
     0
102
RTVSPost2010PropOp28
 70
     1
102
RTVSPost2010Prop29
280
     1
102
RTVSPost2010PropOp29
 70
     1
102
RTVSPost2010Prop30
280
     1
102
RTVSPost2010PropOp30
 70
     1
102
RTVSPost2010Prop31
280
     0
102
RTVSPost2010PropOp31
 70
     1
102
RTVSPost2010Prop32
280
     0
102
RTVSPost2010PropOp32
 70
     1
102
RTVSPost2010Prop33
280
     0
102
RTVSPost2010PropOp33
 70
     1
102
RTVSPost2010Prop34
280
     0
102
RTVSPost2010PropOp34
 70
     1
102
RTVSPost2010Prop35
280
     0
102
RTVSPost2010PropOp35
 70
     1
102
RTVSPost2010Prop36
280
     0
102
RTVSPost2010PropOp36
 70
     1
102
RTVSPost2010Prop37
 90
       50
102
RTVSPost2010PropOp37
 70
     1
102
RTVSPost2010Prop38
140
0.0
102
RTVSPost2010PropOp38
 70
     1
102
RTVSPost2010Prop39
140
1.0
102
RTVSPost2010PropOp39
 70
     1
102
RTVSPost2010Prop40
 90
        0
102
RTVSPost2010PropOp40
 70
     1
102
RTVSPost2010Prop41ColorIndex
 90
       18
102
RTVSPost2010Prop41ColorRGB
 90
        0
102
RTVSPost2010PropOp41
 70
     1
102
RTVSPost2010Prop42
 90
       50
102
RTVSPost2010PropOp42
 70
     1
102
RTVSPost2010Prop43
 90
        3
102
RTVSPost2010PropOp43
 70
     1
102
RTVSPost2010Prop44ColorIndex
 90
        5
102
RTVSPost2010Prop44ColorRGB
 90
      255
102
RTVSPost2010PropOp44
 70
     1
102
RTVSPost2010Prop45
280
     0
102
RTVSPost2010PropOp45
 70
     1
102
RTVSPost2010Prop46
 90
       50
102
RTVSPost2010PropOp46
 70
     1
102
RTVSPost2010Prop47
 90
       50
102
RTVSPost2010PropOp47
 70
     1
102
RTVSPost2010Prop48
 90
       50
102
RTVSPost2010PropOp48
 70
     1
102
RTVSPost2010Prop49
280
     0
102
RTVSPost2010PropOp49
 70
     1
102
RTVSPost2010Prop50
 90
       50
102
RTVSPost2010PropOp50
 70
     1
102
RTVSPost2010Prop51ColorIndex
 90
      256
102
RTVSPost2010Prop51ColorRGB
 90
-16777216
102
RTVSPost2010PropOp51
 70
     0
102
RTVSPost2010Prop52
140
1.0
102
RTVSPost2010PropOp52
 70
     0
102
RTVSPost2010Prop53
 90
        2
102
RTVSPost2010PropOp53
 70
     1
102
RTVSPost2010Prop54
  1
strokes_ogs.tif
102
RTVSPost2010PropOp54
 70
     1
102
RTVSPost2010Prop55
280
     0
102
RTVSPost2010PropOp55
 70
     1
102
RTVSPost2010Prop56
140
1.0
102
RTVSPost2010PropOp56
 70
     1
102
RTVSPost2010Prop57
140
1.0
102
RTVSPost2010PropOp57
 70
     1
102
RTVSPropertyOp0
 70
     1
102
RTVSPropertyOp1
 70
     1
102
RTVSPropertyOp2
 70
     1
102
RTVSPropertyOp3
 70
     1
102
RTVSPropertyOp4
 70
     1
102
RTVSPropertyOp5
 70
     1
102
RTVSPropertyOp6
 70
     1
102
RTVSPropertyOp7
 70
     1
102
RTVSPropertyOp8
 70
     1
102
RTVSPropertyOp9
 70
     1
102
RTVSPropertyOp10
 70
     1
102
RTVSPropertyOp11
 70
     1
102
RTVSPropertyOp12
 70
     1
102
RTVSPropertyOp13
 70
     1
102
RTVSPropertyOp14
 70
     1
102
RTVSPropertyOp15
 70
     1
102
RTVSPropertyOp16
 70
     1
102
RTVSPropertyOp17
 70
     1
102
RTVSPropertyOp18
 70
     1
102
RTVSPropertyOp19
 70
     1
102
RTVSPropertyOp20
 70
     1
102
RTVSPropertyOp21
 70
     1
102
RTVSPropertyOp22
 70
     1
102
RTVSPropertyOp23
 70
     1
102
RTVSPropertyOp24
 70
     1
102
RTVSPropertyOp25
 70
     1
102
RTVSPropertyOp26
 70
     1
102
RTVSPropertyOp27
 70
     1
102
RTVSPropertyOp28
 70
     1
102
RTVSPropertyOp29
 70
     1
102
RTVSPropertyOp30
 70
     1
102
RTVSPropertyOp31
 70
     1
102
RTVSPropertyOp32
 70
     1
102
RTVSPropertyOp33
 70
     1
102
RTVSPropertyOp34
 70
     1
102
RTVSPropertyOp35
 70
     1
102
RTVSPropertyOp36
 70
     1
102
RTVSPropertyOp37
 70
     1
102
RTVSPropertyOp38
 70
     1
102
RTVSPropertyOp39
 70
     1
102
RTVSPropertyOp40
 70
     1
102
RTVSPropertyOp41
 70
     1
102
RTVSPropertyOp42
 70
     1
102
RTVSPropertyOp43
 70
     1
102
RTVSPropertyOp44
 70
     1
102
RTVSPropertyOp45
 70
     1
102
RTVSPropertyOp46
 70
     1
102
RTVSPropertyOp47
 70
     1
102
RTVSPropertyOp48
 70
     1
102
RTVSPropertyOp49
 70
     1
102
RTVSPropertyOp50
 70
     1
102
RTVSPropertyOp51
 70
     0
102
RTVSPropertyOp52
 70
     0
102
RTVSPropertyOp53
 70
     1
102
RTVSPropertyOp54
 70
     1
102
RTVSPropertyOp55
 70
     1
102
RTVSPropertyOp56
 70
     1
102
RTVSPropertyOp57
 70
     1
102
RTVSPropertyOp58
 70
     1
102
RTVSPropertyOp59
 70
     1
102
RTVSPropertyOp60
 70
     1
102
RTVSPropertyOp61
 70
     1
102
RTVSPropertyOp62
 70
     1
  0
XRECORD
  5
A698
102
{ACAD_REACTORS
330
A697
102
}
330
A697
100
AcDbXrecord
280
     1
102
RTVSPost2010Prop28
280
     0
102
RTVSPost2010PropOp28
 70
     1
102
RTVSPost2010Prop29
280
     1
102
RTVSPost2010PropOp29
 70
     1
102
RTVSPost2010Prop30
280
     1
102
RTVSPost2010PropOp30
 70
     1
102
RTVSPost2010Prop31
280
     0
102
RTVSPost2010PropOp31
 70
     1
102
RTVSPost2010Prop32
280
     0
102
RTVSPost2010PropOp32
 70
     1
102
RTVSPost2010Prop33
280
     0
102
RTVSPost2010PropOp33
 70
     1
102
RTVSPost2010Prop34
280
     0
102
RTVSPost2010PropOp34
 70
     1
102
RTVSPost2010Prop35
280
     0
102
RTVSPost2010PropOp35
 70
     1
102
RTVSPost2010Prop36
280
     0
102
RTVSPost2010PropOp36
 70
     1
102
RTVSPost2010Prop37
 90
       50
102
RTVSPost2010PropOp37
 70
     1
102
RTVSPost2010Prop38
140
0.0
102
RTVSPost2010PropOp38
 70
     1
102
RTVSPost2010Prop39
140
1.0
102
RTVSPost2010PropOp39
 70
     1
102
RTVSPost2010Prop40
 90
        0
102
RTVSPost2010PropOp40
 70
     1
102
RTVSPost2010Prop41ColorIndex
 90
       18
102
RTVSPost2010Prop41ColorRGB
 90
        0
102
RTVSPost2010PropOp41
 70
     1
102
RTVSPost2010Prop42
 90
       50
102
RTVSPost2010PropOp42
 70
     1
102
RTVSPost2010Prop43
 90
        3
102
RTVSPost2010PropOp43
 70
     1
102
RTVSPost2010Prop44ColorIndex
 90
        5
102
RTVSPost2010Prop44ColorRGB
 90
      255
102
RTVSPost2010PropOp44
 70
     1
102
RTVSPost2010Prop45
280
     0
102
RTVSPost2010PropOp45
 70
     1
102
RTVSPost2010Prop46
 90
       50
102
RTVSPost2010PropOp46
 70
     1
102
RTVSPost2010Prop47
 90
       50
102
RTVSPost2010PropOp47
 70
     1
102
RTVSPost2010Prop48
 90
       50
102
RTVSPost2010PropOp48
 70
     1
102
RTVSPost2010Prop49
280
     0
102
RTVSPost2010PropOp49
 70
     1
102
RTVSPost2010Prop50
 90
       50
102
RTVSPost2010PropOp50
 70
     1
102
RTVSPost2010Prop51ColorIndex
 90
      256
102
RTVSPost2010Prop51ColorRGB
 90
-16777216
102
RTVSPost2010PropOp51
 70
     0
102
RTVSPost2010Prop52
140
1.0
102
RTVSPost2010PropOp52
 70
     0
102
RTVSPost2010Prop53
 90
        2
102
RTVSPost2010PropOp53
 70
     1
102
RTVSPost2010Prop54
  1
strokes_ogs.tif
102
RTVSPost2010PropOp54
 70
     1
102
RTVSPost2010Prop55
280
     0
102
RTVSPost2010PropOp55
 70
     1
102
RTVSPost2010Prop56
140
1.0
102
RTVSPost2010PropOp56
 70
     1
102
RTVSPost2010Prop57
140
1.0
102
RTVSPost2010PropOp57
 70
     1
102
RTVSPropertyOp0
 70
     1
102
RTVSPropertyOp1
 70
     1
102
RTVSPropertyOp2
 70
     1
102
RTVSPropertyOp3
 70
     1
102
RTVSPropertyOp4
 70
     1
102
RTVSPropertyOp5
 70
     1
102
RTVSPropertyOp6
 70
     1
102
RTVSPropertyOp7
 70
     1
102
RTVSPropertyOp8
 70
     1
102
RTVSPropertyOp9
 70
     1
102
RTVSPropertyOp10
 70
     1
102
RTVSPropertyOp11
 70
     1
102
RTVSPropertyOp12
 70
     1
102
RTVSPropertyOp13
 70
     1
102
RTVSPropertyOp14
 70
     1
102
RTVSPropertyOp15
 70
     1
102
RTVSPropertyOp16
 70
     1
102
RTVSPropertyOp17
 70
     1
102
RTVSPropertyOp18
 70
     1
102
RTVSPropertyOp19
 70
     1
102
RTVSPropertyOp20
 70
     1
102
RTVSPropertyOp21
 70
     1
102
RTVSPropertyOp22
 70
     1
102
RTVSPropertyOp23
 70
     1
102
RTVSPropertyOp24
 70
     1
102
RTVSPropertyOp25
 70
     1
102
RTVSPropertyOp26
 70
     1
102
RTVSPropertyOp27
 70
     1
102
RTVSPropertyOp28
 70
     1
102
RTVSPropertyOp29
 70
     1
102
RTVSPropertyOp30
 70
     1
102
RTVSPropertyOp31
 70
     1
102
RTVSPropertyOp32
 70
     1
102
RTVSPropertyOp33
 70
     1
102
RTVSPropertyOp34
 70
     1
102
RTVSPropertyOp35
 70
     1
102
RTVSPropertyOp36
 70
     1
102
RTVSPropertyOp37
 70
     1
102
RTVSPropertyOp38
 70
     1
102
RTVSPropertyOp39
 70
     1
102
RTVSPropertyOp40
 70
     1
102
RTVSPropertyOp41
 70
     1
102
RTVSPropertyOp42
 70
     1
102
RTVSPropertyOp43
 70
     1
102
RTVSPropertyOp44
 70
     1
102
RTVSPropertyOp45
 70
     1
102
RTVSPropertyOp46
 70
     1
102
RTVSPropertyOp47
 70
     1
102
RTVSPropertyOp48
 70
     1
102
RTVSPropertyOp49
 70
     1
102
RTVSPropertyOp50
 70
     1
102
RTVSPropertyOp51
 70
     0
102
RTVSPropertyOp52
 70
     0
102
RTVSPropertyOp53
 70
     1
102
RTVSPropertyOp54
 70
     1
102
RTVSPropertyOp55
 70
     1
102
RTVSPropertyOp56
 70
     1
102
RTVSPropertyOp57
 70
     1
102
RTVSPropertyOp58
 70
     1
102
RTVSPropertyOp59
 70
     1
102
RTVSPropertyOp60
 70
     1
102
RTVSPropertyOp61
 70
     1
102
RTVSPropertyOp62
 70
     1
  0
XRECORD
  5
A69A
102
{ACAD_REACTORS
330
A699
102
}
330
A699
100
AcDbXrecord
280
     1
102
RTVSPost2010Prop28
280
     0
102
RTVSPost2010PropOp28
 70
     1
102
RTVSPost2010Prop29
280
     1
102
RTVSPost2010PropOp29
 70
     1
102
RTVSPost2010Prop30
280
     1
102
RTVSPost2010PropOp30
 70
     1
102
RTVSPost2010Prop31
280
     0
102
RTVSPost2010PropOp31
 70
     1
102
RTVSPost2010Prop32
280
     0
102
RTVSPost2010PropOp32
 70
     1
102
RTVSPost2010Prop33
280
     0
102
RTVSPost2010PropOp33
 70
     1
102
RTVSPost2010Prop34
280
     0
102
RTVSPost2010PropOp34
 70
     1
102
RTVSPost2010Prop35
280
     0
102
RTVSPost2010PropOp35
 70
     1
102
RTVSPost2010Prop36
280
     0
102
RTVSPost2010PropOp36
 70
     1
102
RTVSPost2010Prop37
 90
       50
102
RTVSPost2010PropOp37
 70
     1
102
RTVSPost2010Prop38
140
0.0
102
RTVSPost2010PropOp38
 70
     1
102
RTVSPost2010Prop39
140
1.0
102
RTVSPost2010PropOp39
 70
     1
102
RTVSPost2010Prop40
 90
        0
102
RTVSPost2010PropOp40
 70
     1
102
RTVSPost2010Prop41ColorIndex
 90
       18
102
RTVSPost2010Prop41ColorRGB
 90
        0
102
RTVSPost2010PropOp41
 70
     1
102
RTVSPost2010Prop42
 90
       50
102
RTVSPost2010PropOp42
 70
     1
102
RTVSPost2010Prop43
 90
        3
102
RTVSPost2010PropOp43
 70
     1
102
RTVSPost2010Prop44ColorIndex
 90
        5
102
RTVSPost2010Prop44ColorRGB
 90
      255
102
RTVSPost2010PropOp44
 70
     1
102
RTVSPost2010Prop45
280
     0
102
RTVSPost2010PropOp45
 70
     1
102
RTVSPost2010Prop46
 90
       50
102
RTVSPost2010PropOp46
 70
     1
102
RTVSPost2010Prop47
 90
       50
102
RTVSPost2010PropOp47
 70
     1
102
RTVSPost2010Prop48
 90
       50
102
RTVSPost2010PropOp48
 70
     1
102
RTVSPost2010Prop49
280
     0
102
RTVSPost2010PropOp49
 70
     1
102
RTVSPost2010Prop50
 90
       50
102
RTVSPost2010PropOp50
 70
     1
102
RTVSPost2010Prop51ColorIndex
 90
      256
102
RTVSPost2010Prop51ColorRGB
 90
-16777216
102
RTVSPost2010PropOp51
 70
     0
102
RTVSPost2010Prop52
140
1.0
102
RTVSPost2010PropOp52
 70
     0
102
RTVSPost2010Prop53
 90
        2
102
RTVSPost2010PropOp53
 70
     1
102
RTVSPost2010Prop54
  1
strokes_ogs.tif
102
RTVSPost2010PropOp54
 70
     1
102
RTVSPost2010Prop55
280
     0
102
RTVSPost2010PropOp55
 70
     1
102
RTVSPost2010Prop56
140
1.0
102
RTVSPost2010PropOp56
 70
     1
102
RTVSPost2010Prop57
140
1.0
102
RTVSPost2010PropOp57
 70
     1
102
RTVSPropertyOp0
 70
     1
102
RTVSPropertyOp1
 70
     1
102
RTVSPropertyOp2
 70
     1
102
RTVSPropertyOp3
 70
     1
102
RTVSPropertyOp4
 70
     1
102
RTVSPropertyOp5
 70
     1
102
RTVSPropertyOp6
 70
     1
102
RTVSPropertyOp7
 70
     1
102
RTVSPropertyOp8
 70
     1
102
RTVSPropertyOp9
 70
     1
102
RTVSPropertyOp10
 70
     1
102
RTVSPropertyOp11
 70
     1
102
RTVSPropertyOp12
 70
     1
102
RTVSPropertyOp13
 70
     1
102
RTVSPropertyOp14
 70
     1
102
RTVSPropertyOp15
 70
     1
102
RTVSPropertyOp16
 70
     1
102
RTVSPropertyOp17
 70
     1
102
RTVSPropertyOp18
 70
     1
102
RTVSPropertyOp19
 70
     1
102
RTVSPropertyOp20
 70
     1
102
RTVSPropertyOp21
 70
     1
102
RTVSPropertyOp22
 70
     1
102
RTVSPropertyOp23
 70
     1
102
RTVSPropertyOp24
 70
     1
102
RTVSPropertyOp25
 70
     1
102
RTVSPropertyOp26
 70
     1
102
RTVSPropertyOp27
 70
     1
102
RTVSPropertyOp28
 70
     1
102
RTVSPropertyOp29
 70
     1
102
RTVSPropertyOp30
 70
     1
102
RTVSPropertyOp31
 70
     1
102
RTVSPropertyOp32
 70
     1
102
RTVSPropertyOp33
 70
     1
102
RTVSPropertyOp34
 70
     1
102
RTVSPropertyOp35
 70
     1
102
RTVSPropertyOp36
 70
     1
102
RTVSPropertyOp37
 70
     1
102
RTVSPropertyOp38
 70
     1
102
RTVSPropertyOp39
 70
     1
102
RTVSPropertyOp40
 70
     1
102
RTVSPropertyOp41
 70
     1
102
RTVSPropertyOp42
 70
     1
102
RTVSPropertyOp43
 70
     1
102
RTVSPropertyOp44
 70
     1
102
RTVSPropertyOp45
 70
     1
102
RTVSPropertyOp46
 70
     1
102
RTVSPropertyOp47
 70
     1
102
RTVSPropertyOp48
 70
     1
102
RTVSPropertyOp49
 70
     1
102
RTVSPropertyOp50
 70
     1
102
RTVSPropertyOp51
 70
     0
102
RTVSPropertyOp52
 70
     0
102
RTVSPropertyOp53
 70
     1
102
RTVSPropertyOp54
 70
     1
102
RTVSPropertyOp55
 70
     1
102
RTVSPropertyOp56
 70
     1
102
RTVSPropertyOp57
 70
     1
102
RTVSPropertyOp58
 70
     1
102
RTVSPropertyOp59
 70
     1
102
RTVSPropertyOp60
 70
     1
102
RTVSPropertyOp61
 70
     1
102
RTVSPropertyOp62
 70
     1
  0
XRECORD
  5
A690
102
{ACAD_REACTORS
330
A68F
102
}
330
A68F
100
AcDbXrecord
280
     1
102
RTVSPost2010Prop28
280
     0
102
RTVSPost2010PropOp28
 70
     1
102
RTVSPost2010Prop29
280
     1
102
RTVSPost2010PropOp29
 70
     1
102
RTVSPost2010Prop30
280
     1
102
RTVSPost2010PropOp30
 70
     1
102
RTVSPost2010Prop31
280
     0
102
RTVSPost2010PropOp31
 70
     1
102
RTVSPost2010Prop32
280
     0
102
RTVSPost2010PropOp32
 70
     1
102
RTVSPost2010Prop33
280
     0
102
RTVSPost2010PropOp33
 70
     1
102
RTVSPost2010Prop34
280
     0
102
RTVSPost2010PropOp34
 70
     1
102
RTVSPost2010Prop35
280
     0
102
RTVSPost2010PropOp35
 70
     1
102
RTVSPost2010Prop36
280
     0
102
RTVSPost2010PropOp36
 70
     1
102
RTVSPost2010Prop37
 90
       50
102
RTVSPost2010PropOp37
 70
     1
102
RTVSPost2010Prop38
140
0.0
102
RTVSPost2010PropOp38
 70
     1
102
RTVSPost2010Prop39
140
1.0
102
RTVSPost2010PropOp39
 70
     1
102
RTVSPost2010Prop40
 90
        0
102
RTVSPost2010PropOp40
 70
     1
102
RTVSPost2010Prop41ColorIndex
 90
       18
102
RTVSPost2010Prop41ColorRGB
 90
        0
102
RTVSPost2010PropOp41
 70
     1
102
RTVSPost2010Prop42
 90
       50
102
RTVSPost2010PropOp42
 70
     1
102
RTVSPost2010Prop43
 90
        3
102
RTVSPost2010PropOp43
 70
     1
102
RTVSPost2010Prop44ColorIndex
 90
        5
102
RTVSPost2010Prop44ColorRGB
 90
      255
102
RTVSPost2010PropOp44
 70
     1
102
RTVSPost2010Prop45
280
     0
102
RTVSPost2010PropOp45
 70
     1
102
RTVSPost2010Prop46
 90
       50
102
RTVSPost2010PropOp46
 70
     1
102
RTVSPost2010Prop47
 90
       50
102
RTVSPost2010PropOp47
 70
     1
102
RTVSPost2010Prop48
 90
       50
102
RTVSPost2010PropOp48
 70
     1
102
RTVSPost2010Prop49
280
     0
102
RTVSPost2010PropOp49
 70
     1
102
RTVSPost2010Prop50
 90
       50
102
RTVSPost2010PropOp50
 70
     1
102
RTVSPost2010Prop51ColorIndex
 90
      256
102
RTVSPost2010Prop51ColorRGB
 90
-16777216
102
RTVSPost2010PropOp51
 70
     0
102
RTVSPost2010Prop52
140
1.0
102
RTVSPost2010PropOp52
 70
     0
102
RTVSPost2010Prop53
 90
        2
102
RTVSPost2010PropOp53
 70
     1
102
RTVSPost2010Prop54
  1
strokes_ogs.tif
102
RTVSPost2010PropOp54
 70
     1
102
RTVSPost2010Prop55
280
     0
102
RTVSPost2010PropOp55
 70
     1
102
RTVSPost2010Prop56
140
1.0
102
RTVSPost2010PropOp56
 70
     1
102
RTVSPost2010Prop57
140
1.0
102
RTVSPost2010PropOp57
 70
     1
102
RTVSPropertyOp0
 70
     1
102
RTVSPropertyOp1
 70
     1
102
RTVSPropertyOp2
 70
     1
102
RTVSPropertyOp3
 70
     1
102
RTVSPropertyOp4
 70
     1
102
RTVSPropertyOp5
 70
     1
102
RTVSPropertyOp6
 70
     1
102
RTVSPropertyOp7
 70
     1
102
RTVSPropertyOp8
 70
     1
102
RTVSPropertyOp9
 70
     1
102
RTVSPropertyOp10
 70
     1
102
RTVSPropertyOp11
 70
     1
102
RTVSPropertyOp12
 70
     1
102
RTVSPropertyOp13
 70
     1
102
RTVSPropertyOp14
 70
     1
102
RTVSPropertyOp15
 70
     1
102
RTVSPropertyOp16
 70
     1
102
RTVSPropertyOp17
 70
     1
102
RTVSPropertyOp18
 70
     1
102
RTVSPropertyOp19
 70
     1
102
RTVSPropertyOp20
 70
     1
102
RTVSPropertyOp21
 70
     1
102
RTVSPropertyOp22
 70
     1
102
RTVSPropertyOp23
 70
     1
102
RTVSPropertyOp24
 70
     1
102
RTVSPropertyOp25
 70
     1
102
RTVSPropertyOp26
 70
     1
102
RTVSPropertyOp27
 70
     1
102
RTVSPropertyOp28
 70
     1
102
RTVSPropertyOp29
 70
     1
102
RTVSPropertyOp30
 70
     1
102
RTVSPropertyOp31
 70
     1
102
RTVSPropertyOp32
 70
     1
102
RTVSPropertyOp33
 70
     1
102
RTVSPropertyOp34
 70
     1
102
RTVSPropertyOp35
 70
     1
102
RTVSPropertyOp36
 70
     1
102
RTVSPropertyOp37
 70
     1
102
RTVSPropertyOp38
 70
     1
102
RTVSPropertyOp39
 70
     1
102
RTVSPropertyOp40
 70
     1
102
RTVSPropertyOp41
 70
     1
102
RTVSPropertyOp42
 70
     1
102
RTVSPropertyOp43
 70
     1
102
RTVSPropertyOp44
 70
     1
102
RTVSPropertyOp45
 70
     1
102
RTVSPropertyOp46
 70
     1
102
RTVSPropertyOp47
 70
     1
102
RTVSPropertyOp48
 70
     1
102
RTVSPropertyOp49
 70
     1
102
RTVSPropertyOp50
 70
     1
102
RTVSPropertyOp51
 70
     0
102
RTVSPropertyOp52
 70
     0
102
RTVSPropertyOp53
 70
     1
102
RTVSPropertyOp54
 70
     1
102
RTVSPropertyOp55
 70
     1
102
RTVSPropertyOp56
 70
     1
102
RTVSPropertyOp57
 70
     1
102
RTVSPropertyOp58
 70
     1
102
RTVSPropertyOp59
 70
     1
102
RTVSPropertyOp60
 70
     1
102
RTVSPropertyOp61
 70
     1
102
RTVSPropertyOp62
 70
     1
  0
XRECORD
  5
A684
102
{ACAD_REACTORS
330
A683
102
}
330
A683
100
AcDbXrecord
280
     1
102
RTVSPost2010Prop28
280
     0
102
RTVSPost2010PropOp28
 70
     1
102
RTVSPost2010Prop29
280
     1
102
RTVSPost2010PropOp29
 70
     1
102
RTVSPost2010Prop30
280
     1
102
RTVSPost2010PropOp30
 70
     1
102
RTVSPost2010Prop31
280
     0
102
RTVSPost2010PropOp31
 70
     1
102
RTVSPost2010Prop32
280
     0
102
RTVSPost2010PropOp32
 70
     1
102
RTVSPost2010Prop33
280
     0
102
RTVSPost2010PropOp33
 70
     1
102
RTVSPost2010Prop34
280
     0
102
RTVSPost2010PropOp34
 70
     1
102
RTVSPost2010Prop35
280
     0
102
RTVSPost2010PropOp35
 70
     1
102
RTVSPost2010Prop36
280
     0
102
RTVSPost2010PropOp36
 70
     1
102
RTVSPost2010Prop37
 90
       50
102
RTVSPost2010PropOp37
 70
     1
102
RTVSPost2010Prop38
140
0.0
102
RTVSPost2010PropOp38
 70
     1
102
RTVSPost2010Prop39
140
1.0
102
RTVSPost2010PropOp39
 70
     1
102
RTVSPost2010Prop40
 90
        0
102
RTVSPost2010PropOp40
 70
     1
102
RTVSPost2010Prop41ColorIndex
 90
       18
102
RTVSPost2010Prop41ColorRGB
 90
        0
102
RTVSPost2010PropOp41
 70
     1
102
RTVSPost2010Prop42
 90
       50
102
RTVSPost2010PropOp42
 70
     1
102
RTVSPost2010Prop43
 90
        3
102
RTVSPost2010PropOp43
 70
     1
102
RTVSPost2010Prop44ColorIndex
 90
        5
102
RTVSPost2010Prop44ColorRGB
 90
      255
102
RTVSPost2010PropOp44
 70
     1
102
RTVSPost2010Prop45
280
     0
102
RTVSPost2010PropOp45
 70
     1
102
RTVSPost2010Prop46
 90
       50
102
RTVSPost2010PropOp46
 70
     1
102
RTVSPost2010Prop47
 90
       50
102
RTVSPost2010PropOp47
 70
     1
102
RTVSPost2010Prop48
 90
       50
102
RTVSPost2010PropOp48
 70
     1
102
RTVSPost2010Prop49
280
     0
102
RTVSPost2010PropOp49
 70
     1
102
RTVSPost2010Prop50
 90
       50
102
RTVSPost2010PropOp50
 70
     1
102
RTVSPost2010Prop51ColorIndex
 90
      256
102
RTVSPost2010Prop51ColorRGB
 90
-16777216
102
RTVSPost2010PropOp51
 70
     0
102
RTVSPost2010Prop52
140
1.0
102
RTVSPost2010PropOp52
 70
     0
102
RTVSPost2010Prop53
 90
        2
102
RTVSPost2010PropOp53
 70
     1
102
RTVSPost2010Prop54
  1
strokes_ogs.tif
102
RTVSPost2010PropOp54
 70
     1
102
RTVSPost2010Prop55
280
     0
102
RTVSPost2010PropOp55
 70
     1
102
RTVSPost2010Prop56
140
1.0
102
RTVSPost2010PropOp56
 70
     1
102
RTVSPost2010Prop57
140
1.0
102
RTVSPost2010PropOp57
 70
     1
102
RTVSPropertyOp0
 70
     1
102
RTVSPropertyOp1
 70
     1
102
RTVSPropertyOp2
 70
     1
102
RTVSPropertyOp3
 70
     1
102
RTVSPropertyOp4
 70
     1
102
RTVSPropertyOp5
 70
     1
102
RTVSPropertyOp6
 70
     1
102
RTVSPropertyOp7
 70
     1
102
RTVSPropertyOp8
 70
     1
102
RTVSPropertyOp9
 70
     1
102
RTVSPropertyOp10
 70
     1
102
RTVSPropertyOp11
 70
     1
102
RTVSPropertyOp12
 70
     1
102
RTVSPropertyOp13
 70
     1
102
RTVSPropertyOp14
 70
     1
102
RTVSPropertyOp15
 70
     1
102
RTVSPropertyOp16
 70
     1
102
RTVSPropertyOp17
 70
     1
102
RTVSPropertyOp18
 70
     1
102
RTVSPropertyOp19
 70
     1
102
RTVSPropertyOp20
 70
     1
102
RTVSPropertyOp21
 70
     1
102
RTVSPropertyOp22
 70
     1
102
RTVSPropertyOp23
 70
     1
102
RTVSPropertyOp24
 70
     1
102
RTVSPropertyOp25
 70
     1
102
RTVSPropertyOp26
 70
     1
102
RTVSPropertyOp27
 70
     1
102
RTVSPropertyOp28
 70
     1
102
RTVSPropertyOp29
 70
     1
102
RTVSPropertyOp30
 70
     1
102
RTVSPropertyOp31
 70
     1
102
RTVSPropertyOp32
 70
     1
102
RTVSPropertyOp33
 70
     1
102
RTVSPropertyOp34
 70
     1
102
RTVSPropertyOp35
 70
     1
102
RTVSPropertyOp36
 70
     1
102
RTVSPropertyOp37
 70
     1
102
RTVSPropertyOp38
 70
     1
102
RTVSPropertyOp39
 70
     1
102
RTVSPropertyOp40
 70
     1
102
RTVSPropertyOp41
 70
     1
102
RTVSPropertyOp42
 70
     1
102
RTVSPropertyOp43
 70
     1
102
RTVSPropertyOp44
 70
     1
102
RTVSPropertyOp45
 70
     1
102
RTVSPropertyOp46
 70
     1
102
RTVSPropertyOp47
 70
     1
102
RTVSPropertyOp48
 70
     1
102
RTVSPropertyOp49
 70
     1
102
RTVSPropertyOp50
 70
     1
102
RTVSPropertyOp51
 70
     0
102
RTVSPropertyOp52
 70
     0
102
RTVSPropertyOp53
 70
     1
102
RTVSPropertyOp54
 70
     1
102
RTVSPropertyOp55
 70
     1
102
RTVSPropertyOp56
 70
     1
102
RTVSPropertyOp57
 70
     1
102
RTVSPropertyOp58
 70
     1
102
RTVSPropertyOp59
 70
     1
102
RTVSPropertyOp60
 70
     1
102
RTVSPropertyOp61
 70
     1
102
RTVSPropertyOp62
 70
     1
  0
XRECORD
  5
A69C
102
{ACAD_REACTORS
330
A69B
102
}
330
A69B
100
AcDbXrecord
280
     1
102
RTVSPost2010Prop28
280
     0
102
RTVSPost2010PropOp28
 70
     1
102
RTVSPost2010Prop29
280
     1
102
RTVSPost2010PropOp29
 70
     1
102
RTVSPost2010Prop30
280
     1
102
RTVSPost2010PropOp30
 70
     1
102
RTVSPost2010Prop31
280
     0
102
RTVSPost2010PropOp31
 70
     1
102
RTVSPost2010Prop32
280
     0
102
RTVSPost2010PropOp32
 70
     1
102
RTVSPost2010Prop33
280
     0
102
RTVSPost2010PropOp33
 70
     1
102
RTVSPost2010Prop34
280
     0
102
RTVSPost2010PropOp34
 70
     1
102
RTVSPost2010Prop35
280
     0
102
RTVSPost2010PropOp35
 70
     1
102
RTVSPost2010Prop36
280
     0
102
RTVSPost2010PropOp36
 70
     1
102
RTVSPost2010Prop37
 90
       50
102
RTVSPost2010PropOp37
 70
     1
102
RTVSPost2010Prop38
140
0.0
102
RTVSPost2010PropOp38
 70
     1
102
RTVSPost2010Prop39
140
1.0
102
RTVSPost2010PropOp39
 70
     1
102
RTVSPost2010Prop40
 90
        0
102
RTVSPost2010PropOp40
 70
     1
102
RTVSPost2010Prop41ColorIndex
 90
       18
102
RTVSPost2010Prop41ColorRGB
 90
        0
102
RTVSPost2010PropOp41
 70
     1
102
RTVSPost2010Prop42
 90
       50
102
RTVSPost2010PropOp42
 70
     1
102
RTVSPost2010Prop43
 90
        3
102
RTVSPost2010PropOp43
 70
     1
102
RTVSPost2010Prop44ColorIndex
 90
        5
102
RTVSPost2010Prop44ColorRGB
 90
      255
102
RTVSPost2010PropOp44
 70
     1
102
RTVSPost2010Prop45
280
     0
102
RTVSPost2010PropOp45
 70
     1
102
RTVSPost2010Prop46
 90
       50
102
RTVSPost2010PropOp46
 70
     1
102
RTVSPost2010Prop47
 90
       50
102
RTVSPost2010PropOp47
 70
     1
102
RTVSPost2010Prop48
 90
       50
102
RTVSPost2010PropOp48
 70
     1
102
RTVSPost2010Prop49
280
     0
102
RTVSPost2010PropOp49
 70
     1
102
RTVSPost2010Prop50
 90
       50
102
RTVSPost2010PropOp50
 70
     1
102
RTVSPost2010Prop51ColorIndex
 90
      256
102
RTVSPost2010Prop51ColorRGB
 90
-16777216
102
RTVSPost2010PropOp51
 70
     0
102
RTVSPost2010Prop52
140
1.0
102
RTVSPost2010PropOp52
 70
     0
102
RTVSPost2010Prop53
 90
        2
102
RTVSPost2010PropOp53
 70
     1
102
RTVSPost2010Prop54
  1
strokes_ogs.tif
102
RTVSPost2010PropOp54
 70
     1
102
RTVSPost2010Prop55
280
     0
102
RTVSPost2010PropOp55
 70
     1
102
RTVSPost2010Prop56
140
1.0
102
RTVSPost2010PropOp56
 70
     1
102
RTVSPost2010Prop57
140
1.0
102
RTVSPost2010PropOp57
 70
     1
102
RTVSPropertyOp0
 70
     1
102
RTVSPropertyOp1
 70
     1
102
RTVSPropertyOp2
 70
     1
102
RTVSPropertyOp3
 70
     1
102
RTVSPropertyOp4
 70
     1
102
RTVSPropertyOp5
 70
     1
102
RTVSPropertyOp6
 70
     1
102
RTVSPropertyOp7
 70
     1
102
RTVSPropertyOp8
 70
     1
102
RTVSPropertyOp9
 70
     1
102
RTVSPropertyOp10
 70
     1
102
RTVSPropertyOp11
 70
     1
102
RTVSPropertyOp12
 70
     1
102
RTVSPropertyOp13
 70
     1
102
RTVSPropertyOp14
 70
     1
102
RTVSPropertyOp15
 70
     1
102
RTVSPropertyOp16
 70
     1
102
RTVSPropertyOp17
 70
     1
102
RTVSPropertyOp18
 70
     1
102
RTVSPropertyOp19
 70
     1
102
RTVSPropertyOp20
 70
     1
102
RTVSPropertyOp21
 70
     1
102
RTVSPropertyOp22
 70
     1
102
RTVSPropertyOp23
 70
     1
102
RTVSPropertyOp24
 70
     1
102
RTVSPropertyOp25
 70
     1
102
RTVSPropertyOp26
 70
     1
102
RTVSPropertyOp27
 70
     1
102
RTVSPropertyOp28
 70
     1
102
RTVSPropertyOp29
 70
     1
102
RTVSPropertyOp30
 70
     1
102
RTVSPropertyOp31
 70
     1
102
RTVSPropertyOp32
 70
     1
102
RTVSPropertyOp33
 70
     1
102
RTVSPropertyOp34
 70
     1
102
RTVSPropertyOp35
 70
     1
102
RTVSPropertyOp36
 70
     1
102
RTVSPropertyOp37
 70
     1
102
RTVSPropertyOp38
 70
     1
102
RTVSPropertyOp39
 70
     1
102
RTVSPropertyOp40
 70
     1
102
RTVSPropertyOp41
 70
     1
102
RTVSPropertyOp42
 70
     1
102
RTVSPropertyOp43
 70
     1
102
RTVSPropertyOp44
 70
     1
102
RTVSPropertyOp45
 70
     1
102
RTVSPropertyOp46
 70
     1
102
RTVSPropertyOp47
 70
     1
102
RTVSPropertyOp48
 70
     1
102
RTVSPropertyOp49
 70
     1
102
RTVSPropertyOp50
 70
     1
102
RTVSPropertyOp51
 70
     0
102
RTVSPropertyOp52
 70
     0
102
RTVSPropertyOp53
 70
     1
102
RTVSPropertyOp54
 70
     1
102
RTVSPropertyOp55
 70
     1
102
RTVSPropertyOp56
 70
     1
102
RTVSPropertyOp57
 70
     1
102
RTVSPropertyOp58
 70
     1
102
RTVSPropertyOp59
 70
     1
102
RTVSPropertyOp60
 70
     1
102
RTVSPropertyOp61
 70
     1
102
RTVSPropertyOp62
 70
     1
  0
ENDSEC
  0
EOF
