  0
SECTION
  2
HEADER
  9
$ACADVER
  1
AC1015
  9
$ACADMAINTVER
 70
    20
  9
$DWGCODEPAGE
  3
ANSI_932
  9
$INSBASE
 10
0.0
 20
0.0
 30
0.0
  9
$EXTMIN
 10
10.0
 20
9.999999999999998
 30
0.0
  9
$EXTMAX
 10
416.3529459999998
 20
352.433549
 30
0.0
  9
$LIMMIN
 10
0.0
 20
0.0
  9
$LIMMAX
 10
543.47
 20
374.6649239999999
  9
$ORTHOMODE
 70
     1
  9
$REGENMODE
 70
     1
  9
$FILLMODE
 70
     1
  9
$QTEXTMODE
 70
     0
  9
$MIRRTEXT
 70
     1
  9
$LTSCALE
 40
20.0
  9
$ATTMODE
 70
     1
  9
$TEXTSIZE
 40
5.0
  9
$TRACEWID
 40
1.0
  9
$TEXTSTYLE
  7
STANDARD
  9
$CLAYER
  8
0
  9
$CELTYPE
  6
BYLAYER
  9
$CECOLOR
 62
   256
  9
$CELTSCALE
 40
1.0
  9
$DISPSILH
 70
     0
  9
$DIMSCALE
 40
1.0
  9
$DIMASZ
 40
2.5
  9
$DIMEXO
 40
1.0
  9
$DIMDLI
 40
10.0
  9
$DIMRND
 40
0.0
  9
$DIMDLE
 40
0.0
  9
$DIMEXE
 40
1.0
  9
$DIMTP
 40
0.0
  9
$DIMTM
 40
0.0
  9
$DIMTXT
 40
3.2
  9
$DIMCEN
 40
0.0
  9
$DIMTSZ
 40
0.0
  9
$DIMTOL
 70
     0
  9
$DIMLIM
 70
     0
  9
$DIMTIH
 70
     0
  9
$DIMTOH
 70
     0
  9
$DIMSE1
 70
     0
  9
$DIMSE2
 70
     0
  9
$DIMTAD
 70
     3
  9
$DIMZIN
 70
     8
  9
$DIMBLK
  1

  9
$DIMASO
 70
     1
  9
$DIMSHO
 70
     1
  9
$DIMPOST
  1

  9
$DIMAPOST
  1

  9
$DIMALT
 70
     0
  9
$DIMALTD
 70
     2
  9
$DIMALTF
 40
25.4
  9
$DIMLFAC
 40
1.0
  9
$DIMTOFL
 70
     1
  9
$DIMTVP
 40
0.0
  9
$DIMTIX
 70
     0
  9
$DIMSOXD
 70
     0
  9
$DIMSAH
 70
     1
  9
$DIMBLK1
  1

  9
$DIMBLK2
  1

  9
$DIMSTYLE
  2
STANDARD
  9
$DIMCLRD
 70
     0
  9
$DIMCLRE
 70
     0
  9
$DIMCLRT
 70
     0
  9
$DIMTFAC
 40
1.0
  9
$DIMGAP
 40
1.0
  9
$DIMJUST
 70
     0
  9
$DIMSD1
 70
     0
  9
$DIMSD2
 70
     0
  9
$DIMTOLJ
 70
     1
  9
$DIMTZIN
 70
     0
  9
$DIMALTZ
 70
     0
  9
$DIMALTTZ
 70
     0
  9
$DIMUPT
 70
     0
  9
$DIMDEC
 70
     4
  9
$DIMTDEC
 70
     4
  9
$DIMALTU
 70
     2
  9
$DIMALTTD
 70
     2
  9
$DIMTXSTY
  7
STANDARD
  9
$DIMAUNIT
 70
     0
  9
$DIMADEC
 70
     0
  9
$DIMALTRND
 40
0.0
  9
$DIMAZIN
 70
     0
  9
$DIMDSEP
 70
    46
  9
$DIMATFIT
 70
     3
  9
$DIMFRAC
 70
     0
  9
$DIMLDRBLK
  1

  9
$DIMLUNIT
 70
     2
  9
$DIMLWD
 70
    -2
  9
$DIMLWE
 70
    -2
  9
$DIMTMOVE
 70
     0
  9
$LUNITS
 70
     2
  9
$LUPREC
 70
     4
  9
$SKETCHINC
 40
1.0
  9
$FILLETRAD
 40
4.0
  9
$AUNITS
 70
     0
  9
$AUPREC
 70
     2
  9
$MENU
  1
.
  9
$ELEVATION
 40
0.0
  9
$PELEVATION
 40
0.0
  9
$THICKNESS
 40
0.0
  9
$LIMCHECK
 70
     0
  9
$CHAMFERA
 40
10.0
  9
$CHAMFERB
 40
10.0
  9
$CHAMFERC
 40
0.0
  9
$CHAMFERD
 40
0.0
  9
$SKPOLY
 70
     0
  9
$TDCREATE
 40
2451301.439272222
  9
$TDUCREATE
 40
2451301.064272222
  9
$TDUPDATE
 40
2457192.690146158
  9
$TDUUPDATE
 40
2457192.315146158
  9
$TDINDWG
 40
0.1182164005
  9
$TDUSRTIMER
 40
0.1182160764
  9
$USRTIMER
 70
     1
  9
$ANGBASE
 50
0.0
  9
$ANGDIR
 70
     0
  9
$PDMODE
 70
     0
  9
$PDSIZE
 40
0.0
  9
$PLINEWID
 40
0.0
  9
$SPLFRAME
 70
     0
  9
$SPLINETYPE
 70
     6
  9
$SPLINESEGS
 70
     8
  9
$HANDSEED
  5
A27B
  9
$SURFTAB1
 70
     6
  9
$SURFTAB2
 70
     6
  9
$SURFTYPE
 70
     6
  9
$SURFU
 70
     6
  9
$SURFV
 70
     6
  9
$UCSBASE
  2

  9
$UCSNAME
  2

  9
$UCSORG
 10
0.0
 20
0.0
 30
0.0
  9
$UCSXDIR
 10
1.0
 20
0.0
 30
0.0
  9
$UCSYDIR
 10
0.0
 20
1.0
 30
0.0
  9
$UCSORTHOREF
  2

  9
$UCSORTHOVIEW
 70
     0
  9
$UCSORGTOP
 10
0.0
 20
0.0
 30
0.0
  9
$UCSORGBOTTOM
 10
0.0
 20
0.0
 30
0.0
  9
$UCSORGLEFT
 10
0.0
 20
0.0
 30
0.0
  9
$UCSORGRIGHT
 10
0.0
 20
0.0
 30
0.0
  9
$UCSORGFRONT
 10
0.0
 20
0.0
 30
0.0
  9
$UCSORGBACK
 10
0.0
 20
0.0
 30
0.0
  9
$PUCSBASE
  2

  9
$PUCSNAME
  2

  9
$PUCSORG
 10
0.0
 20
0.0
 30
0.0
  9
$PUCSXDIR
 10
1.0
 20
0.0
 30
0.0
  9
$PUCSYDIR
 10
0.0
 20
1.0
 30
0.0
  9
$PUCSORTHOREF
  2

  9
$PUCSORTHOVIEW
 70
     0
  9
$PUCSORGTOP
 10
0.0
 20
0.0
 30
0.0
  9
$PUCSORGBOTTOM
 10
0.0
 20
0.0
 30
0.0
  9
$PUCSORGLEFT
 10
0.0
 20
0.0
 30
0.0
  9
$PUCSORGRIGHT
 10
0.0
 20
0.0
 30
0.0
  9
$PUCSORGFRONT
 10
0.0
 20
0.0
 30
0.0
  9
$PUCSORGBACK
 10
0.0
 20
0.0
 30
0.0
  9
$USERI1
 70
     0
  9
$USERI2
 70
     0
  9
$USERI3
 70
     0
  9
$USERI4
 70
     0
  9
$USERI5
 70
     0
  9
$USERR1
 40
0.0
  9
$USERR2
 40
0.0
  9
$USERR3
 40
0.0
  9
$USERR4
 40
0.0
  9
$USERR5
 40
0.0
  9
$WORLDVIEW
 70
     1
  9
$SHADEDGE
 70
     3
  9
$SHADEDIF
 70
    70
  9
$TILEMODE
 70
     1
  9
$MAXACTVP
 70
    16
  9
$PINSBASE
 10
0.0
 20
0.0
 30
0.0
  9
$PLIMCHECK
 70
     0
  9
$PEXTMIN
 10
1.000000000000000E+20
 20
1.000000000000000E+20
 30
1.000000000000000E+20
  9
$PEXTMAX
 10
-1.000000000000000E+20
 20
-1.000000000000000E+20
 30
-1.000000000000000E+20
  9
$PLIMMIN
 10
0.0
 20
0.0
  9
$PLIMMAX
 10
420.0
 20
297.0
  9
$UNITMODE
 70
     0
  9
$VISRETAIN
 70
     0
  9
$PLINEGEN
 70
     0
  9
$PSLTSCALE
 70
     0
  9
$TREEDEPTH
 70
  3020
  9
$CMLSTYLE
  2
STANDARD
  9
$CMLJUST
 70
     0
  9
$CMLSCALE
 40
1.0
  9
$PROXYGRAPHICS
 70
     1
  9
$MEASUREMENT
 70
     0
  9
$CELWEIGHT
370
    -1
  9
$ENDCAPS
280
     0
  9
$JOINSTYLE
280
     0
  9
$LWDISPLAY
290
     0
  9
$INSUNITS
 70
     0
  9
$HYPERLINKBASE
  1

  9
$STYLESHEET
  1

  9
$XEDIT
290
     1
  9
$CEPSNTYPE
380
     0
  9
$PSTYLEMODE
290
     1
  9
$FINGERPRINTGUID
  2
{2ACA125D-1069-4EEE-8CB3-E7B46C1C43BE}
  9
$VERSIONGUID
  2
{2868B6CB-D1F2-44B0-ABFD-C783C9E66FEC}
  9
$EXTNAMES
290
     1
  9
$PSVPSCALE
 40
0.0
  9
$OLESTARTUP
290
     0
  0
ENDSEC
  0
SECTION
  2
CLASSES
  0
CLASS
  1
ACDBDICTIONARYWDFLT
  2
AcDbDictionaryWithDefault
  3
ObjectDBX Classes
 90
        0
280
     0
281
     0
  0
CLASS
  1
ACDBPLACEHOLDER
  2
AcDbPlaceHolder
  3
ObjectDBX Classes
 90
        0
280
     0
281
     0
  0
CLASS
  1
LAYOUT
  2
AcDbLayout
  3
ObjectDBX Classes
 90
        0
280
     0
281
     0
  0
CLASS
  1
DICTIONARYVAR
  2
AcDbDictionaryVar
  3
ObjectDBX Classes
 90
        0
280
     0
281
     0
  0
CLASS
  1
MATERIAL
  2
AcDbMaterial
  3
ObjectDBX Classes
 90
     1153
280
     0
281
     0
  0
CLASS
  1
VISUALSTYLE
  2
AcDbVisualStyle
  3
ObjectDBX Classes
 90
     4095
280
     0
281
     0
  0
CLASS
  1
TABLESTYLE
  2
AcDbTableStyle
  3
ObjectDBX Classes
 90
     4095
280
     0
281
     0
  0
CLASS
  1
SCALE
  2
AcDbScale
  3
ObjectDBX Classes
 90
     1153
280
     0
281
     0
  0
CLASS
  1
MLEADERSTYLE
  2
AcDbMLeaderStyle
  3
ACDB_MLEADERSTYLE_CLASS
 90
     4095
280
     0
281
     0
  0
CLASS
  1
ACDBSECTIONVIEWSTYLE
  2
AcDbSectionViewStyle
  3
ObjectDBX Classes
 90
     1025
280
     0
281
     0
  0
CLASS
  1
ACDBDETAILVIEWSTYLE
  2
AcDbDetailViewStyle
  3
ObjectDBX Classes
 90
     1025
280
     0
281
     0
  0
CLASS
  1
CELLSTYLEMAP
  2
AcDbCellStyleMap
  3
ObjectDBX Classes
 90
     1152
280
     0
281
     0
  0
ENDSEC
  0
SECTION
  2
TABLES
  0
TABLE
  2
VPORT
  5
9F78
330
0
100
AcDbSymbolTable
 70
     1
  0
VPORT
  5
A1C6
330
9F78
100
AcDbSymbolTableRecord
100
AcDbViewportTableRecord
  2
*ACTIVE
 70
     0
 10
0.0
 20
0.0
 11
1.0
 21
1.0
 12
344.9743204785368
 22
181.2153445076696
 13
0.0
 23
0.0
 14
10.0
 24
10.0
 15
10.0
 25
10.0
 16
0.0
 26
0.0
 36
1.0
 17
0.0
 27
0.0
 37
0.0
 40
345.1477968713576
 41
2.35006605019815
 42
50.0
 43
0.0
 44
0.0
 50
0.0
 51
0.0
 71
     0
 72
   100
 73
     1
 74
     0
 75
     0
 76
     0
 77
     0
 78
     0
281
     0
 65
     1
110
0.0
120
0.0
130
0.0
111
1.0
121
0.0
131
0.0
112
0.0
122
1.0
132
0.0
 79
     0
146
0.0
1001
ACAD_NAV_VCDISPLAY
1070
     3
  0
ENDTAB
  0
TABLE
  2
LTYPE
  5
9F75
330
0
100
AcDbSymbolTable
 70
     4
  0
LTYPE
  5
9F83
330
9F75
100
AcDbSymbolTableRecord
100
AcDbLinetypeTableRecord
  2
BYBLOCK
 70
     0
  3

 72
    65
 73
     0
 40
0.0
  0
LTYPE
  5
9F84
330
9F75
100
AcDbSymbolTableRecord
100
AcDbLinetypeTableRecord
  2
BYLAYER
 70
     0
  3

 72
    65
 73
     0
 40
0.0
  0
LTYPE
  5
9F85
330
9F75
100
AcDbSymbolTableRecord
100
AcDbLinetypeTableRecord
  2
CONTINUOUS
 70
     0
  3
Solid line
 72
    65
 73
     0
 40
0.0
  0
LTYPE
  5
9F93
330
9F75
100
AcDbSymbolTableRecord
100
AcDbLinetypeTableRecord
  2
DASHED
 70
     0
  3
__ __ __ __ __ __ __ __ __ __ __ __ __ __ __ __
 72
    65
 73
     2
 40
0.75
 49
0.5
 74
     0
 49
-0.25
 74
     0
  0
LTYPE
  5
9F94
330
9F75
100
AcDbSymbolTableRecord
100
AcDbLinetypeTableRecord
  2
CENTER
 70
     0
  3
____ _ ____ _ ____ _ ____ _ ____ _ ____ _ ____ 
 72
    65
 73
     4
 40
2.0
 49
1.25
 74
     0
 49
-0.25
 74
     0
 49
0.25
 74
     0
 49
-0.25
 74
     0
  0
LTYPE
  5
9F95
330
9F75
100
AcDbSymbolTableRecord
100
AcDbLinetypeTableRecord
  2
PHANTOM
 70
     0
  3
______  __  __  ______  __  __  ______  __  __ 
 72
    65
 73
     6
 40
2.5
 49
1.25
 74
     0
 49
-0.25
 74
     0
 49
0.25
 74
     0
 49
-0.25
 74
     0
 49
0.25
 74
     0
 49
-0.25
 74
     0
  0
ENDTAB
  0
TABLE
  2
LAYER
  5
9F72
330
0
100
AcDbSymbolTable
 70
     8
  0
LAYER
  5
9F80
102
{ACAD_XDICTIONARY
360
A21F
102
}
330
9F72
100
AcDbSymbolTableRecord
100
AcDbLayerTableRecord
  2
0
 70
     0
 62
     7
  6
CONTINUOUS
370
    -3
390
A1CD
  0
LAYER
  5
9F96
102
{ACAD_XDICTIONARY
360
A221
102
}
330
9F72
100
AcDbSymbolTableRecord
100
AcDbLayerTableRecord
  2
4
 70
     0
 62
     1
  6
CENTER
370
    -3
390
A1CD
  0
LAYER
  5
9F97
102
{ACAD_XDICTIONARY
360
A223
102
}
330
9F72
100
AcDbSymbolTableRecord
100
AcDbLayerTableRecord
  2
5
 70
     0
 62
     6
  6
PHANTOM
370
    -3
390
A1CD
  0
LAYER
  5
9F98
102
{ACAD_XDICTIONARY
360
A225
102
}
330
9F72
100
AcDbSymbolTableRecord
100
AcDbLayerTableRecord
  2
1
 70
     0
 62
     7
  6
CONTINUOUS
370
    -3
390
A1CD
  0
LAYER
  5
9F99
102
{ACAD_XDICTIONARY
360
A227
102
}
330
9F72
100
AcDbSymbolTableRecord
100
AcDbLayerTableRecord
  2
2
 70
     0
 62
     4
  6
CONTINUOUS
370
    -3
390
A1CD
  0
LAYER
  5
9F9A
102
{ACAD_XDICTIONARY
360
A229
102
}
330
9F72
100
AcDbSymbolTableRecord
100
AcDbLayerTableRecord
  2
3
 70
     0
 62
     2
  6
DASHED
370
    -3
390
A1CD
  0
LAYER
  5
9F9B
102
{ACAD_XDICTIONARY
360
A22B
102
}
330
9F72
100
AcDbSymbolTableRecord
100
AcDbLayerTableRecord
  2
6
 70
     0
 62
     5
  6
CONTINUOUS
370
    -3
390
A1CD
  0
LAYER
  5
9F9C
102
{ACAD_XDICTIONARY
360
A22D
102
}
330
9F72
100
AcDbSymbolTableRecord
100
AcDbLayerTableRecord
  2
7
 70
     0
 62
     3
  6
CONTINUOUS
370
    -3
390
A1CD
  0
ENDTAB
  0
TABLE
  2
STYLE
  5
9F73
330
0
100
AcDbSymbolTable
 70
     1
  0
STYLE
  5
9F81
330
9F73
100
AcDbSymbolTableRecord
100
AcDbTextStyleTableRecord
  2
STANDARD
 70
     0
 40
0.0
 41
1.0
 50
0.0
 71
     0
 42
5.0
  3
txt
  4

  0
ENDTAB
  0
TABLE
  2
VIEW
  5
9F76
330
0
100
AcDbSymbolTable
 70
     0
  0
ENDTAB
  0
TABLE
  2
UCS
  5
9F77
330
0
100
AcDbSymbolTable
 70
     0
  0
ENDTAB
  0
TABLE
  2
APPID
  5
9F79
330
0
100
AcDbSymbolTable
 70
     3
  0
APPID
  5
9F82
330
9F79
100
AcDbSymbolTableRecord
100
AcDbRegAppTableRecord
  2
ACAD
 70
     0
  0
APPID
  5
A239
330
9F79
100
AcDbSymbolTableRecord
100
AcDbRegAppTableRecord
  2
ACAD_NAV_VCDISPLAY
 70
     0
  0
APPID
  5
A272
330
9F79
100
AcDbSymbolTableRecord
100
AcDbRegAppTableRecord
  2
ACAD_MLEADERVER
 70
     0
  0
ENDTAB
  0
TABLE
  2
DIMSTYLE
  5
9F7A
330
0
100
AcDbSymbolTable
 70
     1
100
AcDbDimStyleTable
 71
     0
  0
DIMSTYLE
105
9F9E
330
9F7A
100
AcDbSymbolTableRecord
100
AcDbDimStyleTableRecord
  2
STANDARD
 70
     0
 41
2.5
 42
1.0
 43
10.0
 44
1.0
 73
     0
 74
     0
 77
     3
 78
     8
140
3.2
141
0.0
147
1.0
172
     1
173
     1
284
     8
285
     8
286
     8
340
9F81
  0
ENDTAB
  0
TABLE
  2
BLOCK_RECORD
  5
9F71
330
0
100
AcDbSymbolTable
 70
     0
  0
BLOCK_RECORD
  5
9F8E
102
{ACAD_XDICTIONARY
360
A1AB
102
}
330
9F71
100
AcDbSymbolTableRecord
100
AcDbBlockTableRecord
  2
*MODEL_SPACE
340
A21B
  0
BLOCK_RECORD
  5
9F8A
102
{ACAD_XDICTIONARY
360
A1A9
102
}
330
9F71
100
AcDbSymbolTableRecord
100
AcDbBlockTableRecord
  2
*PAPER_SPACE
340
A21C
  0
ENDTAB
  0
ENDSEC
  0
SECTION
  2
BLOCKS
  0
BLOCK
  5
9F8F
330
9F8E
100
AcDbEntity
  8
0
100
AcDbBlockBegin
  2
*MODEL_SPACE
 70
     0
 10
0.0
 20
0.0
 30
0.0
  3
*MODEL_SPACE
  1

  0
ENDBLK
  5
9F90
330
9F8E
100
AcDbEntity
  8
0
100
AcDbBlockEnd
  0
BLOCK
  5
9F8B
330
9F8A
100
AcDbEntity
 67
     1
  8
0
100
AcDbBlockBegin
  2
*PAPER_SPACE
 70
     0
 10
0.0
 20
0.0
 30
0.0
  3
*PAPER_SPACE
  1

  0
ENDBLK
  5
9F8C
330
9F8A
100
AcDbEntity
 67
     1
  8
0
100
AcDbBlockEnd
  0
ENDSEC
  0
SECTION
  2
ENTITIES
  0
TEXT
  5
9FA6
330
9F8E
100
AcDbEntity
  8
7
  6
Continuous
100
AcDbText
 10
10.0
 20
18.0
 30
0.0
 40
3.0
  1
TYPE No.TCA-420EA-R75
100
AcDbText
  0
TEXT
  5
9FA7
330
9F8E
100
AcDbEntity
  8
7
  6
Continuous
100
AcDbText
 10
10.0
 20
26.0
 30
0.0
 40
3.0
  1
CODE No.9767
100
AcDbText
  0
TEXT
  5
9FA8
330
9F8E
100
AcDbEntity
  8
1
  6
Continuous
100
AcDbText
 10
10.0
 20
10.0
 30
0.0
 40
1.399999999999999
  1
LAYER
100
AcDbText
  0
TEXT
  5
9FA9
330
9F8E
100
AcDbEntity
  8
1
  6
Continuous
100
AcDbText
 10
17.97951099999998
 20
10.04873699999998
 30
0.0
 40
1.399999999999999
  1
1
100
AcDbText
  0
TEXT
  5
9FAA
330
9F8E
100
AcDbEntity
  8
7
  6
Continuous
100
AcDbText
 10
29.97951099999999
 20
10.04873699999998
 30
0.0
 40
1.399999999999999
  1
7
100
AcDbText
  0
TEXT
  5
9FAB
330
9F8E
100
AcDbEntity
  8
4
  6
CENTER
100
AcDbText
 10
23.97951099999999
 20
10.04873699999998
 30
0.0
 40
1.399999999999999
  1
4
100
AcDbText
  0
TEXT
  5
9FAC
330
9F8E
100
AcDbEntity
  8
3
  6
DASHED
100
AcDbText
 10
21.979511
 20
10.04873699999998
 30
0.0
 40
1.399999999999999
  1
3
100
AcDbText
  0
TEXT
  5
9FAD
330
9F8E
100
AcDbEntity
  8
2
  6
Continuous
100
AcDbText
 10
19.97951099999998
 20
10.04873699999998
 30
0.0
 40
1.399999999999999
  1
2
100
AcDbText
  0
TEXT
  5
9FAE
330
9F8E
100
AcDbEntity
  8
6
  6
Continuous
100
AcDbText
 10
27.979511
 20
10.04873699999998
 30
0.0
 40
1.399999999999999
  1
6
100
AcDbText
  0
TEXT
  5
9FAF
330
9F8E
100
AcDbEntity
  8
5
  6
PHANTOM
100
AcDbText
 10
25.97951099999999
 20
10.04873699999998
 30
0.0
 40
1.399999999999999
  1
5
100
AcDbText
  0
LINE
  5
9FB0
330
9F8E
100
AcDbEntity
  8
4
  6
CENTER
 48
0.8
100
AcDbLine
 10
179.852946
 20
267.279712
 30
0.0
 11
179.852946
 21
187.4330389999999
 31
0.0
  0
LINE
  5
9FB1
330
9F8E
100
AcDbEntity
  8
4
  6
CENTER
 48
0.8
100
AcDbLine
 10
108.352946
 20
169.7797109999999
 30
0.0
 11
193.352946
 21
169.7797109999999
 31
0.0
  0
LINE
  5
9FB2
330
9F8E
100
AcDbEntity
  8
4
  6
CENTER
 48
0.8
100
AcDbLine
 10
150.852946
 20
207.831686
 30
0.0
 11
150.852946
 21
127.279711
 31
0.0
  0
LINE
  5
9FB3
330
9F8E
100
AcDbEntity
  8
4
  6
CENTER
 48
0.8
100
AcDbLine
 10
49.852946
 20
267.279712
 30
0.0
 11
49.852946
 21
127.279711
 31
0.0
  0
LINE
  5
9FB4
330
9F8E
100
AcDbEntity
  8
4
  6
CENTER
 48
0.8
100
AcDbLine
 10
23.25294599999998
 20
169.7797109999999
 30
0.0
 11
72.35103200000001
 21
169.7797109999999
 31
0.0
  0
LINE
  5
9FB5
330
9F8E
100
AcDbEntity
  8
1
  6
Continuous
100
AcDbLine
 10
36.85294600000001
 20
166.529711
 30
0.0
 11
37.852946
 21
166.529711
 31
0.0
  0
LINE
  5
9FB6
330
9F8E
100
AcDbEntity
  8
1
  6
Continuous
100
AcDbLine
 10
36.85294600000001
 20
173.0297109999999
 30
0.0
 11
37.852946
 21
173.0297109999999
 31
0.0
  0
LINE
  5
9FB7
330
9F8E
100
AcDbEntity
  8
1
  6
Continuous
100
AcDbLine
 10
34.45294599999999
 20
175.3797089999999
 30
0.0
 11
31.252946
 21
175.3797089999999
 31
0.0
  0
LINE
  5
9FB8
330
9F8E
100
AcDbEntity
  8
1
  6
Continuous
100
AcDbLine
 10
34.45294599999999
 20
172.779711
 30
0.0
 11
31.252946
 21
172.779711
 31
0.0
  0
LINE
  5
9FB9
330
9F8E
100
AcDbEntity
  8
1
  6
Continuous
100
AcDbLine
 10
30.252946
 20
173.579714
 30
0.0
 11
30.252946
 21
165.979716
 31
0.0
  0
LINE
  5
9FBA
330
9F8E
100
AcDbEntity
  8
1
  6
Continuous
100
AcDbLine
 10
34.45294599999999
 20
164.179713
 30
0.0
 11
31.252946
 21
164.179713
 31
0.0
  0
LINE
  5
9FBB
330
9F8E
100
AcDbEntity
  8
1
  6
Continuous
100
AcDbLine
 10
34.37614599999999
 20
166.7797109999999
 30
0.0
 11
31.252946
 21
166.7797109999999
 31
0.0
  0
LINE
  5
9FBC
330
9F8E
100
AcDbEntity
  8
1
  6
Continuous
100
AcDbLine
 10
30.25293599999999
 20
165.9796279999999
 30
0.0
 11
31.252936
 21
164.179705
 31
0.0
  0
LINE
  5
9FBD
330
9F8E
100
AcDbEntity
  8
1
  6
Continuous
100
AcDbLine
 10
30.25293599999999
 20
173.5797449999997
 30
0.0
 11
31.252936
 21
175.379717
 31
0.0
  0
LINE
  5
9FBE
330
9F8E
100
AcDbEntity
  8
4
  6
CENTER
 48
0.8
100
AcDbLine
 10
179.852946
 20
349.824967
 30
0.0
 11
179.852946
 21
301.824967
 31
0.0
  0
LINE
  5
9FBF
330
9F8E
100
AcDbEntity
  8
4
  6
CENTER
 48
0.8
100
AcDbLine
 10
203.8529459999999
 20
325.824967
 30
0.0
 11
108.352946
 21
325.824967
 31
0.0
  0
LINE
  5
9FC0
330
9F8E
100
AcDbEntity
  8
1
  6
Continuous
100
AcDbLine
 10
163.8529459999998
 20
218.17971
 30
0.0
 11
195.852946
 21
218.17971
 31
0.0
  0
LINE
  5
9FC1
330
9F8E
100
AcDbEntity
  8
1
  6
Continuous
100
AcDbLine
 10
143.352946
 20
212.22346
 30
0.0
 11
163.665803
 21
215.8051649999999
 31
0.0
  0
LINE
  5
9FC2
330
9F8E
100
AcDbEntity
  8
1
  6
Continuous
100
AcDbLine
 10
143.7002379999998
 20
210.253844
 30
0.0
 11
147.0215419999999
 21
210.8394799999999
 31
0.0
  0
LINE
  5
9FC3
330
9F8E
100
AcDbEntity
  8
1
  6
Continuous
100
AcDbLine
 10
195.1760779999999
 20
209.7501199999999
 30
0.0
 11
198.852946
 21
210.1473069999999
 31
0.0
  0
LINE
  5
9FC4
330
9F8E
100
AcDbEntity
  8
1
  6
Continuous
100
AcDbLine
 10
143.352947
 20
212.2234579999999
 30
0.0
 11
143.700244
 21
210.253841
 31
0.0
  0
LINE
  5
9FC5
330
9F8E
100
AcDbEntity
  8
1
  6
Continuous
100
AcDbLine
 10
166.852946
 20
215.279736
 30
0.0
 11
166.852946
 21
180.212679
 31
0.0
  0
LINE
  5
9FC6
330
9F8E
100
AcDbEntity
  8
1
  6
Continuous
100
AcDbLine
 10
146.6742469999998
 20
212.809095
 30
0.0
 11
147.0215429999998
 21
210.8394799999999
 31
0.0
  0
LINE
  5
9FC7
330
9F8E
100
AcDbEntity
  8
1
  6
Continuous
100
AcDbLine
 10
33.852946
 20
218.17971
 30
0.0
 11
65.852946
 21
218.17971
 31
0.0
  0
LINE
  5
9FC8
330
9F8E
100
AcDbEntity
  8
1
  6
Continuous
100
AcDbLine
 10
34.852946
 20
160.8797089999999
 30
0.0
 11
36.85294600000001
 21
160.8797089999999
 31
0.0
  0
LINE
  5
9FC9
330
9F8E
100
AcDbEntity
  8
1
  6
Continuous
100
AcDbLine
 10
36.85294600000001
 20
210.5394759999998
 30
0.0
 11
36.85294600000001
 21
160.8797089999999
 31
0.0
  0
LINE
  5
9FCA
330
9F8E
100
AcDbEntity
  8
1
  6
Continuous
100
AcDbLine
 10
34.852946
 20
211.379646
 30
0.0
 11
34.852946
 21
160.8797089999999
 31
0.0
  0
LINE
  5
9FCB
330
9F8E
100
AcDbEntity
  8
1
  6
Continuous
100
AcDbLine
 10
64.852946
 20
211.379646
 30
0.0
 11
64.852946
 21
160.8797089999999
 31
0.0
  0
LINE
  5
9FCC
330
9F8E
100
AcDbEntity
  8
1
  6
Continuous
100
AcDbLine
 10
62.852946
 20
210.5394759999998
 30
0.0
 11
62.852946
 21
160.8797089999999
 31
0.0
  0
LINE
  5
9FCD
330
9F8E
100
AcDbEntity
  8
1
  6
Continuous
100
AcDbLine
 10
64.852946
 20
160.8797089999999
 30
0.0
 11
62.852946
 21
160.8797089999999
 31
0.0
  0
LINE
  5
9FCE
330
9F8E
100
AcDbEntity
  8
1
  6
Continuous
100
AcDbLine
 10
67.354365
 20
173.077696
 30
0.0
 11
67.347689
 21
166.477698
 31
0.0
  0
LINE
  5
9FCF
330
9F8E
100
AcDbEntity
  8
1
  6
Continuous
100
AcDbLine
 10
64.845652
 20
164.479708
 30
0.0
 11
65.34768199999999
 21
164.479708
 31
0.0
  0
LINE
  5
9FD0
330
9F8E
100
AcDbEntity
  8
1
  6
Continuous
100
AcDbLine
 10
64.856379
 20
175.0797099999997
 30
0.0
 11
65.35434999999999
 21
175.0797099999997
 31
0.0
  0
LINE
  5
9FD1
330
9F8E
100
AcDbEntity
  8
1
  6
Continuous
100
AcDbLine
 10
37.852946
 20
160.0297109999999
 30
0.0
 11
37.852946
 21
179.5297109999999
 31
0.0
  0
LINE
  5
9FD2
330
9F8E
100
AcDbEntity
  8
1
  6
Continuous
100
AcDbLine
 10
39.352946
 20
159.0297109999999
 30
0.0
 11
38.852946
 21
159.0297109999999
 31
0.0
  0
LINE
  5
9FD3
330
9F8E
100
AcDbEntity
  8
1
  6
Continuous
100
AcDbLine
 10
39.352946
 20
135.038309
 30
0.0
 11
39.352946
 21
204.5211129999999
 31
0.0
  0
LINE
  5
9FD4
330
9F8E
100
AcDbEntity
  8
1
  6
Continuous
100
AcDbLine
 10
61.85294599999998
 20
160.0297109999999
 30
0.0
 11
61.85294599999998
 21
179.5297109999999
 31
0.0
  0
LINE
  5
9FD5
330
9F8E
100
AcDbEntity
  8
1
  6
Continuous
100
AcDbLine
 10
60.352946
 20
159.0297109999999
 30
0.0
 11
60.852946
 21
159.0297109999999
 31
0.0
  0
LINE
  5
9FD6
330
9F8E
100
AcDbEntity
  8
1
  6
Continuous
100
AcDbLine
 10
60.352946
 20
135.038309
 30
0.0
 11
60.352946
 21
204.5211129999999
 31
0.0
  0
LINE
  5
9FD7
330
9F8E
100
AcDbEntity
  8
1
  6
Continuous
100
AcDbLine
 10
60.352946
 20
180.5297109999999
 30
0.0
 11
60.852946
 21
180.5297109999999
 31
0.0
  0
LINE
  5
9FD8
330
9F8E
100
AcDbEntity
  8
1
  6
Continuous
100
AcDbLine
 10
39.352946
 20
180.5297109999999
 30
0.0
 11
38.852946
 21
180.5297109999999
 31
0.0
  0
LINE
  5
9FD9
330
9F8E
100
AcDbEntity
  8
1
  6
Continuous
100
AcDbLine
 10
61.85294599999998
 20
173.0297109999999
 30
0.0
 11
62.852946
 21
173.0297109999999
 31
0.0
  0
LINE
  5
9FDA
330
9F8E
100
AcDbEntity
  8
1
  6
Continuous
100
AcDbLine
 10
61.85294599999998
 20
166.529711
 30
0.0
 11
62.852946
 21
166.529711
 31
0.0
  0
LINE
  5
9FDB
330
9F8E
100
AcDbEntity
  8
1
  6
Continuous
100
AcDbLine
 10
147.0215409999999
 20
210.839493
 30
0.0
 11
143.1843869999999
 21
169.065737
 31
0.0
  0
LINE
  5
9FDC
330
9F8E
100
AcDbEntity
  8
1
  6
Continuous
100
AcDbLine
 10
156.5894609999998
 20
163.796286
 30
0.0
 11
189.705554
 21
206.688705
 31
0.0
  0
ARC
  5
9FDD
330
9F8E
100
AcDbEntity
  8
1
  6
Continuous
100
AcDbCircle
 10
32.540446
 20
165.4797079999999
 30
0.0
 40
2.3125
100
AcDbArc
 50
325.79449
 51
34.20541
  0
ARC
  5
9FDE
330
9F8E
100
AcDbEntity
  8
1
  6
Continuous
100
AcDbCircle
 10
23.402946
 20
169.7797109999999
 30
0.0
 40
11.450001
100
AcDbArc
 50
344.8107199999999
 51
15.189285
  0
ARC
  5
9FDF
330
9F8E
100
AcDbEntity
  8
1
  6
Continuous
100
AcDbCircle
 10
32.540446
 20
174.0797139999999
 30
0.0
 40
2.3125
100
AcDbArc
 50
325.79455
 51
34.205461
  0
ARC
  5
9FE0
330
9F8E
100
AcDbEntity
  8
1
  6
Continuous
100
AcDbCircle
 10
33.165446
 20
174.0797139999999
 30
0.0
 40
2.312498999999998
100
AcDbArc
 50
145.7945499999999
 51
214.2054299999998
  0
ARC
  5
9FE1
330
9F8E
100
AcDbEntity
  8
1
  6
Continuous
100
AcDbCircle
 10
42.30294599999999
 20
169.7797109999999
 30
0.0
 40
11.44999799999999
100
AcDbArc
 50
164.81073
 51
195.1892499999999
  0
ARC
  5
9FE2
330
9F8E
100
AcDbEntity
  8
1
  6
Continuous
100
AcDbCircle
 10
33.165446
 20
165.479716
 30
0.0
 40
2.312498999999998
100
AcDbArc
 50
145.7945499999999
 51
214.2054299999998
  0
ARC
  5
9FE3
330
9F8E
100
AcDbEntity
  8
1
  6
Continuous
100
AcDbCircle
 10
57.314265
 20
219.3242129999999
 30
0.0
 40
1.984499999999996
100
AcDbArc
 50
324.7796799999998
 51
350.00299
  0
ARC
  5
9FE4
330
9F8E
100
AcDbEntity
  8
1
  6
Continuous
100
AcDbCircle
 10
45.932322
 20
219.3242129999999
 30
0.0
 40
1.984499999999996
100
AcDbArc
 50
324.7796799999998
 51
350.0030499999998
  0
ARC
  5
9FE5
330
9F8E
100
AcDbEntity
  8
1
  6
Continuous
100
AcDbCircle
 10
175.9323219999999
 20
219.3242129999999
 30
0.0
 40
1.984499999999996
100
AcDbArc
 50
324.7797499999998
 51
350.0030499999998
  0
ARC
  5
9FE6
330
9F8E
100
AcDbEntity
  8
1
  6
Continuous
100
AcDbCircle
 10
53.77356999999999
 20
219.3242129999999
 30
0.0
 40
1.984499999999996
100
AcDbArc
 50
324.7796799999998
 51
350.00299
  0
ARC
  5
9FE7
330
9F8E
100
AcDbEntity
  8
1
  6
Continuous
100
AcDbCircle
 10
42.391626
 20
219.3242129999999
 30
0.0
 40
1.984499999999996
100
AcDbArc
 50
324.7796799999998
 51
333.1367799999998
  0
ARC
  5
9FE8
330
9F8E
100
AcDbEntity
  8
1
  6
Continuous
100
AcDbCircle
 10
172.391627
 20
219.3242129999999
 30
0.0
 40
1.984499999999996
100
AcDbArc
 50
324.7797499999998
 51
333.1367799999998
  0
ARC
  5
9FE9
330
9F8E
100
AcDbEntity
  8
1
  6
Continuous
100
AcDbCircle
 10
53.77356999999999
 20
219.3242129999999
 30
0.0
 40
1.984499999999996
100
AcDbArc
 50
189.9969899999999
 51
215.2202999999999
  0
ARC
  5
9FEA
330
9F8E
100
AcDbEntity
  8
1
  6
Continuous
100
AcDbCircle
 10
49.852946
 20
219.3242129999999
 30
0.0
 40
1.984499999999996
100
AcDbArc
 50
324.7796799999998
 51
350.00299
  0
ARC
  5
9FEB
330
9F8E
100
AcDbEntity
  8
1
  6
Continuous
100
AcDbCircle
 10
57.314265
 20
219.3242129999999
 30
0.0
 40
1.984499999999996
100
AcDbArc
 50
206.86325
 51
215.2202999999999
  0
ARC
  5
9FEC
330
9F8E
100
AcDbEntity
  8
1
  6
Continuous
100
AcDbCircle
 10
60.13193000000001
 20
219.3242129999999
 30
0.0
 40
1.984499999999996
100
AcDbArc
 50
324.77981
 51
350.00299
  0
ARC
  5
9FED
330
9F8E
100
AcDbEntity
  8
1
  6
Continuous
100
AcDbCircle
 10
61.95353199999999
 20
219.3242129999999
 30
0.0
 40
1.984499999999996
100
AcDbArc
 50
324.7797499999998
 51
350.00299
  0
ARC
  5
9FEE
330
9F8E
100
AcDbEntity
  8
1
  6
Continuous
100
AcDbCircle
 10
62.60294599999999
 20
219.3242129999999
 30
0.0
 40
1.984499999999996
100
AcDbArc
 50
324.7797499999998
 51
350.00299
  0
ARC
  5
9FEF
330
9F8E
100
AcDbEntity
  8
1
  6
Continuous
100
AcDbCircle
 10
45.932322
 20
219.3242129999999
 30
0.0
 40
1.984499999999996
100
AcDbArc
 50
189.99704
 51
215.2202999999999
  0
ARC
  5
9FF0
330
9F8E
100
AcDbEntity
  8
1
  6
Continuous
100
AcDbCircle
 10
49.852946
 20
219.3242129999999
 30
0.0
 40
1.984499999999996
100
AcDbArc
 50
189.9970599999999
 51
215.2202999999999
  0
ARC
  5
9FF1
330
9F8E
100
AcDbEntity
  8
1
  6
Continuous
100
AcDbCircle
 10
42.391626
 20
219.3242129999999
 30
0.0
 40
1.984499999999996
100
AcDbArc
 50
189.9970599999999
 51
215.2202999999999
  0
ARC
  5
9FF2
330
9F8E
100
AcDbEntity
  8
1
  6
Continuous
100
AcDbCircle
 10
39.573956
 20
219.3242129999999
 30
0.0
 40
1.984499999999996
100
AcDbArc
 50
189.9970599999999
 51
215.2202999999999
  0
ARC
  5
9FF3
330
9F8E
100
AcDbEntity
  8
1
  6
Continuous
100
AcDbCircle
 10
37.752356
 20
219.3242129999999
 30
0.0
 40
1.984499999999996
100
AcDbArc
 50
189.9970599999999
 51
215.2202999999999
  0
ARC
  5
9FF4
330
9F8E
100
AcDbEntity
  8
1
  6
Continuous
100
AcDbCircle
 10
37.102946
 20
219.3242129999999
 30
0.0
 40
1.984499999999996
100
AcDbArc
 50
189.9970599999999
 51
215.2202999999999
  0
ARC
  5
9FF5
330
9F8E
100
AcDbEntity
  8
1
  6
Continuous
100
AcDbCircle
 10
183.7735699999998
 20
219.3242129999999
 30
0.0
 40
1.984499999999996
100
AcDbArc
 50
189.9969899999999
 51
215.2202299999999
  0
ARC
  5
9FF6
330
9F8E
100
AcDbEntity
  8
1
  6
Continuous
100
AcDbCircle
 10
179.852946
 20
219.3242129999999
 30
0.0
 40
1.984499999999996
100
AcDbArc
 50
324.7797499999998
 51
350.00299
  0
ARC
  5
9FF7
330
9F8E
100
AcDbEntity
  8
1
  6
Continuous
100
AcDbCircle
 10
187.3142649999999
 20
219.3242129999999
 30
0.0
 40
1.984499999999996
100
AcDbArc
 50
206.86325
 51
215.2202299999999
  0
ARC
  5
9FF8
330
9F8E
100
AcDbEntity
  8
1
  6
Continuous
100
AcDbCircle
 10
190.13193
 20
219.3242129999999
 30
0.0
 40
1.984499999999996
100
AcDbArc
 50
324.7797499999998
 51
350.00299
  0
ARC
  5
9FF9
330
9F8E
100
AcDbEntity
  8
1
  6
Continuous
100
AcDbCircle
 10
191.9535319999999
 20
219.3242129999999
 30
0.0
 40
1.984499999999996
100
AcDbArc
 50
324.7797499999998
 51
350.00299
  0
ARC
  5
9FFA
330
9F8E
100
AcDbEntity
  8
1
  6
Continuous
100
AcDbCircle
 10
192.602946
 20
219.3242129999999
 30
0.0
 40
1.984499999999996
100
AcDbArc
 50
324.7796799999998
 51
350.00299
  0
ARC
  5
9FFB
330
9F8E
100
AcDbEntity
  8
1
  6
Continuous
100
AcDbCircle
 10
175.9323219999999
 20
219.3242129999999
 30
0.0
 40
1.984499999999996
100
AcDbArc
 50
189.99704
 51
215.2202299999999
  0
ARC
  5
9FFC
330
9F8E
100
AcDbEntity
  8
1
  6
Continuous
100
AcDbCircle
 10
179.852946
 20
219.3242129999999
 30
0.0
 40
1.984499999999996
100
AcDbArc
 50
189.9970599999999
 51
215.2202299999999
  0
ARC
  5
9FFD
330
9F8E
100
AcDbEntity
  8
1
  6
Continuous
100
AcDbCircle
 10
172.391627
 20
219.3242129999999
 30
0.0
 40
1.984499999999996
100
AcDbArc
 50
189.9970599999999
 51
215.2202299999999
  0
ARC
  5
9FFE
330
9F8E
100
AcDbEntity
  8
1
  6
Continuous
100
AcDbCircle
 10
169.5739619999999
 20
219.3242129999999
 30
0.0
 40
1.984499999999996
100
AcDbArc
 50
189.9970599999999
 51
215.2202299999999
  0
ARC
  5
9FFF
330
9F8E
100
AcDbEntity
  8
1
  6
Continuous
100
AcDbCircle
 10
167.75236
 20
219.3242129999999
 30
0.0
 40
1.984499999999996
100
AcDbArc
 50
189.99707
 51
215.2202299999999
  0
ARC
  5
A000
330
9F8E
100
AcDbEntity
  8
1
  6
Continuous
100
AcDbCircle
 10
167.1029459999997
 20
219.3242129999999
 30
0.0
 40
1.984499999999996
100
AcDbArc
 50
189.9970599999999
 51
215.2202299999999
  0
ARC
  5
A001
330
9F8E
100
AcDbEntity
  8
1
  6
Continuous
100
AcDbCircle
 10
183.7735699999998
 20
219.3242129999999
 30
0.0
 40
1.984499999999996
100
AcDbArc
 50
324.7797499999998
 51
350.00299
  0
ARC
  5
A002
330
9F8E
100
AcDbEntity
  8
1
  6
Continuous
100
AcDbCircle
 10
187.3142649999999
 20
219.3242129999999
 30
0.0
 40
1.984499999999996
100
AcDbArc
 50
324.7797499999998
 51
350.00299
  0
ARC
  5
A003
330
9F8E
100
AcDbEntity
  8
1
  6
Continuous
100
AcDbCircle
 10
196.0352659999998
 20
201.796391
 30
0.0
 40
8.0
100
AcDbArc
 50
96.16536199999998
 51
142.32923
  0
ARC
  5
A004
330
9F8E
100
AcDbEntity
  8
1
  6
Continuous
100
AcDbCircle
 10
150.6529459999998
 20
168.3797089999998
 30
0.0
 40
7.5
100
AcDbArc
 50
174.7517799999999
 51
322.32922
  0
CIRCLE
  5
A005
330
9F8E
100
AcDbEntity
  8
1
  6
Continuous
100
AcDbCircle
 10
150.852946
 20
169.7797109999999
 30
0.0
 40
5.299999999999998
  0
ARC
  5
A006
330
9F8E
100
AcDbEntity
  8
1
  6
Continuous
100
AcDbCircle
 10
49.852946
 20
349.9214609999999
 30
0.0
 40
137.69801
100
AcDbArc
 50
264.43445
 51
275.5655299999999
  0
ARC
  5
A007
330
9F8E
100
AcDbEntity
  8
1
  6
Continuous
100
AcDbCircle
 10
63.352946
 20
211.379646
 30
0.0
 40
1.5
100
AcDbArc
 50
0.0
 51
95.56557500000003
  0
ARC
  5
A008
330
9F8E
100
AcDbEntity
  8
1
  6
Continuous
100
AcDbCircle
 10
36.352946
 20
211.379646
 30
0.0
 40
1.5
100
AcDbArc
 50
84.43444300000001
 51
179.9999599999999
  0
ARC
  5
A009
330
9F8E
100
AcDbEntity
  8
1
  6
Continuous
100
AcDbCircle
 10
49.852946
 20
315.3797089999998
 30
0.0
 40
100.0
100
AcDbArc
 50
262.53039
 51
277.4695899999999
  0
ARC
  5
A00A
330
9F8E
100
AcDbEntity
  8
1
  6
Continuous
100
AcDbCircle
 10
65.85132900000001
 20
193.780977
 30
0.0
 40
35.0
100
AcDbArc
 50
179.4492899999999
 51
207.66612
  0
ARC
  5
A00B
330
9F8E
100
AcDbEntity
  8
1
  6
Continuous
100
AcDbCircle
 10
33.85456599999999
 20
193.780977
 30
0.0
 40
35.0
100
AcDbArc
 50
332.33384
 51
0.5506770000000003
  0
ARC
  5
A00C
330
9F8E
100
AcDbEntity
  8
1
  6
Continuous
100
AcDbCircle
 10
62.552943
 20
210.5394759999998
 30
0.0
 40
0.3
100
AcDbArc
 50
0.0
 51
95.28068799999999
  0
ARC
  5
A00D
330
9F8E
100
AcDbEntity
  8
1
  6
Continuous
100
AcDbCircle
 10
37.152946
 20
210.5394759999998
 30
0.0
 40
0.3
100
AcDbArc
 50
84.71933100000002
 51
179.9999599999999
  0
ARC
  5
A00E
330
9F8E
100
AcDbEntity
  8
1
  6
Continuous
100
AcDbCircle
 10
49.852946
 20
347.9518609999999
 30
0.0
 40
137.69801
100
AcDbArc
 50
264.7195599999998
 51
275.28041
  0
ARC
  5
A00F
330
9F8E
100
AcDbEntity
  8
1
  6
Continuous
100
AcDbCircle
 10
65.34768199999999
 20
166.479712
 30
0.0
 40
2.0
100
AcDbArc
 50
270.00002
 51
359.9420799999998
  0
ARC
  5
A010
330
9F8E
100
AcDbEntity
  8
1
  6
Continuous
100
AcDbCircle
 10
65.35434999999999
 20
173.07971
 30
0.0
 40
2.0
100
AcDbArc
 50
359.9420799999998
 51
89.99998199999996
  0
ARC
  5
A011
330
9F8E
100
AcDbEntity
  8
1
  6
Continuous
100
AcDbCircle
 10
150.852946
 20
169.7797109999999
 30
0.0
 40
10.74999999999998
100
AcDbArc
 50
129.5239
 51
2.640915999999998
  0
ARC
  5
A012
330
9F8E
100
AcDbEntity
  8
1
  6
Continuous
100
AcDbCircle
 10
150.852946
 20
169.7797109999999
 30
0.0
 40
18.200001
100
AcDbArc
 50
109.33376
 51
25.55991699999999
  0
ARC
  5
A013
330
9F8E
100
AcDbEntity
  8
1
  6
Continuous
100
AcDbCircle
 10
150.852946
 20
169.7797109999999
 30
0.0
 40
27.700001
100
AcDbArc
 50
100.6140099999997
 51
35.115898
  0
ARC
  5
A014
330
9F8E
100
AcDbEntity
  8
1
  6
Continuous
100
AcDbCircle
 10
150.852946
 20
169.7797109999999
 30
0.0
 40
37.5
100
AcDbArc
 50
96.39965100000001
 51
39.70278
  0
ARC
  5
A015
330
9F8E
100
AcDbEntity
  8
1
  6
Continuous
100
AcDbCircle
 10
49.852946
 20
182.2797109999999
 30
0.0
 40
50.0
100
AcDbArc
 50
259.8000099999998
 51
280.2018119999999
  0
ARC
  5
A016
330
9F8E
100
AcDbEntity
  8
1
  6
Continuous
100
AcDbCircle
 10
58.352946
 20
135.038309
 30
0.0
 40
2.0
100
AcDbArc
 50
280.19985
 51
359.99995
  0
ARC
  5
A017
330
9F8E
100
AcDbEntity
  8
1
  6
Continuous
100
AcDbCircle
 10
41.352946
 20
135.038309
 30
0.0
 40
2.0
100
AcDbArc
 50
179.9999799999999
 51
259.80007
  0
ARC
  5
A018
330
9F8E
100
AcDbEntity
  8
1
  6
Continuous
100
AcDbCircle
 10
60.852946
 20
160.0297109999999
 30
0.0
 40
1.0
100
AcDbArc
 50
269.9999599999998
 51
359.99995
  0
ARC
  5
A019
330
9F8E
100
AcDbEntity
  8
1
  6
Continuous
100
AcDbCircle
 10
38.852946
 20
160.0297109999999
 30
0.0
 40
1.0
100
AcDbArc
 50
180.0000399999998
 51
270.00002
  0
ARC
  5
A01A
330
9F8E
100
AcDbEntity
  8
1
  6
Continuous
100
AcDbCircle
 10
38.852946
 20
179.5297109999999
 30
0.0
 40
1.0
100
AcDbArc
 50
89.99998199999996
 51
179.9999599999999
  0
ARC
  5
A01B
330
9F8E
100
AcDbEntity
  8
1
  6
Continuous
100
AcDbCircle
 10
60.852946
 20
179.5297109999999
 30
0.0
 40
1.0
100
AcDbArc
 50
0.000055
 51
90.000037
  0
ARC
  5
A01C
330
9F8E
100
AcDbEntity
  8
1
  6
Continuous
100
AcDbCircle
 10
41.352946
 20
204.5211129999999
 30
0.0
 40
2.0
100
AcDbArc
 50
100.1999199999999
 51
180.00002
  0
ARC
  5
A01D
330
9F8E
100
AcDbEntity
  8
1
  6
Continuous
100
AcDbCircle
 10
58.352946
 20
204.5211129999999
 30
0.0
 40
2.0
100
AcDbArc
 50
0.000055
 51
79.80015300000005
  0
ARC
  5
A01E
330
9F8E
100
AcDbEntity
  8
1
  6
Continuous
100
AcDbCircle
 10
49.852946
 20
157.2797109999999
 30
0.0
 40
50.0
100
AcDbArc
 50
79.79818799999998
 51
100.1999899999999
  0
LINE
  5
A01F
330
9F8E
100
AcDbEntity
  8
1
  6
Continuous
100
AcDbLine
 10
30.852946
 20
215.17971
 30
0.0
 11
30.852946
 21
193.4445429999999
 31
0.0
  0
LINE
  5
A020
330
9F8E
100
AcDbEntity
  8
1
  6
Continuous
100
AcDbLine
 10
68.852946
 20
215.17971
 30
0.0
 11
68.852946
 21
193.444232
 31
0.0
  0
ARC
  5
A021
330
9F8E
100
AcDbEntity
  8
1
  6
Continuous
100
AcDbCircle
 10
65.852946
 20
215.17971
 30
0.0
 40
3.0
100
AcDbArc
 50
0.0
 51
90.0
  0
ARC
  5
A022
330
9F8E
100
AcDbEntity
  8
1
  6
Continuous
100
AcDbCircle
 10
33.852946
 20
215.17971
 30
0.0
 40
3.0
100
AcDbArc
 50
90.0
 51
180.0
  0
LINE
  5
A023
330
9F8E
100
AcDbEntity
  8
1
  6
Continuous
100
AcDbLine
 10
198.852946
 20
215.17971
 30
0.0
 11
198.852946
 21
210.1473069999999
 31
0.0
  0
ARC
  5
A024
330
9F8E
100
AcDbEntity
  8
1
  6
Continuous
100
AcDbCircle
 10
195.852946
 20
215.17971
 30
0.0
 40
3.0
100
AcDbArc
 50
0.0
 51
90.0
  0
LINE
  5
A025
330
9F8E
100
AcDbEntity
  8
1
  6
Continuous
100
AcDbLine
 10
251.8529459999998
 20
135.038309
 30
0.0
 11
251.8529459999998
 21
204.5211129999999
 31
0.0
  0
LINE
  5
A026
330
9F8E
100
AcDbEntity
  8
1
  6
Continuous
100
AcDbLine
 10
272.8529459999999
 20
135.038309
 30
0.0
 11
272.8529459999999
 21
204.5211129999999
 31
0.0
  0
LINE
  5
A027
330
9F8E
100
AcDbEntity
  8
4
  6
CENTER
 48
0.8
100
AcDbLine
 10
262.3529459999999
 20
267.279712
 30
0.0
 11
262.3529459999999
 21
127.279711
 31
0.0
  0
ARC
  5
A028
330
9F8E
100
AcDbEntity
  8
1
  6
Continuous
100
AcDbCircle
 10
262.3529459999999
 20
182.2797109999999
 30
0.0
 40
50.0
100
AcDbArc
 50
259.7981879999999
 51
280.19999
  0
ARC
  5
A029
330
9F8E
100
AcDbEntity
  8
1
  6
Continuous
100
AcDbCircle
 10
270.8529459999999
 20
135.038309
 30
0.0
 40
2.0
100
AcDbArc
 50
280.1999299999998
 51
0.00002
  0
ARC
  5
A02A
330
9F8E
100
AcDbEntity
  8
1
  6
Continuous
100
AcDbCircle
 10
253.8529459999999
 20
135.038309
 30
0.0
 40
2.0
100
AcDbArc
 50
180.0000499999999
 51
259.8001499999999
  0
LINE
  5
A02B
330
9F8E
100
AcDbEntity
  8
1
  6
Continuous
100
AcDbLine
 10
278.352946
 20
218.17971
 30
0.0
 11
246.352946
 21
218.17971
 31
0.0
  0
ARC
  5
A02C
330
9F8E
100
AcDbEntity
  8
1
  6
Continuous
100
AcDbCircle
 10
250.2523599999999
 20
219.3242129999999
 30
0.0
 40
1.984499999999996
100
AcDbArc
 50
189.99701
 51
215.22025
  0
LINE
  5
A02D
330
9F8E
100
AcDbEntity
  8
1
  6
Continuous
100
AcDbLine
 10
247.3529459999999
 20
160.8797089999999
 30
0.0
 11
249.3529459999999
 21
160.8797089999999
 31
0.0
  0
LINE
  5
A02E
330
9F8E
100
AcDbEntity
  8
4
  6
CENTER
 48
0.8
100
AcDbLine
 10
288.9529459999998
 20
169.7797109999999
 30
0.0
 11
239.854861
 21
169.7797109999999
 31
0.0
  0
LINE
  5
A02F
330
9F8E
100
AcDbEntity
  8
1
  6
Continuous
100
AcDbLine
 10
249.3529459999999
 20
208.356925
 30
0.0
 11
249.3529459999999
 21
160.8797089999999
 31
0.0
  0
LINE
  5
A030
330
9F8E
100
AcDbEntity
  8
1
  6
Continuous
100
AcDbLine
 10
277.3529459999999
 20
178.6890629999998
 30
0.0
 11
277.3529459999999
 21
160.8797089999999
 31
0.0
  0
LINE
  5
A031
330
9F8E
100
AcDbEntity
  8
1
  6
Continuous
100
AcDbLine
 10
275.3529459999999
 20
208.356925
 30
0.0
 11
275.3529459999999
 21
160.8797089999999
 31
0.0
  0
LINE
  5
A032
330
9F8E
100
AcDbEntity
  8
1
  6
Continuous
100
AcDbLine
 10
277.829746
 20
166.7797109999999
 30
0.0
 11
280.9529459999998
 21
166.7797109999999
 31
0.0
  0
LINE
  5
A033
330
9F8E
100
AcDbEntity
  8
1
  6
Continuous
100
AcDbLine
 10
277.752946
 20
164.179713
 30
0.0
 11
280.9529459999998
 21
164.179713
 31
0.0
  0
LINE
  5
A034
330
9F8E
100
AcDbEntity
  8
1
  6
Continuous
100
AcDbLine
 10
277.752946
 20
172.779711
 30
0.0
 11
280.9529459999998
 21
172.779711
 31
0.0
  0
LINE
  5
A035
330
9F8E
100
AcDbEntity
  8
1
  6
Continuous
100
AcDbLine
 10
277.752946
 20
175.3797089999999
 30
0.0
 11
280.9529459999998
 21
175.3797089999999
 31
0.0
  0
ARC
  5
A036
330
9F8E
100
AcDbEntity
  8
1
  6
Continuous
100
AcDbCircle
 10
279.0404459999999
 20
165.479716
 30
0.0
 40
2.312498999999998
100
AcDbArc
 50
325.79457
 51
34.20545
  0
LINE
  5
A037
330
9F8E
100
AcDbEntity
  8
1
  6
Continuous
100
AcDbLine
 10
281.952946
 20
173.579714
 30
0.0
 11
281.952946
 21
165.979716
 31
0.0
  0
LINE
  5
A038
330
9F8E
100
AcDbEntity
  8
1
  6
Continuous
100
AcDbLine
 10
281.9529559999998
 20
165.9796279999999
 30
0.0
 11
280.9529559999999
 21
164.179705
 31
0.0
  0
ARC
  5
A039
330
9F8E
100
AcDbEntity
  8
1
  6
Continuous
100
AcDbCircle
 10
269.9029459999997
 20
169.7797109999999
 30
0.0
 40
11.44999799999999
100
AcDbArc
 50
344.8107499999999
 51
15.18927
  0
ARC
  5
A03A
330
9F8E
100
AcDbEntity
  8
1
  6
Continuous
100
AcDbCircle
 10
279.0404459999999
 20
174.0797139999999
 30
0.0
 40
2.312498999999998
100
AcDbArc
 50
325.79457
 51
34.20545
  0
LINE
  5
A03B
330
9F8E
100
AcDbEntity
  8
1
  6
Continuous
100
AcDbLine
 10
281.9529559999998
 20
173.5797449999997
 30
0.0
 11
280.9529559999999
 21
175.379717
 31
0.0
  0
ARC
  5
A03C
330
9F8E
100
AcDbEntity
  8
1
  6
Continuous
100
AcDbCircle
 10
279.6654459999999
 20
165.4797079999999
 30
0.0
 40
2.3125
100
AcDbArc
 50
145.79459
 51
214.2055099999998
  0
LINE
  5
A03D
330
9F8E
100
AcDbEntity
  8
1
  6
Continuous
100
AcDbLine
 10
250.352946
 20
160.0297109999999
 30
0.0
 11
250.352946
 21
179.5297109999999
 31
0.0
  0
LINE
  5
A03E
330
9F8E
100
AcDbEntity
  8
1
  6
Continuous
100
AcDbLine
 10
274.3529459999999
 20
160.0297109999999
 30
0.0
 11
274.3529459999999
 21
179.5297109999999
 31
0.0
  0
ARC
  5
A03F
330
9F8E
100
AcDbEntity
  8
1
  6
Continuous
100
AcDbCircle
 10
273.3529459999999
 20
160.0297109999999
 30
0.0
 40
1.0
100
AcDbArc
 50
269.99998
 51
359.9999599999999
  0
LINE
  5
A040
330
9F8E
100
AcDbEntity
  8
1
  6
Continuous
100
AcDbLine
 10
272.8529459999999
 20
159.0297109999999
 30
0.0
 11
273.3529459999999
 21
159.0297109999999
 31
0.0
  0
LINE
  5
A041
330
9F8E
100
AcDbEntity
  8
1
  6
Continuous
100
AcDbLine
 10
277.3529459999999
 20
160.8797089999999
 30
0.0
 11
275.3529459999999
 21
160.8797089999999
 31
0.0
  0
ARC
  5
A042
330
9F8E
100
AcDbEntity
  8
1
  6
Continuous
100
AcDbCircle
 10
251.3529459999999
 20
160.0297109999999
 30
0.0
 40
1.0
100
AcDbArc
 50
180.0000499999999
 51
270.0000399999999
  0
LINE
  5
A043
330
9F8E
100
AcDbEntity
  8
1
  6
Continuous
100
AcDbLine
 10
251.8529459999998
 20
159.0297109999999
 30
0.0
 11
251.3529459999999
 21
159.0297109999999
 31
0.0
  0
ARC
  5
A044
330
9F8E
100
AcDbEntity
  8
1
  6
Continuous
100
AcDbCircle
 10
273.3529459999999
 20
179.5297109999999
 30
0.0
 40
1.0
100
AcDbArc
 50
0.00004
 51
90.00001800000005
  0
ARC
  5
A045
330
9F8E
100
AcDbEntity
  8
1
  6
Continuous
100
AcDbCircle
 10
279.6654459999999
 20
174.0797139999999
 30
0.0
 40
2.3125
100
AcDbArc
 50
145.7945389999999
 51
214.2054499999999
  0
ARC
  5
A046
330
9F8E
100
AcDbEntity
  8
1
  6
Continuous
100
AcDbCircle
 10
288.802946
 20
169.7797109999999
 30
0.0
 40
11.450001
100
AcDbArc
 50
164.8107149999999
 51
195.1892799999999
  0
LINE
  5
A047
330
9F8E
100
AcDbEntity
  8
1
  6
Continuous
100
AcDbLine
 10
272.8529459999999
 20
180.5297109999999
 30
0.0
 11
273.3529459999999
 21
180.5297109999999
 31
0.0
  0
LINE
  5
A048
330
9F8E
100
AcDbEntity
  8
1
  6
Continuous
100
AcDbLine
 10
275.3529459999999
 20
173.0297109999999
 30
0.0
 11
274.3529459999999
 21
173.0297109999999
 31
0.0
  0
LINE
  5
A049
330
9F8E
100
AcDbEntity
  8
1
  6
Continuous
100
AcDbLine
 10
275.3529459999999
 20
166.529711
 30
0.0
 11
274.3529459999999
 21
166.529711
 31
0.0
  0
ARC
  5
A04A
330
9F8E
100
AcDbEntity
  8
1
  6
Continuous
100
AcDbCircle
 10
251.3529459999999
 20
179.5297109999999
 30
0.0
 40
1.0
100
AcDbArc
 50
89.99996299999997
 51
179.999945
  0
LINE
  5
A04B
330
9F8E
100
AcDbEntity
  8
1
  6
Continuous
100
AcDbLine
 10
250.352946
 20
166.529711
 30
0.0
 11
249.3529459999999
 21
166.529711
 31
0.0
  0
LINE
  5
A04C
330
9F8E
100
AcDbEntity
  8
1
  6
Continuous
100
AcDbLine
 10
250.352946
 20
173.0297109999999
 30
0.0
 11
249.3529459999999
 21
173.0297109999999
 31
0.0
  0
LINE
  5
A04D
330
9F8E
100
AcDbEntity
  8
1
  6
Continuous
100
AcDbLine
 10
251.8529459999998
 20
180.5297109999999
 30
0.0
 11
251.3529459999999
 21
180.5297109999999
 31
0.0
  0
ARC
  5
A04E
330
9F8E
100
AcDbEntity
  8
1
  6
Continuous
100
AcDbCircle
 10
278.352946
 20
215.17971
 30
0.0
 40
3.0
100
AcDbArc
 50
0.0
 51
90.0
  0
LINE
  5
A04F
330
9F8E
100
AcDbEntity
  8
1
  6
Continuous
100
AcDbLine
 10
281.3529459999999
 20
215.17971
 30
0.0
 11
281.3529459999999
 21
193.4445429999999
 31
0.0
  0
ARC
  5
A050
330
9F8E
100
AcDbEntity
  8
1
  6
Continuous
100
AcDbCircle
 10
262.3529459999999
 20
157.2797109999999
 30
0.0
 40
50.0
100
AcDbArc
 50
79.80001
 51
100.201812
  0
ARC
  5
A051
330
9F8E
100
AcDbEntity
  8
1
  6
Continuous
100
AcDbCircle
 10
270.8529459999999
 20
204.5211129999999
 30
0.0
 40
2.0
100
AcDbArc
 50
359.9999799999998
 51
79.80007999999997
  0
ARC
  5
A052
330
9F8E
100
AcDbEntity
  8
1
  6
Continuous
100
AcDbCircle
 10
253.8529459999999
 20
204.5211129999999
 30
0.0
 40
2.0
100
AcDbArc
 50
100.1998469999999
 51
179.999945
  0
ARC
  5
A053
330
9F8E
100
AcDbEntity
  8
1
  6
Continuous
100
AcDbCircle
 10
262.3529459999999
 20
219.3242129999999
 30
0.0
 40
1.984499999999996
100
AcDbArc
 50
324.7796999999998
 51
350.0029399999998
  0
ARC
  5
A054
330
9F8E
100
AcDbEntity
  8
1
  6
Continuous
100
AcDbCircle
 10
266.27357
 20
219.3242129999999
 30
0.0
 40
1.984499999999996
100
AcDbArc
 50
189.99695
 51
215.2203199999999
  0
ARC
  5
A055
330
9F8E
100
AcDbEntity
  8
1
  6
Continuous
100
AcDbCircle
 10
275.1029459999999
 20
219.3242129999999
 30
0.0
 40
1.984499999999996
100
AcDbArc
 50
324.7796999999998
 51
350.0029399999998
  0
ARC
  5
A056
330
9F8E
100
AcDbEntity
  8
1
  6
Continuous
100
AcDbCircle
 10
274.4535359999998
 20
219.3242129999999
 30
0.0
 40
1.984499999999996
100
AcDbArc
 50
324.7796999999998
 51
350.0029399999998
  0
ARC
  5
A057
330
9F8E
100
AcDbEntity
  8
1
  6
Continuous
100
AcDbCircle
 10
272.631936
 20
219.3242129999999
 30
0.0
 40
1.984499999999996
100
AcDbArc
 50
324.7796999999998
 51
350.0029399999998
  0
ARC
  5
A058
330
9F8E
100
AcDbEntity
  8
1
  6
Continuous
100
AcDbCircle
 10
269.8142659999999
 20
219.3242129999999
 30
0.0
 40
1.984499999999996
100
AcDbArc
 50
324.7796999999998
 51
350.0029399999998
  0
ARC
  5
A059
330
9F8E
100
AcDbEntity
  8
1
  6
Continuous
100
AcDbCircle
 10
266.27357
 20
219.3242129999999
 30
0.0
 40
1.984499999999996
100
AcDbArc
 50
324.7796999999998
 51
350.0029599999999
  0
ARC
  5
A05A
330
9F8E
100
AcDbEntity
  8
1
  6
Continuous
100
AcDbCircle
 10
269.8142659999999
 20
219.3242129999999
 30
0.0
 40
1.984499999999996
100
AcDbArc
 50
206.8632199999999
 51
215.2203199999999
  0
ARC
  5
A05B
330
9F8E
100
AcDbEntity
  8
1
  6
Continuous
100
AcDbCircle
 10
252.073962
 20
219.3242129999999
 30
0.0
 40
1.984499999999996
100
AcDbArc
 50
189.99701
 51
215.22019
  0
ARC
  5
A05C
330
9F8E
100
AcDbEntity
  8
1
  6
Continuous
100
AcDbCircle
 10
254.8916269999998
 20
219.3242129999999
 30
0.0
 40
1.984499999999996
100
AcDbArc
 50
324.7796999999998
 51
333.13675
  0
ARC
  5
A05D
330
9F8E
100
AcDbEntity
  8
1
  6
Continuous
100
AcDbCircle
 10
262.3529459999999
 20
219.3242129999999
 30
0.0
 40
1.984499999999996
100
AcDbArc
 50
189.99701
 51
215.2203199999999
  0
ARC
  5
A05E
330
9F8E
100
AcDbEntity
  8
1
  6
Continuous
100
AcDbCircle
 10
258.4323219999999
 20
219.3242129999999
 30
0.0
 40
1.984499999999996
100
AcDbArc
 50
324.7796999999998
 51
350.00301
  0
ARC
  5
A05F
330
9F8E
100
AcDbEntity
  8
1
  6
Continuous
100
AcDbCircle
 10
258.4323219999999
 20
219.3242129999999
 30
0.0
 40
1.984499999999996
100
AcDbArc
 50
189.99701
 51
215.2203199999999
  0
ARC
  5
A060
330
9F8E
100
AcDbEntity
  8
1
  6
Continuous
100
AcDbCircle
 10
254.8916269999998
 20
219.3242129999999
 30
0.0
 40
1.984499999999996
100
AcDbArc
 50
189.99701
 51
215.2203199999999
  0
LINE
  5
A061
330
9F8E
100
AcDbEntity
  8
1
  6
Continuous
100
AcDbLine
 10
247.3529459999999
 20
178.6890629999998
 30
0.0
 11
247.3529459999999
 21
160.8797089999999
 31
0.0
  0
ARC
  5
A062
330
9F8E
100
AcDbEntity
  8
1
  6
Continuous
100
AcDbCircle
 10
246.85821
 20
166.479712
 30
0.0
 40
2.0
100
AcDbArc
 50
180.0579199999999
 51
269.99998
  0
LINE
  5
A063
330
9F8E
100
AcDbEntity
  8
1
  6
Continuous
100
AcDbLine
 10
247.36024
 20
164.479708
 30
0.0
 11
246.85821
 21
164.479708
 31
0.0
  0
ARC
  5
A064
330
9F8E
100
AcDbEntity
  8
1
  6
Continuous
100
AcDbCircle
 10
246.851542
 20
173.07971
 30
0.0
 40
2.0
100
AcDbArc
 50
90.00001800000005
 51
180.0579199999999
  0
LINE
  5
A065
330
9F8E
100
AcDbEntity
  8
1
  6
Continuous
100
AcDbLine
 10
247.3495129999998
 20
175.0797099999997
 30
0.0
 11
246.851542
 21
175.0797099999997
 31
0.0
  0
LINE
  5
A066
330
9F8E
100
AcDbEntity
  8
1
  6
Continuous
100
AcDbLine
 10
244.851527
 20
173.077696
 30
0.0
 11
244.8582029999998
 21
166.477698
 31
0.0
  0
LINE
  5
A067
330
9F8E
100
AcDbEntity
  8
1
  6
Continuous
100
AcDbLine
 10
243.3529459999999
 20
215.17971
 30
0.0
 11
243.3529459999999
 21
193.444232
 31
0.0
  0
ARC
  5
A068
330
9F8E
100
AcDbEntity
  8
1
  6
Continuous
100
AcDbCircle
 10
246.352946
 20
215.17971
 30
0.0
 40
3.0
100
AcDbArc
 50
90.0
 51
180.0
  0
ARC
  5
A069
330
9F8E
100
AcDbEntity
  8
1
  6
Continuous
100
AcDbCircle
 10
249.6029459999999
 20
219.3242129999999
 30
0.0
 40
1.984499999999996
100
AcDbArc
 50
189.99701
 51
215.22025
  0
ARC
  5
A06A
330
9F8E
100
AcDbEntity
  8
1
  6
Continuous
100
AcDbCircle
 10
273.3790849999999
 20
193.927472
 30
0.0
 40
30.026139
100
AcDbArc
 50
149.5106899999998
 51
209.416028
  0
ARC
  5
A06B
330
9F8E
100
AcDbEntity
  8
1
  6
Continuous
100
AcDbCircle
 10
251.326808
 20
193.927472
 30
0.0
 40
30.026139
100
AcDbArc
 50
330.583972
 51
30.48931
  0
LINE
  5
A06C
330
9F8E
100
AcDbEntity
  8
1
  6
Continuous
100
AcDbLine
 10
249.228293
 20
210.1473069999999
 30
0.0
 11
275.4776
 21
210.1473069999999
 31
0.0
  0
ARC
  5
A06D
330
9F8E
100
AcDbEntity
  8
1
  6
Continuous
100
AcDbCircle
 10
246.352946
 20
178.6890629999998
 30
0.0
 40
1.0
100
AcDbArc
 50
0.0
 51
29.416028
  0
ARC
  5
A06E
330
9F8E
100
AcDbEntity
  8
1
  6
Continuous
100
AcDbCircle
 10
278.352946
 20
178.6890629999998
 30
0.0
 40
1.0
100
AcDbArc
 50
150.583972
 51
180.0
  0
ARC
  5
A06F
330
9F8E
100
AcDbEntity
  8
1
  6
Continuous
100
AcDbCircle
 10
251.326808
 20
193.927472
 30
0.0
 40
28.026139
100
AcDbArc
 50
330.583972
 51
35.361938
  0
ARC
  5
A070
330
9F8E
100
AcDbEntity
  8
1
  6
Continuous
100
AcDbCircle
 10
273.3790849999999
 20
193.927472
 30
0.0
 40
28.026139
100
AcDbArc
 50
144.638062
 51
209.416028
  0
ARC
  5
A071
330
9F8E
100
AcDbEntity
  8
1
  6
Continuous
100
AcDbCircle
 10
275.4776
 20
208.147307
 30
0.0
 40
2.0
100
AcDbArc
 50
30.48931
 51
90.0
  0
ARC
  5
A072
330
9F8E
100
AcDbEntity
  8
1
  6
Continuous
100
AcDbCircle
 10
249.228293
 20
208.147307
 30
0.0
 40
2.0
100
AcDbArc
 50
90.0
 51
149.5106899999998
  0
ARC
  5
A073
330
9F8E
100
AcDbEntity
  8
1
  6
Continuous
100
AcDbCircle
 10
278.352946
 20
178.6890629999998
 30
0.0
 40
3.0
100
AcDbArc
 50
150.583972
 51
180.0
  0
ARC
  5
A074
330
9F8E
100
AcDbEntity
  8
1
  6
Continuous
100
AcDbCircle
 10
246.352946
 20
178.6890629999998
 30
0.0
 40
3.0
100
AcDbArc
 50
0.0
 51
29.416028
  0
LINE
  5
A075
330
9F8E
100
AcDbEntity
  8
4
  6
CENTER
 48
0.8
100
AcDbLine
 10
179.852946
 20
44.77971099999999
 30
0.0
 11
179.852946
 21
92.779711
 31
0.0
  0
LINE
  5
A076
330
9F8E
100
AcDbEntity
  8
4
  6
CENTER
 48
0.8
100
AcDbLine
 10
203.8529459999999
 20
68.77971099999999
 30
0.0
 11
108.352946
 21
68.77971099999999
 31
0.0
  0
LINE
  5
A077
330
9F8E
100
AcDbEntity
  8
1
  6
Continuous
100
AcDbLine
 10
144.9397559999999
 20
315.324967
 30
0.0
 11
116.1115439999999
 21
315.324967
 31
0.0
  0
LINE
  5
A078
330
9F8E
100
AcDbEntity
  8
1
  6
Continuous
100
AcDbLine
 10
144.9397559999999
 20
336.324967
 30
0.0
 11
116.1115439999999
 21
336.324967
 31
0.0
  0
LINE
  5
A079
330
9F8E
100
AcDbEntity
  8
1
  6
Continuous
100
AcDbLine
 10
143.1529459999999
 20
312.824967
 30
0.0
 11
145.8164179999999
 21
312.824967
 31
0.0
  0
ARC
  5
A07A
330
9F8E
100
AcDbEntity
  8
1
  6
Continuous
100
AcDbCircle
 10
141.1029459999998
 20
336.824967
 30
0.0
 40
1.0
100
AcDbArc
 50
90.00004000000002
 51
180.0000179999999
  0
LINE
  5
A07B
330
9F8E
100
AcDbEntity
  8
1
  6
Continuous
100
AcDbLine
 10
140.1029459999998
 20
336.324967
 30
0.0
 11
140.1029459999998
 21
336.824967
 31
0.0
  0
ARC
  5
A07C
330
9F8E
100
AcDbEntity
  8
1
  6
Continuous
100
AcDbCircle
 10
141.1029459999998
 20
314.824967
 30
0.0
 40
1.0
100
AcDbArc
 50
179.9999629999998
 51
269.999945
  0
LINE
  5
A07D
330
9F8E
100
AcDbEntity
  8
1
  6
Continuous
100
AcDbLine
 10
140.1029459999998
 20
315.324967
 30
0.0
 11
140.1029459999998
 21
314.824967
 31
0.0
  0
ARC
  5
A07E
330
9F8E
100
AcDbEntity
  8
1
  6
Continuous
100
AcDbCircle
 10
163.352946
 20
325.824967
 30
0.0
 40
50.0
100
AcDbArc
 50
169.8000099999999
 51
190.2018119999999
  0
ARC
  5
A07F
330
9F8E
100
AcDbEntity
  8
1
  6
Continuous
100
AcDbCircle
 10
116.1115439999999
 20
334.324967
 30
0.0
 40
2.0
100
AcDbArc
 50
89.99997999999996
 51
169.80008
  0
ARC
  5
A080
330
9F8E
100
AcDbEntity
  8
1
  6
Continuous
100
AcDbCircle
 10
116.1115439999999
 20
317.324967
 30
0.0
 40
2.0
100
AcDbArc
 50
190.199847
 51
269.999945
  0
LINE
  5
A081
330
9F8E
100
AcDbEntity
  8
1
  6
Continuous
100
AcDbLine
 10
143.1529459999999
 20
310.824967
 30
0.0
 11
144.9247469999999
 21
310.824967
 31
0.0
  0
LINE
  5
A082
330
9F8E
100
AcDbEntity
  8
4
  6
CENTER
 48
0.8
100
AcDbLine
 10
150.852946
 20
42.17112899999999
 30
0.0
 11
150.852946
 21
91.27779403719214
 31
0.0
  0
LINE
  5
A083
330
9F8E
100
AcDbEntity
  8
1
  6
Continuous
100
AcDbLine
 10
143.2499699999999
 20
81.77971099999998
 30
0.0
 11
166.8914649999998
 21
81.77971099999998
 31
0.0
  0
LINE
  5
A084
330
9F8E
100
AcDbEntity
  8
1
  6
Continuous
100
AcDbLine
 10
143.2499699999999
 20
83.77971099999998
 30
0.0
 11
166.8914649999998
 21
83.77971099999998
 31
0.0
  0
LINE
  5
A085
330
9F8E
100
AcDbEntity
  8
1
  6
Continuous
100
AcDbLine
 10
143.2499699999999
 20
53.77971099999999
 30
0.0
 11
166.852946
 21
53.77971099999999
 31
0.0
  0
LINE
  5
A086
330
9F8E
100
AcDbEntity
  8
1
  6
Continuous
100
AcDbLine
 10
143.2499699999999
 20
55.779711
 30
0.0
 11
166.852946
 21
55.779711
 31
0.0
  0
ARC
  5
A087
330
9F8E
100
AcDbEntity
  8
1
  6
Continuous
100
AcDbCircle
 10
179.852946
 20
68.77971099999999
 30
0.0
 40
19.0
100
AcDbArc
 50
235.6988470000001
 51
124.301153
  0
ARC
  5
A088
330
9F8E
100
AcDbEntity
  8
1
  6
Continuous
100
AcDbCircle
 10
179.852946
 20
68.77971099999999
 30
0.0
 40
17.0
100
AcDbArc
 50
235.6988470000001
 51
124.301153
  0
LINE
  5
A089
330
9F8E
100
AcDbEntity
  8
1
  6
Continuous
100
AcDbLine
 10
143.2499699999999
 20
83.77971099999998
 30
0.0
 11
143.2499699999999
 21
81.77971099999998
 31
0.0
  0
LINE
  5
A08A
330
9F8E
100
AcDbEntity
  8
1
  6
Continuous
100
AcDbLine
 10
143.2499699999999
 20
55.779711
 30
0.0
 11
143.2499699999999
 21
53.77971099999999
 31
0.0
  0
ARC
  5
A08B
330
9F8E
100
AcDbEntity
  8
1
  6
Continuous
100
AcDbCircle
 10
166.8914649999998
 20
87.779711
 30
0.0
 40
4.0
100
AcDbArc
 50
270.0
 51
304.301153
  0
ARC
  5
A08C
330
9F8E
100
AcDbEntity
  8
1
  6
Continuous
100
AcDbCircle
 10
166.8914649999998
 20
87.779711
 30
0.0
 40
6.0
100
AcDbArc
 50
270.0
 51
304.301153
  0
ARC
  5
A08D
330
9F8E
100
AcDbEntity
  8
1
  6
Continuous
100
AcDbCircle
 10
166.8914649999998
 20
49.779711
 30
0.0
 40
4.0
100
AcDbArc
 50
55.69884700000001
 51
90.0
  0
ARC
  5
A08E
330
9F8E
100
AcDbEntity
  8
1
  6
Continuous
100
AcDbCircle
 10
166.8914649999998
 20
49.779711
 30
0.0
 40
6.0
100
AcDbArc
 50
55.69884700000001
 51
90.0
  0
ARC
  5
A08F
330
9F8E
100
AcDbEntity
  8
1
  6
Continuous
100
AcDbCircle
 10
179.852946
 20
68.77971099999999
 30
0.0
 40
13.0
100
AcDbArc
 50
233.8710729999998
 51
126.128927
  0
ARC
  5
A090
330
9F8E
100
AcDbEntity
  8
1
  6
Continuous
100
AcDbCircle
 10
179.852946
 20
68.77971099999999
 30
0.0
 40
10.0
100
AcDbArc
 50
324.7425259999999
 51
35.257474
  0
LINE
  5
A091
330
9F8E
100
AcDbEntity
  8
4
  6
CENTER
 48
0.8
100
AcDbLine
 10
150.852946
 20
352.433549
 30
0.0
 11
150.852946
 21
303.3268839628079
 31
0.0
  0
LINE
  5
A092
330
9F8E
100
AcDbEntity
  8
1
  6
Continuous
100
AcDbLine
 10
145.440561
 20
337.824967
 30
0.0
 11
141.1029459999998
 21
337.824967
 31
0.0
  0
LINE
  5
A093
330
9F8E
100
AcDbEntity
  8
1
  6
Continuous
100
AcDbLine
 10
145.440561
 20
313.824967
 30
0.0
 11
141.1029459999998
 21
313.824967
 31
0.0
  0
LINE
  5
A094
330
9F8E
100
AcDbEntity
  8
1
  6
Continuous
100
AcDbLine
 10
143.1529459999999
 20
310.824967
 30
0.0
 11
143.1529459999999
 21
312.824967
 31
0.0
  0
ARC
  5
A095
330
9F8E
100
AcDbEntity
  8
1
  6
Continuous
100
AcDbCircle
 10
178.885863
 20
325.824967
 30
0.0
 40
35.53291699999999
100
AcDbArc
 50
155.0299929999999
 51
204.970007
  0
ARC
  5
A096
330
9F8E
100
AcDbEntity
  8
1
  6
Continuous
100
AcDbCircle
 10
178.885863
 20
68.77971099999999
 30
0.0
 40
35.53291699999999
100
AcDbArc
 50
158.539609
 51
160.262278
  0
ARC
  5
A097
330
9F8E
100
AcDbEntity
  8
1
  6
Continuous
100
AcDbCircle
 10
178.885863
 20
68.77971099999999
 30
0.0
 40
35.53291699999999
100
AcDbArc
 50
199.7377219999999
 51
201.4603909999999
  0
ARC
  5
A098
330
9F8E
100
AcDbEntity
  8
1
  6
Continuous
100
AcDbCircle
 10
373.8529459999999
 20
169.7797109999999
 30
0.0
 40
37.5
100
AcDbArc
 50
140.2972199999997
 51
83.60034899999998
  0
ARC
  5
A099
330
9F8E
100
AcDbEntity
  8
1
  6
Continuous
100
AcDbCircle
 10
373.8529459999999
 20
169.7797109999999
 30
0.0
 40
27.700001
100
AcDbArc
 50
144.884102
 51
79.38599
  0
LINE
  5
A09A
330
9F8E
100
AcDbEntity
  8
4
  6
CENTER
 48
0.8
100
AcDbLine
 10
373.8529459999999
 20
207.831686
 30
0.0
 11
373.8529459999999
 21
127.279711
 31
0.0
  0
LINE
  5
A09B
330
9F8E
100
AcDbEntity
  8
4
  6
CENTER
 48
0.8
100
AcDbLine
 10
416.3529459999998
 20
169.7797109999999
 30
0.0
 11
331.3529459999998
 21
169.7797109999999
 31
0.0
  0
LINE
  5
A09C
330
9F8E
100
AcDbEntity
  8
1
  6
Continuous
100
AcDbLine
 10
368.1164309999999
 20
163.796286
 30
0.0
 11
335.0003389999999
 21
206.688705
 31
0.0
  0
LINE
  5
A09D
330
9F8E
100
AcDbEntity
  8
1
  6
Continuous
100
AcDbLine
 10
360.8529459999999
 20
218.17971
 30
0.0
 11
328.8529459999998
 21
218.17971
 31
0.0
  0
LINE
  5
A09E
330
9F8E
100
AcDbEntity
  8
1
  6
Continuous
100
AcDbLine
 10
377.6843519999998
 20
210.839493
 30
0.0
 11
381.5215059999999
 21
169.065737
 31
0.0
  0
LINE
  5
A09F
330
9F8E
100
AcDbEntity
  8
1
  6
Continuous
100
AcDbLine
 10
357.8529459999999
 20
215.279736
 30
0.0
 11
357.8529459999999
 21
180.212679
 31
0.0
  0
LINE
  5
A0A0
330
9F8E
100
AcDbEntity
  8
4
  6
CENTER
 48
0.8
100
AcDbLine
 10
344.8529459999999
 20
267.279712
 30
0.0
 11
344.8529459999999
 21
187.4330389999999
 31
0.0
  0
ARC
  5
A0A1
330
9F8E
100
AcDbEntity
  8
1
  6
Continuous
100
AcDbCircle
 10
373.8529459999999
 20
169.7797109999999
 30
0.0
 40
18.200001
100
AcDbArc
 50
154.4400829999998
 51
70.66624
  0
ARC
  5
A0A2
330
9F8E
100
AcDbEntity
  8
1
  6
Continuous
100
AcDbCircle
 10
373.8529459999999
 20
169.7797109999999
 30
0.0
 40
10.74999999999998
100
AcDbArc
 50
177.3590839999999
 51
50.4761
  0
ARC
  5
A0A3
330
9F8E
100
AcDbEntity
  8
1
  6
Continuous
100
AcDbCircle
 10
374.052947
 20
168.3797089999998
 30
0.0
 40
7.5
100
AcDbArc
 50
217.6707799999999
 51
5.248219999999998
  0
LINE
  5
A0A4
330
9F8E
100
AcDbEntity
  8
1
  6
Continuous
100
AcDbLine
 10
381.3529469999999
 20
212.22346
 30
0.0
 11
361.040089
 21
215.8051649999999
 31
0.0
  0
LINE
  5
A0A5
330
9F8E
100
AcDbEntity
  8
1
  6
Continuous
100
AcDbLine
 10
378.031646
 20
212.809095
 30
0.0
 11
377.684349
 21
210.8394799999999
 31
0.0
  0
LINE
  5
A0A6
330
9F8E
100
AcDbEntity
  8
1
  6
Continuous
100
AcDbLine
 10
381.3529459999998
 20
212.2234579999999
 30
0.0
 11
381.005649
 21
210.253841
 31
0.0
  0
LINE
  5
A0A7
330
9F8E
100
AcDbEntity
  8
1
  6
Continuous
100
AcDbLine
 10
381.005655
 20
210.253844
 30
0.0
 11
377.6843509999998
 21
210.8394799999999
 31
0.0
  0
ARC
  5
A0A8
330
9F8E
100
AcDbEntity
  8
1
  6
Continuous
100
AcDbCircle
 10
357.6029459999999
 20
219.3242129999999
 30
0.0
 40
1.984499999999996
100
AcDbArc
 50
324.77977
 51
350.0029399999998
  0
ARC
  5
A0A9
330
9F8E
100
AcDbEntity
  8
1
  6
Continuous
100
AcDbCircle
 10
356.9535319999998
 20
219.3242129999999
 30
0.0
 40
1.984499999999996
100
AcDbArc
 50
324.77977
 51
350.00293
  0
ARC
  5
A0AA
330
9F8E
100
AcDbEntity
  8
1
  6
Continuous
100
AcDbCircle
 10
355.1319299999998
 20
219.3242129999999
 30
0.0
 40
1.984499999999996
100
AcDbArc
 50
324.77977
 51
350.0029399999998
  0
ARC
  5
A0AB
330
9F8E
100
AcDbEntity
  8
1
  6
Continuous
100
AcDbCircle
 10
352.314265
 20
219.3242129999999
 30
0.0
 40
1.984499999999996
100
AcDbArc
 50
324.77977
 51
350.0029399999998
  0
ARC
  5
A0AC
330
9F8E
100
AcDbEntity
  8
1
  6
Continuous
100
AcDbCircle
 10
344.8529459999999
 20
219.3242129999999
 30
0.0
 40
1.984499999999996
100
AcDbArc
 50
324.77977
 51
350.0029399999998
  0
ARC
  5
A0AD
330
9F8E
100
AcDbEntity
  8
1
  6
Continuous
100
AcDbCircle
 10
348.7735699999998
 20
219.3242129999999
 30
0.0
 40
1.984499999999996
100
AcDbArc
 50
324.77977
 51
350.0029599999999
  0
ARC
  5
A0AE
330
9F8E
100
AcDbEntity
  8
1
  6
Continuous
100
AcDbCircle
 10
344.8529459999999
 20
219.3242129999999
 30
0.0
 40
1.984499999999996
100
AcDbArc
 50
189.99701
 51
215.22025
  0
ARC
  5
A0AF
330
9F8E
100
AcDbEntity
  8
1
  6
Continuous
100
AcDbCircle
 10
340.932322
 20
219.3242129999999
 30
0.0
 40
1.984499999999996
100
AcDbArc
 50
324.77977
 51
350.00301
  0
ARC
  5
A0B0
330
9F8E
100
AcDbEntity
  8
1
  6
Continuous
100
AcDbCircle
 10
352.314265
 20
219.3242129999999
 30
0.0
 40
1.984499999999996
100
AcDbArc
 50
206.8632199999999
 51
215.22025
  0
ARC
  5
A0B1
330
9F8E
100
AcDbEntity
  8
1
  6
Continuous
100
AcDbCircle
 10
348.7735699999998
 20
219.3242129999999
 30
0.0
 40
1.984499999999996
100
AcDbArc
 50
189.99695
 51
215.22025
  0
LINE
  5
A0B2
330
9F8E
100
AcDbEntity
  8
1
  6
Continuous
100
AcDbLine
 10
329.5298139999998
 20
209.7501199999999
 30
0.0
 11
325.8529459999998
 21
210.1473069999999
 31
0.0
  0
ARC
  5
A0B3
330
9F8E
100
AcDbEntity
  8
1
  6
Continuous
100
AcDbCircle
 10
328.6706259999998
 20
201.796391
 30
0.0
 40
8.0
100
AcDbArc
 50
37.67077
 51
83.83463799999999
  0
LINE
  5
A0B4
330
9F8E
100
AcDbEntity
  8
1
  6
Continuous
100
AcDbLine
 10
325.8529459999998
 20
215.17971
 30
0.0
 11
325.8529459999998
 21
210.1473069999999
 31
0.0
  0
ARC
  5
A0B5
330
9F8E
100
AcDbEntity
  8
1
  6
Continuous
100
AcDbCircle
 10
328.8529459999998
 20
215.17971
 30
0.0
 40
3.0
100
AcDbArc
 50
90.0
 51
180.0
  0
ARC
  5
A0B6
330
9F8E
100
AcDbEntity
  8
1
  6
Continuous
100
AcDbCircle
 10
337.391627
 20
219.3242129999999
 30
0.0
 40
1.984499999999996
100
AcDbArc
 50
189.99701
 51
215.22025
  0
ARC
  5
A0B7
330
9F8E
100
AcDbEntity
  8
1
  6
Continuous
100
AcDbCircle
 10
340.932322
 20
219.3242129999999
 30
0.0
 40
1.984499999999996
100
AcDbArc
 50
189.99701
 51
215.22025
  0
ARC
  5
A0B8
330
9F8E
100
AcDbEntity
  8
1
  6
Continuous
100
AcDbCircle
 10
332.1029459999998
 20
219.3242129999999
 30
0.0
 40
1.984499999999996
100
AcDbArc
 50
189.99701
 51
215.2203199999999
  0
ARC
  5
A0B9
330
9F8E
100
AcDbEntity
  8
1
  6
Continuous
100
AcDbCircle
 10
332.75236
 20
219.3242129999999
 30
0.0
 40
1.984499999999996
100
AcDbArc
 50
189.99701
 51
215.22025
  0
ARC
  5
A0BA
330
9F8E
100
AcDbEntity
  8
1
  6
Continuous
100
AcDbCircle
 10
334.5739619999998
 20
219.3242129999999
 30
0.0
 40
1.984499999999996
100
AcDbArc
 50
189.99701
 51
215.22025
  0
ARC
  5
A0BB
330
9F8E
100
AcDbEntity
  8
1
  6
Continuous
100
AcDbCircle
 10
337.391627
 20
219.3242129999999
 30
0.0
 40
1.984499999999996
100
AcDbArc
 50
324.77977
 51
333.13675
  0
LINE
  5
A0BC
330
9F8E
100
AcDbEntity
  8
1
  6
Continuous
100
AcDbLine
 10
282.9529459999998
 20
172.779711
 30
0.0
 11
281.952946
 21
172.779711
 31
0.0
  0
LINE
  5
A0BD
330
9F8E
100
AcDbEntity
  8
1
  6
Continuous
100
AcDbLine
 10
282.9529459999998
 20
166.7797109999999
 30
0.0
 11
281.952946
 21
166.7797109999999
 31
0.0
  0
LINE
  5
A0BE
330
9F8E
100
AcDbEntity
  8
1
  6
Continuous
100
AcDbLine
 10
283.9529459999998
 20
171.779711
 30
0.0
 11
283.9529459999998
 21
167.779711
 31
0.0
  0
LINE
  5
A0BF
330
9F8E
100
AcDbEntity
  8
2
  6
Continuous
100
AcDbLine
 10
283.4944459999998
 20
172.238211
 30
0.0
 11
281.952946
 21
172.238211
 31
0.0
  0
LINE
  5
A0C0
330
9F8E
100
AcDbEntity
  8
2
  6
Continuous
100
AcDbLine
 10
283.4944459999998
 20
167.321211
 30
0.0
 11
281.952946
 21
167.321211
 31
0.0
  0
LINE
  5
A0C1
330
9F8E
100
AcDbEntity
  8
1
  6
Continuous
100
AcDbLine
 10
282.9529459999998
 20
172.779711
 30
0.0
 11
282.9529459999998
 21
166.7797109999999
 31
0.0
  0
LINE
  5
A0C2
330
9F8E
100
AcDbEntity
  8
1
  6
Continuous
100
AcDbLine
 10
283.9529459999998
 20
171.779711
 30
0.0
 11
282.9529459999998
 21
172.779711
 31
0.0
  0
LINE
  5
A0C3
330
9F8E
100
AcDbEntity
  8
1
  6
Continuous
100
AcDbLine
 10
283.9529459999998
 20
167.779711
 30
0.0
 11
282.9529459999998
 21
166.7797109999999
 31
0.0
  0
LINE
  5
A0C4
330
9F8E
100
AcDbEntity
  8
1
  6
Continuous
100
AcDbLine
 10
368.8529459999998
 20
172.492959
 30
0.0
 11
373.8529459999999
 21
175.3797109999999
 31
0.0
  0
LINE
  5
A0C5
330
9F8E
100
AcDbEntity
  8
1
  6
Continuous
100
AcDbLine
 10
378.8529459999999
 20
172.492959
 30
0.0
 11
373.8529459999999
 21
175.3797109999999
 31
0.0
  0
LINE
  5
A0C6
330
9F8E
100
AcDbEntity
  8
1
  6
Continuous
100
AcDbLine
 10
378.8529459999999
 20
167.066462
 30
0.0
 11
378.8529459999999
 21
172.492959
 31
0.0
  0
LINE
  5
A0C7
330
9F8E
100
AcDbEntity
  8
1
  6
Continuous
100
AcDbLine
 10
368.8529459999998
 20
167.066462
 30
0.0
 11
373.8529459999999
 21
164.1797109999999
 31
0.0
  0
CIRCLE
  5
A0C8
330
9F8E
100
AcDbEntity
  8
1
  6
Continuous
100
AcDbCircle
 10
373.8529459999999
 20
169.7797109999999
 30
0.0
 40
2.0
  0
CIRCLE
  5
A0C9
330
9F8E
100
AcDbEntity
  8
2
  6
Continuous
100
AcDbCircle
 10
373.8529459999999
 20
169.7797109999999
 30
0.0
 40
2.458499999999999
  0
LINE
  5
A0CA
330
9F8E
100
AcDbEntity
  8
1
  6
Continuous
100
AcDbLine
 10
368.8529459999998
 20
167.066462
 30
0.0
 11
368.8529459999998
 21
172.492959
 31
0.0
  0
LINE
  5
A0CB
330
9F8E
100
AcDbEntity
  8
1
  6
Continuous
100
AcDbLine
 10
378.8529459999999
 20
167.066462
 30
0.0
 11
373.8529459999999
 21
164.1797109999999
 31
0.0
  0
CIRCLE
  5
A0CC
330
9F8E
100
AcDbEntity
  8
1
  6
Continuous
100
AcDbCircle
 10
373.8529459999999
 20
169.7797109999999
 30
0.0
 40
3.799999999999998
  0
CIRCLE
  5
A0CD
330
9F8E
100
AcDbEntity
  8
1
  6
Continuous
100
AcDbCircle
 10
373.8529459999999
 20
169.7797109999999
 30
0.0
 40
3.0
  0
LINE
  5
A0CE
330
9F8E
100
AcDbEntity
  8
1
  6
Continuous
100
AcDbLine
 10
28.252946
 20
167.779711
 30
0.0
 11
29.252946
 21
166.7797109999999
 31
0.0
  0
LINE
  5
A0CF
330
9F8E
100
AcDbEntity
  8
1
  6
Continuous
100
AcDbLine
 10
28.252946
 20
171.779711
 30
0.0
 11
29.252946
 21
172.779711
 31
0.0
  0
LINE
  5
A0D0
330
9F8E
100
AcDbEntity
  8
1
  6
Continuous
100
AcDbLine
 10
29.252946
 20
172.779711
 30
0.0
 11
29.252946
 21
166.7797109999999
 31
0.0
  0
LINE
  5
A0D1
330
9F8E
100
AcDbEntity
  8
1
  6
Continuous
100
AcDbLine
 10
28.252946
 20
171.779711
 30
0.0
 11
28.252946
 21
167.779711
 31
0.0
  0
LINE
  5
A0D2
330
9F8E
100
AcDbEntity
  8
2
  6
Continuous
100
AcDbLine
 10
28.711446
 20
167.321211
 30
0.0
 11
30.252946
 21
167.321211
 31
0.0
  0
LINE
  5
A0D3
330
9F8E
100
AcDbEntity
  8
1
  6
Continuous
100
AcDbLine
 10
29.252946
 20
166.7797109999999
 30
0.0
 11
30.252946
 21
166.7797109999999
 31
0.0
  0
LINE
  5
A0D4
330
9F8E
100
AcDbEntity
  8
2
  6
Continuous
100
AcDbLine
 10
28.711446
 20
172.238211
 30
0.0
 11
30.252946
 21
172.238211
 31
0.0
  0
LINE
  5
A0D5
330
9F8E
100
AcDbEntity
  8
1
  6
Continuous
100
AcDbLine
 10
29.252946
 20
172.779711
 30
0.0
 11
30.252946
 21
172.779711
 31
0.0
  0
LINE
  5
A0D6
330
9F8E
100
AcDbEntity
  8
1
  6
Continuous
100
AcDbLine
 10
338.8529459999998
 20
260.279712
 30
0.0
 11
338.8529459999998
 21
227.2797119999999
 31
0.0
  0
LINE
  5
A0D7
330
9F8E
100
AcDbEntity
  8
1
  6
Continuous
100
AcDbLine
 10
350.8529459999999
 20
260.279712
 30
0.0
 11
350.8529459999999
 21
227.2797119999999
 31
0.0
  0
LINE
  5
A0D8
330
9F8E
100
AcDbEntity
  8
2
  6
Continuous
100
AcDbLine
 10
349.9059459999998
 20
261.226712
 30
0.0
 11
349.9059459999998
 21
228.919964
 31
0.0
  0
LINE
  5
A0D9
330
9F8E
100
AcDbEntity
  8
2
  6
Continuous
100
AcDbLine
 10
339.7999459999998
 20
261.226712
 30
0.0
 11
339.7999459999998
 21
228.919964
 31
0.0
  0
LINE
  5
A0DA
330
9F8E
100
AcDbEntity
  8
1
  6
Continuous
100
AcDbLine
 10
268.3529459999999
 20
260.279712
 30
0.0
 11
268.3529459999999
 21
227.2797119999999
 31
0.0
  0
LINE
  5
A0DB
330
9F8E
100
AcDbEntity
  8
2
  6
Continuous
100
AcDbLine
 10
267.4059459999999
 20
261.226712
 30
0.0
 11
267.4059459999999
 21
228.919964
 31
0.0
  0
LINE
  5
A0DC
330
9F8E
100
AcDbEntity
  8
1
  6
Continuous
100
AcDbLine
 10
256.3529459999999
 20
260.279712
 30
0.0
 11
256.3529459999999
 21
227.2797119999999
 31
0.0
  0
LINE
  5
A0DD
330
9F8E
100
AcDbEntity
  8
2
  6
Continuous
100
AcDbLine
 10
257.2999459999999
 20
261.226712
 30
0.0
 11
257.2999459999999
 21
228.919964
 31
0.0
  0
LINE
  5
A0DE
330
9F8E
100
AcDbEntity
  8
1
  6
Continuous
100
AcDbLine
 10
278.6529489999999
 20
220.579707
 30
0.0
 11
246.052943
 21
220.579707
 31
0.0
  0
LINE
  5
A0DF
330
9F8E
100
AcDbEntity
  8
1
  6
Continuous
100
AcDbLine
 10
248.5529479999999
 20
223.0797069999999
 30
0.0
 11
276.152949
 21
223.0797069999999
 31
0.0
  0
LINE
  5
A0E0
330
9F8E
100
AcDbEntity
  8
1
  6
Continuous
100
AcDbLine
 10
252.538783
 20
227.2797119999999
 30
0.0
 11
272.167109
 21
227.2797119999999
 31
0.0
  0
LINE
  5
A0E1
330
9F8E
100
AcDbEntity
  8
1
  6
Continuous
100
AcDbLine
 10
278.6529489999999
 20
218.9797089999999
 30
0.0
 11
246.052943
 21
218.9797089999999
 31
0.0
  0
ARC
  5
A0E2
330
9F8E
100
AcDbEntity
  8
1
  6
Continuous
100
AcDbCircle
 10
249.6868389999999
 20
219.7684699999999
 30
0.0
 40
3.5
100
AcDbArc
 50
108.9031
 51
162.9964699999999
  0
ARC
  5
A0E3
330
9F8E
100
AcDbEntity
  8
1
  6
Continuous
100
AcDbCircle
 10
246.052943
 20
220.879707
 30
0.0
 40
0.3
100
AcDbArc
 50
270.00002
 51
342.9964799999999
  0
LINE
  5
A0E4
330
9F8E
100
AcDbEntity
  8
1
  6
Continuous
100
AcDbLine
 10
246.052943
 20
220.579707
 30
0.0
 11
246.052943
 21
218.9797089999999
 31
0.0
  0
ARC
  5
A0E5
330
9F8E
100
AcDbEntity
  8
1
  6
Continuous
100
AcDbCircle
 10
257.7529479999999
 20
225.0297119999999
 30
0.0
 40
6.0
100
AcDbArc
 50
161.4469
 51
198.96558
  0
ARC
  5
A0E6
330
9F8E
100
AcDbEntity
  8
1
  6
Continuous
100
AcDbCircle
 10
252.538783
 20
226.7797119999999
 30
0.0
 40
0.5
100
AcDbArc
 50
89.99998199999996
 51
161.44681
  0
LINE
  5
A0E7
330
9F8E
100
AcDbEntity
  8
2
  6
Continuous
100
AcDbLine
 10
267.4059459999999
 20
228.919964
 30
0.0
 11
268.3529459999999
 21
227.2797119999999
 31
0.0
  0
ARC
  5
A0E8
330
9F8E
100
AcDbEntity
  8
1
  6
Continuous
100
AcDbCircle
 10
263.5550749999998
 20
225.0297119999999
 30
0.0
 40
3.5
100
AcDbArc
 50
326.14148
 51
40.005224
  0
ARC
  5
A0E9
330
9F8E
100
AcDbEntity
  8
1
  6
Continuous
100
AcDbCircle
 10
271.729121
 20
225.0297119999999
 30
0.0
 40
3.5
100
AcDbArc
 50
139.99477
 51
213.8584799999999
  0
LINE
  5
A0EA
330
9F8E
100
AcDbEntity
  8
2
  6
Continuous
100
AcDbLine
 10
257.2999459999999
 20
228.919964
 30
0.0
 11
256.3529459999999
 21
227.2797119999999
 31
0.0
  0
ARC
  5
A0EB
330
9F8E
100
AcDbEntity
  8
1
  6
Continuous
100
AcDbCircle
 10
261.15082
 20
225.0297119999999
 30
0.0
 40
3.5
100
AcDbArc
 50
139.99471
 51
213.8584799999999
  0
ARC
  5
A0EC
330
9F8E
100
AcDbEntity
  8
1
  6
Continuous
100
AcDbCircle
 10
252.9767709999999
 20
225.0297119999999
 30
0.0
 40
3.5
100
AcDbArc
 50
326.14148
 51
40.005169
  0
LINE
  5
A0ED
330
9F8E
100
AcDbEntity
  8
1
  6
Continuous
100
AcDbLine
 10
256.3529459999999
 20
228.919964
 30
0.0
 11
268.3529459999999
 21
228.919964
 31
0.0
  0
ARC
  5
A0EE
330
9F8E
100
AcDbEntity
  8
1
  6
Continuous
100
AcDbCircle
 10
275.0190529999998
 20
219.7684699999999
 30
0.0
 40
3.5
100
AcDbArc
 50
17.003496
 51
71.09685999999998
  0
ARC
  5
A0EF
330
9F8E
100
AcDbEntity
  8
1
  6
Continuous
100
AcDbCircle
 10
278.6529489999999
 20
220.879707
 30
0.0
 40
0.3
100
AcDbArc
 50
197.00351
 51
269.9999599999998
  0
LINE
  5
A0F0
330
9F8E
100
AcDbEntity
  8
1
  6
Continuous
100
AcDbLine
 10
278.6529489999999
 20
220.579707
 30
0.0
 11
278.6529489999999
 21
218.9797089999999
 31
0.0
  0
ARC
  5
A0F1
330
9F8E
100
AcDbEntity
  8
1
  6
Continuous
100
AcDbCircle
 10
266.952944
 20
225.0297119999999
 30
0.0
 40
6.0
100
AcDbArc
 50
341.03438
 51
18.553034
  0
ARC
  5
A0F2
330
9F8E
100
AcDbEntity
  8
1
  6
Continuous
100
AcDbCircle
 10
272.167109
 20
226.7797119999999
 30
0.0
 40
0.5
100
AcDbArc
 50
18.55312999999998
 51
89.99996800000003
  0
ARC
  5
A0F3
330
9F8E
100
AcDbEntity
  8
1
  6
Continuous
100
AcDbCircle
 10
357.5190529999999
 20
219.7684699999999
 30
0.0
 40
3.5
100
AcDbArc
 50
17.003496
 51
71.09685999999998
  0
LINE
  5
A0F4
330
9F8E
100
AcDbEntity
  8
1
  6
Continuous
100
AcDbLine
 10
361.1529489999999
 20
220.579707
 30
0.0
 11
328.552943
 21
220.579707
 31
0.0
  0
LINE
  5
A0F5
330
9F8E
100
AcDbEntity
  8
1
  6
Continuous
100
AcDbLine
 10
361.1529489999999
 20
218.9797089999999
 30
0.0
 11
328.552943
 21
218.9797089999999
 31
0.0
  0
ARC
  5
A0F6
330
9F8E
100
AcDbEntity
  8
1
  6
Continuous
100
AcDbCircle
 10
332.186839
 20
219.7684699999999
 30
0.0
 40
3.5
100
AcDbArc
 50
108.9031
 51
162.9964699999999
  0
ARC
  5
A0F7
330
9F8E
100
AcDbEntity
  8
1
  6
Continuous
100
AcDbCircle
 10
328.552943
 20
220.879707
 30
0.0
 40
0.3
100
AcDbArc
 50
270.00002
 51
342.9964799999999
  0
LINE
  5
A0F8
330
9F8E
100
AcDbEntity
  8
1
  6
Continuous
100
AcDbLine
 10
328.552943
 20
220.579707
 30
0.0
 11
328.552943
 21
218.9797089999999
 31
0.0
  0
LINE
  5
A0F9
330
9F8E
100
AcDbEntity
  8
1
  6
Continuous
100
AcDbLine
 10
338.8529459999998
 20
228.919964
 30
0.0
 11
350.8529459999999
 21
228.919964
 31
0.0
  0
LINE
  5
A0FA
330
9F8E
100
AcDbEntity
  8
1
  6
Continuous
100
AcDbLine
 10
335.3529459999998
 20
227.2797119999999
 30
0.0
 11
354.3529459999998
 21
227.2797119999999
 31
0.0
  0
LINE
  5
A0FB
330
9F8E
100
AcDbEntity
  8
1
  6
Continuous
100
AcDbLine
 10
358.652945
 20
223.0797069999999
 30
0.0
 11
331.052943
 21
223.0797069999999
 31
0.0
  0
LINE
  5
A0FC
330
9F8E
100
AcDbEntity
  8
2
  6
Continuous
100
AcDbLine
 10
339.7999459999998
 20
228.919964
 30
0.0
 11
338.8529459999998
 21
227.2797119999999
 31
0.0
  0
LINE
  5
A0FD
330
9F8E
100
AcDbEntity
  8
1
  6
Continuous
100
AcDbLine
 10
335.3529459999998
 20
227.2797119999999
 30
0.0
 11
335.3529459999998
 21
223.0797069999999
 31
0.0
  0
ARC
  5
A0FE
330
9F8E
100
AcDbEntity
  8
1
  6
Continuous
100
AcDbCircle
 10
338.8529459999998
 20
225.0297119999999
 30
0.0
 40
3.0
100
AcDbArc
 50
131.4096399999999
 51
220.5416599999999
  0
LINE
  5
A0FF
330
9F8E
100
AcDbEntity
  8
1
  6
Continuous
100
AcDbLine
 10
354.3529459999998
 20
227.2797119999999
 30
0.0
 11
354.3529459999998
 21
223.0797069999999
 31
0.0
  0
ARC
  5
A100
330
9F8E
100
AcDbEntity
  8
1
  6
Continuous
100
AcDbCircle
 10
350.8529459999999
 20
225.0297119999999
 30
0.0
 40
3.0
100
AcDbArc
 50
319.45831
 51
48.590321
  0
ARC
  5
A101
330
9F8E
100
AcDbEntity
  8
1
  6
Continuous
100
AcDbCircle
 10
348.8529459999999
 20
225.0297119999999
 30
0.0
 40
3.5
100
AcDbArc
 50
139.9947899999999
 51
213.8584799999999
  0
ARC
  5
A102
330
9F8E
100
AcDbEntity
  8
1
  6
Continuous
100
AcDbCircle
 10
340.852946
 20
225.0297119999999
 30
0.0
 40
3.5
100
AcDbArc
 50
326.14148
 51
40.005173
  0
LINE
  5
A103
330
9F8E
100
AcDbEntity
  8
2
  6
Continuous
100
AcDbLine
 10
349.9059459999998
 20
228.919964
 30
0.0
 11
350.8529459999999
 21
227.2797119999999
 31
0.0
  0
ARC
  5
A104
330
9F8E
100
AcDbEntity
  8
1
  6
Continuous
100
AcDbCircle
 10
361.1529489999999
 20
220.879707
 30
0.0
 40
0.3
100
AcDbArc
 50
197.00351
 51
269.9999599999998
  0
LINE
  5
A105
330
9F8E
100
AcDbEntity
  8
1
  6
Continuous
100
AcDbLine
 10
361.1529489999999
 20
220.579707
 30
0.0
 11
361.1529489999999
 21
218.9797089999999
 31
0.0
  0
LINE
  5
A106
330
9F8E
100
AcDbEntity
  8
1
  6
Continuous
100
AcDbLine
 10
180.9841639999999
 20
336.1218579999998
 30
0.0
 11
188.2229459999997
 21
331.942545
 31
0.0
  0
LINE
  5
A107
330
9F8E
100
AcDbEntity
  8
1
  6
Continuous
100
AcDbLine
 10
180.9841639999999
 20
315.528076
 30
0.0
 11
188.2229459999997
 21
319.7073889999998
 31
0.0
  0
CIRCLE
  5
A108
330
9F8E
100
AcDbEntity
  8
1
  6
Continuous
100
AcDbCircle
 10
179.852946
 20
325.824967
 30
0.0
 40
4.0
  0
LINE
  5
A109
330
9F8E
100
AcDbEntity
  8
1
  6
Continuous
100
AcDbLine
 10
170.352946
 20
321.6646059999998
 30
0.0
 11
170.352946
 21
329.9853279999998
 31
0.0
  0
CIRCLE
  5
A10A
330
9F8E
100
AcDbEntity
  8
1
  6
Continuous
100
AcDbCircle
 10
179.852946
 20
325.824967
 30
0.0
 40
6.0
  0
CIRCLE
  5
A10B
330
9F8E
100
AcDbEntity
  8
2
  6
Continuous
100
AcDbCircle
 10
179.852946
 20
325.824967
 30
0.0
 40
5.052999999999999
  0
LINE
  5
A10C
330
9F8E
100
AcDbEntity
  8
1
  6
Continuous
100
AcDbLine
 10
266.3529459999999
 20
262.279712
 30
0.0
 11
268.3529459999999
 21
260.279712
 31
0.0
  0
LINE
  5
A10D
330
9F8E
100
AcDbEntity
  8
1
  6
Continuous
100
AcDbLine
 10
258.3529459999999
 20
262.279712
 30
0.0
 11
256.3529459999999
 21
260.279712
 31
0.0
  0
LINE
  5
A10E
330
9F8E
100
AcDbEntity
  8
1
  6
Continuous
100
AcDbLine
 10
258.3529459999999
 20
262.279712
 30
0.0
 11
266.3529459999999
 21
262.279712
 31
0.0
  0
LINE
  5
A10F
330
9F8E
100
AcDbEntity
  8
1
  6
Continuous
100
AcDbLine
 10
256.3529459999999
 20
260.279712
 30
0.0
 11
268.3529459999999
 21
260.279712
 31
0.0
  0
ARC
  5
A110
330
9F8E
100
AcDbEntity
  8
1
  6
Continuous
100
AcDbCircle
 10
172.6129459999999
 20
321.6646059999998
 30
0.0
 40
2.259999999999998
100
AcDbArc
 50
180.0
 51
239.9999999999999
  0
ARC
  5
A111
330
9F8E
100
AcDbEntity
  8
1
  6
Continuous
100
AcDbCircle
 10
179.852946
 20
317.4874029999998
 30
0.0
 40
2.262436
100
AcDbArc
 50
239.9999999999999
 51
300.0
  0
LINE
  5
A112
330
9F8E
100
AcDbEntity
  8
1
  6
Continuous
100
AcDbLine
 10
171.4829459999999
 20
319.7073889999998
 30
0.0
 11
178.721729
 21
315.528076
 31
0.0
  0
ARC
  5
A113
330
9F8E
100
AcDbEntity
  8
1
  6
Continuous
100
AcDbCircle
 10
172.6129459999999
 20
329.9853279999998
 30
0.0
 40
2.259999999999998
100
AcDbArc
 50
119.9999999999999
 51
180.0
  0
ARC
  5
A114
330
9F8E
100
AcDbEntity
  8
1
  6
Continuous
100
AcDbCircle
 10
179.852946
 20
334.1625309999999
 30
0.0
 40
2.262436
100
AcDbArc
 50
60.0
 51
119.9999999999999
  0
LINE
  5
A115
330
9F8E
100
AcDbEntity
  8
1
  6
Continuous
100
AcDbLine
 10
171.4829459999999
 20
331.942545
 30
0.0
 11
178.721729
 21
336.1218579999998
 31
0.0
  0
LINE
  5
A116
330
9F8E
100
AcDbEntity
  8
1
  6
Continuous
100
AcDbLine
 10
189.352946
 20
321.6646059999998
 30
0.0
 11
189.352946
 21
329.9853279999998
 31
0.0
  0
LINE
  5
A117
330
9F8E
100
AcDbEntity
  8
1
  6
Continuous
100
AcDbLine
 10
340.852946
 20
262.279712
 30
0.0
 11
348.8529459999999
 21
262.279712
 31
0.0
  0
LINE
  5
A118
330
9F8E
100
AcDbEntity
  8
1
  6
Continuous
100
AcDbLine
 10
338.8529459999998
 20
260.279712
 30
0.0
 11
350.8529459999999
 21
260.279712
 31
0.0
  0
LINE
  5
A119
330
9F8E
100
AcDbEntity
  8
1
  6
Continuous
100
AcDbLine
 10
340.852946
 20
262.279712
 30
0.0
 11
338.8529459999998
 21
260.279712
 31
0.0
  0
LINE
  5
A11A
330
9F8E
100
AcDbEntity
  8
1
  6
Continuous
100
AcDbLine
 10
348.8529459999999
 20
262.279712
 30
0.0
 11
350.8529459999999
 21
260.279712
 31
0.0
  0
ARC
  5
A11B
330
9F8E
100
AcDbEntity
  8
1
  6
Continuous
100
AcDbCircle
 10
187.0929459999999
 20
321.6646059999998
 30
0.0
 40
2.259999999999998
100
AcDbArc
 50
300.0
 51
0.0
  0
ARC
  5
A11C
330
9F8E
100
AcDbEntity
  8
1
  6
Continuous
100
AcDbCircle
 10
187.0929459999999
 20
329.9853279999998
 30
0.0
 40
2.259999999999998
100
AcDbArc
 50
0.0
 51
60.0
  0
LINE
  5
A11D
330
9F8E
100
AcDbEntity
  8
2
  6
Continuous
100
AcDbLine
 10
174.799946
 20
261.226712
 30
0.0
 11
174.799946
 21
228.919964
 31
0.0
  0
LINE
  5
A11E
330
9F8E
100
AcDbEntity
  8
2
  6
Continuous
100
AcDbLine
 10
184.905946
 20
261.226712
 30
0.0
 11
184.905946
 21
228.919964
 31
0.0
  0
LINE
  5
A11F
330
9F8E
100
AcDbEntity
  8
1
  6
Continuous
100
AcDbLine
 10
185.8529459999997
 20
260.279712
 30
0.0
 11
185.8529459999997
 21
227.2797119999999
 31
0.0
  0
LINE
  5
A120
330
9F8E
100
AcDbEntity
  8
1
  6
Continuous
100
AcDbLine
 10
173.852946
 20
260.279712
 30
0.0
 11
173.852946
 21
227.2797119999999
 31
0.0
  0
LINE
  5
A121
330
9F8E
100
AcDbEntity
  8
2
  6
Continuous
100
AcDbLine
 10
184.905946
 20
228.919964
 30
0.0
 11
185.8529459999997
 21
227.2797119999999
 31
0.0
  0
LINE
  5
A122
330
9F8E
100
AcDbEntity
  8
1
  6
Continuous
100
AcDbLine
 10
193.6529449999999
 20
223.0797069999999
 30
0.0
 11
166.0529429999999
 21
223.0797069999999
 31
0.0
  0
LINE
  5
A123
330
9F8E
100
AcDbEntity
  8
1
  6
Continuous
100
AcDbLine
 10
170.352946
 20
227.2797119999999
 30
0.0
 11
189.352946
 21
227.2797119999999
 31
0.0
  0
LINE
  5
A124
330
9F8E
100
AcDbEntity
  8
1
  6
Continuous
100
AcDbLine
 10
173.852946
 20
228.919964
 30
0.0
 11
185.8529459999997
 21
228.919964
 31
0.0
  0
LINE
  5
A125
330
9F8E
100
AcDbEntity
  8
1
  6
Continuous
100
AcDbLine
 10
196.152949
 20
218.9797089999999
 30
0.0
 11
163.552943
 21
218.9797089999999
 31
0.0
  0
LINE
  5
A126
330
9F8E
100
AcDbEntity
  8
1
  6
Continuous
100
AcDbLine
 10
196.152949
 20
220.579707
 30
0.0
 11
163.552943
 21
220.579707
 31
0.0
  0
LINE
  5
A127
330
9F8E
100
AcDbEntity
  8
1
  6
Continuous
100
AcDbLine
 10
163.552943
 20
220.579707
 30
0.0
 11
163.552943
 21
218.9797089999999
 31
0.0
  0
ARC
  5
A128
330
9F8E
100
AcDbEntity
  8
1
  6
Continuous
100
AcDbCircle
 10
163.552943
 20
220.879707
 30
0.0
 40
0.3
100
AcDbArc
 50
270.00002
 51
342.9964799999999
  0
ARC
  5
A129
330
9F8E
100
AcDbEntity
  8
1
  6
Continuous
100
AcDbCircle
 10
167.186839
 20
219.7684699999999
 30
0.0
 40
3.5
100
AcDbArc
 50
108.9031
 51
162.9964699999999
  0
ARC
  5
A12A
330
9F8E
100
AcDbEntity
  8
1
  6
Continuous
100
AcDbCircle
 10
175.852946
 20
225.0297119999999
 30
0.0
 40
3.5
100
AcDbArc
 50
326.14148
 51
40.005173
  0
ARC
  5
A12B
330
9F8E
100
AcDbEntity
  8
1
  6
Continuous
100
AcDbCircle
 10
183.852946
 20
225.0297119999999
 30
0.0
 40
3.5
100
AcDbArc
 50
139.9947899999999
 51
213.8584799999999
  0
ARC
  5
A12C
330
9F8E
100
AcDbEntity
  8
1
  6
Continuous
100
AcDbCircle
 10
173.852946
 20
225.0297119999999
 30
0.0
 40
3.0
100
AcDbArc
 50
131.4096399999999
 51
220.5416599999999
  0
LINE
  5
A12D
330
9F8E
100
AcDbEntity
  8
1
  6
Continuous
100
AcDbLine
 10
170.352946
 20
227.2797119999999
 30
0.0
 11
170.352946
 21
223.0797069999999
 31
0.0
  0
LINE
  5
A12E
330
9F8E
100
AcDbEntity
  8
2
  6
Continuous
100
AcDbLine
 10
174.799946
 20
228.919964
 30
0.0
 11
173.852946
 21
227.2797119999999
 31
0.0
  0
LINE
  5
A12F
330
9F8E
100
AcDbEntity
  8
1
  6
Continuous
100
AcDbLine
 10
196.152949
 20
220.579707
 30
0.0
 11
196.152949
 21
218.9797089999999
 31
0.0
  0
ARC
  5
A130
330
9F8E
100
AcDbEntity
  8
1
  6
Continuous
100
AcDbCircle
 10
196.152949
 20
220.879707
 30
0.0
 40
0.3
100
AcDbArc
 50
197.00351
 51
269.9999599999998
  0
ARC
  5
A131
330
9F8E
100
AcDbEntity
  8
1
  6
Continuous
100
AcDbCircle
 10
185.8529459999997
 20
225.0297119999999
 30
0.0
 40
3.0
100
AcDbArc
 50
319.45831
 51
48.590321
  0
LINE
  5
A132
330
9F8E
100
AcDbEntity
  8
1
  6
Continuous
100
AcDbLine
 10
189.352946
 20
227.2797119999999
 30
0.0
 11
189.352946
 21
223.0797069999999
 31
0.0
  0
ARC
  5
A133
330
9F8E
100
AcDbEntity
  8
1
  6
Continuous
100
AcDbCircle
 10
192.519053
 20
219.7684699999999
 30
0.0
 40
3.5
100
AcDbArc
 50
17.003496
 51
71.09685999999998
  0
LINE
  5
A134
330
9F8E
100
AcDbEntity
  8
1
  6
Continuous
100
AcDbLine
 10
183.852946
 20
262.279712
 30
0.0
 11
185.8529459999997
 21
260.279712
 31
0.0
  0
LINE
  5
A135
330
9F8E
100
AcDbEntity
  8
1
  6
Continuous
100
AcDbLine
 10
173.852946
 20
260.279712
 30
0.0
 11
185.8529459999997
 21
260.279712
 31
0.0
  0
LINE
  5
A136
330
9F8E
100
AcDbEntity
  8
1
  6
Continuous
100
AcDbLine
 10
175.852946
 20
262.279712
 30
0.0
 11
173.852946
 21
260.279712
 31
0.0
  0
LINE
  5
A137
330
9F8E
100
AcDbEntity
  8
1
  6
Continuous
100
AcDbLine
 10
175.852946
 20
262.279712
 30
0.0
 11
183.852946
 21
262.279712
 31
0.0
  0
LINE
  5
A138
330
9F8E
100
AcDbEntity
  8
2
  6
Continuous
100
AcDbLine
 10
44.799946
 20
261.226712
 30
0.0
 11
44.799946
 21
228.919964
 31
0.0
  0
LINE
  5
A139
330
9F8E
100
AcDbEntity
  8
1
  6
Continuous
100
AcDbLine
 10
43.852946
 20
260.279712
 30
0.0
 11
43.852946
 21
227.2797119999999
 31
0.0
  0
LINE
  5
A13A
330
9F8E
100
AcDbEntity
  8
2
  6
Continuous
100
AcDbLine
 10
54.90594599999999
 20
261.226712
 30
0.0
 11
54.90594599999999
 21
228.919964
 31
0.0
  0
LINE
  5
A13B
330
9F8E
100
AcDbEntity
  8
1
  6
Continuous
100
AcDbLine
 10
55.852946
 20
260.279712
 30
0.0
 11
55.852946
 21
227.2797119999999
 31
0.0
  0
LINE
  5
A13C
330
9F8E
100
AcDbEntity
  8
1
  6
Continuous
100
AcDbLine
 10
43.852946
 20
228.919964
 30
0.0
 11
55.852946
 21
228.919964
 31
0.0
  0
LINE
  5
A13D
330
9F8E
100
AcDbEntity
  8
1
  6
Continuous
100
AcDbLine
 10
66.15294899999999
 20
218.9797089999999
 30
0.0
 11
33.552943
 21
218.9797089999999
 31
0.0
  0
LINE
  5
A13E
330
9F8E
100
AcDbEntity
  8
1
  6
Continuous
100
AcDbLine
 10
40.038783
 20
227.2797119999999
 30
0.0
 11
59.66710899999998
 21
227.2797119999999
 31
0.0
  0
LINE
  5
A13F
330
9F8E
100
AcDbEntity
  8
1
  6
Continuous
100
AcDbLine
 10
36.052948
 20
223.0797069999999
 30
0.0
 11
63.652949
 21
223.0797069999999
 31
0.0
  0
LINE
  5
A140
330
9F8E
100
AcDbEntity
  8
1
  6
Continuous
100
AcDbLine
 10
66.15294899999999
 20
220.579707
 30
0.0
 11
33.552943
 21
220.579707
 31
0.0
  0
ARC
  5
A141
330
9F8E
100
AcDbEntity
  8
1
  6
Continuous
100
AcDbCircle
 10
40.476771
 20
225.0297119999999
 30
0.0
 40
3.5
100
AcDbArc
 50
326.14148
 51
40.005169
  0
ARC
  5
A142
330
9F8E
100
AcDbEntity
  8
1
  6
Continuous
100
AcDbCircle
 10
48.65082000000001
 20
225.0297119999999
 30
0.0
 40
3.5
100
AcDbArc
 50
139.99471
 51
213.8584799999999
  0
LINE
  5
A143
330
9F8E
100
AcDbEntity
  8
2
  6
Continuous
100
AcDbLine
 10
44.799946
 20
228.919964
 30
0.0
 11
43.852946
 21
227.2797119999999
 31
0.0
  0
ARC
  5
A144
330
9F8E
100
AcDbEntity
  8
1
  6
Continuous
100
AcDbCircle
 10
40.038783
 20
226.7797119999999
 30
0.0
 40
0.5
100
AcDbArc
 50
89.99998199999996
 51
161.44681
  0
ARC
  5
A145
330
9F8E
100
AcDbEntity
  8
1
  6
Continuous
100
AcDbCircle
 10
45.252948
 20
225.0297119999999
 30
0.0
 40
6.0
100
AcDbArc
 50
161.4469
 51
198.96558
  0
LINE
  5
A146
330
9F8E
100
AcDbEntity
  8
1
  6
Continuous
100
AcDbLine
 10
33.552943
 20
220.579707
 30
0.0
 11
33.552943
 21
218.9797089999999
 31
0.0
  0
ARC
  5
A147
330
9F8E
100
AcDbEntity
  8
1
  6
Continuous
100
AcDbCircle
 10
33.552943
 20
220.879707
 30
0.0
 40
0.3
100
AcDbArc
 50
270.00002
 51
342.9964799999999
  0
ARC
  5
A148
330
9F8E
100
AcDbEntity
  8
1
  6
Continuous
100
AcDbCircle
 10
37.186839
 20
219.7684699999999
 30
0.0
 40
3.5
100
AcDbArc
 50
108.9031
 51
162.9964699999999
  0
ARC
  5
A149
330
9F8E
100
AcDbEntity
  8
1
  6
Continuous
100
AcDbCircle
 10
62.519053
 20
219.7684699999999
 30
0.0
 40
3.5
100
AcDbArc
 50
17.003496
 51
71.09685999999998
  0
ARC
  5
A14A
330
9F8E
100
AcDbEntity
  8
1
  6
Continuous
100
AcDbCircle
 10
59.66710899999998
 20
226.7797119999999
 30
0.0
 40
0.5
100
AcDbArc
 50
18.55312999999998
 51
89.99996800000003
  0
ARC
  5
A14B
330
9F8E
100
AcDbEntity
  8
1
  6
Continuous
100
AcDbCircle
 10
54.45294399999998
 20
225.0297119999999
 30
0.0
 40
6.0
100
AcDbArc
 50
341.03438
 51
18.553034
  0
ARC
  5
A14C
330
9F8E
100
AcDbEntity
  8
1
  6
Continuous
100
AcDbCircle
 10
59.229121
 20
225.0297119999999
 30
0.0
 40
3.5
100
AcDbArc
 50
139.99477
 51
213.8584799999999
  0
ARC
  5
A14D
330
9F8E
100
AcDbEntity
  8
1
  6
Continuous
100
AcDbCircle
 10
51.055075
 20
225.0297119999999
 30
0.0
 40
3.5
100
AcDbArc
 50
326.14148
 51
40.005224
  0
LINE
  5
A14E
330
9F8E
100
AcDbEntity
  8
2
  6
Continuous
100
AcDbLine
 10
54.90594599999999
 20
228.919964
 30
0.0
 11
55.852946
 21
227.2797119999999
 31
0.0
  0
LINE
  5
A14F
330
9F8E
100
AcDbEntity
  8
1
  6
Continuous
100
AcDbLine
 10
66.15294899999999
 20
220.579707
 30
0.0
 11
66.15294899999999
 21
218.9797089999999
 31
0.0
  0
ARC
  5
A150
330
9F8E
100
AcDbEntity
  8
1
  6
Continuous
100
AcDbCircle
 10
66.15294899999999
 20
220.879707
 30
0.0
 40
0.3
100
AcDbArc
 50
197.00351
 51
269.9999599999998
  0
LINE
  5
A151
330
9F8E
100
AcDbEntity
  8
1
  6
Continuous
100
AcDbLine
 10
43.852946
 20
260.279712
 30
0.0
 11
55.852946
 21
260.279712
 31
0.0
  0
LINE
  5
A152
330
9F8E
100
AcDbEntity
  8
1
  6
Continuous
100
AcDbLine
 10
45.852946
 20
262.279712
 30
0.0
 11
53.85294599999999
 21
262.279712
 31
0.0
  0
LINE
  5
A153
330
9F8E
100
AcDbEntity
  8
1
  6
Continuous
100
AcDbLine
 10
45.852946
 20
262.279712
 30
0.0
 11
43.852946
 21
260.279712
 31
0.0
  0
LINE
  5
A154
330
9F8E
100
AcDbEntity
  8
1
  6
Continuous
100
AcDbLine
 10
53.85294599999999
 20
262.279712
 30
0.0
 11
55.852946
 21
260.279712
 31
0.0
  0
CIRCLE
  5
A155
330
9F8E
100
AcDbEntity
  8
1
  6
Continuous
100
AcDbCircle
 10
179.852946
 20
325.824967
 30
0.0
 40
13.8
  0
CIRCLE
  5
A156
330
9F8E
100
AcDbEntity
  8
1
  6
Continuous
100
AcDbCircle
 10
179.852946
 20
325.824967
 30
0.0
 40
16.3
  0
ARC
  5
A157
330
9F8E
100
AcDbEntity
  8
1
  6
Continuous
100
AcDbCircle
 10
179.852946
 20
325.824967
 30
0.0
 40
19.0
100
AcDbArc
 50
235.6988470000001
 51
124.301153
  0
LINE
  5
A158
330
9F8E
100
AcDbEntity
  8
1
  6
Continuous
100
AcDbLine
 10
166.8914649999998
 20
310.824967
 30
0.0
 11
143.1529459999999
 21
310.824967
 31
0.0
  0
LINE
  5
A159
330
9F8E
100
AcDbEntity
  8
1
  6
Continuous
100
AcDbLine
 10
166.8914649999998
 20
340.824967
 30
0.0
 11
143.1529459999999
 21
340.824967
 31
0.0
  0
LINE
  5
A15A
330
9F8E
100
AcDbEntity
  8
1
  6
Continuous
100
AcDbLine
 10
145.8164179999999
 20
338.824967
 30
0.0
 11
143.1529459999999
 21
338.824967
 31
0.0
  0
LINE
  5
A15B
330
9F8E
100
AcDbEntity
  8
1
  6
Continuous
100
AcDbLine
 10
143.1529459999999
 20
338.824967
 30
0.0
 11
143.1529459999999
 21
340.824967
 31
0.0
  0
ARC
  5
A15C
330
9F8E
100
AcDbEntity
  8
1
  6
Continuous
100
AcDbCircle
 10
166.8914649999998
 20
306.824967
 30
0.0
 40
4.0
100
AcDbArc
 50
55.69884700000001
 51
90.0
  0
ARC
  5
A15D
330
9F8E
100
AcDbEntity
  8
1
  6
Continuous
100
AcDbCircle
 10
166.8914649999998
 20
344.824967
 30
0.0
 40
4.0
100
AcDbArc
 50
270.0
 51
304.301153
  0
LINE
  5
A15E
330
9F8E
100
AcDbEntity
  8
1
  6
Continuous
100
AcDbLine
 10
185.594348
 20
79.27971099999997
 30
0.0
 11
116.1115439999999
 21
79.27971099999997
 31
0.0
  0
LINE
  5
A15F
330
9F8E
100
AcDbEntity
  8
1
  6
Continuous
100
AcDbLine
 10
160.602946
 20
80.77971099999997
 30
0.0
 11
141.1029459999998
 21
80.77971099999997
 31
0.0
  0
LINE
  5
A160
330
9F8E
100
AcDbEntity
  8
1
  6
Continuous
100
AcDbLine
 10
185.594348
 20
58.279711
 30
0.0
 11
116.1115439999999
 21
58.279711
 31
0.0
  0
LINE
  5
A161
330
9F8E
100
AcDbEntity
  8
1
  6
Continuous
100
AcDbLine
 10
160.602946
 20
56.779711
 30
0.0
 11
141.1029459999998
 21
56.779711
 31
0.0
  0
ARC
  5
A162
330
9F8E
100
AcDbEntity
  8
1
  6
Continuous
100
AcDbCircle
 10
138.352946
 20
68.77971099999999
 30
0.0
 40
50.0
100
AcDbArc
 50
349.80001
 51
10.201812
  0
ARC
  5
A163
330
9F8E
100
AcDbEntity
  8
1
  6
Continuous
100
AcDbCircle
 10
185.594348
 20
60.279711
 30
0.0
 40
2.0
100
AcDbArc
 50
269.99998
 51
349.8000699999999
  0
ARC
  5
A164
330
9F8E
100
AcDbEntity
  8
1
  6
Continuous
100
AcDbCircle
 10
185.594348
 20
77.27971099999997
 30
0.0
 40
2.0
100
AcDbArc
 50
10.19984999999999
 51
89.99995000000001
  0
ARC
  5
A165
330
9F8E
100
AcDbEntity
  8
1
  6
Continuous
100
AcDbCircle
 10
160.602946
 20
57.779711
 30
0.0
 40
1.0
100
AcDbArc
 50
270.0000399999999
 51
0.00002
  0
LINE
  5
A166
330
9F8E
100
AcDbEntity
  8
1
  6
Continuous
100
AcDbLine
 10
161.602946
 20
58.279711
 30
0.0
 11
161.602946
 21
57.779711
 31
0.0
  0
LINE
  5
A167
330
9F8E
100
AcDbEntity
  8
1
  6
Continuous
100
AcDbLine
 10
147.602946
 20
55.779711
 30
0.0
 11
147.602946
 21
56.779711
 31
0.0
  0
LINE
  5
A168
330
9F8E
100
AcDbEntity
  8
1
  6
Continuous
100
AcDbLine
 10
154.102946
 20
55.779711
 30
0.0
 11
154.102946
 21
56.779711
 31
0.0
  0
ARC
  5
A169
330
9F8E
100
AcDbEntity
  8
1
  6
Continuous
100
AcDbCircle
 10
160.602946
 20
79.77971099999997
 30
0.0
 40
1.0
100
AcDbArc
 50
359.9999599999999
 51
89.99995000000001
  0
LINE
  5
A16A
330
9F8E
100
AcDbEntity
  8
1
  6
Continuous
100
AcDbLine
 10
154.102946
 20
80.77971099999997
 30
0.0
 11
154.102946
 21
81.77971099999998
 31
0.0
  0
LINE
  5
A16B
330
9F8E
100
AcDbEntity
  8
1
  6
Continuous
100
AcDbLine
 10
147.602946
 20
80.77971099999997
 30
0.0
 11
147.602946
 21
81.77971099999998
 31
0.0
  0
LINE
  5
A16C
330
9F8E
100
AcDbEntity
  8
1
  6
Continuous
100
AcDbLine
 10
161.602946
 20
79.27971099999997
 30
0.0
 11
161.602946
 21
79.77971099999997
 31
0.0
  0
ARC
  5
A16D
330
9F8E
100
AcDbEntity
  8
1
  6
Continuous
100
AcDbCircle
 10
147.5529469999998
 20
84.28111499999998
 30
0.0
 40
2.0
100
AcDbArc
 50
89.94208
 51
179.999982
  0
ARC
  5
A16E
330
9F8E
100
AcDbEntity
  8
1
  6
Continuous
100
AcDbCircle
 10
154.1529449999998
 20
84.27444699999998
 30
0.0
 40
2.0
100
AcDbArc
 50
0.00002
 51
89.94208
  0
LINE
  5
A16F
330
9F8E
100
AcDbEntity
  8
1
  6
Continuous
100
AcDbLine
 10
145.5529469999999
 20
83.78314399999998
 30
0.0
 11
145.5529469999999
 21
84.28111499999998
 31
0.0
  0
LINE
  5
A170
330
9F8E
100
AcDbEntity
  8
1
  6
Continuous
100
AcDbLine
 10
156.152949
 20
83.772417
 30
0.0
 11
156.152949
 21
84.27444699999998
 31
0.0
  0
LINE
  5
A171
330
9F8E
100
AcDbEntity
  8
1
  6
Continuous
100
AcDbLine
 10
147.5549609999999
 20
86.28113
 30
0.0
 11
154.1549589999999
 21
86.274454
 31
0.0
  0
ARC
  5
A172
330
9F8E
100
AcDbEntity
  8
1
  6
Continuous
100
AcDbCircle
 10
141.1029459999998
 20
57.779711
 30
0.0
 40
1.0
100
AcDbArc
 50
179.999982
 51
269.9999599999998
  0
LINE
  5
A173
330
9F8E
100
AcDbEntity
  8
1
  6
Continuous
100
AcDbLine
 10
140.1029459999998
 20
58.279711
 30
0.0
 11
140.1029459999998
 21
57.779711
 31
0.0
  0
ARC
  5
A174
330
9F8E
100
AcDbEntity
  8
1
  6
Continuous
100
AcDbCircle
 10
141.1029459999998
 20
79.77971099999997
 30
0.0
 40
1.0
100
AcDbArc
 50
90.00005499999994
 51
180.000037
  0
LINE
  5
A175
330
9F8E
100
AcDbEntity
  8
1
  6
Continuous
100
AcDbLine
 10
140.1029459999998
 20
79.27971099999997
 30
0.0
 11
140.1029459999998
 21
79.77971099999997
 31
0.0
  0
ARC
  5
A176
330
9F8E
100
AcDbEntity
  8
1
  6
Continuous
100
AcDbCircle
 10
163.352946
 20
68.77971099999999
 30
0.0
 40
50.0
100
AcDbArc
 50
169.7981879999999
 51
190.1999899999999
  0
ARC
  5
A177
330
9F8E
100
AcDbEntity
  8
1
  6
Continuous
100
AcDbCircle
 10
116.1115439999999
 20
60.279711
 30
0.0
 40
2.0
100
AcDbArc
 50
190.1999199999999
 51
270.00002
  0
ARC
  5
A178
330
9F8E
100
AcDbEntity
  8
1
  6
Continuous
100
AcDbCircle
 10
116.1115439999999
 20
77.27971099999997
 30
0.0
 40
2.0
100
AcDbArc
 50
90.00005499999994
 51
169.8001529999999
  0
LINE
  5
A179
330
9F8E
100
AcDbEntity
  8
2
  6
Continuous
100
AcDbLine
 10
153.311446
 20
47.629629
 30
0.0
 11
153.311446
 21
49.171129
 31
0.0
  0
LINE
  5
A17A
330
9F8E
100
AcDbEntity
  8
1
  6
Continuous
100
AcDbLine
 10
153.852946
 20
48.171129
 30
0.0
 11
153.852946
 21
49.171129
 31
0.0
  0
LINE
  5
A17B
330
9F8E
100
AcDbEntity
  8
1
  6
Continuous
100
AcDbLine
 10
152.852946
 20
47.171129
 30
0.0
 11
153.852946
 21
48.171129
 31
0.0
  0
LINE
  5
A17C
330
9F8E
100
AcDbEntity
  8
1
  6
Continuous
100
AcDbLine
 10
155.852946
 20
53.288963
 30
0.0
 11
155.852946
 21
49.661459
 31
0.0
  0
LINE
  5
A17D
330
9F8E
100
AcDbEntity
  8
1
  6
Continuous
100
AcDbLine
 10
145.852946
 20
53.288963
 30
0.0
 11
145.852946
 21
49.661459
 31
0.0
  0
LINE
  5
A17E
330
9F8E
100
AcDbEntity
  8
1
  6
Continuous
100
AcDbLine
 10
150.852946
 20
49.661459
 30
0.0
 11
150.852946
 21
53.77971099999999
 31
0.0
  0
LINE
  5
A17F
330
9F8E
100
AcDbEntity
  8
2
  6
Continuous
100
AcDbLine
 10
148.3944459999999
 20
47.629629
 30
0.0
 11
148.3944459999999
 21
49.171129
 31
0.0
  0
LINE
  5
A180
330
9F8E
100
AcDbEntity
  8
1
  6
Continuous
100
AcDbLine
 10
147.852946
 20
48.171129
 30
0.0
 11
147.852946
 21
49.171129
 31
0.0
  0
LINE
  5
A181
330
9F8E
100
AcDbEntity
  8
1
  6
Continuous
100
AcDbLine
 10
148.852946
 20
47.171129
 30
0.0
 11
147.852946
 21
48.171129
 31
0.0
  0
ARC
  5
A182
330
9F8E
100
AcDbEntity
  8
1
  6
Continuous
100
AcDbCircle
 10
148.3529459999997
 20
55.78391899999999
 30
0.0
 40
6.613208
100
AcDbArc
 50
247.7882049999999
 51
292.211795
  0
ARC
  5
A183
330
9F8E
100
AcDbEntity
  8
1
  6
Continuous
100
AcDbCircle
 10
148.3529459999997
 20
47.166503
 30
0.0
 40
6.613208
100
AcDbArc
 50
67.78820500000001
 51
112.211795
  0
ARC
  5
A184
330
9F8E
100
AcDbEntity
  8
1
  6
Continuous
100
AcDbCircle
 10
153.352946
 20
55.78391899999999
 30
0.0
 40
6.613208
100
AcDbArc
 50
247.7882049999999
 51
292.211795
  0
ARC
  5
A185
330
9F8E
100
AcDbEntity
  8
1
  6
Continuous
100
AcDbCircle
 10
153.352946
 20
47.166503
 30
0.0
 40
6.613208
100
AcDbArc
 50
67.78820500000001
 51
112.211795
  0
LINE
  5
A186
330
9F8E
100
AcDbEntity
  8
1
  6
Continuous
100
AcDbLine
 10
147.852946
 20
48.171129
 30
0.0
 11
153.852946
 21
48.171129
 31
0.0
  0
LINE
  5
A187
330
9F8E
100
AcDbEntity
  8
1
  6
Continuous
100
AcDbLine
 10
148.852946
 20
47.171129
 30
0.0
 11
152.852946
 21
47.171129
 31
0.0
  0
LINE
  5
A188
330
9F8E
100
AcDbEntity
  8
1
  6
Continuous
100
AcDbLine
 10
148.3529459999997
 20
49.170711
 30
0.0
 11
153.352946
 21
49.170711
 31
0.0
  0
LINE
  5
A189
330
9F8E
100
AcDbEntity
  8
1
  6
Continuous
100
AcDbLine
 10
148.3529459999997
 20
345.4339669999998
 30
0.0
 11
153.352946
 21
345.4339669999998
 31
0.0
  0
LINE
  5
A18A
330
9F8E
100
AcDbEntity
  8
1
  6
Continuous
100
AcDbLine
 10
148.852946
 20
347.433549
 30
0.0
 11
152.852946
 21
347.433549
 31
0.0
  0
LINE
  5
A18B
330
9F8E
100
AcDbEntity
  8
1
  6
Continuous
100
AcDbLine
 10
147.852946
 20
346.433549
 30
0.0
 11
153.852946
 21
346.433549
 31
0.0
  0
ARC
  5
A18C
330
9F8E
100
AcDbEntity
  8
1
  6
Continuous
100
AcDbCircle
 10
153.352946
 20
347.438175
 30
0.0
 40
6.613208
100
AcDbArc
 50
247.7882049999999
 51
292.211795
  0
ARC
  5
A18D
330
9F8E
100
AcDbEntity
  8
1
  6
Continuous
100
AcDbCircle
 10
153.352946
 20
338.820759
 30
0.0
 40
6.613208
100
AcDbArc
 50
67.78820500000001
 51
112.211795
  0
ARC
  5
A18E
330
9F8E
100
AcDbEntity
  8
1
  6
Continuous
100
AcDbCircle
 10
148.3529459999997
 20
347.438175
 30
0.0
 40
6.613208
100
AcDbArc
 50
247.7882049999999
 51
292.211795
  0
ARC
  5
A18F
330
9F8E
100
AcDbEntity
  8
1
  6
Continuous
100
AcDbCircle
 10
148.3529459999997
 20
338.820759
 30
0.0
 40
6.613208
100
AcDbArc
 50
67.78820500000001
 51
112.211795
  0
LINE
  5
A190
330
9F8E
100
AcDbEntity
  8
1
  6
Continuous
100
AcDbLine
 10
148.852946
 20
347.433549
 30
0.0
 11
147.852946
 21
346.433549
 31
0.0
  0
LINE
  5
A191
330
9F8E
100
AcDbEntity
  8
1
  6
Continuous
100
AcDbLine
 10
147.852946
 20
346.433549
 30
0.0
 11
147.852946
 21
345.433549
 31
0.0
  0
LINE
  5
A192
330
9F8E
100
AcDbEntity
  8
2
  6
Continuous
100
AcDbLine
 10
148.3944459999999
 20
346.975049
 30
0.0
 11
148.3944459999999
 21
345.433549
 31
0.0
  0
LINE
  5
A193
330
9F8E
100
AcDbEntity
  8
1
  6
Continuous
100
AcDbLine
 10
150.852946
 20
344.943219
 30
0.0
 11
150.852946
 21
340.824967
 31
0.0
  0
LINE
  5
A194
330
9F8E
100
AcDbEntity
  8
1
  6
Continuous
100
AcDbLine
 10
145.852946
 20
341.3157149999999
 30
0.0
 11
145.852946
 21
344.943219
 31
0.0
  0
LINE
  5
A195
330
9F8E
100
AcDbEntity
  8
1
  6
Continuous
100
AcDbLine
 10
155.852946
 20
341.3157149999999
 30
0.0
 11
155.852946
 21
344.943219
 31
0.0
  0
LINE
  5
A196
330
9F8E
100
AcDbEntity
  8
1
  6
Continuous
100
AcDbLine
 10
152.852946
 20
347.433549
 30
0.0
 11
153.852946
 21
346.433549
 31
0.0
  0
LINE
  5
A197
330
9F8E
100
AcDbEntity
  8
1
  6
Continuous
100
AcDbLine
 10
153.852946
 20
346.433549
 30
0.0
 11
153.852946
 21
345.433549
 31
0.0
  0
LINE
  5
A198
330
9F8E
100
AcDbEntity
  8
2
  6
Continuous
100
AcDbLine
 10
153.311446
 20
346.975049
 30
0.0
 11
153.311446
 21
345.433549
 31
0.0
  0
LINE
  5
A199
330
9F8E
100
AcDbEntity
  8
1
  6
Continuous
100
AcDbLine
 10
147.5549609999999
 20
308.323548
 30
0.0
 11
154.1549589999999
 21
308.330224
 31
0.0
  0
LINE
  5
A19A
330
9F8E
100
AcDbEntity
  8
1
  6
Continuous
100
AcDbLine
 10
156.152949
 20
310.8322609999999
 30
0.0
 11
156.152949
 21
310.3302310000001
 31
0.0
  0
LINE
  5
A19B
330
9F8E
100
AcDbEntity
  8
1
  6
Continuous
100
AcDbLine
 10
145.5529469999999
 20
310.821534
 30
0.0
 11
145.5529469999999
 21
310.3235629999998
 31
0.0
  0
ARC
  5
A19C
330
9F8E
100
AcDbEntity
  8
1
  6
Continuous
100
AcDbCircle
 10
154.1529449999998
 20
310.3302310000001
 30
0.0
 40
2.0
100
AcDbArc
 50
270.05792
 51
359.9999799999998
  0
ARC
  5
A19D
330
9F8E
100
AcDbEntity
  8
1
  6
Continuous
100
AcDbCircle
 10
147.5529469999998
 20
310.3235629999998
 30
0.0
 40
2.0
100
AcDbArc
 50
180.0000179999999
 51
270.05792
  0
ARC
  5
A19E
330
9F8E
100
AcDbEntity
  8
1
  6
Continuous
100
AcDbCircle
 10
163.8529459999998
 20
215.17971
 30
0.0
 40
3.0
100
AcDbArc
 50
90.0
 51
177.517007
  0
ARC
  5
A19F
330
9F8E
100
AcDbEntity
  8
1
  6
Continuous
100
AcDbCircle
 10
179.852946
 20
325.824967
 30
0.0
 40
19.0
100
AcDbArc
 50
137.044631
 51
222.9270399999998
  0
ARC
  5
A1A0
330
9F8E
100
AcDbEntity
  8
1
  6
Continuous
100
AcDbCircle
 10
360.8529459999999
 20
215.17971
 30
0.0
 40
3.0
100
AcDbArc
 50
2.482993
 51
90.0
  0
ENDSEC
  0
SECTION
  2
OBJECTS
  0
DICTIONARY
  5
9F7C
330
0
100
AcDbDictionary
281
     1
  3
ACAD_CIP_PREVIOUS_PRODUCT_INFO
350
A21E
  3
ACAD_COLOR
350
A200
  3
ACAD_DETAILVIEWSTYLE
350
A219
  3
ACAD_GROUP
350
9F7D
  3
ACAD_LAYOUT
350
9F89
  3
ACAD_MATERIAL
350
A1CE
  3
ACAD_MLEADERSTYLE
350
A215
  3
ACAD_MLINESTYLE
350
9F86
  3
ACAD_PLOTSETTINGS
350
9F88
  3
ACAD_PLOTSTYLENAME
350
A1CC
  3
ACAD_SCALELIST
350
A203
  3
ACAD_SECTIONVIEWSTYLE
350
A217
  3
ACAD_TABLESTYLE
350
A201
  3
ACAD_VISUALSTYLE
350
A1E7
  3
ACDB_RECOMPOSE_DATA
350
A23C
  3
AcDbVariableDictionary
350
A22F
  3
DWGPROPS
350
A23D
  0
DICTIONARY
  5
A21F
330
9F80
100
AcDbDictionary
280
     1
281
     1
  3
ADSK_XREC_LAYER_RECONCILED
360
A220
  0
DICTIONARY
  5
A221
330
9F96
100
AcDbDictionary
280
     1
281
     1
  3
ADSK_XREC_LAYER_RECONCILED
360
A222
  0
DICTIONARY
  5
A223
330
9F97
100
AcDbDictionary
280
     1
281
     1
  3
ADSK_XREC_LAYER_RECONCILED
360
A224
  0
DICTIONARY
  5
A225
330
9F98
100
AcDbDictionary
280
     1
281
     1
  3
ADSK_XREC_LAYER_RECONCILED
360
A226
  0
DICTIONARY
  5
A227
330
9F99
100
AcDbDictionary
280
     1
281
     1
  3
ADSK_XREC_LAYER_RECONCILED
360
A228
  0
DICTIONARY
  5
A229
330
9F9A
100
AcDbDictionary
280
     1
281
     1
  3
ADSK_XREC_LAYER_RECONCILED
360
A22A
  0
DICTIONARY
  5
A22B
330
9F9B
100
AcDbDictionary
280
     1
281
     1
  3
ADSK_XREC_LAYER_RECONCILED
360
A22C
  0
DICTIONARY
  5
A22D
330
9F9C
100
AcDbDictionary
280
     1
281
     1
  3
ADSK_XREC_LAYER_RECONCILED
360
A22E
  0
DICTIONARY
  5
A1AB
330
9F8E
100
AcDbDictionary
281
     1
  3
ACAD_LAYOUTSELFREF
350
A1C8
  0
DICTIONARY
  5
A1A9
330
9F8A
100
AcDbDictionary
281
     1
  3
ACAD_LAYOUTSELFREF
350
A1C7
  0
XRECORD
  5
A21E
102
{ACAD_REACTORS
330
9F7C
102
}
330
9F7C
100
AcDbXrecord
280
     1
300
ACDLT
300
2014
300
ACDLT_F_S
  0
DICTIONARY
  5
A200
102
{ACAD_REACTORS
330
9F7C
102
}
330
9F7C
100
AcDbDictionary
281
     1
  0
DICTIONARY
  5
A219
102
{ACAD_REACTORS
330
9F7C
102
}
330
9F7C
100
AcDbDictionary
281
     1
  3
Imperial24
350
A21A
  0
DICTIONARY
  5
9F7D
102
{ACAD_REACTORS
330
9F7C
102
}
330
9F7C
100
AcDbDictionary
281
     1
  0
DICTIONARY
  5
9F89
102
{ACAD_REACTORS
330
9F7C
102
}
330
9F7C
100
AcDbDictionary
281
     1
  3
Model
350
A21B
  3
レイアウト1
350
A21C
  0
DICTIONARY
  5
A1CE
102
{ACAD_REACTORS
330
9F7C
102
}
330
9F7C
100
AcDbDictionary
281
     1
  3
ByBlock
350
A1D7
  3
ByLayer
350
A1CF
  3
Global
350
A1DF
  0
DICTIONARY
  5
A215
102
{ACAD_REACTORS
330
9F7C
102
}
330
9F7C
100
AcDbDictionary
281
     1
  3
Standard
350
A216
  0
DICTIONARY
  5
9F86
102
{ACAD_REACTORS
330
9F7C
102
}
330
9F7C
100
AcDbDictionary
281
     1
  3
STANDARD
350
9F87
  0
DICTIONARY
  5
9F88
102
{ACAD_REACTORS
330
9F7C
102
}
330
9F7C
100
AcDbDictionary
281
     1
  0
ACDBDICTIONARYWDFLT
  5
A1CC
102
{ACAD_REACTORS
330
9F7C
102
}
330
9F7C
100
AcDbDictionary
281
     1
  3
Normal
350
A1CD
100
AcDbDictionaryWithDefault
340
A1CD
  0
DICTIONARY
  5
A203
102
{ACAD_REACTORS
330
9F7C
102
}
330
9F7C
100
AcDbDictionary
281
     1
  3
A0
350
A204
  3
A1
350
A205
  3
A2
350
A206
  3
A3
350
A207
  3
A4
350
A208
  3
A5
350
A209
  3
A6
350
A20A
  3
A7
350
A20B
  3
A8
350
A20C
  3
A9
350
A20D
  3
B0
350
A20E
  3
B1
350
A20F
  3
B2
350
A210
  3
B3
350
A211
  3
B4
350
A212
  3
B5
350
A213
  3
B6
350
A214
  0
DICTIONARY
  5
A217
102
{ACAD_REACTORS
330
9F7C
102
}
330
9F7C
100
AcDbDictionary
281
     1
  3
Imperial24
350
A218
  0
DICTIONARY
  5
A201
102
{ACAD_REACTORS
330
9F7C
102
}
330
9F7C
100
AcDbDictionary
281
     1
  3
Standard
350
A202
  0
DICTIONARY
  5
A1E7
102
{ACAD_REACTORS
330
9F7C
102
}
330
9F7C
100
AcDbDictionary
281
     1
  3
2dWireframe
350
A1ED
  3
Basic
350
A1EC
  3
Brighten
350
A1F3
  3
ColorChange
350
A1F7
  3
Conceptual
350
A1F0
  3
Dim
350
A1F2
  3
EdgeColorOff
350
A1FF
  3
Facepattern
350
A1F6
  3
Flat
350
A1E8
  3
FlatWithEdges
350
A1E9
  3
Gouraud
350
A1EA
  3
GouraudWithEdges
350
A1EB
  3
Hidden
350
A1EF
  3
JitterOff
350
A1FD
  3
Linepattern
350
A1F5
  3
OverhangOff
350
A1FE
  3
Realistic
350
A1F1
  3
Shaded
350
A1FC
  3
Shaded with edges
350
A1FB
  3
Shades of Gray
350
A1F8
  3
Sketchy
350
A1F9
  3
Thicken
350
A1F4
  3
Wireframe
350
A1EE
  3
X-Ray
350
A1FA
  0
XRECORD
  5
A23C
102
{ACAD_REACTORS
330
9F7C
102
}
330
9F7C
100
AcDbXrecord
280
     1
 90
        1
330
A202
  0
DICTIONARY
  5
A22F
102
{ACAD_REACTORS
330
9F7C
102
}
330
9F7C
100
AcDbDictionary
281
     1
  3
CANNOSCALE
350
A234
  3
CMLEADERSTYLE
350
A231
  3
CTABLESTYLE
350
A230
  3
CVIEWDETAILSTYLE
350
A232
  3
CVIEWSECTIONSTYLE
350
A233
  3
DIMASSOC
350
A237
  3
INDEXCTL
350
A236
  3
SORTENTS
350
A235
  3
XCLIPFRAME
350
A238
  0
XRECORD
  5
A23D
102
{ACAD_REACTORS
330
9F7C
102
}
330
9F7C
100
AcDbXrecord
280
     1
  1
DWGPROPS COOKIE
  2

  3

  4

  6

  7

  8
Yoshitsune
  9

300
=
301
=
302
=
303
=
304
=
305
=
306
=
307
=
308
=
309
=
 40
0.1182157291666667
 41
2451301.439272222
 42
2457192.690146158
  1

 90
        0
  0
XRECORD
  5
A220
102
{ACAD_REACTORS
330
A21F
102
}
330
A21F
100
AcDbXrecord
280
     1
290
     1
  0
XRECORD
  5
A222
102
{ACAD_REACTORS
330
A221
102
}
330
A221
100
AcDbXrecord
280
     1
290
     1
  0
XRECORD
  5
A224
102
{ACAD_REACTORS
330
A223
102
}
330
A223
100
AcDbXrecord
280
     1
290
     1
  0
XRECORD
  5
A226
102
{ACAD_REACTORS
330
A225
102
}
330
A225
100
AcDbXrecord
280
     1
290
     1
  0
XRECORD
  5
A228
102
{ACAD_REACTORS
330
A227
102
}
330
A227
100
AcDbXrecord
280
     1
290
     1
  0
XRECORD
  5
A22A
102
{ACAD_REACTORS
330
A229
102
}
330
A229
100
AcDbXrecord
280
     1
290
     1
  0
XRECORD
  5
A22C
102
{ACAD_REACTORS
330
A22B
102
}
330
A22B
100
AcDbXrecord
280
     1
290
     1
  0
XRECORD
  5
A22E
102
{ACAD_REACTORS
330
A22D
102
}
330
A22D
100
AcDbXrecord
280
     1
290
     1
  0
XRECORD
  5
A1C8
102
{ACAD_REACTORS
330
A1AB
102
}
330
A1AB
100
AcDbXrecord
280
     1
340
9F8E
  0
XRECORD
  5
A1C7
102
{ACAD_REACTORS
330
A1A9
102
}
330
A1A9
100
AcDbXrecord
280
     1
340
9F8A
  0
ACDBDETAILVIEWSTYLE
  5
A21A
102
{ACAD_XDICTIONARY
360
A275
102
}
102
{ACAD_REACTORS
330
A219
102
}
330
A219
100
AcDbModelDocViewStyle
 70
     0
  3
Imperial24
290
     0
100
AcDbDetailViewStyle
 70
     0
 71
     0
 90
        3
 71
     1
340
9F81
 40
0.24
340
0
 40
0.24
300

 40
0.36
280
     3
 71
     2
340
9F85
 90
       25
 71
     3
340
9F81
 40
0.24
 90
        1
 40
0.75
 90
        1
300
%<\AcVar ViewType \f "%tc1">% %<\AcVar ViewDetailId>%\PSCALE %<\AcVar ViewScale \f "%sn">%
 71
     4
340
9F85
 90
       25
340
9F85
 90
       25
280
     0
  0
LAYOUT
  5
A21B
102
{ACAD_XDICTIONARY
360
A277
102
}
102
{ACAD_REACTORS
330
9F89
102
}
330
9F89
100
AcDbPlotSettings
  1

  2
Canon LBP9100C
  4

  6

 40
0.0
 41
0.0
 42
0.0
 43
0.0
 44
0.0
 45
0.0
 46
0.0
 47
0.0
 48
0.0
 49
0.0
140
0.0
141
0.0
142
1.0
143
1.0
 70
  1712
 72
     0
 73
     0
 74
     0
  7

 75
     0
147
1.0
148
0.0
149
0.0
100
AcDbLayout
  1
Model
 70
     1
 71
     0
 10
0.0
 20
0.0
 11
12.0
 21
9.0
 12
0.0
 22
0.0
 32
0.0
 14
0.0
 24
0.0
 34
0.0
 15
0.0
 25
0.0
 35
0.0
146
0.0
 13
0.0
 23
0.0
 33
0.0
 16
1.0
 26
0.0
 36
0.0
 17
0.0
 27
1.0
 37
0.0
 76
     0
330
9F8E
331
A1C6
  0
LAYOUT
  5
A21C
102
{ACAD_XDICTIONARY
360
A279
102
}
102
{ACAD_REACTORS
330
9F89
102
}
330
9F89
100
AcDbPlotSettings
  1

  2
Canon LBP9100C
  4

  6

 40
0.0
 41
0.0
 42
0.0
 43
0.0
 44
0.0
 45
0.0
 46
0.0
 47
0.0
 48
0.0
 49
0.0
140
0.0
141
0.0
142
1.0
143
1.0
 70
   688
 72
     0
 73
     0
 74
     5
  7

 75
    16
147
1.0
148
0.0
149
0.0
100
AcDbLayout
  1
レイアウト1
 70
     0
 71
     1
 10
0.0
 20
0.0
 11
420.0
 21
297.0
 12
0.0
 22
0.0
 32
0.0
 14
1.000000000000000E+20
 24
1.000000000000000E+20
 34
1.000000000000000E+20
 15
-1.000000000000000E+20
 25
-1.000000000000000E+20
 35
-1.000000000000000E+20
146
0.0
 13
0.0
 23
0.0
 33
0.0
 16
1.0
 26
0.0
 36
0.0
 17
0.0
 27
1.0
 37
0.0
 76
     0
330
9F8A
  0
MATERIAL
  5
A1D7
102
{ACAD_XDICTIONARY
360
A1D8
102
}
102
{ACAD_REACTORS
330
A1CE
102
}
330
A1CE
100
AcDbMaterial
  1
ByBlock
 72
     0
 43
0.0208333333333333
 43
0.0
 43
0.0
 43
0.0
 43
0.0
 43
0.0208333333333333
 43
0.0
 43
0.0
 43
0.0
 43
0.0
 43
1.0
 43
0.0
 43
0.0
 43
0.0
 43
0.0
 43
1.0
 77
     0
 47
0.0208333333333333
 47
0.0
 47
0.0
 47
0.0
 47
0.0
 47
0.0208333333333333
 47
0.0
 47
0.0
 47
0.0
 47
0.0
 47
1.0
 47
0.0
 47
0.0
 47
0.0
 47
0.0
 47
1.0
171
     0
 49
0.0208333333333333
 49
0.0
 49
0.0
 49
0.0
 49
0.0
 49
0.0208333333333333
 49
0.0
 49
0.0
 49
0.0
 49
0.0
 49
1.0
 49
0.0
 49
0.0
 49
0.0
 49
0.0
 49
1.0
175
     0
142
0.0208333333333333
142
0.0
142
0.0
142
0.0
142
0.0
142
0.0208333333333333
142
0.0
142
0.0
142
0.0
142
0.0
142
1.0
142
0.0
142
0.0
142
0.0
142
0.0
142
1.0
179
     0
144
0.0208333333333333
144
0.0
144
0.0
144
0.0
144
0.0
144
0.0208333333333333
144
0.0
144
0.0
144
0.0
144
0.0
144
1.0
144
0.0
144
0.0
144
0.0
144
0.0
144
1.0
147
0.0208333333333333
147
0.0
147
0.0
147
0.0
147
0.0
147
0.0208333333333333
147
0.0
147
0.0
147
0.0
147
0.0
147
1.0
147
0.0
147
0.0
147
0.0
147
0.0
147
1.0
  0
MATERIAL
  5
A1CF
102
{ACAD_XDICTIONARY
360
A1D0
102
}
102
{ACAD_REACTORS
330
A1CE
102
}
330
A1CE
100
AcDbMaterial
  1
ByLayer
 72
     0
 43
0.0208333333333333
 43
0.0
 43
0.0
 43
0.0
 43
0.0
 43
0.0208333333333333
 43
0.0
 43
0.0
 43
0.0
 43
0.0
 43
1.0
 43
0.0
 43
0.0
 43
0.0
 43
0.0
 43
1.0
 77
     0
 47
0.0208333333333333
 47
0.0
 47
0.0
 47
0.0
 47
0.0
 47
0.0208333333333333
 47
0.0
 47
0.0
 47
0.0
 47
0.0
 47
1.0
 47
0.0
 47
0.0
 47
0.0
 47
0.0
 47
1.0
171
     0
 49
0.0208333333333333
 49
0.0
 49
0.0
 49
0.0
 49
0.0
 49
0.0208333333333333
 49
0.0
 49
0.0
 49
0.0
 49
0.0
 49
1.0
 49
0.0
 49
0.0
 49
0.0
 49
0.0
 49
1.0
175
     0
142
0.0208333333333333
142
0.0
142
0.0
142
0.0
142
0.0
142
0.0208333333333333
142
0.0
142
0.0
142
0.0
142
0.0
142
1.0
142
0.0
142
0.0
142
0.0
142
0.0
142
1.0
179
     0
144
0.0208333333333333
144
0.0
144
0.0
144
0.0
144
0.0
144
0.0208333333333333
144
0.0
144
0.0
144
0.0
144
0.0
144
1.0
144
0.0
144
0.0
144
0.0
144
0.0
144
1.0
147
0.0208333333333333
147
0.0
147
0.0
147
0.0
147
0.0
147
0.0208333333333333
147
0.0
147
0.0
147
0.0
147
0.0
147
1.0
147
0.0
147
0.0
147
0.0
147
0.0
147
1.0
  0
MATERIAL
  5
A1DF
102
{ACAD_XDICTIONARY
360
A1E0
102
}
102
{ACAD_REACTORS
330
A1CE
102
}
330
A1CE
100
AcDbMaterial
  1
Global
 72
     0
 43
0.0208333333333333
 43
0.0
 43
0.0
 43
0.0
 43
0.0
 43
0.0208333333333333
 43
0.0
 43
0.0
 43
0.0
 43
0.0
 43
1.0
 43
0.0
 43
0.0
 43
0.0
 43
0.0
 43
1.0
 77
     0
 47
0.0208333333333333
 47
0.0
 47
0.0
 47
0.0
 47
0.0
 47
0.0208333333333333
 47
0.0
 47
0.0
 47
0.0
 47
0.0
 47
1.0
 47
0.0
 47
0.0
 47
0.0
 47
0.0
 47
1.0
171
     0
 49
0.0208333333333333
 49
0.0
 49
0.0
 49
0.0
 49
0.0
 49
0.0208333333333333
 49
0.0
 49
0.0
 49
0.0
 49
0.0
 49
1.0
 49
0.0
 49
0.0
 49
0.0
 49
0.0
 49
1.0
175
     0
142
0.0208333333333333
142
0.0
142
0.0
142
0.0
142
0.0
142
0.0208333333333333
142
0.0
142
0.0
142
0.0
142
0.0
142
1.0
142
0.0
142
0.0
142
0.0
142
0.0
142
1.0
179
     0
144
0.0208333333333333
144
0.0
144
0.0
144
0.0
144
0.0
144
0.0208333333333333
144
0.0
144
0.0
144
0.0
144
0.0
144
1.0
144
0.0
144
0.0
144
0.0
144
0.0
144
1.0
147
0.0208333333333333
147
0.0
147
0.0
147
0.0
147
0.0
147
0.0208333333333333
147
0.0
147
0.0
147
0.0
147
0.0
147
1.0
147
0.0
147
0.0
147
0.0
147
0.0
147
1.0
  0
MLEADERSTYLE
  5
A216
102
{ACAD_REACTORS
330
A215
102
}
330
A215
100
AcDbMLeaderStyle
170
     2
171
     1
172
     0
 90
        2
 40
0.0
 41
0.0
173
     1
 91
-1056964608
340
9F83
 92
       -2
290
     1
 42
0.09
291
     1
 43
0.36
  3
Standard
 44
0.18
300

342
9F81
174
     1
178
     6
175
     1
176
     0
 93
-1056964608
 45
0.18
292
     0
297
     0
 46
0.18
 94
-1056964608
 47
1.0
 49
1.0
140
1.0
293
     1
141
0.0
294
     1
177
     0
142
1.0
295
     0
296
     0
143
0.125
1001
ACAD_MLEADERVER
1070
     2
  0
MLINESTYLE
  5
9F87
102
{ACAD_REACTORS
330
9F86
102
}
330
9F86
100
AcDbMlineStyle
  2
STANDARD
 70
     0
  3

 62
   256
 51
90.0
 52
90.0
 71
     2
 49
0.5
 62
   256
  6
BYLAYER
 49
-0.5
 62
   256
  6
BYLAYER
  0
ACDBPLACEHOLDER
  5
A1CD
102
{ACAD_REACTORS
330
A1CC
102
}
330
A1CC
  0
SCALE
  5
A204
102
{ACAD_REACTORS
330
A203
102
}
330
A203
100
AcDbScale
 70
     0
300
1:1
140
1.0
141
1.0
290
     1
  0
SCALE
  5
A205
102
{ACAD_REACTORS
330
A203
102
}
330
A203
100
AcDbScale
 70
     0
300
1/128" = 1'-0"
140
0.0078125
141
12.0
290
     0
  0
SCALE
  5
A206
102
{ACAD_REACTORS
330
A203
102
}
330
A203
100
AcDbScale
 70
     0
300
1/64" = 1'-0"
140
0.015625
141
12.0
290
     0
  0
SCALE
  5
A207
102
{ACAD_REACTORS
330
A203
102
}
330
A203
100
AcDbScale
 70
     0
300
1/32" = 1'-0"
140
0.03125
141
12.0
290
     0
  0
SCALE
  5
A208
102
{ACAD_REACTORS
330
A203
102
}
330
A203
100
AcDbScale
 70
     0
300
1/16" = 1'-0"
140
0.0625
141
12.0
290
     0
  0
SCALE
  5
A209
102
{ACAD_REACTORS
330
A203
102
}
330
A203
100
AcDbScale
 70
     0
300
3/32" = 1'-0"
140
0.09375
141
12.0
290
     0
  0
SCALE
  5
A20A
102
{ACAD_REACTORS
330
A203
102
}
330
A203
100
AcDbScale
 70
     0
300
1/8" = 1'-0"
140
0.125
141
12.0
290
     0
  0
SCALE
  5
A20B
102
{ACAD_REACTORS
330
A203
102
}
330
A203
100
AcDbScale
 70
     0
300
3/16" = 1'-0"
140
0.1875
141
12.0
290
     0
  0
SCALE
  5
A20C
102
{ACAD_REACTORS
330
A203
102
}
330
A203
100
AcDbScale
 70
     0
300
1/4" = 1'-0"
140
0.25
141
12.0
290
     0
  0
SCALE
  5
A20D
102
{ACAD_REACTORS
330
A203
102
}
330
A203
100
AcDbScale
 70
     0
300
3/8" = 1'-0"
140
0.375
141
12.0
290
     0
  0
SCALE
  5
A20E
102
{ACAD_REACTORS
330
A203
102
}
330
A203
100
AcDbScale
 70
     0
300
1/2" = 1'-0"
140
0.5
141
12.0
290
     0
  0
SCALE
  5
A20F
102
{ACAD_REACTORS
330
A203
102
}
330
A203
100
AcDbScale
 70
     0
300
3/4" = 1'-0"
140
0.75
141
12.0
290
     0
  0
SCALE
  5
A210
102
{ACAD_REACTORS
330
A203
102
}
330
A203
100
AcDbScale
 70
     0
300
1" = 1'-0"
140
1.0
141
12.0
290
     0
  0
SCALE
  5
A211
102
{ACAD_REACTORS
330
A203
102
}
330
A203
100
AcDbScale
 70
     0
300
1-1/2" = 1'-0"
140
1.5
141
12.0
290
     0
  0
SCALE
  5
A212
102
{ACAD_REACTORS
330
A203
102
}
330
A203
100
AcDbScale
 70
     0
300
3" = 1'-0"
140
3.0
141
12.0
290
     0
  0
SCALE
  5
A213
102
{ACAD_REACTORS
330
A203
102
}
330
A203
100
AcDbScale
 70
     0
300
6" = 1'-0"
140
6.0
141
12.0
290
     0
  0
SCALE
  5
A214
102
{ACAD_REACTORS
330
A203
102
}
330
A203
100
AcDbScale
 70
     0
300
1'-0" = 1'-0"
140
12.0
141
12.0
290
     0
  0
ACDBSECTIONVIEWSTYLE
  5
A218
102
{ACAD_XDICTIONARY
360
A273
102
}
102
{ACAD_REACTORS
330
A217
102
}
330
A217
100
AcDbModelDocViewStyle
 70
     0
  3
Imperial24
290
     0
100
AcDbSectionViewStyle
 70
     0
 71
     0
 90
       78
 71
     1
340
9F81
 40
0.24
340
0
340
0
 40
0.24
300
I, O, Q, S, X, Z
 40
0.48
 90
        3
 40
0.18
 90
        1
 71
     2
340
9F85
 90
       25
340
9F85
 90
       50
 40
0.24
 40
0.0
 40
0.24
 71
     3
340
9F81
 40
0.24
 90
        1
 40
0.75
 90
        1
300
%<\AcVar ViewType \f "%tc1">% %<\AcVar ViewSectionStartId>%-%<\AcVar ViewSectionEndId>%\PSCALE %<\AcVar ViewScale \f "%sn">%
 71
     4
300
ANSI31
 40
1.0
 90
        0
290
     0
290
     0
 90
        6
 40
0.0
 40
1.570796326794896
 40
0.2617993877991494
 40
1.308996938995747
 40
-0.2617993877991494
 40
1.832595714594046
  0
TABLESTYLE
  5
A202
102
{ACAD_XDICTIONARY
360
A23A
102
}
102
{ACAD_REACTORS
330
A201
102
}
330
A201
100
AcDbTableStyle
  3
Standard
 70
     0
 71
     0
 40
0.06
 41
0.06
280
     0
281
     0
  7
STANDARD
140
0.18
170
     2
 62
     0
 63
     7
283
     0
274
    -2
284
     1
 64
     0
275
    -2
285
     1
 65
     0
276
    -2
286
     1
 66
     0
277
    -2
287
     1
 67
     0
278
    -2
288
     1
 68
     0
279
    -2
289
     1
 69
     0
  7
STANDARD
140
0.25
170
     5
 62
     0
 63
     7
283
     0
274
    -2
284
     1
 64
     0
275
    -2
285
     1
 65
     0
276
    -2
286
     1
 66
     0
277
    -2
287
     1
 67
     0
278
    -2
288
     1
 68
     0
279
    -2
289
     1
 69
     0
  7
STANDARD
140
0.18
170
     5
 62
     0
 63
     7
283
     0
274
    -2
284
     1
 64
     0
275
    -2
285
     1
 65
     0
276
    -2
286
     1
 66
     0
277
    -2
287
     1
 67
     0
278
    -2
288
     1
 68
     0
279
    -2
289
     1
 69
     0
  0
VISUALSTYLE
  5
A1ED
102
{ACAD_XDICTIONARY
360
A24B
102
}
102
{ACAD_REACTORS
330
A1E7
102
}
330
A1E7
100
AcDbVisualStyle
  2
2dWireframe
 70
     4
 71
     0
 72
     2
 73
     0
 90
        0
 40
-0.6
 41
-30.0
 62
     5
 63
     7
 74
     1
 91
        4
 64
     7
 65
   257
 75
     1
175
     1
 42
1.0
 92
        0
 66
   257
 43
1.0
 76
     1
 77
     6
 78
     2
 67
     7
 79
     5
170
     0
171
     0
290
     0
174
     0
 93
        1
 44
0.0
173
     0
291
     0
 45
0.0
1001
ACAD
1000
AcDbSavedByObjectVersion
1070
     0
  0
VISUALSTYLE
  5
A1EC
102
{ACAD_XDICTIONARY
360
A249
102
}
102
{ACAD_REACTORS
330
A1E7
102
}
330
A1E7
100
AcDbVisualStyle
  2
Basic
 70
     7
 71
     1
 72
     0
 73
     1
 90
        0
 40
-0.6
 41
-30.0
 62
     5
 63
     7
 74
     0
 91
        4
 64
     7
 65
   257
 75
     1
175
     1
 42
1.0
 92
        8
 66
     7
 43
1.0
 76
     1
 77
     6
 78
     2
 67
     7
 79
     5
170
     0
171
     0
290
     0
174
     0
 93
        1
 44
0.0
173
     0
291
     1
 45
0.0
1001
ACAD
1000
AcDbSavedByObjectVersion
1070
     0
  0
VISUALSTYLE
  5
A1F3
102
{ACAD_XDICTIONARY
360
A257
102
}
102
{ACAD_REACTORS
330
A1E7
102
}
330
A1E7
100
AcDbVisualStyle
  2
Brighten
 70
    12
 71
     2
 72
     2
 73
     0
 90
        0
 40
-0.6
 41
-30.0
 62
     5
 63
     7
 74
     1
 91
        4
 64
     7
 65
   257
 75
     1
175
     1
 42
1.0
 92
        8
 66
     7
 43
1.0
 76
     1
 77
     6
 78
     2
 67
     7
 79
     5
170
     0
171
     0
290
     0
174
     0
 93
        1
 44
50.0
173
     0
291
     1
 45
0.0
1001
ACAD
1000
AcDbSavedByObjectVersion
1070
     0
  0
VISUALSTYLE
  5
A1F7
102
{ACAD_XDICTIONARY
360
A25F
102
}
102
{ACAD_REACTORS
330
A1E7
102
}
330
A1E7
100
AcDbVisualStyle
  2
ColorChange
 70
    16
 71
     2
 72
     2
 73
     3
 90
        0
 40
-0.6
 41
-30.0
 62
     5
 63
     8
 74
     1
 91
        4
 64
     7
 65
   257
 75
     1
175
     1
 42
1.0
 92
        8
 66
     8
 43
1.0
 76
     1
 77
     6
 78
     2
 67
     7
 79
     5
170
     0
171
     0
290
     0
174
     0
 93
        1
 44
0.0
173
     0
291
     1
 45
0.0
1001
ACAD
1000
AcDbSavedByObjectVersion
1070
     0
  0
VISUALSTYLE
  5
A1F0
102
{ACAD_XDICTIONARY
360
A251
102
}
102
{ACAD_REACTORS
330
A1E7
102
}
330
A1E7
100
AcDbVisualStyle
  2
Conceptual
 70
     9
 71
     3
 72
     2
 73
     0
 90
        0
 40
-0.6
 41
-30.0
 62
     5
 63
     7
 74
     2
 91
        2
 64
     7
 65
   257
 75
     1
175
     1
 42
179.0
 92
        8
 66
     7
 43
1.0
 76
     1
 77
     6
 78
     2
 67
     7
 79
     3
170
     0
171
     0
290
     0
174
     0
 93
        1
 44
0.0
173
     0
291
     0
 45
0.0
1001
ACAD
1000
AcDbSavedByObjectVersion
1070
     0
  0
VISUALSTYLE
  5
A1F2
102
{ACAD_XDICTIONARY
360
A255
102
}
102
{ACAD_REACTORS
330
A1E7
102
}
330
A1E7
100
AcDbVisualStyle
  2
Dim
 70
    11
 71
     2
 72
     2
 73
     0
 90
        0
 40
-0.6
 41
-30.0
 62
     5
 63
     7
 74
     1
 91
        4
 64
     7
 65
   257
 75
     1
175
     1
 42
1.0
 92
        8
 66
     7
 43
1.0
 76
     1
 77
     6
 78
     2
 67
     7
 79
     5
170
     0
171
     0
290
     0
174
     0
 93
        1
 44
-50.0
173
     0
291
     1
 45
0.0
1001
ACAD
1000
AcDbSavedByObjectVersion
1070
     0
  0
VISUALSTYLE
  5
A1FF
102
{ACAD_XDICTIONARY
360
A26F
102
}
102
{ACAD_REACTORS
330
A1E7
102
}
330
A1E7
100
AcDbVisualStyle
  2
EdgeColorOff
 70
    22
 71
     2
 72
     2
 73
     0
 90
        0
 40
-0.6
 41
-30.0
 62
     5
 63
     7
 74
     1
 91
        4
 64
     7
 65
   257
 75
     1
175
     1
 42
1.0
 92
        8
 66
     7
 43
1.0
 76
     1
 77
     6
 78
     2
 67
     7
 79
     5
170
     0
171
     0
290
     0
174
     0
 93
        1
 44
0.0
173
     0
291
     1
 45
0.0
1001
ACAD
1000
AcDbSavedByObjectVersion
1070
     0
  0
VISUALSTYLE
  5
A1F6
102
{ACAD_XDICTIONARY
360
A25D
102
}
102
{ACAD_REACTORS
330
A1E7
102
}
330
A1E7
100
AcDbVisualStyle
  2
Facepattern
 70
    15
 71
     2
 72
     2
 73
     0
 90
        0
 40
-0.6
 41
-30.0
 62
     5
 63
     7
 74
     1
 91
        4
 64
     7
 65
   257
 75
     1
175
     1
 42
1.0
 92
        8
 66
     7
 43
1.0
 76
     1
 77
     6
 78
     2
 67
     7
 79
     5
170
     0
171
     0
290
     0
174
     0
 93
        1
 44
0.0
173
     0
291
     1
 45
0.0
1001
ACAD
1000
AcDbSavedByObjectVersion
1070
     0
  0
VISUALSTYLE
  5
A1E8
102
{ACAD_XDICTIONARY
360
A241
102
}
102
{ACAD_REACTORS
330
A1E7
102
}
330
A1E7
100
AcDbVisualStyle
  2
Flat
 70
     0
 71
     2
 72
     1
 73
     1
 90
        2
 40
-0.6
 41
30.0
 62
     5
 63
     7
 74
     0
 91
        0
 64
     7
 65
   257
 75
     1
175
     1
 42
1.0
 92
        8
 66
     7
 43
1.0
 76
     1
 77
     6
 78
     2
 67
     7
 79
     5
170
     0
171
     0
290
     0
174
     0
 93
       13
 44
0.0
173
     0
291
     1
 45
0.0
1001
ACAD
1000
AcDbSavedByObjectVersion
1070
     0
  0
VISUALSTYLE
  5
A1E9
102
{ACAD_XDICTIONARY
360
A243
102
}
102
{ACAD_REACTORS
330
A1E7
102
}
330
A1E7
100
AcDbVisualStyle
  2
FlatWithEdges
 70
     1
 71
     2
 72
     1
 73
     1
 90
        2
 40
-0.6
 41
30.0
 62
     5
 63
     7
 74
     1
 91
        0
 64
     7
 65
   257
 75
     1
175
     1
 42
1.0
 92
        0
 66
   257
 43
1.0
 76
     1
 77
     6
 78
     2
 67
     7
 79
     5
170
     0
171
     0
290
     0
174
     0
 93
       13
 44
0.0
173
     0
291
     1
 45
0.0
1001
ACAD
1000
AcDbSavedByObjectVersion
1070
     0
  0
VISUALSTYLE
  5
A1EA
102
{ACAD_XDICTIONARY
360
A245
102
}
102
{ACAD_REACTORS
330
A1E7
102
}
330
A1E7
100
AcDbVisualStyle
  2
Gouraud
 70
     2
 71
     2
 72
     2
 73
     1
 90
        2
 40
-0.6
 41
30.0
 62
     5
 63
     7
 74
     0
 91
        0
 64
     7
 65
   257
 75
     1
175
     1
 42
1.0
 92
        0
 66
     7
 43
1.0
 76
     1
 77
     6
 78
     2
 67
     7
 79
     5
170
     0
171
     0
290
     0
174
     0
 93
       13
 44
0.0
173
     0
291
     1
 45
0.0
1001
ACAD
1000
AcDbSavedByObjectVersion
1070
     0
  0
VISUALSTYLE
  5
A1EB
102
{ACAD_XDICTIONARY
360
A247
102
}
102
{ACAD_REACTORS
330
A1E7
102
}
330
A1E7
100
AcDbVisualStyle
  2
GouraudWithEdges
 70
     3
 71
     2
 72
     2
 73
     1
 90
        2
 40
-0.6
 41
30.0
 62
     5
 63
     7
 74
     1
 91
        0
 64
     7
 65
   257
 75
     1
175
     1
 42
1.0
 92
        0
 66
   257
 43
1.0
 76
     1
 77
     6
 78
     2
 67
     7
 79
     5
170
     0
171
     0
290
     0
174
     0
 93
       13
 44
0.0
173
     0
291
     1
 45
0.0
1001
ACAD
1000
AcDbSavedByObjectVersion
1070
     0
  0
VISUALSTYLE
  5
A1EF
102
{ACAD_XDICTIONARY
360
A24F
102
}
102
{ACAD_REACTORS
330
A1E7
102
}
330
A1E7
100
AcDbVisualStyle
  2
Hidden
 70
     6
 71
     1
 72
     2
 73
     2
 90
        0
 40
-0.6
 41
-30.0
 62
     5
 63
     7
 74
     2
 91
        2
 64
     7
 65
   257
 75
     2
175
     1
 42
40.0
 92
        0
 66
   257
 43
1.0
 76
     1
 77
     6
 78
     2
 67
     7
 79
     3
170
     0
171
     0
290
     0
174
     0
 93
        1
 44
0.0
173
     0
291
     0
 45
0.0
1001
ACAD
1000
AcDbSavedByObjectVersion
1070
     0
  0
VISUALSTYLE
  5
A1FD
102
{ACAD_XDICTIONARY
360
A26B
102
}
102
{ACAD_REACTORS
330
A1E7
102
}
330
A1E7
100
AcDbVisualStyle
  2
JitterOff
 70
    20
 71
     2
 72
     2
 73
     0
 90
        0
 40
-0.6
 41
-30.0
 62
     5
 63
     7
 74
     1
 91
        4
 64
     7
 65
   257
 75
     1
175
     1
 42
1.0
 92
       10
 66
     7
 43
1.0
 76
     1
 77
     6
 78
     2
 67
     7
 79
     5
170
     0
171
     0
290
     0
174
     0
 93
        1
 44
0.0
173
     0
291
     1
 45
0.0
1001
ACAD
1000
AcDbSavedByObjectVersion
1070
     0
  0
VISUALSTYLE
  5
A1F5
102
{ACAD_XDICTIONARY
360
A25B
102
}
102
{ACAD_REACTORS
330
A1E7
102
}
330
A1E7
100
AcDbVisualStyle
  2
Linepattern
 70
    14
 71
     2
 72
     2
 73
     0
 90
        0
 40
-0.6
 41
-30.0
 62
     5
 63
     7
 74
     1
 91
        4
 64
     7
 65
   257
 75
     7
175
     7
 42
1.0
 92
        8
 66
     7
 43
1.0
 76
     1
 77
     6
 78
     2
 67
     7
 79
     5
170
     0
171
     0
290
     0
174
     0
 93
        1
 44
0.0
173
     0
291
     1
 45
0.0
1001
ACAD
1000
AcDbSavedByObjectVersion
1070
     0
  0
VISUALSTYLE
  5
A1FE
102
{ACAD_XDICTIONARY
360
A26D
102
}
102
{ACAD_REACTORS
330
A1E7
102
}
330
A1E7
100
AcDbVisualStyle
  2
OverhangOff
 70
    21
 71
     2
 72
     2
 73
     0
 90
        0
 40
-0.6
 41
-30.0
 62
     5
 63
     7
 74
     1
 91
        4
 64
     7
 65
   257
 75
     1
175
     1
 42
1.0
 92
        9
 66
     7
 43
1.0
 76
     1
 77
     6
 78
     2
 67
     7
 79
     5
170
     0
171
     0
290
     0
174
     0
 93
        1
 44
0.0
173
     0
291
     1
 45
0.0
1001
ACAD
1000
AcDbSavedByObjectVersion
1070
     0
  0
VISUALSTYLE
  5
A1F1
102
{ACAD_XDICTIONARY
360
A253
102
}
102
{ACAD_REACTORS
330
A1E7
102
}
330
A1E7
100
AcDbVisualStyle
  2
Realistic
 70
     8
 71
     2
 72
     3
 73
     0
 90
        2
 40
-0.6
 41
30.0
 62
     5
 63
     7
 74
     0
 91
        0
 64
     7
 65
   257
 75
     1
175
     1
 42
1.0
 92
        8
 66
   257
 43
1.0
 76
     1
 77
     6
 78
     2
 67
     7
 79
     3
170
     0
171
     0
290
     0
174
     0
 93
       13
 44
0.0
173
     0
291
     0
 45
0.0
1001
ACAD
1000
AcDbSavedByObjectVersion
1070
     0
  0
VISUALSTYLE
  5
A1FC
102
{ACAD_XDICTIONARY
360
A269
102
}
102
{ACAD_REACTORS
330
A1E7
102
}
330
A1E7
100
AcDbVisualStyle
  2
Shaded
 70
    27
 71
     2
 72
     2
 73
     1
 90
        2
 40
-0.6
 41
30.0
 62
     5
 63
     7
 74
     0
 91
        4
 64
     7
 65
   257
 75
     1
175
     1
 42
1.0
 92
        8
 66
   257
 43
1.0
 76
     1
 77
     6
 78
     2
 67
     8
 79
     3
170
     0
171
     0
290
     0
174
     0
 93
        5
 44
0.0
173
     0
291
     0
 45
0.0
1001
ACAD
1000
AcDbSavedByObjectVersion
1070
     0
  0
VISUALSTYLE
  5
A1FB
102
{ACAD_XDICTIONARY
360
A267
102
}
102
{ACAD_REACTORS
330
A1E7
102
}
330
A1E7
100
AcDbVisualStyle
  2
Shaded with edges
 70
    26
 71
     2
 72
     2
 73
     1
 90
        2
 40
-0.6
 41
30.0
 62
     5
 63
     7
 74
     1
 91
       10
 64
     7
 65
   257
 75
     2
175
     1
 42
1.0
 92
        8
 66
   257
 43
1.0
 76
     1
 77
     6
 78
     2
 67
     7
 79
     3
170
     0
171
     0
290
     0
174
     0
 93
        5
 44
0.0
173
     0
291
     0
 45
0.0
1001
ACAD
1000
AcDbSavedByObjectVersion
1070
     0
  0
VISUALSTYLE
  5
A1F8
102
{ACAD_XDICTIONARY
360
A261
102
}
102
{ACAD_REACTORS
330
A1E7
102
}
330
A1E7
100
AcDbVisualStyle
  2
Shades of Gray
 70
    23
 71
     2
 72
     2
 73
     3
 90
        0
 40
-0.6
 41
-30.0
 62
     5
 63
     7
 74
     2
 91
        2
 64
     7
 65
     7
 75
     1
175
     1
 42
40.0
 92
        8
 66
     7
 43
1.0
 76
     1
 77
     6
 78
     2
 67
     7
 79
     3
170
     0
171
     0
290
     0
174
     0
 93
        1
 44
0.0
173
     0
291
     0
 45
0.0
1001
ACAD
1000
AcDbSavedByObjectVersion
1070
     0
  0
VISUALSTYLE
  5
A1F9
102
{ACAD_XDICTIONARY
360
A263
102
}
102
{ACAD_REACTORS
330
A1E7
102
}
330
A1E7
100
AcDbVisualStyle
  2
Sketchy
 70
    24
 71
     1
 72
     2
 73
     2
 90
        0
 40
-0.6
 41
-30.0
 62
     5
 63
     7
 74
     2
 91
        2
 64
     7
 65
     7
 75
     1
175
     1
 42
40.0
 92
       11
 66
     7
 43
1.0
 76
     1
 77
     6
 78
     2
 67
     7
 79
     6
170
     0
171
     0
290
     0
174
     0
 93
        1
 44
0.0
173
     0
291
     0
 45
0.0
1001
ACAD
1000
AcDbSavedByObjectVersion
1070
     0
  0
VISUALSTYLE
  5
A1F4
102
{ACAD_XDICTIONARY
360
A259
102
}
102
{ACAD_REACTORS
330
A1E7
102
}
330
A1E7
100
AcDbVisualStyle
  2
Thicken
 70
    13
 71
     2
 72
     2
 73
     0
 90
        0
 40
-0.6
 41
-30.0
 62
     5
 63
     7
 74
     1
 91
        4
 64
     7
 65
   257
 75
     1
175
     1
 42
1.0
 92
       12
 66
     7
 43
1.0
 76
     1
 77
     6
 78
     2
 67
     7
 79
     5
170
     0
171
     0
290
     0
174
     0
 93
        1
 44
0.0
173
     0
291
     1
 45
0.0
1001
ACAD
1000
AcDbSavedByObjectVersion
1070
     0
  0
VISUALSTYLE
  5
A1EE
102
{ACAD_XDICTIONARY
360
A24D
102
}
102
{ACAD_REACTORS
330
A1E7
102
}
330
A1E7
100
AcDbVisualStyle
  2
Wireframe
 70
     5
 71
     0
 72
     2
 73
     0
 90
        0
 40
-0.6
 41
-30.0
 62
     5
 63
     7
 74
     1
 91
        4
 64
     7
 65
   257
 75
     1
175
     1
 42
1.0
 92
        0
 66
   257
 43
1.0
 76
     1
 77
     6
 78
     2
 67
     7
 79
     3
170
     0
171
     0
290
     0
174
     0
 93
        1
 44
0.0
173
     0
291
     0
 45
0.0
1001
ACAD
1000
AcDbSavedByObjectVersion
1070
     0
  0
VISUALSTYLE
  5
A1FA
102
{ACAD_XDICTIONARY
360
A265
102
}
102
{ACAD_REACTORS
330
A1E7
102
}
330
A1E7
100
AcDbVisualStyle
  2
X-Ray
 70
    25
 71
     2
 72
     2
 73
     1
 90
        1
 40
0.5
 41
-30.0
 62
     5
 63
     7
 74
     1
 91
        0
 64
     7
 65
   257
 75
     1
175
     1
 42
1.0
 92
        8
 66
     7
 43
1.0
 76
     1
 77
     6
 78
     2
 67
     7
 79
     3
170
     0
171
     0
290
     0
174
     0
 93
       13
 44
0.0
173
     0
291
     0
 45
0.0
1001
ACAD
1000
AcDbSavedByObjectVersion
1070
     0
  0
DICTIONARYVAR
  5
A234
102
{ACAD_REACTORS
330
A22F
102
}
330
A22F
100
DictionaryVariables
280
     0
  1
1:1
  0
DICTIONARYVAR
  5
A231
102
{ACAD_REACTORS
330
A22F
102
}
330
A22F
100
DictionaryVariables
280
     0
  1
STANDARD
  0
DICTIONARYVAR
  5
A230
102
{ACAD_REACTORS
330
A22F
102
}
330
A22F
100
DictionaryVariables
280
     0
  1
STANDARD
  0
DICTIONARYVAR
  5
A232
102
{ACAD_REACTORS
330
A22F
102
}
330
A22F
100
DictionaryVariables
280
     0
  1
Imperial24
  0
DICTIONARYVAR
  5
A233
102
{ACAD_REACTORS
330
A22F
102
}
330
A22F
100
DictionaryVariables
280
     0
  1
Imperial24
  0
DICTIONARYVAR
  5
A237
102
{ACAD_REACTORS
330
A22F
102
}
330
A22F
100
DictionaryVariables
280
     0
  1
1
  0
DICTIONARYVAR
  5
A236
102
{ACAD_REACTORS
330
A22F
102
}
330
A22F
100
DictionaryVariables
280
     0
  1
0
  0
DICTIONARYVAR
  5
A235
102
{ACAD_REACTORS
330
A22F
102
}
330
A22F
100
DictionaryVariables
280
     0
  1
127
  0
DICTIONARYVAR
  5
A238
102
{ACAD_REACTORS
330
A22F
102
}
330
A22F
100
DictionaryVariables
280
     0
  1
2
  0
DICTIONARY
  5
A275
330
A21A
100
AcDbDictionary
280
     1
281
     1
  3
ACAD_XREC_ROUNDTRIP
360
A276
  0
DICTIONARY
  5
A277
330
A21B
100
AcDbDictionary
280
     1
281
     1
  3
ACAD_XREC_ROUNDTRIP
360
A278
  0
DICTIONARY
  5
A279
330
A21C
100
AcDbDictionary
280
     1
281
     1
  3
ACAD_XREC_ROUNDTRIP
360
A27A
  0
DICTIONARY
  5
A1D8
330
A1D7
100
AcDbDictionary
280
     1
281
     1
  3
ACAD_XREC_ROUNDTRIP
360
A23F
  3
BUMPTILE
360
A1DA
  3
DIFFUSETILE
360
A1D9
  3
OPACITYTILE
360
A1DD
  3
REFLECTIONTILE
360
A1DC
  3
REFRACTIONTILE
360
A1DE
  3
SPECULARTILE
360
A1DB
  0
DICTIONARY
  5
A1D0
330
A1CF
100
AcDbDictionary
280
     1
281
     1
  3
ACAD_XREC_ROUNDTRIP
360
A23E
  3
BUMPTILE
360
A1D2
  3
DIFFUSETILE
360
A1D1
  3
OPACITYTILE
360
A1D5
  3
REFLECTIONTILE
360
A1D4
  3
REFRACTIONTILE
360
A1D6
  3
SPECULARTILE
360
A1D3
  0
DICTIONARY
  5
A1E0
330
A1DF
100
AcDbDictionary
280
     1
281
     1
  3
ACAD_XREC_ROUNDTRIP
360
A240
  3
BUMPTILE
360
A1E2
  3
DIFFUSETILE
360
A1E1
  3
OPACITYTILE
360
A1E5
  3
REFLECTIONTILE
360
A1E4
  3
REFRACTIONTILE
360
A1E6
  3
SPECULARTILE
360
A1E3
  0
DICTIONARY
  5
A273
330
A218
100
AcDbDictionary
280
     1
281
     1
  3
ACAD_XREC_ROUNDTRIP
360
A274
  0
DICTIONARY
  5
A23A
330
A202
100
AcDbDictionary
280
     1
281
     1
  3
ACAD_ROUNDTRIP_2008_TABLESTYLE_CELLSTYLEMAP
360
A23B
  3
ACAD_XREC_ROUNDTRIP
360
A271
  0
DICTIONARY
  5
A24B
330
A1ED
100
AcDbDictionary
280
     1
281
     1
  3
ACAD_XREC_ROUNDTRIP
360
A24C
  0
DICTIONARY
  5
A249
330
A1EC
100
AcDbDictionary
280
     1
281
     1
  3
ACAD_XREC_ROUNDTRIP
360
A24A
  0
DICTIONARY
  5
A257
330
A1F3
100
AcDbDictionary
280
     1
281
     1
  3
ACAD_XREC_ROUNDTRIP
360
A258
  0
DICTIONARY
  5
A25F
330
A1F7
100
AcDbDictionary
280
     1
281
     1
  3
ACAD_XREC_ROUNDTRIP
360
A260
  0
DICTIONARY
  5
A251
330
A1F0
100
AcDbDictionary
280
     1
281
     1
  3
ACAD_XREC_ROUNDTRIP
360
A252
  0
DICTIONARY
  5
A255
330
A1F2
100
AcDbDictionary
280
     1
281
     1
  3
ACAD_XREC_ROUNDTRIP
360
A256
  0
DICTIONARY
  5
A26F
330
A1FF
100
AcDbDictionary
280
     1
281
     1
  3
ACAD_XREC_ROUNDTRIP
360
A270
  0
DICTIONARY
  5
A25D
330
A1F6
100
AcDbDictionary
280
     1
281
     1
  3
ACAD_XREC_ROUNDTRIP
360
A25E
  0
DICTIONARY
  5
A241
330
A1E8
100
AcDbDictionary
280
     1
281
     1
  3
ACAD_XREC_ROUNDTRIP
360
A242
  0
DICTIONARY
  5
A243
330
A1E9
100
AcDbDictionary
280
     1
281
     1
  3
ACAD_XREC_ROUNDTRIP
360
A244
  0
DICTIONARY
  5
A245
330
A1EA
100
AcDbDictionary
280
     1
281
     1
  3
ACAD_XREC_ROUNDTRIP
360
A246
  0
DICTIONARY
  5
A247
330
A1EB
100
AcDbDictionary
280
     1
281
     1
  3
ACAD_XREC_ROUNDTRIP
360
A248
  0
DICTIONARY
  5
A24F
330
A1EF
100
AcDbDictionary
280
     1
281
     1
  3
ACAD_XREC_ROUNDTRIP
360
A250
  0
DICTIONARY
  5
A26B
330
A1FD
100
AcDbDictionary
280
     1
281
     1
  3
ACAD_XREC_ROUNDTRIP
360
A26C
  0
DICTIONARY
  5
A25B
330
A1F5
100
AcDbDictionary
280
     1
281
     1
  3
ACAD_XREC_ROUNDTRIP
360
A25C
  0
DICTIONARY
  5
A26D
330
A1FE
100
AcDbDictionary
280
     1
281
     1
  3
ACAD_XREC_ROUNDTRIP
360
A26E
  0
DICTIONARY
  5
A253
330
A1F1
100
AcDbDictionary
280
     1
281
     1
  3
ACAD_XREC_ROUNDTRIP
360
A254
  0
DICTIONARY
  5
A269
330
A1FC
100
AcDbDictionary
280
     1
281
     1
  3
ACAD_XREC_ROUNDTRIP
360
A26A
  0
DICTIONARY
  5
A267
330
A1FB
100
AcDbDictionary
280
     1
281
     1
  3
ACAD_XREC_ROUNDTRIP
360
A268
  0
DICTIONARY
  5
A261
330
A1F8
100
AcDbDictionary
280
     1
281
     1
  3
ACAD_XREC_ROUNDTRIP
360
A262
  0
DICTIONARY
  5
A263
330
A1F9
100
AcDbDictionary
280
     1
281
     1
  3
ACAD_XREC_ROUNDTRIP
360
A264
  0
DICTIONARY
  5
A259
330
A1F4
100
AcDbDictionary
280
     1
281
     1
  3
ACAD_XREC_ROUNDTRIP
360
A25A
  0
DICTIONARY
  5
A24D
330
A1EE
100
AcDbDictionary
280
     1
281
     1
  3
ACAD_XREC_ROUNDTRIP
360
A24E
  0
DICTIONARY
  5
A265
330
A1FA
100
AcDbDictionary
280
     1
281
     1
  3
ACAD_XREC_ROUNDTRIP
360
A266
  0
XRECORD
  5
A276
102
{ACAD_REACTORS
330
A275
102
}
330
A275
100
AcDbXrecord
280
     1
102
DISPLAYNAME
  1
Imperial24
102
FLAGS
 90
        0
  0
XRECORD
  5
A278
102
{ACAD_REACTORS
330
A277
102
}
330
A277
100
AcDbXrecord
280
     1
102
SHADEPLOT
 70
     0
102
SHADEPLOTRESLEVEL
 70
     2
102
SHADEPLOTCUSTOMDPI
 70
   300
  0
XRECORD
  5
A27A
102
{ACAD_REACTORS
330
A279
102
}
330
A279
100
AcDbXrecord
280
     1
102
SHADEPLOT
 70
     0
102
SHADEPLOTRESLEVEL
 70
     2
102
SHADEPLOTCUSTOMDPI
 70
   300
  0
XRECORD
  5
A23F
102
{ACAD_REACTORS
330
A1D8
102
}
330
A1D8
100
AcDbXrecord
280
     1
102
MATERIAL
148
0.0
149
0.0
149
0.0
 93
        0
 94
      127
282
     0
 72
     0
 77
     0
171
     0
175
     0
179
     0
273
     0
  0
XRECORD
  5
A1DA
102
{ACAD_REACTORS
330
A1D8
102
}
330
A1D8
100
AcDbXrecord
280
     1
270
     1
271
     1
  0
XRECORD
  5
A1D9
102
{ACAD_REACTORS
330
A1D8
102
}
330
A1D8
100
AcDbXrecord
280
     1
270
     1
271
     1
  0
XRECORD
  5
A1DD
102
{ACAD_REACTORS
330
A1D8
102
}
330
A1D8
100
AcDbXrecord
280
     1
270
     1
271
     1
  0
XRECORD
  5
A1DC
102
{ACAD_REACTORS
330
A1D8
102
}
330
A1D8
100
AcDbXrecord
280
     1
270
     1
271
     1
  0
XRECORD
  5
A1DE
102
{ACAD_REACTORS
330
A1D8
102
}
330
A1D8
100
AcDbXrecord
280
     1
270
     1
271
     1
  0
XRECORD
  5
A1DB
102
{ACAD_REACTORS
330
A1D8
102
}
330
A1D8
100
AcDbXrecord
280
     1
270
     1
271
     1
  0
XRECORD
  5
A23E
102
{ACAD_REACTORS
330
A1D0
102
}
330
A1D0
100
AcDbXrecord
280
     1
102
MATERIAL
148
0.0
149
0.0
149
0.0
 93
        0
 94
      127
282
     0
 72
     0
 77
     0
171
     0
175
     0
179
     0
273
     0
  0
XRECORD
  5
A1D2
102
{ACAD_REACTORS
330
A1D0
102
}
330
A1D0
100
AcDbXrecord
280
     1
270
     1
271
     1
  0
XRECORD
  5
A1D1
102
{ACAD_REACTORS
330
A1D0
102
}
330
A1D0
100
AcDbXrecord
280
     1
270
     1
271
     1
  0
XRECORD
  5
A1D5
102
{ACAD_REACTORS
330
A1D0
102
}
330
A1D0
100
AcDbXrecord
280
     1
270
     1
271
     1
  0
XRECORD
  5
A1D4
102
{ACAD_REACTORS
330
A1D0
102
}
330
A1D0
100
AcDbXrecord
280
     1
270
     1
271
     1
  0
XRECORD
  5
A1D6
102
{ACAD_REACTORS
330
A1D0
102
}
330
A1D0
100
AcDbXrecord
280
     1
270
     1
271
     1
  0
XRECORD
  5
A1D3
102
{ACAD_REACTORS
330
A1D0
102
}
330
A1D0
100
AcDbXrecord
280
     1
270
     1
271
     1
  0
XRECORD
  5
A240
102
{ACAD_REACTORS
330
A1E0
102
}
330
A1E0
100
AcDbXrecord
280
     1
102
MATERIAL
148
0.0
149
0.0
149
0.0
 93
        0
 94
      127
282
     0
 72
     0
 77
     0
171
     0
175
     0
179
     0
273
     0
  0
XRECORD
  5
A1E2
102
{ACAD_REACTORS
330
A1E0
102
}
330
A1E0
100
AcDbXrecord
280
     1
270
     1
271
     1
  0
XRECORD
  5
A1E1
102
{ACAD_REACTORS
330
A1E0
102
}
330
A1E0
100
AcDbXrecord
280
     1
270
     1
271
     1
  0
XRECORD
  5
A1E5
102
{ACAD_REACTORS
330
A1E0
102
}
330
A1E0
100
AcDbXrecord
280
     1
270
     1
271
     1
  0
XRECORD
  5
A1E4
102
{ACAD_REACTORS
330
A1E0
102
}
330
A1E0
100
AcDbXrecord
280
     1
270
     1
271
     1
  0
XRECORD
  5
A1E6
102
{ACAD_REACTORS
330
A1E0
102
}
330
A1E0
100
AcDbXrecord
280
     1
270
     1
271
     1
  0
XRECORD
  5
A1E3
102
{ACAD_REACTORS
330
A1E0
102
}
330
A1E0
100
AcDbXrecord
280
     1
270
     1
271
     1
  0
XRECORD
  5
A274
102
{ACAD_REACTORS
330
A273
102
}
330
A273
100
AcDbXrecord
280
     1
102
DISPLAYNAME
  1
Imperial24
102
FLAGS
 90
        0
  0
CELLSTYLEMAP
  5
A23B
102
{ACAD_REACTORS
330
A23A
102
}
330
A23A
100
AcDbCellStyleMap
 90
        3
300
CELLSTYLE
  1
TABLEFORMAT_BEGIN
 90
        5
170
     1
 91
        0
 92
    32768
 62
   257
 93
        1
300
CONTENTFORMAT
  1
CONTENTFORMAT_BEGIN
 90
        0
 91
        0
 92
      512
 93
        0
300

 40
0.0
140
1.0
 94
        5
 62
     0
340
9F81
144
0.25
309
CONTENTFORMAT_END
171
     0
 94
        0
309
TABLEFORMAT_END
  1
CELLSTYLE_BEGIN
 90
        1
 91
        1
300
_TITLE
309
CELLSTYLE_END
300
CELLSTYLE
  1
TABLEFORMAT_BEGIN
 90
        5
170
     1
 91
        0
 92
        0
 62
   257
 93
        1
300
CONTENTFORMAT
  1
CONTENTFORMAT_BEGIN
 90
        0
 91
        0
 92
      512
 93
        0
300

 40
0.0
140
1.0
 94
        5
 62
     0
340
9F81
144
0.18
309
CONTENTFORMAT_END
171
     0
 94
        0
309
TABLEFORMAT_END
  1
CELLSTYLE_BEGIN
 90
        2
 91
        1
300
_HEADER
309
CELLSTYLE_END
300
CELLSTYLE
  1
TABLEFORMAT_BEGIN
 90
        5
170
     1
 91
        0
 92
        0
 62
   257
 93
        1
300
CONTENTFORMAT
  1
CONTENTFORMAT_BEGIN
 90
        0
 91
        0
 92
      512
 93
        0
300

 40
0.0
140
1.0
 94
        2
 62
     0
340
9F81
144
0.18
309
CONTENTFORMAT_END
171
     0
 94
        0
309
TABLEFORMAT_END
  1
CELLSTYLE_BEGIN
 90
        3
 91
        2
300
_DATA
309
CELLSTYLE_END
  0
XRECORD
  5
A271
102
{ACAD_REACTORS
330
A23A
102
}
330
A23A
100
AcDbXrecord
280
     1
102
ACAD_ROUNDTRIP_PRE2007_TABLESTYLE
 90
      512
 91
        0
  1

 92
      512
 93
        0
  2

 94
      512
 95
        0
  3

  0
XRECORD
  5
A24C
102
{ACAD_REACTORS
330
A24B
102
}
330
A24B
100
AcDbXrecord
280
     1
102
RTVSPost2010Prop28
280
     1
102
RTVSPost2010PropOp28
 70
     1
102
RTVSPost2010Prop29
280
     1
102
RTVSPost2010PropOp29
 70
     1
102
RTVSPost2010Prop30
280
     0
102
RTVSPost2010PropOp30
 70
     1
102
RTVSPost2010Prop31
280
     0
102
RTVSPost2010PropOp31
 70
     1
102
RTVSPost2010Prop32
280
     0
102
RTVSPost2010PropOp32
 70
     1
102
RTVSPost2010Prop33
280
     0
102
RTVSPost2010PropOp33
 70
     1
102
RTVSPost2010Prop34
280
     0
102
RTVSPost2010PropOp34
 70
     1
102
RTVSPost2010Prop35
280
     0
102
RTVSPost2010PropOp35
 70
     1
102
RTVSPost2010Prop36
280
     0
102
RTVSPost2010PropOp36
 70
     1
102
RTVSPost2010Prop37
 90
       50
102
RTVSPost2010PropOp37
 70
     1
102
RTVSPost2010Prop38
140
0.0
102
RTVSPost2010PropOp38
 70
     1
102
RTVSPost2010Prop39
140
1.0
102
RTVSPost2010PropOp39
 70
     1
102
RTVSPost2010Prop40
 90
        0
102
RTVSPost2010PropOp40
 70
     1
102
RTVSPost2010Prop41ColorIndex
 90
       18
102
RTVSPost2010Prop41ColorRGB
 90
        0
102
RTVSPost2010PropOp41
 70
     1
102
RTVSPost2010Prop42
 90
       50
102
RTVSPost2010PropOp42
 70
     1
102
RTVSPost2010Prop43
 90
        3
102
RTVSPost2010PropOp43
 70
     1
102
RTVSPost2010Prop44ColorIndex
 90
        5
102
RTVSPost2010Prop44ColorRGB
 90
      255
102
RTVSPost2010PropOp44
 70
     1
102
RTVSPost2010Prop45
280
     0
102
RTVSPost2010PropOp45
 70
     1
102
RTVSPost2010Prop46
 90
       50
102
RTVSPost2010PropOp46
 70
     1
102
RTVSPost2010Prop47
 90
       50
102
RTVSPost2010PropOp47
 70
     1
102
RTVSPost2010Prop48
 90
       50
102
RTVSPost2010PropOp48
 70
     1
102
RTVSPost2010Prop49
280
     0
102
RTVSPost2010PropOp49
 70
     1
102
RTVSPost2010Prop50
 90
       50
102
RTVSPost2010PropOp50
 70
     1
102
RTVSPost2010Prop51ColorIndex
 90
      256
102
RTVSPost2010Prop51ColorRGB
 90
-16777216
102
RTVSPost2010PropOp51
 70
     0
102
RTVSPost2010Prop52
140
1.0
102
RTVSPost2010PropOp52
 70
     0
102
RTVSPost2010Prop53
 90
        2
102
RTVSPost2010PropOp53
 70
     1
102
RTVSPost2010Prop54
  1
strokes_ogs.tif
102
RTVSPost2010PropOp54
 70
     1
102
RTVSPost2010Prop55
280
     0
102
RTVSPost2010PropOp55
 70
     1
102
RTVSPost2010Prop56
140
1.0
102
RTVSPost2010PropOp56
 70
     1
102
RTVSPost2010Prop57
140
1.0
102
RTVSPost2010PropOp57
 70
     1
102
RTVSPropertyOp0
 70
     1
102
RTVSPropertyOp1
 70
     1
102
RTVSPropertyOp2
 70
     1
102
RTVSPropertyOp3
 70
     1
102
RTVSPropertyOp4
 70
     1
102
RTVSPropertyOp5
 70
     1
102
RTVSPropertyOp6
 70
     1
102
RTVSPropertyOp7
 70
     1
102
RTVSPropertyOp8
 70
     1
102
RTVSPropertyOp9
 70
     1
102
RTVSPropertyOp10
 70
     1
102
RTVSPropertyOp11
 70
     1
102
RTVSPropertyOp12
 70
     1
102
RTVSPropertyOp13
 70
     1
102
RTVSPropertyOp14
 70
     1
102
RTVSPropertyOp15
 70
     1
102
RTVSPropertyOp16
 70
     1
102
RTVSPropertyOp17
 70
     1
102
RTVSPropertyOp18
 70
     1
102
RTVSPropertyOp19
 70
     1
102
RTVSPropertyOp20
 70
     1
102
RTVSPropertyOp21
 70
     1
102
RTVSPropertyOp22
 70
     1
102
RTVSPropertyOp23
 70
     1
102
RTVSPropertyOp24
 70
     1
102
RTVSPropertyOp25
 70
     1
102
RTVSPropertyOp26
 70
     1
102
RTVSPropertyOp27
 70
     1
102
RTVSPropertyOp28
 70
     1
102
RTVSPropertyOp29
 70
     1
102
RTVSPropertyOp30
 70
     1
102
RTVSPropertyOp31
 70
     1
102
RTVSPropertyOp32
 70
     1
102
RTVSPropertyOp33
 70
     1
102
RTVSPropertyOp34
 70
     1
102
RTVSPropertyOp35
 70
     1
102
RTVSPropertyOp36
 70
     1
102
RTVSPropertyOp37
 70
     1
102
RTVSPropertyOp38
 70
     1
102
RTVSPropertyOp39
 70
     1
102
RTVSPropertyOp40
 70
     1
102
RTVSPropertyOp41
 70
     1
102
RTVSPropertyOp42
 70
     1
102
RTVSPropertyOp43
 70
     1
102
RTVSPropertyOp44
 70
     1
102
RTVSPropertyOp45
 70
     1
102
RTVSPropertyOp46
 70
     1
102
RTVSPropertyOp47
 70
     1
102
RTVSPropertyOp48
 70
     1
102
RTVSPropertyOp49
 70
     1
102
RTVSPropertyOp50
 70
     1
102
RTVSPropertyOp51
 70
     0
102
RTVSPropertyOp52
 70
     0
102
RTVSPropertyOp53
 70
     1
102
RTVSPropertyOp54
 70
     1
102
RTVSPropertyOp55
 70
     1
102
RTVSPropertyOp56
 70
     1
102
RTVSPropertyOp57
 70
     1
102
RTVSPropertyOp58
 70
     1
102
RTVSPropertyOp59
 70
     1
102
RTVSPropertyOp60
 70
     1
102
RTVSPropertyOp61
 70
     1
102
RTVSPropertyOp62
 70
     1
  0
XRECORD
  5
A24A
102
{ACAD_REACTORS
330
A249
102
}
330
A249
100
AcDbXrecord
280
     1
102
RTVSPost2010Prop28
280
     0
102
RTVSPost2010PropOp28
 70
     1
102
RTVSPost2010Prop29
280
     1
102
RTVSPost2010PropOp29
 70
     1
102
RTVSPost2010Prop30
280
     1
102
RTVSPost2010PropOp30
 70
     1
102
RTVSPost2010Prop31
280
     0
102
RTVSPost2010PropOp31
 70
     1
102
RTVSPost2010Prop32
280
     0
102
RTVSPost2010PropOp32
 70
     1
102
RTVSPost2010Prop33
280
     0
102
RTVSPost2010PropOp33
 70
     1
102
RTVSPost2010Prop34
280
     0
102
RTVSPost2010PropOp34
 70
     1
102
RTVSPost2010Prop35
280
     0
102
RTVSPost2010PropOp35
 70
     1
102
RTVSPost2010Prop36
280
     0
102
RTVSPost2010PropOp36
 70
     1
102
RTVSPost2010Prop37
 90
       50
102
RTVSPost2010PropOp37
 70
     1
102
RTVSPost2010Prop38
140
0.0
102
RTVSPost2010PropOp38
 70
     1
102
RTVSPost2010Prop39
140
1.0
102
RTVSPost2010PropOp39
 70
     1
102
RTVSPost2010Prop40
 90
        0
102
RTVSPost2010PropOp40
 70
     1
102
RTVSPost2010Prop41ColorIndex
 90
       18
102
RTVSPost2010Prop41ColorRGB
 90
        0
102
RTVSPost2010PropOp41
 70
     1
102
RTVSPost2010Prop42
 90
       50
102
RTVSPost2010PropOp42
 70
     1
102
RTVSPost2010Prop43
 90
        3
102
RTVSPost2010PropOp43
 70
     1
102
RTVSPost2010Prop44ColorIndex
 90
        5
102
RTVSPost2010Prop44ColorRGB
 90
      255
102
RTVSPost2010PropOp44
 70
     1
102
RTVSPost2010Prop45
280
     0
102
RTVSPost2010PropOp45
 70
     1
102
RTVSPost2010Prop46
 90
       50
102
RTVSPost2010PropOp46
 70
     1
102
RTVSPost2010Prop47
 90
       50
102
RTVSPost2010PropOp47
 70
     1
102
RTVSPost2010Prop48
 90
       50
102
RTVSPost2010PropOp48
 70
     1
102
RTVSPost2010Prop49
280
     0
102
RTVSPost2010PropOp49
 70
     1
102
RTVSPost2010Prop50
 90
       50
102
RTVSPost2010PropOp50
 70
     1
102
RTVSPost2010Prop51ColorIndex
 90
      256
102
RTVSPost2010Prop51ColorRGB
 90
-16777216
102
RTVSPost2010PropOp51
 70
     0
102
RTVSPost2010Prop52
140
1.0
102
RTVSPost2010PropOp52
 70
     0
102
RTVSPost2010Prop53
 90
        2
102
RTVSPost2010PropOp53
 70
     1
102
RTVSPost2010Prop54
  1
strokes_ogs.tif
102
RTVSPost2010PropOp54
 70
     1
102
RTVSPost2010Prop55
280
     0
102
RTVSPost2010PropOp55
 70
     1
102
RTVSPost2010Prop56
140
1.0
102
RTVSPost2010PropOp56
 70
     1
102
RTVSPost2010Prop57
140
1.0
102
RTVSPost2010PropOp57
 70
     1
102
RTVSPropertyOp0
 70
     1
102
RTVSPropertyOp1
 70
     1
102
RTVSPropertyOp2
 70
     1
102
RTVSPropertyOp3
 70
     1
102
RTVSPropertyOp4
 70
     1
102
RTVSPropertyOp5
 70
     1
102
RTVSPropertyOp6
 70
     1
102
RTVSPropertyOp7
 70
     1
102
RTVSPropertyOp8
 70
     1
102
RTVSPropertyOp9
 70
     1
102
RTVSPropertyOp10
 70
     1
102
RTVSPropertyOp11
 70
     1
102
RTVSPropertyOp12
 70
     1
102
RTVSPropertyOp13
 70
     1
102
RTVSPropertyOp14
 70
     1
102
RTVSPropertyOp15
 70
     1
102
RTVSPropertyOp16
 70
     1
102
RTVSPropertyOp17
 70
     1
102
RTVSPropertyOp18
 70
     1
102
RTVSPropertyOp19
 70
     1
102
RTVSPropertyOp20
 70
     1
102
RTVSPropertyOp21
 70
     1
102
RTVSPropertyOp22
 70
     1
102
RTVSPropertyOp23
 70
     1
102
RTVSPropertyOp24
 70
     1
102
RTVSPropertyOp25
 70
     1
102
RTVSPropertyOp26
 70
     1
102
RTVSPropertyOp27
 70
     1
102
RTVSPropertyOp28
 70
     1
102
RTVSPropertyOp29
 70
     1
102
RTVSPropertyOp30
 70
     1
102
RTVSPropertyOp31
 70
     1
102
RTVSPropertyOp32
 70
     1
102
RTVSPropertyOp33
 70
     1
102
RTVSPropertyOp34
 70
     1
102
RTVSPropertyOp35
 70
     1
102
RTVSPropertyOp36
 70
     1
102
RTVSPropertyOp37
 70
     1
102
RTVSPropertyOp38
 70
     1
102
RTVSPropertyOp39
 70
     1
102
RTVSPropertyOp40
 70
     1
102
RTVSPropertyOp41
 70
     1
102
RTVSPropertyOp42
 70
     1
102
RTVSPropertyOp43
 70
     1
102
RTVSPropertyOp44
 70
     1
102
RTVSPropertyOp45
 70
     1
102
RTVSPropertyOp46
 70
     1
102
RTVSPropertyOp47
 70
     1
102
RTVSPropertyOp48
 70
     1
102
RTVSPropertyOp49
 70
     1
102
RTVSPropertyOp50
 70
     1
102
RTVSPropertyOp51
 70
     0
102
RTVSPropertyOp52
 70
     0
102
RTVSPropertyOp53
 70
     1
102
RTVSPropertyOp54
 70
     1
102
RTVSPropertyOp55
 70
     1
102
RTVSPropertyOp56
 70
     1
102
RTVSPropertyOp57
 70
     1
102
RTVSPropertyOp58
 70
     1
102
RTVSPropertyOp59
 70
     1
102
RTVSPropertyOp60
 70
     1
102
RTVSPropertyOp61
 70
     1
102
RTVSPropertyOp62
 70
     1
  0
XRECORD
  5
A258
102
{ACAD_REACTORS
330
A257
102
}
330
A257
100
AcDbXrecord
280
     1
102
RTVSPost2010Prop28
280
     0
102
RTVSPost2010PropOp28
 70
     1
102
RTVSPost2010Prop29
280
     1
102
RTVSPost2010PropOp29
 70
     1
102
RTVSPost2010Prop30
280
     1
102
RTVSPost2010PropOp30
 70
     1
102
RTVSPost2010Prop31
280
     0
102
RTVSPost2010PropOp31
 70
     1
102
RTVSPost2010Prop32
280
     0
102
RTVSPost2010PropOp32
 70
     1
102
RTVSPost2010Prop33
280
     0
102
RTVSPost2010PropOp33
 70
     1
102
RTVSPost2010Prop34
280
     0
102
RTVSPost2010PropOp34
 70
     1
102
RTVSPost2010Prop35
280
     0
102
RTVSPost2010PropOp35
 70
     1
102
RTVSPost2010Prop36
280
     0
102
RTVSPost2010PropOp36
 70
     1
102
RTVSPost2010Prop37
 90
       50
102
RTVSPost2010PropOp37
 70
     1
102
RTVSPost2010Prop38
140
0.0
102
RTVSPost2010PropOp38
 70
     1
102
RTVSPost2010Prop39
140
1.0
102
RTVSPost2010PropOp39
 70
     1
102
RTVSPost2010Prop40
 90
        0
102
RTVSPost2010PropOp40
 70
     1
102
RTVSPost2010Prop41ColorIndex
 90
       18
102
RTVSPost2010Prop41ColorRGB
 90
        0
102
RTVSPost2010PropOp41
 70
     1
102
RTVSPost2010Prop42
 90
       50
102
RTVSPost2010PropOp42
 70
     1
102
RTVSPost2010Prop43
 90
        3
102
RTVSPost2010PropOp43
 70
     1
102
RTVSPost2010Prop44ColorIndex
 90
        5
102
RTVSPost2010Prop44ColorRGB
 90
      255
102
RTVSPost2010PropOp44
 70
     1
102
RTVSPost2010Prop45
280
     0
102
RTVSPost2010PropOp45
 70
     1
102
RTVSPost2010Prop46
 90
       50
102
RTVSPost2010PropOp46
 70
     1
102
RTVSPost2010Prop47
 90
       50
102
RTVSPost2010PropOp47
 70
     1
102
RTVSPost2010Prop48
 90
       50
102
RTVSPost2010PropOp48
 70
     1
102
RTVSPost2010Prop49
280
     0
102
RTVSPost2010PropOp49
 70
     1
102
RTVSPost2010Prop50
 90
       50
102
RTVSPost2010PropOp50
 70
     1
102
RTVSPost2010Prop51ColorIndex
 90
      256
102
RTVSPost2010Prop51ColorRGB
 90
-16777216
102
RTVSPost2010PropOp51
 70
     0
102
RTVSPost2010Prop52
140
1.0
102
RTVSPost2010PropOp52
 70
     0
102
RTVSPost2010Prop53
 90
        2
102
RTVSPost2010PropOp53
 70
     1
102
RTVSPost2010Prop54
  1
strokes_ogs.tif
102
RTVSPost2010PropOp54
 70
     1
102
RTVSPost2010Prop55
280
     0
102
RTVSPost2010PropOp55
 70
     1
102
RTVSPost2010Prop56
140
1.0
102
RTVSPost2010PropOp56
 70
     1
102
RTVSPost2010Prop57
140
1.0
102
RTVSPost2010PropOp57
 70
     1
102
RTVSPropertyOp0
 70
     1
102
RTVSPropertyOp1
 70
     1
102
RTVSPropertyOp2
 70
     1
102
RTVSPropertyOp3
 70
     1
102
RTVSPropertyOp4
 70
     1
102
RTVSPropertyOp5
 70
     1
102
RTVSPropertyOp6
 70
     1
102
RTVSPropertyOp7
 70
     1
102
RTVSPropertyOp8
 70
     1
102
RTVSPropertyOp9
 70
     1
102
RTVSPropertyOp10
 70
     1
102
RTVSPropertyOp11
 70
     1
102
RTVSPropertyOp12
 70
     1
102
RTVSPropertyOp13
 70
     1
102
RTVSPropertyOp14
 70
     1
102
RTVSPropertyOp15
 70
     1
102
RTVSPropertyOp16
 70
     1
102
RTVSPropertyOp17
 70
     1
102
RTVSPropertyOp18
 70
     1
102
RTVSPropertyOp19
 70
     1
102
RTVSPropertyOp20
 70
     1
102
RTVSPropertyOp21
 70
     1
102
RTVSPropertyOp22
 70
     1
102
RTVSPropertyOp23
 70
     1
102
RTVSPropertyOp24
 70
     1
102
RTVSPropertyOp25
 70
     1
102
RTVSPropertyOp26
 70
     1
102
RTVSPropertyOp27
 70
     1
102
RTVSPropertyOp28
 70
     1
102
RTVSPropertyOp29
 70
     1
102
RTVSPropertyOp30
 70
     1
102
RTVSPropertyOp31
 70
     1
102
RTVSPropertyOp32
 70
     1
102
RTVSPropertyOp33
 70
     1
102
RTVSPropertyOp34
 70
     1
102
RTVSPropertyOp35
 70
     1
102
RTVSPropertyOp36
 70
     1
102
RTVSPropertyOp37
 70
     1
102
RTVSPropertyOp38
 70
     1
102
RTVSPropertyOp39
 70
     1
102
RTVSPropertyOp40
 70
     1
102
RTVSPropertyOp41
 70
     1
102
RTVSPropertyOp42
 70
     1
102
RTVSPropertyOp43
 70
     1
102
RTVSPropertyOp44
 70
     1
102
RTVSPropertyOp45
 70
     1
102
RTVSPropertyOp46
 70
     1
102
RTVSPropertyOp47
 70
     1
102
RTVSPropertyOp48
 70
     1
102
RTVSPropertyOp49
 70
     1
102
RTVSPropertyOp50
 70
     1
102
RTVSPropertyOp51
 70
     0
102
RTVSPropertyOp52
 70
     0
102
RTVSPropertyOp53
 70
     1
102
RTVSPropertyOp54
 70
     1
102
RTVSPropertyOp55
 70
     1
102
RTVSPropertyOp56
 70
     1
102
RTVSPropertyOp57
 70
     1
102
RTVSPropertyOp58
 70
     1
102
RTVSPropertyOp59
 70
     1
102
RTVSPropertyOp60
 70
     1
102
RTVSPropertyOp61
 70
     1
102
RTVSPropertyOp62
 70
     1
  0
XRECORD
  5
A260
102
{ACAD_REACTORS
330
A25F
102
}
330
A25F
100
AcDbXrecord
280
     1
102
RTVSPost2010Prop28
280
     0
102
RTVSPost2010PropOp28
 70
     1
102
RTVSPost2010Prop29
280
     1
102
RTVSPost2010PropOp29
 70
     1
102
RTVSPost2010Prop30
280
     1
102
RTVSPost2010PropOp30
 70
     1
102
RTVSPost2010Prop31
280
     0
102
RTVSPost2010PropOp31
 70
     1
102
RTVSPost2010Prop32
280
     0
102
RTVSPost2010PropOp32
 70
     1
102
RTVSPost2010Prop33
280
     0
102
RTVSPost2010PropOp33
 70
     1
102
RTVSPost2010Prop34
280
     0
102
RTVSPost2010PropOp34
 70
     1
102
RTVSPost2010Prop35
280
     0
102
RTVSPost2010PropOp35
 70
     1
102
RTVSPost2010Prop36
280
     0
102
RTVSPost2010PropOp36
 70
     1
102
RTVSPost2010Prop37
 90
       50
102
RTVSPost2010PropOp37
 70
     1
102
RTVSPost2010Prop38
140
0.0
102
RTVSPost2010PropOp38
 70
     1
102
RTVSPost2010Prop39
140
1.0
102
RTVSPost2010PropOp39
 70
     1
102
RTVSPost2010Prop40
 90
        0
102
RTVSPost2010PropOp40
 70
     1
102
RTVSPost2010Prop41ColorIndex
 90
       18
102
RTVSPost2010Prop41ColorRGB
 90
        0
102
RTVSPost2010PropOp41
 70
     1
102
RTVSPost2010Prop42
 90
       50
102
RTVSPost2010PropOp42
 70
     1
102
RTVSPost2010Prop43
 90
        3
102
RTVSPost2010PropOp43
 70
     1
102
RTVSPost2010Prop44ColorIndex
 90
        5
102
RTVSPost2010Prop44ColorRGB
 90
      255
102
RTVSPost2010PropOp44
 70
     1
102
RTVSPost2010Prop45
280
     0
102
RTVSPost2010PropOp45
 70
     1
102
RTVSPost2010Prop46
 90
       50
102
RTVSPost2010PropOp46
 70
     1
102
RTVSPost2010Prop47
 90
       50
102
RTVSPost2010PropOp47
 70
     1
102
RTVSPost2010Prop48
 90
       50
102
RTVSPost2010PropOp48
 70
     1
102
RTVSPost2010Prop49
280
     0
102
RTVSPost2010PropOp49
 70
     1
102
RTVSPost2010Prop50
 90
       50
102
RTVSPost2010PropOp50
 70
     1
102
RTVSPost2010Prop51ColorIndex
 90
      256
102
RTVSPost2010Prop51ColorRGB
 90
-16777216
102
RTVSPost2010PropOp51
 70
     0
102
RTVSPost2010Prop52
140
1.0
102
RTVSPost2010PropOp52
 70
     0
102
RTVSPost2010Prop53
 90
        2
102
RTVSPost2010PropOp53
 70
     1
102
RTVSPost2010Prop54
  1
strokes_ogs.tif
102
RTVSPost2010PropOp54
 70
     1
102
RTVSPost2010Prop55
280
     0
102
RTVSPost2010PropOp55
 70
     1
102
RTVSPost2010Prop56
140
1.0
102
RTVSPost2010PropOp56
 70
     1
102
RTVSPost2010Prop57
140
1.0
102
RTVSPost2010PropOp57
 70
     1
102
RTVSPropertyOp0
 70
     1
102
RTVSPropertyOp1
 70
     1
102
RTVSPropertyOp2
 70
     1
102
RTVSPropertyOp3
 70
     1
102
RTVSPropertyOp4
 70
     1
102
RTVSPropertyOp5
 70
     1
102
RTVSPropertyOp6
 70
     1
102
RTVSPropertyOp7
 70
     1
102
RTVSPropertyOp8
 70
     1
102
RTVSPropertyOp9
 70
     1
102
RTVSPropertyOp10
 70
     1
102
RTVSPropertyOp11
 70
     1
102
RTVSPropertyOp12
 70
     1
102
RTVSPropertyOp13
 70
     1
102
RTVSPropertyOp14
 70
     1
102
RTVSPropertyOp15
 70
     1
102
RTVSPropertyOp16
 70
     1
102
RTVSPropertyOp17
 70
     1
102
RTVSPropertyOp18
 70
     1
102
RTVSPropertyOp19
 70
     1
102
RTVSPropertyOp20
 70
     1
102
RTVSPropertyOp21
 70
     1
102
RTVSPropertyOp22
 70
     1
102
RTVSPropertyOp23
 70
     1
102
RTVSPropertyOp24
 70
     1
102
RTVSPropertyOp25
 70
     1
102
RTVSPropertyOp26
 70
     1
102
RTVSPropertyOp27
 70
     1
102
RTVSPropertyOp28
 70
     1
102
RTVSPropertyOp29
 70
     1
102
RTVSPropertyOp30
 70
     1
102
RTVSPropertyOp31
 70
     1
102
RTVSPropertyOp32
 70
     1
102
RTVSPropertyOp33
 70
     1
102
RTVSPropertyOp34
 70
     1
102
RTVSPropertyOp35
 70
     1
102
RTVSPropertyOp36
 70
     1
102
RTVSPropertyOp37
 70
     1
102
RTVSPropertyOp38
 70
     1
102
RTVSPropertyOp39
 70
     1
102
RTVSPropertyOp40
 70
     1
102
RTVSPropertyOp41
 70
     1
102
RTVSPropertyOp42
 70
     1
102
RTVSPropertyOp43
 70
     1
102
RTVSPropertyOp44
 70
     1
102
RTVSPropertyOp45
 70
     1
102
RTVSPropertyOp46
 70
     1
102
RTVSPropertyOp47
 70
     1
102
RTVSPropertyOp48
 70
     1
102
RTVSPropertyOp49
 70
     1
102
RTVSPropertyOp50
 70
     1
102
RTVSPropertyOp51
 70
     0
102
RTVSPropertyOp52
 70
     0
102
RTVSPropertyOp53
 70
     1
102
RTVSPropertyOp54
 70
     1
102
RTVSPropertyOp55
 70
     1
102
RTVSPropertyOp56
 70
     1
102
RTVSPropertyOp57
 70
     1
102
RTVSPropertyOp58
 70
     1
102
RTVSPropertyOp59
 70
     1
102
RTVSPropertyOp60
 70
     1
102
RTVSPropertyOp61
 70
     1
102
RTVSPropertyOp62
 70
     1
  0
XRECORD
  5
A252
102
{ACAD_REACTORS
330
A251
102
}
330
A251
100
AcDbXrecord
280
     1
102
RTVSPost2010Prop28
280
     0
102
RTVSPost2010PropOp28
 70
     1
102
RTVSPost2010Prop29
280
     1
102
RTVSPost2010PropOp29
 70
     1
102
RTVSPost2010Prop30
280
     1
102
RTVSPost2010PropOp30
 70
     1
102
RTVSPost2010Prop31
280
     0
102
RTVSPost2010PropOp31
 70
     1
102
RTVSPost2010Prop32
280
     0
102
RTVSPost2010PropOp32
 70
     1
102
RTVSPost2010Prop33
280
     0
102
RTVSPost2010PropOp33
 70
     1
102
RTVSPost2010Prop34
280
     0
102
RTVSPost2010PropOp34
 70
     1
102
RTVSPost2010Prop35
280
     0
102
RTVSPost2010PropOp35
 70
     1
102
RTVSPost2010Prop36
280
     0
102
RTVSPost2010PropOp36
 70
     1
102
RTVSPost2010Prop37
 90
       50
102
RTVSPost2010PropOp37
 70
     1
102
RTVSPost2010Prop38
140
0.0
102
RTVSPost2010PropOp38
 70
     1
102
RTVSPost2010Prop39
140
1.0
102
RTVSPost2010PropOp39
 70
     1
102
RTVSPost2010Prop40
 90
        0
102
RTVSPost2010PropOp40
 70
     1
102
RTVSPost2010Prop41ColorIndex
 90
       18
102
RTVSPost2010Prop41ColorRGB
 90
        0
102
RTVSPost2010PropOp41
 70
     1
102
RTVSPost2010Prop42
 90
       50
102
RTVSPost2010PropOp42
 70
     1
102
RTVSPost2010Prop43
 90
        3
102
RTVSPost2010PropOp43
 70
     1
102
RTVSPost2010Prop44ColorIndex
 90
        5
102
RTVSPost2010Prop44ColorRGB
 90
      255
102
RTVSPost2010PropOp44
 70
     1
102
RTVSPost2010Prop45
280
     0
102
RTVSPost2010PropOp45
 70
     1
102
RTVSPost2010Prop46
 90
       50
102
RTVSPost2010PropOp46
 70
     1
102
RTVSPost2010Prop47
 90
       50
102
RTVSPost2010PropOp47
 70
     1
102
RTVSPost2010Prop48
 90
       50
102
RTVSPost2010PropOp48
 70
     1
102
RTVSPost2010Prop49
280
     0
102
RTVSPost2010PropOp49
 70
     1
102
RTVSPost2010Prop50
 90
       50
102
RTVSPost2010PropOp50
 70
     1
102
RTVSPost2010Prop51ColorIndex
 90
      256
102
RTVSPost2010Prop51ColorRGB
 90
-16777216
102
RTVSPost2010PropOp51
 70
     0
102
RTVSPost2010Prop52
140
1.0
102
RTVSPost2010PropOp52
 70
     0
102
RTVSPost2010Prop53
 90
        2
102
RTVSPost2010PropOp53
 70
     1
102
RTVSPost2010Prop54
  1
strokes_ogs.tif
102
RTVSPost2010PropOp54
 70
     1
102
RTVSPost2010Prop55
280
     0
102
RTVSPost2010PropOp55
 70
     1
102
RTVSPost2010Prop56
140
1.0
102
RTVSPost2010PropOp56
 70
     1
102
RTVSPost2010Prop57
140
1.0
102
RTVSPost2010PropOp57
 70
     1
102
RTVSPropertyOp0
 70
     1
102
RTVSPropertyOp1
 70
     1
102
RTVSPropertyOp2
 70
     1
102
RTVSPropertyOp3
 70
     1
102
RTVSPropertyOp4
 70
     1
102
RTVSPropertyOp5
 70
     1
102
RTVSPropertyOp6
 70
     1
102
RTVSPropertyOp7
 70
     1
102
RTVSPropertyOp8
 70
     1
102
RTVSPropertyOp9
 70
     1
102
RTVSPropertyOp10
 70
     1
102
RTVSPropertyOp11
 70
     1
102
RTVSPropertyOp12
 70
     1
102
RTVSPropertyOp13
 70
     1
102
RTVSPropertyOp14
 70
     1
102
RTVSPropertyOp15
 70
     1
102
RTVSPropertyOp16
 70
     1
102
RTVSPropertyOp17
 70
     1
102
RTVSPropertyOp18
 70
     1
102
RTVSPropertyOp19
 70
     1
102
RTVSPropertyOp20
 70
     1
102
RTVSPropertyOp21
 70
     1
102
RTVSPropertyOp22
 70
     1
102
RTVSPropertyOp23
 70
     1
102
RTVSPropertyOp24
 70
     1
102
RTVSPropertyOp25
 70
     1
102
RTVSPropertyOp26
 70
     1
102
RTVSPropertyOp27
 70
     1
102
RTVSPropertyOp28
 70
     1
102
RTVSPropertyOp29
 70
     1
102
RTVSPropertyOp30
 70
     1
102
RTVSPropertyOp31
 70
     1
102
RTVSPropertyOp32
 70
     1
102
RTVSPropertyOp33
 70
     1
102
RTVSPropertyOp34
 70
     1
102
RTVSPropertyOp35
 70
     1
102
RTVSPropertyOp36
 70
     1
102
RTVSPropertyOp37
 70
     1
102
RTVSPropertyOp38
 70
     1
102
RTVSPropertyOp39
 70
     1
102
RTVSPropertyOp40
 70
     1
102
RTVSPropertyOp41
 70
     1
102
RTVSPropertyOp42
 70
     1
102
RTVSPropertyOp43
 70
     1
102
RTVSPropertyOp44
 70
     1
102
RTVSPropertyOp45
 70
     1
102
RTVSPropertyOp46
 70
     1
102
RTVSPropertyOp47
 70
     1
102
RTVSPropertyOp48
 70
     1
102
RTVSPropertyOp49
 70
     1
102
RTVSPropertyOp50
 70
     1
102
RTVSPropertyOp51
 70
     0
102
RTVSPropertyOp52
 70
     0
102
RTVSPropertyOp53
 70
     1
102
RTVSPropertyOp54
 70
     1
102
RTVSPropertyOp55
 70
     1
102
RTVSPropertyOp56
 70
     1
102
RTVSPropertyOp57
 70
     1
102
RTVSPropertyOp58
 70
     1
102
RTVSPropertyOp59
 70
     1
102
RTVSPropertyOp60
 70
     1
102
RTVSPropertyOp61
 70
     1
102
RTVSPropertyOp62
 70
     1
  0
XRECORD
  5
A256
102
{ACAD_REACTORS
330
A255
102
}
330
A255
100
AcDbXrecord
280
     1
102
RTVSPost2010Prop28
280
     0
102
RTVSPost2010PropOp28
 70
     1
102
RTVSPost2010Prop29
280
     1
102
RTVSPost2010PropOp29
 70
     1
102
RTVSPost2010Prop30
280
     1
102
RTVSPost2010PropOp30
 70
     1
102
RTVSPost2010Prop31
280
     0
102
RTVSPost2010PropOp31
 70
     1
102
RTVSPost2010Prop32
280
     0
102
RTVSPost2010PropOp32
 70
     1
102
RTVSPost2010Prop33
280
     0
102
RTVSPost2010PropOp33
 70
     1
102
RTVSPost2010Prop34
280
     0
102
RTVSPost2010PropOp34
 70
     1
102
RTVSPost2010Prop35
280
     0
102
RTVSPost2010PropOp35
 70
     1
102
RTVSPost2010Prop36
280
     0
102
RTVSPost2010PropOp36
 70
     1
102
RTVSPost2010Prop37
 90
       50
102
RTVSPost2010PropOp37
 70
     1
102
RTVSPost2010Prop38
140
0.0
102
RTVSPost2010PropOp38
 70
     1
102
RTVSPost2010Prop39
140
1.0
102
RTVSPost2010PropOp39
 70
     1
102
RTVSPost2010Prop40
 90
        0
102
RTVSPost2010PropOp40
 70
     1
102
RTVSPost2010Prop41ColorIndex
 90
       18
102
RTVSPost2010Prop41ColorRGB
 90
        0
102
RTVSPost2010PropOp41
 70
     1
102
RTVSPost2010Prop42
 90
       50
102
RTVSPost2010PropOp42
 70
     1
102
RTVSPost2010Prop43
 90
        3
102
RTVSPost2010PropOp43
 70
     1
102
RTVSPost2010Prop44ColorIndex
 90
        5
102
RTVSPost2010Prop44ColorRGB
 90
      255
102
RTVSPost2010PropOp44
 70
     1
102
RTVSPost2010Prop45
280
     0
102
RTVSPost2010PropOp45
 70
     1
102
RTVSPost2010Prop46
 90
       50
102
RTVSPost2010PropOp46
 70
     1
102
RTVSPost2010Prop47
 90
       50
102
RTVSPost2010PropOp47
 70
     1
102
RTVSPost2010Prop48
 90
       50
102
RTVSPost2010PropOp48
 70
     1
102
RTVSPost2010Prop49
280
     0
102
RTVSPost2010PropOp49
 70
     1
102
RTVSPost2010Prop50
 90
       50
102
RTVSPost2010PropOp50
 70
     1
102
RTVSPost2010Prop51ColorIndex
 90
      256
102
RTVSPost2010Prop51ColorRGB
 90
-16777216
102
RTVSPost2010PropOp51
 70
     0
102
RTVSPost2010Prop52
140
1.0
102
RTVSPost2010PropOp52
 70
     0
102
RTVSPost2010Prop53
 90
        2
102
RTVSPost2010PropOp53
 70
     1
102
RTVSPost2010Prop54
  1
strokes_ogs.tif
102
RTVSPost2010PropOp54
 70
     1
102
RTVSPost2010Prop55
280
     0
102
RTVSPost2010PropOp55
 70
     1
102
RTVSPost2010Prop56
140
1.0
102
RTVSPost2010PropOp56
 70
     1
102
RTVSPost2010Prop57
140
1.0
102
RTVSPost2010PropOp57
 70
     1
102
RTVSPropertyOp0
 70
     1
102
RTVSPropertyOp1
 70
     1
102
RTVSPropertyOp2
 70
     1
102
RTVSPropertyOp3
 70
     1
102
RTVSPropertyOp4
 70
     1
102
RTVSPropertyOp5
 70
     1
102
RTVSPropertyOp6
 70
     1
102
RTVSPropertyOp7
 70
     1
102
RTVSPropertyOp8
 70
     1
102
RTVSPropertyOp9
 70
     1
102
RTVSPropertyOp10
 70
     1
102
RTVSPropertyOp11
 70
     1
102
RTVSPropertyOp12
 70
     1
102
RTVSPropertyOp13
 70
     1
102
RTVSPropertyOp14
 70
     1
102
RTVSPropertyOp15
 70
     1
102
RTVSPropertyOp16
 70
     1
102
RTVSPropertyOp17
 70
     1
102
RTVSPropertyOp18
 70
     1
102
RTVSPropertyOp19
 70
     1
102
RTVSPropertyOp20
 70
     1
102
RTVSPropertyOp21
 70
     1
102
RTVSPropertyOp22
 70
     1
102
RTVSPropertyOp23
 70
     1
102
RTVSPropertyOp24
 70
     1
102
RTVSPropertyOp25
 70
     1
102
RTVSPropertyOp26
 70
     1
102
RTVSPropertyOp27
 70
     1
102
RTVSPropertyOp28
 70
     1
102
RTVSPropertyOp29
 70
     1
102
RTVSPropertyOp30
 70
     1
102
RTVSPropertyOp31
 70
     1
102
RTVSPropertyOp32
 70
     1
102
RTVSPropertyOp33
 70
     1
102
RTVSPropertyOp34
 70
     1
102
RTVSPropertyOp35
 70
     1
102
RTVSPropertyOp36
 70
     1
102
RTVSPropertyOp37
 70
     1
102
RTVSPropertyOp38
 70
     1
102
RTVSPropertyOp39
 70
     1
102
RTVSPropertyOp40
 70
     1
102
RTVSPropertyOp41
 70
     1
102
RTVSPropertyOp42
 70
     1
102
RTVSPropertyOp43
 70
     1
102
RTVSPropertyOp44
 70
     1
102
RTVSPropertyOp45
 70
     1
102
RTVSPropertyOp46
 70
     1
102
RTVSPropertyOp47
 70
     1
102
RTVSPropertyOp48
 70
     1
102
RTVSPropertyOp49
 70
     1
102
RTVSPropertyOp50
 70
     1
102
RTVSPropertyOp51
 70
     0
102
RTVSPropertyOp52
 70
     0
102
RTVSPropertyOp53
 70
     1
102
RTVSPropertyOp54
 70
     1
102
RTVSPropertyOp55
 70
     1
102
RTVSPropertyOp56
 70
     1
102
RTVSPropertyOp57
 70
     1
102
RTVSPropertyOp58
 70
     1
102
RTVSPropertyOp59
 70
     1
102
RTVSPropertyOp60
 70
     1
102
RTVSPropertyOp61
 70
     1
102
RTVSPropertyOp62
 70
     1
  0
XRECORD
  5
A270
102
{ACAD_REACTORS
330
A26F
102
}
330
A26F
100
AcDbXrecord
280
     1
102
RTVSPost2010Prop28
280
     0
102
RTVSPost2010PropOp28
 70
     1
102
RTVSPost2010Prop29
280
     1
102
RTVSPost2010PropOp29
 70
     1
102
RTVSPost2010Prop30
280
     1
102
RTVSPost2010PropOp30
 70
     1
102
RTVSPost2010Prop31
280
     0
102
RTVSPost2010PropOp31
 70
     1
102
RTVSPost2010Prop32
280
     0
102
RTVSPost2010PropOp32
 70
     1
102
RTVSPost2010Prop33
280
     0
102
RTVSPost2010PropOp33
 70
     1
102
RTVSPost2010Prop34
280
     0
102
RTVSPost2010PropOp34
 70
     1
102
RTVSPost2010Prop35
280
     0
102
RTVSPost2010PropOp35
 70
     1
102
RTVSPost2010Prop36
280
     0
102
RTVSPost2010PropOp36
 70
     1
102
RTVSPost2010Prop37
 90
       50
102
RTVSPost2010PropOp37
 70
     0
102
RTVSPost2010Prop38
140
0.0
102
RTVSPost2010PropOp38
 70
     0
102
RTVSPost2010Prop39
140
1.0
102
RTVSPost2010PropOp39
 70
     0
102
RTVSPost2010Prop40
 90
        0
102
RTVSPost2010PropOp40
 70
     0
102
RTVSPost2010Prop41ColorIndex
 90
       18
102
RTVSPost2010Prop41ColorRGB
 90
        0
102
RTVSPost2010PropOp41
 70
     0
102
RTVSPost2010Prop42
 90
       50
102
RTVSPost2010PropOp42
 70
     0
102
RTVSPost2010Prop43
 90
        3
102
RTVSPost2010PropOp43
 70
     0
102
RTVSPost2010Prop44ColorIndex
 90
        5
102
RTVSPost2010Prop44ColorRGB
 90
      255
102
RTVSPost2010PropOp44
 70
     0
102
RTVSPost2010Prop45
280
     0
102
RTVSPost2010PropOp45
 70
     1
102
RTVSPost2010Prop46
 90
       50
102
RTVSPost2010PropOp46
 70
     0
102
RTVSPost2010Prop47
 90
       50
102
RTVSPost2010PropOp47
 70
     0
102
RTVSPost2010Prop48
 90
       50
102
RTVSPost2010PropOp48
 70
     0
102
RTVSPost2010Prop49
280
     0
102
RTVSPost2010PropOp49
 70
     1
102
RTVSPost2010Prop50
 90
       50
102
RTVSPost2010PropOp50
 70
     0
102
RTVSPost2010Prop51ColorIndex
 90
      256
102
RTVSPost2010Prop51ColorRGB
 90
-16777216
102
RTVSPost2010PropOp51
 70
     0
102
RTVSPost2010Prop52
140
1.0
102
RTVSPost2010PropOp52
 70
     0
102
RTVSPost2010Prop53
 90
        2
102
RTVSPost2010PropOp53
 70
     0
102
RTVSPost2010Prop54
  1
strokes_ogs.tif
102
RTVSPost2010PropOp54
 70
     0
102
RTVSPost2010Prop55
280
     0
102
RTVSPost2010PropOp55
 70
     1
102
RTVSPost2010Prop56
140
1.0
102
RTVSPost2010PropOp56
 70
     0
102
RTVSPost2010Prop57
140
1.0
102
RTVSPost2010PropOp57
 70
     0
102
RTVSPropertyOp0
 70
     0
102
RTVSPropertyOp1
 70
     0
102
RTVSPropertyOp2
 70
     0
102
RTVSPropertyOp3
 70
     0
102
RTVSPropertyOp4
 70
     0
102
RTVSPropertyOp5
 70
     0
102
RTVSPropertyOp6
 70
     0
102
RTVSPropertyOp7
 70
     0
102
RTVSPropertyOp8
 70
     0
102
RTVSPropertyOp9
 70
     0
102
RTVSPropertyOp10
 70
     0
102
RTVSPropertyOp11
 70
     0
102
RTVSPropertyOp12
 70
     0
102
RTVSPropertyOp13
 70
     0
102
RTVSPropertyOp14
 70
     2
102
RTVSPropertyOp15
 70
     0
102
RTVSPropertyOp16
 70
     0
102
RTVSPropertyOp17
 70
     0
102
RTVSPropertyOp18
 70
     0
102
RTVSPropertyOp19
 70
     0
102
RTVSPropertyOp20
 70
     0
102
RTVSPropertyOp21
 70
     0
102
RTVSPropertyOp22
 70
     0
102
RTVSPropertyOp23
 70
     0
102
RTVSPropertyOp24
 70
     0
102
RTVSPropertyOp25
 70
     0
102
RTVSPropertyOp26
 70
     0
102
RTVSPropertyOp27
 70
     0
102
RTVSPropertyOp28
 70
     1
102
RTVSPropertyOp29
 70
     1
102
RTVSPropertyOp30
 70
     1
102
RTVSPropertyOp31
 70
     1
102
RTVSPropertyOp32
 70
     1
102
RTVSPropertyOp33
 70
     1
102
RTVSPropertyOp34
 70
     1
102
RTVSPropertyOp35
 70
     1
102
RTVSPropertyOp36
 70
     1
102
RTVSPropertyOp37
 70
     0
102
RTVSPropertyOp38
 70
     0
102
RTVSPropertyOp39
 70
     0
102
RTVSPropertyOp40
 70
     0
102
RTVSPropertyOp41
 70
     0
102
RTVSPropertyOp42
 70
     0
102
RTVSPropertyOp43
 70
     0
102
RTVSPropertyOp44
 70
     0
102
RTVSPropertyOp45
 70
     1
102
RTVSPropertyOp46
 70
     0
102
RTVSPropertyOp47
 70
     0
102
RTVSPropertyOp48
 70
     0
102
RTVSPropertyOp49
 70
     1
102
RTVSPropertyOp50
 70
     0
102
RTVSPropertyOp51
 70
     0
102
RTVSPropertyOp52
 70
     0
102
RTVSPropertyOp53
 70
     0
102
RTVSPropertyOp54
 70
     0
102
RTVSPropertyOp55
 70
     1
102
RTVSPropertyOp56
 70
     0
102
RTVSPropertyOp57
 70
     0
102
RTVSPropertyOp58
 70
     0
102
RTVSPropertyOp59
 70
     0
102
RTVSPropertyOp60
 70
     0
102
RTVSPropertyOp61
 70
     0
102
RTVSPropertyOp62
 70
     0
  0
XRECORD
  5
A25E
102
{ACAD_REACTORS
330
A25D
102
}
330
A25D
100
AcDbXrecord
280
     1
102
RTVSPost2010Prop28
280
     0
102
RTVSPost2010PropOp28
 70
     1
102
RTVSPost2010Prop29
280
     1
102
RTVSPost2010PropOp29
 70
     1
102
RTVSPost2010Prop30
280
     1
102
RTVSPost2010PropOp30
 70
     1
102
RTVSPost2010Prop31
280
     0
102
RTVSPost2010PropOp31
 70
     1
102
RTVSPost2010Prop32
280
     0
102
RTVSPost2010PropOp32
 70
     1
102
RTVSPost2010Prop33
280
     0
102
RTVSPost2010PropOp33
 70
     1
102
RTVSPost2010Prop34
280
     0
102
RTVSPost2010PropOp34
 70
     1
102
RTVSPost2010Prop35
280
     0
102
RTVSPost2010PropOp35
 70
     1
102
RTVSPost2010Prop36
280
     0
102
RTVSPost2010PropOp36
 70
     1
102
RTVSPost2010Prop37
 90
       50
102
RTVSPost2010PropOp37
 70
     1
102
RTVSPost2010Prop38
140
0.0
102
RTVSPost2010PropOp38
 70
     1
102
RTVSPost2010Prop39
140
1.0
102
RTVSPost2010PropOp39
 70
     1
102
RTVSPost2010Prop40
 90
        0
102
RTVSPost2010PropOp40
 70
     1
102
RTVSPost2010Prop41ColorIndex
 90
       18
102
RTVSPost2010Prop41ColorRGB
 90
        0
102
RTVSPost2010PropOp41
 70
     1
102
RTVSPost2010Prop42
 90
       50
102
RTVSPost2010PropOp42
 70
     1
102
RTVSPost2010Prop43
 90
        3
102
RTVSPost2010PropOp43
 70
     1
102
RTVSPost2010Prop44ColorIndex
 90
        5
102
RTVSPost2010Prop44ColorRGB
 90
      255
102
RTVSPost2010PropOp44
 70
     1
102
RTVSPost2010Prop45
280
     0
102
RTVSPost2010PropOp45
 70
     1
102
RTVSPost2010Prop46
 90
       50
102
RTVSPost2010PropOp46
 70
     1
102
RTVSPost2010Prop47
 90
       50
102
RTVSPost2010PropOp47
 70
     1
102
RTVSPost2010Prop48
 90
       50
102
RTVSPost2010PropOp48
 70
     1
102
RTVSPost2010Prop49
280
     0
102
RTVSPost2010PropOp49
 70
     1
102
RTVSPost2010Prop50
 90
       50
102
RTVSPost2010PropOp50
 70
     1
102
RTVSPost2010Prop51ColorIndex
 90
      256
102
RTVSPost2010Prop51ColorRGB
 90
-16777216
102
RTVSPost2010PropOp51
 70
     0
102
RTVSPost2010Prop52
140
1.0
102
RTVSPost2010PropOp52
 70
     0
102
RTVSPost2010Prop53
 90
        2
102
RTVSPost2010PropOp53
 70
     1
102
RTVSPost2010Prop54
  1
strokes_ogs.tif
102
RTVSPost2010PropOp54
 70
     1
102
RTVSPost2010Prop55
280
     0
102
RTVSPost2010PropOp55
 70
     1
102
RTVSPost2010Prop56
140
1.0
102
RTVSPost2010PropOp56
 70
     1
102
RTVSPost2010Prop57
140
1.0
102
RTVSPost2010PropOp57
 70
     1
102
RTVSPropertyOp0
 70
     1
102
RTVSPropertyOp1
 70
     1
102
RTVSPropertyOp2
 70
     1
102
RTVSPropertyOp3
 70
     1
102
RTVSPropertyOp4
 70
     1
102
RTVSPropertyOp5
 70
     1
102
RTVSPropertyOp6
 70
     1
102
RTVSPropertyOp7
 70
     1
102
RTVSPropertyOp8
 70
     1
102
RTVSPropertyOp9
 70
     1
102
RTVSPropertyOp10
 70
     1
102
RTVSPropertyOp11
 70
     1
102
RTVSPropertyOp12
 70
     1
102
RTVSPropertyOp13
 70
     1
102
RTVSPropertyOp14
 70
     1
102
RTVSPropertyOp15
 70
     1
102
RTVSPropertyOp16
 70
     1
102
RTVSPropertyOp17
 70
     1
102
RTVSPropertyOp18
 70
     1
102
RTVSPropertyOp19
 70
     1
102
RTVSPropertyOp20
 70
     1
102
RTVSPropertyOp21
 70
     1
102
RTVSPropertyOp22
 70
     1
102
RTVSPropertyOp23
 70
     1
102
RTVSPropertyOp24
 70
     1
102
RTVSPropertyOp25
 70
     1
102
RTVSPropertyOp26
 70
     1
102
RTVSPropertyOp27
 70
     1
102
RTVSPropertyOp28
 70
     1
102
RTVSPropertyOp29
 70
     1
102
RTVSPropertyOp30
 70
     1
102
RTVSPropertyOp31
 70
     1
102
RTVSPropertyOp32
 70
     1
102
RTVSPropertyOp33
 70
     1
102
RTVSPropertyOp34
 70
     1
102
RTVSPropertyOp35
 70
     1
102
RTVSPropertyOp36
 70
     1
102
RTVSPropertyOp37
 70
     1
102
RTVSPropertyOp38
 70
     1
102
RTVSPropertyOp39
 70
     1
102
RTVSPropertyOp40
 70
     1
102
RTVSPropertyOp41
 70
     1
102
RTVSPropertyOp42
 70
     1
102
RTVSPropertyOp43
 70
     1
102
RTVSPropertyOp44
 70
     1
102
RTVSPropertyOp45
 70
     1
102
RTVSPropertyOp46
 70
     1
102
RTVSPropertyOp47
 70
     1
102
RTVSPropertyOp48
 70
     1
102
RTVSPropertyOp49
 70
     1
102
RTVSPropertyOp50
 70
     1
102
RTVSPropertyOp51
 70
     0
102
RTVSPropertyOp52
 70
     0
102
RTVSPropertyOp53
 70
     1
102
RTVSPropertyOp54
 70
     1
102
RTVSPropertyOp55
 70
     1
102
RTVSPropertyOp56
 70
     1
102
RTVSPropertyOp57
 70
     1
102
RTVSPropertyOp58
 70
     1
102
RTVSPropertyOp59
 70
     1
102
RTVSPropertyOp60
 70
     1
102
RTVSPropertyOp61
 70
     1
102
RTVSPropertyOp62
 70
     1
  0
XRECORD
  5
A242
102
{ACAD_REACTORS
330
A241
102
}
330
A241
100
AcDbXrecord
280
     1
102
RTVSPost2010Prop28
280
     0
102
RTVSPost2010PropOp28
 70
     1
102
RTVSPost2010Prop29
280
     1
102
RTVSPost2010PropOp29
 70
     1
102
RTVSPost2010Prop30
280
     1
102
RTVSPost2010PropOp30
 70
     1
102
RTVSPost2010Prop31
280
     0
102
RTVSPost2010PropOp31
 70
     1
102
RTVSPost2010Prop32
280
     0
102
RTVSPost2010PropOp32
 70
     1
102
RTVSPost2010Prop33
280
     0
102
RTVSPost2010PropOp33
 70
     1
102
RTVSPost2010Prop34
280
     0
102
RTVSPost2010PropOp34
 70
     1
102
RTVSPost2010Prop35
280
     0
102
RTVSPost2010PropOp35
 70
     1
102
RTVSPost2010Prop36
280
     0
102
RTVSPost2010PropOp36
 70
     1
102
RTVSPost2010Prop37
 90
       50
102
RTVSPost2010PropOp37
 70
     1
102
RTVSPost2010Prop38
140
0.0
102
RTVSPost2010PropOp38
 70
     1
102
RTVSPost2010Prop39
140
1.0
102
RTVSPost2010PropOp39
 70
     1
102
RTVSPost2010Prop40
 90
        0
102
RTVSPost2010PropOp40
 70
     1
102
RTVSPost2010Prop41ColorIndex
 90
       18
102
RTVSPost2010Prop41ColorRGB
 90
        0
102
RTVSPost2010PropOp41
 70
     1
102
RTVSPost2010Prop42
 90
       50
102
RTVSPost2010PropOp42
 70
     1
102
RTVSPost2010Prop43
 90
        3
102
RTVSPost2010PropOp43
 70
     1
102
RTVSPost2010Prop44ColorIndex
 90
        5
102
RTVSPost2010Prop44ColorRGB
 90
      255
102
RTVSPost2010PropOp44
 70
     1
102
RTVSPost2010Prop45
280
     0
102
RTVSPost2010PropOp45
 70
     1
102
RTVSPost2010Prop46
 90
       50
102
RTVSPost2010PropOp46
 70
     1
102
RTVSPost2010Prop47
 90
       50
102
RTVSPost2010PropOp47
 70
     1
102
RTVSPost2010Prop48
 90
       50
102
RTVSPost2010PropOp48
 70
     1
102
RTVSPost2010Prop49
280
     0
102
RTVSPost2010PropOp49
 70
     1
102
RTVSPost2010Prop50
 90
       50
102
RTVSPost2010PropOp50
 70
     1
102
RTVSPost2010Prop51ColorIndex
 90
      256
102
RTVSPost2010Prop51ColorRGB
 90
-16777216
102
RTVSPost2010PropOp51
 70
     0
102
RTVSPost2010Prop52
140
1.0
102
RTVSPost2010PropOp52
 70
     0
102
RTVSPost2010Prop53
 90
        2
102
RTVSPost2010PropOp53
 70
     1
102
RTVSPost2010Prop54
  1
strokes_ogs.tif
102
RTVSPost2010PropOp54
 70
     1
102
RTVSPost2010Prop55
280
     0
102
RTVSPost2010PropOp55
 70
     1
102
RTVSPost2010Prop56
140
1.0
102
RTVSPost2010PropOp56
 70
     1
102
RTVSPost2010Prop57
140
1.0
102
RTVSPost2010PropOp57
 70
     1
102
RTVSPropertyOp0
 70
     1
102
RTVSPropertyOp1
 70
     1
102
RTVSPropertyOp2
 70
     1
102
RTVSPropertyOp3
 70
     1
102
RTVSPropertyOp4
 70
     1
102
RTVSPropertyOp5
 70
     1
102
RTVSPropertyOp6
 70
     1
102
RTVSPropertyOp7
 70
     1
102
RTVSPropertyOp8
 70
     1
102
RTVSPropertyOp9
 70
     1
102
RTVSPropertyOp10
 70
     1
102
RTVSPropertyOp11
 70
     1
102
RTVSPropertyOp12
 70
     1
102
RTVSPropertyOp13
 70
     1
102
RTVSPropertyOp14
 70
     1
102
RTVSPropertyOp15
 70
     1
102
RTVSPropertyOp16
 70
     1
102
RTVSPropertyOp17
 70
     1
102
RTVSPropertyOp18
 70
     1
102
RTVSPropertyOp19
 70
     1
102
RTVSPropertyOp20
 70
     1
102
RTVSPropertyOp21
 70
     1
102
RTVSPropertyOp22
 70
     1
102
RTVSPropertyOp23
 70
     1
102
RTVSPropertyOp24
 70
     1
102
RTVSPropertyOp25
 70
     1
102
RTVSPropertyOp26
 70
     1
102
RTVSPropertyOp27
 70
     1
102
RTVSPropertyOp28
 70
     1
102
RTVSPropertyOp29
 70
     1
102
RTVSPropertyOp30
 70
     1
102
RTVSPropertyOp31
 70
     1
102
RTVSPropertyOp32
 70
     1
102
RTVSPropertyOp33
 70
     1
102
RTVSPropertyOp34
 70
     1
102
RTVSPropertyOp35
 70
     1
102
RTVSPropertyOp36
 70
     1
102
RTVSPropertyOp37
 70
     1
102
RTVSPropertyOp38
 70
     1
102
RTVSPropertyOp39
 70
     1
102
RTVSPropertyOp40
 70
     1
102
RTVSPropertyOp41
 70
     1
102
RTVSPropertyOp42
 70
     1
102
RTVSPropertyOp43
 70
     1
102
RTVSPropertyOp44
 70
     1
102
RTVSPropertyOp45
 70
     1
102
RTVSPropertyOp46
 70
     1
102
RTVSPropertyOp47
 70
     1
102
RTVSPropertyOp48
 70
     1
102
RTVSPropertyOp49
 70
     1
102
RTVSPropertyOp50
 70
     1
102
RTVSPropertyOp51
 70
     0
102
RTVSPropertyOp52
 70
     0
102
RTVSPropertyOp53
 70
     1
102
RTVSPropertyOp54
 70
     1
102
RTVSPropertyOp55
 70
     1
102
RTVSPropertyOp56
 70
     1
102
RTVSPropertyOp57
 70
     1
102
RTVSPropertyOp58
 70
     1
102
RTVSPropertyOp59
 70
     1
102
RTVSPropertyOp60
 70
     1
102
RTVSPropertyOp61
 70
     1
102
RTVSPropertyOp62
 70
     1
  0
XRECORD
  5
A244
102
{ACAD_REACTORS
330
A243
102
}
330
A243
100
AcDbXrecord
280
     1
102
RTVSPost2010Prop28
280
     0
102
RTVSPost2010PropOp28
 70
     1
102
RTVSPost2010Prop29
280
     1
102
RTVSPost2010PropOp29
 70
     1
102
RTVSPost2010Prop30
280
     1
102
RTVSPost2010PropOp30
 70
     1
102
RTVSPost2010Prop31
280
     0
102
RTVSPost2010PropOp31
 70
     1
102
RTVSPost2010Prop32
280
     0
102
RTVSPost2010PropOp32
 70
     1
102
RTVSPost2010Prop33
280
     0
102
RTVSPost2010PropOp33
 70
     1
102
RTVSPost2010Prop34
280
     0
102
RTVSPost2010PropOp34
 70
     1
102
RTVSPost2010Prop35
280
     0
102
RTVSPost2010PropOp35
 70
     1
102
RTVSPost2010Prop36
280
     0
102
RTVSPost2010PropOp36
 70
     1
102
RTVSPost2010Prop37
 90
       50
102
RTVSPost2010PropOp37
 70
     1
102
RTVSPost2010Prop38
140
0.0
102
RTVSPost2010PropOp38
 70
     1
102
RTVSPost2010Prop39
140
1.0
102
RTVSPost2010PropOp39
 70
     1
102
RTVSPost2010Prop40
 90
        0
102
RTVSPost2010PropOp40
 70
     1
102
RTVSPost2010Prop41ColorIndex
 90
       18
102
RTVSPost2010Prop41ColorRGB
 90
        0
102
RTVSPost2010PropOp41
 70
     1
102
RTVSPost2010Prop42
 90
       50
102
RTVSPost2010PropOp42
 70
     1
102
RTVSPost2010Prop43
 90
        3
102
RTVSPost2010PropOp43
 70
     1
102
RTVSPost2010Prop44ColorIndex
 90
        5
102
RTVSPost2010Prop44ColorRGB
 90
      255
102
RTVSPost2010PropOp44
 70
     1
102
RTVSPost2010Prop45
280
     0
102
RTVSPost2010PropOp45
 70
     1
102
RTVSPost2010Prop46
 90
       50
102
RTVSPost2010PropOp46
 70
     1
102
RTVSPost2010Prop47
 90
       50
102
RTVSPost2010PropOp47
 70
     1
102
RTVSPost2010Prop48
 90
       50
102
RTVSPost2010PropOp48
 70
     1
102
RTVSPost2010Prop49
280
     0
102
RTVSPost2010PropOp49
 70
     1
102
RTVSPost2010Prop50
 90
       50
102
RTVSPost2010PropOp50
 70
     1
102
RTVSPost2010Prop51ColorIndex
 90
      256
102
RTVSPost2010Prop51ColorRGB
 90
-16777216
102
RTVSPost2010PropOp51
 70
     0
102
RTVSPost2010Prop52
140
1.0
102
RTVSPost2010PropOp52
 70
     0
102
RTVSPost2010Prop53
 90
        2
102
RTVSPost2010PropOp53
 70
     1
102
RTVSPost2010Prop54
  1
strokes_ogs.tif
102
RTVSPost2010PropOp54
 70
     1
102
RTVSPost2010Prop55
280
     0
102
RTVSPost2010PropOp55
 70
     1
102
RTVSPost2010Prop56
140
1.0
102
RTVSPost2010PropOp56
 70
     1
102
RTVSPost2010Prop57
140
1.0
102
RTVSPost2010PropOp57
 70
     1
102
RTVSPropertyOp0
 70
     1
102
RTVSPropertyOp1
 70
     1
102
RTVSPropertyOp2
 70
     1
102
RTVSPropertyOp3
 70
     1
102
RTVSPropertyOp4
 70
     1
102
RTVSPropertyOp5
 70
     1
102
RTVSPropertyOp6
 70
     1
102
RTVSPropertyOp7
 70
     1
102
RTVSPropertyOp8
 70
     1
102
RTVSPropertyOp9
 70
     1
102
RTVSPropertyOp10
 70
     1
102
RTVSPropertyOp11
 70
     1
102
RTVSPropertyOp12
 70
     1
102
RTVSPropertyOp13
 70
     1
102
RTVSPropertyOp14
 70
     1
102
RTVSPropertyOp15
 70
     1
102
RTVSPropertyOp16
 70
     1
102
RTVSPropertyOp17
 70
     1
102
RTVSPropertyOp18
 70
     1
102
RTVSPropertyOp19
 70
     1
102
RTVSPropertyOp20
 70
     1
102
RTVSPropertyOp21
 70
     1
102
RTVSPropertyOp22
 70
     1
102
RTVSPropertyOp23
 70
     1
102
RTVSPropertyOp24
 70
     1
102
RTVSPropertyOp25
 70
     1
102
RTVSPropertyOp26
 70
     1
102
RTVSPropertyOp27
 70
     1
102
RTVSPropertyOp28
 70
     1
102
RTVSPropertyOp29
 70
     1
102
RTVSPropertyOp30
 70
     1
102
RTVSPropertyOp31
 70
     1
102
RTVSPropertyOp32
 70
     1
102
RTVSPropertyOp33
 70
     1
102
RTVSPropertyOp34
 70
     1
102
RTVSPropertyOp35
 70
     1
102
RTVSPropertyOp36
 70
     1
102
RTVSPropertyOp37
 70
     1
102
RTVSPropertyOp38
 70
     1
102
RTVSPropertyOp39
 70
     1
102
RTVSPropertyOp40
 70
     1
102
RTVSPropertyOp41
 70
     1
102
RTVSPropertyOp42
 70
     1
102
RTVSPropertyOp43
 70
     1
102
RTVSPropertyOp44
 70
     1
102
RTVSPropertyOp45
 70
     1
102
RTVSPropertyOp46
 70
     1
102
RTVSPropertyOp47
 70
     1
102
RTVSPropertyOp48
 70
     1
102
RTVSPropertyOp49
 70
     1
102
RTVSPropertyOp50
 70
     1
102
RTVSPropertyOp51
 70
     0
102
RTVSPropertyOp52
 70
     0
102
RTVSPropertyOp53
 70
     1
102
RTVSPropertyOp54
 70
     1
102
RTVSPropertyOp55
 70
     1
102
RTVSPropertyOp56
 70
     1
102
RTVSPropertyOp57
 70
     1
102
RTVSPropertyOp58
 70
     1
102
RTVSPropertyOp59
 70
     1
102
RTVSPropertyOp60
 70
     1
102
RTVSPropertyOp61
 70
     1
102
RTVSPropertyOp62
 70
     1
  0
XRECORD
  5
A246
102
{ACAD_REACTORS
330
A245
102
}
330
A245
100
AcDbXrecord
280
     1
102
RTVSPost2010Prop28
280
     0
102
RTVSPost2010PropOp28
 70
     1
102
RTVSPost2010Prop29
280
     1
102
RTVSPost2010PropOp29
 70
     1
102
RTVSPost2010Prop30
280
     1
102
RTVSPost2010PropOp30
 70
     1
102
RTVSPost2010Prop31
280
     0
102
RTVSPost2010PropOp31
 70
     1
102
RTVSPost2010Prop32
280
     0
102
RTVSPost2010PropOp32
 70
     1
102
RTVSPost2010Prop33
280
     0
102
RTVSPost2010PropOp33
 70
     1
102
RTVSPost2010Prop34
280
     0
102
RTVSPost2010PropOp34
 70
     1
102
RTVSPost2010Prop35
280
     0
102
RTVSPost2010PropOp35
 70
     1
102
RTVSPost2010Prop36
280
     0
102
RTVSPost2010PropOp36
 70
     1
102
RTVSPost2010Prop37
 90
       50
102
RTVSPost2010PropOp37
 70
     1
102
RTVSPost2010Prop38
140
0.0
102
RTVSPost2010PropOp38
 70
     1
102
RTVSPost2010Prop39
140
1.0
102
RTVSPost2010PropOp39
 70
     1
102
RTVSPost2010Prop40
 90
        0
102
RTVSPost2010PropOp40
 70
     1
102
RTVSPost2010Prop41ColorIndex
 90
       18
102
RTVSPost2010Prop41ColorRGB
 90
        0
102
RTVSPost2010PropOp41
 70
     1
102
RTVSPost2010Prop42
 90
       50
102
RTVSPost2010PropOp42
 70
     1
102
RTVSPost2010Prop43
 90
        3
102
RTVSPost2010PropOp43
 70
     1
102
RTVSPost2010Prop44ColorIndex
 90
        5
102
RTVSPost2010Prop44ColorRGB
 90
      255
102
RTVSPost2010PropOp44
 70
     1
102
RTVSPost2010Prop45
280
     0
102
RTVSPost2010PropOp45
 70
     1
102
RTVSPost2010Prop46
 90
       50
102
RTVSPost2010PropOp46
 70
     1
102
RTVSPost2010Prop47
 90
       50
102
RTVSPost2010PropOp47
 70
     1
102
RTVSPost2010Prop48
 90
       50
102
RTVSPost2010PropOp48
 70
     1
102
RTVSPost2010Prop49
280
     0
102
RTVSPost2010PropOp49
 70
     1
102
RTVSPost2010Prop50
 90
       50
102
RTVSPost2010PropOp50
 70
     1
102
RTVSPost2010Prop51ColorIndex
 90
      256
102
RTVSPost2010Prop51ColorRGB
 90
-16777216
102
RTVSPost2010PropOp51
 70
     0
102
RTVSPost2010Prop52
140
1.0
102
RTVSPost2010PropOp52
 70
     0
102
RTVSPost2010Prop53
 90
        2
102
RTVSPost2010PropOp53
 70
     1
102
RTVSPost2010Prop54
  1
strokes_ogs.tif
102
RTVSPost2010PropOp54
 70
     1
102
RTVSPost2010Prop55
280
     0
102
RTVSPost2010PropOp55
 70
     1
102
RTVSPost2010Prop56
140
1.0
102
RTVSPost2010PropOp56
 70
     1
102
RTVSPost2010Prop57
140
1.0
102
RTVSPost2010PropOp57
 70
     1
102
RTVSPropertyOp0
 70
     1
102
RTVSPropertyOp1
 70
     1
102
RTVSPropertyOp2
 70
     1
102
RTVSPropertyOp3
 70
     1
102
RTVSPropertyOp4
 70
     1
102
RTVSPropertyOp5
 70
     1
102
RTVSPropertyOp6
 70
     1
102
RTVSPropertyOp7
 70
     1
102
RTVSPropertyOp8
 70
     1
102
RTVSPropertyOp9
 70
     1
102
RTVSPropertyOp10
 70
     1
102
RTVSPropertyOp11
 70
     1
102
RTVSPropertyOp12
 70
     1
102
RTVSPropertyOp13
 70
     1
102
RTVSPropertyOp14
 70
     1
102
RTVSPropertyOp15
 70
     1
102
RTVSPropertyOp16
 70
     1
102
RTVSPropertyOp17
 70
     1
102
RTVSPropertyOp18
 70
     1
102
RTVSPropertyOp19
 70
     1
102
RTVSPropertyOp20
 70
     1
102
RTVSPropertyOp21
 70
     1
102
RTVSPropertyOp22
 70
     1
102
RTVSPropertyOp23
 70
     1
102
RTVSPropertyOp24
 70
     1
102
RTVSPropertyOp25
 70
     1
102
RTVSPropertyOp26
 70
     1
102
RTVSPropertyOp27
 70
     1
102
RTVSPropertyOp28
 70
     1
102
RTVSPropertyOp29
 70
     1
102
RTVSPropertyOp30
 70
     1
102
RTVSPropertyOp31
 70
     1
102
RTVSPropertyOp32
 70
     1
102
RTVSPropertyOp33
 70
     1
102
RTVSPropertyOp34
 70
     1
102
RTVSPropertyOp35
 70
     1
102
RTVSPropertyOp36
 70
     1
102
RTVSPropertyOp37
 70
     1
102
RTVSPropertyOp38
 70
     1
102
RTVSPropertyOp39
 70
     1
102
RTVSPropertyOp40
 70
     1
102
RTVSPropertyOp41
 70
     1
102
RTVSPropertyOp42
 70
     1
102
RTVSPropertyOp43
 70
     1
102
RTVSPropertyOp44
 70
     1
102
RTVSPropertyOp45
 70
     1
102
RTVSPropertyOp46
 70
     1
102
RTVSPropertyOp47
 70
     1
102
RTVSPropertyOp48
 70
     1
102
RTVSPropertyOp49
 70
     1
102
RTVSPropertyOp50
 70
     1
102
RTVSPropertyOp51
 70
     0
102
RTVSPropertyOp52
 70
     0
102
RTVSPropertyOp53
 70
     1
102
RTVSPropertyOp54
 70
     1
102
RTVSPropertyOp55
 70
     1
102
RTVSPropertyOp56
 70
     1
102
RTVSPropertyOp57
 70
     1
102
RTVSPropertyOp58
 70
     1
102
RTVSPropertyOp59
 70
     1
102
RTVSPropertyOp60
 70
     1
102
RTVSPropertyOp61
 70
     1
102
RTVSPropertyOp62
 70
     1
  0
XRECORD
  5
A248
102
{ACAD_REACTORS
330
A247
102
}
330
A247
100
AcDbXrecord
280
     1
102
RTVSPost2010Prop28
280
     0
102
RTVSPost2010PropOp28
 70
     1
102
RTVSPost2010Prop29
280
     1
102
RTVSPost2010PropOp29
 70
     1
102
RTVSPost2010Prop30
280
     1
102
RTVSPost2010PropOp30
 70
     1
102
RTVSPost2010Prop31
280
     0
102
RTVSPost2010PropOp31
 70
     1
102
RTVSPost2010Prop32
280
     0
102
RTVSPost2010PropOp32
 70
     1
102
RTVSPost2010Prop33
280
     0
102
RTVSPost2010PropOp33
 70
     1
102
RTVSPost2010Prop34
280
     0
102
RTVSPost2010PropOp34
 70
     1
102
RTVSPost2010Prop35
280
     0
102
RTVSPost2010PropOp35
 70
     1
102
RTVSPost2010Prop36
280
     0
102
RTVSPost2010PropOp36
 70
     1
102
RTVSPost2010Prop37
 90
       50
102
RTVSPost2010PropOp37
 70
     1
102
RTVSPost2010Prop38
140
0.0
102
RTVSPost2010PropOp38
 70
     1
102
RTVSPost2010Prop39
140
1.0
102
RTVSPost2010PropOp39
 70
     1
102
RTVSPost2010Prop40
 90
        0
102
RTVSPost2010PropOp40
 70
     1
102
RTVSPost2010Prop41ColorIndex
 90
       18
102
RTVSPost2010Prop41ColorRGB
 90
        0
102
RTVSPost2010PropOp41
 70
     1
102
RTVSPost2010Prop42
 90
       50
102
RTVSPost2010PropOp42
 70
     1
102
RTVSPost2010Prop43
 90
        3
102
RTVSPost2010PropOp43
 70
     1
102
RTVSPost2010Prop44ColorIndex
 90
        5
102
RTVSPost2010Prop44ColorRGB
 90
      255
102
RTVSPost2010PropOp44
 70
     1
102
RTVSPost2010Prop45
280
     0
102
RTVSPost2010PropOp45
 70
     1
102
RTVSPost2010Prop46
 90
       50
102
RTVSPost2010PropOp46
 70
     1
102
RTVSPost2010Prop47
 90
       50
102
RTVSPost2010PropOp47
 70
     1
102
RTVSPost2010Prop48
 90
       50
102
RTVSPost2010PropOp48
 70
     1
102
RTVSPost2010Prop49
280
     0
102
RTVSPost2010PropOp49
 70
     1
102
RTVSPost2010Prop50
 90
       50
102
RTVSPost2010PropOp50
 70
     1
102
RTVSPost2010Prop51ColorIndex
 90
      256
102
RTVSPost2010Prop51ColorRGB
 90
-16777216
102
RTVSPost2010PropOp51
 70
     0
102
RTVSPost2010Prop52
140
1.0
102
RTVSPost2010PropOp52
 70
     0
102
RTVSPost2010Prop53
 90
        2
102
RTVSPost2010PropOp53
 70
     1
102
RTVSPost2010Prop54
  1
strokes_ogs.tif
102
RTVSPost2010PropOp54
 70
     1
102
RTVSPost2010Prop55
280
     0
102
RTVSPost2010PropOp55
 70
     1
102
RTVSPost2010Prop56
140
1.0
102
RTVSPost2010PropOp56
 70
     1
102
RTVSPost2010Prop57
140
1.0
102
RTVSPost2010PropOp57
 70
     1
102
RTVSPropertyOp0
 70
     1
102
RTVSPropertyOp1
 70
     1
102
RTVSPropertyOp2
 70
     1
102
RTVSPropertyOp3
 70
     1
102
RTVSPropertyOp4
 70
     1
102
RTVSPropertyOp5
 70
     1
102
RTVSPropertyOp6
 70
     1
102
RTVSPropertyOp7
 70
     1
102
RTVSPropertyOp8
 70
     1
102
RTVSPropertyOp9
 70
     1
102
RTVSPropertyOp10
 70
     1
102
RTVSPropertyOp11
 70
     1
102
RTVSPropertyOp12
 70
     1
102
RTVSPropertyOp13
 70
     1
102
RTVSPropertyOp14
 70
     1
102
RTVSPropertyOp15
 70
     1
102
RTVSPropertyOp16
 70
     1
102
RTVSPropertyOp17
 70
     1
102
RTVSPropertyOp18
 70
     1
102
RTVSPropertyOp19
 70
     1
102
RTVSPropertyOp20
 70
     1
102
RTVSPropertyOp21
 70
     1
102
RTVSPropertyOp22
 70
     1
102
RTVSPropertyOp23
 70
     1
102
RTVSPropertyOp24
 70
     1
102
RTVSPropertyOp25
 70
     1
102
RTVSPropertyOp26
 70
     1
102
RTVSPropertyOp27
 70
     1
102
RTVSPropertyOp28
 70
     1
102
RTVSPropertyOp29
 70
     1
102
RTVSPropertyOp30
 70
     1
102
RTVSPropertyOp31
 70
     1
102
RTVSPropertyOp32
 70
     1
102
RTVSPropertyOp33
 70
     1
102
RTVSPropertyOp34
 70
     1
102
RTVSPropertyOp35
 70
     1
102
RTVSPropertyOp36
 70
     1
102
RTVSPropertyOp37
 70
     1
102
RTVSPropertyOp38
 70
     1
102
RTVSPropertyOp39
 70
     1
102
RTVSPropertyOp40
 70
     1
102
RTVSPropertyOp41
 70
     1
102
RTVSPropertyOp42
 70
     1
102
RTVSPropertyOp43
 70
     1
102
RTVSPropertyOp44
 70
     1
102
RTVSPropertyOp45
 70
     1
102
RTVSPropertyOp46
 70
     1
102
RTVSPropertyOp47
 70
     1
102
RTVSPropertyOp48
 70
     1
102
RTVSPropertyOp49
 70
     1
102
RTVSPropertyOp50
 70
     1
102
RTVSPropertyOp51
 70
     0
102
RTVSPropertyOp52
 70
     0
102
RTVSPropertyOp53
 70
     1
102
RTVSPropertyOp54
 70
     1
102
RTVSPropertyOp55
 70
     1
102
RTVSPropertyOp56
 70
     1
102
RTVSPropertyOp57
 70
     1
102
RTVSPropertyOp58
 70
     1
102
RTVSPropertyOp59
 70
     1
102
RTVSPropertyOp60
 70
     1
102
RTVSPropertyOp61
 70
     1
102
RTVSPropertyOp62
 70
     1
  0
XRECORD
  5
A250
102
{ACAD_REACTORS
330
A24F
102
}
330
A24F
100
AcDbXrecord
280
     1
102
RTVSPost2010Prop28
280
     0
102
RTVSPost2010PropOp28
 70
     1
102
RTVSPost2010Prop29
280
     1
102
RTVSPost2010PropOp29
 70
     1
102
RTVSPost2010Prop30
280
     1
102
RTVSPost2010PropOp30
 70
     1
102
RTVSPost2010Prop31
280
     0
102
RTVSPost2010PropOp31
 70
     1
102
RTVSPost2010Prop32
280
     0
102
RTVSPost2010PropOp32
 70
     1
102
RTVSPost2010Prop33
280
     0
102
RTVSPost2010PropOp33
 70
     1
102
RTVSPost2010Prop34
280
     0
102
RTVSPost2010PropOp34
 70
     1
102
RTVSPost2010Prop35
280
     0
102
RTVSPost2010PropOp35
 70
     1
102
RTVSPost2010Prop36
280
     0
102
RTVSPost2010PropOp36
 70
     1
102
RTVSPost2010Prop37
 90
       50
102
RTVSPost2010PropOp37
 70
     1
102
RTVSPost2010Prop38
140
0.0
102
RTVSPost2010PropOp38
 70
     1
102
RTVSPost2010Prop39
140
1.0
102
RTVSPost2010PropOp39
 70
     1
102
RTVSPost2010Prop40
 90
        0
102
RTVSPost2010PropOp40
 70
     1
102
RTVSPost2010Prop41ColorIndex
 90
       18
102
RTVSPost2010Prop41ColorRGB
 90
        0
102
RTVSPost2010PropOp41
 70
     1
102
RTVSPost2010Prop42
 90
       50
102
RTVSPost2010PropOp42
 70
     1
102
RTVSPost2010Prop43
 90
        3
102
RTVSPost2010PropOp43
 70
     1
102
RTVSPost2010Prop44ColorIndex
 90
        5
102
RTVSPost2010Prop44ColorRGB
 90
      255
102
RTVSPost2010PropOp44
 70
     1
102
RTVSPost2010Prop45
280
     0
102
RTVSPost2010PropOp45
 70
     1
102
RTVSPost2010Prop46
 90
       50
102
RTVSPost2010PropOp46
 70
     1
102
RTVSPost2010Prop47
 90
       50
102
RTVSPost2010PropOp47
 70
     1
102
RTVSPost2010Prop48
 90
       50
102
RTVSPost2010PropOp48
 70
     1
102
RTVSPost2010Prop49
280
     0
102
RTVSPost2010PropOp49
 70
     1
102
RTVSPost2010Prop50
 90
       50
102
RTVSPost2010PropOp50
 70
     1
102
RTVSPost2010Prop51ColorIndex
 90
      256
102
RTVSPost2010Prop51ColorRGB
 90
-16777216
102
RTVSPost2010PropOp51
 70
     0
102
RTVSPost2010Prop52
140
1.0
102
RTVSPost2010PropOp52
 70
     0
102
RTVSPost2010Prop53
 90
        2
102
RTVSPost2010PropOp53
 70
     1
102
RTVSPost2010Prop54
  1
strokes_ogs.tif
102
RTVSPost2010PropOp54
 70
     1
102
RTVSPost2010Prop55
280
     0
102
RTVSPost2010PropOp55
 70
     1
102
RTVSPost2010Prop56
140
1.0
102
RTVSPost2010PropOp56
 70
     1
102
RTVSPost2010Prop57
140
1.0
102
RTVSPost2010PropOp57
 70
     1
102
RTVSPropertyOp0
 70
     1
102
RTVSPropertyOp1
 70
     1
102
RTVSPropertyOp2
 70
     1
102
RTVSPropertyOp3
 70
     1
102
RTVSPropertyOp4
 70
     1
102
RTVSPropertyOp5
 70
     1
102
RTVSPropertyOp6
 70
     1
102
RTVSPropertyOp7
 70
     1
102
RTVSPropertyOp8
 70
     1
102
RTVSPropertyOp9
 70
     1
102
RTVSPropertyOp10
 70
     1
102
RTVSPropertyOp11
 70
     1
102
RTVSPropertyOp12
 70
     1
102
RTVSPropertyOp13
 70
     1
102
RTVSPropertyOp14
 70
     1
102
RTVSPropertyOp15
 70
     1
102
RTVSPropertyOp16
 70
     1
102
RTVSPropertyOp17
 70
     1
102
RTVSPropertyOp18
 70
     1
102
RTVSPropertyOp19
 70
     1
102
RTVSPropertyOp20
 70
     1
102
RTVSPropertyOp21
 70
     1
102
RTVSPropertyOp22
 70
     1
102
RTVSPropertyOp23
 70
     1
102
RTVSPropertyOp24
 70
     1
102
RTVSPropertyOp25
 70
     1
102
RTVSPropertyOp26
 70
     1
102
RTVSPropertyOp27
 70
     1
102
RTVSPropertyOp28
 70
     1
102
RTVSPropertyOp29
 70
     1
102
RTVSPropertyOp30
 70
     1
102
RTVSPropertyOp31
 70
     1
102
RTVSPropertyOp32
 70
     1
102
RTVSPropertyOp33
 70
     1
102
RTVSPropertyOp34
 70
     1
102
RTVSPropertyOp35
 70
     1
102
RTVSPropertyOp36
 70
     1
102
RTVSPropertyOp37
 70
     1
102
RTVSPropertyOp38
 70
     1
102
RTVSPropertyOp39
 70
     1
102
RTVSPropertyOp40
 70
     1
102
RTVSPropertyOp41
 70
     1
102
RTVSPropertyOp42
 70
     1
102
RTVSPropertyOp43
 70
     1
102
RTVSPropertyOp44
 70
     1
102
RTVSPropertyOp45
 70
     1
102
RTVSPropertyOp46
 70
     1
102
RTVSPropertyOp47
 70
     1
102
RTVSPropertyOp48
 70
     1
102
RTVSPropertyOp49
 70
     1
102
RTVSPropertyOp50
 70
     1
102
RTVSPropertyOp51
 70
     0
102
RTVSPropertyOp52
 70
     0
102
RTVSPropertyOp53
 70
     1
102
RTVSPropertyOp54
 70
     1
102
RTVSPropertyOp55
 70
     1
102
RTVSPropertyOp56
 70
     1
102
RTVSPropertyOp57
 70
     1
102
RTVSPropertyOp58
 70
     1
102
RTVSPropertyOp59
 70
     1
102
RTVSPropertyOp60
 70
     1
102
RTVSPropertyOp61
 70
     1
102
RTVSPropertyOp62
 70
     1
  0
XRECORD
  5
A26C
102
{ACAD_REACTORS
330
A26B
102
}
330
A26B
100
AcDbXrecord
280
     1
102
RTVSPost2010Prop28
280
     0
102
RTVSPost2010PropOp28
 70
     1
102
RTVSPost2010Prop29
280
     1
102
RTVSPost2010PropOp29
 70
     1
102
RTVSPost2010Prop30
280
     1
102
RTVSPost2010PropOp30
 70
     1
102
RTVSPost2010Prop31
280
     0
102
RTVSPost2010PropOp31
 70
     1
102
RTVSPost2010Prop32
280
     0
102
RTVSPost2010PropOp32
 70
     1
102
RTVSPost2010Prop33
280
     0
102
RTVSPost2010PropOp33
 70
     1
102
RTVSPost2010Prop34
280
     0
102
RTVSPost2010PropOp34
 70
     1
102
RTVSPost2010Prop35
280
     0
102
RTVSPost2010PropOp35
 70
     1
102
RTVSPost2010Prop36
280
     0
102
RTVSPost2010PropOp36
 70
     1
102
RTVSPost2010Prop37
 90
       50
102
RTVSPost2010PropOp37
 70
     0
102
RTVSPost2010Prop38
140
0.0
102
RTVSPost2010PropOp38
 70
     0
102
RTVSPost2010Prop39
140
1.0
102
RTVSPost2010PropOp39
 70
     0
102
RTVSPost2010Prop40
 90
        0
102
RTVSPost2010PropOp40
 70
     0
102
RTVSPost2010Prop41ColorIndex
 90
       18
102
RTVSPost2010Prop41ColorRGB
 90
        0
102
RTVSPost2010PropOp41
 70
     0
102
RTVSPost2010Prop42
 90
       50
102
RTVSPost2010PropOp42
 70
     0
102
RTVSPost2010Prop43
 90
        3
102
RTVSPost2010PropOp43
 70
     0
102
RTVSPost2010Prop44ColorIndex
 90
        5
102
RTVSPost2010Prop44ColorRGB
 90
      255
102
RTVSPost2010PropOp44
 70
     0
102
RTVSPost2010Prop45
280
     0
102
RTVSPost2010PropOp45
 70
     1
102
RTVSPost2010Prop46
 90
       50
102
RTVSPost2010PropOp46
 70
     0
102
RTVSPost2010Prop47
 90
       50
102
RTVSPost2010PropOp47
 70
     0
102
RTVSPost2010Prop48
 90
       50
102
RTVSPost2010PropOp48
 70
     0
102
RTVSPost2010Prop49
280
     0
102
RTVSPost2010PropOp49
 70
     1
102
RTVSPost2010Prop50
 90
       50
102
RTVSPost2010PropOp50
 70
     0
102
RTVSPost2010Prop51ColorIndex
 90
      256
102
RTVSPost2010Prop51ColorRGB
 90
-16777216
102
RTVSPost2010PropOp51
 70
     0
102
RTVSPost2010Prop52
140
1.0
102
RTVSPost2010PropOp52
 70
     0
102
RTVSPost2010Prop53
 90
        2
102
RTVSPost2010PropOp53
 70
     0
102
RTVSPost2010Prop54
  1
strokes_ogs.tif
102
RTVSPost2010PropOp54
 70
     0
102
RTVSPost2010Prop55
280
     0
102
RTVSPost2010PropOp55
 70
     1
102
RTVSPost2010Prop56
140
1.0
102
RTVSPost2010PropOp56
 70
     0
102
RTVSPost2010Prop57
140
1.0
102
RTVSPost2010PropOp57
 70
     0
102
RTVSPropertyOp0
 70
     0
102
RTVSPropertyOp1
 70
     0
102
RTVSPropertyOp2
 70
     0
102
RTVSPropertyOp3
 70
     0
102
RTVSPropertyOp4
 70
     0
102
RTVSPropertyOp5
 70
     0
102
RTVSPropertyOp6
 70
     0
102
RTVSPropertyOp7
 70
     0
102
RTVSPropertyOp8
 70
     0
102
RTVSPropertyOp9
 70
     0
102
RTVSPropertyOp10
 70
     0
102
RTVSPropertyOp11
 70
     0
102
RTVSPropertyOp12
 70
     0
102
RTVSPropertyOp13
 70
     0
102
RTVSPropertyOp14
 70
     2
102
RTVSPropertyOp15
 70
     0
102
RTVSPropertyOp16
 70
     0
102
RTVSPropertyOp17
 70
     0
102
RTVSPropertyOp18
 70
     0
102
RTVSPropertyOp19
 70
     0
102
RTVSPropertyOp20
 70
     0
102
RTVSPropertyOp21
 70
     0
102
RTVSPropertyOp22
 70
     0
102
RTVSPropertyOp23
 70
     0
102
RTVSPropertyOp24
 70
     0
102
RTVSPropertyOp25
 70
     0
102
RTVSPropertyOp26
 70
     0
102
RTVSPropertyOp27
 70
     0
102
RTVSPropertyOp28
 70
     1
102
RTVSPropertyOp29
 70
     1
102
RTVSPropertyOp30
 70
     1
102
RTVSPropertyOp31
 70
     1
102
RTVSPropertyOp32
 70
     1
102
RTVSPropertyOp33
 70
     1
102
RTVSPropertyOp34
 70
     1
102
RTVSPropertyOp35
 70
     1
102
RTVSPropertyOp36
 70
     1
102
RTVSPropertyOp37
 70
     0
102
RTVSPropertyOp38
 70
     0
102
RTVSPropertyOp39
 70
     0
102
RTVSPropertyOp40
 70
     0
102
RTVSPropertyOp41
 70
     0
102
RTVSPropertyOp42
 70
     0
102
RTVSPropertyOp43
 70
     0
102
RTVSPropertyOp44
 70
     0
102
RTVSPropertyOp45
 70
     1
102
RTVSPropertyOp46
 70
     0
102
RTVSPropertyOp47
 70
     0
102
RTVSPropertyOp48
 70
     0
102
RTVSPropertyOp49
 70
     1
102
RTVSPropertyOp50
 70
     0
102
RTVSPropertyOp51
 70
     0
102
RTVSPropertyOp52
 70
     0
102
RTVSPropertyOp53
 70
     0
102
RTVSPropertyOp54
 70
     0
102
RTVSPropertyOp55
 70
     1
102
RTVSPropertyOp56
 70
     0
102
RTVSPropertyOp57
 70
     0
102
RTVSPropertyOp58
 70
     0
102
RTVSPropertyOp59
 70
     0
102
RTVSPropertyOp60
 70
     0
102
RTVSPropertyOp61
 70
     0
102
RTVSPropertyOp62
 70
     0
  0
XRECORD
  5
A25C
102
{ACAD_REACTORS
330
A25B
102
}
330
A25B
100
AcDbXrecord
280
     1
102
RTVSPost2010Prop28
280
     0
102
RTVSPost2010PropOp28
 70
     1
102
RTVSPost2010Prop29
280
     1
102
RTVSPost2010PropOp29
 70
     1
102
RTVSPost2010Prop30
280
     1
102
RTVSPost2010PropOp30
 70
     1
102
RTVSPost2010Prop31
280
     0
102
RTVSPost2010PropOp31
 70
     1
102
RTVSPost2010Prop32
280
     0
102
RTVSPost2010PropOp32
 70
     1
102
RTVSPost2010Prop33
280
     0
102
RTVSPost2010PropOp33
 70
     1
102
RTVSPost2010Prop34
280
     0
102
RTVSPost2010PropOp34
 70
     1
102
RTVSPost2010Prop35
280
     0
102
RTVSPost2010PropOp35
 70
     1
102
RTVSPost2010Prop36
280
     0
102
RTVSPost2010PropOp36
 70
     1
102
RTVSPost2010Prop37
 90
       50
102
RTVSPost2010PropOp37
 70
     1
102
RTVSPost2010Prop38
140
0.0
102
RTVSPost2010PropOp38
 70
     1
102
RTVSPost2010Prop39
140
1.0
102
RTVSPost2010PropOp39
 70
     1
102
RTVSPost2010Prop40
 90
        0
102
RTVSPost2010PropOp40
 70
     1
102
RTVSPost2010Prop41ColorIndex
 90
       18
102
RTVSPost2010Prop41ColorRGB
 90
        0
102
RTVSPost2010PropOp41
 70
     1
102
RTVSPost2010Prop42
 90
       50
102
RTVSPost2010PropOp42
 70
     1
102
RTVSPost2010Prop43
 90
        3
102
RTVSPost2010PropOp43
 70
     1
102
RTVSPost2010Prop44ColorIndex
 90
        5
102
RTVSPost2010Prop44ColorRGB
 90
      255
102
RTVSPost2010PropOp44
 70
     1
102
RTVSPost2010Prop45
280
     0
102
RTVSPost2010PropOp45
 70
     1
102
RTVSPost2010Prop46
 90
       50
102
RTVSPost2010PropOp46
 70
     1
102
RTVSPost2010Prop47
 90
       50
102
RTVSPost2010PropOp47
 70
     1
102
RTVSPost2010Prop48
 90
       50
102
RTVSPost2010PropOp48
 70
     1
102
RTVSPost2010Prop49
280
     0
102
RTVSPost2010PropOp49
 70
     1
102
RTVSPost2010Prop50
 90
       50
102
RTVSPost2010PropOp50
 70
     1
102
RTVSPost2010Prop51ColorIndex
 90
      256
102
RTVSPost2010Prop51ColorRGB
 90
-16777216
102
RTVSPost2010PropOp51
 70
     0
102
RTVSPost2010Prop52
140
1.0
102
RTVSPost2010PropOp52
 70
     0
102
RTVSPost2010Prop53
 90
        2
102
RTVSPost2010PropOp53
 70
     1
102
RTVSPost2010Prop54
  1
strokes_ogs.tif
102
RTVSPost2010PropOp54
 70
     1
102
RTVSPost2010Prop55
280
     0
102
RTVSPost2010PropOp55
 70
     1
102
RTVSPost2010Prop56
140
1.0
102
RTVSPost2010PropOp56
 70
     1
102
RTVSPost2010Prop57
140
1.0
102
RTVSPost2010PropOp57
 70
     1
102
RTVSPropertyOp0
 70
     1
102
RTVSPropertyOp1
 70
     1
102
RTVSPropertyOp2
 70
     1
102
RTVSPropertyOp3
 70
     1
102
RTVSPropertyOp4
 70
     1
102
RTVSPropertyOp5
 70
     1
102
RTVSPropertyOp6
 70
     1
102
RTVSPropertyOp7
 70
     1
102
RTVSPropertyOp8
 70
     1
102
RTVSPropertyOp9
 70
     1
102
RTVSPropertyOp10
 70
     1
102
RTVSPropertyOp11
 70
     1
102
RTVSPropertyOp12
 70
     1
102
RTVSPropertyOp13
 70
     1
102
RTVSPropertyOp14
 70
     1
102
RTVSPropertyOp15
 70
     1
102
RTVSPropertyOp16
 70
     1
102
RTVSPropertyOp17
 70
     1
102
RTVSPropertyOp18
 70
     1
102
RTVSPropertyOp19
 70
     1
102
RTVSPropertyOp20
 70
     1
102
RTVSPropertyOp21
 70
     1
102
RTVSPropertyOp22
 70
     1
102
RTVSPropertyOp23
 70
     1
102
RTVSPropertyOp24
 70
     1
102
RTVSPropertyOp25
 70
     1
102
RTVSPropertyOp26
 70
     1
102
RTVSPropertyOp27
 70
     1
102
RTVSPropertyOp28
 70
     1
102
RTVSPropertyOp29
 70
     1
102
RTVSPropertyOp30
 70
     1
102
RTVSPropertyOp31
 70
     1
102
RTVSPropertyOp32
 70
     1
102
RTVSPropertyOp33
 70
     1
102
RTVSPropertyOp34
 70
     1
102
RTVSPropertyOp35
 70
     1
102
RTVSPropertyOp36
 70
     1
102
RTVSPropertyOp37
 70
     1
102
RTVSPropertyOp38
 70
     1
102
RTVSPropertyOp39
 70
     1
102
RTVSPropertyOp40
 70
     1
102
RTVSPropertyOp41
 70
     1
102
RTVSPropertyOp42
 70
     1
102
RTVSPropertyOp43
 70
     1
102
RTVSPropertyOp44
 70
     1
102
RTVSPropertyOp45
 70
     1
102
RTVSPropertyOp46
 70
     1
102
RTVSPropertyOp47
 70
     1
102
RTVSPropertyOp48
 70
     1
102
RTVSPropertyOp49
 70
     1
102
RTVSPropertyOp50
 70
     1
102
RTVSPropertyOp51
 70
     0
102
RTVSPropertyOp52
 70
     0
102
RTVSPropertyOp53
 70
     1
102
RTVSPropertyOp54
 70
     1
102
RTVSPropertyOp55
 70
     1
102
RTVSPropertyOp56
 70
     1
102
RTVSPropertyOp57
 70
     1
102
RTVSPropertyOp58
 70
     1
102
RTVSPropertyOp59
 70
     1
102
RTVSPropertyOp60
 70
     1
102
RTVSPropertyOp61
 70
     1
102
RTVSPropertyOp62
 70
     1
  0
XRECORD
  5
A26E
102
{ACAD_REACTORS
330
A26D
102
}
330
A26D
100
AcDbXrecord
280
     1
102
RTVSPost2010Prop28
280
     0
102
RTVSPost2010PropOp28
 70
     1
102
RTVSPost2010Prop29
280
     1
102
RTVSPost2010PropOp29
 70
     1
102
RTVSPost2010Prop30
280
     1
102
RTVSPost2010PropOp30
 70
     1
102
RTVSPost2010Prop31
280
     0
102
RTVSPost2010PropOp31
 70
     1
102
RTVSPost2010Prop32
280
     0
102
RTVSPost2010PropOp32
 70
     1
102
RTVSPost2010Prop33
280
     0
102
RTVSPost2010PropOp33
 70
     1
102
RTVSPost2010Prop34
280
     0
102
RTVSPost2010PropOp34
 70
     1
102
RTVSPost2010Prop35
280
     0
102
RTVSPost2010PropOp35
 70
     1
102
RTVSPost2010Prop36
280
     0
102
RTVSPost2010PropOp36
 70
     1
102
RTVSPost2010Prop37
 90
       50
102
RTVSPost2010PropOp37
 70
     0
102
RTVSPost2010Prop38
140
0.0
102
RTVSPost2010PropOp38
 70
     0
102
RTVSPost2010Prop39
140
1.0
102
RTVSPost2010PropOp39
 70
     0
102
RTVSPost2010Prop40
 90
        0
102
RTVSPost2010PropOp40
 70
     0
102
RTVSPost2010Prop41ColorIndex
 90
       18
102
RTVSPost2010Prop41ColorRGB
 90
        0
102
RTVSPost2010PropOp41
 70
     0
102
RTVSPost2010Prop42
 90
       50
102
RTVSPost2010PropOp42
 70
     0
102
RTVSPost2010Prop43
 90
        3
102
RTVSPost2010PropOp43
 70
     0
102
RTVSPost2010Prop44ColorIndex
 90
        5
102
RTVSPost2010Prop44ColorRGB
 90
      255
102
RTVSPost2010PropOp44
 70
     0
102
RTVSPost2010Prop45
280
     0
102
RTVSPost2010PropOp45
 70
     1
102
RTVSPost2010Prop46
 90
       50
102
RTVSPost2010PropOp46
 70
     0
102
RTVSPost2010Prop47
 90
       50
102
RTVSPost2010PropOp47
 70
     0
102
RTVSPost2010Prop48
 90
       50
102
RTVSPost2010PropOp48
 70
     0
102
RTVSPost2010Prop49
280
     0
102
RTVSPost2010PropOp49
 70
     1
102
RTVSPost2010Prop50
 90
       50
102
RTVSPost2010PropOp50
 70
     0
102
RTVSPost2010Prop51ColorIndex
 90
      256
102
RTVSPost2010Prop51ColorRGB
 90
-16777216
102
RTVSPost2010PropOp51
 70
     0
102
RTVSPost2010Prop52
140
1.0
102
RTVSPost2010PropOp52
 70
     0
102
RTVSPost2010Prop53
 90
        2
102
RTVSPost2010PropOp53
 70
     0
102
RTVSPost2010Prop54
  1
strokes_ogs.tif
102
RTVSPost2010PropOp54
 70
     0
102
RTVSPost2010Prop55
280
     0
102
RTVSPost2010PropOp55
 70
     1
102
RTVSPost2010Prop56
140
1.0
102
RTVSPost2010PropOp56
 70
     0
102
RTVSPost2010Prop57
140
1.0
102
RTVSPost2010PropOp57
 70
     0
102
RTVSPropertyOp0
 70
     0
102
RTVSPropertyOp1
 70
     0
102
RTVSPropertyOp2
 70
     0
102
RTVSPropertyOp3
 70
     0
102
RTVSPropertyOp4
 70
     0
102
RTVSPropertyOp5
 70
     0
102
RTVSPropertyOp6
 70
     0
102
RTVSPropertyOp7
 70
     0
102
RTVSPropertyOp8
 70
     0
102
RTVSPropertyOp9
 70
     0
102
RTVSPropertyOp10
 70
     0
102
RTVSPropertyOp11
 70
     0
102
RTVSPropertyOp12
 70
     0
102
RTVSPropertyOp13
 70
     0
102
RTVSPropertyOp14
 70
     2
102
RTVSPropertyOp15
 70
     0
102
RTVSPropertyOp16
 70
     0
102
RTVSPropertyOp17
 70
     0
102
RTVSPropertyOp18
 70
     0
102
RTVSPropertyOp19
 70
     0
102
RTVSPropertyOp20
 70
     0
102
RTVSPropertyOp21
 70
     0
102
RTVSPropertyOp22
 70
     0
102
RTVSPropertyOp23
 70
     0
102
RTVSPropertyOp24
 70
     0
102
RTVSPropertyOp25
 70
     0
102
RTVSPropertyOp26
 70
     0
102
RTVSPropertyOp27
 70
     0
102
RTVSPropertyOp28
 70
     1
102
RTVSPropertyOp29
 70
     1
102
RTVSPropertyOp30
 70
     1
102
RTVSPropertyOp31
 70
     1
102
RTVSPropertyOp32
 70
     1
102
RTVSPropertyOp33
 70
     1
102
RTVSPropertyOp34
 70
     1
102
RTVSPropertyOp35
 70
     1
102
RTVSPropertyOp36
 70
     1
102
RTVSPropertyOp37
 70
     0
102
RTVSPropertyOp38
 70
     0
102
RTVSPropertyOp39
 70
     0
102
RTVSPropertyOp40
 70
     0
102
RTVSPropertyOp41
 70
     0
102
RTVSPropertyOp42
 70
     0
102
RTVSPropertyOp43
 70
     0
102
RTVSPropertyOp44
 70
     0
102
RTVSPropertyOp45
 70
     1
102
RTVSPropertyOp46
 70
     0
102
RTVSPropertyOp47
 70
     0
102
RTVSPropertyOp48
 70
     0
102
RTVSPropertyOp49
 70
     1
102
RTVSPropertyOp50
 70
     0
102
RTVSPropertyOp51
 70
     0
102
RTVSPropertyOp52
 70
     0
102
RTVSPropertyOp53
 70
     0
102
RTVSPropertyOp54
 70
     0
102
RTVSPropertyOp55
 70
     1
102
RTVSPropertyOp56
 70
     0
102
RTVSPropertyOp57
 70
     0
102
RTVSPropertyOp58
 70
     0
102
RTVSPropertyOp59
 70
     0
102
RTVSPropertyOp60
 70
     0
102
RTVSPropertyOp61
 70
     0
102
RTVSPropertyOp62
 70
     0
  0
XRECORD
  5
A254
102
{ACAD_REACTORS
330
A253
102
}
330
A253
100
AcDbXrecord
280
     1
102
RTVSPost2010Prop28
280
     0
102
RTVSPost2010PropOp28
 70
     1
102
RTVSPost2010Prop29
280
     1
102
RTVSPost2010PropOp29
 70
     1
102
RTVSPost2010Prop30
280
     1
102
RTVSPost2010PropOp30
 70
     1
102
RTVSPost2010Prop31
280
     0
102
RTVSPost2010PropOp31
 70
     1
102
RTVSPost2010Prop32
280
     0
102
RTVSPost2010PropOp32
 70
     1
102
RTVSPost2010Prop33
280
     0
102
RTVSPost2010PropOp33
 70
     1
102
RTVSPost2010Prop34
280
     0
102
RTVSPost2010PropOp34
 70
     1
102
RTVSPost2010Prop35
280
     0
102
RTVSPost2010PropOp35
 70
     1
102
RTVSPost2010Prop36
280
     0
102
RTVSPost2010PropOp36
 70
     1
102
RTVSPost2010Prop37
 90
       50
102
RTVSPost2010PropOp37
 70
     1
102
RTVSPost2010Prop38
140
0.0
102
RTVSPost2010PropOp38
 70
     1
102
RTVSPost2010Prop39
140
1.0
102
RTVSPost2010PropOp39
 70
     1
102
RTVSPost2010Prop40
 90
        0
102
RTVSPost2010PropOp40
 70
     1
102
RTVSPost2010Prop41ColorIndex
 90
       18
102
RTVSPost2010Prop41ColorRGB
 90
        0
102
RTVSPost2010PropOp41
 70
     1
102
RTVSPost2010Prop42
 90
       50
102
RTVSPost2010PropOp42
 70
     1
102
RTVSPost2010Prop43
 90
        3
102
RTVSPost2010PropOp43
 70
     1
102
RTVSPost2010Prop44ColorIndex
 90
        5
102
RTVSPost2010Prop44ColorRGB
 90
      255
102
RTVSPost2010PropOp44
 70
     1
102
RTVSPost2010Prop45
280
     0
102
RTVSPost2010PropOp45
 70
     1
102
RTVSPost2010Prop46
 90
       50
102
RTVSPost2010PropOp46
 70
     1
102
RTVSPost2010Prop47
 90
       50
102
RTVSPost2010PropOp47
 70
     1
102
RTVSPost2010Prop48
 90
       50
102
RTVSPost2010PropOp48
 70
     1
102
RTVSPost2010Prop49
280
     0
102
RTVSPost2010PropOp49
 70
     1
102
RTVSPost2010Prop50
 90
       50
102
RTVSPost2010PropOp50
 70
     1
102
RTVSPost2010Prop51ColorIndex
 90
      256
102
RTVSPost2010Prop51ColorRGB
 90
-16777216
102
RTVSPost2010PropOp51
 70
     0
102
RTVSPost2010Prop52
140
1.0
102
RTVSPost2010PropOp52
 70
     0
102
RTVSPost2010Prop53
 90
        2
102
RTVSPost2010PropOp53
 70
     1
102
RTVSPost2010Prop54
  1
strokes_ogs.tif
102
RTVSPost2010PropOp54
 70
     1
102
RTVSPost2010Prop55
280
     0
102
RTVSPost2010PropOp55
 70
     1
102
RTVSPost2010Prop56
140
1.0
102
RTVSPost2010PropOp56
 70
     1
102
RTVSPost2010Prop57
140
1.0
102
RTVSPost2010PropOp57
 70
     1
102
RTVSPropertyOp0
 70
     1
102
RTVSPropertyOp1
 70
     1
102
RTVSPropertyOp2
 70
     1
102
RTVSPropertyOp3
 70
     1
102
RTVSPropertyOp4
 70
     1
102
RTVSPropertyOp5
 70
     1
102
RTVSPropertyOp6
 70
     1
102
RTVSPropertyOp7
 70
     1
102
RTVSPropertyOp8
 70
     1
102
RTVSPropertyOp9
 70
     1
102
RTVSPropertyOp10
 70
     1
102
RTVSPropertyOp11
 70
     1
102
RTVSPropertyOp12
 70
     1
102
RTVSPropertyOp13
 70
     1
102
RTVSPropertyOp14
 70
     1
102
RTVSPropertyOp15
 70
     1
102
RTVSPropertyOp16
 70
     1
102
RTVSPropertyOp17
 70
     1
102
RTVSPropertyOp18
 70
     1
102
RTVSPropertyOp19
 70
     1
102
RTVSPropertyOp20
 70
     1
102
RTVSPropertyOp21
 70
     1
102
RTVSPropertyOp22
 70
     1
102
RTVSPropertyOp23
 70
     1
102
RTVSPropertyOp24
 70
     1
102
RTVSPropertyOp25
 70
     1
102
RTVSPropertyOp26
 70
     1
102
RTVSPropertyOp27
 70
     1
102
RTVSPropertyOp28
 70
     1
102
RTVSPropertyOp29
 70
     1
102
RTVSPropertyOp30
 70
     1
102
RTVSPropertyOp31
 70
     1
102
RTVSPropertyOp32
 70
     1
102
RTVSPropertyOp33
 70
     1
102
RTVSPropertyOp34
 70
     1
102
RTVSPropertyOp35
 70
     1
102
RTVSPropertyOp36
 70
     1
102
RTVSPropertyOp37
 70
     1
102
RTVSPropertyOp38
 70
     1
102
RTVSPropertyOp39
 70
     1
102
RTVSPropertyOp40
 70
     1
102
RTVSPropertyOp41
 70
     1
102
RTVSPropertyOp42
 70
     1
102
RTVSPropertyOp43
 70
     1
102
RTVSPropertyOp44
 70
     1
102
RTVSPropertyOp45
 70
     1
102
RTVSPropertyOp46
 70
     1
102
RTVSPropertyOp47
 70
     1
102
RTVSPropertyOp48
 70
     1
102
RTVSPropertyOp49
 70
     1
102
RTVSPropertyOp50
 70
     1
102
RTVSPropertyOp51
 70
     0
102
RTVSPropertyOp52
 70
     0
102
RTVSPropertyOp53
 70
     1
102
RTVSPropertyOp54
 70
     1
102
RTVSPropertyOp55
 70
     1
102
RTVSPropertyOp56
 70
     1
102
RTVSPropertyOp57
 70
     1
102
RTVSPropertyOp58
 70
     1
102
RTVSPropertyOp59
 70
     1
102
RTVSPropertyOp60
 70
     1
102
RTVSPropertyOp61
 70
     1
102
RTVSPropertyOp62
 70
     1
  0
XRECORD
  5
A26A
102
{ACAD_REACTORS
330
A269
102
}
330
A269
100
AcDbXrecord
280
     1
102
RTVSPost2010Prop28
280
     0
102
RTVSPost2010PropOp28
 70
     1
102
RTVSPost2010Prop29
280
     1
102
RTVSPost2010PropOp29
 70
     1
102
RTVSPost2010Prop30
280
     1
102
RTVSPost2010PropOp30
 70
     1
102
RTVSPost2010Prop31
280
     0
102
RTVSPost2010PropOp31
 70
     1
102
RTVSPost2010Prop32
280
     0
102
RTVSPost2010PropOp32
 70
     1
102
RTVSPost2010Prop33
280
     0
102
RTVSPost2010PropOp33
 70
     1
102
RTVSPost2010Prop34
280
     0
102
RTVSPost2010PropOp34
 70
     1
102
RTVSPost2010Prop35
280
     0
102
RTVSPost2010PropOp35
 70
     1
102
RTVSPost2010Prop36
280
     0
102
RTVSPost2010PropOp36
 70
     1
102
RTVSPost2010Prop37
 90
       50
102
RTVSPost2010PropOp37
 70
     1
102
RTVSPost2010Prop38
140
0.0
102
RTVSPost2010PropOp38
 70
     1
102
RTVSPost2010Prop39
140
1.0
102
RTVSPost2010PropOp39
 70
     1
102
RTVSPost2010Prop40
 90
        0
102
RTVSPost2010PropOp40
 70
     1
102
RTVSPost2010Prop41ColorIndex
 90
       18
102
RTVSPost2010Prop41ColorRGB
 90
        0
102
RTVSPost2010PropOp41
 70
     1
102
RTVSPost2010Prop42
 90
       50
102
RTVSPost2010PropOp42
 70
     1
102
RTVSPost2010Prop43
 90
        3
102
RTVSPost2010PropOp43
 70
     1
102
RTVSPost2010Prop44ColorIndex
 90
        5
102
RTVSPost2010Prop44ColorRGB
 90
      255
102
RTVSPost2010PropOp44
 70
     1
102
RTVSPost2010Prop45
280
     0
102
RTVSPost2010PropOp45
 70
     1
102
RTVSPost2010Prop46
 90
       50
102
RTVSPost2010PropOp46
 70
     1
102
RTVSPost2010Prop47
 90
       50
102
RTVSPost2010PropOp47
 70
     1
102
RTVSPost2010Prop48
 90
       50
102
RTVSPost2010PropOp48
 70
     1
102
RTVSPost2010Prop49
280
     0
102
RTVSPost2010PropOp49
 70
     1
102
RTVSPost2010Prop50
 90
       50
102
RTVSPost2010PropOp50
 70
     1
102
RTVSPost2010Prop51ColorIndex
 90
      256
102
RTVSPost2010Prop51ColorRGB
 90
-16777216
102
RTVSPost2010PropOp51
 70
     0
102
RTVSPost2010Prop52
140
1.0
102
RTVSPost2010PropOp52
 70
     0
102
RTVSPost2010Prop53
 90
        2
102
RTVSPost2010PropOp53
 70
     1
102
RTVSPost2010Prop54
  1
strokes_ogs.tif
102
RTVSPost2010PropOp54
 70
     1
102
RTVSPost2010Prop55
280
     0
102
RTVSPost2010PropOp55
 70
     1
102
RTVSPost2010Prop56
140
1.0
102
RTVSPost2010PropOp56
 70
     1
102
RTVSPost2010Prop57
140
1.0
102
RTVSPost2010PropOp57
 70
     1
102
RTVSPropertyOp0
 70
     1
102
RTVSPropertyOp1
 70
     1
102
RTVSPropertyOp2
 70
     1
102
RTVSPropertyOp3
 70
     1
102
RTVSPropertyOp4
 70
     1
102
RTVSPropertyOp5
 70
     1
102
RTVSPropertyOp6
 70
     1
102
RTVSPropertyOp7
 70
     1
102
RTVSPropertyOp8
 70
     1
102
RTVSPropertyOp9
 70
     1
102
RTVSPropertyOp10
 70
     1
102
RTVSPropertyOp11
 70
     1
102
RTVSPropertyOp12
 70
     1
102
RTVSPropertyOp13
 70
     1
102
RTVSPropertyOp14
 70
     1
102
RTVSPropertyOp15
 70
     1
102
RTVSPropertyOp16
 70
     1
102
RTVSPropertyOp17
 70
     1
102
RTVSPropertyOp18
 70
     1
102
RTVSPropertyOp19
 70
     1
102
RTVSPropertyOp20
 70
     1
102
RTVSPropertyOp21
 70
     1
102
RTVSPropertyOp22
 70
     1
102
RTVSPropertyOp23
 70
     1
102
RTVSPropertyOp24
 70
     1
102
RTVSPropertyOp25
 70
     1
102
RTVSPropertyOp26
 70
     1
102
RTVSPropertyOp27
 70
     1
102
RTVSPropertyOp28
 70
     1
102
RTVSPropertyOp29
 70
     1
102
RTVSPropertyOp30
 70
     1
102
RTVSPropertyOp31
 70
     1
102
RTVSPropertyOp32
 70
     1
102
RTVSPropertyOp33
 70
     1
102
RTVSPropertyOp34
 70
     1
102
RTVSPropertyOp35
 70
     1
102
RTVSPropertyOp36
 70
     1
102
RTVSPropertyOp37
 70
     1
102
RTVSPropertyOp38
 70
     1
102
RTVSPropertyOp39
 70
     1
102
RTVSPropertyOp40
 70
     1
102
RTVSPropertyOp41
 70
     1
102
RTVSPropertyOp42
 70
     1
102
RTVSPropertyOp43
 70
     1
102
RTVSPropertyOp44
 70
     1
102
RTVSPropertyOp45
 70
     1
102
RTVSPropertyOp46
 70
     1
102
RTVSPropertyOp47
 70
     1
102
RTVSPropertyOp48
 70
     1
102
RTVSPropertyOp49
 70
     1
102
RTVSPropertyOp50
 70
     1
102
RTVSPropertyOp51
 70
     0
102
RTVSPropertyOp52
 70
     0
102
RTVSPropertyOp53
 70
     1
102
RTVSPropertyOp54
 70
     1
102
RTVSPropertyOp55
 70
     1
102
RTVSPropertyOp56
 70
     1
102
RTVSPropertyOp57
 70
     1
102
RTVSPropertyOp58
 70
     1
102
RTVSPropertyOp59
 70
     1
102
RTVSPropertyOp60
 70
     1
102
RTVSPropertyOp61
 70
     1
102
RTVSPropertyOp62
 70
     1
  0
XRECORD
  5
A268
102
{ACAD_REACTORS
330
A267
102
}
330
A267
100
AcDbXrecord
280
     1
102
RTVSPost2010Prop28
280
     0
102
RTVSPost2010PropOp28
 70
     1
102
RTVSPost2010Prop29
280
     1
102
RTVSPost2010PropOp29
 70
     1
102
RTVSPost2010Prop30
280
     1
102
RTVSPost2010PropOp30
 70
     1
102
RTVSPost2010Prop31
280
     0
102
RTVSPost2010PropOp31
 70
     1
102
RTVSPost2010Prop32
280
     0
102
RTVSPost2010PropOp32
 70
     1
102
RTVSPost2010Prop33
280
     0
102
RTVSPost2010PropOp33
 70
     1
102
RTVSPost2010Prop34
280
     0
102
RTVSPost2010PropOp34
 70
     1
102
RTVSPost2010Prop35
280
     0
102
RTVSPost2010PropOp35
 70
     1
102
RTVSPost2010Prop36
280
     0
102
RTVSPost2010PropOp36
 70
     1
102
RTVSPost2010Prop37
 90
       50
102
RTVSPost2010PropOp37
 70
     1
102
RTVSPost2010Prop38
140
0.0
102
RTVSPost2010PropOp38
 70
     1
102
RTVSPost2010Prop39
140
1.0
102
RTVSPost2010PropOp39
 70
     1
102
RTVSPost2010Prop40
 90
        0
102
RTVSPost2010PropOp40
 70
     1
102
RTVSPost2010Prop41ColorIndex
 90
       18
102
RTVSPost2010Prop41ColorRGB
 90
        0
102
RTVSPost2010PropOp41
 70
     1
102
RTVSPost2010Prop42
 90
       50
102
RTVSPost2010PropOp42
 70
     1
102
RTVSPost2010Prop43
 90
        3
102
RTVSPost2010PropOp43
 70
     1
102
RTVSPost2010Prop44ColorIndex
 90
        5
102
RTVSPost2010Prop44ColorRGB
 90
      255
102
RTVSPost2010PropOp44
 70
     1
102
RTVSPost2010Prop45
280
     0
102
RTVSPost2010PropOp45
 70
     1
102
RTVSPost2010Prop46
 90
       50
102
RTVSPost2010PropOp46
 70
     1
102
RTVSPost2010Prop47
 90
       50
102
RTVSPost2010PropOp47
 70
     1
102
RTVSPost2010Prop48
 90
       50
102
RTVSPost2010PropOp48
 70
     1
102
RTVSPost2010Prop49
280
     0
102
RTVSPost2010PropOp49
 70
     1
102
RTVSPost2010Prop50
 90
       50
102
RTVSPost2010PropOp50
 70
     1
102
RTVSPost2010Prop51ColorIndex
 90
      256
102
RTVSPost2010Prop51ColorRGB
 90
-16777216
102
RTVSPost2010PropOp51
 70
     0
102
RTVSPost2010Prop52
140
1.0
102
RTVSPost2010PropOp52
 70
     0
102
RTVSPost2010Prop53
 90
        2
102
RTVSPost2010PropOp53
 70
     1
102
RTVSPost2010Prop54
  1
strokes_ogs.tif
102
RTVSPost2010PropOp54
 70
     1
102
RTVSPost2010Prop55
280
     0
102
RTVSPost2010PropOp55
 70
     1
102
RTVSPost2010Prop56
140
1.0
102
RTVSPost2010PropOp56
 70
     1
102
RTVSPost2010Prop57
140
1.0
102
RTVSPost2010PropOp57
 70
     1
102
RTVSPropertyOp0
 70
     1
102
RTVSPropertyOp1
 70
     1
102
RTVSPropertyOp2
 70
     1
102
RTVSPropertyOp3
 70
     1
102
RTVSPropertyOp4
 70
     1
102
RTVSPropertyOp5
 70
     1
102
RTVSPropertyOp6
 70
     1
102
RTVSPropertyOp7
 70
     1
102
RTVSPropertyOp8
 70
     1
102
RTVSPropertyOp9
 70
     1
102
RTVSPropertyOp10
 70
     1
102
RTVSPropertyOp11
 70
     1
102
RTVSPropertyOp12
 70
     1
102
RTVSPropertyOp13
 70
     1
102
RTVSPropertyOp14
 70
     1
102
RTVSPropertyOp15
 70
     1
102
RTVSPropertyOp16
 70
     1
102
RTVSPropertyOp17
 70
     1
102
RTVSPropertyOp18
 70
     1
102
RTVSPropertyOp19
 70
     1
102
RTVSPropertyOp20
 70
     1
102
RTVSPropertyOp21
 70
     1
102
RTVSPropertyOp22
 70
     1
102
RTVSPropertyOp23
 70
     1
102
RTVSPropertyOp24
 70
     1
102
RTVSPropertyOp25
 70
     1
102
RTVSPropertyOp26
 70
     1
102
RTVSPropertyOp27
 70
     1
102
RTVSPropertyOp28
 70
     1
102
RTVSPropertyOp29
 70
     1
102
RTVSPropertyOp30
 70
     1
102
RTVSPropertyOp31
 70
     1
102
RTVSPropertyOp32
 70
     1
102
RTVSPropertyOp33
 70
     1
102
RTVSPropertyOp34
 70
     1
102
RTVSPropertyOp35
 70
     1
102
RTVSPropertyOp36
 70
     1
102
RTVSPropertyOp37
 70
     1
102
RTVSPropertyOp38
 70
     1
102
RTVSPropertyOp39
 70
     1
102
RTVSPropertyOp40
 70
     1
102
RTVSPropertyOp41
 70
     1
102
RTVSPropertyOp42
 70
     1
102
RTVSPropertyOp43
 70
     1
102
RTVSPropertyOp44
 70
     1
102
RTVSPropertyOp45
 70
     1
102
RTVSPropertyOp46
 70
     1
102
RTVSPropertyOp47
 70
     1
102
RTVSPropertyOp48
 70
     1
102
RTVSPropertyOp49
 70
     1
102
RTVSPropertyOp50
 70
     1
102
RTVSPropertyOp51
 70
     0
102
RTVSPropertyOp52
 70
     0
102
RTVSPropertyOp53
 70
     1
102
RTVSPropertyOp54
 70
     1
102
RTVSPropertyOp55
 70
     1
102
RTVSPropertyOp56
 70
     1
102
RTVSPropertyOp57
 70
     1
102
RTVSPropertyOp58
 70
     1
102
RTVSPropertyOp59
 70
     1
102
RTVSPropertyOp60
 70
     1
102
RTVSPropertyOp61
 70
     1
102
RTVSPropertyOp62
 70
     1
  0
XRECORD
  5
A262
102
{ACAD_REACTORS
330
A261
102
}
330
A261
100
AcDbXrecord
280
     1
102
RTVSPost2010Prop28
280
     0
102
RTVSPost2010PropOp28
 70
     1
102
RTVSPost2010Prop29
280
     1
102
RTVSPost2010PropOp29
 70
     1
102
RTVSPost2010Prop30
280
     1
102
RTVSPost2010PropOp30
 70
     1
102
RTVSPost2010Prop31
280
     0
102
RTVSPost2010PropOp31
 70
     1
102
RTVSPost2010Prop32
280
     0
102
RTVSPost2010PropOp32
 70
     1
102
RTVSPost2010Prop33
280
     0
102
RTVSPost2010PropOp33
 70
     1
102
RTVSPost2010Prop34
280
     0
102
RTVSPost2010PropOp34
 70
     1
102
RTVSPost2010Prop35
280
     0
102
RTVSPost2010PropOp35
 70
     1
102
RTVSPost2010Prop36
280
     0
102
RTVSPost2010PropOp36
 70
     1
102
RTVSPost2010Prop37
 90
       50
102
RTVSPost2010PropOp37
 70
     1
102
RTVSPost2010Prop38
140
0.0
102
RTVSPost2010PropOp38
 70
     1
102
RTVSPost2010Prop39
140
1.0
102
RTVSPost2010PropOp39
 70
     1
102
RTVSPost2010Prop40
 90
        0
102
RTVSPost2010PropOp40
 70
     1
102
RTVSPost2010Prop41ColorIndex
 90
       18
102
RTVSPost2010Prop41ColorRGB
 90
        0
102
RTVSPost2010PropOp41
 70
     1
102
RTVSPost2010Prop42
 90
       50
102
RTVSPost2010PropOp42
 70
     1
102
RTVSPost2010Prop43
 90
        3
102
RTVSPost2010PropOp43
 70
     1
102
RTVSPost2010Prop44ColorIndex
 90
        5
102
RTVSPost2010Prop44ColorRGB
 90
      255
102
RTVSPost2010PropOp44
 70
     1
102
RTVSPost2010Prop45
280
     0
102
RTVSPost2010PropOp45
 70
     1
102
RTVSPost2010Prop46
 90
       50
102
RTVSPost2010PropOp46
 70
     1
102
RTVSPost2010Prop47
 90
       50
102
RTVSPost2010PropOp47
 70
     1
102
RTVSPost2010Prop48
 90
       50
102
RTVSPost2010PropOp48
 70
     1
102
RTVSPost2010Prop49
280
     0
102
RTVSPost2010PropOp49
 70
     1
102
RTVSPost2010Prop50
 90
       50
102
RTVSPost2010PropOp50
 70
     1
102
RTVSPost2010Prop51ColorIndex
 90
      256
102
RTVSPost2010Prop51ColorRGB
 90
-16777216
102
RTVSPost2010PropOp51
 70
     0
102
RTVSPost2010Prop52
140
1.0
102
RTVSPost2010PropOp52
 70
     0
102
RTVSPost2010Prop53
 90
        2
102
RTVSPost2010PropOp53
 70
     1
102
RTVSPost2010Prop54
  1
strokes_ogs.tif
102
RTVSPost2010PropOp54
 70
     1
102
RTVSPost2010Prop55
280
     0
102
RTVSPost2010PropOp55
 70
     1
102
RTVSPost2010Prop56
140
1.0
102
RTVSPost2010PropOp56
 70
     1
102
RTVSPost2010Prop57
140
1.0
102
RTVSPost2010PropOp57
 70
     1
102
RTVSPropertyOp0
 70
     1
102
RTVSPropertyOp1
 70
     1
102
RTVSPropertyOp2
 70
     1
102
RTVSPropertyOp3
 70
     1
102
RTVSPropertyOp4
 70
     1
102
RTVSPropertyOp5
 70
     1
102
RTVSPropertyOp6
 70
     1
102
RTVSPropertyOp7
 70
     1
102
RTVSPropertyOp8
 70
     1
102
RTVSPropertyOp9
 70
     1
102
RTVSPropertyOp10
 70
     1
102
RTVSPropertyOp11
 70
     1
102
RTVSPropertyOp12
 70
     1
102
RTVSPropertyOp13
 70
     1
102
RTVSPropertyOp14
 70
     1
102
RTVSPropertyOp15
 70
     1
102
RTVSPropertyOp16
 70
     1
102
RTVSPropertyOp17
 70
     1
102
RTVSPropertyOp18
 70
     1
102
RTVSPropertyOp19
 70
     1
102
RTVSPropertyOp20
 70
     1
102
RTVSPropertyOp21
 70
     1
102
RTVSPropertyOp22
 70
     1
102
RTVSPropertyOp23
 70
     1
102
RTVSPropertyOp24
 70
     1
102
RTVSPropertyOp25
 70
     1
102
RTVSPropertyOp26
 70
     1
102
RTVSPropertyOp27
 70
     1
102
RTVSPropertyOp28
 70
     1
102
RTVSPropertyOp29
 70
     1
102
RTVSPropertyOp30
 70
     1
102
RTVSPropertyOp31
 70
     1
102
RTVSPropertyOp32
 70
     1
102
RTVSPropertyOp33
 70
     1
102
RTVSPropertyOp34
 70
     1
102
RTVSPropertyOp35
 70
     1
102
RTVSPropertyOp36
 70
     1
102
RTVSPropertyOp37
 70
     1
102
RTVSPropertyOp38
 70
     1
102
RTVSPropertyOp39
 70
     1
102
RTVSPropertyOp40
 70
     1
102
RTVSPropertyOp41
 70
     1
102
RTVSPropertyOp42
 70
     1
102
RTVSPropertyOp43
 70
     1
102
RTVSPropertyOp44
 70
     1
102
RTVSPropertyOp45
 70
     1
102
RTVSPropertyOp46
 70
     1
102
RTVSPropertyOp47
 70
     1
102
RTVSPropertyOp48
 70
     1
102
RTVSPropertyOp49
 70
     1
102
RTVSPropertyOp50
 70
     1
102
RTVSPropertyOp51
 70
     0
102
RTVSPropertyOp52
 70
     0
102
RTVSPropertyOp53
 70
     1
102
RTVSPropertyOp54
 70
     1
102
RTVSPropertyOp55
 70
     1
102
RTVSPropertyOp56
 70
     1
102
RTVSPropertyOp57
 70
     1
102
RTVSPropertyOp58
 70
     1
102
RTVSPropertyOp59
 70
     1
102
RTVSPropertyOp60
 70
     1
102
RTVSPropertyOp61
 70
     1
102
RTVSPropertyOp62
 70
     1
  0
XRECORD
  5
A264
102
{ACAD_REACTORS
330
A263
102
}
330
A263
100
AcDbXrecord
280
     1
102
RTVSPost2010Prop28
280
     0
102
RTVSPost2010PropOp28
 70
     1
102
RTVSPost2010Prop29
280
     1
102
RTVSPost2010PropOp29
 70
     1
102
RTVSPost2010Prop30
280
     1
102
RTVSPost2010PropOp30
 70
     1
102
RTVSPost2010Prop31
280
     0
102
RTVSPost2010PropOp31
 70
     1
102
RTVSPost2010Prop32
280
     0
102
RTVSPost2010PropOp32
 70
     1
102
RTVSPost2010Prop33
280
     0
102
RTVSPost2010PropOp33
 70
     1
102
RTVSPost2010Prop34
280
     0
102
RTVSPost2010PropOp34
 70
     1
102
RTVSPost2010Prop35
280
     0
102
RTVSPost2010PropOp35
 70
     1
102
RTVSPost2010Prop36
280
     0
102
RTVSPost2010PropOp36
 70
     1
102
RTVSPost2010Prop37
 90
       50
102
RTVSPost2010PropOp37
 70
     1
102
RTVSPost2010Prop38
140
0.0
102
RTVSPost2010PropOp38
 70
     1
102
RTVSPost2010Prop39
140
1.0
102
RTVSPost2010PropOp39
 70
     1
102
RTVSPost2010Prop40
 90
        0
102
RTVSPost2010PropOp40
 70
     1
102
RTVSPost2010Prop41ColorIndex
 90
       18
102
RTVSPost2010Prop41ColorRGB
 90
        0
102
RTVSPost2010PropOp41
 70
     1
102
RTVSPost2010Prop42
 90
       50
102
RTVSPost2010PropOp42
 70
     1
102
RTVSPost2010Prop43
 90
        3
102
RTVSPost2010PropOp43
 70
     1
102
RTVSPost2010Prop44ColorIndex
 90
        5
102
RTVSPost2010Prop44ColorRGB
 90
      255
102
RTVSPost2010PropOp44
 70
     1
102
RTVSPost2010Prop45
280
     0
102
RTVSPost2010PropOp45
 70
     1
102
RTVSPost2010Prop46
 90
       50
102
RTVSPost2010PropOp46
 70
     1
102
RTVSPost2010Prop47
 90
       50
102
RTVSPost2010PropOp47
 70
     1
102
RTVSPost2010Prop48
 90
       50
102
RTVSPost2010PropOp48
 70
     1
102
RTVSPost2010Prop49
280
     0
102
RTVSPost2010PropOp49
 70
     1
102
RTVSPost2010Prop50
 90
       50
102
RTVSPost2010PropOp50
 70
     1
102
RTVSPost2010Prop51ColorIndex
 90
      256
102
RTVSPost2010Prop51ColorRGB
 90
-16777216
102
RTVSPost2010PropOp51
 70
     0
102
RTVSPost2010Prop52
140
1.0
102
RTVSPost2010PropOp52
 70
     0
102
RTVSPost2010Prop53
 90
        2
102
RTVSPost2010PropOp53
 70
     1
102
RTVSPost2010Prop54
  1
strokes_ogs.tif
102
RTVSPost2010PropOp54
 70
     1
102
RTVSPost2010Prop55
280
     0
102
RTVSPost2010PropOp55
 70
     1
102
RTVSPost2010Prop56
140
1.0
102
RTVSPost2010PropOp56
 70
     1
102
RTVSPost2010Prop57
140
1.0
102
RTVSPost2010PropOp57
 70
     1
102
RTVSPropertyOp0
 70
     1
102
RTVSPropertyOp1
 70
     1
102
RTVSPropertyOp2
 70
     1
102
RTVSPropertyOp3
 70
     1
102
RTVSPropertyOp4
 70
     1
102
RTVSPropertyOp5
 70
     1
102
RTVSPropertyOp6
 70
     1
102
RTVSPropertyOp7
 70
     1
102
RTVSPropertyOp8
 70
     1
102
RTVSPropertyOp9
 70
     1
102
RTVSPropertyOp10
 70
     1
102
RTVSPropertyOp11
 70
     1
102
RTVSPropertyOp12
 70
     1
102
RTVSPropertyOp13
 70
     1
102
RTVSPropertyOp14
 70
     1
102
RTVSPropertyOp15
 70
     1
102
RTVSPropertyOp16
 70
     1
102
RTVSPropertyOp17
 70
     1
102
RTVSPropertyOp18
 70
     1
102
RTVSPropertyOp19
 70
     1
102
RTVSPropertyOp20
 70
     1
102
RTVSPropertyOp21
 70
     1
102
RTVSPropertyOp22
 70
     1
102
RTVSPropertyOp23
 70
     1
102
RTVSPropertyOp24
 70
     1
102
RTVSPropertyOp25
 70
     1
102
RTVSPropertyOp26
 70
     1
102
RTVSPropertyOp27
 70
     1
102
RTVSPropertyOp28
 70
     1
102
RTVSPropertyOp29
 70
     1
102
RTVSPropertyOp30
 70
     1
102
RTVSPropertyOp31
 70
     1
102
RTVSPropertyOp32
 70
     1
102
RTVSPropertyOp33
 70
     1
102
RTVSPropertyOp34
 70
     1
102
RTVSPropertyOp35
 70
     1
102
RTVSPropertyOp36
 70
     1
102
RTVSPropertyOp37
 70
     1
102
RTVSPropertyOp38
 70
     1
102
RTVSPropertyOp39
 70
     1
102
RTVSPropertyOp40
 70
     1
102
RTVSPropertyOp41
 70
     1
102
RTVSPropertyOp42
 70
     1
102
RTVSPropertyOp43
 70
     1
102
RTVSPropertyOp44
 70
     1
102
RTVSPropertyOp45
 70
     1
102
RTVSPropertyOp46
 70
     1
102
RTVSPropertyOp47
 70
     1
102
RTVSPropertyOp48
 70
     1
102
RTVSPropertyOp49
 70
     1
102
RTVSPropertyOp50
 70
     1
102
RTVSPropertyOp51
 70
     0
102
RTVSPropertyOp52
 70
     0
102
RTVSPropertyOp53
 70
     1
102
RTVSPropertyOp54
 70
     1
102
RTVSPropertyOp55
 70
     1
102
RTVSPropertyOp56
 70
     1
102
RTVSPropertyOp57
 70
     1
102
RTVSPropertyOp58
 70
     1
102
RTVSPropertyOp59
 70
     1
102
RTVSPropertyOp60
 70
     1
102
RTVSPropertyOp61
 70
     1
102
RTVSPropertyOp62
 70
     1
  0
XRECORD
  5
A25A
102
{ACAD_REACTORS
330
A259
102
}
330
A259
100
AcDbXrecord
280
     1
102
RTVSPost2010Prop28
280
     0
102
RTVSPost2010PropOp28
 70
     1
102
RTVSPost2010Prop29
280
     1
102
RTVSPost2010PropOp29
 70
     1
102
RTVSPost2010Prop30
280
     1
102
RTVSPost2010PropOp30
 70
     1
102
RTVSPost2010Prop31
280
     0
102
RTVSPost2010PropOp31
 70
     1
102
RTVSPost2010Prop32
280
     0
102
RTVSPost2010PropOp32
 70
     1
102
RTVSPost2010Prop33
280
     0
102
RTVSPost2010PropOp33
 70
     1
102
RTVSPost2010Prop34
280
     0
102
RTVSPost2010PropOp34
 70
     1
102
RTVSPost2010Prop35
280
     0
102
RTVSPost2010PropOp35
 70
     1
102
RTVSPost2010Prop36
280
     0
102
RTVSPost2010PropOp36
 70
     1
102
RTVSPost2010Prop37
 90
       50
102
RTVSPost2010PropOp37
 70
     1
102
RTVSPost2010Prop38
140
0.0
102
RTVSPost2010PropOp38
 70
     1
102
RTVSPost2010Prop39
140
1.0
102
RTVSPost2010PropOp39
 70
     1
102
RTVSPost2010Prop40
 90
        0
102
RTVSPost2010PropOp40
 70
     1
102
RTVSPost2010Prop41ColorIndex
 90
       18
102
RTVSPost2010Prop41ColorRGB
 90
        0
102
RTVSPost2010PropOp41
 70
     1
102
RTVSPost2010Prop42
 90
       50
102
RTVSPost2010PropOp42
 70
     1
102
RTVSPost2010Prop43
 90
        3
102
RTVSPost2010PropOp43
 70
     1
102
RTVSPost2010Prop44ColorIndex
 90
        5
102
RTVSPost2010Prop44ColorRGB
 90
      255
102
RTVSPost2010PropOp44
 70
     1
102
RTVSPost2010Prop45
280
     0
102
RTVSPost2010PropOp45
 70
     1
102
RTVSPost2010Prop46
 90
       50
102
RTVSPost2010PropOp46
 70
     1
102
RTVSPost2010Prop47
 90
       50
102
RTVSPost2010PropOp47
 70
     1
102
RTVSPost2010Prop48
 90
       50
102
RTVSPost2010PropOp48
 70
     1
102
RTVSPost2010Prop49
280
     0
102
RTVSPost2010PropOp49
 70
     1
102
RTVSPost2010Prop50
 90
       50
102
RTVSPost2010PropOp50
 70
     1
102
RTVSPost2010Prop51ColorIndex
 90
      256
102
RTVSPost2010Prop51ColorRGB
 90
-16777216
102
RTVSPost2010PropOp51
 70
     0
102
RTVSPost2010Prop52
140
1.0
102
RTVSPost2010PropOp52
 70
     0
102
RTVSPost2010Prop53
 90
        2
102
RTVSPost2010PropOp53
 70
     1
102
RTVSPost2010Prop54
  1
strokes_ogs.tif
102
RTVSPost2010PropOp54
 70
     1
102
RTVSPost2010Prop55
280
     0
102
RTVSPost2010PropOp55
 70
     1
102
RTVSPost2010Prop56
140
1.0
102
RTVSPost2010PropOp56
 70
     1
102
RTVSPost2010Prop57
140
1.0
102
RTVSPost2010PropOp57
 70
     1
102
RTVSPropertyOp0
 70
     1
102
RTVSPropertyOp1
 70
     1
102
RTVSPropertyOp2
 70
     1
102
RTVSPropertyOp3
 70
     1
102
RTVSPropertyOp4
 70
     1
102
RTVSPropertyOp5
 70
     1
102
RTVSPropertyOp6
 70
     1
102
RTVSPropertyOp7
 70
     1
102
RTVSPropertyOp8
 70
     1
102
RTVSPropertyOp9
 70
     1
102
RTVSPropertyOp10
 70
     1
102
RTVSPropertyOp11
 70
     1
102
RTVSPropertyOp12
 70
     1
102
RTVSPropertyOp13
 70
     1
102
RTVSPropertyOp14
 70
     1
102
RTVSPropertyOp15
 70
     1
102
RTVSPropertyOp16
 70
     1
102
RTVSPropertyOp17
 70
     1
102
RTVSPropertyOp18
 70
     1
102
RTVSPropertyOp19
 70
     1
102
RTVSPropertyOp20
 70
     1
102
RTVSPropertyOp21
 70
     1
102
RTVSPropertyOp22
 70
     1
102
RTVSPropertyOp23
 70
     1
102
RTVSPropertyOp24
 70
     1
102
RTVSPropertyOp25
 70
     1
102
RTVSPropertyOp26
 70
     1
102
RTVSPropertyOp27
 70
     1
102
RTVSPropertyOp28
 70
     1
102
RTVSPropertyOp29
 70
     1
102
RTVSPropertyOp30
 70
     1
102
RTVSPropertyOp31
 70
     1
102
RTVSPropertyOp32
 70
     1
102
RTVSPropertyOp33
 70
     1
102
RTVSPropertyOp34
 70
     1
102
RTVSPropertyOp35
 70
     1
102
RTVSPropertyOp36
 70
     1
102
RTVSPropertyOp37
 70
     1
102
RTVSPropertyOp38
 70
     1
102
RTVSPropertyOp39
 70
     1
102
RTVSPropertyOp40
 70
     1
102
RTVSPropertyOp41
 70
     1
102
RTVSPropertyOp42
 70
     1
102
RTVSPropertyOp43
 70
     1
102
RTVSPropertyOp44
 70
     1
102
RTVSPropertyOp45
 70
     1
102
RTVSPropertyOp46
 70
     1
102
RTVSPropertyOp47
 70
     1
102
RTVSPropertyOp48
 70
     1
102
RTVSPropertyOp49
 70
     1
102
RTVSPropertyOp50
 70
     1
102
RTVSPropertyOp51
 70
     0
102
RTVSPropertyOp52
 70
     0
102
RTVSPropertyOp53
 70
     1
102
RTVSPropertyOp54
 70
     1
102
RTVSPropertyOp55
 70
     1
102
RTVSPropertyOp56
 70
     1
102
RTVSPropertyOp57
 70
     1
102
RTVSPropertyOp58
 70
     1
102
RTVSPropertyOp59
 70
     1
102
RTVSPropertyOp60
 70
     1
102
RTVSPropertyOp61
 70
     1
102
RTVSPropertyOp62
 70
     1
  0
XRECORD
  5
A24E
102
{ACAD_REACTORS
330
A24D
102
}
330
A24D
100
AcDbXrecord
280
     1
102
RTVSPost2010Prop28
280
     0
102
RTVSPost2010PropOp28
 70
     1
102
RTVSPost2010Prop29
280
     1
102
RTVSPost2010PropOp29
 70
     1
102
RTVSPost2010Prop30
280
     1
102
RTVSPost2010PropOp30
 70
     1
102
RTVSPost2010Prop31
280
     0
102
RTVSPost2010PropOp31
 70
     1
102
RTVSPost2010Prop32
280
     0
102
RTVSPost2010PropOp32
 70
     1
102
RTVSPost2010Prop33
280
     0
102
RTVSPost2010PropOp33
 70
     1
102
RTVSPost2010Prop34
280
     0
102
RTVSPost2010PropOp34
 70
     1
102
RTVSPost2010Prop35
280
     0
102
RTVSPost2010PropOp35
 70
     1
102
RTVSPost2010Prop36
280
     0
102
RTVSPost2010PropOp36
 70
     1
102
RTVSPost2010Prop37
 90
       50
102
RTVSPost2010PropOp37
 70
     1
102
RTVSPost2010Prop38
140
0.0
102
RTVSPost2010PropOp38
 70
     1
102
RTVSPost2010Prop39
140
1.0
102
RTVSPost2010PropOp39
 70
     1
102
RTVSPost2010Prop40
 90
        0
102
RTVSPost2010PropOp40
 70
     1
102
RTVSPost2010Prop41ColorIndex
 90
       18
102
RTVSPost2010Prop41ColorRGB
 90
        0
102
RTVSPost2010PropOp41
 70
     1
102
RTVSPost2010Prop42
 90
       50
102
RTVSPost2010PropOp42
 70
     1
102
RTVSPost2010Prop43
 90
        3
102
RTVSPost2010PropOp43
 70
     1
102
RTVSPost2010Prop44ColorIndex
 90
        5
102
RTVSPost2010Prop44ColorRGB
 90
      255
102
RTVSPost2010PropOp44
 70
     1
102
RTVSPost2010Prop45
280
     0
102
RTVSPost2010PropOp45
 70
     1
102
RTVSPost2010Prop46
 90
       50
102
RTVSPost2010PropOp46
 70
     1
102
RTVSPost2010Prop47
 90
       50
102
RTVSPost2010PropOp47
 70
     1
102
RTVSPost2010Prop48
 90
       50
102
RTVSPost2010PropOp48
 70
     1
102
RTVSPost2010Prop49
280
     0
102
RTVSPost2010PropOp49
 70
     1
102
RTVSPost2010Prop50
 90
       50
102
RTVSPost2010PropOp50
 70
     1
102
RTVSPost2010Prop51ColorIndex
 90
      256
102
RTVSPost2010Prop51ColorRGB
 90
-16777216
102
RTVSPost2010PropOp51
 70
     0
102
RTVSPost2010Prop52
140
1.0
102
RTVSPost2010PropOp52
 70
     0
102
RTVSPost2010Prop53
 90
        2
102
RTVSPost2010PropOp53
 70
     1
102
RTVSPost2010Prop54
  1
strokes_ogs.tif
102
RTVSPost2010PropOp54
 70
     1
102
RTVSPost2010Prop55
280
     0
102
RTVSPost2010PropOp55
 70
     1
102
RTVSPost2010Prop56
140
1.0
102
RTVSPost2010PropOp56
 70
     1
102
RTVSPost2010Prop57
140
1.0
102
RTVSPost2010PropOp57
 70
     1
102
RTVSPropertyOp0
 70
     1
102
RTVSPropertyOp1
 70
     1
102
RTVSPropertyOp2
 70
     1
102
RTVSPropertyOp3
 70
     1
102
RTVSPropertyOp4
 70
     1
102
RTVSPropertyOp5
 70
     1
102
RTVSPropertyOp6
 70
     1
102
RTVSPropertyOp7
 70
     1
102
RTVSPropertyOp8
 70
     1
102
RTVSPropertyOp9
 70
     1
102
RTVSPropertyOp10
 70
     1
102
RTVSPropertyOp11
 70
     1
102
RTVSPropertyOp12
 70
     1
102
RTVSPropertyOp13
 70
     1
102
RTVSPropertyOp14
 70
     1
102
RTVSPropertyOp15
 70
     1
102
RTVSPropertyOp16
 70
     1
102
RTVSPropertyOp17
 70
     1
102
RTVSPropertyOp18
 70
     1
102
RTVSPropertyOp19
 70
     1
102
RTVSPropertyOp20
 70
     1
102
RTVSPropertyOp21
 70
     1
102
RTVSPropertyOp22
 70
     1
102
RTVSPropertyOp23
 70
     1
102
RTVSPropertyOp24
 70
     1
102
RTVSPropertyOp25
 70
     1
102
RTVSPropertyOp26
 70
     1
102
RTVSPropertyOp27
 70
     1
102
RTVSPropertyOp28
 70
     1
102
RTVSPropertyOp29
 70
     1
102
RTVSPropertyOp30
 70
     1
102
RTVSPropertyOp31
 70
     1
102
RTVSPropertyOp32
 70
     1
102
RTVSPropertyOp33
 70
     1
102
RTVSPropertyOp34
 70
     1
102
RTVSPropertyOp35
 70
     1
102
RTVSPropertyOp36
 70
     1
102
RTVSPropertyOp37
 70
     1
102
RTVSPropertyOp38
 70
     1
102
RTVSPropertyOp39
 70
     1
102
RTVSPropertyOp40
 70
     1
102
RTVSPropertyOp41
 70
     1
102
RTVSPropertyOp42
 70
     1
102
RTVSPropertyOp43
 70
     1
102
RTVSPropertyOp44
 70
     1
102
RTVSPropertyOp45
 70
     1
102
RTVSPropertyOp46
 70
     1
102
RTVSPropertyOp47
 70
     1
102
RTVSPropertyOp48
 70
     1
102
RTVSPropertyOp49
 70
     1
102
RTVSPropertyOp50
 70
     1
102
RTVSPropertyOp51
 70
     0
102
RTVSPropertyOp52
 70
     0
102
RTVSPropertyOp53
 70
     1
102
RTVSPropertyOp54
 70
     1
102
RTVSPropertyOp55
 70
     1
102
RTVSPropertyOp56
 70
     1
102
RTVSPropertyOp57
 70
     1
102
RTVSPropertyOp58
 70
     1
102
RTVSPropertyOp59
 70
     1
102
RTVSPropertyOp60
 70
     1
102
RTVSPropertyOp61
 70
     1
102
RTVSPropertyOp62
 70
     1
  0
XRECORD
  5
A266
102
{ACAD_REACTORS
330
A265
102
}
330
A265
100
AcDbXrecord
280
     1
102
RTVSPost2010Prop28
280
     0
102
RTVSPost2010PropOp28
 70
     1
102
RTVSPost2010Prop29
280
     1
102
RTVSPost2010PropOp29
 70
     1
102
RTVSPost2010Prop30
280
     1
102
RTVSPost2010PropOp30
 70
     1
102
RTVSPost2010Prop31
280
     0
102
RTVSPost2010PropOp31
 70
     1
102
RTVSPost2010Prop32
280
     0
102
RTVSPost2010PropOp32
 70
     1
102
RTVSPost2010Prop33
280
     0
102
RTVSPost2010PropOp33
 70
     1
102
RTVSPost2010Prop34
280
     0
102
RTVSPost2010PropOp34
 70
     1
102
RTVSPost2010Prop35
280
     0
102
RTVSPost2010PropOp35
 70
     1
102
RTVSPost2010Prop36
280
     0
102
RTVSPost2010PropOp36
 70
     1
102
RTVSPost2010Prop37
 90
       50
102
RTVSPost2010PropOp37
 70
     1
102
RTVSPost2010Prop38
140
0.0
102
RTVSPost2010PropOp38
 70
     1
102
RTVSPost2010Prop39
140
1.0
102
RTVSPost2010PropOp39
 70
     1
102
RTVSPost2010Prop40
 90
        0
102
RTVSPost2010PropOp40
 70
     1
102
RTVSPost2010Prop41ColorIndex
 90
       18
102
RTVSPost2010Prop41ColorRGB
 90
        0
102
RTVSPost2010PropOp41
 70
     1
102
RTVSPost2010Prop42
 90
       50
102
RTVSPost2010PropOp42
 70
     1
102
RTVSPost2010Prop43
 90
        3
102
RTVSPost2010PropOp43
 70
     1
102
RTVSPost2010Prop44ColorIndex
 90
        5
102
RTVSPost2010Prop44ColorRGB
 90
      255
102
RTVSPost2010PropOp44
 70
     1
102
RTVSPost2010Prop45
280
     0
102
RTVSPost2010PropOp45
 70
     1
102
RTVSPost2010Prop46
 90
       50
102
RTVSPost2010PropOp46
 70
     1
102
RTVSPost2010Prop47
 90
       50
102
RTVSPost2010PropOp47
 70
     1
102
RTVSPost2010Prop48
 90
       50
102
RTVSPost2010PropOp48
 70
     1
102
RTVSPost2010Prop49
280
     0
102
RTVSPost2010PropOp49
 70
     1
102
RTVSPost2010Prop50
 90
       50
102
RTVSPost2010PropOp50
 70
     1
102
RTVSPost2010Prop51ColorIndex
 90
      256
102
RTVSPost2010Prop51ColorRGB
 90
-16777216
102
RTVSPost2010PropOp51
 70
     0
102
RTVSPost2010Prop52
140
1.0
102
RTVSPost2010PropOp52
 70
     0
102
RTVSPost2010Prop53
 90
        2
102
RTVSPost2010PropOp53
 70
     1
102
RTVSPost2010Prop54
  1
strokes_ogs.tif
102
RTVSPost2010PropOp54
 70
     1
102
RTVSPost2010Prop55
280
     0
102
RTVSPost2010PropOp55
 70
     1
102
RTVSPost2010Prop56
140
1.0
102
RTVSPost2010PropOp56
 70
     1
102
RTVSPost2010Prop57
140
1.0
102
RTVSPost2010PropOp57
 70
     1
102
RTVSPropertyOp0
 70
     1
102
RTVSPropertyOp1
 70
     1
102
RTVSPropertyOp2
 70
     1
102
RTVSPropertyOp3
 70
     1
102
RTVSPropertyOp4
 70
     1
102
RTVSPropertyOp5
 70
     1
102
RTVSPropertyOp6
 70
     1
102
RTVSPropertyOp7
 70
     1
102
RTVSPropertyOp8
 70
     1
102
RTVSPropertyOp9
 70
     1
102
RTVSPropertyOp10
 70
     1
102
RTVSPropertyOp11
 70
     1
102
RTVSPropertyOp12
 70
     1
102
RTVSPropertyOp13
 70
     1
102
RTVSPropertyOp14
 70
     1
102
RTVSPropertyOp15
 70
     1
102
RTVSPropertyOp16
 70
     1
102
RTVSPropertyOp17
 70
     1
102
RTVSPropertyOp18
 70
     1
102
RTVSPropertyOp19
 70
     1
102
RTVSPropertyOp20
 70
     1
102
RTVSPropertyOp21
 70
     1
102
RTVSPropertyOp22
 70
     1
102
RTVSPropertyOp23
 70
     1
102
RTVSPropertyOp24
 70
     1
102
RTVSPropertyOp25
 70
     1
102
RTVSPropertyOp26
 70
     1
102
RTVSPropertyOp27
 70
     1
102
RTVSPropertyOp28
 70
     1
102
RTVSPropertyOp29
 70
     1
102
RTVSPropertyOp30
 70
     1
102
RTVSPropertyOp31
 70
     1
102
RTVSPropertyOp32
 70
     1
102
RTVSPropertyOp33
 70
     1
102
RTVSPropertyOp34
 70
     1
102
RTVSPropertyOp35
 70
     1
102
RTVSPropertyOp36
 70
     1
102
RTVSPropertyOp37
 70
     1
102
RTVSPropertyOp38
 70
     1
102
RTVSPropertyOp39
 70
     1
102
RTVSPropertyOp40
 70
     1
102
RTVSPropertyOp41
 70
     1
102
RTVSPropertyOp42
 70
     1
102
RTVSPropertyOp43
 70
     1
102
RTVSPropertyOp44
 70
     1
102
RTVSPropertyOp45
 70
     1
102
RTVSPropertyOp46
 70
     1
102
RTVSPropertyOp47
 70
     1
102
RTVSPropertyOp48
 70
     1
102
RTVSPropertyOp49
 70
     1
102
RTVSPropertyOp50
 70
     1
102
RTVSPropertyOp51
 70
     0
102
RTVSPropertyOp52
 70
     0
102
RTVSPropertyOp53
 70
     1
102
RTVSPropertyOp54
 70
     1
102
RTVSPropertyOp55
 70
     1
102
RTVSPropertyOp56
 70
     1
102
RTVSPropertyOp57
 70
     1
102
RTVSPropertyOp58
 70
     1
102
RTVSPropertyOp59
 70
     1
102
RTVSPropertyOp60
 70
     1
102
RTVSPropertyOp61
 70
     1
102
RTVSPropertyOp62
 70
     1
  0
ENDSEC
  0
EOF
