  0
SECTION
  2
HEADER
  9
$ACADVER
  1
AC1015
  9
$ACADMAINTVER
 70
    20
  9
$DWGCODEPAGE
  3
ANSI_932
  9
$INSBASE
 10
0.0
 20
0.0
 30
0.0
  9
$EXTMIN
 10
10.0
 20
9.999999999999998
 30
0.0
  9
$EXTMAX
 10
400.436667
 20
317.1377669012676
 30
0.0
  9
$LIMMIN
 10
0.0
 20
0.0
  9
$LIMMAX
 10
494.9999999638298
 20
341.2499998956191
  9
$ORTHOMODE
 70
     1
  9
$REGENMODE
 70
     1
  9
$FILLMODE
 70
     1
  9
$QTEXTMODE
 70
     0
  9
$MIRRTEXT
 70
     1
  9
$LTSCALE
 40
20.0
  9
$ATTMODE
 70
     1
  9
$TEXTSIZE
 40
5.0
  9
$TRACEWID
 40
1.0
  9
$TEXTSTYLE
  7
STANDARD
  9
$CLAYER
  8
0
  9
$CELTYPE
  6
BYLAYER
  9
$CECOLOR
 62
   256
  9
$CELTSCALE
 40
1.0
  9
$DISPSILH
 70
     0
  9
$DIMSCALE
 40
1.0
  9
$DIMASZ
 40
2.5
  9
$DIMEXO
 40
1.0
  9
$DIMDLI
 40
10.0
  9
$DIMRND
 40
0.0
  9
$DIMDLE
 40
0.0
  9
$DIMEXE
 40
1.0
  9
$DIMTP
 40
0.0
  9
$DIMTM
 40
0.0
  9
$DIMTXT
 40
3.2
  9
$DIMCEN
 40
0.0
  9
$DIMTSZ
 40
0.0
  9
$DIMTOL
 70
     0
  9
$DIMLIM
 70
     0
  9
$DIMTIH
 70
     0
  9
$DIMTOH
 70
     0
  9
$DIMSE1
 70
     0
  9
$DIMSE2
 70
     0
  9
$DIMTAD
 70
     3
  9
$DIMZIN
 70
     8
  9
$DIMBLK
  1

  9
$DIMASO
 70
     1
  9
$DIMSHO
 70
     1
  9
$DIMPOST
  1

  9
$DIMAPOST
  1

  9
$DIMALT
 70
     0
  9
$DIMALTD
 70
     2
  9
$DIMALTF
 40
25.4
  9
$DIMLFAC
 40
1.0
  9
$DIMTOFL
 70
     1
  9
$DIMTVP
 40
0.0
  9
$DIMTIX
 70
     0
  9
$DIMSOXD
 70
     0
  9
$DIMSAH
 70
     1
  9
$DIMBLK1
  1

  9
$DIMBLK2
  1

  9
$DIMSTYLE
  2
STANDARD
  9
$DIMCLRD
 70
     0
  9
$DIMCLRE
 70
     0
  9
$DIMCLRT
 70
     0
  9
$DIMTFAC
 40
1.0
  9
$DIMGAP
 40
1.0
  9
$DIMJUST
 70
     0
  9
$DIMSD1
 70
     0
  9
$DIMSD2
 70
     0
  9
$DIMTOLJ
 70
     1
  9
$DIMTZIN
 70
     0
  9
$DIMALTZ
 70
     0
  9
$DIMALTTZ
 70
     0
  9
$DIMUPT
 70
     0
  9
$DIMDEC
 70
     4
  9
$DIMTDEC
 70
     4
  9
$DIMALTU
 70
     2
  9
$DIMALTTD
 70
     2
  9
$DIMTXSTY
  7
STANDARD
  9
$DIMAUNIT
 70
     0
  9
$DIMADEC
 70
     0
  9
$DIMALTRND
 40
0.0
  9
$DIMAZIN
 70
     0
  9
$DIMDSEP
 70
    46
  9
$DIMATFIT
 70
     3
  9
$DIMFRAC
 70
     0
  9
$DIMLDRBLK
  1

  9
$DIMLUNIT
 70
     2
  9
$DIMLWD
 70
    -2
  9
$DIMLWE
 70
    -2
  9
$DIMTMOVE
 70
     0
  9
$LUNITS
 70
     2
  9
$LUPREC
 70
     4
  9
$SKETCHINC
 40
1.0
  9
$FILLETRAD
 40
5.0
  9
$AUNITS
 70
     0
  9
$AUPREC
 70
     2
  9
$MENU
  1
.
  9
$ELEVATION
 40
0.0
  9
$PELEVATION
 40
0.0
  9
$THICKNESS
 40
0.0
  9
$LIMCHECK
 70
     0
  9
$CHAMFERA
 40
10.0
  9
$CHAMFERB
 40
10.0
  9
$CHAMFERC
 40
0.0
  9
$CHAMFERD
 40
0.0
  9
$SKPOLY
 70
     0
  9
$TDCREATE
 40
2451301.454390162
  9
$TDUCREATE
 40
2451301.079390162
  9
$TDUPDATE
 40
2457192.690185509
  9
$TDUUPDATE
 40
2457192.315185509
  9
$TDINDWG
 40
0.1105580093
  9
$TDUSRTIMER
 40
0.1105573148
  9
$USRTIMER
 70
     1
  9
$ANGBASE
 50
0.0
  9
$ANGDIR
 70
     0
  9
$PDMODE
 70
     0
  9
$PDSIZE
 40
0.0
  9
$PLINEWID
 40
0.0
  9
$SPLFRAME
 70
     0
  9
$SPLINETYPE
 70
     6
  9
$SPLINESEGS
 70
     8
  9
$HANDSEED
  5
9AA0
  9
$SURFTAB1
 70
     6
  9
$SURFTAB2
 70
     6
  9
$SURFTYPE
 70
     6
  9
$SURFU
 70
     6
  9
$SURFV
 70
     6
  9
$UCSBASE
  2

  9
$UCSNAME
  2

  9
$UCSORG
 10
0.0
 20
0.0
 30
0.0
  9
$UCSXDIR
 10
1.0
 20
0.0
 30
0.0
  9
$UCSYDIR
 10
0.0
 20
1.0
 30
0.0
  9
$UCSORTHOREF
  2

  9
$UCSORTHOVIEW
 70
     0
  9
$UCSORGTOP
 10
0.0
 20
0.0
 30
0.0
  9
$UCSORGBOTTOM
 10
0.0
 20
0.0
 30
0.0
  9
$UCSORGLEFT
 10
0.0
 20
0.0
 30
0.0
  9
$UCSORGRIGHT
 10
0.0
 20
0.0
 30
0.0
  9
$UCSORGFRONT
 10
0.0
 20
0.0
 30
0.0
  9
$UCSORGBACK
 10
0.0
 20
0.0
 30
0.0
  9
$PUCSBASE
  2

  9
$PUCSNAME
  2

  9
$PUCSORG
 10
0.0
 20
0.0
 30
0.0
  9
$PUCSXDIR
 10
1.0
 20
0.0
 30
0.0
  9
$PUCSYDIR
 10
0.0
 20
1.0
 30
0.0
  9
$PUCSORTHOREF
  2

  9
$PUCSORTHOVIEW
 70
     0
  9
$PUCSORGTOP
 10
0.0
 20
0.0
 30
0.0
  9
$PUCSORGBOTTOM
 10
0.0
 20
0.0
 30
0.0
  9
$PUCSORGLEFT
 10
0.0
 20
0.0
 30
0.0
  9
$PUCSORGRIGHT
 10
0.0
 20
0.0
 30
0.0
  9
$PUCSORGFRONT
 10
0.0
 20
0.0
 30
0.0
  9
$PUCSORGBACK
 10
0.0
 20
0.0
 30
0.0
  9
$USERI1
 70
     0
  9
$USERI2
 70
     0
  9
$USERI3
 70
     0
  9
$USERI4
 70
     0
  9
$USERI5
 70
     0
  9
$USERR1
 40
0.0
  9
$USERR2
 40
0.0
  9
$USERR3
 40
0.0
  9
$USERR4
 40
0.0
  9
$USERR5
 40
0.0
  9
$WORLDVIEW
 70
     1
  9
$SHADEDGE
 70
     3
  9
$SHADEDIF
 70
    70
  9
$TILEMODE
 70
     1
  9
$MAXACTVP
 70
    16
  9
$PINSBASE
 10
0.0
 20
0.0
 30
0.0
  9
$PLIMCHECK
 70
     0
  9
$PEXTMIN
 10
1.000000000000000E+20
 20
1.000000000000000E+20
 30
1.000000000000000E+20
  9
$PEXTMAX
 10
-1.000000000000000E+20
 20
-1.000000000000000E+20
 30
-1.000000000000000E+20
  9
$PLIMMIN
 10
0.0
 20
0.0
  9
$PLIMMAX
 10
420.0
 20
297.0
  9
$UNITMODE
 70
     0
  9
$VISRETAIN
 70
     0
  9
$PLINEGEN
 70
     0
  9
$PSLTSCALE
 70
     0
  9
$TREEDEPTH
 70
  3020
  9
$CMLSTYLE
  2
STANDARD
  9
$CMLJUST
 70
     0
  9
$CMLSCALE
 40
1.0
  9
$PROXYGRAPHICS
 70
     1
  9
$MEASUREMENT
 70
     0
  9
$CELWEIGHT
370
    -1
  9
$ENDCAPS
280
     0
  9
$JOINSTYLE
280
     0
  9
$LWDISPLAY
290
     0
  9
$INSUNITS
 70
     0
  9
$HYPERLINKBASE
  1

  9
$STYLESHEET
  1

  9
$XEDIT
290
     1
  9
$CEPSNTYPE
380
     0
  9
$PSTYLEMODE
290
     1
  9
$FINGERPRINTGUID
  2
{985808AD-5DB0-406B-8A41-28CF8072C382}
  9
$VERSIONGUID
  2
{2CDE104E-8576-4136-865F-F3791B7ED258}
  9
$EXTNAMES
290
     1
  9
$PSVPSCALE
 40
0.0
  9
$OLESTARTUP
290
     0
  0
ENDSEC
  0
SECTION
  2
CLASSES
  0
CLASS
  1
ACDBDICTIONARYWDFLT
  2
AcDbDictionaryWithDefault
  3
ObjectDBX Classes
 90
        0
280
     0
281
     0
  0
CLASS
  1
ACDBPLACEHOLDER
  2
AcDbPlaceHolder
  3
ObjectDBX Classes
 90
        0
280
     0
281
     0
  0
CLASS
  1
LAYOUT
  2
AcDbLayout
  3
ObjectDBX Classes
 90
        0
280
     0
281
     0
  0
CLASS
  1
DICTIONARYVAR
  2
AcDbDictionaryVar
  3
ObjectDBX Classes
 90
        0
280
     0
281
     0
  0
CLASS
  1
MATERIAL
  2
AcDbMaterial
  3
ObjectDBX Classes
 90
     1153
280
     0
281
     0
  0
CLASS
  1
VISUALSTYLE
  2
AcDbVisualStyle
  3
ObjectDBX Classes
 90
     4095
280
     0
281
     0
  0
CLASS
  1
TABLESTYLE
  2
AcDbTableStyle
  3
ObjectDBX Classes
 90
     4095
280
     0
281
     0
  0
CLASS
  1
SCALE
  2
AcDbScale
  3
ObjectDBX Classes
 90
     1153
280
     0
281
     0
  0
CLASS
  1
MLEADERSTYLE
  2
AcDbMLeaderStyle
  3
ACDB_MLEADERSTYLE_CLASS
 90
     4095
280
     0
281
     0
  0
CLASS
  1
ACDBSECTIONVIEWSTYLE
  2
AcDbSectionViewStyle
  3
ObjectDBX Classes
 90
     1025
280
     0
281
     0
  0
CLASS
  1
ACDBDETAILVIEWSTYLE
  2
AcDbDetailViewStyle
  3
ObjectDBX Classes
 90
     1025
280
     0
281
     0
  0
CLASS
  1
CELLSTYLEMAP
  2
AcDbCellStyleMap
  3
ObjectDBX Classes
 90
     1152
280
     0
281
     0
  0
ENDSEC
  0
SECTION
  2
TABLES
  0
TABLE
  2
VPORT
  5
97E2
330
0
100
AcDbSymbolTable
 70
     1
  0
VPORT
  5
99EB
330
97E2
100
AcDbSymbolTableRecord
100
AcDbViewportTableRecord
  2
*ACTIVE
 70
     0
 10
0.0
 20
0.0
 11
1.0
 21
1.0
 12
323.4488638366587
 22
163.5694320412201
 13
0.0
 23
0.0
 14
10.0
 24
10.0
 15
10.0
 25
10.0
 16
0.0
 26
0.0
 36
1.0
 17
0.0
 27
0.0
 37
0.0
 40
309.5895570110806
 41
2.35006605019815
 42
50.0
 43
0.0
 44
0.0
 50
0.0
 51
0.0
 71
     0
 72
   100
 73
     1
 74
     0
 75
     0
 76
     0
 77
     0
 78
     0
281
     0
 65
     1
110
0.0
120
0.0
130
0.0
111
1.0
121
0.0
131
0.0
112
0.0
122
1.0
132
0.0
 79
     0
146
0.0
1001
ACAD_NAV_VCDISPLAY
1070
     3
  0
ENDTAB
  0
TABLE
  2
LTYPE
  5
97DF
330
0
100
AcDbSymbolTable
 70
     4
  0
LTYPE
  5
97ED
330
97DF
100
AcDbSymbolTableRecord
100
AcDbLinetypeTableRecord
  2
BYBLOCK
 70
     0
  3

 72
    65
 73
     0
 40
0.0
  0
LTYPE
  5
97EE
330
97DF
100
AcDbSymbolTableRecord
100
AcDbLinetypeTableRecord
  2
BYLAYER
 70
     0
  3

 72
    65
 73
     0
 40
0.0
  0
LTYPE
  5
97EF
330
97DF
100
AcDbSymbolTableRecord
100
AcDbLinetypeTableRecord
  2
CONTINUOUS
 70
     0
  3
Solid line
 72
    65
 73
     0
 40
0.0
  0
LTYPE
  5
97FD
330
97DF
100
AcDbSymbolTableRecord
100
AcDbLinetypeTableRecord
  2
DASHED
 70
     0
  3
__ __ __ __ __ __ __ __ __ __ __ __ __ __ __ __
 72
    65
 73
     2
 40
0.75
 49
0.5
 74
     0
 49
-0.25
 74
     0
  0
LTYPE
  5
97FE
330
97DF
100
AcDbSymbolTableRecord
100
AcDbLinetypeTableRecord
  2
CENTER
 70
     0
  3
____ _ ____ _ ____ _ ____ _ ____ _ ____ _ ____ 
 72
    65
 73
     4
 40
2.0
 49
1.25
 74
     0
 49
-0.25
 74
     0
 49
0.25
 74
     0
 49
-0.25
 74
     0
  0
LTYPE
  5
97FF
330
97DF
100
AcDbSymbolTableRecord
100
AcDbLinetypeTableRecord
  2
PHANTOM
 70
     0
  3
______  __  __  ______  __  __  ______  __  __ 
 72
    65
 73
     6
 40
2.5
 49
1.25
 74
     0
 49
-0.25
 74
     0
 49
0.25
 74
     0
 49
-0.25
 74
     0
 49
0.25
 74
     0
 49
-0.25
 74
     0
  0
ENDTAB
  0
TABLE
  2
LAYER
  5
97DC
330
0
100
AcDbSymbolTable
 70
     8
  0
LAYER
  5
97EA
102
{ACAD_XDICTIONARY
360
9A44
102
}
330
97DC
100
AcDbSymbolTableRecord
100
AcDbLayerTableRecord
  2
0
 70
     0
 62
     7
  6
CONTINUOUS
370
    -3
390
99F2
  0
LAYER
  5
9800
102
{ACAD_XDICTIONARY
360
9A46
102
}
330
97DC
100
AcDbSymbolTableRecord
100
AcDbLayerTableRecord
  2
4
 70
     0
 62
     1
  6
CENTER
370
    -3
390
99F2
  0
LAYER
  5
9801
102
{ACAD_XDICTIONARY
360
9A48
102
}
330
97DC
100
AcDbSymbolTableRecord
100
AcDbLayerTableRecord
  2
5
 70
     0
 62
     6
  6
PHANTOM
370
    -3
390
99F2
  0
LAYER
  5
9802
102
{ACAD_XDICTIONARY
360
9A4A
102
}
330
97DC
100
AcDbSymbolTableRecord
100
AcDbLayerTableRecord
  2
1
 70
     0
 62
     7
  6
CONTINUOUS
370
    -3
390
99F2
  0
LAYER
  5
9803
102
{ACAD_XDICTIONARY
360
9A4C
102
}
330
97DC
100
AcDbSymbolTableRecord
100
AcDbLayerTableRecord
  2
2
 70
     0
 62
     4
  6
CONTINUOUS
370
    -3
390
99F2
  0
LAYER
  5
9804
102
{ACAD_XDICTIONARY
360
9A4E
102
}
330
97DC
100
AcDbSymbolTableRecord
100
AcDbLayerTableRecord
  2
3
 70
     0
 62
     2
  6
DASHED
370
    -3
390
99F2
  0
LAYER
  5
9805
102
{ACAD_XDICTIONARY
360
9A50
102
}
330
97DC
100
AcDbSymbolTableRecord
100
AcDbLayerTableRecord
  2
6
 70
     0
 62
     5
  6
CONTINUOUS
370
    -3
390
99F2
  0
LAYER
  5
9806
102
{ACAD_XDICTIONARY
360
9A52
102
}
330
97DC
100
AcDbSymbolTableRecord
100
AcDbLayerTableRecord
  2
7
 70
     0
 62
     3
  6
CONTINUOUS
370
    -3
390
99F2
  0
ENDTAB
  0
TABLE
  2
STYLE
  5
97DD
330
0
100
AcDbSymbolTable
 70
     1
  0
STYLE
  5
97EB
330
97DD
100
AcDbSymbolTableRecord
100
AcDbTextStyleTableRecord
  2
STANDARD
 70
     0
 40
0.0
 41
1.0
 50
0.0
 71
     0
 42
5.0
  3
txt
  4

  0
ENDTAB
  0
TABLE
  2
VIEW
  5
97E0
330
0
100
AcDbSymbolTable
 70
     0
  0
ENDTAB
  0
TABLE
  2
UCS
  5
97E1
330
0
100
AcDbSymbolTable
 70
     0
  0
ENDTAB
  0
TABLE
  2
APPID
  5
97E3
330
0
100
AcDbSymbolTable
 70
     3
  0
APPID
  5
97EC
330
97E3
100
AcDbSymbolTableRecord
100
AcDbRegAppTableRecord
  2
ACAD
 70
     0
  0
APPID
  5
9A5E
330
97E3
100
AcDbSymbolTableRecord
100
AcDbRegAppTableRecord
  2
ACAD_NAV_VCDISPLAY
 70
     0
  0
APPID
  5
9A97
330
97E3
100
AcDbSymbolTableRecord
100
AcDbRegAppTableRecord
  2
ACAD_MLEADERVER
 70
     0
  0
ENDTAB
  0
TABLE
  2
DIMSTYLE
  5
97E4
330
0
100
AcDbSymbolTable
 70
     1
100
AcDbDimStyleTable
 71
     0
  0
DIMSTYLE
105
9808
330
97E4
100
AcDbSymbolTableRecord
100
AcDbDimStyleTableRecord
  2
STANDARD
 70
     0
 41
2.5
 42
1.0
 43
10.0
 44
1.0
 73
     0
 74
     0
 77
     3
 78
     8
140
3.2
141
0.0
147
1.0
172
     1
173
     1
284
     8
285
     8
286
     8
340
97EB
  0
ENDTAB
  0
TABLE
  2
BLOCK_RECORD
  5
97DB
330
0
100
AcDbSymbolTable
 70
     0
  0
BLOCK_RECORD
  5
97F8
102
{ACAD_XDICTIONARY
360
99AE
102
}
330
97DB
100
AcDbSymbolTableRecord
100
AcDbBlockTableRecord
  2
*MODEL_SPACE
340
9A40
  0
BLOCK_RECORD
  5
97F4
102
{ACAD_XDICTIONARY
360
99AC
102
}
330
97DB
100
AcDbSymbolTableRecord
100
AcDbBlockTableRecord
  2
*PAPER_SPACE
340
9A41
  0
ENDTAB
  0
ENDSEC
  0
SECTION
  2
BLOCKS
  0
BLOCK
  5
97F9
330
97F8
100
AcDbEntity
  8
0
100
AcDbBlockBegin
  2
*MODEL_SPACE
 70
     0
 10
0.0
 20
0.0
 30
0.0
  3
*MODEL_SPACE
  1

  0
ENDBLK
  5
97FA
330
97F8
100
AcDbEntity
  8
0
100
AcDbBlockEnd
  0
BLOCK
  5
97F5
330
97F4
100
AcDbEntity
 67
     1
  8
0
100
AcDbBlockBegin
  2
*PAPER_SPACE
 70
     0
 10
0.0
 20
0.0
 30
0.0
  3
*PAPER_SPACE
  1

  0
ENDBLK
  5
97F6
330
97F4
100
AcDbEntity
 67
     1
  8
0
100
AcDbBlockEnd
  0
ENDSEC
  0
SECTION
  2
ENTITIES
  0
TEXT
  5
9810
330
97F8
100
AcDbEntity
  8
7
  6
Continuous
100
AcDbText
 10
10.0
 20
18.0
 30
0.0
 40
3.0
  1
TYPE No.TCA-420ER-N65
100
AcDbText
  0
TEXT
  5
9811
330
97F8
100
AcDbEntity
  8
7
  6
Continuous
100
AcDbText
 10
10.0
 20
26.0
 30
0.0
 40
3.0
  1
CODE No.9796
100
AcDbText
  0
TEXT
  5
9812
330
97F8
100
AcDbEntity
  8
1
  6
Continuous
100
AcDbText
 10
10.0
 20
10.0
 30
0.0
 40
1.399999999999999
  1
LAYER
100
AcDbText
  0
TEXT
  5
9813
330
97F8
100
AcDbEntity
  8
1
  6
Continuous
100
AcDbText
 10
17.97951099999998
 20
10.04873699999998
 30
0.0
 40
1.399999999999999
  1
1
100
AcDbText
  0
TEXT
  5
9814
330
97F8
100
AcDbEntity
  8
7
  6
Continuous
100
AcDbText
 10
29.97951099999999
 20
10.04873699999998
 30
0.0
 40
1.399999999999999
  1
7
100
AcDbText
  0
TEXT
  5
9815
330
97F8
100
AcDbEntity
  8
4
  6
CENTER
100
AcDbText
 10
23.97951099999999
 20
10.04873699999998
 30
0.0
 40
1.399999999999999
  1
4
100
AcDbText
  0
TEXT
  5
9816
330
97F8
100
AcDbEntity
  8
3
  6
DASHED
100
AcDbText
 10
21.979511
 20
10.04873699999998
 30
0.0
 40
1.399999999999999
  1
3
100
AcDbText
  0
TEXT
  5
9817
330
97F8
100
AcDbEntity
  8
2
  6
Continuous
100
AcDbText
 10
19.97951099999998
 20
10.04873699999998
 30
0.0
 40
1.399999999999999
  1
2
100
AcDbText
  0
TEXT
  5
9818
330
97F8
100
AcDbEntity
  8
6
  6
Continuous
100
AcDbText
 10
27.979511
 20
10.04873699999998
 30
0.0
 40
1.399999999999999
  1
6
100
AcDbText
  0
TEXT
  5
9819
330
97F8
100
AcDbEntity
  8
5
  6
PHANTOM
100
AcDbText
 10
25.97951099999999
 20
10.04873699999998
 30
0.0
 40
1.399999999999999
  1
5
100
AcDbText
  0
LINE
  5
981A
330
97F8
100
AcDbEntity
  8
4
  6
CENTER
 48
0.8
100
AcDbLine
 10
61.93666700000001
 20
225.2377669012675
 30
0.0
 11
61.93666700000001
 21
213.2021029012675
 31
0.0
  0
LINE
  5
981B
330
97F8
100
AcDbEntity
  8
4
  6
CENTER
 48
0.8
100
AcDbLine
 10
47.936667
 20
225.3297999012676
 30
0.0
 11
47.936667
 21
133.2377669012676
 31
0.0
  0
LINE
  5
981C
330
97F8
100
AcDbEntity
  8
1
  6
Continuous
100
AcDbLine
 10
26.96266700000001
 20
217.9377669012676
 30
0.0
 11
68.91067099999998
 21
217.9377669012676
 31
0.0
  0
LINE
  5
981D
330
97F8
100
AcDbEntity
  8
1
  6
Continuous
100
AcDbLine
 10
26.96266700000001
 20
220.2377669012676
 30
0.0
 11
26.96266700000001
 21
217.9377669012676
 31
0.0
  0
LINE
  5
981E
330
97F8
100
AcDbEntity
  8
1
  6
Continuous
100
AcDbLine
 10
34.936667
 20
217.9377669012676
 30
0.0
 11
34.936667
 21
163.2377669012676
 31
0.0
  0
LINE
  5
981F
330
97F8
100
AcDbEntity
  8
1
  6
Continuous
100
AcDbLine
 10
60.93666699999999
 20
217.9377669012676
 30
0.0
 11
60.93666699999999
 21
163.2377669012676
 31
0.0
  0
LINE
  5
9820
330
97F8
100
AcDbEntity
  8
1
  6
Continuous
100
AcDbLine
 10
32.63666699999999
 20
163.2377669012676
 30
0.0
 11
34.936667
 21
163.2377669012676
 31
0.0
  0
LINE
  5
9821
330
97F8
100
AcDbEntity
  8
1
  6
Continuous
100
AcDbLine
 10
63.23667
 20
163.2377669012676
 30
0.0
 11
60.93666699999999
 21
163.2377669012676
 31
0.0
  0
LINE
  5
9822
330
97F8
100
AcDbEntity
  8
4
  6
CENTER
 48
0.8
100
AcDbLine
 10
21.03666700000002
 20
170.7377669012676
 30
0.0
 11
70.73666999999999
 21
170.7377669012676
 31
0.0
  0
LINE
  5
9823
330
97F8
100
AcDbEntity
  8
1
  6
Continuous
100
AcDbLine
 10
32.63666699999999
 20
215.9377669012676
 30
0.0
 11
32.63666699999999
 21
163.2377669012676
 31
0.0
  0
LINE
  5
9824
330
97F8
100
AcDbEntity
  8
1
  6
Continuous
100
AcDbLine
 10
63.23667
 20
215.9377669012676
 30
0.0
 11
63.23667
 21
163.2377669012676
 31
0.0
  0
LINE
  5
9825
330
97F8
100
AcDbEntity
  8
1
  6
Continuous
100
AcDbLine
 10
68.91066699999999
 20
220.2377669012676
 30
0.0
 11
68.91066699999999
 21
217.9377669012676
 31
0.0
  0
LINE
  5
9826
330
97F8
100
AcDbEntity
  8
1
  6
Continuous
100
AcDbLine
 10
65.73666999999999
 20
174.2377669012675
 30
0.0
 11
65.73666999999999
 21
167.2377669012675
 31
0.0
  0
LINE
  5
9827
330
97F8
100
AcDbEntity
  8
1
  6
Continuous
100
AcDbLine
 10
63.23667
 20
176.2377669012676
 30
0.0
 11
63.73667000000001
 21
176.2377669012676
 31
0.0
  0
LINE
  5
9828
330
97F8
100
AcDbEntity
  8
1
  6
Continuous
100
AcDbLine
 10
63.23667
 20
165.2377669012676
 30
0.0
 11
63.73667000000001
 21
165.2377669012676
 31
0.0
  0
LINE
  5
9829
330
97F8
100
AcDbEntity
  8
4
  6
CENTER
 48
0.8
100
AcDbLine
 10
33.936667
 20
225.2377669012675
 30
0.0
 11
33.936667
 21
213.2021029012675
 31
0.0
  0
LINE
  5
982A
330
97F8
100
AcDbEntity
  8
1
  6
Continuous
100
AcDbLine
 10
26.96266700000001
 20
220.2377669012676
 30
0.0
 11
68.91067099999998
 21
220.2377669012676
 31
0.0
  0
LINE
  5
982B
330
97F8
100
AcDbEntity
  8
1
  6
Continuous
100
AcDbLine
 10
117.936686
 20
217.9377669012676
 30
0.0
 11
132.9366709999999
 21
217.9377669012676
 31
0.0
  0
LINE
  5
982C
330
97F8
100
AcDbEntity
  8
1
  6
Continuous
100
AcDbLine
 10
117.9366669999997
 20
217.9377789012675
 30
0.0
 11
117.9366669999997
 21
220.2377779012676
 31
0.0
  0
LINE
  5
982D
330
97F8
100
AcDbEntity
  8
1
  6
Continuous
100
AcDbLine
 10
187.9366669999998
 20
217.9377559012676
 30
0.0
 11
187.9366669999998
 21
220.2377549012676
 31
0.0
  0
LINE
  5
982E
330
97F8
100
AcDbEntity
  8
4
  6
CENTER
 48
0.8
100
AcDbLine
 10
152.9366669999998
 20
225.2377669012675
 30
0.0
 11
152.9366669999998
 21
133.2377669012676
 31
0.0
  0
LINE
  5
982F
330
97F8
100
AcDbEntity
  8
4
  6
CENTER
 48
0.8
100
AcDbLine
 10
124.9366669999998
 20
225.2377669012675
 30
0.0
 11
124.9366669999998
 21
213.2021069012675
 31
0.0
  0
LINE
  5
9830
330
97F8
100
AcDbEntity
  8
1
  6
Continuous
100
AcDbLine
 10
172.936675
 20
217.9377579012676
 30
0.0
 11
169.4366709999999
 21
213.2377579012675
 31
0.0
  0
LINE
  5
9831
330
97F8
100
AcDbEntity
  8
1
  6
Continuous
100
AcDbLine
 10
169.4366819999999
 20
213.2377589012675
 30
0.0
 11
159.777272
 21
168.7524189012676
 31
0.0
  0
LINE
  5
9832
330
97F8
100
AcDbEntity
  8
1
  6
Continuous
100
AcDbLine
 10
132.9366819999999
 20
217.9377629012676
 30
0.0
 11
136.436679
 21
213.2377649012676
 31
0.0
  0
LINE
  5
9833
330
97F8
100
AcDbEntity
  8
1
  6
Continuous
100
AcDbLine
 10
136.436667
 20
213.2377739012674
 30
0.0
 11
146.0960659999998
 21
168.7524189012676
 31
0.0
  0
LINE
  5
9834
330
97F8
100
AcDbEntity
  8
4
  6
CENTER
 48
0.8
100
AcDbLine
 10
190.4366669999998
 20
170.7377669012676
 30
0.0
 11
115.4366669999998
 21
170.7377669012676
 31
0.0
  0
LINE
  5
9835
330
97F8
100
AcDbEntity
  8
4
  6
CENTER
 48
0.8
100
AcDbLine
 10
180.9366669999998
 20
225.2377669012675
 30
0.0
 11
180.9366669999998
 21
213.2020989012674
 31
0.0
  0
LINE
  5
9836
330
97F8
100
AcDbEntity
  8
1
  6
Continuous
100
AcDbLine
 10
117.936686
 20
220.2377669012676
 30
0.0
 11
187.936686
 21
220.2377669012676
 31
0.0
  0
LINE
  5
9837
330
97F8
100
AcDbEntity
  8
1
  6
Continuous
100
AcDbLine
 10
172.936675
 20
217.9377669012676
 30
0.0
 11
187.936686
 21
217.9377669012676
 31
0.0
  0
LINE
  5
9838
330
97F8
100
AcDbEntity
  8
1
  6
Continuous
100
AcDbLine
 10
34.936667
 20
173.9877669012676
 30
0.0
 11
35.93666699999999
 21
173.9877669012676
 31
0.0
  0
LINE
  5
9839
330
97F8
100
AcDbEntity
  8
1
  6
Continuous
100
AcDbLine
 10
34.936667
 20
167.4877669012676
 30
0.0
 11
35.93666699999999
 21
167.4877669012676
 31
0.0
  0
LINE
  5
983A
330
97F8
100
AcDbEntity
  8
1
  6
Continuous
100
AcDbLine
 10
32.23666700000001
 20
176.3377649012675
 30
0.0
 11
29.03666700000002
 21
176.3377649012675
 31
0.0
  0
LINE
  5
983B
330
97F8
100
AcDbEntity
  8
1
  6
Continuous
100
AcDbLine
 10
32.23666700000001
 20
173.7377669012676
 30
0.0
 11
29.03666700000002
 21
173.7377669012676
 31
0.0
  0
LINE
  5
983C
330
97F8
100
AcDbEntity
  8
1
  6
Continuous
100
AcDbLine
 10
28.03666699999996
 20
174.5377699012675
 30
0.0
 11
28.03666699999996
 21
166.9377719012675
 31
0.0
  0
LINE
  5
983D
330
97F8
100
AcDbEntity
  8
1
  6
Continuous
100
AcDbLine
 10
32.23666700000001
 20
165.1377689012676
 30
0.0
 11
29.03666700000002
 21
165.1377689012676
 31
0.0
  0
LINE
  5
983E
330
97F8
100
AcDbEntity
  8
1
  6
Continuous
100
AcDbLine
 10
32.15986700000001
 20
167.7377669012676
 30
0.0
 11
29.03666700000002
 21
167.7377669012676
 31
0.0
  0
LINE
  5
983F
330
97F8
100
AcDbEntity
  8
1
  6
Continuous
100
AcDbLine
 10
28.036677
 20
166.9376909012676
 30
0.0
 11
29.03667699999999
 21
165.1377689012676
 31
0.0
  0
LINE
  5
9840
330
97F8
100
AcDbEntity
  8
1
  6
Continuous
100
AcDbLine
 10
28.03666699999996
 20
174.5377969012676
 30
0.0
 11
29.03665699999999
 21
176.3377649012675
 31
0.0
  0
LINE
  5
9841
330
97F8
100
AcDbEntity
  8
4
  6
CENTER
 48
0.8
100
AcDbLine
 10
152.9366669999998
 20
317.1377669012676
 30
0.0
 11
152.9366669999998
 21
267.4377639012676
 31
0.0
  0
LINE
  5
9842
330
97F8
100
AcDbEntity
  8
4
  6
CENTER
 48
0.8
100
AcDbLine
 10
115.1610399999997
 20
290.2377669012676
 30
0.0
 11
191.0382519999997
 21
290.2377669012676
 31
0.0
  0
LINE
  5
9843
330
97F8
100
AcDbEntity
  8
1
  6
Continuous
100
AcDbLine
 10
117.9366669999997
 20
307.7377669012675
 30
0.0
 11
117.9366669999997
 21
290.2377669012676
 31
0.0
  0
LINE
  5
9844
330
97F8
100
AcDbEntity
  8
1
  6
Continuous
100
AcDbLine
 10
121.4366669999998
 20
311.2377669012676
 30
0.0
 11
129.436667
 21
311.2377669012676
 31
0.0
  0
LINE
  5
9845
330
97F8
100
AcDbEntity
  8
1
  6
Continuous
100
AcDbLine
 10
137.936667
 20
305.5377699012675
 30
0.0
 11
167.936667
 21
305.5377699012675
 31
0.0
  0
LINE
  5
9846
330
97F8
100
AcDbEntity
  8
1
  6
Continuous
100
AcDbLine
 10
133.9155669999997
 20
307.5661059012677
 30
0.0
 11
132.251436
 21
309.8179209012674
 31
0.0
  0
LINE
  5
9847
330
97F8
100
AcDbEntity
  8
4
  6
CENTER
 48
0.8
100
AcDbLine
 10
129.9366669999998
 20
304.2377669012675
 30
0.0
 11
119.9366669999997
 21
304.2377669012675
 31
0.0
  0
LINE
  5
9848
330
97F8
100
AcDbEntity
  8
4
  6
CENTER
 48
0.8
100
AcDbLine
 10
124.9366669999998
 20
309.2377669012676
 30
0.0
 11
124.9366669999998
 21
299.2377669012674
 31
0.0
  0
LINE
  5
9849
330
97F8
100
AcDbEntity
  8
1
  6
Continuous
100
AcDbLine
 10
187.9366669999998
 20
307.7377669012675
 30
0.0
 11
187.9366669999998
 21
290.2377669012676
 31
0.0
  0
LINE
  5
984A
330
97F8
100
AcDbEntity
  8
1
  6
Continuous
100
AcDbLine
 10
184.436667
 20
311.2377669012676
 30
0.0
 11
176.436667
 21
311.2377669012676
 31
0.0
  0
LINE
  5
984B
330
97F8
100
AcDbEntity
  8
1
  6
Continuous
100
AcDbLine
 10
171.957762
 20
307.5661059012677
 30
0.0
 11
173.6218969999999
 21
309.8179289012676
 31
0.0
  0
LINE
  5
984C
330
97F8
100
AcDbEntity
  8
4
  6
CENTER
 48
0.8
100
AcDbLine
 10
175.936667
 20
304.2377669012675
 30
0.0
 11
185.9366669999998
 21
304.2377669012675
 31
0.0
  0
LINE
  5
984D
330
97F8
100
AcDbEntity
  8
4
  6
CENTER
 48
0.8
100
AcDbLine
 10
180.9366669999998
 20
309.2377669012676
 30
0.0
 11
180.9366669999998
 21
299.2377669012674
 31
0.0
  0
LINE
  5
984E
330
97F8
100
AcDbEntity
  8
1
  6
Continuous
100
AcDbLine
 10
117.9366669999997
 20
272.7377669012674
 30
0.0
 11
117.9366669999997
 21
290.2377669012676
 31
0.0
  0
LINE
  5
984F
330
97F8
100
AcDbEntity
  8
1
  6
Continuous
100
AcDbLine
 10
121.4366669999998
 20
269.2377669012676
 30
0.0
 11
129.436667
 21
269.2377669012676
 31
0.0
  0
LINE
  5
9850
330
97F8
100
AcDbEntity
  8
1
  6
Continuous
100
AcDbLine
 10
137.936667
 20
274.9377679012677
 30
0.0
 11
167.9366699999999
 21
274.9377679012677
 31
0.0
  0
LINE
  5
9851
330
97F8
100
AcDbEntity
  8
1
  6
Continuous
100
AcDbLine
 10
133.9155719999998
 20
272.9094209012675
 30
0.0
 11
132.2514379999997
 21
270.6576009012675
 31
0.0
  0
LINE
  5
9852
330
97F8
100
AcDbEntity
  8
4
  6
CENTER
 48
0.8
100
AcDbLine
 10
129.9366669999998
 20
276.2377669012674
 30
0.0
 11
119.9366669999997
 21
276.2377669012674
 31
0.0
  0
LINE
  5
9853
330
97F8
100
AcDbEntity
  8
4
  6
CENTER
 48
0.8
100
AcDbLine
 10
124.9366669999998
 20
271.2377669012676
 30
0.0
 11
124.9366669999998
 21
281.2377669012675
 31
0.0
  0
LINE
  5
9854
330
97F8
100
AcDbEntity
  8
1
  6
Continuous
100
AcDbLine
 10
187.9366669999998
 20
272.7377669012674
 30
0.0
 11
187.9366669999998
 21
290.2377669012676
 31
0.0
  0
LINE
  5
9855
330
97F8
100
AcDbEntity
  8
1
  6
Continuous
100
AcDbLine
 10
184.436667
 20
269.2377669012676
 30
0.0
 11
176.436667
 21
269.2377669012676
 31
0.0
  0
LINE
  5
9856
330
97F8
100
AcDbEntity
  8
1
  6
Continuous
100
AcDbLine
 10
171.957758
 20
272.9094279012675
 30
0.0
 11
173.6218969999999
 21
270.6576009012675
 31
0.0
  0
LINE
  5
9857
330
97F8
100
AcDbEntity
  8
4
  6
CENTER
 48
0.8
100
AcDbLine
 10
175.936667
 20
276.2377669012674
 30
0.0
 11
185.9366669999998
 21
276.2377669012674
 31
0.0
  0
LINE
  5
9858
330
97F8
100
AcDbEntity
  8
4
  6
CENTER
 48
0.8
100
AcDbLine
 10
180.9366669999998
 20
271.2377669012676
 30
0.0
 11
180.9366669999998
 21
281.2377669012675
 31
0.0
  0
LINE
  5
9859
330
97F8
100
AcDbEntity
  8
1
  6
Continuous
100
AcDbLine
 10
155.436667
 20
304.5377699012676
 30
0.0
 11
155.436667
 21
302.2377669012675
 31
0.0
  0
LINE
  5
985A
330
97F8
100
AcDbEntity
  8
1
  6
Continuous
100
AcDbLine
 10
155.436667
 20
275.9377639012676
 30
0.0
 11
155.436667
 21
278.2377669012674
 31
0.0
  0
LINE
  5
985B
330
97F8
100
AcDbEntity
  8
1
  6
Continuous
100
AcDbLine
 10
150.436667
 20
275.9377639012676
 30
0.0
 11
150.436667
 21
278.2377669012674
 31
0.0
  0
LINE
  5
985C
330
97F8
100
AcDbEntity
  8
1
  6
Continuous
100
AcDbLine
 10
150.436667
 20
276.4377639012674
 30
0.0
 11
155.436667
 21
276.4377639012674
 31
0.0
  0
LINE
  5
985D
330
97F8
100
AcDbEntity
  8
1
  6
Continuous
100
AcDbLine
 10
150.436667
 20
304.5377699012676
 30
0.0
 11
150.436667
 21
302.2377669012675
 31
0.0
  0
LINE
  5
985E
330
97F8
100
AcDbEntity
  8
1
  6
Continuous
100
AcDbLine
 10
150.436667
 20
304.0377699012675
 30
0.0
 11
155.436667
 21
304.0377699012675
 31
0.0
  0
LINE
  5
985F
330
97F8
100
AcDbEntity
  8
1
  6
Continuous
100
AcDbLine
 10
155.436667
 20
207.7377669012676
 30
0.0
 11
155.436667
 21
219.2377669012676
 31
0.0
  0
LINE
  5
9860
330
97F8
100
AcDbEntity
  8
1
  6
Continuous
100
AcDbLine
 10
155.436667
 20
218.7377659012676
 30
0.0
 11
150.436667
 21
218.7377659012676
 31
0.0
  0
LINE
  5
9861
330
97F8
100
AcDbEntity
  8
1
  6
Continuous
100
AcDbLine
 10
150.436667
 20
207.7377669012676
 30
0.0
 11
150.436667
 21
219.2377669012676
 31
0.0
  0
LINE
  5
9862
330
97F8
100
AcDbEntity
  8
1
  6
Continuous
100
AcDbLine
 10
59.23667
 20
214.9377659012676
 30
0.0
 11
59.23667
 21
205.2377669012676
 31
0.0
  0
LINE
  5
9863
330
97F8
100
AcDbEntity
  8
1
  6
Continuous
100
AcDbLine
 10
36.63666399999999
 20
214.9377659012676
 30
0.0
 11
36.63666399999999
 21
205.2377669012676
 31
0.0
  0
LINE
  5
9864
330
97F8
100
AcDbEntity
  8
1
  6
Continuous
100
AcDbLine
 10
59.93666700000001
 20
173.9877669012676
 30
0.0
 11
60.93666699999999
 21
173.9877669012676
 31
0.0
  0
LINE
  5
9865
330
97F8
100
AcDbEntity
  8
1
  6
Continuous
100
AcDbLine
 10
59.93666700000001
 20
167.4877669012676
 30
0.0
 11
60.93666699999999
 21
167.4877669012676
 31
0.0
  0
ARC
  5
9866
330
97F8
100
AcDbEntity
  8
1
  6
Continuous
100
AcDbCircle
 10
64.936667
 20
213.9377669012676
 30
0.0
 40
4.0
100
AcDbArc
 50
89.99998199999996
 51
179.9999599999999
  0
ARC
  5
9867
330
97F8
100
AcDbEntity
  8
1
  6
Continuous
100
AcDbCircle
 10
65.23666999999999
 20
215.9377669012676
 30
0.0
 40
2.0
100
AcDbArc
 50
89.99998199999996
 51
179.9999599999999
  0
ARC
  5
9868
330
97F8
100
AcDbEntity
  8
1
  6
Continuous
100
AcDbCircle
 10
63.73667000000001
 20
167.2377669012675
 30
0.0
 40
2.0
100
AcDbArc
 50
269.99998
 51
0.000014
  0
ARC
  5
9869
330
97F8
100
AcDbEntity
  8
1
  6
Continuous
100
AcDbCircle
 10
63.73667000000001
 20
174.2377669012675
 30
0.0
 40
2.0
100
AcDbArc
 50
0.000014
 51
89.99999599999998
  0
ARC
  5
986A
330
97F8
100
AcDbEntity
  8
1
  6
Continuous
100
AcDbCircle
 10
30.93666699999999
 20
213.9377669012676
 30
0.0
 40
4.0
100
AcDbArc
 50
0.000027
 51
90.00000900000001
  0
ARC
  5
986B
330
97F8
100
AcDbEntity
  8
1
  6
Continuous
100
AcDbCircle
 10
30.63666699999998
 20
215.9377669012676
 30
0.0
 40
2.0
100
AcDbArc
 50
0.000027
 51
90.00000900000001
  0
ARC
  5
986C
330
97F8
100
AcDbEntity
  8
1
  6
Continuous
100
AcDbCircle
 10
152.9366669999998
 20
170.2377669012675
 30
0.0
 40
7.0
100
AcDbArc
 50
269.9999899999999
 51
347.7491499999999
  0
ARC
  5
986D
330
97F8
100
AcDbEntity
  8
1
  6
Continuous
100
AcDbCircle
 10
152.9366669999998
 20
170.2377669012675
 30
0.0
 40
7.0
100
AcDbArc
 50
192.25085
 51
270.0000499999998
  0
CIRCLE
  5
986E
330
97F8
100
AcDbEntity
  8
1
  6
Continuous
100
AcDbCircle
 10
152.9366669999998
 20
170.7377669012676
 30
0.0
 40
5.5
  0
ARC
  5
986F
330
97F8
100
AcDbEntity
  8
1
  6
Continuous
100
AcDbCircle
 10
30.32416699999998
 20
166.4377639012675
 30
0.0
 40
2.3125
100
AcDbArc
 50
325.79449
 51
34.20541
  0
ARC
  5
9870
330
97F8
100
AcDbEntity
  8
1
  6
Continuous
100
AcDbCircle
 10
21.18666699999999
 20
170.7377669012676
 30
0.0
 40
11.450001
100
AcDbArc
 50
344.8107199999999
 51
15.189285
  0
ARC
  5
9871
330
97F8
100
AcDbEntity
  8
1
  6
Continuous
100
AcDbCircle
 10
30.32416699999998
 20
175.0377699012676
 30
0.0
 40
2.3125
100
AcDbArc
 50
325.79455
 51
34.205461
  0
ARC
  5
9872
330
97F8
100
AcDbEntity
  8
1
  6
Continuous
100
AcDbCircle
 10
30.94916699999998
 20
175.0377699012676
 30
0.0
 40
2.312498999999998
100
AcDbArc
 50
145.7945499999999
 51
214.2054299999998
  0
ARC
  5
9873
330
97F8
100
AcDbEntity
  8
1
  6
Continuous
100
AcDbCircle
 10
40.08666099999999
 20
170.7377669012676
 30
0.0
 40
11.44999799999999
100
AcDbArc
 50
164.81073
 51
195.1892499999999
  0
ARC
  5
9874
330
97F8
100
AcDbEntity
  8
1
  6
Continuous
100
AcDbCircle
 10
30.94916699999998
 20
166.4377719012676
 30
0.0
 40
2.312498999999998
100
AcDbArc
 50
145.7945499999999
 51
214.2054299999998
  0
CIRCLE
  5
9875
330
97F8
100
AcDbEntity
  8
1
  6
Continuous
100
AcDbCircle
 10
152.9366669999998
 20
290.2377669012676
 30
0.0
 40
5.5
  0
ARC
  5
9876
330
97F8
100
AcDbEntity
  8
1
  6
Continuous
100
AcDbCircle
 10
121.4366669999998
 20
307.7377669012675
 30
0.0
 40
3.5
100
AcDbArc
 50
89.99998199999996
 51
179.9999599999999
  0
ARC
  5
9877
330
97F8
100
AcDbEntity
  8
1
  6
Continuous
100
AcDbCircle
 10
129.436667
 20
307.7377669012675
 30
0.0
 40
3.5
100
AcDbArc
 50
36.465031
 51
89.99998199999996
  0
ARC
  5
9878
330
97F8
100
AcDbEntity
  8
1
  6
Continuous
100
AcDbCircle
 10
137.936667
 20
310.5377699012676
 30
0.0
 40
5.0
100
AcDbArc
 50
216.46501
 51
270.00002
  0
CIRCLE
  5
9879
330
97F8
100
AcDbEntity
  8
1
  6
Continuous
100
AcDbCircle
 10
124.9366669999998
 20
304.2377669012675
 30
0.0
 40
3.25
  0
ARC
  5
987A
330
97F8
100
AcDbEntity
  8
1
  6
Continuous
100
AcDbCircle
 10
184.436667
 20
307.7377669012675
 30
0.0
 40
3.5
100
AcDbArc
 50
0.0
 51
89.99998199999996
  0
ARC
  5
987B
330
97F8
100
AcDbEntity
  8
1
  6
Continuous
100
AcDbCircle
 10
176.436667
 20
307.7377669012675
 30
0.0
 40
3.5
100
AcDbArc
 50
89.99998199999996
 51
143.5349399999997
  0
ARC
  5
987C
330
97F8
100
AcDbEntity
  8
1
  6
Continuous
100
AcDbCircle
 10
167.936667
 20
310.5377699012676
 30
0.0
 40
5.0
100
AcDbArc
 50
269.9999599999998
 51
323.5349699999998
  0
CIRCLE
  5
987D
330
97F8
100
AcDbEntity
  8
1
  6
Continuous
100
AcDbCircle
 10
180.9366669999998
 20
304.2377669012675
 30
0.0
 40
3.25
  0
ARC
  5
987E
330
97F8
100
AcDbEntity
  8
1
  6
Continuous
100
AcDbCircle
 10
121.4366669999998
 20
272.7377669012674
 30
0.0
 40
3.5
100
AcDbArc
 50
179.9999799999999
 51
269.99997
  0
ARC
  5
987F
330
97F8
100
AcDbEntity
  8
1
  6
Continuous
100
AcDbCircle
 10
129.436667
 20
272.7377669012674
 30
0.0
 40
3.5
100
AcDbArc
 50
269.9999599999998
 51
323.53491
  0
ARC
  5
9880
330
97F8
100
AcDbEntity
  8
1
  6
Continuous
100
AcDbCircle
 10
137.936667
 20
269.9377639012676
 30
0.0
 40
5.0
100
AcDbArc
 50
89.99992699999998
 51
143.5349399999997
  0
CIRCLE
  5
9881
330
97F8
100
AcDbEntity
  8
1
  6
Continuous
100
AcDbCircle
 10
124.9366669999998
 20
276.2377669012674
 30
0.0
 40
3.25
  0
ARC
  5
9882
330
97F8
100
AcDbEntity
  8
1
  6
Continuous
100
AcDbCircle
 10
184.436667
 20
272.7377669012674
 30
0.0
 40
3.5
100
AcDbArc
 50
269.9999599999998
 51
359.99995
  0
ARC
  5
9883
330
97F8
100
AcDbEntity
  8
1
  6
Continuous
100
AcDbCircle
 10
176.436667
 20
272.7377669012674
 30
0.0
 40
3.5
100
AcDbArc
 50
216.46501
 51
269.9999599999998
  0
ARC
  5
9884
330
97F8
100
AcDbEntity
  8
1
  6
Continuous
100
AcDbCircle
 10
167.936667
 20
269.9377639012676
 30
0.0
 40
5.0
100
AcDbArc
 50
36.464959
 51
89.99996800000003
  0
CIRCLE
  5
9885
330
97F8
100
AcDbEntity
  8
1
  6
Continuous
100
AcDbCircle
 10
180.9366669999998
 20
276.2377669012674
 30
0.0
 40
3.25
  0
ARC
  5
9886
330
97F8
100
AcDbEntity
  8
1
  6
Continuous
100
AcDbCircle
 10
149.4366669999998
 20
304.5377699012676
 30
0.0
 40
1.0
100
AcDbArc
 50
359.9999899999998
 51
89.99999599999998
  0
ARC
  5
9887
330
97F8
100
AcDbEntity
  8
1
  6
Continuous
100
AcDbCircle
 10
152.9366669999998
 20
302.2377669012675
 30
0.0
 40
2.499998999999998
100
AcDbArc
 50
179.9999899999999
 51
0.00001
  0
ARC
  5
9888
330
97F8
100
AcDbEntity
  8
1
  6
Continuous
100
AcDbCircle
 10
156.436667
 20
275.9377639012676
 30
0.0
 40
1.0
100
AcDbArc
 50
179.9999899999999
 51
270.0
  0
ARC
  5
9889
330
97F8
100
AcDbEntity
  8
1
  6
Continuous
100
AcDbCircle
 10
149.4366669999998
 20
275.9377639012676
 30
0.0
 40
1.0
100
AcDbArc
 50
270.0
 51
0.000005
  0
ARC
  5
988A
330
97F8
100
AcDbEntity
  8
1
  6
Continuous
100
AcDbCircle
 10
156.436667
 20
304.5377699012676
 30
0.0
 40
1.0
100
AcDbArc
 50
89.99999599999998
 51
180.00001
  0
ARC
  5
988B
330
97F8
100
AcDbEntity
  8
1
  6
Continuous
100
AcDbCircle
 10
152.9366669999998
 20
278.2377669012674
 30
0.0
 40
2.499998999999998
100
AcDbArc
 50
359.9999899999998
 51
180.00001
  0
ARC
  5
988C
330
97F8
100
AcDbEntity
  8
1
  6
Continuous
100
AcDbCircle
 10
156.436667
 20
219.2377669012676
 30
0.0
 40
1.0
100
AcDbArc
 50
89.99999599999998
 51
180.00001
  0
ARC
  5
988D
330
97F8
100
AcDbEntity
  8
1
  6
Continuous
100
AcDbCircle
 10
149.4366669999998
 20
219.2377669012676
 30
0.0
 40
1.0
100
AcDbArc
 50
0.0
 51
90.00000300000001
  0
ARC
  5
988E
330
97F8
100
AcDbEntity
  8
1
  6
Continuous
100
AcDbCircle
 10
56.23667000000001
 20
214.9377659012676
 30
0.0
 40
3.0
100
AcDbArc
 50
0.0
 51
90.00000300000001
  0
ARC
  5
988F
330
97F8
100
AcDbEntity
  8
1
  6
Continuous
100
AcDbCircle
 10
39.63666399999999
 20
214.9377659012676
 30
0.0
 40
3.0
100
AcDbArc
 50
90.00000300000001
 51
180.00001
  0
ARC
  5
9890
330
97F8
100
AcDbEntity
  8
1
  6
Continuous
100
AcDbCircle
 10
152.9366669999998
 20
207.7377669012676
 30
0.0
 40
2.5
100
AcDbArc
 50
179.9999899999999
 51
0.00001
  0
ARC
  5
9891
330
97F8
100
AcDbEntity
  8
1
  6
Continuous
100
AcDbCircle
 10
64.23666999999999
 20
205.2377669012676
 30
0.0
 40
5.0
100
AcDbArc
 50
179.9999899999999
 51
228.70007
  0
ARC
  5
9892
330
97F8
100
AcDbEntity
  8
1
  6
Continuous
100
AcDbCircle
 10
31.63666699999998
 20
205.2377669012676
 30
0.0
 40
5.0
100
AcDbArc
 50
311.2999199999998
 51
0.0
  0
CIRCLE
  5
9893
330
97F8
100
AcDbEntity
  8
1
  6
Continuous
100
AcDbCircle
 10
124.9366669999998
 20
82.23776690126767
 30
0.0
 40
3.25
  0
LINE
  5
9894
330
97F8
100
AcDbEntity
  8
1
  6
Continuous
100
AcDbLine
 10
121.4366669999998
 20
89.23776690126755
 30
0.0
 11
129.436667
 21
89.23776690126755
 31
0.0
  0
CIRCLE
  5
9895
330
97F8
100
AcDbEntity
  8
1
  6
Continuous
100
AcDbCircle
 10
124.9366669999998
 20
54.23776690126764
 30
0.0
 40
3.25
  0
LINE
  5
9896
330
97F8
100
AcDbEntity
  8
1
  6
Continuous
100
AcDbLine
 10
121.4366669999998
 20
47.23776690126765
 30
0.0
 11
129.436667
 21
47.23776690126765
 31
0.0
  0
LINE
  5
9897
330
97F8
100
AcDbEntity
  8
4
  6
CENTER
 48
0.8
100
AcDbLine
 10
129.9366669999998
 20
54.23776690126764
 30
0.0
 11
119.9366669999997
 21
54.23776690126764
 31
0.0
  0
LINE
  5
9898
330
97F8
100
AcDbEntity
  8
4
  6
CENTER
 48
0.8
100
AcDbLine
 10
129.9366669999998
 20
82.23776690126767
 30
0.0
 11
119.9366669999997
 21
82.23776690126767
 31
0.0
  0
LINE
  5
9899
330
97F8
100
AcDbEntity
  8
4
  6
CENTER
 48
0.8
100
AcDbLine
 10
112.9366669999998
 20
68.23776690126763
 30
0.0
 11
192.936667
 21
68.23776690126763
 31
0.0
  0
ARC
  5
989A
330
97F8
100
AcDbEntity
  8
1
  6
Continuous
100
AcDbCircle
 10
121.4366669999998
 20
85.73776690126758
 30
0.0
 40
3.5
100
AcDbArc
 50
90.00003000000004
 51
180.00002
  0
LINE
  5
989B
330
97F8
100
AcDbEntity
  8
4
  6
CENTER
 48
0.8
100
AcDbLine
 10
124.9366669999998
 20
87.2377669012676
 30
0.0
 11
124.9366669999998
 21
77.23776690126769
 31
0.0
  0
ARC
  5
989C
330
97F8
100
AcDbEntity
  8
1
  6
Continuous
100
AcDbCircle
 10
121.4366669999998
 20
50.73776690126766
 30
0.0
 40
3.5
100
AcDbArc
 50
180.0000399999998
 51
270.0000179999999
  0
LINE
  5
989D
330
97F8
100
AcDbEntity
  8
4
  6
CENTER
 48
0.8
100
AcDbLine
 10
124.9366669999998
 20
49.23776690126765
 30
0.0
 11
124.9366669999998
 21
59.23776690126764
 31
0.0
  0
LINE
  5
989E
330
97F8
100
AcDbEntity
  8
1
  6
Continuous
100
AcDbLine
 10
117.9366669999997
 20
50.73776690126766
 30
0.0
 11
117.9366669999997
 21
85.73776690126758
 31
0.0
  0
LINE
  5
989F
330
97F8
100
AcDbEntity
  8
4
  6
CENTER
 48
0.8
100
AcDbLine
 10
152.9366669999998
 20
41.33776690126765
 30
0.0
 11
152.9366669999998
 21
91.03776990126759
 31
0.0
  0
LINE
  5
98A0
330
97F8
100
AcDbEntity
  8
1
  6
Continuous
100
AcDbLine
 10
167.936667
 20
83.53776590126765
 30
0.0
 11
152.9366669999998
 21
83.53776590126765
 31
0.0
  0
LINE
  5
98A1
330
97F8
100
AcDbEntity
  8
1
  6
Continuous
100
AcDbLine
 10
137.936667
 20
83.53776590126765
 30
0.0
 11
152.9366669999998
 21
83.53776590126765
 31
0.0
  0
ARC
  5
98A2
330
97F8
100
AcDbEntity
  8
1
  6
Continuous
100
AcDbCircle
 10
129.436667
 20
85.73776690126758
 30
0.0
 40
3.5
100
AcDbArc
 50
36.46509
 51
90.00004000000002
  0
LINE
  5
98A3
330
97F8
100
AcDbEntity
  8
1
  6
Continuous
100
AcDbLine
 10
133.9155719999998
 20
85.56611290126745
 30
0.0
 11
132.2514379999997
 21
87.81793290126769
 31
0.0
  0
ARC
  5
98A4
330
97F8
100
AcDbEntity
  8
1
  6
Continuous
100
AcDbCircle
 10
137.936667
 20
88.53776990126766
 30
0.0
 40
5.0
100
AcDbArc
 50
216.4650599999999
 51
270.0000729999998
  0
ARC
  5
98A5
330
97F8
100
AcDbEntity
  8
1
  6
Continuous
100
AcDbCircle
 10
176.436667
 20
85.73776690126758
 30
0.0
 40
3.5
100
AcDbArc
 50
90.00004000000002
 51
143.53499
  0
LINE
  5
98A6
330
97F8
100
AcDbEntity
  8
1
  6
Continuous
100
AcDbLine
 10
171.957758
 20
85.56610590126767
 30
0.0
 11
173.6218969999999
 21
87.81793290126769
 31
0.0
  0
ARC
  5
98A7
330
97F8
100
AcDbEntity
  8
1
  6
Continuous
100
AcDbCircle
 10
167.936667
 20
88.53776990126766
 30
0.0
 40
5.0
100
AcDbArc
 50
270.000032
 51
323.5350409999998
  0
LINE
  5
98A8
330
97F8
100
AcDbEntity
  8
4
  6
CENTER
 48
0.8
100
AcDbLine
 10
175.936667
 20
82.23776690126767
 30
0.0
 11
185.9366669999998
 21
82.23776690126767
 31
0.0
  0
ARC
  5
98A9
330
97F8
100
AcDbEntity
  8
1
  6
Continuous
100
AcDbCircle
 10
184.436667
 20
85.73776690126758
 30
0.0
 40
3.5
100
AcDbArc
 50
0.00005
 51
90.00004000000002
  0
LINE
  5
98AA
330
97F8
100
AcDbEntity
  8
1
  6
Continuous
100
AcDbLine
 10
184.436667
 20
89.23776690126755
 30
0.0
 11
176.436667
 21
89.23776690126755
 31
0.0
  0
CIRCLE
  5
98AB
330
97F8
100
AcDbEntity
  8
1
  6
Continuous
100
AcDbCircle
 10
180.9366669999998
 20
82.23776690126767
 30
0.0
 40
3.25
  0
LINE
  5
98AC
330
97F8
100
AcDbEntity
  8
4
  6
CENTER
 48
0.8
100
AcDbLine
 10
180.9366669999998
 20
87.2377669012676
 30
0.0
 11
180.9366669999998
 21
77.23776690126769
 31
0.0
  0
LINE
  5
98AD
330
97F8
100
AcDbEntity
  8
1
  6
Continuous
100
AcDbLine
 10
167.936667
 20
52.93776390126767
 30
0.0
 11
152.9366669999998
 21
52.93776390126767
 31
0.0
  0
ARC
  5
98AE
330
97F8
100
AcDbEntity
  8
1
  6
Continuous
100
AcDbCircle
 10
129.436667
 20
50.73776690126766
 30
0.0
 40
3.5
100
AcDbArc
 50
270.0000179999999
 51
323.534969
  0
LINE
  5
98AF
330
97F8
100
AcDbEntity
  8
1
  6
Continuous
100
AcDbLine
 10
137.936667
 20
52.93776390126767
 30
0.0
 11
152.9366669999998
 21
52.93776390126767
 31
0.0
  0
ARC
  5
98B0
330
97F8
100
AcDbEntity
  8
1
  6
Continuous
100
AcDbCircle
 10
137.936667
 20
47.93776390126767
 30
0.0
 40
5.0
100
AcDbArc
 50
89.99997999999996
 51
143.53499
  0
LINE
  5
98B1
330
97F8
100
AcDbEntity
  8
1
  6
Continuous
100
AcDbLine
 10
133.9155669999997
 20
50.90942790126764
 30
0.0
 11
132.251436
 21
48.65761290126767
 31
0.0
  0
ARC
  5
98B2
330
97F8
100
AcDbEntity
  8
1
  6
Continuous
100
AcDbCircle
 10
184.436667
 20
50.73776690126766
 30
0.0
 40
3.5
100
AcDbArc
 50
270.0000179999999
 51
0.0
  0
ARC
  5
98B3
330
97F8
100
AcDbEntity
  8
1
  6
Continuous
100
AcDbCircle
 10
176.436667
 20
50.73776690126766
 30
0.0
 40
3.5
100
AcDbArc
 50
216.4650599999999
 51
270.0000179999999
  0
ARC
  5
98B4
330
97F8
100
AcDbEntity
  8
1
  6
Continuous
100
AcDbCircle
 10
167.936667
 20
47.93776390126767
 30
0.0
 40
5.0
100
AcDbArc
 50
36.46503
 51
90.00004000000002
  0
LINE
  5
98B5
330
97F8
100
AcDbEntity
  8
1
  6
Continuous
100
AcDbLine
 10
171.957762
 20
50.90942790126764
 30
0.0
 11
173.6218969999999
 21
48.65760490126765
 31
0.0
  0
CIRCLE
  5
98B6
330
97F8
100
AcDbEntity
  8
1
  6
Continuous
100
AcDbCircle
 10
180.9366669999998
 20
54.23776690126764
 30
0.0
 40
3.25
  0
LINE
  5
98B7
330
97F8
100
AcDbEntity
  8
4
  6
CENTER
 48
0.8
100
AcDbLine
 10
180.9366669999998
 20
49.23776690126765
 30
0.0
 11
180.9366669999998
 21
59.23776690126764
 31
0.0
  0
LINE
  5
98B8
330
97F8
100
AcDbEntity
  8
4
  6
CENTER
 48
0.8
100
AcDbLine
 10
175.936667
 20
54.23776690126764
 30
0.0
 11
185.9366669999998
 21
54.23776690126764
 31
0.0
  0
LINE
  5
98B9
330
97F8
100
AcDbEntity
  8
1
  6
Continuous
100
AcDbLine
 10
187.9366669999998
 20
50.73776690126766
 30
0.0
 11
187.9366669999998
 21
85.73776690126758
 31
0.0
  0
LINE
  5
98BA
330
97F8
100
AcDbEntity
  8
1
  6
Continuous
100
AcDbLine
 10
184.436667
 20
47.23776690126765
 30
0.0
 11
176.436667
 21
47.23776690126765
 31
0.0
  0
ARC
  5
98BB
330
97F8
100
AcDbEntity
  8
1
  6
Continuous
100
AcDbCircle
 10
149.4366669999998
 20
84.03776990126758
 30
0.0
 40
2.0
100
AcDbArc
 50
90.00001399999998
 51
179.999996
  0
ARC
  5
98BC
330
97F8
100
AcDbEntity
  8
1
  6
Continuous
100
AcDbCircle
 10
156.436667
 20
84.03776990126758
 30
0.0
 40
2.0
100
AcDbArc
 50
359.9999799999998
 51
90.00001399999998
  0
LINE
  5
98BD
330
97F8
100
AcDbEntity
  8
1
  6
Continuous
100
AcDbLine
 10
156.186667
 20
55.23776690126766
 30
0.0
 11
156.186667
 21
56.23776690126764
 31
0.0
  0
LINE
  5
98BE
330
97F8
100
AcDbEntity
  8
1
  6
Continuous
100
AcDbLine
 10
149.6866669999998
 20
55.23776690126766
 30
0.0
 11
149.6866669999998
 21
56.23776690126764
 31
0.0
  0
LINE
  5
98BF
330
97F8
100
AcDbEntity
  8
1
  6
Continuous
100
AcDbLine
 10
156.186667
 20
80.23776690126764
 30
0.0
 11
156.186667
 21
81.23776690126765
 31
0.0
  0
LINE
  5
98C0
330
97F8
100
AcDbEntity
  8
1
  6
Continuous
100
AcDbLine
 10
149.6866669999998
 20
80.23776690126764
 30
0.0
 11
149.6866669999998
 21
81.23776690126765
 31
0.0
  0
LINE
  5
98C1
330
97F8
100
AcDbEntity
  8
1
  6
Continuous
100
AcDbLine
 10
158.436667
 20
83.53776990126759
 30
0.0
 11
158.436667
 21
84.03776990126758
 31
0.0
  0
LINE
  5
98C2
330
97F8
100
AcDbEntity
  8
1
  6
Continuous
100
AcDbLine
 10
147.436667
 20
83.53776990126759
 30
0.0
 11
147.436667
 21
84.03776990126758
 31
0.0
  0
LINE
  5
98C3
330
97F8
100
AcDbEntity
  8
1
  6
Continuous
100
AcDbLine
 10
149.4366669999998
 20
86.03776990126759
 30
0.0
 11
156.436667
 21
86.03776990126759
 31
0.0
  0
LINE
  5
98C4
330
97F8
100
AcDbEntity
  8
1
  6
Continuous
100
AcDbLine
 10
167.9366749999998
 20
81.23776690126765
 30
0.0
 11
137.9366819999999
 21
81.23776690126765
 31
0.0
  0
LINE
  5
98C5
330
97F8
100
AcDbEntity
  8
1
  6
Continuous
100
AcDbLine
 10
172.936675
 20
86.89072590126768
 30
0.0
 11
172.936675
 21
86.23776690126758
 31
0.0
  0
LINE
  5
98C6
330
97F8
100
AcDbEntity
  8
1
  6
Continuous
100
AcDbLine
 10
132.9366819999999
 20
86.89069590126768
 30
0.0
 11
132.9366819999999
 21
86.23776690126758
 31
0.0
  0
ARC
  5
98C7
330
97F8
100
AcDbEntity
  8
1
  6
Continuous
100
AcDbCircle
 10
167.9366749999998
 20
86.23776690126758
 30
0.0
 40
5.0
100
AcDbArc
 50
270.0
 51
0.0
  0
ARC
  5
98C8
330
97F8
100
AcDbEntity
  8
1
  6
Continuous
100
AcDbCircle
 10
137.9366819999999
 20
86.23776690126758
 30
0.0
 40
5.0
100
AcDbArc
 50
180.0
 51
270.0
  0
ARC
  5
98C9
330
97F8
100
AcDbEntity
  8
1
  6
Continuous
100
AcDbCircle
 10
167.9366749999998
 20
50.23776690126766
 30
0.0
 40
5.0
100
AcDbArc
 50
353.067594
 51
90.0
  0
LINE
  5
98CA
330
97F8
100
AcDbEntity
  8
1
  6
Continuous
100
AcDbLine
 10
167.9366749999998
 20
55.23776690126766
 30
0.0
 11
137.9366819999999
 21
55.23776690126766
 31
0.0
  0
ARC
  5
98CB
330
97F8
100
AcDbEntity
  8
1
  6
Continuous
100
AcDbCircle
 10
137.9366819999999
 20
50.23776690126766
 30
0.0
 40
5.0
100
AcDbArc
 50
90.0
 51
186.9320229999999
  0
LINE
  5
98CC
330
97F8
100
AcDbEntity
  8
1
  6
Continuous
100
AcDbLine
 10
357.936667
 20
167.8745179012675
 30
0.0
 11
357.936667
 21
173.6010149012676
 31
0.0
  0
LINE
  5
98CD
330
97F8
100
AcDbEntity
  8
1
  6
Continuous
100
AcDbLine
 10
367.936667
 20
167.8745179012675
 30
0.0
 11
367.936667
 21
173.6010149012676
 31
0.0
  0
CIRCLE
  5
98CE
330
97F8
100
AcDbEntity
  8
1
  6
Continuous
100
AcDbCircle
 10
362.936667
 20
170.7377669012676
 30
0.0
 40
3.0
  0
CIRCLE
  5
98CF
330
97F8
100
AcDbEntity
  8
2
  6
Continuous
100
AcDbCircle
 10
362.936667
 20
170.7377669012676
 30
0.0
 40
2.458499999999999
  0
CIRCLE
  5
98D0
330
97F8
100
AcDbEntity
  8
1
  6
Continuous
100
AcDbCircle
 10
362.936667
 20
170.7377669012676
 30
0.0
 40
2.0
  0
LINE
  5
98D1
330
97F8
100
AcDbEntity
  8
1
  6
Continuous
100
AcDbLine
 10
357.936667
 20
167.8745179012675
 30
0.0
 11
362.936667
 21
164.9877669012675
 31
0.0
  0
LINE
  5
98D2
330
97F8
100
AcDbEntity
  8
1
  6
Continuous
100
AcDbLine
 10
367.936667
 20
167.8745179012675
 30
0.0
 11
362.936667
 21
164.9877669012675
 31
0.0
  0
LINE
  5
98D3
330
97F8
100
AcDbEntity
  8
1
  6
Continuous
100
AcDbLine
 10
357.936667
 20
173.6010149012676
 30
0.0
 11
362.936667
 21
176.4877669012675
 31
0.0
  0
LINE
  5
98D4
330
97F8
100
AcDbEntity
  8
1
  6
Continuous
100
AcDbLine
 10
367.936667
 20
173.6010149012676
 30
0.0
 11
362.936667
 21
176.4877669012675
 31
0.0
  0
LINE
  5
98D5
330
97F8
100
AcDbEntity
  8
1
  6
Continuous
100
AcDbLine
 10
150.436667
 20
52.93776690126765
 30
0.0
 11
155.436667
 21
52.93776690126765
 31
0.0
  0
LINE
  5
98D6
330
97F8
100
AcDbEntity
  8
1
  6
Continuous
100
AcDbLine
 10
152.9366669999998
 20
306.0285139012676
 30
0.0
 11
152.9366669999998
 21
309.2470249012677
 31
0.0
  0
LINE
  5
98D7
330
97F8
100
AcDbEntity
  8
1
  6
Continuous
100
AcDbLine
 10
157.9366669999998
 20
309.2470249012677
 30
0.0
 11
157.9366669999998
 21
306.0285139012676
 31
0.0
  0
LINE
  5
98D8
330
97F8
100
AcDbEntity
  8
1
  6
Continuous
100
AcDbLine
 10
147.936667
 20
309.2470249012677
 30
0.0
 11
147.936667
 21
306.0285139012676
 31
0.0
  0
ARC
  5
98D9
330
97F8
100
AcDbEntity
  8
1
  6
Continuous
100
AcDbCircle
 10
150.436667
 20
312.1509739012675
 30
0.0
 40
6.613208
100
AcDbArc
 50
247.7882049999999
 51
292.211795
  0
ARC
  5
98DA
330
97F8
100
AcDbEntity
  8
1
  6
Continuous
100
AcDbCircle
 10
155.436667
 20
312.1509739012675
 30
0.0
 40
6.613208
100
AcDbArc
 50
247.7882049999999
 51
292.211795
  0
ARC
  5
98DB
330
97F8
100
AcDbEntity
  8
1
  6
Continuous
100
AcDbCircle
 10
156.436667
 20
274.4377639012676
 30
0.0
 40
2.0
100
AcDbArc
 50
269.9999859999999
 51
14.477631
  0
LINE
  5
98DC
330
97F8
100
AcDbEntity
  8
1
  6
Continuous
100
AcDbLine
 10
149.4366669999998
 20
272.4377639012674
 30
0.0
 11
156.436667
 21
272.4377639012674
 31
0.0
  0
ARC
  5
98DD
330
97F8
100
AcDbEntity
  8
1
  6
Continuous
100
AcDbCircle
 10
149.4366669999998
 20
274.4377639012676
 30
0.0
 40
2.0
100
AcDbArc
 50
165.522369
 51
269.9999859999999
  0
LINE
  5
98DE
330
97F8
100
AcDbEntity
  8
4
  6
CENTER
 48
0.8
100
AcDbLine
 10
362.936667
 20
225.2377669012675
 30
0.0
 11
362.936667
 21
133.2377669012676
 31
0.0
  0
LINE
  5
98DF
330
97F8
100
AcDbEntity
  8
1
  6
Continuous
100
AcDbLine
 10
397.9366479999998
 20
220.2377669012676
 30
0.0
 11
327.936648
 21
220.2377669012676
 31
0.0
  0
LINE
  5
98E0
330
97F8
100
AcDbEntity
  8
1
  6
Continuous
100
AcDbLine
 10
397.9366479999998
 20
217.9377669012676
 30
0.0
 11
382.9366629999999
 21
217.9377669012676
 31
0.0
  0
LINE
  5
98E1
330
97F8
100
AcDbEntity
  8
4
  6
CENTER
 48
0.8
100
AcDbLine
 10
325.436667
 20
170.7377669012676
 30
0.0
 11
400.436667
 21
170.7377669012676
 31
0.0
  0
LINE
  5
98E2
330
97F8
100
AcDbEntity
  8
4
  6
CENTER
 48
0.8
100
AcDbLine
 10
390.936667
 20
225.2377669012675
 30
0.0
 11
390.936667
 21
213.2021069012675
 31
0.0
  0
LINE
  5
98E3
330
97F8
100
AcDbEntity
  8
1
  6
Continuous
100
AcDbLine
 10
397.936667
 20
217.9377789012675
 30
0.0
 11
397.936667
 21
220.2377779012676
 31
0.0
  0
LINE
  5
98E4
330
97F8
100
AcDbEntity
  8
1
  6
Continuous
100
AcDbLine
 10
379.436667
 20
213.2377739012674
 30
0.0
 11
369.7772679999998
 21
168.7524189012676
 31
0.0
  0
LINE
  5
98E5
330
97F8
100
AcDbEntity
  8
1
  6
Continuous
100
AcDbLine
 10
346.436652
 20
213.2377589012675
 30
0.0
 11
356.096062
 21
168.7524189012676
 31
0.0
  0
ARC
  5
98E6
330
97F8
100
AcDbEntity
  8
1
  6
Continuous
100
AcDbCircle
 10
362.936667
 20
170.2377669012675
 30
0.0
 40
7.0
100
AcDbArc
 50
192.25085
 51
270.00001
  0
ARC
  5
98E7
330
97F8
100
AcDbEntity
  8
1
  6
Continuous
100
AcDbCircle
 10
362.936667
 20
170.2377669012675
 30
0.0
 40
7.0
100
AcDbArc
 50
269.99995
 51
347.7491499999999
  0
LINE
  5
98E8
330
97F8
100
AcDbEntity
  8
1
  6
Continuous
100
AcDbLine
 10
382.9366529999999
 20
217.9377629012676
 30
0.0
 11
379.436656
 21
213.2377649012676
 31
0.0
  0
ARC
  5
98E9
330
97F8
100
AcDbEntity
  8
1
  6
Continuous
100
AcDbCircle
 10
362.936667
 20
207.7377669012676
 30
0.0
 40
2.5
100
AcDbArc
 50
179.9999899999999
 51
0.00001
  0
ARC
  5
98EA
330
97F8
100
AcDbEntity
  8
1
  6
Continuous
100
AcDbCircle
 10
366.436667
 20
219.2377669012676
 30
0.0
 40
1.0
100
AcDbArc
 50
89.99999700000001
 51
180.0
  0
ARC
  5
98EB
330
97F8
100
AcDbEntity
  8
1
  6
Continuous
100
AcDbCircle
 10
359.4366669999998
 20
219.2377669012676
 30
0.0
 40
1.0
100
AcDbArc
 50
359.9999899999998
 51
90.00000400000002
  0
LINE
  5
98EC
330
97F8
100
AcDbEntity
  8
1
  6
Continuous
100
AcDbLine
 10
365.4366669999998
 20
207.7377669012676
 30
0.0
 11
365.4366669999998
 21
219.2377669012676
 31
0.0
  0
LINE
  5
98ED
330
97F8
100
AcDbEntity
  8
1
  6
Continuous
100
AcDbLine
 10
360.436667
 20
218.7377659012676
 30
0.0
 11
365.4366669999998
 21
218.7377659012676
 31
0.0
  0
LINE
  5
98EE
330
97F8
100
AcDbEntity
  8
1
  6
Continuous
100
AcDbLine
 10
360.436667
 20
207.7377669012676
 30
0.0
 11
360.436667
 21
219.2377669012676
 31
0.0
  0
LINE
  5
98EF
330
97F8
100
AcDbEntity
  8
4
  6
CENTER
 48
0.8
100
AcDbLine
 10
334.936667
 20
225.2377669012675
 30
0.0
 11
334.936667
 21
213.2020989012674
 31
0.0
  0
LINE
  5
98F0
330
97F8
100
AcDbEntity
  8
1
  6
Continuous
100
AcDbLine
 10
342.9366589999998
 20
217.9377669012676
 30
0.0
 11
327.936648
 21
217.9377669012676
 31
0.0
  0
LINE
  5
98F1
330
97F8
100
AcDbEntity
  8
1
  6
Continuous
100
AcDbLine
 10
342.9366589999998
 20
217.9377579012676
 30
0.0
 11
346.436663
 21
213.2377579012675
 31
0.0
  0
LINE
  5
98F2
330
97F8
100
AcDbEntity
  8
1
  6
Continuous
100
AcDbLine
 10
327.9366669999999
 20
217.9377559012676
 30
0.0
 11
327.9366669999999
 21
220.2377549012676
 31
0.0
  0
ARC
  5
98F3
330
97F8
100
AcDbEntity
  8
1
  6
Continuous
100
AcDbCircle
 10
155.436667
 20
303.1245649012674
 30
0.0
 40
6.613208
100
AcDbArc
 50
67.78820500000001
 51
112.211795
  0
ARC
  5
98F4
330
97F8
100
AcDbEntity
  8
1
  6
Continuous
100
AcDbCircle
 10
150.436667
 20
303.1245649012674
 30
0.0
 40
6.613208
100
AcDbArc
 50
67.78820500000001
 51
112.211795
  0
LINE
  5
98F5
330
97F8
100
AcDbEntity
  8
1
  6
Continuous
100
AcDbLine
 10
150.4303679999999
 20
309.7377699012675
 30
0.0
 11
155.4429659999998
 21
309.7377699012675
 31
0.0
  0
LINE
  5
98F6
330
97F8
100
AcDbEntity
  8
1
  6
Continuous
100
AcDbLine
 10
152.9366669999998
 20
52.44701890126767
 30
0.0
 11
152.9366669999998
 21
49.22850790126767
 31
0.0
  0
LINE
  5
98F7
330
97F8
100
AcDbEntity
  8
1
  6
Continuous
100
AcDbLine
 10
150.4303679999999
 20
48.73776390126765
 30
0.0
 11
155.4429659999998
 21
48.73776390126765
 31
0.0
  0
ARC
  5
98F8
330
97F8
100
AcDbEntity
  8
1
  6
Continuous
100
AcDbCircle
 10
150.436667
 20
55.35096790126765
 30
0.0
 40
6.613208
100
AcDbArc
 50
247.7882049999999
 51
292.211795
  0
ARC
  5
98F9
330
97F8
100
AcDbEntity
  8
1
  6
Continuous
100
AcDbCircle
 10
155.436667
 20
55.35096790126765
 30
0.0
 40
6.613208
100
AcDbArc
 50
247.7882049999999
 51
292.211795
  0
LINE
  5
98FA
330
97F8
100
AcDbEntity
  8
1
  6
Continuous
100
AcDbLine
 10
147.936667
 20
49.22850790126767
 30
0.0
 11
147.936667
 21
52.44701890126767
 31
0.0
  0
ARC
  5
98FB
330
97F8
100
AcDbEntity
  8
1
  6
Continuous
100
AcDbCircle
 10
155.436667
 20
46.32455890126765
 30
0.0
 40
6.613208
100
AcDbArc
 50
67.78820500000001
 51
112.211795
  0
ARC
  5
98FC
330
97F8
100
AcDbEntity
  8
1
  6
Continuous
100
AcDbCircle
 10
150.436667
 20
46.32455890126765
 30
0.0
 40
6.613208
100
AcDbArc
 50
67.78820500000001
 51
112.211795
  0
LINE
  5
98FD
330
97F8
100
AcDbEntity
  8
1
  6
Continuous
100
AcDbLine
 10
157.9366669999998
 20
49.22850790126767
 30
0.0
 11
157.9366669999998
 21
52.44701890126767
 31
0.0
  0
ARC
  5
98FE
330
97F8
100
AcDbEntity
  8
1
  6
Continuous
100
AcDbCircle
 10
47.936667
 20
143.2377669012675
 30
0.0
 40
60.0
100
AcDbArc
 50
81.14906899999999
 51
98.84995400000001
  0
ARC
  5
98FF
330
97F8
100
AcDbEntity
  8
1
  6
Continuous
100
AcDbCircle
 10
47.936667
 20
198.2377669012675
 30
0.0
 40
60.0
100
AcDbArc
 50
261.1500459999999
 51
278.850931
  0
LINE
  5
9900
330
97F8
100
AcDbEntity
  8
1
  6
Continuous
100
AcDbLine
 10
37.436667
 20
140.4342199012676
 30
0.0
 11
37.436667
 21
201.0413139012677
 31
0.0
  0
ARC
  5
9901
330
97F8
100
AcDbEntity
  8
1
  6
Continuous
100
AcDbCircle
 10
38.936667
 20
140.4342199012676
 30
0.0
 40
1.5
100
AcDbArc
 50
179.9999799999999
 51
261.1501799999999
  0
ARC
  5
9902
330
97F8
100
AcDbEntity
  8
1
  6
Continuous
100
AcDbCircle
 10
38.936667
 20
201.0413139012677
 30
0.0
 40
1.5
100
AcDbArc
 50
98.84983100000006
 51
180.00002
  0
LINE
  5
9903
330
97F8
100
AcDbEntity
  8
1
  6
Continuous
100
AcDbLine
 10
35.93666699999999
 20
163.6891069012676
 30
0.0
 11
35.93666699999999
 21
177.7864259012676
 31
0.0
  0
ARC
  5
9904
330
97F8
100
AcDbEntity
  8
1
  6
Continuous
100
AcDbCircle
 10
36.436667
 20
163.6891069012676
 30
0.0
 40
0.5
100
AcDbArc
 50
179.9999799999999
 51
264.14352
  0
LINE
  5
9905
330
97F8
100
AcDbEntity
  8
1
  6
Continuous
100
AcDbLine
 10
36.38563399999998
 20
163.1917169012675
 30
0.0
 11
37.436667
 21
163.0839189012676
 31
0.0
  0
ARC
  5
9906
330
97F8
100
AcDbEntity
  8
1
  6
Continuous
100
AcDbCircle
 10
36.436667
 20
177.7864259012676
 30
0.0
 40
0.5
100
AcDbArc
 50
95.856466
 51
180.00002
  0
LINE
  5
9907
330
97F8
100
AcDbEntity
  8
1
  6
Continuous
100
AcDbLine
 10
36.38563399999998
 20
178.2838169012675
 30
0.0
 11
37.436667
 21
178.3916139012676
 31
0.0
  0
LINE
  5
9908
330
97F8
100
AcDbEntity
  8
1
  6
Continuous
100
AcDbLine
 10
58.43666699999999
 20
140.4342199012676
 30
0.0
 11
58.43666699999999
 21
201.0413139012677
 31
0.0
  0
ARC
  5
9909
330
97F8
100
AcDbEntity
  8
1
  6
Continuous
100
AcDbCircle
 10
56.93666700000001
 20
140.4342199012676
 30
0.0
 40
1.5
100
AcDbArc
 50
278.8497599999999
 51
359.99995
  0
ARC
  5
990A
330
97F8
100
AcDbEntity
  8
1
  6
Continuous
100
AcDbCircle
 10
56.93666700000001
 20
201.0413139012677
 30
0.0
 40
1.5
100
AcDbArc
 50
0.000055
 51
81.15024299999998
  0
LINE
  5
990B
330
97F8
100
AcDbEntity
  8
1
  6
Continuous
100
AcDbLine
 10
59.93666700000001
 20
163.6891069012676
 30
0.0
 11
59.93666700000001
 21
177.7864259012676
 31
0.0
  0
ARC
  5
990C
330
97F8
100
AcDbEntity
  8
1
  6
Continuous
100
AcDbCircle
 10
59.43666700000001
 20
163.6891069012676
 30
0.0
 40
0.5
100
AcDbArc
 50
275.8563899999999
 51
359.99995
  0
ARC
  5
990D
330
97F8
100
AcDbEntity
  8
1
  6
Continuous
100
AcDbCircle
 10
59.43666700000001
 20
177.7864259012676
 30
0.0
 40
0.5
100
AcDbArc
 50
0.000055
 51
84.14360700000001
  0
LINE
  5
990E
330
97F8
100
AcDbEntity
  8
1
  6
Continuous
100
AcDbLine
 10
59.48768899999999
 20
163.1917159012676
 30
0.0
 11
58.43666300000001
 21
163.0839179012675
 31
0.0
  0
LINE
  5
990F
330
97F8
100
AcDbEntity
  8
1
  6
Continuous
100
AcDbLine
 10
59.48768899999999
 20
178.2838179012675
 30
0.0
 11
58.43666300000001
 21
178.3916149012676
 31
0.0
  0
ARC
  5
9910
330
97F8
100
AcDbEntity
  8
1
  6
Continuous
100
AcDbCircle
 10
152.9366669999998
 20
170.7377669012676
 30
0.0
 40
32.5
100
AcDbArc
 50
114.8805499999999
 51
65.11942600000001
  0
ARC
  5
9911
330
97F8
100
AcDbEntity
  8
1
  6
Continuous
100
AcDbCircle
 10
152.9366669999998
 20
170.7377669012676
 30
0.0
 40
27.0
100
AcDbArc
 50
117.510206
 51
62.48976700000001
  0
ARC
  5
9912
330
97F8
100
AcDbEntity
  8
1
  6
Continuous
100
AcDbCircle
 10
152.9366669999998
 20
170.7377669012676
 30
0.0
 40
7.5
100
AcDbArc
 50
173.599141
 51
6.400744
  0
LINE
  5
9913
330
97F8
100
AcDbEntity
  8
1
  6
Continuous
100
AcDbLine
 10
144.374362
 20
162.3302169012676
 30
0.0
 11
148.483729
 21
164.7027599012675
 31
0.0
  0
ARC
  5
9914
330
97F8
100
AcDbEntity
  8
1
  6
Continuous
100
AcDbCircle
 10
152.9366669999998
 20
170.7377669012676
 30
0.0
 40
12.0
100
AcDbArc
 50
195.5225199999999
 51
224.4775399999999
  0
LINE
  5
9915
330
97F8
100
AcDbEntity
  8
1
  6
Continuous
100
AcDbLine
 10
133.9744359999999
 20
157.7691969012676
 30
0.0
 11
143.530463
 21
163.2863699012676
 31
0.0
  0
ARC
  5
9916
330
97F8
100
AcDbEntity
  8
1
  6
Continuous
100
AcDbCircle
 10
130.4744399999999
 20
163.8313759012676
 30
0.0
 40
3.5
100
AcDbArc
 50
197.09097
 51
299.9999799999999
  0
LINE
  5
9917
330
97F8
100
AcDbEntity
  8
1
  6
Continuous
100
AcDbLine
 10
132.2244359999999
 20
160.8002859012674
 30
0.0
 11
141.7804669999999
 21
166.3174589012676
 31
0.0
  0
ARC
  5
9918
330
97F8
100
AcDbEntity
  8
1
  6
Continuous
100
AcDbCircle
 10
135.7244359999999
 20
154.7381069012676
 30
0.0
 40
3.5
100
AcDbArc
 50
119.9999999999999
 51
222.9090699999999
  0
LINE
  5
9919
330
97F8
100
AcDbEntity
  8
1
  6
Continuous
100
AcDbLine
 10
141.3743619999999
 20
167.5263699012675
 30
0.0
 11
145.4837249999999
 21
169.8989119012676
 31
0.0
  0
ARC
  5
991A
330
97F8
100
AcDbEntity
  8
1
  6
Continuous
100
AcDbCircle
 10
175.3988939999999
 20
163.8313629012676
 30
0.0
 40
3.5
100
AcDbArc
 50
240.00002
 51
342.9090899999998
  0
LINE
  5
991B
330
97F8
100
AcDbEntity
  8
1
  6
Continuous
100
AcDbLine
 10
161.4989689999998
 20
162.3302129012675
 30
0.0
 11
157.389609
 21
164.7027579012676
 31
0.0
  0
LINE
  5
991C
330
97F8
100
AcDbEntity
  8
1
  6
Continuous
100
AcDbLine
 10
173.648886
 20
160.8002799012675
 30
0.0
 11
164.0928639999999
 21
166.3174569012675
 31
0.0
  0
LINE
  5
991D
330
97F8
100
AcDbEntity
  8
1
  6
Continuous
100
AcDbLine
 10
171.898886
 20
157.7691879012675
 30
0.0
 11
162.3428639999999
 21
163.2863649012675
 31
0.0
  0
ARC
  5
991E
330
97F8
100
AcDbEntity
  8
1
  6
Continuous
100
AcDbCircle
 10
152.9366669999998
 20
170.7377669012676
 30
0.0
 40
12.0
100
AcDbArc
 50
315.5225199999998
 51
344.4775499999999
  0
ARC
  5
991F
330
97F8
100
AcDbEntity
  8
1
  6
Continuous
100
AcDbCircle
 10
170.1488859999998
 20
154.7380999012676
 30
0.0
 40
3.5
100
AcDbArc
 50
317.09098
 51
59.999988
  0
LINE
  5
9920
330
97F8
100
AcDbEntity
  8
1
  6
Continuous
100
AcDbLine
 10
164.498961
 20
167.5263699012675
 30
0.0
 11
160.3896009999999
 21
169.8989149012676
 31
0.0
  0
ARC
  5
9921
330
97F8
100
AcDbEntity
  8
1
  6
Continuous
100
AcDbCircle
 10
362.936667
 20
170.7377669012676
 30
0.0
 40
32.5
100
AcDbArc
 50
114.8805499999999
 51
65.11942600000001
  0
ARC
  5
9922
330
97F8
100
AcDbEntity
  8
1
  6
Continuous
100
AcDbCircle
 10
362.936667
 20
170.7377669012676
 30
0.0
 40
27.0
100
AcDbArc
 50
117.510206
 51
62.48976700000001
  0
ARC
  5
9923
330
97F8
100
AcDbEntity
  8
1
  6
Continuous
100
AcDbCircle
 10
380.148886
 20
154.7380999012676
 30
0.0
 40
3.5
100
AcDbArc
 50
317.09098
 51
59.999988
  0
LINE
  5
9924
330
97F8
100
AcDbEntity
  8
1
  6
Continuous
100
AcDbLine
 10
371.4989689999999
 20
162.3302129012675
 30
0.0
 11
367.3896089999999
 21
164.7027579012676
 31
0.0
  0
ARC
  5
9925
330
97F8
100
AcDbEntity
  8
1
  6
Continuous
100
AcDbCircle
 10
385.3988939999999
 20
163.8313629012676
 30
0.0
 40
3.5
100
AcDbArc
 50
240.00002
 51
342.9090899999998
  0
ARC
  5
9926
330
97F8
100
AcDbEntity
  8
1
  6
Continuous
100
AcDbCircle
 10
362.936667
 20
170.7377669012676
 30
0.0
 40
12.0
100
AcDbArc
 50
315.5225199999998
 51
344.4775499999999
  0
LINE
  5
9927
330
97F8
100
AcDbEntity
  8
1
  6
Continuous
100
AcDbLine
 10
381.898886
 20
157.7691879012675
 30
0.0
 11
372.342864
 21
163.2863649012675
 31
0.0
  0
LINE
  5
9928
330
97F8
100
AcDbEntity
  8
1
  6
Continuous
100
AcDbLine
 10
383.648886
 20
160.8002799012675
 30
0.0
 11
374.092864
 21
166.3174569012675
 31
0.0
  0
LINE
  5
9929
330
97F8
100
AcDbEntity
  8
1
  6
Continuous
100
AcDbLine
 10
374.498961
 20
167.5263699012675
 30
0.0
 11
370.3896009999998
 21
169.8989149012676
 31
0.0
  0
ARC
  5
992A
330
97F8
100
AcDbEntity
  8
1
  6
Continuous
100
AcDbCircle
 10
345.7244359999998
 20
154.7381069012676
 30
0.0
 40
3.5
100
AcDbArc
 50
119.9999999999999
 51
222.9090699999999
  0
ARC
  5
992B
330
97F8
100
AcDbEntity
  8
1
  6
Continuous
100
AcDbCircle
 10
340.47444
 20
163.8313759012676
 30
0.0
 40
3.5
100
AcDbArc
 50
197.09097
 51
299.9999799999999
  0
LINE
  5
992C
330
97F8
100
AcDbEntity
  8
1
  6
Continuous
100
AcDbLine
 10
342.2244359999999
 20
160.8002859012674
 30
0.0
 11
351.7804669999999
 21
166.3174589012676
 31
0.0
  0
LINE
  5
992D
330
97F8
100
AcDbEntity
  8
1
  6
Continuous
100
AcDbLine
 10
343.9744359999999
 20
157.7691969012676
 30
0.0
 11
353.530463
 21
163.2863699012676
 31
0.0
  0
ARC
  5
992E
330
97F8
100
AcDbEntity
  8
1
  6
Continuous
100
AcDbCircle
 10
362.936667
 20
170.7377669012676
 30
0.0
 40
12.0
100
AcDbArc
 50
195.5225199999999
 51
224.4775399999999
  0
LINE
  5
992F
330
97F8
100
AcDbEntity
  8
1
  6
Continuous
100
AcDbLine
 10
354.374362
 20
162.3302169012676
 30
0.0
 11
358.4837289999999
 21
164.7027599012675
 31
0.0
  0
LINE
  5
9930
330
97F8
100
AcDbEntity
  8
1
  6
Continuous
100
AcDbLine
 10
351.374362
 20
167.5263699012675
 30
0.0
 11
355.4837249999998
 21
169.8989119012676
 31
0.0
  0
ARC
  5
9931
330
97F8
100
AcDbEntity
  8
1
  6
Continuous
100
AcDbCircle
 10
362.936667
 20
170.7377669012676
 30
0.0
 40
7.5
100
AcDbArc
 50
173.599141
 51
6.400744
  0
ARC
  5
9932
330
97F8
100
AcDbEntity
  8
1
  6
Continuous
100
AcDbCircle
 10
180.436667
 20
68.23776690126763
 30
0.0
 40
60.0
100
AcDbArc
 50
171.1490689999999
 51
188.8499539999999
  0
ARC
  5
9933
330
97F8
100
AcDbEntity
  8
1
  6
Continuous
100
AcDbCircle
 10
125.4366669999998
 20
68.23776690126763
 30
0.0
 40
60.0
100
AcDbArc
 50
351.1500459999999
 51
8.850930999999997
  0
LINE
  5
9934
330
97F8
100
AcDbEntity
  8
1
  6
Continuous
100
AcDbLine
 10
183.2402139999999
 20
57.73776690126766
 30
0.0
 11
122.6331199999999
 21
57.73776690126766
 31
0.0
  0
ARC
  5
9935
330
97F8
100
AcDbEntity
  8
1
  6
Continuous
100
AcDbCircle
 10
122.6331199999999
 20
59.23776690126764
 30
0.0
 40
1.5
100
AcDbArc
 50
188.8498309999999
 51
270.00002
  0
LINE
  5
9936
330
97F8
100
AcDbEntity
  8
1
  6
Continuous
100
AcDbLine
 10
159.9853259999998
 20
56.23776690126764
 30
0.0
 11
145.888008
 21
56.23776690126764
 31
0.0
  0
ARC
  5
9937
330
97F8
100
AcDbEntity
  8
1
  6
Continuous
100
AcDbCircle
 10
145.888008
 20
56.73776690126764
 30
0.0
 40
0.5
100
AcDbArc
 50
185.8564659999999
 51
270.00002
  0
LINE
  5
9938
330
97F8
100
AcDbEntity
  8
1
  6
Continuous
100
AcDbLine
 10
145.3906169999999
 20
56.68673390126767
 30
0.0
 11
145.2828189999999
 21
57.73776690126766
 31
0.0
  0
ARC
  5
9939
330
97F8
100
AcDbEntity
  8
1
  6
Continuous
100
AcDbCircle
 10
159.9853259999998
 20
56.73776690126764
 30
0.0
 40
0.5
100
AcDbArc
 50
269.99998
 51
354.14352
  0
LINE
  5
993A
330
97F8
100
AcDbEntity
  8
1
  6
Continuous
100
AcDbLine
 10
160.4827169999998
 20
56.68673390126767
 30
0.0
 11
160.5905149999998
 21
57.73776690126766
 31
0.0
  0
ARC
  5
993B
330
97F8
100
AcDbEntity
  8
1
  6
Continuous
100
AcDbCircle
 10
183.2402139999999
 20
59.23776690126764
 30
0.0
 40
1.5
100
AcDbArc
 50
269.99998
 51
351.15018
  0
LINE
  5
993C
330
97F8
100
AcDbEntity
  8
1
  6
Continuous
100
AcDbLine
 10
183.2402139999999
 20
78.73776690126767
 30
0.0
 11
122.6331199999999
 21
78.73776690126767
 31
0.0
  0
ARC
  5
993D
330
97F8
100
AcDbEntity
  8
1
  6
Continuous
100
AcDbCircle
 10
122.6331199999999
 20
77.23776690126769
 30
0.0
 40
1.5
100
AcDbArc
 50
90.00005499999994
 51
171.1502429999999
  0
LINE
  5
993E
330
97F8
100
AcDbEntity
  8
1
  6
Continuous
100
AcDbLine
 10
159.9853259999998
 20
80.23776690126764
 30
0.0
 11
145.888008
 21
80.23776690126764
 31
0.0
  0
ARC
  5
993F
330
97F8
100
AcDbEntity
  8
1
  6
Continuous
100
AcDbCircle
 10
145.888008
 20
79.73776690126769
 30
0.0
 40
0.5
100
AcDbArc
 50
90.00005499999994
 51
174.1436069999998
  0
LINE
  5
9940
330
97F8
100
AcDbEntity
  8
1
  6
Continuous
100
AcDbLine
 10
145.390616
 20
79.78878890126769
 30
0.0
 11
145.2828189999999
 21
78.73776290126767
 31
0.0
  0
ARC
  5
9941
330
97F8
100
AcDbEntity
  8
1
  6
Continuous
100
AcDbCircle
 10
159.9853259999998
 20
79.73776690126769
 30
0.0
 40
0.5
100
AcDbArc
 50
5.85639
 51
89.99995000000001
  0
LINE
  5
9942
330
97F8
100
AcDbEntity
  8
1
  6
Continuous
100
AcDbLine
 10
160.4827179999999
 20
79.78878890126769
 30
0.0
 11
160.5905159999998
 21
78.73776290126767
 31
0.0
  0
ARC
  5
9943
330
97F8
100
AcDbEntity
  8
1
  6
Continuous
100
AcDbCircle
 10
183.2402139999999
 20
77.23776690126769
 30
0.0
 40
1.5
100
AcDbArc
 50
8.849759999999998
 51
89.99995000000001
  0
LINE
  5
9944
330
97F8
100
AcDbEntity
  8
1
  6
Continuous
100
AcDbLine
 10
247.436667
 20
140.4342199012676
 30
0.0
 11
247.436667
 21
201.0413139012677
 31
0.0
  0
LINE
  5
9945
330
97F8
100
AcDbEntity
  8
1
  6
Continuous
100
AcDbLine
 10
268.436667
 20
140.4342199012676
 30
0.0
 11
268.436667
 21
201.0413139012677
 31
0.0
  0
LINE
  5
9946
330
97F8
100
AcDbEntity
  8
4
  6
CENTER
 48
0.8
100
AcDbLine
 10
257.936667
 20
225.3297999012676
 30
0.0
 11
257.936667
 21
133.2377669012676
 31
0.0
  0
ARC
  5
9947
330
97F8
100
AcDbEntity
  8
1
  6
Continuous
100
AcDbCircle
 10
257.936667
 20
198.2377669012675
 30
0.0
 40
60.0
100
AcDbArc
 50
261.149069
 51
278.849954
  0
ARC
  5
9948
330
97F8
100
AcDbEntity
  8
1
  6
Continuous
100
AcDbCircle
 10
266.936667
 20
140.4342199012676
 30
0.0
 40
1.5
100
AcDbArc
 50
278.84982
 51
0.00002
  0
ARC
  5
9949
330
97F8
100
AcDbEntity
  8
1
  6
Continuous
100
AcDbCircle
 10
248.9366669999999
 20
140.4342199012676
 30
0.0
 40
1.5
100
AcDbArc
 50
180.0000499999999
 51
261.15024
  0
ARC
  5
994A
330
97F8
100
AcDbEntity
  8
1
  6
Continuous
100
AcDbCircle
 10
242.136664
 20
174.2377669012675
 30
0.0
 40
2.0
100
AcDbArc
 50
90.00000400000002
 51
179.9999859999998
  0
ARC
  5
994B
330
97F8
100
AcDbEntity
  8
1
  6
Continuous
100
AcDbCircle
 10
242.136664
 20
167.2377669012675
 30
0.0
 40
2.0
100
AcDbArc
 50
179.9999859999998
 51
270.00002
  0
ARC
  5
994C
330
97F8
100
AcDbEntity
  8
1
  6
Continuous
100
AcDbCircle
 10
240.636664
 20
215.9377669012676
 30
0.0
 40
2.0
100
AcDbArc
 50
0.00004
 51
90.00001800000005
  0
ARC
  5
994D
330
97F8
100
AcDbEntity
  8
1
  6
Continuous
100
AcDbCircle
 10
240.936667
 20
213.9377669012676
 30
0.0
 40
4.0
100
AcDbArc
 50
0.00004
 51
90.00001800000005
  0
LINE
  5
994E
330
97F8
100
AcDbEntity
  8
1
  6
Continuous
100
AcDbLine
 10
278.9106669999998
 20
220.2377669012676
 30
0.0
 11
236.9626629999999
 21
220.2377669012676
 31
0.0
  0
LINE
  5
994F
330
97F8
100
AcDbEntity
  8
4
  6
CENTER
 48
0.8
100
AcDbLine
 10
284.8366669999998
 20
170.7377669012676
 30
0.0
 11
235.136664
 21
170.7377669012676
 31
0.0
  0
LINE
  5
9950
330
97F8
100
AcDbEntity
  8
1
  6
Continuous
100
AcDbLine
 10
278.9106669999998
 20
217.9377669012676
 30
0.0
 11
236.9626629999999
 21
217.9377669012676
 31
0.0
  0
LINE
  5
9951
330
97F8
100
AcDbEntity
  8
1
  6
Continuous
100
AcDbLine
 10
242.636664
 20
215.9377669012676
 30
0.0
 11
242.636664
 21
163.2377669012676
 31
0.0
  0
LINE
  5
9952
330
97F8
100
AcDbEntity
  8
1
  6
Continuous
100
AcDbLine
 10
273.236667
 20
215.9377669012676
 30
0.0
 11
273.236667
 21
163.2377669012676
 31
0.0
  0
LINE
  5
9953
330
97F8
100
AcDbEntity
  8
1
  6
Continuous
100
AcDbLine
 10
244.9366669999998
 20
217.9377669012676
 30
0.0
 11
244.9366669999998
 21
163.2377669012676
 31
0.0
  0
LINE
  5
9954
330
97F8
100
AcDbEntity
  8
1
  6
Continuous
100
AcDbLine
 10
270.936667
 20
217.9377669012676
 30
0.0
 11
270.936667
 21
163.2377669012676
 31
0.0
  0
LINE
  5
9955
330
97F8
100
AcDbEntity
  8
1
  6
Continuous
100
AcDbLine
 10
273.7134669999999
 20
167.7377669012676
 30
0.0
 11
276.8366669999999
 21
167.7377669012676
 31
0.0
  0
LINE
  5
9956
330
97F8
100
AcDbEntity
  8
1
  6
Continuous
100
AcDbLine
 10
273.6366669999998
 20
165.1377689012676
 30
0.0
 11
276.8366669999999
 21
165.1377689012676
 31
0.0
  0
LINE
  5
9957
330
97F8
100
AcDbEntity
  8
1
  6
Continuous
100
AcDbLine
 10
273.6366669999998
 20
173.7377669012676
 30
0.0
 11
276.8366669999999
 21
173.7377669012676
 31
0.0
  0
LINE
  5
9958
330
97F8
100
AcDbEntity
  8
1
  6
Continuous
100
AcDbLine
 10
273.6366669999998
 20
176.3377649012675
 30
0.0
 11
276.8366669999999
 21
176.3377649012675
 31
0.0
  0
ARC
  5
9959
330
97F8
100
AcDbEntity
  8
1
  6
Continuous
100
AcDbCircle
 10
274.9241669999999
 20
166.4377719012676
 30
0.0
 40
2.312498999999998
100
AcDbArc
 50
325.79457
 51
34.20545
  0
ARC
  5
995A
330
97F8
100
AcDbEntity
  8
1
  6
Continuous
100
AcDbCircle
 10
265.786673
 20
170.7377669012676
 30
0.0
 40
11.44999799999999
100
AcDbArc
 50
344.8107499999999
 51
15.18927
  0
ARC
  5
995B
330
97F8
100
AcDbEntity
  8
1
  6
Continuous
100
AcDbCircle
 10
274.9241669999999
 20
175.0377699012676
 30
0.0
 40
2.312498999999998
100
AcDbArc
 50
325.79457
 51
34.20545
  0
LINE
  5
995C
330
97F8
100
AcDbEntity
  8
1
  6
Continuous
100
AcDbLine
 10
277.836667
 20
174.5377969012676
 30
0.0
 11
276.836677
 21
176.3377649012675
 31
0.0
  0
LINE
  5
995D
330
97F8
100
AcDbEntity
  8
1
  6
Continuous
100
AcDbLine
 10
277.836657
 20
166.9376909012676
 30
0.0
 11
276.8366569999999
 21
165.1377689012676
 31
0.0
  0
LINE
  5
995E
330
97F8
100
AcDbEntity
  8
1
  6
Continuous
100
AcDbLine
 10
277.836667
 20
174.5377699012675
 30
0.0
 11
277.836667
 21
166.9377719012675
 31
0.0
  0
ARC
  5
995F
330
97F8
100
AcDbEntity
  8
1
  6
Continuous
100
AcDbCircle
 10
246.4366669999999
 20
177.7864259012676
 30
0.0
 40
0.5
100
AcDbArc
 50
95.85639300000003
 51
179.999945
  0
ARC
  5
9960
330
97F8
100
AcDbEntity
  8
1
  6
Continuous
100
AcDbCircle
 10
269.4366669999999
 20
177.7864259012676
 30
0.0
 40
0.5
100
AcDbArc
 50
359.9999799999998
 51
84.14353400000001
  0
LINE
  5
9961
330
97F8
100
AcDbEntity
  8
1
  6
Continuous
100
AcDbLine
 10
269.4877
 20
163.1917169012675
 30
0.0
 11
268.436667
 21
163.0839189012676
 31
0.0
  0
ARC
  5
9962
330
97F8
100
AcDbEntity
  8
1
  6
Continuous
100
AcDbCircle
 10
269.4366669999999
 20
163.6891069012676
 30
0.0
 40
0.5
100
AcDbArc
 50
275.8564799999999
 51
0.00002
  0
LINE
  5
9963
330
97F8
100
AcDbEntity
  8
1
  6
Continuous
100
AcDbLine
 10
269.9366669999998
 20
163.6891069012676
 30
0.0
 11
269.9366669999998
 21
177.7864259012676
 31
0.0
  0
ARC
  5
9964
330
97F8
100
AcDbEntity
  8
1
  6
Continuous
100
AcDbCircle
 10
275.549167
 20
175.0377699012676
 30
0.0
 40
2.3125
100
AcDbArc
 50
145.7945389999999
 51
214.2054499999999
  0
ARC
  5
9965
330
97F8
100
AcDbEntity
  8
1
  6
Continuous
100
AcDbCircle
 10
284.686667
 20
170.7377669012676
 30
0.0
 40
11.450001
100
AcDbArc
 50
164.8107149999999
 51
195.1892799999999
  0
ARC
  5
9966
330
97F8
100
AcDbEntity
  8
1
  6
Continuous
100
AcDbCircle
 10
275.549167
 20
166.4377639012675
 30
0.0
 40
2.3125
100
AcDbArc
 50
145.79459
 51
214.2055099999998
  0
LINE
  5
9967
330
97F8
100
AcDbEntity
  8
1
  6
Continuous
100
AcDbLine
 10
270.936667
 20
167.4877669012676
 30
0.0
 11
269.9366669999998
 21
167.4877669012676
 31
0.0
  0
LINE
  5
9968
330
97F8
100
AcDbEntity
  8
1
  6
Continuous
100
AcDbLine
 10
270.936667
 20
173.9877669012676
 30
0.0
 11
269.9366669999998
 21
173.9877669012676
 31
0.0
  0
LINE
  5
9969
330
97F8
100
AcDbEntity
  8
1
  6
Continuous
100
AcDbLine
 10
273.236667
 20
163.2377669012676
 30
0.0
 11
270.936667
 21
163.2377669012676
 31
0.0
  0
LINE
  5
996A
330
97F8
100
AcDbEntity
  8
1
  6
Continuous
100
AcDbLine
 10
246.385645
 20
163.1917159012676
 30
0.0
 11
247.4366709999999
 21
163.0839179012675
 31
0.0
  0
ARC
  5
996B
330
97F8
100
AcDbEntity
  8
1
  6
Continuous
100
AcDbCircle
 10
246.4366669999999
 20
163.6891069012676
 30
0.0
 40
0.5
100
AcDbArc
 50
180.0000499999999
 51
264.14361
  0
LINE
  5
996C
330
97F8
100
AcDbEntity
  8
1
  6
Continuous
100
AcDbLine
 10
245.936667
 20
163.6891069012676
 30
0.0
 11
245.936667
 21
177.7864259012676
 31
0.0
  0
LINE
  5
996D
330
97F8
100
AcDbEntity
  8
1
  6
Continuous
100
AcDbLine
 10
245.936667
 20
167.4877669012676
 30
0.0
 11
244.9366669999998
 21
167.4877669012676
 31
0.0
  0
LINE
  5
996E
330
97F8
100
AcDbEntity
  8
1
  6
Continuous
100
AcDbLine
 10
245.936667
 20
173.9877669012676
 30
0.0
 11
244.9366669999998
 21
173.9877669012676
 31
0.0
  0
LINE
  5
996F
330
97F8
100
AcDbEntity
  8
1
  6
Continuous
100
AcDbLine
 10
242.636664
 20
165.2377669012676
 30
0.0
 11
242.136664
 21
165.2377669012676
 31
0.0
  0
LINE
  5
9970
330
97F8
100
AcDbEntity
  8
1
  6
Continuous
100
AcDbLine
 10
242.636664
 20
176.2377669012676
 30
0.0
 11
242.136664
 21
176.2377669012676
 31
0.0
  0
LINE
  5
9971
330
97F8
100
AcDbEntity
  8
1
  6
Continuous
100
AcDbLine
 10
242.636664
 20
163.2377669012676
 30
0.0
 11
244.9366669999998
 21
163.2377669012676
 31
0.0
  0
LINE
  5
9972
330
97F8
100
AcDbEntity
  8
1
  6
Continuous
100
AcDbLine
 10
269.4877
 20
178.2838169012675
 30
0.0
 11
268.436667
 21
178.3916139012676
 31
0.0
  0
LINE
  5
9973
330
97F8
100
AcDbEntity
  8
1
  6
Continuous
100
AcDbLine
 10
246.385645
 20
178.2838179012675
 30
0.0
 11
247.4366709999999
 21
178.3916149012676
 31
0.0
  0
ARC
  5
9974
330
97F8
100
AcDbEntity
  8
1
  6
Continuous
100
AcDbCircle
 10
275.236667
 20
215.9377669012676
 30
0.0
 40
2.0
100
AcDbArc
 50
89.99999100000001
 51
179.999973
  0
ARC
  5
9975
330
97F8
100
AcDbEntity
  8
1
  6
Continuous
100
AcDbCircle
 10
274.936667
 20
213.9377669012676
 30
0.0
 40
4.0
100
AcDbArc
 50
89.99999100000001
 51
179.999973
  0
LINE
  5
9976
330
97F8
100
AcDbEntity
  8
1
  6
Continuous
100
AcDbLine
 10
278.9106669999998
 20
220.2377669012676
 30
0.0
 11
278.9106669999998
 21
217.9377669012676
 31
0.0
  0
LINE
  5
9977
330
97F8
100
AcDbEntity
  8
4
  6
CENTER
 48
0.8
100
AcDbLine
 10
271.9366669999998
 20
225.2377669012675
 30
0.0
 11
271.9366669999998
 21
213.2021029012675
 31
0.0
  0
LINE
  5
9978
330
97F8
100
AcDbEntity
  8
4
  6
CENTER
 48
0.8
100
AcDbLine
 10
243.936667
 20
225.2377669012675
 30
0.0
 11
243.936667
 21
213.2021029012675
 31
0.0
  0
ARC
  5
9979
330
97F8
100
AcDbEntity
  8
1
  6
Continuous
100
AcDbCircle
 10
257.936667
 20
143.2377669012675
 30
0.0
 40
60.0
100
AcDbArc
 50
81.150046
 51
98.850931
  0
ARC
  5
997A
330
97F8
100
AcDbEntity
  8
1
  6
Continuous
100
AcDbCircle
 10
266.936667
 20
201.0413139012677
 30
0.0
 40
1.5
100
AcDbArc
 50
359.9999799999998
 51
81.15016899999998
  0
ARC
  5
997B
330
97F8
100
AcDbEntity
  8
1
  6
Continuous
100
AcDbCircle
 10
274.236667
 20
205.2377669012676
 30
0.0
 40
5.0
100
AcDbArc
 50
180.0
 51
228.70008
  0
ARC
  5
997C
330
97F8
100
AcDbEntity
  8
1
  6
Continuous
100
AcDbCircle
 10
266.23667
 20
214.9377659012676
 30
0.0
 40
3.0
100
AcDbArc
 50
359.9999899999998
 51
89.99999700000001
  0
LINE
  5
997D
330
97F8
100
AcDbEntity
  8
1
  6
Continuous
100
AcDbLine
 10
269.23667
 20
214.9377659012676
 30
0.0
 11
269.23667
 21
205.2377669012676
 31
0.0
  0
ARC
  5
997E
330
97F8
100
AcDbEntity
  8
1
  6
Continuous
100
AcDbCircle
 10
248.9366669999999
 20
201.0413139012677
 30
0.0
 40
1.5
100
AcDbArc
 50
98.849757
 51
179.999945
  0
ARC
  5
997F
330
97F8
100
AcDbEntity
  8
1
  6
Continuous
100
AcDbCircle
 10
241.636664
 20
205.2377669012676
 30
0.0
 40
5.0
100
AcDbArc
 50
311.2999299999998
 51
0.00001
  0
ARC
  5
9980
330
97F8
100
AcDbEntity
  8
1
  6
Continuous
100
AcDbCircle
 10
249.636664
 20
214.9377659012676
 30
0.0
 40
3.0
100
AcDbArc
 50
89.99999700000001
 51
180.0
  0
LINE
  5
9981
330
97F8
100
AcDbEntity
  8
1
  6
Continuous
100
AcDbLine
 10
246.636664
 20
214.9377659012676
 30
0.0
 11
246.636664
 21
205.2377669012676
 31
0.0
  0
LINE
  5
9982
330
97F8
100
AcDbEntity
  8
1
  6
Continuous
100
AcDbLine
 10
240.136664
 20
174.2377669012675
 30
0.0
 11
240.136664
 21
167.2377669012675
 31
0.0
  0
LINE
  5
9983
330
97F8
100
AcDbEntity
  8
1
  6
Continuous
100
AcDbLine
 10
236.9626669999999
 20
220.2377669012676
 30
0.0
 11
236.9626669999999
 21
217.9377669012676
 31
0.0
  0
LINE
  5
9984
330
97F8
100
AcDbEntity
  8
1
  6
Continuous
100
AcDbLine
 10
149.936667
 20
310.7377699012677
 30
0.0
 11
149.936667
 21
309.7377699012675
 31
0.0
  0
LINE
  5
9985
330
97F8
100
AcDbEntity
  8
1
  6
Continuous
100
AcDbLine
 10
155.9366669999998
 20
310.7377699012677
 30
0.0
 11
155.9366669999998
 21
309.7377699012675
 31
0.0
  0
LINE
  5
9986
330
97F8
100
AcDbEntity
  8
2
  6
Continuous
100
AcDbLine
 10
150.4781669999998
 20
311.2792699012678
 30
0.0
 11
150.4781669999998
 21
309.7377699012675
 31
0.0
  0
LINE
  5
9987
330
97F8
100
AcDbEntity
  8
2
  6
Continuous
100
AcDbLine
 10
155.395167
 20
311.2792699012678
 30
0.0
 11
155.395167
 21
309.7377699012675
 31
0.0
  0
LINE
  5
9988
330
97F8
100
AcDbEntity
  8
1
  6
Continuous
100
AcDbLine
 10
149.936667
 20
310.7377699012677
 30
0.0
 11
155.9366669999998
 21
310.7377699012677
 31
0.0
  0
LINE
  5
9989
330
97F8
100
AcDbEntity
  8
1
  6
Continuous
100
AcDbLine
 10
150.936667
 20
311.7377699012675
 30
0.0
 11
154.9366669999998
 21
311.7377699012675
 31
0.0
  0
LINE
  5
998A
330
97F8
100
AcDbEntity
  8
1
  6
Continuous
100
AcDbLine
 10
150.936667
 20
311.7377699012675
 30
0.0
 11
149.936667
 21
310.7377699012677
 31
0.0
  0
LINE
  5
998B
330
97F8
100
AcDbEntity
  8
1
  6
Continuous
100
AcDbLine
 10
154.9366669999998
 20
311.7377699012675
 30
0.0
 11
155.9366669999998
 21
310.7377699012677
 31
0.0
  0
LINE
  5
998C
330
97F8
100
AcDbEntity
  8
1
  6
Continuous
100
AcDbLine
 10
26.03666700000002
 20
168.7377669012676
 30
0.0
 11
26.03666700000002
 21
172.7377669012676
 31
0.0
  0
LINE
  5
998D
330
97F8
100
AcDbEntity
  8
1
  6
Continuous
100
AcDbLine
 10
27.03666699999996
 20
167.7377669012676
 30
0.0
 11
27.03666699999996
 21
173.7377669012676
 31
0.0
  0
LINE
  5
998E
330
97F8
100
AcDbEntity
  8
1
  6
Continuous
100
AcDbLine
 10
27.03666699999996
 20
167.7377669012676
 30
0.0
 11
28.03666699999996
 21
167.7377669012676
 31
0.0
  0
LINE
  5
998F
330
97F8
100
AcDbEntity
  8
2
  6
Continuous
100
AcDbLine
 10
26.49516699999998
 20
168.2792669012676
 30
0.0
 11
28.03666699999996
 21
168.2792669012676
 31
0.0
  0
LINE
  5
9990
330
97F8
100
AcDbEntity
  8
1
  6
Continuous
100
AcDbLine
 10
26.03666700000002
 20
168.7377669012676
 30
0.0
 11
27.03666699999996
 21
167.7377669012676
 31
0.0
  0
LINE
  5
9991
330
97F8
100
AcDbEntity
  8
1
  6
Continuous
100
AcDbLine
 10
27.03666699999996
 20
173.7377669012676
 30
0.0
 11
28.03666699999996
 21
173.7377669012676
 31
0.0
  0
LINE
  5
9992
330
97F8
100
AcDbEntity
  8
2
  6
Continuous
100
AcDbLine
 10
26.49516699999998
 20
173.1962669012676
 30
0.0
 11
28.03666699999996
 21
173.1962669012676
 31
0.0
  0
LINE
  5
9993
330
97F8
100
AcDbEntity
  8
1
  6
Continuous
100
AcDbLine
 10
26.03666700000002
 20
172.7377669012676
 30
0.0
 11
27.03666699999996
 21
173.7377669012676
 31
0.0
  0
LINE
  5
9994
330
97F8
100
AcDbEntity
  8
2
  6
Continuous
100
AcDbLine
 10
279.378167
 20
168.2792669012676
 30
0.0
 11
277.836667
 21
168.2792669012676
 31
0.0
  0
LINE
  5
9995
330
97F8
100
AcDbEntity
  8
1
  6
Continuous
100
AcDbLine
 10
279.8366669999999
 20
168.7377669012676
 30
0.0
 11
278.8366669999999
 21
167.7377669012676
 31
0.0
  0
LINE
  5
9996
330
97F8
100
AcDbEntity
  8
2
  6
Continuous
100
AcDbLine
 10
279.378167
 20
173.1962669012676
 30
0.0
 11
277.836667
 21
173.1962669012676
 31
0.0
  0
LINE
  5
9997
330
97F8
100
AcDbEntity
  8
1
  6
Continuous
100
AcDbLine
 10
279.8366669999999
 20
172.7377669012676
 30
0.0
 11
278.8366669999999
 21
173.7377669012676
 31
0.0
  0
LINE
  5
9998
330
97F8
100
AcDbEntity
  8
1
  6
Continuous
100
AcDbLine
 10
278.8366669999999
 20
167.7377669012676
 30
0.0
 11
278.8366669999999
 21
173.7377669012676
 31
0.0
  0
LINE
  5
9999
330
97F8
100
AcDbEntity
  8
1
  6
Continuous
100
AcDbLine
 10
278.8366669999999
 20
167.7377669012676
 30
0.0
 11
277.836667
 21
167.7377669012676
 31
0.0
  0
LINE
  5
999A
330
97F8
100
AcDbEntity
  8
1
  6
Continuous
100
AcDbLine
 10
278.8366669999999
 20
173.7377669012676
 30
0.0
 11
277.836667
 21
173.7377669012676
 31
0.0
  0
LINE
  5
999B
330
97F8
100
AcDbEntity
  8
1
  6
Continuous
100
AcDbLine
 10
279.8366669999999
 20
168.7377669012676
 30
0.0
 11
279.8366669999999
 21
172.7377669012676
 31
0.0
  0
LINE
  5
999C
330
97F8
100
AcDbEntity
  8
1
  6
Continuous
100
AcDbLine
 10
150.936667
 20
46.73776390126767
 30
0.0
 11
149.936667
 21
47.73776390126767
 31
0.0
  0
LINE
  5
999D
330
97F8
100
AcDbEntity
  8
1
  6
Continuous
100
AcDbLine
 10
154.9366669999998
 20
46.73776390126767
 30
0.0
 11
155.9366669999998
 21
47.73776390126767
 31
0.0
  0
LINE
  5
999E
330
97F8
100
AcDbEntity
  8
1
  6
Continuous
100
AcDbLine
 10
150.936667
 20
46.73776390126767
 30
0.0
 11
154.9366669999998
 21
46.73776390126767
 31
0.0
  0
LINE
  5
999F
330
97F8
100
AcDbEntity
  8
1
  6
Continuous
100
AcDbLine
 10
149.936667
 20
47.73776390126767
 30
0.0
 11
155.9366669999998
 21
47.73776390126767
 31
0.0
  0
LINE
  5
99A0
330
97F8
100
AcDbEntity
  8
2
  6
Continuous
100
AcDbLine
 10
150.4781669999998
 20
47.19626390126767
 30
0.0
 11
150.4781669999998
 21
48.73776390126765
 31
0.0
  0
LINE
  5
99A1
330
97F8
100
AcDbEntity
  8
1
  6
Continuous
100
AcDbLine
 10
149.936667
 20
47.73776390126767
 30
0.0
 11
149.936667
 21
48.73776390126765
 31
0.0
  0
LINE
  5
99A2
330
97F8
100
AcDbEntity
  8
2
  6
Continuous
100
AcDbLine
 10
155.395167
 20
47.19626390126767
 30
0.0
 11
155.395167
 21
48.73776390126765
 31
0.0
  0
LINE
  5
99A3
330
97F8
100
AcDbEntity
  8
1
  6
Continuous
100
AcDbLine
 10
155.9366669999998
 20
47.73776390126767
 30
0.0
 11
155.9366669999998
 21
48.73776390126765
 31
0.0
  0
ENDSEC
  0
SECTION
  2
OBJECTS
  0
DICTIONARY
  5
97E6
330
0
100
AcDbDictionary
281
     1
  3
ACAD_CIP_PREVIOUS_PRODUCT_INFO
350
9A43
  3
ACAD_COLOR
350
9A25
  3
ACAD_DETAILVIEWSTYLE
350
9A3E
  3
ACAD_GROUP
350
97E7
  3
ACAD_LAYOUT
350
97F3
  3
ACAD_MATERIAL
350
99F3
  3
ACAD_MLEADERSTYLE
350
9A3A
  3
ACAD_MLINESTYLE
350
97F0
  3
ACAD_PLOTSETTINGS
350
97F2
  3
ACAD_PLOTSTYLENAME
350
99F1
  3
ACAD_SCALELIST
350
9A28
  3
ACAD_SECTIONVIEWSTYLE
350
9A3C
  3
ACAD_TABLESTYLE
350
9A26
  3
ACAD_VISUALSTYLE
350
9A0C
  3
ACDB_RECOMPOSE_DATA
350
9A61
  3
AcDbVariableDictionary
350
9A54
  3
DWGPROPS
350
9A62
  0
DICTIONARY
  5
9A44
330
97EA
100
AcDbDictionary
280
     1
281
     1
  3
ADSK_XREC_LAYER_RECONCILED
360
9A45
  0
DICTIONARY
  5
9A46
330
9800
100
AcDbDictionary
280
     1
281
     1
  3
ADSK_XREC_LAYER_RECONCILED
360
9A47
  0
DICTIONARY
  5
9A48
330
9801
100
AcDbDictionary
280
     1
281
     1
  3
ADSK_XREC_LAYER_RECONCILED
360
9A49
  0
DICTIONARY
  5
9A4A
330
9802
100
AcDbDictionary
280
     1
281
     1
  3
ADSK_XREC_LAYER_RECONCILED
360
9A4B
  0
DICTIONARY
  5
9A4C
330
9803
100
AcDbDictionary
280
     1
281
     1
  3
ADSK_XREC_LAYER_RECONCILED
360
9A4D
  0
DICTIONARY
  5
9A4E
330
9804
100
AcDbDictionary
280
     1
281
     1
  3
ADSK_XREC_LAYER_RECONCILED
360
9A4F
  0
DICTIONARY
  5
9A50
330
9805
100
AcDbDictionary
280
     1
281
     1
  3
ADSK_XREC_LAYER_RECONCILED
360
9A51
  0
DICTIONARY
  5
9A52
330
9806
100
AcDbDictionary
280
     1
281
     1
  3
ADSK_XREC_LAYER_RECONCILED
360
9A53
  0
DICTIONARY
  5
99AE
330
97F8
100
AcDbDictionary
281
     1
  3
ACAD_LAYOUTSELFREF
350
99ED
  0
DICTIONARY
  5
99AC
330
97F4
100
AcDbDictionary
281
     1
  3
ACAD_LAYOUTSELFREF
350
99EC
  0
XRECORD
  5
9A43
102
{ACAD_REACTORS
330
97E6
102
}
330
97E6
100
AcDbXrecord
280
     1
300
ACDLT
300
2014
300
ACDLT_F_S
  0
DICTIONARY
  5
9A25
102
{ACAD_REACTORS
330
97E6
102
}
330
97E6
100
AcDbDictionary
281
     1
  0
DICTIONARY
  5
9A3E
102
{ACAD_REACTORS
330
97E6
102
}
330
97E6
100
AcDbDictionary
281
     1
  3
Imperial24
350
9A3F
  0
DICTIONARY
  5
97E7
102
{ACAD_REACTORS
330
97E6
102
}
330
97E6
100
AcDbDictionary
281
     1
  0
DICTIONARY
  5
97F3
102
{ACAD_REACTORS
330
97E6
102
}
330
97E6
100
AcDbDictionary
281
     1
  3
Model
350
9A40
  3
レイアウト1
350
9A41
  0
DICTIONARY
  5
99F3
102
{ACAD_REACTORS
330
97E6
102
}
330
97E6
100
AcDbDictionary
281
     1
  3
ByBlock
350
99FC
  3
ByLayer
350
99F4
  3
Global
350
9A04
  0
DICTIONARY
  5
9A3A
102
{ACAD_REACTORS
330
97E6
102
}
330
97E6
100
AcDbDictionary
281
     1
  3
Standard
350
9A3B
  0
DICTIONARY
  5
97F0
102
{ACAD_REACTORS
330
97E6
102
}
330
97E6
100
AcDbDictionary
281
     1
  3
STANDARD
350
97F1
  0
DICTIONARY
  5
97F2
102
{ACAD_REACTORS
330
97E6
102
}
330
97E6
100
AcDbDictionary
281
     1
  0
ACDBDICTIONARYWDFLT
  5
99F1
102
{ACAD_REACTORS
330
97E6
102
}
330
97E6
100
AcDbDictionary
281
     1
  3
Normal
350
99F2
100
AcDbDictionaryWithDefault
340
99F2
  0
DICTIONARY
  5
9A28
102
{ACAD_REACTORS
330
97E6
102
}
330
97E6
100
AcDbDictionary
281
     1
  3
A0
350
9A29
  3
A1
350
9A2A
  3
A2
350
9A2B
  3
A3
350
9A2C
  3
A4
350
9A2D
  3
A5
350
9A2E
  3
A6
350
9A2F
  3
A7
350
9A30
  3
A8
350
9A31
  3
A9
350
9A32
  3
B0
350
9A33
  3
B1
350
9A34
  3
B2
350
9A35
  3
B3
350
9A36
  3
B4
350
9A37
  3
B5
350
9A38
  3
B6
350
9A39
  0
DICTIONARY
  5
9A3C
102
{ACAD_REACTORS
330
97E6
102
}
330
97E6
100
AcDbDictionary
281
     1
  3
Imperial24
350
9A3D
  0
DICTIONARY
  5
9A26
102
{ACAD_REACTORS
330
97E6
102
}
330
97E6
100
AcDbDictionary
281
     1
  3
Standard
350
9A27
  0
DICTIONARY
  5
9A0C
102
{ACAD_REACTORS
330
97E6
102
}
330
97E6
100
AcDbDictionary
281
     1
  3
2dWireframe
350
9A12
  3
Basic
350
9A11
  3
Brighten
350
9A18
  3
ColorChange
350
9A1C
  3
Conceptual
350
9A15
  3
Dim
350
9A17
  3
EdgeColorOff
350
9A24
  3
Facepattern
350
9A1B
  3
Flat
350
9A0D
  3
FlatWithEdges
350
9A0E
  3
Gouraud
350
9A0F
  3
GouraudWithEdges
350
9A10
  3
Hidden
350
9A14
  3
JitterOff
350
9A22
  3
Linepattern
350
9A1A
  3
OverhangOff
350
9A23
  3
Realistic
350
9A16
  3
Shaded
350
9A21
  3
Shaded with edges
350
9A20
  3
Shades of Gray
350
9A1D
  3
Sketchy
350
9A1E
  3
Thicken
350
9A19
  3
Wireframe
350
9A13
  3
X-Ray
350
9A1F
  0
XRECORD
  5
9A61
102
{ACAD_REACTORS
330
97E6
102
}
330
97E6
100
AcDbXrecord
280
     1
 90
        1
330
9A27
  0
DICTIONARY
  5
9A54
102
{ACAD_REACTORS
330
97E6
102
}
330
97E6
100
AcDbDictionary
281
     1
  3
CANNOSCALE
350
9A59
  3
CMLEADERSTYLE
350
9A56
  3
CTABLESTYLE
350
9A55
  3
CVIEWDETAILSTYLE
350
9A57
  3
CVIEWSECTIONSTYLE
350
9A58
  3
DIMASSOC
350
9A5C
  3
INDEXCTL
350
9A5B
  3
SORTENTS
350
9A5A
  3
XCLIPFRAME
350
9A5D
  0
XRECORD
  5
9A62
102
{ACAD_REACTORS
330
97E6
102
}
330
97E6
100
AcDbXrecord
280
     1
  1
DWGPROPS COOKIE
  2

  3

  4

  6

  7

  8
Yoshitsune
  9

300
=
301
=
302
=
303
=
304
=
305
=
306
=
307
=
308
=
309
=
 40
0.110557349537037
 41
2451301.454390162
 42
2457192.690185509
  1

 90
        0
  0
XRECORD
  5
9A45
102
{ACAD_REACTORS
330
9A44
102
}
330
9A44
100
AcDbXrecord
280
     1
290
     1
  0
XRECORD
  5
9A47
102
{ACAD_REACTORS
330
9A46
102
}
330
9A46
100
AcDbXrecord
280
     1
290
     1
  0
XRECORD
  5
9A49
102
{ACAD_REACTORS
330
9A48
102
}
330
9A48
100
AcDbXrecord
280
     1
290
     1
  0
XRECORD
  5
9A4B
102
{ACAD_REACTORS
330
9A4A
102
}
330
9A4A
100
AcDbXrecord
280
     1
290
     1
  0
XRECORD
  5
9A4D
102
{ACAD_REACTORS
330
9A4C
102
}
330
9A4C
100
AcDbXrecord
280
     1
290
     1
  0
XRECORD
  5
9A4F
102
{ACAD_REACTORS
330
9A4E
102
}
330
9A4E
100
AcDbXrecord
280
     1
290
     1
  0
XRECORD
  5
9A51
102
{ACAD_REACTORS
330
9A50
102
}
330
9A50
100
AcDbXrecord
280
     1
290
     1
  0
XRECORD
  5
9A53
102
{ACAD_REACTORS
330
9A52
102
}
330
9A52
100
AcDbXrecord
280
     1
290
     1
  0
XRECORD
  5
99ED
102
{ACAD_REACTORS
330
99AE
102
}
330
99AE
100
AcDbXrecord
280
     1
340
97F8
  0
XRECORD
  5
99EC
102
{ACAD_REACTORS
330
99AC
102
}
330
99AC
100
AcDbXrecord
280
     1
340
97F4
  0
ACDBDETAILVIEWSTYLE
  5
9A3F
102
{ACAD_XDICTIONARY
360
9A9A
102
}
102
{ACAD_REACTORS
330
9A3E
102
}
330
9A3E
100
AcDbModelDocViewStyle
 70
     0
  3
Imperial24
290
     0
100
AcDbDetailViewStyle
 70
     0
 71
     0
 90
        3
 71
     1
340
97EB
 40
0.24
340
0
 40
0.24
300

 40
0.36
280
     3
 71
     2
340
97EF
 90
       25
 71
     3
340
97EB
 40
0.24
 90
        1
 40
0.75
 90
        1
300
%<\AcVar ViewType \f "%tc1">% %<\AcVar ViewDetailId>%\PSCALE %<\AcVar ViewScale \f "%sn">%
 71
     4
340
97EF
 90
       25
340
97EF
 90
       25
280
     0
  0
LAYOUT
  5
9A40
102
{ACAD_XDICTIONARY
360
9A9C
102
}
102
{ACAD_REACTORS
330
97F3
102
}
330
97F3
100
AcDbPlotSettings
  1

  2
Canon LBP9100C
  4

  6

 40
0.0
 41
0.0
 42
0.0
 43
0.0
 44
0.0
 45
0.0
 46
0.0
 47
0.0
 48
0.0
 49
0.0
140
0.0
141
0.0
142
1.0
143
1.0
 70
  1712
 72
     0
 73
     0
 74
     0
  7

 75
     0
147
1.0
148
0.0
149
0.0
100
AcDbLayout
  1
Model
 70
     1
 71
     0
 10
0.0
 20
0.0
 11
12.0
 21
9.0
 12
0.0
 22
0.0
 32
0.0
 14
0.0
 24
0.0
 34
0.0
 15
0.0
 25
0.0
 35
0.0
146
0.0
 13
0.0
 23
0.0
 33
0.0
 16
1.0
 26
0.0
 36
0.0
 17
0.0
 27
1.0
 37
0.0
 76
     0
330
97F8
331
99EB
  0
LAYOUT
  5
9A41
102
{ACAD_XDICTIONARY
360
9A9E
102
}
102
{ACAD_REACTORS
330
97F3
102
}
330
97F3
100
AcDbPlotSettings
  1

  2
Canon LBP9100C
  4

  6

 40
0.0
 41
0.0
 42
0.0
 43
0.0
 44
0.0
 45
0.0
 46
0.0
 47
0.0
 48
0.0
 49
0.0
140
0.0
141
0.0
142
1.0
143
1.0
 70
   688
 72
     0
 73
     0
 74
     5
  7

 75
    16
147
1.0
148
0.0
149
0.0
100
AcDbLayout
  1
レイアウト1
 70
     0
 71
     1
 10
0.0
 20
0.0
 11
420.0
 21
297.0
 12
0.0
 22
0.0
 32
0.0
 14
1.000000000000000E+20
 24
1.000000000000000E+20
 34
1.000000000000000E+20
 15
-1.000000000000000E+20
 25
-1.000000000000000E+20
 35
-1.000000000000000E+20
146
0.0
 13
0.0
 23
0.0
 33
0.0
 16
1.0
 26
0.0
 36
0.0
 17
0.0
 27
1.0
 37
0.0
 76
     0
330
97F4
  0
MATERIAL
  5
99FC
102
{ACAD_XDICTIONARY
360
99FD
102
}
102
{ACAD_REACTORS
330
99F3
102
}
330
99F3
100
AcDbMaterial
  1
ByBlock
 72
     0
 43
0.0208333333333333
 43
0.0
 43
0.0
 43
0.0
 43
0.0
 43
0.0208333333333333
 43
0.0
 43
0.0
 43
0.0
 43
0.0
 43
1.0
 43
0.0
 43
0.0
 43
0.0
 43
0.0
 43
1.0
 77
     0
 47
0.0208333333333333
 47
0.0
 47
0.0
 47
0.0
 47
0.0
 47
0.0208333333333333
 47
0.0
 47
0.0
 47
0.0
 47
0.0
 47
1.0
 47
0.0
 47
0.0
 47
0.0
 47
0.0
 47
1.0
171
     0
 49
0.0208333333333333
 49
0.0
 49
0.0
 49
0.0
 49
0.0
 49
0.0208333333333333
 49
0.0
 49
0.0
 49
0.0
 49
0.0
 49
1.0
 49
0.0
 49
0.0
 49
0.0
 49
0.0
 49
1.0
175
     0
142
0.0208333333333333
142
0.0
142
0.0
142
0.0
142
0.0
142
0.0208333333333333
142
0.0
142
0.0
142
0.0
142
0.0
142
1.0
142
0.0
142
0.0
142
0.0
142
0.0
142
1.0
179
     0
144
0.0208333333333333
144
0.0
144
0.0
144
0.0
144
0.0
144
0.0208333333333333
144
0.0
144
0.0
144
0.0
144
0.0
144
1.0
144
0.0
144
0.0
144
0.0
144
0.0
144
1.0
147
0.0208333333333333
147
0.0
147
0.0
147
0.0
147
0.0
147
0.0208333333333333
147
0.0
147
0.0
147
0.0
147
0.0
147
1.0
147
0.0
147
0.0
147
0.0
147
0.0
147
1.0
  0
MATERIAL
  5
99F4
102
{ACAD_XDICTIONARY
360
99F5
102
}
102
{ACAD_REACTORS
330
99F3
102
}
330
99F3
100
AcDbMaterial
  1
ByLayer
 72
     0
 43
0.0208333333333333
 43
0.0
 43
0.0
 43
0.0
 43
0.0
 43
0.0208333333333333
 43
0.0
 43
0.0
 43
0.0
 43
0.0
 43
1.0
 43
0.0
 43
0.0
 43
0.0
 43
0.0
 43
1.0
 77
     0
 47
0.0208333333333333
 47
0.0
 47
0.0
 47
0.0
 47
0.0
 47
0.0208333333333333
 47
0.0
 47
0.0
 47
0.0
 47
0.0
 47
1.0
 47
0.0
 47
0.0
 47
0.0
 47
0.0
 47
1.0
171
     0
 49
0.0208333333333333
 49
0.0
 49
0.0
 49
0.0
 49
0.0
 49
0.0208333333333333
 49
0.0
 49
0.0
 49
0.0
 49
0.0
 49
1.0
 49
0.0
 49
0.0
 49
0.0
 49
0.0
 49
1.0
175
     0
142
0.0208333333333333
142
0.0
142
0.0
142
0.0
142
0.0
142
0.0208333333333333
142
0.0
142
0.0
142
0.0
142
0.0
142
1.0
142
0.0
142
0.0
142
0.0
142
0.0
142
1.0
179
     0
144
0.0208333333333333
144
0.0
144
0.0
144
0.0
144
0.0
144
0.0208333333333333
144
0.0
144
0.0
144
0.0
144
0.0
144
1.0
144
0.0
144
0.0
144
0.0
144
0.0
144
1.0
147
0.0208333333333333
147
0.0
147
0.0
147
0.0
147
0.0
147
0.0208333333333333
147
0.0
147
0.0
147
0.0
147
0.0
147
1.0
147
0.0
147
0.0
147
0.0
147
0.0
147
1.0
  0
MATERIAL
  5
9A04
102
{ACAD_XDICTIONARY
360
9A05
102
}
102
{ACAD_REACTORS
330
99F3
102
}
330
99F3
100
AcDbMaterial
  1
Global
 72
     0
 43
0.0208333333333333
 43
0.0
 43
0.0
 43
0.0
 43
0.0
 43
0.0208333333333333
 43
0.0
 43
0.0
 43
0.0
 43
0.0
 43
1.0
 43
0.0
 43
0.0
 43
0.0
 43
0.0
 43
1.0
 77
     0
 47
0.0208333333333333
 47
0.0
 47
0.0
 47
0.0
 47
0.0
 47
0.0208333333333333
 47
0.0
 47
0.0
 47
0.0
 47
0.0
 47
1.0
 47
0.0
 47
0.0
 47
0.0
 47
0.0
 47
1.0
171
     0
 49
0.0208333333333333
 49
0.0
 49
0.0
 49
0.0
 49
0.0
 49
0.0208333333333333
 49
0.0
 49
0.0
 49
0.0
 49
0.0
 49
1.0
 49
0.0
 49
0.0
 49
0.0
 49
0.0
 49
1.0
175
     0
142
0.0208333333333333
142
0.0
142
0.0
142
0.0
142
0.0
142
0.0208333333333333
142
0.0
142
0.0
142
0.0
142
0.0
142
1.0
142
0.0
142
0.0
142
0.0
142
0.0
142
1.0
179
     0
144
0.0208333333333333
144
0.0
144
0.0
144
0.0
144
0.0
144
0.0208333333333333
144
0.0
144
0.0
144
0.0
144
0.0
144
1.0
144
0.0
144
0.0
144
0.0
144
0.0
144
1.0
147
0.0208333333333333
147
0.0
147
0.0
147
0.0
147
0.0
147
0.0208333333333333
147
0.0
147
0.0
147
0.0
147
0.0
147
1.0
147
0.0
147
0.0
147
0.0
147
0.0
147
1.0
  0
MLEADERSTYLE
  5
9A3B
102
{ACAD_REACTORS
330
9A3A
102
}
330
9A3A
100
AcDbMLeaderStyle
170
     2
171
     1
172
     0
 90
        2
 40
0.0
 41
0.0
173
     1
 91
-1056964608
340
97ED
 92
       -2
290
     1
 42
0.09
291
     1
 43
0.36
  3
Standard
 44
0.18
300

342
97EB
174
     1
178
     6
175
     1
176
     0
 93
-1056964608
 45
0.18
292
     0
297
     0
 46
0.18
 94
-1056964608
 47
1.0
 49
1.0
140
1.0
293
     1
141
0.0
294
     1
177
     0
142
1.0
295
     0
296
     0
143
0.125
1001
ACAD_MLEADERVER
1070
     2
  0
MLINESTYLE
  5
97F1
102
{ACAD_REACTORS
330
97F0
102
}
330
97F0
100
AcDbMlineStyle
  2
STANDARD
 70
     0
  3

 62
   256
 51
90.0
 52
90.0
 71
     2
 49
0.5
 62
   256
  6
BYLAYER
 49
-0.5
 62
   256
  6
BYLAYER
  0
ACDBPLACEHOLDER
  5
99F2
102
{ACAD_REACTORS
330
99F1
102
}
330
99F1
  0
SCALE
  5
9A29
102
{ACAD_REACTORS
330
9A28
102
}
330
9A28
100
AcDbScale
 70
     0
300
1:1
140
1.0
141
1.0
290
     1
  0
SCALE
  5
9A2A
102
{ACAD_REACTORS
330
9A28
102
}
330
9A28
100
AcDbScale
 70
     0
300
1/128" = 1'-0"
140
0.0078125
141
12.0
290
     0
  0
SCALE
  5
9A2B
102
{ACAD_REACTORS
330
9A28
102
}
330
9A28
100
AcDbScale
 70
     0
300
1/64" = 1'-0"
140
0.015625
141
12.0
290
     0
  0
SCALE
  5
9A2C
102
{ACAD_REACTORS
330
9A28
102
}
330
9A28
100
AcDbScale
 70
     0
300
1/32" = 1'-0"
140
0.03125
141
12.0
290
     0
  0
SCALE
  5
9A2D
102
{ACAD_REACTORS
330
9A28
102
}
330
9A28
100
AcDbScale
 70
     0
300
1/16" = 1'-0"
140
0.0625
141
12.0
290
     0
  0
SCALE
  5
9A2E
102
{ACAD_REACTORS
330
9A28
102
}
330
9A28
100
AcDbScale
 70
     0
300
3/32" = 1'-0"
140
0.09375
141
12.0
290
     0
  0
SCALE
  5
9A2F
102
{ACAD_REACTORS
330
9A28
102
}
330
9A28
100
AcDbScale
 70
     0
300
1/8" = 1'-0"
140
0.125
141
12.0
290
     0
  0
SCALE
  5
9A30
102
{ACAD_REACTORS
330
9A28
102
}
330
9A28
100
AcDbScale
 70
     0
300
3/16" = 1'-0"
140
0.1875
141
12.0
290
     0
  0
SCALE
  5
9A31
102
{ACAD_REACTORS
330
9A28
102
}
330
9A28
100
AcDbScale
 70
     0
300
1/4" = 1'-0"
140
0.25
141
12.0
290
     0
  0
SCALE
  5
9A32
102
{ACAD_REACTORS
330
9A28
102
}
330
9A28
100
AcDbScale
 70
     0
300
3/8" = 1'-0"
140
0.375
141
12.0
290
     0
  0
SCALE
  5
9A33
102
{ACAD_REACTORS
330
9A28
102
}
330
9A28
100
AcDbScale
 70
     0
300
1/2" = 1'-0"
140
0.5
141
12.0
290
     0
  0
SCALE
  5
9A34
102
{ACAD_REACTORS
330
9A28
102
}
330
9A28
100
AcDbScale
 70
     0
300
3/4" = 1'-0"
140
0.75
141
12.0
290
     0
  0
SCALE
  5
9A35
102
{ACAD_REACTORS
330
9A28
102
}
330
9A28
100
AcDbScale
 70
     0
300
1" = 1'-0"
140
1.0
141
12.0
290
     0
  0
SCALE
  5
9A36
102
{ACAD_REACTORS
330
9A28
102
}
330
9A28
100
AcDbScale
 70
     0
300
1-1/2" = 1'-0"
140
1.5
141
12.0
290
     0
  0
SCALE
  5
9A37
102
{ACAD_REACTORS
330
9A28
102
}
330
9A28
100
AcDbScale
 70
     0
300
3" = 1'-0"
140
3.0
141
12.0
290
     0
  0
SCALE
  5
9A38
102
{ACAD_REACTORS
330
9A28
102
}
330
9A28
100
AcDbScale
 70
     0
300
6" = 1'-0"
140
6.0
141
12.0
290
     0
  0
SCALE
  5
9A39
102
{ACAD_REACTORS
330
9A28
102
}
330
9A28
100
AcDbScale
 70
     0
300
1'-0" = 1'-0"
140
12.0
141
12.0
290
     0
  0
ACDBSECTIONVIEWSTYLE
  5
9A3D
102
{ACAD_XDICTIONARY
360
9A98
102
}
102
{ACAD_REACTORS
330
9A3C
102
}
330
9A3C
100
AcDbModelDocViewStyle
 70
     0
  3
Imperial24
290
     0
100
AcDbSectionViewStyle
 70
     0
 71
     0
 90
       78
 71
     1
340
97EB
 40
0.24
340
0
340
0
 40
0.24
300
I, O, Q, S, X, Z
 40
0.48
 90
        3
 40
0.18
 90
        1
 71
     2
340
97EF
 90
       25
340
97EF
 90
       50
 40
0.24
 40
0.0
 40
0.24
 71
     3
340
97EB
 40
0.24
 90
        1
 40
0.75
 90
        1
300
%<\AcVar ViewType \f "%tc1">% %<\AcVar ViewSectionStartId>%-%<\AcVar ViewSectionEndId>%\PSCALE %<\AcVar ViewScale \f "%sn">%
 71
     4
300
ANSI31
 40
1.0
 90
        0
290
     0
290
     0
 90
        6
 40
0.0
 40
1.570796326794896
 40
0.2617993877991494
 40
1.308996938995747
 40
-0.2617993877991494
 40
1.832595714594046
  0
TABLESTYLE
  5
9A27
102
{ACAD_XDICTIONARY
360
9A5F
102
}
102
{ACAD_REACTORS
330
9A26
102
}
330
9A26
100
AcDbTableStyle
  3
Standard
 70
     0
 71
     0
 40
0.06
 41
0.06
280
     0
281
     0
  7
STANDARD
140
0.18
170
     2
 62
     0
 63
     7
283
     0
274
    -2
284
     1
 64
     0
275
    -2
285
     1
 65
     0
276
    -2
286
     1
 66
     0
277
    -2
287
     1
 67
     0
278
    -2
288
     1
 68
     0
279
    -2
289
     1
 69
     0
  7
STANDARD
140
0.25
170
     5
 62
     0
 63
     7
283
     0
274
    -2
284
     1
 64
     0
275
    -2
285
     1
 65
     0
276
    -2
286
     1
 66
     0
277
    -2
287
     1
 67
     0
278
    -2
288
     1
 68
     0
279
    -2
289
     1
 69
     0
  7
STANDARD
140
0.18
170
     5
 62
     0
 63
     7
283
     0
274
    -2
284
     1
 64
     0
275
    -2
285
     1
 65
     0
276
    -2
286
     1
 66
     0
277
    -2
287
     1
 67
     0
278
    -2
288
     1
 68
     0
279
    -2
289
     1
 69
     0
  0
VISUALSTYLE
  5
9A12
102
{ACAD_XDICTIONARY
360
9A70
102
}
102
{ACAD_REACTORS
330
9A0C
102
}
330
9A0C
100
AcDbVisualStyle
  2
2dWireframe
 70
     4
 71
     0
 72
     2
 73
     0
 90
        0
 40
-0.6
 41
-30.0
 62
     5
 63
     7
 74
     1
 91
        4
 64
     7
 65
   257
 75
     1
175
     1
 42
1.0
 92
        0
 66
   257
 43
1.0
 76
     1
 77
     6
 78
     2
 67
     7
 79
     5
170
     0
171
     0
290
     0
174
     0
 93
        1
 44
0.0
173
     0
291
     0
 45
0.0
1001
ACAD
1000
AcDbSavedByObjectVersion
1070
     0
  0
VISUALSTYLE
  5
9A11
102
{ACAD_XDICTIONARY
360
9A6E
102
}
102
{ACAD_REACTORS
330
9A0C
102
}
330
9A0C
100
AcDbVisualStyle
  2
Basic
 70
     7
 71
     1
 72
     0
 73
     1
 90
        0
 40
-0.6
 41
-30.0
 62
     5
 63
     7
 74
     0
 91
        4
 64
     7
 65
   257
 75
     1
175
     1
 42
1.0
 92
        8
 66
     7
 43
1.0
 76
     1
 77
     6
 78
     2
 67
     7
 79
     5
170
     0
171
     0
290
     0
174
     0
 93
        1
 44
0.0
173
     0
291
     1
 45
0.0
1001
ACAD
1000
AcDbSavedByObjectVersion
1070
     0
  0
VISUALSTYLE
  5
9A18
102
{ACAD_XDICTIONARY
360
9A7C
102
}
102
{ACAD_REACTORS
330
9A0C
102
}
330
9A0C
100
AcDbVisualStyle
  2
Brighten
 70
    12
 71
     2
 72
     2
 73
     0
 90
        0
 40
-0.6
 41
-30.0
 62
     5
 63
     7
 74
     1
 91
        4
 64
     7
 65
   257
 75
     1
175
     1
 42
1.0
 92
        8
 66
     7
 43
1.0
 76
     1
 77
     6
 78
     2
 67
     7
 79
     5
170
     0
171
     0
290
     0
174
     0
 93
        1
 44
50.0
173
     0
291
     1
 45
0.0
1001
ACAD
1000
AcDbSavedByObjectVersion
1070
     0
  0
VISUALSTYLE
  5
9A1C
102
{ACAD_XDICTIONARY
360
9A84
102
}
102
{ACAD_REACTORS
330
9A0C
102
}
330
9A0C
100
AcDbVisualStyle
  2
ColorChange
 70
    16
 71
     2
 72
     2
 73
     3
 90
        0
 40
-0.6
 41
-30.0
 62
     5
 63
     8
 74
     1
 91
        4
 64
     7
 65
   257
 75
     1
175
     1
 42
1.0
 92
        8
 66
     8
 43
1.0
 76
     1
 77
     6
 78
     2
 67
     7
 79
     5
170
     0
171
     0
290
     0
174
     0
 93
        1
 44
0.0
173
     0
291
     1
 45
0.0
1001
ACAD
1000
AcDbSavedByObjectVersion
1070
     0
  0
VISUALSTYLE
  5
9A15
102
{ACAD_XDICTIONARY
360
9A76
102
}
102
{ACAD_REACTORS
330
9A0C
102
}
330
9A0C
100
AcDbVisualStyle
  2
Conceptual
 70
     9
 71
     3
 72
     2
 73
     0
 90
        0
 40
-0.6
 41
-30.0
 62
     5
 63
     7
 74
     2
 91
        2
 64
     7
 65
   257
 75
     1
175
     1
 42
179.0
 92
        8
 66
     7
 43
1.0
 76
     1
 77
     6
 78
     2
 67
     7
 79
     3
170
     0
171
     0
290
     0
174
     0
 93
        1
 44
0.0
173
     0
291
     0
 45
0.0
1001
ACAD
1000
AcDbSavedByObjectVersion
1070
     0
  0
VISUALSTYLE
  5
9A17
102
{ACAD_XDICTIONARY
360
9A7A
102
}
102
{ACAD_REACTORS
330
9A0C
102
}
330
9A0C
100
AcDbVisualStyle
  2
Dim
 70
    11
 71
     2
 72
     2
 73
     0
 90
        0
 40
-0.6
 41
-30.0
 62
     5
 63
     7
 74
     1
 91
        4
 64
     7
 65
   257
 75
     1
175
     1
 42
1.0
 92
        8
 66
     7
 43
1.0
 76
     1
 77
     6
 78
     2
 67
     7
 79
     5
170
     0
171
     0
290
     0
174
     0
 93
        1
 44
-50.0
173
     0
291
     1
 45
0.0
1001
ACAD
1000
AcDbSavedByObjectVersion
1070
     0
  0
VISUALSTYLE
  5
9A24
102
{ACAD_XDICTIONARY
360
9A94
102
}
102
{ACAD_REACTORS
330
9A0C
102
}
330
9A0C
100
AcDbVisualStyle
  2
EdgeColorOff
 70
    22
 71
     2
 72
     2
 73
     0
 90
        0
 40
-0.6
 41
-30.0
 62
     5
 63
     7
 74
     1
 91
        4
 64
     7
 65
   257
 75
     1
175
     1
 42
1.0
 92
        8
 66
     7
 43
1.0
 76
     1
 77
     6
 78
     2
 67
     7
 79
     5
170
     0
171
     0
290
     0
174
     0
 93
        1
 44
0.0
173
     0
291
     1
 45
0.0
1001
ACAD
1000
AcDbSavedByObjectVersion
1070
     0
  0
VISUALSTYLE
  5
9A1B
102
{ACAD_XDICTIONARY
360
9A82
102
}
102
{ACAD_REACTORS
330
9A0C
102
}
330
9A0C
100
AcDbVisualStyle
  2
Facepattern
 70
    15
 71
     2
 72
     2
 73
     0
 90
        0
 40
-0.6
 41
-30.0
 62
     5
 63
     7
 74
     1
 91
        4
 64
     7
 65
   257
 75
     1
175
     1
 42
1.0
 92
        8
 66
     7
 43
1.0
 76
     1
 77
     6
 78
     2
 67
     7
 79
     5
170
     0
171
     0
290
     0
174
     0
 93
        1
 44
0.0
173
     0
291
     1
 45
0.0
1001
ACAD
1000
AcDbSavedByObjectVersion
1070
     0
  0
VISUALSTYLE
  5
9A0D
102
{ACAD_XDICTIONARY
360
9A66
102
}
102
{ACAD_REACTORS
330
9A0C
102
}
330
9A0C
100
AcDbVisualStyle
  2
Flat
 70
     0
 71
     2
 72
     1
 73
     1
 90
        2
 40
-0.6
 41
30.0
 62
     5
 63
     7
 74
     0
 91
        0
 64
     7
 65
   257
 75
     1
175
     1
 42
1.0
 92
        8
 66
     7
 43
1.0
 76
     1
 77
     6
 78
     2
 67
     7
 79
     5
170
     0
171
     0
290
     0
174
     0
 93
       13
 44
0.0
173
     0
291
     1
 45
0.0
1001
ACAD
1000
AcDbSavedByObjectVersion
1070
     0
  0
VISUALSTYLE
  5
9A0E
102
{ACAD_XDICTIONARY
360
9A68
102
}
102
{ACAD_REACTORS
330
9A0C
102
}
330
9A0C
100
AcDbVisualStyle
  2
FlatWithEdges
 70
     1
 71
     2
 72
     1
 73
     1
 90
        2
 40
-0.6
 41
30.0
 62
     5
 63
     7
 74
     1
 91
        0
 64
     7
 65
   257
 75
     1
175
     1
 42
1.0
 92
        0
 66
   257
 43
1.0
 76
     1
 77
     6
 78
     2
 67
     7
 79
     5
170
     0
171
     0
290
     0
174
     0
 93
       13
 44
0.0
173
     0
291
     1
 45
0.0
1001
ACAD
1000
AcDbSavedByObjectVersion
1070
     0
  0
VISUALSTYLE
  5
9A0F
102
{ACAD_XDICTIONARY
360
9A6A
102
}
102
{ACAD_REACTORS
330
9A0C
102
}
330
9A0C
100
AcDbVisualStyle
  2
Gouraud
 70
     2
 71
     2
 72
     2
 73
     1
 90
        2
 40
-0.6
 41
30.0
 62
     5
 63
     7
 74
     0
 91
        0
 64
     7
 65
   257
 75
     1
175
     1
 42
1.0
 92
        0
 66
     7
 43
1.0
 76
     1
 77
     6
 78
     2
 67
     7
 79
     5
170
     0
171
     0
290
     0
174
     0
 93
       13
 44
0.0
173
     0
291
     1
 45
0.0
1001
ACAD
1000
AcDbSavedByObjectVersion
1070
     0
  0
VISUALSTYLE
  5
9A10
102
{ACAD_XDICTIONARY
360
9A6C
102
}
102
{ACAD_REACTORS
330
9A0C
102
}
330
9A0C
100
AcDbVisualStyle
  2
GouraudWithEdges
 70
     3
 71
     2
 72
     2
 73
     1
 90
        2
 40
-0.6
 41
30.0
 62
     5
 63
     7
 74
     1
 91
        0
 64
     7
 65
   257
 75
     1
175
     1
 42
1.0
 92
        0
 66
   257
 43
1.0
 76
     1
 77
     6
 78
     2
 67
     7
 79
     5
170
     0
171
     0
290
     0
174
     0
 93
       13
 44
0.0
173
     0
291
     1
 45
0.0
1001
ACAD
1000
AcDbSavedByObjectVersion
1070
     0
  0
VISUALSTYLE
  5
9A14
102
{ACAD_XDICTIONARY
360
9A74
102
}
102
{ACAD_REACTORS
330
9A0C
102
}
330
9A0C
100
AcDbVisualStyle
  2
Hidden
 70
     6
 71
     1
 72
     2
 73
     2
 90
        0
 40
-0.6
 41
-30.0
 62
     5
 63
     7
 74
     2
 91
        2
 64
     7
 65
   257
 75
     2
175
     1
 42
40.0
 92
        0
 66
   257
 43
1.0
 76
     1
 77
     6
 78
     2
 67
     7
 79
     3
170
     0
171
     0
290
     0
174
     0
 93
        1
 44
0.0
173
     0
291
     0
 45
0.0
1001
ACAD
1000
AcDbSavedByObjectVersion
1070
     0
  0
VISUALSTYLE
  5
9A22
102
{ACAD_XDICTIONARY
360
9A90
102
}
102
{ACAD_REACTORS
330
9A0C
102
}
330
9A0C
100
AcDbVisualStyle
  2
JitterOff
 70
    20
 71
     2
 72
     2
 73
     0
 90
        0
 40
-0.6
 41
-30.0
 62
     5
 63
     7
 74
     1
 91
        4
 64
     7
 65
   257
 75
     1
175
     1
 42
1.0
 92
       10
 66
     7
 43
1.0
 76
     1
 77
     6
 78
     2
 67
     7
 79
     5
170
     0
171
     0
290
     0
174
     0
 93
        1
 44
0.0
173
     0
291
     1
 45
0.0
1001
ACAD
1000
AcDbSavedByObjectVersion
1070
     0
  0
VISUALSTYLE
  5
9A1A
102
{ACAD_XDICTIONARY
360
9A80
102
}
102
{ACAD_REACTORS
330
9A0C
102
}
330
9A0C
100
AcDbVisualStyle
  2
Linepattern
 70
    14
 71
     2
 72
     2
 73
     0
 90
        0
 40
-0.6
 41
-30.0
 62
     5
 63
     7
 74
     1
 91
        4
 64
     7
 65
   257
 75
     7
175
     7
 42
1.0
 92
        8
 66
     7
 43
1.0
 76
     1
 77
     6
 78
     2
 67
     7
 79
     5
170
     0
171
     0
290
     0
174
     0
 93
        1
 44
0.0
173
     0
291
     1
 45
0.0
1001
ACAD
1000
AcDbSavedByObjectVersion
1070
     0
  0
VISUALSTYLE
  5
9A23
102
{ACAD_XDICTIONARY
360
9A92
102
}
102
{ACAD_REACTORS
330
9A0C
102
}
330
9A0C
100
AcDbVisualStyle
  2
OverhangOff
 70
    21
 71
     2
 72
     2
 73
     0
 90
        0
 40
-0.6
 41
-30.0
 62
     5
 63
     7
 74
     1
 91
        4
 64
     7
 65
   257
 75
     1
175
     1
 42
1.0
 92
        9
 66
     7
 43
1.0
 76
     1
 77
     6
 78
     2
 67
     7
 79
     5
170
     0
171
     0
290
     0
174
     0
 93
        1
 44
0.0
173
     0
291
     1
 45
0.0
1001
ACAD
1000
AcDbSavedByObjectVersion
1070
     0
  0
VISUALSTYLE
  5
9A16
102
{ACAD_XDICTIONARY
360
9A78
102
}
102
{ACAD_REACTORS
330
9A0C
102
}
330
9A0C
100
AcDbVisualStyle
  2
Realistic
 70
     8
 71
     2
 72
     3
 73
     0
 90
        2
 40
-0.6
 41
30.0
 62
     5
 63
     7
 74
     0
 91
        0
 64
     7
 65
   257
 75
     1
175
     1
 42
1.0
 92
        8
 66
   257
 43
1.0
 76
     1
 77
     6
 78
     2
 67
     7
 79
     3
170
     0
171
     0
290
     0
174
     0
 93
       13
 44
0.0
173
     0
291
     0
 45
0.0
1001
ACAD
1000
AcDbSavedByObjectVersion
1070
     0
  0
VISUALSTYLE
  5
9A21
102
{ACAD_XDICTIONARY
360
9A8E
102
}
102
{ACAD_REACTORS
330
9A0C
102
}
330
9A0C
100
AcDbVisualStyle
  2
Shaded
 70
    27
 71
     2
 72
     2
 73
     1
 90
        2
 40
-0.6
 41
30.0
 62
     5
 63
     7
 74
     0
 91
        4
 64
     7
 65
   257
 75
     1
175
     1
 42
1.0
 92
        8
 66
   257
 43
1.0
 76
     1
 77
     6
 78
     2
 67
     8
 79
     3
170
     0
171
     0
290
     0
174
     0
 93
        5
 44
0.0
173
     0
291
     0
 45
0.0
1001
ACAD
1000
AcDbSavedByObjectVersion
1070
     0
  0
VISUALSTYLE
  5
9A20
102
{ACAD_XDICTIONARY
360
9A8C
102
}
102
{ACAD_REACTORS
330
9A0C
102
}
330
9A0C
100
AcDbVisualStyle
  2
Shaded with edges
 70
    26
 71
     2
 72
     2
 73
     1
 90
        2
 40
-0.6
 41
30.0
 62
     5
 63
     7
 74
     1
 91
       10
 64
     7
 65
   257
 75
     2
175
     1
 42
1.0
 92
        8
 66
   257
 43
1.0
 76
     1
 77
     6
 78
     2
 67
     7
 79
     3
170
     0
171
     0
290
     0
174
     0
 93
        5
 44
0.0
173
     0
291
     0
 45
0.0
1001
ACAD
1000
AcDbSavedByObjectVersion
1070
     0
  0
VISUALSTYLE
  5
9A1D
102
{ACAD_XDICTIONARY
360
9A86
102
}
102
{ACAD_REACTORS
330
9A0C
102
}
330
9A0C
100
AcDbVisualStyle
  2
Shades of Gray
 70
    23
 71
     2
 72
     2
 73
     3
 90
        0
 40
-0.6
 41
-30.0
 62
     5
 63
     7
 74
     2
 91
        2
 64
     7
 65
     7
 75
     1
175
     1
 42
40.0
 92
        8
 66
     7
 43
1.0
 76
     1
 77
     6
 78
     2
 67
     7
 79
     3
170
     0
171
     0
290
     0
174
     0
 93
        1
 44
0.0
173
     0
291
     0
 45
0.0
1001
ACAD
1000
AcDbSavedByObjectVersion
1070
     0
  0
VISUALSTYLE
  5
9A1E
102
{ACAD_XDICTIONARY
360
9A88
102
}
102
{ACAD_REACTORS
330
9A0C
102
}
330
9A0C
100
AcDbVisualStyle
  2
Sketchy
 70
    24
 71
     1
 72
     2
 73
     2
 90
        0
 40
-0.6
 41
-30.0
 62
     5
 63
     7
 74
     2
 91
        2
 64
     7
 65
     7
 75
     1
175
     1
 42
40.0
 92
       11
 66
     7
 43
1.0
 76
     1
 77
     6
 78
     2
 67
     7
 79
     6
170
     0
171
     0
290
     0
174
     0
 93
        1
 44
0.0
173
     0
291
     0
 45
0.0
1001
ACAD
1000
AcDbSavedByObjectVersion
1070
     0
  0
VISUALSTYLE
  5
9A19
102
{ACAD_XDICTIONARY
360
9A7E
102
}
102
{ACAD_REACTORS
330
9A0C
102
}
330
9A0C
100
AcDbVisualStyle
  2
Thicken
 70
    13
 71
     2
 72
     2
 73
     0
 90
        0
 40
-0.6
 41
-30.0
 62
     5
 63
     7
 74
     1
 91
        4
 64
     7
 65
   257
 75
     1
175
     1
 42
1.0
 92
       12
 66
     7
 43
1.0
 76
     1
 77
     6
 78
     2
 67
     7
 79
     5
170
     0
171
     0
290
     0
174
     0
 93
        1
 44
0.0
173
     0
291
     1
 45
0.0
1001
ACAD
1000
AcDbSavedByObjectVersion
1070
     0
  0
VISUALSTYLE
  5
9A13
102
{ACAD_XDICTIONARY
360
9A72
102
}
102
{ACAD_REACTORS
330
9A0C
102
}
330
9A0C
100
AcDbVisualStyle
  2
Wireframe
 70
     5
 71
     0
 72
     2
 73
     0
 90
        0
 40
-0.6
 41
-30.0
 62
     5
 63
     7
 74
     1
 91
        4
 64
     7
 65
   257
 75
     1
175
     1
 42
1.0
 92
        0
 66
   257
 43
1.0
 76
     1
 77
     6
 78
     2
 67
     7
 79
     3
170
     0
171
     0
290
     0
174
     0
 93
        1
 44
0.0
173
     0
291
     0
 45
0.0
1001
ACAD
1000
AcDbSavedByObjectVersion
1070
     0
  0
VISUALSTYLE
  5
9A1F
102
{ACAD_XDICTIONARY
360
9A8A
102
}
102
{ACAD_REACTORS
330
9A0C
102
}
330
9A0C
100
AcDbVisualStyle
  2
X-Ray
 70
    25
 71
     2
 72
     2
 73
     1
 90
        1
 40
0.5
 41
-30.0
 62
     5
 63
     7
 74
     1
 91
        0
 64
     7
 65
   257
 75
     1
175
     1
 42
1.0
 92
        8
 66
     7
 43
1.0
 76
     1
 77
     6
 78
     2
 67
     7
 79
     3
170
     0
171
     0
290
     0
174
     0
 93
       13
 44
0.0
173
     0
291
     0
 45
0.0
1001
ACAD
1000
AcDbSavedByObjectVersion
1070
     0
  0
DICTIONARYVAR
  5
9A59
102
{ACAD_REACTORS
330
9A54
102
}
330
9A54
100
DictionaryVariables
280
     0
  1
1:1
  0
DICTIONARYVAR
  5
9A56
102
{ACAD_REACTORS
330
9A54
102
}
330
9A54
100
DictionaryVariables
280
     0
  1
STANDARD
  0
DICTIONARYVAR
  5
9A55
102
{ACAD_REACTORS
330
9A54
102
}
330
9A54
100
DictionaryVariables
280
     0
  1
STANDARD
  0
DICTIONARYVAR
  5
9A57
102
{ACAD_REACTORS
330
9A54
102
}
330
9A54
100
DictionaryVariables
280
     0
  1
Imperial24
  0
DICTIONARYVAR
  5
9A58
102
{ACAD_REACTORS
330
9A54
102
}
330
9A54
100
DictionaryVariables
280
     0
  1
Imperial24
  0
DICTIONARYVAR
  5
9A5C
102
{ACAD_REACTORS
330
9A54
102
}
330
9A54
100
DictionaryVariables
280
     0
  1
1
  0
DICTIONARYVAR
  5
9A5B
102
{ACAD_REACTORS
330
9A54
102
}
330
9A54
100
DictionaryVariables
280
     0
  1
0
  0
DICTIONARYVAR
  5
9A5A
102
{ACAD_REACTORS
330
9A54
102
}
330
9A54
100
DictionaryVariables
280
     0
  1
127
  0
DICTIONARYVAR
  5
9A5D
102
{ACAD_REACTORS
330
9A54
102
}
330
9A54
100
DictionaryVariables
280
     0
  1
2
  0
DICTIONARY
  5
9A9A
330
9A3F
100
AcDbDictionary
280
     1
281
     1
  3
ACAD_XREC_ROUNDTRIP
360
9A9B
  0
DICTIONARY
  5
9A9C
330
9A40
100
AcDbDictionary
280
     1
281
     1
  3
ACAD_XREC_ROUNDTRIP
360
9A9D
  0
DICTIONARY
  5
9A9E
330
9A41
100
AcDbDictionary
280
     1
281
     1
  3
ACAD_XREC_ROUNDTRIP
360
9A9F
  0
DICTIONARY
  5
99FD
330
99FC
100
AcDbDictionary
280
     1
281
     1
  3
ACAD_XREC_ROUNDTRIP
360
9A64
  3
BUMPTILE
360
99FF
  3
DIFFUSETILE
360
99FE
  3
OPACITYTILE
360
9A02
  3
REFLECTIONTILE
360
9A01
  3
REFRACTIONTILE
360
9A03
  3
SPECULARTILE
360
9A00
  0
DICTIONARY
  5
99F5
330
99F4
100
AcDbDictionary
280
     1
281
     1
  3
ACAD_XREC_ROUNDTRIP
360
9A63
  3
BUMPTILE
360
99F7
  3
DIFFUSETILE
360
99F6
  3
OPACITYTILE
360
99FA
  3
REFLECTIONTILE
360
99F9
  3
REFRACTIONTILE
360
99FB
  3
SPECULARTILE
360
99F8
  0
DICTIONARY
  5
9A05
330
9A04
100
AcDbDictionary
280
     1
281
     1
  3
ACAD_XREC_ROUNDTRIP
360
9A65
  3
BUMPTILE
360
9A07
  3
DIFFUSETILE
360
9A06
  3
OPACITYTILE
360
9A0A
  3
REFLECTIONTILE
360
9A09
  3
REFRACTIONTILE
360
9A0B
  3
SPECULARTILE
360
9A08
  0
DICTIONARY
  5
9A98
330
9A3D
100
AcDbDictionary
280
     1
281
     1
  3
ACAD_XREC_ROUNDTRIP
360
9A99
  0
DICTIONARY
  5
9A5F
330
9A27
100
AcDbDictionary
280
     1
281
     1
  3
ACAD_ROUNDTRIP_2008_TABLESTYLE_CELLSTYLEMAP
360
9A60
  3
ACAD_XREC_ROUNDTRIP
360
9A96
  0
DICTIONARY
  5
9A70
330
9A12
100
AcDbDictionary
280
     1
281
     1
  3
ACAD_XREC_ROUNDTRIP
360
9A71
  0
DICTIONARY
  5
9A6E
330
9A11
100
AcDbDictionary
280
     1
281
     1
  3
ACAD_XREC_ROUNDTRIP
360
9A6F
  0
DICTIONARY
  5
9A7C
330
9A18
100
AcDbDictionary
280
     1
281
     1
  3
ACAD_XREC_ROUNDTRIP
360
9A7D
  0
DICTIONARY
  5
9A84
330
9A1C
100
AcDbDictionary
280
     1
281
     1
  3
ACAD_XREC_ROUNDTRIP
360
9A85
  0
DICTIONARY
  5
9A76
330
9A15
100
AcDbDictionary
280
     1
281
     1
  3
ACAD_XREC_ROUNDTRIP
360
9A77
  0
DICTIONARY
  5
9A7A
330
9A17
100
AcDbDictionary
280
     1
281
     1
  3
ACAD_XREC_ROUNDTRIP
360
9A7B
  0
DICTIONARY
  5
9A94
330
9A24
100
AcDbDictionary
280
     1
281
     1
  3
ACAD_XREC_ROUNDTRIP
360
9A95
  0
DICTIONARY
  5
9A82
330
9A1B
100
AcDbDictionary
280
     1
281
     1
  3
ACAD_XREC_ROUNDTRIP
360
9A83
  0
DICTIONARY
  5
9A66
330
9A0D
100
AcDbDictionary
280
     1
281
     1
  3
ACAD_XREC_ROUNDTRIP
360
9A67
  0
DICTIONARY
  5
9A68
330
9A0E
100
AcDbDictionary
280
     1
281
     1
  3
ACAD_XREC_ROUNDTRIP
360
9A69
  0
DICTIONARY
  5
9A6A
330
9A0F
100
AcDbDictionary
280
     1
281
     1
  3
ACAD_XREC_ROUNDTRIP
360
9A6B
  0
DICTIONARY
  5
9A6C
330
9A10
100
AcDbDictionary
280
     1
281
     1
  3
ACAD_XREC_ROUNDTRIP
360
9A6D
  0
DICTIONARY
  5
9A74
330
9A14
100
AcDbDictionary
280
     1
281
     1
  3
ACAD_XREC_ROUNDTRIP
360
9A75
  0
DICTIONARY
  5
9A90
330
9A22
100
AcDbDictionary
280
     1
281
     1
  3
ACAD_XREC_ROUNDTRIP
360
9A91
  0
DICTIONARY
  5
9A80
330
9A1A
100
AcDbDictionary
280
     1
281
     1
  3
ACAD_XREC_ROUNDTRIP
360
9A81
  0
DICTIONARY
  5
9A92
330
9A23
100
AcDbDictionary
280
     1
281
     1
  3
ACAD_XREC_ROUNDTRIP
360
9A93
  0
DICTIONARY
  5
9A78
330
9A16
100
AcDbDictionary
280
     1
281
     1
  3
ACAD_XREC_ROUNDTRIP
360
9A79
  0
DICTIONARY
  5
9A8E
330
9A21
100
AcDbDictionary
280
     1
281
     1
  3
ACAD_XREC_ROUNDTRIP
360
9A8F
  0
DICTIONARY
  5
9A8C
330
9A20
100
AcDbDictionary
280
     1
281
     1
  3
ACAD_XREC_ROUNDTRIP
360
9A8D
  0
DICTIONARY
  5
9A86
330
9A1D
100
AcDbDictionary
280
     1
281
     1
  3
ACAD_XREC_ROUNDTRIP
360
9A87
  0
DICTIONARY
  5
9A88
330
9A1E
100
AcDbDictionary
280
     1
281
     1
  3
ACAD_XREC_ROUNDTRIP
360
9A89
  0
DICTIONARY
  5
9A7E
330
9A19
100
AcDbDictionary
280
     1
281
     1
  3
ACAD_XREC_ROUNDTRIP
360
9A7F
  0
DICTIONARY
  5
9A72
330
9A13
100
AcDbDictionary
280
     1
281
     1
  3
ACAD_XREC_ROUNDTRIP
360
9A73
  0
DICTIONARY
  5
9A8A
330
9A1F
100
AcDbDictionary
280
     1
281
     1
  3
ACAD_XREC_ROUNDTRIP
360
9A8B
  0
XRECORD
  5
9A9B
102
{ACAD_REACTORS
330
9A9A
102
}
330
9A9A
100
AcDbXrecord
280
     1
102
DISPLAYNAME
  1
Imperial24
102
FLAGS
 90
        0
  0
XRECORD
  5
9A9D
102
{ACAD_REACTORS
330
9A9C
102
}
330
9A9C
100
AcDbXrecord
280
     1
102
SHADEPLOT
 70
     0
102
SHADEPLOTRESLEVEL
 70
     2
102
SHADEPLOTCUSTOMDPI
 70
   300
  0
XRECORD
  5
9A9F
102
{ACAD_REACTORS
330
9A9E
102
}
330
9A9E
100
AcDbXrecord
280
     1
102
SHADEPLOT
 70
     0
102
SHADEPLOTRESLEVEL
 70
     2
102
SHADEPLOTCUSTOMDPI
 70
   300
  0
XRECORD
  5
9A64
102
{ACAD_REACTORS
330
99FD
102
}
330
99FD
100
AcDbXrecord
280
     1
102
MATERIAL
148
0.0
149
0.0
149
0.0
 93
        0
 94
      127
282
     0
 72
     0
 77
     0
171
     0
175
     0
179
     0
273
     0
  0
XRECORD
  5
99FF
102
{ACAD_REACTORS
330
99FD
102
}
330
99FD
100
AcDbXrecord
280
     1
270
     1
271
     1
  0
XRECORD
  5
99FE
102
{ACAD_REACTORS
330
99FD
102
}
330
99FD
100
AcDbXrecord
280
     1
270
     1
271
     1
  0
XRECORD
  5
9A02
102
{ACAD_REACTORS
330
99FD
102
}
330
99FD
100
AcDbXrecord
280
     1
270
     1
271
     1
  0
XRECORD
  5
9A01
102
{ACAD_REACTORS
330
99FD
102
}
330
99FD
100
AcDbXrecord
280
     1
270
     1
271
     1
  0
XRECORD
  5
9A03
102
{ACAD_REACTORS
330
99FD
102
}
330
99FD
100
AcDbXrecord
280
     1
270
     1
271
     1
  0
XRECORD
  5
9A00
102
{ACAD_REACTORS
330
99FD
102
}
330
99FD
100
AcDbXrecord
280
     1
270
     1
271
     1
  0
XRECORD
  5
9A63
102
{ACAD_REACTORS
330
99F5
102
}
330
99F5
100
AcDbXrecord
280
     1
102
MATERIAL
148
0.0
149
0.0
149
0.0
 93
        0
 94
      127
282
     0
 72
     0
 77
     0
171
     0
175
     0
179
     0
273
     0
  0
XRECORD
  5
99F7
102
{ACAD_REACTORS
330
99F5
102
}
330
99F5
100
AcDbXrecord
280
     1
270
     1
271
     1
  0
XRECORD
  5
99F6
102
{ACAD_REACTORS
330
99F5
102
}
330
99F5
100
AcDbXrecord
280
     1
270
     1
271
     1
  0
XRECORD
  5
99FA
102
{ACAD_REACTORS
330
99F5
102
}
330
99F5
100
AcDbXrecord
280
     1
270
     1
271
     1
  0
XRECORD
  5
99F9
102
{ACAD_REACTORS
330
99F5
102
}
330
99F5
100
AcDbXrecord
280
     1
270
     1
271
     1
  0
XRECORD
  5
99FB
102
{ACAD_REACTORS
330
99F5
102
}
330
99F5
100
AcDbXrecord
280
     1
270
     1
271
     1
  0
XRECORD
  5
99F8
102
{ACAD_REACTORS
330
99F5
102
}
330
99F5
100
AcDbXrecord
280
     1
270
     1
271
     1
  0
XRECORD
  5
9A65
102
{ACAD_REACTORS
330
9A05
102
}
330
9A05
100
AcDbXrecord
280
     1
102
MATERIAL
148
0.0
149
0.0
149
0.0
 93
        0
 94
      127
282
     0
 72
     0
 77
     0
171
     0
175
     0
179
     0
273
     0
  0
XRECORD
  5
9A07
102
{ACAD_REACTORS
330
9A05
102
}
330
9A05
100
AcDbXrecord
280
     1
270
     1
271
     1
  0
XRECORD
  5
9A06
102
{ACAD_REACTORS
330
9A05
102
}
330
9A05
100
AcDbXrecord
280
     1
270
     1
271
     1
  0
XRECORD
  5
9A0A
102
{ACAD_REACTORS
330
9A05
102
}
330
9A05
100
AcDbXrecord
280
     1
270
     1
271
     1
  0
XRECORD
  5
9A09
102
{ACAD_REACTORS
330
9A05
102
}
330
9A05
100
AcDbXrecord
280
     1
270
     1
271
     1
  0
XRECORD
  5
9A0B
102
{ACAD_REACTORS
330
9A05
102
}
330
9A05
100
AcDbXrecord
280
     1
270
     1
271
     1
  0
XRECORD
  5
9A08
102
{ACAD_REACTORS
330
9A05
102
}
330
9A05
100
AcDbXrecord
280
     1
270
     1
271
     1
  0
XRECORD
  5
9A99
102
{ACAD_REACTORS
330
9A98
102
}
330
9A98
100
AcDbXrecord
280
     1
102
DISPLAYNAME
  1
Imperial24
102
FLAGS
 90
        0
  0
CELLSTYLEMAP
  5
9A60
102
{ACAD_REACTORS
330
9A5F
102
}
330
9A5F
100
AcDbCellStyleMap
 90
        3
300
CELLSTYLE
  1
TABLEFORMAT_BEGIN
 90
        5
170
     1
 91
        0
 92
    32768
 62
   257
 93
        1
300
CONTENTFORMAT
  1
CONTENTFORMAT_BEGIN
 90
        0
 91
        0
 92
      512
 93
        0
300

 40
0.0
140
1.0
 94
        5
 62
     0
340
97EB
144
0.25
309
CONTENTFORMAT_END
171
     0
 94
        0
309
TABLEFORMAT_END
  1
CELLSTYLE_BEGIN
 90
        1
 91
        1
300
_TITLE
309
CELLSTYLE_END
300
CELLSTYLE
  1
TABLEFORMAT_BEGIN
 90
        5
170
     1
 91
        0
 92
        0
 62
   257
 93
        1
300
CONTENTFORMAT
  1
CONTENTFORMAT_BEGIN
 90
        0
 91
        0
 92
      512
 93
        0
300

 40
0.0
140
1.0
 94
        5
 62
     0
340
97EB
144
0.18
309
CONTENTFORMAT_END
171
     0
 94
        0
309
TABLEFORMAT_END
  1
CELLSTYLE_BEGIN
 90
        2
 91
        1
300
_HEADER
309
CELLSTYLE_END
300
CELLSTYLE
  1
TABLEFORMAT_BEGIN
 90
        5
170
     1
 91
        0
 92
        0
 62
   257
 93
        1
300
CONTENTFORMAT
  1
CONTENTFORMAT_BEGIN
 90
        0
 91
        0
 92
      512
 93
        0
300

 40
0.0
140
1.0
 94
        2
 62
     0
340
97EB
144
0.18
309
CONTENTFORMAT_END
171
     0
 94
        0
309
TABLEFORMAT_END
  1
CELLSTYLE_BEGIN
 90
        3
 91
        2
300
_DATA
309
CELLSTYLE_END
  0
XRECORD
  5
9A96
102
{ACAD_REACTORS
330
9A5F
102
}
330
9A5F
100
AcDbXrecord
280
     1
102
ACAD_ROUNDTRIP_PRE2007_TABLESTYLE
 90
      512
 91
        0
  1

 92
      512
 93
        0
  2

 94
      512
 95
        0
  3

  0
XRECORD
  5
9A71
102
{ACAD_REACTORS
330
9A70
102
}
330
9A70
100
AcDbXrecord
280
     1
102
RTVSPost2010Prop28
280
     1
102
RTVSPost2010PropOp28
 70
     1
102
RTVSPost2010Prop29
280
     1
102
RTVSPost2010PropOp29
 70
     1
102
RTVSPost2010Prop30
280
     0
102
RTVSPost2010PropOp30
 70
     1
102
RTVSPost2010Prop31
280
     0
102
RTVSPost2010PropOp31
 70
     1
102
RTVSPost2010Prop32
280
     0
102
RTVSPost2010PropOp32
 70
     1
102
RTVSPost2010Prop33
280
     0
102
RTVSPost2010PropOp33
 70
     1
102
RTVSPost2010Prop34
280
     0
102
RTVSPost2010PropOp34
 70
     1
102
RTVSPost2010Prop35
280
     0
102
RTVSPost2010PropOp35
 70
     1
102
RTVSPost2010Prop36
280
     0
102
RTVSPost2010PropOp36
 70
     1
102
RTVSPost2010Prop37
 90
       50
102
RTVSPost2010PropOp37
 70
     1
102
RTVSPost2010Prop38
140
0.0
102
RTVSPost2010PropOp38
 70
     1
102
RTVSPost2010Prop39
140
1.0
102
RTVSPost2010PropOp39
 70
     1
102
RTVSPost2010Prop40
 90
        0
102
RTVSPost2010PropOp40
 70
     1
102
RTVSPost2010Prop41ColorIndex
 90
       18
102
RTVSPost2010Prop41ColorRGB
 90
        0
102
RTVSPost2010PropOp41
 70
     1
102
RTVSPost2010Prop42
 90
       50
102
RTVSPost2010PropOp42
 70
     1
102
RTVSPost2010Prop43
 90
        3
102
RTVSPost2010PropOp43
 70
     1
102
RTVSPost2010Prop44ColorIndex
 90
        5
102
RTVSPost2010Prop44ColorRGB
 90
      255
102
RTVSPost2010PropOp44
 70
     1
102
RTVSPost2010Prop45
280
     0
102
RTVSPost2010PropOp45
 70
     1
102
RTVSPost2010Prop46
 90
       50
102
RTVSPost2010PropOp46
 70
     1
102
RTVSPost2010Prop47
 90
       50
102
RTVSPost2010PropOp47
 70
     1
102
RTVSPost2010Prop48
 90
       50
102
RTVSPost2010PropOp48
 70
     1
102
RTVSPost2010Prop49
280
     0
102
RTVSPost2010PropOp49
 70
     1
102
RTVSPost2010Prop50
 90
       50
102
RTVSPost2010PropOp50
 70
     1
102
RTVSPost2010Prop51ColorIndex
 90
      256
102
RTVSPost2010Prop51ColorRGB
 90
-16777216
102
RTVSPost2010PropOp51
 70
     0
102
RTVSPost2010Prop52
140
1.0
102
RTVSPost2010PropOp52
 70
     0
102
RTVSPost2010Prop53
 90
        2
102
RTVSPost2010PropOp53
 70
     1
102
RTVSPost2010Prop54
  1
strokes_ogs.tif
102
RTVSPost2010PropOp54
 70
     1
102
RTVSPost2010Prop55
280
     0
102
RTVSPost2010PropOp55
 70
     1
102
RTVSPost2010Prop56
140
1.0
102
RTVSPost2010PropOp56
 70
     1
102
RTVSPost2010Prop57
140
1.0
102
RTVSPost2010PropOp57
 70
     1
102
RTVSPropertyOp0
 70
     1
102
RTVSPropertyOp1
 70
     1
102
RTVSPropertyOp2
 70
     1
102
RTVSPropertyOp3
 70
     1
102
RTVSPropertyOp4
 70
     1
102
RTVSPropertyOp5
 70
     1
102
RTVSPropertyOp6
 70
     1
102
RTVSPropertyOp7
 70
     1
102
RTVSPropertyOp8
 70
     1
102
RTVSPropertyOp9
 70
     1
102
RTVSPropertyOp10
 70
     1
102
RTVSPropertyOp11
 70
     1
102
RTVSPropertyOp12
 70
     1
102
RTVSPropertyOp13
 70
     1
102
RTVSPropertyOp14
 70
     1
102
RTVSPropertyOp15
 70
     1
102
RTVSPropertyOp16
 70
     1
102
RTVSPropertyOp17
 70
     1
102
RTVSPropertyOp18
 70
     1
102
RTVSPropertyOp19
 70
     1
102
RTVSPropertyOp20
 70
     1
102
RTVSPropertyOp21
 70
     1
102
RTVSPropertyOp22
 70
     1
102
RTVSPropertyOp23
 70
     1
102
RTVSPropertyOp24
 70
     1
102
RTVSPropertyOp25
 70
     1
102
RTVSPropertyOp26
 70
     1
102
RTVSPropertyOp27
 70
     1
102
RTVSPropertyOp28
 70
     1
102
RTVSPropertyOp29
 70
     1
102
RTVSPropertyOp30
 70
     1
102
RTVSPropertyOp31
 70
     1
102
RTVSPropertyOp32
 70
     1
102
RTVSPropertyOp33
 70
     1
102
RTVSPropertyOp34
 70
     1
102
RTVSPropertyOp35
 70
     1
102
RTVSPropertyOp36
 70
     1
102
RTVSPropertyOp37
 70
     1
102
RTVSPropertyOp38
 70
     1
102
RTVSPropertyOp39
 70
     1
102
RTVSPropertyOp40
 70
     1
102
RTVSPropertyOp41
 70
     1
102
RTVSPropertyOp42
 70
     1
102
RTVSPropertyOp43
 70
     1
102
RTVSPropertyOp44
 70
     1
102
RTVSPropertyOp45
 70
     1
102
RTVSPropertyOp46
 70
     1
102
RTVSPropertyOp47
 70
     1
102
RTVSPropertyOp48
 70
     1
102
RTVSPropertyOp49
 70
     1
102
RTVSPropertyOp50
 70
     1
102
RTVSPropertyOp51
 70
     0
102
RTVSPropertyOp52
 70
     0
102
RTVSPropertyOp53
 70
     1
102
RTVSPropertyOp54
 70
     1
102
RTVSPropertyOp55
 70
     1
102
RTVSPropertyOp56
 70
     1
102
RTVSPropertyOp57
 70
     1
102
RTVSPropertyOp58
 70
     1
102
RTVSPropertyOp59
 70
     1
102
RTVSPropertyOp60
 70
     1
102
RTVSPropertyOp61
 70
     1
102
RTVSPropertyOp62
 70
     1
  0
XRECORD
  5
9A6F
102
{ACAD_REACTORS
330
9A6E
102
}
330
9A6E
100
AcDbXrecord
280
     1
102
RTVSPost2010Prop28
280
     0
102
RTVSPost2010PropOp28
 70
     1
102
RTVSPost2010Prop29
280
     1
102
RTVSPost2010PropOp29
 70
     1
102
RTVSPost2010Prop30
280
     1
102
RTVSPost2010PropOp30
 70
     1
102
RTVSPost2010Prop31
280
     0
102
RTVSPost2010PropOp31
 70
     1
102
RTVSPost2010Prop32
280
     0
102
RTVSPost2010PropOp32
 70
     1
102
RTVSPost2010Prop33
280
     0
102
RTVSPost2010PropOp33
 70
     1
102
RTVSPost2010Prop34
280
     0
102
RTVSPost2010PropOp34
 70
     1
102
RTVSPost2010Prop35
280
     0
102
RTVSPost2010PropOp35
 70
     1
102
RTVSPost2010Prop36
280
     0
102
RTVSPost2010PropOp36
 70
     1
102
RTVSPost2010Prop37
 90
       50
102
RTVSPost2010PropOp37
 70
     1
102
RTVSPost2010Prop38
140
0.0
102
RTVSPost2010PropOp38
 70
     1
102
RTVSPost2010Prop39
140
1.0
102
RTVSPost2010PropOp39
 70
     1
102
RTVSPost2010Prop40
 90
        0
102
RTVSPost2010PropOp40
 70
     1
102
RTVSPost2010Prop41ColorIndex
 90
       18
102
RTVSPost2010Prop41ColorRGB
 90
        0
102
RTVSPost2010PropOp41
 70
     1
102
RTVSPost2010Prop42
 90
       50
102
RTVSPost2010PropOp42
 70
     1
102
RTVSPost2010Prop43
 90
        3
102
RTVSPost2010PropOp43
 70
     1
102
RTVSPost2010Prop44ColorIndex
 90
        5
102
RTVSPost2010Prop44ColorRGB
 90
      255
102
RTVSPost2010PropOp44
 70
     1
102
RTVSPost2010Prop45
280
     0
102
RTVSPost2010PropOp45
 70
     1
102
RTVSPost2010Prop46
 90
       50
102
RTVSPost2010PropOp46
 70
     1
102
RTVSPost2010Prop47
 90
       50
102
RTVSPost2010PropOp47
 70
     1
102
RTVSPost2010Prop48
 90
       50
102
RTVSPost2010PropOp48
 70
     1
102
RTVSPost2010Prop49
280
     0
102
RTVSPost2010PropOp49
 70
     1
102
RTVSPost2010Prop50
 90
       50
102
RTVSPost2010PropOp50
 70
     1
102
RTVSPost2010Prop51ColorIndex
 90
      256
102
RTVSPost2010Prop51ColorRGB
 90
-16777216
102
RTVSPost2010PropOp51
 70
     0
102
RTVSPost2010Prop52
140
1.0
102
RTVSPost2010PropOp52
 70
     0
102
RTVSPost2010Prop53
 90
        2
102
RTVSPost2010PropOp53
 70
     1
102
RTVSPost2010Prop54
  1
strokes_ogs.tif
102
RTVSPost2010PropOp54
 70
     1
102
RTVSPost2010Prop55
280
     0
102
RTVSPost2010PropOp55
 70
     1
102
RTVSPost2010Prop56
140
1.0
102
RTVSPost2010PropOp56
 70
     1
102
RTVSPost2010Prop57
140
1.0
102
RTVSPost2010PropOp57
 70
     1
102
RTVSPropertyOp0
 70
     1
102
RTVSPropertyOp1
 70
     1
102
RTVSPropertyOp2
 70
     1
102
RTVSPropertyOp3
 70
     1
102
RTVSPropertyOp4
 70
     1
102
RTVSPropertyOp5
 70
     1
102
RTVSPropertyOp6
 70
     1
102
RTVSPropertyOp7
 70
     1
102
RTVSPropertyOp8
 70
     1
102
RTVSPropertyOp9
 70
     1
102
RTVSPropertyOp10
 70
     1
102
RTVSPropertyOp11
 70
     1
102
RTVSPropertyOp12
 70
     1
102
RTVSPropertyOp13
 70
     1
102
RTVSPropertyOp14
 70
     1
102
RTVSPropertyOp15
 70
     1
102
RTVSPropertyOp16
 70
     1
102
RTVSPropertyOp17
 70
     1
102
RTVSPropertyOp18
 70
     1
102
RTVSPropertyOp19
 70
     1
102
RTVSPropertyOp20
 70
     1
102
RTVSPropertyOp21
 70
     1
102
RTVSPropertyOp22
 70
     1
102
RTVSPropertyOp23
 70
     1
102
RTVSPropertyOp24
 70
     1
102
RTVSPropertyOp25
 70
     1
102
RTVSPropertyOp26
 70
     1
102
RTVSPropertyOp27
 70
     1
102
RTVSPropertyOp28
 70
     1
102
RTVSPropertyOp29
 70
     1
102
RTVSPropertyOp30
 70
     1
102
RTVSPropertyOp31
 70
     1
102
RTVSPropertyOp32
 70
     1
102
RTVSPropertyOp33
 70
     1
102
RTVSPropertyOp34
 70
     1
102
RTVSPropertyOp35
 70
     1
102
RTVSPropertyOp36
 70
     1
102
RTVSPropertyOp37
 70
     1
102
RTVSPropertyOp38
 70
     1
102
RTVSPropertyOp39
 70
     1
102
RTVSPropertyOp40
 70
     1
102
RTVSPropertyOp41
 70
     1
102
RTVSPropertyOp42
 70
     1
102
RTVSPropertyOp43
 70
     1
102
RTVSPropertyOp44
 70
     1
102
RTVSPropertyOp45
 70
     1
102
RTVSPropertyOp46
 70
     1
102
RTVSPropertyOp47
 70
     1
102
RTVSPropertyOp48
 70
     1
102
RTVSPropertyOp49
 70
     1
102
RTVSPropertyOp50
 70
     1
102
RTVSPropertyOp51
 70
     0
102
RTVSPropertyOp52
 70
     0
102
RTVSPropertyOp53
 70
     1
102
RTVSPropertyOp54
 70
     1
102
RTVSPropertyOp55
 70
     1
102
RTVSPropertyOp56
 70
     1
102
RTVSPropertyOp57
 70
     1
102
RTVSPropertyOp58
 70
     1
102
RTVSPropertyOp59
 70
     1
102
RTVSPropertyOp60
 70
     1
102
RTVSPropertyOp61
 70
     1
102
RTVSPropertyOp62
 70
     1
  0
XRECORD
  5
9A7D
102
{ACAD_REACTORS
330
9A7C
102
}
330
9A7C
100
AcDbXrecord
280
     1
102
RTVSPost2010Prop28
280
     0
102
RTVSPost2010PropOp28
 70
     1
102
RTVSPost2010Prop29
280
     1
102
RTVSPost2010PropOp29
 70
     1
102
RTVSPost2010Prop30
280
     1
102
RTVSPost2010PropOp30
 70
     1
102
RTVSPost2010Prop31
280
     0
102
RTVSPost2010PropOp31
 70
     1
102
RTVSPost2010Prop32
280
     0
102
RTVSPost2010PropOp32
 70
     1
102
RTVSPost2010Prop33
280
     0
102
RTVSPost2010PropOp33
 70
     1
102
RTVSPost2010Prop34
280
     0
102
RTVSPost2010PropOp34
 70
     1
102
RTVSPost2010Prop35
280
     0
102
RTVSPost2010PropOp35
 70
     1
102
RTVSPost2010Prop36
280
     0
102
RTVSPost2010PropOp36
 70
     1
102
RTVSPost2010Prop37
 90
       50
102
RTVSPost2010PropOp37
 70
     1
102
RTVSPost2010Prop38
140
0.0
102
RTVSPost2010PropOp38
 70
     1
102
RTVSPost2010Prop39
140
1.0
102
RTVSPost2010PropOp39
 70
     1
102
RTVSPost2010Prop40
 90
        0
102
RTVSPost2010PropOp40
 70
     1
102
RTVSPost2010Prop41ColorIndex
 90
       18
102
RTVSPost2010Prop41ColorRGB
 90
        0
102
RTVSPost2010PropOp41
 70
     1
102
RTVSPost2010Prop42
 90
       50
102
RTVSPost2010PropOp42
 70
     1
102
RTVSPost2010Prop43
 90
        3
102
RTVSPost2010PropOp43
 70
     1
102
RTVSPost2010Prop44ColorIndex
 90
        5
102
RTVSPost2010Prop44ColorRGB
 90
      255
102
RTVSPost2010PropOp44
 70
     1
102
RTVSPost2010Prop45
280
     0
102
RTVSPost2010PropOp45
 70
     1
102
RTVSPost2010Prop46
 90
       50
102
RTVSPost2010PropOp46
 70
     1
102
RTVSPost2010Prop47
 90
       50
102
RTVSPost2010PropOp47
 70
     1
102
RTVSPost2010Prop48
 90
       50
102
RTVSPost2010PropOp48
 70
     1
102
RTVSPost2010Prop49
280
     0
102
RTVSPost2010PropOp49
 70
     1
102
RTVSPost2010Prop50
 90
       50
102
RTVSPost2010PropOp50
 70
     1
102
RTVSPost2010Prop51ColorIndex
 90
      256
102
RTVSPost2010Prop51ColorRGB
 90
-16777216
102
RTVSPost2010PropOp51
 70
     0
102
RTVSPost2010Prop52
140
1.0
102
RTVSPost2010PropOp52
 70
     0
102
RTVSPost2010Prop53
 90
        2
102
RTVSPost2010PropOp53
 70
     1
102
RTVSPost2010Prop54
  1
strokes_ogs.tif
102
RTVSPost2010PropOp54
 70
     1
102
RTVSPost2010Prop55
280
     0
102
RTVSPost2010PropOp55
 70
     1
102
RTVSPost2010Prop56
140
1.0
102
RTVSPost2010PropOp56
 70
     1
102
RTVSPost2010Prop57
140
1.0
102
RTVSPost2010PropOp57
 70
     1
102
RTVSPropertyOp0
 70
     1
102
RTVSPropertyOp1
 70
     1
102
RTVSPropertyOp2
 70
     1
102
RTVSPropertyOp3
 70
     1
102
RTVSPropertyOp4
 70
     1
102
RTVSPropertyOp5
 70
     1
102
RTVSPropertyOp6
 70
     1
102
RTVSPropertyOp7
 70
     1
102
RTVSPropertyOp8
 70
     1
102
RTVSPropertyOp9
 70
     1
102
RTVSPropertyOp10
 70
     1
102
RTVSPropertyOp11
 70
     1
102
RTVSPropertyOp12
 70
     1
102
RTVSPropertyOp13
 70
     1
102
RTVSPropertyOp14
 70
     1
102
RTVSPropertyOp15
 70
     1
102
RTVSPropertyOp16
 70
     1
102
RTVSPropertyOp17
 70
     1
102
RTVSPropertyOp18
 70
     1
102
RTVSPropertyOp19
 70
     1
102
RTVSPropertyOp20
 70
     1
102
RTVSPropertyOp21
 70
     1
102
RTVSPropertyOp22
 70
     1
102
RTVSPropertyOp23
 70
     1
102
RTVSPropertyOp24
 70
     1
102
RTVSPropertyOp25
 70
     1
102
RTVSPropertyOp26
 70
     1
102
RTVSPropertyOp27
 70
     1
102
RTVSPropertyOp28
 70
     1
102
RTVSPropertyOp29
 70
     1
102
RTVSPropertyOp30
 70
     1
102
RTVSPropertyOp31
 70
     1
102
RTVSPropertyOp32
 70
     1
102
RTVSPropertyOp33
 70
     1
102
RTVSPropertyOp34
 70
     1
102
RTVSPropertyOp35
 70
     1
102
RTVSPropertyOp36
 70
     1
102
RTVSPropertyOp37
 70
     1
102
RTVSPropertyOp38
 70
     1
102
RTVSPropertyOp39
 70
     1
102
RTVSPropertyOp40
 70
     1
102
RTVSPropertyOp41
 70
     1
102
RTVSPropertyOp42
 70
     1
102
RTVSPropertyOp43
 70
     1
102
RTVSPropertyOp44
 70
     1
102
RTVSPropertyOp45
 70
     1
102
RTVSPropertyOp46
 70
     1
102
RTVSPropertyOp47
 70
     1
102
RTVSPropertyOp48
 70
     1
102
RTVSPropertyOp49
 70
     1
102
RTVSPropertyOp50
 70
     1
102
RTVSPropertyOp51
 70
     0
102
RTVSPropertyOp52
 70
     0
102
RTVSPropertyOp53
 70
     1
102
RTVSPropertyOp54
 70
     1
102
RTVSPropertyOp55
 70
     1
102
RTVSPropertyOp56
 70
     1
102
RTVSPropertyOp57
 70
     1
102
RTVSPropertyOp58
 70
     1
102
RTVSPropertyOp59
 70
     1
102
RTVSPropertyOp60
 70
     1
102
RTVSPropertyOp61
 70
     1
102
RTVSPropertyOp62
 70
     1
  0
XRECORD
  5
9A85
102
{ACAD_REACTORS
330
9A84
102
}
330
9A84
100
AcDbXrecord
280
     1
102
RTVSPost2010Prop28
280
     0
102
RTVSPost2010PropOp28
 70
     1
102
RTVSPost2010Prop29
280
     1
102
RTVSPost2010PropOp29
 70
     1
102
RTVSPost2010Prop30
280
     1
102
RTVSPost2010PropOp30
 70
     1
102
RTVSPost2010Prop31
280
     0
102
RTVSPost2010PropOp31
 70
     1
102
RTVSPost2010Prop32
280
     0
102
RTVSPost2010PropOp32
 70
     1
102
RTVSPost2010Prop33
280
     0
102
RTVSPost2010PropOp33
 70
     1
102
RTVSPost2010Prop34
280
     0
102
RTVSPost2010PropOp34
 70
     1
102
RTVSPost2010Prop35
280
     0
102
RTVSPost2010PropOp35
 70
     1
102
RTVSPost2010Prop36
280
     0
102
RTVSPost2010PropOp36
 70
     1
102
RTVSPost2010Prop37
 90
       50
102
RTVSPost2010PropOp37
 70
     1
102
RTVSPost2010Prop38
140
0.0
102
RTVSPost2010PropOp38
 70
     1
102
RTVSPost2010Prop39
140
1.0
102
RTVSPost2010PropOp39
 70
     1
102
RTVSPost2010Prop40
 90
        0
102
RTVSPost2010PropOp40
 70
     1
102
RTVSPost2010Prop41ColorIndex
 90
       18
102
RTVSPost2010Prop41ColorRGB
 90
        0
102
RTVSPost2010PropOp41
 70
     1
102
RTVSPost2010Prop42
 90
       50
102
RTVSPost2010PropOp42
 70
     1
102
RTVSPost2010Prop43
 90
        3
102
RTVSPost2010PropOp43
 70
     1
102
RTVSPost2010Prop44ColorIndex
 90
        5
102
RTVSPost2010Prop44ColorRGB
 90
      255
102
RTVSPost2010PropOp44
 70
     1
102
RTVSPost2010Prop45
280
     0
102
RTVSPost2010PropOp45
 70
     1
102
RTVSPost2010Prop46
 90
       50
102
RTVSPost2010PropOp46
 70
     1
102
RTVSPost2010Prop47
 90
       50
102
RTVSPost2010PropOp47
 70
     1
102
RTVSPost2010Prop48
 90
       50
102
RTVSPost2010PropOp48
 70
     1
102
RTVSPost2010Prop49
280
     0
102
RTVSPost2010PropOp49
 70
     1
102
RTVSPost2010Prop50
 90
       50
102
RTVSPost2010PropOp50
 70
     1
102
RTVSPost2010Prop51ColorIndex
 90
      256
102
RTVSPost2010Prop51ColorRGB
 90
-16777216
102
RTVSPost2010PropOp51
 70
     0
102
RTVSPost2010Prop52
140
1.0
102
RTVSPost2010PropOp52
 70
     0
102
RTVSPost2010Prop53
 90
        2
102
RTVSPost2010PropOp53
 70
     1
102
RTVSPost2010Prop54
  1
strokes_ogs.tif
102
RTVSPost2010PropOp54
 70
     1
102
RTVSPost2010Prop55
280
     0
102
RTVSPost2010PropOp55
 70
     1
102
RTVSPost2010Prop56
140
1.0
102
RTVSPost2010PropOp56
 70
     1
102
RTVSPost2010Prop57
140
1.0
102
RTVSPost2010PropOp57
 70
     1
102
RTVSPropertyOp0
 70
     1
102
RTVSPropertyOp1
 70
     1
102
RTVSPropertyOp2
 70
     1
102
RTVSPropertyOp3
 70
     1
102
RTVSPropertyOp4
 70
     1
102
RTVSPropertyOp5
 70
     1
102
RTVSPropertyOp6
 70
     1
102
RTVSPropertyOp7
 70
     1
102
RTVSPropertyOp8
 70
     1
102
RTVSPropertyOp9
 70
     1
102
RTVSPropertyOp10
 70
     1
102
RTVSPropertyOp11
 70
     1
102
RTVSPropertyOp12
 70
     1
102
RTVSPropertyOp13
 70
     1
102
RTVSPropertyOp14
 70
     1
102
RTVSPropertyOp15
 70
     1
102
RTVSPropertyOp16
 70
     1
102
RTVSPropertyOp17
 70
     1
102
RTVSPropertyOp18
 70
     1
102
RTVSPropertyOp19
 70
     1
102
RTVSPropertyOp20
 70
     1
102
RTVSPropertyOp21
 70
     1
102
RTVSPropertyOp22
 70
     1
102
RTVSPropertyOp23
 70
     1
102
RTVSPropertyOp24
 70
     1
102
RTVSPropertyOp25
 70
     1
102
RTVSPropertyOp26
 70
     1
102
RTVSPropertyOp27
 70
     1
102
RTVSPropertyOp28
 70
     1
102
RTVSPropertyOp29
 70
     1
102
RTVSPropertyOp30
 70
     1
102
RTVSPropertyOp31
 70
     1
102
RTVSPropertyOp32
 70
     1
102
RTVSPropertyOp33
 70
     1
102
RTVSPropertyOp34
 70
     1
102
RTVSPropertyOp35
 70
     1
102
RTVSPropertyOp36
 70
     1
102
RTVSPropertyOp37
 70
     1
102
RTVSPropertyOp38
 70
     1
102
RTVSPropertyOp39
 70
     1
102
RTVSPropertyOp40
 70
     1
102
RTVSPropertyOp41
 70
     1
102
RTVSPropertyOp42
 70
     1
102
RTVSPropertyOp43
 70
     1
102
RTVSPropertyOp44
 70
     1
102
RTVSPropertyOp45
 70
     1
102
RTVSPropertyOp46
 70
     1
102
RTVSPropertyOp47
 70
     1
102
RTVSPropertyOp48
 70
     1
102
RTVSPropertyOp49
 70
     1
102
RTVSPropertyOp50
 70
     1
102
RTVSPropertyOp51
 70
     0
102
RTVSPropertyOp52
 70
     0
102
RTVSPropertyOp53
 70
     1
102
RTVSPropertyOp54
 70
     1
102
RTVSPropertyOp55
 70
     1
102
RTVSPropertyOp56
 70
     1
102
RTVSPropertyOp57
 70
     1
102
RTVSPropertyOp58
 70
     1
102
RTVSPropertyOp59
 70
     1
102
RTVSPropertyOp60
 70
     1
102
RTVSPropertyOp61
 70
     1
102
RTVSPropertyOp62
 70
     1
  0
XRECORD
  5
9A77
102
{ACAD_REACTORS
330
9A76
102
}
330
9A76
100
AcDbXrecord
280
     1
102
RTVSPost2010Prop28
280
     0
102
RTVSPost2010PropOp28
 70
     1
102
RTVSPost2010Prop29
280
     1
102
RTVSPost2010PropOp29
 70
     1
102
RTVSPost2010Prop30
280
     1
102
RTVSPost2010PropOp30
 70
     1
102
RTVSPost2010Prop31
280
     0
102
RTVSPost2010PropOp31
 70
     1
102
RTVSPost2010Prop32
280
     0
102
RTVSPost2010PropOp32
 70
     1
102
RTVSPost2010Prop33
280
     0
102
RTVSPost2010PropOp33
 70
     1
102
RTVSPost2010Prop34
280
     0
102
RTVSPost2010PropOp34
 70
     1
102
RTVSPost2010Prop35
280
     0
102
RTVSPost2010PropOp35
 70
     1
102
RTVSPost2010Prop36
280
     0
102
RTVSPost2010PropOp36
 70
     1
102
RTVSPost2010Prop37
 90
       50
102
RTVSPost2010PropOp37
 70
     1
102
RTVSPost2010Prop38
140
0.0
102
RTVSPost2010PropOp38
 70
     1
102
RTVSPost2010Prop39
140
1.0
102
RTVSPost2010PropOp39
 70
     1
102
RTVSPost2010Prop40
 90
        0
102
RTVSPost2010PropOp40
 70
     1
102
RTVSPost2010Prop41ColorIndex
 90
       18
102
RTVSPost2010Prop41ColorRGB
 90
        0
102
RTVSPost2010PropOp41
 70
     1
102
RTVSPost2010Prop42
 90
       50
102
RTVSPost2010PropOp42
 70
     1
102
RTVSPost2010Prop43
 90
        3
102
RTVSPost2010PropOp43
 70
     1
102
RTVSPost2010Prop44ColorIndex
 90
        5
102
RTVSPost2010Prop44ColorRGB
 90
      255
102
RTVSPost2010PropOp44
 70
     1
102
RTVSPost2010Prop45
280
     0
102
RTVSPost2010PropOp45
 70
     1
102
RTVSPost2010Prop46
 90
       50
102
RTVSPost2010PropOp46
 70
     1
102
RTVSPost2010Prop47
 90
       50
102
RTVSPost2010PropOp47
 70
     1
102
RTVSPost2010Prop48
 90
       50
102
RTVSPost2010PropOp48
 70
     1
102
RTVSPost2010Prop49
280
     0
102
RTVSPost2010PropOp49
 70
     1
102
RTVSPost2010Prop50
 90
       50
102
RTVSPost2010PropOp50
 70
     1
102
RTVSPost2010Prop51ColorIndex
 90
      256
102
RTVSPost2010Prop51ColorRGB
 90
-16777216
102
RTVSPost2010PropOp51
 70
     0
102
RTVSPost2010Prop52
140
1.0
102
RTVSPost2010PropOp52
 70
     0
102
RTVSPost2010Prop53
 90
        2
102
RTVSPost2010PropOp53
 70
     1
102
RTVSPost2010Prop54
  1
strokes_ogs.tif
102
RTVSPost2010PropOp54
 70
     1
102
RTVSPost2010Prop55
280
     0
102
RTVSPost2010PropOp55
 70
     1
102
RTVSPost2010Prop56
140
1.0
102
RTVSPost2010PropOp56
 70
     1
102
RTVSPost2010Prop57
140
1.0
102
RTVSPost2010PropOp57
 70
     1
102
RTVSPropertyOp0
 70
     1
102
RTVSPropertyOp1
 70
     1
102
RTVSPropertyOp2
 70
     1
102
RTVSPropertyOp3
 70
     1
102
RTVSPropertyOp4
 70
     1
102
RTVSPropertyOp5
 70
     1
102
RTVSPropertyOp6
 70
     1
102
RTVSPropertyOp7
 70
     1
102
RTVSPropertyOp8
 70
     1
102
RTVSPropertyOp9
 70
     1
102
RTVSPropertyOp10
 70
     1
102
RTVSPropertyOp11
 70
     1
102
RTVSPropertyOp12
 70
     1
102
RTVSPropertyOp13
 70
     1
102
RTVSPropertyOp14
 70
     1
102
RTVSPropertyOp15
 70
     1
102
RTVSPropertyOp16
 70
     1
102
RTVSPropertyOp17
 70
     1
102
RTVSPropertyOp18
 70
     1
102
RTVSPropertyOp19
 70
     1
102
RTVSPropertyOp20
 70
     1
102
RTVSPropertyOp21
 70
     1
102
RTVSPropertyOp22
 70
     1
102
RTVSPropertyOp23
 70
     1
102
RTVSPropertyOp24
 70
     1
102
RTVSPropertyOp25
 70
     1
102
RTVSPropertyOp26
 70
     1
102
RTVSPropertyOp27
 70
     1
102
RTVSPropertyOp28
 70
     1
102
RTVSPropertyOp29
 70
     1
102
RTVSPropertyOp30
 70
     1
102
RTVSPropertyOp31
 70
     1
102
RTVSPropertyOp32
 70
     1
102
RTVSPropertyOp33
 70
     1
102
RTVSPropertyOp34
 70
     1
102
RTVSPropertyOp35
 70
     1
102
RTVSPropertyOp36
 70
     1
102
RTVSPropertyOp37
 70
     1
102
RTVSPropertyOp38
 70
     1
102
RTVSPropertyOp39
 70
     1
102
RTVSPropertyOp40
 70
     1
102
RTVSPropertyOp41
 70
     1
102
RTVSPropertyOp42
 70
     1
102
RTVSPropertyOp43
 70
     1
102
RTVSPropertyOp44
 70
     1
102
RTVSPropertyOp45
 70
     1
102
RTVSPropertyOp46
 70
     1
102
RTVSPropertyOp47
 70
     1
102
RTVSPropertyOp48
 70
     1
102
RTVSPropertyOp49
 70
     1
102
RTVSPropertyOp50
 70
     1
102
RTVSPropertyOp51
 70
     0
102
RTVSPropertyOp52
 70
     0
102
RTVSPropertyOp53
 70
     1
102
RTVSPropertyOp54
 70
     1
102
RTVSPropertyOp55
 70
     1
102
RTVSPropertyOp56
 70
     1
102
RTVSPropertyOp57
 70
     1
102
RTVSPropertyOp58
 70
     1
102
RTVSPropertyOp59
 70
     1
102
RTVSPropertyOp60
 70
     1
102
RTVSPropertyOp61
 70
     1
102
RTVSPropertyOp62
 70
     1
  0
XRECORD
  5
9A7B
102
{ACAD_REACTORS
330
9A7A
102
}
330
9A7A
100
AcDbXrecord
280
     1
102
RTVSPost2010Prop28
280
     0
102
RTVSPost2010PropOp28
 70
     1
102
RTVSPost2010Prop29
280
     1
102
RTVSPost2010PropOp29
 70
     1
102
RTVSPost2010Prop30
280
     1
102
RTVSPost2010PropOp30
 70
     1
102
RTVSPost2010Prop31
280
     0
102
RTVSPost2010PropOp31
 70
     1
102
RTVSPost2010Prop32
280
     0
102
RTVSPost2010PropOp32
 70
     1
102
RTVSPost2010Prop33
280
     0
102
RTVSPost2010PropOp33
 70
     1
102
RTVSPost2010Prop34
280
     0
102
RTVSPost2010PropOp34
 70
     1
102
RTVSPost2010Prop35
280
     0
102
RTVSPost2010PropOp35
 70
     1
102
RTVSPost2010Prop36
280
     0
102
RTVSPost2010PropOp36
 70
     1
102
RTVSPost2010Prop37
 90
       50
102
RTVSPost2010PropOp37
 70
     1
102
RTVSPost2010Prop38
140
0.0
102
RTVSPost2010PropOp38
 70
     1
102
RTVSPost2010Prop39
140
1.0
102
RTVSPost2010PropOp39
 70
     1
102
RTVSPost2010Prop40
 90
        0
102
RTVSPost2010PropOp40
 70
     1
102
RTVSPost2010Prop41ColorIndex
 90
       18
102
RTVSPost2010Prop41ColorRGB
 90
        0
102
RTVSPost2010PropOp41
 70
     1
102
RTVSPost2010Prop42
 90
       50
102
RTVSPost2010PropOp42
 70
     1
102
RTVSPost2010Prop43
 90
        3
102
RTVSPost2010PropOp43
 70
     1
102
RTVSPost2010Prop44ColorIndex
 90
        5
102
RTVSPost2010Prop44ColorRGB
 90
      255
102
RTVSPost2010PropOp44
 70
     1
102
RTVSPost2010Prop45
280
     0
102
RTVSPost2010PropOp45
 70
     1
102
RTVSPost2010Prop46
 90
       50
102
RTVSPost2010PropOp46
 70
     1
102
RTVSPost2010Prop47
 90
       50
102
RTVSPost2010PropOp47
 70
     1
102
RTVSPost2010Prop48
 90
       50
102
RTVSPost2010PropOp48
 70
     1
102
RTVSPost2010Prop49
280
     0
102
RTVSPost2010PropOp49
 70
     1
102
RTVSPost2010Prop50
 90
       50
102
RTVSPost2010PropOp50
 70
     1
102
RTVSPost2010Prop51ColorIndex
 90
      256
102
RTVSPost2010Prop51ColorRGB
 90
-16777216
102
RTVSPost2010PropOp51
 70
     0
102
RTVSPost2010Prop52
140
1.0
102
RTVSPost2010PropOp52
 70
     0
102
RTVSPost2010Prop53
 90
        2
102
RTVSPost2010PropOp53
 70
     1
102
RTVSPost2010Prop54
  1
strokes_ogs.tif
102
RTVSPost2010PropOp54
 70
     1
102
RTVSPost2010Prop55
280
     0
102
RTVSPost2010PropOp55
 70
     1
102
RTVSPost2010Prop56
140
1.0
102
RTVSPost2010PropOp56
 70
     1
102
RTVSPost2010Prop57
140
1.0
102
RTVSPost2010PropOp57
 70
     1
102
RTVSPropertyOp0
 70
     1
102
RTVSPropertyOp1
 70
     1
102
RTVSPropertyOp2
 70
     1
102
RTVSPropertyOp3
 70
     1
102
RTVSPropertyOp4
 70
     1
102
RTVSPropertyOp5
 70
     1
102
RTVSPropertyOp6
 70
     1
102
RTVSPropertyOp7
 70
     1
102
RTVSPropertyOp8
 70
     1
102
RTVSPropertyOp9
 70
     1
102
RTVSPropertyOp10
 70
     1
102
RTVSPropertyOp11
 70
     1
102
RTVSPropertyOp12
 70
     1
102
RTVSPropertyOp13
 70
     1
102
RTVSPropertyOp14
 70
     1
102
RTVSPropertyOp15
 70
     1
102
RTVSPropertyOp16
 70
     1
102
RTVSPropertyOp17
 70
     1
102
RTVSPropertyOp18
 70
     1
102
RTVSPropertyOp19
 70
     1
102
RTVSPropertyOp20
 70
     1
102
RTVSPropertyOp21
 70
     1
102
RTVSPropertyOp22
 70
     1
102
RTVSPropertyOp23
 70
     1
102
RTVSPropertyOp24
 70
     1
102
RTVSPropertyOp25
 70
     1
102
RTVSPropertyOp26
 70
     1
102
RTVSPropertyOp27
 70
     1
102
RTVSPropertyOp28
 70
     1
102
RTVSPropertyOp29
 70
     1
102
RTVSPropertyOp30
 70
     1
102
RTVSPropertyOp31
 70
     1
102
RTVSPropertyOp32
 70
     1
102
RTVSPropertyOp33
 70
     1
102
RTVSPropertyOp34
 70
     1
102
RTVSPropertyOp35
 70
     1
102
RTVSPropertyOp36
 70
     1
102
RTVSPropertyOp37
 70
     1
102
RTVSPropertyOp38
 70
     1
102
RTVSPropertyOp39
 70
     1
102
RTVSPropertyOp40
 70
     1
102
RTVSPropertyOp41
 70
     1
102
RTVSPropertyOp42
 70
     1
102
RTVSPropertyOp43
 70
     1
102
RTVSPropertyOp44
 70
     1
102
RTVSPropertyOp45
 70
     1
102
RTVSPropertyOp46
 70
     1
102
RTVSPropertyOp47
 70
     1
102
RTVSPropertyOp48
 70
     1
102
RTVSPropertyOp49
 70
     1
102
RTVSPropertyOp50
 70
     1
102
RTVSPropertyOp51
 70
     0
102
RTVSPropertyOp52
 70
     0
102
RTVSPropertyOp53
 70
     1
102
RTVSPropertyOp54
 70
     1
102
RTVSPropertyOp55
 70
     1
102
RTVSPropertyOp56
 70
     1
102
RTVSPropertyOp57
 70
     1
102
RTVSPropertyOp58
 70
     1
102
RTVSPropertyOp59
 70
     1
102
RTVSPropertyOp60
 70
     1
102
RTVSPropertyOp61
 70
     1
102
RTVSPropertyOp62
 70
     1
  0
XRECORD
  5
9A95
102
{ACAD_REACTORS
330
9A94
102
}
330
9A94
100
AcDbXrecord
280
     1
102
RTVSPost2010Prop28
280
     0
102
RTVSPost2010PropOp28
 70
     1
102
RTVSPost2010Prop29
280
     1
102
RTVSPost2010PropOp29
 70
     1
102
RTVSPost2010Prop30
280
     1
102
RTVSPost2010PropOp30
 70
     1
102
RTVSPost2010Prop31
280
     0
102
RTVSPost2010PropOp31
 70
     1
102
RTVSPost2010Prop32
280
     0
102
RTVSPost2010PropOp32
 70
     1
102
RTVSPost2010Prop33
280
     0
102
RTVSPost2010PropOp33
 70
     1
102
RTVSPost2010Prop34
280
     0
102
RTVSPost2010PropOp34
 70
     1
102
RTVSPost2010Prop35
280
     0
102
RTVSPost2010PropOp35
 70
     1
102
RTVSPost2010Prop36
280
     0
102
RTVSPost2010PropOp36
 70
     1
102
RTVSPost2010Prop37
 90
       50
102
RTVSPost2010PropOp37
 70
     0
102
RTVSPost2010Prop38
140
0.0
102
RTVSPost2010PropOp38
 70
     0
102
RTVSPost2010Prop39
140
1.0
102
RTVSPost2010PropOp39
 70
     0
102
RTVSPost2010Prop40
 90
        0
102
RTVSPost2010PropOp40
 70
     0
102
RTVSPost2010Prop41ColorIndex
 90
       18
102
RTVSPost2010Prop41ColorRGB
 90
        0
102
RTVSPost2010PropOp41
 70
     0
102
RTVSPost2010Prop42
 90
       50
102
RTVSPost2010PropOp42
 70
     0
102
RTVSPost2010Prop43
 90
        3
102
RTVSPost2010PropOp43
 70
     0
102
RTVSPost2010Prop44ColorIndex
 90
        5
102
RTVSPost2010Prop44ColorRGB
 90
      255
102
RTVSPost2010PropOp44
 70
     0
102
RTVSPost2010Prop45
280
     0
102
RTVSPost2010PropOp45
 70
     1
102
RTVSPost2010Prop46
 90
       50
102
RTVSPost2010PropOp46
 70
     0
102
RTVSPost2010Prop47
 90
       50
102
RTVSPost2010PropOp47
 70
     0
102
RTVSPost2010Prop48
 90
       50
102
RTVSPost2010PropOp48
 70
     0
102
RTVSPost2010Prop49
280
     0
102
RTVSPost2010PropOp49
 70
     1
102
RTVSPost2010Prop50
 90
       50
102
RTVSPost2010PropOp50
 70
     0
102
RTVSPost2010Prop51ColorIndex
 90
      256
102
RTVSPost2010Prop51ColorRGB
 90
-16777216
102
RTVSPost2010PropOp51
 70
     0
102
RTVSPost2010Prop52
140
1.0
102
RTVSPost2010PropOp52
 70
     0
102
RTVSPost2010Prop53
 90
        2
102
RTVSPost2010PropOp53
 70
     0
102
RTVSPost2010Prop54
  1
strokes_ogs.tif
102
RTVSPost2010PropOp54
 70
     0
102
RTVSPost2010Prop55
280
     0
102
RTVSPost2010PropOp55
 70
     1
102
RTVSPost2010Prop56
140
1.0
102
RTVSPost2010PropOp56
 70
     0
102
RTVSPost2010Prop57
140
1.0
102
RTVSPost2010PropOp57
 70
     0
102
RTVSPropertyOp0
 70
     0
102
RTVSPropertyOp1
 70
     0
102
RTVSPropertyOp2
 70
     0
102
RTVSPropertyOp3
 70
     0
102
RTVSPropertyOp4
 70
     0
102
RTVSPropertyOp5
 70
     0
102
RTVSPropertyOp6
 70
     0
102
RTVSPropertyOp7
 70
     0
102
RTVSPropertyOp8
 70
     0
102
RTVSPropertyOp9
 70
     0
102
RTVSPropertyOp10
 70
     0
102
RTVSPropertyOp11
 70
     0
102
RTVSPropertyOp12
 70
     0
102
RTVSPropertyOp13
 70
     0
102
RTVSPropertyOp14
 70
     2
102
RTVSPropertyOp15
 70
     0
102
RTVSPropertyOp16
 70
     0
102
RTVSPropertyOp17
 70
     0
102
RTVSPropertyOp18
 70
     0
102
RTVSPropertyOp19
 70
     0
102
RTVSPropertyOp20
 70
     0
102
RTVSPropertyOp21
 70
     0
102
RTVSPropertyOp22
 70
     0
102
RTVSPropertyOp23
 70
     0
102
RTVSPropertyOp24
 70
     0
102
RTVSPropertyOp25
 70
     0
102
RTVSPropertyOp26
 70
     0
102
RTVSPropertyOp27
 70
     0
102
RTVSPropertyOp28
 70
     1
102
RTVSPropertyOp29
 70
     1
102
RTVSPropertyOp30
 70
     1
102
RTVSPropertyOp31
 70
     1
102
RTVSPropertyOp32
 70
     1
102
RTVSPropertyOp33
 70
     1
102
RTVSPropertyOp34
 70
     1
102
RTVSPropertyOp35
 70
     1
102
RTVSPropertyOp36
 70
     1
102
RTVSPropertyOp37
 70
     0
102
RTVSPropertyOp38
 70
     0
102
RTVSPropertyOp39
 70
     0
102
RTVSPropertyOp40
 70
     0
102
RTVSPropertyOp41
 70
     0
102
RTVSPropertyOp42
 70
     0
102
RTVSPropertyOp43
 70
     0
102
RTVSPropertyOp44
 70
     0
102
RTVSPropertyOp45
 70
     1
102
RTVSPropertyOp46
 70
     0
102
RTVSPropertyOp47
 70
     0
102
RTVSPropertyOp48
 70
     0
102
RTVSPropertyOp49
 70
     1
102
RTVSPropertyOp50
 70
     0
102
RTVSPropertyOp51
 70
     0
102
RTVSPropertyOp52
 70
     0
102
RTVSPropertyOp53
 70
     0
102
RTVSPropertyOp54
 70
     0
102
RTVSPropertyOp55
 70
     1
102
RTVSPropertyOp56
 70
     0
102
RTVSPropertyOp57
 70
     0
102
RTVSPropertyOp58
 70
     0
102
RTVSPropertyOp59
 70
     0
102
RTVSPropertyOp60
 70
     0
102
RTVSPropertyOp61
 70
     0
102
RTVSPropertyOp62
 70
     0
  0
XRECORD
  5
9A83
102
{ACAD_REACTORS
330
9A82
102
}
330
9A82
100
AcDbXrecord
280
     1
102
RTVSPost2010Prop28
280
     0
102
RTVSPost2010PropOp28
 70
     1
102
RTVSPost2010Prop29
280
     1
102
RTVSPost2010PropOp29
 70
     1
102
RTVSPost2010Prop30
280
     1
102
RTVSPost2010PropOp30
 70
     1
102
RTVSPost2010Prop31
280
     0
102
RTVSPost2010PropOp31
 70
     1
102
RTVSPost2010Prop32
280
     0
102
RTVSPost2010PropOp32
 70
     1
102
RTVSPost2010Prop33
280
     0
102
RTVSPost2010PropOp33
 70
     1
102
RTVSPost2010Prop34
280
     0
102
RTVSPost2010PropOp34
 70
     1
102
RTVSPost2010Prop35
280
     0
102
RTVSPost2010PropOp35
 70
     1
102
RTVSPost2010Prop36
280
     0
102
RTVSPost2010PropOp36
 70
     1
102
RTVSPost2010Prop37
 90
       50
102
RTVSPost2010PropOp37
 70
     1
102
RTVSPost2010Prop38
140
0.0
102
RTVSPost2010PropOp38
 70
     1
102
RTVSPost2010Prop39
140
1.0
102
RTVSPost2010PropOp39
 70
     1
102
RTVSPost2010Prop40
 90
        0
102
RTVSPost2010PropOp40
 70
     1
102
RTVSPost2010Prop41ColorIndex
 90
       18
102
RTVSPost2010Prop41ColorRGB
 90
        0
102
RTVSPost2010PropOp41
 70
     1
102
RTVSPost2010Prop42
 90
       50
102
RTVSPost2010PropOp42
 70
     1
102
RTVSPost2010Prop43
 90
        3
102
RTVSPost2010PropOp43
 70
     1
102
RTVSPost2010Prop44ColorIndex
 90
        5
102
RTVSPost2010Prop44ColorRGB
 90
      255
102
RTVSPost2010PropOp44
 70
     1
102
RTVSPost2010Prop45
280
     0
102
RTVSPost2010PropOp45
 70
     1
102
RTVSPost2010Prop46
 90
       50
102
RTVSPost2010PropOp46
 70
     1
102
RTVSPost2010Prop47
 90
       50
102
RTVSPost2010PropOp47
 70
     1
102
RTVSPost2010Prop48
 90
       50
102
RTVSPost2010PropOp48
 70
     1
102
RTVSPost2010Prop49
280
     0
102
RTVSPost2010PropOp49
 70
     1
102
RTVSPost2010Prop50
 90
       50
102
RTVSPost2010PropOp50
 70
     1
102
RTVSPost2010Prop51ColorIndex
 90
      256
102
RTVSPost2010Prop51ColorRGB
 90
-16777216
102
RTVSPost2010PropOp51
 70
     0
102
RTVSPost2010Prop52
140
1.0
102
RTVSPost2010PropOp52
 70
     0
102
RTVSPost2010Prop53
 90
        2
102
RTVSPost2010PropOp53
 70
     1
102
RTVSPost2010Prop54
  1
strokes_ogs.tif
102
RTVSPost2010PropOp54
 70
     1
102
RTVSPost2010Prop55
280
     0
102
RTVSPost2010PropOp55
 70
     1
102
RTVSPost2010Prop56
140
1.0
102
RTVSPost2010PropOp56
 70
     1
102
RTVSPost2010Prop57
140
1.0
102
RTVSPost2010PropOp57
 70
     1
102
RTVSPropertyOp0
 70
     1
102
RTVSPropertyOp1
 70
     1
102
RTVSPropertyOp2
 70
     1
102
RTVSPropertyOp3
 70
     1
102
RTVSPropertyOp4
 70
     1
102
RTVSPropertyOp5
 70
     1
102
RTVSPropertyOp6
 70
     1
102
RTVSPropertyOp7
 70
     1
102
RTVSPropertyOp8
 70
     1
102
RTVSPropertyOp9
 70
     1
102
RTVSPropertyOp10
 70
     1
102
RTVSPropertyOp11
 70
     1
102
RTVSPropertyOp12
 70
     1
102
RTVSPropertyOp13
 70
     1
102
RTVSPropertyOp14
 70
     1
102
RTVSPropertyOp15
 70
     1
102
RTVSPropertyOp16
 70
     1
102
RTVSPropertyOp17
 70
     1
102
RTVSPropertyOp18
 70
     1
102
RTVSPropertyOp19
 70
     1
102
RTVSPropertyOp20
 70
     1
102
RTVSPropertyOp21
 70
     1
102
RTVSPropertyOp22
 70
     1
102
RTVSPropertyOp23
 70
     1
102
RTVSPropertyOp24
 70
     1
102
RTVSPropertyOp25
 70
     1
102
RTVSPropertyOp26
 70
     1
102
RTVSPropertyOp27
 70
     1
102
RTVSPropertyOp28
 70
     1
102
RTVSPropertyOp29
 70
     1
102
RTVSPropertyOp30
 70
     1
102
RTVSPropertyOp31
 70
     1
102
RTVSPropertyOp32
 70
     1
102
RTVSPropertyOp33
 70
     1
102
RTVSPropertyOp34
 70
     1
102
RTVSPropertyOp35
 70
     1
102
RTVSPropertyOp36
 70
     1
102
RTVSPropertyOp37
 70
     1
102
RTVSPropertyOp38
 70
     1
102
RTVSPropertyOp39
 70
     1
102
RTVSPropertyOp40
 70
     1
102
RTVSPropertyOp41
 70
     1
102
RTVSPropertyOp42
 70
     1
102
RTVSPropertyOp43
 70
     1
102
RTVSPropertyOp44
 70
     1
102
RTVSPropertyOp45
 70
     1
102
RTVSPropertyOp46
 70
     1
102
RTVSPropertyOp47
 70
     1
102
RTVSPropertyOp48
 70
     1
102
RTVSPropertyOp49
 70
     1
102
RTVSPropertyOp50
 70
     1
102
RTVSPropertyOp51
 70
     0
102
RTVSPropertyOp52
 70
     0
102
RTVSPropertyOp53
 70
     1
102
RTVSPropertyOp54
 70
     1
102
RTVSPropertyOp55
 70
     1
102
RTVSPropertyOp56
 70
     1
102
RTVSPropertyOp57
 70
     1
102
RTVSPropertyOp58
 70
     1
102
RTVSPropertyOp59
 70
     1
102
RTVSPropertyOp60
 70
     1
102
RTVSPropertyOp61
 70
     1
102
RTVSPropertyOp62
 70
     1
  0
XRECORD
  5
9A67
102
{ACAD_REACTORS
330
9A66
102
}
330
9A66
100
AcDbXrecord
280
     1
102
RTVSPost2010Prop28
280
     0
102
RTVSPost2010PropOp28
 70
     1
102
RTVSPost2010Prop29
280
     1
102
RTVSPost2010PropOp29
 70
     1
102
RTVSPost2010Prop30
280
     1
102
RTVSPost2010PropOp30
 70
     1
102
RTVSPost2010Prop31
280
     0
102
RTVSPost2010PropOp31
 70
     1
102
RTVSPost2010Prop32
280
     0
102
RTVSPost2010PropOp32
 70
     1
102
RTVSPost2010Prop33
280
     0
102
RTVSPost2010PropOp33
 70
     1
102
RTVSPost2010Prop34
280
     0
102
RTVSPost2010PropOp34
 70
     1
102
RTVSPost2010Prop35
280
     0
102
RTVSPost2010PropOp35
 70
     1
102
RTVSPost2010Prop36
280
     0
102
RTVSPost2010PropOp36
 70
     1
102
RTVSPost2010Prop37
 90
       50
102
RTVSPost2010PropOp37
 70
     1
102
RTVSPost2010Prop38
140
0.0
102
RTVSPost2010PropOp38
 70
     1
102
RTVSPost2010Prop39
140
1.0
102
RTVSPost2010PropOp39
 70
     1
102
RTVSPost2010Prop40
 90
        0
102
RTVSPost2010PropOp40
 70
     1
102
RTVSPost2010Prop41ColorIndex
 90
       18
102
RTVSPost2010Prop41ColorRGB
 90
        0
102
RTVSPost2010PropOp41
 70
     1
102
RTVSPost2010Prop42
 90
       50
102
RTVSPost2010PropOp42
 70
     1
102
RTVSPost2010Prop43
 90
        3
102
RTVSPost2010PropOp43
 70
     1
102
RTVSPost2010Prop44ColorIndex
 90
        5
102
RTVSPost2010Prop44ColorRGB
 90
      255
102
RTVSPost2010PropOp44
 70
     1
102
RTVSPost2010Prop45
280
     0
102
RTVSPost2010PropOp45
 70
     1
102
RTVSPost2010Prop46
 90
       50
102
RTVSPost2010PropOp46
 70
     1
102
RTVSPost2010Prop47
 90
       50
102
RTVSPost2010PropOp47
 70
     1
102
RTVSPost2010Prop48
 90
       50
102
RTVSPost2010PropOp48
 70
     1
102
RTVSPost2010Prop49
280
     0
102
RTVSPost2010PropOp49
 70
     1
102
RTVSPost2010Prop50
 90
       50
102
RTVSPost2010PropOp50
 70
     1
102
RTVSPost2010Prop51ColorIndex
 90
      256
102
RTVSPost2010Prop51ColorRGB
 90
-16777216
102
RTVSPost2010PropOp51
 70
     0
102
RTVSPost2010Prop52
140
1.0
102
RTVSPost2010PropOp52
 70
     0
102
RTVSPost2010Prop53
 90
        2
102
RTVSPost2010PropOp53
 70
     1
102
RTVSPost2010Prop54
  1
strokes_ogs.tif
102
RTVSPost2010PropOp54
 70
     1
102
RTVSPost2010Prop55
280
     0
102
RTVSPost2010PropOp55
 70
     1
102
RTVSPost2010Prop56
140
1.0
102
RTVSPost2010PropOp56
 70
     1
102
RTVSPost2010Prop57
140
1.0
102
RTVSPost2010PropOp57
 70
     1
102
RTVSPropertyOp0
 70
     1
102
RTVSPropertyOp1
 70
     1
102
RTVSPropertyOp2
 70
     1
102
RTVSPropertyOp3
 70
     1
102
RTVSPropertyOp4
 70
     1
102
RTVSPropertyOp5
 70
     1
102
RTVSPropertyOp6
 70
     1
102
RTVSPropertyOp7
 70
     1
102
RTVSPropertyOp8
 70
     1
102
RTVSPropertyOp9
 70
     1
102
RTVSPropertyOp10
 70
     1
102
RTVSPropertyOp11
 70
     1
102
RTVSPropertyOp12
 70
     1
102
RTVSPropertyOp13
 70
     1
102
RTVSPropertyOp14
 70
     1
102
RTVSPropertyOp15
 70
     1
102
RTVSPropertyOp16
 70
     1
102
RTVSPropertyOp17
 70
     1
102
RTVSPropertyOp18
 70
     1
102
RTVSPropertyOp19
 70
     1
102
RTVSPropertyOp20
 70
     1
102
RTVSPropertyOp21
 70
     1
102
RTVSPropertyOp22
 70
     1
102
RTVSPropertyOp23
 70
     1
102
RTVSPropertyOp24
 70
     1
102
RTVSPropertyOp25
 70
     1
102
RTVSPropertyOp26
 70
     1
102
RTVSPropertyOp27
 70
     1
102
RTVSPropertyOp28
 70
     1
102
RTVSPropertyOp29
 70
     1
102
RTVSPropertyOp30
 70
     1
102
RTVSPropertyOp31
 70
     1
102
RTVSPropertyOp32
 70
     1
102
RTVSPropertyOp33
 70
     1
102
RTVSPropertyOp34
 70
     1
102
RTVSPropertyOp35
 70
     1
102
RTVSPropertyOp36
 70
     1
102
RTVSPropertyOp37
 70
     1
102
RTVSPropertyOp38
 70
     1
102
RTVSPropertyOp39
 70
     1
102
RTVSPropertyOp40
 70
     1
102
RTVSPropertyOp41
 70
     1
102
RTVSPropertyOp42
 70
     1
102
RTVSPropertyOp43
 70
     1
102
RTVSPropertyOp44
 70
     1
102
RTVSPropertyOp45
 70
     1
102
RTVSPropertyOp46
 70
     1
102
RTVSPropertyOp47
 70
     1
102
RTVSPropertyOp48
 70
     1
102
RTVSPropertyOp49
 70
     1
102
RTVSPropertyOp50
 70
     1
102
RTVSPropertyOp51
 70
     0
102
RTVSPropertyOp52
 70
     0
102
RTVSPropertyOp53
 70
     1
102
RTVSPropertyOp54
 70
     1
102
RTVSPropertyOp55
 70
     1
102
RTVSPropertyOp56
 70
     1
102
RTVSPropertyOp57
 70
     1
102
RTVSPropertyOp58
 70
     1
102
RTVSPropertyOp59
 70
     1
102
RTVSPropertyOp60
 70
     1
102
RTVSPropertyOp61
 70
     1
102
RTVSPropertyOp62
 70
     1
  0
XRECORD
  5
9A69
102
{ACAD_REACTORS
330
9A68
102
}
330
9A68
100
AcDbXrecord
280
     1
102
RTVSPost2010Prop28
280
     0
102
RTVSPost2010PropOp28
 70
     1
102
RTVSPost2010Prop29
280
     1
102
RTVSPost2010PropOp29
 70
     1
102
RTVSPost2010Prop30
280
     1
102
RTVSPost2010PropOp30
 70
     1
102
RTVSPost2010Prop31
280
     0
102
RTVSPost2010PropOp31
 70
     1
102
RTVSPost2010Prop32
280
     0
102
RTVSPost2010PropOp32
 70
     1
102
RTVSPost2010Prop33
280
     0
102
RTVSPost2010PropOp33
 70
     1
102
RTVSPost2010Prop34
280
     0
102
RTVSPost2010PropOp34
 70
     1
102
RTVSPost2010Prop35
280
     0
102
RTVSPost2010PropOp35
 70
     1
102
RTVSPost2010Prop36
280
     0
102
RTVSPost2010PropOp36
 70
     1
102
RTVSPost2010Prop37
 90
       50
102
RTVSPost2010PropOp37
 70
     1
102
RTVSPost2010Prop38
140
0.0
102
RTVSPost2010PropOp38
 70
     1
102
RTVSPost2010Prop39
140
1.0
102
RTVSPost2010PropOp39
 70
     1
102
RTVSPost2010Prop40
 90
        0
102
RTVSPost2010PropOp40
 70
     1
102
RTVSPost2010Prop41ColorIndex
 90
       18
102
RTVSPost2010Prop41ColorRGB
 90
        0
102
RTVSPost2010PropOp41
 70
     1
102
RTVSPost2010Prop42
 90
       50
102
RTVSPost2010PropOp42
 70
     1
102
RTVSPost2010Prop43
 90
        3
102
RTVSPost2010PropOp43
 70
     1
102
RTVSPost2010Prop44ColorIndex
 90
        5
102
RTVSPost2010Prop44ColorRGB
 90
      255
102
RTVSPost2010PropOp44
 70
     1
102
RTVSPost2010Prop45
280
     0
102
RTVSPost2010PropOp45
 70
     1
102
RTVSPost2010Prop46
 90
       50
102
RTVSPost2010PropOp46
 70
     1
102
RTVSPost2010Prop47
 90
       50
102
RTVSPost2010PropOp47
 70
     1
102
RTVSPost2010Prop48
 90
       50
102
RTVSPost2010PropOp48
 70
     1
102
RTVSPost2010Prop49
280
     0
102
RTVSPost2010PropOp49
 70
     1
102
RTVSPost2010Prop50
 90
       50
102
RTVSPost2010PropOp50
 70
     1
102
RTVSPost2010Prop51ColorIndex
 90
      256
102
RTVSPost2010Prop51ColorRGB
 90
-16777216
102
RTVSPost2010PropOp51
 70
     0
102
RTVSPost2010Prop52
140
1.0
102
RTVSPost2010PropOp52
 70
     0
102
RTVSPost2010Prop53
 90
        2
102
RTVSPost2010PropOp53
 70
     1
102
RTVSPost2010Prop54
  1
strokes_ogs.tif
102
RTVSPost2010PropOp54
 70
     1
102
RTVSPost2010Prop55
280
     0
102
RTVSPost2010PropOp55
 70
     1
102
RTVSPost2010Prop56
140
1.0
102
RTVSPost2010PropOp56
 70
     1
102
RTVSPost2010Prop57
140
1.0
102
RTVSPost2010PropOp57
 70
     1
102
RTVSPropertyOp0
 70
     1
102
RTVSPropertyOp1
 70
     1
102
RTVSPropertyOp2
 70
     1
102
RTVSPropertyOp3
 70
     1
102
RTVSPropertyOp4
 70
     1
102
RTVSPropertyOp5
 70
     1
102
RTVSPropertyOp6
 70
     1
102
RTVSPropertyOp7
 70
     1
102
RTVSPropertyOp8
 70
     1
102
RTVSPropertyOp9
 70
     1
102
RTVSPropertyOp10
 70
     1
102
RTVSPropertyOp11
 70
     1
102
RTVSPropertyOp12
 70
     1
102
RTVSPropertyOp13
 70
     1
102
RTVSPropertyOp14
 70
     1
102
RTVSPropertyOp15
 70
     1
102
RTVSPropertyOp16
 70
     1
102
RTVSPropertyOp17
 70
     1
102
RTVSPropertyOp18
 70
     1
102
RTVSPropertyOp19
 70
     1
102
RTVSPropertyOp20
 70
     1
102
RTVSPropertyOp21
 70
     1
102
RTVSPropertyOp22
 70
     1
102
RTVSPropertyOp23
 70
     1
102
RTVSPropertyOp24
 70
     1
102
RTVSPropertyOp25
 70
     1
102
RTVSPropertyOp26
 70
     1
102
RTVSPropertyOp27
 70
     1
102
RTVSPropertyOp28
 70
     1
102
RTVSPropertyOp29
 70
     1
102
RTVSPropertyOp30
 70
     1
102
RTVSPropertyOp31
 70
     1
102
RTVSPropertyOp32
 70
     1
102
RTVSPropertyOp33
 70
     1
102
RTVSPropertyOp34
 70
     1
102
RTVSPropertyOp35
 70
     1
102
RTVSPropertyOp36
 70
     1
102
RTVSPropertyOp37
 70
     1
102
RTVSPropertyOp38
 70
     1
102
RTVSPropertyOp39
 70
     1
102
RTVSPropertyOp40
 70
     1
102
RTVSPropertyOp41
 70
     1
102
RTVSPropertyOp42
 70
     1
102
RTVSPropertyOp43
 70
     1
102
RTVSPropertyOp44
 70
     1
102
RTVSPropertyOp45
 70
     1
102
RTVSPropertyOp46
 70
     1
102
RTVSPropertyOp47
 70
     1
102
RTVSPropertyOp48
 70
     1
102
RTVSPropertyOp49
 70
     1
102
RTVSPropertyOp50
 70
     1
102
RTVSPropertyOp51
 70
     0
102
RTVSPropertyOp52
 70
     0
102
RTVSPropertyOp53
 70
     1
102
RTVSPropertyOp54
 70
     1
102
RTVSPropertyOp55
 70
     1
102
RTVSPropertyOp56
 70
     1
102
RTVSPropertyOp57
 70
     1
102
RTVSPropertyOp58
 70
     1
102
RTVSPropertyOp59
 70
     1
102
RTVSPropertyOp60
 70
     1
102
RTVSPropertyOp61
 70
     1
102
RTVSPropertyOp62
 70
     1
  0
XRECORD
  5
9A6B
102
{ACAD_REACTORS
330
9A6A
102
}
330
9A6A
100
AcDbXrecord
280
     1
102
RTVSPost2010Prop28
280
     0
102
RTVSPost2010PropOp28
 70
     1
102
RTVSPost2010Prop29
280
     1
102
RTVSPost2010PropOp29
 70
     1
102
RTVSPost2010Prop30
280
     1
102
RTVSPost2010PropOp30
 70
     1
102
RTVSPost2010Prop31
280
     0
102
RTVSPost2010PropOp31
 70
     1
102
RTVSPost2010Prop32
280
     0
102
RTVSPost2010PropOp32
 70
     1
102
RTVSPost2010Prop33
280
     0
102
RTVSPost2010PropOp33
 70
     1
102
RTVSPost2010Prop34
280
     0
102
RTVSPost2010PropOp34
 70
     1
102
RTVSPost2010Prop35
280
     0
102
RTVSPost2010PropOp35
 70
     1
102
RTVSPost2010Prop36
280
     0
102
RTVSPost2010PropOp36
 70
     1
102
RTVSPost2010Prop37
 90
       50
102
RTVSPost2010PropOp37
 70
     1
102
RTVSPost2010Prop38
140
0.0
102
RTVSPost2010PropOp38
 70
     1
102
RTVSPost2010Prop39
140
1.0
102
RTVSPost2010PropOp39
 70
     1
102
RTVSPost2010Prop40
 90
        0
102
RTVSPost2010PropOp40
 70
     1
102
RTVSPost2010Prop41ColorIndex
 90
       18
102
RTVSPost2010Prop41ColorRGB
 90
        0
102
RTVSPost2010PropOp41
 70
     1
102
RTVSPost2010Prop42
 90
       50
102
RTVSPost2010PropOp42
 70
     1
102
RTVSPost2010Prop43
 90
        3
102
RTVSPost2010PropOp43
 70
     1
102
RTVSPost2010Prop44ColorIndex
 90
        5
102
RTVSPost2010Prop44ColorRGB
 90
      255
102
RTVSPost2010PropOp44
 70
     1
102
RTVSPost2010Prop45
280
     0
102
RTVSPost2010PropOp45
 70
     1
102
RTVSPost2010Prop46
 90
       50
102
RTVSPost2010PropOp46
 70
     1
102
RTVSPost2010Prop47
 90
       50
102
RTVSPost2010PropOp47
 70
     1
102
RTVSPost2010Prop48
 90
       50
102
RTVSPost2010PropOp48
 70
     1
102
RTVSPost2010Prop49
280
     0
102
RTVSPost2010PropOp49
 70
     1
102
RTVSPost2010Prop50
 90
       50
102
RTVSPost2010PropOp50
 70
     1
102
RTVSPost2010Prop51ColorIndex
 90
      256
102
RTVSPost2010Prop51ColorRGB
 90
-16777216
102
RTVSPost2010PropOp51
 70
     0
102
RTVSPost2010Prop52
140
1.0
102
RTVSPost2010PropOp52
 70
     0
102
RTVSPost2010Prop53
 90
        2
102
RTVSPost2010PropOp53
 70
     1
102
RTVSPost2010Prop54
  1
strokes_ogs.tif
102
RTVSPost2010PropOp54
 70
     1
102
RTVSPost2010Prop55
280
     0
102
RTVSPost2010PropOp55
 70
     1
102
RTVSPost2010Prop56
140
1.0
102
RTVSPost2010PropOp56
 70
     1
102
RTVSPost2010Prop57
140
1.0
102
RTVSPost2010PropOp57
 70
     1
102
RTVSPropertyOp0
 70
     1
102
RTVSPropertyOp1
 70
     1
102
RTVSPropertyOp2
 70
     1
102
RTVSPropertyOp3
 70
     1
102
RTVSPropertyOp4
 70
     1
102
RTVSPropertyOp5
 70
     1
102
RTVSPropertyOp6
 70
     1
102
RTVSPropertyOp7
 70
     1
102
RTVSPropertyOp8
 70
     1
102
RTVSPropertyOp9
 70
     1
102
RTVSPropertyOp10
 70
     1
102
RTVSPropertyOp11
 70
     1
102
RTVSPropertyOp12
 70
     1
102
RTVSPropertyOp13
 70
     1
102
RTVSPropertyOp14
 70
     1
102
RTVSPropertyOp15
 70
     1
102
RTVSPropertyOp16
 70
     1
102
RTVSPropertyOp17
 70
     1
102
RTVSPropertyOp18
 70
     1
102
RTVSPropertyOp19
 70
     1
102
RTVSPropertyOp20
 70
     1
102
RTVSPropertyOp21
 70
     1
102
RTVSPropertyOp22
 70
     1
102
RTVSPropertyOp23
 70
     1
102
RTVSPropertyOp24
 70
     1
102
RTVSPropertyOp25
 70
     1
102
RTVSPropertyOp26
 70
     1
102
RTVSPropertyOp27
 70
     1
102
RTVSPropertyOp28
 70
     1
102
RTVSPropertyOp29
 70
     1
102
RTVSPropertyOp30
 70
     1
102
RTVSPropertyOp31
 70
     1
102
RTVSPropertyOp32
 70
     1
102
RTVSPropertyOp33
 70
     1
102
RTVSPropertyOp34
 70
     1
102
RTVSPropertyOp35
 70
     1
102
RTVSPropertyOp36
 70
     1
102
RTVSPropertyOp37
 70
     1
102
RTVSPropertyOp38
 70
     1
102
RTVSPropertyOp39
 70
     1
102
RTVSPropertyOp40
 70
     1
102
RTVSPropertyOp41
 70
     1
102
RTVSPropertyOp42
 70
     1
102
RTVSPropertyOp43
 70
     1
102
RTVSPropertyOp44
 70
     1
102
RTVSPropertyOp45
 70
     1
102
RTVSPropertyOp46
 70
     1
102
RTVSPropertyOp47
 70
     1
102
RTVSPropertyOp48
 70
     1
102
RTVSPropertyOp49
 70
     1
102
RTVSPropertyOp50
 70
     1
102
RTVSPropertyOp51
 70
     0
102
RTVSPropertyOp52
 70
     0
102
RTVSPropertyOp53
 70
     1
102
RTVSPropertyOp54
 70
     1
102
RTVSPropertyOp55
 70
     1
102
RTVSPropertyOp56
 70
     1
102
RTVSPropertyOp57
 70
     1
102
RTVSPropertyOp58
 70
     1
102
RTVSPropertyOp59
 70
     1
102
RTVSPropertyOp60
 70
     1
102
RTVSPropertyOp61
 70
     1
102
RTVSPropertyOp62
 70
     1
  0
XRECORD
  5
9A6D
102
{ACAD_REACTORS
330
9A6C
102
}
330
9A6C
100
AcDbXrecord
280
     1
102
RTVSPost2010Prop28
280
     0
102
RTVSPost2010PropOp28
 70
     1
102
RTVSPost2010Prop29
280
     1
102
RTVSPost2010PropOp29
 70
     1
102
RTVSPost2010Prop30
280
     1
102
RTVSPost2010PropOp30
 70
     1
102
RTVSPost2010Prop31
280
     0
102
RTVSPost2010PropOp31
 70
     1
102
RTVSPost2010Prop32
280
     0
102
RTVSPost2010PropOp32
 70
     1
102
RTVSPost2010Prop33
280
     0
102
RTVSPost2010PropOp33
 70
     1
102
RTVSPost2010Prop34
280
     0
102
RTVSPost2010PropOp34
 70
     1
102
RTVSPost2010Prop35
280
     0
102
RTVSPost2010PropOp35
 70
     1
102
RTVSPost2010Prop36
280
     0
102
RTVSPost2010PropOp36
 70
     1
102
RTVSPost2010Prop37
 90
       50
102
RTVSPost2010PropOp37
 70
     1
102
RTVSPost2010Prop38
140
0.0
102
RTVSPost2010PropOp38
 70
     1
102
RTVSPost2010Prop39
140
1.0
102
RTVSPost2010PropOp39
 70
     1
102
RTVSPost2010Prop40
 90
        0
102
RTVSPost2010PropOp40
 70
     1
102
RTVSPost2010Prop41ColorIndex
 90
       18
102
RTVSPost2010Prop41ColorRGB
 90
        0
102
RTVSPost2010PropOp41
 70
     1
102
RTVSPost2010Prop42
 90
       50
102
RTVSPost2010PropOp42
 70
     1
102
RTVSPost2010Prop43
 90
        3
102
RTVSPost2010PropOp43
 70
     1
102
RTVSPost2010Prop44ColorIndex
 90
        5
102
RTVSPost2010Prop44ColorRGB
 90
      255
102
RTVSPost2010PropOp44
 70
     1
102
RTVSPost2010Prop45
280
     0
102
RTVSPost2010PropOp45
 70
     1
102
RTVSPost2010Prop46
 90
       50
102
RTVSPost2010PropOp46
 70
     1
102
RTVSPost2010Prop47
 90
       50
102
RTVSPost2010PropOp47
 70
     1
102
RTVSPost2010Prop48
 90
       50
102
RTVSPost2010PropOp48
 70
     1
102
RTVSPost2010Prop49
280
     0
102
RTVSPost2010PropOp49
 70
     1
102
RTVSPost2010Prop50
 90
       50
102
RTVSPost2010PropOp50
 70
     1
102
RTVSPost2010Prop51ColorIndex
 90
      256
102
RTVSPost2010Prop51ColorRGB
 90
-16777216
102
RTVSPost2010PropOp51
 70
     0
102
RTVSPost2010Prop52
140
1.0
102
RTVSPost2010PropOp52
 70
     0
102
RTVSPost2010Prop53
 90
        2
102
RTVSPost2010PropOp53
 70
     1
102
RTVSPost2010Prop54
  1
strokes_ogs.tif
102
RTVSPost2010PropOp54
 70
     1
102
RTVSPost2010Prop55
280
     0
102
RTVSPost2010PropOp55
 70
     1
102
RTVSPost2010Prop56
140
1.0
102
RTVSPost2010PropOp56
 70
     1
102
RTVSPost2010Prop57
140
1.0
102
RTVSPost2010PropOp57
 70
     1
102
RTVSPropertyOp0
 70
     1
102
RTVSPropertyOp1
 70
     1
102
RTVSPropertyOp2
 70
     1
102
RTVSPropertyOp3
 70
     1
102
RTVSPropertyOp4
 70
     1
102
RTVSPropertyOp5
 70
     1
102
RTVSPropertyOp6
 70
     1
102
RTVSPropertyOp7
 70
     1
102
RTVSPropertyOp8
 70
     1
102
RTVSPropertyOp9
 70
     1
102
RTVSPropertyOp10
 70
     1
102
RTVSPropertyOp11
 70
     1
102
RTVSPropertyOp12
 70
     1
102
RTVSPropertyOp13
 70
     1
102
RTVSPropertyOp14
 70
     1
102
RTVSPropertyOp15
 70
     1
102
RTVSPropertyOp16
 70
     1
102
RTVSPropertyOp17
 70
     1
102
RTVSPropertyOp18
 70
     1
102
RTVSPropertyOp19
 70
     1
102
RTVSPropertyOp20
 70
     1
102
RTVSPropertyOp21
 70
     1
102
RTVSPropertyOp22
 70
     1
102
RTVSPropertyOp23
 70
     1
102
RTVSPropertyOp24
 70
     1
102
RTVSPropertyOp25
 70
     1
102
RTVSPropertyOp26
 70
     1
102
RTVSPropertyOp27
 70
     1
102
RTVSPropertyOp28
 70
     1
102
RTVSPropertyOp29
 70
     1
102
RTVSPropertyOp30
 70
     1
102
RTVSPropertyOp31
 70
     1
102
RTVSPropertyOp32
 70
     1
102
RTVSPropertyOp33
 70
     1
102
RTVSPropertyOp34
 70
     1
102
RTVSPropertyOp35
 70
     1
102
RTVSPropertyOp36
 70
     1
102
RTVSPropertyOp37
 70
     1
102
RTVSPropertyOp38
 70
     1
102
RTVSPropertyOp39
 70
     1
102
RTVSPropertyOp40
 70
     1
102
RTVSPropertyOp41
 70
     1
102
RTVSPropertyOp42
 70
     1
102
RTVSPropertyOp43
 70
     1
102
RTVSPropertyOp44
 70
     1
102
RTVSPropertyOp45
 70
     1
102
RTVSPropertyOp46
 70
     1
102
RTVSPropertyOp47
 70
     1
102
RTVSPropertyOp48
 70
     1
102
RTVSPropertyOp49
 70
     1
102
RTVSPropertyOp50
 70
     1
102
RTVSPropertyOp51
 70
     0
102
RTVSPropertyOp52
 70
     0
102
RTVSPropertyOp53
 70
     1
102
RTVSPropertyOp54
 70
     1
102
RTVSPropertyOp55
 70
     1
102
RTVSPropertyOp56
 70
     1
102
RTVSPropertyOp57
 70
     1
102
RTVSPropertyOp58
 70
     1
102
RTVSPropertyOp59
 70
     1
102
RTVSPropertyOp60
 70
     1
102
RTVSPropertyOp61
 70
     1
102
RTVSPropertyOp62
 70
     1
  0
XRECORD
  5
9A75
102
{ACAD_REACTORS
330
9A74
102
}
330
9A74
100
AcDbXrecord
280
     1
102
RTVSPost2010Prop28
280
     0
102
RTVSPost2010PropOp28
 70
     1
102
RTVSPost2010Prop29
280
     1
102
RTVSPost2010PropOp29
 70
     1
102
RTVSPost2010Prop30
280
     1
102
RTVSPost2010PropOp30
 70
     1
102
RTVSPost2010Prop31
280
     0
102
RTVSPost2010PropOp31
 70
     1
102
RTVSPost2010Prop32
280
     0
102
RTVSPost2010PropOp32
 70
     1
102
RTVSPost2010Prop33
280
     0
102
RTVSPost2010PropOp33
 70
     1
102
RTVSPost2010Prop34
280
     0
102
RTVSPost2010PropOp34
 70
     1
102
RTVSPost2010Prop35
280
     0
102
RTVSPost2010PropOp35
 70
     1
102
RTVSPost2010Prop36
280
     0
102
RTVSPost2010PropOp36
 70
     1
102
RTVSPost2010Prop37
 90
       50
102
RTVSPost2010PropOp37
 70
     1
102
RTVSPost2010Prop38
140
0.0
102
RTVSPost2010PropOp38
 70
     1
102
RTVSPost2010Prop39
140
1.0
102
RTVSPost2010PropOp39
 70
     1
102
RTVSPost2010Prop40
 90
        0
102
RTVSPost2010PropOp40
 70
     1
102
RTVSPost2010Prop41ColorIndex
 90
       18
102
RTVSPost2010Prop41ColorRGB
 90
        0
102
RTVSPost2010PropOp41
 70
     1
102
RTVSPost2010Prop42
 90
       50
102
RTVSPost2010PropOp42
 70
     1
102
RTVSPost2010Prop43
 90
        3
102
RTVSPost2010PropOp43
 70
     1
102
RTVSPost2010Prop44ColorIndex
 90
        5
102
RTVSPost2010Prop44ColorRGB
 90
      255
102
RTVSPost2010PropOp44
 70
     1
102
RTVSPost2010Prop45
280
     0
102
RTVSPost2010PropOp45
 70
     1
102
RTVSPost2010Prop46
 90
       50
102
RTVSPost2010PropOp46
 70
     1
102
RTVSPost2010Prop47
 90
       50
102
RTVSPost2010PropOp47
 70
     1
102
RTVSPost2010Prop48
 90
       50
102
RTVSPost2010PropOp48
 70
     1
102
RTVSPost2010Prop49
280
     0
102
RTVSPost2010PropOp49
 70
     1
102
RTVSPost2010Prop50
 90
       50
102
RTVSPost2010PropOp50
 70
     1
102
RTVSPost2010Prop51ColorIndex
 90
      256
102
RTVSPost2010Prop51ColorRGB
 90
-16777216
102
RTVSPost2010PropOp51
 70
     0
102
RTVSPost2010Prop52
140
1.0
102
RTVSPost2010PropOp52
 70
     0
102
RTVSPost2010Prop53
 90
        2
102
RTVSPost2010PropOp53
 70
     1
102
RTVSPost2010Prop54
  1
strokes_ogs.tif
102
RTVSPost2010PropOp54
 70
     1
102
RTVSPost2010Prop55
280
     0
102
RTVSPost2010PropOp55
 70
     1
102
RTVSPost2010Prop56
140
1.0
102
RTVSPost2010PropOp56
 70
     1
102
RTVSPost2010Prop57
140
1.0
102
RTVSPost2010PropOp57
 70
     1
102
RTVSPropertyOp0
 70
     1
102
RTVSPropertyOp1
 70
     1
102
RTVSPropertyOp2
 70
     1
102
RTVSPropertyOp3
 70
     1
102
RTVSPropertyOp4
 70
     1
102
RTVSPropertyOp5
 70
     1
102
RTVSPropertyOp6
 70
     1
102
RTVSPropertyOp7
 70
     1
102
RTVSPropertyOp8
 70
     1
102
RTVSPropertyOp9
 70
     1
102
RTVSPropertyOp10
 70
     1
102
RTVSPropertyOp11
 70
     1
102
RTVSPropertyOp12
 70
     1
102
RTVSPropertyOp13
 70
     1
102
RTVSPropertyOp14
 70
     1
102
RTVSPropertyOp15
 70
     1
102
RTVSPropertyOp16
 70
     1
102
RTVSPropertyOp17
 70
     1
102
RTVSPropertyOp18
 70
     1
102
RTVSPropertyOp19
 70
     1
102
RTVSPropertyOp20
 70
     1
102
RTVSPropertyOp21
 70
     1
102
RTVSPropertyOp22
 70
     1
102
RTVSPropertyOp23
 70
     1
102
RTVSPropertyOp24
 70
     1
102
RTVSPropertyOp25
 70
     1
102
RTVSPropertyOp26
 70
     1
102
RTVSPropertyOp27
 70
     1
102
RTVSPropertyOp28
 70
     1
102
RTVSPropertyOp29
 70
     1
102
RTVSPropertyOp30
 70
     1
102
RTVSPropertyOp31
 70
     1
102
RTVSPropertyOp32
 70
     1
102
RTVSPropertyOp33
 70
     1
102
RTVSPropertyOp34
 70
     1
102
RTVSPropertyOp35
 70
     1
102
RTVSPropertyOp36
 70
     1
102
RTVSPropertyOp37
 70
     1
102
RTVSPropertyOp38
 70
     1
102
RTVSPropertyOp39
 70
     1
102
RTVSPropertyOp40
 70
     1
102
RTVSPropertyOp41
 70
     1
102
RTVSPropertyOp42
 70
     1
102
RTVSPropertyOp43
 70
     1
102
RTVSPropertyOp44
 70
     1
102
RTVSPropertyOp45
 70
     1
102
RTVSPropertyOp46
 70
     1
102
RTVSPropertyOp47
 70
     1
102
RTVSPropertyOp48
 70
     1
102
RTVSPropertyOp49
 70
     1
102
RTVSPropertyOp50
 70
     1
102
RTVSPropertyOp51
 70
     0
102
RTVSPropertyOp52
 70
     0
102
RTVSPropertyOp53
 70
     1
102
RTVSPropertyOp54
 70
     1
102
RTVSPropertyOp55
 70
     1
102
RTVSPropertyOp56
 70
     1
102
RTVSPropertyOp57
 70
     1
102
RTVSPropertyOp58
 70
     1
102
RTVSPropertyOp59
 70
     1
102
RTVSPropertyOp60
 70
     1
102
RTVSPropertyOp61
 70
     1
102
RTVSPropertyOp62
 70
     1
  0
XRECORD
  5
9A91
102
{ACAD_REACTORS
330
9A90
102
}
330
9A90
100
AcDbXrecord
280
     1
102
RTVSPost2010Prop28
280
     0
102
RTVSPost2010PropOp28
 70
     1
102
RTVSPost2010Prop29
280
     1
102
RTVSPost2010PropOp29
 70
     1
102
RTVSPost2010Prop30
280
     1
102
RTVSPost2010PropOp30
 70
     1
102
RTVSPost2010Prop31
280
     0
102
RTVSPost2010PropOp31
 70
     1
102
RTVSPost2010Prop32
280
     0
102
RTVSPost2010PropOp32
 70
     1
102
RTVSPost2010Prop33
280
     0
102
RTVSPost2010PropOp33
 70
     1
102
RTVSPost2010Prop34
280
     0
102
RTVSPost2010PropOp34
 70
     1
102
RTVSPost2010Prop35
280
     0
102
RTVSPost2010PropOp35
 70
     1
102
RTVSPost2010Prop36
280
     0
102
RTVSPost2010PropOp36
 70
     1
102
RTVSPost2010Prop37
 90
       50
102
RTVSPost2010PropOp37
 70
     0
102
RTVSPost2010Prop38
140
0.0
102
RTVSPost2010PropOp38
 70
     0
102
RTVSPost2010Prop39
140
1.0
102
RTVSPost2010PropOp39
 70
     0
102
RTVSPost2010Prop40
 90
        0
102
RTVSPost2010PropOp40
 70
     0
102
RTVSPost2010Prop41ColorIndex
 90
       18
102
RTVSPost2010Prop41ColorRGB
 90
        0
102
RTVSPost2010PropOp41
 70
     0
102
RTVSPost2010Prop42
 90
       50
102
RTVSPost2010PropOp42
 70
     0
102
RTVSPost2010Prop43
 90
        3
102
RTVSPost2010PropOp43
 70
     0
102
RTVSPost2010Prop44ColorIndex
 90
        5
102
RTVSPost2010Prop44ColorRGB
 90
      255
102
RTVSPost2010PropOp44
 70
     0
102
RTVSPost2010Prop45
280
     0
102
RTVSPost2010PropOp45
 70
     1
102
RTVSPost2010Prop46
 90
       50
102
RTVSPost2010PropOp46
 70
     0
102
RTVSPost2010Prop47
 90
       50
102
RTVSPost2010PropOp47
 70
     0
102
RTVSPost2010Prop48
 90
       50
102
RTVSPost2010PropOp48
 70
     0
102
RTVSPost2010Prop49
280
     0
102
RTVSPost2010PropOp49
 70
     1
102
RTVSPost2010Prop50
 90
       50
102
RTVSPost2010PropOp50
 70
     0
102
RTVSPost2010Prop51ColorIndex
 90
      256
102
RTVSPost2010Prop51ColorRGB
 90
-16777216
102
RTVSPost2010PropOp51
 70
     0
102
RTVSPost2010Prop52
140
1.0
102
RTVSPost2010PropOp52
 70
     0
102
RTVSPost2010Prop53
 90
        2
102
RTVSPost2010PropOp53
 70
     0
102
RTVSPost2010Prop54
  1
strokes_ogs.tif
102
RTVSPost2010PropOp54
 70
     0
102
RTVSPost2010Prop55
280
     0
102
RTVSPost2010PropOp55
 70
     1
102
RTVSPost2010Prop56
140
1.0
102
RTVSPost2010PropOp56
 70
     0
102
RTVSPost2010Prop57
140
1.0
102
RTVSPost2010PropOp57
 70
     0
102
RTVSPropertyOp0
 70
     0
102
RTVSPropertyOp1
 70
     0
102
RTVSPropertyOp2
 70
     0
102
RTVSPropertyOp3
 70
     0
102
RTVSPropertyOp4
 70
     0
102
RTVSPropertyOp5
 70
     0
102
RTVSPropertyOp6
 70
     0
102
RTVSPropertyOp7
 70
     0
102
RTVSPropertyOp8
 70
     0
102
RTVSPropertyOp9
 70
     0
102
RTVSPropertyOp10
 70
     0
102
RTVSPropertyOp11
 70
     0
102
RTVSPropertyOp12
 70
     0
102
RTVSPropertyOp13
 70
     0
102
RTVSPropertyOp14
 70
     2
102
RTVSPropertyOp15
 70
     0
102
RTVSPropertyOp16
 70
     0
102
RTVSPropertyOp17
 70
     0
102
RTVSPropertyOp18
 70
     0
102
RTVSPropertyOp19
 70
     0
102
RTVSPropertyOp20
 70
     0
102
RTVSPropertyOp21
 70
     0
102
RTVSPropertyOp22
 70
     0
102
RTVSPropertyOp23
 70
     0
102
RTVSPropertyOp24
 70
     0
102
RTVSPropertyOp25
 70
     0
102
RTVSPropertyOp26
 70
     0
102
RTVSPropertyOp27
 70
     0
102
RTVSPropertyOp28
 70
     1
102
RTVSPropertyOp29
 70
     1
102
RTVSPropertyOp30
 70
     1
102
RTVSPropertyOp31
 70
     1
102
RTVSPropertyOp32
 70
     1
102
RTVSPropertyOp33
 70
     1
102
RTVSPropertyOp34
 70
     1
102
RTVSPropertyOp35
 70
     1
102
RTVSPropertyOp36
 70
     1
102
RTVSPropertyOp37
 70
     0
102
RTVSPropertyOp38
 70
     0
102
RTVSPropertyOp39
 70
     0
102
RTVSPropertyOp40
 70
     0
102
RTVSPropertyOp41
 70
     0
102
RTVSPropertyOp42
 70
     0
102
RTVSPropertyOp43
 70
     0
102
RTVSPropertyOp44
 70
     0
102
RTVSPropertyOp45
 70
     1
102
RTVSPropertyOp46
 70
     0
102
RTVSPropertyOp47
 70
     0
102
RTVSPropertyOp48
 70
     0
102
RTVSPropertyOp49
 70
     1
102
RTVSPropertyOp50
 70
     0
102
RTVSPropertyOp51
 70
     0
102
RTVSPropertyOp52
 70
     0
102
RTVSPropertyOp53
 70
     0
102
RTVSPropertyOp54
 70
     0
102
RTVSPropertyOp55
 70
     1
102
RTVSPropertyOp56
 70
     0
102
RTVSPropertyOp57
 70
     0
102
RTVSPropertyOp58
 70
     0
102
RTVSPropertyOp59
 70
     0
102
RTVSPropertyOp60
 70
     0
102
RTVSPropertyOp61
 70
     0
102
RTVSPropertyOp62
 70
     0
  0
XRECORD
  5
9A81
102
{ACAD_REACTORS
330
9A80
102
}
330
9A80
100
AcDbXrecord
280
     1
102
RTVSPost2010Prop28
280
     0
102
RTVSPost2010PropOp28
 70
     1
102
RTVSPost2010Prop29
280
     1
102
RTVSPost2010PropOp29
 70
     1
102
RTVSPost2010Prop30
280
     1
102
RTVSPost2010PropOp30
 70
     1
102
RTVSPost2010Prop31
280
     0
102
RTVSPost2010PropOp31
 70
     1
102
RTVSPost2010Prop32
280
     0
102
RTVSPost2010PropOp32
 70
     1
102
RTVSPost2010Prop33
280
     0
102
RTVSPost2010PropOp33
 70
     1
102
RTVSPost2010Prop34
280
     0
102
RTVSPost2010PropOp34
 70
     1
102
RTVSPost2010Prop35
280
     0
102
RTVSPost2010PropOp35
 70
     1
102
RTVSPost2010Prop36
280
     0
102
RTVSPost2010PropOp36
 70
     1
102
RTVSPost2010Prop37
 90
       50
102
RTVSPost2010PropOp37
 70
     1
102
RTVSPost2010Prop38
140
0.0
102
RTVSPost2010PropOp38
 70
     1
102
RTVSPost2010Prop39
140
1.0
102
RTVSPost2010PropOp39
 70
     1
102
RTVSPost2010Prop40
 90
        0
102
RTVSPost2010PropOp40
 70
     1
102
RTVSPost2010Prop41ColorIndex
 90
       18
102
RTVSPost2010Prop41ColorRGB
 90
        0
102
RTVSPost2010PropOp41
 70
     1
102
RTVSPost2010Prop42
 90
       50
102
RTVSPost2010PropOp42
 70
     1
102
RTVSPost2010Prop43
 90
        3
102
RTVSPost2010PropOp43
 70
     1
102
RTVSPost2010Prop44ColorIndex
 90
        5
102
RTVSPost2010Prop44ColorRGB
 90
      255
102
RTVSPost2010PropOp44
 70
     1
102
RTVSPost2010Prop45
280
     0
102
RTVSPost2010PropOp45
 70
     1
102
RTVSPost2010Prop46
 90
       50
102
RTVSPost2010PropOp46
 70
     1
102
RTVSPost2010Prop47
 90
       50
102
RTVSPost2010PropOp47
 70
     1
102
RTVSPost2010Prop48
 90
       50
102
RTVSPost2010PropOp48
 70
     1
102
RTVSPost2010Prop49
280
     0
102
RTVSPost2010PropOp49
 70
     1
102
RTVSPost2010Prop50
 90
       50
102
RTVSPost2010PropOp50
 70
     1
102
RTVSPost2010Prop51ColorIndex
 90
      256
102
RTVSPost2010Prop51ColorRGB
 90
-16777216
102
RTVSPost2010PropOp51
 70
     0
102
RTVSPost2010Prop52
140
1.0
102
RTVSPost2010PropOp52
 70
     0
102
RTVSPost2010Prop53
 90
        2
102
RTVSPost2010PropOp53
 70
     1
102
RTVSPost2010Prop54
  1
strokes_ogs.tif
102
RTVSPost2010PropOp54
 70
     1
102
RTVSPost2010Prop55
280
     0
102
RTVSPost2010PropOp55
 70
     1
102
RTVSPost2010Prop56
140
1.0
102
RTVSPost2010PropOp56
 70
     1
102
RTVSPost2010Prop57
140
1.0
102
RTVSPost2010PropOp57
 70
     1
102
RTVSPropertyOp0
 70
     1
102
RTVSPropertyOp1
 70
     1
102
RTVSPropertyOp2
 70
     1
102
RTVSPropertyOp3
 70
     1
102
RTVSPropertyOp4
 70
     1
102
RTVSPropertyOp5
 70
     1
102
RTVSPropertyOp6
 70
     1
102
RTVSPropertyOp7
 70
     1
102
RTVSPropertyOp8
 70
     1
102
RTVSPropertyOp9
 70
     1
102
RTVSPropertyOp10
 70
     1
102
RTVSPropertyOp11
 70
     1
102
RTVSPropertyOp12
 70
     1
102
RTVSPropertyOp13
 70
     1
102
RTVSPropertyOp14
 70
     1
102
RTVSPropertyOp15
 70
     1
102
RTVSPropertyOp16
 70
     1
102
RTVSPropertyOp17
 70
     1
102
RTVSPropertyOp18
 70
     1
102
RTVSPropertyOp19
 70
     1
102
RTVSPropertyOp20
 70
     1
102
RTVSPropertyOp21
 70
     1
102
RTVSPropertyOp22
 70
     1
102
RTVSPropertyOp23
 70
     1
102
RTVSPropertyOp24
 70
     1
102
RTVSPropertyOp25
 70
     1
102
RTVSPropertyOp26
 70
     1
102
RTVSPropertyOp27
 70
     1
102
RTVSPropertyOp28
 70
     1
102
RTVSPropertyOp29
 70
     1
102
RTVSPropertyOp30
 70
     1
102
RTVSPropertyOp31
 70
     1
102
RTVSPropertyOp32
 70
     1
102
RTVSPropertyOp33
 70
     1
102
RTVSPropertyOp34
 70
     1
102
RTVSPropertyOp35
 70
     1
102
RTVSPropertyOp36
 70
     1
102
RTVSPropertyOp37
 70
     1
102
RTVSPropertyOp38
 70
     1
102
RTVSPropertyOp39
 70
     1
102
RTVSPropertyOp40
 70
     1
102
RTVSPropertyOp41
 70
     1
102
RTVSPropertyOp42
 70
     1
102
RTVSPropertyOp43
 70
     1
102
RTVSPropertyOp44
 70
     1
102
RTVSPropertyOp45
 70
     1
102
RTVSPropertyOp46
 70
     1
102
RTVSPropertyOp47
 70
     1
102
RTVSPropertyOp48
 70
     1
102
RTVSPropertyOp49
 70
     1
102
RTVSPropertyOp50
 70
     1
102
RTVSPropertyOp51
 70
     0
102
RTVSPropertyOp52
 70
     0
102
RTVSPropertyOp53
 70
     1
102
RTVSPropertyOp54
 70
     1
102
RTVSPropertyOp55
 70
     1
102
RTVSPropertyOp56
 70
     1
102
RTVSPropertyOp57
 70
     1
102
RTVSPropertyOp58
 70
     1
102
RTVSPropertyOp59
 70
     1
102
RTVSPropertyOp60
 70
     1
102
RTVSPropertyOp61
 70
     1
102
RTVSPropertyOp62
 70
     1
  0
XRECORD
  5
9A93
102
{ACAD_REACTORS
330
9A92
102
}
330
9A92
100
AcDbXrecord
280
     1
102
RTVSPost2010Prop28
280
     0
102
RTVSPost2010PropOp28
 70
     1
102
RTVSPost2010Prop29
280
     1
102
RTVSPost2010PropOp29
 70
     1
102
RTVSPost2010Prop30
280
     1
102
RTVSPost2010PropOp30
 70
     1
102
RTVSPost2010Prop31
280
     0
102
RTVSPost2010PropOp31
 70
     1
102
RTVSPost2010Prop32
280
     0
102
RTVSPost2010PropOp32
 70
     1
102
RTVSPost2010Prop33
280
     0
102
RTVSPost2010PropOp33
 70
     1
102
RTVSPost2010Prop34
280
     0
102
RTVSPost2010PropOp34
 70
     1
102
RTVSPost2010Prop35
280
     0
102
RTVSPost2010PropOp35
 70
     1
102
RTVSPost2010Prop36
280
     0
102
RTVSPost2010PropOp36
 70
     1
102
RTVSPost2010Prop37
 90
       50
102
RTVSPost2010PropOp37
 70
     0
102
RTVSPost2010Prop38
140
0.0
102
RTVSPost2010PropOp38
 70
     0
102
RTVSPost2010Prop39
140
1.0
102
RTVSPost2010PropOp39
 70
     0
102
RTVSPost2010Prop40
 90
        0
102
RTVSPost2010PropOp40
 70
     0
102
RTVSPost2010Prop41ColorIndex
 90
       18
102
RTVSPost2010Prop41ColorRGB
 90
        0
102
RTVSPost2010PropOp41
 70
     0
102
RTVSPost2010Prop42
 90
       50
102
RTVSPost2010PropOp42
 70
     0
102
RTVSPost2010Prop43
 90
        3
102
RTVSPost2010PropOp43
 70
     0
102
RTVSPost2010Prop44ColorIndex
 90
        5
102
RTVSPost2010Prop44ColorRGB
 90
      255
102
RTVSPost2010PropOp44
 70
     0
102
RTVSPost2010Prop45
280
     0
102
RTVSPost2010PropOp45
 70
     1
102
RTVSPost2010Prop46
 90
       50
102
RTVSPost2010PropOp46
 70
     0
102
RTVSPost2010Prop47
 90
       50
102
RTVSPost2010PropOp47
 70
     0
102
RTVSPost2010Prop48
 90
       50
102
RTVSPost2010PropOp48
 70
     0
102
RTVSPost2010Prop49
280
     0
102
RTVSPost2010PropOp49
 70
     1
102
RTVSPost2010Prop50
 90
       50
102
RTVSPost2010PropOp50
 70
     0
102
RTVSPost2010Prop51ColorIndex
 90
      256
102
RTVSPost2010Prop51ColorRGB
 90
-16777216
102
RTVSPost2010PropOp51
 70
     0
102
RTVSPost2010Prop52
140
1.0
102
RTVSPost2010PropOp52
 70
     0
102
RTVSPost2010Prop53
 90
        2
102
RTVSPost2010PropOp53
 70
     0
102
RTVSPost2010Prop54
  1
strokes_ogs.tif
102
RTVSPost2010PropOp54
 70
     0
102
RTVSPost2010Prop55
280
     0
102
RTVSPost2010PropOp55
 70
     1
102
RTVSPost2010Prop56
140
1.0
102
RTVSPost2010PropOp56
 70
     0
102
RTVSPost2010Prop57
140
1.0
102
RTVSPost2010PropOp57
 70
     0
102
RTVSPropertyOp0
 70
     0
102
RTVSPropertyOp1
 70
     0
102
RTVSPropertyOp2
 70
     0
102
RTVSPropertyOp3
 70
     0
102
RTVSPropertyOp4
 70
     0
102
RTVSPropertyOp5
 70
     0
102
RTVSPropertyOp6
 70
     0
102
RTVSPropertyOp7
 70
     0
102
RTVSPropertyOp8
 70
     0
102
RTVSPropertyOp9
 70
     0
102
RTVSPropertyOp10
 70
     0
102
RTVSPropertyOp11
 70
     0
102
RTVSPropertyOp12
 70
     0
102
RTVSPropertyOp13
 70
     0
102
RTVSPropertyOp14
 70
     2
102
RTVSPropertyOp15
 70
     0
102
RTVSPropertyOp16
 70
     0
102
RTVSPropertyOp17
 70
     0
102
RTVSPropertyOp18
 70
     0
102
RTVSPropertyOp19
 70
     0
102
RTVSPropertyOp20
 70
     0
102
RTVSPropertyOp21
 70
     0
102
RTVSPropertyOp22
 70
     0
102
RTVSPropertyOp23
 70
     0
102
RTVSPropertyOp24
 70
     0
102
RTVSPropertyOp25
 70
     0
102
RTVSPropertyOp26
 70
     0
102
RTVSPropertyOp27
 70
     0
102
RTVSPropertyOp28
 70
     1
102
RTVSPropertyOp29
 70
     1
102
RTVSPropertyOp30
 70
     1
102
RTVSPropertyOp31
 70
     1
102
RTVSPropertyOp32
 70
     1
102
RTVSPropertyOp33
 70
     1
102
RTVSPropertyOp34
 70
     1
102
RTVSPropertyOp35
 70
     1
102
RTVSPropertyOp36
 70
     1
102
RTVSPropertyOp37
 70
     0
102
RTVSPropertyOp38
 70
     0
102
RTVSPropertyOp39
 70
     0
102
RTVSPropertyOp40
 70
     0
102
RTVSPropertyOp41
 70
     0
102
RTVSPropertyOp42
 70
     0
102
RTVSPropertyOp43
 70
     0
102
RTVSPropertyOp44
 70
     0
102
RTVSPropertyOp45
 70
     1
102
RTVSPropertyOp46
 70
     0
102
RTVSPropertyOp47
 70
     0
102
RTVSPropertyOp48
 70
     0
102
RTVSPropertyOp49
 70
     1
102
RTVSPropertyOp50
 70
     0
102
RTVSPropertyOp51
 70
     0
102
RTVSPropertyOp52
 70
     0
102
RTVSPropertyOp53
 70
     0
102
RTVSPropertyOp54
 70
     0
102
RTVSPropertyOp55
 70
     1
102
RTVSPropertyOp56
 70
     0
102
RTVSPropertyOp57
 70
     0
102
RTVSPropertyOp58
 70
     0
102
RTVSPropertyOp59
 70
     0
102
RTVSPropertyOp60
 70
     0
102
RTVSPropertyOp61
 70
     0
102
RTVSPropertyOp62
 70
     0
  0
XRECORD
  5
9A79
102
{ACAD_REACTORS
330
9A78
102
}
330
9A78
100
AcDbXrecord
280
     1
102
RTVSPost2010Prop28
280
     0
102
RTVSPost2010PropOp28
 70
     1
102
RTVSPost2010Prop29
280
     1
102
RTVSPost2010PropOp29
 70
     1
102
RTVSPost2010Prop30
280
     1
102
RTVSPost2010PropOp30
 70
     1
102
RTVSPost2010Prop31
280
     0
102
RTVSPost2010PropOp31
 70
     1
102
RTVSPost2010Prop32
280
     0
102
RTVSPost2010PropOp32
 70
     1
102
RTVSPost2010Prop33
280
     0
102
RTVSPost2010PropOp33
 70
     1
102
RTVSPost2010Prop34
280
     0
102
RTVSPost2010PropOp34
 70
     1
102
RTVSPost2010Prop35
280
     0
102
RTVSPost2010PropOp35
 70
     1
102
RTVSPost2010Prop36
280
     0
102
RTVSPost2010PropOp36
 70
     1
102
RTVSPost2010Prop37
 90
       50
102
RTVSPost2010PropOp37
 70
     1
102
RTVSPost2010Prop38
140
0.0
102
RTVSPost2010PropOp38
 70
     1
102
RTVSPost2010Prop39
140
1.0
102
RTVSPost2010PropOp39
 70
     1
102
RTVSPost2010Prop40
 90
        0
102
RTVSPost2010PropOp40
 70
     1
102
RTVSPost2010Prop41ColorIndex
 90
       18
102
RTVSPost2010Prop41ColorRGB
 90
        0
102
RTVSPost2010PropOp41
 70
     1
102
RTVSPost2010Prop42
 90
       50
102
RTVSPost2010PropOp42
 70
     1
102
RTVSPost2010Prop43
 90
        3
102
RTVSPost2010PropOp43
 70
     1
102
RTVSPost2010Prop44ColorIndex
 90
        5
102
RTVSPost2010Prop44ColorRGB
 90
      255
102
RTVSPost2010PropOp44
 70
     1
102
RTVSPost2010Prop45
280
     0
102
RTVSPost2010PropOp45
 70
     1
102
RTVSPost2010Prop46
 90
       50
102
RTVSPost2010PropOp46
 70
     1
102
RTVSPost2010Prop47
 90
       50
102
RTVSPost2010PropOp47
 70
     1
102
RTVSPost2010Prop48
 90
       50
102
RTVSPost2010PropOp48
 70
     1
102
RTVSPost2010Prop49
280
     0
102
RTVSPost2010PropOp49
 70
     1
102
RTVSPost2010Prop50
 90
       50
102
RTVSPost2010PropOp50
 70
     1
102
RTVSPost2010Prop51ColorIndex
 90
      256
102
RTVSPost2010Prop51ColorRGB
 90
-16777216
102
RTVSPost2010PropOp51
 70
     0
102
RTVSPost2010Prop52
140
1.0
102
RTVSPost2010PropOp52
 70
     0
102
RTVSPost2010Prop53
 90
        2
102
RTVSPost2010PropOp53
 70
     1
102
RTVSPost2010Prop54
  1
strokes_ogs.tif
102
RTVSPost2010PropOp54
 70
     1
102
RTVSPost2010Prop55
280
     0
102
RTVSPost2010PropOp55
 70
     1
102
RTVSPost2010Prop56
140
1.0
102
RTVSPost2010PropOp56
 70
     1
102
RTVSPost2010Prop57
140
1.0
102
RTVSPost2010PropOp57
 70
     1
102
RTVSPropertyOp0
 70
     1
102
RTVSPropertyOp1
 70
     1
102
RTVSPropertyOp2
 70
     1
102
RTVSPropertyOp3
 70
     1
102
RTVSPropertyOp4
 70
     1
102
RTVSPropertyOp5
 70
     1
102
RTVSPropertyOp6
 70
     1
102
RTVSPropertyOp7
 70
     1
102
RTVSPropertyOp8
 70
     1
102
RTVSPropertyOp9
 70
     1
102
RTVSPropertyOp10
 70
     1
102
RTVSPropertyOp11
 70
     1
102
RTVSPropertyOp12
 70
     1
102
RTVSPropertyOp13
 70
     1
102
RTVSPropertyOp14
 70
     1
102
RTVSPropertyOp15
 70
     1
102
RTVSPropertyOp16
 70
     1
102
RTVSPropertyOp17
 70
     1
102
RTVSPropertyOp18
 70
     1
102
RTVSPropertyOp19
 70
     1
102
RTVSPropertyOp20
 70
     1
102
RTVSPropertyOp21
 70
     1
102
RTVSPropertyOp22
 70
     1
102
RTVSPropertyOp23
 70
     1
102
RTVSPropertyOp24
 70
     1
102
RTVSPropertyOp25
 70
     1
102
RTVSPropertyOp26
 70
     1
102
RTVSPropertyOp27
 70
     1
102
RTVSPropertyOp28
 70
     1
102
RTVSPropertyOp29
 70
     1
102
RTVSPropertyOp30
 70
     1
102
RTVSPropertyOp31
 70
     1
102
RTVSPropertyOp32
 70
     1
102
RTVSPropertyOp33
 70
     1
102
RTVSPropertyOp34
 70
     1
102
RTVSPropertyOp35
 70
     1
102
RTVSPropertyOp36
 70
     1
102
RTVSPropertyOp37
 70
     1
102
RTVSPropertyOp38
 70
     1
102
RTVSPropertyOp39
 70
     1
102
RTVSPropertyOp40
 70
     1
102
RTVSPropertyOp41
 70
     1
102
RTVSPropertyOp42
 70
     1
102
RTVSPropertyOp43
 70
     1
102
RTVSPropertyOp44
 70
     1
102
RTVSPropertyOp45
 70
     1
102
RTVSPropertyOp46
 70
     1
102
RTVSPropertyOp47
 70
     1
102
RTVSPropertyOp48
 70
     1
102
RTVSPropertyOp49
 70
     1
102
RTVSPropertyOp50
 70
     1
102
RTVSPropertyOp51
 70
     0
102
RTVSPropertyOp52
 70
     0
102
RTVSPropertyOp53
 70
     1
102
RTVSPropertyOp54
 70
     1
102
RTVSPropertyOp55
 70
     1
102
RTVSPropertyOp56
 70
     1
102
RTVSPropertyOp57
 70
     1
102
RTVSPropertyOp58
 70
     1
102
RTVSPropertyOp59
 70
     1
102
RTVSPropertyOp60
 70
     1
102
RTVSPropertyOp61
 70
     1
102
RTVSPropertyOp62
 70
     1
  0
XRECORD
  5
9A8F
102
{ACAD_REACTORS
330
9A8E
102
}
330
9A8E
100
AcDbXrecord
280
     1
102
RTVSPost2010Prop28
280
     0
102
RTVSPost2010PropOp28
 70
     1
102
RTVSPost2010Prop29
280
     1
102
RTVSPost2010PropOp29
 70
     1
102
RTVSPost2010Prop30
280
     1
102
RTVSPost2010PropOp30
 70
     1
102
RTVSPost2010Prop31
280
     0
102
RTVSPost2010PropOp31
 70
     1
102
RTVSPost2010Prop32
280
     0
102
RTVSPost2010PropOp32
 70
     1
102
RTVSPost2010Prop33
280
     0
102
RTVSPost2010PropOp33
 70
     1
102
RTVSPost2010Prop34
280
     0
102
RTVSPost2010PropOp34
 70
     1
102
RTVSPost2010Prop35
280
     0
102
RTVSPost2010PropOp35
 70
     1
102
RTVSPost2010Prop36
280
     0
102
RTVSPost2010PropOp36
 70
     1
102
RTVSPost2010Prop37
 90
       50
102
RTVSPost2010PropOp37
 70
     1
102
RTVSPost2010Prop38
140
0.0
102
RTVSPost2010PropOp38
 70
     1
102
RTVSPost2010Prop39
140
1.0
102
RTVSPost2010PropOp39
 70
     1
102
RTVSPost2010Prop40
 90
        0
102
RTVSPost2010PropOp40
 70
     1
102
RTVSPost2010Prop41ColorIndex
 90
       18
102
RTVSPost2010Prop41ColorRGB
 90
        0
102
RTVSPost2010PropOp41
 70
     1
102
RTVSPost2010Prop42
 90
       50
102
RTVSPost2010PropOp42
 70
     1
102
RTVSPost2010Prop43
 90
        3
102
RTVSPost2010PropOp43
 70
     1
102
RTVSPost2010Prop44ColorIndex
 90
        5
102
RTVSPost2010Prop44ColorRGB
 90
      255
102
RTVSPost2010PropOp44
 70
     1
102
RTVSPost2010Prop45
280
     0
102
RTVSPost2010PropOp45
 70
     1
102
RTVSPost2010Prop46
 90
       50
102
RTVSPost2010PropOp46
 70
     1
102
RTVSPost2010Prop47
 90
       50
102
RTVSPost2010PropOp47
 70
     1
102
RTVSPost2010Prop48
 90
       50
102
RTVSPost2010PropOp48
 70
     1
102
RTVSPost2010Prop49
280
     0
102
RTVSPost2010PropOp49
 70
     1
102
RTVSPost2010Prop50
 90
       50
102
RTVSPost2010PropOp50
 70
     1
102
RTVSPost2010Prop51ColorIndex
 90
      256
102
RTVSPost2010Prop51ColorRGB
 90
-16777216
102
RTVSPost2010PropOp51
 70
     0
102
RTVSPost2010Prop52
140
1.0
102
RTVSPost2010PropOp52
 70
     0
102
RTVSPost2010Prop53
 90
        2
102
RTVSPost2010PropOp53
 70
     1
102
RTVSPost2010Prop54
  1
strokes_ogs.tif
102
RTVSPost2010PropOp54
 70
     1
102
RTVSPost2010Prop55
280
     0
102
RTVSPost2010PropOp55
 70
     1
102
RTVSPost2010Prop56
140
1.0
102
RTVSPost2010PropOp56
 70
     1
102
RTVSPost2010Prop57
140
1.0
102
RTVSPost2010PropOp57
 70
     1
102
RTVSPropertyOp0
 70
     1
102
RTVSPropertyOp1
 70
     1
102
RTVSPropertyOp2
 70
     1
102
RTVSPropertyOp3
 70
     1
102
RTVSPropertyOp4
 70
     1
102
RTVSPropertyOp5
 70
     1
102
RTVSPropertyOp6
 70
     1
102
RTVSPropertyOp7
 70
     1
102
RTVSPropertyOp8
 70
     1
102
RTVSPropertyOp9
 70
     1
102
RTVSPropertyOp10
 70
     1
102
RTVSPropertyOp11
 70
     1
102
RTVSPropertyOp12
 70
     1
102
RTVSPropertyOp13
 70
     1
102
RTVSPropertyOp14
 70
     1
102
RTVSPropertyOp15
 70
     1
102
RTVSPropertyOp16
 70
     1
102
RTVSPropertyOp17
 70
     1
102
RTVSPropertyOp18
 70
     1
102
RTVSPropertyOp19
 70
     1
102
RTVSPropertyOp20
 70
     1
102
RTVSPropertyOp21
 70
     1
102
RTVSPropertyOp22
 70
     1
102
RTVSPropertyOp23
 70
     1
102
RTVSPropertyOp24
 70
     1
102
RTVSPropertyOp25
 70
     1
102
RTVSPropertyOp26
 70
     1
102
RTVSPropertyOp27
 70
     1
102
RTVSPropertyOp28
 70
     1
102
RTVSPropertyOp29
 70
     1
102
RTVSPropertyOp30
 70
     1
102
RTVSPropertyOp31
 70
     1
102
RTVSPropertyOp32
 70
     1
102
RTVSPropertyOp33
 70
     1
102
RTVSPropertyOp34
 70
     1
102
RTVSPropertyOp35
 70
     1
102
RTVSPropertyOp36
 70
     1
102
RTVSPropertyOp37
 70
     1
102
RTVSPropertyOp38
 70
     1
102
RTVSPropertyOp39
 70
     1
102
RTVSPropertyOp40
 70
     1
102
RTVSPropertyOp41
 70
     1
102
RTVSPropertyOp42
 70
     1
102
RTVSPropertyOp43
 70
     1
102
RTVSPropertyOp44
 70
     1
102
RTVSPropertyOp45
 70
     1
102
RTVSPropertyOp46
 70
     1
102
RTVSPropertyOp47
 70
     1
102
RTVSPropertyOp48
 70
     1
102
RTVSPropertyOp49
 70
     1
102
RTVSPropertyOp50
 70
     1
102
RTVSPropertyOp51
 70
     0
102
RTVSPropertyOp52
 70
     0
102
RTVSPropertyOp53
 70
     1
102
RTVSPropertyOp54
 70
     1
102
RTVSPropertyOp55
 70
     1
102
RTVSPropertyOp56
 70
     1
102
RTVSPropertyOp57
 70
     1
102
RTVSPropertyOp58
 70
     1
102
RTVSPropertyOp59
 70
     1
102
RTVSPropertyOp60
 70
     1
102
RTVSPropertyOp61
 70
     1
102
RTVSPropertyOp62
 70
     1
  0
XRECORD
  5
9A8D
102
{ACAD_REACTORS
330
9A8C
102
}
330
9A8C
100
AcDbXrecord
280
     1
102
RTVSPost2010Prop28
280
     0
102
RTVSPost2010PropOp28
 70
     1
102
RTVSPost2010Prop29
280
     1
102
RTVSPost2010PropOp29
 70
     1
102
RTVSPost2010Prop30
280
     1
102
RTVSPost2010PropOp30
 70
     1
102
RTVSPost2010Prop31
280
     0
102
RTVSPost2010PropOp31
 70
     1
102
RTVSPost2010Prop32
280
     0
102
RTVSPost2010PropOp32
 70
     1
102
RTVSPost2010Prop33
280
     0
102
RTVSPost2010PropOp33
 70
     1
102
RTVSPost2010Prop34
280
     0
102
RTVSPost2010PropOp34
 70
     1
102
RTVSPost2010Prop35
280
     0
102
RTVSPost2010PropOp35
 70
     1
102
RTVSPost2010Prop36
280
     0
102
RTVSPost2010PropOp36
 70
     1
102
RTVSPost2010Prop37
 90
       50
102
RTVSPost2010PropOp37
 70
     1
102
RTVSPost2010Prop38
140
0.0
102
RTVSPost2010PropOp38
 70
     1
102
RTVSPost2010Prop39
140
1.0
102
RTVSPost2010PropOp39
 70
     1
102
RTVSPost2010Prop40
 90
        0
102
RTVSPost2010PropOp40
 70
     1
102
RTVSPost2010Prop41ColorIndex
 90
       18
102
RTVSPost2010Prop41ColorRGB
 90
        0
102
RTVSPost2010PropOp41
 70
     1
102
RTVSPost2010Prop42
 90
       50
102
RTVSPost2010PropOp42
 70
     1
102
RTVSPost2010Prop43
 90
        3
102
RTVSPost2010PropOp43
 70
     1
102
RTVSPost2010Prop44ColorIndex
 90
        5
102
RTVSPost2010Prop44ColorRGB
 90
      255
102
RTVSPost2010PropOp44
 70
     1
102
RTVSPost2010Prop45
280
     0
102
RTVSPost2010PropOp45
 70
     1
102
RTVSPost2010Prop46
 90
       50
102
RTVSPost2010PropOp46
 70
     1
102
RTVSPost2010Prop47
 90
       50
102
RTVSPost2010PropOp47
 70
     1
102
RTVSPost2010Prop48
 90
       50
102
RTVSPost2010PropOp48
 70
     1
102
RTVSPost2010Prop49
280
     0
102
RTVSPost2010PropOp49
 70
     1
102
RTVSPost2010Prop50
 90
       50
102
RTVSPost2010PropOp50
 70
     1
102
RTVSPost2010Prop51ColorIndex
 90
      256
102
RTVSPost2010Prop51ColorRGB
 90
-16777216
102
RTVSPost2010PropOp51
 70
     0
102
RTVSPost2010Prop52
140
1.0
102
RTVSPost2010PropOp52
 70
     0
102
RTVSPost2010Prop53
 90
        2
102
RTVSPost2010PropOp53
 70
     1
102
RTVSPost2010Prop54
  1
strokes_ogs.tif
102
RTVSPost2010PropOp54
 70
     1
102
RTVSPost2010Prop55
280
     0
102
RTVSPost2010PropOp55
 70
     1
102
RTVSPost2010Prop56
140
1.0
102
RTVSPost2010PropOp56
 70
     1
102
RTVSPost2010Prop57
140
1.0
102
RTVSPost2010PropOp57
 70
     1
102
RTVSPropertyOp0
 70
     1
102
RTVSPropertyOp1
 70
     1
102
RTVSPropertyOp2
 70
     1
102
RTVSPropertyOp3
 70
     1
102
RTVSPropertyOp4
 70
     1
102
RTVSPropertyOp5
 70
     1
102
RTVSPropertyOp6
 70
     1
102
RTVSPropertyOp7
 70
     1
102
RTVSPropertyOp8
 70
     1
102
RTVSPropertyOp9
 70
     1
102
RTVSPropertyOp10
 70
     1
102
RTVSPropertyOp11
 70
     1
102
RTVSPropertyOp12
 70
     1
102
RTVSPropertyOp13
 70
     1
102
RTVSPropertyOp14
 70
     1
102
RTVSPropertyOp15
 70
     1
102
RTVSPropertyOp16
 70
     1
102
RTVSPropertyOp17
 70
     1
102
RTVSPropertyOp18
 70
     1
102
RTVSPropertyOp19
 70
     1
102
RTVSPropertyOp20
 70
     1
102
RTVSPropertyOp21
 70
     1
102
RTVSPropertyOp22
 70
     1
102
RTVSPropertyOp23
 70
     1
102
RTVSPropertyOp24
 70
     1
102
RTVSPropertyOp25
 70
     1
102
RTVSPropertyOp26
 70
     1
102
RTVSPropertyOp27
 70
     1
102
RTVSPropertyOp28
 70
     1
102
RTVSPropertyOp29
 70
     1
102
RTVSPropertyOp30
 70
     1
102
RTVSPropertyOp31
 70
     1
102
RTVSPropertyOp32
 70
     1
102
RTVSPropertyOp33
 70
     1
102
RTVSPropertyOp34
 70
     1
102
RTVSPropertyOp35
 70
     1
102
RTVSPropertyOp36
 70
     1
102
RTVSPropertyOp37
 70
     1
102
RTVSPropertyOp38
 70
     1
102
RTVSPropertyOp39
 70
     1
102
RTVSPropertyOp40
 70
     1
102
RTVSPropertyOp41
 70
     1
102
RTVSPropertyOp42
 70
     1
102
RTVSPropertyOp43
 70
     1
102
RTVSPropertyOp44
 70
     1
102
RTVSPropertyOp45
 70
     1
102
RTVSPropertyOp46
 70
     1
102
RTVSPropertyOp47
 70
     1
102
RTVSPropertyOp48
 70
     1
102
RTVSPropertyOp49
 70
     1
102
RTVSPropertyOp50
 70
     1
102
RTVSPropertyOp51
 70
     0
102
RTVSPropertyOp52
 70
     0
102
RTVSPropertyOp53
 70
     1
102
RTVSPropertyOp54
 70
     1
102
RTVSPropertyOp55
 70
     1
102
RTVSPropertyOp56
 70
     1
102
RTVSPropertyOp57
 70
     1
102
RTVSPropertyOp58
 70
     1
102
RTVSPropertyOp59
 70
     1
102
RTVSPropertyOp60
 70
     1
102
RTVSPropertyOp61
 70
     1
102
RTVSPropertyOp62
 70
     1
  0
XRECORD
  5
9A87
102
{ACAD_REACTORS
330
9A86
102
}
330
9A86
100
AcDbXrecord
280
     1
102
RTVSPost2010Prop28
280
     0
102
RTVSPost2010PropOp28
 70
     1
102
RTVSPost2010Prop29
280
     1
102
RTVSPost2010PropOp29
 70
     1
102
RTVSPost2010Prop30
280
     1
102
RTVSPost2010PropOp30
 70
     1
102
RTVSPost2010Prop31
280
     0
102
RTVSPost2010PropOp31
 70
     1
102
RTVSPost2010Prop32
280
     0
102
RTVSPost2010PropOp32
 70
     1
102
RTVSPost2010Prop33
280
     0
102
RTVSPost2010PropOp33
 70
     1
102
RTVSPost2010Prop34
280
     0
102
RTVSPost2010PropOp34
 70
     1
102
RTVSPost2010Prop35
280
     0
102
RTVSPost2010PropOp35
 70
     1
102
RTVSPost2010Prop36
280
     0
102
RTVSPost2010PropOp36
 70
     1
102
RTVSPost2010Prop37
 90
       50
102
RTVSPost2010PropOp37
 70
     1
102
RTVSPost2010Prop38
140
0.0
102
RTVSPost2010PropOp38
 70
     1
102
RTVSPost2010Prop39
140
1.0
102
RTVSPost2010PropOp39
 70
     1
102
RTVSPost2010Prop40
 90
        0
102
RTVSPost2010PropOp40
 70
     1
102
RTVSPost2010Prop41ColorIndex
 90
       18
102
RTVSPost2010Prop41ColorRGB
 90
        0
102
RTVSPost2010PropOp41
 70
     1
102
RTVSPost2010Prop42
 90
       50
102
RTVSPost2010PropOp42
 70
     1
102
RTVSPost2010Prop43
 90
        3
102
RTVSPost2010PropOp43
 70
     1
102
RTVSPost2010Prop44ColorIndex
 90
        5
102
RTVSPost2010Prop44ColorRGB
 90
      255
102
RTVSPost2010PropOp44
 70
     1
102
RTVSPost2010Prop45
280
     0
102
RTVSPost2010PropOp45
 70
     1
102
RTVSPost2010Prop46
 90
       50
102
RTVSPost2010PropOp46
 70
     1
102
RTVSPost2010Prop47
 90
       50
102
RTVSPost2010PropOp47
 70
     1
102
RTVSPost2010Prop48
 90
       50
102
RTVSPost2010PropOp48
 70
     1
102
RTVSPost2010Prop49
280
     0
102
RTVSPost2010PropOp49
 70
     1
102
RTVSPost2010Prop50
 90
       50
102
RTVSPost2010PropOp50
 70
     1
102
RTVSPost2010Prop51ColorIndex
 90
      256
102
RTVSPost2010Prop51ColorRGB
 90
-16777216
102
RTVSPost2010PropOp51
 70
     0
102
RTVSPost2010Prop52
140
1.0
102
RTVSPost2010PropOp52
 70
     0
102
RTVSPost2010Prop53
 90
        2
102
RTVSPost2010PropOp53
 70
     1
102
RTVSPost2010Prop54
  1
strokes_ogs.tif
102
RTVSPost2010PropOp54
 70
     1
102
RTVSPost2010Prop55
280
     0
102
RTVSPost2010PropOp55
 70
     1
102
RTVSPost2010Prop56
140
1.0
102
RTVSPost2010PropOp56
 70
     1
102
RTVSPost2010Prop57
140
1.0
102
RTVSPost2010PropOp57
 70
     1
102
RTVSPropertyOp0
 70
     1
102
RTVSPropertyOp1
 70
     1
102
RTVSPropertyOp2
 70
     1
102
RTVSPropertyOp3
 70
     1
102
RTVSPropertyOp4
 70
     1
102
RTVSPropertyOp5
 70
     1
102
RTVSPropertyOp6
 70
     1
102
RTVSPropertyOp7
 70
     1
102
RTVSPropertyOp8
 70
     1
102
RTVSPropertyOp9
 70
     1
102
RTVSPropertyOp10
 70
     1
102
RTVSPropertyOp11
 70
     1
102
RTVSPropertyOp12
 70
     1
102
RTVSPropertyOp13
 70
     1
102
RTVSPropertyOp14
 70
     1
102
RTVSPropertyOp15
 70
     1
102
RTVSPropertyOp16
 70
     1
102
RTVSPropertyOp17
 70
     1
102
RTVSPropertyOp18
 70
     1
102
RTVSPropertyOp19
 70
     1
102
RTVSPropertyOp20
 70
     1
102
RTVSPropertyOp21
 70
     1
102
RTVSPropertyOp22
 70
     1
102
RTVSPropertyOp23
 70
     1
102
RTVSPropertyOp24
 70
     1
102
RTVSPropertyOp25
 70
     1
102
RTVSPropertyOp26
 70
     1
102
RTVSPropertyOp27
 70
     1
102
RTVSPropertyOp28
 70
     1
102
RTVSPropertyOp29
 70
     1
102
RTVSPropertyOp30
 70
     1
102
RTVSPropertyOp31
 70
     1
102
RTVSPropertyOp32
 70
     1
102
RTVSPropertyOp33
 70
     1
102
RTVSPropertyOp34
 70
     1
102
RTVSPropertyOp35
 70
     1
102
RTVSPropertyOp36
 70
     1
102
RTVSPropertyOp37
 70
     1
102
RTVSPropertyOp38
 70
     1
102
RTVSPropertyOp39
 70
     1
102
RTVSPropertyOp40
 70
     1
102
RTVSPropertyOp41
 70
     1
102
RTVSPropertyOp42
 70
     1
102
RTVSPropertyOp43
 70
     1
102
RTVSPropertyOp44
 70
     1
102
RTVSPropertyOp45
 70
     1
102
RTVSPropertyOp46
 70
     1
102
RTVSPropertyOp47
 70
     1
102
RTVSPropertyOp48
 70
     1
102
RTVSPropertyOp49
 70
     1
102
RTVSPropertyOp50
 70
     1
102
RTVSPropertyOp51
 70
     0
102
RTVSPropertyOp52
 70
     0
102
RTVSPropertyOp53
 70
     1
102
RTVSPropertyOp54
 70
     1
102
RTVSPropertyOp55
 70
     1
102
RTVSPropertyOp56
 70
     1
102
RTVSPropertyOp57
 70
     1
102
RTVSPropertyOp58
 70
     1
102
RTVSPropertyOp59
 70
     1
102
RTVSPropertyOp60
 70
     1
102
RTVSPropertyOp61
 70
     1
102
RTVSPropertyOp62
 70
     1
  0
XRECORD
  5
9A89
102
{ACAD_REACTORS
330
9A88
102
}
330
9A88
100
AcDbXrecord
280
     1
102
RTVSPost2010Prop28
280
     0
102
RTVSPost2010PropOp28
 70
     1
102
RTVSPost2010Prop29
280
     1
102
RTVSPost2010PropOp29
 70
     1
102
RTVSPost2010Prop30
280
     1
102
RTVSPost2010PropOp30
 70
     1
102
RTVSPost2010Prop31
280
     0
102
RTVSPost2010PropOp31
 70
     1
102
RTVSPost2010Prop32
280
     0
102
RTVSPost2010PropOp32
 70
     1
102
RTVSPost2010Prop33
280
     0
102
RTVSPost2010PropOp33
 70
     1
102
RTVSPost2010Prop34
280
     0
102
RTVSPost2010PropOp34
 70
     1
102
RTVSPost2010Prop35
280
     0
102
RTVSPost2010PropOp35
 70
     1
102
RTVSPost2010Prop36
280
     0
102
RTVSPost2010PropOp36
 70
     1
102
RTVSPost2010Prop37
 90
       50
102
RTVSPost2010PropOp37
 70
     1
102
RTVSPost2010Prop38
140
0.0
102
RTVSPost2010PropOp38
 70
     1
102
RTVSPost2010Prop39
140
1.0
102
RTVSPost2010PropOp39
 70
     1
102
RTVSPost2010Prop40
 90
        0
102
RTVSPost2010PropOp40
 70
     1
102
RTVSPost2010Prop41ColorIndex
 90
       18
102
RTVSPost2010Prop41ColorRGB
 90
        0
102
RTVSPost2010PropOp41
 70
     1
102
RTVSPost2010Prop42
 90
       50
102
RTVSPost2010PropOp42
 70
     1
102
RTVSPost2010Prop43
 90
        3
102
RTVSPost2010PropOp43
 70
     1
102
RTVSPost2010Prop44ColorIndex
 90
        5
102
RTVSPost2010Prop44ColorRGB
 90
      255
102
RTVSPost2010PropOp44
 70
     1
102
RTVSPost2010Prop45
280
     0
102
RTVSPost2010PropOp45
 70
     1
102
RTVSPost2010Prop46
 90
       50
102
RTVSPost2010PropOp46
 70
     1
102
RTVSPost2010Prop47
 90
       50
102
RTVSPost2010PropOp47
 70
     1
102
RTVSPost2010Prop48
 90
       50
102
RTVSPost2010PropOp48
 70
     1
102
RTVSPost2010Prop49
280
     0
102
RTVSPost2010PropOp49
 70
     1
102
RTVSPost2010Prop50
 90
       50
102
RTVSPost2010PropOp50
 70
     1
102
RTVSPost2010Prop51ColorIndex
 90
      256
102
RTVSPost2010Prop51ColorRGB
 90
-16777216
102
RTVSPost2010PropOp51
 70
     0
102
RTVSPost2010Prop52
140
1.0
102
RTVSPost2010PropOp52
 70
     0
102
RTVSPost2010Prop53
 90
        2
102
RTVSPost2010PropOp53
 70
     1
102
RTVSPost2010Prop54
  1
strokes_ogs.tif
102
RTVSPost2010PropOp54
 70
     1
102
RTVSPost2010Prop55
280
     0
102
RTVSPost2010PropOp55
 70
     1
102
RTVSPost2010Prop56
140
1.0
102
RTVSPost2010PropOp56
 70
     1
102
RTVSPost2010Prop57
140
1.0
102
RTVSPost2010PropOp57
 70
     1
102
RTVSPropertyOp0
 70
     1
102
RTVSPropertyOp1
 70
     1
102
RTVSPropertyOp2
 70
     1
102
RTVSPropertyOp3
 70
     1
102
RTVSPropertyOp4
 70
     1
102
RTVSPropertyOp5
 70
     1
102
RTVSPropertyOp6
 70
     1
102
RTVSPropertyOp7
 70
     1
102
RTVSPropertyOp8
 70
     1
102
RTVSPropertyOp9
 70
     1
102
RTVSPropertyOp10
 70
     1
102
RTVSPropertyOp11
 70
     1
102
RTVSPropertyOp12
 70
     1
102
RTVSPropertyOp13
 70
     1
102
RTVSPropertyOp14
 70
     1
102
RTVSPropertyOp15
 70
     1
102
RTVSPropertyOp16
 70
     1
102
RTVSPropertyOp17
 70
     1
102
RTVSPropertyOp18
 70
     1
102
RTVSPropertyOp19
 70
     1
102
RTVSPropertyOp20
 70
     1
102
RTVSPropertyOp21
 70
     1
102
RTVSPropertyOp22
 70
     1
102
RTVSPropertyOp23
 70
     1
102
RTVSPropertyOp24
 70
     1
102
RTVSPropertyOp25
 70
     1
102
RTVSPropertyOp26
 70
     1
102
RTVSPropertyOp27
 70
     1
102
RTVSPropertyOp28
 70
     1
102
RTVSPropertyOp29
 70
     1
102
RTVSPropertyOp30
 70
     1
102
RTVSPropertyOp31
 70
     1
102
RTVSPropertyOp32
 70
     1
102
RTVSPropertyOp33
 70
     1
102
RTVSPropertyOp34
 70
     1
102
RTVSPropertyOp35
 70
     1
102
RTVSPropertyOp36
 70
     1
102
RTVSPropertyOp37
 70
     1
102
RTVSPropertyOp38
 70
     1
102
RTVSPropertyOp39
 70
     1
102
RTVSPropertyOp40
 70
     1
102
RTVSPropertyOp41
 70
     1
102
RTVSPropertyOp42
 70
     1
102
RTVSPropertyOp43
 70
     1
102
RTVSPropertyOp44
 70
     1
102
RTVSPropertyOp45
 70
     1
102
RTVSPropertyOp46
 70
     1
102
RTVSPropertyOp47
 70
     1
102
RTVSPropertyOp48
 70
     1
102
RTVSPropertyOp49
 70
     1
102
RTVSPropertyOp50
 70
     1
102
RTVSPropertyOp51
 70
     0
102
RTVSPropertyOp52
 70
     0
102
RTVSPropertyOp53
 70
     1
102
RTVSPropertyOp54
 70
     1
102
RTVSPropertyOp55
 70
     1
102
RTVSPropertyOp56
 70
     1
102
RTVSPropertyOp57
 70
     1
102
RTVSPropertyOp58
 70
     1
102
RTVSPropertyOp59
 70
     1
102
RTVSPropertyOp60
 70
     1
102
RTVSPropertyOp61
 70
     1
102
RTVSPropertyOp62
 70
     1
  0
XRECORD
  5
9A7F
102
{ACAD_REACTORS
330
9A7E
102
}
330
9A7E
100
AcDbXrecord
280
     1
102
RTVSPost2010Prop28
280
     0
102
RTVSPost2010PropOp28
 70
     1
102
RTVSPost2010Prop29
280
     1
102
RTVSPost2010PropOp29
 70
     1
102
RTVSPost2010Prop30
280
     1
102
RTVSPost2010PropOp30
 70
     1
102
RTVSPost2010Prop31
280
     0
102
RTVSPost2010PropOp31
 70
     1
102
RTVSPost2010Prop32
280
     0
102
RTVSPost2010PropOp32
 70
     1
102
RTVSPost2010Prop33
280
     0
102
RTVSPost2010PropOp33
 70
     1
102
RTVSPost2010Prop34
280
     0
102
RTVSPost2010PropOp34
 70
     1
102
RTVSPost2010Prop35
280
     0
102
RTVSPost2010PropOp35
 70
     1
102
RTVSPost2010Prop36
280
     0
102
RTVSPost2010PropOp36
 70
     1
102
RTVSPost2010Prop37
 90
       50
102
RTVSPost2010PropOp37
 70
     1
102
RTVSPost2010Prop38
140
0.0
102
RTVSPost2010PropOp38
 70
     1
102
RTVSPost2010Prop39
140
1.0
102
RTVSPost2010PropOp39
 70
     1
102
RTVSPost2010Prop40
 90
        0
102
RTVSPost2010PropOp40
 70
     1
102
RTVSPost2010Prop41ColorIndex
 90
       18
102
RTVSPost2010Prop41ColorRGB
 90
        0
102
RTVSPost2010PropOp41
 70
     1
102
RTVSPost2010Prop42
 90
       50
102
RTVSPost2010PropOp42
 70
     1
102
RTVSPost2010Prop43
 90
        3
102
RTVSPost2010PropOp43
 70
     1
102
RTVSPost2010Prop44ColorIndex
 90
        5
102
RTVSPost2010Prop44ColorRGB
 90
      255
102
RTVSPost2010PropOp44
 70
     1
102
RTVSPost2010Prop45
280
     0
102
RTVSPost2010PropOp45
 70
     1
102
RTVSPost2010Prop46
 90
       50
102
RTVSPost2010PropOp46
 70
     1
102
RTVSPost2010Prop47
 90
       50
102
RTVSPost2010PropOp47
 70
     1
102
RTVSPost2010Prop48
 90
       50
102
RTVSPost2010PropOp48
 70
     1
102
RTVSPost2010Prop49
280
     0
102
RTVSPost2010PropOp49
 70
     1
102
RTVSPost2010Prop50
 90
       50
102
RTVSPost2010PropOp50
 70
     1
102
RTVSPost2010Prop51ColorIndex
 90
      256
102
RTVSPost2010Prop51ColorRGB
 90
-16777216
102
RTVSPost2010PropOp51
 70
     0
102
RTVSPost2010Prop52
140
1.0
102
RTVSPost2010PropOp52
 70
     0
102
RTVSPost2010Prop53
 90
        2
102
RTVSPost2010PropOp53
 70
     1
102
RTVSPost2010Prop54
  1
strokes_ogs.tif
102
RTVSPost2010PropOp54
 70
     1
102
RTVSPost2010Prop55
280
     0
102
RTVSPost2010PropOp55
 70
     1
102
RTVSPost2010Prop56
140
1.0
102
RTVSPost2010PropOp56
 70
     1
102
RTVSPost2010Prop57
140
1.0
102
RTVSPost2010PropOp57
 70
     1
102
RTVSPropertyOp0
 70
     1
102
RTVSPropertyOp1
 70
     1
102
RTVSPropertyOp2
 70
     1
102
RTVSPropertyOp3
 70
     1
102
RTVSPropertyOp4
 70
     1
102
RTVSPropertyOp5
 70
     1
102
RTVSPropertyOp6
 70
     1
102
RTVSPropertyOp7
 70
     1
102
RTVSPropertyOp8
 70
     1
102
RTVSPropertyOp9
 70
     1
102
RTVSPropertyOp10
 70
     1
102
RTVSPropertyOp11
 70
     1
102
RTVSPropertyOp12
 70
     1
102
RTVSPropertyOp13
 70
     1
102
RTVSPropertyOp14
 70
     1
102
RTVSPropertyOp15
 70
     1
102
RTVSPropertyOp16
 70
     1
102
RTVSPropertyOp17
 70
     1
102
RTVSPropertyOp18
 70
     1
102
RTVSPropertyOp19
 70
     1
102
RTVSPropertyOp20
 70
     1
102
RTVSPropertyOp21
 70
     1
102
RTVSPropertyOp22
 70
     1
102
RTVSPropertyOp23
 70
     1
102
RTVSPropertyOp24
 70
     1
102
RTVSPropertyOp25
 70
     1
102
RTVSPropertyOp26
 70
     1
102
RTVSPropertyOp27
 70
     1
102
RTVSPropertyOp28
 70
     1
102
RTVSPropertyOp29
 70
     1
102
RTVSPropertyOp30
 70
     1
102
RTVSPropertyOp31
 70
     1
102
RTVSPropertyOp32
 70
     1
102
RTVSPropertyOp33
 70
     1
102
RTVSPropertyOp34
 70
     1
102
RTVSPropertyOp35
 70
     1
102
RTVSPropertyOp36
 70
     1
102
RTVSPropertyOp37
 70
     1
102
RTVSPropertyOp38
 70
     1
102
RTVSPropertyOp39
 70
     1
102
RTVSPropertyOp40
 70
     1
102
RTVSPropertyOp41
 70
     1
102
RTVSPropertyOp42
 70
     1
102
RTVSPropertyOp43
 70
     1
102
RTVSPropertyOp44
 70
     1
102
RTVSPropertyOp45
 70
     1
102
RTVSPropertyOp46
 70
     1
102
RTVSPropertyOp47
 70
     1
102
RTVSPropertyOp48
 70
     1
102
RTVSPropertyOp49
 70
     1
102
RTVSPropertyOp50
 70
     1
102
RTVSPropertyOp51
 70
     0
102
RTVSPropertyOp52
 70
     0
102
RTVSPropertyOp53
 70
     1
102
RTVSPropertyOp54
 70
     1
102
RTVSPropertyOp55
 70
     1
102
RTVSPropertyOp56
 70
     1
102
RTVSPropertyOp57
 70
     1
102
RTVSPropertyOp58
 70
     1
102
RTVSPropertyOp59
 70
     1
102
RTVSPropertyOp60
 70
     1
102
RTVSPropertyOp61
 70
     1
102
RTVSPropertyOp62
 70
     1
  0
XRECORD
  5
9A73
102
{ACAD_REACTORS
330
9A72
102
}
330
9A72
100
AcDbXrecord
280
     1
102
RTVSPost2010Prop28
280
     0
102
RTVSPost2010PropOp28
 70
     1
102
RTVSPost2010Prop29
280
     1
102
RTVSPost2010PropOp29
 70
     1
102
RTVSPost2010Prop30
280
     1
102
RTVSPost2010PropOp30
 70
     1
102
RTVSPost2010Prop31
280
     0
102
RTVSPost2010PropOp31
 70
     1
102
RTVSPost2010Prop32
280
     0
102
RTVSPost2010PropOp32
 70
     1
102
RTVSPost2010Prop33
280
     0
102
RTVSPost2010PropOp33
 70
     1
102
RTVSPost2010Prop34
280
     0
102
RTVSPost2010PropOp34
 70
     1
102
RTVSPost2010Prop35
280
     0
102
RTVSPost2010PropOp35
 70
     1
102
RTVSPost2010Prop36
280
     0
102
RTVSPost2010PropOp36
 70
     1
102
RTVSPost2010Prop37
 90
       50
102
RTVSPost2010PropOp37
 70
     1
102
RTVSPost2010Prop38
140
0.0
102
RTVSPost2010PropOp38
 70
     1
102
RTVSPost2010Prop39
140
1.0
102
RTVSPost2010PropOp39
 70
     1
102
RTVSPost2010Prop40
 90
        0
102
RTVSPost2010PropOp40
 70
     1
102
RTVSPost2010Prop41ColorIndex
 90
       18
102
RTVSPost2010Prop41ColorRGB
 90
        0
102
RTVSPost2010PropOp41
 70
     1
102
RTVSPost2010Prop42
 90
       50
102
RTVSPost2010PropOp42
 70
     1
102
RTVSPost2010Prop43
 90
        3
102
RTVSPost2010PropOp43
 70
     1
102
RTVSPost2010Prop44ColorIndex
 90
        5
102
RTVSPost2010Prop44ColorRGB
 90
      255
102
RTVSPost2010PropOp44
 70
     1
102
RTVSPost2010Prop45
280
     0
102
RTVSPost2010PropOp45
 70
     1
102
RTVSPost2010Prop46
 90
       50
102
RTVSPost2010PropOp46
 70
     1
102
RTVSPost2010Prop47
 90
       50
102
RTVSPost2010PropOp47
 70
     1
102
RTVSPost2010Prop48
 90
       50
102
RTVSPost2010PropOp48
 70
     1
102
RTVSPost2010Prop49
280
     0
102
RTVSPost2010PropOp49
 70
     1
102
RTVSPost2010Prop50
 90
       50
102
RTVSPost2010PropOp50
 70
     1
102
RTVSPost2010Prop51ColorIndex
 90
      256
102
RTVSPost2010Prop51ColorRGB
 90
-16777216
102
RTVSPost2010PropOp51
 70
     0
102
RTVSPost2010Prop52
140
1.0
102
RTVSPost2010PropOp52
 70
     0
102
RTVSPost2010Prop53
 90
        2
102
RTVSPost2010PropOp53
 70
     1
102
RTVSPost2010Prop54
  1
strokes_ogs.tif
102
RTVSPost2010PropOp54
 70
     1
102
RTVSPost2010Prop55
280
     0
102
RTVSPost2010PropOp55
 70
     1
102
RTVSPost2010Prop56
140
1.0
102
RTVSPost2010PropOp56
 70
     1
102
RTVSPost2010Prop57
140
1.0
102
RTVSPost2010PropOp57
 70
     1
102
RTVSPropertyOp0
 70
     1
102
RTVSPropertyOp1
 70
     1
102
RTVSPropertyOp2
 70
     1
102
RTVSPropertyOp3
 70
     1
102
RTVSPropertyOp4
 70
     1
102
RTVSPropertyOp5
 70
     1
102
RTVSPropertyOp6
 70
     1
102
RTVSPropertyOp7
 70
     1
102
RTVSPropertyOp8
 70
     1
102
RTVSPropertyOp9
 70
     1
102
RTVSPropertyOp10
 70
     1
102
RTVSPropertyOp11
 70
     1
102
RTVSPropertyOp12
 70
     1
102
RTVSPropertyOp13
 70
     1
102
RTVSPropertyOp14
 70
     1
102
RTVSPropertyOp15
 70
     1
102
RTVSPropertyOp16
 70
     1
102
RTVSPropertyOp17
 70
     1
102
RTVSPropertyOp18
 70
     1
102
RTVSPropertyOp19
 70
     1
102
RTVSPropertyOp20
 70
     1
102
RTVSPropertyOp21
 70
     1
102
RTVSPropertyOp22
 70
     1
102
RTVSPropertyOp23
 70
     1
102
RTVSPropertyOp24
 70
     1
102
RTVSPropertyOp25
 70
     1
102
RTVSPropertyOp26
 70
     1
102
RTVSPropertyOp27
 70
     1
102
RTVSPropertyOp28
 70
     1
102
RTVSPropertyOp29
 70
     1
102
RTVSPropertyOp30
 70
     1
102
RTVSPropertyOp31
 70
     1
102
RTVSPropertyOp32
 70
     1
102
RTVSPropertyOp33
 70
     1
102
RTVSPropertyOp34
 70
     1
102
RTVSPropertyOp35
 70
     1
102
RTVSPropertyOp36
 70
     1
102
RTVSPropertyOp37
 70
     1
102
RTVSPropertyOp38
 70
     1
102
RTVSPropertyOp39
 70
     1
102
RTVSPropertyOp40
 70
     1
102
RTVSPropertyOp41
 70
     1
102
RTVSPropertyOp42
 70
     1
102
RTVSPropertyOp43
 70
     1
102
RTVSPropertyOp44
 70
     1
102
RTVSPropertyOp45
 70
     1
102
RTVSPropertyOp46
 70
     1
102
RTVSPropertyOp47
 70
     1
102
RTVSPropertyOp48
 70
     1
102
RTVSPropertyOp49
 70
     1
102
RTVSPropertyOp50
 70
     1
102
RTVSPropertyOp51
 70
     0
102
RTVSPropertyOp52
 70
     0
102
RTVSPropertyOp53
 70
     1
102
RTVSPropertyOp54
 70
     1
102
RTVSPropertyOp55
 70
     1
102
RTVSPropertyOp56
 70
     1
102
RTVSPropertyOp57
 70
     1
102
RTVSPropertyOp58
 70
     1
102
RTVSPropertyOp59
 70
     1
102
RTVSPropertyOp60
 70
     1
102
RTVSPropertyOp61
 70
     1
102
RTVSPropertyOp62
 70
     1
  0
XRECORD
  5
9A8B
102
{ACAD_REACTORS
330
9A8A
102
}
330
9A8A
100
AcDbXrecord
280
     1
102
RTVSPost2010Prop28
280
     0
102
RTVSPost2010PropOp28
 70
     1
102
RTVSPost2010Prop29
280
     1
102
RTVSPost2010PropOp29
 70
     1
102
RTVSPost2010Prop30
280
     1
102
RTVSPost2010PropOp30
 70
     1
102
RTVSPost2010Prop31
280
     0
102
RTVSPost2010PropOp31
 70
     1
102
RTVSPost2010Prop32
280
     0
102
RTVSPost2010PropOp32
 70
     1
102
RTVSPost2010Prop33
280
     0
102
RTVSPost2010PropOp33
 70
     1
102
RTVSPost2010Prop34
280
     0
102
RTVSPost2010PropOp34
 70
     1
102
RTVSPost2010Prop35
280
     0
102
RTVSPost2010PropOp35
 70
     1
102
RTVSPost2010Prop36
280
     0
102
RTVSPost2010PropOp36
 70
     1
102
RTVSPost2010Prop37
 90
       50
102
RTVSPost2010PropOp37
 70
     1
102
RTVSPost2010Prop38
140
0.0
102
RTVSPost2010PropOp38
 70
     1
102
RTVSPost2010Prop39
140
1.0
102
RTVSPost2010PropOp39
 70
     1
102
RTVSPost2010Prop40
 90
        0
102
RTVSPost2010PropOp40
 70
     1
102
RTVSPost2010Prop41ColorIndex
 90
       18
102
RTVSPost2010Prop41ColorRGB
 90
        0
102
RTVSPost2010PropOp41
 70
     1
102
RTVSPost2010Prop42
 90
       50
102
RTVSPost2010PropOp42
 70
     1
102
RTVSPost2010Prop43
 90
        3
102
RTVSPost2010PropOp43
 70
     1
102
RTVSPost2010Prop44ColorIndex
 90
        5
102
RTVSPost2010Prop44ColorRGB
 90
      255
102
RTVSPost2010PropOp44
 70
     1
102
RTVSPost2010Prop45
280
     0
102
RTVSPost2010PropOp45
 70
     1
102
RTVSPost2010Prop46
 90
       50
102
RTVSPost2010PropOp46
 70
     1
102
RTVSPost2010Prop47
 90
       50
102
RTVSPost2010PropOp47
 70
     1
102
RTVSPost2010Prop48
 90
       50
102
RTVSPost2010PropOp48
 70
     1
102
RTVSPost2010Prop49
280
     0
102
RTVSPost2010PropOp49
 70
     1
102
RTVSPost2010Prop50
 90
       50
102
RTVSPost2010PropOp50
 70
     1
102
RTVSPost2010Prop51ColorIndex
 90
      256
102
RTVSPost2010Prop51ColorRGB
 90
-16777216
102
RTVSPost2010PropOp51
 70
     0
102
RTVSPost2010Prop52
140
1.0
102
RTVSPost2010PropOp52
 70
     0
102
RTVSPost2010Prop53
 90
        2
102
RTVSPost2010PropOp53
 70
     1
102
RTVSPost2010Prop54
  1
strokes_ogs.tif
102
RTVSPost2010PropOp54
 70
     1
102
RTVSPost2010Prop55
280
     0
102
RTVSPost2010PropOp55
 70
     1
102
RTVSPost2010Prop56
140
1.0
102
RTVSPost2010PropOp56
 70
     1
102
RTVSPost2010Prop57
140
1.0
102
RTVSPost2010PropOp57
 70
     1
102
RTVSPropertyOp0
 70
     1
102
RTVSPropertyOp1
 70
     1
102
RTVSPropertyOp2
 70
     1
102
RTVSPropertyOp3
 70
     1
102
RTVSPropertyOp4
 70
     1
102
RTVSPropertyOp5
 70
     1
102
RTVSPropertyOp6
 70
     1
102
RTVSPropertyOp7
 70
     1
102
RTVSPropertyOp8
 70
     1
102
RTVSPropertyOp9
 70
     1
102
RTVSPropertyOp10
 70
     1
102
RTVSPropertyOp11
 70
     1
102
RTVSPropertyOp12
 70
     1
102
RTVSPropertyOp13
 70
     1
102
RTVSPropertyOp14
 70
     1
102
RTVSPropertyOp15
 70
     1
102
RTVSPropertyOp16
 70
     1
102
RTVSPropertyOp17
 70
     1
102
RTVSPropertyOp18
 70
     1
102
RTVSPropertyOp19
 70
     1
102
RTVSPropertyOp20
 70
     1
102
RTVSPropertyOp21
 70
     1
102
RTVSPropertyOp22
 70
     1
102
RTVSPropertyOp23
 70
     1
102
RTVSPropertyOp24
 70
     1
102
RTVSPropertyOp25
 70
     1
102
RTVSPropertyOp26
 70
     1
102
RTVSPropertyOp27
 70
     1
102
RTVSPropertyOp28
 70
     1
102
RTVSPropertyOp29
 70
     1
102
RTVSPropertyOp30
 70
     1
102
RTVSPropertyOp31
 70
     1
102
RTVSPropertyOp32
 70
     1
102
RTVSPropertyOp33
 70
     1
102
RTVSPropertyOp34
 70
     1
102
RTVSPropertyOp35
 70
     1
102
RTVSPropertyOp36
 70
     1
102
RTVSPropertyOp37
 70
     1
102
RTVSPropertyOp38
 70
     1
102
RTVSPropertyOp39
 70
     1
102
RTVSPropertyOp40
 70
     1
102
RTVSPropertyOp41
 70
     1
102
RTVSPropertyOp42
 70
     1
102
RTVSPropertyOp43
 70
     1
102
RTVSPropertyOp44
 70
     1
102
RTVSPropertyOp45
 70
     1
102
RTVSPropertyOp46
 70
     1
102
RTVSPropertyOp47
 70
     1
102
RTVSPropertyOp48
 70
     1
102
RTVSPropertyOp49
 70
     1
102
RTVSPropertyOp50
 70
     1
102
RTVSPropertyOp51
 70
     0
102
RTVSPropertyOp52
 70
     0
102
RTVSPropertyOp53
 70
     1
102
RTVSPropertyOp54
 70
     1
102
RTVSPropertyOp55
 70
     1
102
RTVSPropertyOp56
 70
     1
102
RTVSPropertyOp57
 70
     1
102
RTVSPropertyOp58
 70
     1
102
RTVSPropertyOp59
 70
     1
102
RTVSPropertyOp60
 70
     1
102
RTVSPropertyOp61
 70
     1
102
RTVSPropertyOp62
 70
     1
  0
ENDSEC
  0
EOF
