  0
SECTION
  2
HEADER
  9
$ACADVER
  1
AC1015
  9
$ACADMAINTVER
 70
    20
  9
$DWGCODEPAGE
  3
ANSI_932
  9
$INSBASE
 10
0.0
 20
0.0
 30
0.0
  9
$EXTMIN
 10
10.0
 20
9.999999999999998
 30
0.0
  9
$EXTMAX
 10
478.8435329999998
 20
364.167108
 30
0.0
  9
$LIMMIN
 10
0.0
 20
0.0
  9
$LIMMAX
 10
544.9999999638298
 20
375.7196968653162
  9
$ORTHOMODE
 70
     1
  9
$REGENMODE
 70
     1
  9
$FILLMODE
 70
     1
  9
$QTEXTMODE
 70
     0
  9
$MIRRTEXT
 70
     1
  9
$LTSCALE
 40
20.0
  9
$ATTMODE
 70
     1
  9
$TEXTSIZE
 40
5.0
  9
$TRACEWID
 40
1.0
  9
$TEXTSTYLE
  7
STANDARD
  9
$CLAYER
  8
0
  9
$CELTYPE
  6
BYLAYER
  9
$CECOLOR
 62
   256
  9
$CELTSCALE
 40
1.0
  9
$DISPSILH
 70
     0
  9
$DIMSCALE
 40
1.0
  9
$DIMASZ
 40
2.5
  9
$DIMEXO
 40
1.0
  9
$DIMDLI
 40
10.0
  9
$DIMRND
 40
0.0
  9
$DIMDLE
 40
0.0
  9
$DIMEXE
 40
1.0
  9
$DIMTP
 40
0.0
  9
$DIMTM
 40
0.0
  9
$DIMTXT
 40
3.2
  9
$DIMCEN
 40
0.0
  9
$DIMTSZ
 40
0.0
  9
$DIMTOL
 70
     0
  9
$DIMLIM
 70
     0
  9
$DIMTIH
 70
     0
  9
$DIMTOH
 70
     0
  9
$DIMSE1
 70
     0
  9
$DIMSE2
 70
     0
  9
$DIMTAD
 70
     3
  9
$DIMZIN
 70
     8
  9
$DIMBLK
  1

  9
$DIMASO
 70
     1
  9
$DIMSHO
 70
     1
  9
$DIMPOST
  1

  9
$DIMAPOST
  1

  9
$DIMALT
 70
     0
  9
$DIMALTD
 70
     2
  9
$DIMALTF
 40
25.4
  9
$DIMLFAC
 40
1.0
  9
$DIMTOFL
 70
     1
  9
$DIMTVP
 40
0.0
  9
$DIMTIX
 70
     0
  9
$DIMSOXD
 70
     0
  9
$DIMSAH
 70
     1
  9
$DIMBLK1
  1

  9
$DIMBLK2
  1

  9
$DIMSTYLE
  2
STANDARD
  9
$DIMCLRD
 70
     0
  9
$DIMCLRE
 70
     0
  9
$DIMCLRT
 70
     0
  9
$DIMTFAC
 40
1.0
  9
$DIMGAP
 40
1.0
  9
$DIMJUST
 70
     0
  9
$DIMSD1
 70
     0
  9
$DIMSD2
 70
     0
  9
$DIMTOLJ
 70
     1
  9
$DIMTZIN
 70
     0
  9
$DIMALTZ
 70
     0
  9
$DIMALTTZ
 70
     0
  9
$DIMUPT
 70
     0
  9
$DIMDEC
 70
     4
  9
$DIMTDEC
 70
     4
  9
$DIMALTU
 70
     2
  9
$DIMALTTD
 70
     2
  9
$DIMTXSTY
  7
STANDARD
  9
$DIMAUNIT
 70
     0
  9
$DIMADEC
 70
     0
  9
$DIMALTRND
 40
0.0
  9
$DIMAZIN
 70
     0
  9
$DIMDSEP
 70
    46
  9
$DIMATFIT
 70
     3
  9
$DIMFRAC
 70
     0
  9
$DIMLDRBLK
  1

  9
$DIMLUNIT
 70
     2
  9
$DIMLWD
 70
    -2
  9
$DIMLWE
 70
    -2
  9
$DIMTMOVE
 70
     0
  9
$LUNITS
 70
     2
  9
$LUPREC
 70
     4
  9
$SKETCHINC
 40
1.0
  9
$FILLETRAD
 40
5.0
  9
$AUNITS
 70
     0
  9
$AUPREC
 70
     2
  9
$MENU
  1
.
  9
$ELEVATION
 40
0.0
  9
$PELEVATION
 40
0.0
  9
$THICKNESS
 40
0.0
  9
$LIMCHECK
 70
     0
  9
$CHAMFERA
 40
10.0
  9
$CHAMFERB
 40
10.0
  9
$CHAMFERC
 40
0.0
  9
$CHAMFERD
 40
0.0
  9
$SKPOLY
 70
     0
  9
$TDCREATE
 40
2451301.455053819
  9
$TDUCREATE
 40
2451301.080053819
  9
$TDUPDATE
 40
2457192.690194387
  9
$TDUUPDATE
 40
2457192.315194387
  9
$TDINDWG
 40
0.1103855324
  9
$TDUSRTIMER
 40
0.1103852083
  9
$USRTIMER
 70
     1
  9
$ANGBASE
 50
0.0
  9
$ANGDIR
 70
     0
  9
$PDMODE
 70
     0
  9
$PDSIZE
 40
0.0
  9
$PLINEWID
 40
0.0
  9
$SPLFRAME
 70
     0
  9
$SPLINETYPE
 70
     6
  9
$SPLINESEGS
 70
     8
  9
$HANDSEED
  5
9ABE
  9
$SURFTAB1
 70
     6
  9
$SURFTAB2
 70
     6
  9
$SURFTYPE
 70
     6
  9
$SURFU
 70
     6
  9
$SURFV
 70
     6
  9
$UCSBASE
  2

  9
$UCSNAME
  2

  9
$UCSORG
 10
0.0
 20
0.0
 30
0.0
  9
$UCSXDIR
 10
1.0
 20
0.0
 30
0.0
  9
$UCSYDIR
 10
0.0
 20
1.0
 30
0.0
  9
$UCSORTHOREF
  2

  9
$UCSORTHOVIEW
 70
     0
  9
$UCSORGTOP
 10
0.0
 20
0.0
 30
0.0
  9
$UCSORGBOTTOM
 10
0.0
 20
0.0
 30
0.0
  9
$UCSORGLEFT
 10
0.0
 20
0.0
 30
0.0
  9
$UCSORGRIGHT
 10
0.0
 20
0.0
 30
0.0
  9
$UCSORGFRONT
 10
0.0
 20
0.0
 30
0.0
  9
$UCSORGBACK
 10
0.0
 20
0.0
 30
0.0
  9
$PUCSBASE
  2

  9
$PUCSNAME
  2

  9
$PUCSORG
 10
0.0
 20
0.0
 30
0.0
  9
$PUCSXDIR
 10
1.0
 20
0.0
 30
0.0
  9
$PUCSYDIR
 10
0.0
 20
1.0
 30
0.0
  9
$PUCSORTHOREF
  2

  9
$PUCSORTHOVIEW
 70
     0
  9
$PUCSORGTOP
 10
0.0
 20
0.0
 30
0.0
  9
$PUCSORGBOTTOM
 10
0.0
 20
0.0
 30
0.0
  9
$PUCSORGLEFT
 10
0.0
 20
0.0
 30
0.0
  9
$PUCSORGRIGHT
 10
0.0
 20
0.0
 30
0.0
  9
$PUCSORGFRONT
 10
0.0
 20
0.0
 30
0.0
  9
$PUCSORGBACK
 10
0.0
 20
0.0
 30
0.0
  9
$USERI1
 70
     0
  9
$USERI2
 70
     0
  9
$USERI3
 70
     0
  9
$USERI4
 70
     0
  9
$USERI5
 70
     0
  9
$USERR1
 40
0.0
  9
$USERR2
 40
0.0
  9
$USERR3
 40
0.0
  9
$USERR4
 40
0.0
  9
$USERR5
 40
0.0
  9
$WORLDVIEW
 70
     1
  9
$SHADEDGE
 70
     3
  9
$SHADEDIF
 70
    70
  9
$TILEMODE
 70
     1
  9
$MAXACTVP
 70
    16
  9
$PINSBASE
 10
0.0
 20
0.0
 30
0.0
  9
$PLIMCHECK
 70
     0
  9
$PEXTMIN
 10
1.000000000000000E+20
 20
1.000000000000000E+20
 30
1.000000000000000E+20
  9
$PEXTMAX
 10
-1.000000000000000E+20
 20
-1.000000000000000E+20
 30
-1.000000000000000E+20
  9
$PLIMMIN
 10
0.0
 20
0.0
  9
$PLIMMAX
 10
420.0
 20
297.0
  9
$UNITMODE
 70
     0
  9
$VISRETAIN
 70
     0
  9
$PLINEGEN
 70
     0
  9
$PSLTSCALE
 70
     0
  9
$TREEDEPTH
 70
  3020
  9
$CMLSTYLE
  2
STANDARD
  9
$CMLJUST
 70
     0
  9
$CMLSCALE
 40
1.0
  9
$PROXYGRAPHICS
 70
     1
  9
$MEASUREMENT
 70
     0
  9
$CELWEIGHT
370
    -1
  9
$ENDCAPS
280
     0
  9
$JOINSTYLE
280
     0
  9
$LWDISPLAY
290
     0
  9
$INSUNITS
 70
     0
  9
$HYPERLINKBASE
  1

  9
$STYLESHEET
  1

  9
$XEDIT
290
     1
  9
$CEPSNTYPE
380
     0
  9
$PSTYLEMODE
290
     1
  9
$FINGERPRINTGUID
  2
{A7DDDF9E-9AAE-4C41-8D0D-9E29785AE1B5}
  9
$VERSIONGUID
  2
{DF756B08-82A2-4FE7-9798-3CC395337B4D}
  9
$EXTNAMES
290
     1
  9
$PSVPSCALE
 40
0.0
  9
$OLESTARTUP
290
     0
  0
ENDSEC
  0
SECTION
  2
CLASSES
  0
CLASS
  1
ACDBDICTIONARYWDFLT
  2
AcDbDictionaryWithDefault
  3
ObjectDBX Classes
 90
        0
280
     0
281
     0
  0
CLASS
  1
ACDBPLACEHOLDER
  2
AcDbPlaceHolder
  3
ObjectDBX Classes
 90
        0
280
     0
281
     0
  0
CLASS
  1
LAYOUT
  2
AcDbLayout
  3
ObjectDBX Classes
 90
        0
280
     0
281
     0
  0
CLASS
  1
DICTIONARYVAR
  2
AcDbDictionaryVar
  3
ObjectDBX Classes
 90
        0
280
     0
281
     0
  0
CLASS
  1
MATERIAL
  2
AcDbMaterial
  3
ObjectDBX Classes
 90
     1153
280
     0
281
     0
  0
CLASS
  1
VISUALSTYLE
  2
AcDbVisualStyle
  3
ObjectDBX Classes
 90
     4095
280
     0
281
     0
  0
CLASS
  1
TABLESTYLE
  2
AcDbTableStyle
  3
ObjectDBX Classes
 90
     4095
280
     0
281
     0
  0
CLASS
  1
SCALE
  2
AcDbScale
  3
ObjectDBX Classes
 90
     1153
280
     0
281
     0
  0
CLASS
  1
MLEADERSTYLE
  2
AcDbMLeaderStyle
  3
ACDB_MLEADERSTYLE_CLASS
 90
     4095
280
     0
281
     0
  0
CLASS
  1
ACDBSECTIONVIEWSTYLE
  2
AcDbSectionViewStyle
  3
ObjectDBX Classes
 90
     1025
280
     0
281
     0
  0
CLASS
  1
ACDBDETAILVIEWSTYLE
  2
AcDbDetailViewStyle
  3
ObjectDBX Classes
 90
     1025
280
     0
281
     0
  0
CLASS
  1
CELLSTYLEMAP
  2
AcDbCellStyleMap
  3
ObjectDBX Classes
 90
     1152
280
     0
281
     0
  0
ENDSEC
  0
SECTION
  2
TABLES
  0
TABLE
  2
VPORT
  5
97EC
330
0
100
AcDbSymbolTable
 70
     1
  0
VPORT
  5
9A09
330
97EC
100
AcDbSymbolTableRecord
100
AcDbViewportTableRecord
  2
*ACTIVE
 70
     0
 10
0.0
 20
0.0
 11
1.0
 21
1.0
 12
380.738591568655
 22
187.0858905803999
 13
0.0
 23
0.0
 14
10.0
 24
10.0
 15
10.0
 25
10.0
 16
0.0
 26
0.0
 36
1.0
 17
0.0
 27
0.0
 37
0.0
 40
356.9826539482002
 41
2.35006605019815
 42
50.0
 43
0.0
 44
0.0
 50
0.0
 51
0.0
 71
     0
 72
   100
 73
     1
 74
     0
 75
     0
 76
     0
 77
     0
 78
     0
281
     0
 65
     1
110
0.0
120
0.0
130
0.0
111
1.0
121
0.0
131
0.0
112
0.0
122
1.0
132
0.0
 79
     0
146
0.0
1001
ACAD_NAV_VCDISPLAY
1070
     3
  0
ENDTAB
  0
TABLE
  2
LTYPE
  5
97E9
330
0
100
AcDbSymbolTable
 70
     4
  0
LTYPE
  5
97F7
330
97E9
100
AcDbSymbolTableRecord
100
AcDbLinetypeTableRecord
  2
BYBLOCK
 70
     0
  3

 72
    65
 73
     0
 40
0.0
  0
LTYPE
  5
97F8
330
97E9
100
AcDbSymbolTableRecord
100
AcDbLinetypeTableRecord
  2
BYLAYER
 70
     0
  3

 72
    65
 73
     0
 40
0.0
  0
LTYPE
  5
97F9
330
97E9
100
AcDbSymbolTableRecord
100
AcDbLinetypeTableRecord
  2
CONTINUOUS
 70
     0
  3
Solid line
 72
    65
 73
     0
 40
0.0
  0
LTYPE
  5
9807
330
97E9
100
AcDbSymbolTableRecord
100
AcDbLinetypeTableRecord
  2
DASHED
 70
     0
  3
__ __ __ __ __ __ __ __ __ __ __ __ __ __ __ __
 72
    65
 73
     2
 40
0.75
 49
0.5
 74
     0
 49
-0.25
 74
     0
  0
LTYPE
  5
9808
330
97E9
100
AcDbSymbolTableRecord
100
AcDbLinetypeTableRecord
  2
CENTER
 70
     0
  3
____ _ ____ _ ____ _ ____ _ ____ _ ____ _ ____ 
 72
    65
 73
     4
 40
2.0
 49
1.25
 74
     0
 49
-0.25
 74
     0
 49
0.25
 74
     0
 49
-0.25
 74
     0
  0
LTYPE
  5
9809
330
97E9
100
AcDbSymbolTableRecord
100
AcDbLinetypeTableRecord
  2
PHANTOM
 70
     0
  3
______  __  __  ______  __  __  ______  __  __ 
 72
    65
 73
     6
 40
2.5
 49
1.25
 74
     0
 49
-0.25
 74
     0
 49
0.25
 74
     0
 49
-0.25
 74
     0
 49
0.25
 74
     0
 49
-0.25
 74
     0
  0
ENDTAB
  0
TABLE
  2
LAYER
  5
97E6
330
0
100
AcDbSymbolTable
 70
     8
  0
LAYER
  5
97F4
102
{ACAD_XDICTIONARY
360
9A62
102
}
330
97E6
100
AcDbSymbolTableRecord
100
AcDbLayerTableRecord
  2
0
 70
     0
 62
     7
  6
CONTINUOUS
370
    -3
390
9A10
  0
LAYER
  5
980A
102
{ACAD_XDICTIONARY
360
9A64
102
}
330
97E6
100
AcDbSymbolTableRecord
100
AcDbLayerTableRecord
  2
4
 70
     0
 62
     1
  6
CENTER
370
    -3
390
9A10
  0
LAYER
  5
980B
102
{ACAD_XDICTIONARY
360
9A66
102
}
330
97E6
100
AcDbSymbolTableRecord
100
AcDbLayerTableRecord
  2
5
 70
     0
 62
     6
  6
PHANTOM
370
    -3
390
9A10
  0
LAYER
  5
980C
102
{ACAD_XDICTIONARY
360
9A68
102
}
330
97E6
100
AcDbSymbolTableRecord
100
AcDbLayerTableRecord
  2
1
 70
     0
 62
     7
  6
CONTINUOUS
370
    -3
390
9A10
  0
LAYER
  5
980D
102
{ACAD_XDICTIONARY
360
9A6A
102
}
330
97E6
100
AcDbSymbolTableRecord
100
AcDbLayerTableRecord
  2
2
 70
     0
 62
     4
  6
CONTINUOUS
370
    -3
390
9A10
  0
LAYER
  5
980E
102
{ACAD_XDICTIONARY
360
9A6C
102
}
330
97E6
100
AcDbSymbolTableRecord
100
AcDbLayerTableRecord
  2
3
 70
     0
 62
     2
  6
DASHED
370
    -3
390
9A10
  0
LAYER
  5
980F
102
{ACAD_XDICTIONARY
360
9A6E
102
}
330
97E6
100
AcDbSymbolTableRecord
100
AcDbLayerTableRecord
  2
6
 70
     0
 62
     5
  6
CONTINUOUS
370
    -3
390
9A10
  0
LAYER
  5
9810
102
{ACAD_XDICTIONARY
360
9A70
102
}
330
97E6
100
AcDbSymbolTableRecord
100
AcDbLayerTableRecord
  2
7
 70
     0
 62
     3
  6
CONTINUOUS
370
    -3
390
9A10
  0
ENDTAB
  0
TABLE
  2
STYLE
  5
97E7
330
0
100
AcDbSymbolTable
 70
     1
  0
STYLE
  5
97F5
330
97E7
100
AcDbSymbolTableRecord
100
AcDbTextStyleTableRecord
  2
STANDARD
 70
     0
 40
0.0
 41
1.0
 50
0.0
 71
     0
 42
5.0
  3
txt
  4

  0
ENDTAB
  0
TABLE
  2
VIEW
  5
97EA
330
0
100
AcDbSymbolTable
 70
     0
  0
ENDTAB
  0
TABLE
  2
UCS
  5
97EB
330
0
100
AcDbSymbolTable
 70
     0
  0
ENDTAB
  0
TABLE
  2
APPID
  5
97ED
330
0
100
AcDbSymbolTable
 70
     3
  0
APPID
  5
97F6
330
97ED
100
AcDbSymbolTableRecord
100
AcDbRegAppTableRecord
  2
ACAD
 70
     0
  0
APPID
  5
9A7C
330
97ED
100
AcDbSymbolTableRecord
100
AcDbRegAppTableRecord
  2
ACAD_NAV_VCDISPLAY
 70
     0
  0
APPID
  5
9AB5
330
97ED
100
AcDbSymbolTableRecord
100
AcDbRegAppTableRecord
  2
ACAD_MLEADERVER
 70
     0
  0
ENDTAB
  0
TABLE
  2
DIMSTYLE
  5
97EE
330
0
100
AcDbSymbolTable
 70
     1
100
AcDbDimStyleTable
 71
     0
  0
DIMSTYLE
105
9812
330
97EE
100
AcDbSymbolTableRecord
100
AcDbDimStyleTableRecord
  2
STANDARD
 70
     0
 41
2.5
 42
1.0
 43
10.0
 44
1.0
 73
     0
 74
     0
 77
     3
 78
     8
140
3.2
141
0.0
147
1.0
172
     1
173
     1
284
     8
285
     8
286
     8
340
97F5
  0
ENDTAB
  0
TABLE
  2
BLOCK_RECORD
  5
97E5
330
0
100
AcDbSymbolTable
 70
     0
  0
BLOCK_RECORD
  5
9802
102
{ACAD_XDICTIONARY
360
99CB
102
}
330
97E5
100
AcDbSymbolTableRecord
100
AcDbBlockTableRecord
  2
*MODEL_SPACE
340
9A5E
  0
BLOCK_RECORD
  5
97FE
102
{ACAD_XDICTIONARY
360
99C9
102
}
330
97E5
100
AcDbSymbolTableRecord
100
AcDbBlockTableRecord
  2
*PAPER_SPACE
340
9A5F
  0
ENDTAB
  0
ENDSEC
  0
SECTION
  2
BLOCKS
  0
BLOCK
  5
9803
330
9802
100
AcDbEntity
  8
0
100
AcDbBlockBegin
  2
*MODEL_SPACE
 70
     0
 10
0.0
 20
0.0
 30
0.0
  3
*MODEL_SPACE
  1

  0
ENDBLK
  5
9804
330
9802
100
AcDbEntity
  8
0
100
AcDbBlockEnd
  0
BLOCK
  5
97FF
330
97FE
100
AcDbEntity
 67
     1
  8
0
100
AcDbBlockBegin
  2
*PAPER_SPACE
 70
     0
 10
0.0
 20
0.0
 30
0.0
  3
*PAPER_SPACE
  1

  0
ENDBLK
  5
9800
330
97FE
100
AcDbEntity
 67
     1
  8
0
100
AcDbBlockEnd
  0
ENDSEC
  0
SECTION
  2
ENTITIES
  0
TEXT
  5
981A
330
9802
100
AcDbEntity
  8
7
  6
Continuous
100
AcDbText
 10
10.0
 20
18.0
 30
0.0
 40
3.0
  1
TYPE No.TCA-420ER-N75
100
AcDbText
  0
TEXT
  5
981B
330
9802
100
AcDbEntity
  8
7
  6
Continuous
100
AcDbText
 10
10.0
 20
26.0
 30
0.0
 40
3.0
  1
CODE No.9797
100
AcDbText
  0
TEXT
  5
981C
330
9802
100
AcDbEntity
  8
1
  6
Continuous
100
AcDbText
 10
10.0
 20
10.0
 30
0.0
 40
1.399999999999999
  1
LAYER
100
AcDbText
  0
TEXT
  5
981D
330
9802
100
AcDbEntity
  8
1
  6
Continuous
100
AcDbText
 10
17.97951099999998
 20
10.04873699999998
 30
0.0
 40
1.399999999999999
  1
1
100
AcDbText
  0
TEXT
  5
981E
330
9802
100
AcDbEntity
  8
7
  6
Continuous
100
AcDbText
 10
29.97951099999999
 20
10.04873699999998
 30
0.0
 40
1.399999999999999
  1
7
100
AcDbText
  0
TEXT
  5
981F
330
9802
100
AcDbEntity
  8
4
  6
CENTER
100
AcDbText
 10
23.97951099999999
 20
10.04873699999998
 30
0.0
 40
1.399999999999999
  1
4
100
AcDbText
  0
TEXT
  5
9820
330
9802
100
AcDbEntity
  8
3
  6
DASHED
100
AcDbText
 10
21.979511
 20
10.04873699999998
 30
0.0
 40
1.399999999999999
  1
3
100
AcDbText
  0
TEXT
  5
9821
330
9802
100
AcDbEntity
  8
2
  6
Continuous
100
AcDbText
 10
19.97951099999998
 20
10.04873699999998
 30
0.0
 40
1.399999999999999
  1
2
100
AcDbText
  0
TEXT
  5
9822
330
9802
100
AcDbEntity
  8
6
  6
Continuous
100
AcDbText
 10
27.979511
 20
10.04873699999998
 30
0.0
 40
1.399999999999999
  1
6
100
AcDbText
  0
TEXT
  5
9823
330
9802
100
AcDbEntity
  8
5
  6
PHANTOM
100
AcDbText
 10
25.97951099999999
 20
10.04873699999998
 30
0.0
 40
1.399999999999999
  1
5
100
AcDbText
  0
LINE
  5
9824
330
9802
100
AcDbEntity
  8
4
  6
CENTER
100
AcDbLine
 10
176.343533
 20
364.167108
 30
0.0
 11
176.343533
 21
313.967105
 31
0.0
  0
LINE
  5
9825
330
9802
100
AcDbEntity
  8
4
  6
CENTER
100
AcDbLine
 10
133.843533
 20
337.2671079999999
 30
0.0
 11
218.843533
 21
337.2671079999999
 31
0.0
  0
LINE
  5
9826
330
9802
100
AcDbEntity
  8
1
  6
Continuous
100
AcDbLine
 10
144.843533
 20
358.267108
 30
0.0
 11
152.843533
 21
358.267108
 31
0.0
  0
LINE
  5
9827
330
9802
100
AcDbEntity
  8
1
  6
Continuous
100
AcDbLine
 10
161.343533
 20
352.567111
 30
0.0
 11
191.343533
 21
352.567111
 31
0.0
  0
LINE
  5
9828
330
9802
100
AcDbEntity
  8
1
  6
Continuous
100
AcDbLine
 10
157.322431
 20
354.5954469999998
 30
0.0
 11
155.6583
 21
356.84727
 31
0.0
  0
LINE
  5
9829
330
9802
100
AcDbEntity
  8
4
  6
CENTER
100
AcDbLine
 10
153.343533
 20
351.267108
 30
0.0
 11
143.343533
 21
351.267108
 31
0.0
  0
LINE
  5
982A
330
9802
100
AcDbEntity
  8
4
  6
CENTER
100
AcDbLine
 10
148.343533
 20
356.267108
 30
0.0
 11
148.343533
 21
346.267108
 31
0.0
  0
LINE
  5
982B
330
9802
100
AcDbEntity
  8
1
  6
Continuous
100
AcDbLine
 10
207.843533
 20
358.267108
 30
0.0
 11
199.843533
 21
358.267108
 31
0.0
  0
LINE
  5
982C
330
9802
100
AcDbEntity
  8
1
  6
Continuous
100
AcDbLine
 10
195.3646239999999
 20
354.5954469999998
 30
0.0
 11
197.028759
 21
356.84727
 31
0.0
  0
LINE
  5
982D
330
9802
100
AcDbEntity
  8
4
  6
CENTER
100
AcDbLine
 10
199.343533
 20
351.267108
 30
0.0
 11
209.343533
 21
351.267108
 31
0.0
  0
LINE
  5
982E
330
9802
100
AcDbEntity
  8
4
  6
CENTER
100
AcDbLine
 10
204.343533
 20
356.267108
 30
0.0
 11
204.343533
 21
346.267108
 31
0.0
  0
LINE
  5
982F
330
9802
100
AcDbEntity
  8
1
  6
Continuous
100
AcDbLine
 10
141.343533
 20
319.767108
 30
0.0
 11
141.343533
 21
354.767108
 31
0.0
  0
LINE
  5
9830
330
9802
100
AcDbEntity
  8
1
  6
Continuous
100
AcDbLine
 10
144.843533
 20
316.2671079999999
 30
0.0
 11
152.843533
 21
316.2671079999999
 31
0.0
  0
LINE
  5
9831
330
9802
100
AcDbEntity
  8
1
  6
Continuous
100
AcDbLine
 10
157.322435
 20
319.938758
 30
0.0
 11
155.6583019999998
 21
317.686935
 31
0.0
  0
LINE
  5
9832
330
9802
100
AcDbEntity
  8
4
  6
CENTER
100
AcDbLine
 10
153.343533
 20
323.267108
 30
0.0
 11
143.343533
 21
323.267108
 31
0.0
  0
LINE
  5
9833
330
9802
100
AcDbEntity
  8
4
  6
CENTER
100
AcDbLine
 10
148.343533
 20
318.2671079999999
 30
0.0
 11
148.343533
 21
328.267108
 31
0.0
  0
LINE
  5
9834
330
9802
100
AcDbEntity
  8
1
  6
Continuous
100
AcDbLine
 10
211.343533
 20
319.767108
 30
0.0
 11
211.343533
 21
354.767108
 31
0.0
  0
LINE
  5
9835
330
9802
100
AcDbEntity
  8
1
  6
Continuous
100
AcDbLine
 10
207.843533
 20
316.2671079999999
 30
0.0
 11
199.843533
 21
316.2671079999999
 31
0.0
  0
LINE
  5
9836
330
9802
100
AcDbEntity
  8
1
  6
Continuous
100
AcDbLine
 10
195.364632
 20
319.938769
 30
0.0
 11
197.0287669999999
 21
317.686942
 31
0.0
  0
LINE
  5
9837
330
9802
100
AcDbEntity
  8
4
  6
CENTER
100
AcDbLine
 10
199.343533
 20
323.267108
 30
0.0
 11
209.343533
 21
323.267108
 31
0.0
  0
LINE
  5
9838
330
9802
100
AcDbEntity
  8
4
  6
CENTER
100
AcDbLine
 10
204.343533
 20
318.2671079999999
 30
0.0
 11
204.343533
 21
328.267108
 31
0.0
  0
LINE
  5
9839
330
9802
100
AcDbEntity
  8
4
  6
CENTER
100
AcDbLine
 10
176.343533
 20
252.52699
 30
0.0
 11
176.343533
 21
149.6671169999999
 31
0.0
  0
LINE
  5
983A
330
9802
100
AcDbEntity
  8
4
  6
CENTER
100
AcDbLine
 10
133.843533
 20
192.267108
 30
0.0
 11
218.843533
 21
192.267108
 31
0.0
  0
LINE
  5
983B
330
9802
100
AcDbEntity
  8
1
  6
Continuous
100
AcDbLine
 10
141.343533
 20
246.767108
 30
0.0
 11
211.343533
 21
246.767108
 31
0.0
  0
LINE
  5
983C
330
9802
100
AcDbEntity
  8
1
  6
Continuous
100
AcDbLine
 10
141.343533
 20
244.4671079999999
 30
0.0
 11
155.191346
 21
244.4671079999999
 31
0.0
  0
LINE
  5
983D
330
9802
100
AcDbEntity
  8
1
  6
Continuous
100
AcDbLine
 10
141.343533
 20
246.767108
 30
0.0
 11
141.343533
 21
244.4671079999999
 31
0.0
  0
LINE
  5
983E
330
9802
100
AcDbEntity
  8
1
  6
Continuous
100
AcDbLine
 10
155.958075
 20
244.109077
 30
0.0
 11
159.1715
 21
240.271157
 31
0.0
  0
LINE
  5
983F
330
9802
100
AcDbEntity
  8
4
  6
CENTER
100
AcDbLine
 10
148.343533
 20
251.7671079999999
 30
0.0
 11
148.343533
 21
239.467108
 31
0.0
  0
LINE
  5
9840
330
9802
100
AcDbEntity
  8
1
  6
Continuous
100
AcDbLine
 10
211.343533
 20
244.4671079999999
 30
0.0
 11
197.49572
 21
244.4671079999999
 31
0.0
  0
LINE
  5
9841
330
9802
100
AcDbEntity
  8
1
  6
Continuous
100
AcDbLine
 10
211.343533
 20
246.767108
 30
0.0
 11
211.343533
 21
244.4671079999999
 31
0.0
  0
LINE
  5
9842
330
9802
100
AcDbEntity
  8
1
  6
Continuous
100
AcDbLine
 10
196.7289889999999
 20
244.109079
 30
0.0
 11
193.5155639999999
 21
240.271159
 31
0.0
  0
LINE
  5
9843
330
9802
100
AcDbEntity
  8
4
  6
CENTER
100
AcDbLine
 10
204.343533
 20
251.7671079999999
 30
0.0
 11
204.343533
 21
239.467108
 31
0.0
  0
LINE
  5
9844
330
9802
100
AcDbEntity
  8
1
  6
Continuous
100
AcDbLine
 10
167.4550419999999
 20
190.854754
 30
0.0
 11
159.8341409999999
 21
238.816035
 31
0.0
  0
LINE
  5
9845
330
9802
100
AcDbEntity
  8
1
  6
Continuous
100
AcDbLine
 10
192.852944
 20
238.816029
 30
0.0
 11
185.2320409999999
 21
190.8547429999999
 31
0.0
  0
LINE
  5
9846
330
9802
100
AcDbEntity
  8
1
  6
Continuous
100
AcDbLine
 10
25.34353299999999
 20
246.767108
 30
0.0
 11
67.34353299999999
 21
246.767108
 31
0.0
  0
LINE
  5
9847
330
9802
100
AcDbEntity
  8
1
  6
Continuous
100
AcDbLine
 10
25.34353299999999
 20
244.4671079999999
 30
0.0
 11
67.34353299999999
 21
244.4671079999999
 31
0.0
  0
LINE
  5
9848
330
9802
100
AcDbEntity
  8
1
  6
Continuous
100
AcDbLine
 10
25.34353299999999
 20
246.767108
 30
0.0
 11
25.34353299999999
 21
244.4671079999999
 31
0.0
  0
LINE
  5
9849
330
9802
100
AcDbEntity
  8
1
  6
Continuous
100
AcDbLine
 10
33.343533
 20
244.4671079999999
 30
0.0
 11
33.343533
 21
184.7671079999997
 31
0.0
  0
LINE
  5
984A
330
9802
100
AcDbEntity
  8
1
  6
Continuous
100
AcDbLine
 10
59.34353299999999
 20
244.4671079999999
 30
0.0
 11
59.34353299999999
 21
192.267108
 31
0.0
  0
LINE
  5
984B
330
9802
100
AcDbEntity
  8
1
  6
Continuous
100
AcDbLine
 10
31.043533
 20
184.7671079999997
 30
0.0
 11
33.343533
 21
184.7671079999997
 31
0.0
  0
LINE
  5
984C
330
9802
100
AcDbEntity
  8
1
  6
Continuous
100
AcDbLine
 10
61.643536
 20
184.7671079999997
 30
0.0
 11
59.34353299999999
 21
184.7671079999997
 31
0.0
  0
LINE
  5
984D
330
9802
100
AcDbEntity
  8
4
  6
CENTER
100
AcDbLine
 10
19.44353299999998
 20
192.267108
 30
0.0
 11
69.64353599999999
 21
192.267108
 31
0.0
  0
LINE
  5
984E
330
9802
100
AcDbEntity
  8
4
  6
CENTER
100
AcDbLine
 10
60.34353299999999
 20
251.7671079999999
 30
0.0
 11
60.34353299999999
 21
239.467108
 31
0.0
  0
LINE
  5
984F
330
9802
100
AcDbEntity
  8
1
  6
Continuous
100
AcDbLine
 10
33.343533
 20
195.517108
 30
0.0
 11
34.343533
 21
195.517108
 31
0.0
  0
LINE
  5
9850
330
9802
100
AcDbEntity
  8
1
  6
Continuous
100
AcDbLine
 10
33.343533
 20
189.017108
 30
0.0
 11
34.343533
 21
189.017108
 31
0.0
  0
LINE
  5
9851
330
9802
100
AcDbEntity
  8
4
  6
CENTER
100
AcDbLine
 10
32.343533
 20
251.7671079999999
 30
0.0
 11
32.343533
 21
239.467108
 31
0.0
  0
LINE
  5
9852
330
9802
100
AcDbEntity
  8
1
  6
Continuous
100
AcDbLine
 10
31.043533
 20
242.4671079999999
 30
0.0
 11
31.043533
 21
184.7671079999997
 31
0.0
  0
LINE
  5
9853
330
9802
100
AcDbEntity
  8
1
  6
Continuous
100
AcDbLine
 10
61.643536
 20
242.4671079999999
 30
0.0
 11
61.643536
 21
184.7671079999997
 31
0.0
  0
LINE
  5
9854
330
9802
100
AcDbEntity
  8
4
  6
CENTER
100
AcDbLine
 10
46.34353299999999
 20
251.7671079999999
 30
0.0
 11
46.34353299999999
 21
149.7595929999999
 31
0.0
  0
LINE
  5
9855
330
9802
100
AcDbEntity
  8
1
  6
Continuous
100
AcDbLine
 10
67.34353299999999
 20
246.767108
 30
0.0
 11
67.34353299999999
 21
244.4671079999999
 31
0.0
  0
LINE
  5
9856
330
9802
100
AcDbEntity
  8
1
  6
Continuous
100
AcDbLine
 10
59.34353299999999
 20
192.267108
 30
0.0
 11
59.34353299999999
 21
184.7671079999997
 31
0.0
  0
LINE
  5
9857
330
9802
100
AcDbEntity
  8
1
  6
Continuous
100
AcDbLine
 10
64.64353599999999
 20
196.2671079999998
 30
0.0
 11
64.64353599999999
 21
188.267108
 31
0.0
  0
LINE
  5
9858
330
9802
100
AcDbEntity
  8
1
  6
Continuous
100
AcDbLine
 10
61.643536
 20
186.267108
 30
0.0
 11
62.64353599999999
 21
186.267108
 31
0.0
  0
LINE
  5
9859
330
9802
100
AcDbEntity
  8
1
  6
Continuous
100
AcDbLine
 10
61.643536
 20
198.267108
 30
0.0
 11
62.64353599999999
 21
198.267108
 31
0.0
  0
LINE
  5
985A
330
9802
100
AcDbEntity
  8
1
  6
Continuous
100
AcDbLine
 10
30.643533
 20
197.867106
 30
0.0
 11
27.443533
 21
197.867106
 31
0.0
  0
LINE
  5
985B
330
9802
100
AcDbEntity
  8
1
  6
Continuous
100
AcDbLine
 10
30.643533
 20
195.267108
 30
0.0
 11
27.443533
 21
195.267108
 31
0.0
  0
LINE
  5
985C
330
9802
100
AcDbEntity
  8
1
  6
Continuous
100
AcDbLine
 10
26.44353300000001
 20
196.067111
 30
0.0
 11
26.44353300000001
 21
188.4671129999999
 31
0.0
  0
LINE
  5
985D
330
9802
100
AcDbEntity
  8
1
  6
Continuous
100
AcDbLine
 10
30.643533
 20
186.6671099999997
 30
0.0
 11
27.443533
 21
186.6671099999997
 31
0.0
  0
LINE
  5
985E
330
9802
100
AcDbEntity
  8
1
  6
Continuous
100
AcDbLine
 10
30.56673299999999
 20
189.267108
 30
0.0
 11
27.443533
 21
189.267108
 31
0.0
  0
LINE
  5
985F
330
9802
100
AcDbEntity
  8
1
  6
Continuous
100
AcDbLine
 10
26.44353300000001
 20
188.467029
 30
0.0
 11
27.443533
 21
186.6671099999997
 31
0.0
  0
LINE
  5
9860
330
9802
100
AcDbEntity
  8
1
  6
Continuous
100
AcDbLine
 10
26.44352299999999
 20
196.0671419999999
 30
0.0
 11
27.443523
 21
197.8671139999999
 31
0.0
  0
LINE
  5
9861
330
9802
100
AcDbEntity
  8
1
  6
Continuous
100
AcDbLine
 10
178.843533
 20
351.5671109999999
 30
0.0
 11
178.843533
 21
349.267108
 31
0.0
  0
LINE
  5
9862
330
9802
100
AcDbEntity
  8
1
  6
Continuous
100
AcDbLine
 10
178.843533
 20
322.9671009999999
 30
0.0
 11
178.843533
 21
325.267104
 31
0.0
  0
LINE
  5
9863
330
9802
100
AcDbEntity
  8
1
  6
Continuous
100
AcDbLine
 10
173.843533
 20
322.9671009999999
 30
0.0
 11
173.843533
 21
325.267104
 31
0.0
  0
LINE
  5
9864
330
9802
100
AcDbEntity
  8
1
  6
Continuous
100
AcDbLine
 10
173.843533
 20
323.4671009999999
 30
0.0
 11
178.843533
 21
323.4671009999999
 31
0.0
  0
LINE
  5
9865
330
9802
100
AcDbEntity
  8
1
  6
Continuous
100
AcDbLine
 10
173.843533
 20
351.5671109999999
 30
0.0
 11
173.843533
 21
349.267108
 31
0.0
  0
LINE
  5
9866
330
9802
100
AcDbEntity
  8
1
  6
Continuous
100
AcDbLine
 10
173.843533
 20
351.067111
 30
0.0
 11
178.843533
 21
351.067111
 31
0.0
  0
LINE
  5
9867
330
9802
100
AcDbEntity
  8
1
  6
Continuous
100
AcDbLine
 10
178.843533
 20
234.267108
 30
0.0
 11
178.843533
 21
245.767108
 31
0.0
  0
LINE
  5
9868
330
9802
100
AcDbEntity
  8
1
  6
Continuous
100
AcDbLine
 10
178.843533
 20
245.267107
 30
0.0
 11
173.843533
 21
245.267107
 31
0.0
  0
LINE
  5
9869
330
9802
100
AcDbEntity
  8
1
  6
Continuous
100
AcDbLine
 10
173.843533
 20
234.267108
 30
0.0
 11
173.843533
 21
245.767108
 31
0.0
  0
LINE
  5
986A
330
9802
100
AcDbEntity
  8
1
  6
Continuous
100
AcDbLine
 10
57.64353599999999
 20
243.467108
 30
0.0
 11
57.64353599999999
 21
231.267108
 31
0.0
  0
LINE
  5
986B
330
9802
100
AcDbEntity
  8
1
  6
Continuous
100
AcDbLine
 10
35.043533
 20
243.467108
 30
0.0
 11
35.043533
 21
231.267108
 31
0.0
  0
LINE
  5
986C
330
9802
100
AcDbEntity
  8
1
  6
Continuous
100
AcDbLine
 10
58.343533
 20
195.517108
 30
0.0
 11
59.34353299999999
 21
195.517108
 31
0.0
  0
LINE
  5
986D
330
9802
100
AcDbEntity
  8
1
  6
Continuous
100
AcDbLine
 10
58.343533
 20
189.017108
 30
0.0
 11
59.34353299999999
 21
189.017108
 31
0.0
  0
CIRCLE
  5
986E
330
9802
100
AcDbEntity
  8
1
  6
Continuous
100
AcDbCircle
 10
176.343533
 20
337.2671079999999
 30
0.0
 40
5.5
  0
ARC
  5
986F
330
9802
100
AcDbEntity
  8
1
  6
Continuous
100
AcDbCircle
 10
144.843533
 20
354.767108
 30
0.0
 40
3.5
100
AcDbArc
 50
89.99998199999996
 51
179.9999599999999
  0
ARC
  5
9870
330
9802
100
AcDbEntity
  8
1
  6
Continuous
100
AcDbCircle
 10
152.843533
 20
354.767108
 30
0.0
 40
3.5
100
AcDbArc
 50
36.465031
 51
89.99998199999996
  0
ARC
  5
9871
330
9802
100
AcDbEntity
  8
1
  6
Continuous
100
AcDbCircle
 10
161.343533
 20
357.567111
 30
0.0
 40
5.0
100
AcDbArc
 50
216.46501
 51
270.00002
  0
CIRCLE
  5
9872
330
9802
100
AcDbEntity
  8
1
  6
Continuous
100
AcDbCircle
 10
148.343533
 20
351.267108
 30
0.0
 40
3.25
  0
ARC
  5
9873
330
9802
100
AcDbEntity
  8
1
  6
Continuous
100
AcDbCircle
 10
207.843533
 20
354.767108
 30
0.0
 40
3.5
100
AcDbArc
 50
0.0
 51
89.99998199999996
  0
ARC
  5
9874
330
9802
100
AcDbEntity
  8
1
  6
Continuous
100
AcDbCircle
 10
199.843533
 20
354.767108
 30
0.0
 40
3.5
100
AcDbArc
 50
89.99998199999996
 51
143.5349399999997
  0
ARC
  5
9875
330
9802
100
AcDbEntity
  8
1
  6
Continuous
100
AcDbCircle
 10
191.343533
 20
357.567111
 30
0.0
 40
5.0
100
AcDbArc
 50
269.9999599999998
 51
323.5349699999998
  0
CIRCLE
  5
9876
330
9802
100
AcDbEntity
  8
1
  6
Continuous
100
AcDbCircle
 10
204.343533
 20
351.267108
 30
0.0
 40
3.25
  0
ARC
  5
9877
330
9802
100
AcDbEntity
  8
1
  6
Continuous
100
AcDbCircle
 10
144.843533
 20
319.767108
 30
0.0
 40
3.5
100
AcDbArc
 50
179.9999799999999
 51
269.99997
  0
ARC
  5
9878
330
9802
100
AcDbEntity
  8
1
  6
Continuous
100
AcDbCircle
 10
152.843533
 20
319.767108
 30
0.0
 40
3.5
100
AcDbArc
 50
269.9999599999998
 51
323.53491
  0
ARC
  5
9879
330
9802
100
AcDbEntity
  8
1
  6
Continuous
100
AcDbCircle
 10
161.343533
 20
316.967105
 30
0.0
 40
5.0
100
AcDbArc
 50
89.99992699999998
 51
143.5349399999997
  0
CIRCLE
  5
987A
330
9802
100
AcDbEntity
  8
1
  6
Continuous
100
AcDbCircle
 10
148.343533
 20
323.267108
 30
0.0
 40
3.25
  0
ARC
  5
987B
330
9802
100
AcDbEntity
  8
1
  6
Continuous
100
AcDbCircle
 10
207.843533
 20
319.767108
 30
0.0
 40
3.5
100
AcDbArc
 50
269.9999599999998
 51
359.99995
  0
ARC
  5
987C
330
9802
100
AcDbEntity
  8
1
  6
Continuous
100
AcDbCircle
 10
199.843533
 20
319.767108
 30
0.0
 40
3.5
100
AcDbArc
 50
216.46501
 51
269.9999599999998
  0
ARC
  5
987D
330
9802
100
AcDbEntity
  8
1
  6
Continuous
100
AcDbCircle
 10
191.343533
 20
316.967105
 30
0.0
 40
5.0
100
AcDbArc
 50
36.464959
 51
89.99996800000003
  0
CIRCLE
  5
987E
330
9802
100
AcDbEntity
  8
1
  6
Continuous
100
AcDbCircle
 10
204.343533
 20
323.267108
 30
0.0
 40
3.25
  0
CIRCLE
  5
987F
330
9802
100
AcDbEntity
  8
1
  6
Continuous
100
AcDbCircle
 10
176.343533
 20
192.267108
 30
0.0
 40
5.5
  0
ARC
  5
9880
330
9802
100
AcDbEntity
  8
1
  6
Continuous
100
AcDbCircle
 10
156.8713119999999
 20
238.345249
 30
0.0
 40
3.0
100
AcDbArc
 50
9.028648999999999
 51
39.93885199999999
  0
ARC
  5
9881
330
9802
100
AcDbEntity
  8
1
  6
Continuous
100
AcDbCircle
 10
195.815754
 20
238.345249
 30
0.0
 40
3.0
100
AcDbArc
 50
140.0611199999999
 51
170.97137
  0
ARC
  5
9882
330
9802
100
AcDbEntity
  8
1
  6
Continuous
100
AcDbCircle
 10
176.343533
 20
192.267108
 30
0.0
 40
9.0
100
AcDbArc
 50
189.0286199999999
 51
350.97136
  0
ARC
  5
9883
330
9802
100
AcDbEntity
  8
1
  6
Continuous
100
AcDbCircle
 10
155.191346
 20
243.467108
 30
0.0
 40
1.0
100
AcDbArc
 50
39.93887500000001
 51
89.99998199999996
  0
ARC
  5
9884
330
9802
100
AcDbEntity
  8
1
  6
Continuous
100
AcDbCircle
 10
197.49572
 20
243.467108
 30
0.0
 40
1.0
100
AcDbArc
 50
89.99998199999996
 51
140.0610899999997
  0
ARC
  5
9885
330
9802
100
AcDbEntity
  8
1
  6
Continuous
100
AcDbCircle
 10
29.043533
 20
242.4671079999999
 30
0.0
 40
2.0
100
AcDbArc
 50
0.0
 51
89.99998199999996
  0
ARC
  5
9886
330
9802
100
AcDbEntity
  8
1
  6
Continuous
100
AcDbCircle
 10
29.343533
 20
240.4671079999999
 30
0.0
 40
4.0
100
AcDbArc
 50
0.0
 51
89.99998199999996
  0
ARC
  5
9887
330
9802
100
AcDbEntity
  8
1
  6
Continuous
100
AcDbCircle
 10
63.343533
 20
240.4671079999999
 30
0.0
 40
4.0
100
AcDbArc
 50
89.99998199999996
 51
179.9999599999999
  0
ARC
  5
9888
330
9802
100
AcDbEntity
  8
1
  6
Continuous
100
AcDbCircle
 10
63.643536
 20
242.4671079999999
 30
0.0
 40
2.0
100
AcDbArc
 50
89.99998199999996
 51
179.9999599999999
  0
ARC
  5
9889
330
9802
100
AcDbEntity
  8
1
  6
Continuous
100
AcDbCircle
 10
62.64353599999999
 20
196.2671079999998
 30
0.0
 40
2.0
100
AcDbArc
 50
0.0
 51
89.99998199999996
  0
ARC
  5
988A
330
9802
100
AcDbEntity
  8
1
  6
Continuous
100
AcDbCircle
 10
62.64353599999999
 20
188.267108
 30
0.0
 40
2.0
100
AcDbArc
 50
270.00002
 51
0.0
  0
ARC
  5
988B
330
9802
100
AcDbEntity
  8
1
  6
Continuous
100
AcDbCircle
 10
28.731033
 20
187.9671049999998
 30
0.0
 40
2.3125
100
AcDbArc
 50
325.79449
 51
34.20541
  0
ARC
  5
988C
330
9802
100
AcDbEntity
  8
1
  6
Continuous
100
AcDbCircle
 10
19.59353299999998
 20
192.267108
 30
0.0
 40
11.450001
100
AcDbArc
 50
344.8107199999999
 51
15.189285
  0
ARC
  5
988D
330
9802
100
AcDbEntity
  8
1
  6
Continuous
100
AcDbCircle
 10
28.731033
 20
196.567111
 30
0.0
 40
2.3125
100
AcDbArc
 50
325.79455
 51
34.205461
  0
ARC
  5
988E
330
9802
100
AcDbEntity
  8
1
  6
Continuous
100
AcDbCircle
 10
29.356033
 20
196.567111
 30
0.0
 40
2.312498999999998
100
AcDbArc
 50
145.7945499999999
 51
214.2054299999998
  0
ARC
  5
988F
330
9802
100
AcDbEntity
  8
1
  6
Continuous
100
AcDbCircle
 10
38.49352299999999
 20
192.267108
 30
0.0
 40
11.44999799999999
100
AcDbArc
 50
164.81073
 51
195.1892499999999
  0
ARC
  5
9890
330
9802
100
AcDbEntity
  8
1
  6
Continuous
100
AcDbCircle
 10
29.356033
 20
187.967113
 30
0.0
 40
2.312498999999998
100
AcDbArc
 50
145.7945499999999
 51
214.2054299999998
  0
ARC
  5
9891
330
9802
100
AcDbEntity
  8
1
  6
Continuous
100
AcDbCircle
 10
172.843533
 20
351.5671109999999
 30
0.0
 40
1.0
100
AcDbArc
 50
359.9999899999998
 51
90.00000300000001
  0
ARC
  5
9892
330
9802
100
AcDbEntity
  8
1
  6
Continuous
100
AcDbCircle
 10
176.343533
 20
349.267108
 30
0.0
 40
2.499998999999998
100
AcDbArc
 50
179.9999899999999
 51
0.00001
  0
ARC
  5
9893
330
9802
100
AcDbEntity
  8
1
  6
Continuous
100
AcDbCircle
 10
179.843533
 20
322.9671009999999
 30
0.0
 40
1.0
100
AcDbArc
 50
179.9999899999999
 51
270.0
  0
ARC
  5
9894
330
9802
100
AcDbEntity
  8
1
  6
Continuous
100
AcDbCircle
 10
172.843533
 20
322.9671009999999
 30
0.0
 40
1.0
100
AcDbArc
 50
270.0
 51
0.000005
  0
ARC
  5
9895
330
9802
100
AcDbEntity
  8
1
  6
Continuous
100
AcDbCircle
 10
179.843533
 20
351.5671109999999
 30
0.0
 40
1.0
100
AcDbArc
 50
89.99999599999998
 51
180.00001
  0
ARC
  5
9896
330
9802
100
AcDbEntity
  8
1
  6
Continuous
100
AcDbCircle
 10
176.343533
 20
325.267104
 30
0.0
 40
2.499998999999998
100
AcDbArc
 50
359.9999899999998
 51
180.00001
  0
ARC
  5
9897
330
9802
100
AcDbEntity
  8
1
  6
Continuous
100
AcDbCircle
 10
179.843533
 20
245.767108
 30
0.0
 40
1.0
100
AcDbArc
 50
89.99999599999998
 51
180.00001
  0
ARC
  5
9898
330
9802
100
AcDbEntity
  8
1
  6
Continuous
100
AcDbCircle
 10
172.843533
 20
245.767108
 30
0.0
 40
1.0
100
AcDbArc
 50
0.0
 51
90.00000300000001
  0
ARC
  5
9899
330
9802
100
AcDbEntity
  8
1
  6
Continuous
100
AcDbCircle
 10
36.04353299999999
 20
243.467108
 30
0.0
 40
1.0
100
AcDbArc
 50
90.00000300000001
 51
180.00001
  0
ARC
  5
989A
330
9802
100
AcDbEntity
  8
1
  6
Continuous
100
AcDbCircle
 10
56.643536
 20
243.467108
 30
0.0
 40
1.0
100
AcDbArc
 50
0.0
 51
90.00000300000001
  0
ARC
  5
989B
330
9802
100
AcDbEntity
  8
1
  6
Continuous
100
AcDbCircle
 10
62.64353599999999
 20
231.267108
 30
0.0
 40
5.0
100
AcDbArc
 50
179.9999899999999
 51
228.70007
  0
ARC
  5
989C
330
9802
100
AcDbEntity
  8
1
  6
Continuous
100
AcDbCircle
 10
30.043533
 20
231.267108
 30
0.0
 40
5.0
100
AcDbArc
 50
311.2999199999998
 51
0.0
  0
ARC
  5
989D
330
9802
100
AcDbEntity
  8
1
  6
Continuous
100
AcDbCircle
 10
176.343533
 20
234.267108
 30
0.0
 40
2.5
100
AcDbArc
 50
179.9999899999999
 51
0.00001
  0
LINE
  5
989E
330
9802
100
AcDbEntity
  8
1
  6
Continuous
100
AcDbLine
 10
161.343533
 20
321.967105
 30
0.0
 11
191.343533
 21
321.967105
 31
0.0
  0
LINE
  5
989F
330
9802
100
AcDbEntity
  8
1
  6
Continuous
100
AcDbLine
 10
419.8341219999998
 20
238.816029
 30
0.0
 11
427.4550249999998
 21
190.8547429999999
 31
0.0
  0
LINE
  5
98A0
330
9802
100
AcDbEntity
  8
1
  6
Continuous
100
AcDbLine
 10
445.232024
 20
190.854754
 30
0.0
 11
452.852925
 21
238.816035
 31
0.0
  0
LINE
  5
98A1
330
9802
100
AcDbEntity
  8
4
  6
CENTER
100
AcDbLine
 10
436.3435329999998
 20
251.7671079999999
 30
0.0
 11
436.3435329999998
 21
149.6671169999999
 31
0.0
  0
LINE
  5
98A2
330
9802
100
AcDbEntity
  8
4
  6
CENTER
100
AcDbLine
 10
478.8435329999998
 20
192.267108
 30
0.0
 11
393.8435329999999
 21
192.267108
 31
0.0
  0
ARC
  5
98A3
330
9802
100
AcDbEntity
  8
1
  6
Continuous
100
AcDbCircle
 10
436.3435329999998
 20
192.267108
 30
0.0
 40
9.0
100
AcDbArc
 50
189.0286399999999
 51
350.9713799999998
  0
LINE
  5
98A4
330
9802
100
AcDbEntity
  8
1
  6
Continuous
100
AcDbLine
 10
471.343533
 20
246.767108
 30
0.0
 11
401.343533
 21
246.767108
 31
0.0
  0
LINE
  5
98A5
330
9802
100
AcDbEntity
  8
1
  6
Continuous
100
AcDbLine
 10
471.343533
 20
244.4671079999999
 30
0.0
 11
457.49572
 21
244.4671079999999
 31
0.0
  0
LINE
  5
98A6
330
9802
100
AcDbEntity
  8
4
  6
CENTER
100
AcDbLine
 10
464.3435329999999
 20
251.7671079999999
 30
0.0
 11
464.3435329999999
 21
239.467108
 31
0.0
  0
LINE
  5
98A7
330
9802
100
AcDbEntity
  8
1
  6
Continuous
100
AcDbLine
 10
471.343533
 20
246.767108
 30
0.0
 11
471.343533
 21
244.4671079999999
 31
0.0
  0
ARC
  5
98A8
330
9802
100
AcDbEntity
  8
1
  6
Continuous
100
AcDbCircle
 10
457.49572
 20
243.467108
 30
0.0
 40
1.0
100
AcDbArc
 50
90.00001800000005
 51
140.061125
  0
ARC
  5
98A9
330
9802
100
AcDbEntity
  8
1
  6
Continuous
100
AcDbCircle
 10
455.815754
 20
238.345249
 30
0.0
 40
3.0
100
AcDbArc
 50
140.061148
 51
170.971351
  0
LINE
  5
98AA
330
9802
100
AcDbEntity
  8
1
  6
Continuous
100
AcDbLine
 10
456.728991
 20
244.109077
 30
0.0
 11
453.515566
 21
240.271157
 31
0.0
  0
ARC
  5
98AB
330
9802
100
AcDbEntity
  8
1
  6
Continuous
100
AcDbCircle
 10
436.3435329999998
 20
234.267108
 30
0.0
 40
2.5
100
AcDbArc
 50
179.9999899999999
 51
0.00001
  0
ARC
  5
98AC
330
9802
100
AcDbEntity
  8
1
  6
Continuous
100
AcDbCircle
 10
439.8435329999998
 20
245.767108
 30
0.0
 40
1.0
100
AcDbArc
 50
89.99999700000001
 51
180.0
  0
ARC
  5
98AD
330
9802
100
AcDbEntity
  8
1
  6
Continuous
100
AcDbCircle
 10
432.8435329999998
 20
245.767108
 30
0.0
 40
1.0
100
AcDbArc
 50
359.9999899999998
 51
90.00000400000002
  0
LINE
  5
98AE
330
9802
100
AcDbEntity
  8
1
  6
Continuous
100
AcDbLine
 10
438.843533
 20
234.267108
 30
0.0
 11
438.843533
 21
245.767108
 31
0.0
  0
LINE
  5
98AF
330
9802
100
AcDbEntity
  8
1
  6
Continuous
100
AcDbLine
 10
433.843533
 20
245.267107
 30
0.0
 11
438.843533
 21
245.267107
 31
0.0
  0
LINE
  5
98B0
330
9802
100
AcDbEntity
  8
1
  6
Continuous
100
AcDbLine
 10
433.843533
 20
234.267108
 30
0.0
 11
433.843533
 21
245.767108
 31
0.0
  0
LINE
  5
98B1
330
9802
100
AcDbEntity
  8
1
  6
Continuous
100
AcDbLine
 10
401.343533
 20
244.4671079999999
 30
0.0
 11
415.191346
 21
244.4671079999999
 31
0.0
  0
ARC
  5
98B2
330
9802
100
AcDbEntity
  8
1
  6
Continuous
100
AcDbCircle
 10
415.191346
 20
243.467108
 30
0.0
 40
1.0
100
AcDbArc
 50
39.93890999999999
 51
90.00001800000005
  0
ARC
  5
98B3
330
9802
100
AcDbEntity
  8
1
  6
Continuous
100
AcDbCircle
 10
416.8713119999998
 20
238.345249
 30
0.0
 40
3.0
100
AcDbArc
 50
9.028629999999999
 51
39.93888
  0
LINE
  5
98B4
330
9802
100
AcDbEntity
  8
1
  6
Continuous
100
AcDbLine
 10
415.9580769999998
 20
244.109079
 30
0.0
 11
419.171502
 21
240.271159
 31
0.0
  0
LINE
  5
98B5
330
9802
100
AcDbEntity
  8
4
  6
CENTER
100
AcDbLine
 10
408.3435329999998
 20
251.7671079999999
 30
0.0
 11
408.3435329999998
 21
239.467108
 31
0.0
  0
LINE
  5
98B6
330
9802
100
AcDbEntity
  8
1
  6
Continuous
100
AcDbLine
 10
401.343533
 20
246.767108
 30
0.0
 11
401.343533
 21
244.4671079999999
 31
0.0
  0
ARC
  5
98B7
330
9802
100
AcDbEntity
  8
1
  6
Continuous
100
AcDbCircle
 10
199.843533
 20
81.76710799999998
 30
0.0
 40
3.5
100
AcDbArc
 50
90.00004000000002
 51
143.53499
  0
ARC
  5
98B8
330
9802
100
AcDbEntity
  8
1
  6
Continuous
100
AcDbCircle
 10
207.843533
 20
81.76710799999998
 30
0.0
 40
3.5
100
AcDbArc
 50
0.00005
 51
90.00004000000002
  0
ARC
  5
98B9
330
9802
100
AcDbEntity
  8
1
  6
Continuous
100
AcDbCircle
 10
152.843533
 20
81.76710799999998
 30
0.0
 40
3.5
100
AcDbArc
 50
36.46509
 51
90.00004000000002
  0
ARC
  5
98BA
330
9802
100
AcDbEntity
  8
1
  6
Continuous
100
AcDbCircle
 10
144.843533
 20
81.76710799999998
 30
0.0
 40
3.5
100
AcDbArc
 50
90.00003000000004
 51
180.00002
  0
LINE
  5
98BB
330
9802
100
AcDbEntity
  8
1
  6
Continuous
100
AcDbLine
 10
144.843533
 20
85.26710799999998
 30
0.0
 11
152.843533
 21
85.26710799999998
 31
0.0
  0
LINE
  5
98BC
330
9802
100
AcDbEntity
  8
1
  6
Continuous
100
AcDbLine
 10
207.843533
 20
85.26710799999998
 30
0.0
 11
199.843533
 21
85.26710799999998
 31
0.0
  0
LINE
  5
98BD
330
9802
100
AcDbEntity
  8
1
  6
Continuous
100
AcDbLine
 10
161.343533
 20
79.56711099999998
 30
0.0
 11
191.343533
 21
79.56711099999998
 31
0.0
  0
LINE
  5
98BE
330
9802
100
AcDbEntity
  8
1
  6
Continuous
100
AcDbLine
 10
161.343533
 20
48.967105
 30
0.0
 11
191.343533
 21
48.967105
 31
0.0
  0
LINE
  5
98BF
330
9802
100
AcDbEntity
  8
4
  6
CENTER
100
AcDbLine
 10
133.843533
 20
64.26710799999999
 30
0.0
 11
218.843533
 21
64.26710799999999
 31
0.0
  0
ARC
  5
98C0
330
9802
100
AcDbEntity
  8
1
  6
Continuous
100
AcDbCircle
 10
152.843533
 20
46.767108
 30
0.0
 40
3.5
100
AcDbArc
 50
270.0000179999999
 51
323.534969
  0
LINE
  5
98C1
330
9802
100
AcDbEntity
  8
1
  6
Continuous
100
AcDbLine
 10
141.343533
 20
81.76710799999998
 30
0.0
 11
141.343533
 21
74.75032
 31
0.0
  0
CIRCLE
  5
98C2
330
9802
100
AcDbEntity
  8
1
  6
Continuous
100
AcDbCircle
 10
148.343533
 20
78.26710799999998
 30
0.0
 40
3.25
  0
LINE
  5
98C3
330
9802
100
AcDbEntity
  8
4
  6
CENTER
100
AcDbLine
 10
148.343533
 20
83.26710799999998
 30
0.0
 11
148.343533
 21
73.26710799999998
 31
0.0
  0
LINE
  5
98C4
330
9802
100
AcDbEntity
  8
4
  6
CENTER
100
AcDbLine
 10
153.343533
 20
78.26710799999998
 30
0.0
 11
143.343533
 21
78.26710799999998
 31
0.0
  0
CIRCLE
  5
98C5
330
9802
100
AcDbEntity
  8
1
  6
Continuous
100
AcDbCircle
 10
148.343533
 20
50.267108
 30
0.0
 40
3.25
  0
ARC
  5
98C6
330
9802
100
AcDbEntity
  8
1
  6
Continuous
100
AcDbCircle
 10
144.843533
 20
46.767108
 30
0.0
 40
3.5
100
AcDbArc
 50
180.0000399999998
 51
270.0000179999999
  0
LINE
  5
98C7
330
9802
100
AcDbEntity
  8
4
  6
CENTER
100
AcDbLine
 10
148.343533
 20
45.267108
 30
0.0
 11
148.343533
 21
55.267108
 31
0.0
  0
LINE
  5
98C8
330
9802
100
AcDbEntity
  8
4
  6
CENTER
100
AcDbLine
 10
153.343533
 20
50.267108
 30
0.0
 11
143.343533
 21
50.267108
 31
0.0
  0
LINE
  5
98C9
330
9802
100
AcDbEntity
  8
1
  6
Continuous
100
AcDbLine
 10
144.843533
 20
43.26710799999999
 30
0.0
 11
152.843533
 21
43.26710799999999
 31
0.0
  0
LINE
  5
98CA
330
9802
100
AcDbEntity
  8
4
  6
CENTER
100
AcDbLine
 10
176.343533
 20
37.367108
 30
0.0
 11
176.343533
 21
87.56711099999998
 31
0.0
  0
ARC
  5
98CB
330
9802
100
AcDbEntity
  8
1
  6
Continuous
100
AcDbCircle
 10
161.343533
 20
84.56711099999997
 30
0.0
 40
5.0
100
AcDbArc
 50
216.4650599999999
 51
270.0000729999998
  0
LINE
  5
98CC
330
9802
100
AcDbEntity
  8
1
  6
Continuous
100
AcDbLine
 10
157.322435
 20
81.59545799999998
 30
0.0
 11
155.6583019999998
 21
83.84728100000002
 31
0.0
  0
ARC
  5
98CD
330
9802
100
AcDbEntity
  8
1
  6
Continuous
100
AcDbCircle
 10
161.343533
 20
43.967105
 30
0.0
 40
5.0
100
AcDbArc
 50
89.99997999999996
 51
143.53499
  0
LINE
  5
98CE
330
9802
100
AcDbEntity
  8
1
  6
Continuous
100
AcDbLine
 10
157.322431
 20
46.938769
 30
0.0
 11
155.6583
 21
44.686946
 31
0.0
  0
LINE
  5
98CF
330
9802
100
AcDbEntity
  8
1
  6
Continuous
100
AcDbLine
 10
211.343533
 20
81.76710799999998
 30
0.0
 11
211.343533
 21
74.75032
 31
0.0
  0
CIRCLE
  5
98D0
330
9802
100
AcDbEntity
  8
1
  6
Continuous
100
AcDbCircle
 10
204.343533
 20
78.26710799999998
 30
0.0
 40
3.25
  0
LINE
  5
98D1
330
9802
100
AcDbEntity
  8
4
  6
CENTER
100
AcDbLine
 10
199.343533
 20
78.26710799999998
 30
0.0
 11
209.343533
 21
78.26710799999998
 31
0.0
  0
ARC
  5
98D2
330
9802
100
AcDbEntity
  8
1
  6
Continuous
100
AcDbCircle
 10
191.343533
 20
84.56711099999997
 30
0.0
 40
5.0
100
AcDbArc
 50
270.000032
 51
323.5350409999998
  0
LINE
  5
98D3
330
9802
100
AcDbEntity
  8
1
  6
Continuous
100
AcDbLine
 10
195.364632
 20
81.59544699999996
 30
0.0
 11
197.0287669999999
 21
83.847274
 31
0.0
  0
LINE
  5
98D4
330
9802
100
AcDbEntity
  8
4
  6
CENTER
100
AcDbLine
 10
204.343533
 20
83.26710799999998
 30
0.0
 11
204.343533
 21
73.26710799999998
 31
0.0
  0
CIRCLE
  5
98D5
330
9802
100
AcDbEntity
  8
1
  6
Continuous
100
AcDbCircle
 10
204.343533
 20
50.267108
 30
0.0
 40
3.25
  0
LINE
  5
98D6
330
9802
100
AcDbEntity
  8
4
  6
CENTER
100
AcDbLine
 10
199.343533
 20
50.267108
 30
0.0
 11
209.343533
 21
50.267108
 31
0.0
  0
LINE
  5
98D7
330
9802
100
AcDbEntity
  8
1
  6
Continuous
100
AcDbLine
 10
207.843533
 20
43.26710799999999
 30
0.0
 11
199.843533
 21
43.26710799999999
 31
0.0
  0
ARC
  5
98D8
330
9802
100
AcDbEntity
  8
1
  6
Continuous
100
AcDbCircle
 10
191.343533
 20
43.967105
 30
0.0
 40
5.0
100
AcDbArc
 50
36.46503
 51
90.00004000000002
  0
ARC
  5
98D9
330
9802
100
AcDbEntity
  8
1
  6
Continuous
100
AcDbCircle
 10
199.843533
 20
46.767108
 30
0.0
 40
3.5
100
AcDbArc
 50
216.4650599999999
 51
270.0000179999999
  0
LINE
  5
98DA
330
9802
100
AcDbEntity
  8
1
  6
Continuous
100
AcDbLine
 10
195.3646239999999
 20
46.938769
 30
0.0
 11
197.028759
 21
44.686946
 31
0.0
  0
ARC
  5
98DB
330
9802
100
AcDbEntity
  8
1
  6
Continuous
100
AcDbCircle
 10
207.843533
 20
46.767108
 30
0.0
 40
3.5
100
AcDbArc
 50
270.0000179999999
 51
0.0
  0
LINE
  5
98DC
330
9802
100
AcDbEntity
  8
4
  6
CENTER
100
AcDbLine
 10
204.343533
 20
45.267108
 30
0.0
 11
204.343533
 21
55.267108
 31
0.0
  0
LINE
  5
98DD
330
9802
100
AcDbEntity
  8
1
  6
Continuous
100
AcDbLine
 10
172.343533
 20
82.56711099999998
 30
0.0
 11
180.343533
 21
82.56711099999998
 31
0.0
  0
LINE
  5
98DE
330
9802
100
AcDbEntity
  8
1
  6
Continuous
100
AcDbLine
 10
160.958075
 20
77.26710799999998
 30
0.0
 11
192.49572
 21
77.26710799999998
 31
0.0
  0
ARC
  5
98DF
330
9802
100
AcDbEntity
  8
1
  6
Continuous
100
AcDbCircle
 10
172.343533
 20
80.56711099999999
 30
0.0
 40
2.0
100
AcDbArc
 50
90.0
 51
179.999982
  0
LINE
  5
98E0
330
9802
100
AcDbEntity
  8
1
  6
Continuous
100
AcDbLine
 10
173.093533
 20
51.267108
 30
0.0
 11
173.093533
 21
52.267108
 31
0.0
  0
LINE
  5
98E1
330
9802
100
AcDbEntity
  8
1
  6
Continuous
100
AcDbLine
 10
173.093533
 20
76.26710799999997
 30
0.0
 11
173.093533
 21
77.26710799999998
 31
0.0
  0
LINE
  5
98E2
330
9802
100
AcDbEntity
  8
1
  6
Continuous
100
AcDbLine
 10
170.343533
 20
79.56711099999998
 30
0.0
 11
170.343533
 21
80.56711099999999
 31
0.0
  0
ARC
  5
98E3
330
9802
100
AcDbEntity
  8
1
  6
Continuous
100
AcDbCircle
 10
180.343533
 20
80.56711099999999
 30
0.0
 40
2.0
100
AcDbArc
 50
0.00002
 51
90.0
  0
LINE
  5
98E4
330
9802
100
AcDbEntity
  8
1
  6
Continuous
100
AcDbLine
 10
179.593533
 20
51.267108
 30
0.0
 11
179.593533
 21
52.267108
 31
0.0
  0
LINE
  5
98E5
330
9802
100
AcDbEntity
  8
1
  6
Continuous
100
AcDbLine
 10
179.593533
 20
76.26710799999997
 30
0.0
 11
179.593533
 21
77.26710799999998
 31
0.0
  0
LINE
  5
98E6
330
9802
100
AcDbEntity
  8
1
  6
Continuous
100
AcDbLine
 10
182.343533
 20
79.56711099999998
 30
0.0
 11
182.343533
 21
80.56711099999999
 31
0.0
  0
LINE
  5
98E7
330
9802
100
AcDbEntity
  8
1
  6
Continuous
100
AcDbLine
 10
141.343533
 20
53.78389699999999
 30
0.0
 11
141.343533
 21
46.767108
 31
0.0
  0
LINE
  5
98E8
330
9802
100
AcDbEntity
  8
1
  6
Continuous
100
AcDbLine
 10
211.343533
 20
53.78389699999999
 30
0.0
 11
211.343533
 21
46.767108
 31
0.0
  0
LINE
  5
98E9
330
9802
100
AcDbEntity
  8
1
  6
Continuous
100
AcDbLine
 10
155.958075
 20
83.441643
 30
0.0
 11
155.958075
 21
82.26710799999997
 31
0.0
  0
LINE
  5
98EA
330
9802
100
AcDbEntity
  8
1
  6
Continuous
100
AcDbLine
 10
197.49572
 20
84.362831
 30
0.0
 11
197.49572
 21
82.26710799999997
 31
0.0
  0
ARC
  5
98EB
330
9802
100
AcDbEntity
  8
1
  6
Continuous
100
AcDbCircle
 10
192.49572
 20
82.26710799999997
 30
0.0
 40
5.0
100
AcDbArc
 50
270.0
 51
0.0
  0
ARC
  5
98EC
330
9802
100
AcDbEntity
  8
1
  6
Continuous
100
AcDbCircle
 10
160.958075
 20
82.26710799999997
 30
0.0
 40
5.0
100
AcDbArc
 50
180.0
 51
270.0
  0
ARC
  5
98ED
330
9802
100
AcDbEntity
  8
1
  6
Continuous
100
AcDbCircle
 10
160.958075
 20
46.267108
 30
0.0
 40
5.0
100
AcDbArc
 50
90.0
 51
180.0
  0
LINE
  5
98EE
330
9802
100
AcDbEntity
  8
1
  6
Continuous
100
AcDbLine
 10
155.958075
 20
45.092573
 30
0.0
 11
155.958075
 21
46.267108
 31
0.0
  0
LINE
  5
98EF
330
9802
100
AcDbEntity
  8
1
  6
Continuous
100
AcDbLine
 10
160.958075
 20
51.267108
 30
0.0
 11
192.49572
 21
51.267108
 31
0.0
  0
ARC
  5
98F0
330
9802
100
AcDbEntity
  8
1
  6
Continuous
100
AcDbCircle
 10
192.49572
 20
46.267108
 30
0.0
 40
5.0
100
AcDbArc
 50
0.0
 51
90.0
  0
LINE
  5
98F1
330
9802
100
AcDbEntity
  8
1
  6
Continuous
100
AcDbLine
 10
197.49572
 20
44.171386
 30
0.0
 11
197.49572
 21
46.267108
 31
0.0
  0
LINE
  5
98F2
330
9802
100
AcDbEntity
  8
1
  6
Continuous
100
AcDbLine
 10
180.343533
 20
318.967105
 30
0.0
 11
172.343533
 21
318.967105
 31
0.0
  0
ARC
  5
98F3
330
9802
100
AcDbEntity
  8
1
  6
Continuous
100
AcDbCircle
 10
172.343533
 20
320.967105
 30
0.0
 40
2.0
100
AcDbArc
 50
180.00002
 51
270.0
  0
LINE
  5
98F4
330
9802
100
AcDbEntity
  8
1
  6
Continuous
100
AcDbLine
 10
170.343533
 20
321.967105
 30
0.0
 11
170.343533
 21
320.967105
 31
0.0
  0
ARC
  5
98F5
330
9802
100
AcDbEntity
  8
1
  6
Continuous
100
AcDbCircle
 10
180.343533
 20
320.967105
 30
0.0
 40
2.0
100
AcDbArc
 50
270.0
 51
359.9999819999999
  0
LINE
  5
98F6
330
9802
100
AcDbEntity
  8
1
  6
Continuous
100
AcDbLine
 10
182.343533
 20
321.967105
 30
0.0
 11
182.343533
 21
320.967105
 31
0.0
  0
LINE
  5
98F7
330
9802
100
AcDbEntity
  8
1
  6
Continuous
100
AcDbLine
 10
431.3435329999999
 20
189.40386
 30
0.0
 11
431.3435329999999
 21
195.130357
 31
0.0
  0
LINE
  5
98F8
330
9802
100
AcDbEntity
  8
1
  6
Continuous
100
AcDbLine
 10
441.3435329999998
 20
189.40386
 30
0.0
 11
441.3435329999998
 21
195.130357
 31
0.0
  0
CIRCLE
  5
98F9
330
9802
100
AcDbEntity
  8
1
  6
Continuous
100
AcDbCircle
 10
436.3435329999998
 20
192.267108
 30
0.0
 40
3.0
  0
CIRCLE
  5
98FA
330
9802
100
AcDbEntity
  8
2
  6
Continuous
100
AcDbCircle
 10
436.3435329999998
 20
192.267108
 30
0.0
 40
2.458499999999999
  0
CIRCLE
  5
98FB
330
9802
100
AcDbEntity
  8
1
  6
Continuous
100
AcDbCircle
 10
436.3435329999998
 20
192.267108
 30
0.0
 40
2.0
  0
LINE
  5
98FC
330
9802
100
AcDbEntity
  8
1
  6
Continuous
100
AcDbLine
 10
431.3435329999999
 20
189.40386
 30
0.0
 11
436.3435329999998
 21
186.517108
 31
0.0
  0
LINE
  5
98FD
330
9802
100
AcDbEntity
  8
1
  6
Continuous
100
AcDbLine
 10
441.3435329999998
 20
189.40386
 30
0.0
 11
436.3435329999998
 21
186.517108
 31
0.0
  0
LINE
  5
98FE
330
9802
100
AcDbEntity
  8
1
  6
Continuous
100
AcDbLine
 10
431.3435329999999
 20
195.130357
 30
0.0
 11
436.3435329999998
 21
198.017108
 31
0.0
  0
LINE
  5
98FF
330
9802
100
AcDbEntity
  8
1
  6
Continuous
100
AcDbLine
 10
441.3435329999998
 20
195.130357
 30
0.0
 11
436.3435329999998
 21
198.017108
 31
0.0
  0
LINE
  5
9900
330
9802
100
AcDbEntity
  8
1
  6
Continuous
100
AcDbLine
 10
176.343533
 20
48.47636099999999
 30
0.0
 11
176.343533
 21
45.25784999999999
 31
0.0
  0
LINE
  5
9901
330
9802
100
AcDbEntity
  8
1
  6
Continuous
100
AcDbLine
 10
181.343533
 20
45.25784999999999
 30
0.0
 11
181.343533
 21
48.47636099999999
 31
0.0
  0
LINE
  5
9902
330
9802
100
AcDbEntity
  8
1
  6
Continuous
100
AcDbLine
 10
173.843533
 20
48.96710800000001
 30
0.0
 11
178.843533
 21
48.96710800000001
 31
0.0
  0
LINE
  5
9903
330
9802
100
AcDbEntity
  8
1
  6
Continuous
100
AcDbLine
 10
171.343533
 20
45.25784999999999
 30
0.0
 11
171.343533
 21
48.47636099999999
 31
0.0
  0
ARC
  5
9904
330
9802
100
AcDbEntity
  8
1
  6
Continuous
100
AcDbCircle
 10
173.843533
 20
42.353901
 30
0.0
 40
6.613208
100
AcDbArc
 50
67.78820500000001
 51
112.211795
  0
ARC
  5
9905
330
9802
100
AcDbEntity
  8
1
  6
Continuous
100
AcDbCircle
 10
178.843533
 20
42.353901
 30
0.0
 40
6.613208
100
AcDbArc
 50
67.78820500000001
 51
112.211795
  0
LINE
  5
9906
330
9802
100
AcDbEntity
  8
1
  6
Continuous
100
AcDbLine
 10
173.843533
 20
352.567108
 30
0.0
 11
178.843533
 21
352.567108
 31
0.0
  0
ARC
  5
9907
330
9802
100
AcDbEntity
  8
1
  6
Continuous
100
AcDbCircle
 10
173.843533
 20
359.1803159999998
 30
0.0
 40
6.613208
100
AcDbArc
 50
247.7882049999999
 51
292.211795
  0
LINE
  5
9908
330
9802
100
AcDbEntity
  8
1
  6
Continuous
100
AcDbLine
 10
171.343533
 20
356.2763669999998
 30
0.0
 11
171.343533
 21
353.057856
 31
0.0
  0
ARC
  5
9909
330
9802
100
AcDbEntity
  8
1
  6
Continuous
100
AcDbCircle
 10
178.843533
 20
359.1803159999998
 30
0.0
 40
6.613208
100
AcDbArc
 50
247.7882049999999
 51
292.211795
  0
LINE
  5
990A
330
9802
100
AcDbEntity
  8
1
  6
Continuous
100
AcDbLine
 10
181.343533
 20
356.2763669999998
 30
0.0
 11
181.343533
 21
353.057856
 31
0.0
  0
LINE
  5
990B
330
9802
100
AcDbEntity
  8
1
  6
Continuous
100
AcDbLine
 10
176.343533
 20
353.057856
 30
0.0
 11
176.343533
 21
356.2763669999998
 31
0.0
  0
ARC
  5
990C
330
9802
100
AcDbEntity
  8
1
  6
Continuous
100
AcDbCircle
 10
178.843533
 20
350.153907
 30
0.0
 40
6.613208
100
AcDbArc
 50
67.78820500000001
 51
112.211795
  0
ARC
  5
990D
330
9802
100
AcDbEntity
  8
1
  6
Continuous
100
AcDbCircle
 10
173.843533
 20
350.153907
 30
0.0
 40
6.613208
100
AcDbArc
 50
67.78820500000001
 51
112.211795
  0
ARC
  5
990E
330
9802
100
AcDbEntity
  8
1
  6
Continuous
100
AcDbCircle
 10
178.843533
 20
51.38030999999998
 30
0.0
 40
6.613208
100
AcDbArc
 50
247.7882049999999
 51
292.211795
  0
ARC
  5
990F
330
9802
100
AcDbEntity
  8
1
  6
Continuous
100
AcDbCircle
 10
173.843533
 20
51.38030999999998
 30
0.0
 40
6.613208
100
AcDbArc
 50
247.7882049999999
 51
292.211795
  0
LINE
  5
9910
330
9802
100
AcDbEntity
  8
1
  6
Continuous
100
AcDbLine
 10
173.843533
 20
44.767102
 30
0.0
 11
178.843533
 21
44.767102
 31
0.0
  0
LINE
  5
9911
330
9802
100
AcDbEntity
  8
1
  6
Continuous
100
AcDbLine
 10
173.843533
 20
356.7671139999998
 30
0.0
 11
178.843533
 21
356.7671139999998
 31
0.0
  0
LINE
  5
9912
330
9802
100
AcDbEntity
  8
1
  6
Continuous
100
AcDbLine
 10
56.84353299999999
 20
227.6732969999999
 30
0.0
 11
56.84353299999999
 21
156.860919
 31
0.0
  0
LINE
  5
9913
330
9802
100
AcDbEntity
  8
1
  6
Continuous
100
AcDbLine
 10
35.843533
 20
227.6732969999999
 30
0.0
 11
35.843533
 21
156.860919
 31
0.0
  0
ARC
  5
9914
330
9802
100
AcDbEntity
  8
1
  6
Continuous
100
AcDbCircle
 10
46.34353299999999
 20
224.7671079999999
 30
0.0
 40
70.0
100
AcDbArc
 50
262.45024
 51
277.5497399999998
  0
ARC
  5
9915
330
9802
100
AcDbEntity
  8
1
  6
Continuous
100
AcDbCircle
 10
37.343533
 20
156.860919
 30
0.0
 40
1.5
100
AcDbArc
 50
179.9999799999999
 51
262.45021
  0
ARC
  5
9916
330
9802
100
AcDbEntity
  8
1
  6
Continuous
100
AcDbCircle
 10
55.34353299999999
 20
156.860919
 30
0.0
 40
1.5
100
AcDbArc
 50
277.54976
 51
0.0
  0
LINE
  5
9917
330
9802
100
AcDbEntity
  8
1
  6
Continuous
100
AcDbLine
 10
58.343533
 20
199.267108
 30
0.0
 11
58.343533
 21
185.267108
 31
0.0
  0
LINE
  5
9918
330
9802
100
AcDbEntity
  8
1
  6
Continuous
100
AcDbLine
 10
34.343533
 20
199.267108
 30
0.0
 11
34.343533
 21
185.267108
 31
0.0
  0
ARC
  5
9919
330
9802
100
AcDbEntity
  8
1
  6
Continuous
100
AcDbCircle
 10
34.843533
 20
185.267108
 30
0.0
 40
0.5
100
AcDbArc
 50
179.9999799999999
 51
263.8475
  0
LINE
  5
991A
330
9802
100
AcDbEntity
  8
1
  6
Continuous
100
AcDbLine
 10
35.843525
 20
184.6564139999999
 30
0.0
 11
34.78994399999999
 21
184.7699849999999
 31
0.0
  0
ARC
  5
991B
330
9802
100
AcDbEntity
  8
1
  6
Continuous
100
AcDbCircle
 10
57.84353299999999
 20
185.267108
 30
0.0
 40
0.5
100
AcDbArc
 50
276.15237
 51
359.99995
  0
LINE
  5
991C
330
9802
100
AcDbEntity
  8
1
  6
Continuous
100
AcDbLine
 10
56.843541
 20
184.6564149999999
 30
0.0
 11
57.89712900000001
 21
184.7699869999999
 31
0.0
  0
ARC
  5
991D
330
9802
100
AcDbEntity
  8
1
  6
Continuous
100
AcDbCircle
 10
34.843533
 20
199.267108
 30
0.0
 40
0.5
100
AcDbArc
 50
96.15250000000003
 51
180.00002
  0
LINE
  5
991E
330
9802
100
AcDbEntity
  8
1
  6
Continuous
100
AcDbLine
 10
35.843525
 20
199.8778019999998
 30
0.0
 11
34.78994399999999
 21
199.7642319999999
 31
0.0
  0
ARC
  5
991F
330
9802
100
AcDbEntity
  8
1
  6
Continuous
100
AcDbCircle
 10
57.84353299999999
 20
199.267108
 30
0.0
 40
0.5
100
AcDbArc
 50
0.000055
 51
83.847628
  0
LINE
  5
9920
330
9802
100
AcDbEntity
  8
1
  6
Continuous
100
AcDbLine
 10
56.843541
 20
199.877801
 30
0.0
 11
57.89712900000001
 21
199.76423
 31
0.0
  0
ARC
  5
9921
330
9802
100
AcDbEntity
  8
1
  6
Continuous
100
AcDbCircle
 10
46.34353299999999
 20
159.767108
 30
0.0
 40
70.0
100
AcDbArc
 50
82.45026000000001
 51
97.54975900000005
  0
ARC
  5
9922
330
9802
100
AcDbEntity
  8
1
  6
Continuous
100
AcDbCircle
 10
37.343533
 20
227.6732969999999
 30
0.0
 40
1.5
100
AcDbArc
 50
97.549779
 51
180.00002
  0
ARC
  5
9923
330
9802
100
AcDbEntity
  8
1
  6
Continuous
100
AcDbCircle
 10
55.34353299999999
 20
227.6732969999999
 30
0.0
 40
1.5
100
AcDbArc
 50
0.0
 51
82.45023899999997
  0
LINE
  5
9924
330
9802
100
AcDbEntity
  8
1
  6
Continuous
100
AcDbLine
 10
153.488053
 20
177.050769
 30
0.0
 11
166.937329
 21
184.815711
 31
0.0
  0
ARC
  5
9925
330
9802
100
AcDbEntity
  8
1
  6
Continuous
100
AcDbCircle
 10
176.343533
 20
192.267108
 30
0.0
 40
31.4
100
AcDbArc
 50
115.6846049999999
 51
64.31535799999998
  0
ARC
  5
9926
330
9802
100
AcDbEntity
  8
1
  6
Continuous
100
AcDbCircle
 10
176.343533
 20
192.267108
 30
0.0
 40
37.5
100
AcDbArc
 50
112.915185
 51
67.084784
  0
LINE
  5
9927
330
9802
100
AcDbEntity
  8
1
  6
Continuous
100
AcDbLine
 10
151.738053
 20
180.081859
 30
0.0
 11
165.1873329999999
 21
187.8468009999999
 31
0.0
  0
ARC
  5
9928
330
9802
100
AcDbEntity
  8
1
  6
Continuous
100
AcDbCircle
 10
155.238049
 20
174.019681
 30
0.0
 40
3.5
100
AcDbArc
 50
119.9999999999999
 51
220.8461799999998
  0
ARC
  5
9929
330
9802
100
AcDbEntity
  8
1
  6
Continuous
100
AcDbCircle
 10
149.988053
 20
183.1129479999999
 30
0.0
 40
3.5
100
AcDbArc
 50
199.1539399999999
 51
299.9999799999999
  0
LINE
  5
992A
330
9802
100
AcDbEntity
  8
1
  6
Continuous
100
AcDbLine
 10
199.199009
 20
177.0507609999999
 30
0.0
 11
185.749737
 21
184.815708
 31
0.0
  0
LINE
  5
992B
330
9802
100
AcDbEntity
  8
1
  6
Continuous
100
AcDbLine
 10
200.9490169999998
 20
180.081851
 30
0.0
 11
187.499745
 21
187.846798
 31
0.0
  0
ARC
  5
992C
330
9802
100
AcDbEntity
  8
1
  6
Continuous
100
AcDbCircle
 10
202.6990089999999
 20
183.112932
 30
0.0
 40
3.5
100
AcDbArc
 50
240.00002
 51
340.8461799999999
  0
ARC
  5
992D
330
9802
100
AcDbEntity
  8
1
  6
Continuous
100
AcDbCircle
 10
197.449002
 20
174.01967
 30
0.0
 40
3.5
100
AcDbArc
 50
319.1539399999998
 51
59.999988
  0
LINE
  5
992E
330
9802
100
AcDbEntity
  8
1
  6
Continuous
100
AcDbLine
 10
187.9058419999998
 20
189.0557109999997
 30
0.0
 11
185.192003
 21
190.6225499999999
 31
0.0
  0
ARC
  5
992F
330
9802
100
AcDbEntity
  8
1
  6
Continuous
100
AcDbCircle
 10
176.343533
 20
192.267108
 30
0.0
 40
12.0
100
AcDbArc
 50
315.5225199999998
 51
344.4775499999999
  0
LINE
  5
9930
330
9802
100
AcDbEntity
  8
1
  6
Continuous
100
AcDbLine
 10
167.7812279999999
 20
183.8595579999999
 30
0.0
 11
170.4950639999998
 21
185.426391
 31
0.0
  0
LINE
  5
9931
330
9802
100
AcDbEntity
  8
1
  6
Continuous
100
AcDbLine
 10
164.781228
 20
189.0557109999997
 30
0.0
 11
167.4950629999998
 21
190.6225459999998
 31
0.0
  0
ARC
  5
9932
330
9802
100
AcDbEntity
  8
1
  6
Continuous
100
AcDbCircle
 10
176.343533
 20
192.267108
 30
0.0
 40
12.0
100
AcDbArc
 50
195.5225199999999
 51
224.4775399999999
  0
LINE
  5
9933
330
9802
100
AcDbEntity
  8
1
  6
Continuous
100
AcDbLine
 10
184.9058499999999
 20
183.8595579999999
 30
0.0
 11
182.192007
 21
185.4263959999999
 31
0.0
  0
ARC
  5
9934
330
9802
100
AcDbEntity
  8
1
  6
Continuous
100
AcDbCircle
 10
436.3435329999998
 20
192.267108
 30
0.0
 40
37.5
100
AcDbArc
 50
112.915185
 51
67.084784
  0
ARC
  5
9935
330
9802
100
AcDbEntity
  8
1
  6
Continuous
100
AcDbCircle
 10
436.3435329999998
 20
192.267108
 30
0.0
 40
31.4
100
AcDbArc
 50
115.6846049999999
 51
64.31535799999998
  0
ARC
  5
9936
330
9802
100
AcDbEntity
  8
1
  6
Continuous
100
AcDbCircle
 10
457.4490019999998
 20
174.01967
 30
0.0
 40
3.5
100
AcDbArc
 50
319.1539399999998
 51
59.999988
  0
LINE
  5
9937
330
9802
100
AcDbEntity
  8
1
  6
Continuous
100
AcDbLine
 10
460.9490169999999
 20
180.081851
 30
0.0
 11
447.499745
 21
187.846798
 31
0.0
  0
LINE
  5
9938
330
9802
100
AcDbEntity
  8
1
  6
Continuous
100
AcDbLine
 10
459.199009
 20
177.0507609999999
 30
0.0
 11
445.7497369999998
 21
184.815708
 31
0.0
  0
LINE
  5
9939
330
9802
100
AcDbEntity
  8
1
  6
Continuous
100
AcDbLine
 10
444.9058499999998
 20
183.8595579999999
 30
0.0
 11
442.1920069999996
 21
185.4263959999999
 31
0.0
  0
ARC
  5
993A
330
9802
100
AcDbEntity
  8
1
  6
Continuous
100
AcDbCircle
 10
436.3435329999998
 20
192.267108
 30
0.0
 40
12.0
100
AcDbArc
 50
315.5225199999998
 51
344.4775499999999
  0
ARC
  5
993B
330
9802
100
AcDbEntity
  8
1
  6
Continuous
100
AcDbCircle
 10
462.6990089999998
 20
183.112932
 30
0.0
 40
3.5
100
AcDbArc
 50
240.00002
 51
340.8461799999999
  0
LINE
  5
993C
330
9802
100
AcDbEntity
  8
1
  6
Continuous
100
AcDbLine
 10
447.905842
 20
189.0557109999997
 30
0.0
 11
445.192003
 21
190.6225499999999
 31
0.0
  0
ARC
  5
993D
330
9802
100
AcDbEntity
  8
1
  6
Continuous
100
AcDbCircle
 10
415.2380489999998
 20
174.019681
 30
0.0
 40
3.5
100
AcDbArc
 50
119.9999999999999
 51
220.8461799999998
  0
LINE
  5
993E
330
9802
100
AcDbEntity
  8
1
  6
Continuous
100
AcDbLine
 10
411.738053
 20
180.081859
 30
0.0
 11
425.187333
 21
187.8468009999999
 31
0.0
  0
LINE
  5
993F
330
9802
100
AcDbEntity
  8
1
  6
Continuous
100
AcDbLine
 10
413.488053
 20
177.050769
 30
0.0
 11
426.9373289999998
 21
184.815711
 31
0.0
  0
ARC
  5
9940
330
9802
100
AcDbEntity
  8
1
  6
Continuous
100
AcDbCircle
 10
409.988053
 20
183.1129479999999
 30
0.0
 40
3.5
100
AcDbArc
 50
199.1539399999999
 51
299.9999799999999
  0
LINE
  5
9941
330
9802
100
AcDbEntity
  8
1
  6
Continuous
100
AcDbLine
 10
427.781228
 20
183.8595579999999
 30
0.0
 11
430.4950639999998
 21
185.426391
 31
0.0
  0
ARC
  5
9942
330
9802
100
AcDbEntity
  8
1
  6
Continuous
100
AcDbCircle
 10
436.3435329999998
 20
192.267108
 30
0.0
 40
12.0
100
AcDbArc
 50
195.5225199999999
 51
224.4775399999999
  0
LINE
  5
9943
330
9802
100
AcDbEntity
  8
1
  6
Continuous
100
AcDbLine
 10
424.7812279999997
 20
189.0557109999997
 30
0.0
 11
427.495063
 21
190.6225459999998
 31
0.0
  0
LINE
  5
9944
330
9802
100
AcDbEntity
  8
1
  6
Continuous
100
AcDbLine
 10
140.9373439999999
 20
74.76710799999998
 30
0.0
 11
211.7497219999999
 21
74.76710799999998
 31
0.0
  0
LINE
  5
9945
330
9802
100
AcDbEntity
  8
1
  6
Continuous
100
AcDbLine
 10
140.9373439999999
 20
53.76710799999999
 30
0.0
 11
211.7497219999999
 21
53.76710799999999
 31
0.0
  0
LINE
  5
9946
330
9802
100
AcDbEntity
  8
1
  6
Continuous
100
AcDbLine
 10
183.954227
 20
53.7671
 30
0.0
 11
183.8406559999999
 21
52.71351899999999
 31
0.0
  0
LINE
  5
9947
330
9802
100
AcDbEntity
  8
1
  6
Continuous
100
AcDbLine
 10
168.7328389999999
 20
53.7671
 30
0.0
 11
168.84641
 21
52.71351899999999
 31
0.0
  0
LINE
  5
9948
330
9802
100
AcDbEntity
  8
1
  6
Continuous
100
AcDbLine
 10
169.3435329999998
 20
52.267108
 30
0.0
 11
183.343533
 21
52.267108
 31
0.0
  0
ARC
  5
9949
330
9802
100
AcDbEntity
  8
1
  6
Continuous
100
AcDbCircle
 10
169.3435329999998
 20
52.767108
 30
0.0
 40
0.5
100
AcDbArc
 50
186.1525
 51
270.00002
  0
ARC
  5
994A
330
9802
100
AcDbEntity
  8
1
  6
Continuous
100
AcDbCircle
 10
183.343533
 20
52.767108
 30
0.0
 40
0.5
100
AcDbArc
 50
269.99998
 51
353.8475
  0
ARC
  5
994B
330
9802
100
AcDbEntity
  8
1
  6
Continuous
100
AcDbCircle
 10
140.9373439999999
 20
73.26710799999998
 30
0.0
 40
1.5
100
AcDbArc
 50
90.0
 51
172.4502389999999
  0
ARC
  5
994C
330
9802
100
AcDbEntity
  8
1
  6
Continuous
100
AcDbCircle
 10
140.9373439999999
 20
55.267108
 30
0.0
 40
1.5
100
AcDbArc
 50
187.549779
 51
270.00002
  0
ARC
  5
994D
330
9802
100
AcDbEntity
  8
1
  6
Continuous
100
AcDbCircle
 10
208.843533
 20
64.26710799999999
 30
0.0
 40
70.0
100
AcDbArc
 50
172.4502599999999
 51
187.5497589999999
  0
LINE
  5
994E
330
9802
100
AcDbEntity
  8
1
  6
Continuous
100
AcDbLine
 10
169.3435329999998
 20
76.26710799999997
 30
0.0
 11
183.343533
 21
76.26710799999997
 31
0.0
  0
LINE
  5
994F
330
9802
100
AcDbEntity
  8
1
  6
Continuous
100
AcDbLine
 10
168.7328399999999
 20
74.767116
 30
0.0
 11
168.8464109999999
 21
75.820704
 31
0.0
  0
ARC
  5
9950
330
9802
100
AcDbEntity
  8
1
  6
Continuous
100
AcDbCircle
 10
169.3435329999998
 20
75.76710799999998
 30
0.0
 40
0.5
100
AcDbArc
 50
90.00005499999994
 51
173.8476279999999
  0
LINE
  5
9951
330
9802
100
AcDbEntity
  8
1
  6
Continuous
100
AcDbLine
 10
183.9542259999998
 20
74.767116
 30
0.0
 11
183.840654
 21
75.820704
 31
0.0
  0
ARC
  5
9952
330
9802
100
AcDbEntity
  8
1
  6
Continuous
100
AcDbCircle
 10
183.343533
 20
75.76710799999998
 30
0.0
 40
0.5
100
AcDbArc
 50
6.152369999999998
 51
89.99995000000001
  0
ARC
  5
9953
330
9802
100
AcDbEntity
  8
1
  6
Continuous
100
AcDbCircle
 10
211.7497219999999
 20
73.26710799999998
 30
0.0
 40
1.5
100
AcDbArc
 50
7.549760000000001
 51
90.0
  0
ARC
  5
9954
330
9802
100
AcDbEntity
  8
1
  6
Continuous
100
AcDbCircle
 10
211.7497219999999
 20
55.267108
 30
0.0
 40
1.5
100
AcDbArc
 50
269.99998
 51
352.45021
  0
ARC
  5
9955
330
9802
100
AcDbEntity
  8
1
  6
Continuous
100
AcDbCircle
 10
143.843533
 20
64.26710799999999
 30
0.0
 40
70.0
100
AcDbArc
 50
352.45024
 51
7.549739999999999
  0
LINE
  5
9956
330
9802
100
AcDbEntity
  8
1
  6
Continuous
100
AcDbLine
 10
140.9373439999999
 20
326.7671079999999
 30
0.0
 11
141.343533
 21
326.7671079999999
 31
0.0
  0
LINE
  5
9957
330
9802
100
AcDbEntity
  8
1
  6
Continuous
100
AcDbLine
 10
140.9373439999999
 20
347.767108
 30
0.0
 11
141.343533
 21
347.767108
 31
0.0
  0
ARC
  5
9958
330
9802
100
AcDbEntity
  8
1
  6
Continuous
100
AcDbCircle
 10
208.843533
 20
337.2671079999999
 30
0.0
 40
70.0
100
AcDbArc
 50
172.4502599999999
 51
187.5497589999999
  0
ARC
  5
9959
330
9802
100
AcDbEntity
  8
1
  6
Continuous
100
AcDbCircle
 10
140.9373439999999
 20
328.267108
 30
0.0
 40
1.5
100
AcDbArc
 50
187.549779
 51
270.00002
  0
ARC
  5
995A
330
9802
100
AcDbEntity
  8
1
  6
Continuous
100
AcDbCircle
 10
140.9373439999999
 20
346.267108
 30
0.0
 40
1.5
100
AcDbArc
 50
90.0
 51
172.4502389999999
  0
ARC
  5
995B
330
9802
100
AcDbEntity
  8
1
  6
Continuous
100
AcDbCircle
 10
143.843533
 20
337.2671079999999
 30
0.0
 40
70.0
100
AcDbArc
 50
352.45024
 51
7.549739999999999
  0
ARC
  5
995C
330
9802
100
AcDbEntity
  8
1
  6
Continuous
100
AcDbCircle
 10
211.7497219999999
 20
328.267108
 30
0.0
 40
1.5
100
AcDbArc
 50
269.99998
 51
352.45021
  0
ARC
  5
995D
330
9802
100
AcDbEntity
  8
1
  6
Continuous
100
AcDbCircle
 10
211.7497219999999
 20
346.267108
 30
0.0
 40
1.5
100
AcDbArc
 50
7.549760000000001
 51
90.0
  0
LINE
  5
995E
330
9802
100
AcDbEntity
  8
1
  6
Continuous
100
AcDbLine
 10
211.343533
 20
347.767108
 30
0.0
 11
211.7497219999999
 21
347.767108
 31
0.0
  0
LINE
  5
995F
330
9802
100
AcDbEntity
  8
1
  6
Continuous
100
AcDbLine
 10
211.343533
 20
326.7671079999999
 30
0.0
 11
211.7497219999999
 21
326.7671079999999
 31
0.0
  0
LINE
  5
9960
330
9802
100
AcDbEntity
  8
1
  6
Continuous
100
AcDbLine
 10
316.863607
 20
227.6371289999999
 30
0.0
 11
316.8453799999998
 21
156.824754
 31
0.0
  0
LINE
  5
9961
330
9802
100
AcDbEntity
  8
1
  6
Continuous
100
AcDbLine
 10
295.863608
 20
227.642535
 30
0.0
 11
295.8453809999998
 21
156.830159
 31
0.0
  0
LINE
  5
9962
330
9802
100
AcDbEntity
  8
4
  6
CENTER
100
AcDbLine
 10
306.3698099999998
 20
251.7336419999999
 30
0.0
 11
306.343552
 21
149.726131
 31
0.0
  0
ARC
  5
9963
330
9802
100
AcDbEntity
  8
1
  6
Continuous
100
AcDbCircle
 10
306.36286
 20
224.733643
 30
0.0
 40
70.0
100
AcDbArc
 50
262.435512
 51
277.535012
  0
ARC
  5
9964
330
9802
100
AcDbEntity
  8
1
  6
Continuous
100
AcDbCircle
 10
315.3453799999998
 20
156.82514
 30
0.0
 40
1.5
100
AcDbArc
 50
277.5350419999999
 51
359.985272
  0
ARC
  5
9965
330
9802
100
AcDbEntity
  8
1
  6
Continuous
100
AcDbCircle
 10
297.3453799999998
 20
156.8297729999999
 30
0.0
 40
1.5
100
AcDbArc
 50
179.9852519999998
 51
262.435492
  0
ARC
  5
9966
330
9802
100
AcDbEntity
  8
1
  6
Continuous
100
AcDbCircle
 10
290.053462
 20
188.2378399999998
 30
0.0
 40
2.0
100
AcDbArc
 50
179.9852519999998
 51
269.985232
  0
ARC
  5
9967
330
9802
100
AcDbEntity
  8
1
  6
Continuous
100
AcDbCircle
 10
290.0555209999998
 20
196.2378399999998
 30
0.0
 40
2.0
100
AcDbArc
 50
89.98527000000001
 51
179.9852519999998
  0
LINE
  5
9968
330
9802
100
AcDbEntity
  8
4
  6
CENTER
100
AcDbLine
 10
333.254493
 20
192.22672
 30
0.0
 11
283.0544919999998
 21
192.239642
 31
0.0
  0
LINE
  5
9969
330
9802
100
AcDbEntity
  8
1
  6
Continuous
100
AcDbLine
 10
327.3679299999999
 20
244.428237
 30
0.0
 11
285.367931
 21
244.439048
 31
0.0
  0
LINE
  5
996A
330
9802
100
AcDbEntity
  8
1
  6
Continuous
100
AcDbLine
 10
327.3685219999998
 20
246.7282369999999
 30
0.0
 11
285.3685229999998
 21
246.739048
 31
0.0
  0
LINE
  5
996B
330
9802
100
AcDbEntity
  8
1
  6
Continuous
100
AcDbLine
 10
291.0674129999998
 20
242.4375809999999
 30
0.0
 11
291.0525609999999
 21
184.737583
 31
0.0
  0
LINE
  5
996C
330
9802
100
AcDbEntity
  8
1
  6
Continuous
100
AcDbLine
 10
321.667415
 20
242.4297039999999
 30
0.0
 11
321.652563
 21
184.729706
 31
0.0
  0
LINE
  5
996D
330
9802
100
AcDbEntity
  8
1
  6
Continuous
100
AcDbLine
 10
293.367931
 20
244.436989
 30
0.0
 11
293.3544939999998
 21
192.236991
 31
0.0
  0
LINE
  5
996E
330
9802
100
AcDbEntity
  8
1
  6
Continuous
100
AcDbLine
 10
319.3679299999998
 20
244.4302959999999
 30
0.0
 11
319.3525629999998
 21
184.730298
 31
0.0
  0
LINE
  5
996F
330
9802
100
AcDbEntity
  8
1
  6
Continuous
100
AcDbLine
 10
321.652563
 20
184.729706
 30
0.0
 11
319.3525629999998
 21
184.730298
 31
0.0
  0
ARC
  5
9970
330
9802
100
AcDbEntity
  8
1
  6
Continuous
100
AcDbCircle
 10
323.340887
 20
187.929277
 30
0.0
 40
2.312498999999998
100
AcDbArc
 50
325.779822
 51
34.190702
  0
ARC
  5
9971
330
9802
100
AcDbEntity
  8
1
  6
Continuous
100
AcDbCircle
 10
314.2045039999998
 20
192.231624
 30
0.0
 40
11.44999799999999
100
AcDbArc
 50
344.796002
 51
15.174522
  0
ARC
  5
9972
330
9802
100
AcDbEntity
  8
1
  6
Continuous
100
AcDbCircle
 10
323.3430999999999
 20
196.5292739999999
 30
0.0
 40
2.312498999999998
100
AcDbArc
 50
325.779822
 51
34.190702
  0
ARC
  5
9973
330
9802
100
AcDbEntity
  8
1
  6
Continuous
100
AcDbCircle
 10
323.9681
 20
196.5291139999999
 30
0.0
 40
2.3125
100
AcDbArc
 50
145.779791
 51
214.190702
  0
ARC
  5
9974
330
9802
100
AcDbEntity
  8
1
  6
Continuous
100
AcDbCircle
 10
333.104493
 20
192.2267589999999
 30
0.0
 40
11.450001
100
AcDbArc
 50
164.7959669999998
 51
195.174532
  0
ARC
  5
9975
330
9802
100
AcDbEntity
  8
1
  6
Continuous
100
AcDbCircle
 10
323.965886
 20
187.929108
 30
0.0
 40
2.3125
100
AcDbArc
 50
145.779842
 51
214.190762
  0
LINE
  5
9976
330
9802
100
AcDbEntity
  8
1
  6
Continuous
100
AcDbLine
 10
326.2554809999998
 20
196.028556
 30
0.0
 11
325.255945
 21
197.828785
 31
0.0
  0
LINE
  5
9977
330
9802
100
AcDbEntity
  8
1
  6
Continuous
100
AcDbLine
 10
326.253515
 20
188.4284429999999
 30
0.0
 11
325.253052
 21
186.628782
 31
0.0
  0
LINE
  5
9978
330
9802
100
AcDbEntity
  8
1
  6
Continuous
100
AcDbLine
 10
322.130521
 20
189.2295829999999
 30
0.0
 11
325.2537209999998
 21
189.228779
 31
0.0
  0
LINE
  5
9979
330
9802
100
AcDbEntity
  8
1
  6
Continuous
100
AcDbLine
 10
322.053052
 20
186.629605
 30
0.0
 11
325.253052
 21
186.628782
 31
0.0
  0
LINE
  5
997A
330
9802
100
AcDbEntity
  8
1
  6
Continuous
100
AcDbLine
 10
326.2554709999998
 20
196.028525
 30
0.0
 11
326.253515
 21
188.428527
 31
0.0
  0
LINE
  5
997B
330
9802
100
AcDbEntity
  8
1
  6
Continuous
100
AcDbLine
 10
322.055266
 20
195.229603
 30
0.0
 11
325.255266
 21
195.2287789999998
 31
0.0
  0
LINE
  5
997C
330
9802
100
AcDbEntity
  8
1
  6
Continuous
100
AcDbLine
 10
322.0559349999998
 20
197.829601
 30
0.0
 11
325.255935
 21
197.828777
 31
0.0
  0
LINE
  5
997D
330
9802
100
AcDbEntity
  8
1
  6
Continuous
100
AcDbLine
 10
318.3562949999998
 20
199.230555
 30
0.0
 11
318.3526919999998
 21
185.2305559999997
 31
0.0
  0
LINE
  5
997E
330
9802
100
AcDbEntity
  8
1
  6
Continuous
100
AcDbLine
 10
294.3562959999998
 20
199.236733
 30
0.0
 11
294.352692
 21
185.2367329999999
 31
0.0
  0
LINE
  5
997F
330
9802
100
AcDbEntity
  8
1
  6
Continuous
100
AcDbLine
 10
316.852543
 20
184.620248
 30
0.0
 11
317.9061529999998
 21
184.7335469999999
 31
0.0
  0
ARC
  5
9980
330
9802
100
AcDbEntity
  8
1
  6
Continuous
100
AcDbCircle
 10
317.8526919999999
 20
185.2306839999999
 30
0.0
 40
0.5
100
AcDbArc
 50
276.1377519999999
 51
359.985272
  0
LINE
  5
9981
330
9802
100
AcDbEntity
  8
1
  6
Continuous
100
AcDbLine
 10
319.353657
 20
188.9802979999998
 30
0.0
 11
318.353657
 21
188.980556
 31
0.0
  0
LINE
  5
9982
330
9802
100
AcDbEntity
  8
1
  6
Continuous
100
AcDbLine
 10
319.35533
 20
195.480298
 30
0.0
 11
318.3553299999998
 21
195.480555
 31
0.0
  0
LINE
  5
9983
330
9802
100
AcDbEntity
  8
1
  6
Continuous
100
AcDbLine
 10
295.8525269999999
 20
184.6256539999999
 30
0.0
 11
294.7989689999999
 21
184.739497
 31
0.0
  0
ARC
  5
9984
330
9802
100
AcDbEntity
  8
1
  6
Continuous
100
AcDbCircle
 10
294.8526919999998
 20
185.236605
 30
0.0
 40
0.5
100
AcDbArc
 50
179.985302
 51
263.8328819999999
  0
LINE
  5
9985
330
9802
100
AcDbEntity
  8
1
  6
Continuous
100
AcDbLine
 10
294.3536579999999
 20
188.9867329999999
 30
0.0
 11
293.353658
 21
188.9869909999999
 31
0.0
  0
LINE
  5
9986
330
9802
100
AcDbEntity
  8
1
  6
Continuous
100
AcDbLine
 10
294.355331
 20
195.4867329999999
 30
0.0
 11
293.3553309999998
 21
195.48699
 31
0.0
  0
LINE
  5
9987
330
9802
100
AcDbEntity
  8
1
  6
Continuous
100
AcDbLine
 10
291.052947
 20
186.2375829999997
 30
0.0
 11
290.052947
 21
186.2378399999998
 31
0.0
  0
LINE
  5
9988
330
9802
100
AcDbEntity
  8
1
  6
Continuous
100
AcDbLine
 10
293.3544939999998
 20
192.236991
 30
0.0
 11
293.3525639999998
 21
184.7369909999999
 31
0.0
  0
LINE
  5
9989
330
9802
100
AcDbEntity
  8
1
  6
Continuous
100
AcDbLine
 10
291.0525609999999
 20
184.737583
 30
0.0
 11
293.3525639999998
 21
184.7369909999999
 31
0.0
  0
LINE
  5
998A
330
9802
100
AcDbEntity
  8
1
  6
Continuous
100
AcDbLine
 10
316.8564609999999
 20
199.841635
 30
0.0
 11
317.910012
 21
199.7277929999999
 31
0.0
  0
ARC
  5
998B
330
9802
100
AcDbEntity
  8
1
  6
Continuous
100
AcDbCircle
 10
317.8562949999998
 20
199.2306839999999
 30
0.0
 40
0.5
100
AcDbArc
 50
359.985232
 51
83.83275199999998
  0
LINE
  5
998C
330
9802
100
AcDbEntity
  8
1
  6
Continuous
100
AcDbLine
 10
295.856445
 20
199.84704
 30
0.0
 11
294.8028279999998
 21
199.733739
 31
0.0
  0
ARC
  5
998D
330
9802
100
AcDbEntity
  8
1
  6
Continuous
100
AcDbCircle
 10
294.8562959999998
 20
199.236604
 30
0.0
 40
0.5
100
AcDbArc
 50
96.137624
 51
179.9851969999999
  0
LINE
  5
998E
330
9802
100
AcDbEntity
  8
1
  6
Continuous
100
AcDbLine
 10
291.056036
 20
198.237582
 30
0.0
 11
290.056036
 21
198.2378399999998
 31
0.0
  0
ARC
  5
998F
330
9802
100
AcDbEntity
  8
1
  6
Continuous
100
AcDbCircle
 10
323.3668999999999
 20
240.4292669999999
 30
0.0
 40
4.0
100
AcDbArc
 50
89.98527000000001
 51
179.9852519999998
  0
ARC
  5
9990
330
9802
100
AcDbEntity
  8
1
  6
Continuous
100
AcDbCircle
 10
323.667415
 20
242.429189
 30
0.0
 40
2.0
100
AcDbArc
 50
89.98527000000001
 51
179.9852519999998
  0
LINE
  5
9991
330
9802
100
AcDbEntity
  8
1
  6
Continuous
100
AcDbLine
 10
327.3685219999998
 20
246.7282369999999
 30
0.0
 11
327.3679299999999
 21
244.428237
 31
0.0
  0
ARC
  5
9992
330
9802
100
AcDbEntity
  8
1
  6
Continuous
100
AcDbCircle
 10
289.3669009999998
 20
240.438018
 30
0.0
 40
4.0
100
AcDbArc
 50
359.985292
 51
89.98527000000001
  0
LINE
  5
9993
330
9802
100
AcDbEntity
  8
1
  6
Continuous
100
AcDbLine
 10
317.667673
 20
243.4307339999997
 30
0.0
 11
317.6645319999999
 21
231.2307339999999
 31
0.0
  0
LINE
  5
9994
330
9802
100
AcDbEntity
  8
1
  6
Continuous
100
AcDbLine
 10
295.06767
 20
243.4365509999998
 30
0.0
 11
295.06453
 21
231.2365519999999
 31
0.0
  0
LINE
  5
9995
330
9802
100
AcDbEntity
  8
4
  6
CENTER
100
AcDbLine
 10
320.3698089999998
 20
251.7300389999999
 30
0.0
 11
320.366643
 21
239.430039
 31
0.0
  0
LINE
  5
9996
330
9802
100
AcDbEntity
  8
4
  6
CENTER
100
AcDbLine
 10
292.3698099999998
 20
251.737246
 30
0.0
 11
292.366644
 21
239.437246
 31
0.0
  0
ARC
  5
9997
330
9802
100
AcDbEntity
  8
1
  6
Continuous
100
AcDbCircle
 10
306.3461279999998
 20
159.733645
 30
0.0
 40
70.0
100
AcDbArc
 50
82.43549299999996
 51
97.534992
  0
ARC
  5
9998
330
9802
100
AcDbEntity
  8
1
  6
Continuous
100
AcDbCircle
 10
315.363607
 20
227.6375149999998
 30
0.0
 40
1.5
100
AcDbArc
 50
359.985232
 51
82.43547300000001
  0
ARC
  5
9999
330
9802
100
AcDbEntity
  8
1
  6
Continuous
100
AcDbCircle
 10
322.664532
 20
231.2294469999999
 30
0.0
 40
5.0
100
AcDbArc
 50
179.9852519999998
 51
228.6853319999999
  0
ARC
  5
999A
330
9802
100
AcDbEntity
  8
1
  6
Continuous
100
AcDbCircle
 10
297.3636079999998
 20
227.642149
 30
0.0
 40
1.5
100
AcDbArc
 50
97.53501300000001
 51
179.9852519999998
  0
ARC
  5
999B
330
9802
100
AcDbEntity
  8
1
  6
Continuous
100
AcDbCircle
 10
290.0645299999998
 20
231.237839
 30
0.0
 40
5.0
100
AcDbArc
 50
311.2851819999999
 51
359.985262
  0
ARC
  5
999C
330
9802
100
AcDbEntity
  8
1
  6
Continuous
100
AcDbCircle
 10
316.6676729999998
 20
243.430991
 30
0.0
 40
1.0
100
AcDbArc
 50
359.9852419999999
 51
89.98524899999997
  0
ARC
  5
999D
330
9802
100
AcDbEntity
  8
1
  6
Continuous
100
AcDbCircle
 10
296.06767
 20
243.436294
 30
0.0
 40
1.0
100
AcDbArc
 50
89.98524899999997
 51
179.9852519999998
  0
ARC
  5
999E
330
9802
100
AcDbEntity
  8
1
  6
Continuous
100
AcDbCircle
 10
289.0674129999998
 20
242.438096
 30
0.0
 40
2.0
100
AcDbArc
 50
359.985292
 51
89.98527000000001
  0
LINE
  5
999F
330
9802
100
AcDbEntity
  8
1
  6
Continuous
100
AcDbLine
 10
288.055521
 20
196.238355
 30
0.0
 11
288.053462
 21
188.238355
 31
0.0
  0
LINE
  5
99A0
330
9802
100
AcDbEntity
  8
1
  6
Continuous
100
AcDbLine
 10
285.3685229999998
 20
246.739048
 30
0.0
 11
285.367931
 21
244.439048
 31
0.0
  0
LINE
  5
99A1
330
9802
100
AcDbEntity
  8
1
  6
Continuous
100
AcDbLine
 10
173.343533
 20
357.767114
 30
0.0
 11
173.343533
 21
356.7671139999998
 31
0.0
  0
LINE
  5
99A2
330
9802
100
AcDbEntity
  8
1
  6
Continuous
100
AcDbLine
 10
179.343533
 20
357.767114
 30
0.0
 11
179.343533
 21
356.7671139999998
 31
0.0
  0
LINE
  5
99A3
330
9802
100
AcDbEntity
  8
2
  6
Continuous
100
AcDbLine
 10
173.8850329999999
 20
358.3086139999999
 30
0.0
 11
173.8850329999999
 21
356.7671139999998
 31
0.0
  0
LINE
  5
99A4
330
9802
100
AcDbEntity
  8
2
  6
Continuous
100
AcDbLine
 10
178.8020329999999
 20
358.3086139999999
 30
0.0
 11
178.8020329999999
 21
356.7671139999998
 31
0.0
  0
LINE
  5
99A5
330
9802
100
AcDbEntity
  8
1
  6
Continuous
100
AcDbLine
 10
173.343533
 20
357.767114
 30
0.0
 11
179.343533
 21
357.767114
 31
0.0
  0
LINE
  5
99A6
330
9802
100
AcDbEntity
  8
1
  6
Continuous
100
AcDbLine
 10
174.343533
 20
358.7671139999998
 30
0.0
 11
178.343533
 21
358.7671139999998
 31
0.0
  0
LINE
  5
99A7
330
9802
100
AcDbEntity
  8
1
  6
Continuous
100
AcDbLine
 10
174.343533
 20
358.7671139999998
 30
0.0
 11
173.343533
 21
357.767114
 31
0.0
  0
LINE
  5
99A8
330
9802
100
AcDbEntity
  8
1
  6
Continuous
100
AcDbLine
 10
178.343533
 20
358.7671139999998
 30
0.0
 11
179.343533
 21
357.767114
 31
0.0
  0
LINE
  5
99A9
330
9802
100
AcDbEntity
  8
1
  6
Continuous
100
AcDbLine
 10
25.443533
 20
189.267108
 30
0.0
 11
25.443533
 21
195.267108
 31
0.0
  0
LINE
  5
99AA
330
9802
100
AcDbEntity
  8
1
  6
Continuous
100
AcDbLine
 10
24.44353299999999
 20
190.267108
 30
0.0
 11
24.44353299999999
 21
194.267108
 31
0.0
  0
LINE
  5
99AB
330
9802
100
AcDbEntity
  8
1
  6
Continuous
100
AcDbLine
 10
24.44353299999999
 20
190.267108
 30
0.0
 11
25.443533
 21
189.267108
 31
0.0
  0
LINE
  5
99AC
330
9802
100
AcDbEntity
  8
2
  6
Continuous
100
AcDbLine
 10
24.902033
 20
189.8086079999999
 30
0.0
 11
26.44353300000001
 21
189.8086079999999
 31
0.0
  0
LINE
  5
99AD
330
9802
100
AcDbEntity
  8
1
  6
Continuous
100
AcDbLine
 10
25.443533
 20
189.267108
 30
0.0
 11
26.44353300000001
 21
189.267108
 31
0.0
  0
LINE
  5
99AE
330
9802
100
AcDbEntity
  8
1
  6
Continuous
100
AcDbLine
 10
24.44353299999999
 20
194.267108
 30
0.0
 11
25.443533
 21
195.267108
 31
0.0
  0
LINE
  5
99AF
330
9802
100
AcDbEntity
  8
2
  6
Continuous
100
AcDbLine
 10
24.902033
 20
194.725608
 30
0.0
 11
26.44353300000001
 21
194.725608
 31
0.0
  0
LINE
  5
99B0
330
9802
100
AcDbEntity
  8
1
  6
Continuous
100
AcDbLine
 10
25.443533
 20
195.267108
 30
0.0
 11
26.44353300000001
 21
195.267108
 31
0.0
  0
LINE
  5
99B1
330
9802
100
AcDbEntity
  8
1
  6
Continuous
100
AcDbLine
 10
327.254493
 20
189.2285219999999
 30
0.0
 11
327.254493
 21
195.228522
 31
0.0
  0
LINE
  5
99B2
330
9802
100
AcDbEntity
  8
1
  6
Continuous
100
AcDbLine
 10
328.254493
 20
190.2285219999999
 30
0.0
 11
328.254493
 21
194.228522
 31
0.0
  0
LINE
  5
99B3
330
9802
100
AcDbEntity
  8
1
  6
Continuous
100
AcDbLine
 10
328.254493
 20
190.2285219999999
 30
0.0
 11
327.254493
 21
189.2285219999999
 31
0.0
  0
LINE
  5
99B4
330
9802
100
AcDbEntity
  8
1
  6
Continuous
100
AcDbLine
 10
328.254493
 20
194.228522
 30
0.0
 11
327.254493
 21
195.228522
 31
0.0
  0
LINE
  5
99B5
330
9802
100
AcDbEntity
  8
2
  6
Continuous
100
AcDbLine
 10
327.795993
 20
189.7700219999999
 30
0.0
 11
326.254493
 21
189.7700219999999
 31
0.0
  0
LINE
  5
99B6
330
9802
100
AcDbEntity
  8
1
  6
Continuous
100
AcDbLine
 10
327.254493
 20
189.2285219999999
 30
0.0
 11
326.254493
 21
189.2285219999999
 31
0.0
  0
LINE
  5
99B7
330
9802
100
AcDbEntity
  8
2
  6
Continuous
100
AcDbLine
 10
327.795993
 20
194.6870219999999
 30
0.0
 11
326.254493
 21
194.6870219999999
 31
0.0
  0
LINE
  5
99B8
330
9802
100
AcDbEntity
  8
1
  6
Continuous
100
AcDbLine
 10
327.254493
 20
195.228522
 30
0.0
 11
326.254493
 21
195.228522
 31
0.0
  0
LINE
  5
99B9
330
9802
100
AcDbEntity
  8
1
  6
Continuous
100
AcDbLine
 10
179.343533
 20
43.767102
 30
0.0
 11
179.343533
 21
44.767102
 31
0.0
  0
LINE
  5
99BA
330
9802
100
AcDbEntity
  8
2
  6
Continuous
100
AcDbLine
 10
178.8020329999999
 20
43.225602
 30
0.0
 11
178.8020329999999
 21
44.767102
 31
0.0
  0
LINE
  5
99BB
330
9802
100
AcDbEntity
  8
1
  6
Continuous
100
AcDbLine
 10
173.343533
 20
43.767102
 30
0.0
 11
173.343533
 21
44.767102
 31
0.0
  0
LINE
  5
99BC
330
9802
100
AcDbEntity
  8
2
  6
Continuous
100
AcDbLine
 10
173.8850329999999
 20
43.225602
 30
0.0
 11
173.8850329999999
 21
44.767102
 31
0.0
  0
LINE
  5
99BD
330
9802
100
AcDbEntity
  8
1
  6
Continuous
100
AcDbLine
 10
174.343533
 20
42.767102
 30
0.0
 11
173.343533
 21
43.767102
 31
0.0
  0
LINE
  5
99BE
330
9802
100
AcDbEntity
  8
1
  6
Continuous
100
AcDbLine
 10
174.343533
 20
42.767102
 30
0.0
 11
178.343533
 21
42.767102
 31
0.0
  0
LINE
  5
99BF
330
9802
100
AcDbEntity
  8
1
  6
Continuous
100
AcDbLine
 10
178.343533
 20
42.767102
 30
0.0
 11
179.343533
 21
43.767102
 31
0.0
  0
LINE
  5
99C0
330
9802
100
AcDbEntity
  8
1
  6
Continuous
100
AcDbLine
 10
173.343533
 20
43.767102
 30
0.0
 11
179.343533
 21
43.767102
 31
0.0
  0
ENDSEC
  0
SECTION
  2
OBJECTS
  0
DICTIONARY
  5
97F0
330
0
100
AcDbDictionary
281
     1
  3
ACAD_CIP_PREVIOUS_PRODUCT_INFO
350
9A61
  3
ACAD_COLOR
350
9A43
  3
ACAD_DETAILVIEWSTYLE
350
9A5C
  3
ACAD_GROUP
350
97F1
  3
ACAD_LAYOUT
350
97FD
  3
ACAD_MATERIAL
350
9A11
  3
ACAD_MLEADERSTYLE
350
9A58
  3
ACAD_MLINESTYLE
350
97FA
  3
ACAD_PLOTSETTINGS
350
97FC
  3
ACAD_PLOTSTYLENAME
350
9A0F
  3
ACAD_SCALELIST
350
9A46
  3
ACAD_SECTIONVIEWSTYLE
350
9A5A
  3
ACAD_TABLESTYLE
350
9A44
  3
ACAD_VISUALSTYLE
350
9A2A
  3
ACDB_RECOMPOSE_DATA
350
9A7F
  3
AcDbVariableDictionary
350
9A72
  3
DWGPROPS
350
9A80
  0
DICTIONARY
  5
9A62
330
97F4
100
AcDbDictionary
280
     1
281
     1
  3
ADSK_XREC_LAYER_RECONCILED
360
9A63
  0
DICTIONARY
  5
9A64
330
980A
100
AcDbDictionary
280
     1
281
     1
  3
ADSK_XREC_LAYER_RECONCILED
360
9A65
  0
DICTIONARY
  5
9A66
330
980B
100
AcDbDictionary
280
     1
281
     1
  3
ADSK_XREC_LAYER_RECONCILED
360
9A67
  0
DICTIONARY
  5
9A68
330
980C
100
AcDbDictionary
280
     1
281
     1
  3
ADSK_XREC_LAYER_RECONCILED
360
9A69
  0
DICTIONARY
  5
9A6A
330
980D
100
AcDbDictionary
280
     1
281
     1
  3
ADSK_XREC_LAYER_RECONCILED
360
9A6B
  0
DICTIONARY
  5
9A6C
330
980E
100
AcDbDictionary
280
     1
281
     1
  3
ADSK_XREC_LAYER_RECONCILED
360
9A6D
  0
DICTIONARY
  5
9A6E
330
980F
100
AcDbDictionary
280
     1
281
     1
  3
ADSK_XREC_LAYER_RECONCILED
360
9A6F
  0
DICTIONARY
  5
9A70
330
9810
100
AcDbDictionary
280
     1
281
     1
  3
ADSK_XREC_LAYER_RECONCILED
360
9A71
  0
DICTIONARY
  5
99CB
330
9802
100
AcDbDictionary
281
     1
  3
ACAD_LAYOUTSELFREF
350
9A0B
  0
DICTIONARY
  5
99C9
330
97FE
100
AcDbDictionary
281
     1
  3
ACAD_LAYOUTSELFREF
350
9A0A
  0
XRECORD
  5
9A61
102
{ACAD_REACTORS
330
97F0
102
}
330
97F0
100
AcDbXrecord
280
     1
300
ACDLT
300
2014
300
ACDLT_F_S
  0
DICTIONARY
  5
9A43
102
{ACAD_REACTORS
330
97F0
102
}
330
97F0
100
AcDbDictionary
281
     1
  0
DICTIONARY
  5
9A5C
102
{ACAD_REACTORS
330
97F0
102
}
330
97F0
100
AcDbDictionary
281
     1
  3
Imperial24
350
9A5D
  0
DICTIONARY
  5
97F1
102
{ACAD_REACTORS
330
97F0
102
}
330
97F0
100
AcDbDictionary
281
     1
  0
DICTIONARY
  5
97FD
102
{ACAD_REACTORS
330
97F0
102
}
330
97F0
100
AcDbDictionary
281
     1
  3
Model
350
9A5E
  3
レイアウト1
350
9A5F
  0
DICTIONARY
  5
9A11
102
{ACAD_REACTORS
330
97F0
102
}
330
97F0
100
AcDbDictionary
281
     1
  3
ByBlock
350
9A1A
  3
ByLayer
350
9A12
  3
Global
350
9A22
  0
DICTIONARY
  5
9A58
102
{ACAD_REACTORS
330
97F0
102
}
330
97F0
100
AcDbDictionary
281
     1
  3
Standard
350
9A59
  0
DICTIONARY
  5
97FA
102
{ACAD_REACTORS
330
97F0
102
}
330
97F0
100
AcDbDictionary
281
     1
  3
STANDARD
350
97FB
  0
DICTIONARY
  5
97FC
102
{ACAD_REACTORS
330
97F0
102
}
330
97F0
100
AcDbDictionary
281
     1
  0
ACDBDICTIONARYWDFLT
  5
9A0F
102
{ACAD_REACTORS
330
97F0
102
}
330
97F0
100
AcDbDictionary
281
     1
  3
Normal
350
9A10
100
AcDbDictionaryWithDefault
340
9A10
  0
DICTIONARY
  5
9A46
102
{ACAD_REACTORS
330
97F0
102
}
330
97F0
100
AcDbDictionary
281
     1
  3
A0
350
9A47
  3
A1
350
9A48
  3
A2
350
9A49
  3
A3
350
9A4A
  3
A4
350
9A4B
  3
A5
350
9A4C
  3
A6
350
9A4D
  3
A7
350
9A4E
  3
A8
350
9A4F
  3
A9
350
9A50
  3
B0
350
9A51
  3
B1
350
9A52
  3
B2
350
9A53
  3
B3
350
9A54
  3
B4
350
9A55
  3
B5
350
9A56
  3
B6
350
9A57
  0
DICTIONARY
  5
9A5A
102
{ACAD_REACTORS
330
97F0
102
}
330
97F0
100
AcDbDictionary
281
     1
  3
Imperial24
350
9A5B
  0
DICTIONARY
  5
9A44
102
{ACAD_REACTORS
330
97F0
102
}
330
97F0
100
AcDbDictionary
281
     1
  3
Standard
350
9A45
  0
DICTIONARY
  5
9A2A
102
{ACAD_REACTORS
330
97F0
102
}
330
97F0
100
AcDbDictionary
281
     1
  3
2dWireframe
350
9A30
  3
Basic
350
9A2F
  3
Brighten
350
9A36
  3
ColorChange
350
9A3A
  3
Conceptual
350
9A33
  3
Dim
350
9A35
  3
EdgeColorOff
350
9A42
  3
Facepattern
350
9A39
  3
Flat
350
9A2B
  3
FlatWithEdges
350
9A2C
  3
Gouraud
350
9A2D
  3
GouraudWithEdges
350
9A2E
  3
Hidden
350
9A32
  3
JitterOff
350
9A40
  3
Linepattern
350
9A38
  3
OverhangOff
350
9A41
  3
Realistic
350
9A34
  3
Shaded
350
9A3F
  3
Shaded with edges
350
9A3E
  3
Shades of Gray
350
9A3B
  3
Sketchy
350
9A3C
  3
Thicken
350
9A37
  3
Wireframe
350
9A31
  3
X-Ray
350
9A3D
  0
XRECORD
  5
9A7F
102
{ACAD_REACTORS
330
97F0
102
}
330
97F0
100
AcDbXrecord
280
     1
 90
        1
330
9A45
  0
DICTIONARY
  5
9A72
102
{ACAD_REACTORS
330
97F0
102
}
330
97F0
100
AcDbDictionary
281
     1
  3
CANNOSCALE
350
9A77
  3
CMLEADERSTYLE
350
9A74
  3
CTABLESTYLE
350
9A73
  3
CVIEWDETAILSTYLE
350
9A75
  3
CVIEWSECTIONSTYLE
350
9A76
  3
DIMASSOC
350
9A7A
  3
INDEXCTL
350
9A79
  3
SORTENTS
350
9A78
  3
XCLIPFRAME
350
9A7B
  0
XRECORD
  5
9A80
102
{ACAD_REACTORS
330
97F0
102
}
330
97F0
100
AcDbXrecord
280
     1
  1
DWGPROPS COOKIE
  2

  3

  4

  6

  7

  8
Yoshitsune
  9

300
=
301
=
302
=
303
=
304
=
305
=
306
=
307
=
308
=
309
=
 40
0.1103848726851852
 41
2451301.455053819
 42
2457192.690194387
  1

 90
        0
  0
XRECORD
  5
9A63
102
{ACAD_REACTORS
330
9A62
102
}
330
9A62
100
AcDbXrecord
280
     1
290
     1
  0
XRECORD
  5
9A65
102
{ACAD_REACTORS
330
9A64
102
}
330
9A64
100
AcDbXrecord
280
     1
290
     1
  0
XRECORD
  5
9A67
102
{ACAD_REACTORS
330
9A66
102
}
330
9A66
100
AcDbXrecord
280
     1
290
     1
  0
XRECORD
  5
9A69
102
{ACAD_REACTORS
330
9A68
102
}
330
9A68
100
AcDbXrecord
280
     1
290
     1
  0
XRECORD
  5
9A6B
102
{ACAD_REACTORS
330
9A6A
102
}
330
9A6A
100
AcDbXrecord
280
     1
290
     1
  0
XRECORD
  5
9A6D
102
{ACAD_REACTORS
330
9A6C
102
}
330
9A6C
100
AcDbXrecord
280
     1
290
     1
  0
XRECORD
  5
9A6F
102
{ACAD_REACTORS
330
9A6E
102
}
330
9A6E
100
AcDbXrecord
280
     1
290
     1
  0
XRECORD
  5
9A71
102
{ACAD_REACTORS
330
9A70
102
}
330
9A70
100
AcDbXrecord
280
     1
290
     1
  0
XRECORD
  5
9A0B
102
{ACAD_REACTORS
330
99CB
102
}
330
99CB
100
AcDbXrecord
280
     1
340
9802
  0
XRECORD
  5
9A0A
102
{ACAD_REACTORS
330
99C9
102
}
330
99C9
100
AcDbXrecord
280
     1
340
97FE
  0
ACDBDETAILVIEWSTYLE
  5
9A5D
102
{ACAD_XDICTIONARY
360
9AB8
102
}
102
{ACAD_REACTORS
330
9A5C
102
}
330
9A5C
100
AcDbModelDocViewStyle
 70
     0
  3
Imperial24
290
     0
100
AcDbDetailViewStyle
 70
     0
 71
     0
 90
        3
 71
     1
340
97F5
 40
0.24
340
0
 40
0.24
300

 40
0.36
280
     3
 71
     2
340
97F9
 90
       25
 71
     3
340
97F5
 40
0.24
 90
        1
 40
0.75
 90
        1
300
%<\AcVar ViewType \f "%tc1">% %<\AcVar ViewDetailId>%\PSCALE %<\AcVar ViewScale \f "%sn">%
 71
     4
340
97F9
 90
       25
340
97F9
 90
       25
280
     0
  0
LAYOUT
  5
9A5E
102
{ACAD_XDICTIONARY
360
9ABA
102
}
102
{ACAD_REACTORS
330
97FD
102
}
330
97FD
100
AcDbPlotSettings
  1

  2
Canon LBP9100C
  4

  6

 40
0.0
 41
0.0
 42
0.0
 43
0.0
 44
0.0
 45
0.0
 46
0.0
 47
0.0
 48
0.0
 49
0.0
140
0.0
141
0.0
142
1.0
143
1.0
 70
  1712
 72
     0
 73
     0
 74
     0
  7

 75
     0
147
1.0
148
0.0
149
0.0
100
AcDbLayout
  1
Model
 70
     1
 71
     0
 10
0.0
 20
0.0
 11
12.0
 21
9.0
 12
0.0
 22
0.0
 32
0.0
 14
0.0
 24
0.0
 34
0.0
 15
0.0
 25
0.0
 35
0.0
146
0.0
 13
0.0
 23
0.0
 33
0.0
 16
1.0
 26
0.0
 36
0.0
 17
0.0
 27
1.0
 37
0.0
 76
     0
330
9802
331
9A09
  0
LAYOUT
  5
9A5F
102
{ACAD_XDICTIONARY
360
9ABC
102
}
102
{ACAD_REACTORS
330
97FD
102
}
330
97FD
100
AcDbPlotSettings
  1

  2
Canon LBP9100C
  4

  6

 40
0.0
 41
0.0
 42
0.0
 43
0.0
 44
0.0
 45
0.0
 46
0.0
 47
0.0
 48
0.0
 49
0.0
140
0.0
141
0.0
142
1.0
143
1.0
 70
   688
 72
     0
 73
     0
 74
     5
  7

 75
    16
147
1.0
148
0.0
149
0.0
100
AcDbLayout
  1
レイアウト1
 70
     0
 71
     1
 10
0.0
 20
0.0
 11
420.0
 21
297.0
 12
0.0
 22
0.0
 32
0.0
 14
1.000000000000000E+20
 24
1.000000000000000E+20
 34
1.000000000000000E+20
 15
-1.000000000000000E+20
 25
-1.000000000000000E+20
 35
-1.000000000000000E+20
146
0.0
 13
0.0
 23
0.0
 33
0.0
 16
1.0
 26
0.0
 36
0.0
 17
0.0
 27
1.0
 37
0.0
 76
     0
330
97FE
  0
MATERIAL
  5
9A1A
102
{ACAD_XDICTIONARY
360
9A1B
102
}
102
{ACAD_REACTORS
330
9A11
102
}
330
9A11
100
AcDbMaterial
  1
ByBlock
 72
     0
 43
0.0208333333333333
 43
0.0
 43
0.0
 43
0.0
 43
0.0
 43
0.0208333333333333
 43
0.0
 43
0.0
 43
0.0
 43
0.0
 43
1.0
 43
0.0
 43
0.0
 43
0.0
 43
0.0
 43
1.0
 77
     0
 47
0.0208333333333333
 47
0.0
 47
0.0
 47
0.0
 47
0.0
 47
0.0208333333333333
 47
0.0
 47
0.0
 47
0.0
 47
0.0
 47
1.0
 47
0.0
 47
0.0
 47
0.0
 47
0.0
 47
1.0
171
     0
 49
0.0208333333333333
 49
0.0
 49
0.0
 49
0.0
 49
0.0
 49
0.0208333333333333
 49
0.0
 49
0.0
 49
0.0
 49
0.0
 49
1.0
 49
0.0
 49
0.0
 49
0.0
 49
0.0
 49
1.0
175
     0
142
0.0208333333333333
142
0.0
142
0.0
142
0.0
142
0.0
142
0.0208333333333333
142
0.0
142
0.0
142
0.0
142
0.0
142
1.0
142
0.0
142
0.0
142
0.0
142
0.0
142
1.0
179
     0
144
0.0208333333333333
144
0.0
144
0.0
144
0.0
144
0.0
144
0.0208333333333333
144
0.0
144
0.0
144
0.0
144
0.0
144
1.0
144
0.0
144
0.0
144
0.0
144
0.0
144
1.0
147
0.0208333333333333
147
0.0
147
0.0
147
0.0
147
0.0
147
0.0208333333333333
147
0.0
147
0.0
147
0.0
147
0.0
147
1.0
147
0.0
147
0.0
147
0.0
147
0.0
147
1.0
  0
MATERIAL
  5
9A12
102
{ACAD_XDICTIONARY
360
9A13
102
}
102
{ACAD_REACTORS
330
9A11
102
}
330
9A11
100
AcDbMaterial
  1
ByLayer
 72
     0
 43
0.0208333333333333
 43
0.0
 43
0.0
 43
0.0
 43
0.0
 43
0.0208333333333333
 43
0.0
 43
0.0
 43
0.0
 43
0.0
 43
1.0
 43
0.0
 43
0.0
 43
0.0
 43
0.0
 43
1.0
 77
     0
 47
0.0208333333333333
 47
0.0
 47
0.0
 47
0.0
 47
0.0
 47
0.0208333333333333
 47
0.0
 47
0.0
 47
0.0
 47
0.0
 47
1.0
 47
0.0
 47
0.0
 47
0.0
 47
0.0
 47
1.0
171
     0
 49
0.0208333333333333
 49
0.0
 49
0.0
 49
0.0
 49
0.0
 49
0.0208333333333333
 49
0.0
 49
0.0
 49
0.0
 49
0.0
 49
1.0
 49
0.0
 49
0.0
 49
0.0
 49
0.0
 49
1.0
175
     0
142
0.0208333333333333
142
0.0
142
0.0
142
0.0
142
0.0
142
0.0208333333333333
142
0.0
142
0.0
142
0.0
142
0.0
142
1.0
142
0.0
142
0.0
142
0.0
142
0.0
142
1.0
179
     0
144
0.0208333333333333
144
0.0
144
0.0
144
0.0
144
0.0
144
0.0208333333333333
144
0.0
144
0.0
144
0.0
144
0.0
144
1.0
144
0.0
144
0.0
144
0.0
144
0.0
144
1.0
147
0.0208333333333333
147
0.0
147
0.0
147
0.0
147
0.0
147
0.0208333333333333
147
0.0
147
0.0
147
0.0
147
0.0
147
1.0
147
0.0
147
0.0
147
0.0
147
0.0
147
1.0
  0
MATERIAL
  5
9A22
102
{ACAD_XDICTIONARY
360
9A23
102
}
102
{ACAD_REACTORS
330
9A11
102
}
330
9A11
100
AcDbMaterial
  1
Global
 72
     0
 43
0.0208333333333333
 43
0.0
 43
0.0
 43
0.0
 43
0.0
 43
0.0208333333333333
 43
0.0
 43
0.0
 43
0.0
 43
0.0
 43
1.0
 43
0.0
 43
0.0
 43
0.0
 43
0.0
 43
1.0
 77
     0
 47
0.0208333333333333
 47
0.0
 47
0.0
 47
0.0
 47
0.0
 47
0.0208333333333333
 47
0.0
 47
0.0
 47
0.0
 47
0.0
 47
1.0
 47
0.0
 47
0.0
 47
0.0
 47
0.0
 47
1.0
171
     0
 49
0.0208333333333333
 49
0.0
 49
0.0
 49
0.0
 49
0.0
 49
0.0208333333333333
 49
0.0
 49
0.0
 49
0.0
 49
0.0
 49
1.0
 49
0.0
 49
0.0
 49
0.0
 49
0.0
 49
1.0
175
     0
142
0.0208333333333333
142
0.0
142
0.0
142
0.0
142
0.0
142
0.0208333333333333
142
0.0
142
0.0
142
0.0
142
0.0
142
1.0
142
0.0
142
0.0
142
0.0
142
0.0
142
1.0
179
     0
144
0.0208333333333333
144
0.0
144
0.0
144
0.0
144
0.0
144
0.0208333333333333
144
0.0
144
0.0
144
0.0
144
0.0
144
1.0
144
0.0
144
0.0
144
0.0
144
0.0
144
1.0
147
0.0208333333333333
147
0.0
147
0.0
147
0.0
147
0.0
147
0.0208333333333333
147
0.0
147
0.0
147
0.0
147
0.0
147
1.0
147
0.0
147
0.0
147
0.0
147
0.0
147
1.0
  0
MLEADERSTYLE
  5
9A59
102
{ACAD_REACTORS
330
9A58
102
}
330
9A58
100
AcDbMLeaderStyle
170
     2
171
     1
172
     0
 90
        2
 40
0.0
 41
0.0
173
     1
 91
-1056964608
340
97F7
 92
       -2
290
     1
 42
0.09
291
     1
 43
0.36
  3
Standard
 44
0.18
300

342
97F5
174
     1
178
     6
175
     1
176
     0
 93
-1056964608
 45
0.18
292
     0
297
     0
 46
0.18
 94
-1056964608
 47
1.0
 49
1.0
140
1.0
293
     1
141
0.0
294
     1
177
     0
142
1.0
295
     0
296
     0
143
0.125
1001
ACAD_MLEADERVER
1070
     2
  0
MLINESTYLE
  5
97FB
102
{ACAD_REACTORS
330
97FA
102
}
330
97FA
100
AcDbMlineStyle
  2
STANDARD
 70
     0
  3

 62
   256
 51
90.0
 52
90.0
 71
     2
 49
0.5
 62
   256
  6
BYLAYER
 49
-0.5
 62
   256
  6
BYLAYER
  0
ACDBPLACEHOLDER
  5
9A10
102
{ACAD_REACTORS
330
9A0F
102
}
330
9A0F
  0
SCALE
  5
9A47
102
{ACAD_REACTORS
330
9A46
102
}
330
9A46
100
AcDbScale
 70
     0
300
1:1
140
1.0
141
1.0
290
     1
  0
SCALE
  5
9A48
102
{ACAD_REACTORS
330
9A46
102
}
330
9A46
100
AcDbScale
 70
     0
300
1/128" = 1'-0"
140
0.0078125
141
12.0
290
     0
  0
SCALE
  5
9A49
102
{ACAD_REACTORS
330
9A46
102
}
330
9A46
100
AcDbScale
 70
     0
300
1/64" = 1'-0"
140
0.015625
141
12.0
290
     0
  0
SCALE
  5
9A4A
102
{ACAD_REACTORS
330
9A46
102
}
330
9A46
100
AcDbScale
 70
     0
300
1/32" = 1'-0"
140
0.03125
141
12.0
290
     0
  0
SCALE
  5
9A4B
102
{ACAD_REACTORS
330
9A46
102
}
330
9A46
100
AcDbScale
 70
     0
300
1/16" = 1'-0"
140
0.0625
141
12.0
290
     0
  0
SCALE
  5
9A4C
102
{ACAD_REACTORS
330
9A46
102
}
330
9A46
100
AcDbScale
 70
     0
300
3/32" = 1'-0"
140
0.09375
141
12.0
290
     0
  0
SCALE
  5
9A4D
102
{ACAD_REACTORS
330
9A46
102
}
330
9A46
100
AcDbScale
 70
     0
300
1/8" = 1'-0"
140
0.125
141
12.0
290
     0
  0
SCALE
  5
9A4E
102
{ACAD_REACTORS
330
9A46
102
}
330
9A46
100
AcDbScale
 70
     0
300
3/16" = 1'-0"
140
0.1875
141
12.0
290
     0
  0
SCALE
  5
9A4F
102
{ACAD_REACTORS
330
9A46
102
}
330
9A46
100
AcDbScale
 70
     0
300
1/4" = 1'-0"
140
0.25
141
12.0
290
     0
  0
SCALE
  5
9A50
102
{ACAD_REACTORS
330
9A46
102
}
330
9A46
100
AcDbScale
 70
     0
300
3/8" = 1'-0"
140
0.375
141
12.0
290
     0
  0
SCALE
  5
9A51
102
{ACAD_REACTORS
330
9A46
102
}
330
9A46
100
AcDbScale
 70
     0
300
1/2" = 1'-0"
140
0.5
141
12.0
290
     0
  0
SCALE
  5
9A52
102
{ACAD_REACTORS
330
9A46
102
}
330
9A46
100
AcDbScale
 70
     0
300
3/4" = 1'-0"
140
0.75
141
12.0
290
     0
  0
SCALE
  5
9A53
102
{ACAD_REACTORS
330
9A46
102
}
330
9A46
100
AcDbScale
 70
     0
300
1" = 1'-0"
140
1.0
141
12.0
290
     0
  0
SCALE
  5
9A54
102
{ACAD_REACTORS
330
9A46
102
}
330
9A46
100
AcDbScale
 70
     0
300
1-1/2" = 1'-0"
140
1.5
141
12.0
290
     0
  0
SCALE
  5
9A55
102
{ACAD_REACTORS
330
9A46
102
}
330
9A46
100
AcDbScale
 70
     0
300
3" = 1'-0"
140
3.0
141
12.0
290
     0
  0
SCALE
  5
9A56
102
{ACAD_REACTORS
330
9A46
102
}
330
9A46
100
AcDbScale
 70
     0
300
6" = 1'-0"
140
6.0
141
12.0
290
     0
  0
SCALE
  5
9A57
102
{ACAD_REACTORS
330
9A46
102
}
330
9A46
100
AcDbScale
 70
     0
300
1'-0" = 1'-0"
140
12.0
141
12.0
290
     0
  0
ACDBSECTIONVIEWSTYLE
  5
9A5B
102
{ACAD_XDICTIONARY
360
9AB6
102
}
102
{ACAD_REACTORS
330
9A5A
102
}
330
9A5A
100
AcDbModelDocViewStyle
 70
     0
  3
Imperial24
290
     0
100
AcDbSectionViewStyle
 70
     0
 71
     0
 90
       78
 71
     1
340
97F5
 40
0.24
340
0
340
0
 40
0.24
300
I, O, Q, S, X, Z
 40
0.48
 90
        3
 40
0.18
 90
        1
 71
     2
340
97F9
 90
       25
340
97F9
 90
       50
 40
0.24
 40
0.0
 40
0.24
 71
     3
340
97F5
 40
0.24
 90
        1
 40
0.75
 90
        1
300
%<\AcVar ViewType \f "%tc1">% %<\AcVar ViewSectionStartId>%-%<\AcVar ViewSectionEndId>%\PSCALE %<\AcVar ViewScale \f "%sn">%
 71
     4
300
ANSI31
 40
1.0
 90
        0
290
     0
290
     0
 90
        6
 40
0.0
 40
1.570796326794896
 40
0.2617993877991494
 40
1.308996938995747
 40
-0.2617993877991494
 40
1.832595714594046
  0
TABLESTYLE
  5
9A45
102
{ACAD_XDICTIONARY
360
9A7D
102
}
102
{ACAD_REACTORS
330
9A44
102
}
330
9A44
100
AcDbTableStyle
  3
Standard
 70
     0
 71
     0
 40
0.06
 41
0.06
280
     0
281
     0
  7
STANDARD
140
0.18
170
     2
 62
     0
 63
     7
283
     0
274
    -2
284
     1
 64
     0
275
    -2
285
     1
 65
     0
276
    -2
286
     1
 66
     0
277
    -2
287
     1
 67
     0
278
    -2
288
     1
 68
     0
279
    -2
289
     1
 69
     0
  7
STANDARD
140
0.25
170
     5
 62
     0
 63
     7
283
     0
274
    -2
284
     1
 64
     0
275
    -2
285
     1
 65
     0
276
    -2
286
     1
 66
     0
277
    -2
287
     1
 67
     0
278
    -2
288
     1
 68
     0
279
    -2
289
     1
 69
     0
  7
STANDARD
140
0.18
170
     5
 62
     0
 63
     7
283
     0
274
    -2
284
     1
 64
     0
275
    -2
285
     1
 65
     0
276
    -2
286
     1
 66
     0
277
    -2
287
     1
 67
     0
278
    -2
288
     1
 68
     0
279
    -2
289
     1
 69
     0
  0
VISUALSTYLE
  5
9A30
102
{ACAD_XDICTIONARY
360
9A8E
102
}
102
{ACAD_REACTORS
330
9A2A
102
}
330
9A2A
100
AcDbVisualStyle
  2
2dWireframe
 70
     4
 71
     0
 72
     2
 73
     0
 90
        0
 40
-0.6
 41
-30.0
 62
     5
 63
     7
 74
     1
 91
        4
 64
     7
 65
   257
 75
     1
175
     1
 42
1.0
 92
        0
 66
   257
 43
1.0
 76
     1
 77
     6
 78
     2
 67
     7
 79
     5
170
     0
171
     0
290
     0
174
     0
 93
        1
 44
0.0
173
     0
291
     0
 45
0.0
1001
ACAD
1000
AcDbSavedByObjectVersion
1070
     0
  0
VISUALSTYLE
  5
9A2F
102
{ACAD_XDICTIONARY
360
9A8C
102
}
102
{ACAD_REACTORS
330
9A2A
102
}
330
9A2A
100
AcDbVisualStyle
  2
Basic
 70
     7
 71
     1
 72
     0
 73
     1
 90
        0
 40
-0.6
 41
-30.0
 62
     5
 63
     7
 74
     0
 91
        4
 64
     7
 65
   257
 75
     1
175
     1
 42
1.0
 92
        8
 66
     7
 43
1.0
 76
     1
 77
     6
 78
     2
 67
     7
 79
     5
170
     0
171
     0
290
     0
174
     0
 93
        1
 44
0.0
173
     0
291
     1
 45
0.0
1001
ACAD
1000
AcDbSavedByObjectVersion
1070
     0
  0
VISUALSTYLE
  5
9A36
102
{ACAD_XDICTIONARY
360
9A9A
102
}
102
{ACAD_REACTORS
330
9A2A
102
}
330
9A2A
100
AcDbVisualStyle
  2
Brighten
 70
    12
 71
     2
 72
     2
 73
     0
 90
        0
 40
-0.6
 41
-30.0
 62
     5
 63
     7
 74
     1
 91
        4
 64
     7
 65
   257
 75
     1
175
     1
 42
1.0
 92
        8
 66
     7
 43
1.0
 76
     1
 77
     6
 78
     2
 67
     7
 79
     5
170
     0
171
     0
290
     0
174
     0
 93
        1
 44
50.0
173
     0
291
     1
 45
0.0
1001
ACAD
1000
AcDbSavedByObjectVersion
1070
     0
  0
VISUALSTYLE
  5
9A3A
102
{ACAD_XDICTIONARY
360
9AA2
102
}
102
{ACAD_REACTORS
330
9A2A
102
}
330
9A2A
100
AcDbVisualStyle
  2
ColorChange
 70
    16
 71
     2
 72
     2
 73
     3
 90
        0
 40
-0.6
 41
-30.0
 62
     5
 63
     8
 74
     1
 91
        4
 64
     7
 65
   257
 75
     1
175
     1
 42
1.0
 92
        8
 66
     8
 43
1.0
 76
     1
 77
     6
 78
     2
 67
     7
 79
     5
170
     0
171
     0
290
     0
174
     0
 93
        1
 44
0.0
173
     0
291
     1
 45
0.0
1001
ACAD
1000
AcDbSavedByObjectVersion
1070
     0
  0
VISUALSTYLE
  5
9A33
102
{ACAD_XDICTIONARY
360
9A94
102
}
102
{ACAD_REACTORS
330
9A2A
102
}
330
9A2A
100
AcDbVisualStyle
  2
Conceptual
 70
     9
 71
     3
 72
     2
 73
     0
 90
        0
 40
-0.6
 41
-30.0
 62
     5
 63
     7
 74
     2
 91
        2
 64
     7
 65
   257
 75
     1
175
     1
 42
179.0
 92
        8
 66
     7
 43
1.0
 76
     1
 77
     6
 78
     2
 67
     7
 79
     3
170
     0
171
     0
290
     0
174
     0
 93
        1
 44
0.0
173
     0
291
     0
 45
0.0
1001
ACAD
1000
AcDbSavedByObjectVersion
1070
     0
  0
VISUALSTYLE
  5
9A35
102
{ACAD_XDICTIONARY
360
9A98
102
}
102
{ACAD_REACTORS
330
9A2A
102
}
330
9A2A
100
AcDbVisualStyle
  2
Dim
 70
    11
 71
     2
 72
     2
 73
     0
 90
        0
 40
-0.6
 41
-30.0
 62
     5
 63
     7
 74
     1
 91
        4
 64
     7
 65
   257
 75
     1
175
     1
 42
1.0
 92
        8
 66
     7
 43
1.0
 76
     1
 77
     6
 78
     2
 67
     7
 79
     5
170
     0
171
     0
290
     0
174
     0
 93
        1
 44
-50.0
173
     0
291
     1
 45
0.0
1001
ACAD
1000
AcDbSavedByObjectVersion
1070
     0
  0
VISUALSTYLE
  5
9A42
102
{ACAD_XDICTIONARY
360
9AB2
102
}
102
{ACAD_REACTORS
330
9A2A
102
}
330
9A2A
100
AcDbVisualStyle
  2
EdgeColorOff
 70
    22
 71
     2
 72
     2
 73
     0
 90
        0
 40
-0.6
 41
-30.0
 62
     5
 63
     7
 74
     1
 91
        4
 64
     7
 65
   257
 75
     1
175
     1
 42
1.0
 92
        8
 66
     7
 43
1.0
 76
     1
 77
     6
 78
     2
 67
     7
 79
     5
170
     0
171
     0
290
     0
174
     0
 93
        1
 44
0.0
173
     0
291
     1
 45
0.0
1001
ACAD
1000
AcDbSavedByObjectVersion
1070
     0
  0
VISUALSTYLE
  5
9A39
102
{ACAD_XDICTIONARY
360
9AA0
102
}
102
{ACAD_REACTORS
330
9A2A
102
}
330
9A2A
100
AcDbVisualStyle
  2
Facepattern
 70
    15
 71
     2
 72
     2
 73
     0
 90
        0
 40
-0.6
 41
-30.0
 62
     5
 63
     7
 74
     1
 91
        4
 64
     7
 65
   257
 75
     1
175
     1
 42
1.0
 92
        8
 66
     7
 43
1.0
 76
     1
 77
     6
 78
     2
 67
     7
 79
     5
170
     0
171
     0
290
     0
174
     0
 93
        1
 44
0.0
173
     0
291
     1
 45
0.0
1001
ACAD
1000
AcDbSavedByObjectVersion
1070
     0
  0
VISUALSTYLE
  5
9A2B
102
{ACAD_XDICTIONARY
360
9A84
102
}
102
{ACAD_REACTORS
330
9A2A
102
}
330
9A2A
100
AcDbVisualStyle
  2
Flat
 70
     0
 71
     2
 72
     1
 73
     1
 90
        2
 40
-0.6
 41
30.0
 62
     5
 63
     7
 74
     0
 91
        0
 64
     7
 65
   257
 75
     1
175
     1
 42
1.0
 92
        8
 66
     7
 43
1.0
 76
     1
 77
     6
 78
     2
 67
     7
 79
     5
170
     0
171
     0
290
     0
174
     0
 93
       13
 44
0.0
173
     0
291
     1
 45
0.0
1001
ACAD
1000
AcDbSavedByObjectVersion
1070
     0
  0
VISUALSTYLE
  5
9A2C
102
{ACAD_XDICTIONARY
360
9A86
102
}
102
{ACAD_REACTORS
330
9A2A
102
}
330
9A2A
100
AcDbVisualStyle
  2
FlatWithEdges
 70
     1
 71
     2
 72
     1
 73
     1
 90
        2
 40
-0.6
 41
30.0
 62
     5
 63
     7
 74
     1
 91
        0
 64
     7
 65
   257
 75
     1
175
     1
 42
1.0
 92
        0
 66
   257
 43
1.0
 76
     1
 77
     6
 78
     2
 67
     7
 79
     5
170
     0
171
     0
290
     0
174
     0
 93
       13
 44
0.0
173
     0
291
     1
 45
0.0
1001
ACAD
1000
AcDbSavedByObjectVersion
1070
     0
  0
VISUALSTYLE
  5
9A2D
102
{ACAD_XDICTIONARY
360
9A88
102
}
102
{ACAD_REACTORS
330
9A2A
102
}
330
9A2A
100
AcDbVisualStyle
  2
Gouraud
 70
     2
 71
     2
 72
     2
 73
     1
 90
        2
 40
-0.6
 41
30.0
 62
     5
 63
     7
 74
     0
 91
        0
 64
     7
 65
   257
 75
     1
175
     1
 42
1.0
 92
        0
 66
     7
 43
1.0
 76
     1
 77
     6
 78
     2
 67
     7
 79
     5
170
     0
171
     0
290
     0
174
     0
 93
       13
 44
0.0
173
     0
291
     1
 45
0.0
1001
ACAD
1000
AcDbSavedByObjectVersion
1070
     0
  0
VISUALSTYLE
  5
9A2E
102
{ACAD_XDICTIONARY
360
9A8A
102
}
102
{ACAD_REACTORS
330
9A2A
102
}
330
9A2A
100
AcDbVisualStyle
  2
GouraudWithEdges
 70
     3
 71
     2
 72
     2
 73
     1
 90
        2
 40
-0.6
 41
30.0
 62
     5
 63
     7
 74
     1
 91
        0
 64
     7
 65
   257
 75
     1
175
     1
 42
1.0
 92
        0
 66
   257
 43
1.0
 76
     1
 77
     6
 78
     2
 67
     7
 79
     5
170
     0
171
     0
290
     0
174
     0
 93
       13
 44
0.0
173
     0
291
     1
 45
0.0
1001
ACAD
1000
AcDbSavedByObjectVersion
1070
     0
  0
VISUALSTYLE
  5
9A32
102
{ACAD_XDICTIONARY
360
9A92
102
}
102
{ACAD_REACTORS
330
9A2A
102
}
330
9A2A
100
AcDbVisualStyle
  2
Hidden
 70
     6
 71
     1
 72
     2
 73
     2
 90
        0
 40
-0.6
 41
-30.0
 62
     5
 63
     7
 74
     2
 91
        2
 64
     7
 65
   257
 75
     2
175
     1
 42
40.0
 92
        0
 66
   257
 43
1.0
 76
     1
 77
     6
 78
     2
 67
     7
 79
     3
170
     0
171
     0
290
     0
174
     0
 93
        1
 44
0.0
173
     0
291
     0
 45
0.0
1001
ACAD
1000
AcDbSavedByObjectVersion
1070
     0
  0
VISUALSTYLE
  5
9A40
102
{ACAD_XDICTIONARY
360
9AAE
102
}
102
{ACAD_REACTORS
330
9A2A
102
}
330
9A2A
100
AcDbVisualStyle
  2
JitterOff
 70
    20
 71
     2
 72
     2
 73
     0
 90
        0
 40
-0.6
 41
-30.0
 62
     5
 63
     7
 74
     1
 91
        4
 64
     7
 65
   257
 75
     1
175
     1
 42
1.0
 92
       10
 66
     7
 43
1.0
 76
     1
 77
     6
 78
     2
 67
     7
 79
     5
170
     0
171
     0
290
     0
174
     0
 93
        1
 44
0.0
173
     0
291
     1
 45
0.0
1001
ACAD
1000
AcDbSavedByObjectVersion
1070
     0
  0
VISUALSTYLE
  5
9A38
102
{ACAD_XDICTIONARY
360
9A9E
102
}
102
{ACAD_REACTORS
330
9A2A
102
}
330
9A2A
100
AcDbVisualStyle
  2
Linepattern
 70
    14
 71
     2
 72
     2
 73
     0
 90
        0
 40
-0.6
 41
-30.0
 62
     5
 63
     7
 74
     1
 91
        4
 64
     7
 65
   257
 75
     7
175
     7
 42
1.0
 92
        8
 66
     7
 43
1.0
 76
     1
 77
     6
 78
     2
 67
     7
 79
     5
170
     0
171
     0
290
     0
174
     0
 93
        1
 44
0.0
173
     0
291
     1
 45
0.0
1001
ACAD
1000
AcDbSavedByObjectVersion
1070
     0
  0
VISUALSTYLE
  5
9A41
102
{ACAD_XDICTIONARY
360
9AB0
102
}
102
{ACAD_REACTORS
330
9A2A
102
}
330
9A2A
100
AcDbVisualStyle
  2
OverhangOff
 70
    21
 71
     2
 72
     2
 73
     0
 90
        0
 40
-0.6
 41
-30.0
 62
     5
 63
     7
 74
     1
 91
        4
 64
     7
 65
   257
 75
     1
175
     1
 42
1.0
 92
        9
 66
     7
 43
1.0
 76
     1
 77
     6
 78
     2
 67
     7
 79
     5
170
     0
171
     0
290
     0
174
     0
 93
        1
 44
0.0
173
     0
291
     1
 45
0.0
1001
ACAD
1000
AcDbSavedByObjectVersion
1070
     0
  0
VISUALSTYLE
  5
9A34
102
{ACAD_XDICTIONARY
360
9A96
102
}
102
{ACAD_REACTORS
330
9A2A
102
}
330
9A2A
100
AcDbVisualStyle
  2
Realistic
 70
     8
 71
     2
 72
     3
 73
     0
 90
        2
 40
-0.6
 41
30.0
 62
     5
 63
     7
 74
     0
 91
        0
 64
     7
 65
   257
 75
     1
175
     1
 42
1.0
 92
        8
 66
   257
 43
1.0
 76
     1
 77
     6
 78
     2
 67
     7
 79
     3
170
     0
171
     0
290
     0
174
     0
 93
       13
 44
0.0
173
     0
291
     0
 45
0.0
1001
ACAD
1000
AcDbSavedByObjectVersion
1070
     0
  0
VISUALSTYLE
  5
9A3F
102
{ACAD_XDICTIONARY
360
9AAC
102
}
102
{ACAD_REACTORS
330
9A2A
102
}
330
9A2A
100
AcDbVisualStyle
  2
Shaded
 70
    27
 71
     2
 72
     2
 73
     1
 90
        2
 40
-0.6
 41
30.0
 62
     5
 63
     7
 74
     0
 91
        4
 64
     7
 65
   257
 75
     1
175
     1
 42
1.0
 92
        8
 66
   257
 43
1.0
 76
     1
 77
     6
 78
     2
 67
     8
 79
     3
170
     0
171
     0
290
     0
174
     0
 93
        5
 44
0.0
173
     0
291
     0
 45
0.0
1001
ACAD
1000
AcDbSavedByObjectVersion
1070
     0
  0
VISUALSTYLE
  5
9A3E
102
{ACAD_XDICTIONARY
360
9AAA
102
}
102
{ACAD_REACTORS
330
9A2A
102
}
330
9A2A
100
AcDbVisualStyle
  2
Shaded with edges
 70
    26
 71
     2
 72
     2
 73
     1
 90
        2
 40
-0.6
 41
30.0
 62
     5
 63
     7
 74
     1
 91
       10
 64
     7
 65
   257
 75
     2
175
     1
 42
1.0
 92
        8
 66
   257
 43
1.0
 76
     1
 77
     6
 78
     2
 67
     7
 79
     3
170
     0
171
     0
290
     0
174
     0
 93
        5
 44
0.0
173
     0
291
     0
 45
0.0
1001
ACAD
1000
AcDbSavedByObjectVersion
1070
     0
  0
VISUALSTYLE
  5
9A3B
102
{ACAD_XDICTIONARY
360
9AA4
102
}
102
{ACAD_REACTORS
330
9A2A
102
}
330
9A2A
100
AcDbVisualStyle
  2
Shades of Gray
 70
    23
 71
     2
 72
     2
 73
     3
 90
        0
 40
-0.6
 41
-30.0
 62
     5
 63
     7
 74
     2
 91
        2
 64
     7
 65
     7
 75
     1
175
     1
 42
40.0
 92
        8
 66
     7
 43
1.0
 76
     1
 77
     6
 78
     2
 67
     7
 79
     3
170
     0
171
     0
290
     0
174
     0
 93
        1
 44
0.0
173
     0
291
     0
 45
0.0
1001
ACAD
1000
AcDbSavedByObjectVersion
1070
     0
  0
VISUALSTYLE
  5
9A3C
102
{ACAD_XDICTIONARY
360
9AA6
102
}
102
{ACAD_REACTORS
330
9A2A
102
}
330
9A2A
100
AcDbVisualStyle
  2
Sketchy
 70
    24
 71
     1
 72
     2
 73
     2
 90
        0
 40
-0.6
 41
-30.0
 62
     5
 63
     7
 74
     2
 91
        2
 64
     7
 65
     7
 75
     1
175
     1
 42
40.0
 92
       11
 66
     7
 43
1.0
 76
     1
 77
     6
 78
     2
 67
     7
 79
     6
170
     0
171
     0
290
     0
174
     0
 93
        1
 44
0.0
173
     0
291
     0
 45
0.0
1001
ACAD
1000
AcDbSavedByObjectVersion
1070
     0
  0
VISUALSTYLE
  5
9A37
102
{ACAD_XDICTIONARY
360
9A9C
102
}
102
{ACAD_REACTORS
330
9A2A
102
}
330
9A2A
100
AcDbVisualStyle
  2
Thicken
 70
    13
 71
     2
 72
     2
 73
     0
 90
        0
 40
-0.6
 41
-30.0
 62
     5
 63
     7
 74
     1
 91
        4
 64
     7
 65
   257
 75
     1
175
     1
 42
1.0
 92
       12
 66
     7
 43
1.0
 76
     1
 77
     6
 78
     2
 67
     7
 79
     5
170
     0
171
     0
290
     0
174
     0
 93
        1
 44
0.0
173
     0
291
     1
 45
0.0
1001
ACAD
1000
AcDbSavedByObjectVersion
1070
     0
  0
VISUALSTYLE
  5
9A31
102
{ACAD_XDICTIONARY
360
9A90
102
}
102
{ACAD_REACTORS
330
9A2A
102
}
330
9A2A
100
AcDbVisualStyle
  2
Wireframe
 70
     5
 71
     0
 72
     2
 73
     0
 90
        0
 40
-0.6
 41
-30.0
 62
     5
 63
     7
 74
     1
 91
        4
 64
     7
 65
   257
 75
     1
175
     1
 42
1.0
 92
        0
 66
   257
 43
1.0
 76
     1
 77
     6
 78
     2
 67
     7
 79
     3
170
     0
171
     0
290
     0
174
     0
 93
        1
 44
0.0
173
     0
291
     0
 45
0.0
1001
ACAD
1000
AcDbSavedByObjectVersion
1070
     0
  0
VISUALSTYLE
  5
9A3D
102
{ACAD_XDICTIONARY
360
9AA8
102
}
102
{ACAD_REACTORS
330
9A2A
102
}
330
9A2A
100
AcDbVisualStyle
  2
X-Ray
 70
    25
 71
     2
 72
     2
 73
     1
 90
        1
 40
0.5
 41
-30.0
 62
     5
 63
     7
 74
     1
 91
        0
 64
     7
 65
   257
 75
     1
175
     1
 42
1.0
 92
        8
 66
     7
 43
1.0
 76
     1
 77
     6
 78
     2
 67
     7
 79
     3
170
     0
171
     0
290
     0
174
     0
 93
       13
 44
0.0
173
     0
291
     0
 45
0.0
1001
ACAD
1000
AcDbSavedByObjectVersion
1070
     0
  0
DICTIONARYVAR
  5
9A77
102
{ACAD_REACTORS
330
9A72
102
}
330
9A72
100
DictionaryVariables
280
     0
  1
1:1
  0
DICTIONARYVAR
  5
9A74
102
{ACAD_REACTORS
330
9A72
102
}
330
9A72
100
DictionaryVariables
280
     0
  1
STANDARD
  0
DICTIONARYVAR
  5
9A73
102
{ACAD_REACTORS
330
9A72
102
}
330
9A72
100
DictionaryVariables
280
     0
  1
STANDARD
  0
DICTIONARYVAR
  5
9A75
102
{ACAD_REACTORS
330
9A72
102
}
330
9A72
100
DictionaryVariables
280
     0
  1
Imperial24
  0
DICTIONARYVAR
  5
9A76
102
{ACAD_REACTORS
330
9A72
102
}
330
9A72
100
DictionaryVariables
280
     0
  1
Imperial24
  0
DICTIONARYVAR
  5
9A7A
102
{ACAD_REACTORS
330
9A72
102
}
330
9A72
100
DictionaryVariables
280
     0
  1
1
  0
DICTIONARYVAR
  5
9A79
102
{ACAD_REACTORS
330
9A72
102
}
330
9A72
100
DictionaryVariables
280
     0
  1
0
  0
DICTIONARYVAR
  5
9A78
102
{ACAD_REACTORS
330
9A72
102
}
330
9A72
100
DictionaryVariables
280
     0
  1
127
  0
DICTIONARYVAR
  5
9A7B
102
{ACAD_REACTORS
330
9A72
102
}
330
9A72
100
DictionaryVariables
280
     0
  1
2
  0
DICTIONARY
  5
9AB8
330
9A5D
100
AcDbDictionary
280
     1
281
     1
  3
ACAD_XREC_ROUNDTRIP
360
9AB9
  0
DICTIONARY
  5
9ABA
330
9A5E
100
AcDbDictionary
280
     1
281
     1
  3
ACAD_XREC_ROUNDTRIP
360
9ABB
  0
DICTIONARY
  5
9ABC
330
9A5F
100
AcDbDictionary
280
     1
281
     1
  3
ACAD_XREC_ROUNDTRIP
360
9ABD
  0
DICTIONARY
  5
9A1B
330
9A1A
100
AcDbDictionary
280
     1
281
     1
  3
ACAD_XREC_ROUNDTRIP
360
9A82
  3
BUMPTILE
360
9A1D
  3
DIFFUSETILE
360
9A1C
  3
OPACITYTILE
360
9A20
  3
REFLECTIONTILE
360
9A1F
  3
REFRACTIONTILE
360
9A21
  3
SPECULARTILE
360
9A1E
  0
DICTIONARY
  5
9A13
330
9A12
100
AcDbDictionary
280
     1
281
     1
  3
ACAD_XREC_ROUNDTRIP
360
9A81
  3
BUMPTILE
360
9A15
  3
DIFFUSETILE
360
9A14
  3
OPACITYTILE
360
9A18
  3
REFLECTIONTILE
360
9A17
  3
REFRACTIONTILE
360
9A19
  3
SPECULARTILE
360
9A16
  0
DICTIONARY
  5
9A23
330
9A22
100
AcDbDictionary
280
     1
281
     1
  3
ACAD_XREC_ROUNDTRIP
360
9A83
  3
BUMPTILE
360
9A25
  3
DIFFUSETILE
360
9A24
  3
OPACITYTILE
360
9A28
  3
REFLECTIONTILE
360
9A27
  3
REFRACTIONTILE
360
9A29
  3
SPECULARTILE
360
9A26
  0
DICTIONARY
  5
9AB6
330
9A5B
100
AcDbDictionary
280
     1
281
     1
  3
ACAD_XREC_ROUNDTRIP
360
9AB7
  0
DICTIONARY
  5
9A7D
330
9A45
100
AcDbDictionary
280
     1
281
     1
  3
ACAD_ROUNDTRIP_2008_TABLESTYLE_CELLSTYLEMAP
360
9A7E
  3
ACAD_XREC_ROUNDTRIP
360
9AB4
  0
DICTIONARY
  5
9A8E
330
9A30
100
AcDbDictionary
280
     1
281
     1
  3
ACAD_XREC_ROUNDTRIP
360
9A8F
  0
DICTIONARY
  5
9A8C
330
9A2F
100
AcDbDictionary
280
     1
281
     1
  3
ACAD_XREC_ROUNDTRIP
360
9A8D
  0
DICTIONARY
  5
9A9A
330
9A36
100
AcDbDictionary
280
     1
281
     1
  3
ACAD_XREC_ROUNDTRIP
360
9A9B
  0
DICTIONARY
  5
9AA2
330
9A3A
100
AcDbDictionary
280
     1
281
     1
  3
ACAD_XREC_ROUNDTRIP
360
9AA3
  0
DICTIONARY
  5
9A94
330
9A33
100
AcDbDictionary
280
     1
281
     1
  3
ACAD_XREC_ROUNDTRIP
360
9A95
  0
DICTIONARY
  5
9A98
330
9A35
100
AcDbDictionary
280
     1
281
     1
  3
ACAD_XREC_ROUNDTRIP
360
9A99
  0
DICTIONARY
  5
9AB2
330
9A42
100
AcDbDictionary
280
     1
281
     1
  3
ACAD_XREC_ROUNDTRIP
360
9AB3
  0
DICTIONARY
  5
9AA0
330
9A39
100
AcDbDictionary
280
     1
281
     1
  3
ACAD_XREC_ROUNDTRIP
360
9AA1
  0
DICTIONARY
  5
9A84
330
9A2B
100
AcDbDictionary
280
     1
281
     1
  3
ACAD_XREC_ROUNDTRIP
360
9A85
  0
DICTIONARY
  5
9A86
330
9A2C
100
AcDbDictionary
280
     1
281
     1
  3
ACAD_XREC_ROUNDTRIP
360
9A87
  0
DICTIONARY
  5
9A88
330
9A2D
100
AcDbDictionary
280
     1
281
     1
  3
ACAD_XREC_ROUNDTRIP
360
9A89
  0
DICTIONARY
  5
9A8A
330
9A2E
100
AcDbDictionary
280
     1
281
     1
  3
ACAD_XREC_ROUNDTRIP
360
9A8B
  0
DICTIONARY
  5
9A92
330
9A32
100
AcDbDictionary
280
     1
281
     1
  3
ACAD_XREC_ROUNDTRIP
360
9A93
  0
DICTIONARY
  5
9AAE
330
9A40
100
AcDbDictionary
280
     1
281
     1
  3
ACAD_XREC_ROUNDTRIP
360
9AAF
  0
DICTIONARY
  5
9A9E
330
9A38
100
AcDbDictionary
280
     1
281
     1
  3
ACAD_XREC_ROUNDTRIP
360
9A9F
  0
DICTIONARY
  5
9AB0
330
9A41
100
AcDbDictionary
280
     1
281
     1
  3
ACAD_XREC_ROUNDTRIP
360
9AB1
  0
DICTIONARY
  5
9A96
330
9A34
100
AcDbDictionary
280
     1
281
     1
  3
ACAD_XREC_ROUNDTRIP
360
9A97
  0
DICTIONARY
  5
9AAC
330
9A3F
100
AcDbDictionary
280
     1
281
     1
  3
ACAD_XREC_ROUNDTRIP
360
9AAD
  0
DICTIONARY
  5
9AAA
330
9A3E
100
AcDbDictionary
280
     1
281
     1
  3
ACAD_XREC_ROUNDTRIP
360
9AAB
  0
DICTIONARY
  5
9AA4
330
9A3B
100
AcDbDictionary
280
     1
281
     1
  3
ACAD_XREC_ROUNDTRIP
360
9AA5
  0
DICTIONARY
  5
9AA6
330
9A3C
100
AcDbDictionary
280
     1
281
     1
  3
ACAD_XREC_ROUNDTRIP
360
9AA7
  0
DICTIONARY
  5
9A9C
330
9A37
100
AcDbDictionary
280
     1
281
     1
  3
ACAD_XREC_ROUNDTRIP
360
9A9D
  0
DICTIONARY
  5
9A90
330
9A31
100
AcDbDictionary
280
     1
281
     1
  3
ACAD_XREC_ROUNDTRIP
360
9A91
  0
DICTIONARY
  5
9AA8
330
9A3D
100
AcDbDictionary
280
     1
281
     1
  3
ACAD_XREC_ROUNDTRIP
360
9AA9
  0
XRECORD
  5
9AB9
102
{ACAD_REACTORS
330
9AB8
102
}
330
9AB8
100
AcDbXrecord
280
     1
102
DISPLAYNAME
  1
Imperial24
102
FLAGS
 90
        0
  0
XRECORD
  5
9ABB
102
{ACAD_REACTORS
330
9ABA
102
}
330
9ABA
100
AcDbXrecord
280
     1
102
SHADEPLOT
 70
     0
102
SHADEPLOTRESLEVEL
 70
     2
102
SHADEPLOTCUSTOMDPI
 70
   300
  0
XRECORD
  5
9ABD
102
{ACAD_REACTORS
330
9ABC
102
}
330
9ABC
100
AcDbXrecord
280
     1
102
SHADEPLOT
 70
     0
102
SHADEPLOTRESLEVEL
 70
     2
102
SHADEPLOTCUSTOMDPI
 70
   300
  0
XRECORD
  5
9A82
102
{ACAD_REACTORS
330
9A1B
102
}
330
9A1B
100
AcDbXrecord
280
     1
102
MATERIAL
148
0.0
149
0.0
149
0.0
 93
        0
 94
      127
282
     0
 72
     0
 77
     0
171
     0
175
     0
179
     0
273
     0
  0
XRECORD
  5
9A1D
102
{ACAD_REACTORS
330
9A1B
102
}
330
9A1B
100
AcDbXrecord
280
     1
270
     1
271
     1
  0
XRECORD
  5
9A1C
102
{ACAD_REACTORS
330
9A1B
102
}
330
9A1B
100
AcDbXrecord
280
     1
270
     1
271
     1
  0
XRECORD
  5
9A20
102
{ACAD_REACTORS
330
9A1B
102
}
330
9A1B
100
AcDbXrecord
280
     1
270
     1
271
     1
  0
XRECORD
  5
9A1F
102
{ACAD_REACTORS
330
9A1B
102
}
330
9A1B
100
AcDbXrecord
280
     1
270
     1
271
     1
  0
XRECORD
  5
9A21
102
{ACAD_REACTORS
330
9A1B
102
}
330
9A1B
100
AcDbXrecord
280
     1
270
     1
271
     1
  0
XRECORD
  5
9A1E
102
{ACAD_REACTORS
330
9A1B
102
}
330
9A1B
100
AcDbXrecord
280
     1
270
     1
271
     1
  0
XRECORD
  5
9A81
102
{ACAD_REACTORS
330
9A13
102
}
330
9A13
100
AcDbXrecord
280
     1
102
MATERIAL
148
0.0
149
0.0
149
0.0
 93
        0
 94
      127
282
     0
 72
     0
 77
     0
171
     0
175
     0
179
     0
273
     0
  0
XRECORD
  5
9A15
102
{ACAD_REACTORS
330
9A13
102
}
330
9A13
100
AcDbXrecord
280
     1
270
     1
271
     1
  0
XRECORD
  5
9A14
102
{ACAD_REACTORS
330
9A13
102
}
330
9A13
100
AcDbXrecord
280
     1
270
     1
271
     1
  0
XRECORD
  5
9A18
102
{ACAD_REACTORS
330
9A13
102
}
330
9A13
100
AcDbXrecord
280
     1
270
     1
271
     1
  0
XRECORD
  5
9A17
102
{ACAD_REACTORS
330
9A13
102
}
330
9A13
100
AcDbXrecord
280
     1
270
     1
271
     1
  0
XRECORD
  5
9A19
102
{ACAD_REACTORS
330
9A13
102
}
330
9A13
100
AcDbXrecord
280
     1
270
     1
271
     1
  0
XRECORD
  5
9A16
102
{ACAD_REACTORS
330
9A13
102
}
330
9A13
100
AcDbXrecord
280
     1
270
     1
271
     1
  0
XRECORD
  5
9A83
102
{ACAD_REACTORS
330
9A23
102
}
330
9A23
100
AcDbXrecord
280
     1
102
MATERIAL
148
0.0
149
0.0
149
0.0
 93
        0
 94
      127
282
     0
 72
     0
 77
     0
171
     0
175
     0
179
     0
273
     0
  0
XRECORD
  5
9A25
102
{ACAD_REACTORS
330
9A23
102
}
330
9A23
100
AcDbXrecord
280
     1
270
     1
271
     1
  0
XRECORD
  5
9A24
102
{ACAD_REACTORS
330
9A23
102
}
330
9A23
100
AcDbXrecord
280
     1
270
     1
271
     1
  0
XRECORD
  5
9A28
102
{ACAD_REACTORS
330
9A23
102
}
330
9A23
100
AcDbXrecord
280
     1
270
     1
271
     1
  0
XRECORD
  5
9A27
102
{ACAD_REACTORS
330
9A23
102
}
330
9A23
100
AcDbXrecord
280
     1
270
     1
271
     1
  0
XRECORD
  5
9A29
102
{ACAD_REACTORS
330
9A23
102
}
330
9A23
100
AcDbXrecord
280
     1
270
     1
271
     1
  0
XRECORD
  5
9A26
102
{ACAD_REACTORS
330
9A23
102
}
330
9A23
100
AcDbXrecord
280
     1
270
     1
271
     1
  0
XRECORD
  5
9AB7
102
{ACAD_REACTORS
330
9AB6
102
}
330
9AB6
100
AcDbXrecord
280
     1
102
DISPLAYNAME
  1
Imperial24
102
FLAGS
 90
        0
  0
CELLSTYLEMAP
  5
9A7E
102
{ACAD_REACTORS
330
9A7D
102
}
330
9A7D
100
AcDbCellStyleMap
 90
        3
300
CELLSTYLE
  1
TABLEFORMAT_BEGIN
 90
        5
170
     1
 91
        0
 92
    32768
 62
   257
 93
        1
300
CONTENTFORMAT
  1
CONTENTFORMAT_BEGIN
 90
        0
 91
        0
 92
      512
 93
        0
300

 40
0.0
140
1.0
 94
        5
 62
     0
340
97F5
144
0.25
309
CONTENTFORMAT_END
171
     0
 94
        0
309
TABLEFORMAT_END
  1
CELLSTYLE_BEGIN
 90
        1
 91
        1
300
_TITLE
309
CELLSTYLE_END
300
CELLSTYLE
  1
TABLEFORMAT_BEGIN
 90
        5
170
     1
 91
        0
 92
        0
 62
   257
 93
        1
300
CONTENTFORMAT
  1
CONTENTFORMAT_BEGIN
 90
        0
 91
        0
 92
      512
 93
        0
300

 40
0.0
140
1.0
 94
        5
 62
     0
340
97F5
144
0.18
309
CONTENTFORMAT_END
171
     0
 94
        0
309
TABLEFORMAT_END
  1
CELLSTYLE_BEGIN
 90
        2
 91
        1
300
_HEADER
309
CELLSTYLE_END
300
CELLSTYLE
  1
TABLEFORMAT_BEGIN
 90
        5
170
     1
 91
        0
 92
        0
 62
   257
 93
        1
300
CONTENTFORMAT
  1
CONTENTFORMAT_BEGIN
 90
        0
 91
        0
 92
      512
 93
        0
300

 40
0.0
140
1.0
 94
        2
 62
     0
340
97F5
144
0.18
309
CONTENTFORMAT_END
171
     0
 94
        0
309
TABLEFORMAT_END
  1
CELLSTYLE_BEGIN
 90
        3
 91
        2
300
_DATA
309
CELLSTYLE_END
  0
XRECORD
  5
9AB4
102
{ACAD_REACTORS
330
9A7D
102
}
330
9A7D
100
AcDbXrecord
280
     1
102
ACAD_ROUNDTRIP_PRE2007_TABLESTYLE
 90
      512
 91
        0
  1

 92
      512
 93
        0
  2

 94
      512
 95
        0
  3

  0
XRECORD
  5
9A8F
102
{ACAD_REACTORS
330
9A8E
102
}
330
9A8E
100
AcDbXrecord
280
     1
102
RTVSPost2010Prop28
280
     1
102
RTVSPost2010PropOp28
 70
     1
102
RTVSPost2010Prop29
280
     1
102
RTVSPost2010PropOp29
 70
     1
102
RTVSPost2010Prop30
280
     0
102
RTVSPost2010PropOp30
 70
     1
102
RTVSPost2010Prop31
280
     0
102
RTVSPost2010PropOp31
 70
     1
102
RTVSPost2010Prop32
280
     0
102
RTVSPost2010PropOp32
 70
     1
102
RTVSPost2010Prop33
280
     0
102
RTVSPost2010PropOp33
 70
     1
102
RTVSPost2010Prop34
280
     0
102
RTVSPost2010PropOp34
 70
     1
102
RTVSPost2010Prop35
280
     0
102
RTVSPost2010PropOp35
 70
     1
102
RTVSPost2010Prop36
280
     0
102
RTVSPost2010PropOp36
 70
     1
102
RTVSPost2010Prop37
 90
       50
102
RTVSPost2010PropOp37
 70
     1
102
RTVSPost2010Prop38
140
0.0
102
RTVSPost2010PropOp38
 70
     1
102
RTVSPost2010Prop39
140
1.0
102
RTVSPost2010PropOp39
 70
     1
102
RTVSPost2010Prop40
 90
        0
102
RTVSPost2010PropOp40
 70
     1
102
RTVSPost2010Prop41ColorIndex
 90
       18
102
RTVSPost2010Prop41ColorRGB
 90
        0
102
RTVSPost2010PropOp41
 70
     1
102
RTVSPost2010Prop42
 90
       50
102
RTVSPost2010PropOp42
 70
     1
102
RTVSPost2010Prop43
 90
        3
102
RTVSPost2010PropOp43
 70
     1
102
RTVSPost2010Prop44ColorIndex
 90
        5
102
RTVSPost2010Prop44ColorRGB
 90
      255
102
RTVSPost2010PropOp44
 70
     1
102
RTVSPost2010Prop45
280
     0
102
RTVSPost2010PropOp45
 70
     1
102
RTVSPost2010Prop46
 90
       50
102
RTVSPost2010PropOp46
 70
     1
102
RTVSPost2010Prop47
 90
       50
102
RTVSPost2010PropOp47
 70
     1
102
RTVSPost2010Prop48
 90
       50
102
RTVSPost2010PropOp48
 70
     1
102
RTVSPost2010Prop49
280
     0
102
RTVSPost2010PropOp49
 70
     1
102
RTVSPost2010Prop50
 90
       50
102
RTVSPost2010PropOp50
 70
     1
102
RTVSPost2010Prop51ColorIndex
 90
      256
102
RTVSPost2010Prop51ColorRGB
 90
-16777216
102
RTVSPost2010PropOp51
 70
     0
102
RTVSPost2010Prop52
140
1.0
102
RTVSPost2010PropOp52
 70
     0
102
RTVSPost2010Prop53
 90
        2
102
RTVSPost2010PropOp53
 70
     1
102
RTVSPost2010Prop54
  1
strokes_ogs.tif
102
RTVSPost2010PropOp54
 70
     1
102
RTVSPost2010Prop55
280
     0
102
RTVSPost2010PropOp55
 70
     1
102
RTVSPost2010Prop56
140
1.0
102
RTVSPost2010PropOp56
 70
     1
102
RTVSPost2010Prop57
140
1.0
102
RTVSPost2010PropOp57
 70
     1
102
RTVSPropertyOp0
 70
     1
102
RTVSPropertyOp1
 70
     1
102
RTVSPropertyOp2
 70
     1
102
RTVSPropertyOp3
 70
     1
102
RTVSPropertyOp4
 70
     1
102
RTVSPropertyOp5
 70
     1
102
RTVSPropertyOp6
 70
     1
102
RTVSPropertyOp7
 70
     1
102
RTVSPropertyOp8
 70
     1
102
RTVSPropertyOp9
 70
     1
102
RTVSPropertyOp10
 70
     1
102
RTVSPropertyOp11
 70
     1
102
RTVSPropertyOp12
 70
     1
102
RTVSPropertyOp13
 70
     1
102
RTVSPropertyOp14
 70
     1
102
RTVSPropertyOp15
 70
     1
102
RTVSPropertyOp16
 70
     1
102
RTVSPropertyOp17
 70
     1
102
RTVSPropertyOp18
 70
     1
102
RTVSPropertyOp19
 70
     1
102
RTVSPropertyOp20
 70
     1
102
RTVSPropertyOp21
 70
     1
102
RTVSPropertyOp22
 70
     1
102
RTVSPropertyOp23
 70
     1
102
RTVSPropertyOp24
 70
     1
102
RTVSPropertyOp25
 70
     1
102
RTVSPropertyOp26
 70
     1
102
RTVSPropertyOp27
 70
     1
102
RTVSPropertyOp28
 70
     1
102
RTVSPropertyOp29
 70
     1
102
RTVSPropertyOp30
 70
     1
102
RTVSPropertyOp31
 70
     1
102
RTVSPropertyOp32
 70
     1
102
RTVSPropertyOp33
 70
     1
102
RTVSPropertyOp34
 70
     1
102
RTVSPropertyOp35
 70
     1
102
RTVSPropertyOp36
 70
     1
102
RTVSPropertyOp37
 70
     1
102
RTVSPropertyOp38
 70
     1
102
RTVSPropertyOp39
 70
     1
102
RTVSPropertyOp40
 70
     1
102
RTVSPropertyOp41
 70
     1
102
RTVSPropertyOp42
 70
     1
102
RTVSPropertyOp43
 70
     1
102
RTVSPropertyOp44
 70
     1
102
RTVSPropertyOp45
 70
     1
102
RTVSPropertyOp46
 70
     1
102
RTVSPropertyOp47
 70
     1
102
RTVSPropertyOp48
 70
     1
102
RTVSPropertyOp49
 70
     1
102
RTVSPropertyOp50
 70
     1
102
RTVSPropertyOp51
 70
     0
102
RTVSPropertyOp52
 70
     0
102
RTVSPropertyOp53
 70
     1
102
RTVSPropertyOp54
 70
     1
102
RTVSPropertyOp55
 70
     1
102
RTVSPropertyOp56
 70
     1
102
RTVSPropertyOp57
 70
     1
102
RTVSPropertyOp58
 70
     1
102
RTVSPropertyOp59
 70
     1
102
RTVSPropertyOp60
 70
     1
102
RTVSPropertyOp61
 70
     1
102
RTVSPropertyOp62
 70
     1
  0
XRECORD
  5
9A8D
102
{ACAD_REACTORS
330
9A8C
102
}
330
9A8C
100
AcDbXrecord
280
     1
102
RTVSPost2010Prop28
280
     0
102
RTVSPost2010PropOp28
 70
     1
102
RTVSPost2010Prop29
280
     1
102
RTVSPost2010PropOp29
 70
     1
102
RTVSPost2010Prop30
280
     1
102
RTVSPost2010PropOp30
 70
     1
102
RTVSPost2010Prop31
280
     0
102
RTVSPost2010PropOp31
 70
     1
102
RTVSPost2010Prop32
280
     0
102
RTVSPost2010PropOp32
 70
     1
102
RTVSPost2010Prop33
280
     0
102
RTVSPost2010PropOp33
 70
     1
102
RTVSPost2010Prop34
280
     0
102
RTVSPost2010PropOp34
 70
     1
102
RTVSPost2010Prop35
280
     0
102
RTVSPost2010PropOp35
 70
     1
102
RTVSPost2010Prop36
280
     0
102
RTVSPost2010PropOp36
 70
     1
102
RTVSPost2010Prop37
 90
       50
102
RTVSPost2010PropOp37
 70
     1
102
RTVSPost2010Prop38
140
0.0
102
RTVSPost2010PropOp38
 70
     1
102
RTVSPost2010Prop39
140
1.0
102
RTVSPost2010PropOp39
 70
     1
102
RTVSPost2010Prop40
 90
        0
102
RTVSPost2010PropOp40
 70
     1
102
RTVSPost2010Prop41ColorIndex
 90
       18
102
RTVSPost2010Prop41ColorRGB
 90
        0
102
RTVSPost2010PropOp41
 70
     1
102
RTVSPost2010Prop42
 90
       50
102
RTVSPost2010PropOp42
 70
     1
102
RTVSPost2010Prop43
 90
        3
102
RTVSPost2010PropOp43
 70
     1
102
RTVSPost2010Prop44ColorIndex
 90
        5
102
RTVSPost2010Prop44ColorRGB
 90
      255
102
RTVSPost2010PropOp44
 70
     1
102
RTVSPost2010Prop45
280
     0
102
RTVSPost2010PropOp45
 70
     1
102
RTVSPost2010Prop46
 90
       50
102
RTVSPost2010PropOp46
 70
     1
102
RTVSPost2010Prop47
 90
       50
102
RTVSPost2010PropOp47
 70
     1
102
RTVSPost2010Prop48
 90
       50
102
RTVSPost2010PropOp48
 70
     1
102
RTVSPost2010Prop49
280
     0
102
RTVSPost2010PropOp49
 70
     1
102
RTVSPost2010Prop50
 90
       50
102
RTVSPost2010PropOp50
 70
     1
102
RTVSPost2010Prop51ColorIndex
 90
      256
102
RTVSPost2010Prop51ColorRGB
 90
-16777216
102
RTVSPost2010PropOp51
 70
     0
102
RTVSPost2010Prop52
140
1.0
102
RTVSPost2010PropOp52
 70
     0
102
RTVSPost2010Prop53
 90
        2
102
RTVSPost2010PropOp53
 70
     1
102
RTVSPost2010Prop54
  1
strokes_ogs.tif
102
RTVSPost2010PropOp54
 70
     1
102
RTVSPost2010Prop55
280
     0
102
RTVSPost2010PropOp55
 70
     1
102
RTVSPost2010Prop56
140
1.0
102
RTVSPost2010PropOp56
 70
     1
102
RTVSPost2010Prop57
140
1.0
102
RTVSPost2010PropOp57
 70
     1
102
RTVSPropertyOp0
 70
     1
102
RTVSPropertyOp1
 70
     1
102
RTVSPropertyOp2
 70
     1
102
RTVSPropertyOp3
 70
     1
102
RTVSPropertyOp4
 70
     1
102
RTVSPropertyOp5
 70
     1
102
RTVSPropertyOp6
 70
     1
102
RTVSPropertyOp7
 70
     1
102
RTVSPropertyOp8
 70
     1
102
RTVSPropertyOp9
 70
     1
102
RTVSPropertyOp10
 70
     1
102
RTVSPropertyOp11
 70
     1
102
RTVSPropertyOp12
 70
     1
102
RTVSPropertyOp13
 70
     1
102
RTVSPropertyOp14
 70
     1
102
RTVSPropertyOp15
 70
     1
102
RTVSPropertyOp16
 70
     1
102
RTVSPropertyOp17
 70
     1
102
RTVSPropertyOp18
 70
     1
102
RTVSPropertyOp19
 70
     1
102
RTVSPropertyOp20
 70
     1
102
RTVSPropertyOp21
 70
     1
102
RTVSPropertyOp22
 70
     1
102
RTVSPropertyOp23
 70
     1
102
RTVSPropertyOp24
 70
     1
102
RTVSPropertyOp25
 70
     1
102
RTVSPropertyOp26
 70
     1
102
RTVSPropertyOp27
 70
     1
102
RTVSPropertyOp28
 70
     1
102
RTVSPropertyOp29
 70
     1
102
RTVSPropertyOp30
 70
     1
102
RTVSPropertyOp31
 70
     1
102
RTVSPropertyOp32
 70
     1
102
RTVSPropertyOp33
 70
     1
102
RTVSPropertyOp34
 70
     1
102
RTVSPropertyOp35
 70
     1
102
RTVSPropertyOp36
 70
     1
102
RTVSPropertyOp37
 70
     1
102
RTVSPropertyOp38
 70
     1
102
RTVSPropertyOp39
 70
     1
102
RTVSPropertyOp40
 70
     1
102
RTVSPropertyOp41
 70
     1
102
RTVSPropertyOp42
 70
     1
102
RTVSPropertyOp43
 70
     1
102
RTVSPropertyOp44
 70
     1
102
RTVSPropertyOp45
 70
     1
102
RTVSPropertyOp46
 70
     1
102
RTVSPropertyOp47
 70
     1
102
RTVSPropertyOp48
 70
     1
102
RTVSPropertyOp49
 70
     1
102
RTVSPropertyOp50
 70
     1
102
RTVSPropertyOp51
 70
     0
102
RTVSPropertyOp52
 70
     0
102
RTVSPropertyOp53
 70
     1
102
RTVSPropertyOp54
 70
     1
102
RTVSPropertyOp55
 70
     1
102
RTVSPropertyOp56
 70
     1
102
RTVSPropertyOp57
 70
     1
102
RTVSPropertyOp58
 70
     1
102
RTVSPropertyOp59
 70
     1
102
RTVSPropertyOp60
 70
     1
102
RTVSPropertyOp61
 70
     1
102
RTVSPropertyOp62
 70
     1
  0
XRECORD
  5
9A9B
102
{ACAD_REACTORS
330
9A9A
102
}
330
9A9A
100
AcDbXrecord
280
     1
102
RTVSPost2010Prop28
280
     0
102
RTVSPost2010PropOp28
 70
     1
102
RTVSPost2010Prop29
280
     1
102
RTVSPost2010PropOp29
 70
     1
102
RTVSPost2010Prop30
280
     1
102
RTVSPost2010PropOp30
 70
     1
102
RTVSPost2010Prop31
280
     0
102
RTVSPost2010PropOp31
 70
     1
102
RTVSPost2010Prop32
280
     0
102
RTVSPost2010PropOp32
 70
     1
102
RTVSPost2010Prop33
280
     0
102
RTVSPost2010PropOp33
 70
     1
102
RTVSPost2010Prop34
280
     0
102
RTVSPost2010PropOp34
 70
     1
102
RTVSPost2010Prop35
280
     0
102
RTVSPost2010PropOp35
 70
     1
102
RTVSPost2010Prop36
280
     0
102
RTVSPost2010PropOp36
 70
     1
102
RTVSPost2010Prop37
 90
       50
102
RTVSPost2010PropOp37
 70
     1
102
RTVSPost2010Prop38
140
0.0
102
RTVSPost2010PropOp38
 70
     1
102
RTVSPost2010Prop39
140
1.0
102
RTVSPost2010PropOp39
 70
     1
102
RTVSPost2010Prop40
 90
        0
102
RTVSPost2010PropOp40
 70
     1
102
RTVSPost2010Prop41ColorIndex
 90
       18
102
RTVSPost2010Prop41ColorRGB
 90
        0
102
RTVSPost2010PropOp41
 70
     1
102
RTVSPost2010Prop42
 90
       50
102
RTVSPost2010PropOp42
 70
     1
102
RTVSPost2010Prop43
 90
        3
102
RTVSPost2010PropOp43
 70
     1
102
RTVSPost2010Prop44ColorIndex
 90
        5
102
RTVSPost2010Prop44ColorRGB
 90
      255
102
RTVSPost2010PropOp44
 70
     1
102
RTVSPost2010Prop45
280
     0
102
RTVSPost2010PropOp45
 70
     1
102
RTVSPost2010Prop46
 90
       50
102
RTVSPost2010PropOp46
 70
     1
102
RTVSPost2010Prop47
 90
       50
102
RTVSPost2010PropOp47
 70
     1
102
RTVSPost2010Prop48
 90
       50
102
RTVSPost2010PropOp48
 70
     1
102
RTVSPost2010Prop49
280
     0
102
RTVSPost2010PropOp49
 70
     1
102
RTVSPost2010Prop50
 90
       50
102
RTVSPost2010PropOp50
 70
     1
102
RTVSPost2010Prop51ColorIndex
 90
      256
102
RTVSPost2010Prop51ColorRGB
 90
-16777216
102
RTVSPost2010PropOp51
 70
     0
102
RTVSPost2010Prop52
140
1.0
102
RTVSPost2010PropOp52
 70
     0
102
RTVSPost2010Prop53
 90
        2
102
RTVSPost2010PropOp53
 70
     1
102
RTVSPost2010Prop54
  1
strokes_ogs.tif
102
RTVSPost2010PropOp54
 70
     1
102
RTVSPost2010Prop55
280
     0
102
RTVSPost2010PropOp55
 70
     1
102
RTVSPost2010Prop56
140
1.0
102
RTVSPost2010PropOp56
 70
     1
102
RTVSPost2010Prop57
140
1.0
102
RTVSPost2010PropOp57
 70
     1
102
RTVSPropertyOp0
 70
     1
102
RTVSPropertyOp1
 70
     1
102
RTVSPropertyOp2
 70
     1
102
RTVSPropertyOp3
 70
     1
102
RTVSPropertyOp4
 70
     1
102
RTVSPropertyOp5
 70
     1
102
RTVSPropertyOp6
 70
     1
102
RTVSPropertyOp7
 70
     1
102
RTVSPropertyOp8
 70
     1
102
RTVSPropertyOp9
 70
     1
102
RTVSPropertyOp10
 70
     1
102
RTVSPropertyOp11
 70
     1
102
RTVSPropertyOp12
 70
     1
102
RTVSPropertyOp13
 70
     1
102
RTVSPropertyOp14
 70
     1
102
RTVSPropertyOp15
 70
     1
102
RTVSPropertyOp16
 70
     1
102
RTVSPropertyOp17
 70
     1
102
RTVSPropertyOp18
 70
     1
102
RTVSPropertyOp19
 70
     1
102
RTVSPropertyOp20
 70
     1
102
RTVSPropertyOp21
 70
     1
102
RTVSPropertyOp22
 70
     1
102
RTVSPropertyOp23
 70
     1
102
RTVSPropertyOp24
 70
     1
102
RTVSPropertyOp25
 70
     1
102
RTVSPropertyOp26
 70
     1
102
RTVSPropertyOp27
 70
     1
102
RTVSPropertyOp28
 70
     1
102
RTVSPropertyOp29
 70
     1
102
RTVSPropertyOp30
 70
     1
102
RTVSPropertyOp31
 70
     1
102
RTVSPropertyOp32
 70
     1
102
RTVSPropertyOp33
 70
     1
102
RTVSPropertyOp34
 70
     1
102
RTVSPropertyOp35
 70
     1
102
RTVSPropertyOp36
 70
     1
102
RTVSPropertyOp37
 70
     1
102
RTVSPropertyOp38
 70
     1
102
RTVSPropertyOp39
 70
     1
102
RTVSPropertyOp40
 70
     1
102
RTVSPropertyOp41
 70
     1
102
RTVSPropertyOp42
 70
     1
102
RTVSPropertyOp43
 70
     1
102
RTVSPropertyOp44
 70
     1
102
RTVSPropertyOp45
 70
     1
102
RTVSPropertyOp46
 70
     1
102
RTVSPropertyOp47
 70
     1
102
RTVSPropertyOp48
 70
     1
102
RTVSPropertyOp49
 70
     1
102
RTVSPropertyOp50
 70
     1
102
RTVSPropertyOp51
 70
     0
102
RTVSPropertyOp52
 70
     0
102
RTVSPropertyOp53
 70
     1
102
RTVSPropertyOp54
 70
     1
102
RTVSPropertyOp55
 70
     1
102
RTVSPropertyOp56
 70
     1
102
RTVSPropertyOp57
 70
     1
102
RTVSPropertyOp58
 70
     1
102
RTVSPropertyOp59
 70
     1
102
RTVSPropertyOp60
 70
     1
102
RTVSPropertyOp61
 70
     1
102
RTVSPropertyOp62
 70
     1
  0
XRECORD
  5
9AA3
102
{ACAD_REACTORS
330
9AA2
102
}
330
9AA2
100
AcDbXrecord
280
     1
102
RTVSPost2010Prop28
280
     0
102
RTVSPost2010PropOp28
 70
     1
102
RTVSPost2010Prop29
280
     1
102
RTVSPost2010PropOp29
 70
     1
102
RTVSPost2010Prop30
280
     1
102
RTVSPost2010PropOp30
 70
     1
102
RTVSPost2010Prop31
280
     0
102
RTVSPost2010PropOp31
 70
     1
102
RTVSPost2010Prop32
280
     0
102
RTVSPost2010PropOp32
 70
     1
102
RTVSPost2010Prop33
280
     0
102
RTVSPost2010PropOp33
 70
     1
102
RTVSPost2010Prop34
280
     0
102
RTVSPost2010PropOp34
 70
     1
102
RTVSPost2010Prop35
280
     0
102
RTVSPost2010PropOp35
 70
     1
102
RTVSPost2010Prop36
280
     0
102
RTVSPost2010PropOp36
 70
     1
102
RTVSPost2010Prop37
 90
       50
102
RTVSPost2010PropOp37
 70
     1
102
RTVSPost2010Prop38
140
0.0
102
RTVSPost2010PropOp38
 70
     1
102
RTVSPost2010Prop39
140
1.0
102
RTVSPost2010PropOp39
 70
     1
102
RTVSPost2010Prop40
 90
        0
102
RTVSPost2010PropOp40
 70
     1
102
RTVSPost2010Prop41ColorIndex
 90
       18
102
RTVSPost2010Prop41ColorRGB
 90
        0
102
RTVSPost2010PropOp41
 70
     1
102
RTVSPost2010Prop42
 90
       50
102
RTVSPost2010PropOp42
 70
     1
102
RTVSPost2010Prop43
 90
        3
102
RTVSPost2010PropOp43
 70
     1
102
RTVSPost2010Prop44ColorIndex
 90
        5
102
RTVSPost2010Prop44ColorRGB
 90
      255
102
RTVSPost2010PropOp44
 70
     1
102
RTVSPost2010Prop45
280
     0
102
RTVSPost2010PropOp45
 70
     1
102
RTVSPost2010Prop46
 90
       50
102
RTVSPost2010PropOp46
 70
     1
102
RTVSPost2010Prop47
 90
       50
102
RTVSPost2010PropOp47
 70
     1
102
RTVSPost2010Prop48
 90
       50
102
RTVSPost2010PropOp48
 70
     1
102
RTVSPost2010Prop49
280
     0
102
RTVSPost2010PropOp49
 70
     1
102
RTVSPost2010Prop50
 90
       50
102
RTVSPost2010PropOp50
 70
     1
102
RTVSPost2010Prop51ColorIndex
 90
      256
102
RTVSPost2010Prop51ColorRGB
 90
-16777216
102
RTVSPost2010PropOp51
 70
     0
102
RTVSPost2010Prop52
140
1.0
102
RTVSPost2010PropOp52
 70
     0
102
RTVSPost2010Prop53
 90
        2
102
RTVSPost2010PropOp53
 70
     1
102
RTVSPost2010Prop54
  1
strokes_ogs.tif
102
RTVSPost2010PropOp54
 70
     1
102
RTVSPost2010Prop55
280
     0
102
RTVSPost2010PropOp55
 70
     1
102
RTVSPost2010Prop56
140
1.0
102
RTVSPost2010PropOp56
 70
     1
102
RTVSPost2010Prop57
140
1.0
102
RTVSPost2010PropOp57
 70
     1
102
RTVSPropertyOp0
 70
     1
102
RTVSPropertyOp1
 70
     1
102
RTVSPropertyOp2
 70
     1
102
RTVSPropertyOp3
 70
     1
102
RTVSPropertyOp4
 70
     1
102
RTVSPropertyOp5
 70
     1
102
RTVSPropertyOp6
 70
     1
102
RTVSPropertyOp7
 70
     1
102
RTVSPropertyOp8
 70
     1
102
RTVSPropertyOp9
 70
     1
102
RTVSPropertyOp10
 70
     1
102
RTVSPropertyOp11
 70
     1
102
RTVSPropertyOp12
 70
     1
102
RTVSPropertyOp13
 70
     1
102
RTVSPropertyOp14
 70
     1
102
RTVSPropertyOp15
 70
     1
102
RTVSPropertyOp16
 70
     1
102
RTVSPropertyOp17
 70
     1
102
RTVSPropertyOp18
 70
     1
102
RTVSPropertyOp19
 70
     1
102
RTVSPropertyOp20
 70
     1
102
RTVSPropertyOp21
 70
     1
102
RTVSPropertyOp22
 70
     1
102
RTVSPropertyOp23
 70
     1
102
RTVSPropertyOp24
 70
     1
102
RTVSPropertyOp25
 70
     1
102
RTVSPropertyOp26
 70
     1
102
RTVSPropertyOp27
 70
     1
102
RTVSPropertyOp28
 70
     1
102
RTVSPropertyOp29
 70
     1
102
RTVSPropertyOp30
 70
     1
102
RTVSPropertyOp31
 70
     1
102
RTVSPropertyOp32
 70
     1
102
RTVSPropertyOp33
 70
     1
102
RTVSPropertyOp34
 70
     1
102
RTVSPropertyOp35
 70
     1
102
RTVSPropertyOp36
 70
     1
102
RTVSPropertyOp37
 70
     1
102
RTVSPropertyOp38
 70
     1
102
RTVSPropertyOp39
 70
     1
102
RTVSPropertyOp40
 70
     1
102
RTVSPropertyOp41
 70
     1
102
RTVSPropertyOp42
 70
     1
102
RTVSPropertyOp43
 70
     1
102
RTVSPropertyOp44
 70
     1
102
RTVSPropertyOp45
 70
     1
102
RTVSPropertyOp46
 70
     1
102
RTVSPropertyOp47
 70
     1
102
RTVSPropertyOp48
 70
     1
102
RTVSPropertyOp49
 70
     1
102
RTVSPropertyOp50
 70
     1
102
RTVSPropertyOp51
 70
     0
102
RTVSPropertyOp52
 70
     0
102
RTVSPropertyOp53
 70
     1
102
RTVSPropertyOp54
 70
     1
102
RTVSPropertyOp55
 70
     1
102
RTVSPropertyOp56
 70
     1
102
RTVSPropertyOp57
 70
     1
102
RTVSPropertyOp58
 70
     1
102
RTVSPropertyOp59
 70
     1
102
RTVSPropertyOp60
 70
     1
102
RTVSPropertyOp61
 70
     1
102
RTVSPropertyOp62
 70
     1
  0
XRECORD
  5
9A95
102
{ACAD_REACTORS
330
9A94
102
}
330
9A94
100
AcDbXrecord
280
     1
102
RTVSPost2010Prop28
280
     0
102
RTVSPost2010PropOp28
 70
     1
102
RTVSPost2010Prop29
280
     1
102
RTVSPost2010PropOp29
 70
     1
102
RTVSPost2010Prop30
280
     1
102
RTVSPost2010PropOp30
 70
     1
102
RTVSPost2010Prop31
280
     0
102
RTVSPost2010PropOp31
 70
     1
102
RTVSPost2010Prop32
280
     0
102
RTVSPost2010PropOp32
 70
     1
102
RTVSPost2010Prop33
280
     0
102
RTVSPost2010PropOp33
 70
     1
102
RTVSPost2010Prop34
280
     0
102
RTVSPost2010PropOp34
 70
     1
102
RTVSPost2010Prop35
280
     0
102
RTVSPost2010PropOp35
 70
     1
102
RTVSPost2010Prop36
280
     0
102
RTVSPost2010PropOp36
 70
     1
102
RTVSPost2010Prop37
 90
       50
102
RTVSPost2010PropOp37
 70
     1
102
RTVSPost2010Prop38
140
0.0
102
RTVSPost2010PropOp38
 70
     1
102
RTVSPost2010Prop39
140
1.0
102
RTVSPost2010PropOp39
 70
     1
102
RTVSPost2010Prop40
 90
        0
102
RTVSPost2010PropOp40
 70
     1
102
RTVSPost2010Prop41ColorIndex
 90
       18
102
RTVSPost2010Prop41ColorRGB
 90
        0
102
RTVSPost2010PropOp41
 70
     1
102
RTVSPost2010Prop42
 90
       50
102
RTVSPost2010PropOp42
 70
     1
102
RTVSPost2010Prop43
 90
        3
102
RTVSPost2010PropOp43
 70
     1
102
RTVSPost2010Prop44ColorIndex
 90
        5
102
RTVSPost2010Prop44ColorRGB
 90
      255
102
RTVSPost2010PropOp44
 70
     1
102
RTVSPost2010Prop45
280
     0
102
RTVSPost2010PropOp45
 70
     1
102
RTVSPost2010Prop46
 90
       50
102
RTVSPost2010PropOp46
 70
     1
102
RTVSPost2010Prop47
 90
       50
102
RTVSPost2010PropOp47
 70
     1
102
RTVSPost2010Prop48
 90
       50
102
RTVSPost2010PropOp48
 70
     1
102
RTVSPost2010Prop49
280
     0
102
RTVSPost2010PropOp49
 70
     1
102
RTVSPost2010Prop50
 90
       50
102
RTVSPost2010PropOp50
 70
     1
102
RTVSPost2010Prop51ColorIndex
 90
      256
102
RTVSPost2010Prop51ColorRGB
 90
-16777216
102
RTVSPost2010PropOp51
 70
     0
102
RTVSPost2010Prop52
140
1.0
102
RTVSPost2010PropOp52
 70
     0
102
RTVSPost2010Prop53
 90
        2
102
RTVSPost2010PropOp53
 70
     1
102
RTVSPost2010Prop54
  1
strokes_ogs.tif
102
RTVSPost2010PropOp54
 70
     1
102
RTVSPost2010Prop55
280
     0
102
RTVSPost2010PropOp55
 70
     1
102
RTVSPost2010Prop56
140
1.0
102
RTVSPost2010PropOp56
 70
     1
102
RTVSPost2010Prop57
140
1.0
102
RTVSPost2010PropOp57
 70
     1
102
RTVSPropertyOp0
 70
     1
102
RTVSPropertyOp1
 70
     1
102
RTVSPropertyOp2
 70
     1
102
RTVSPropertyOp3
 70
     1
102
RTVSPropertyOp4
 70
     1
102
RTVSPropertyOp5
 70
     1
102
RTVSPropertyOp6
 70
     1
102
RTVSPropertyOp7
 70
     1
102
RTVSPropertyOp8
 70
     1
102
RTVSPropertyOp9
 70
     1
102
RTVSPropertyOp10
 70
     1
102
RTVSPropertyOp11
 70
     1
102
RTVSPropertyOp12
 70
     1
102
RTVSPropertyOp13
 70
     1
102
RTVSPropertyOp14
 70
     1
102
RTVSPropertyOp15
 70
     1
102
RTVSPropertyOp16
 70
     1
102
RTVSPropertyOp17
 70
     1
102
RTVSPropertyOp18
 70
     1
102
RTVSPropertyOp19
 70
     1
102
RTVSPropertyOp20
 70
     1
102
RTVSPropertyOp21
 70
     1
102
RTVSPropertyOp22
 70
     1
102
RTVSPropertyOp23
 70
     1
102
RTVSPropertyOp24
 70
     1
102
RTVSPropertyOp25
 70
     1
102
RTVSPropertyOp26
 70
     1
102
RTVSPropertyOp27
 70
     1
102
RTVSPropertyOp28
 70
     1
102
RTVSPropertyOp29
 70
     1
102
RTVSPropertyOp30
 70
     1
102
RTVSPropertyOp31
 70
     1
102
RTVSPropertyOp32
 70
     1
102
RTVSPropertyOp33
 70
     1
102
RTVSPropertyOp34
 70
     1
102
RTVSPropertyOp35
 70
     1
102
RTVSPropertyOp36
 70
     1
102
RTVSPropertyOp37
 70
     1
102
RTVSPropertyOp38
 70
     1
102
RTVSPropertyOp39
 70
     1
102
RTVSPropertyOp40
 70
     1
102
RTVSPropertyOp41
 70
     1
102
RTVSPropertyOp42
 70
     1
102
RTVSPropertyOp43
 70
     1
102
RTVSPropertyOp44
 70
     1
102
RTVSPropertyOp45
 70
     1
102
RTVSPropertyOp46
 70
     1
102
RTVSPropertyOp47
 70
     1
102
RTVSPropertyOp48
 70
     1
102
RTVSPropertyOp49
 70
     1
102
RTVSPropertyOp50
 70
     1
102
RTVSPropertyOp51
 70
     0
102
RTVSPropertyOp52
 70
     0
102
RTVSPropertyOp53
 70
     1
102
RTVSPropertyOp54
 70
     1
102
RTVSPropertyOp55
 70
     1
102
RTVSPropertyOp56
 70
     1
102
RTVSPropertyOp57
 70
     1
102
RTVSPropertyOp58
 70
     1
102
RTVSPropertyOp59
 70
     1
102
RTVSPropertyOp60
 70
     1
102
RTVSPropertyOp61
 70
     1
102
RTVSPropertyOp62
 70
     1
  0
XRECORD
  5
9A99
102
{ACAD_REACTORS
330
9A98
102
}
330
9A98
100
AcDbXrecord
280
     1
102
RTVSPost2010Prop28
280
     0
102
RTVSPost2010PropOp28
 70
     1
102
RTVSPost2010Prop29
280
     1
102
RTVSPost2010PropOp29
 70
     1
102
RTVSPost2010Prop30
280
     1
102
RTVSPost2010PropOp30
 70
     1
102
RTVSPost2010Prop31
280
     0
102
RTVSPost2010PropOp31
 70
     1
102
RTVSPost2010Prop32
280
     0
102
RTVSPost2010PropOp32
 70
     1
102
RTVSPost2010Prop33
280
     0
102
RTVSPost2010PropOp33
 70
     1
102
RTVSPost2010Prop34
280
     0
102
RTVSPost2010PropOp34
 70
     1
102
RTVSPost2010Prop35
280
     0
102
RTVSPost2010PropOp35
 70
     1
102
RTVSPost2010Prop36
280
     0
102
RTVSPost2010PropOp36
 70
     1
102
RTVSPost2010Prop37
 90
       50
102
RTVSPost2010PropOp37
 70
     1
102
RTVSPost2010Prop38
140
0.0
102
RTVSPost2010PropOp38
 70
     1
102
RTVSPost2010Prop39
140
1.0
102
RTVSPost2010PropOp39
 70
     1
102
RTVSPost2010Prop40
 90
        0
102
RTVSPost2010PropOp40
 70
     1
102
RTVSPost2010Prop41ColorIndex
 90
       18
102
RTVSPost2010Prop41ColorRGB
 90
        0
102
RTVSPost2010PropOp41
 70
     1
102
RTVSPost2010Prop42
 90
       50
102
RTVSPost2010PropOp42
 70
     1
102
RTVSPost2010Prop43
 90
        3
102
RTVSPost2010PropOp43
 70
     1
102
RTVSPost2010Prop44ColorIndex
 90
        5
102
RTVSPost2010Prop44ColorRGB
 90
      255
102
RTVSPost2010PropOp44
 70
     1
102
RTVSPost2010Prop45
280
     0
102
RTVSPost2010PropOp45
 70
     1
102
RTVSPost2010Prop46
 90
       50
102
RTVSPost2010PropOp46
 70
     1
102
RTVSPost2010Prop47
 90
       50
102
RTVSPost2010PropOp47
 70
     1
102
RTVSPost2010Prop48
 90
       50
102
RTVSPost2010PropOp48
 70
     1
102
RTVSPost2010Prop49
280
     0
102
RTVSPost2010PropOp49
 70
     1
102
RTVSPost2010Prop50
 90
       50
102
RTVSPost2010PropOp50
 70
     1
102
RTVSPost2010Prop51ColorIndex
 90
      256
102
RTVSPost2010Prop51ColorRGB
 90
-16777216
102
RTVSPost2010PropOp51
 70
     0
102
RTVSPost2010Prop52
140
1.0
102
RTVSPost2010PropOp52
 70
     0
102
RTVSPost2010Prop53
 90
        2
102
RTVSPost2010PropOp53
 70
     1
102
RTVSPost2010Prop54
  1
strokes_ogs.tif
102
RTVSPost2010PropOp54
 70
     1
102
RTVSPost2010Prop55
280
     0
102
RTVSPost2010PropOp55
 70
     1
102
RTVSPost2010Prop56
140
1.0
102
RTVSPost2010PropOp56
 70
     1
102
RTVSPost2010Prop57
140
1.0
102
RTVSPost2010PropOp57
 70
     1
102
RTVSPropertyOp0
 70
     1
102
RTVSPropertyOp1
 70
     1
102
RTVSPropertyOp2
 70
     1
102
RTVSPropertyOp3
 70
     1
102
RTVSPropertyOp4
 70
     1
102
RTVSPropertyOp5
 70
     1
102
RTVSPropertyOp6
 70
     1
102
RTVSPropertyOp7
 70
     1
102
RTVSPropertyOp8
 70
     1
102
RTVSPropertyOp9
 70
     1
102
RTVSPropertyOp10
 70
     1
102
RTVSPropertyOp11
 70
     1
102
RTVSPropertyOp12
 70
     1
102
RTVSPropertyOp13
 70
     1
102
RTVSPropertyOp14
 70
     1
102
RTVSPropertyOp15
 70
     1
102
RTVSPropertyOp16
 70
     1
102
RTVSPropertyOp17
 70
     1
102
RTVSPropertyOp18
 70
     1
102
RTVSPropertyOp19
 70
     1
102
RTVSPropertyOp20
 70
     1
102
RTVSPropertyOp21
 70
     1
102
RTVSPropertyOp22
 70
     1
102
RTVSPropertyOp23
 70
     1
102
RTVSPropertyOp24
 70
     1
102
RTVSPropertyOp25
 70
     1
102
RTVSPropertyOp26
 70
     1
102
RTVSPropertyOp27
 70
     1
102
RTVSPropertyOp28
 70
     1
102
RTVSPropertyOp29
 70
     1
102
RTVSPropertyOp30
 70
     1
102
RTVSPropertyOp31
 70
     1
102
RTVSPropertyOp32
 70
     1
102
RTVSPropertyOp33
 70
     1
102
RTVSPropertyOp34
 70
     1
102
RTVSPropertyOp35
 70
     1
102
RTVSPropertyOp36
 70
     1
102
RTVSPropertyOp37
 70
     1
102
RTVSPropertyOp38
 70
     1
102
RTVSPropertyOp39
 70
     1
102
RTVSPropertyOp40
 70
     1
102
RTVSPropertyOp41
 70
     1
102
RTVSPropertyOp42
 70
     1
102
RTVSPropertyOp43
 70
     1
102
RTVSPropertyOp44
 70
     1
102
RTVSPropertyOp45
 70
     1
102
RTVSPropertyOp46
 70
     1
102
RTVSPropertyOp47
 70
     1
102
RTVSPropertyOp48
 70
     1
102
RTVSPropertyOp49
 70
     1
102
RTVSPropertyOp50
 70
     1
102
RTVSPropertyOp51
 70
     0
102
RTVSPropertyOp52
 70
     0
102
RTVSPropertyOp53
 70
     1
102
RTVSPropertyOp54
 70
     1
102
RTVSPropertyOp55
 70
     1
102
RTVSPropertyOp56
 70
     1
102
RTVSPropertyOp57
 70
     1
102
RTVSPropertyOp58
 70
     1
102
RTVSPropertyOp59
 70
     1
102
RTVSPropertyOp60
 70
     1
102
RTVSPropertyOp61
 70
     1
102
RTVSPropertyOp62
 70
     1
  0
XRECORD
  5
9AB3
102
{ACAD_REACTORS
330
9AB2
102
}
330
9AB2
100
AcDbXrecord
280
     1
102
RTVSPost2010Prop28
280
     0
102
RTVSPost2010PropOp28
 70
     1
102
RTVSPost2010Prop29
280
     1
102
RTVSPost2010PropOp29
 70
     1
102
RTVSPost2010Prop30
280
     1
102
RTVSPost2010PropOp30
 70
     1
102
RTVSPost2010Prop31
280
     0
102
RTVSPost2010PropOp31
 70
     1
102
RTVSPost2010Prop32
280
     0
102
RTVSPost2010PropOp32
 70
     1
102
RTVSPost2010Prop33
280
     0
102
RTVSPost2010PropOp33
 70
     1
102
RTVSPost2010Prop34
280
     0
102
RTVSPost2010PropOp34
 70
     1
102
RTVSPost2010Prop35
280
     0
102
RTVSPost2010PropOp35
 70
     1
102
RTVSPost2010Prop36
280
     0
102
RTVSPost2010PropOp36
 70
     1
102
RTVSPost2010Prop37
 90
       50
102
RTVSPost2010PropOp37
 70
     0
102
RTVSPost2010Prop38
140
0.0
102
RTVSPost2010PropOp38
 70
     0
102
RTVSPost2010Prop39
140
1.0
102
RTVSPost2010PropOp39
 70
     0
102
RTVSPost2010Prop40
 90
        0
102
RTVSPost2010PropOp40
 70
     0
102
RTVSPost2010Prop41ColorIndex
 90
       18
102
RTVSPost2010Prop41ColorRGB
 90
        0
102
RTVSPost2010PropOp41
 70
     0
102
RTVSPost2010Prop42
 90
       50
102
RTVSPost2010PropOp42
 70
     0
102
RTVSPost2010Prop43
 90
        3
102
RTVSPost2010PropOp43
 70
     0
102
RTVSPost2010Prop44ColorIndex
 90
        5
102
RTVSPost2010Prop44ColorRGB
 90
      255
102
RTVSPost2010PropOp44
 70
     0
102
RTVSPost2010Prop45
280
     0
102
RTVSPost2010PropOp45
 70
     1
102
RTVSPost2010Prop46
 90
       50
102
RTVSPost2010PropOp46
 70
     0
102
RTVSPost2010Prop47
 90
       50
102
RTVSPost2010PropOp47
 70
     0
102
RTVSPost2010Prop48
 90
       50
102
RTVSPost2010PropOp48
 70
     0
102
RTVSPost2010Prop49
280
     0
102
RTVSPost2010PropOp49
 70
     1
102
RTVSPost2010Prop50
 90
       50
102
RTVSPost2010PropOp50
 70
     0
102
RTVSPost2010Prop51ColorIndex
 90
      256
102
RTVSPost2010Prop51ColorRGB
 90
-16777216
102
RTVSPost2010PropOp51
 70
     0
102
RTVSPost2010Prop52
140
1.0
102
RTVSPost2010PropOp52
 70
     0
102
RTVSPost2010Prop53
 90
        2
102
RTVSPost2010PropOp53
 70
     0
102
RTVSPost2010Prop54
  1
strokes_ogs.tif
102
RTVSPost2010PropOp54
 70
     0
102
RTVSPost2010Prop55
280
     0
102
RTVSPost2010PropOp55
 70
     1
102
RTVSPost2010Prop56
140
1.0
102
RTVSPost2010PropOp56
 70
     0
102
RTVSPost2010Prop57
140
1.0
102
RTVSPost2010PropOp57
 70
     0
102
RTVSPropertyOp0
 70
     0
102
RTVSPropertyOp1
 70
     0
102
RTVSPropertyOp2
 70
     0
102
RTVSPropertyOp3
 70
     0
102
RTVSPropertyOp4
 70
     0
102
RTVSPropertyOp5
 70
     0
102
RTVSPropertyOp6
 70
     0
102
RTVSPropertyOp7
 70
     0
102
RTVSPropertyOp8
 70
     0
102
RTVSPropertyOp9
 70
     0
102
RTVSPropertyOp10
 70
     0
102
RTVSPropertyOp11
 70
     0
102
RTVSPropertyOp12
 70
     0
102
RTVSPropertyOp13
 70
     0
102
RTVSPropertyOp14
 70
     2
102
RTVSPropertyOp15
 70
     0
102
RTVSPropertyOp16
 70
     0
102
RTVSPropertyOp17
 70
     0
102
RTVSPropertyOp18
 70
     0
102
RTVSPropertyOp19
 70
     0
102
RTVSPropertyOp20
 70
     0
102
RTVSPropertyOp21
 70
     0
102
RTVSPropertyOp22
 70
     0
102
RTVSPropertyOp23
 70
     0
102
RTVSPropertyOp24
 70
     0
102
RTVSPropertyOp25
 70
     0
102
RTVSPropertyOp26
 70
     0
102
RTVSPropertyOp27
 70
     0
102
RTVSPropertyOp28
 70
     1
102
RTVSPropertyOp29
 70
     1
102
RTVSPropertyOp30
 70
     1
102
RTVSPropertyOp31
 70
     1
102
RTVSPropertyOp32
 70
     1
102
RTVSPropertyOp33
 70
     1
102
RTVSPropertyOp34
 70
     1
102
RTVSPropertyOp35
 70
     1
102
RTVSPropertyOp36
 70
     1
102
RTVSPropertyOp37
 70
     0
102
RTVSPropertyOp38
 70
     0
102
RTVSPropertyOp39
 70
     0
102
RTVSPropertyOp40
 70
     0
102
RTVSPropertyOp41
 70
     0
102
RTVSPropertyOp42
 70
     0
102
RTVSPropertyOp43
 70
     0
102
RTVSPropertyOp44
 70
     0
102
RTVSPropertyOp45
 70
     1
102
RTVSPropertyOp46
 70
     0
102
RTVSPropertyOp47
 70
     0
102
RTVSPropertyOp48
 70
     0
102
RTVSPropertyOp49
 70
     1
102
RTVSPropertyOp50
 70
     0
102
RTVSPropertyOp51
 70
     0
102
RTVSPropertyOp52
 70
     0
102
RTVSPropertyOp53
 70
     0
102
RTVSPropertyOp54
 70
     0
102
RTVSPropertyOp55
 70
     1
102
RTVSPropertyOp56
 70
     0
102
RTVSPropertyOp57
 70
     0
102
RTVSPropertyOp58
 70
     0
102
RTVSPropertyOp59
 70
     0
102
RTVSPropertyOp60
 70
     0
102
RTVSPropertyOp61
 70
     0
102
RTVSPropertyOp62
 70
     0
  0
XRECORD
  5
9AA1
102
{ACAD_REACTORS
330
9AA0
102
}
330
9AA0
100
AcDbXrecord
280
     1
102
RTVSPost2010Prop28
280
     0
102
RTVSPost2010PropOp28
 70
     1
102
RTVSPost2010Prop29
280
     1
102
RTVSPost2010PropOp29
 70
     1
102
RTVSPost2010Prop30
280
     1
102
RTVSPost2010PropOp30
 70
     1
102
RTVSPost2010Prop31
280
     0
102
RTVSPost2010PropOp31
 70
     1
102
RTVSPost2010Prop32
280
     0
102
RTVSPost2010PropOp32
 70
     1
102
RTVSPost2010Prop33
280
     0
102
RTVSPost2010PropOp33
 70
     1
102
RTVSPost2010Prop34
280
     0
102
RTVSPost2010PropOp34
 70
     1
102
RTVSPost2010Prop35
280
     0
102
RTVSPost2010PropOp35
 70
     1
102
RTVSPost2010Prop36
280
     0
102
RTVSPost2010PropOp36
 70
     1
102
RTVSPost2010Prop37
 90
       50
102
RTVSPost2010PropOp37
 70
     1
102
RTVSPost2010Prop38
140
0.0
102
RTVSPost2010PropOp38
 70
     1
102
RTVSPost2010Prop39
140
1.0
102
RTVSPost2010PropOp39
 70
     1
102
RTVSPost2010Prop40
 90
        0
102
RTVSPost2010PropOp40
 70
     1
102
RTVSPost2010Prop41ColorIndex
 90
       18
102
RTVSPost2010Prop41ColorRGB
 90
        0
102
RTVSPost2010PropOp41
 70
     1
102
RTVSPost2010Prop42
 90
       50
102
RTVSPost2010PropOp42
 70
     1
102
RTVSPost2010Prop43
 90
        3
102
RTVSPost2010PropOp43
 70
     1
102
RTVSPost2010Prop44ColorIndex
 90
        5
102
RTVSPost2010Prop44ColorRGB
 90
      255
102
RTVSPost2010PropOp44
 70
     1
102
RTVSPost2010Prop45
280
     0
102
RTVSPost2010PropOp45
 70
     1
102
RTVSPost2010Prop46
 90
       50
102
RTVSPost2010PropOp46
 70
     1
102
RTVSPost2010Prop47
 90
       50
102
RTVSPost2010PropOp47
 70
     1
102
RTVSPost2010Prop48
 90
       50
102
RTVSPost2010PropOp48
 70
     1
102
RTVSPost2010Prop49
280
     0
102
RTVSPost2010PropOp49
 70
     1
102
RTVSPost2010Prop50
 90
       50
102
RTVSPost2010PropOp50
 70
     1
102
RTVSPost2010Prop51ColorIndex
 90
      256
102
RTVSPost2010Prop51ColorRGB
 90
-16777216
102
RTVSPost2010PropOp51
 70
     0
102
RTVSPost2010Prop52
140
1.0
102
RTVSPost2010PropOp52
 70
     0
102
RTVSPost2010Prop53
 90
        2
102
RTVSPost2010PropOp53
 70
     1
102
RTVSPost2010Prop54
  1
strokes_ogs.tif
102
RTVSPost2010PropOp54
 70
     1
102
RTVSPost2010Prop55
280
     0
102
RTVSPost2010PropOp55
 70
     1
102
RTVSPost2010Prop56
140
1.0
102
RTVSPost2010PropOp56
 70
     1
102
RTVSPost2010Prop57
140
1.0
102
RTVSPost2010PropOp57
 70
     1
102
RTVSPropertyOp0
 70
     1
102
RTVSPropertyOp1
 70
     1
102
RTVSPropertyOp2
 70
     1
102
RTVSPropertyOp3
 70
     1
102
RTVSPropertyOp4
 70
     1
102
RTVSPropertyOp5
 70
     1
102
RTVSPropertyOp6
 70
     1
102
RTVSPropertyOp7
 70
     1
102
RTVSPropertyOp8
 70
     1
102
RTVSPropertyOp9
 70
     1
102
RTVSPropertyOp10
 70
     1
102
RTVSPropertyOp11
 70
     1
102
RTVSPropertyOp12
 70
     1
102
RTVSPropertyOp13
 70
     1
102
RTVSPropertyOp14
 70
     1
102
RTVSPropertyOp15
 70
     1
102
RTVSPropertyOp16
 70
     1
102
RTVSPropertyOp17
 70
     1
102
RTVSPropertyOp18
 70
     1
102
RTVSPropertyOp19
 70
     1
102
RTVSPropertyOp20
 70
     1
102
RTVSPropertyOp21
 70
     1
102
RTVSPropertyOp22
 70
     1
102
RTVSPropertyOp23
 70
     1
102
RTVSPropertyOp24
 70
     1
102
RTVSPropertyOp25
 70
     1
102
RTVSPropertyOp26
 70
     1
102
RTVSPropertyOp27
 70
     1
102
RTVSPropertyOp28
 70
     1
102
RTVSPropertyOp29
 70
     1
102
RTVSPropertyOp30
 70
     1
102
RTVSPropertyOp31
 70
     1
102
RTVSPropertyOp32
 70
     1
102
RTVSPropertyOp33
 70
     1
102
RTVSPropertyOp34
 70
     1
102
RTVSPropertyOp35
 70
     1
102
RTVSPropertyOp36
 70
     1
102
RTVSPropertyOp37
 70
     1
102
RTVSPropertyOp38
 70
     1
102
RTVSPropertyOp39
 70
     1
102
RTVSPropertyOp40
 70
     1
102
RTVSPropertyOp41
 70
     1
102
RTVSPropertyOp42
 70
     1
102
RTVSPropertyOp43
 70
     1
102
RTVSPropertyOp44
 70
     1
102
RTVSPropertyOp45
 70
     1
102
RTVSPropertyOp46
 70
     1
102
RTVSPropertyOp47
 70
     1
102
RTVSPropertyOp48
 70
     1
102
RTVSPropertyOp49
 70
     1
102
RTVSPropertyOp50
 70
     1
102
RTVSPropertyOp51
 70
     0
102
RTVSPropertyOp52
 70
     0
102
RTVSPropertyOp53
 70
     1
102
RTVSPropertyOp54
 70
     1
102
RTVSPropertyOp55
 70
     1
102
RTVSPropertyOp56
 70
     1
102
RTVSPropertyOp57
 70
     1
102
RTVSPropertyOp58
 70
     1
102
RTVSPropertyOp59
 70
     1
102
RTVSPropertyOp60
 70
     1
102
RTVSPropertyOp61
 70
     1
102
RTVSPropertyOp62
 70
     1
  0
XRECORD
  5
9A85
102
{ACAD_REACTORS
330
9A84
102
}
330
9A84
100
AcDbXrecord
280
     1
102
RTVSPost2010Prop28
280
     0
102
RTVSPost2010PropOp28
 70
     1
102
RTVSPost2010Prop29
280
     1
102
RTVSPost2010PropOp29
 70
     1
102
RTVSPost2010Prop30
280
     1
102
RTVSPost2010PropOp30
 70
     1
102
RTVSPost2010Prop31
280
     0
102
RTVSPost2010PropOp31
 70
     1
102
RTVSPost2010Prop32
280
     0
102
RTVSPost2010PropOp32
 70
     1
102
RTVSPost2010Prop33
280
     0
102
RTVSPost2010PropOp33
 70
     1
102
RTVSPost2010Prop34
280
     0
102
RTVSPost2010PropOp34
 70
     1
102
RTVSPost2010Prop35
280
     0
102
RTVSPost2010PropOp35
 70
     1
102
RTVSPost2010Prop36
280
     0
102
RTVSPost2010PropOp36
 70
     1
102
RTVSPost2010Prop37
 90
       50
102
RTVSPost2010PropOp37
 70
     1
102
RTVSPost2010Prop38
140
0.0
102
RTVSPost2010PropOp38
 70
     1
102
RTVSPost2010Prop39
140
1.0
102
RTVSPost2010PropOp39
 70
     1
102
RTVSPost2010Prop40
 90
        0
102
RTVSPost2010PropOp40
 70
     1
102
RTVSPost2010Prop41ColorIndex
 90
       18
102
RTVSPost2010Prop41ColorRGB
 90
        0
102
RTVSPost2010PropOp41
 70
     1
102
RTVSPost2010Prop42
 90
       50
102
RTVSPost2010PropOp42
 70
     1
102
RTVSPost2010Prop43
 90
        3
102
RTVSPost2010PropOp43
 70
     1
102
RTVSPost2010Prop44ColorIndex
 90
        5
102
RTVSPost2010Prop44ColorRGB
 90
      255
102
RTVSPost2010PropOp44
 70
     1
102
RTVSPost2010Prop45
280
     0
102
RTVSPost2010PropOp45
 70
     1
102
RTVSPost2010Prop46
 90
       50
102
RTVSPost2010PropOp46
 70
     1
102
RTVSPost2010Prop47
 90
       50
102
RTVSPost2010PropOp47
 70
     1
102
RTVSPost2010Prop48
 90
       50
102
RTVSPost2010PropOp48
 70
     1
102
RTVSPost2010Prop49
280
     0
102
RTVSPost2010PropOp49
 70
     1
102
RTVSPost2010Prop50
 90
       50
102
RTVSPost2010PropOp50
 70
     1
102
RTVSPost2010Prop51ColorIndex
 90
      256
102
RTVSPost2010Prop51ColorRGB
 90
-16777216
102
RTVSPost2010PropOp51
 70
     0
102
RTVSPost2010Prop52
140
1.0
102
RTVSPost2010PropOp52
 70
     0
102
RTVSPost2010Prop53
 90
        2
102
RTVSPost2010PropOp53
 70
     1
102
RTVSPost2010Prop54
  1
strokes_ogs.tif
102
RTVSPost2010PropOp54
 70
     1
102
RTVSPost2010Prop55
280
     0
102
RTVSPost2010PropOp55
 70
     1
102
RTVSPost2010Prop56
140
1.0
102
RTVSPost2010PropOp56
 70
     1
102
RTVSPost2010Prop57
140
1.0
102
RTVSPost2010PropOp57
 70
     1
102
RTVSPropertyOp0
 70
     1
102
RTVSPropertyOp1
 70
     1
102
RTVSPropertyOp2
 70
     1
102
RTVSPropertyOp3
 70
     1
102
RTVSPropertyOp4
 70
     1
102
RTVSPropertyOp5
 70
     1
102
RTVSPropertyOp6
 70
     1
102
RTVSPropertyOp7
 70
     1
102
RTVSPropertyOp8
 70
     1
102
RTVSPropertyOp9
 70
     1
102
RTVSPropertyOp10
 70
     1
102
RTVSPropertyOp11
 70
     1
102
RTVSPropertyOp12
 70
     1
102
RTVSPropertyOp13
 70
     1
102
RTVSPropertyOp14
 70
     1
102
RTVSPropertyOp15
 70
     1
102
RTVSPropertyOp16
 70
     1
102
RTVSPropertyOp17
 70
     1
102
RTVSPropertyOp18
 70
     1
102
RTVSPropertyOp19
 70
     1
102
RTVSPropertyOp20
 70
     1
102
RTVSPropertyOp21
 70
     1
102
RTVSPropertyOp22
 70
     1
102
RTVSPropertyOp23
 70
     1
102
RTVSPropertyOp24
 70
     1
102
RTVSPropertyOp25
 70
     1
102
RTVSPropertyOp26
 70
     1
102
RTVSPropertyOp27
 70
     1
102
RTVSPropertyOp28
 70
     1
102
RTVSPropertyOp29
 70
     1
102
RTVSPropertyOp30
 70
     1
102
RTVSPropertyOp31
 70
     1
102
RTVSPropertyOp32
 70
     1
102
RTVSPropertyOp33
 70
     1
102
RTVSPropertyOp34
 70
     1
102
RTVSPropertyOp35
 70
     1
102
RTVSPropertyOp36
 70
     1
102
RTVSPropertyOp37
 70
     1
102
RTVSPropertyOp38
 70
     1
102
RTVSPropertyOp39
 70
     1
102
RTVSPropertyOp40
 70
     1
102
RTVSPropertyOp41
 70
     1
102
RTVSPropertyOp42
 70
     1
102
RTVSPropertyOp43
 70
     1
102
RTVSPropertyOp44
 70
     1
102
RTVSPropertyOp45
 70
     1
102
RTVSPropertyOp46
 70
     1
102
RTVSPropertyOp47
 70
     1
102
RTVSPropertyOp48
 70
     1
102
RTVSPropertyOp49
 70
     1
102
RTVSPropertyOp50
 70
     1
102
RTVSPropertyOp51
 70
     0
102
RTVSPropertyOp52
 70
     0
102
RTVSPropertyOp53
 70
     1
102
RTVSPropertyOp54
 70
     1
102
RTVSPropertyOp55
 70
     1
102
RTVSPropertyOp56
 70
     1
102
RTVSPropertyOp57
 70
     1
102
RTVSPropertyOp58
 70
     1
102
RTVSPropertyOp59
 70
     1
102
RTVSPropertyOp60
 70
     1
102
RTVSPropertyOp61
 70
     1
102
RTVSPropertyOp62
 70
     1
  0
XRECORD
  5
9A87
102
{ACAD_REACTORS
330
9A86
102
}
330
9A86
100
AcDbXrecord
280
     1
102
RTVSPost2010Prop28
280
     0
102
RTVSPost2010PropOp28
 70
     1
102
RTVSPost2010Prop29
280
     1
102
RTVSPost2010PropOp29
 70
     1
102
RTVSPost2010Prop30
280
     1
102
RTVSPost2010PropOp30
 70
     1
102
RTVSPost2010Prop31
280
     0
102
RTVSPost2010PropOp31
 70
     1
102
RTVSPost2010Prop32
280
     0
102
RTVSPost2010PropOp32
 70
     1
102
RTVSPost2010Prop33
280
     0
102
RTVSPost2010PropOp33
 70
     1
102
RTVSPost2010Prop34
280
     0
102
RTVSPost2010PropOp34
 70
     1
102
RTVSPost2010Prop35
280
     0
102
RTVSPost2010PropOp35
 70
     1
102
RTVSPost2010Prop36
280
     0
102
RTVSPost2010PropOp36
 70
     1
102
RTVSPost2010Prop37
 90
       50
102
RTVSPost2010PropOp37
 70
     1
102
RTVSPost2010Prop38
140
0.0
102
RTVSPost2010PropOp38
 70
     1
102
RTVSPost2010Prop39
140
1.0
102
RTVSPost2010PropOp39
 70
     1
102
RTVSPost2010Prop40
 90
        0
102
RTVSPost2010PropOp40
 70
     1
102
RTVSPost2010Prop41ColorIndex
 90
       18
102
RTVSPost2010Prop41ColorRGB
 90
        0
102
RTVSPost2010PropOp41
 70
     1
102
RTVSPost2010Prop42
 90
       50
102
RTVSPost2010PropOp42
 70
     1
102
RTVSPost2010Prop43
 90
        3
102
RTVSPost2010PropOp43
 70
     1
102
RTVSPost2010Prop44ColorIndex
 90
        5
102
RTVSPost2010Prop44ColorRGB
 90
      255
102
RTVSPost2010PropOp44
 70
     1
102
RTVSPost2010Prop45
280
     0
102
RTVSPost2010PropOp45
 70
     1
102
RTVSPost2010Prop46
 90
       50
102
RTVSPost2010PropOp46
 70
     1
102
RTVSPost2010Prop47
 90
       50
102
RTVSPost2010PropOp47
 70
     1
102
RTVSPost2010Prop48
 90
       50
102
RTVSPost2010PropOp48
 70
     1
102
RTVSPost2010Prop49
280
     0
102
RTVSPost2010PropOp49
 70
     1
102
RTVSPost2010Prop50
 90
       50
102
RTVSPost2010PropOp50
 70
     1
102
RTVSPost2010Prop51ColorIndex
 90
      256
102
RTVSPost2010Prop51ColorRGB
 90
-16777216
102
RTVSPost2010PropOp51
 70
     0
102
RTVSPost2010Prop52
140
1.0
102
RTVSPost2010PropOp52
 70
     0
102
RTVSPost2010Prop53
 90
        2
102
RTVSPost2010PropOp53
 70
     1
102
RTVSPost2010Prop54
  1
strokes_ogs.tif
102
RTVSPost2010PropOp54
 70
     1
102
RTVSPost2010Prop55
280
     0
102
RTVSPost2010PropOp55
 70
     1
102
RTVSPost2010Prop56
140
1.0
102
RTVSPost2010PropOp56
 70
     1
102
RTVSPost2010Prop57
140
1.0
102
RTVSPost2010PropOp57
 70
     1
102
RTVSPropertyOp0
 70
     1
102
RTVSPropertyOp1
 70
     1
102
RTVSPropertyOp2
 70
     1
102
RTVSPropertyOp3
 70
     1
102
RTVSPropertyOp4
 70
     1
102
RTVSPropertyOp5
 70
     1
102
RTVSPropertyOp6
 70
     1
102
RTVSPropertyOp7
 70
     1
102
RTVSPropertyOp8
 70
     1
102
RTVSPropertyOp9
 70
     1
102
RTVSPropertyOp10
 70
     1
102
RTVSPropertyOp11
 70
     1
102
RTVSPropertyOp12
 70
     1
102
RTVSPropertyOp13
 70
     1
102
RTVSPropertyOp14
 70
     1
102
RTVSPropertyOp15
 70
     1
102
RTVSPropertyOp16
 70
     1
102
RTVSPropertyOp17
 70
     1
102
RTVSPropertyOp18
 70
     1
102
RTVSPropertyOp19
 70
     1
102
RTVSPropertyOp20
 70
     1
102
RTVSPropertyOp21
 70
     1
102
RTVSPropertyOp22
 70
     1
102
RTVSPropertyOp23
 70
     1
102
RTVSPropertyOp24
 70
     1
102
RTVSPropertyOp25
 70
     1
102
RTVSPropertyOp26
 70
     1
102
RTVSPropertyOp27
 70
     1
102
RTVSPropertyOp28
 70
     1
102
RTVSPropertyOp29
 70
     1
102
RTVSPropertyOp30
 70
     1
102
RTVSPropertyOp31
 70
     1
102
RTVSPropertyOp32
 70
     1
102
RTVSPropertyOp33
 70
     1
102
RTVSPropertyOp34
 70
     1
102
RTVSPropertyOp35
 70
     1
102
RTVSPropertyOp36
 70
     1
102
RTVSPropertyOp37
 70
     1
102
RTVSPropertyOp38
 70
     1
102
RTVSPropertyOp39
 70
     1
102
RTVSPropertyOp40
 70
     1
102
RTVSPropertyOp41
 70
     1
102
RTVSPropertyOp42
 70
     1
102
RTVSPropertyOp43
 70
     1
102
RTVSPropertyOp44
 70
     1
102
RTVSPropertyOp45
 70
     1
102
RTVSPropertyOp46
 70
     1
102
RTVSPropertyOp47
 70
     1
102
RTVSPropertyOp48
 70
     1
102
RTVSPropertyOp49
 70
     1
102
RTVSPropertyOp50
 70
     1
102
RTVSPropertyOp51
 70
     0
102
RTVSPropertyOp52
 70
     0
102
RTVSPropertyOp53
 70
     1
102
RTVSPropertyOp54
 70
     1
102
RTVSPropertyOp55
 70
     1
102
RTVSPropertyOp56
 70
     1
102
RTVSPropertyOp57
 70
     1
102
RTVSPropertyOp58
 70
     1
102
RTVSPropertyOp59
 70
     1
102
RTVSPropertyOp60
 70
     1
102
RTVSPropertyOp61
 70
     1
102
RTVSPropertyOp62
 70
     1
  0
XRECORD
  5
9A89
102
{ACAD_REACTORS
330
9A88
102
}
330
9A88
100
AcDbXrecord
280
     1
102
RTVSPost2010Prop28
280
     0
102
RTVSPost2010PropOp28
 70
     1
102
RTVSPost2010Prop29
280
     1
102
RTVSPost2010PropOp29
 70
     1
102
RTVSPost2010Prop30
280
     1
102
RTVSPost2010PropOp30
 70
     1
102
RTVSPost2010Prop31
280
     0
102
RTVSPost2010PropOp31
 70
     1
102
RTVSPost2010Prop32
280
     0
102
RTVSPost2010PropOp32
 70
     1
102
RTVSPost2010Prop33
280
     0
102
RTVSPost2010PropOp33
 70
     1
102
RTVSPost2010Prop34
280
     0
102
RTVSPost2010PropOp34
 70
     1
102
RTVSPost2010Prop35
280
     0
102
RTVSPost2010PropOp35
 70
     1
102
RTVSPost2010Prop36
280
     0
102
RTVSPost2010PropOp36
 70
     1
102
RTVSPost2010Prop37
 90
       50
102
RTVSPost2010PropOp37
 70
     1
102
RTVSPost2010Prop38
140
0.0
102
RTVSPost2010PropOp38
 70
     1
102
RTVSPost2010Prop39
140
1.0
102
RTVSPost2010PropOp39
 70
     1
102
RTVSPost2010Prop40
 90
        0
102
RTVSPost2010PropOp40
 70
     1
102
RTVSPost2010Prop41ColorIndex
 90
       18
102
RTVSPost2010Prop41ColorRGB
 90
        0
102
RTVSPost2010PropOp41
 70
     1
102
RTVSPost2010Prop42
 90
       50
102
RTVSPost2010PropOp42
 70
     1
102
RTVSPost2010Prop43
 90
        3
102
RTVSPost2010PropOp43
 70
     1
102
RTVSPost2010Prop44ColorIndex
 90
        5
102
RTVSPost2010Prop44ColorRGB
 90
      255
102
RTVSPost2010PropOp44
 70
     1
102
RTVSPost2010Prop45
280
     0
102
RTVSPost2010PropOp45
 70
     1
102
RTVSPost2010Prop46
 90
       50
102
RTVSPost2010PropOp46
 70
     1
102
RTVSPost2010Prop47
 90
       50
102
RTVSPost2010PropOp47
 70
     1
102
RTVSPost2010Prop48
 90
       50
102
RTVSPost2010PropOp48
 70
     1
102
RTVSPost2010Prop49
280
     0
102
RTVSPost2010PropOp49
 70
     1
102
RTVSPost2010Prop50
 90
       50
102
RTVSPost2010PropOp50
 70
     1
102
RTVSPost2010Prop51ColorIndex
 90
      256
102
RTVSPost2010Prop51ColorRGB
 90
-16777216
102
RTVSPost2010PropOp51
 70
     0
102
RTVSPost2010Prop52
140
1.0
102
RTVSPost2010PropOp52
 70
     0
102
RTVSPost2010Prop53
 90
        2
102
RTVSPost2010PropOp53
 70
     1
102
RTVSPost2010Prop54
  1
strokes_ogs.tif
102
RTVSPost2010PropOp54
 70
     1
102
RTVSPost2010Prop55
280
     0
102
RTVSPost2010PropOp55
 70
     1
102
RTVSPost2010Prop56
140
1.0
102
RTVSPost2010PropOp56
 70
     1
102
RTVSPost2010Prop57
140
1.0
102
RTVSPost2010PropOp57
 70
     1
102
RTVSPropertyOp0
 70
     1
102
RTVSPropertyOp1
 70
     1
102
RTVSPropertyOp2
 70
     1
102
RTVSPropertyOp3
 70
     1
102
RTVSPropertyOp4
 70
     1
102
RTVSPropertyOp5
 70
     1
102
RTVSPropertyOp6
 70
     1
102
RTVSPropertyOp7
 70
     1
102
RTVSPropertyOp8
 70
     1
102
RTVSPropertyOp9
 70
     1
102
RTVSPropertyOp10
 70
     1
102
RTVSPropertyOp11
 70
     1
102
RTVSPropertyOp12
 70
     1
102
RTVSPropertyOp13
 70
     1
102
RTVSPropertyOp14
 70
     1
102
RTVSPropertyOp15
 70
     1
102
RTVSPropertyOp16
 70
     1
102
RTVSPropertyOp17
 70
     1
102
RTVSPropertyOp18
 70
     1
102
RTVSPropertyOp19
 70
     1
102
RTVSPropertyOp20
 70
     1
102
RTVSPropertyOp21
 70
     1
102
RTVSPropertyOp22
 70
     1
102
RTVSPropertyOp23
 70
     1
102
RTVSPropertyOp24
 70
     1
102
RTVSPropertyOp25
 70
     1
102
RTVSPropertyOp26
 70
     1
102
RTVSPropertyOp27
 70
     1
102
RTVSPropertyOp28
 70
     1
102
RTVSPropertyOp29
 70
     1
102
RTVSPropertyOp30
 70
     1
102
RTVSPropertyOp31
 70
     1
102
RTVSPropertyOp32
 70
     1
102
RTVSPropertyOp33
 70
     1
102
RTVSPropertyOp34
 70
     1
102
RTVSPropertyOp35
 70
     1
102
RTVSPropertyOp36
 70
     1
102
RTVSPropertyOp37
 70
     1
102
RTVSPropertyOp38
 70
     1
102
RTVSPropertyOp39
 70
     1
102
RTVSPropertyOp40
 70
     1
102
RTVSPropertyOp41
 70
     1
102
RTVSPropertyOp42
 70
     1
102
RTVSPropertyOp43
 70
     1
102
RTVSPropertyOp44
 70
     1
102
RTVSPropertyOp45
 70
     1
102
RTVSPropertyOp46
 70
     1
102
RTVSPropertyOp47
 70
     1
102
RTVSPropertyOp48
 70
     1
102
RTVSPropertyOp49
 70
     1
102
RTVSPropertyOp50
 70
     1
102
RTVSPropertyOp51
 70
     0
102
RTVSPropertyOp52
 70
     0
102
RTVSPropertyOp53
 70
     1
102
RTVSPropertyOp54
 70
     1
102
RTVSPropertyOp55
 70
     1
102
RTVSPropertyOp56
 70
     1
102
RTVSPropertyOp57
 70
     1
102
RTVSPropertyOp58
 70
     1
102
RTVSPropertyOp59
 70
     1
102
RTVSPropertyOp60
 70
     1
102
RTVSPropertyOp61
 70
     1
102
RTVSPropertyOp62
 70
     1
  0
XRECORD
  5
9A8B
102
{ACAD_REACTORS
330
9A8A
102
}
330
9A8A
100
AcDbXrecord
280
     1
102
RTVSPost2010Prop28
280
     0
102
RTVSPost2010PropOp28
 70
     1
102
RTVSPost2010Prop29
280
     1
102
RTVSPost2010PropOp29
 70
     1
102
RTVSPost2010Prop30
280
     1
102
RTVSPost2010PropOp30
 70
     1
102
RTVSPost2010Prop31
280
     0
102
RTVSPost2010PropOp31
 70
     1
102
RTVSPost2010Prop32
280
     0
102
RTVSPost2010PropOp32
 70
     1
102
RTVSPost2010Prop33
280
     0
102
RTVSPost2010PropOp33
 70
     1
102
RTVSPost2010Prop34
280
     0
102
RTVSPost2010PropOp34
 70
     1
102
RTVSPost2010Prop35
280
     0
102
RTVSPost2010PropOp35
 70
     1
102
RTVSPost2010Prop36
280
     0
102
RTVSPost2010PropOp36
 70
     1
102
RTVSPost2010Prop37
 90
       50
102
RTVSPost2010PropOp37
 70
     1
102
RTVSPost2010Prop38
140
0.0
102
RTVSPost2010PropOp38
 70
     1
102
RTVSPost2010Prop39
140
1.0
102
RTVSPost2010PropOp39
 70
     1
102
RTVSPost2010Prop40
 90
        0
102
RTVSPost2010PropOp40
 70
     1
102
RTVSPost2010Prop41ColorIndex
 90
       18
102
RTVSPost2010Prop41ColorRGB
 90
        0
102
RTVSPost2010PropOp41
 70
     1
102
RTVSPost2010Prop42
 90
       50
102
RTVSPost2010PropOp42
 70
     1
102
RTVSPost2010Prop43
 90
        3
102
RTVSPost2010PropOp43
 70
     1
102
RTVSPost2010Prop44ColorIndex
 90
        5
102
RTVSPost2010Prop44ColorRGB
 90
      255
102
RTVSPost2010PropOp44
 70
     1
102
RTVSPost2010Prop45
280
     0
102
RTVSPost2010PropOp45
 70
     1
102
RTVSPost2010Prop46
 90
       50
102
RTVSPost2010PropOp46
 70
     1
102
RTVSPost2010Prop47
 90
       50
102
RTVSPost2010PropOp47
 70
     1
102
RTVSPost2010Prop48
 90
       50
102
RTVSPost2010PropOp48
 70
     1
102
RTVSPost2010Prop49
280
     0
102
RTVSPost2010PropOp49
 70
     1
102
RTVSPost2010Prop50
 90
       50
102
RTVSPost2010PropOp50
 70
     1
102
RTVSPost2010Prop51ColorIndex
 90
      256
102
RTVSPost2010Prop51ColorRGB
 90
-16777216
102
RTVSPost2010PropOp51
 70
     0
102
RTVSPost2010Prop52
140
1.0
102
RTVSPost2010PropOp52
 70
     0
102
RTVSPost2010Prop53
 90
        2
102
RTVSPost2010PropOp53
 70
     1
102
RTVSPost2010Prop54
  1
strokes_ogs.tif
102
RTVSPost2010PropOp54
 70
     1
102
RTVSPost2010Prop55
280
     0
102
RTVSPost2010PropOp55
 70
     1
102
RTVSPost2010Prop56
140
1.0
102
RTVSPost2010PropOp56
 70
     1
102
RTVSPost2010Prop57
140
1.0
102
RTVSPost2010PropOp57
 70
     1
102
RTVSPropertyOp0
 70
     1
102
RTVSPropertyOp1
 70
     1
102
RTVSPropertyOp2
 70
     1
102
RTVSPropertyOp3
 70
     1
102
RTVSPropertyOp4
 70
     1
102
RTVSPropertyOp5
 70
     1
102
RTVSPropertyOp6
 70
     1
102
RTVSPropertyOp7
 70
     1
102
RTVSPropertyOp8
 70
     1
102
RTVSPropertyOp9
 70
     1
102
RTVSPropertyOp10
 70
     1
102
RTVSPropertyOp11
 70
     1
102
RTVSPropertyOp12
 70
     1
102
RTVSPropertyOp13
 70
     1
102
RTVSPropertyOp14
 70
     1
102
RTVSPropertyOp15
 70
     1
102
RTVSPropertyOp16
 70
     1
102
RTVSPropertyOp17
 70
     1
102
RTVSPropertyOp18
 70
     1
102
RTVSPropertyOp19
 70
     1
102
RTVSPropertyOp20
 70
     1
102
RTVSPropertyOp21
 70
     1
102
RTVSPropertyOp22
 70
     1
102
RTVSPropertyOp23
 70
     1
102
RTVSPropertyOp24
 70
     1
102
RTVSPropertyOp25
 70
     1
102
RTVSPropertyOp26
 70
     1
102
RTVSPropertyOp27
 70
     1
102
RTVSPropertyOp28
 70
     1
102
RTVSPropertyOp29
 70
     1
102
RTVSPropertyOp30
 70
     1
102
RTVSPropertyOp31
 70
     1
102
RTVSPropertyOp32
 70
     1
102
RTVSPropertyOp33
 70
     1
102
RTVSPropertyOp34
 70
     1
102
RTVSPropertyOp35
 70
     1
102
RTVSPropertyOp36
 70
     1
102
RTVSPropertyOp37
 70
     1
102
RTVSPropertyOp38
 70
     1
102
RTVSPropertyOp39
 70
     1
102
RTVSPropertyOp40
 70
     1
102
RTVSPropertyOp41
 70
     1
102
RTVSPropertyOp42
 70
     1
102
RTVSPropertyOp43
 70
     1
102
RTVSPropertyOp44
 70
     1
102
RTVSPropertyOp45
 70
     1
102
RTVSPropertyOp46
 70
     1
102
RTVSPropertyOp47
 70
     1
102
RTVSPropertyOp48
 70
     1
102
RTVSPropertyOp49
 70
     1
102
RTVSPropertyOp50
 70
     1
102
RTVSPropertyOp51
 70
     0
102
RTVSPropertyOp52
 70
     0
102
RTVSPropertyOp53
 70
     1
102
RTVSPropertyOp54
 70
     1
102
RTVSPropertyOp55
 70
     1
102
RTVSPropertyOp56
 70
     1
102
RTVSPropertyOp57
 70
     1
102
RTVSPropertyOp58
 70
     1
102
RTVSPropertyOp59
 70
     1
102
RTVSPropertyOp60
 70
     1
102
RTVSPropertyOp61
 70
     1
102
RTVSPropertyOp62
 70
     1
  0
XRECORD
  5
9A93
102
{ACAD_REACTORS
330
9A92
102
}
330
9A92
100
AcDbXrecord
280
     1
102
RTVSPost2010Prop28
280
     0
102
RTVSPost2010PropOp28
 70
     1
102
RTVSPost2010Prop29
280
     1
102
RTVSPost2010PropOp29
 70
     1
102
RTVSPost2010Prop30
280
     1
102
RTVSPost2010PropOp30
 70
     1
102
RTVSPost2010Prop31
280
     0
102
RTVSPost2010PropOp31
 70
     1
102
RTVSPost2010Prop32
280
     0
102
RTVSPost2010PropOp32
 70
     1
102
RTVSPost2010Prop33
280
     0
102
RTVSPost2010PropOp33
 70
     1
102
RTVSPost2010Prop34
280
     0
102
RTVSPost2010PropOp34
 70
     1
102
RTVSPost2010Prop35
280
     0
102
RTVSPost2010PropOp35
 70
     1
102
RTVSPost2010Prop36
280
     0
102
RTVSPost2010PropOp36
 70
     1
102
RTVSPost2010Prop37
 90
       50
102
RTVSPost2010PropOp37
 70
     1
102
RTVSPost2010Prop38
140
0.0
102
RTVSPost2010PropOp38
 70
     1
102
RTVSPost2010Prop39
140
1.0
102
RTVSPost2010PropOp39
 70
     1
102
RTVSPost2010Prop40
 90
        0
102
RTVSPost2010PropOp40
 70
     1
102
RTVSPost2010Prop41ColorIndex
 90
       18
102
RTVSPost2010Prop41ColorRGB
 90
        0
102
RTVSPost2010PropOp41
 70
     1
102
RTVSPost2010Prop42
 90
       50
102
RTVSPost2010PropOp42
 70
     1
102
RTVSPost2010Prop43
 90
        3
102
RTVSPost2010PropOp43
 70
     1
102
RTVSPost2010Prop44ColorIndex
 90
        5
102
RTVSPost2010Prop44ColorRGB
 90
      255
102
RTVSPost2010PropOp44
 70
     1
102
RTVSPost2010Prop45
280
     0
102
RTVSPost2010PropOp45
 70
     1
102
RTVSPost2010Prop46
 90
       50
102
RTVSPost2010PropOp46
 70
     1
102
RTVSPost2010Prop47
 90
       50
102
RTVSPost2010PropOp47
 70
     1
102
RTVSPost2010Prop48
 90
       50
102
RTVSPost2010PropOp48
 70
     1
102
RTVSPost2010Prop49
280
     0
102
RTVSPost2010PropOp49
 70
     1
102
RTVSPost2010Prop50
 90
       50
102
RTVSPost2010PropOp50
 70
     1
102
RTVSPost2010Prop51ColorIndex
 90
      256
102
RTVSPost2010Prop51ColorRGB
 90
-16777216
102
RTVSPost2010PropOp51
 70
     0
102
RTVSPost2010Prop52
140
1.0
102
RTVSPost2010PropOp52
 70
     0
102
RTVSPost2010Prop53
 90
        2
102
RTVSPost2010PropOp53
 70
     1
102
RTVSPost2010Prop54
  1
strokes_ogs.tif
102
RTVSPost2010PropOp54
 70
     1
102
RTVSPost2010Prop55
280
     0
102
RTVSPost2010PropOp55
 70
     1
102
RTVSPost2010Prop56
140
1.0
102
RTVSPost2010PropOp56
 70
     1
102
RTVSPost2010Prop57
140
1.0
102
RTVSPost2010PropOp57
 70
     1
102
RTVSPropertyOp0
 70
     1
102
RTVSPropertyOp1
 70
     1
102
RTVSPropertyOp2
 70
     1
102
RTVSPropertyOp3
 70
     1
102
RTVSPropertyOp4
 70
     1
102
RTVSPropertyOp5
 70
     1
102
RTVSPropertyOp6
 70
     1
102
RTVSPropertyOp7
 70
     1
102
RTVSPropertyOp8
 70
     1
102
RTVSPropertyOp9
 70
     1
102
RTVSPropertyOp10
 70
     1
102
RTVSPropertyOp11
 70
     1
102
RTVSPropertyOp12
 70
     1
102
RTVSPropertyOp13
 70
     1
102
RTVSPropertyOp14
 70
     1
102
RTVSPropertyOp15
 70
     1
102
RTVSPropertyOp16
 70
     1
102
RTVSPropertyOp17
 70
     1
102
RTVSPropertyOp18
 70
     1
102
RTVSPropertyOp19
 70
     1
102
RTVSPropertyOp20
 70
     1
102
RTVSPropertyOp21
 70
     1
102
RTVSPropertyOp22
 70
     1
102
RTVSPropertyOp23
 70
     1
102
RTVSPropertyOp24
 70
     1
102
RTVSPropertyOp25
 70
     1
102
RTVSPropertyOp26
 70
     1
102
RTVSPropertyOp27
 70
     1
102
RTVSPropertyOp28
 70
     1
102
RTVSPropertyOp29
 70
     1
102
RTVSPropertyOp30
 70
     1
102
RTVSPropertyOp31
 70
     1
102
RTVSPropertyOp32
 70
     1
102
RTVSPropertyOp33
 70
     1
102
RTVSPropertyOp34
 70
     1
102
RTVSPropertyOp35
 70
     1
102
RTVSPropertyOp36
 70
     1
102
RTVSPropertyOp37
 70
     1
102
RTVSPropertyOp38
 70
     1
102
RTVSPropertyOp39
 70
     1
102
RTVSPropertyOp40
 70
     1
102
RTVSPropertyOp41
 70
     1
102
RTVSPropertyOp42
 70
     1
102
RTVSPropertyOp43
 70
     1
102
RTVSPropertyOp44
 70
     1
102
RTVSPropertyOp45
 70
     1
102
RTVSPropertyOp46
 70
     1
102
RTVSPropertyOp47
 70
     1
102
RTVSPropertyOp48
 70
     1
102
RTVSPropertyOp49
 70
     1
102
RTVSPropertyOp50
 70
     1
102
RTVSPropertyOp51
 70
     0
102
RTVSPropertyOp52
 70
     0
102
RTVSPropertyOp53
 70
     1
102
RTVSPropertyOp54
 70
     1
102
RTVSPropertyOp55
 70
     1
102
RTVSPropertyOp56
 70
     1
102
RTVSPropertyOp57
 70
     1
102
RTVSPropertyOp58
 70
     1
102
RTVSPropertyOp59
 70
     1
102
RTVSPropertyOp60
 70
     1
102
RTVSPropertyOp61
 70
     1
102
RTVSPropertyOp62
 70
     1
  0
XRECORD
  5
9AAF
102
{ACAD_REACTORS
330
9AAE
102
}
330
9AAE
100
AcDbXrecord
280
     1
102
RTVSPost2010Prop28
280
     0
102
RTVSPost2010PropOp28
 70
     1
102
RTVSPost2010Prop29
280
     1
102
RTVSPost2010PropOp29
 70
     1
102
RTVSPost2010Prop30
280
     1
102
RTVSPost2010PropOp30
 70
     1
102
RTVSPost2010Prop31
280
     0
102
RTVSPost2010PropOp31
 70
     1
102
RTVSPost2010Prop32
280
     0
102
RTVSPost2010PropOp32
 70
     1
102
RTVSPost2010Prop33
280
     0
102
RTVSPost2010PropOp33
 70
     1
102
RTVSPost2010Prop34
280
     0
102
RTVSPost2010PropOp34
 70
     1
102
RTVSPost2010Prop35
280
     0
102
RTVSPost2010PropOp35
 70
     1
102
RTVSPost2010Prop36
280
     0
102
RTVSPost2010PropOp36
 70
     1
102
RTVSPost2010Prop37
 90
       50
102
RTVSPost2010PropOp37
 70
     0
102
RTVSPost2010Prop38
140
0.0
102
RTVSPost2010PropOp38
 70
     0
102
RTVSPost2010Prop39
140
1.0
102
RTVSPost2010PropOp39
 70
     0
102
RTVSPost2010Prop40
 90
        0
102
RTVSPost2010PropOp40
 70
     0
102
RTVSPost2010Prop41ColorIndex
 90
       18
102
RTVSPost2010Prop41ColorRGB
 90
        0
102
RTVSPost2010PropOp41
 70
     0
102
RTVSPost2010Prop42
 90
       50
102
RTVSPost2010PropOp42
 70
     0
102
RTVSPost2010Prop43
 90
        3
102
RTVSPost2010PropOp43
 70
     0
102
RTVSPost2010Prop44ColorIndex
 90
        5
102
RTVSPost2010Prop44ColorRGB
 90
      255
102
RTVSPost2010PropOp44
 70
     0
102
RTVSPost2010Prop45
280
     0
102
RTVSPost2010PropOp45
 70
     1
102
RTVSPost2010Prop46
 90
       50
102
RTVSPost2010PropOp46
 70
     0
102
RTVSPost2010Prop47
 90
       50
102
RTVSPost2010PropOp47
 70
     0
102
RTVSPost2010Prop48
 90
       50
102
RTVSPost2010PropOp48
 70
     0
102
RTVSPost2010Prop49
280
     0
102
RTVSPost2010PropOp49
 70
     1
102
RTVSPost2010Prop50
 90
       50
102
RTVSPost2010PropOp50
 70
     0
102
RTVSPost2010Prop51ColorIndex
 90
      256
102
RTVSPost2010Prop51ColorRGB
 90
-16777216
102
RTVSPost2010PropOp51
 70
     0
102
RTVSPost2010Prop52
140
1.0
102
RTVSPost2010PropOp52
 70
     0
102
RTVSPost2010Prop53
 90
        2
102
RTVSPost2010PropOp53
 70
     0
102
RTVSPost2010Prop54
  1
strokes_ogs.tif
102
RTVSPost2010PropOp54
 70
     0
102
RTVSPost2010Prop55
280
     0
102
RTVSPost2010PropOp55
 70
     1
102
RTVSPost2010Prop56
140
1.0
102
RTVSPost2010PropOp56
 70
     0
102
RTVSPost2010Prop57
140
1.0
102
RTVSPost2010PropOp57
 70
     0
102
RTVSPropertyOp0
 70
     0
102
RTVSPropertyOp1
 70
     0
102
RTVSPropertyOp2
 70
     0
102
RTVSPropertyOp3
 70
     0
102
RTVSPropertyOp4
 70
     0
102
RTVSPropertyOp5
 70
     0
102
RTVSPropertyOp6
 70
     0
102
RTVSPropertyOp7
 70
     0
102
RTVSPropertyOp8
 70
     0
102
RTVSPropertyOp9
 70
     0
102
RTVSPropertyOp10
 70
     0
102
RTVSPropertyOp11
 70
     0
102
RTVSPropertyOp12
 70
     0
102
RTVSPropertyOp13
 70
     0
102
RTVSPropertyOp14
 70
     2
102
RTVSPropertyOp15
 70
     0
102
RTVSPropertyOp16
 70
     0
102
RTVSPropertyOp17
 70
     0
102
RTVSPropertyOp18
 70
     0
102
RTVSPropertyOp19
 70
     0
102
RTVSPropertyOp20
 70
     0
102
RTVSPropertyOp21
 70
     0
102
RTVSPropertyOp22
 70
     0
102
RTVSPropertyOp23
 70
     0
102
RTVSPropertyOp24
 70
     0
102
RTVSPropertyOp25
 70
     0
102
RTVSPropertyOp26
 70
     0
102
RTVSPropertyOp27
 70
     0
102
RTVSPropertyOp28
 70
     1
102
RTVSPropertyOp29
 70
     1
102
RTVSPropertyOp30
 70
     1
102
RTVSPropertyOp31
 70
     1
102
RTVSPropertyOp32
 70
     1
102
RTVSPropertyOp33
 70
     1
102
RTVSPropertyOp34
 70
     1
102
RTVSPropertyOp35
 70
     1
102
RTVSPropertyOp36
 70
     1
102
RTVSPropertyOp37
 70
     0
102
RTVSPropertyOp38
 70
     0
102
RTVSPropertyOp39
 70
     0
102
RTVSPropertyOp40
 70
     0
102
RTVSPropertyOp41
 70
     0
102
RTVSPropertyOp42
 70
     0
102
RTVSPropertyOp43
 70
     0
102
RTVSPropertyOp44
 70
     0
102
RTVSPropertyOp45
 70
     1
102
RTVSPropertyOp46
 70
     0
102
RTVSPropertyOp47
 70
     0
102
RTVSPropertyOp48
 70
     0
102
RTVSPropertyOp49
 70
     1
102
RTVSPropertyOp50
 70
     0
102
RTVSPropertyOp51
 70
     0
102
RTVSPropertyOp52
 70
     0
102
RTVSPropertyOp53
 70
     0
102
RTVSPropertyOp54
 70
     0
102
RTVSPropertyOp55
 70
     1
102
RTVSPropertyOp56
 70
     0
102
RTVSPropertyOp57
 70
     0
102
RTVSPropertyOp58
 70
     0
102
RTVSPropertyOp59
 70
     0
102
RTVSPropertyOp60
 70
     0
102
RTVSPropertyOp61
 70
     0
102
RTVSPropertyOp62
 70
     0
  0
XRECORD
  5
9A9F
102
{ACAD_REACTORS
330
9A9E
102
}
330
9A9E
100
AcDbXrecord
280
     1
102
RTVSPost2010Prop28
280
     0
102
RTVSPost2010PropOp28
 70
     1
102
RTVSPost2010Prop29
280
     1
102
RTVSPost2010PropOp29
 70
     1
102
RTVSPost2010Prop30
280
     1
102
RTVSPost2010PropOp30
 70
     1
102
RTVSPost2010Prop31
280
     0
102
RTVSPost2010PropOp31
 70
     1
102
RTVSPost2010Prop32
280
     0
102
RTVSPost2010PropOp32
 70
     1
102
RTVSPost2010Prop33
280
     0
102
RTVSPost2010PropOp33
 70
     1
102
RTVSPost2010Prop34
280
     0
102
RTVSPost2010PropOp34
 70
     1
102
RTVSPost2010Prop35
280
     0
102
RTVSPost2010PropOp35
 70
     1
102
RTVSPost2010Prop36
280
     0
102
RTVSPost2010PropOp36
 70
     1
102
RTVSPost2010Prop37
 90
       50
102
RTVSPost2010PropOp37
 70
     1
102
RTVSPost2010Prop38
140
0.0
102
RTVSPost2010PropOp38
 70
     1
102
RTVSPost2010Prop39
140
1.0
102
RTVSPost2010PropOp39
 70
     1
102
RTVSPost2010Prop40
 90
        0
102
RTVSPost2010PropOp40
 70
     1
102
RTVSPost2010Prop41ColorIndex
 90
       18
102
RTVSPost2010Prop41ColorRGB
 90
        0
102
RTVSPost2010PropOp41
 70
     1
102
RTVSPost2010Prop42
 90
       50
102
RTVSPost2010PropOp42
 70
     1
102
RTVSPost2010Prop43
 90
        3
102
RTVSPost2010PropOp43
 70
     1
102
RTVSPost2010Prop44ColorIndex
 90
        5
102
RTVSPost2010Prop44ColorRGB
 90
      255
102
RTVSPost2010PropOp44
 70
     1
102
RTVSPost2010Prop45
280
     0
102
RTVSPost2010PropOp45
 70
     1
102
RTVSPost2010Prop46
 90
       50
102
RTVSPost2010PropOp46
 70
     1
102
RTVSPost2010Prop47
 90
       50
102
RTVSPost2010PropOp47
 70
     1
102
RTVSPost2010Prop48
 90
       50
102
RTVSPost2010PropOp48
 70
     1
102
RTVSPost2010Prop49
280
     0
102
RTVSPost2010PropOp49
 70
     1
102
RTVSPost2010Prop50
 90
       50
102
RTVSPost2010PropOp50
 70
     1
102
RTVSPost2010Prop51ColorIndex
 90
      256
102
RTVSPost2010Prop51ColorRGB
 90
-16777216
102
RTVSPost2010PropOp51
 70
     0
102
RTVSPost2010Prop52
140
1.0
102
RTVSPost2010PropOp52
 70
     0
102
RTVSPost2010Prop53
 90
        2
102
RTVSPost2010PropOp53
 70
     1
102
RTVSPost2010Prop54
  1
strokes_ogs.tif
102
RTVSPost2010PropOp54
 70
     1
102
RTVSPost2010Prop55
280
     0
102
RTVSPost2010PropOp55
 70
     1
102
RTVSPost2010Prop56
140
1.0
102
RTVSPost2010PropOp56
 70
     1
102
RTVSPost2010Prop57
140
1.0
102
RTVSPost2010PropOp57
 70
     1
102
RTVSPropertyOp0
 70
     1
102
RTVSPropertyOp1
 70
     1
102
RTVSPropertyOp2
 70
     1
102
RTVSPropertyOp3
 70
     1
102
RTVSPropertyOp4
 70
     1
102
RTVSPropertyOp5
 70
     1
102
RTVSPropertyOp6
 70
     1
102
RTVSPropertyOp7
 70
     1
102
RTVSPropertyOp8
 70
     1
102
RTVSPropertyOp9
 70
     1
102
RTVSPropertyOp10
 70
     1
102
RTVSPropertyOp11
 70
     1
102
RTVSPropertyOp12
 70
     1
102
RTVSPropertyOp13
 70
     1
102
RTVSPropertyOp14
 70
     1
102
RTVSPropertyOp15
 70
     1
102
RTVSPropertyOp16
 70
     1
102
RTVSPropertyOp17
 70
     1
102
RTVSPropertyOp18
 70
     1
102
RTVSPropertyOp19
 70
     1
102
RTVSPropertyOp20
 70
     1
102
RTVSPropertyOp21
 70
     1
102
RTVSPropertyOp22
 70
     1
102
RTVSPropertyOp23
 70
     1
102
RTVSPropertyOp24
 70
     1
102
RTVSPropertyOp25
 70
     1
102
RTVSPropertyOp26
 70
     1
102
RTVSPropertyOp27
 70
     1
102
RTVSPropertyOp28
 70
     1
102
RTVSPropertyOp29
 70
     1
102
RTVSPropertyOp30
 70
     1
102
RTVSPropertyOp31
 70
     1
102
RTVSPropertyOp32
 70
     1
102
RTVSPropertyOp33
 70
     1
102
RTVSPropertyOp34
 70
     1
102
RTVSPropertyOp35
 70
     1
102
RTVSPropertyOp36
 70
     1
102
RTVSPropertyOp37
 70
     1
102
RTVSPropertyOp38
 70
     1
102
RTVSPropertyOp39
 70
     1
102
RTVSPropertyOp40
 70
     1
102
RTVSPropertyOp41
 70
     1
102
RTVSPropertyOp42
 70
     1
102
RTVSPropertyOp43
 70
     1
102
RTVSPropertyOp44
 70
     1
102
RTVSPropertyOp45
 70
     1
102
RTVSPropertyOp46
 70
     1
102
RTVSPropertyOp47
 70
     1
102
RTVSPropertyOp48
 70
     1
102
RTVSPropertyOp49
 70
     1
102
RTVSPropertyOp50
 70
     1
102
RTVSPropertyOp51
 70
     0
102
RTVSPropertyOp52
 70
     0
102
RTVSPropertyOp53
 70
     1
102
RTVSPropertyOp54
 70
     1
102
RTVSPropertyOp55
 70
     1
102
RTVSPropertyOp56
 70
     1
102
RTVSPropertyOp57
 70
     1
102
RTVSPropertyOp58
 70
     1
102
RTVSPropertyOp59
 70
     1
102
RTVSPropertyOp60
 70
     1
102
RTVSPropertyOp61
 70
     1
102
RTVSPropertyOp62
 70
     1
  0
XRECORD
  5
9AB1
102
{ACAD_REACTORS
330
9AB0
102
}
330
9AB0
100
AcDbXrecord
280
     1
102
RTVSPost2010Prop28
280
     0
102
RTVSPost2010PropOp28
 70
     1
102
RTVSPost2010Prop29
280
     1
102
RTVSPost2010PropOp29
 70
     1
102
RTVSPost2010Prop30
280
     1
102
RTVSPost2010PropOp30
 70
     1
102
RTVSPost2010Prop31
280
     0
102
RTVSPost2010PropOp31
 70
     1
102
RTVSPost2010Prop32
280
     0
102
RTVSPost2010PropOp32
 70
     1
102
RTVSPost2010Prop33
280
     0
102
RTVSPost2010PropOp33
 70
     1
102
RTVSPost2010Prop34
280
     0
102
RTVSPost2010PropOp34
 70
     1
102
RTVSPost2010Prop35
280
     0
102
RTVSPost2010PropOp35
 70
     1
102
RTVSPost2010Prop36
280
     0
102
RTVSPost2010PropOp36
 70
     1
102
RTVSPost2010Prop37
 90
       50
102
RTVSPost2010PropOp37
 70
     0
102
RTVSPost2010Prop38
140
0.0
102
RTVSPost2010PropOp38
 70
     0
102
RTVSPost2010Prop39
140
1.0
102
RTVSPost2010PropOp39
 70
     0
102
RTVSPost2010Prop40
 90
        0
102
RTVSPost2010PropOp40
 70
     0
102
RTVSPost2010Prop41ColorIndex
 90
       18
102
RTVSPost2010Prop41ColorRGB
 90
        0
102
RTVSPost2010PropOp41
 70
     0
102
RTVSPost2010Prop42
 90
       50
102
RTVSPost2010PropOp42
 70
     0
102
RTVSPost2010Prop43
 90
        3
102
RTVSPost2010PropOp43
 70
     0
102
RTVSPost2010Prop44ColorIndex
 90
        5
102
RTVSPost2010Prop44ColorRGB
 90
      255
102
RTVSPost2010PropOp44
 70
     0
102
RTVSPost2010Prop45
280
     0
102
RTVSPost2010PropOp45
 70
     1
102
RTVSPost2010Prop46
 90
       50
102
RTVSPost2010PropOp46
 70
     0
102
RTVSPost2010Prop47
 90
       50
102
RTVSPost2010PropOp47
 70
     0
102
RTVSPost2010Prop48
 90
       50
102
RTVSPost2010PropOp48
 70
     0
102
RTVSPost2010Prop49
280
     0
102
RTVSPost2010PropOp49
 70
     1
102
RTVSPost2010Prop50
 90
       50
102
RTVSPost2010PropOp50
 70
     0
102
RTVSPost2010Prop51ColorIndex
 90
      256
102
RTVSPost2010Prop51ColorRGB
 90
-16777216
102
RTVSPost2010PropOp51
 70
     0
102
RTVSPost2010Prop52
140
1.0
102
RTVSPost2010PropOp52
 70
     0
102
RTVSPost2010Prop53
 90
        2
102
RTVSPost2010PropOp53
 70
     0
102
RTVSPost2010Prop54
  1
strokes_ogs.tif
102
RTVSPost2010PropOp54
 70
     0
102
RTVSPost2010Prop55
280
     0
102
RTVSPost2010PropOp55
 70
     1
102
RTVSPost2010Prop56
140
1.0
102
RTVSPost2010PropOp56
 70
     0
102
RTVSPost2010Prop57
140
1.0
102
RTVSPost2010PropOp57
 70
     0
102
RTVSPropertyOp0
 70
     0
102
RTVSPropertyOp1
 70
     0
102
RTVSPropertyOp2
 70
     0
102
RTVSPropertyOp3
 70
     0
102
RTVSPropertyOp4
 70
     0
102
RTVSPropertyOp5
 70
     0
102
RTVSPropertyOp6
 70
     0
102
RTVSPropertyOp7
 70
     0
102
RTVSPropertyOp8
 70
     0
102
RTVSPropertyOp9
 70
     0
102
RTVSPropertyOp10
 70
     0
102
RTVSPropertyOp11
 70
     0
102
RTVSPropertyOp12
 70
     0
102
RTVSPropertyOp13
 70
     0
102
RTVSPropertyOp14
 70
     2
102
RTVSPropertyOp15
 70
     0
102
RTVSPropertyOp16
 70
     0
102
RTVSPropertyOp17
 70
     0
102
RTVSPropertyOp18
 70
     0
102
RTVSPropertyOp19
 70
     0
102
RTVSPropertyOp20
 70
     0
102
RTVSPropertyOp21
 70
     0
102
RTVSPropertyOp22
 70
     0
102
RTVSPropertyOp23
 70
     0
102
RTVSPropertyOp24
 70
     0
102
RTVSPropertyOp25
 70
     0
102
RTVSPropertyOp26
 70
     0
102
RTVSPropertyOp27
 70
     0
102
RTVSPropertyOp28
 70
     1
102
RTVSPropertyOp29
 70
     1
102
RTVSPropertyOp30
 70
     1
102
RTVSPropertyOp31
 70
     1
102
RTVSPropertyOp32
 70
     1
102
RTVSPropertyOp33
 70
     1
102
RTVSPropertyOp34
 70
     1
102
RTVSPropertyOp35
 70
     1
102
RTVSPropertyOp36
 70
     1
102
RTVSPropertyOp37
 70
     0
102
RTVSPropertyOp38
 70
     0
102
RTVSPropertyOp39
 70
     0
102
RTVSPropertyOp40
 70
     0
102
RTVSPropertyOp41
 70
     0
102
RTVSPropertyOp42
 70
     0
102
RTVSPropertyOp43
 70
     0
102
RTVSPropertyOp44
 70
     0
102
RTVSPropertyOp45
 70
     1
102
RTVSPropertyOp46
 70
     0
102
RTVSPropertyOp47
 70
     0
102
RTVSPropertyOp48
 70
     0
102
RTVSPropertyOp49
 70
     1
102
RTVSPropertyOp50
 70
     0
102
RTVSPropertyOp51
 70
     0
102
RTVSPropertyOp52
 70
     0
102
RTVSPropertyOp53
 70
     0
102
RTVSPropertyOp54
 70
     0
102
RTVSPropertyOp55
 70
     1
102
RTVSPropertyOp56
 70
     0
102
RTVSPropertyOp57
 70
     0
102
RTVSPropertyOp58
 70
     0
102
RTVSPropertyOp59
 70
     0
102
RTVSPropertyOp60
 70
     0
102
RTVSPropertyOp61
 70
     0
102
RTVSPropertyOp62
 70
     0
  0
XRECORD
  5
9A97
102
{ACAD_REACTORS
330
9A96
102
}
330
9A96
100
AcDbXrecord
280
     1
102
RTVSPost2010Prop28
280
     0
102
RTVSPost2010PropOp28
 70
     1
102
RTVSPost2010Prop29
280
     1
102
RTVSPost2010PropOp29
 70
     1
102
RTVSPost2010Prop30
280
     1
102
RTVSPost2010PropOp30
 70
     1
102
RTVSPost2010Prop31
280
     0
102
RTVSPost2010PropOp31
 70
     1
102
RTVSPost2010Prop32
280
     0
102
RTVSPost2010PropOp32
 70
     1
102
RTVSPost2010Prop33
280
     0
102
RTVSPost2010PropOp33
 70
     1
102
RTVSPost2010Prop34
280
     0
102
RTVSPost2010PropOp34
 70
     1
102
RTVSPost2010Prop35
280
     0
102
RTVSPost2010PropOp35
 70
     1
102
RTVSPost2010Prop36
280
     0
102
RTVSPost2010PropOp36
 70
     1
102
RTVSPost2010Prop37
 90
       50
102
RTVSPost2010PropOp37
 70
     1
102
RTVSPost2010Prop38
140
0.0
102
RTVSPost2010PropOp38
 70
     1
102
RTVSPost2010Prop39
140
1.0
102
RTVSPost2010PropOp39
 70
     1
102
RTVSPost2010Prop40
 90
        0
102
RTVSPost2010PropOp40
 70
     1
102
RTVSPost2010Prop41ColorIndex
 90
       18
102
RTVSPost2010Prop41ColorRGB
 90
        0
102
RTVSPost2010PropOp41
 70
     1
102
RTVSPost2010Prop42
 90
       50
102
RTVSPost2010PropOp42
 70
     1
102
RTVSPost2010Prop43
 90
        3
102
RTVSPost2010PropOp43
 70
     1
102
RTVSPost2010Prop44ColorIndex
 90
        5
102
RTVSPost2010Prop44ColorRGB
 90
      255
102
RTVSPost2010PropOp44
 70
     1
102
RTVSPost2010Prop45
280
     0
102
RTVSPost2010PropOp45
 70
     1
102
RTVSPost2010Prop46
 90
       50
102
RTVSPost2010PropOp46
 70
     1
102
RTVSPost2010Prop47
 90
       50
102
RTVSPost2010PropOp47
 70
     1
102
RTVSPost2010Prop48
 90
       50
102
RTVSPost2010PropOp48
 70
     1
102
RTVSPost2010Prop49
280
     0
102
RTVSPost2010PropOp49
 70
     1
102
RTVSPost2010Prop50
 90
       50
102
RTVSPost2010PropOp50
 70
     1
102
RTVSPost2010Prop51ColorIndex
 90
      256
102
RTVSPost2010Prop51ColorRGB
 90
-16777216
102
RTVSPost2010PropOp51
 70
     0
102
RTVSPost2010Prop52
140
1.0
102
RTVSPost2010PropOp52
 70
     0
102
RTVSPost2010Prop53
 90
        2
102
RTVSPost2010PropOp53
 70
     1
102
RTVSPost2010Prop54
  1
strokes_ogs.tif
102
RTVSPost2010PropOp54
 70
     1
102
RTVSPost2010Prop55
280
     0
102
RTVSPost2010PropOp55
 70
     1
102
RTVSPost2010Prop56
140
1.0
102
RTVSPost2010PropOp56
 70
     1
102
RTVSPost2010Prop57
140
1.0
102
RTVSPost2010PropOp57
 70
     1
102
RTVSPropertyOp0
 70
     1
102
RTVSPropertyOp1
 70
     1
102
RTVSPropertyOp2
 70
     1
102
RTVSPropertyOp3
 70
     1
102
RTVSPropertyOp4
 70
     1
102
RTVSPropertyOp5
 70
     1
102
RTVSPropertyOp6
 70
     1
102
RTVSPropertyOp7
 70
     1
102
RTVSPropertyOp8
 70
     1
102
RTVSPropertyOp9
 70
     1
102
RTVSPropertyOp10
 70
     1
102
RTVSPropertyOp11
 70
     1
102
RTVSPropertyOp12
 70
     1
102
RTVSPropertyOp13
 70
     1
102
RTVSPropertyOp14
 70
     1
102
RTVSPropertyOp15
 70
     1
102
RTVSPropertyOp16
 70
     1
102
RTVSPropertyOp17
 70
     1
102
RTVSPropertyOp18
 70
     1
102
RTVSPropertyOp19
 70
     1
102
RTVSPropertyOp20
 70
     1
102
RTVSPropertyOp21
 70
     1
102
RTVSPropertyOp22
 70
     1
102
RTVSPropertyOp23
 70
     1
102
RTVSPropertyOp24
 70
     1
102
RTVSPropertyOp25
 70
     1
102
RTVSPropertyOp26
 70
     1
102
RTVSPropertyOp27
 70
     1
102
RTVSPropertyOp28
 70
     1
102
RTVSPropertyOp29
 70
     1
102
RTVSPropertyOp30
 70
     1
102
RTVSPropertyOp31
 70
     1
102
RTVSPropertyOp32
 70
     1
102
RTVSPropertyOp33
 70
     1
102
RTVSPropertyOp34
 70
     1
102
RTVSPropertyOp35
 70
     1
102
RTVSPropertyOp36
 70
     1
102
RTVSPropertyOp37
 70
     1
102
RTVSPropertyOp38
 70
     1
102
RTVSPropertyOp39
 70
     1
102
RTVSPropertyOp40
 70
     1
102
RTVSPropertyOp41
 70
     1
102
RTVSPropertyOp42
 70
     1
102
RTVSPropertyOp43
 70
     1
102
RTVSPropertyOp44
 70
     1
102
RTVSPropertyOp45
 70
     1
102
RTVSPropertyOp46
 70
     1
102
RTVSPropertyOp47
 70
     1
102
RTVSPropertyOp48
 70
     1
102
RTVSPropertyOp49
 70
     1
102
RTVSPropertyOp50
 70
     1
102
RTVSPropertyOp51
 70
     0
102
RTVSPropertyOp52
 70
     0
102
RTVSPropertyOp53
 70
     1
102
RTVSPropertyOp54
 70
     1
102
RTVSPropertyOp55
 70
     1
102
RTVSPropertyOp56
 70
     1
102
RTVSPropertyOp57
 70
     1
102
RTVSPropertyOp58
 70
     1
102
RTVSPropertyOp59
 70
     1
102
RTVSPropertyOp60
 70
     1
102
RTVSPropertyOp61
 70
     1
102
RTVSPropertyOp62
 70
     1
  0
XRECORD
  5
9AAD
102
{ACAD_REACTORS
330
9AAC
102
}
330
9AAC
100
AcDbXrecord
280
     1
102
RTVSPost2010Prop28
280
     0
102
RTVSPost2010PropOp28
 70
     1
102
RTVSPost2010Prop29
280
     1
102
RTVSPost2010PropOp29
 70
     1
102
RTVSPost2010Prop30
280
     1
102
RTVSPost2010PropOp30
 70
     1
102
RTVSPost2010Prop31
280
     0
102
RTVSPost2010PropOp31
 70
     1
102
RTVSPost2010Prop32
280
     0
102
RTVSPost2010PropOp32
 70
     1
102
RTVSPost2010Prop33
280
     0
102
RTVSPost2010PropOp33
 70
     1
102
RTVSPost2010Prop34
280
     0
102
RTVSPost2010PropOp34
 70
     1
102
RTVSPost2010Prop35
280
     0
102
RTVSPost2010PropOp35
 70
     1
102
RTVSPost2010Prop36
280
     0
102
RTVSPost2010PropOp36
 70
     1
102
RTVSPost2010Prop37
 90
       50
102
RTVSPost2010PropOp37
 70
     1
102
RTVSPost2010Prop38
140
0.0
102
RTVSPost2010PropOp38
 70
     1
102
RTVSPost2010Prop39
140
1.0
102
RTVSPost2010PropOp39
 70
     1
102
RTVSPost2010Prop40
 90
        0
102
RTVSPost2010PropOp40
 70
     1
102
RTVSPost2010Prop41ColorIndex
 90
       18
102
RTVSPost2010Prop41ColorRGB
 90
        0
102
RTVSPost2010PropOp41
 70
     1
102
RTVSPost2010Prop42
 90
       50
102
RTVSPost2010PropOp42
 70
     1
102
RTVSPost2010Prop43
 90
        3
102
RTVSPost2010PropOp43
 70
     1
102
RTVSPost2010Prop44ColorIndex
 90
        5
102
RTVSPost2010Prop44ColorRGB
 90
      255
102
RTVSPost2010PropOp44
 70
     1
102
RTVSPost2010Prop45
280
     0
102
RTVSPost2010PropOp45
 70
     1
102
RTVSPost2010Prop46
 90
       50
102
RTVSPost2010PropOp46
 70
     1
102
RTVSPost2010Prop47
 90
       50
102
RTVSPost2010PropOp47
 70
     1
102
RTVSPost2010Prop48
 90
       50
102
RTVSPost2010PropOp48
 70
     1
102
RTVSPost2010Prop49
280
     0
102
RTVSPost2010PropOp49
 70
     1
102
RTVSPost2010Prop50
 90
       50
102
RTVSPost2010PropOp50
 70
     1
102
RTVSPost2010Prop51ColorIndex
 90
      256
102
RTVSPost2010Prop51ColorRGB
 90
-16777216
102
RTVSPost2010PropOp51
 70
     0
102
RTVSPost2010Prop52
140
1.0
102
RTVSPost2010PropOp52
 70
     0
102
RTVSPost2010Prop53
 90
        2
102
RTVSPost2010PropOp53
 70
     1
102
RTVSPost2010Prop54
  1
strokes_ogs.tif
102
RTVSPost2010PropOp54
 70
     1
102
RTVSPost2010Prop55
280
     0
102
RTVSPost2010PropOp55
 70
     1
102
RTVSPost2010Prop56
140
1.0
102
RTVSPost2010PropOp56
 70
     1
102
RTVSPost2010Prop57
140
1.0
102
RTVSPost2010PropOp57
 70
     1
102
RTVSPropertyOp0
 70
     1
102
RTVSPropertyOp1
 70
     1
102
RTVSPropertyOp2
 70
     1
102
RTVSPropertyOp3
 70
     1
102
RTVSPropertyOp4
 70
     1
102
RTVSPropertyOp5
 70
     1
102
RTVSPropertyOp6
 70
     1
102
RTVSPropertyOp7
 70
     1
102
RTVSPropertyOp8
 70
     1
102
RTVSPropertyOp9
 70
     1
102
RTVSPropertyOp10
 70
     1
102
RTVSPropertyOp11
 70
     1
102
RTVSPropertyOp12
 70
     1
102
RTVSPropertyOp13
 70
     1
102
RTVSPropertyOp14
 70
     1
102
RTVSPropertyOp15
 70
     1
102
RTVSPropertyOp16
 70
     1
102
RTVSPropertyOp17
 70
     1
102
RTVSPropertyOp18
 70
     1
102
RTVSPropertyOp19
 70
     1
102
RTVSPropertyOp20
 70
     1
102
RTVSPropertyOp21
 70
     1
102
RTVSPropertyOp22
 70
     1
102
RTVSPropertyOp23
 70
     1
102
RTVSPropertyOp24
 70
     1
102
RTVSPropertyOp25
 70
     1
102
RTVSPropertyOp26
 70
     1
102
RTVSPropertyOp27
 70
     1
102
RTVSPropertyOp28
 70
     1
102
RTVSPropertyOp29
 70
     1
102
RTVSPropertyOp30
 70
     1
102
RTVSPropertyOp31
 70
     1
102
RTVSPropertyOp32
 70
     1
102
RTVSPropertyOp33
 70
     1
102
RTVSPropertyOp34
 70
     1
102
RTVSPropertyOp35
 70
     1
102
RTVSPropertyOp36
 70
     1
102
RTVSPropertyOp37
 70
     1
102
RTVSPropertyOp38
 70
     1
102
RTVSPropertyOp39
 70
     1
102
RTVSPropertyOp40
 70
     1
102
RTVSPropertyOp41
 70
     1
102
RTVSPropertyOp42
 70
     1
102
RTVSPropertyOp43
 70
     1
102
RTVSPropertyOp44
 70
     1
102
RTVSPropertyOp45
 70
     1
102
RTVSPropertyOp46
 70
     1
102
RTVSPropertyOp47
 70
     1
102
RTVSPropertyOp48
 70
     1
102
RTVSPropertyOp49
 70
     1
102
RTVSPropertyOp50
 70
     1
102
RTVSPropertyOp51
 70
     0
102
RTVSPropertyOp52
 70
     0
102
RTVSPropertyOp53
 70
     1
102
RTVSPropertyOp54
 70
     1
102
RTVSPropertyOp55
 70
     1
102
RTVSPropertyOp56
 70
     1
102
RTVSPropertyOp57
 70
     1
102
RTVSPropertyOp58
 70
     1
102
RTVSPropertyOp59
 70
     1
102
RTVSPropertyOp60
 70
     1
102
RTVSPropertyOp61
 70
     1
102
RTVSPropertyOp62
 70
     1
  0
XRECORD
  5
9AAB
102
{ACAD_REACTORS
330
9AAA
102
}
330
9AAA
100
AcDbXrecord
280
     1
102
RTVSPost2010Prop28
280
     0
102
RTVSPost2010PropOp28
 70
     1
102
RTVSPost2010Prop29
280
     1
102
RTVSPost2010PropOp29
 70
     1
102
RTVSPost2010Prop30
280
     1
102
RTVSPost2010PropOp30
 70
     1
102
RTVSPost2010Prop31
280
     0
102
RTVSPost2010PropOp31
 70
     1
102
RTVSPost2010Prop32
280
     0
102
RTVSPost2010PropOp32
 70
     1
102
RTVSPost2010Prop33
280
     0
102
RTVSPost2010PropOp33
 70
     1
102
RTVSPost2010Prop34
280
     0
102
RTVSPost2010PropOp34
 70
     1
102
RTVSPost2010Prop35
280
     0
102
RTVSPost2010PropOp35
 70
     1
102
RTVSPost2010Prop36
280
     0
102
RTVSPost2010PropOp36
 70
     1
102
RTVSPost2010Prop37
 90
       50
102
RTVSPost2010PropOp37
 70
     1
102
RTVSPost2010Prop38
140
0.0
102
RTVSPost2010PropOp38
 70
     1
102
RTVSPost2010Prop39
140
1.0
102
RTVSPost2010PropOp39
 70
     1
102
RTVSPost2010Prop40
 90
        0
102
RTVSPost2010PropOp40
 70
     1
102
RTVSPost2010Prop41ColorIndex
 90
       18
102
RTVSPost2010Prop41ColorRGB
 90
        0
102
RTVSPost2010PropOp41
 70
     1
102
RTVSPost2010Prop42
 90
       50
102
RTVSPost2010PropOp42
 70
     1
102
RTVSPost2010Prop43
 90
        3
102
RTVSPost2010PropOp43
 70
     1
102
RTVSPost2010Prop44ColorIndex
 90
        5
102
RTVSPost2010Prop44ColorRGB
 90
      255
102
RTVSPost2010PropOp44
 70
     1
102
RTVSPost2010Prop45
280
     0
102
RTVSPost2010PropOp45
 70
     1
102
RTVSPost2010Prop46
 90
       50
102
RTVSPost2010PropOp46
 70
     1
102
RTVSPost2010Prop47
 90
       50
102
RTVSPost2010PropOp47
 70
     1
102
RTVSPost2010Prop48
 90
       50
102
RTVSPost2010PropOp48
 70
     1
102
RTVSPost2010Prop49
280
     0
102
RTVSPost2010PropOp49
 70
     1
102
RTVSPost2010Prop50
 90
       50
102
RTVSPost2010PropOp50
 70
     1
102
RTVSPost2010Prop51ColorIndex
 90
      256
102
RTVSPost2010Prop51ColorRGB
 90
-16777216
102
RTVSPost2010PropOp51
 70
     0
102
RTVSPost2010Prop52
140
1.0
102
RTVSPost2010PropOp52
 70
     0
102
RTVSPost2010Prop53
 90
        2
102
RTVSPost2010PropOp53
 70
     1
102
RTVSPost2010Prop54
  1
strokes_ogs.tif
102
RTVSPost2010PropOp54
 70
     1
102
RTVSPost2010Prop55
280
     0
102
RTVSPost2010PropOp55
 70
     1
102
RTVSPost2010Prop56
140
1.0
102
RTVSPost2010PropOp56
 70
     1
102
RTVSPost2010Prop57
140
1.0
102
RTVSPost2010PropOp57
 70
     1
102
RTVSPropertyOp0
 70
     1
102
RTVSPropertyOp1
 70
     1
102
RTVSPropertyOp2
 70
     1
102
RTVSPropertyOp3
 70
     1
102
RTVSPropertyOp4
 70
     1
102
RTVSPropertyOp5
 70
     1
102
RTVSPropertyOp6
 70
     1
102
RTVSPropertyOp7
 70
     1
102
RTVSPropertyOp8
 70
     1
102
RTVSPropertyOp9
 70
     1
102
RTVSPropertyOp10
 70
     1
102
RTVSPropertyOp11
 70
     1
102
RTVSPropertyOp12
 70
     1
102
RTVSPropertyOp13
 70
     1
102
RTVSPropertyOp14
 70
     1
102
RTVSPropertyOp15
 70
     1
102
RTVSPropertyOp16
 70
     1
102
RTVSPropertyOp17
 70
     1
102
RTVSPropertyOp18
 70
     1
102
RTVSPropertyOp19
 70
     1
102
RTVSPropertyOp20
 70
     1
102
RTVSPropertyOp21
 70
     1
102
RTVSPropertyOp22
 70
     1
102
RTVSPropertyOp23
 70
     1
102
RTVSPropertyOp24
 70
     1
102
RTVSPropertyOp25
 70
     1
102
RTVSPropertyOp26
 70
     1
102
RTVSPropertyOp27
 70
     1
102
RTVSPropertyOp28
 70
     1
102
RTVSPropertyOp29
 70
     1
102
RTVSPropertyOp30
 70
     1
102
RTVSPropertyOp31
 70
     1
102
RTVSPropertyOp32
 70
     1
102
RTVSPropertyOp33
 70
     1
102
RTVSPropertyOp34
 70
     1
102
RTVSPropertyOp35
 70
     1
102
RTVSPropertyOp36
 70
     1
102
RTVSPropertyOp37
 70
     1
102
RTVSPropertyOp38
 70
     1
102
RTVSPropertyOp39
 70
     1
102
RTVSPropertyOp40
 70
     1
102
RTVSPropertyOp41
 70
     1
102
RTVSPropertyOp42
 70
     1
102
RTVSPropertyOp43
 70
     1
102
RTVSPropertyOp44
 70
     1
102
RTVSPropertyOp45
 70
     1
102
RTVSPropertyOp46
 70
     1
102
RTVSPropertyOp47
 70
     1
102
RTVSPropertyOp48
 70
     1
102
RTVSPropertyOp49
 70
     1
102
RTVSPropertyOp50
 70
     1
102
RTVSPropertyOp51
 70
     0
102
RTVSPropertyOp52
 70
     0
102
RTVSPropertyOp53
 70
     1
102
RTVSPropertyOp54
 70
     1
102
RTVSPropertyOp55
 70
     1
102
RTVSPropertyOp56
 70
     1
102
RTVSPropertyOp57
 70
     1
102
RTVSPropertyOp58
 70
     1
102
RTVSPropertyOp59
 70
     1
102
RTVSPropertyOp60
 70
     1
102
RTVSPropertyOp61
 70
     1
102
RTVSPropertyOp62
 70
     1
  0
XRECORD
  5
9AA5
102
{ACAD_REACTORS
330
9AA4
102
}
330
9AA4
100
AcDbXrecord
280
     1
102
RTVSPost2010Prop28
280
     0
102
RTVSPost2010PropOp28
 70
     1
102
RTVSPost2010Prop29
280
     1
102
RTVSPost2010PropOp29
 70
     1
102
RTVSPost2010Prop30
280
     1
102
RTVSPost2010PropOp30
 70
     1
102
RTVSPost2010Prop31
280
     0
102
RTVSPost2010PropOp31
 70
     1
102
RTVSPost2010Prop32
280
     0
102
RTVSPost2010PropOp32
 70
     1
102
RTVSPost2010Prop33
280
     0
102
RTVSPost2010PropOp33
 70
     1
102
RTVSPost2010Prop34
280
     0
102
RTVSPost2010PropOp34
 70
     1
102
RTVSPost2010Prop35
280
     0
102
RTVSPost2010PropOp35
 70
     1
102
RTVSPost2010Prop36
280
     0
102
RTVSPost2010PropOp36
 70
     1
102
RTVSPost2010Prop37
 90
       50
102
RTVSPost2010PropOp37
 70
     1
102
RTVSPost2010Prop38
140
0.0
102
RTVSPost2010PropOp38
 70
     1
102
RTVSPost2010Prop39
140
1.0
102
RTVSPost2010PropOp39
 70
     1
102
RTVSPost2010Prop40
 90
        0
102
RTVSPost2010PropOp40
 70
     1
102
RTVSPost2010Prop41ColorIndex
 90
       18
102
RTVSPost2010Prop41ColorRGB
 90
        0
102
RTVSPost2010PropOp41
 70
     1
102
RTVSPost2010Prop42
 90
       50
102
RTVSPost2010PropOp42
 70
     1
102
RTVSPost2010Prop43
 90
        3
102
RTVSPost2010PropOp43
 70
     1
102
RTVSPost2010Prop44ColorIndex
 90
        5
102
RTVSPost2010Prop44ColorRGB
 90
      255
102
RTVSPost2010PropOp44
 70
     1
102
RTVSPost2010Prop45
280
     0
102
RTVSPost2010PropOp45
 70
     1
102
RTVSPost2010Prop46
 90
       50
102
RTVSPost2010PropOp46
 70
     1
102
RTVSPost2010Prop47
 90
       50
102
RTVSPost2010PropOp47
 70
     1
102
RTVSPost2010Prop48
 90
       50
102
RTVSPost2010PropOp48
 70
     1
102
RTVSPost2010Prop49
280
     0
102
RTVSPost2010PropOp49
 70
     1
102
RTVSPost2010Prop50
 90
       50
102
RTVSPost2010PropOp50
 70
     1
102
RTVSPost2010Prop51ColorIndex
 90
      256
102
RTVSPost2010Prop51ColorRGB
 90
-16777216
102
RTVSPost2010PropOp51
 70
     0
102
RTVSPost2010Prop52
140
1.0
102
RTVSPost2010PropOp52
 70
     0
102
RTVSPost2010Prop53
 90
        2
102
RTVSPost2010PropOp53
 70
     1
102
RTVSPost2010Prop54
  1
strokes_ogs.tif
102
RTVSPost2010PropOp54
 70
     1
102
RTVSPost2010Prop55
280
     0
102
RTVSPost2010PropOp55
 70
     1
102
RTVSPost2010Prop56
140
1.0
102
RTVSPost2010PropOp56
 70
     1
102
RTVSPost2010Prop57
140
1.0
102
RTVSPost2010PropOp57
 70
     1
102
RTVSPropertyOp0
 70
     1
102
RTVSPropertyOp1
 70
     1
102
RTVSPropertyOp2
 70
     1
102
RTVSPropertyOp3
 70
     1
102
RTVSPropertyOp4
 70
     1
102
RTVSPropertyOp5
 70
     1
102
RTVSPropertyOp6
 70
     1
102
RTVSPropertyOp7
 70
     1
102
RTVSPropertyOp8
 70
     1
102
RTVSPropertyOp9
 70
     1
102
RTVSPropertyOp10
 70
     1
102
RTVSPropertyOp11
 70
     1
102
RTVSPropertyOp12
 70
     1
102
RTVSPropertyOp13
 70
     1
102
RTVSPropertyOp14
 70
     1
102
RTVSPropertyOp15
 70
     1
102
RTVSPropertyOp16
 70
     1
102
RTVSPropertyOp17
 70
     1
102
RTVSPropertyOp18
 70
     1
102
RTVSPropertyOp19
 70
     1
102
RTVSPropertyOp20
 70
     1
102
RTVSPropertyOp21
 70
     1
102
RTVSPropertyOp22
 70
     1
102
RTVSPropertyOp23
 70
     1
102
RTVSPropertyOp24
 70
     1
102
RTVSPropertyOp25
 70
     1
102
RTVSPropertyOp26
 70
     1
102
RTVSPropertyOp27
 70
     1
102
RTVSPropertyOp28
 70
     1
102
RTVSPropertyOp29
 70
     1
102
RTVSPropertyOp30
 70
     1
102
RTVSPropertyOp31
 70
     1
102
RTVSPropertyOp32
 70
     1
102
RTVSPropertyOp33
 70
     1
102
RTVSPropertyOp34
 70
     1
102
RTVSPropertyOp35
 70
     1
102
RTVSPropertyOp36
 70
     1
102
RTVSPropertyOp37
 70
     1
102
RTVSPropertyOp38
 70
     1
102
RTVSPropertyOp39
 70
     1
102
RTVSPropertyOp40
 70
     1
102
RTVSPropertyOp41
 70
     1
102
RTVSPropertyOp42
 70
     1
102
RTVSPropertyOp43
 70
     1
102
RTVSPropertyOp44
 70
     1
102
RTVSPropertyOp45
 70
     1
102
RTVSPropertyOp46
 70
     1
102
RTVSPropertyOp47
 70
     1
102
RTVSPropertyOp48
 70
     1
102
RTVSPropertyOp49
 70
     1
102
RTVSPropertyOp50
 70
     1
102
RTVSPropertyOp51
 70
     0
102
RTVSPropertyOp52
 70
     0
102
RTVSPropertyOp53
 70
     1
102
RTVSPropertyOp54
 70
     1
102
RTVSPropertyOp55
 70
     1
102
RTVSPropertyOp56
 70
     1
102
RTVSPropertyOp57
 70
     1
102
RTVSPropertyOp58
 70
     1
102
RTVSPropertyOp59
 70
     1
102
RTVSPropertyOp60
 70
     1
102
RTVSPropertyOp61
 70
     1
102
RTVSPropertyOp62
 70
     1
  0
XRECORD
  5
9AA7
102
{ACAD_REACTORS
330
9AA6
102
}
330
9AA6
100
AcDbXrecord
280
     1
102
RTVSPost2010Prop28
280
     0
102
RTVSPost2010PropOp28
 70
     1
102
RTVSPost2010Prop29
280
     1
102
RTVSPost2010PropOp29
 70
     1
102
RTVSPost2010Prop30
280
     1
102
RTVSPost2010PropOp30
 70
     1
102
RTVSPost2010Prop31
280
     0
102
RTVSPost2010PropOp31
 70
     1
102
RTVSPost2010Prop32
280
     0
102
RTVSPost2010PropOp32
 70
     1
102
RTVSPost2010Prop33
280
     0
102
RTVSPost2010PropOp33
 70
     1
102
RTVSPost2010Prop34
280
     0
102
RTVSPost2010PropOp34
 70
     1
102
RTVSPost2010Prop35
280
     0
102
RTVSPost2010PropOp35
 70
     1
102
RTVSPost2010Prop36
280
     0
102
RTVSPost2010PropOp36
 70
     1
102
RTVSPost2010Prop37
 90
       50
102
RTVSPost2010PropOp37
 70
     1
102
RTVSPost2010Prop38
140
0.0
102
RTVSPost2010PropOp38
 70
     1
102
RTVSPost2010Prop39
140
1.0
102
RTVSPost2010PropOp39
 70
     1
102
RTVSPost2010Prop40
 90
        0
102
RTVSPost2010PropOp40
 70
     1
102
RTVSPost2010Prop41ColorIndex
 90
       18
102
RTVSPost2010Prop41ColorRGB
 90
        0
102
RTVSPost2010PropOp41
 70
     1
102
RTVSPost2010Prop42
 90
       50
102
RTVSPost2010PropOp42
 70
     1
102
RTVSPost2010Prop43
 90
        3
102
RTVSPost2010PropOp43
 70
     1
102
RTVSPost2010Prop44ColorIndex
 90
        5
102
RTVSPost2010Prop44ColorRGB
 90
      255
102
RTVSPost2010PropOp44
 70
     1
102
RTVSPost2010Prop45
280
     0
102
RTVSPost2010PropOp45
 70
     1
102
RTVSPost2010Prop46
 90
       50
102
RTVSPost2010PropOp46
 70
     1
102
RTVSPost2010Prop47
 90
       50
102
RTVSPost2010PropOp47
 70
     1
102
RTVSPost2010Prop48
 90
       50
102
RTVSPost2010PropOp48
 70
     1
102
RTVSPost2010Prop49
280
     0
102
RTVSPost2010PropOp49
 70
     1
102
RTVSPost2010Prop50
 90
       50
102
RTVSPost2010PropOp50
 70
     1
102
RTVSPost2010Prop51ColorIndex
 90
      256
102
RTVSPost2010Prop51ColorRGB
 90
-16777216
102
RTVSPost2010PropOp51
 70
     0
102
RTVSPost2010Prop52
140
1.0
102
RTVSPost2010PropOp52
 70
     0
102
RTVSPost2010Prop53
 90
        2
102
RTVSPost2010PropOp53
 70
     1
102
RTVSPost2010Prop54
  1
strokes_ogs.tif
102
RTVSPost2010PropOp54
 70
     1
102
RTVSPost2010Prop55
280
     0
102
RTVSPost2010PropOp55
 70
     1
102
RTVSPost2010Prop56
140
1.0
102
RTVSPost2010PropOp56
 70
     1
102
RTVSPost2010Prop57
140
1.0
102
RTVSPost2010PropOp57
 70
     1
102
RTVSPropertyOp0
 70
     1
102
RTVSPropertyOp1
 70
     1
102
RTVSPropertyOp2
 70
     1
102
RTVSPropertyOp3
 70
     1
102
RTVSPropertyOp4
 70
     1
102
RTVSPropertyOp5
 70
     1
102
RTVSPropertyOp6
 70
     1
102
RTVSPropertyOp7
 70
     1
102
RTVSPropertyOp8
 70
     1
102
RTVSPropertyOp9
 70
     1
102
RTVSPropertyOp10
 70
     1
102
RTVSPropertyOp11
 70
     1
102
RTVSPropertyOp12
 70
     1
102
RTVSPropertyOp13
 70
     1
102
RTVSPropertyOp14
 70
     1
102
RTVSPropertyOp15
 70
     1
102
RTVSPropertyOp16
 70
     1
102
RTVSPropertyOp17
 70
     1
102
RTVSPropertyOp18
 70
     1
102
RTVSPropertyOp19
 70
     1
102
RTVSPropertyOp20
 70
     1
102
RTVSPropertyOp21
 70
     1
102
RTVSPropertyOp22
 70
     1
102
RTVSPropertyOp23
 70
     1
102
RTVSPropertyOp24
 70
     1
102
RTVSPropertyOp25
 70
     1
102
RTVSPropertyOp26
 70
     1
102
RTVSPropertyOp27
 70
     1
102
RTVSPropertyOp28
 70
     1
102
RTVSPropertyOp29
 70
     1
102
RTVSPropertyOp30
 70
     1
102
RTVSPropertyOp31
 70
     1
102
RTVSPropertyOp32
 70
     1
102
RTVSPropertyOp33
 70
     1
102
RTVSPropertyOp34
 70
     1
102
RTVSPropertyOp35
 70
     1
102
RTVSPropertyOp36
 70
     1
102
RTVSPropertyOp37
 70
     1
102
RTVSPropertyOp38
 70
     1
102
RTVSPropertyOp39
 70
     1
102
RTVSPropertyOp40
 70
     1
102
RTVSPropertyOp41
 70
     1
102
RTVSPropertyOp42
 70
     1
102
RTVSPropertyOp43
 70
     1
102
RTVSPropertyOp44
 70
     1
102
RTVSPropertyOp45
 70
     1
102
RTVSPropertyOp46
 70
     1
102
RTVSPropertyOp47
 70
     1
102
RTVSPropertyOp48
 70
     1
102
RTVSPropertyOp49
 70
     1
102
RTVSPropertyOp50
 70
     1
102
RTVSPropertyOp51
 70
     0
102
RTVSPropertyOp52
 70
     0
102
RTVSPropertyOp53
 70
     1
102
RTVSPropertyOp54
 70
     1
102
RTVSPropertyOp55
 70
     1
102
RTVSPropertyOp56
 70
     1
102
RTVSPropertyOp57
 70
     1
102
RTVSPropertyOp58
 70
     1
102
RTVSPropertyOp59
 70
     1
102
RTVSPropertyOp60
 70
     1
102
RTVSPropertyOp61
 70
     1
102
RTVSPropertyOp62
 70
     1
  0
XRECORD
  5
9A9D
102
{ACAD_REACTORS
330
9A9C
102
}
330
9A9C
100
AcDbXrecord
280
     1
102
RTVSPost2010Prop28
280
     0
102
RTVSPost2010PropOp28
 70
     1
102
RTVSPost2010Prop29
280
     1
102
RTVSPost2010PropOp29
 70
     1
102
RTVSPost2010Prop30
280
     1
102
RTVSPost2010PropOp30
 70
     1
102
RTVSPost2010Prop31
280
     0
102
RTVSPost2010PropOp31
 70
     1
102
RTVSPost2010Prop32
280
     0
102
RTVSPost2010PropOp32
 70
     1
102
RTVSPost2010Prop33
280
     0
102
RTVSPost2010PropOp33
 70
     1
102
RTVSPost2010Prop34
280
     0
102
RTVSPost2010PropOp34
 70
     1
102
RTVSPost2010Prop35
280
     0
102
RTVSPost2010PropOp35
 70
     1
102
RTVSPost2010Prop36
280
     0
102
RTVSPost2010PropOp36
 70
     1
102
RTVSPost2010Prop37
 90
       50
102
RTVSPost2010PropOp37
 70
     1
102
RTVSPost2010Prop38
140
0.0
102
RTVSPost2010PropOp38
 70
     1
102
RTVSPost2010Prop39
140
1.0
102
RTVSPost2010PropOp39
 70
     1
102
RTVSPost2010Prop40
 90
        0
102
RTVSPost2010PropOp40
 70
     1
102
RTVSPost2010Prop41ColorIndex
 90
       18
102
RTVSPost2010Prop41ColorRGB
 90
        0
102
RTVSPost2010PropOp41
 70
     1
102
RTVSPost2010Prop42
 90
       50
102
RTVSPost2010PropOp42
 70
     1
102
RTVSPost2010Prop43
 90
        3
102
RTVSPost2010PropOp43
 70
     1
102
RTVSPost2010Prop44ColorIndex
 90
        5
102
RTVSPost2010Prop44ColorRGB
 90
      255
102
RTVSPost2010PropOp44
 70
     1
102
RTVSPost2010Prop45
280
     0
102
RTVSPost2010PropOp45
 70
     1
102
RTVSPost2010Prop46
 90
       50
102
RTVSPost2010PropOp46
 70
     1
102
RTVSPost2010Prop47
 90
       50
102
RTVSPost2010PropOp47
 70
     1
102
RTVSPost2010Prop48
 90
       50
102
RTVSPost2010PropOp48
 70
     1
102
RTVSPost2010Prop49
280
     0
102
RTVSPost2010PropOp49
 70
     1
102
RTVSPost2010Prop50
 90
       50
102
RTVSPost2010PropOp50
 70
     1
102
RTVSPost2010Prop51ColorIndex
 90
      256
102
RTVSPost2010Prop51ColorRGB
 90
-16777216
102
RTVSPost2010PropOp51
 70
     0
102
RTVSPost2010Prop52
140
1.0
102
RTVSPost2010PropOp52
 70
     0
102
RTVSPost2010Prop53
 90
        2
102
RTVSPost2010PropOp53
 70
     1
102
RTVSPost2010Prop54
  1
strokes_ogs.tif
102
RTVSPost2010PropOp54
 70
     1
102
RTVSPost2010Prop55
280
     0
102
RTVSPost2010PropOp55
 70
     1
102
RTVSPost2010Prop56
140
1.0
102
RTVSPost2010PropOp56
 70
     1
102
RTVSPost2010Prop57
140
1.0
102
RTVSPost2010PropOp57
 70
     1
102
RTVSPropertyOp0
 70
     1
102
RTVSPropertyOp1
 70
     1
102
RTVSPropertyOp2
 70
     1
102
RTVSPropertyOp3
 70
     1
102
RTVSPropertyOp4
 70
     1
102
RTVSPropertyOp5
 70
     1
102
RTVSPropertyOp6
 70
     1
102
RTVSPropertyOp7
 70
     1
102
RTVSPropertyOp8
 70
     1
102
RTVSPropertyOp9
 70
     1
102
RTVSPropertyOp10
 70
     1
102
RTVSPropertyOp11
 70
     1
102
RTVSPropertyOp12
 70
     1
102
RTVSPropertyOp13
 70
     1
102
RTVSPropertyOp14
 70
     1
102
RTVSPropertyOp15
 70
     1
102
RTVSPropertyOp16
 70
     1
102
RTVSPropertyOp17
 70
     1
102
RTVSPropertyOp18
 70
     1
102
RTVSPropertyOp19
 70
     1
102
RTVSPropertyOp20
 70
     1
102
RTVSPropertyOp21
 70
     1
102
RTVSPropertyOp22
 70
     1
102
RTVSPropertyOp23
 70
     1
102
RTVSPropertyOp24
 70
     1
102
RTVSPropertyOp25
 70
     1
102
RTVSPropertyOp26
 70
     1
102
RTVSPropertyOp27
 70
     1
102
RTVSPropertyOp28
 70
     1
102
RTVSPropertyOp29
 70
     1
102
RTVSPropertyOp30
 70
     1
102
RTVSPropertyOp31
 70
     1
102
RTVSPropertyOp32
 70
     1
102
RTVSPropertyOp33
 70
     1
102
RTVSPropertyOp34
 70
     1
102
RTVSPropertyOp35
 70
     1
102
RTVSPropertyOp36
 70
     1
102
RTVSPropertyOp37
 70
     1
102
RTVSPropertyOp38
 70
     1
102
RTVSPropertyOp39
 70
     1
102
RTVSPropertyOp40
 70
     1
102
RTVSPropertyOp41
 70
     1
102
RTVSPropertyOp42
 70
     1
102
RTVSPropertyOp43
 70
     1
102
RTVSPropertyOp44
 70
     1
102
RTVSPropertyOp45
 70
     1
102
RTVSPropertyOp46
 70
     1
102
RTVSPropertyOp47
 70
     1
102
RTVSPropertyOp48
 70
     1
102
RTVSPropertyOp49
 70
     1
102
RTVSPropertyOp50
 70
     1
102
RTVSPropertyOp51
 70
     0
102
RTVSPropertyOp52
 70
     0
102
RTVSPropertyOp53
 70
     1
102
RTVSPropertyOp54
 70
     1
102
RTVSPropertyOp55
 70
     1
102
RTVSPropertyOp56
 70
     1
102
RTVSPropertyOp57
 70
     1
102
RTVSPropertyOp58
 70
     1
102
RTVSPropertyOp59
 70
     1
102
RTVSPropertyOp60
 70
     1
102
RTVSPropertyOp61
 70
     1
102
RTVSPropertyOp62
 70
     1
  0
XRECORD
  5
9A91
102
{ACAD_REACTORS
330
9A90
102
}
330
9A90
100
AcDbXrecord
280
     1
102
RTVSPost2010Prop28
280
     0
102
RTVSPost2010PropOp28
 70
     1
102
RTVSPost2010Prop29
280
     1
102
RTVSPost2010PropOp29
 70
     1
102
RTVSPost2010Prop30
280
     1
102
RTVSPost2010PropOp30
 70
     1
102
RTVSPost2010Prop31
280
     0
102
RTVSPost2010PropOp31
 70
     1
102
RTVSPost2010Prop32
280
     0
102
RTVSPost2010PropOp32
 70
     1
102
RTVSPost2010Prop33
280
     0
102
RTVSPost2010PropOp33
 70
     1
102
RTVSPost2010Prop34
280
     0
102
RTVSPost2010PropOp34
 70
     1
102
RTVSPost2010Prop35
280
     0
102
RTVSPost2010PropOp35
 70
     1
102
RTVSPost2010Prop36
280
     0
102
RTVSPost2010PropOp36
 70
     1
102
RTVSPost2010Prop37
 90
       50
102
RTVSPost2010PropOp37
 70
     1
102
RTVSPost2010Prop38
140
0.0
102
RTVSPost2010PropOp38
 70
     1
102
RTVSPost2010Prop39
140
1.0
102
RTVSPost2010PropOp39
 70
     1
102
RTVSPost2010Prop40
 90
        0
102
RTVSPost2010PropOp40
 70
     1
102
RTVSPost2010Prop41ColorIndex
 90
       18
102
RTVSPost2010Prop41ColorRGB
 90
        0
102
RTVSPost2010PropOp41
 70
     1
102
RTVSPost2010Prop42
 90
       50
102
RTVSPost2010PropOp42
 70
     1
102
RTVSPost2010Prop43
 90
        3
102
RTVSPost2010PropOp43
 70
     1
102
RTVSPost2010Prop44ColorIndex
 90
        5
102
RTVSPost2010Prop44ColorRGB
 90
      255
102
RTVSPost2010PropOp44
 70
     1
102
RTVSPost2010Prop45
280
     0
102
RTVSPost2010PropOp45
 70
     1
102
RTVSPost2010Prop46
 90
       50
102
RTVSPost2010PropOp46
 70
     1
102
RTVSPost2010Prop47
 90
       50
102
RTVSPost2010PropOp47
 70
     1
102
RTVSPost2010Prop48
 90
       50
102
RTVSPost2010PropOp48
 70
     1
102
RTVSPost2010Prop49
280
     0
102
RTVSPost2010PropOp49
 70
     1
102
RTVSPost2010Prop50
 90
       50
102
RTVSPost2010PropOp50
 70
     1
102
RTVSPost2010Prop51ColorIndex
 90
      256
102
RTVSPost2010Prop51ColorRGB
 90
-16777216
102
RTVSPost2010PropOp51
 70
     0
102
RTVSPost2010Prop52
140
1.0
102
RTVSPost2010PropOp52
 70
     0
102
RTVSPost2010Prop53
 90
        2
102
RTVSPost2010PropOp53
 70
     1
102
RTVSPost2010Prop54
  1
strokes_ogs.tif
102
RTVSPost2010PropOp54
 70
     1
102
RTVSPost2010Prop55
280
     0
102
RTVSPost2010PropOp55
 70
     1
102
RTVSPost2010Prop56
140
1.0
102
RTVSPost2010PropOp56
 70
     1
102
RTVSPost2010Prop57
140
1.0
102
RTVSPost2010PropOp57
 70
     1
102
RTVSPropertyOp0
 70
     1
102
RTVSPropertyOp1
 70
     1
102
RTVSPropertyOp2
 70
     1
102
RTVSPropertyOp3
 70
     1
102
RTVSPropertyOp4
 70
     1
102
RTVSPropertyOp5
 70
     1
102
RTVSPropertyOp6
 70
     1
102
RTVSPropertyOp7
 70
     1
102
RTVSPropertyOp8
 70
     1
102
RTVSPropertyOp9
 70
     1
102
RTVSPropertyOp10
 70
     1
102
RTVSPropertyOp11
 70
     1
102
RTVSPropertyOp12
 70
     1
102
RTVSPropertyOp13
 70
     1
102
RTVSPropertyOp14
 70
     1
102
RTVSPropertyOp15
 70
     1
102
RTVSPropertyOp16
 70
     1
102
RTVSPropertyOp17
 70
     1
102
RTVSPropertyOp18
 70
     1
102
RTVSPropertyOp19
 70
     1
102
RTVSPropertyOp20
 70
     1
102
RTVSPropertyOp21
 70
     1
102
RTVSPropertyOp22
 70
     1
102
RTVSPropertyOp23
 70
     1
102
RTVSPropertyOp24
 70
     1
102
RTVSPropertyOp25
 70
     1
102
RTVSPropertyOp26
 70
     1
102
RTVSPropertyOp27
 70
     1
102
RTVSPropertyOp28
 70
     1
102
RTVSPropertyOp29
 70
     1
102
RTVSPropertyOp30
 70
     1
102
RTVSPropertyOp31
 70
     1
102
RTVSPropertyOp32
 70
     1
102
RTVSPropertyOp33
 70
     1
102
RTVSPropertyOp34
 70
     1
102
RTVSPropertyOp35
 70
     1
102
RTVSPropertyOp36
 70
     1
102
RTVSPropertyOp37
 70
     1
102
RTVSPropertyOp38
 70
     1
102
RTVSPropertyOp39
 70
     1
102
RTVSPropertyOp40
 70
     1
102
RTVSPropertyOp41
 70
     1
102
RTVSPropertyOp42
 70
     1
102
RTVSPropertyOp43
 70
     1
102
RTVSPropertyOp44
 70
     1
102
RTVSPropertyOp45
 70
     1
102
RTVSPropertyOp46
 70
     1
102
RTVSPropertyOp47
 70
     1
102
RTVSPropertyOp48
 70
     1
102
RTVSPropertyOp49
 70
     1
102
RTVSPropertyOp50
 70
     1
102
RTVSPropertyOp51
 70
     0
102
RTVSPropertyOp52
 70
     0
102
RTVSPropertyOp53
 70
     1
102
RTVSPropertyOp54
 70
     1
102
RTVSPropertyOp55
 70
     1
102
RTVSPropertyOp56
 70
     1
102
RTVSPropertyOp57
 70
     1
102
RTVSPropertyOp58
 70
     1
102
RTVSPropertyOp59
 70
     1
102
RTVSPropertyOp60
 70
     1
102
RTVSPropertyOp61
 70
     1
102
RTVSPropertyOp62
 70
     1
  0
XRECORD
  5
9AA9
102
{ACAD_REACTORS
330
9AA8
102
}
330
9AA8
100
AcDbXrecord
280
     1
102
RTVSPost2010Prop28
280
     0
102
RTVSPost2010PropOp28
 70
     1
102
RTVSPost2010Prop29
280
     1
102
RTVSPost2010PropOp29
 70
     1
102
RTVSPost2010Prop30
280
     1
102
RTVSPost2010PropOp30
 70
     1
102
RTVSPost2010Prop31
280
     0
102
RTVSPost2010PropOp31
 70
     1
102
RTVSPost2010Prop32
280
     0
102
RTVSPost2010PropOp32
 70
     1
102
RTVSPost2010Prop33
280
     0
102
RTVSPost2010PropOp33
 70
     1
102
RTVSPost2010Prop34
280
     0
102
RTVSPost2010PropOp34
 70
     1
102
RTVSPost2010Prop35
280
     0
102
RTVSPost2010PropOp35
 70
     1
102
RTVSPost2010Prop36
280
     0
102
RTVSPost2010PropOp36
 70
     1
102
RTVSPost2010Prop37
 90
       50
102
RTVSPost2010PropOp37
 70
     1
102
RTVSPost2010Prop38
140
0.0
102
RTVSPost2010PropOp38
 70
     1
102
RTVSPost2010Prop39
140
1.0
102
RTVSPost2010PropOp39
 70
     1
102
RTVSPost2010Prop40
 90
        0
102
RTVSPost2010PropOp40
 70
     1
102
RTVSPost2010Prop41ColorIndex
 90
       18
102
RTVSPost2010Prop41ColorRGB
 90
        0
102
RTVSPost2010PropOp41
 70
     1
102
RTVSPost2010Prop42
 90
       50
102
RTVSPost2010PropOp42
 70
     1
102
RTVSPost2010Prop43
 90
        3
102
RTVSPost2010PropOp43
 70
     1
102
RTVSPost2010Prop44ColorIndex
 90
        5
102
RTVSPost2010Prop44ColorRGB
 90
      255
102
RTVSPost2010PropOp44
 70
     1
102
RTVSPost2010Prop45
280
     0
102
RTVSPost2010PropOp45
 70
     1
102
RTVSPost2010Prop46
 90
       50
102
RTVSPost2010PropOp46
 70
     1
102
RTVSPost2010Prop47
 90
       50
102
RTVSPost2010PropOp47
 70
     1
102
RTVSPost2010Prop48
 90
       50
102
RTVSPost2010PropOp48
 70
     1
102
RTVSPost2010Prop49
280
     0
102
RTVSPost2010PropOp49
 70
     1
102
RTVSPost2010Prop50
 90
       50
102
RTVSPost2010PropOp50
 70
     1
102
RTVSPost2010Prop51ColorIndex
 90
      256
102
RTVSPost2010Prop51ColorRGB
 90
-16777216
102
RTVSPost2010PropOp51
 70
     0
102
RTVSPost2010Prop52
140
1.0
102
RTVSPost2010PropOp52
 70
     0
102
RTVSPost2010Prop53
 90
        2
102
RTVSPost2010PropOp53
 70
     1
102
RTVSPost2010Prop54
  1
strokes_ogs.tif
102
RTVSPost2010PropOp54
 70
     1
102
RTVSPost2010Prop55
280
     0
102
RTVSPost2010PropOp55
 70
     1
102
RTVSPost2010Prop56
140
1.0
102
RTVSPost2010PropOp56
 70
     1
102
RTVSPost2010Prop57
140
1.0
102
RTVSPost2010PropOp57
 70
     1
102
RTVSPropertyOp0
 70
     1
102
RTVSPropertyOp1
 70
     1
102
RTVSPropertyOp2
 70
     1
102
RTVSPropertyOp3
 70
     1
102
RTVSPropertyOp4
 70
     1
102
RTVSPropertyOp5
 70
     1
102
RTVSPropertyOp6
 70
     1
102
RTVSPropertyOp7
 70
     1
102
RTVSPropertyOp8
 70
     1
102
RTVSPropertyOp9
 70
     1
102
RTVSPropertyOp10
 70
     1
102
RTVSPropertyOp11
 70
     1
102
RTVSPropertyOp12
 70
     1
102
RTVSPropertyOp13
 70
     1
102
RTVSPropertyOp14
 70
     1
102
RTVSPropertyOp15
 70
     1
102
RTVSPropertyOp16
 70
     1
102
RTVSPropertyOp17
 70
     1
102
RTVSPropertyOp18
 70
     1
102
RTVSPropertyOp19
 70
     1
102
RTVSPropertyOp20
 70
     1
102
RTVSPropertyOp21
 70
     1
102
RTVSPropertyOp22
 70
     1
102
RTVSPropertyOp23
 70
     1
102
RTVSPropertyOp24
 70
     1
102
RTVSPropertyOp25
 70
     1
102
RTVSPropertyOp26
 70
     1
102
RTVSPropertyOp27
 70
     1
102
RTVSPropertyOp28
 70
     1
102
RTVSPropertyOp29
 70
     1
102
RTVSPropertyOp30
 70
     1
102
RTVSPropertyOp31
 70
     1
102
RTVSPropertyOp32
 70
     1
102
RTVSPropertyOp33
 70
     1
102
RTVSPropertyOp34
 70
     1
102
RTVSPropertyOp35
 70
     1
102
RTVSPropertyOp36
 70
     1
102
RTVSPropertyOp37
 70
     1
102
RTVSPropertyOp38
 70
     1
102
RTVSPropertyOp39
 70
     1
102
RTVSPropertyOp40
 70
     1
102
RTVSPropertyOp41
 70
     1
102
RTVSPropertyOp42
 70
     1
102
RTVSPropertyOp43
 70
     1
102
RTVSPropertyOp44
 70
     1
102
RTVSPropertyOp45
 70
     1
102
RTVSPropertyOp46
 70
     1
102
RTVSPropertyOp47
 70
     1
102
RTVSPropertyOp48
 70
     1
102
RTVSPropertyOp49
 70
     1
102
RTVSPropertyOp50
 70
     1
102
RTVSPropertyOp51
 70
     0
102
RTVSPropertyOp52
 70
     0
102
RTVSPropertyOp53
 70
     1
102
RTVSPropertyOp54
 70
     1
102
RTVSPropertyOp55
 70
     1
102
RTVSPropertyOp56
 70
     1
102
RTVSPropertyOp57
 70
     1
102
RTVSPropertyOp58
 70
     1
102
RTVSPropertyOp59
 70
     1
102
RTVSPropertyOp60
 70
     1
102
RTVSPropertyOp61
 70
     1
102
RTVSPropertyOp62
 70
     1
  0
ENDSEC
  0
EOF
