  0
SECTION
  2
HEADER
  9
$ACADVER
  1
AC1015
  9
$ACADMAINTVER
 70
    20
  9
$DWGCODEPAGE
  3
ANSI_932
  9
$INSBASE
 10
0.0
 20
0.0
 30
0.0
  9
$EXTMIN
 10
10.0
 20
9.999999999999998
 30
0.0
  9
$EXTMAX
 10
478.8435329999998
 20
364.167108
 30
0.0
  9
$LIMMIN
 10
0.0
 20
0.0
  9
$LIMMAX
 10
544.9999999638298
 20
375.7196968653162
  9
$ORTHOMODE
 70
     1
  9
$REGENMODE
 70
     1
  9
$FILLMODE
 70
     1
  9
$QTEXTMODE
 70
     0
  9
$MIRRTEXT
 70
     1
  9
$LTSCALE
 40
20.0
  9
$ATTMODE
 70
     1
  9
$TEXTSIZE
 40
5.0
  9
$TRACEWID
 40
1.0
  9
$TEXTSTYLE
  7
STANDARD
  9
$CLAYER
  8
0
  9
$CELTYPE
  6
BYLAYER
  9
$CECOLOR
 62
   256
  9
$CELTSCALE
 40
1.0
  9
$DISPSILH
 70
     0
  9
$DIMSCALE
 40
1.0
  9
$DIMASZ
 40
2.5
  9
$DIMEXO
 40
1.0
  9
$DIMDLI
 40
10.0
  9
$DIMRND
 40
0.0
  9
$DIMDLE
 40
0.0
  9
$DIMEXE
 40
1.0
  9
$DIMTP
 40
0.0
  9
$DIMTM
 40
0.0
  9
$DIMTXT
 40
3.2
  9
$DIMCEN
 40
0.0
  9
$DIMTSZ
 40
0.0
  9
$DIMTOL
 70
     0
  9
$DIMLIM
 70
     0
  9
$DIMTIH
 70
     0
  9
$DIMTOH
 70
     0
  9
$DIMSE1
 70
     0
  9
$DIMSE2
 70
     0
  9
$DIMTAD
 70
     3
  9
$DIMZIN
 70
     8
  9
$DIMBLK
  1

  9
$DIMASO
 70
     1
  9
$DIMSHO
 70
     1
  9
$DIMPOST
  1

  9
$DIMAPOST
  1

  9
$DIMALT
 70
     0
  9
$DIMALTD
 70
     2
  9
$DIMALTF
 40
25.4
  9
$DIMLFAC
 40
1.0
  9
$DIMTOFL
 70
     1
  9
$DIMTVP
 40
0.0
  9
$DIMTIX
 70
     0
  9
$DIMSOXD
 70
     0
  9
$DIMSAH
 70
     1
  9
$DIMBLK1
  1

  9
$DIMBLK2
  1

  9
$DIMSTYLE
  2
STANDARD
  9
$DIMCLRD
 70
     0
  9
$DIMCLRE
 70
     0
  9
$DIMCLRT
 70
     0
  9
$DIMTFAC
 40
1.0
  9
$DIMGAP
 40
1.0
  9
$DIMJUST
 70
     0
  9
$DIMSD1
 70
     0
  9
$DIMSD2
 70
     0
  9
$DIMTOLJ
 70
     1
  9
$DIMTZIN
 70
     0
  9
$DIMALTZ
 70
     0
  9
$DIMALTTZ
 70
     0
  9
$DIMUPT
 70
     0
  9
$DIMDEC
 70
     4
  9
$DIMTDEC
 70
     4
  9
$DIMALTU
 70
     2
  9
$DIMALTTD
 70
     2
  9
$DIMTXSTY
  7
STANDARD
  9
$DIMAUNIT
 70
     0
  9
$DIMADEC
 70
     0
  9
$DIMALTRND
 40
0.0
  9
$DIMAZIN
 70
     0
  9
$DIMDSEP
 70
    46
  9
$DIMATFIT
 70
     3
  9
$DIMFRAC
 70
     0
  9
$DIMLDRBLK
  1

  9
$DIMLUNIT
 70
     2
  9
$DIMLWD
 70
    -2
  9
$DIMLWE
 70
    -2
  9
$DIMTMOVE
 70
     0
  9
$LUNITS
 70
     2
  9
$LUPREC
 70
     4
  9
$SKETCHINC
 40
1.0
  9
$FILLETRAD
 40
5.0
  9
$AUNITS
 70
     0
  9
$AUPREC
 70
     2
  9
$MENU
  1
.
  9
$ELEVATION
 40
0.0
  9
$PELEVATION
 40
0.0
  9
$THICKNESS
 40
0.0
  9
$LIMCHECK
 70
     0
  9
$CHAMFERA
 40
10.0
  9
$CHAMFERB
 40
10.0
  9
$CHAMFERC
 40
0.0
  9
$CHAMFERD
 40
0.0
  9
$SKPOLY
 70
     0
  9
$TDCREATE
 40
2451301.457140047
  9
$TDUCREATE
 40
2451301.082140046
  9
$TDUPDATE
 40
2457192.690239549
  9
$TDUUPDATE
 40
2457192.315239549
  9
$TDINDWG
 40
0.0992825579
  9
$TDUSRTIMER
 40
0.0992821759
  9
$USRTIMER
 70
     1
  9
$ANGBASE
 50
0.0
  9
$ANGDIR
 70
     0
  9
$PDMODE
 70
     0
  9
$PDSIZE
 40
0.0
  9
$PLINEWID
 40
0.0
  9
$SPLFRAME
 70
     0
  9
$SPLINETYPE
 70
     6
  9
$SPLINESEGS
 70
     8
  9
$HANDSEED
  5
98FF
  9
$SURFTAB1
 70
     6
  9
$SURFTAB2
 70
     6
  9
$SURFTYPE
 70
     6
  9
$SURFU
 70
     6
  9
$SURFV
 70
     6
  9
$UCSBASE
  2

  9
$UCSNAME
  2

  9
$UCSORG
 10
0.0
 20
0.0
 30
0.0
  9
$UCSXDIR
 10
1.0
 20
0.0
 30
0.0
  9
$UCSYDIR
 10
0.0
 20
1.0
 30
0.0
  9
$UCSORTHOREF
  2

  9
$UCSORTHOVIEW
 70
     0
  9
$UCSORGTOP
 10
0.0
 20
0.0
 30
0.0
  9
$UCSORGBOTTOM
 10
0.0
 20
0.0
 30
0.0
  9
$UCSORGLEFT
 10
0.0
 20
0.0
 30
0.0
  9
$UCSORGRIGHT
 10
0.0
 20
0.0
 30
0.0
  9
$UCSORGFRONT
 10
0.0
 20
0.0
 30
0.0
  9
$UCSORGBACK
 10
0.0
 20
0.0
 30
0.0
  9
$PUCSBASE
  2

  9
$PUCSNAME
  2

  9
$PUCSORG
 10
0.0
 20
0.0
 30
0.0
  9
$PUCSXDIR
 10
1.0
 20
0.0
 30
0.0
  9
$PUCSYDIR
 10
0.0
 20
1.0
 30
0.0
  9
$PUCSORTHOREF
  2

  9
$PUCSORTHOVIEW
 70
     0
  9
$PUCSORGTOP
 10
0.0
 20
0.0
 30
0.0
  9
$PUCSORGBOTTOM
 10
0.0
 20
0.0
 30
0.0
  9
$PUCSORGLEFT
 10
0.0
 20
0.0
 30
0.0
  9
$PUCSORGRIGHT
 10
0.0
 20
0.0
 30
0.0
  9
$PUCSORGFRONT
 10
0.0
 20
0.0
 30
0.0
  9
$PUCSORGBACK
 10
0.0
 20
0.0
 30
0.0
  9
$USERI1
 70
     0
  9
$USERI2
 70
     0
  9
$USERI3
 70
     0
  9
$USERI4
 70
     0
  9
$USERI5
 70
     0
  9
$USERR1
 40
0.0
  9
$USERR2
 40
0.0
  9
$USERR3
 40
0.0
  9
$USERR4
 40
0.0
  9
$USERR5
 40
0.0
  9
$WORLDVIEW
 70
     1
  9
$SHADEDGE
 70
     3
  9
$SHADEDIF
 70
    70
  9
$TILEMODE
 70
     1
  9
$MAXACTVP
 70
    16
  9
$PINSBASE
 10
0.0
 20
0.0
 30
0.0
  9
$PLIMCHECK
 70
     0
  9
$PEXTMIN
 10
1.000000000000000E+20
 20
1.000000000000000E+20
 30
1.000000000000000E+20
  9
$PEXTMAX
 10
-1.000000000000000E+20
 20
-1.000000000000000E+20
 30
-1.000000000000000E+20
  9
$PLIMMIN
 10
0.0
 20
0.0
  9
$PLIMMAX
 10
420.0
 20
297.0
  9
$UNITMODE
 70
     0
  9
$VISRETAIN
 70
     0
  9
$PLINEGEN
 70
     0
  9
$PSLTSCALE
 70
     0
  9
$TREEDEPTH
 70
  3020
  9
$CMLSTYLE
  2
STANDARD
  9
$CMLJUST
 70
     0
  9
$CMLSCALE
 40
1.0
  9
$PROXYGRAPHICS
 70
     1
  9
$MEASUREMENT
 70
     0
  9
$CELWEIGHT
370
    -1
  9
$ENDCAPS
280
     0
  9
$JOINSTYLE
280
     0
  9
$LWDISPLAY
290
     0
  9
$INSUNITS
 70
     0
  9
$HYPERLINKBASE
  1

  9
$STYLESHEET
  1

  9
$XEDIT
290
     1
  9
$CEPSNTYPE
380
     0
  9
$PSTYLEMODE
290
     1
  9
$FINGERPRINTGUID
  2
{07E1C915-FFEF-4370-A5A9-C927B6B5500A}
  9
$VERSIONGUID
  2
{86DDC75A-A14D-4D36-8BA2-09D0FC7AA640}
  9
$EXTNAMES
290
     1
  9
$PSVPSCALE
 40
0.0
  9
$OLESTARTUP
290
     0
  0
ENDSEC
  0
SECTION
  2
CLASSES
  0
CLASS
  1
ACDBDICTIONARYWDFLT
  2
AcDbDictionaryWithDefault
  3
ObjectDBX Classes
 90
        0
280
     0
281
     0
  0
CLASS
  1
ACDBPLACEHOLDER
  2
AcDbPlaceHolder
  3
ObjectDBX Classes
 90
        0
280
     0
281
     0
  0
CLASS
  1
LAYOUT
  2
AcDbLayout
  3
ObjectDBX Classes
 90
        0
280
     0
281
     0
  0
CLASS
  1
DICTIONARYVAR
  2
AcDbDictionaryVar
  3
ObjectDBX Classes
 90
        0
280
     0
281
     0
  0
CLASS
  1
MATERIAL
  2
AcDbMaterial
  3
ObjectDBX Classes
 90
     1153
280
     0
281
     0
  0
CLASS
  1
VISUALSTYLE
  2
AcDbVisualStyle
  3
ObjectDBX Classes
 90
     4095
280
     0
281
     0
  0
CLASS
  1
TABLESTYLE
  2
AcDbTableStyle
  3
ObjectDBX Classes
 90
     4095
280
     0
281
     0
  0
CLASS
  1
SCALE
  2
AcDbScale
  3
ObjectDBX Classes
 90
     1153
280
     0
281
     0
  0
CLASS
  1
MLEADERSTYLE
  2
AcDbMLeaderStyle
  3
ACDB_MLEADERSTYLE_CLASS
 90
     4095
280
     0
281
     0
  0
CLASS
  1
ACDBSECTIONVIEWSTYLE
  2
AcDbSectionViewStyle
  3
ObjectDBX Classes
 90
     1025
280
     0
281
     0
  0
CLASS
  1
ACDBDETAILVIEWSTYLE
  2
AcDbDetailViewStyle
  3
ObjectDBX Classes
 90
     1025
280
     0
281
     0
  0
CLASS
  1
CELLSTYLEMAP
  2
AcDbCellStyleMap
  3
ObjectDBX Classes
 90
     1152
280
     0
281
     0
  0
ENDSEC
  0
SECTION
  2
TABLES
  0
TABLE
  2
VPORT
  5
9648
330
0
100
AcDbSymbolTable
 70
     1
  0
VPORT
  5
984A
330
9648
100
AcDbSymbolTableRecord
100
AcDbViewportTableRecord
  2
*ACTIVE
 70
     0
 10
0.0
 20
0.0
 11
1.0
 21
1.0
 12
380.738591568655
 22
187.0858905803999
 13
0.0
 23
0.0
 14
10.0
 24
10.0
 15
10.0
 25
10.0
 16
0.0
 26
0.0
 36
1.0
 17
0.0
 27
0.0
 37
0.0
 40
356.9826539482002
 41
2.35006605019815
 42
50.0
 43
0.0
 44
0.0
 50
0.0
 51
0.0
 71
     0
 72
   100
 73
     1
 74
     0
 75
     0
 76
     0
 77
     0
 78
     0
281
     0
 65
     1
110
0.0
120
0.0
130
0.0
111
1.0
121
0.0
131
0.0
112
0.0
122
1.0
132
0.0
 79
     0
146
0.0
1001
ACAD_NAV_VCDISPLAY
1070
     3
  0
ENDTAB
  0
TABLE
  2
LTYPE
  5
9645
330
0
100
AcDbSymbolTable
 70
     4
  0
LTYPE
  5
9653
330
9645
100
AcDbSymbolTableRecord
100
AcDbLinetypeTableRecord
  2
BYBLOCK
 70
     0
  3

 72
    65
 73
     0
 40
0.0
  0
LTYPE
  5
9654
330
9645
100
AcDbSymbolTableRecord
100
AcDbLinetypeTableRecord
  2
BYLAYER
 70
     0
  3

 72
    65
 73
     0
 40
0.0
  0
LTYPE
  5
9655
330
9645
100
AcDbSymbolTableRecord
100
AcDbLinetypeTableRecord
  2
CONTINUOUS
 70
     0
  3
Solid line
 72
    65
 73
     0
 40
0.0
  0
LTYPE
  5
9663
330
9645
100
AcDbSymbolTableRecord
100
AcDbLinetypeTableRecord
  2
DASHED
 70
     0
  3
__ __ __ __ __ __ __ __ __ __ __ __ __ __ __ __
 72
    65
 73
     2
 40
0.75
 49
0.5
 74
     0
 49
-0.25
 74
     0
  0
LTYPE
  5
9664
330
9645
100
AcDbSymbolTableRecord
100
AcDbLinetypeTableRecord
  2
CENTER
 70
     0
  3
____ _ ____ _ ____ _ ____ _ ____ _ ____ _ ____ 
 72
    65
 73
     4
 40
2.0
 49
1.25
 74
     0
 49
-0.25
 74
     0
 49
0.25
 74
     0
 49
-0.25
 74
     0
  0
LTYPE
  5
9665
330
9645
100
AcDbSymbolTableRecord
100
AcDbLinetypeTableRecord
  2
PHANTOM
 70
     0
  3
______  __  __  ______  __  __  ______  __  __ 
 72
    65
 73
     6
 40
2.5
 49
1.25
 74
     0
 49
-0.25
 74
     0
 49
0.25
 74
     0
 49
-0.25
 74
     0
 49
0.25
 74
     0
 49
-0.25
 74
     0
  0
ENDTAB
  0
TABLE
  2
LAYER
  5
9642
330
0
100
AcDbSymbolTable
 70
     8
  0
LAYER
  5
9650
102
{ACAD_XDICTIONARY
360
98A3
102
}
330
9642
100
AcDbSymbolTableRecord
100
AcDbLayerTableRecord
  2
0
 70
     0
 62
     7
  6
CONTINUOUS
370
    -3
390
9851
  0
LAYER
  5
9666
102
{ACAD_XDICTIONARY
360
98A5
102
}
330
9642
100
AcDbSymbolTableRecord
100
AcDbLayerTableRecord
  2
4
 70
     0
 62
     1
  6
CENTER
370
    -3
390
9851
  0
LAYER
  5
9667
102
{ACAD_XDICTIONARY
360
98A7
102
}
330
9642
100
AcDbSymbolTableRecord
100
AcDbLayerTableRecord
  2
5
 70
     0
 62
     6
  6
PHANTOM
370
    -3
390
9851
  0
LAYER
  5
9668
102
{ACAD_XDICTIONARY
360
98A9
102
}
330
9642
100
AcDbSymbolTableRecord
100
AcDbLayerTableRecord
  2
1
 70
     0
 62
     7
  6
CONTINUOUS
370
    -3
390
9851
  0
LAYER
  5
9669
102
{ACAD_XDICTIONARY
360
98AB
102
}
330
9642
100
AcDbSymbolTableRecord
100
AcDbLayerTableRecord
  2
2
 70
     0
 62
     4
  6
CONTINUOUS
370
    -3
390
9851
  0
LAYER
  5
966A
102
{ACAD_XDICTIONARY
360
98AD
102
}
330
9642
100
AcDbSymbolTableRecord
100
AcDbLayerTableRecord
  2
3
 70
     0
 62
     2
  6
DASHED
370
    -3
390
9851
  0
LAYER
  5
966B
102
{ACAD_XDICTIONARY
360
98AF
102
}
330
9642
100
AcDbSymbolTableRecord
100
AcDbLayerTableRecord
  2
6
 70
     0
 62
     5
  6
CONTINUOUS
370
    -3
390
9851
  0
LAYER
  5
966C
102
{ACAD_XDICTIONARY
360
98B1
102
}
330
9642
100
AcDbSymbolTableRecord
100
AcDbLayerTableRecord
  2
7
 70
     0
 62
     3
  6
CONTINUOUS
370
    -3
390
9851
  0
ENDTAB
  0
TABLE
  2
STYLE
  5
9643
330
0
100
AcDbSymbolTable
 70
     1
  0
STYLE
  5
9651
330
9643
100
AcDbSymbolTableRecord
100
AcDbTextStyleTableRecord
  2
STANDARD
 70
     0
 40
0.0
 41
1.0
 50
0.0
 71
     0
 42
5.0
  3
txt
  4

  0
ENDTAB
  0
TABLE
  2
VIEW
  5
9646
330
0
100
AcDbSymbolTable
 70
     0
  0
ENDTAB
  0
TABLE
  2
UCS
  5
9647
330
0
100
AcDbSymbolTable
 70
     0
  0
ENDTAB
  0
TABLE
  2
APPID
  5
9649
330
0
100
AcDbSymbolTable
 70
     3
  0
APPID
  5
9652
330
9649
100
AcDbSymbolTableRecord
100
AcDbRegAppTableRecord
  2
ACAD
 70
     0
  0
APPID
  5
98BD
330
9649
100
AcDbSymbolTableRecord
100
AcDbRegAppTableRecord
  2
ACAD_NAV_VCDISPLAY
 70
     0
  0
APPID
  5
98F6
330
9649
100
AcDbSymbolTableRecord
100
AcDbRegAppTableRecord
  2
ACAD_MLEADERVER
 70
     0
  0
ENDTAB
  0
TABLE
  2
DIMSTYLE
  5
964A
330
0
100
AcDbSymbolTable
 70
     1
100
AcDbDimStyleTable
 71
     0
  0
DIMSTYLE
105
966E
330
964A
100
AcDbSymbolTableRecord
100
AcDbDimStyleTableRecord
  2
STANDARD
 70
     0
 41
2.5
 42
1.0
 43
10.0
 44
1.0
 73
     0
 74
     0
 77
     3
 78
     8
140
3.2
141
0.0
147
1.0
172
     1
173
     1
284
     8
285
     8
286
     8
340
9651
  0
ENDTAB
  0
TABLE
  2
BLOCK_RECORD
  5
9641
330
0
100
AcDbSymbolTable
 70
     0
  0
BLOCK_RECORD
  5
965E
102
{ACAD_XDICTIONARY
360
980D
102
}
330
9641
100
AcDbSymbolTableRecord
100
AcDbBlockTableRecord
  2
*MODEL_SPACE
340
989F
  0
BLOCK_RECORD
  5
965A
102
{ACAD_XDICTIONARY
360
980B
102
}
330
9641
100
AcDbSymbolTableRecord
100
AcDbBlockTableRecord
  2
*PAPER_SPACE
340
98A0
  0
ENDTAB
  0
ENDSEC
  0
SECTION
  2
BLOCKS
  0
BLOCK
  5
965F
330
965E
100
AcDbEntity
  8
0
100
AcDbBlockBegin
  2
*MODEL_SPACE
 70
     0
 10
0.0
 20
0.0
 30
0.0
  3
*MODEL_SPACE
  1

  0
ENDBLK
  5
9660
330
965E
100
AcDbEntity
  8
0
100
AcDbBlockEnd
  0
BLOCK
  5
965B
330
965A
100
AcDbEntity
 67
     1
  8
0
100
AcDbBlockBegin
  2
*PAPER_SPACE
 70
     0
 10
0.0
 20
0.0
 30
0.0
  3
*PAPER_SPACE
  1

  0
ENDBLK
  5
965C
330
965A
100
AcDbEntity
 67
     1
  8
0
100
AcDbBlockEnd
  0
ENDSEC
  0
SECTION
  2
ENTITIES
  0
TEXT
  5
9676
330
965E
100
AcDbEntity
  8
7
  6
Continuous
100
AcDbText
 10
10.0
 20
18.0
 30
0.0
 40
3.0
  1
TYPE No.TCA-420ER-R75
100
AcDbText
  0
TEXT
  5
9677
330
965E
100
AcDbEntity
  8
7
  6
Continuous
100
AcDbText
 10
10.0
 20
26.0
 30
0.0
 40
3.0
  1
CODE No.9791
100
AcDbText
  0
TEXT
  5
9678
330
965E
100
AcDbEntity
  8
1
  6
Continuous
100
AcDbText
 10
10.0
 20
10.0
 30
0.0
 40
1.399999999999999
  1
LAYER
100
AcDbText
  0
TEXT
  5
9679
330
965E
100
AcDbEntity
  8
1
  6
Continuous
100
AcDbText
 10
17.97951099999998
 20
10.04873699999998
 30
0.0
 40
1.399999999999999
  1
1
100
AcDbText
  0
TEXT
  5
967A
330
965E
100
AcDbEntity
  8
7
  6
Continuous
100
AcDbText
 10
29.97951099999999
 20
10.04873699999998
 30
0.0
 40
1.399999999999999
  1
7
100
AcDbText
  0
TEXT
  5
967B
330
965E
100
AcDbEntity
  8
4
  6
CENTER
100
AcDbText
 10
23.97951099999999
 20
10.04873699999998
 30
0.0
 40
1.399999999999999
  1
4
100
AcDbText
  0
TEXT
  5
967C
330
965E
100
AcDbEntity
  8
3
  6
DASHED
100
AcDbText
 10
21.979511
 20
10.04873699999998
 30
0.0
 40
1.399999999999999
  1
3
100
AcDbText
  0
TEXT
  5
967D
330
965E
100
AcDbEntity
  8
2
  6
Continuous
100
AcDbText
 10
19.97951099999998
 20
10.04873699999998
 30
0.0
 40
1.399999999999999
  1
2
100
AcDbText
  0
TEXT
  5
967E
330
965E
100
AcDbEntity
  8
6
  6
Continuous
100
AcDbText
 10
27.979511
 20
10.04873699999998
 30
0.0
 40
1.399999999999999
  1
6
100
AcDbText
  0
TEXT
  5
967F
330
965E
100
AcDbEntity
  8
5
  6
PHANTOM
100
AcDbText
 10
25.97951099999999
 20
10.04873699999998
 30
0.0
 40
1.399999999999999
  1
5
100
AcDbText
  0
LINE
  5
9680
330
965E
100
AcDbEntity
  8
4
  6
CENTER
 48
0.8
100
AcDbLine
 10
176.343533
 20
364.167108
 30
0.0
 11
176.343533
 21
313.967105
 31
0.0
  0
LINE
  5
9681
330
965E
100
AcDbEntity
  8
4
  6
CENTER
 48
0.8
100
AcDbLine
 10
133.843533
 20
337.2671079999999
 30
0.0
 11
218.843533
 21
337.2671079999999
 31
0.0
  0
LINE
  5
9682
330
965E
100
AcDbEntity
  8
1
  6
Continuous
100
AcDbLine
 10
144.843533
 20
358.267108
 30
0.0
 11
152.843533
 21
358.267108
 31
0.0
  0
LINE
  5
9683
330
965E
100
AcDbEntity
  8
1
  6
Continuous
100
AcDbLine
 10
161.343533
 20
352.567111
 30
0.0
 11
191.343533
 21
352.567111
 31
0.0
  0
LINE
  5
9684
330
965E
100
AcDbEntity
  8
1
  6
Continuous
100
AcDbLine
 10
157.322431
 20
354.5954469999998
 30
0.0
 11
155.6583
 21
356.84727
 31
0.0
  0
LINE
  5
9685
330
965E
100
AcDbEntity
  8
4
  6
CENTER
 48
0.8
100
AcDbLine
 10
153.343533
 20
351.267108
 30
0.0
 11
143.343533
 21
351.267108
 31
0.0
  0
LINE
  5
9686
330
965E
100
AcDbEntity
  8
4
  6
CENTER
 48
0.8
100
AcDbLine
 10
148.343533
 20
356.267108
 30
0.0
 11
148.343533
 21
346.267108
 31
0.0
  0
LINE
  5
9687
330
965E
100
AcDbEntity
  8
1
  6
Continuous
100
AcDbLine
 10
207.843533
 20
358.267108
 30
0.0
 11
199.843533
 21
358.267108
 31
0.0
  0
LINE
  5
9688
330
965E
100
AcDbEntity
  8
1
  6
Continuous
100
AcDbLine
 10
195.3646239999999
 20
354.5954469999998
 30
0.0
 11
197.028759
 21
356.84727
 31
0.0
  0
LINE
  5
9689
330
965E
100
AcDbEntity
  8
4
  6
CENTER
 48
0.8
100
AcDbLine
 10
199.343533
 20
351.267108
 30
0.0
 11
209.343533
 21
351.267108
 31
0.0
  0
LINE
  5
968A
330
965E
100
AcDbEntity
  8
4
  6
CENTER
 48
0.8
100
AcDbLine
 10
204.343533
 20
356.267108
 30
0.0
 11
204.343533
 21
346.267108
 31
0.0
  0
LINE
  5
968B
330
965E
100
AcDbEntity
  8
1
  6
Continuous
100
AcDbLine
 10
141.343533
 20
319.767108
 30
0.0
 11
141.343533
 21
354.767108
 31
0.0
  0
LINE
  5
968C
330
965E
100
AcDbEntity
  8
1
  6
Continuous
100
AcDbLine
 10
144.843533
 20
316.2671079999999
 30
0.0
 11
152.843533
 21
316.2671079999999
 31
0.0
  0
LINE
  5
968D
330
965E
100
AcDbEntity
  8
1
  6
Continuous
100
AcDbLine
 10
157.322435
 20
319.938758
 30
0.0
 11
155.6583019999998
 21
317.686935
 31
0.0
  0
LINE
  5
968E
330
965E
100
AcDbEntity
  8
4
  6
CENTER
 48
0.8
100
AcDbLine
 10
153.343533
 20
323.267108
 30
0.0
 11
143.343533
 21
323.267108
 31
0.0
  0
LINE
  5
968F
330
965E
100
AcDbEntity
  8
4
  6
CENTER
 48
0.8
100
AcDbLine
 10
148.343533
 20
318.2671079999999
 30
0.0
 11
148.343533
 21
328.267108
 31
0.0
  0
LINE
  5
9690
330
965E
100
AcDbEntity
  8
1
  6
Continuous
100
AcDbLine
 10
211.343533
 20
319.767108
 30
0.0
 11
211.343533
 21
354.767108
 31
0.0
  0
LINE
  5
9691
330
965E
100
AcDbEntity
  8
1
  6
Continuous
100
AcDbLine
 10
207.843533
 20
316.2671079999999
 30
0.0
 11
199.843533
 21
316.2671079999999
 31
0.0
  0
LINE
  5
9692
330
965E
100
AcDbEntity
  8
1
  6
Continuous
100
AcDbLine
 10
195.364632
 20
319.938769
 30
0.0
 11
197.0287669999999
 21
317.686942
 31
0.0
  0
LINE
  5
9693
330
965E
100
AcDbEntity
  8
4
  6
CENTER
 48
0.8
100
AcDbLine
 10
199.343533
 20
323.267108
 30
0.0
 11
209.343533
 21
323.267108
 31
0.0
  0
LINE
  5
9694
330
965E
100
AcDbEntity
  8
4
  6
CENTER
 48
0.8
100
AcDbLine
 10
204.343533
 20
318.2671079999999
 30
0.0
 11
204.343533
 21
328.267108
 31
0.0
  0
LINE
  5
9695
330
965E
100
AcDbEntity
  8
4
  6
CENTER
 48
0.8
100
AcDbLine
 10
176.343533
 20
252.52699
 30
0.0
 11
176.343533
 21
149.6671169999999
 31
0.0
  0
LINE
  5
9696
330
965E
100
AcDbEntity
  8
4
  6
CENTER
 48
0.8
100
AcDbLine
 10
133.843533
 20
192.267108
 30
0.0
 11
218.843533
 21
192.267108
 31
0.0
  0
LINE
  5
9697
330
965E
100
AcDbEntity
  8
1
  6
Continuous
100
AcDbLine
 10
141.343533
 20
246.767108
 30
0.0
 11
211.343533
 21
246.767108
 31
0.0
  0
LINE
  5
9698
330
965E
100
AcDbEntity
  8
1
  6
Continuous
100
AcDbLine
 10
141.343533
 20
244.4671079999999
 30
0.0
 11
155.191346
 21
244.4671079999999
 31
0.0
  0
LINE
  5
9699
330
965E
100
AcDbEntity
  8
1
  6
Continuous
100
AcDbLine
 10
141.343533
 20
246.767108
 30
0.0
 11
141.343533
 21
244.4671079999999
 31
0.0
  0
LINE
  5
969A
330
965E
100
AcDbEntity
  8
1
  6
Continuous
100
AcDbLine
 10
155.958075
 20
244.109077
 30
0.0
 11
159.1715
 21
240.271157
 31
0.0
  0
LINE
  5
969B
330
965E
100
AcDbEntity
  8
4
  6
CENTER
 48
0.8
100
AcDbLine
 10
148.343533
 20
251.7671079999999
 30
0.0
 11
148.343533
 21
239.467108
 31
0.0
  0
LINE
  5
969C
330
965E
100
AcDbEntity
  8
1
  6
Continuous
100
AcDbLine
 10
211.343533
 20
244.4671079999999
 30
0.0
 11
197.49572
 21
244.4671079999999
 31
0.0
  0
LINE
  5
969D
330
965E
100
AcDbEntity
  8
1
  6
Continuous
100
AcDbLine
 10
211.343533
 20
246.767108
 30
0.0
 11
211.343533
 21
244.4671079999999
 31
0.0
  0
LINE
  5
969E
330
965E
100
AcDbEntity
  8
1
  6
Continuous
100
AcDbLine
 10
196.7289889999999
 20
244.109079
 30
0.0
 11
193.5155639999999
 21
240.271159
 31
0.0
  0
LINE
  5
969F
330
965E
100
AcDbEntity
  8
4
  6
CENTER
 48
0.8
100
AcDbLine
 10
204.343533
 20
251.7671079999999
 30
0.0
 11
204.343533
 21
239.467108
 31
0.0
  0
LINE
  5
96A0
330
965E
100
AcDbEntity
  8
1
  6
Continuous
100
AcDbLine
 10
167.4550419999999
 20
190.854754
 30
0.0
 11
159.8341409999999
 21
238.816035
 31
0.0
  0
LINE
  5
96A1
330
965E
100
AcDbEntity
  8
1
  6
Continuous
100
AcDbLine
 10
192.852944
 20
238.816029
 30
0.0
 11
185.2320409999999
 21
190.8547429999999
 31
0.0
  0
LINE
  5
96A2
330
965E
100
AcDbEntity
  8
1
  6
Continuous
100
AcDbLine
 10
25.34353299999999
 20
246.767108
 30
0.0
 11
67.34353299999999
 21
246.767108
 31
0.0
  0
LINE
  5
96A3
330
965E
100
AcDbEntity
  8
1
  6
Continuous
100
AcDbLine
 10
25.34353299999999
 20
244.4671079999999
 30
0.0
 11
67.34353299999999
 21
244.4671079999999
 31
0.0
  0
LINE
  5
96A4
330
965E
100
AcDbEntity
  8
1
  6
Continuous
100
AcDbLine
 10
25.34353299999999
 20
246.767108
 30
0.0
 11
25.34353299999999
 21
244.4671079999999
 31
0.0
  0
LINE
  5
96A5
330
965E
100
AcDbEntity
  8
1
  6
Continuous
100
AcDbLine
 10
33.343533
 20
244.4671079999999
 30
0.0
 11
33.343533
 21
184.7671079999997
 31
0.0
  0
LINE
  5
96A6
330
965E
100
AcDbEntity
  8
1
  6
Continuous
100
AcDbLine
 10
59.34353299999999
 20
244.4671079999999
 30
0.0
 11
59.34353299999999
 21
192.267108
 31
0.0
  0
LINE
  5
96A7
330
965E
100
AcDbEntity
  8
1
  6
Continuous
100
AcDbLine
 10
31.043533
 20
184.7671079999997
 30
0.0
 11
33.343533
 21
184.7671079999997
 31
0.0
  0
LINE
  5
96A8
330
965E
100
AcDbEntity
  8
1
  6
Continuous
100
AcDbLine
 10
61.643536
 20
184.7671079999997
 30
0.0
 11
59.34353299999999
 21
184.7671079999997
 31
0.0
  0
LINE
  5
96A9
330
965E
100
AcDbEntity
  8
4
  6
CENTER
 48
0.8
100
AcDbLine
 10
19.44353299999998
 20
192.267108
 30
0.0
 11
69.64353599999999
 21
192.267108
 31
0.0
  0
LINE
  5
96AA
330
965E
100
AcDbEntity
  8
4
  6
CENTER
 48
0.8
100
AcDbLine
 10
60.34353299999999
 20
251.7671079999999
 30
0.0
 11
60.34353299999999
 21
239.467108
 31
0.0
  0
LINE
  5
96AB
330
965E
100
AcDbEntity
  8
1
  6
Continuous
100
AcDbLine
 10
33.343533
 20
195.517108
 30
0.0
 11
34.343533
 21
195.517108
 31
0.0
  0
LINE
  5
96AC
330
965E
100
AcDbEntity
  8
1
  6
Continuous
100
AcDbLine
 10
33.343533
 20
189.017108
 30
0.0
 11
34.343533
 21
189.017108
 31
0.0
  0
LINE
  5
96AD
330
965E
100
AcDbEntity
  8
4
  6
CENTER
 48
0.8
100
AcDbLine
 10
32.343533
 20
251.7671079999999
 30
0.0
 11
32.343533
 21
239.467108
 31
0.0
  0
LINE
  5
96AE
330
965E
100
AcDbEntity
  8
1
  6
Continuous
100
AcDbLine
 10
31.043533
 20
242.4671079999999
 30
0.0
 11
31.043533
 21
184.7671079999997
 31
0.0
  0
LINE
  5
96AF
330
965E
100
AcDbEntity
  8
1
  6
Continuous
100
AcDbLine
 10
61.643536
 20
242.4671079999999
 30
0.0
 11
61.643536
 21
184.7671079999997
 31
0.0
  0
LINE
  5
96B0
330
965E
100
AcDbEntity
  8
4
  6
CENTER
 48
0.8
100
AcDbLine
 10
46.34353299999999
 20
251.7671079999999
 30
0.0
 11
46.34353299999999
 21
149.7595929999999
 31
0.0
  0
LINE
  5
96B1
330
965E
100
AcDbEntity
  8
1
  6
Continuous
100
AcDbLine
 10
67.34353299999999
 20
246.767108
 30
0.0
 11
67.34353299999999
 21
244.4671079999999
 31
0.0
  0
LINE
  5
96B2
330
965E
100
AcDbEntity
  8
1
  6
Continuous
100
AcDbLine
 10
59.34353299999999
 20
192.267108
 30
0.0
 11
59.34353299999999
 21
184.7671079999997
 31
0.0
  0
LINE
  5
96B3
330
965E
100
AcDbEntity
  8
1
  6
Continuous
100
AcDbLine
 10
64.64353599999999
 20
196.2671079999998
 30
0.0
 11
64.64353599999999
 21
188.267108
 31
0.0
  0
LINE
  5
96B4
330
965E
100
AcDbEntity
  8
1
  6
Continuous
100
AcDbLine
 10
61.643536
 20
186.267108
 30
0.0
 11
62.64353599999999
 21
186.267108
 31
0.0
  0
LINE
  5
96B5
330
965E
100
AcDbEntity
  8
1
  6
Continuous
100
AcDbLine
 10
61.643536
 20
198.267108
 30
0.0
 11
62.64353599999999
 21
198.267108
 31
0.0
  0
LINE
  5
96B6
330
965E
100
AcDbEntity
  8
1
  6
Continuous
100
AcDbLine
 10
30.643533
 20
197.867106
 30
0.0
 11
27.443533
 21
197.867106
 31
0.0
  0
LINE
  5
96B7
330
965E
100
AcDbEntity
  8
1
  6
Continuous
100
AcDbLine
 10
30.643533
 20
195.267108
 30
0.0
 11
27.443533
 21
195.267108
 31
0.0
  0
LINE
  5
96B8
330
965E
100
AcDbEntity
  8
1
  6
Continuous
100
AcDbLine
 10
26.44353300000001
 20
196.067111
 30
0.0
 11
26.44353300000001
 21
188.4671129999999
 31
0.0
  0
LINE
  5
96B9
330
965E
100
AcDbEntity
  8
1
  6
Continuous
100
AcDbLine
 10
30.643533
 20
186.6671099999997
 30
0.0
 11
27.443533
 21
186.6671099999997
 31
0.0
  0
LINE
  5
96BA
330
965E
100
AcDbEntity
  8
1
  6
Continuous
100
AcDbLine
 10
30.56673299999999
 20
189.267108
 30
0.0
 11
27.443533
 21
189.267108
 31
0.0
  0
LINE
  5
96BB
330
965E
100
AcDbEntity
  8
1
  6
Continuous
100
AcDbLine
 10
26.44353300000001
 20
188.467029
 30
0.0
 11
27.443533
 21
186.6671099999997
 31
0.0
  0
LINE
  5
96BC
330
965E
100
AcDbEntity
  8
1
  6
Continuous
100
AcDbLine
 10
26.44352299999999
 20
196.0671419999999
 30
0.0
 11
27.443523
 21
197.8671139999999
 31
0.0
  0
LINE
  5
96BD
330
965E
100
AcDbEntity
  8
1
  6
Continuous
100
AcDbLine
 10
178.843533
 20
351.5671109999999
 30
0.0
 11
178.843533
 21
349.267108
 31
0.0
  0
LINE
  5
96BE
330
965E
100
AcDbEntity
  8
1
  6
Continuous
100
AcDbLine
 10
178.843533
 20
322.9671009999999
 30
0.0
 11
178.843533
 21
325.267104
 31
0.0
  0
LINE
  5
96BF
330
965E
100
AcDbEntity
  8
1
  6
Continuous
100
AcDbLine
 10
173.843533
 20
322.9671009999999
 30
0.0
 11
173.843533
 21
325.267104
 31
0.0
  0
LINE
  5
96C0
330
965E
100
AcDbEntity
  8
1
  6
Continuous
100
AcDbLine
 10
173.843533
 20
323.4671009999999
 30
0.0
 11
178.843533
 21
323.4671009999999
 31
0.0
  0
LINE
  5
96C1
330
965E
100
AcDbEntity
  8
1
  6
Continuous
100
AcDbLine
 10
173.843533
 20
351.5671109999999
 30
0.0
 11
173.843533
 21
349.267108
 31
0.0
  0
LINE
  5
96C2
330
965E
100
AcDbEntity
  8
1
  6
Continuous
100
AcDbLine
 10
173.843533
 20
351.067111
 30
0.0
 11
178.843533
 21
351.067111
 31
0.0
  0
LINE
  5
96C3
330
965E
100
AcDbEntity
  8
1
  6
Continuous
100
AcDbLine
 10
178.843533
 20
234.267108
 30
0.0
 11
178.843533
 21
245.767108
 31
0.0
  0
LINE
  5
96C4
330
965E
100
AcDbEntity
  8
1
  6
Continuous
100
AcDbLine
 10
178.843533
 20
245.267107
 30
0.0
 11
173.843533
 21
245.267107
 31
0.0
  0
LINE
  5
96C5
330
965E
100
AcDbEntity
  8
1
  6
Continuous
100
AcDbLine
 10
173.843533
 20
234.267108
 30
0.0
 11
173.843533
 21
245.767108
 31
0.0
  0
LINE
  5
96C6
330
965E
100
AcDbEntity
  8
1
  6
Continuous
100
AcDbLine
 10
57.64353599999999
 20
243.467108
 30
0.0
 11
57.64353599999999
 21
231.267108
 31
0.0
  0
LINE
  5
96C7
330
965E
100
AcDbEntity
  8
1
  6
Continuous
100
AcDbLine
 10
35.043533
 20
243.467108
 30
0.0
 11
35.043533
 21
231.267108
 31
0.0
  0
LINE
  5
96C8
330
965E
100
AcDbEntity
  8
1
  6
Continuous
100
AcDbLine
 10
34.343533
 20
182.517108
 30
0.0
 11
34.343533
 21
202.0171079999999
 31
0.0
  0
LINE
  5
96C9
330
965E
100
AcDbEntity
  8
1
  6
Continuous
100
AcDbLine
 10
35.843533
 20
181.517108
 30
0.0
 11
35.343533
 21
181.517108
 31
0.0
  0
LINE
  5
96CA
330
965E
100
AcDbEntity
  8
1
  6
Continuous
100
AcDbLine
 10
35.843533
 20
157.525706
 30
0.0
 11
35.843533
 21
227.00851
 31
0.0
  0
LINE
  5
96CB
330
965E
100
AcDbEntity
  8
1
  6
Continuous
100
AcDbLine
 10
58.343533
 20
182.517108
 30
0.0
 11
58.343533
 21
202.0171079999999
 31
0.0
  0
LINE
  5
96CC
330
965E
100
AcDbEntity
  8
1
  6
Continuous
100
AcDbLine
 10
56.84353299999999
 20
181.517108
 30
0.0
 11
57.34353299999999
 21
181.517108
 31
0.0
  0
LINE
  5
96CD
330
965E
100
AcDbEntity
  8
1
  6
Continuous
100
AcDbLine
 10
56.84353299999999
 20
157.525706
 30
0.0
 11
56.84353299999999
 21
227.00851
 31
0.0
  0
LINE
  5
96CE
330
965E
100
AcDbEntity
  8
1
  6
Continuous
100
AcDbLine
 10
56.84353299999999
 20
203.017108
 30
0.0
 11
57.34353299999999
 21
203.017108
 31
0.0
  0
LINE
  5
96CF
330
965E
100
AcDbEntity
  8
1
  6
Continuous
100
AcDbLine
 10
35.843533
 20
203.017108
 30
0.0
 11
35.343533
 21
203.017108
 31
0.0
  0
LINE
  5
96D0
330
965E
100
AcDbEntity
  8
1
  6
Continuous
100
AcDbLine
 10
58.343533
 20
195.517108
 30
0.0
 11
59.34353299999999
 21
195.517108
 31
0.0
  0
LINE
  5
96D1
330
965E
100
AcDbEntity
  8
1
  6
Continuous
100
AcDbLine
 10
58.343533
 20
189.017108
 30
0.0
 11
59.34353299999999
 21
189.017108
 31
0.0
  0
CIRCLE
  5
96D2
330
965E
100
AcDbEntity
  8
1
  6
Continuous
100
AcDbCircle
 10
176.343533
 20
337.2671079999999
 30
0.0
 40
5.5
  0
ARC
  5
96D3
330
965E
100
AcDbEntity
  8
1
  6
Continuous
100
AcDbCircle
 10
144.843533
 20
354.767108
 30
0.0
 40
3.5
100
AcDbArc
 50
89.99998199999996
 51
179.9999599999999
  0
ARC
  5
96D4
330
965E
100
AcDbEntity
  8
1
  6
Continuous
100
AcDbCircle
 10
152.843533
 20
354.767108
 30
0.0
 40
3.5
100
AcDbArc
 50
36.465031
 51
89.99998199999996
  0
ARC
  5
96D5
330
965E
100
AcDbEntity
  8
1
  6
Continuous
100
AcDbCircle
 10
161.343533
 20
357.567111
 30
0.0
 40
5.0
100
AcDbArc
 50
216.46501
 51
270.00002
  0
CIRCLE
  5
96D6
330
965E
100
AcDbEntity
  8
1
  6
Continuous
100
AcDbCircle
 10
148.343533
 20
351.267108
 30
0.0
 40
3.25
  0
ARC
  5
96D7
330
965E
100
AcDbEntity
  8
1
  6
Continuous
100
AcDbCircle
 10
207.843533
 20
354.767108
 30
0.0
 40
3.5
100
AcDbArc
 50
0.0
 51
89.99998199999996
  0
ARC
  5
96D8
330
965E
100
AcDbEntity
  8
1
  6
Continuous
100
AcDbCircle
 10
199.843533
 20
354.767108
 30
0.0
 40
3.5
100
AcDbArc
 50
89.99998199999996
 51
143.5349399999997
  0
ARC
  5
96D9
330
965E
100
AcDbEntity
  8
1
  6
Continuous
100
AcDbCircle
 10
191.343533
 20
357.567111
 30
0.0
 40
5.0
100
AcDbArc
 50
269.9999599999998
 51
323.5349699999998
  0
CIRCLE
  5
96DA
330
965E
100
AcDbEntity
  8
1
  6
Continuous
100
AcDbCircle
 10
204.343533
 20
351.267108
 30
0.0
 40
3.25
  0
ARC
  5
96DB
330
965E
100
AcDbEntity
  8
1
  6
Continuous
100
AcDbCircle
 10
144.843533
 20
319.767108
 30
0.0
 40
3.5
100
AcDbArc
 50
179.9999799999999
 51
269.99997
  0
ARC
  5
96DC
330
965E
100
AcDbEntity
  8
1
  6
Continuous
100
AcDbCircle
 10
152.843533
 20
319.767108
 30
0.0
 40
3.5
100
AcDbArc
 50
269.9999599999998
 51
323.53491
  0
ARC
  5
96DD
330
965E
100
AcDbEntity
  8
1
  6
Continuous
100
AcDbCircle
 10
161.343533
 20
316.967105
 30
0.0
 40
5.0
100
AcDbArc
 50
89.99992699999998
 51
143.5349399999997
  0
CIRCLE
  5
96DE
330
965E
100
AcDbEntity
  8
1
  6
Continuous
100
AcDbCircle
 10
148.343533
 20
323.267108
 30
0.0
 40
3.25
  0
ARC
  5
96DF
330
965E
100
AcDbEntity
  8
1
  6
Continuous
100
AcDbCircle
 10
207.843533
 20
319.767108
 30
0.0
 40
3.5
100
AcDbArc
 50
269.9999599999998
 51
359.99995
  0
ARC
  5
96E0
330
965E
100
AcDbEntity
  8
1
  6
Continuous
100
AcDbCircle
 10
199.843533
 20
319.767108
 30
0.0
 40
3.5
100
AcDbArc
 50
216.46501
 51
269.9999599999998
  0
ARC
  5
96E1
330
965E
100
AcDbEntity
  8
1
  6
Continuous
100
AcDbCircle
 10
191.343533
 20
316.967105
 30
0.0
 40
5.0
100
AcDbArc
 50
36.464959
 51
89.99996800000003
  0
CIRCLE
  5
96E2
330
965E
100
AcDbEntity
  8
1
  6
Continuous
100
AcDbCircle
 10
204.343533
 20
323.267108
 30
0.0
 40
3.25
  0
CIRCLE
  5
96E3
330
965E
100
AcDbEntity
  8
1
  6
Continuous
100
AcDbCircle
 10
176.343533
 20
192.267108
 30
0.0
 40
5.5
  0
ARC
  5
96E4
330
965E
100
AcDbEntity
  8
1
  6
Continuous
100
AcDbCircle
 10
156.8713119999999
 20
238.345249
 30
0.0
 40
3.0
100
AcDbArc
 50
9.028648999999999
 51
39.93885199999999
  0
ARC
  5
96E5
330
965E
100
AcDbEntity
  8
1
  6
Continuous
100
AcDbCircle
 10
195.815754
 20
238.345249
 30
0.0
 40
3.0
100
AcDbArc
 50
140.0611199999999
 51
170.97137
  0
ARC
  5
96E6
330
965E
100
AcDbEntity
  8
1
  6
Continuous
100
AcDbCircle
 10
176.343533
 20
192.267108
 30
0.0
 40
9.0
100
AcDbArc
 50
189.0286199999999
 51
350.97136
  0
ARC
  5
96E7
330
965E
100
AcDbEntity
  8
1
  6
Continuous
100
AcDbCircle
 10
155.191346
 20
243.467108
 30
0.0
 40
1.0
100
AcDbArc
 50
39.93887500000001
 51
89.99998199999996
  0
ARC
  5
96E8
330
965E
100
AcDbEntity
  8
1
  6
Continuous
100
AcDbCircle
 10
197.49572
 20
243.467108
 30
0.0
 40
1.0
100
AcDbArc
 50
89.99998199999996
 51
140.0610899999997
  0
ARC
  5
96E9
330
965E
100
AcDbEntity
  8
1
  6
Continuous
100
AcDbCircle
 10
29.043533
 20
242.4671079999999
 30
0.0
 40
2.0
100
AcDbArc
 50
0.0
 51
89.99998199999996
  0
ARC
  5
96EA
330
965E
100
AcDbEntity
  8
1
  6
Continuous
100
AcDbCircle
 10
29.343533
 20
240.4671079999999
 30
0.0
 40
4.0
100
AcDbArc
 50
0.0
 51
89.99998199999996
  0
ARC
  5
96EB
330
965E
100
AcDbEntity
  8
1
  6
Continuous
100
AcDbCircle
 10
63.343533
 20
240.4671079999999
 30
0.0
 40
4.0
100
AcDbArc
 50
89.99998199999996
 51
179.9999599999999
  0
ARC
  5
96EC
330
965E
100
AcDbEntity
  8
1
  6
Continuous
100
AcDbCircle
 10
63.643536
 20
242.4671079999999
 30
0.0
 40
2.0
100
AcDbArc
 50
89.99998199999996
 51
179.9999599999999
  0
ARC
  5
96ED
330
965E
100
AcDbEntity
  8
1
  6
Continuous
100
AcDbCircle
 10
62.64353599999999
 20
196.2671079999998
 30
0.0
 40
2.0
100
AcDbArc
 50
0.0
 51
89.99998199999996
  0
ARC
  5
96EE
330
965E
100
AcDbEntity
  8
1
  6
Continuous
100
AcDbCircle
 10
62.64353599999999
 20
188.267108
 30
0.0
 40
2.0
100
AcDbArc
 50
270.00002
 51
0.0
  0
ARC
  5
96EF
330
965E
100
AcDbEntity
  8
1
  6
Continuous
100
AcDbCircle
 10
28.731033
 20
187.9671049999998
 30
0.0
 40
2.3125
100
AcDbArc
 50
325.79449
 51
34.20541
  0
ARC
  5
96F0
330
965E
100
AcDbEntity
  8
1
  6
Continuous
100
AcDbCircle
 10
19.59353299999998
 20
192.267108
 30
0.0
 40
11.450001
100
AcDbArc
 50
344.8107199999999
 51
15.189285
  0
ARC
  5
96F1
330
965E
100
AcDbEntity
  8
1
  6
Continuous
100
AcDbCircle
 10
28.731033
 20
196.567111
 30
0.0
 40
2.3125
100
AcDbArc
 50
325.79455
 51
34.205461
  0
ARC
  5
96F2
330
965E
100
AcDbEntity
  8
1
  6
Continuous
100
AcDbCircle
 10
29.356033
 20
196.567111
 30
0.0
 40
2.312498999999998
100
AcDbArc
 50
145.7945499999999
 51
214.2054299999998
  0
ARC
  5
96F3
330
965E
100
AcDbEntity
  8
1
  6
Continuous
100
AcDbCircle
 10
38.49352299999999
 20
192.267108
 30
0.0
 40
11.44999799999999
100
AcDbArc
 50
164.81073
 51
195.1892499999999
  0
ARC
  5
96F4
330
965E
100
AcDbEntity
  8
1
  6
Continuous
100
AcDbCircle
 10
29.356033
 20
187.967113
 30
0.0
 40
2.312498999999998
100
AcDbArc
 50
145.7945499999999
 51
214.2054299999998
  0
ARC
  5
96F5
330
965E
100
AcDbEntity
  8
1
  6
Continuous
100
AcDbCircle
 10
172.843533
 20
351.5671109999999
 30
0.0
 40
1.0
100
AcDbArc
 50
359.9999899999998
 51
90.00000300000001
  0
ARC
  5
96F6
330
965E
100
AcDbEntity
  8
1
  6
Continuous
100
AcDbCircle
 10
176.343533
 20
349.267108
 30
0.0
 40
2.499998999999998
100
AcDbArc
 50
179.9999899999999
 51
0.00001
  0
ARC
  5
96F7
330
965E
100
AcDbEntity
  8
1
  6
Continuous
100
AcDbCircle
 10
179.843533
 20
322.9671009999999
 30
0.0
 40
1.0
100
AcDbArc
 50
179.9999899999999
 51
270.0
  0
ARC
  5
96F8
330
965E
100
AcDbEntity
  8
1
  6
Continuous
100
AcDbCircle
 10
172.843533
 20
322.9671009999999
 30
0.0
 40
1.0
100
AcDbArc
 50
270.0
 51
0.000005
  0
ARC
  5
96F9
330
965E
100
AcDbEntity
  8
1
  6
Continuous
100
AcDbCircle
 10
179.843533
 20
351.5671109999999
 30
0.0
 40
1.0
100
AcDbArc
 50
89.99999599999998
 51
180.00001
  0
ARC
  5
96FA
330
965E
100
AcDbEntity
  8
1
  6
Continuous
100
AcDbCircle
 10
176.343533
 20
325.267104
 30
0.0
 40
2.499998999999998
100
AcDbArc
 50
359.9999899999998
 51
180.00001
  0
ARC
  5
96FB
330
965E
100
AcDbEntity
  8
1
  6
Continuous
100
AcDbCircle
 10
179.843533
 20
245.767108
 30
0.0
 40
1.0
100
AcDbArc
 50
89.99999599999998
 51
180.00001
  0
ARC
  5
96FC
330
965E
100
AcDbEntity
  8
1
  6
Continuous
100
AcDbCircle
 10
172.843533
 20
245.767108
 30
0.0
 40
1.0
100
AcDbArc
 50
0.0
 51
90.00000300000001
  0
ARC
  5
96FD
330
965E
100
AcDbEntity
  8
1
  6
Continuous
100
AcDbCircle
 10
36.04353299999999
 20
243.467108
 30
0.0
 40
1.0
100
AcDbArc
 50
90.00000300000001
 51
180.00001
  0
ARC
  5
96FE
330
965E
100
AcDbEntity
  8
1
  6
Continuous
100
AcDbCircle
 10
56.643536
 20
243.467108
 30
0.0
 40
1.0
100
AcDbArc
 50
0.0
 51
90.00000300000001
  0
ARC
  5
96FF
330
965E
100
AcDbEntity
  8
1
  6
Continuous
100
AcDbCircle
 10
62.64353599999999
 20
231.267108
 30
0.0
 40
5.0
100
AcDbArc
 50
179.9999899999999
 51
228.70007
  0
ARC
  5
9700
330
965E
100
AcDbEntity
  8
1
  6
Continuous
100
AcDbCircle
 10
30.043533
 20
231.267108
 30
0.0
 40
5.0
100
AcDbArc
 50
311.2999199999998
 51
0.0
  0
ARC
  5
9701
330
965E
100
AcDbEntity
  8
1
  6
Continuous
100
AcDbCircle
 10
176.343533
 20
234.267108
 30
0.0
 40
2.5
100
AcDbArc
 50
179.9999899999999
 51
0.00001
  0
ARC
  5
9702
330
965E
100
AcDbEntity
  8
1
  6
Continuous
100
AcDbCircle
 10
176.343533
 20
192.267108
 30
0.0
 40
10.74999999999998
100
AcDbArc
 50
155.8752299999999
 51
24.124593
  0
ARC
  5
9703
330
965E
100
AcDbEntity
  8
1
  6
Continuous
100
AcDbCircle
 10
176.343533
 20
192.267108
 30
0.0
 40
18.200001
100
AcDbArc
 50
128.6657899999999
 51
51.33415499999999
  0
ARC
  5
9704
330
965E
100
AcDbEntity
  8
1
  6
Continuous
100
AcDbCircle
 10
176.343533
 20
192.267108
 30
0.0
 40
27.700001
100
AcDbArc
 50
117.9887399999997
 51
62.01121600000001
  0
ARC
  5
9705
330
965E
100
AcDbEntity
  8
1
  6
Continuous
100
AcDbCircle
 10
176.343533
 20
192.267108
 30
0.0
 40
37.5
100
AcDbArc
 50
112.91518
 51
67.084789
  0
ARC
  5
9706
330
965E
100
AcDbEntity
  8
1
  6
Continuous
100
AcDbCircle
 10
54.84353299999999
 20
157.525706
 30
0.0
 40
2.0
100
AcDbArc
 50
280.19985
 51
359.99995
  0
ARC
  5
9707
330
965E
100
AcDbEntity
  8
1
  6
Continuous
100
AcDbCircle
 10
37.843533
 20
157.525706
 30
0.0
 40
2.0
100
AcDbArc
 50
179.9999799999999
 51
259.80007
  0
ARC
  5
9708
330
965E
100
AcDbEntity
  8
1
  6
Continuous
100
AcDbCircle
 10
57.34353299999999
 20
182.517108
 30
0.0
 40
1.0
100
AcDbArc
 50
269.9999599999998
 51
359.99995
  0
ARC
  5
9709
330
965E
100
AcDbEntity
  8
1
  6
Continuous
100
AcDbCircle
 10
35.343533
 20
182.517108
 30
0.0
 40
1.0
100
AcDbArc
 50
180.0000399999998
 51
270.00002
  0
ARC
  5
970A
330
965E
100
AcDbEntity
  8
1
  6
Continuous
100
AcDbCircle
 10
35.343533
 20
202.0171079999999
 30
0.0
 40
1.0
100
AcDbArc
 50
89.99998199999996
 51
179.9999599999999
  0
ARC
  5
970B
330
965E
100
AcDbEntity
  8
1
  6
Continuous
100
AcDbCircle
 10
57.34353299999999
 20
202.0171079999999
 30
0.0
 40
1.0
100
AcDbArc
 50
0.000055
 51
90.000037
  0
ARC
  5
970C
330
965E
100
AcDbEntity
  8
1
  6
Continuous
100
AcDbCircle
 10
37.843533
 20
227.00851
 30
0.0
 40
2.0
100
AcDbArc
 50
100.1999199999999
 51
180.00002
  0
ARC
  5
970D
330
965E
100
AcDbEntity
  8
1
  6
Continuous
100
AcDbCircle
 10
54.84353299999999
 20
227.00851
 30
0.0
 40
2.0
100
AcDbArc
 50
0.000055
 51
79.80015300000005
  0
ARC
  5
970E
330
965E
100
AcDbEntity
  8
1
  6
Continuous
100
AcDbCircle
 10
46.34353299999999
 20
179.767108
 30
0.0
 40
50.0
100
AcDbArc
 50
79.80008500000002
 51
100.1999899999999
  0
LINE
  5
970F
330
965E
100
AcDbEntity
  8
1
  6
Continuous
100
AcDbLine
 10
161.343533
 20
321.967105
 30
0.0
 11
191.343533
 21
321.967105
 31
0.0
  0
ARC
  5
9710
330
965E
100
AcDbEntity
  8
1
  6
Continuous
100
AcDbCircle
 10
46.34353299999999
 20
204.767108
 30
0.0
 40
50.0
100
AcDbArc
 50
259.8000099999998
 51
280.1999149999999
  0
ARC
  5
9711
330
965E
100
AcDbEntity
  8
1
  6
Continuous
100
AcDbCircle
 10
306.3435329999998
 20
179.767108
 30
0.0
 40
50.0
100
AcDbArc
 50
79.80001
 51
100.199915
  0
ARC
  5
9712
330
965E
100
AcDbEntity
  8
1
  6
Continuous
100
AcDbCircle
 10
297.8435329999998
 20
227.00851
 30
0.0
 40
2.0
100
AcDbArc
 50
100.1998469999999
 51
179.999945
  0
ARC
  5
9713
330
965E
100
AcDbEntity
  8
1
  6
Continuous
100
AcDbCircle
 10
314.8435329999998
 20
227.00851
 30
0.0
 40
2.0
100
AcDbArc
 50
359.9999799999998
 51
79.80007999999997
  0
ARC
  5
9714
330
965E
100
AcDbEntity
  8
1
  6
Continuous
100
AcDbCircle
 10
322.643533
 20
231.267108
 30
0.0
 40
5.0
100
AcDbArc
 50
180.0
 51
228.7000799999999
  0
ARC
  5
9715
330
965E
100
AcDbEntity
  8
1
  6
Continuous
100
AcDbCircle
 10
290.0435299999998
 20
231.267108
 30
0.0
 40
5.0
100
AcDbArc
 50
311.2999299999998
 51
0.00001
  0
LINE
  5
9716
330
965E
100
AcDbEntity
  8
4
  6
CENTER
 48
0.8
100
AcDbLine
 10
306.3435329999998
 20
251.7671079999999
 30
0.0
 11
306.3435329999998
 21
149.7595929999999
 31
0.0
  0
LINE
  5
9717
330
965E
100
AcDbEntity
  8
1
  6
Continuous
100
AcDbLine
 10
291.0435299999998
 20
242.4671079999999
 30
0.0
 11
291.0435299999998
 21
184.7671079999997
 31
0.0
  0
LINE
  5
9718
330
965E
100
AcDbEntity
  8
1
  6
Continuous
100
AcDbLine
 10
321.6435329999999
 20
242.4671079999999
 30
0.0
 11
321.6435329999999
 21
184.7671079999997
 31
0.0
  0
LINE
  5
9719
330
965E
100
AcDbEntity
  8
1
  6
Continuous
100
AcDbLine
 10
293.343533
 20
244.4671079999999
 30
0.0
 11
293.343533
 21
192.267108
 31
0.0
  0
LINE
  5
971A
330
965E
100
AcDbEntity
  8
1
  6
Continuous
100
AcDbLine
 10
319.3435329999998
 20
244.4671079999999
 30
0.0
 11
319.3435329999998
 21
184.7671079999997
 31
0.0
  0
LINE
  5
971B
330
965E
100
AcDbEntity
  8
1
  6
Continuous
100
AcDbLine
 10
294.3435329999998
 20
189.017108
 30
0.0
 11
293.343533
 21
189.017108
 31
0.0
  0
LINE
  5
971C
330
965E
100
AcDbEntity
  8
1
  6
Continuous
100
AcDbLine
 10
294.3435329999998
 20
195.517108
 30
0.0
 11
293.343533
 21
195.517108
 31
0.0
  0
LINE
  5
971D
330
965E
100
AcDbEntity
  8
4
  6
CENTER
 48
0.8
100
AcDbLine
 10
333.243533
 20
192.267108
 30
0.0
 11
283.0435299999998
 21
192.267108
 31
0.0
  0
LINE
  5
971E
330
965E
100
AcDbEntity
  8
1
  6
Continuous
100
AcDbLine
 10
295.843533
 20
157.525706
 30
0.0
 11
295.843533
 21
227.00851
 31
0.0
  0
LINE
  5
971F
330
965E
100
AcDbEntity
  8
1
  6
Continuous
100
AcDbLine
 10
294.3435329999998
 20
182.517108
 30
0.0
 11
294.3435329999998
 21
202.0171079999999
 31
0.0
  0
LINE
  5
9720
330
965E
100
AcDbEntity
  8
1
  6
Continuous
100
AcDbLine
 10
316.8435329999998
 20
157.525706
 30
0.0
 11
316.8435329999998
 21
227.00851
 31
0.0
  0
LINE
  5
9721
330
965E
100
AcDbEntity
  8
1
  6
Continuous
100
AcDbLine
 10
318.343533
 20
182.517108
 30
0.0
 11
318.343533
 21
202.0171079999999
 31
0.0
  0
ARC
  5
9722
330
965E
100
AcDbEntity
  8
1
  6
Continuous
100
AcDbCircle
 10
306.3435329999998
 20
204.767108
 30
0.0
 40
50.0
100
AcDbArc
 50
259.800085
 51
280.19999
  0
ARC
  5
9723
330
965E
100
AcDbEntity
  8
1
  6
Continuous
100
AcDbCircle
 10
314.8435329999998
 20
157.525706
 30
0.0
 40
2.0
100
AcDbArc
 50
280.1999299999998
 51
0.00002
  0
ARC
  5
9724
330
965E
100
AcDbEntity
  8
1
  6
Continuous
100
AcDbCircle
 10
297.8435329999998
 20
157.525706
 30
0.0
 40
2.0
100
AcDbArc
 50
180.0000499999999
 51
259.8001499999999
  0
ARC
  5
9725
330
965E
100
AcDbEntity
  8
1
  6
Continuous
100
AcDbCircle
 10
317.3435329999998
 20
182.517108
 30
0.0
 40
1.0
100
AcDbArc
 50
269.99998
 51
359.9999599999999
  0
LINE
  5
9726
330
965E
100
AcDbEntity
  8
1
  6
Continuous
100
AcDbLine
 10
316.8435329999998
 20
181.517108
 30
0.0
 11
317.3435329999998
 21
181.517108
 31
0.0
  0
LINE
  5
9727
330
965E
100
AcDbEntity
  8
1
  6
Continuous
100
AcDbLine
 10
321.6435329999999
 20
184.7671079999997
 30
0.0
 11
319.3435329999998
 21
184.7671079999997
 31
0.0
  0
ARC
  5
9728
330
965E
100
AcDbEntity
  8
1
  6
Continuous
100
AcDbCircle
 10
295.3435329999998
 20
182.517108
 30
0.0
 40
1.0
100
AcDbArc
 50
180.0000499999999
 51
270.0000399999999
  0
LINE
  5
9729
330
965E
100
AcDbEntity
  8
1
  6
Continuous
100
AcDbLine
 10
295.843533
 20
181.517108
 30
0.0
 11
295.3435329999998
 21
181.517108
 31
0.0
  0
LINE
  5
972A
330
965E
100
AcDbEntity
  8
1
  6
Continuous
100
AcDbLine
 10
326.243543
 20
196.0671419999999
 30
0.0
 11
325.2435429999998
 21
197.8671139999999
 31
0.0
  0
LINE
  5
972B
330
965E
100
AcDbEntity
  8
1
  6
Continuous
100
AcDbLine
 10
326.243533
 20
188.467029
 30
0.0
 11
325.243533
 21
186.6671099999997
 31
0.0
  0
LINE
  5
972C
330
965E
100
AcDbEntity
  8
1
  6
Continuous
100
AcDbLine
 10
326.243533
 20
196.067111
 30
0.0
 11
326.243533
 21
188.4671129999999
 31
0.0
  0
ARC
  5
972D
330
965E
100
AcDbEntity
  8
1
  6
Continuous
100
AcDbCircle
 10
317.3435329999998
 20
202.0171079999999
 30
0.0
 40
1.0
100
AcDbArc
 50
0.00004
 51
90.00001800000005
  0
ARC
  5
972E
330
965E
100
AcDbEntity
  8
1
  6
Continuous
100
AcDbCircle
 10
323.331033
 20
187.967113
 30
0.0
 40
2.312498999999998
100
AcDbArc
 50
325.79457
 51
34.20545
  0
ARC
  5
972F
330
965E
100
AcDbEntity
  8
1
  6
Continuous
100
AcDbCircle
 10
314.1935429999998
 20
192.267108
 30
0.0
 40
11.44999799999999
100
AcDbArc
 50
344.8107499999999
 51
15.18927
  0
ARC
  5
9730
330
965E
100
AcDbEntity
  8
1
  6
Continuous
100
AcDbCircle
 10
323.331033
 20
196.567111
 30
0.0
 40
2.312498999999998
100
AcDbArc
 50
325.79457
 51
34.20545
  0
ARC
  5
9731
330
965E
100
AcDbEntity
  8
1
  6
Continuous
100
AcDbCircle
 10
323.9560329999998
 20
196.567111
 30
0.0
 40
2.3125
100
AcDbArc
 50
145.7945389999999
 51
214.2054499999999
  0
ARC
  5
9732
330
965E
100
AcDbEntity
  8
1
  6
Continuous
100
AcDbCircle
 10
333.0935329999998
 20
192.267108
 30
0.0
 40
11.450001
100
AcDbArc
 50
164.8107149999999
 51
195.1892799999999
  0
ARC
  5
9733
330
965E
100
AcDbEntity
  8
1
  6
Continuous
100
AcDbCircle
 10
323.9560329999998
 20
187.9671049999998
 30
0.0
 40
2.3125
100
AcDbArc
 50
145.79459
 51
214.2055099999998
  0
LINE
  5
9734
330
965E
100
AcDbEntity
  8
1
  6
Continuous
100
AcDbLine
 10
316.8435329999998
 20
203.017108
 30
0.0
 11
317.3435329999998
 21
203.017108
 31
0.0
  0
LINE
  5
9735
330
965E
100
AcDbEntity
  8
1
  6
Continuous
100
AcDbLine
 10
322.120333
 20
189.267108
 30
0.0
 11
325.243533
 21
189.267108
 31
0.0
  0
LINE
  5
9736
330
965E
100
AcDbEntity
  8
1
  6
Continuous
100
AcDbLine
 10
322.043533
 20
186.6671099999997
 30
0.0
 11
325.243533
 21
186.6671099999997
 31
0.0
  0
LINE
  5
9737
330
965E
100
AcDbEntity
  8
1
  6
Continuous
100
AcDbLine
 10
322.043533
 20
195.267108
 30
0.0
 11
325.243533
 21
195.267108
 31
0.0
  0
LINE
  5
9738
330
965E
100
AcDbEntity
  8
1
  6
Continuous
100
AcDbLine
 10
322.043533
 20
197.867106
 30
0.0
 11
325.243533
 21
197.867106
 31
0.0
  0
LINE
  5
9739
330
965E
100
AcDbEntity
  8
1
  6
Continuous
100
AcDbLine
 10
319.3435329999998
 20
189.017108
 30
0.0
 11
318.343533
 21
189.017108
 31
0.0
  0
LINE
  5
973A
330
965E
100
AcDbEntity
  8
1
  6
Continuous
100
AcDbLine
 10
319.3435329999998
 20
195.517108
 30
0.0
 11
318.343533
 21
195.517108
 31
0.0
  0
ARC
  5
973B
330
965E
100
AcDbEntity
  8
1
  6
Continuous
100
AcDbCircle
 10
295.3435329999998
 20
202.0171079999999
 30
0.0
 40
1.0
100
AcDbArc
 50
89.99996299999997
 51
179.999945
  0
LINE
  5
973C
330
965E
100
AcDbEntity
  8
1
  6
Continuous
100
AcDbLine
 10
295.843533
 20
203.017108
 30
0.0
 11
295.3435329999998
 21
203.017108
 31
0.0
  0
LINE
  5
973D
330
965E
100
AcDbEntity
  8
1
  6
Continuous
100
AcDbLine
 10
293.343533
 20
192.267108
 30
0.0
 11
293.343533
 21
184.7671079999997
 31
0.0
  0
LINE
  5
973E
330
965E
100
AcDbEntity
  8
1
  6
Continuous
100
AcDbLine
 10
291.0435299999998
 20
184.7671079999997
 30
0.0
 11
293.343533
 21
184.7671079999997
 31
0.0
  0
ARC
  5
973F
330
965E
100
AcDbEntity
  8
1
  6
Continuous
100
AcDbCircle
 10
290.0435299999998
 20
188.267108
 30
0.0
 40
2.0
100
AcDbArc
 50
180.0
 51
269.99998
  0
ARC
  5
9740
330
965E
100
AcDbEntity
  8
1
  6
Continuous
100
AcDbCircle
 10
290.0435299999998
 20
196.2671079999998
 30
0.0
 40
2.0
100
AcDbArc
 50
90.00001800000005
 51
180.0
  0
LINE
  5
9741
330
965E
100
AcDbEntity
  8
1
  6
Continuous
100
AcDbLine
 10
291.0435299999998
 20
198.267108
 30
0.0
 11
290.0435299999998
 21
198.267108
 31
0.0
  0
LINE
  5
9742
330
965E
100
AcDbEntity
  8
1
  6
Continuous
100
AcDbLine
 10
291.0435299999998
 20
186.267108
 30
0.0
 11
290.0435299999998
 21
186.267108
 31
0.0
  0
LINE
  5
9743
330
965E
100
AcDbEntity
  8
1
  6
Continuous
100
AcDbLine
 10
288.0435299999998
 20
196.2671079999998
 30
0.0
 11
288.0435299999998
 21
188.267108
 31
0.0
  0
ARC
  5
9744
330
965E
100
AcDbEntity
  8
1
  6
Continuous
100
AcDbCircle
 10
289.3435329999998
 20
240.4671079999999
 30
0.0
 40
4.0
100
AcDbArc
 50
0.00004
 51
90.00001800000005
  0
LINE
  5
9745
330
965E
100
AcDbEntity
  8
1
  6
Continuous
100
AcDbLine
 10
327.3435329999998
 20
244.4671079999999
 30
0.0
 11
285.3435329999998
 21
244.4671079999999
 31
0.0
  0
LINE
  5
9746
330
965E
100
AcDbEntity
  8
1
  6
Continuous
100
AcDbLine
 10
327.3435329999998
 20
246.767108
 30
0.0
 11
285.3435329999998
 21
246.767108
 31
0.0
  0
LINE
  5
9747
330
965E
100
AcDbEntity
  8
1
  6
Continuous
100
AcDbLine
 10
327.3435329999998
 20
246.767108
 30
0.0
 11
327.3435329999998
 21
244.4671079999999
 31
0.0
  0
ARC
  5
9748
330
965E
100
AcDbEntity
  8
1
  6
Continuous
100
AcDbCircle
 10
316.643533
 20
243.467108
 30
0.0
 40
1.0
100
AcDbArc
 50
359.9999899999998
 51
89.99999700000001
  0
ARC
  5
9749
330
965E
100
AcDbEntity
  8
1
  6
Continuous
100
AcDbCircle
 10
323.3435329999998
 20
240.4671079999999
 30
0.0
 40
4.0
100
AcDbArc
 50
90.00001800000005
 51
180.0
  0
ARC
  5
974A
330
965E
100
AcDbEntity
  8
1
  6
Continuous
100
AcDbCircle
 10
323.6435329999999
 20
242.4671079999999
 30
0.0
 40
2.0
100
AcDbArc
 50
90.00001800000005
 51
180.0
  0
LINE
  5
974B
330
965E
100
AcDbEntity
  8
1
  6
Continuous
100
AcDbLine
 10
317.6435329999999
 20
243.467108
 30
0.0
 11
317.6435329999999
 21
231.267108
 31
0.0
  0
LINE
  5
974C
330
965E
100
AcDbEntity
  8
4
  6
CENTER
 48
0.8
100
AcDbLine
 10
320.343533
 20
251.7671079999999
 30
0.0
 11
320.343533
 21
239.467108
 31
0.0
  0
ARC
  5
974D
330
965E
100
AcDbEntity
  8
1
  6
Continuous
100
AcDbCircle
 10
296.0435299999998
 20
243.467108
 30
0.0
 40
1.0
100
AcDbArc
 50
89.99999700000001
 51
180.0
  0
LINE
  5
974E
330
965E
100
AcDbEntity
  8
1
  6
Continuous
100
AcDbLine
 10
295.0435299999998
 20
243.467108
 30
0.0
 11
295.0435299999998
 21
231.267108
 31
0.0
  0
ARC
  5
974F
330
965E
100
AcDbEntity
  8
1
  6
Continuous
100
AcDbCircle
 10
289.0435299999998
 20
242.4671079999999
 30
0.0
 40
2.0
100
AcDbArc
 50
0.00004
 51
90.00001800000005
  0
LINE
  5
9750
330
965E
100
AcDbEntity
  8
1
  6
Continuous
100
AcDbLine
 10
285.3435329999998
 20
246.767108
 30
0.0
 11
285.3435329999998
 21
244.4671079999999
 31
0.0
  0
LINE
  5
9751
330
965E
100
AcDbEntity
  8
4
  6
CENTER
 48
0.8
100
AcDbLine
 10
292.3435329999998
 20
251.7671079999999
 30
0.0
 11
292.3435329999998
 21
239.467108
 31
0.0
  0
ARC
  5
9752
330
965E
100
AcDbEntity
  8
1
  6
Continuous
100
AcDbCircle
 10
436.3435329999998
 20
192.267108
 30
0.0
 40
37.5
100
AcDbArc
 50
112.915211
 51
67.08482
  0
LINE
  5
9753
330
965E
100
AcDbEntity
  8
1
  6
Continuous
100
AcDbLine
 10
419.8341219999998
 20
238.816029
 30
0.0
 11
427.4550249999998
 21
190.8547429999999
 31
0.0
  0
LINE
  5
9754
330
965E
100
AcDbEntity
  8
1
  6
Continuous
100
AcDbLine
 10
445.232024
 20
190.854754
 30
0.0
 11
452.852925
 21
238.816035
 31
0.0
  0
LINE
  5
9755
330
965E
100
AcDbEntity
  8
4
  6
CENTER
 48
0.8
100
AcDbLine
 10
436.3435329999998
 20
251.7671079999999
 30
0.0
 11
436.3435329999998
 21
149.6671169999999
 31
0.0
  0
ARC
  5
9756
330
965E
100
AcDbEntity
  8
1
  6
Continuous
100
AcDbCircle
 10
436.3435329999998
 20
192.267108
 30
0.0
 40
27.700001
100
AcDbArc
 50
117.988784
 51
62.01126000000001
  0
ARC
  5
9757
330
965E
100
AcDbEntity
  8
1
  6
Continuous
100
AcDbCircle
 10
436.3435329999998
 20
192.267108
 30
0.0
 40
18.200001
100
AcDbArc
 50
128.665845
 51
51.33421
  0
ARC
  5
9758
330
965E
100
AcDbEntity
  8
1
  6
Continuous
100
AcDbCircle
 10
436.3435329999998
 20
192.267108
 30
0.0
 40
10.74999999999998
100
AcDbArc
 50
155.8754069999999
 51
24.12476999999999
  0
LINE
  5
9759
330
965E
100
AcDbEntity
  8
4
  6
CENTER
 48
0.8
100
AcDbLine
 10
478.8435329999998
 20
192.267108
 30
0.0
 11
393.8435329999999
 21
192.267108
 31
0.0
  0
ARC
  5
975A
330
965E
100
AcDbEntity
  8
1
  6
Continuous
100
AcDbCircle
 10
436.3435329999998
 20
192.267108
 30
0.0
 40
9.0
100
AcDbArc
 50
189.0286399999999
 51
350.9713799999998
  0
LINE
  5
975B
330
965E
100
AcDbEntity
  8
1
  6
Continuous
100
AcDbLine
 10
471.343533
 20
246.767108
 30
0.0
 11
401.343533
 21
246.767108
 31
0.0
  0
LINE
  5
975C
330
965E
100
AcDbEntity
  8
1
  6
Continuous
100
AcDbLine
 10
471.343533
 20
244.4671079999999
 30
0.0
 11
457.49572
 21
244.4671079999999
 31
0.0
  0
LINE
  5
975D
330
965E
100
AcDbEntity
  8
4
  6
CENTER
 48
0.8
100
AcDbLine
 10
464.3435329999999
 20
251.7671079999999
 30
0.0
 11
464.3435329999999
 21
239.467108
 31
0.0
  0
LINE
  5
975E
330
965E
100
AcDbEntity
  8
1
  6
Continuous
100
AcDbLine
 10
471.343533
 20
246.767108
 30
0.0
 11
471.343533
 21
244.4671079999999
 31
0.0
  0
ARC
  5
975F
330
965E
100
AcDbEntity
  8
1
  6
Continuous
100
AcDbCircle
 10
457.49572
 20
243.467108
 30
0.0
 40
1.0
100
AcDbArc
 50
90.00001800000005
 51
140.061125
  0
ARC
  5
9760
330
965E
100
AcDbEntity
  8
1
  6
Continuous
100
AcDbCircle
 10
455.815754
 20
238.345249
 30
0.0
 40
3.0
100
AcDbArc
 50
140.061148
 51
170.971351
  0
LINE
  5
9761
330
965E
100
AcDbEntity
  8
1
  6
Continuous
100
AcDbLine
 10
456.728991
 20
244.109077
 30
0.0
 11
453.515566
 21
240.271157
 31
0.0
  0
ARC
  5
9762
330
965E
100
AcDbEntity
  8
1
  6
Continuous
100
AcDbCircle
 10
436.3435329999998
 20
234.267108
 30
0.0
 40
2.5
100
AcDbArc
 50
179.9999899999999
 51
0.00001
  0
ARC
  5
9763
330
965E
100
AcDbEntity
  8
1
  6
Continuous
100
AcDbCircle
 10
439.8435329999998
 20
245.767108
 30
0.0
 40
1.0
100
AcDbArc
 50
89.99999700000001
 51
180.0
  0
ARC
  5
9764
330
965E
100
AcDbEntity
  8
1
  6
Continuous
100
AcDbCircle
 10
432.8435329999998
 20
245.767108
 30
0.0
 40
1.0
100
AcDbArc
 50
359.9999899999998
 51
90.00000400000002
  0
LINE
  5
9765
330
965E
100
AcDbEntity
  8
1
  6
Continuous
100
AcDbLine
 10
438.843533
 20
234.267108
 30
0.0
 11
438.843533
 21
245.767108
 31
0.0
  0
LINE
  5
9766
330
965E
100
AcDbEntity
  8
1
  6
Continuous
100
AcDbLine
 10
433.843533
 20
245.267107
 30
0.0
 11
438.843533
 21
245.267107
 31
0.0
  0
LINE
  5
9767
330
965E
100
AcDbEntity
  8
1
  6
Continuous
100
AcDbLine
 10
433.843533
 20
234.267108
 30
0.0
 11
433.843533
 21
245.767108
 31
0.0
  0
LINE
  5
9768
330
965E
100
AcDbEntity
  8
1
  6
Continuous
100
AcDbLine
 10
401.343533
 20
244.4671079999999
 30
0.0
 11
415.191346
 21
244.4671079999999
 31
0.0
  0
ARC
  5
9769
330
965E
100
AcDbEntity
  8
1
  6
Continuous
100
AcDbCircle
 10
415.191346
 20
243.467108
 30
0.0
 40
1.0
100
AcDbArc
 50
39.93890999999999
 51
90.00001800000005
  0
ARC
  5
976A
330
965E
100
AcDbEntity
  8
1
  6
Continuous
100
AcDbCircle
 10
416.8713119999998
 20
238.345249
 30
0.0
 40
3.0
100
AcDbArc
 50
9.028629999999999
 51
39.93888
  0
LINE
  5
976B
330
965E
100
AcDbEntity
  8
1
  6
Continuous
100
AcDbLine
 10
415.9580769999998
 20
244.109079
 30
0.0
 11
419.171502
 21
240.271159
 31
0.0
  0
LINE
  5
976C
330
965E
100
AcDbEntity
  8
4
  6
CENTER
 48
0.8
100
AcDbLine
 10
408.3435329999998
 20
251.7671079999999
 30
0.0
 11
408.3435329999998
 21
239.467108
 31
0.0
  0
LINE
  5
976D
330
965E
100
AcDbEntity
  8
1
  6
Continuous
100
AcDbLine
 10
401.343533
 20
246.767108
 30
0.0
 11
401.343533
 21
244.4671079999999
 31
0.0
  0
ARC
  5
976E
330
965E
100
AcDbEntity
  8
1
  6
Continuous
100
AcDbCircle
 10
199.843533
 20
81.76710799999998
 30
0.0
 40
3.5
100
AcDbArc
 50
90.00004000000002
 51
143.53499
  0
ARC
  5
976F
330
965E
100
AcDbEntity
  8
1
  6
Continuous
100
AcDbCircle
 10
207.843533
 20
81.76710799999998
 30
0.0
 40
3.5
100
AcDbArc
 50
0.00005
 51
90.00004000000002
  0
ARC
  5
9770
330
965E
100
AcDbEntity
  8
1
  6
Continuous
100
AcDbCircle
 10
152.843533
 20
81.76710799999998
 30
0.0
 40
3.5
100
AcDbArc
 50
36.46509
 51
90.00004000000002
  0
ARC
  5
9771
330
965E
100
AcDbEntity
  8
1
  6
Continuous
100
AcDbCircle
 10
144.843533
 20
81.76710799999998
 30
0.0
 40
3.5
100
AcDbArc
 50
90.00003000000004
 51
180.00002
  0
LINE
  5
9772
330
965E
100
AcDbEntity
  8
1
  6
Continuous
100
AcDbLine
 10
144.843533
 20
85.26710799999998
 30
0.0
 11
152.843533
 21
85.26710799999998
 31
0.0
  0
LINE
  5
9773
330
965E
100
AcDbEntity
  8
1
  6
Continuous
100
AcDbLine
 10
207.843533
 20
85.26710799999998
 30
0.0
 11
199.843533
 21
85.26710799999998
 31
0.0
  0
LINE
  5
9774
330
965E
100
AcDbEntity
  8
1
  6
Continuous
100
AcDbLine
 10
161.343533
 20
79.56711099999998
 30
0.0
 11
191.343533
 21
79.56711099999998
 31
0.0
  0
LINE
  5
9775
330
965E
100
AcDbEntity
  8
1
  6
Continuous
100
AcDbLine
 10
161.343533
 20
48.967105
 30
0.0
 11
191.343533
 21
48.967105
 31
0.0
  0
LINE
  5
9776
330
965E
100
AcDbEntity
  8
4
  6
CENTER
 48
0.8
100
AcDbLine
 10
133.843533
 20
64.26710799999999
 30
0.0
 11
218.843533
 21
64.26710799999999
 31
0.0
  0
ARC
  5
9777
330
965E
100
AcDbEntity
  8
1
  6
Continuous
100
AcDbCircle
 10
152.843533
 20
46.767108
 30
0.0
 40
3.5
100
AcDbArc
 50
270.0000179999999
 51
323.534969
  0
LINE
  5
9778
330
965E
100
AcDbEntity
  8
1
  6
Continuous
100
AcDbLine
 10
141.343533
 20
81.76710799999998
 30
0.0
 11
141.343533
 21
74.75032
 31
0.0
  0
CIRCLE
  5
9779
330
965E
100
AcDbEntity
  8
1
  6
Continuous
100
AcDbCircle
 10
148.343533
 20
78.26710799999998
 30
0.0
 40
3.25
  0
LINE
  5
977A
330
965E
100
AcDbEntity
  8
4
  6
CENTER
 48
0.8
100
AcDbLine
 10
148.343533
 20
83.26710799999998
 30
0.0
 11
148.343533
 21
73.26710799999998
 31
0.0
  0
LINE
  5
977B
330
965E
100
AcDbEntity
  8
4
  6
CENTER
 48
0.8
100
AcDbLine
 10
153.343533
 20
78.26710799999998
 30
0.0
 11
143.343533
 21
78.26710799999998
 31
0.0
  0
CIRCLE
  5
977C
330
965E
100
AcDbEntity
  8
1
  6
Continuous
100
AcDbCircle
 10
148.343533
 20
50.267108
 30
0.0
 40
3.25
  0
ARC
  5
977D
330
965E
100
AcDbEntity
  8
1
  6
Continuous
100
AcDbCircle
 10
144.843533
 20
46.767108
 30
0.0
 40
3.5
100
AcDbArc
 50
180.0000399999998
 51
270.0000179999999
  0
LINE
  5
977E
330
965E
100
AcDbEntity
  8
4
  6
CENTER
 48
0.8
100
AcDbLine
 10
148.343533
 20
45.267108
 30
0.0
 11
148.343533
 21
55.267108
 31
0.0
  0
LINE
  5
977F
330
965E
100
AcDbEntity
  8
4
  6
CENTER
 48
0.8
100
AcDbLine
 10
153.343533
 20
50.267108
 30
0.0
 11
143.343533
 21
50.267108
 31
0.0
  0
LINE
  5
9780
330
965E
100
AcDbEntity
  8
1
  6
Continuous
100
AcDbLine
 10
144.843533
 20
43.26710799999999
 30
0.0
 11
152.843533
 21
43.26710799999999
 31
0.0
  0
LINE
  5
9781
330
965E
100
AcDbEntity
  8
4
  6
CENTER
 48
0.8
100
AcDbLine
 10
176.343533
 20
37.367108
 30
0.0
 11
176.343533
 21
87.56711099999998
 31
0.0
  0
ARC
  5
9782
330
965E
100
AcDbEntity
  8
1
  6
Continuous
100
AcDbCircle
 10
161.343533
 20
84.56711099999997
 30
0.0
 40
5.0
100
AcDbArc
 50
216.4650599999999
 51
270.0000729999998
  0
LINE
  5
9783
330
965E
100
AcDbEntity
  8
1
  6
Continuous
100
AcDbLine
 10
157.322435
 20
81.59545799999998
 30
0.0
 11
155.6583019999998
 21
83.84728100000002
 31
0.0
  0
ARC
  5
9784
330
965E
100
AcDbEntity
  8
1
  6
Continuous
100
AcDbCircle
 10
161.343533
 20
43.967105
 30
0.0
 40
5.0
100
AcDbArc
 50
89.99997999999996
 51
143.53499
  0
LINE
  5
9785
330
965E
100
AcDbEntity
  8
1
  6
Continuous
100
AcDbLine
 10
157.322431
 20
46.938769
 30
0.0
 11
155.6583
 21
44.686946
 31
0.0
  0
LINE
  5
9786
330
965E
100
AcDbEntity
  8
1
  6
Continuous
100
AcDbLine
 10
211.343533
 20
81.76710799999998
 30
0.0
 11
211.343533
 21
74.75032
 31
0.0
  0
CIRCLE
  5
9787
330
965E
100
AcDbEntity
  8
1
  6
Continuous
100
AcDbCircle
 10
204.343533
 20
78.26710799999998
 30
0.0
 40
3.25
  0
LINE
  5
9788
330
965E
100
AcDbEntity
  8
4
  6
CENTER
 48
0.8
100
AcDbLine
 10
199.343533
 20
78.26710799999998
 30
0.0
 11
209.343533
 21
78.26710799999998
 31
0.0
  0
ARC
  5
9789
330
965E
100
AcDbEntity
  8
1
  6
Continuous
100
AcDbCircle
 10
191.343533
 20
84.56711099999997
 30
0.0
 40
5.0
100
AcDbArc
 50
270.000032
 51
323.5350409999998
  0
LINE
  5
978A
330
965E
100
AcDbEntity
  8
1
  6
Continuous
100
AcDbLine
 10
195.364632
 20
81.59544699999996
 30
0.0
 11
197.0287669999999
 21
83.847274
 31
0.0
  0
LINE
  5
978B
330
965E
100
AcDbEntity
  8
4
  6
CENTER
 48
0.8
100
AcDbLine
 10
204.343533
 20
83.26710799999998
 30
0.0
 11
204.343533
 21
73.26710799999998
 31
0.0
  0
CIRCLE
  5
978C
330
965E
100
AcDbEntity
  8
1
  6
Continuous
100
AcDbCircle
 10
204.343533
 20
50.267108
 30
0.0
 40
3.25
  0
LINE
  5
978D
330
965E
100
AcDbEntity
  8
4
  6
CENTER
 48
0.8
100
AcDbLine
 10
199.343533
 20
50.267108
 30
0.0
 11
209.343533
 21
50.267108
 31
0.0
  0
LINE
  5
978E
330
965E
100
AcDbEntity
  8
1
  6
Continuous
100
AcDbLine
 10
207.843533
 20
43.26710799999999
 30
0.0
 11
199.843533
 21
43.26710799999999
 31
0.0
  0
ARC
  5
978F
330
965E
100
AcDbEntity
  8
1
  6
Continuous
100
AcDbCircle
 10
191.343533
 20
43.967105
 30
0.0
 40
5.0
100
AcDbArc
 50
36.46503
 51
90.00004000000002
  0
ARC
  5
9790
330
965E
100
AcDbEntity
  8
1
  6
Continuous
100
AcDbCircle
 10
199.843533
 20
46.767108
 30
0.0
 40
3.5
100
AcDbArc
 50
216.4650599999999
 51
270.0000179999999
  0
LINE
  5
9791
330
965E
100
AcDbEntity
  8
1
  6
Continuous
100
AcDbLine
 10
195.3646239999999
 20
46.938769
 30
0.0
 11
197.028759
 21
44.686946
 31
0.0
  0
ARC
  5
9792
330
965E
100
AcDbEntity
  8
1
  6
Continuous
100
AcDbCircle
 10
207.843533
 20
46.767108
 30
0.0
 40
3.5
100
AcDbArc
 50
270.0000179999999
 51
0.0
  0
LINE
  5
9793
330
965E
100
AcDbEntity
  8
4
  6
CENTER
 48
0.8
100
AcDbLine
 10
204.343533
 20
45.267108
 30
0.0
 11
204.343533
 21
55.267108
 31
0.0
  0
LINE
  5
9794
330
965E
100
AcDbEntity
  8
1
  6
Continuous
100
AcDbLine
 10
172.343533
 20
82.56711099999998
 30
0.0
 11
180.343533
 21
82.56711099999998
 31
0.0
  0
LINE
  5
9795
330
965E
100
AcDbEntity
  8
1
  6
Continuous
100
AcDbLine
 10
186.093533
 20
76.26710799999997
 30
0.0
 11
166.593533
 21
76.26710799999997
 31
0.0
  0
LINE
  5
9796
330
965E
100
AcDbEntity
  8
1
  6
Continuous
100
AcDbLine
 10
160.958075
 20
77.26710799999998
 30
0.0
 11
192.49572
 21
77.26710799999998
 31
0.0
  0
LINE
  5
9797
330
965E
100
AcDbEntity
  8
1
  6
Continuous
100
AcDbLine
 10
186.093533
 20
52.267108
 30
0.0
 11
166.593533
 21
52.267108
 31
0.0
  0
LINE
  5
9798
330
965E
100
AcDbEntity
  8
1
  6
Continuous
100
AcDbLine
 10
211.084935
 20
74.76710799999998
 30
0.0
 11
141.602131
 21
74.76710799999998
 31
0.0
  0
LINE
  5
9799
330
965E
100
AcDbEntity
  8
1
  6
Continuous
100
AcDbLine
 10
211.084935
 20
53.76710799999999
 30
0.0
 11
141.602131
 21
53.76710799999999
 31
0.0
  0
ARC
  5
979A
330
965E
100
AcDbEntity
  8
1
  6
Continuous
100
AcDbCircle
 10
172.343533
 20
80.56711099999999
 30
0.0
 40
2.0
100
AcDbArc
 50
90.0
 51
179.999982
  0
ARC
  5
979B
330
965E
100
AcDbEntity
  8
1
  6
Continuous
100
AcDbCircle
 10
188.843533
 20
64.26710799999999
 30
0.0
 40
50.0
100
AcDbArc
 50
169.8000849999999
 51
190.1999899999999
  0
ARC
  5
979C
330
965E
100
AcDbEntity
  8
1
  6
Continuous
100
AcDbCircle
 10
141.602131
 20
55.76710799999999
 30
0.0
 40
2.0
100
AcDbArc
 50
190.1999199999999
 51
270.00002
  0
ARC
  5
979D
330
965E
100
AcDbEntity
  8
1
  6
Continuous
100
AcDbCircle
 10
141.602131
 20
72.76710799999998
 30
0.0
 40
2.0
100
AcDbArc
 50
90.00005499999994
 51
169.8001529999999
  0
ARC
  5
979E
330
965E
100
AcDbEntity
  8
1
  6
Continuous
100
AcDbCircle
 10
166.593533
 20
53.26710799999999
 30
0.0
 40
1.0
100
AcDbArc
 50
179.999982
 51
269.9999599999998
  0
LINE
  5
979F
330
965E
100
AcDbEntity
  8
1
  6
Continuous
100
AcDbLine
 10
165.593533
 20
53.76710799999999
 30
0.0
 11
165.593533
 21
53.26710799999999
 31
0.0
  0
LINE
  5
97A0
330
965E
100
AcDbEntity
  8
1
  6
Continuous
100
AcDbLine
 10
173.093533
 20
51.267108
 30
0.0
 11
173.093533
 21
52.267108
 31
0.0
  0
LINE
  5
97A1
330
965E
100
AcDbEntity
  8
1
  6
Continuous
100
AcDbLine
 10
165.593533
 20
74.76710799999998
 30
0.0
 11
165.593533
 21
75.26710799999998
 31
0.0
  0
LINE
  5
97A2
330
965E
100
AcDbEntity
  8
1
  6
Continuous
100
AcDbLine
 10
173.093533
 20
76.26710799999997
 30
0.0
 11
173.093533
 21
77.26710799999998
 31
0.0
  0
ARC
  5
97A3
330
965E
100
AcDbEntity
  8
1
  6
Continuous
100
AcDbCircle
 10
166.593533
 20
75.26710799999998
 30
0.0
 40
1.0
100
AcDbArc
 50
90.00005499999994
 51
180.000037
  0
LINE
  5
97A4
330
965E
100
AcDbEntity
  8
1
  6
Continuous
100
AcDbLine
 10
170.343533
 20
79.56711099999998
 30
0.0
 11
170.343533
 21
80.56711099999999
 31
0.0
  0
ARC
  5
97A5
330
965E
100
AcDbEntity
  8
1
  6
Continuous
100
AcDbCircle
 10
180.343533
 20
80.56711099999999
 30
0.0
 40
2.0
100
AcDbArc
 50
0.00002
 51
90.0
  0
LINE
  5
97A6
330
965E
100
AcDbEntity
  8
1
  6
Continuous
100
AcDbLine
 10
179.593533
 20
51.267108
 30
0.0
 11
179.593533
 21
52.267108
 31
0.0
  0
ARC
  5
97A7
330
965E
100
AcDbEntity
  8
1
  6
Continuous
100
AcDbCircle
 10
186.093533
 20
53.26710799999999
 30
0.0
 40
1.0
100
AcDbArc
 50
270.0000399999999
 51
0.00002
  0
LINE
  5
97A8
330
965E
100
AcDbEntity
  8
1
  6
Continuous
100
AcDbLine
 10
187.093533
 20
53.76710799999999
 30
0.0
 11
187.093533
 21
53.26710799999999
 31
0.0
  0
LINE
  5
97A9
330
965E
100
AcDbEntity
  8
1
  6
Continuous
100
AcDbLine
 10
179.593533
 20
76.26710799999997
 30
0.0
 11
179.593533
 21
77.26710799999998
 31
0.0
  0
LINE
  5
97AA
330
965E
100
AcDbEntity
  8
1
  6
Continuous
100
AcDbLine
 10
187.093533
 20
74.76710799999998
 30
0.0
 11
187.093533
 21
75.26710799999998
 31
0.0
  0
LINE
  5
97AB
330
965E
100
AcDbEntity
  8
1
  6
Continuous
100
AcDbLine
 10
182.343533
 20
79.56711099999998
 30
0.0
 11
182.343533
 21
80.56711099999999
 31
0.0
  0
ARC
  5
97AC
330
965E
100
AcDbEntity
  8
1
  6
Continuous
100
AcDbCircle
 10
186.093533
 20
75.26710799999998
 30
0.0
 40
1.0
100
AcDbArc
 50
359.9999599999999
 51
89.99995000000001
  0
ARC
  5
97AD
330
965E
100
AcDbEntity
  8
1
  6
Continuous
100
AcDbCircle
 10
163.843533
 20
64.26710799999999
 30
0.0
 40
50.0
100
AcDbArc
 50
349.80001
 51
10.19991499999999
  0
ARC
  5
97AE
330
965E
100
AcDbEntity
  8
1
  6
Continuous
100
AcDbCircle
 10
211.084935
 20
55.76710799999999
 30
0.0
 40
2.0
100
AcDbArc
 50
269.99998
 51
349.8000699999999
  0
ARC
  5
97AF
330
965E
100
AcDbEntity
  8
1
  6
Continuous
100
AcDbCircle
 10
211.084935
 20
72.76710799999998
 30
0.0
 40
2.0
100
AcDbArc
 50
10.19984999999999
 51
89.99995000000001
  0
LINE
  5
97B0
330
965E
100
AcDbEntity
  8
1
  6
Continuous
100
AcDbLine
 10
141.343533
 20
53.78389699999999
 30
0.0
 11
141.343533
 21
46.767108
 31
0.0
  0
LINE
  5
97B1
330
965E
100
AcDbEntity
  8
1
  6
Continuous
100
AcDbLine
 10
211.343533
 20
53.78389699999999
 30
0.0
 11
211.343533
 21
46.767108
 31
0.0
  0
LINE
  5
97B2
330
965E
100
AcDbEntity
  8
1
  6
Continuous
100
AcDbLine
 10
155.958075
 20
83.441643
 30
0.0
 11
155.958075
 21
82.26710799999997
 31
0.0
  0
LINE
  5
97B3
330
965E
100
AcDbEntity
  8
1
  6
Continuous
100
AcDbLine
 10
197.49572
 20
84.362831
 30
0.0
 11
197.49572
 21
82.26710799999997
 31
0.0
  0
ARC
  5
97B4
330
965E
100
AcDbEntity
  8
1
  6
Continuous
100
AcDbCircle
 10
192.49572
 20
82.26710799999997
 30
0.0
 40
5.0
100
AcDbArc
 50
270.0
 51
0.0
  0
ARC
  5
97B5
330
965E
100
AcDbEntity
  8
1
  6
Continuous
100
AcDbCircle
 10
160.958075
 20
82.26710799999997
 30
0.0
 40
5.0
100
AcDbArc
 50
180.0
 51
270.0
  0
ARC
  5
97B6
330
965E
100
AcDbEntity
  8
1
  6
Continuous
100
AcDbCircle
 10
160.958075
 20
46.267108
 30
0.0
 40
5.0
100
AcDbArc
 50
90.0
 51
180.0
  0
LINE
  5
97B7
330
965E
100
AcDbEntity
  8
1
  6
Continuous
100
AcDbLine
 10
155.958075
 20
45.092573
 30
0.0
 11
155.958075
 21
46.267108
 31
0.0
  0
LINE
  5
97B8
330
965E
100
AcDbEntity
  8
1
  6
Continuous
100
AcDbLine
 10
160.958075
 20
51.267108
 30
0.0
 11
192.49572
 21
51.267108
 31
0.0
  0
ARC
  5
97B9
330
965E
100
AcDbEntity
  8
1
  6
Continuous
100
AcDbCircle
 10
192.49572
 20
46.267108
 30
0.0
 40
5.0
100
AcDbArc
 50
0.0
 51
90.0
  0
LINE
  5
97BA
330
965E
100
AcDbEntity
  8
1
  6
Continuous
100
AcDbLine
 10
197.49572
 20
44.171386
 30
0.0
 11
197.49572
 21
46.267108
 31
0.0
  0
ARC
  5
97BB
330
965E
100
AcDbEntity
  8
1
  6
Continuous
100
AcDbCircle
 10
188.843533
 20
337.2671079999999
 30
0.0
 40
50.0
100
AcDbArc
 50
169.8000099999999
 51
190.1999149999998
  0
ARC
  5
97BC
330
965E
100
AcDbEntity
  8
1
  6
Continuous
100
AcDbCircle
 10
141.602131
 20
328.7671079999999
 30
0.0
 40
2.0
100
AcDbArc
 50
190.1998499999999
 51
262.570914
  0
ARC
  5
97BD
330
965E
100
AcDbEntity
  8
1
  6
Continuous
100
AcDbCircle
 10
141.602131
 20
345.767108
 30
0.0
 40
2.0
100
AcDbArc
 50
97.42908599999999
 51
169.80007
  0
LINE
  5
97BE
330
965E
100
AcDbEntity
  8
1
  6
Continuous
100
AcDbLine
 10
180.343533
 20
318.967105
 30
0.0
 11
172.343533
 21
318.967105
 31
0.0
  0
ARC
  5
97BF
330
965E
100
AcDbEntity
  8
1
  6
Continuous
100
AcDbCircle
 10
172.343533
 20
320.967105
 30
0.0
 40
2.0
100
AcDbArc
 50
180.00002
 51
270.0
  0
LINE
  5
97C0
330
965E
100
AcDbEntity
  8
1
  6
Continuous
100
AcDbLine
 10
170.343533
 20
321.967105
 30
0.0
 11
170.343533
 21
320.967105
 31
0.0
  0
ARC
  5
97C1
330
965E
100
AcDbEntity
  8
1
  6
Continuous
100
AcDbCircle
 10
180.343533
 20
320.967105
 30
0.0
 40
2.0
100
AcDbArc
 50
270.0
 51
359.9999819999999
  0
LINE
  5
97C2
330
965E
100
AcDbEntity
  8
1
  6
Continuous
100
AcDbLine
 10
182.343533
 20
321.967105
 30
0.0
 11
182.343533
 21
320.967105
 31
0.0
  0
ARC
  5
97C3
330
965E
100
AcDbEntity
  8
1
  6
Continuous
100
AcDbCircle
 10
163.843533
 20
337.2671079999999
 30
0.0
 40
50.0
100
AcDbArc
 50
349.800085
 51
10.19999
  0
ARC
  5
97C4
330
965E
100
AcDbEntity
  8
1
  6
Continuous
100
AcDbCircle
 10
211.084935
 20
328.7671079999999
 30
0.0
 40
2.0
100
AcDbArc
 50
277.4290859999999
 51
349.8001529999998
  0
ARC
  5
97C5
330
965E
100
AcDbEntity
  8
1
  6
Continuous
100
AcDbCircle
 10
211.084935
 20
345.767108
 30
0.0
 40
2.0
100
AcDbArc
 50
10.19992
 51
82.570914
  0
LINE
  5
97C6
330
965E
100
AcDbEntity
  8
1
  6
Continuous
100
AcDbLine
 10
431.3435329999999
 20
189.40386
 30
0.0
 11
431.3435329999999
 21
195.130357
 31
0.0
  0
LINE
  5
97C7
330
965E
100
AcDbEntity
  8
1
  6
Continuous
100
AcDbLine
 10
441.3435329999998
 20
189.40386
 30
0.0
 11
441.3435329999998
 21
195.130357
 31
0.0
  0
CIRCLE
  5
97C8
330
965E
100
AcDbEntity
  8
1
  6
Continuous
100
AcDbCircle
 10
436.3435329999998
 20
192.267108
 30
0.0
 40
3.0
  0
CIRCLE
  5
97C9
330
965E
100
AcDbEntity
  8
2
  6
Continuous
100
AcDbCircle
 10
436.3435329999998
 20
192.267108
 30
0.0
 40
2.458499999999999
  0
CIRCLE
  5
97CA
330
965E
100
AcDbEntity
  8
1
  6
Continuous
100
AcDbCircle
 10
436.3435329999998
 20
192.267108
 30
0.0
 40
2.0
  0
LINE
  5
97CB
330
965E
100
AcDbEntity
  8
1
  6
Continuous
100
AcDbLine
 10
431.3435329999999
 20
189.40386
 30
0.0
 11
436.3435329999998
 21
186.517108
 31
0.0
  0
LINE
  5
97CC
330
965E
100
AcDbEntity
  8
1
  6
Continuous
100
AcDbLine
 10
441.3435329999998
 20
189.40386
 30
0.0
 11
436.3435329999998
 21
186.517108
 31
0.0
  0
LINE
  5
97CD
330
965E
100
AcDbEntity
  8
1
  6
Continuous
100
AcDbLine
 10
431.3435329999999
 20
195.130357
 30
0.0
 11
436.3435329999998
 21
198.017108
 31
0.0
  0
LINE
  5
97CE
330
965E
100
AcDbEntity
  8
1
  6
Continuous
100
AcDbLine
 10
441.3435329999998
 20
195.130357
 30
0.0
 11
436.3435329999998
 21
198.017108
 31
0.0
  0
LINE
  5
97CF
330
965E
100
AcDbEntity
  8
1
  6
Continuous
100
AcDbLine
 10
176.343533
 20
48.47636099999999
 30
0.0
 11
176.343533
 21
45.25784999999999
 31
0.0
  0
LINE
  5
97D0
330
965E
100
AcDbEntity
  8
1
  6
Continuous
100
AcDbLine
 10
181.343533
 20
45.25784999999999
 30
0.0
 11
181.343533
 21
48.47636099999999
 31
0.0
  0
LINE
  5
97D1
330
965E
100
AcDbEntity
  8
1
  6
Continuous
100
AcDbLine
 10
173.843533
 20
48.96710800000001
 30
0.0
 11
178.843533
 21
48.96710800000001
 31
0.0
  0
LINE
  5
97D2
330
965E
100
AcDbEntity
  8
1
  6
Continuous
100
AcDbLine
 10
171.343533
 20
45.25784999999999
 30
0.0
 11
171.343533
 21
48.47636099999999
 31
0.0
  0
ARC
  5
97D3
330
965E
100
AcDbEntity
  8
1
  6
Continuous
100
AcDbCircle
 10
173.843533
 20
42.353901
 30
0.0
 40
6.613208
100
AcDbArc
 50
67.78820500000001
 51
112.211795
  0
ARC
  5
97D4
330
965E
100
AcDbEntity
  8
1
  6
Continuous
100
AcDbCircle
 10
178.843533
 20
42.353901
 30
0.0
 40
6.613208
100
AcDbArc
 50
67.78820500000001
 51
112.211795
  0
LINE
  5
97D5
330
965E
100
AcDbEntity
  8
1
  6
Continuous
100
AcDbLine
 10
173.843533
 20
352.567108
 30
0.0
 11
178.843533
 21
352.567108
 31
0.0
  0
ARC
  5
97D6
330
965E
100
AcDbEntity
  8
1
  6
Continuous
100
AcDbCircle
 10
173.843533
 20
359.1803159999998
 30
0.0
 40
6.613208
100
AcDbArc
 50
247.7882049999999
 51
292.211795
  0
LINE
  5
97D7
330
965E
100
AcDbEntity
  8
1
  6
Continuous
100
AcDbLine
 10
171.343533
 20
356.2763669999998
 30
0.0
 11
171.343533
 21
353.057856
 31
0.0
  0
ARC
  5
97D8
330
965E
100
AcDbEntity
  8
1
  6
Continuous
100
AcDbCircle
 10
178.843533
 20
359.1803159999998
 30
0.0
 40
6.613208
100
AcDbArc
 50
247.7882049999999
 51
292.211795
  0
LINE
  5
97D9
330
965E
100
AcDbEntity
  8
1
  6
Continuous
100
AcDbLine
 10
181.343533
 20
356.2763669999998
 30
0.0
 11
181.343533
 21
353.057856
 31
0.0
  0
LINE
  5
97DA
330
965E
100
AcDbEntity
  8
1
  6
Continuous
100
AcDbLine
 10
176.343533
 20
353.057856
 30
0.0
 11
176.343533
 21
356.2763669999998
 31
0.0
  0
ARC
  5
97DB
330
965E
100
AcDbEntity
  8
1
  6
Continuous
100
AcDbCircle
 10
178.843533
 20
350.153907
 30
0.0
 40
6.613208
100
AcDbArc
 50
67.78820500000001
 51
112.211795
  0
ARC
  5
97DC
330
965E
100
AcDbEntity
  8
1
  6
Continuous
100
AcDbCircle
 10
173.843533
 20
350.153907
 30
0.0
 40
6.613208
100
AcDbArc
 50
67.78820500000001
 51
112.211795
  0
ARC
  5
97DD
330
965E
100
AcDbEntity
  8
1
  6
Continuous
100
AcDbCircle
 10
178.843533
 20
51.38030999999998
 30
0.0
 40
6.613208
100
AcDbArc
 50
247.7882049999999
 51
292.211795
  0
ARC
  5
97DE
330
965E
100
AcDbEntity
  8
1
  6
Continuous
100
AcDbCircle
 10
173.843533
 20
51.38030999999998
 30
0.0
 40
6.613208
100
AcDbArc
 50
247.7882049999999
 51
292.211795
  0
LINE
  5
97DF
330
965E
100
AcDbEntity
  8
1
  6
Continuous
100
AcDbLine
 10
173.843533
 20
44.767102
 30
0.0
 11
178.843533
 21
44.767102
 31
0.0
  0
LINE
  5
97E0
330
965E
100
AcDbEntity
  8
1
  6
Continuous
100
AcDbLine
 10
173.843533
 20
356.7671139999998
 30
0.0
 11
178.843533
 21
356.7671139999998
 31
0.0
  0
LINE
  5
97E1
330
965E
100
AcDbEntity
  8
1
  6
Continuous
100
AcDbLine
 10
173.343533
 20
357.767114
 30
0.0
 11
173.343533
 21
356.7671139999998
 31
0.0
  0
LINE
  5
97E2
330
965E
100
AcDbEntity
  8
1
  6
Continuous
100
AcDbLine
 10
179.343533
 20
357.767114
 30
0.0
 11
179.343533
 21
356.7671139999998
 31
0.0
  0
LINE
  5
97E3
330
965E
100
AcDbEntity
  8
2
  6
Continuous
100
AcDbLine
 10
173.8850329999999
 20
358.3086139999999
 30
0.0
 11
173.8850329999999
 21
356.7671139999998
 31
0.0
  0
LINE
  5
97E4
330
965E
100
AcDbEntity
  8
2
  6
Continuous
100
AcDbLine
 10
178.8020329999999
 20
358.3086139999999
 30
0.0
 11
178.8020329999999
 21
356.7671139999998
 31
0.0
  0
LINE
  5
97E5
330
965E
100
AcDbEntity
  8
1
  6
Continuous
100
AcDbLine
 10
173.343533
 20
357.767114
 30
0.0
 11
179.343533
 21
357.767114
 31
0.0
  0
LINE
  5
97E6
330
965E
100
AcDbEntity
  8
1
  6
Continuous
100
AcDbLine
 10
174.343533
 20
358.7671139999998
 30
0.0
 11
178.343533
 21
358.7671139999998
 31
0.0
  0
LINE
  5
97E7
330
965E
100
AcDbEntity
  8
1
  6
Continuous
100
AcDbLine
 10
174.343533
 20
358.7671139999998
 30
0.0
 11
173.343533
 21
357.767114
 31
0.0
  0
LINE
  5
97E8
330
965E
100
AcDbEntity
  8
1
  6
Continuous
100
AcDbLine
 10
178.343533
 20
358.7671139999998
 30
0.0
 11
179.343533
 21
357.767114
 31
0.0
  0
LINE
  5
97E9
330
965E
100
AcDbEntity
  8
1
  6
Continuous
100
AcDbLine
 10
25.443533
 20
189.267108
 30
0.0
 11
26.44353300000001
 21
189.267108
 31
0.0
  0
LINE
  5
97EA
330
965E
100
AcDbEntity
  8
2
  6
Continuous
100
AcDbLine
 10
24.902033
 20
189.8086079999999
 30
0.0
 11
26.44353300000001
 21
189.8086079999999
 31
0.0
  0
LINE
  5
97EB
330
965E
100
AcDbEntity
  8
1
  6
Continuous
100
AcDbLine
 10
25.443533
 20
195.267108
 30
0.0
 11
26.44353300000001
 21
195.267108
 31
0.0
  0
LINE
  5
97EC
330
965E
100
AcDbEntity
  8
2
  6
Continuous
100
AcDbLine
 10
24.902033
 20
194.725608
 30
0.0
 11
26.44353300000001
 21
194.725608
 31
0.0
  0
LINE
  5
97ED
330
965E
100
AcDbEntity
  8
1
  6
Continuous
100
AcDbLine
 10
25.443533
 20
189.267108
 30
0.0
 11
25.443533
 21
195.267108
 31
0.0
  0
LINE
  5
97EE
330
965E
100
AcDbEntity
  8
1
  6
Continuous
100
AcDbLine
 10
24.44353299999999
 20
190.267108
 30
0.0
 11
24.44353299999999
 21
194.267108
 31
0.0
  0
LINE
  5
97EF
330
965E
100
AcDbEntity
  8
1
  6
Continuous
100
AcDbLine
 10
24.44353299999999
 20
190.267108
 30
0.0
 11
25.443533
 21
189.267108
 31
0.0
  0
LINE
  5
97F0
330
965E
100
AcDbEntity
  8
1
  6
Continuous
100
AcDbLine
 10
24.44353299999999
 20
194.267108
 30
0.0
 11
25.443533
 21
195.267108
 31
0.0
  0
LINE
  5
97F1
330
965E
100
AcDbEntity
  8
1
  6
Continuous
100
AcDbLine
 10
328.243533
 20
194.267108
 30
0.0
 11
327.243533
 21
195.267108
 31
0.0
  0
LINE
  5
97F2
330
965E
100
AcDbEntity
  8
1
  6
Continuous
100
AcDbLine
 10
328.243533
 20
190.267108
 30
0.0
 11
327.243533
 21
189.267108
 31
0.0
  0
LINE
  5
97F3
330
965E
100
AcDbEntity
  8
1
  6
Continuous
100
AcDbLine
 10
328.243533
 20
190.267108
 30
0.0
 11
328.243533
 21
194.267108
 31
0.0
  0
LINE
  5
97F4
330
965E
100
AcDbEntity
  8
1
  6
Continuous
100
AcDbLine
 10
327.243533
 20
189.267108
 30
0.0
 11
327.243533
 21
195.267108
 31
0.0
  0
LINE
  5
97F5
330
965E
100
AcDbEntity
  8
2
  6
Continuous
100
AcDbLine
 10
327.785033
 20
194.725608
 30
0.0
 11
326.243533
 21
194.725608
 31
0.0
  0
LINE
  5
97F6
330
965E
100
AcDbEntity
  8
1
  6
Continuous
100
AcDbLine
 10
327.243533
 20
195.267108
 30
0.0
 11
326.243533
 21
195.267108
 31
0.0
  0
LINE
  5
97F7
330
965E
100
AcDbEntity
  8
2
  6
Continuous
100
AcDbLine
 10
327.785033
 20
189.8086079999999
 30
0.0
 11
326.243533
 21
189.8086079999999
 31
0.0
  0
LINE
  5
97F8
330
965E
100
AcDbEntity
  8
1
  6
Continuous
100
AcDbLine
 10
327.243533
 20
189.267108
 30
0.0
 11
326.243533
 21
189.267108
 31
0.0
  0
LINE
  5
97F9
330
965E
100
AcDbEntity
  8
4
  6
CENTER
 48
0.8
100
AcDbLine
 10
328.243533
 20
192.267108
 30
0.0
 11
326.243533
 21
192.267108
 31
0.0
  0
LINE
  5
97FA
330
965E
100
AcDbEntity
  8
1
  6
Continuous
100
AcDbLine
 10
178.343533
 20
42.767102
 30
0.0
 11
179.343533
 21
43.767102
 31
0.0
  0
LINE
  5
97FB
330
965E
100
AcDbEntity
  8
1
  6
Continuous
100
AcDbLine
 10
174.343533
 20
42.767102
 30
0.0
 11
173.343533
 21
43.767102
 31
0.0
  0
LINE
  5
97FC
330
965E
100
AcDbEntity
  8
1
  6
Continuous
100
AcDbLine
 10
174.343533
 20
42.767102
 30
0.0
 11
178.343533
 21
42.767102
 31
0.0
  0
LINE
  5
97FD
330
965E
100
AcDbEntity
  8
1
  6
Continuous
100
AcDbLine
 10
173.343533
 20
43.767102
 30
0.0
 11
179.343533
 21
43.767102
 31
0.0
  0
LINE
  5
97FE
330
965E
100
AcDbEntity
  8
2
  6
Continuous
100
AcDbLine
 10
178.8020329999999
 20
43.225602
 30
0.0
 11
178.8020329999999
 21
44.767102
 31
0.0
  0
LINE
  5
97FF
330
965E
100
AcDbEntity
  8
1
  6
Continuous
100
AcDbLine
 10
179.343533
 20
43.767102
 30
0.0
 11
179.343533
 21
44.767102
 31
0.0
  0
LINE
  5
9800
330
965E
100
AcDbEntity
  8
2
  6
Continuous
100
AcDbLine
 10
173.8850329999999
 20
43.225602
 30
0.0
 11
173.8850329999999
 21
44.767102
 31
0.0
  0
LINE
  5
9801
330
965E
100
AcDbEntity
  8
1
  6
Continuous
100
AcDbLine
 10
173.343533
 20
43.767102
 30
0.0
 11
173.343533
 21
44.767102
 31
0.0
  0
LINE
  5
9802
330
965E
100
AcDbEntity
  8
4
  6
CENTER
 48
0.8
100
AcDbLine
 10
176.343533
 20
42.767102
 30
0.0
 11
176.343533
 21
44.767102
 31
0.0
  0
ENDSEC
  0
SECTION
  2
OBJECTS
  0
DICTIONARY
  5
964C
330
0
100
AcDbDictionary
281
     1
  3
ACAD_CIP_PREVIOUS_PRODUCT_INFO
350
98A2
  3
ACAD_COLOR
350
9884
  3
ACAD_DETAILVIEWSTYLE
350
989D
  3
ACAD_GROUP
350
964D
  3
ACAD_LAYOUT
350
9659
  3
ACAD_MATERIAL
350
9852
  3
ACAD_MLEADERSTYLE
350
9899
  3
ACAD_MLINESTYLE
350
9656
  3
ACAD_PLOTSETTINGS
350
9658
  3
ACAD_PLOTSTYLENAME
350
9850
  3
ACAD_SCALELIST
350
9887
  3
ACAD_SECTIONVIEWSTYLE
350
989B
  3
ACAD_TABLESTYLE
350
9885
  3
ACAD_VISUALSTYLE
350
986B
  3
ACDB_RECOMPOSE_DATA
350
98C0
  3
AcDbVariableDictionary
350
98B3
  3
DWGPROPS
350
98C1
  0
DICTIONARY
  5
98A3
330
9650
100
AcDbDictionary
280
     1
281
     1
  3
ADSK_XREC_LAYER_RECONCILED
360
98A4
  0
DICTIONARY
  5
98A5
330
9666
100
AcDbDictionary
280
     1
281
     1
  3
ADSK_XREC_LAYER_RECONCILED
360
98A6
  0
DICTIONARY
  5
98A7
330
9667
100
AcDbDictionary
280
     1
281
     1
  3
ADSK_XREC_LAYER_RECONCILED
360
98A8
  0
DICTIONARY
  5
98A9
330
9668
100
AcDbDictionary
280
     1
281
     1
  3
ADSK_XREC_LAYER_RECONCILED
360
98AA
  0
DICTIONARY
  5
98AB
330
9669
100
AcDbDictionary
280
     1
281
     1
  3
ADSK_XREC_LAYER_RECONCILED
360
98AC
  0
DICTIONARY
  5
98AD
330
966A
100
AcDbDictionary
280
     1
281
     1
  3
ADSK_XREC_LAYER_RECONCILED
360
98AE
  0
DICTIONARY
  5
98AF
330
966B
100
AcDbDictionary
280
     1
281
     1
  3
ADSK_XREC_LAYER_RECONCILED
360
98B0
  0
DICTIONARY
  5
98B1
330
966C
100
AcDbDictionary
280
     1
281
     1
  3
ADSK_XREC_LAYER_RECONCILED
360
98B2
  0
DICTIONARY
  5
980D
330
965E
100
AcDbDictionary
281
     1
  3
ACAD_LAYOUTSELFREF
350
984C
  0
DICTIONARY
  5
980B
330
965A
100
AcDbDictionary
281
     1
  3
ACAD_LAYOUTSELFREF
350
984B
  0
XRECORD
  5
98A2
102
{ACAD_REACTORS
330
964C
102
}
330
964C
100
AcDbXrecord
280
     1
300
ACDLT
300
2014
300
ACDLT_F_S
  0
DICTIONARY
  5
9884
102
{ACAD_REACTORS
330
964C
102
}
330
964C
100
AcDbDictionary
281
     1
  0
DICTIONARY
  5
989D
102
{ACAD_REACTORS
330
964C
102
}
330
964C
100
AcDbDictionary
281
     1
  3
Imperial24
350
989E
  0
DICTIONARY
  5
964D
102
{ACAD_REACTORS
330
964C
102
}
330
964C
100
AcDbDictionary
281
     1
  0
DICTIONARY
  5
9659
102
{ACAD_REACTORS
330
964C
102
}
330
964C
100
AcDbDictionary
281
     1
  3
Model
350
989F
  3
レイアウト1
350
98A0
  0
DICTIONARY
  5
9852
102
{ACAD_REACTORS
330
964C
102
}
330
964C
100
AcDbDictionary
281
     1
  3
ByBlock
350
985B
  3
ByLayer
350
9853
  3
Global
350
9863
  0
DICTIONARY
  5
9899
102
{ACAD_REACTORS
330
964C
102
}
330
964C
100
AcDbDictionary
281
     1
  3
Standard
350
989A
  0
DICTIONARY
  5
9656
102
{ACAD_REACTORS
330
964C
102
}
330
964C
100
AcDbDictionary
281
     1
  3
STANDARD
350
9657
  0
DICTIONARY
  5
9658
102
{ACAD_REACTORS
330
964C
102
}
330
964C
100
AcDbDictionary
281
     1
  0
ACDBDICTIONARYWDFLT
  5
9850
102
{ACAD_REACTORS
330
964C
102
}
330
964C
100
AcDbDictionary
281
     1
  3
Normal
350
9851
100
AcDbDictionaryWithDefault
340
9851
  0
DICTIONARY
  5
9887
102
{ACAD_REACTORS
330
964C
102
}
330
964C
100
AcDbDictionary
281
     1
  3
A0
350
9888
  3
A1
350
9889
  3
A2
350
988A
  3
A3
350
988B
  3
A4
350
988C
  3
A5
350
988D
  3
A6
350
988E
  3
A7
350
988F
  3
A8
350
9890
  3
A9
350
9891
  3
B0
350
9892
  3
B1
350
9893
  3
B2
350
9894
  3
B3
350
9895
  3
B4
350
9896
  3
B5
350
9897
  3
B6
350
9898
  0
DICTIONARY
  5
989B
102
{ACAD_REACTORS
330
964C
102
}
330
964C
100
AcDbDictionary
281
     1
  3
Imperial24
350
989C
  0
DICTIONARY
  5
9885
102
{ACAD_REACTORS
330
964C
102
}
330
964C
100
AcDbDictionary
281
     1
  3
Standard
350
9886
  0
DICTIONARY
  5
986B
102
{ACAD_REACTORS
330
964C
102
}
330
964C
100
AcDbDictionary
281
     1
  3
2dWireframe
350
9871
  3
Basic
350
9870
  3
Brighten
350
9877
  3
ColorChange
350
987B
  3
Conceptual
350
9874
  3
Dim
350
9876
  3
EdgeColorOff
350
9883
  3
Facepattern
350
987A
  3
Flat
350
986C
  3
FlatWithEdges
350
986D
  3
Gouraud
350
986E
  3
GouraudWithEdges
350
986F
  3
Hidden
350
9873
  3
JitterOff
350
9881
  3
Linepattern
350
9879
  3
OverhangOff
350
9882
  3
Realistic
350
9875
  3
Shaded
350
9880
  3
Shaded with edges
350
987F
  3
Shades of Gray
350
987C
  3
Sketchy
350
987D
  3
Thicken
350
9878
  3
Wireframe
350
9872
  3
X-Ray
350
987E
  0
XRECORD
  5
98C0
102
{ACAD_REACTORS
330
964C
102
}
330
964C
100
AcDbXrecord
280
     1
 90
        1
330
9886
  0
DICTIONARY
  5
98B3
102
{ACAD_REACTORS
330
964C
102
}
330
964C
100
AcDbDictionary
281
     1
  3
CANNOSCALE
350
98B8
  3
CMLEADERSTYLE
350
98B5
  3
CTABLESTYLE
350
98B4
  3
CVIEWDETAILSTYLE
350
98B6
  3
CVIEWSECTIONSTYLE
350
98B7
  3
DIMASSOC
350
98BB
  3
INDEXCTL
350
98BA
  3
SORTENTS
350
98B9
  3
XCLIPFRAME
350
98BC
  0
XRECORD
  5
98C1
102
{ACAD_REACTORS
330
964C
102
}
330
964C
100
AcDbXrecord
280
     1
  1
DWGPROPS COOKIE
  2

  3

  4

  6

  7

  8
Yoshitsune
  9

300
=
301
=
302
=
303
=
304
=
305
=
306
=
307
=
308
=
309
=
 40
0.099281875
 41
2451301.457140047
 42
2457192.690239549
  1

 90
        0
  0
XRECORD
  5
98A4
102
{ACAD_REACTORS
330
98A3
102
}
330
98A3
100
AcDbXrecord
280
     1
290
     1
  0
XRECORD
  5
98A6
102
{ACAD_REACTORS
330
98A5
102
}
330
98A5
100
AcDbXrecord
280
     1
290
     1
  0
XRECORD
  5
98A8
102
{ACAD_REACTORS
330
98A7
102
}
330
98A7
100
AcDbXrecord
280
     1
290
     1
  0
XRECORD
  5
98AA
102
{ACAD_REACTORS
330
98A9
102
}
330
98A9
100
AcDbXrecord
280
     1
290
     1
  0
XRECORD
  5
98AC
102
{ACAD_REACTORS
330
98AB
102
}
330
98AB
100
AcDbXrecord
280
     1
290
     1
  0
XRECORD
  5
98AE
102
{ACAD_REACTORS
330
98AD
102
}
330
98AD
100
AcDbXrecord
280
     1
290
     1
  0
XRECORD
  5
98B0
102
{ACAD_REACTORS
330
98AF
102
}
330
98AF
100
AcDbXrecord
280
     1
290
     1
  0
XRECORD
  5
98B2
102
{ACAD_REACTORS
330
98B1
102
}
330
98B1
100
AcDbXrecord
280
     1
290
     1
  0
XRECORD
  5
984C
102
{ACAD_REACTORS
330
980D
102
}
330
980D
100
AcDbXrecord
280
     1
340
965E
  0
XRECORD
  5
984B
102
{ACAD_REACTORS
330
980B
102
}
330
980B
100
AcDbXrecord
280
     1
340
965A
  0
ACDBDETAILVIEWSTYLE
  5
989E
102
{ACAD_XDICTIONARY
360
98F9
102
}
102
{ACAD_REACTORS
330
989D
102
}
330
989D
100
AcDbModelDocViewStyle
 70
     0
  3
Imperial24
290
     0
100
AcDbDetailViewStyle
 70
     0
 71
     0
 90
        3
 71
     1
340
9651
 40
0.24
340
0
 40
0.24
300

 40
0.36
280
     3
 71
     2
340
9655
 90
       25
 71
     3
340
9651
 40
0.24
 90
        1
 40
0.75
 90
        1
300
%<\AcVar ViewType \f "%tc1">% %<\AcVar ViewDetailId>%\PSCALE %<\AcVar ViewScale \f "%sn">%
 71
     4
340
9655
 90
       25
340
9655
 90
       25
280
     0
  0
LAYOUT
  5
989F
102
{ACAD_XDICTIONARY
360
98FB
102
}
102
{ACAD_REACTORS
330
9659
102
}
330
9659
100
AcDbPlotSettings
  1

  2
Canon LBP9100C
  4

  6

 40
0.0
 41
0.0
 42
0.0
 43
0.0
 44
0.0
 45
0.0
 46
0.0
 47
0.0
 48
0.0
 49
0.0
140
0.0
141
0.0
142
1.0
143
1.0
 70
  1712
 72
     0
 73
     0
 74
     0
  7

 75
     0
147
1.0
148
0.0
149
0.0
100
AcDbLayout
  1
Model
 70
     1
 71
     0
 10
0.0
 20
0.0
 11
12.0
 21
9.0
 12
0.0
 22
0.0
 32
0.0
 14
0.0
 24
0.0
 34
0.0
 15
0.0
 25
0.0
 35
0.0
146
0.0
 13
0.0
 23
0.0
 33
0.0
 16
1.0
 26
0.0
 36
0.0
 17
0.0
 27
1.0
 37
0.0
 76
     0
330
965E
331
984A
  0
LAYOUT
  5
98A0
102
{ACAD_XDICTIONARY
360
98FD
102
}
102
{ACAD_REACTORS
330
9659
102
}
330
9659
100
AcDbPlotSettings
  1

  2
Canon LBP9100C
  4

  6

 40
0.0
 41
0.0
 42
0.0
 43
0.0
 44
0.0
 45
0.0
 46
0.0
 47
0.0
 48
0.0
 49
0.0
140
0.0
141
0.0
142
1.0
143
1.0
 70
   688
 72
     0
 73
     0
 74
     5
  7

 75
    16
147
1.0
148
0.0
149
0.0
100
AcDbLayout
  1
レイアウト1
 70
     0
 71
     1
 10
0.0
 20
0.0
 11
420.0
 21
297.0
 12
0.0
 22
0.0
 32
0.0
 14
1.000000000000000E+20
 24
1.000000000000000E+20
 34
1.000000000000000E+20
 15
-1.000000000000000E+20
 25
-1.000000000000000E+20
 35
-1.000000000000000E+20
146
0.0
 13
0.0
 23
0.0
 33
0.0
 16
1.0
 26
0.0
 36
0.0
 17
0.0
 27
1.0
 37
0.0
 76
     0
330
965A
  0
MATERIAL
  5
985B
102
{ACAD_XDICTIONARY
360
985C
102
}
102
{ACAD_REACTORS
330
9852
102
}
330
9852
100
AcDbMaterial
  1
ByBlock
 72
     0
 43
0.0208333333333333
 43
0.0
 43
0.0
 43
0.0
 43
0.0
 43
0.0208333333333333
 43
0.0
 43
0.0
 43
0.0
 43
0.0
 43
1.0
 43
0.0
 43
0.0
 43
0.0
 43
0.0
 43
1.0
 77
     0
 47
0.0208333333333333
 47
0.0
 47
0.0
 47
0.0
 47
0.0
 47
0.0208333333333333
 47
0.0
 47
0.0
 47
0.0
 47
0.0
 47
1.0
 47
0.0
 47
0.0
 47
0.0
 47
0.0
 47
1.0
171
     0
 49
0.0208333333333333
 49
0.0
 49
0.0
 49
0.0
 49
0.0
 49
0.0208333333333333
 49
0.0
 49
0.0
 49
0.0
 49
0.0
 49
1.0
 49
0.0
 49
0.0
 49
0.0
 49
0.0
 49
1.0
175
     0
142
0.0208333333333333
142
0.0
142
0.0
142
0.0
142
0.0
142
0.0208333333333333
142
0.0
142
0.0
142
0.0
142
0.0
142
1.0
142
0.0
142
0.0
142
0.0
142
0.0
142
1.0
179
     0
144
0.0208333333333333
144
0.0
144
0.0
144
0.0
144
0.0
144
0.0208333333333333
144
0.0
144
0.0
144
0.0
144
0.0
144
1.0
144
0.0
144
0.0
144
0.0
144
0.0
144
1.0
147
0.0208333333333333
147
0.0
147
0.0
147
0.0
147
0.0
147
0.0208333333333333
147
0.0
147
0.0
147
0.0
147
0.0
147
1.0
147
0.0
147
0.0
147
0.0
147
0.0
147
1.0
  0
MATERIAL
  5
9853
102
{ACAD_XDICTIONARY
360
9854
102
}
102
{ACAD_REACTORS
330
9852
102
}
330
9852
100
AcDbMaterial
  1
ByLayer
 72
     0
 43
0.0208333333333333
 43
0.0
 43
0.0
 43
0.0
 43
0.0
 43
0.0208333333333333
 43
0.0
 43
0.0
 43
0.0
 43
0.0
 43
1.0
 43
0.0
 43
0.0
 43
0.0
 43
0.0
 43
1.0
 77
     0
 47
0.0208333333333333
 47
0.0
 47
0.0
 47
0.0
 47
0.0
 47
0.0208333333333333
 47
0.0
 47
0.0
 47
0.0
 47
0.0
 47
1.0
 47
0.0
 47
0.0
 47
0.0
 47
0.0
 47
1.0
171
     0
 49
0.0208333333333333
 49
0.0
 49
0.0
 49
0.0
 49
0.0
 49
0.0208333333333333
 49
0.0
 49
0.0
 49
0.0
 49
0.0
 49
1.0
 49
0.0
 49
0.0
 49
0.0
 49
0.0
 49
1.0
175
     0
142
0.0208333333333333
142
0.0
142
0.0
142
0.0
142
0.0
142
0.0208333333333333
142
0.0
142
0.0
142
0.0
142
0.0
142
1.0
142
0.0
142
0.0
142
0.0
142
0.0
142
1.0
179
     0
144
0.0208333333333333
144
0.0
144
0.0
144
0.0
144
0.0
144
0.0208333333333333
144
0.0
144
0.0
144
0.0
144
0.0
144
1.0
144
0.0
144
0.0
144
0.0
144
0.0
144
1.0
147
0.0208333333333333
147
0.0
147
0.0
147
0.0
147
0.0
147
0.0208333333333333
147
0.0
147
0.0
147
0.0
147
0.0
147
1.0
147
0.0
147
0.0
147
0.0
147
0.0
147
1.0
  0
MATERIAL
  5
9863
102
{ACAD_XDICTIONARY
360
9864
102
}
102
{ACAD_REACTORS
330
9852
102
}
330
9852
100
AcDbMaterial
  1
Global
 72
     0
 43
0.0208333333333333
 43
0.0
 43
0.0
 43
0.0
 43
0.0
 43
0.0208333333333333
 43
0.0
 43
0.0
 43
0.0
 43
0.0
 43
1.0
 43
0.0
 43
0.0
 43
0.0
 43
0.0
 43
1.0
 77
     0
 47
0.0208333333333333
 47
0.0
 47
0.0
 47
0.0
 47
0.0
 47
0.0208333333333333
 47
0.0
 47
0.0
 47
0.0
 47
0.0
 47
1.0
 47
0.0
 47
0.0
 47
0.0
 47
0.0
 47
1.0
171
     0
 49
0.0208333333333333
 49
0.0
 49
0.0
 49
0.0
 49
0.0
 49
0.0208333333333333
 49
0.0
 49
0.0
 49
0.0
 49
0.0
 49
1.0
 49
0.0
 49
0.0
 49
0.0
 49
0.0
 49
1.0
175
     0
142
0.0208333333333333
142
0.0
142
0.0
142
0.0
142
0.0
142
0.0208333333333333
142
0.0
142
0.0
142
0.0
142
0.0
142
1.0
142
0.0
142
0.0
142
0.0
142
0.0
142
1.0
179
     0
144
0.0208333333333333
144
0.0
144
0.0
144
0.0
144
0.0
144
0.0208333333333333
144
0.0
144
0.0
144
0.0
144
0.0
144
1.0
144
0.0
144
0.0
144
0.0
144
0.0
144
1.0
147
0.0208333333333333
147
0.0
147
0.0
147
0.0
147
0.0
147
0.0208333333333333
147
0.0
147
0.0
147
0.0
147
0.0
147
1.0
147
0.0
147
0.0
147
0.0
147
0.0
147
1.0
  0
MLEADERSTYLE
  5
989A
102
{ACAD_REACTORS
330
9899
102
}
330
9899
100
AcDbMLeaderStyle
170
     2
171
     1
172
     0
 90
        2
 40
0.0
 41
0.0
173
     1
 91
-1056964608
340
9653
 92
       -2
290
     1
 42
0.09
291
     1
 43
0.36
  3
Standard
 44
0.18
300

342
9651
174
     1
178
     6
175
     1
176
     0
 93
-1056964608
 45
0.18
292
     0
297
     0
 46
0.18
 94
-1056964608
 47
1.0
 49
1.0
140
1.0
293
     1
141
0.0
294
     1
177
     0
142
1.0
295
     0
296
     0
143
0.125
1001
ACAD_MLEADERVER
1070
     2
  0
MLINESTYLE
  5
9657
102
{ACAD_REACTORS
330
9656
102
}
330
9656
100
AcDbMlineStyle
  2
STANDARD
 70
     0
  3

 62
   256
 51
90.0
 52
90.0
 71
     2
 49
0.5
 62
   256
  6
BYLAYER
 49
-0.5
 62
   256
  6
BYLAYER
  0
ACDBPLACEHOLDER
  5
9851
102
{ACAD_REACTORS
330
9850
102
}
330
9850
  0
SCALE
  5
9888
102
{ACAD_REACTORS
330
9887
102
}
330
9887
100
AcDbScale
 70
     0
300
1:1
140
1.0
141
1.0
290
     1
  0
SCALE
  5
9889
102
{ACAD_REACTORS
330
9887
102
}
330
9887
100
AcDbScale
 70
     0
300
1/128" = 1'-0"
140
0.0078125
141
12.0
290
     0
  0
SCALE
  5
988A
102
{ACAD_REACTORS
330
9887
102
}
330
9887
100
AcDbScale
 70
     0
300
1/64" = 1'-0"
140
0.015625
141
12.0
290
     0
  0
SCALE
  5
988B
102
{ACAD_REACTORS
330
9887
102
}
330
9887
100
AcDbScale
 70
     0
300
1/32" = 1'-0"
140
0.03125
141
12.0
290
     0
  0
SCALE
  5
988C
102
{ACAD_REACTORS
330
9887
102
}
330
9887
100
AcDbScale
 70
     0
300
1/16" = 1'-0"
140
0.0625
141
12.0
290
     0
  0
SCALE
  5
988D
102
{ACAD_REACTORS
330
9887
102
}
330
9887
100
AcDbScale
 70
     0
300
3/32" = 1'-0"
140
0.09375
141
12.0
290
     0
  0
SCALE
  5
988E
102
{ACAD_REACTORS
330
9887
102
}
330
9887
100
AcDbScale
 70
     0
300
1/8" = 1'-0"
140
0.125
141
12.0
290
     0
  0
SCALE
  5
988F
102
{ACAD_REACTORS
330
9887
102
}
330
9887
100
AcDbScale
 70
     0
300
3/16" = 1'-0"
140
0.1875
141
12.0
290
     0
  0
SCALE
  5
9890
102
{ACAD_REACTORS
330
9887
102
}
330
9887
100
AcDbScale
 70
     0
300
1/4" = 1'-0"
140
0.25
141
12.0
290
     0
  0
SCALE
  5
9891
102
{ACAD_REACTORS
330
9887
102
}
330
9887
100
AcDbScale
 70
     0
300
3/8" = 1'-0"
140
0.375
141
12.0
290
     0
  0
SCALE
  5
9892
102
{ACAD_REACTORS
330
9887
102
}
330
9887
100
AcDbScale
 70
     0
300
1/2" = 1'-0"
140
0.5
141
12.0
290
     0
  0
SCALE
  5
9893
102
{ACAD_REACTORS
330
9887
102
}
330
9887
100
AcDbScale
 70
     0
300
3/4" = 1'-0"
140
0.75
141
12.0
290
     0
  0
SCALE
  5
9894
102
{ACAD_REACTORS
330
9887
102
}
330
9887
100
AcDbScale
 70
     0
300
1" = 1'-0"
140
1.0
141
12.0
290
     0
  0
SCALE
  5
9895
102
{ACAD_REACTORS
330
9887
102
}
330
9887
100
AcDbScale
 70
     0
300
1-1/2" = 1'-0"
140
1.5
141
12.0
290
     0
  0
SCALE
  5
9896
102
{ACAD_REACTORS
330
9887
102
}
330
9887
100
AcDbScale
 70
     0
300
3" = 1'-0"
140
3.0
141
12.0
290
     0
  0
SCALE
  5
9897
102
{ACAD_REACTORS
330
9887
102
}
330
9887
100
AcDbScale
 70
     0
300
6" = 1'-0"
140
6.0
141
12.0
290
     0
  0
SCALE
  5
9898
102
{ACAD_REACTORS
330
9887
102
}
330
9887
100
AcDbScale
 70
     0
300
1'-0" = 1'-0"
140
12.0
141
12.0
290
     0
  0
ACDBSECTIONVIEWSTYLE
  5
989C
102
{ACAD_XDICTIONARY
360
98F7
102
}
102
{ACAD_REACTORS
330
989B
102
}
330
989B
100
AcDbModelDocViewStyle
 70
     0
  3
Imperial24
290
     0
100
AcDbSectionViewStyle
 70
     0
 71
     0
 90
       78
 71
     1
340
9651
 40
0.24
340
0
340
0
 40
0.24
300
I, O, Q, S, X, Z
 40
0.48
 90
        3
 40
0.18
 90
        1
 71
     2
340
9655
 90
       25
340
9655
 90
       50
 40
0.24
 40
0.0
 40
0.24
 71
     3
340
9651
 40
0.24
 90
        1
 40
0.75
 90
        1
300
%<\AcVar ViewType \f "%tc1">% %<\AcVar ViewSectionStartId>%-%<\AcVar ViewSectionEndId>%\PSCALE %<\AcVar ViewScale \f "%sn">%
 71
     4
300
ANSI31
 40
1.0
 90
        0
290
     0
290
     0
 90
        6
 40
0.0
 40
1.570796326794896
 40
0.2617993877991494
 40
1.308996938995747
 40
-0.2617993877991494
 40
1.832595714594046
  0
TABLESTYLE
  5
9886
102
{ACAD_XDICTIONARY
360
98BE
102
}
102
{ACAD_REACTORS
330
9885
102
}
330
9885
100
AcDbTableStyle
  3
Standard
 70
     0
 71
     0
 40
0.06
 41
0.06
280
     0
281
     0
  7
STANDARD
140
0.18
170
     2
 62
     0
 63
     7
283
     0
274
    -2
284
     1
 64
     0
275
    -2
285
     1
 65
     0
276
    -2
286
     1
 66
     0
277
    -2
287
     1
 67
     0
278
    -2
288
     1
 68
     0
279
    -2
289
     1
 69
     0
  7
STANDARD
140
0.25
170
     5
 62
     0
 63
     7
283
     0
274
    -2
284
     1
 64
     0
275
    -2
285
     1
 65
     0
276
    -2
286
     1
 66
     0
277
    -2
287
     1
 67
     0
278
    -2
288
     1
 68
     0
279
    -2
289
     1
 69
     0
  7
STANDARD
140
0.18
170
     5
 62
     0
 63
     7
283
     0
274
    -2
284
     1
 64
     0
275
    -2
285
     1
 65
     0
276
    -2
286
     1
 66
     0
277
    -2
287
     1
 67
     0
278
    -2
288
     1
 68
     0
279
    -2
289
     1
 69
     0
  0
VISUALSTYLE
  5
9871
102
{ACAD_XDICTIONARY
360
98CF
102
}
102
{ACAD_REACTORS
330
986B
102
}
330
986B
100
AcDbVisualStyle
  2
2dWireframe
 70
     4
 71
     0
 72
     2
 73
     0
 90
        0
 40
-0.6
 41
-30.0
 62
     5
 63
     7
 74
     1
 91
        4
 64
     7
 65
   257
 75
     1
175
     1
 42
1.0
 92
        0
 66
   257
 43
1.0
 76
     1
 77
     6
 78
     2
 67
     7
 79
     5
170
     0
171
     0
290
     0
174
     0
 93
        1
 44
0.0
173
     0
291
     0
 45
0.0
1001
ACAD
1000
AcDbSavedByObjectVersion
1070
     0
  0
VISUALSTYLE
  5
9870
102
{ACAD_XDICTIONARY
360
98CD
102
}
102
{ACAD_REACTORS
330
986B
102
}
330
986B
100
AcDbVisualStyle
  2
Basic
 70
     7
 71
     1
 72
     0
 73
     1
 90
        0
 40
-0.6
 41
-30.0
 62
     5
 63
     7
 74
     0
 91
        4
 64
     7
 65
   257
 75
     1
175
     1
 42
1.0
 92
        8
 66
     7
 43
1.0
 76
     1
 77
     6
 78
     2
 67
     7
 79
     5
170
     0
171
     0
290
     0
174
     0
 93
        1
 44
0.0
173
     0
291
     1
 45
0.0
1001
ACAD
1000
AcDbSavedByObjectVersion
1070
     0
  0
VISUALSTYLE
  5
9877
102
{ACAD_XDICTIONARY
360
98DB
102
}
102
{ACAD_REACTORS
330
986B
102
}
330
986B
100
AcDbVisualStyle
  2
Brighten
 70
    12
 71
     2
 72
     2
 73
     0
 90
        0
 40
-0.6
 41
-30.0
 62
     5
 63
     7
 74
     1
 91
        4
 64
     7
 65
   257
 75
     1
175
     1
 42
1.0
 92
        8
 66
     7
 43
1.0
 76
     1
 77
     6
 78
     2
 67
     7
 79
     5
170
     0
171
     0
290
     0
174
     0
 93
        1
 44
50.0
173
     0
291
     1
 45
0.0
1001
ACAD
1000
AcDbSavedByObjectVersion
1070
     0
  0
VISUALSTYLE
  5
987B
102
{ACAD_XDICTIONARY
360
98E3
102
}
102
{ACAD_REACTORS
330
986B
102
}
330
986B
100
AcDbVisualStyle
  2
ColorChange
 70
    16
 71
     2
 72
     2
 73
     3
 90
        0
 40
-0.6
 41
-30.0
 62
     5
 63
     8
 74
     1
 91
        4
 64
     7
 65
   257
 75
     1
175
     1
 42
1.0
 92
        8
 66
     8
 43
1.0
 76
     1
 77
     6
 78
     2
 67
     7
 79
     5
170
     0
171
     0
290
     0
174
     0
 93
        1
 44
0.0
173
     0
291
     1
 45
0.0
1001
ACAD
1000
AcDbSavedByObjectVersion
1070
     0
  0
VISUALSTYLE
  5
9874
102
{ACAD_XDICTIONARY
360
98D5
102
}
102
{ACAD_REACTORS
330
986B
102
}
330
986B
100
AcDbVisualStyle
  2
Conceptual
 70
     9
 71
     3
 72
     2
 73
     0
 90
        0
 40
-0.6
 41
-30.0
 62
     5
 63
     7
 74
     2
 91
        2
 64
     7
 65
   257
 75
     1
175
     1
 42
179.0
 92
        8
 66
     7
 43
1.0
 76
     1
 77
     6
 78
     2
 67
     7
 79
     3
170
     0
171
     0
290
     0
174
     0
 93
        1
 44
0.0
173
     0
291
     0
 45
0.0
1001
ACAD
1000
AcDbSavedByObjectVersion
1070
     0
  0
VISUALSTYLE
  5
9876
102
{ACAD_XDICTIONARY
360
98D9
102
}
102
{ACAD_REACTORS
330
986B
102
}
330
986B
100
AcDbVisualStyle
  2
Dim
 70
    11
 71
     2
 72
     2
 73
     0
 90
        0
 40
-0.6
 41
-30.0
 62
     5
 63
     7
 74
     1
 91
        4
 64
     7
 65
   257
 75
     1
175
     1
 42
1.0
 92
        8
 66
     7
 43
1.0
 76
     1
 77
     6
 78
     2
 67
     7
 79
     5
170
     0
171
     0
290
     0
174
     0
 93
        1
 44
-50.0
173
     0
291
     1
 45
0.0
1001
ACAD
1000
AcDbSavedByObjectVersion
1070
     0
  0
VISUALSTYLE
  5
9883
102
{ACAD_XDICTIONARY
360
98F3
102
}
102
{ACAD_REACTORS
330
986B
102
}
330
986B
100
AcDbVisualStyle
  2
EdgeColorOff
 70
    22
 71
     2
 72
     2
 73
     0
 90
        0
 40
-0.6
 41
-30.0
 62
     5
 63
     7
 74
     1
 91
        4
 64
     7
 65
   257
 75
     1
175
     1
 42
1.0
 92
        8
 66
     7
 43
1.0
 76
     1
 77
     6
 78
     2
 67
     7
 79
     5
170
     0
171
     0
290
     0
174
     0
 93
        1
 44
0.0
173
     0
291
     1
 45
0.0
1001
ACAD
1000
AcDbSavedByObjectVersion
1070
     0
  0
VISUALSTYLE
  5
987A
102
{ACAD_XDICTIONARY
360
98E1
102
}
102
{ACAD_REACTORS
330
986B
102
}
330
986B
100
AcDbVisualStyle
  2
Facepattern
 70
    15
 71
     2
 72
     2
 73
     0
 90
        0
 40
-0.6
 41
-30.0
 62
     5
 63
     7
 74
     1
 91
        4
 64
     7
 65
   257
 75
     1
175
     1
 42
1.0
 92
        8
 66
     7
 43
1.0
 76
     1
 77
     6
 78
     2
 67
     7
 79
     5
170
     0
171
     0
290
     0
174
     0
 93
        1
 44
0.0
173
     0
291
     1
 45
0.0
1001
ACAD
1000
AcDbSavedByObjectVersion
1070
     0
  0
VISUALSTYLE
  5
986C
102
{ACAD_XDICTIONARY
360
98C5
102
}
102
{ACAD_REACTORS
330
986B
102
}
330
986B
100
AcDbVisualStyle
  2
Flat
 70
     0
 71
     2
 72
     1
 73
     1
 90
        2
 40
-0.6
 41
30.0
 62
     5
 63
     7
 74
     0
 91
        0
 64
     7
 65
   257
 75
     1
175
     1
 42
1.0
 92
        8
 66
     7
 43
1.0
 76
     1
 77
     6
 78
     2
 67
     7
 79
     5
170
     0
171
     0
290
     0
174
     0
 93
       13
 44
0.0
173
     0
291
     1
 45
0.0
1001
ACAD
1000
AcDbSavedByObjectVersion
1070
     0
  0
VISUALSTYLE
  5
986D
102
{ACAD_XDICTIONARY
360
98C7
102
}
102
{ACAD_REACTORS
330
986B
102
}
330
986B
100
AcDbVisualStyle
  2
FlatWithEdges
 70
     1
 71
     2
 72
     1
 73
     1
 90
        2
 40
-0.6
 41
30.0
 62
     5
 63
     7
 74
     1
 91
        0
 64
     7
 65
   257
 75
     1
175
     1
 42
1.0
 92
        0
 66
   257
 43
1.0
 76
     1
 77
     6
 78
     2
 67
     7
 79
     5
170
     0
171
     0
290
     0
174
     0
 93
       13
 44
0.0
173
     0
291
     1
 45
0.0
1001
ACAD
1000
AcDbSavedByObjectVersion
1070
     0
  0
VISUALSTYLE
  5
986E
102
{ACAD_XDICTIONARY
360
98C9
102
}
102
{ACAD_REACTORS
330
986B
102
}
330
986B
100
AcDbVisualStyle
  2
Gouraud
 70
     2
 71
     2
 72
     2
 73
     1
 90
        2
 40
-0.6
 41
30.0
 62
     5
 63
     7
 74
     0
 91
        0
 64
     7
 65
   257
 75
     1
175
     1
 42
1.0
 92
        0
 66
     7
 43
1.0
 76
     1
 77
     6
 78
     2
 67
     7
 79
     5
170
     0
171
     0
290
     0
174
     0
 93
       13
 44
0.0
173
     0
291
     1
 45
0.0
1001
ACAD
1000
AcDbSavedByObjectVersion
1070
     0
  0
VISUALSTYLE
  5
986F
102
{ACAD_XDICTIONARY
360
98CB
102
}
102
{ACAD_REACTORS
330
986B
102
}
330
986B
100
AcDbVisualStyle
  2
GouraudWithEdges
 70
     3
 71
     2
 72
     2
 73
     1
 90
        2
 40
-0.6
 41
30.0
 62
     5
 63
     7
 74
     1
 91
        0
 64
     7
 65
   257
 75
     1
175
     1
 42
1.0
 92
        0
 66
   257
 43
1.0
 76
     1
 77
     6
 78
     2
 67
     7
 79
     5
170
     0
171
     0
290
     0
174
     0
 93
       13
 44
0.0
173
     0
291
     1
 45
0.0
1001
ACAD
1000
AcDbSavedByObjectVersion
1070
     0
  0
VISUALSTYLE
  5
9873
102
{ACAD_XDICTIONARY
360
98D3
102
}
102
{ACAD_REACTORS
330
986B
102
}
330
986B
100
AcDbVisualStyle
  2
Hidden
 70
     6
 71
     1
 72
     2
 73
     2
 90
        0
 40
-0.6
 41
-30.0
 62
     5
 63
     7
 74
     2
 91
        2
 64
     7
 65
   257
 75
     2
175
     1
 42
40.0
 92
        0
 66
   257
 43
1.0
 76
     1
 77
     6
 78
     2
 67
     7
 79
     3
170
     0
171
     0
290
     0
174
     0
 93
        1
 44
0.0
173
     0
291
     0
 45
0.0
1001
ACAD
1000
AcDbSavedByObjectVersion
1070
     0
  0
VISUALSTYLE
  5
9881
102
{ACAD_XDICTIONARY
360
98EF
102
}
102
{ACAD_REACTORS
330
986B
102
}
330
986B
100
AcDbVisualStyle
  2
JitterOff
 70
    20
 71
     2
 72
     2
 73
     0
 90
        0
 40
-0.6
 41
-30.0
 62
     5
 63
     7
 74
     1
 91
        4
 64
     7
 65
   257
 75
     1
175
     1
 42
1.0
 92
       10
 66
     7
 43
1.0
 76
     1
 77
     6
 78
     2
 67
     7
 79
     5
170
     0
171
     0
290
     0
174
     0
 93
        1
 44
0.0
173
     0
291
     1
 45
0.0
1001
ACAD
1000
AcDbSavedByObjectVersion
1070
     0
  0
VISUALSTYLE
  5
9879
102
{ACAD_XDICTIONARY
360
98DF
102
}
102
{ACAD_REACTORS
330
986B
102
}
330
986B
100
AcDbVisualStyle
  2
Linepattern
 70
    14
 71
     2
 72
     2
 73
     0
 90
        0
 40
-0.6
 41
-30.0
 62
     5
 63
     7
 74
     1
 91
        4
 64
     7
 65
   257
 75
     7
175
     7
 42
1.0
 92
        8
 66
     7
 43
1.0
 76
     1
 77
     6
 78
     2
 67
     7
 79
     5
170
     0
171
     0
290
     0
174
     0
 93
        1
 44
0.0
173
     0
291
     1
 45
0.0
1001
ACAD
1000
AcDbSavedByObjectVersion
1070
     0
  0
VISUALSTYLE
  5
9882
102
{ACAD_XDICTIONARY
360
98F1
102
}
102
{ACAD_REACTORS
330
986B
102
}
330
986B
100
AcDbVisualStyle
  2
OverhangOff
 70
    21
 71
     2
 72
     2
 73
     0
 90
        0
 40
-0.6
 41
-30.0
 62
     5
 63
     7
 74
     1
 91
        4
 64
     7
 65
   257
 75
     1
175
     1
 42
1.0
 92
        9
 66
     7
 43
1.0
 76
     1
 77
     6
 78
     2
 67
     7
 79
     5
170
     0
171
     0
290
     0
174
     0
 93
        1
 44
0.0
173
     0
291
     1
 45
0.0
1001
ACAD
1000
AcDbSavedByObjectVersion
1070
     0
  0
VISUALSTYLE
  5
9875
102
{ACAD_XDICTIONARY
360
98D7
102
}
102
{ACAD_REACTORS
330
986B
102
}
330
986B
100
AcDbVisualStyle
  2
Realistic
 70
     8
 71
     2
 72
     3
 73
     0
 90
        2
 40
-0.6
 41
30.0
 62
     5
 63
     7
 74
     0
 91
        0
 64
     7
 65
   257
 75
     1
175
     1
 42
1.0
 92
        8
 66
   257
 43
1.0
 76
     1
 77
     6
 78
     2
 67
     7
 79
     3
170
     0
171
     0
290
     0
174
     0
 93
       13
 44
0.0
173
     0
291
     0
 45
0.0
1001
ACAD
1000
AcDbSavedByObjectVersion
1070
     0
  0
VISUALSTYLE
  5
9880
102
{ACAD_XDICTIONARY
360
98ED
102
}
102
{ACAD_REACTORS
330
986B
102
}
330
986B
100
AcDbVisualStyle
  2
Shaded
 70
    27
 71
     2
 72
     2
 73
     1
 90
        2
 40
-0.6
 41
30.0
 62
     5
 63
     7
 74
     0
 91
        4
 64
     7
 65
   257
 75
     1
175
     1
 42
1.0
 92
        8
 66
   257
 43
1.0
 76
     1
 77
     6
 78
     2
 67
     8
 79
     3
170
     0
171
     0
290
     0
174
     0
 93
        5
 44
0.0
173
     0
291
     0
 45
0.0
1001
ACAD
1000
AcDbSavedByObjectVersion
1070
     0
  0
VISUALSTYLE
  5
987F
102
{ACAD_XDICTIONARY
360
98EB
102
}
102
{ACAD_REACTORS
330
986B
102
}
330
986B
100
AcDbVisualStyle
  2
Shaded with edges
 70
    26
 71
     2
 72
     2
 73
     1
 90
        2
 40
-0.6
 41
30.0
 62
     5
 63
     7
 74
     1
 91
       10
 64
     7
 65
   257
 75
     2
175
     1
 42
1.0
 92
        8
 66
   257
 43
1.0
 76
     1
 77
     6
 78
     2
 67
     7
 79
     3
170
     0
171
     0
290
     0
174
     0
 93
        5
 44
0.0
173
     0
291
     0
 45
0.0
1001
ACAD
1000
AcDbSavedByObjectVersion
1070
     0
  0
VISUALSTYLE
  5
987C
102
{ACAD_XDICTIONARY
360
98E5
102
}
102
{ACAD_REACTORS
330
986B
102
}
330
986B
100
AcDbVisualStyle
  2
Shades of Gray
 70
    23
 71
     2
 72
     2
 73
     3
 90
        0
 40
-0.6
 41
-30.0
 62
     5
 63
     7
 74
     2
 91
        2
 64
     7
 65
     7
 75
     1
175
     1
 42
40.0
 92
        8
 66
     7
 43
1.0
 76
     1
 77
     6
 78
     2
 67
     7
 79
     3
170
     0
171
     0
290
     0
174
     0
 93
        1
 44
0.0
173
     0
291
     0
 45
0.0
1001
ACAD
1000
AcDbSavedByObjectVersion
1070
     0
  0
VISUALSTYLE
  5
987D
102
{ACAD_XDICTIONARY
360
98E7
102
}
102
{ACAD_REACTORS
330
986B
102
}
330
986B
100
AcDbVisualStyle
  2
Sketchy
 70
    24
 71
     1
 72
     2
 73
     2
 90
        0
 40
-0.6
 41
-30.0
 62
     5
 63
     7
 74
     2
 91
        2
 64
     7
 65
     7
 75
     1
175
     1
 42
40.0
 92
       11
 66
     7
 43
1.0
 76
     1
 77
     6
 78
     2
 67
     7
 79
     6
170
     0
171
     0
290
     0
174
     0
 93
        1
 44
0.0
173
     0
291
     0
 45
0.0
1001
ACAD
1000
AcDbSavedByObjectVersion
1070
     0
  0
VISUALSTYLE
  5
9878
102
{ACAD_XDICTIONARY
360
98DD
102
}
102
{ACAD_REACTORS
330
986B
102
}
330
986B
100
AcDbVisualStyle
  2
Thicken
 70
    13
 71
     2
 72
     2
 73
     0
 90
        0
 40
-0.6
 41
-30.0
 62
     5
 63
     7
 74
     1
 91
        4
 64
     7
 65
   257
 75
     1
175
     1
 42
1.0
 92
       12
 66
     7
 43
1.0
 76
     1
 77
     6
 78
     2
 67
     7
 79
     5
170
     0
171
     0
290
     0
174
     0
 93
        1
 44
0.0
173
     0
291
     1
 45
0.0
1001
ACAD
1000
AcDbSavedByObjectVersion
1070
     0
  0
VISUALSTYLE
  5
9872
102
{ACAD_XDICTIONARY
360
98D1
102
}
102
{ACAD_REACTORS
330
986B
102
}
330
986B
100
AcDbVisualStyle
  2
Wireframe
 70
     5
 71
     0
 72
     2
 73
     0
 90
        0
 40
-0.6
 41
-30.0
 62
     5
 63
     7
 74
     1
 91
        4
 64
     7
 65
   257
 75
     1
175
     1
 42
1.0
 92
        0
 66
   257
 43
1.0
 76
     1
 77
     6
 78
     2
 67
     7
 79
     3
170
     0
171
     0
290
     0
174
     0
 93
        1
 44
0.0
173
     0
291
     0
 45
0.0
1001
ACAD
1000
AcDbSavedByObjectVersion
1070
     0
  0
VISUALSTYLE
  5
987E
102
{ACAD_XDICTIONARY
360
98E9
102
}
102
{ACAD_REACTORS
330
986B
102
}
330
986B
100
AcDbVisualStyle
  2
X-Ray
 70
    25
 71
     2
 72
     2
 73
     1
 90
        1
 40
0.5
 41
-30.0
 62
     5
 63
     7
 74
     1
 91
        0
 64
     7
 65
   257
 75
     1
175
     1
 42
1.0
 92
        8
 66
     7
 43
1.0
 76
     1
 77
     6
 78
     2
 67
     7
 79
     3
170
     0
171
     0
290
     0
174
     0
 93
       13
 44
0.0
173
     0
291
     0
 45
0.0
1001
ACAD
1000
AcDbSavedByObjectVersion
1070
     0
  0
DICTIONARYVAR
  5
98B8
102
{ACAD_REACTORS
330
98B3
102
}
330
98B3
100
DictionaryVariables
280
     0
  1
1:1
  0
DICTIONARYVAR
  5
98B5
102
{ACAD_REACTORS
330
98B3
102
}
330
98B3
100
DictionaryVariables
280
     0
  1
STANDARD
  0
DICTIONARYVAR
  5
98B4
102
{ACAD_REACTORS
330
98B3
102
}
330
98B3
100
DictionaryVariables
280
     0
  1
STANDARD
  0
DICTIONARYVAR
  5
98B6
102
{ACAD_REACTORS
330
98B3
102
}
330
98B3
100
DictionaryVariables
280
     0
  1
Imperial24
  0
DICTIONARYVAR
  5
98B7
102
{ACAD_REACTORS
330
98B3
102
}
330
98B3
100
DictionaryVariables
280
     0
  1
Imperial24
  0
DICTIONARYVAR
  5
98BB
102
{ACAD_REACTORS
330
98B3
102
}
330
98B3
100
DictionaryVariables
280
     0
  1
1
  0
DICTIONARYVAR
  5
98BA
102
{ACAD_REACTORS
330
98B3
102
}
330
98B3
100
DictionaryVariables
280
     0
  1
0
  0
DICTIONARYVAR
  5
98B9
102
{ACAD_REACTORS
330
98B3
102
}
330
98B3
100
DictionaryVariables
280
     0
  1
127
  0
DICTIONARYVAR
  5
98BC
102
{ACAD_REACTORS
330
98B3
102
}
330
98B3
100
DictionaryVariables
280
     0
  1
2
  0
DICTIONARY
  5
98F9
330
989E
100
AcDbDictionary
280
     1
281
     1
  3
ACAD_XREC_ROUNDTRIP
360
98FA
  0
DICTIONARY
  5
98FB
330
989F
100
AcDbDictionary
280
     1
281
     1
  3
ACAD_XREC_ROUNDTRIP
360
98FC
  0
DICTIONARY
  5
98FD
330
98A0
100
AcDbDictionary
280
     1
281
     1
  3
ACAD_XREC_ROUNDTRIP
360
98FE
  0
DICTIONARY
  5
985C
330
985B
100
AcDbDictionary
280
     1
281
     1
  3
ACAD_XREC_ROUNDTRIP
360
98C3
  3
BUMPTILE
360
985E
  3
DIFFUSETILE
360
985D
  3
OPACITYTILE
360
9861
  3
REFLECTIONTILE
360
9860
  3
REFRACTIONTILE
360
9862
  3
SPECULARTILE
360
985F
  0
DICTIONARY
  5
9854
330
9853
100
AcDbDictionary
280
     1
281
     1
  3
ACAD_XREC_ROUNDTRIP
360
98C2
  3
BUMPTILE
360
9856
  3
DIFFUSETILE
360
9855
  3
OPACITYTILE
360
9859
  3
REFLECTIONTILE
360
9858
  3
REFRACTIONTILE
360
985A
  3
SPECULARTILE
360
9857
  0
DICTIONARY
  5
9864
330
9863
100
AcDbDictionary
280
     1
281
     1
  3
ACAD_XREC_ROUNDTRIP
360
98C4
  3
BUMPTILE
360
9866
  3
DIFFUSETILE
360
9865
  3
OPACITYTILE
360
9869
  3
REFLECTIONTILE
360
9868
  3
REFRACTIONTILE
360
986A
  3
SPECULARTILE
360
9867
  0
DICTIONARY
  5
98F7
330
989C
100
AcDbDictionary
280
     1
281
     1
  3
ACAD_XREC_ROUNDTRIP
360
98F8
  0
DICTIONARY
  5
98BE
330
9886
100
AcDbDictionary
280
     1
281
     1
  3
ACAD_ROUNDTRIP_2008_TABLESTYLE_CELLSTYLEMAP
360
98BF
  3
ACAD_XREC_ROUNDTRIP
360
98F5
  0
DICTIONARY
  5
98CF
330
9871
100
AcDbDictionary
280
     1
281
     1
  3
ACAD_XREC_ROUNDTRIP
360
98D0
  0
DICTIONARY
  5
98CD
330
9870
100
AcDbDictionary
280
     1
281
     1
  3
ACAD_XREC_ROUNDTRIP
360
98CE
  0
DICTIONARY
  5
98DB
330
9877
100
AcDbDictionary
280
     1
281
     1
  3
ACAD_XREC_ROUNDTRIP
360
98DC
  0
DICTIONARY
  5
98E3
330
987B
100
AcDbDictionary
280
     1
281
     1
  3
ACAD_XREC_ROUNDTRIP
360
98E4
  0
DICTIONARY
  5
98D5
330
9874
100
AcDbDictionary
280
     1
281
     1
  3
ACAD_XREC_ROUNDTRIP
360
98D6
  0
DICTIONARY
  5
98D9
330
9876
100
AcDbDictionary
280
     1
281
     1
  3
ACAD_XREC_ROUNDTRIP
360
98DA
  0
DICTIONARY
  5
98F3
330
9883
100
AcDbDictionary
280
     1
281
     1
  3
ACAD_XREC_ROUNDTRIP
360
98F4
  0
DICTIONARY
  5
98E1
330
987A
100
AcDbDictionary
280
     1
281
     1
  3
ACAD_XREC_ROUNDTRIP
360
98E2
  0
DICTIONARY
  5
98C5
330
986C
100
AcDbDictionary
280
     1
281
     1
  3
ACAD_XREC_ROUNDTRIP
360
98C6
  0
DICTIONARY
  5
98C7
330
986D
100
AcDbDictionary
280
     1
281
     1
  3
ACAD_XREC_ROUNDTRIP
360
98C8
  0
DICTIONARY
  5
98C9
330
986E
100
AcDbDictionary
280
     1
281
     1
  3
ACAD_XREC_ROUNDTRIP
360
98CA
  0
DICTIONARY
  5
98CB
330
986F
100
AcDbDictionary
280
     1
281
     1
  3
ACAD_XREC_ROUNDTRIP
360
98CC
  0
DICTIONARY
  5
98D3
330
9873
100
AcDbDictionary
280
     1
281
     1
  3
ACAD_XREC_ROUNDTRIP
360
98D4
  0
DICTIONARY
  5
98EF
330
9881
100
AcDbDictionary
280
     1
281
     1
  3
ACAD_XREC_ROUNDTRIP
360
98F0
  0
DICTIONARY
  5
98DF
330
9879
100
AcDbDictionary
280
     1
281
     1
  3
ACAD_XREC_ROUNDTRIP
360
98E0
  0
DICTIONARY
  5
98F1
330
9882
100
AcDbDictionary
280
     1
281
     1
  3
ACAD_XREC_ROUNDTRIP
360
98F2
  0
DICTIONARY
  5
98D7
330
9875
100
AcDbDictionary
280
     1
281
     1
  3
ACAD_XREC_ROUNDTRIP
360
98D8
  0
DICTIONARY
  5
98ED
330
9880
100
AcDbDictionary
280
     1
281
     1
  3
ACAD_XREC_ROUNDTRIP
360
98EE
  0
DICTIONARY
  5
98EB
330
987F
100
AcDbDictionary
280
     1
281
     1
  3
ACAD_XREC_ROUNDTRIP
360
98EC
  0
DICTIONARY
  5
98E5
330
987C
100
AcDbDictionary
280
     1
281
     1
  3
ACAD_XREC_ROUNDTRIP
360
98E6
  0
DICTIONARY
  5
98E7
330
987D
100
AcDbDictionary
280
     1
281
     1
  3
ACAD_XREC_ROUNDTRIP
360
98E8
  0
DICTIONARY
  5
98DD
330
9878
100
AcDbDictionary
280
     1
281
     1
  3
ACAD_XREC_ROUNDTRIP
360
98DE
  0
DICTIONARY
  5
98D1
330
9872
100
AcDbDictionary
280
     1
281
     1
  3
ACAD_XREC_ROUNDTRIP
360
98D2
  0
DICTIONARY
  5
98E9
330
987E
100
AcDbDictionary
280
     1
281
     1
  3
ACAD_XREC_ROUNDTRIP
360
98EA
  0
XRECORD
  5
98FA
102
{ACAD_REACTORS
330
98F9
102
}
330
98F9
100
AcDbXrecord
280
     1
102
DISPLAYNAME
  1
Imperial24
102
FLAGS
 90
        0
  0
XRECORD
  5
98FC
102
{ACAD_REACTORS
330
98FB
102
}
330
98FB
100
AcDbXrecord
280
     1
102
SHADEPLOT
 70
     0
102
SHADEPLOTRESLEVEL
 70
     2
102
SHADEPLOTCUSTOMDPI
 70
   300
  0
XRECORD
  5
98FE
102
{ACAD_REACTORS
330
98FD
102
}
330
98FD
100
AcDbXrecord
280
     1
102
SHADEPLOT
 70
     0
102
SHADEPLOTRESLEVEL
 70
     2
102
SHADEPLOTCUSTOMDPI
 70
   300
  0
XRECORD
  5
98C3
102
{ACAD_REACTORS
330
985C
102
}
330
985C
100
AcDbXrecord
280
     1
102
MATERIAL
148
0.0
149
0.0
149
0.0
 93
        0
 94
      127
282
     0
 72
     0
 77
     0
171
     0
175
     0
179
     0
273
     0
  0
XRECORD
  5
985E
102
{ACAD_REACTORS
330
985C
102
}
330
985C
100
AcDbXrecord
280
     1
270
     1
271
     1
  0
XRECORD
  5
985D
102
{ACAD_REACTORS
330
985C
102
}
330
985C
100
AcDbXrecord
280
     1
270
     1
271
     1
  0
XRECORD
  5
9861
102
{ACAD_REACTORS
330
985C
102
}
330
985C
100
AcDbXrecord
280
     1
270
     1
271
     1
  0
XRECORD
  5
9860
102
{ACAD_REACTORS
330
985C
102
}
330
985C
100
AcDbXrecord
280
     1
270
     1
271
     1
  0
XRECORD
  5
9862
102
{ACAD_REACTORS
330
985C
102
}
330
985C
100
AcDbXrecord
280
     1
270
     1
271
     1
  0
XRECORD
  5
985F
102
{ACAD_REACTORS
330
985C
102
}
330
985C
100
AcDbXrecord
280
     1
270
     1
271
     1
  0
XRECORD
  5
98C2
102
{ACAD_REACTORS
330
9854
102
}
330
9854
100
AcDbXrecord
280
     1
102
MATERIAL
148
0.0
149
0.0
149
0.0
 93
        0
 94
      127
282
     0
 72
     0
 77
     0
171
     0
175
     0
179
     0
273
     0
  0
XRECORD
  5
9856
102
{ACAD_REACTORS
330
9854
102
}
330
9854
100
AcDbXrecord
280
     1
270
     1
271
     1
  0
XRECORD
  5
9855
102
{ACAD_REACTORS
330
9854
102
}
330
9854
100
AcDbXrecord
280
     1
270
     1
271
     1
  0
XRECORD
  5
9859
102
{ACAD_REACTORS
330
9854
102
}
330
9854
100
AcDbXrecord
280
     1
270
     1
271
     1
  0
XRECORD
  5
9858
102
{ACAD_REACTORS
330
9854
102
}
330
9854
100
AcDbXrecord
280
     1
270
     1
271
     1
  0
XRECORD
  5
985A
102
{ACAD_REACTORS
330
9854
102
}
330
9854
100
AcDbXrecord
280
     1
270
     1
271
     1
  0
XRECORD
  5
9857
102
{ACAD_REACTORS
330
9854
102
}
330
9854
100
AcDbXrecord
280
     1
270
     1
271
     1
  0
XRECORD
  5
98C4
102
{ACAD_REACTORS
330
9864
102
}
330
9864
100
AcDbXrecord
280
     1
102
MATERIAL
148
0.0
149
0.0
149
0.0
 93
        0
 94
      127
282
     0
 72
     0
 77
     0
171
     0
175
     0
179
     0
273
     0
  0
XRECORD
  5
9866
102
{ACAD_REACTORS
330
9864
102
}
330
9864
100
AcDbXrecord
280
     1
270
     1
271
     1
  0
XRECORD
  5
9865
102
{ACAD_REACTORS
330
9864
102
}
330
9864
100
AcDbXrecord
280
     1
270
     1
271
     1
  0
XRECORD
  5
9869
102
{ACAD_REACTORS
330
9864
102
}
330
9864
100
AcDbXrecord
280
     1
270
     1
271
     1
  0
XRECORD
  5
9868
102
{ACAD_REACTORS
330
9864
102
}
330
9864
100
AcDbXrecord
280
     1
270
     1
271
     1
  0
XRECORD
  5
986A
102
{ACAD_REACTORS
330
9864
102
}
330
9864
100
AcDbXrecord
280
     1
270
     1
271
     1
  0
XRECORD
  5
9867
102
{ACAD_REACTORS
330
9864
102
}
330
9864
100
AcDbXrecord
280
     1
270
     1
271
     1
  0
XRECORD
  5
98F8
102
{ACAD_REACTORS
330
98F7
102
}
330
98F7
100
AcDbXrecord
280
     1
102
DISPLAYNAME
  1
Imperial24
102
FLAGS
 90
        0
  0
CELLSTYLEMAP
  5
98BF
102
{ACAD_REACTORS
330
98BE
102
}
330
98BE
100
AcDbCellStyleMap
 90
        3
300
CELLSTYLE
  1
TABLEFORMAT_BEGIN
 90
        5
170
     1
 91
        0
 92
    32768
 62
   257
 93
        1
300
CONTENTFORMAT
  1
CONTENTFORMAT_BEGIN
 90
        0
 91
        0
 92
      512
 93
        0
300

 40
0.0
140
1.0
 94
        5
 62
     0
340
9651
144
0.25
309
CONTENTFORMAT_END
171
     0
 94
        0
309
TABLEFORMAT_END
  1
CELLSTYLE_BEGIN
 90
        1
 91
        1
300
_TITLE
309
CELLSTYLE_END
300
CELLSTYLE
  1
TABLEFORMAT_BEGIN
 90
        5
170
     1
 91
        0
 92
        0
 62
   257
 93
        1
300
CONTENTFORMAT
  1
CONTENTFORMAT_BEGIN
 90
        0
 91
        0
 92
      512
 93
        0
300

 40
0.0
140
1.0
 94
        5
 62
     0
340
9651
144
0.18
309
CONTENTFORMAT_END
171
     0
 94
        0
309
TABLEFORMAT_END
  1
CELLSTYLE_BEGIN
 90
        2
 91
        1
300
_HEADER
309
CELLSTYLE_END
300
CELLSTYLE
  1
TABLEFORMAT_BEGIN
 90
        5
170
     1
 91
        0
 92
        0
 62
   257
 93
        1
300
CONTENTFORMAT
  1
CONTENTFORMAT_BEGIN
 90
        0
 91
        0
 92
      512
 93
        0
300

 40
0.0
140
1.0
 94
        2
 62
     0
340
9651
144
0.18
309
CONTENTFORMAT_END
171
     0
 94
        0
309
TABLEFORMAT_END
  1
CELLSTYLE_BEGIN
 90
        3
 91
        2
300
_DATA
309
CELLSTYLE_END
  0
XRECORD
  5
98F5
102
{ACAD_REACTORS
330
98BE
102
}
330
98BE
100
AcDbXrecord
280
     1
102
ACAD_ROUNDTRIP_PRE2007_TABLESTYLE
 90
      512
 91
        0
  1

 92
      512
 93
        0
  2

 94
      512
 95
        0
  3

  0
XRECORD
  5
98D0
102
{ACAD_REACTORS
330
98CF
102
}
330
98CF
100
AcDbXrecord
280
     1
102
RTVSPost2010Prop28
280
     1
102
RTVSPost2010PropOp28
 70
     1
102
RTVSPost2010Prop29
280
     1
102
RTVSPost2010PropOp29
 70
     1
102
RTVSPost2010Prop30
280
     0
102
RTVSPost2010PropOp30
 70
     1
102
RTVSPost2010Prop31
280
     0
102
RTVSPost2010PropOp31
 70
     1
102
RTVSPost2010Prop32
280
     0
102
RTVSPost2010PropOp32
 70
     1
102
RTVSPost2010Prop33
280
     0
102
RTVSPost2010PropOp33
 70
     1
102
RTVSPost2010Prop34
280
     0
102
RTVSPost2010PropOp34
 70
     1
102
RTVSPost2010Prop35
280
     0
102
RTVSPost2010PropOp35
 70
     1
102
RTVSPost2010Prop36
280
     0
102
RTVSPost2010PropOp36
 70
     1
102
RTVSPost2010Prop37
 90
       50
102
RTVSPost2010PropOp37
 70
     1
102
RTVSPost2010Prop38
140
0.0
102
RTVSPost2010PropOp38
 70
     1
102
RTVSPost2010Prop39
140
1.0
102
RTVSPost2010PropOp39
 70
     1
102
RTVSPost2010Prop40
 90
        0
102
RTVSPost2010PropOp40
 70
     1
102
RTVSPost2010Prop41ColorIndex
 90
       18
102
RTVSPost2010Prop41ColorRGB
 90
        0
102
RTVSPost2010PropOp41
 70
     1
102
RTVSPost2010Prop42
 90
       50
102
RTVSPost2010PropOp42
 70
     1
102
RTVSPost2010Prop43
 90
        3
102
RTVSPost2010PropOp43
 70
     1
102
RTVSPost2010Prop44ColorIndex
 90
        5
102
RTVSPost2010Prop44ColorRGB
 90
      255
102
RTVSPost2010PropOp44
 70
     1
102
RTVSPost2010Prop45
280
     0
102
RTVSPost2010PropOp45
 70
     1
102
RTVSPost2010Prop46
 90
       50
102
RTVSPost2010PropOp46
 70
     1
102
RTVSPost2010Prop47
 90
       50
102
RTVSPost2010PropOp47
 70
     1
102
RTVSPost2010Prop48
 90
       50
102
RTVSPost2010PropOp48
 70
     1
102
RTVSPost2010Prop49
280
     0
102
RTVSPost2010PropOp49
 70
     1
102
RTVSPost2010Prop50
 90
       50
102
RTVSPost2010PropOp50
 70
     1
102
RTVSPost2010Prop51ColorIndex
 90
      256
102
RTVSPost2010Prop51ColorRGB
 90
-16777216
102
RTVSPost2010PropOp51
 70
     0
102
RTVSPost2010Prop52
140
1.0
102
RTVSPost2010PropOp52
 70
     0
102
RTVSPost2010Prop53
 90
        2
102
RTVSPost2010PropOp53
 70
     1
102
RTVSPost2010Prop54
  1
strokes_ogs.tif
102
RTVSPost2010PropOp54
 70
     1
102
RTVSPost2010Prop55
280
     0
102
RTVSPost2010PropOp55
 70
     1
102
RTVSPost2010Prop56
140
1.0
102
RTVSPost2010PropOp56
 70
     1
102
RTVSPost2010Prop57
140
1.0
102
RTVSPost2010PropOp57
 70
     1
102
RTVSPropertyOp0
 70
     1
102
RTVSPropertyOp1
 70
     1
102
RTVSPropertyOp2
 70
     1
102
RTVSPropertyOp3
 70
     1
102
RTVSPropertyOp4
 70
     1
102
RTVSPropertyOp5
 70
     1
102
RTVSPropertyOp6
 70
     1
102
RTVSPropertyOp7
 70
     1
102
RTVSPropertyOp8
 70
     1
102
RTVSPropertyOp9
 70
     1
102
RTVSPropertyOp10
 70
     1
102
RTVSPropertyOp11
 70
     1
102
RTVSPropertyOp12
 70
     1
102
RTVSPropertyOp13
 70
     1
102
RTVSPropertyOp14
 70
     1
102
RTVSPropertyOp15
 70
     1
102
RTVSPropertyOp16
 70
     1
102
RTVSPropertyOp17
 70
     1
102
RTVSPropertyOp18
 70
     1
102
RTVSPropertyOp19
 70
     1
102
RTVSPropertyOp20
 70
     1
102
RTVSPropertyOp21
 70
     1
102
RTVSPropertyOp22
 70
     1
102
RTVSPropertyOp23
 70
     1
102
RTVSPropertyOp24
 70
     1
102
RTVSPropertyOp25
 70
     1
102
RTVSPropertyOp26
 70
     1
102
RTVSPropertyOp27
 70
     1
102
RTVSPropertyOp28
 70
     1
102
RTVSPropertyOp29
 70
     1
102
RTVSPropertyOp30
 70
     1
102
RTVSPropertyOp31
 70
     1
102
RTVSPropertyOp32
 70
     1
102
RTVSPropertyOp33
 70
     1
102
RTVSPropertyOp34
 70
     1
102
RTVSPropertyOp35
 70
     1
102
RTVSPropertyOp36
 70
     1
102
RTVSPropertyOp37
 70
     1
102
RTVSPropertyOp38
 70
     1
102
RTVSPropertyOp39
 70
     1
102
RTVSPropertyOp40
 70
     1
102
RTVSPropertyOp41
 70
     1
102
RTVSPropertyOp42
 70
     1
102
RTVSPropertyOp43
 70
     1
102
RTVSPropertyOp44
 70
     1
102
RTVSPropertyOp45
 70
     1
102
RTVSPropertyOp46
 70
     1
102
RTVSPropertyOp47
 70
     1
102
RTVSPropertyOp48
 70
     1
102
RTVSPropertyOp49
 70
     1
102
RTVSPropertyOp50
 70
     1
102
RTVSPropertyOp51
 70
     0
102
RTVSPropertyOp52
 70
     0
102
RTVSPropertyOp53
 70
     1
102
RTVSPropertyOp54
 70
     1
102
RTVSPropertyOp55
 70
     1
102
RTVSPropertyOp56
 70
     1
102
RTVSPropertyOp57
 70
     1
102
RTVSPropertyOp58
 70
     1
102
RTVSPropertyOp59
 70
     1
102
RTVSPropertyOp60
 70
     1
102
RTVSPropertyOp61
 70
     1
102
RTVSPropertyOp62
 70
     1
  0
XRECORD
  5
98CE
102
{ACAD_REACTORS
330
98CD
102
}
330
98CD
100
AcDbXrecord
280
     1
102
RTVSPost2010Prop28
280
     0
102
RTVSPost2010PropOp28
 70
     1
102
RTVSPost2010Prop29
280
     1
102
RTVSPost2010PropOp29
 70
     1
102
RTVSPost2010Prop30
280
     1
102
RTVSPost2010PropOp30
 70
     1
102
RTVSPost2010Prop31
280
     0
102
RTVSPost2010PropOp31
 70
     1
102
RTVSPost2010Prop32
280
     0
102
RTVSPost2010PropOp32
 70
     1
102
RTVSPost2010Prop33
280
     0
102
RTVSPost2010PropOp33
 70
     1
102
RTVSPost2010Prop34
280
     0
102
RTVSPost2010PropOp34
 70
     1
102
RTVSPost2010Prop35
280
     0
102
RTVSPost2010PropOp35
 70
     1
102
RTVSPost2010Prop36
280
     0
102
RTVSPost2010PropOp36
 70
     1
102
RTVSPost2010Prop37
 90
       50
102
RTVSPost2010PropOp37
 70
     1
102
RTVSPost2010Prop38
140
0.0
102
RTVSPost2010PropOp38
 70
     1
102
RTVSPost2010Prop39
140
1.0
102
RTVSPost2010PropOp39
 70
     1
102
RTVSPost2010Prop40
 90
        0
102
RTVSPost2010PropOp40
 70
     1
102
RTVSPost2010Prop41ColorIndex
 90
       18
102
RTVSPost2010Prop41ColorRGB
 90
        0
102
RTVSPost2010PropOp41
 70
     1
102
RTVSPost2010Prop42
 90
       50
102
RTVSPost2010PropOp42
 70
     1
102
RTVSPost2010Prop43
 90
        3
102
RTVSPost2010PropOp43
 70
     1
102
RTVSPost2010Prop44ColorIndex
 90
        5
102
RTVSPost2010Prop44ColorRGB
 90
      255
102
RTVSPost2010PropOp44
 70
     1
102
RTVSPost2010Prop45
280
     0
102
RTVSPost2010PropOp45
 70
     1
102
RTVSPost2010Prop46
 90
       50
102
RTVSPost2010PropOp46
 70
     1
102
RTVSPost2010Prop47
 90
       50
102
RTVSPost2010PropOp47
 70
     1
102
RTVSPost2010Prop48
 90
       50
102
RTVSPost2010PropOp48
 70
     1
102
RTVSPost2010Prop49
280
     0
102
RTVSPost2010PropOp49
 70
     1
102
RTVSPost2010Prop50
 90
       50
102
RTVSPost2010PropOp50
 70
     1
102
RTVSPost2010Prop51ColorIndex
 90
      256
102
RTVSPost2010Prop51ColorRGB
 90
-16777216
102
RTVSPost2010PropOp51
 70
     0
102
RTVSPost2010Prop52
140
1.0
102
RTVSPost2010PropOp52
 70
     0
102
RTVSPost2010Prop53
 90
        2
102
RTVSPost2010PropOp53
 70
     1
102
RTVSPost2010Prop54
  1
strokes_ogs.tif
102
RTVSPost2010PropOp54
 70
     1
102
RTVSPost2010Prop55
280
     0
102
RTVSPost2010PropOp55
 70
     1
102
RTVSPost2010Prop56
140
1.0
102
RTVSPost2010PropOp56
 70
     1
102
RTVSPost2010Prop57
140
1.0
102
RTVSPost2010PropOp57
 70
     1
102
RTVSPropertyOp0
 70
     1
102
RTVSPropertyOp1
 70
     1
102
RTVSPropertyOp2
 70
     1
102
RTVSPropertyOp3
 70
     1
102
RTVSPropertyOp4
 70
     1
102
RTVSPropertyOp5
 70
     1
102
RTVSPropertyOp6
 70
     1
102
RTVSPropertyOp7
 70
     1
102
RTVSPropertyOp8
 70
     1
102
RTVSPropertyOp9
 70
     1
102
RTVSPropertyOp10
 70
     1
102
RTVSPropertyOp11
 70
     1
102
RTVSPropertyOp12
 70
     1
102
RTVSPropertyOp13
 70
     1
102
RTVSPropertyOp14
 70
     1
102
RTVSPropertyOp15
 70
     1
102
RTVSPropertyOp16
 70
     1
102
RTVSPropertyOp17
 70
     1
102
RTVSPropertyOp18
 70
     1
102
RTVSPropertyOp19
 70
     1
102
RTVSPropertyOp20
 70
     1
102
RTVSPropertyOp21
 70
     1
102
RTVSPropertyOp22
 70
     1
102
RTVSPropertyOp23
 70
     1
102
RTVSPropertyOp24
 70
     1
102
RTVSPropertyOp25
 70
     1
102
RTVSPropertyOp26
 70
     1
102
RTVSPropertyOp27
 70
     1
102
RTVSPropertyOp28
 70
     1
102
RTVSPropertyOp29
 70
     1
102
RTVSPropertyOp30
 70
     1
102
RTVSPropertyOp31
 70
     1
102
RTVSPropertyOp32
 70
     1
102
RTVSPropertyOp33
 70
     1
102
RTVSPropertyOp34
 70
     1
102
RTVSPropertyOp35
 70
     1
102
RTVSPropertyOp36
 70
     1
102
RTVSPropertyOp37
 70
     1
102
RTVSPropertyOp38
 70
     1
102
RTVSPropertyOp39
 70
     1
102
RTVSPropertyOp40
 70
     1
102
RTVSPropertyOp41
 70
     1
102
RTVSPropertyOp42
 70
     1
102
RTVSPropertyOp43
 70
     1
102
RTVSPropertyOp44
 70
     1
102
RTVSPropertyOp45
 70
     1
102
RTVSPropertyOp46
 70
     1
102
RTVSPropertyOp47
 70
     1
102
RTVSPropertyOp48
 70
     1
102
RTVSPropertyOp49
 70
     1
102
RTVSPropertyOp50
 70
     1
102
RTVSPropertyOp51
 70
     0
102
RTVSPropertyOp52
 70
     0
102
RTVSPropertyOp53
 70
     1
102
RTVSPropertyOp54
 70
     1
102
RTVSPropertyOp55
 70
     1
102
RTVSPropertyOp56
 70
     1
102
RTVSPropertyOp57
 70
     1
102
RTVSPropertyOp58
 70
     1
102
RTVSPropertyOp59
 70
     1
102
RTVSPropertyOp60
 70
     1
102
RTVSPropertyOp61
 70
     1
102
RTVSPropertyOp62
 70
     1
  0
XRECORD
  5
98DC
102
{ACAD_REACTORS
330
98DB
102
}
330
98DB
100
AcDbXrecord
280
     1
102
RTVSPost2010Prop28
280
     0
102
RTVSPost2010PropOp28
 70
     1
102
RTVSPost2010Prop29
280
     1
102
RTVSPost2010PropOp29
 70
     1
102
RTVSPost2010Prop30
280
     1
102
RTVSPost2010PropOp30
 70
     1
102
RTVSPost2010Prop31
280
     0
102
RTVSPost2010PropOp31
 70
     1
102
RTVSPost2010Prop32
280
     0
102
RTVSPost2010PropOp32
 70
     1
102
RTVSPost2010Prop33
280
     0
102
RTVSPost2010PropOp33
 70
     1
102
RTVSPost2010Prop34
280
     0
102
RTVSPost2010PropOp34
 70
     1
102
RTVSPost2010Prop35
280
     0
102
RTVSPost2010PropOp35
 70
     1
102
RTVSPost2010Prop36
280
     0
102
RTVSPost2010PropOp36
 70
     1
102
RTVSPost2010Prop37
 90
       50
102
RTVSPost2010PropOp37
 70
     1
102
RTVSPost2010Prop38
140
0.0
102
RTVSPost2010PropOp38
 70
     1
102
RTVSPost2010Prop39
140
1.0
102
RTVSPost2010PropOp39
 70
     1
102
RTVSPost2010Prop40
 90
        0
102
RTVSPost2010PropOp40
 70
     1
102
RTVSPost2010Prop41ColorIndex
 90
       18
102
RTVSPost2010Prop41ColorRGB
 90
        0
102
RTVSPost2010PropOp41
 70
     1
102
RTVSPost2010Prop42
 90
       50
102
RTVSPost2010PropOp42
 70
     1
102
RTVSPost2010Prop43
 90
        3
102
RTVSPost2010PropOp43
 70
     1
102
RTVSPost2010Prop44ColorIndex
 90
        5
102
RTVSPost2010Prop44ColorRGB
 90
      255
102
RTVSPost2010PropOp44
 70
     1
102
RTVSPost2010Prop45
280
     0
102
RTVSPost2010PropOp45
 70
     1
102
RTVSPost2010Prop46
 90
       50
102
RTVSPost2010PropOp46
 70
     1
102
RTVSPost2010Prop47
 90
       50
102
RTVSPost2010PropOp47
 70
     1
102
RTVSPost2010Prop48
 90
       50
102
RTVSPost2010PropOp48
 70
     1
102
RTVSPost2010Prop49
280
     0
102
RTVSPost2010PropOp49
 70
     1
102
RTVSPost2010Prop50
 90
       50
102
RTVSPost2010PropOp50
 70
     1
102
RTVSPost2010Prop51ColorIndex
 90
      256
102
RTVSPost2010Prop51ColorRGB
 90
-16777216
102
RTVSPost2010PropOp51
 70
     0
102
RTVSPost2010Prop52
140
1.0
102
RTVSPost2010PropOp52
 70
     0
102
RTVSPost2010Prop53
 90
        2
102
RTVSPost2010PropOp53
 70
     1
102
RTVSPost2010Prop54
  1
strokes_ogs.tif
102
RTVSPost2010PropOp54
 70
     1
102
RTVSPost2010Prop55
280
     0
102
RTVSPost2010PropOp55
 70
     1
102
RTVSPost2010Prop56
140
1.0
102
RTVSPost2010PropOp56
 70
     1
102
RTVSPost2010Prop57
140
1.0
102
RTVSPost2010PropOp57
 70
     1
102
RTVSPropertyOp0
 70
     1
102
RTVSPropertyOp1
 70
     1
102
RTVSPropertyOp2
 70
     1
102
RTVSPropertyOp3
 70
     1
102
RTVSPropertyOp4
 70
     1
102
RTVSPropertyOp5
 70
     1
102
RTVSPropertyOp6
 70
     1
102
RTVSPropertyOp7
 70
     1
102
RTVSPropertyOp8
 70
     1
102
RTVSPropertyOp9
 70
     1
102
RTVSPropertyOp10
 70
     1
102
RTVSPropertyOp11
 70
     1
102
RTVSPropertyOp12
 70
     1
102
RTVSPropertyOp13
 70
     1
102
RTVSPropertyOp14
 70
     1
102
RTVSPropertyOp15
 70
     1
102
RTVSPropertyOp16
 70
     1
102
RTVSPropertyOp17
 70
     1
102
RTVSPropertyOp18
 70
     1
102
RTVSPropertyOp19
 70
     1
102
RTVSPropertyOp20
 70
     1
102
RTVSPropertyOp21
 70
     1
102
RTVSPropertyOp22
 70
     1
102
RTVSPropertyOp23
 70
     1
102
RTVSPropertyOp24
 70
     1
102
RTVSPropertyOp25
 70
     1
102
RTVSPropertyOp26
 70
     1
102
RTVSPropertyOp27
 70
     1
102
RTVSPropertyOp28
 70
     1
102
RTVSPropertyOp29
 70
     1
102
RTVSPropertyOp30
 70
     1
102
RTVSPropertyOp31
 70
     1
102
RTVSPropertyOp32
 70
     1
102
RTVSPropertyOp33
 70
     1
102
RTVSPropertyOp34
 70
     1
102
RTVSPropertyOp35
 70
     1
102
RTVSPropertyOp36
 70
     1
102
RTVSPropertyOp37
 70
     1
102
RTVSPropertyOp38
 70
     1
102
RTVSPropertyOp39
 70
     1
102
RTVSPropertyOp40
 70
     1
102
RTVSPropertyOp41
 70
     1
102
RTVSPropertyOp42
 70
     1
102
RTVSPropertyOp43
 70
     1
102
RTVSPropertyOp44
 70
     1
102
RTVSPropertyOp45
 70
     1
102
RTVSPropertyOp46
 70
     1
102
RTVSPropertyOp47
 70
     1
102
RTVSPropertyOp48
 70
     1
102
RTVSPropertyOp49
 70
     1
102
RTVSPropertyOp50
 70
     1
102
RTVSPropertyOp51
 70
     0
102
RTVSPropertyOp52
 70
     0
102
RTVSPropertyOp53
 70
     1
102
RTVSPropertyOp54
 70
     1
102
RTVSPropertyOp55
 70
     1
102
RTVSPropertyOp56
 70
     1
102
RTVSPropertyOp57
 70
     1
102
RTVSPropertyOp58
 70
     1
102
RTVSPropertyOp59
 70
     1
102
RTVSPropertyOp60
 70
     1
102
RTVSPropertyOp61
 70
     1
102
RTVSPropertyOp62
 70
     1
  0
XRECORD
  5
98E4
102
{ACAD_REACTORS
330
98E3
102
}
330
98E3
100
AcDbXrecord
280
     1
102
RTVSPost2010Prop28
280
     0
102
RTVSPost2010PropOp28
 70
     1
102
RTVSPost2010Prop29
280
     1
102
RTVSPost2010PropOp29
 70
     1
102
RTVSPost2010Prop30
280
     1
102
RTVSPost2010PropOp30
 70
     1
102
RTVSPost2010Prop31
280
     0
102
RTVSPost2010PropOp31
 70
     1
102
RTVSPost2010Prop32
280
     0
102
RTVSPost2010PropOp32
 70
     1
102
RTVSPost2010Prop33
280
     0
102
RTVSPost2010PropOp33
 70
     1
102
RTVSPost2010Prop34
280
     0
102
RTVSPost2010PropOp34
 70
     1
102
RTVSPost2010Prop35
280
     0
102
RTVSPost2010PropOp35
 70
     1
102
RTVSPost2010Prop36
280
     0
102
RTVSPost2010PropOp36
 70
     1
102
RTVSPost2010Prop37
 90
       50
102
RTVSPost2010PropOp37
 70
     1
102
RTVSPost2010Prop38
140
0.0
102
RTVSPost2010PropOp38
 70
     1
102
RTVSPost2010Prop39
140
1.0
102
RTVSPost2010PropOp39
 70
     1
102
RTVSPost2010Prop40
 90
        0
102
RTVSPost2010PropOp40
 70
     1
102
RTVSPost2010Prop41ColorIndex
 90
       18
102
RTVSPost2010Prop41ColorRGB
 90
        0
102
RTVSPost2010PropOp41
 70
     1
102
RTVSPost2010Prop42
 90
       50
102
RTVSPost2010PropOp42
 70
     1
102
RTVSPost2010Prop43
 90
        3
102
RTVSPost2010PropOp43
 70
     1
102
RTVSPost2010Prop44ColorIndex
 90
        5
102
RTVSPost2010Prop44ColorRGB
 90
      255
102
RTVSPost2010PropOp44
 70
     1
102
RTVSPost2010Prop45
280
     0
102
RTVSPost2010PropOp45
 70
     1
102
RTVSPost2010Prop46
 90
       50
102
RTVSPost2010PropOp46
 70
     1
102
RTVSPost2010Prop47
 90
       50
102
RTVSPost2010PropOp47
 70
     1
102
RTVSPost2010Prop48
 90
       50
102
RTVSPost2010PropOp48
 70
     1
102
RTVSPost2010Prop49
280
     0
102
RTVSPost2010PropOp49
 70
     1
102
RTVSPost2010Prop50
 90
       50
102
RTVSPost2010PropOp50
 70
     1
102
RTVSPost2010Prop51ColorIndex
 90
      256
102
RTVSPost2010Prop51ColorRGB
 90
-16777216
102
RTVSPost2010PropOp51
 70
     0
102
RTVSPost2010Prop52
140
1.0
102
RTVSPost2010PropOp52
 70
     0
102
RTVSPost2010Prop53
 90
        2
102
RTVSPost2010PropOp53
 70
     1
102
RTVSPost2010Prop54
  1
strokes_ogs.tif
102
RTVSPost2010PropOp54
 70
     1
102
RTVSPost2010Prop55
280
     0
102
RTVSPost2010PropOp55
 70
     1
102
RTVSPost2010Prop56
140
1.0
102
RTVSPost2010PropOp56
 70
     1
102
RTVSPost2010Prop57
140
1.0
102
RTVSPost2010PropOp57
 70
     1
102
RTVSPropertyOp0
 70
     1
102
RTVSPropertyOp1
 70
     1
102
RTVSPropertyOp2
 70
     1
102
RTVSPropertyOp3
 70
     1
102
RTVSPropertyOp4
 70
     1
102
RTVSPropertyOp5
 70
     1
102
RTVSPropertyOp6
 70
     1
102
RTVSPropertyOp7
 70
     1
102
RTVSPropertyOp8
 70
     1
102
RTVSPropertyOp9
 70
     1
102
RTVSPropertyOp10
 70
     1
102
RTVSPropertyOp11
 70
     1
102
RTVSPropertyOp12
 70
     1
102
RTVSPropertyOp13
 70
     1
102
RTVSPropertyOp14
 70
     1
102
RTVSPropertyOp15
 70
     1
102
RTVSPropertyOp16
 70
     1
102
RTVSPropertyOp17
 70
     1
102
RTVSPropertyOp18
 70
     1
102
RTVSPropertyOp19
 70
     1
102
RTVSPropertyOp20
 70
     1
102
RTVSPropertyOp21
 70
     1
102
RTVSPropertyOp22
 70
     1
102
RTVSPropertyOp23
 70
     1
102
RTVSPropertyOp24
 70
     1
102
RTVSPropertyOp25
 70
     1
102
RTVSPropertyOp26
 70
     1
102
RTVSPropertyOp27
 70
     1
102
RTVSPropertyOp28
 70
     1
102
RTVSPropertyOp29
 70
     1
102
RTVSPropertyOp30
 70
     1
102
RTVSPropertyOp31
 70
     1
102
RTVSPropertyOp32
 70
     1
102
RTVSPropertyOp33
 70
     1
102
RTVSPropertyOp34
 70
     1
102
RTVSPropertyOp35
 70
     1
102
RTVSPropertyOp36
 70
     1
102
RTVSPropertyOp37
 70
     1
102
RTVSPropertyOp38
 70
     1
102
RTVSPropertyOp39
 70
     1
102
RTVSPropertyOp40
 70
     1
102
RTVSPropertyOp41
 70
     1
102
RTVSPropertyOp42
 70
     1
102
RTVSPropertyOp43
 70
     1
102
RTVSPropertyOp44
 70
     1
102
RTVSPropertyOp45
 70
     1
102
RTVSPropertyOp46
 70
     1
102
RTVSPropertyOp47
 70
     1
102
RTVSPropertyOp48
 70
     1
102
RTVSPropertyOp49
 70
     1
102
RTVSPropertyOp50
 70
     1
102
RTVSPropertyOp51
 70
     0
102
RTVSPropertyOp52
 70
     0
102
RTVSPropertyOp53
 70
     1
102
RTVSPropertyOp54
 70
     1
102
RTVSPropertyOp55
 70
     1
102
RTVSPropertyOp56
 70
     1
102
RTVSPropertyOp57
 70
     1
102
RTVSPropertyOp58
 70
     1
102
RTVSPropertyOp59
 70
     1
102
RTVSPropertyOp60
 70
     1
102
RTVSPropertyOp61
 70
     1
102
RTVSPropertyOp62
 70
     1
  0
XRECORD
  5
98D6
102
{ACAD_REACTORS
330
98D5
102
}
330
98D5
100
AcDbXrecord
280
     1
102
RTVSPost2010Prop28
280
     0
102
RTVSPost2010PropOp28
 70
     1
102
RTVSPost2010Prop29
280
     1
102
RTVSPost2010PropOp29
 70
     1
102
RTVSPost2010Prop30
280
     1
102
RTVSPost2010PropOp30
 70
     1
102
RTVSPost2010Prop31
280
     0
102
RTVSPost2010PropOp31
 70
     1
102
RTVSPost2010Prop32
280
     0
102
RTVSPost2010PropOp32
 70
     1
102
RTVSPost2010Prop33
280
     0
102
RTVSPost2010PropOp33
 70
     1
102
RTVSPost2010Prop34
280
     0
102
RTVSPost2010PropOp34
 70
     1
102
RTVSPost2010Prop35
280
     0
102
RTVSPost2010PropOp35
 70
     1
102
RTVSPost2010Prop36
280
     0
102
RTVSPost2010PropOp36
 70
     1
102
RTVSPost2010Prop37
 90
       50
102
RTVSPost2010PropOp37
 70
     1
102
RTVSPost2010Prop38
140
0.0
102
RTVSPost2010PropOp38
 70
     1
102
RTVSPost2010Prop39
140
1.0
102
RTVSPost2010PropOp39
 70
     1
102
RTVSPost2010Prop40
 90
        0
102
RTVSPost2010PropOp40
 70
     1
102
RTVSPost2010Prop41ColorIndex
 90
       18
102
RTVSPost2010Prop41ColorRGB
 90
        0
102
RTVSPost2010PropOp41
 70
     1
102
RTVSPost2010Prop42
 90
       50
102
RTVSPost2010PropOp42
 70
     1
102
RTVSPost2010Prop43
 90
        3
102
RTVSPost2010PropOp43
 70
     1
102
RTVSPost2010Prop44ColorIndex
 90
        5
102
RTVSPost2010Prop44ColorRGB
 90
      255
102
RTVSPost2010PropOp44
 70
     1
102
RTVSPost2010Prop45
280
     0
102
RTVSPost2010PropOp45
 70
     1
102
RTVSPost2010Prop46
 90
       50
102
RTVSPost2010PropOp46
 70
     1
102
RTVSPost2010Prop47
 90
       50
102
RTVSPost2010PropOp47
 70
     1
102
RTVSPost2010Prop48
 90
       50
102
RTVSPost2010PropOp48
 70
     1
102
RTVSPost2010Prop49
280
     0
102
RTVSPost2010PropOp49
 70
     1
102
RTVSPost2010Prop50
 90
       50
102
RTVSPost2010PropOp50
 70
     1
102
RTVSPost2010Prop51ColorIndex
 90
      256
102
RTVSPost2010Prop51ColorRGB
 90
-16777216
102
RTVSPost2010PropOp51
 70
     0
102
RTVSPost2010Prop52
140
1.0
102
RTVSPost2010PropOp52
 70
     0
102
RTVSPost2010Prop53
 90
        2
102
RTVSPost2010PropOp53
 70
     1
102
RTVSPost2010Prop54
  1
strokes_ogs.tif
102
RTVSPost2010PropOp54
 70
     1
102
RTVSPost2010Prop55
280
     0
102
RTVSPost2010PropOp55
 70
     1
102
RTVSPost2010Prop56
140
1.0
102
RTVSPost2010PropOp56
 70
     1
102
RTVSPost2010Prop57
140
1.0
102
RTVSPost2010PropOp57
 70
     1
102
RTVSPropertyOp0
 70
     1
102
RTVSPropertyOp1
 70
     1
102
RTVSPropertyOp2
 70
     1
102
RTVSPropertyOp3
 70
     1
102
RTVSPropertyOp4
 70
     1
102
RTVSPropertyOp5
 70
     1
102
RTVSPropertyOp6
 70
     1
102
RTVSPropertyOp7
 70
     1
102
RTVSPropertyOp8
 70
     1
102
RTVSPropertyOp9
 70
     1
102
RTVSPropertyOp10
 70
     1
102
RTVSPropertyOp11
 70
     1
102
RTVSPropertyOp12
 70
     1
102
RTVSPropertyOp13
 70
     1
102
RTVSPropertyOp14
 70
     1
102
RTVSPropertyOp15
 70
     1
102
RTVSPropertyOp16
 70
     1
102
RTVSPropertyOp17
 70
     1
102
RTVSPropertyOp18
 70
     1
102
RTVSPropertyOp19
 70
     1
102
RTVSPropertyOp20
 70
     1
102
RTVSPropertyOp21
 70
     1
102
RTVSPropertyOp22
 70
     1
102
RTVSPropertyOp23
 70
     1
102
RTVSPropertyOp24
 70
     1
102
RTVSPropertyOp25
 70
     1
102
RTVSPropertyOp26
 70
     1
102
RTVSPropertyOp27
 70
     1
102
RTVSPropertyOp28
 70
     1
102
RTVSPropertyOp29
 70
     1
102
RTVSPropertyOp30
 70
     1
102
RTVSPropertyOp31
 70
     1
102
RTVSPropertyOp32
 70
     1
102
RTVSPropertyOp33
 70
     1
102
RTVSPropertyOp34
 70
     1
102
RTVSPropertyOp35
 70
     1
102
RTVSPropertyOp36
 70
     1
102
RTVSPropertyOp37
 70
     1
102
RTVSPropertyOp38
 70
     1
102
RTVSPropertyOp39
 70
     1
102
RTVSPropertyOp40
 70
     1
102
RTVSPropertyOp41
 70
     1
102
RTVSPropertyOp42
 70
     1
102
RTVSPropertyOp43
 70
     1
102
RTVSPropertyOp44
 70
     1
102
RTVSPropertyOp45
 70
     1
102
RTVSPropertyOp46
 70
     1
102
RTVSPropertyOp47
 70
     1
102
RTVSPropertyOp48
 70
     1
102
RTVSPropertyOp49
 70
     1
102
RTVSPropertyOp50
 70
     1
102
RTVSPropertyOp51
 70
     0
102
RTVSPropertyOp52
 70
     0
102
RTVSPropertyOp53
 70
     1
102
RTVSPropertyOp54
 70
     1
102
RTVSPropertyOp55
 70
     1
102
RTVSPropertyOp56
 70
     1
102
RTVSPropertyOp57
 70
     1
102
RTVSPropertyOp58
 70
     1
102
RTVSPropertyOp59
 70
     1
102
RTVSPropertyOp60
 70
     1
102
RTVSPropertyOp61
 70
     1
102
RTVSPropertyOp62
 70
     1
  0
XRECORD
  5
98DA
102
{ACAD_REACTORS
330
98D9
102
}
330
98D9
100
AcDbXrecord
280
     1
102
RTVSPost2010Prop28
280
     0
102
RTVSPost2010PropOp28
 70
     1
102
RTVSPost2010Prop29
280
     1
102
RTVSPost2010PropOp29
 70
     1
102
RTVSPost2010Prop30
280
     1
102
RTVSPost2010PropOp30
 70
     1
102
RTVSPost2010Prop31
280
     0
102
RTVSPost2010PropOp31
 70
     1
102
RTVSPost2010Prop32
280
     0
102
RTVSPost2010PropOp32
 70
     1
102
RTVSPost2010Prop33
280
     0
102
RTVSPost2010PropOp33
 70
     1
102
RTVSPost2010Prop34
280
     0
102
RTVSPost2010PropOp34
 70
     1
102
RTVSPost2010Prop35
280
     0
102
RTVSPost2010PropOp35
 70
     1
102
RTVSPost2010Prop36
280
     0
102
RTVSPost2010PropOp36
 70
     1
102
RTVSPost2010Prop37
 90
       50
102
RTVSPost2010PropOp37
 70
     1
102
RTVSPost2010Prop38
140
0.0
102
RTVSPost2010PropOp38
 70
     1
102
RTVSPost2010Prop39
140
1.0
102
RTVSPost2010PropOp39
 70
     1
102
RTVSPost2010Prop40
 90
        0
102
RTVSPost2010PropOp40
 70
     1
102
RTVSPost2010Prop41ColorIndex
 90
       18
102
RTVSPost2010Prop41ColorRGB
 90
        0
102
RTVSPost2010PropOp41
 70
     1
102
RTVSPost2010Prop42
 90
       50
102
RTVSPost2010PropOp42
 70
     1
102
RTVSPost2010Prop43
 90
        3
102
RTVSPost2010PropOp43
 70
     1
102
RTVSPost2010Prop44ColorIndex
 90
        5
102
RTVSPost2010Prop44ColorRGB
 90
      255
102
RTVSPost2010PropOp44
 70
     1
102
RTVSPost2010Prop45
280
     0
102
RTVSPost2010PropOp45
 70
     1
102
RTVSPost2010Prop46
 90
       50
102
RTVSPost2010PropOp46
 70
     1
102
RTVSPost2010Prop47
 90
       50
102
RTVSPost2010PropOp47
 70
     1
102
RTVSPost2010Prop48
 90
       50
102
RTVSPost2010PropOp48
 70
     1
102
RTVSPost2010Prop49
280
     0
102
RTVSPost2010PropOp49
 70
     1
102
RTVSPost2010Prop50
 90
       50
102
RTVSPost2010PropOp50
 70
     1
102
RTVSPost2010Prop51ColorIndex
 90
      256
102
RTVSPost2010Prop51ColorRGB
 90
-16777216
102
RTVSPost2010PropOp51
 70
     0
102
RTVSPost2010Prop52
140
1.0
102
RTVSPost2010PropOp52
 70
     0
102
RTVSPost2010Prop53
 90
        2
102
RTVSPost2010PropOp53
 70
     1
102
RTVSPost2010Prop54
  1
strokes_ogs.tif
102
RTVSPost2010PropOp54
 70
     1
102
RTVSPost2010Prop55
280
     0
102
RTVSPost2010PropOp55
 70
     1
102
RTVSPost2010Prop56
140
1.0
102
RTVSPost2010PropOp56
 70
     1
102
RTVSPost2010Prop57
140
1.0
102
RTVSPost2010PropOp57
 70
     1
102
RTVSPropertyOp0
 70
     1
102
RTVSPropertyOp1
 70
     1
102
RTVSPropertyOp2
 70
     1
102
RTVSPropertyOp3
 70
     1
102
RTVSPropertyOp4
 70
     1
102
RTVSPropertyOp5
 70
     1
102
RTVSPropertyOp6
 70
     1
102
RTVSPropertyOp7
 70
     1
102
RTVSPropertyOp8
 70
     1
102
RTVSPropertyOp9
 70
     1
102
RTVSPropertyOp10
 70
     1
102
RTVSPropertyOp11
 70
     1
102
RTVSPropertyOp12
 70
     1
102
RTVSPropertyOp13
 70
     1
102
RTVSPropertyOp14
 70
     1
102
RTVSPropertyOp15
 70
     1
102
RTVSPropertyOp16
 70
     1
102
RTVSPropertyOp17
 70
     1
102
RTVSPropertyOp18
 70
     1
102
RTVSPropertyOp19
 70
     1
102
RTVSPropertyOp20
 70
     1
102
RTVSPropertyOp21
 70
     1
102
RTVSPropertyOp22
 70
     1
102
RTVSPropertyOp23
 70
     1
102
RTVSPropertyOp24
 70
     1
102
RTVSPropertyOp25
 70
     1
102
RTVSPropertyOp26
 70
     1
102
RTVSPropertyOp27
 70
     1
102
RTVSPropertyOp28
 70
     1
102
RTVSPropertyOp29
 70
     1
102
RTVSPropertyOp30
 70
     1
102
RTVSPropertyOp31
 70
     1
102
RTVSPropertyOp32
 70
     1
102
RTVSPropertyOp33
 70
     1
102
RTVSPropertyOp34
 70
     1
102
RTVSPropertyOp35
 70
     1
102
RTVSPropertyOp36
 70
     1
102
RTVSPropertyOp37
 70
     1
102
RTVSPropertyOp38
 70
     1
102
RTVSPropertyOp39
 70
     1
102
RTVSPropertyOp40
 70
     1
102
RTVSPropertyOp41
 70
     1
102
RTVSPropertyOp42
 70
     1
102
RTVSPropertyOp43
 70
     1
102
RTVSPropertyOp44
 70
     1
102
RTVSPropertyOp45
 70
     1
102
RTVSPropertyOp46
 70
     1
102
RTVSPropertyOp47
 70
     1
102
RTVSPropertyOp48
 70
     1
102
RTVSPropertyOp49
 70
     1
102
RTVSPropertyOp50
 70
     1
102
RTVSPropertyOp51
 70
     0
102
RTVSPropertyOp52
 70
     0
102
RTVSPropertyOp53
 70
     1
102
RTVSPropertyOp54
 70
     1
102
RTVSPropertyOp55
 70
     1
102
RTVSPropertyOp56
 70
     1
102
RTVSPropertyOp57
 70
     1
102
RTVSPropertyOp58
 70
     1
102
RTVSPropertyOp59
 70
     1
102
RTVSPropertyOp60
 70
     1
102
RTVSPropertyOp61
 70
     1
102
RTVSPropertyOp62
 70
     1
  0
XRECORD
  5
98F4
102
{ACAD_REACTORS
330
98F3
102
}
330
98F3
100
AcDbXrecord
280
     1
102
RTVSPost2010Prop28
280
     0
102
RTVSPost2010PropOp28
 70
     1
102
RTVSPost2010Prop29
280
     1
102
RTVSPost2010PropOp29
 70
     1
102
RTVSPost2010Prop30
280
     1
102
RTVSPost2010PropOp30
 70
     1
102
RTVSPost2010Prop31
280
     0
102
RTVSPost2010PropOp31
 70
     1
102
RTVSPost2010Prop32
280
     0
102
RTVSPost2010PropOp32
 70
     1
102
RTVSPost2010Prop33
280
     0
102
RTVSPost2010PropOp33
 70
     1
102
RTVSPost2010Prop34
280
     0
102
RTVSPost2010PropOp34
 70
     1
102
RTVSPost2010Prop35
280
     0
102
RTVSPost2010PropOp35
 70
     1
102
RTVSPost2010Prop36
280
     0
102
RTVSPost2010PropOp36
 70
     1
102
RTVSPost2010Prop37
 90
       50
102
RTVSPost2010PropOp37
 70
     0
102
RTVSPost2010Prop38
140
0.0
102
RTVSPost2010PropOp38
 70
     0
102
RTVSPost2010Prop39
140
1.0
102
RTVSPost2010PropOp39
 70
     0
102
RTVSPost2010Prop40
 90
        0
102
RTVSPost2010PropOp40
 70
     0
102
RTVSPost2010Prop41ColorIndex
 90
       18
102
RTVSPost2010Prop41ColorRGB
 90
        0
102
RTVSPost2010PropOp41
 70
     0
102
RTVSPost2010Prop42
 90
       50
102
RTVSPost2010PropOp42
 70
     0
102
RTVSPost2010Prop43
 90
        3
102
RTVSPost2010PropOp43
 70
     0
102
RTVSPost2010Prop44ColorIndex
 90
        5
102
RTVSPost2010Prop44ColorRGB
 90
      255
102
RTVSPost2010PropOp44
 70
     0
102
RTVSPost2010Prop45
280
     0
102
RTVSPost2010PropOp45
 70
     1
102
RTVSPost2010Prop46
 90
       50
102
RTVSPost2010PropOp46
 70
     0
102
RTVSPost2010Prop47
 90
       50
102
RTVSPost2010PropOp47
 70
     0
102
RTVSPost2010Prop48
 90
       50
102
RTVSPost2010PropOp48
 70
     0
102
RTVSPost2010Prop49
280
     0
102
RTVSPost2010PropOp49
 70
     1
102
RTVSPost2010Prop50
 90
       50
102
RTVSPost2010PropOp50
 70
     0
102
RTVSPost2010Prop51ColorIndex
 90
      256
102
RTVSPost2010Prop51ColorRGB
 90
-16777216
102
RTVSPost2010PropOp51
 70
     0
102
RTVSPost2010Prop52
140
1.0
102
RTVSPost2010PropOp52
 70
     0
102
RTVSPost2010Prop53
 90
        2
102
RTVSPost2010PropOp53
 70
     0
102
RTVSPost2010Prop54
  1
strokes_ogs.tif
102
RTVSPost2010PropOp54
 70
     0
102
RTVSPost2010Prop55
280
     0
102
RTVSPost2010PropOp55
 70
     1
102
RTVSPost2010Prop56
140
1.0
102
RTVSPost2010PropOp56
 70
     0
102
RTVSPost2010Prop57
140
1.0
102
RTVSPost2010PropOp57
 70
     0
102
RTVSPropertyOp0
 70
     0
102
RTVSPropertyOp1
 70
     0
102
RTVSPropertyOp2
 70
     0
102
RTVSPropertyOp3
 70
     0
102
RTVSPropertyOp4
 70
     0
102
RTVSPropertyOp5
 70
     0
102
RTVSPropertyOp6
 70
     0
102
RTVSPropertyOp7
 70
     0
102
RTVSPropertyOp8
 70
     0
102
RTVSPropertyOp9
 70
     0
102
RTVSPropertyOp10
 70
     0
102
RTVSPropertyOp11
 70
     0
102
RTVSPropertyOp12
 70
     0
102
RTVSPropertyOp13
 70
     0
102
RTVSPropertyOp14
 70
     2
102
RTVSPropertyOp15
 70
     0
102
RTVSPropertyOp16
 70
     0
102
RTVSPropertyOp17
 70
     0
102
RTVSPropertyOp18
 70
     0
102
RTVSPropertyOp19
 70
     0
102
RTVSPropertyOp20
 70
     0
102
RTVSPropertyOp21
 70
     0
102
RTVSPropertyOp22
 70
     0
102
RTVSPropertyOp23
 70
     0
102
RTVSPropertyOp24
 70
     0
102
RTVSPropertyOp25
 70
     0
102
RTVSPropertyOp26
 70
     0
102
RTVSPropertyOp27
 70
     0
102
RTVSPropertyOp28
 70
     1
102
RTVSPropertyOp29
 70
     1
102
RTVSPropertyOp30
 70
     1
102
RTVSPropertyOp31
 70
     1
102
RTVSPropertyOp32
 70
     1
102
RTVSPropertyOp33
 70
     1
102
RTVSPropertyOp34
 70
     1
102
RTVSPropertyOp35
 70
     1
102
RTVSPropertyOp36
 70
     1
102
RTVSPropertyOp37
 70
     0
102
RTVSPropertyOp38
 70
     0
102
RTVSPropertyOp39
 70
     0
102
RTVSPropertyOp40
 70
     0
102
RTVSPropertyOp41
 70
     0
102
RTVSPropertyOp42
 70
     0
102
RTVSPropertyOp43
 70
     0
102
RTVSPropertyOp44
 70
     0
102
RTVSPropertyOp45
 70
     1
102
RTVSPropertyOp46
 70
     0
102
RTVSPropertyOp47
 70
     0
102
RTVSPropertyOp48
 70
     0
102
RTVSPropertyOp49
 70
     1
102
RTVSPropertyOp50
 70
     0
102
RTVSPropertyOp51
 70
     0
102
RTVSPropertyOp52
 70
     0
102
RTVSPropertyOp53
 70
     0
102
RTVSPropertyOp54
 70
     0
102
RTVSPropertyOp55
 70
     1
102
RTVSPropertyOp56
 70
     0
102
RTVSPropertyOp57
 70
     0
102
RTVSPropertyOp58
 70
     0
102
RTVSPropertyOp59
 70
     0
102
RTVSPropertyOp60
 70
     0
102
RTVSPropertyOp61
 70
     0
102
RTVSPropertyOp62
 70
     0
  0
XRECORD
  5
98E2
102
{ACAD_REACTORS
330
98E1
102
}
330
98E1
100
AcDbXrecord
280
     1
102
RTVSPost2010Prop28
280
     0
102
RTVSPost2010PropOp28
 70
     1
102
RTVSPost2010Prop29
280
     1
102
RTVSPost2010PropOp29
 70
     1
102
RTVSPost2010Prop30
280
     1
102
RTVSPost2010PropOp30
 70
     1
102
RTVSPost2010Prop31
280
     0
102
RTVSPost2010PropOp31
 70
     1
102
RTVSPost2010Prop32
280
     0
102
RTVSPost2010PropOp32
 70
     1
102
RTVSPost2010Prop33
280
     0
102
RTVSPost2010PropOp33
 70
     1
102
RTVSPost2010Prop34
280
     0
102
RTVSPost2010PropOp34
 70
     1
102
RTVSPost2010Prop35
280
     0
102
RTVSPost2010PropOp35
 70
     1
102
RTVSPost2010Prop36
280
     0
102
RTVSPost2010PropOp36
 70
     1
102
RTVSPost2010Prop37
 90
       50
102
RTVSPost2010PropOp37
 70
     1
102
RTVSPost2010Prop38
140
0.0
102
RTVSPost2010PropOp38
 70
     1
102
RTVSPost2010Prop39
140
1.0
102
RTVSPost2010PropOp39
 70
     1
102
RTVSPost2010Prop40
 90
        0
102
RTVSPost2010PropOp40
 70
     1
102
RTVSPost2010Prop41ColorIndex
 90
       18
102
RTVSPost2010Prop41ColorRGB
 90
        0
102
RTVSPost2010PropOp41
 70
     1
102
RTVSPost2010Prop42
 90
       50
102
RTVSPost2010PropOp42
 70
     1
102
RTVSPost2010Prop43
 90
        3
102
RTVSPost2010PropOp43
 70
     1
102
RTVSPost2010Prop44ColorIndex
 90
        5
102
RTVSPost2010Prop44ColorRGB
 90
      255
102
RTVSPost2010PropOp44
 70
     1
102
RTVSPost2010Prop45
280
     0
102
RTVSPost2010PropOp45
 70
     1
102
RTVSPost2010Prop46
 90
       50
102
RTVSPost2010PropOp46
 70
     1
102
RTVSPost2010Prop47
 90
       50
102
RTVSPost2010PropOp47
 70
     1
102
RTVSPost2010Prop48
 90
       50
102
RTVSPost2010PropOp48
 70
     1
102
RTVSPost2010Prop49
280
     0
102
RTVSPost2010PropOp49
 70
     1
102
RTVSPost2010Prop50
 90
       50
102
RTVSPost2010PropOp50
 70
     1
102
RTVSPost2010Prop51ColorIndex
 90
      256
102
RTVSPost2010Prop51ColorRGB
 90
-16777216
102
RTVSPost2010PropOp51
 70
     0
102
RTVSPost2010Prop52
140
1.0
102
RTVSPost2010PropOp52
 70
     0
102
RTVSPost2010Prop53
 90
        2
102
RTVSPost2010PropOp53
 70
     1
102
RTVSPost2010Prop54
  1
strokes_ogs.tif
102
RTVSPost2010PropOp54
 70
     1
102
RTVSPost2010Prop55
280
     0
102
RTVSPost2010PropOp55
 70
     1
102
RTVSPost2010Prop56
140
1.0
102
RTVSPost2010PropOp56
 70
     1
102
RTVSPost2010Prop57
140
1.0
102
RTVSPost2010PropOp57
 70
     1
102
RTVSPropertyOp0
 70
     1
102
RTVSPropertyOp1
 70
     1
102
RTVSPropertyOp2
 70
     1
102
RTVSPropertyOp3
 70
     1
102
RTVSPropertyOp4
 70
     1
102
RTVSPropertyOp5
 70
     1
102
RTVSPropertyOp6
 70
     1
102
RTVSPropertyOp7
 70
     1
102
RTVSPropertyOp8
 70
     1
102
RTVSPropertyOp9
 70
     1
102
RTVSPropertyOp10
 70
     1
102
RTVSPropertyOp11
 70
     1
102
RTVSPropertyOp12
 70
     1
102
RTVSPropertyOp13
 70
     1
102
RTVSPropertyOp14
 70
     1
102
RTVSPropertyOp15
 70
     1
102
RTVSPropertyOp16
 70
     1
102
RTVSPropertyOp17
 70
     1
102
RTVSPropertyOp18
 70
     1
102
RTVSPropertyOp19
 70
     1
102
RTVSPropertyOp20
 70
     1
102
RTVSPropertyOp21
 70
     1
102
RTVSPropertyOp22
 70
     1
102
RTVSPropertyOp23
 70
     1
102
RTVSPropertyOp24
 70
     1
102
RTVSPropertyOp25
 70
     1
102
RTVSPropertyOp26
 70
     1
102
RTVSPropertyOp27
 70
     1
102
RTVSPropertyOp28
 70
     1
102
RTVSPropertyOp29
 70
     1
102
RTVSPropertyOp30
 70
     1
102
RTVSPropertyOp31
 70
     1
102
RTVSPropertyOp32
 70
     1
102
RTVSPropertyOp33
 70
     1
102
RTVSPropertyOp34
 70
     1
102
RTVSPropertyOp35
 70
     1
102
RTVSPropertyOp36
 70
     1
102
RTVSPropertyOp37
 70
     1
102
RTVSPropertyOp38
 70
     1
102
RTVSPropertyOp39
 70
     1
102
RTVSPropertyOp40
 70
     1
102
RTVSPropertyOp41
 70
     1
102
RTVSPropertyOp42
 70
     1
102
RTVSPropertyOp43
 70
     1
102
RTVSPropertyOp44
 70
     1
102
RTVSPropertyOp45
 70
     1
102
RTVSPropertyOp46
 70
     1
102
RTVSPropertyOp47
 70
     1
102
RTVSPropertyOp48
 70
     1
102
RTVSPropertyOp49
 70
     1
102
RTVSPropertyOp50
 70
     1
102
RTVSPropertyOp51
 70
     0
102
RTVSPropertyOp52
 70
     0
102
RTVSPropertyOp53
 70
     1
102
RTVSPropertyOp54
 70
     1
102
RTVSPropertyOp55
 70
     1
102
RTVSPropertyOp56
 70
     1
102
RTVSPropertyOp57
 70
     1
102
RTVSPropertyOp58
 70
     1
102
RTVSPropertyOp59
 70
     1
102
RTVSPropertyOp60
 70
     1
102
RTVSPropertyOp61
 70
     1
102
RTVSPropertyOp62
 70
     1
  0
XRECORD
  5
98C6
102
{ACAD_REACTORS
330
98C5
102
}
330
98C5
100
AcDbXrecord
280
     1
102
RTVSPost2010Prop28
280
     0
102
RTVSPost2010PropOp28
 70
     1
102
RTVSPost2010Prop29
280
     1
102
RTVSPost2010PropOp29
 70
     1
102
RTVSPost2010Prop30
280
     1
102
RTVSPost2010PropOp30
 70
     1
102
RTVSPost2010Prop31
280
     0
102
RTVSPost2010PropOp31
 70
     1
102
RTVSPost2010Prop32
280
     0
102
RTVSPost2010PropOp32
 70
     1
102
RTVSPost2010Prop33
280
     0
102
RTVSPost2010PropOp33
 70
     1
102
RTVSPost2010Prop34
280
     0
102
RTVSPost2010PropOp34
 70
     1
102
RTVSPost2010Prop35
280
     0
102
RTVSPost2010PropOp35
 70
     1
102
RTVSPost2010Prop36
280
     0
102
RTVSPost2010PropOp36
 70
     1
102
RTVSPost2010Prop37
 90
       50
102
RTVSPost2010PropOp37
 70
     1
102
RTVSPost2010Prop38
140
0.0
102
RTVSPost2010PropOp38
 70
     1
102
RTVSPost2010Prop39
140
1.0
102
RTVSPost2010PropOp39
 70
     1
102
RTVSPost2010Prop40
 90
        0
102
RTVSPost2010PropOp40
 70
     1
102
RTVSPost2010Prop41ColorIndex
 90
       18
102
RTVSPost2010Prop41ColorRGB
 90
        0
102
RTVSPost2010PropOp41
 70
     1
102
RTVSPost2010Prop42
 90
       50
102
RTVSPost2010PropOp42
 70
     1
102
RTVSPost2010Prop43
 90
        3
102
RTVSPost2010PropOp43
 70
     1
102
RTVSPost2010Prop44ColorIndex
 90
        5
102
RTVSPost2010Prop44ColorRGB
 90
      255
102
RTVSPost2010PropOp44
 70
     1
102
RTVSPost2010Prop45
280
     0
102
RTVSPost2010PropOp45
 70
     1
102
RTVSPost2010Prop46
 90
       50
102
RTVSPost2010PropOp46
 70
     1
102
RTVSPost2010Prop47
 90
       50
102
RTVSPost2010PropOp47
 70
     1
102
RTVSPost2010Prop48
 90
       50
102
RTVSPost2010PropOp48
 70
     1
102
RTVSPost2010Prop49
280
     0
102
RTVSPost2010PropOp49
 70
     1
102
RTVSPost2010Prop50
 90
       50
102
RTVSPost2010PropOp50
 70
     1
102
RTVSPost2010Prop51ColorIndex
 90
      256
102
RTVSPost2010Prop51ColorRGB
 90
-16777216
102
RTVSPost2010PropOp51
 70
     0
102
RTVSPost2010Prop52
140
1.0
102
RTVSPost2010PropOp52
 70
     0
102
RTVSPost2010Prop53
 90
        2
102
RTVSPost2010PropOp53
 70
     1
102
RTVSPost2010Prop54
  1
strokes_ogs.tif
102
RTVSPost2010PropOp54
 70
     1
102
RTVSPost2010Prop55
280
     0
102
RTVSPost2010PropOp55
 70
     1
102
RTVSPost2010Prop56
140
1.0
102
RTVSPost2010PropOp56
 70
     1
102
RTVSPost2010Prop57
140
1.0
102
RTVSPost2010PropOp57
 70
     1
102
RTVSPropertyOp0
 70
     1
102
RTVSPropertyOp1
 70
     1
102
RTVSPropertyOp2
 70
     1
102
RTVSPropertyOp3
 70
     1
102
RTVSPropertyOp4
 70
     1
102
RTVSPropertyOp5
 70
     1
102
RTVSPropertyOp6
 70
     1
102
RTVSPropertyOp7
 70
     1
102
RTVSPropertyOp8
 70
     1
102
RTVSPropertyOp9
 70
     1
102
RTVSPropertyOp10
 70
     1
102
RTVSPropertyOp11
 70
     1
102
RTVSPropertyOp12
 70
     1
102
RTVSPropertyOp13
 70
     1
102
RTVSPropertyOp14
 70
     1
102
RTVSPropertyOp15
 70
     1
102
RTVSPropertyOp16
 70
     1
102
RTVSPropertyOp17
 70
     1
102
RTVSPropertyOp18
 70
     1
102
RTVSPropertyOp19
 70
     1
102
RTVSPropertyOp20
 70
     1
102
RTVSPropertyOp21
 70
     1
102
RTVSPropertyOp22
 70
     1
102
RTVSPropertyOp23
 70
     1
102
RTVSPropertyOp24
 70
     1
102
RTVSPropertyOp25
 70
     1
102
RTVSPropertyOp26
 70
     1
102
RTVSPropertyOp27
 70
     1
102
RTVSPropertyOp28
 70
     1
102
RTVSPropertyOp29
 70
     1
102
RTVSPropertyOp30
 70
     1
102
RTVSPropertyOp31
 70
     1
102
RTVSPropertyOp32
 70
     1
102
RTVSPropertyOp33
 70
     1
102
RTVSPropertyOp34
 70
     1
102
RTVSPropertyOp35
 70
     1
102
RTVSPropertyOp36
 70
     1
102
RTVSPropertyOp37
 70
     1
102
RTVSPropertyOp38
 70
     1
102
RTVSPropertyOp39
 70
     1
102
RTVSPropertyOp40
 70
     1
102
RTVSPropertyOp41
 70
     1
102
RTVSPropertyOp42
 70
     1
102
RTVSPropertyOp43
 70
     1
102
RTVSPropertyOp44
 70
     1
102
RTVSPropertyOp45
 70
     1
102
RTVSPropertyOp46
 70
     1
102
RTVSPropertyOp47
 70
     1
102
RTVSPropertyOp48
 70
     1
102
RTVSPropertyOp49
 70
     1
102
RTVSPropertyOp50
 70
     1
102
RTVSPropertyOp51
 70
     0
102
RTVSPropertyOp52
 70
     0
102
RTVSPropertyOp53
 70
     1
102
RTVSPropertyOp54
 70
     1
102
RTVSPropertyOp55
 70
     1
102
RTVSPropertyOp56
 70
     1
102
RTVSPropertyOp57
 70
     1
102
RTVSPropertyOp58
 70
     1
102
RTVSPropertyOp59
 70
     1
102
RTVSPropertyOp60
 70
     1
102
RTVSPropertyOp61
 70
     1
102
RTVSPropertyOp62
 70
     1
  0
XRECORD
  5
98C8
102
{ACAD_REACTORS
330
98C7
102
}
330
98C7
100
AcDbXrecord
280
     1
102
RTVSPost2010Prop28
280
     0
102
RTVSPost2010PropOp28
 70
     1
102
RTVSPost2010Prop29
280
     1
102
RTVSPost2010PropOp29
 70
     1
102
RTVSPost2010Prop30
280
     1
102
RTVSPost2010PropOp30
 70
     1
102
RTVSPost2010Prop31
280
     0
102
RTVSPost2010PropOp31
 70
     1
102
RTVSPost2010Prop32
280
     0
102
RTVSPost2010PropOp32
 70
     1
102
RTVSPost2010Prop33
280
     0
102
RTVSPost2010PropOp33
 70
     1
102
RTVSPost2010Prop34
280
     0
102
RTVSPost2010PropOp34
 70
     1
102
RTVSPost2010Prop35
280
     0
102
RTVSPost2010PropOp35
 70
     1
102
RTVSPost2010Prop36
280
     0
102
RTVSPost2010PropOp36
 70
     1
102
RTVSPost2010Prop37
 90
       50
102
RTVSPost2010PropOp37
 70
     1
102
RTVSPost2010Prop38
140
0.0
102
RTVSPost2010PropOp38
 70
     1
102
RTVSPost2010Prop39
140
1.0
102
RTVSPost2010PropOp39
 70
     1
102
RTVSPost2010Prop40
 90
        0
102
RTVSPost2010PropOp40
 70
     1
102
RTVSPost2010Prop41ColorIndex
 90
       18
102
RTVSPost2010Prop41ColorRGB
 90
        0
102
RTVSPost2010PropOp41
 70
     1
102
RTVSPost2010Prop42
 90
       50
102
RTVSPost2010PropOp42
 70
     1
102
RTVSPost2010Prop43
 90
        3
102
RTVSPost2010PropOp43
 70
     1
102
RTVSPost2010Prop44ColorIndex
 90
        5
102
RTVSPost2010Prop44ColorRGB
 90
      255
102
RTVSPost2010PropOp44
 70
     1
102
RTVSPost2010Prop45
280
     0
102
RTVSPost2010PropOp45
 70
     1
102
RTVSPost2010Prop46
 90
       50
102
RTVSPost2010PropOp46
 70
     1
102
RTVSPost2010Prop47
 90
       50
102
RTVSPost2010PropOp47
 70
     1
102
RTVSPost2010Prop48
 90
       50
102
RTVSPost2010PropOp48
 70
     1
102
RTVSPost2010Prop49
280
     0
102
RTVSPost2010PropOp49
 70
     1
102
RTVSPost2010Prop50
 90
       50
102
RTVSPost2010PropOp50
 70
     1
102
RTVSPost2010Prop51ColorIndex
 90
      256
102
RTVSPost2010Prop51ColorRGB
 90
-16777216
102
RTVSPost2010PropOp51
 70
     0
102
RTVSPost2010Prop52
140
1.0
102
RTVSPost2010PropOp52
 70
     0
102
RTVSPost2010Prop53
 90
        2
102
RTVSPost2010PropOp53
 70
     1
102
RTVSPost2010Prop54
  1
strokes_ogs.tif
102
RTVSPost2010PropOp54
 70
     1
102
RTVSPost2010Prop55
280
     0
102
RTVSPost2010PropOp55
 70
     1
102
RTVSPost2010Prop56
140
1.0
102
RTVSPost2010PropOp56
 70
     1
102
RTVSPost2010Prop57
140
1.0
102
RTVSPost2010PropOp57
 70
     1
102
RTVSPropertyOp0
 70
     1
102
RTVSPropertyOp1
 70
     1
102
RTVSPropertyOp2
 70
     1
102
RTVSPropertyOp3
 70
     1
102
RTVSPropertyOp4
 70
     1
102
RTVSPropertyOp5
 70
     1
102
RTVSPropertyOp6
 70
     1
102
RTVSPropertyOp7
 70
     1
102
RTVSPropertyOp8
 70
     1
102
RTVSPropertyOp9
 70
     1
102
RTVSPropertyOp10
 70
     1
102
RTVSPropertyOp11
 70
     1
102
RTVSPropertyOp12
 70
     1
102
RTVSPropertyOp13
 70
     1
102
RTVSPropertyOp14
 70
     1
102
RTVSPropertyOp15
 70
     1
102
RTVSPropertyOp16
 70
     1
102
RTVSPropertyOp17
 70
     1
102
RTVSPropertyOp18
 70
     1
102
RTVSPropertyOp19
 70
     1
102
RTVSPropertyOp20
 70
     1
102
RTVSPropertyOp21
 70
     1
102
RTVSPropertyOp22
 70
     1
102
RTVSPropertyOp23
 70
     1
102
RTVSPropertyOp24
 70
     1
102
RTVSPropertyOp25
 70
     1
102
RTVSPropertyOp26
 70
     1
102
RTVSPropertyOp27
 70
     1
102
RTVSPropertyOp28
 70
     1
102
RTVSPropertyOp29
 70
     1
102
RTVSPropertyOp30
 70
     1
102
RTVSPropertyOp31
 70
     1
102
RTVSPropertyOp32
 70
     1
102
RTVSPropertyOp33
 70
     1
102
RTVSPropertyOp34
 70
     1
102
RTVSPropertyOp35
 70
     1
102
RTVSPropertyOp36
 70
     1
102
RTVSPropertyOp37
 70
     1
102
RTVSPropertyOp38
 70
     1
102
RTVSPropertyOp39
 70
     1
102
RTVSPropertyOp40
 70
     1
102
RTVSPropertyOp41
 70
     1
102
RTVSPropertyOp42
 70
     1
102
RTVSPropertyOp43
 70
     1
102
RTVSPropertyOp44
 70
     1
102
RTVSPropertyOp45
 70
     1
102
RTVSPropertyOp46
 70
     1
102
RTVSPropertyOp47
 70
     1
102
RTVSPropertyOp48
 70
     1
102
RTVSPropertyOp49
 70
     1
102
RTVSPropertyOp50
 70
     1
102
RTVSPropertyOp51
 70
     0
102
RTVSPropertyOp52
 70
     0
102
RTVSPropertyOp53
 70
     1
102
RTVSPropertyOp54
 70
     1
102
RTVSPropertyOp55
 70
     1
102
RTVSPropertyOp56
 70
     1
102
RTVSPropertyOp57
 70
     1
102
RTVSPropertyOp58
 70
     1
102
RTVSPropertyOp59
 70
     1
102
RTVSPropertyOp60
 70
     1
102
RTVSPropertyOp61
 70
     1
102
RTVSPropertyOp62
 70
     1
  0
XRECORD
  5
98CA
102
{ACAD_REACTORS
330
98C9
102
}
330
98C9
100
AcDbXrecord
280
     1
102
RTVSPost2010Prop28
280
     0
102
RTVSPost2010PropOp28
 70
     1
102
RTVSPost2010Prop29
280
     1
102
RTVSPost2010PropOp29
 70
     1
102
RTVSPost2010Prop30
280
     1
102
RTVSPost2010PropOp30
 70
     1
102
RTVSPost2010Prop31
280
     0
102
RTVSPost2010PropOp31
 70
     1
102
RTVSPost2010Prop32
280
     0
102
RTVSPost2010PropOp32
 70
     1
102
RTVSPost2010Prop33
280
     0
102
RTVSPost2010PropOp33
 70
     1
102
RTVSPost2010Prop34
280
     0
102
RTVSPost2010PropOp34
 70
     1
102
RTVSPost2010Prop35
280
     0
102
RTVSPost2010PropOp35
 70
     1
102
RTVSPost2010Prop36
280
     0
102
RTVSPost2010PropOp36
 70
     1
102
RTVSPost2010Prop37
 90
       50
102
RTVSPost2010PropOp37
 70
     1
102
RTVSPost2010Prop38
140
0.0
102
RTVSPost2010PropOp38
 70
     1
102
RTVSPost2010Prop39
140
1.0
102
RTVSPost2010PropOp39
 70
     1
102
RTVSPost2010Prop40
 90
        0
102
RTVSPost2010PropOp40
 70
     1
102
RTVSPost2010Prop41ColorIndex
 90
       18
102
RTVSPost2010Prop41ColorRGB
 90
        0
102
RTVSPost2010PropOp41
 70
     1
102
RTVSPost2010Prop42
 90
       50
102
RTVSPost2010PropOp42
 70
     1
102
RTVSPost2010Prop43
 90
        3
102
RTVSPost2010PropOp43
 70
     1
102
RTVSPost2010Prop44ColorIndex
 90
        5
102
RTVSPost2010Prop44ColorRGB
 90
      255
102
RTVSPost2010PropOp44
 70
     1
102
RTVSPost2010Prop45
280
     0
102
RTVSPost2010PropOp45
 70
     1
102
RTVSPost2010Prop46
 90
       50
102
RTVSPost2010PropOp46
 70
     1
102
RTVSPost2010Prop47
 90
       50
102
RTVSPost2010PropOp47
 70
     1
102
RTVSPost2010Prop48
 90
       50
102
RTVSPost2010PropOp48
 70
     1
102
RTVSPost2010Prop49
280
     0
102
RTVSPost2010PropOp49
 70
     1
102
RTVSPost2010Prop50
 90
       50
102
RTVSPost2010PropOp50
 70
     1
102
RTVSPost2010Prop51ColorIndex
 90
      256
102
RTVSPost2010Prop51ColorRGB
 90
-16777216
102
RTVSPost2010PropOp51
 70
     0
102
RTVSPost2010Prop52
140
1.0
102
RTVSPost2010PropOp52
 70
     0
102
RTVSPost2010Prop53
 90
        2
102
RTVSPost2010PropOp53
 70
     1
102
RTVSPost2010Prop54
  1
strokes_ogs.tif
102
RTVSPost2010PropOp54
 70
     1
102
RTVSPost2010Prop55
280
     0
102
RTVSPost2010PropOp55
 70
     1
102
RTVSPost2010Prop56
140
1.0
102
RTVSPost2010PropOp56
 70
     1
102
RTVSPost2010Prop57
140
1.0
102
RTVSPost2010PropOp57
 70
     1
102
RTVSPropertyOp0
 70
     1
102
RTVSPropertyOp1
 70
     1
102
RTVSPropertyOp2
 70
     1
102
RTVSPropertyOp3
 70
     1
102
RTVSPropertyOp4
 70
     1
102
RTVSPropertyOp5
 70
     1
102
RTVSPropertyOp6
 70
     1
102
RTVSPropertyOp7
 70
     1
102
RTVSPropertyOp8
 70
     1
102
RTVSPropertyOp9
 70
     1
102
RTVSPropertyOp10
 70
     1
102
RTVSPropertyOp11
 70
     1
102
RTVSPropertyOp12
 70
     1
102
RTVSPropertyOp13
 70
     1
102
RTVSPropertyOp14
 70
     1
102
RTVSPropertyOp15
 70
     1
102
RTVSPropertyOp16
 70
     1
102
RTVSPropertyOp17
 70
     1
102
RTVSPropertyOp18
 70
     1
102
RTVSPropertyOp19
 70
     1
102
RTVSPropertyOp20
 70
     1
102
RTVSPropertyOp21
 70
     1
102
RTVSPropertyOp22
 70
     1
102
RTVSPropertyOp23
 70
     1
102
RTVSPropertyOp24
 70
     1
102
RTVSPropertyOp25
 70
     1
102
RTVSPropertyOp26
 70
     1
102
RTVSPropertyOp27
 70
     1
102
RTVSPropertyOp28
 70
     1
102
RTVSPropertyOp29
 70
     1
102
RTVSPropertyOp30
 70
     1
102
RTVSPropertyOp31
 70
     1
102
RTVSPropertyOp32
 70
     1
102
RTVSPropertyOp33
 70
     1
102
RTVSPropertyOp34
 70
     1
102
RTVSPropertyOp35
 70
     1
102
RTVSPropertyOp36
 70
     1
102
RTVSPropertyOp37
 70
     1
102
RTVSPropertyOp38
 70
     1
102
RTVSPropertyOp39
 70
     1
102
RTVSPropertyOp40
 70
     1
102
RTVSPropertyOp41
 70
     1
102
RTVSPropertyOp42
 70
     1
102
RTVSPropertyOp43
 70
     1
102
RTVSPropertyOp44
 70
     1
102
RTVSPropertyOp45
 70
     1
102
RTVSPropertyOp46
 70
     1
102
RTVSPropertyOp47
 70
     1
102
RTVSPropertyOp48
 70
     1
102
RTVSPropertyOp49
 70
     1
102
RTVSPropertyOp50
 70
     1
102
RTVSPropertyOp51
 70
     0
102
RTVSPropertyOp52
 70
     0
102
RTVSPropertyOp53
 70
     1
102
RTVSPropertyOp54
 70
     1
102
RTVSPropertyOp55
 70
     1
102
RTVSPropertyOp56
 70
     1
102
RTVSPropertyOp57
 70
     1
102
RTVSPropertyOp58
 70
     1
102
RTVSPropertyOp59
 70
     1
102
RTVSPropertyOp60
 70
     1
102
RTVSPropertyOp61
 70
     1
102
RTVSPropertyOp62
 70
     1
  0
XRECORD
  5
98CC
102
{ACAD_REACTORS
330
98CB
102
}
330
98CB
100
AcDbXrecord
280
     1
102
RTVSPost2010Prop28
280
     0
102
RTVSPost2010PropOp28
 70
     1
102
RTVSPost2010Prop29
280
     1
102
RTVSPost2010PropOp29
 70
     1
102
RTVSPost2010Prop30
280
     1
102
RTVSPost2010PropOp30
 70
     1
102
RTVSPost2010Prop31
280
     0
102
RTVSPost2010PropOp31
 70
     1
102
RTVSPost2010Prop32
280
     0
102
RTVSPost2010PropOp32
 70
     1
102
RTVSPost2010Prop33
280
     0
102
RTVSPost2010PropOp33
 70
     1
102
RTVSPost2010Prop34
280
     0
102
RTVSPost2010PropOp34
 70
     1
102
RTVSPost2010Prop35
280
     0
102
RTVSPost2010PropOp35
 70
     1
102
RTVSPost2010Prop36
280
     0
102
RTVSPost2010PropOp36
 70
     1
102
RTVSPost2010Prop37
 90
       50
102
RTVSPost2010PropOp37
 70
     1
102
RTVSPost2010Prop38
140
0.0
102
RTVSPost2010PropOp38
 70
     1
102
RTVSPost2010Prop39
140
1.0
102
RTVSPost2010PropOp39
 70
     1
102
RTVSPost2010Prop40
 90
        0
102
RTVSPost2010PropOp40
 70
     1
102
RTVSPost2010Prop41ColorIndex
 90
       18
102
RTVSPost2010Prop41ColorRGB
 90
        0
102
RTVSPost2010PropOp41
 70
     1
102
RTVSPost2010Prop42
 90
       50
102
RTVSPost2010PropOp42
 70
     1
102
RTVSPost2010Prop43
 90
        3
102
RTVSPost2010PropOp43
 70
     1
102
RTVSPost2010Prop44ColorIndex
 90
        5
102
RTVSPost2010Prop44ColorRGB
 90
      255
102
RTVSPost2010PropOp44
 70
     1
102
RTVSPost2010Prop45
280
     0
102
RTVSPost2010PropOp45
 70
     1
102
RTVSPost2010Prop46
 90
       50
102
RTVSPost2010PropOp46
 70
     1
102
RTVSPost2010Prop47
 90
       50
102
RTVSPost2010PropOp47
 70
     1
102
RTVSPost2010Prop48
 90
       50
102
RTVSPost2010PropOp48
 70
     1
102
RTVSPost2010Prop49
280
     0
102
RTVSPost2010PropOp49
 70
     1
102
RTVSPost2010Prop50
 90
       50
102
RTVSPost2010PropOp50
 70
     1
102
RTVSPost2010Prop51ColorIndex
 90
      256
102
RTVSPost2010Prop51ColorRGB
 90
-16777216
102
RTVSPost2010PropOp51
 70
     0
102
RTVSPost2010Prop52
140
1.0
102
RTVSPost2010PropOp52
 70
     0
102
RTVSPost2010Prop53
 90
        2
102
RTVSPost2010PropOp53
 70
     1
102
RTVSPost2010Prop54
  1
strokes_ogs.tif
102
RTVSPost2010PropOp54
 70
     1
102
RTVSPost2010Prop55
280
     0
102
RTVSPost2010PropOp55
 70
     1
102
RTVSPost2010Prop56
140
1.0
102
RTVSPost2010PropOp56
 70
     1
102
RTVSPost2010Prop57
140
1.0
102
RTVSPost2010PropOp57
 70
     1
102
RTVSPropertyOp0
 70
     1
102
RTVSPropertyOp1
 70
     1
102
RTVSPropertyOp2
 70
     1
102
RTVSPropertyOp3
 70
     1
102
RTVSPropertyOp4
 70
     1
102
RTVSPropertyOp5
 70
     1
102
RTVSPropertyOp6
 70
     1
102
RTVSPropertyOp7
 70
     1
102
RTVSPropertyOp8
 70
     1
102
RTVSPropertyOp9
 70
     1
102
RTVSPropertyOp10
 70
     1
102
RTVSPropertyOp11
 70
     1
102
RTVSPropertyOp12
 70
     1
102
RTVSPropertyOp13
 70
     1
102
RTVSPropertyOp14
 70
     1
102
RTVSPropertyOp15
 70
     1
102
RTVSPropertyOp16
 70
     1
102
RTVSPropertyOp17
 70
     1
102
RTVSPropertyOp18
 70
     1
102
RTVSPropertyOp19
 70
     1
102
RTVSPropertyOp20
 70
     1
102
RTVSPropertyOp21
 70
     1
102
RTVSPropertyOp22
 70
     1
102
RTVSPropertyOp23
 70
     1
102
RTVSPropertyOp24
 70
     1
102
RTVSPropertyOp25
 70
     1
102
RTVSPropertyOp26
 70
     1
102
RTVSPropertyOp27
 70
     1
102
RTVSPropertyOp28
 70
     1
102
RTVSPropertyOp29
 70
     1
102
RTVSPropertyOp30
 70
     1
102
RTVSPropertyOp31
 70
     1
102
RTVSPropertyOp32
 70
     1
102
RTVSPropertyOp33
 70
     1
102
RTVSPropertyOp34
 70
     1
102
RTVSPropertyOp35
 70
     1
102
RTVSPropertyOp36
 70
     1
102
RTVSPropertyOp37
 70
     1
102
RTVSPropertyOp38
 70
     1
102
RTVSPropertyOp39
 70
     1
102
RTVSPropertyOp40
 70
     1
102
RTVSPropertyOp41
 70
     1
102
RTVSPropertyOp42
 70
     1
102
RTVSPropertyOp43
 70
     1
102
RTVSPropertyOp44
 70
     1
102
RTVSPropertyOp45
 70
     1
102
RTVSPropertyOp46
 70
     1
102
RTVSPropertyOp47
 70
     1
102
RTVSPropertyOp48
 70
     1
102
RTVSPropertyOp49
 70
     1
102
RTVSPropertyOp50
 70
     1
102
RTVSPropertyOp51
 70
     0
102
RTVSPropertyOp52
 70
     0
102
RTVSPropertyOp53
 70
     1
102
RTVSPropertyOp54
 70
     1
102
RTVSPropertyOp55
 70
     1
102
RTVSPropertyOp56
 70
     1
102
RTVSPropertyOp57
 70
     1
102
RTVSPropertyOp58
 70
     1
102
RTVSPropertyOp59
 70
     1
102
RTVSPropertyOp60
 70
     1
102
RTVSPropertyOp61
 70
     1
102
RTVSPropertyOp62
 70
     1
  0
XRECORD
  5
98D4
102
{ACAD_REACTORS
330
98D3
102
}
330
98D3
100
AcDbXrecord
280
     1
102
RTVSPost2010Prop28
280
     0
102
RTVSPost2010PropOp28
 70
     1
102
RTVSPost2010Prop29
280
     1
102
RTVSPost2010PropOp29
 70
     1
102
RTVSPost2010Prop30
280
     1
102
RTVSPost2010PropOp30
 70
     1
102
RTVSPost2010Prop31
280
     0
102
RTVSPost2010PropOp31
 70
     1
102
RTVSPost2010Prop32
280
     0
102
RTVSPost2010PropOp32
 70
     1
102
RTVSPost2010Prop33
280
     0
102
RTVSPost2010PropOp33
 70
     1
102
RTVSPost2010Prop34
280
     0
102
RTVSPost2010PropOp34
 70
     1
102
RTVSPost2010Prop35
280
     0
102
RTVSPost2010PropOp35
 70
     1
102
RTVSPost2010Prop36
280
     0
102
RTVSPost2010PropOp36
 70
     1
102
RTVSPost2010Prop37
 90
       50
102
RTVSPost2010PropOp37
 70
     1
102
RTVSPost2010Prop38
140
0.0
102
RTVSPost2010PropOp38
 70
     1
102
RTVSPost2010Prop39
140
1.0
102
RTVSPost2010PropOp39
 70
     1
102
RTVSPost2010Prop40
 90
        0
102
RTVSPost2010PropOp40
 70
     1
102
RTVSPost2010Prop41ColorIndex
 90
       18
102
RTVSPost2010Prop41ColorRGB
 90
        0
102
RTVSPost2010PropOp41
 70
     1
102
RTVSPost2010Prop42
 90
       50
102
RTVSPost2010PropOp42
 70
     1
102
RTVSPost2010Prop43
 90
        3
102
RTVSPost2010PropOp43
 70
     1
102
RTVSPost2010Prop44ColorIndex
 90
        5
102
RTVSPost2010Prop44ColorRGB
 90
      255
102
RTVSPost2010PropOp44
 70
     1
102
RTVSPost2010Prop45
280
     0
102
RTVSPost2010PropOp45
 70
     1
102
RTVSPost2010Prop46
 90
       50
102
RTVSPost2010PropOp46
 70
     1
102
RTVSPost2010Prop47
 90
       50
102
RTVSPost2010PropOp47
 70
     1
102
RTVSPost2010Prop48
 90
       50
102
RTVSPost2010PropOp48
 70
     1
102
RTVSPost2010Prop49
280
     0
102
RTVSPost2010PropOp49
 70
     1
102
RTVSPost2010Prop50
 90
       50
102
RTVSPost2010PropOp50
 70
     1
102
RTVSPost2010Prop51ColorIndex
 90
      256
102
RTVSPost2010Prop51ColorRGB
 90
-16777216
102
RTVSPost2010PropOp51
 70
     0
102
RTVSPost2010Prop52
140
1.0
102
RTVSPost2010PropOp52
 70
     0
102
RTVSPost2010Prop53
 90
        2
102
RTVSPost2010PropOp53
 70
     1
102
RTVSPost2010Prop54
  1
strokes_ogs.tif
102
RTVSPost2010PropOp54
 70
     1
102
RTVSPost2010Prop55
280
     0
102
RTVSPost2010PropOp55
 70
     1
102
RTVSPost2010Prop56
140
1.0
102
RTVSPost2010PropOp56
 70
     1
102
RTVSPost2010Prop57
140
1.0
102
RTVSPost2010PropOp57
 70
     1
102
RTVSPropertyOp0
 70
     1
102
RTVSPropertyOp1
 70
     1
102
RTVSPropertyOp2
 70
     1
102
RTVSPropertyOp3
 70
     1
102
RTVSPropertyOp4
 70
     1
102
RTVSPropertyOp5
 70
     1
102
RTVSPropertyOp6
 70
     1
102
RTVSPropertyOp7
 70
     1
102
RTVSPropertyOp8
 70
     1
102
RTVSPropertyOp9
 70
     1
102
RTVSPropertyOp10
 70
     1
102
RTVSPropertyOp11
 70
     1
102
RTVSPropertyOp12
 70
     1
102
RTVSPropertyOp13
 70
     1
102
RTVSPropertyOp14
 70
     1
102
RTVSPropertyOp15
 70
     1
102
RTVSPropertyOp16
 70
     1
102
RTVSPropertyOp17
 70
     1
102
RTVSPropertyOp18
 70
     1
102
RTVSPropertyOp19
 70
     1
102
RTVSPropertyOp20
 70
     1
102
RTVSPropertyOp21
 70
     1
102
RTVSPropertyOp22
 70
     1
102
RTVSPropertyOp23
 70
     1
102
RTVSPropertyOp24
 70
     1
102
RTVSPropertyOp25
 70
     1
102
RTVSPropertyOp26
 70
     1
102
RTVSPropertyOp27
 70
     1
102
RTVSPropertyOp28
 70
     1
102
RTVSPropertyOp29
 70
     1
102
RTVSPropertyOp30
 70
     1
102
RTVSPropertyOp31
 70
     1
102
RTVSPropertyOp32
 70
     1
102
RTVSPropertyOp33
 70
     1
102
RTVSPropertyOp34
 70
     1
102
RTVSPropertyOp35
 70
     1
102
RTVSPropertyOp36
 70
     1
102
RTVSPropertyOp37
 70
     1
102
RTVSPropertyOp38
 70
     1
102
RTVSPropertyOp39
 70
     1
102
RTVSPropertyOp40
 70
     1
102
RTVSPropertyOp41
 70
     1
102
RTVSPropertyOp42
 70
     1
102
RTVSPropertyOp43
 70
     1
102
RTVSPropertyOp44
 70
     1
102
RTVSPropertyOp45
 70
     1
102
RTVSPropertyOp46
 70
     1
102
RTVSPropertyOp47
 70
     1
102
RTVSPropertyOp48
 70
     1
102
RTVSPropertyOp49
 70
     1
102
RTVSPropertyOp50
 70
     1
102
RTVSPropertyOp51
 70
     0
102
RTVSPropertyOp52
 70
     0
102
RTVSPropertyOp53
 70
     1
102
RTVSPropertyOp54
 70
     1
102
RTVSPropertyOp55
 70
     1
102
RTVSPropertyOp56
 70
     1
102
RTVSPropertyOp57
 70
     1
102
RTVSPropertyOp58
 70
     1
102
RTVSPropertyOp59
 70
     1
102
RTVSPropertyOp60
 70
     1
102
RTVSPropertyOp61
 70
     1
102
RTVSPropertyOp62
 70
     1
  0
XRECORD
  5
98F0
102
{ACAD_REACTORS
330
98EF
102
}
330
98EF
100
AcDbXrecord
280
     1
102
RTVSPost2010Prop28
280
     0
102
RTVSPost2010PropOp28
 70
     1
102
RTVSPost2010Prop29
280
     1
102
RTVSPost2010PropOp29
 70
     1
102
RTVSPost2010Prop30
280
     1
102
RTVSPost2010PropOp30
 70
     1
102
RTVSPost2010Prop31
280
     0
102
RTVSPost2010PropOp31
 70
     1
102
RTVSPost2010Prop32
280
     0
102
RTVSPost2010PropOp32
 70
     1
102
RTVSPost2010Prop33
280
     0
102
RTVSPost2010PropOp33
 70
     1
102
RTVSPost2010Prop34
280
     0
102
RTVSPost2010PropOp34
 70
     1
102
RTVSPost2010Prop35
280
     0
102
RTVSPost2010PropOp35
 70
     1
102
RTVSPost2010Prop36
280
     0
102
RTVSPost2010PropOp36
 70
     1
102
RTVSPost2010Prop37
 90
       50
102
RTVSPost2010PropOp37
 70
     0
102
RTVSPost2010Prop38
140
0.0
102
RTVSPost2010PropOp38
 70
     0
102
RTVSPost2010Prop39
140
1.0
102
RTVSPost2010PropOp39
 70
     0
102
RTVSPost2010Prop40
 90
        0
102
RTVSPost2010PropOp40
 70
     0
102
RTVSPost2010Prop41ColorIndex
 90
       18
102
RTVSPost2010Prop41ColorRGB
 90
        0
102
RTVSPost2010PropOp41
 70
     0
102
RTVSPost2010Prop42
 90
       50
102
RTVSPost2010PropOp42
 70
     0
102
RTVSPost2010Prop43
 90
        3
102
RTVSPost2010PropOp43
 70
     0
102
RTVSPost2010Prop44ColorIndex
 90
        5
102
RTVSPost2010Prop44ColorRGB
 90
      255
102
RTVSPost2010PropOp44
 70
     0
102
RTVSPost2010Prop45
280
     0
102
RTVSPost2010PropOp45
 70
     1
102
RTVSPost2010Prop46
 90
       50
102
RTVSPost2010PropOp46
 70
     0
102
RTVSPost2010Prop47
 90
       50
102
RTVSPost2010PropOp47
 70
     0
102
RTVSPost2010Prop48
 90
       50
102
RTVSPost2010PropOp48
 70
     0
102
RTVSPost2010Prop49
280
     0
102
RTVSPost2010PropOp49
 70
     1
102
RTVSPost2010Prop50
 90
       50
102
RTVSPost2010PropOp50
 70
     0
102
RTVSPost2010Prop51ColorIndex
 90
      256
102
RTVSPost2010Prop51ColorRGB
 90
-16777216
102
RTVSPost2010PropOp51
 70
     0
102
RTVSPost2010Prop52
140
1.0
102
RTVSPost2010PropOp52
 70
     0
102
RTVSPost2010Prop53
 90
        2
102
RTVSPost2010PropOp53
 70
     0
102
RTVSPost2010Prop54
  1
strokes_ogs.tif
102
RTVSPost2010PropOp54
 70
     0
102
RTVSPost2010Prop55
280
     0
102
RTVSPost2010PropOp55
 70
     1
102
RTVSPost2010Prop56
140
1.0
102
RTVSPost2010PropOp56
 70
     0
102
RTVSPost2010Prop57
140
1.0
102
RTVSPost2010PropOp57
 70
     0
102
RTVSPropertyOp0
 70
     0
102
RTVSPropertyOp1
 70
     0
102
RTVSPropertyOp2
 70
     0
102
RTVSPropertyOp3
 70
     0
102
RTVSPropertyOp4
 70
     0
102
RTVSPropertyOp5
 70
     0
102
RTVSPropertyOp6
 70
     0
102
RTVSPropertyOp7
 70
     0
102
RTVSPropertyOp8
 70
     0
102
RTVSPropertyOp9
 70
     0
102
RTVSPropertyOp10
 70
     0
102
RTVSPropertyOp11
 70
     0
102
RTVSPropertyOp12
 70
     0
102
RTVSPropertyOp13
 70
     0
102
RTVSPropertyOp14
 70
     2
102
RTVSPropertyOp15
 70
     0
102
RTVSPropertyOp16
 70
     0
102
RTVSPropertyOp17
 70
     0
102
RTVSPropertyOp18
 70
     0
102
RTVSPropertyOp19
 70
     0
102
RTVSPropertyOp20
 70
     0
102
RTVSPropertyOp21
 70
     0
102
RTVSPropertyOp22
 70
     0
102
RTVSPropertyOp23
 70
     0
102
RTVSPropertyOp24
 70
     0
102
RTVSPropertyOp25
 70
     0
102
RTVSPropertyOp26
 70
     0
102
RTVSPropertyOp27
 70
     0
102
RTVSPropertyOp28
 70
     1
102
RTVSPropertyOp29
 70
     1
102
RTVSPropertyOp30
 70
     1
102
RTVSPropertyOp31
 70
     1
102
RTVSPropertyOp32
 70
     1
102
RTVSPropertyOp33
 70
     1
102
RTVSPropertyOp34
 70
     1
102
RTVSPropertyOp35
 70
     1
102
RTVSPropertyOp36
 70
     1
102
RTVSPropertyOp37
 70
     0
102
RTVSPropertyOp38
 70
     0
102
RTVSPropertyOp39
 70
     0
102
RTVSPropertyOp40
 70
     0
102
RTVSPropertyOp41
 70
     0
102
RTVSPropertyOp42
 70
     0
102
RTVSPropertyOp43
 70
     0
102
RTVSPropertyOp44
 70
     0
102
RTVSPropertyOp45
 70
     1
102
RTVSPropertyOp46
 70
     0
102
RTVSPropertyOp47
 70
     0
102
RTVSPropertyOp48
 70
     0
102
RTVSPropertyOp49
 70
     1
102
RTVSPropertyOp50
 70
     0
102
RTVSPropertyOp51
 70
     0
102
RTVSPropertyOp52
 70
     0
102
RTVSPropertyOp53
 70
     0
102
RTVSPropertyOp54
 70
     0
102
RTVSPropertyOp55
 70
     1
102
RTVSPropertyOp56
 70
     0
102
RTVSPropertyOp57
 70
     0
102
RTVSPropertyOp58
 70
     0
102
RTVSPropertyOp59
 70
     0
102
RTVSPropertyOp60
 70
     0
102
RTVSPropertyOp61
 70
     0
102
RTVSPropertyOp62
 70
     0
  0
XRECORD
  5
98E0
102
{ACAD_REACTORS
330
98DF
102
}
330
98DF
100
AcDbXrecord
280
     1
102
RTVSPost2010Prop28
280
     0
102
RTVSPost2010PropOp28
 70
     1
102
RTVSPost2010Prop29
280
     1
102
RTVSPost2010PropOp29
 70
     1
102
RTVSPost2010Prop30
280
     1
102
RTVSPost2010PropOp30
 70
     1
102
RTVSPost2010Prop31
280
     0
102
RTVSPost2010PropOp31
 70
     1
102
RTVSPost2010Prop32
280
     0
102
RTVSPost2010PropOp32
 70
     1
102
RTVSPost2010Prop33
280
     0
102
RTVSPost2010PropOp33
 70
     1
102
RTVSPost2010Prop34
280
     0
102
RTVSPost2010PropOp34
 70
     1
102
RTVSPost2010Prop35
280
     0
102
RTVSPost2010PropOp35
 70
     1
102
RTVSPost2010Prop36
280
     0
102
RTVSPost2010PropOp36
 70
     1
102
RTVSPost2010Prop37
 90
       50
102
RTVSPost2010PropOp37
 70
     1
102
RTVSPost2010Prop38
140
0.0
102
RTVSPost2010PropOp38
 70
     1
102
RTVSPost2010Prop39
140
1.0
102
RTVSPost2010PropOp39
 70
     1
102
RTVSPost2010Prop40
 90
        0
102
RTVSPost2010PropOp40
 70
     1
102
RTVSPost2010Prop41ColorIndex
 90
       18
102
RTVSPost2010Prop41ColorRGB
 90
        0
102
RTVSPost2010PropOp41
 70
     1
102
RTVSPost2010Prop42
 90
       50
102
RTVSPost2010PropOp42
 70
     1
102
RTVSPost2010Prop43
 90
        3
102
RTVSPost2010PropOp43
 70
     1
102
RTVSPost2010Prop44ColorIndex
 90
        5
102
RTVSPost2010Prop44ColorRGB
 90
      255
102
RTVSPost2010PropOp44
 70
     1
102
RTVSPost2010Prop45
280
     0
102
RTVSPost2010PropOp45
 70
     1
102
RTVSPost2010Prop46
 90
       50
102
RTVSPost2010PropOp46
 70
     1
102
RTVSPost2010Prop47
 90
       50
102
RTVSPost2010PropOp47
 70
     1
102
RTVSPost2010Prop48
 90
       50
102
RTVSPost2010PropOp48
 70
     1
102
RTVSPost2010Prop49
280
     0
102
RTVSPost2010PropOp49
 70
     1
102
RTVSPost2010Prop50
 90
       50
102
RTVSPost2010PropOp50
 70
     1
102
RTVSPost2010Prop51ColorIndex
 90
      256
102
RTVSPost2010Prop51ColorRGB
 90
-16777216
102
RTVSPost2010PropOp51
 70
     0
102
RTVSPost2010Prop52
140
1.0
102
RTVSPost2010PropOp52
 70
     0
102
RTVSPost2010Prop53
 90
        2
102
RTVSPost2010PropOp53
 70
     1
102
RTVSPost2010Prop54
  1
strokes_ogs.tif
102
RTVSPost2010PropOp54
 70
     1
102
RTVSPost2010Prop55
280
     0
102
RTVSPost2010PropOp55
 70
     1
102
RTVSPost2010Prop56
140
1.0
102
RTVSPost2010PropOp56
 70
     1
102
RTVSPost2010Prop57
140
1.0
102
RTVSPost2010PropOp57
 70
     1
102
RTVSPropertyOp0
 70
     1
102
RTVSPropertyOp1
 70
     1
102
RTVSPropertyOp2
 70
     1
102
RTVSPropertyOp3
 70
     1
102
RTVSPropertyOp4
 70
     1
102
RTVSPropertyOp5
 70
     1
102
RTVSPropertyOp6
 70
     1
102
RTVSPropertyOp7
 70
     1
102
RTVSPropertyOp8
 70
     1
102
RTVSPropertyOp9
 70
     1
102
RTVSPropertyOp10
 70
     1
102
RTVSPropertyOp11
 70
     1
102
RTVSPropertyOp12
 70
     1
102
RTVSPropertyOp13
 70
     1
102
RTVSPropertyOp14
 70
     1
102
RTVSPropertyOp15
 70
     1
102
RTVSPropertyOp16
 70
     1
102
RTVSPropertyOp17
 70
     1
102
RTVSPropertyOp18
 70
     1
102
RTVSPropertyOp19
 70
     1
102
RTVSPropertyOp20
 70
     1
102
RTVSPropertyOp21
 70
     1
102
RTVSPropertyOp22
 70
     1
102
RTVSPropertyOp23
 70
     1
102
RTVSPropertyOp24
 70
     1
102
RTVSPropertyOp25
 70
     1
102
RTVSPropertyOp26
 70
     1
102
RTVSPropertyOp27
 70
     1
102
RTVSPropertyOp28
 70
     1
102
RTVSPropertyOp29
 70
     1
102
RTVSPropertyOp30
 70
     1
102
RTVSPropertyOp31
 70
     1
102
RTVSPropertyOp32
 70
     1
102
RTVSPropertyOp33
 70
     1
102
RTVSPropertyOp34
 70
     1
102
RTVSPropertyOp35
 70
     1
102
RTVSPropertyOp36
 70
     1
102
RTVSPropertyOp37
 70
     1
102
RTVSPropertyOp38
 70
     1
102
RTVSPropertyOp39
 70
     1
102
RTVSPropertyOp40
 70
     1
102
RTVSPropertyOp41
 70
     1
102
RTVSPropertyOp42
 70
     1
102
RTVSPropertyOp43
 70
     1
102
RTVSPropertyOp44
 70
     1
102
RTVSPropertyOp45
 70
     1
102
RTVSPropertyOp46
 70
     1
102
RTVSPropertyOp47
 70
     1
102
RTVSPropertyOp48
 70
     1
102
RTVSPropertyOp49
 70
     1
102
RTVSPropertyOp50
 70
     1
102
RTVSPropertyOp51
 70
     0
102
RTVSPropertyOp52
 70
     0
102
RTVSPropertyOp53
 70
     1
102
RTVSPropertyOp54
 70
     1
102
RTVSPropertyOp55
 70
     1
102
RTVSPropertyOp56
 70
     1
102
RTVSPropertyOp57
 70
     1
102
RTVSPropertyOp58
 70
     1
102
RTVSPropertyOp59
 70
     1
102
RTVSPropertyOp60
 70
     1
102
RTVSPropertyOp61
 70
     1
102
RTVSPropertyOp62
 70
     1
  0
XRECORD
  5
98F2
102
{ACAD_REACTORS
330
98F1
102
}
330
98F1
100
AcDbXrecord
280
     1
102
RTVSPost2010Prop28
280
     0
102
RTVSPost2010PropOp28
 70
     1
102
RTVSPost2010Prop29
280
     1
102
RTVSPost2010PropOp29
 70
     1
102
RTVSPost2010Prop30
280
     1
102
RTVSPost2010PropOp30
 70
     1
102
RTVSPost2010Prop31
280
     0
102
RTVSPost2010PropOp31
 70
     1
102
RTVSPost2010Prop32
280
     0
102
RTVSPost2010PropOp32
 70
     1
102
RTVSPost2010Prop33
280
     0
102
RTVSPost2010PropOp33
 70
     1
102
RTVSPost2010Prop34
280
     0
102
RTVSPost2010PropOp34
 70
     1
102
RTVSPost2010Prop35
280
     0
102
RTVSPost2010PropOp35
 70
     1
102
RTVSPost2010Prop36
280
     0
102
RTVSPost2010PropOp36
 70
     1
102
RTVSPost2010Prop37
 90
       50
102
RTVSPost2010PropOp37
 70
     0
102
RTVSPost2010Prop38
140
0.0
102
RTVSPost2010PropOp38
 70
     0
102
RTVSPost2010Prop39
140
1.0
102
RTVSPost2010PropOp39
 70
     0
102
RTVSPost2010Prop40
 90
        0
102
RTVSPost2010PropOp40
 70
     0
102
RTVSPost2010Prop41ColorIndex
 90
       18
102
RTVSPost2010Prop41ColorRGB
 90
        0
102
RTVSPost2010PropOp41
 70
     0
102
RTVSPost2010Prop42
 90
       50
102
RTVSPost2010PropOp42
 70
     0
102
RTVSPost2010Prop43
 90
        3
102
RTVSPost2010PropOp43
 70
     0
102
RTVSPost2010Prop44ColorIndex
 90
        5
102
RTVSPost2010Prop44ColorRGB
 90
      255
102
RTVSPost2010PropOp44
 70
     0
102
RTVSPost2010Prop45
280
     0
102
RTVSPost2010PropOp45
 70
     1
102
RTVSPost2010Prop46
 90
       50
102
RTVSPost2010PropOp46
 70
     0
102
RTVSPost2010Prop47
 90
       50
102
RTVSPost2010PropOp47
 70
     0
102
RTVSPost2010Prop48
 90
       50
102
RTVSPost2010PropOp48
 70
     0
102
RTVSPost2010Prop49
280
     0
102
RTVSPost2010PropOp49
 70
     1
102
RTVSPost2010Prop50
 90
       50
102
RTVSPost2010PropOp50
 70
     0
102
RTVSPost2010Prop51ColorIndex
 90
      256
102
RTVSPost2010Prop51ColorRGB
 90
-16777216
102
RTVSPost2010PropOp51
 70
     0
102
RTVSPost2010Prop52
140
1.0
102
RTVSPost2010PropOp52
 70
     0
102
RTVSPost2010Prop53
 90
        2
102
RTVSPost2010PropOp53
 70
     0
102
RTVSPost2010Prop54
  1
strokes_ogs.tif
102
RTVSPost2010PropOp54
 70
     0
102
RTVSPost2010Prop55
280
     0
102
RTVSPost2010PropOp55
 70
     1
102
RTVSPost2010Prop56
140
1.0
102
RTVSPost2010PropOp56
 70
     0
102
RTVSPost2010Prop57
140
1.0
102
RTVSPost2010PropOp57
 70
     0
102
RTVSPropertyOp0
 70
     0
102
RTVSPropertyOp1
 70
     0
102
RTVSPropertyOp2
 70
     0
102
RTVSPropertyOp3
 70
     0
102
RTVSPropertyOp4
 70
     0
102
RTVSPropertyOp5
 70
     0
102
RTVSPropertyOp6
 70
     0
102
RTVSPropertyOp7
 70
     0
102
RTVSPropertyOp8
 70
     0
102
RTVSPropertyOp9
 70
     0
102
RTVSPropertyOp10
 70
     0
102
RTVSPropertyOp11
 70
     0
102
RTVSPropertyOp12
 70
     0
102
RTVSPropertyOp13
 70
     0
102
RTVSPropertyOp14
 70
     2
102
RTVSPropertyOp15
 70
     0
102
RTVSPropertyOp16
 70
     0
102
RTVSPropertyOp17
 70
     0
102
RTVSPropertyOp18
 70
     0
102
RTVSPropertyOp19
 70
     0
102
RTVSPropertyOp20
 70
     0
102
RTVSPropertyOp21
 70
     0
102
RTVSPropertyOp22
 70
     0
102
RTVSPropertyOp23
 70
     0
102
RTVSPropertyOp24
 70
     0
102
RTVSPropertyOp25
 70
     0
102
RTVSPropertyOp26
 70
     0
102
RTVSPropertyOp27
 70
     0
102
RTVSPropertyOp28
 70
     1
102
RTVSPropertyOp29
 70
     1
102
RTVSPropertyOp30
 70
     1
102
RTVSPropertyOp31
 70
     1
102
RTVSPropertyOp32
 70
     1
102
RTVSPropertyOp33
 70
     1
102
RTVSPropertyOp34
 70
     1
102
RTVSPropertyOp35
 70
     1
102
RTVSPropertyOp36
 70
     1
102
RTVSPropertyOp37
 70
     0
102
RTVSPropertyOp38
 70
     0
102
RTVSPropertyOp39
 70
     0
102
RTVSPropertyOp40
 70
     0
102
RTVSPropertyOp41
 70
     0
102
RTVSPropertyOp42
 70
     0
102
RTVSPropertyOp43
 70
     0
102
RTVSPropertyOp44
 70
     0
102
RTVSPropertyOp45
 70
     1
102
RTVSPropertyOp46
 70
     0
102
RTVSPropertyOp47
 70
     0
102
RTVSPropertyOp48
 70
     0
102
RTVSPropertyOp49
 70
     1
102
RTVSPropertyOp50
 70
     0
102
RTVSPropertyOp51
 70
     0
102
RTVSPropertyOp52
 70
     0
102
RTVSPropertyOp53
 70
     0
102
RTVSPropertyOp54
 70
     0
102
RTVSPropertyOp55
 70
     1
102
RTVSPropertyOp56
 70
     0
102
RTVSPropertyOp57
 70
     0
102
RTVSPropertyOp58
 70
     0
102
RTVSPropertyOp59
 70
     0
102
RTVSPropertyOp60
 70
     0
102
RTVSPropertyOp61
 70
     0
102
RTVSPropertyOp62
 70
     0
  0
XRECORD
  5
98D8
102
{ACAD_REACTORS
330
98D7
102
}
330
98D7
100
AcDbXrecord
280
     1
102
RTVSPost2010Prop28
280
     0
102
RTVSPost2010PropOp28
 70
     1
102
RTVSPost2010Prop29
280
     1
102
RTVSPost2010PropOp29
 70
     1
102
RTVSPost2010Prop30
280
     1
102
RTVSPost2010PropOp30
 70
     1
102
RTVSPost2010Prop31
280
     0
102
RTVSPost2010PropOp31
 70
     1
102
RTVSPost2010Prop32
280
     0
102
RTVSPost2010PropOp32
 70
     1
102
RTVSPost2010Prop33
280
     0
102
RTVSPost2010PropOp33
 70
     1
102
RTVSPost2010Prop34
280
     0
102
RTVSPost2010PropOp34
 70
     1
102
RTVSPost2010Prop35
280
     0
102
RTVSPost2010PropOp35
 70
     1
102
RTVSPost2010Prop36
280
     0
102
RTVSPost2010PropOp36
 70
     1
102
RTVSPost2010Prop37
 90
       50
102
RTVSPost2010PropOp37
 70
     1
102
RTVSPost2010Prop38
140
0.0
102
RTVSPost2010PropOp38
 70
     1
102
RTVSPost2010Prop39
140
1.0
102
RTVSPost2010PropOp39
 70
     1
102
RTVSPost2010Prop40
 90
        0
102
RTVSPost2010PropOp40
 70
     1
102
RTVSPost2010Prop41ColorIndex
 90
       18
102
RTVSPost2010Prop41ColorRGB
 90
        0
102
RTVSPost2010PropOp41
 70
     1
102
RTVSPost2010Prop42
 90
       50
102
RTVSPost2010PropOp42
 70
     1
102
RTVSPost2010Prop43
 90
        3
102
RTVSPost2010PropOp43
 70
     1
102
RTVSPost2010Prop44ColorIndex
 90
        5
102
RTVSPost2010Prop44ColorRGB
 90
      255
102
RTVSPost2010PropOp44
 70
     1
102
RTVSPost2010Prop45
280
     0
102
RTVSPost2010PropOp45
 70
     1
102
RTVSPost2010Prop46
 90
       50
102
RTVSPost2010PropOp46
 70
     1
102
RTVSPost2010Prop47
 90
       50
102
RTVSPost2010PropOp47
 70
     1
102
RTVSPost2010Prop48
 90
       50
102
RTVSPost2010PropOp48
 70
     1
102
RTVSPost2010Prop49
280
     0
102
RTVSPost2010PropOp49
 70
     1
102
RTVSPost2010Prop50
 90
       50
102
RTVSPost2010PropOp50
 70
     1
102
RTVSPost2010Prop51ColorIndex
 90
      256
102
RTVSPost2010Prop51ColorRGB
 90
-16777216
102
RTVSPost2010PropOp51
 70
     0
102
RTVSPost2010Prop52
140
1.0
102
RTVSPost2010PropOp52
 70
     0
102
RTVSPost2010Prop53
 90
        2
102
RTVSPost2010PropOp53
 70
     1
102
RTVSPost2010Prop54
  1
strokes_ogs.tif
102
RTVSPost2010PropOp54
 70
     1
102
RTVSPost2010Prop55
280
     0
102
RTVSPost2010PropOp55
 70
     1
102
RTVSPost2010Prop56
140
1.0
102
RTVSPost2010PropOp56
 70
     1
102
RTVSPost2010Prop57
140
1.0
102
RTVSPost2010PropOp57
 70
     1
102
RTVSPropertyOp0
 70
     1
102
RTVSPropertyOp1
 70
     1
102
RTVSPropertyOp2
 70
     1
102
RTVSPropertyOp3
 70
     1
102
RTVSPropertyOp4
 70
     1
102
RTVSPropertyOp5
 70
     1
102
RTVSPropertyOp6
 70
     1
102
RTVSPropertyOp7
 70
     1
102
RTVSPropertyOp8
 70
     1
102
RTVSPropertyOp9
 70
     1
102
RTVSPropertyOp10
 70
     1
102
RTVSPropertyOp11
 70
     1
102
RTVSPropertyOp12
 70
     1
102
RTVSPropertyOp13
 70
     1
102
RTVSPropertyOp14
 70
     1
102
RTVSPropertyOp15
 70
     1
102
RTVSPropertyOp16
 70
     1
102
RTVSPropertyOp17
 70
     1
102
RTVSPropertyOp18
 70
     1
102
RTVSPropertyOp19
 70
     1
102
RTVSPropertyOp20
 70
     1
102
RTVSPropertyOp21
 70
     1
102
RTVSPropertyOp22
 70
     1
102
RTVSPropertyOp23
 70
     1
102
RTVSPropertyOp24
 70
     1
102
RTVSPropertyOp25
 70
     1
102
RTVSPropertyOp26
 70
     1
102
RTVSPropertyOp27
 70
     1
102
RTVSPropertyOp28
 70
     1
102
RTVSPropertyOp29
 70
     1
102
RTVSPropertyOp30
 70
     1
102
RTVSPropertyOp31
 70
     1
102
RTVSPropertyOp32
 70
     1
102
RTVSPropertyOp33
 70
     1
102
RTVSPropertyOp34
 70
     1
102
RTVSPropertyOp35
 70
     1
102
RTVSPropertyOp36
 70
     1
102
RTVSPropertyOp37
 70
     1
102
RTVSPropertyOp38
 70
     1
102
RTVSPropertyOp39
 70
     1
102
RTVSPropertyOp40
 70
     1
102
RTVSPropertyOp41
 70
     1
102
RTVSPropertyOp42
 70
     1
102
RTVSPropertyOp43
 70
     1
102
RTVSPropertyOp44
 70
     1
102
RTVSPropertyOp45
 70
     1
102
RTVSPropertyOp46
 70
     1
102
RTVSPropertyOp47
 70
     1
102
RTVSPropertyOp48
 70
     1
102
RTVSPropertyOp49
 70
     1
102
RTVSPropertyOp50
 70
     1
102
RTVSPropertyOp51
 70
     0
102
RTVSPropertyOp52
 70
     0
102
RTVSPropertyOp53
 70
     1
102
RTVSPropertyOp54
 70
     1
102
RTVSPropertyOp55
 70
     1
102
RTVSPropertyOp56
 70
     1
102
RTVSPropertyOp57
 70
     1
102
RTVSPropertyOp58
 70
     1
102
RTVSPropertyOp59
 70
     1
102
RTVSPropertyOp60
 70
     1
102
RTVSPropertyOp61
 70
     1
102
RTVSPropertyOp62
 70
     1
  0
XRECORD
  5
98EE
102
{ACAD_REACTORS
330
98ED
102
}
330
98ED
100
AcDbXrecord
280
     1
102
RTVSPost2010Prop28
280
     0
102
RTVSPost2010PropOp28
 70
     1
102
RTVSPost2010Prop29
280
     1
102
RTVSPost2010PropOp29
 70
     1
102
RTVSPost2010Prop30
280
     1
102
RTVSPost2010PropOp30
 70
     1
102
RTVSPost2010Prop31
280
     0
102
RTVSPost2010PropOp31
 70
     1
102
RTVSPost2010Prop32
280
     0
102
RTVSPost2010PropOp32
 70
     1
102
RTVSPost2010Prop33
280
     0
102
RTVSPost2010PropOp33
 70
     1
102
RTVSPost2010Prop34
280
     0
102
RTVSPost2010PropOp34
 70
     1
102
RTVSPost2010Prop35
280
     0
102
RTVSPost2010PropOp35
 70
     1
102
RTVSPost2010Prop36
280
     0
102
RTVSPost2010PropOp36
 70
     1
102
RTVSPost2010Prop37
 90
       50
102
RTVSPost2010PropOp37
 70
     1
102
RTVSPost2010Prop38
140
0.0
102
RTVSPost2010PropOp38
 70
     1
102
RTVSPost2010Prop39
140
1.0
102
RTVSPost2010PropOp39
 70
     1
102
RTVSPost2010Prop40
 90
        0
102
RTVSPost2010PropOp40
 70
     1
102
RTVSPost2010Prop41ColorIndex
 90
       18
102
RTVSPost2010Prop41ColorRGB
 90
        0
102
RTVSPost2010PropOp41
 70
     1
102
RTVSPost2010Prop42
 90
       50
102
RTVSPost2010PropOp42
 70
     1
102
RTVSPost2010Prop43
 90
        3
102
RTVSPost2010PropOp43
 70
     1
102
RTVSPost2010Prop44ColorIndex
 90
        5
102
RTVSPost2010Prop44ColorRGB
 90
      255
102
RTVSPost2010PropOp44
 70
     1
102
RTVSPost2010Prop45
280
     0
102
RTVSPost2010PropOp45
 70
     1
102
RTVSPost2010Prop46
 90
       50
102
RTVSPost2010PropOp46
 70
     1
102
RTVSPost2010Prop47
 90
       50
102
RTVSPost2010PropOp47
 70
     1
102
RTVSPost2010Prop48
 90
       50
102
RTVSPost2010PropOp48
 70
     1
102
RTVSPost2010Prop49
280
     0
102
RTVSPost2010PropOp49
 70
     1
102
RTVSPost2010Prop50
 90
       50
102
RTVSPost2010PropOp50
 70
     1
102
RTVSPost2010Prop51ColorIndex
 90
      256
102
RTVSPost2010Prop51ColorRGB
 90
-16777216
102
RTVSPost2010PropOp51
 70
     0
102
RTVSPost2010Prop52
140
1.0
102
RTVSPost2010PropOp52
 70
     0
102
RTVSPost2010Prop53
 90
        2
102
RTVSPost2010PropOp53
 70
     1
102
RTVSPost2010Prop54
  1
strokes_ogs.tif
102
RTVSPost2010PropOp54
 70
     1
102
RTVSPost2010Prop55
280
     0
102
RTVSPost2010PropOp55
 70
     1
102
RTVSPost2010Prop56
140
1.0
102
RTVSPost2010PropOp56
 70
     1
102
RTVSPost2010Prop57
140
1.0
102
RTVSPost2010PropOp57
 70
     1
102
RTVSPropertyOp0
 70
     1
102
RTVSPropertyOp1
 70
     1
102
RTVSPropertyOp2
 70
     1
102
RTVSPropertyOp3
 70
     1
102
RTVSPropertyOp4
 70
     1
102
RTVSPropertyOp5
 70
     1
102
RTVSPropertyOp6
 70
     1
102
RTVSPropertyOp7
 70
     1
102
RTVSPropertyOp8
 70
     1
102
RTVSPropertyOp9
 70
     1
102
RTVSPropertyOp10
 70
     1
102
RTVSPropertyOp11
 70
     1
102
RTVSPropertyOp12
 70
     1
102
RTVSPropertyOp13
 70
     1
102
RTVSPropertyOp14
 70
     1
102
RTVSPropertyOp15
 70
     1
102
RTVSPropertyOp16
 70
     1
102
RTVSPropertyOp17
 70
     1
102
RTVSPropertyOp18
 70
     1
102
RTVSPropertyOp19
 70
     1
102
RTVSPropertyOp20
 70
     1
102
RTVSPropertyOp21
 70
     1
102
RTVSPropertyOp22
 70
     1
102
RTVSPropertyOp23
 70
     1
102
RTVSPropertyOp24
 70
     1
102
RTVSPropertyOp25
 70
     1
102
RTVSPropertyOp26
 70
     1
102
RTVSPropertyOp27
 70
     1
102
RTVSPropertyOp28
 70
     1
102
RTVSPropertyOp29
 70
     1
102
RTVSPropertyOp30
 70
     1
102
RTVSPropertyOp31
 70
     1
102
RTVSPropertyOp32
 70
     1
102
RTVSPropertyOp33
 70
     1
102
RTVSPropertyOp34
 70
     1
102
RTVSPropertyOp35
 70
     1
102
RTVSPropertyOp36
 70
     1
102
RTVSPropertyOp37
 70
     1
102
RTVSPropertyOp38
 70
     1
102
RTVSPropertyOp39
 70
     1
102
RTVSPropertyOp40
 70
     1
102
RTVSPropertyOp41
 70
     1
102
RTVSPropertyOp42
 70
     1
102
RTVSPropertyOp43
 70
     1
102
RTVSPropertyOp44
 70
     1
102
RTVSPropertyOp45
 70
     1
102
RTVSPropertyOp46
 70
     1
102
RTVSPropertyOp47
 70
     1
102
RTVSPropertyOp48
 70
     1
102
RTVSPropertyOp49
 70
     1
102
RTVSPropertyOp50
 70
     1
102
RTVSPropertyOp51
 70
     0
102
RTVSPropertyOp52
 70
     0
102
RTVSPropertyOp53
 70
     1
102
RTVSPropertyOp54
 70
     1
102
RTVSPropertyOp55
 70
     1
102
RTVSPropertyOp56
 70
     1
102
RTVSPropertyOp57
 70
     1
102
RTVSPropertyOp58
 70
     1
102
RTVSPropertyOp59
 70
     1
102
RTVSPropertyOp60
 70
     1
102
RTVSPropertyOp61
 70
     1
102
RTVSPropertyOp62
 70
     1
  0
XRECORD
  5
98EC
102
{ACAD_REACTORS
330
98EB
102
}
330
98EB
100
AcDbXrecord
280
     1
102
RTVSPost2010Prop28
280
     0
102
RTVSPost2010PropOp28
 70
     1
102
RTVSPost2010Prop29
280
     1
102
RTVSPost2010PropOp29
 70
     1
102
RTVSPost2010Prop30
280
     1
102
RTVSPost2010PropOp30
 70
     1
102
RTVSPost2010Prop31
280
     0
102
RTVSPost2010PropOp31
 70
     1
102
RTVSPost2010Prop32
280
     0
102
RTVSPost2010PropOp32
 70
     1
102
RTVSPost2010Prop33
280
     0
102
RTVSPost2010PropOp33
 70
     1
102
RTVSPost2010Prop34
280
     0
102
RTVSPost2010PropOp34
 70
     1
102
RTVSPost2010Prop35
280
     0
102
RTVSPost2010PropOp35
 70
     1
102
RTVSPost2010Prop36
280
     0
102
RTVSPost2010PropOp36
 70
     1
102
RTVSPost2010Prop37
 90
       50
102
RTVSPost2010PropOp37
 70
     1
102
RTVSPost2010Prop38
140
0.0
102
RTVSPost2010PropOp38
 70
     1
102
RTVSPost2010Prop39
140
1.0
102
RTVSPost2010PropOp39
 70
     1
102
RTVSPost2010Prop40
 90
        0
102
RTVSPost2010PropOp40
 70
     1
102
RTVSPost2010Prop41ColorIndex
 90
       18
102
RTVSPost2010Prop41ColorRGB
 90
        0
102
RTVSPost2010PropOp41
 70
     1
102
RTVSPost2010Prop42
 90
       50
102
RTVSPost2010PropOp42
 70
     1
102
RTVSPost2010Prop43
 90
        3
102
RTVSPost2010PropOp43
 70
     1
102
RTVSPost2010Prop44ColorIndex
 90
        5
102
RTVSPost2010Prop44ColorRGB
 90
      255
102
RTVSPost2010PropOp44
 70
     1
102
RTVSPost2010Prop45
280
     0
102
RTVSPost2010PropOp45
 70
     1
102
RTVSPost2010Prop46
 90
       50
102
RTVSPost2010PropOp46
 70
     1
102
RTVSPost2010Prop47
 90
       50
102
RTVSPost2010PropOp47
 70
     1
102
RTVSPost2010Prop48
 90
       50
102
RTVSPost2010PropOp48
 70
     1
102
RTVSPost2010Prop49
280
     0
102
RTVSPost2010PropOp49
 70
     1
102
RTVSPost2010Prop50
 90
       50
102
RTVSPost2010PropOp50
 70
     1
102
RTVSPost2010Prop51ColorIndex
 90
      256
102
RTVSPost2010Prop51ColorRGB
 90
-16777216
102
RTVSPost2010PropOp51
 70
     0
102
RTVSPost2010Prop52
140
1.0
102
RTVSPost2010PropOp52
 70
     0
102
RTVSPost2010Prop53
 90
        2
102
RTVSPost2010PropOp53
 70
     1
102
RTVSPost2010Prop54
  1
strokes_ogs.tif
102
RTVSPost2010PropOp54
 70
     1
102
RTVSPost2010Prop55
280
     0
102
RTVSPost2010PropOp55
 70
     1
102
RTVSPost2010Prop56
140
1.0
102
RTVSPost2010PropOp56
 70
     1
102
RTVSPost2010Prop57
140
1.0
102
RTVSPost2010PropOp57
 70
     1
102
RTVSPropertyOp0
 70
     1
102
RTVSPropertyOp1
 70
     1
102
RTVSPropertyOp2
 70
     1
102
RTVSPropertyOp3
 70
     1
102
RTVSPropertyOp4
 70
     1
102
RTVSPropertyOp5
 70
     1
102
RTVSPropertyOp6
 70
     1
102
RTVSPropertyOp7
 70
     1
102
RTVSPropertyOp8
 70
     1
102
RTVSPropertyOp9
 70
     1
102
RTVSPropertyOp10
 70
     1
102
RTVSPropertyOp11
 70
     1
102
RTVSPropertyOp12
 70
     1
102
RTVSPropertyOp13
 70
     1
102
RTVSPropertyOp14
 70
     1
102
RTVSPropertyOp15
 70
     1
102
RTVSPropertyOp16
 70
     1
102
RTVSPropertyOp17
 70
     1
102
RTVSPropertyOp18
 70
     1
102
RTVSPropertyOp19
 70
     1
102
RTVSPropertyOp20
 70
     1
102
RTVSPropertyOp21
 70
     1
102
RTVSPropertyOp22
 70
     1
102
RTVSPropertyOp23
 70
     1
102
RTVSPropertyOp24
 70
     1
102
RTVSPropertyOp25
 70
     1
102
RTVSPropertyOp26
 70
     1
102
RTVSPropertyOp27
 70
     1
102
RTVSPropertyOp28
 70
     1
102
RTVSPropertyOp29
 70
     1
102
RTVSPropertyOp30
 70
     1
102
RTVSPropertyOp31
 70
     1
102
RTVSPropertyOp32
 70
     1
102
RTVSPropertyOp33
 70
     1
102
RTVSPropertyOp34
 70
     1
102
RTVSPropertyOp35
 70
     1
102
RTVSPropertyOp36
 70
     1
102
RTVSPropertyOp37
 70
     1
102
RTVSPropertyOp38
 70
     1
102
RTVSPropertyOp39
 70
     1
102
RTVSPropertyOp40
 70
     1
102
RTVSPropertyOp41
 70
     1
102
RTVSPropertyOp42
 70
     1
102
RTVSPropertyOp43
 70
     1
102
RTVSPropertyOp44
 70
     1
102
RTVSPropertyOp45
 70
     1
102
RTVSPropertyOp46
 70
     1
102
RTVSPropertyOp47
 70
     1
102
RTVSPropertyOp48
 70
     1
102
RTVSPropertyOp49
 70
     1
102
RTVSPropertyOp50
 70
     1
102
RTVSPropertyOp51
 70
     0
102
RTVSPropertyOp52
 70
     0
102
RTVSPropertyOp53
 70
     1
102
RTVSPropertyOp54
 70
     1
102
RTVSPropertyOp55
 70
     1
102
RTVSPropertyOp56
 70
     1
102
RTVSPropertyOp57
 70
     1
102
RTVSPropertyOp58
 70
     1
102
RTVSPropertyOp59
 70
     1
102
RTVSPropertyOp60
 70
     1
102
RTVSPropertyOp61
 70
     1
102
RTVSPropertyOp62
 70
     1
  0
XRECORD
  5
98E6
102
{ACAD_REACTORS
330
98E5
102
}
330
98E5
100
AcDbXrecord
280
     1
102
RTVSPost2010Prop28
280
     0
102
RTVSPost2010PropOp28
 70
     1
102
RTVSPost2010Prop29
280
     1
102
RTVSPost2010PropOp29
 70
     1
102
RTVSPost2010Prop30
280
     1
102
RTVSPost2010PropOp30
 70
     1
102
RTVSPost2010Prop31
280
     0
102
RTVSPost2010PropOp31
 70
     1
102
RTVSPost2010Prop32
280
     0
102
RTVSPost2010PropOp32
 70
     1
102
RTVSPost2010Prop33
280
     0
102
RTVSPost2010PropOp33
 70
     1
102
RTVSPost2010Prop34
280
     0
102
RTVSPost2010PropOp34
 70
     1
102
RTVSPost2010Prop35
280
     0
102
RTVSPost2010PropOp35
 70
     1
102
RTVSPost2010Prop36
280
     0
102
RTVSPost2010PropOp36
 70
     1
102
RTVSPost2010Prop37
 90
       50
102
RTVSPost2010PropOp37
 70
     1
102
RTVSPost2010Prop38
140
0.0
102
RTVSPost2010PropOp38
 70
     1
102
RTVSPost2010Prop39
140
1.0
102
RTVSPost2010PropOp39
 70
     1
102
RTVSPost2010Prop40
 90
        0
102
RTVSPost2010PropOp40
 70
     1
102
RTVSPost2010Prop41ColorIndex
 90
       18
102
RTVSPost2010Prop41ColorRGB
 90
        0
102
RTVSPost2010PropOp41
 70
     1
102
RTVSPost2010Prop42
 90
       50
102
RTVSPost2010PropOp42
 70
     1
102
RTVSPost2010Prop43
 90
        3
102
RTVSPost2010PropOp43
 70
     1
102
RTVSPost2010Prop44ColorIndex
 90
        5
102
RTVSPost2010Prop44ColorRGB
 90
      255
102
RTVSPost2010PropOp44
 70
     1
102
RTVSPost2010Prop45
280
     0
102
RTVSPost2010PropOp45
 70
     1
102
RTVSPost2010Prop46
 90
       50
102
RTVSPost2010PropOp46
 70
     1
102
RTVSPost2010Prop47
 90
       50
102
RTVSPost2010PropOp47
 70
     1
102
RTVSPost2010Prop48
 90
       50
102
RTVSPost2010PropOp48
 70
     1
102
RTVSPost2010Prop49
280
     0
102
RTVSPost2010PropOp49
 70
     1
102
RTVSPost2010Prop50
 90
       50
102
RTVSPost2010PropOp50
 70
     1
102
RTVSPost2010Prop51ColorIndex
 90
      256
102
RTVSPost2010Prop51ColorRGB
 90
-16777216
102
RTVSPost2010PropOp51
 70
     0
102
RTVSPost2010Prop52
140
1.0
102
RTVSPost2010PropOp52
 70
     0
102
RTVSPost2010Prop53
 90
        2
102
RTVSPost2010PropOp53
 70
     1
102
RTVSPost2010Prop54
  1
strokes_ogs.tif
102
RTVSPost2010PropOp54
 70
     1
102
RTVSPost2010Prop55
280
     0
102
RTVSPost2010PropOp55
 70
     1
102
RTVSPost2010Prop56
140
1.0
102
RTVSPost2010PropOp56
 70
     1
102
RTVSPost2010Prop57
140
1.0
102
RTVSPost2010PropOp57
 70
     1
102
RTVSPropertyOp0
 70
     1
102
RTVSPropertyOp1
 70
     1
102
RTVSPropertyOp2
 70
     1
102
RTVSPropertyOp3
 70
     1
102
RTVSPropertyOp4
 70
     1
102
RTVSPropertyOp5
 70
     1
102
RTVSPropertyOp6
 70
     1
102
RTVSPropertyOp7
 70
     1
102
RTVSPropertyOp8
 70
     1
102
RTVSPropertyOp9
 70
     1
102
RTVSPropertyOp10
 70
     1
102
RTVSPropertyOp11
 70
     1
102
RTVSPropertyOp12
 70
     1
102
RTVSPropertyOp13
 70
     1
102
RTVSPropertyOp14
 70
     1
102
RTVSPropertyOp15
 70
     1
102
RTVSPropertyOp16
 70
     1
102
RTVSPropertyOp17
 70
     1
102
RTVSPropertyOp18
 70
     1
102
RTVSPropertyOp19
 70
     1
102
RTVSPropertyOp20
 70
     1
102
RTVSPropertyOp21
 70
     1
102
RTVSPropertyOp22
 70
     1
102
RTVSPropertyOp23
 70
     1
102
RTVSPropertyOp24
 70
     1
102
RTVSPropertyOp25
 70
     1
102
RTVSPropertyOp26
 70
     1
102
RTVSPropertyOp27
 70
     1
102
RTVSPropertyOp28
 70
     1
102
RTVSPropertyOp29
 70
     1
102
RTVSPropertyOp30
 70
     1
102
RTVSPropertyOp31
 70
     1
102
RTVSPropertyOp32
 70
     1
102
RTVSPropertyOp33
 70
     1
102
RTVSPropertyOp34
 70
     1
102
RTVSPropertyOp35
 70
     1
102
RTVSPropertyOp36
 70
     1
102
RTVSPropertyOp37
 70
     1
102
RTVSPropertyOp38
 70
     1
102
RTVSPropertyOp39
 70
     1
102
RTVSPropertyOp40
 70
     1
102
RTVSPropertyOp41
 70
     1
102
RTVSPropertyOp42
 70
     1
102
RTVSPropertyOp43
 70
     1
102
RTVSPropertyOp44
 70
     1
102
RTVSPropertyOp45
 70
     1
102
RTVSPropertyOp46
 70
     1
102
RTVSPropertyOp47
 70
     1
102
RTVSPropertyOp48
 70
     1
102
RTVSPropertyOp49
 70
     1
102
RTVSPropertyOp50
 70
     1
102
RTVSPropertyOp51
 70
     0
102
RTVSPropertyOp52
 70
     0
102
RTVSPropertyOp53
 70
     1
102
RTVSPropertyOp54
 70
     1
102
RTVSPropertyOp55
 70
     1
102
RTVSPropertyOp56
 70
     1
102
RTVSPropertyOp57
 70
     1
102
RTVSPropertyOp58
 70
     1
102
RTVSPropertyOp59
 70
     1
102
RTVSPropertyOp60
 70
     1
102
RTVSPropertyOp61
 70
     1
102
RTVSPropertyOp62
 70
     1
  0
XRECORD
  5
98E8
102
{ACAD_REACTORS
330
98E7
102
}
330
98E7
100
AcDbXrecord
280
     1
102
RTVSPost2010Prop28
280
     0
102
RTVSPost2010PropOp28
 70
     1
102
RTVSPost2010Prop29
280
     1
102
RTVSPost2010PropOp29
 70
     1
102
RTVSPost2010Prop30
280
     1
102
RTVSPost2010PropOp30
 70
     1
102
RTVSPost2010Prop31
280
     0
102
RTVSPost2010PropOp31
 70
     1
102
RTVSPost2010Prop32
280
     0
102
RTVSPost2010PropOp32
 70
     1
102
RTVSPost2010Prop33
280
     0
102
RTVSPost2010PropOp33
 70
     1
102
RTVSPost2010Prop34
280
     0
102
RTVSPost2010PropOp34
 70
     1
102
RTVSPost2010Prop35
280
     0
102
RTVSPost2010PropOp35
 70
     1
102
RTVSPost2010Prop36
280
     0
102
RTVSPost2010PropOp36
 70
     1
102
RTVSPost2010Prop37
 90
       50
102
RTVSPost2010PropOp37
 70
     1
102
RTVSPost2010Prop38
140
0.0
102
RTVSPost2010PropOp38
 70
     1
102
RTVSPost2010Prop39
140
1.0
102
RTVSPost2010PropOp39
 70
     1
102
RTVSPost2010Prop40
 90
        0
102
RTVSPost2010PropOp40
 70
     1
102
RTVSPost2010Prop41ColorIndex
 90
       18
102
RTVSPost2010Prop41ColorRGB
 90
        0
102
RTVSPost2010PropOp41
 70
     1
102
RTVSPost2010Prop42
 90
       50
102
RTVSPost2010PropOp42
 70
     1
102
RTVSPost2010Prop43
 90
        3
102
RTVSPost2010PropOp43
 70
     1
102
RTVSPost2010Prop44ColorIndex
 90
        5
102
RTVSPost2010Prop44ColorRGB
 90
      255
102
RTVSPost2010PropOp44
 70
     1
102
RTVSPost2010Prop45
280
     0
102
RTVSPost2010PropOp45
 70
     1
102
RTVSPost2010Prop46
 90
       50
102
RTVSPost2010PropOp46
 70
     1
102
RTVSPost2010Prop47
 90
       50
102
RTVSPost2010PropOp47
 70
     1
102
RTVSPost2010Prop48
 90
       50
102
RTVSPost2010PropOp48
 70
     1
102
RTVSPost2010Prop49
280
     0
102
RTVSPost2010PropOp49
 70
     1
102
RTVSPost2010Prop50
 90
       50
102
RTVSPost2010PropOp50
 70
     1
102
RTVSPost2010Prop51ColorIndex
 90
      256
102
RTVSPost2010Prop51ColorRGB
 90
-16777216
102
RTVSPost2010PropOp51
 70
     0
102
RTVSPost2010Prop52
140
1.0
102
RTVSPost2010PropOp52
 70
     0
102
RTVSPost2010Prop53
 90
        2
102
RTVSPost2010PropOp53
 70
     1
102
RTVSPost2010Prop54
  1
strokes_ogs.tif
102
RTVSPost2010PropOp54
 70
     1
102
RTVSPost2010Prop55
280
     0
102
RTVSPost2010PropOp55
 70
     1
102
RTVSPost2010Prop56
140
1.0
102
RTVSPost2010PropOp56
 70
     1
102
RTVSPost2010Prop57
140
1.0
102
RTVSPost2010PropOp57
 70
     1
102
RTVSPropertyOp0
 70
     1
102
RTVSPropertyOp1
 70
     1
102
RTVSPropertyOp2
 70
     1
102
RTVSPropertyOp3
 70
     1
102
RTVSPropertyOp4
 70
     1
102
RTVSPropertyOp5
 70
     1
102
RTVSPropertyOp6
 70
     1
102
RTVSPropertyOp7
 70
     1
102
RTVSPropertyOp8
 70
     1
102
RTVSPropertyOp9
 70
     1
102
RTVSPropertyOp10
 70
     1
102
RTVSPropertyOp11
 70
     1
102
RTVSPropertyOp12
 70
     1
102
RTVSPropertyOp13
 70
     1
102
RTVSPropertyOp14
 70
     1
102
RTVSPropertyOp15
 70
     1
102
RTVSPropertyOp16
 70
     1
102
RTVSPropertyOp17
 70
     1
102
RTVSPropertyOp18
 70
     1
102
RTVSPropertyOp19
 70
     1
102
RTVSPropertyOp20
 70
     1
102
RTVSPropertyOp21
 70
     1
102
RTVSPropertyOp22
 70
     1
102
RTVSPropertyOp23
 70
     1
102
RTVSPropertyOp24
 70
     1
102
RTVSPropertyOp25
 70
     1
102
RTVSPropertyOp26
 70
     1
102
RTVSPropertyOp27
 70
     1
102
RTVSPropertyOp28
 70
     1
102
RTVSPropertyOp29
 70
     1
102
RTVSPropertyOp30
 70
     1
102
RTVSPropertyOp31
 70
     1
102
RTVSPropertyOp32
 70
     1
102
RTVSPropertyOp33
 70
     1
102
RTVSPropertyOp34
 70
     1
102
RTVSPropertyOp35
 70
     1
102
RTVSPropertyOp36
 70
     1
102
RTVSPropertyOp37
 70
     1
102
RTVSPropertyOp38
 70
     1
102
RTVSPropertyOp39
 70
     1
102
RTVSPropertyOp40
 70
     1
102
RTVSPropertyOp41
 70
     1
102
RTVSPropertyOp42
 70
     1
102
RTVSPropertyOp43
 70
     1
102
RTVSPropertyOp44
 70
     1
102
RTVSPropertyOp45
 70
     1
102
RTVSPropertyOp46
 70
     1
102
RTVSPropertyOp47
 70
     1
102
RTVSPropertyOp48
 70
     1
102
RTVSPropertyOp49
 70
     1
102
RTVSPropertyOp50
 70
     1
102
RTVSPropertyOp51
 70
     0
102
RTVSPropertyOp52
 70
     0
102
RTVSPropertyOp53
 70
     1
102
RTVSPropertyOp54
 70
     1
102
RTVSPropertyOp55
 70
     1
102
RTVSPropertyOp56
 70
     1
102
RTVSPropertyOp57
 70
     1
102
RTVSPropertyOp58
 70
     1
102
RTVSPropertyOp59
 70
     1
102
RTVSPropertyOp60
 70
     1
102
RTVSPropertyOp61
 70
     1
102
RTVSPropertyOp62
 70
     1
  0
XRECORD
  5
98DE
102
{ACAD_REACTORS
330
98DD
102
}
330
98DD
100
AcDbXrecord
280
     1
102
RTVSPost2010Prop28
280
     0
102
RTVSPost2010PropOp28
 70
     1
102
RTVSPost2010Prop29
280
     1
102
RTVSPost2010PropOp29
 70
     1
102
RTVSPost2010Prop30
280
     1
102
RTVSPost2010PropOp30
 70
     1
102
RTVSPost2010Prop31
280
     0
102
RTVSPost2010PropOp31
 70
     1
102
RTVSPost2010Prop32
280
     0
102
RTVSPost2010PropOp32
 70
     1
102
RTVSPost2010Prop33
280
     0
102
RTVSPost2010PropOp33
 70
     1
102
RTVSPost2010Prop34
280
     0
102
RTVSPost2010PropOp34
 70
     1
102
RTVSPost2010Prop35
280
     0
102
RTVSPost2010PropOp35
 70
     1
102
RTVSPost2010Prop36
280
     0
102
RTVSPost2010PropOp36
 70
     1
102
RTVSPost2010Prop37
 90
       50
102
RTVSPost2010PropOp37
 70
     1
102
RTVSPost2010Prop38
140
0.0
102
RTVSPost2010PropOp38
 70
     1
102
RTVSPost2010Prop39
140
1.0
102
RTVSPost2010PropOp39
 70
     1
102
RTVSPost2010Prop40
 90
        0
102
RTVSPost2010PropOp40
 70
     1
102
RTVSPost2010Prop41ColorIndex
 90
       18
102
RTVSPost2010Prop41ColorRGB
 90
        0
102
RTVSPost2010PropOp41
 70
     1
102
RTVSPost2010Prop42
 90
       50
102
RTVSPost2010PropOp42
 70
     1
102
RTVSPost2010Prop43
 90
        3
102
RTVSPost2010PropOp43
 70
     1
102
RTVSPost2010Prop44ColorIndex
 90
        5
102
RTVSPost2010Prop44ColorRGB
 90
      255
102
RTVSPost2010PropOp44
 70
     1
102
RTVSPost2010Prop45
280
     0
102
RTVSPost2010PropOp45
 70
     1
102
RTVSPost2010Prop46
 90
       50
102
RTVSPost2010PropOp46
 70
     1
102
RTVSPost2010Prop47
 90
       50
102
RTVSPost2010PropOp47
 70
     1
102
RTVSPost2010Prop48
 90
       50
102
RTVSPost2010PropOp48
 70
     1
102
RTVSPost2010Prop49
280
     0
102
RTVSPost2010PropOp49
 70
     1
102
RTVSPost2010Prop50
 90
       50
102
RTVSPost2010PropOp50
 70
     1
102
RTVSPost2010Prop51ColorIndex
 90
      256
102
RTVSPost2010Prop51ColorRGB
 90
-16777216
102
RTVSPost2010PropOp51
 70
     0
102
RTVSPost2010Prop52
140
1.0
102
RTVSPost2010PropOp52
 70
     0
102
RTVSPost2010Prop53
 90
        2
102
RTVSPost2010PropOp53
 70
     1
102
RTVSPost2010Prop54
  1
strokes_ogs.tif
102
RTVSPost2010PropOp54
 70
     1
102
RTVSPost2010Prop55
280
     0
102
RTVSPost2010PropOp55
 70
     1
102
RTVSPost2010Prop56
140
1.0
102
RTVSPost2010PropOp56
 70
     1
102
RTVSPost2010Prop57
140
1.0
102
RTVSPost2010PropOp57
 70
     1
102
RTVSPropertyOp0
 70
     1
102
RTVSPropertyOp1
 70
     1
102
RTVSPropertyOp2
 70
     1
102
RTVSPropertyOp3
 70
     1
102
RTVSPropertyOp4
 70
     1
102
RTVSPropertyOp5
 70
     1
102
RTVSPropertyOp6
 70
     1
102
RTVSPropertyOp7
 70
     1
102
RTVSPropertyOp8
 70
     1
102
RTVSPropertyOp9
 70
     1
102
RTVSPropertyOp10
 70
     1
102
RTVSPropertyOp11
 70
     1
102
RTVSPropertyOp12
 70
     1
102
RTVSPropertyOp13
 70
     1
102
RTVSPropertyOp14
 70
     1
102
RTVSPropertyOp15
 70
     1
102
RTVSPropertyOp16
 70
     1
102
RTVSPropertyOp17
 70
     1
102
RTVSPropertyOp18
 70
     1
102
RTVSPropertyOp19
 70
     1
102
RTVSPropertyOp20
 70
     1
102
RTVSPropertyOp21
 70
     1
102
RTVSPropertyOp22
 70
     1
102
RTVSPropertyOp23
 70
     1
102
RTVSPropertyOp24
 70
     1
102
RTVSPropertyOp25
 70
     1
102
RTVSPropertyOp26
 70
     1
102
RTVSPropertyOp27
 70
     1
102
RTVSPropertyOp28
 70
     1
102
RTVSPropertyOp29
 70
     1
102
RTVSPropertyOp30
 70
     1
102
RTVSPropertyOp31
 70
     1
102
RTVSPropertyOp32
 70
     1
102
RTVSPropertyOp33
 70
     1
102
RTVSPropertyOp34
 70
     1
102
RTVSPropertyOp35
 70
     1
102
RTVSPropertyOp36
 70
     1
102
RTVSPropertyOp37
 70
     1
102
RTVSPropertyOp38
 70
     1
102
RTVSPropertyOp39
 70
     1
102
RTVSPropertyOp40
 70
     1
102
RTVSPropertyOp41
 70
     1
102
RTVSPropertyOp42
 70
     1
102
RTVSPropertyOp43
 70
     1
102
RTVSPropertyOp44
 70
     1
102
RTVSPropertyOp45
 70
     1
102
RTVSPropertyOp46
 70
     1
102
RTVSPropertyOp47
 70
     1
102
RTVSPropertyOp48
 70
     1
102
RTVSPropertyOp49
 70
     1
102
RTVSPropertyOp50
 70
     1
102
RTVSPropertyOp51
 70
     0
102
RTVSPropertyOp52
 70
     0
102
RTVSPropertyOp53
 70
     1
102
RTVSPropertyOp54
 70
     1
102
RTVSPropertyOp55
 70
     1
102
RTVSPropertyOp56
 70
     1
102
RTVSPropertyOp57
 70
     1
102
RTVSPropertyOp58
 70
     1
102
RTVSPropertyOp59
 70
     1
102
RTVSPropertyOp60
 70
     1
102
RTVSPropertyOp61
 70
     1
102
RTVSPropertyOp62
 70
     1
  0
XRECORD
  5
98D2
102
{ACAD_REACTORS
330
98D1
102
}
330
98D1
100
AcDbXrecord
280
     1
102
RTVSPost2010Prop28
280
     0
102
RTVSPost2010PropOp28
 70
     1
102
RTVSPost2010Prop29
280
     1
102
RTVSPost2010PropOp29
 70
     1
102
RTVSPost2010Prop30
280
     1
102
RTVSPost2010PropOp30
 70
     1
102
RTVSPost2010Prop31
280
     0
102
RTVSPost2010PropOp31
 70
     1
102
RTVSPost2010Prop32
280
     0
102
RTVSPost2010PropOp32
 70
     1
102
RTVSPost2010Prop33
280
     0
102
RTVSPost2010PropOp33
 70
     1
102
RTVSPost2010Prop34
280
     0
102
RTVSPost2010PropOp34
 70
     1
102
RTVSPost2010Prop35
280
     0
102
RTVSPost2010PropOp35
 70
     1
102
RTVSPost2010Prop36
280
     0
102
RTVSPost2010PropOp36
 70
     1
102
RTVSPost2010Prop37
 90
       50
102
RTVSPost2010PropOp37
 70
     1
102
RTVSPost2010Prop38
140
0.0
102
RTVSPost2010PropOp38
 70
     1
102
RTVSPost2010Prop39
140
1.0
102
RTVSPost2010PropOp39
 70
     1
102
RTVSPost2010Prop40
 90
        0
102
RTVSPost2010PropOp40
 70
     1
102
RTVSPost2010Prop41ColorIndex
 90
       18
102
RTVSPost2010Prop41ColorRGB
 90
        0
102
RTVSPost2010PropOp41
 70
     1
102
RTVSPost2010Prop42
 90
       50
102
RTVSPost2010PropOp42
 70
     1
102
RTVSPost2010Prop43
 90
        3
102
RTVSPost2010PropOp43
 70
     1
102
RTVSPost2010Prop44ColorIndex
 90
        5
102
RTVSPost2010Prop44ColorRGB
 90
      255
102
RTVSPost2010PropOp44
 70
     1
102
RTVSPost2010Prop45
280
     0
102
RTVSPost2010PropOp45
 70
     1
102
RTVSPost2010Prop46
 90
       50
102
RTVSPost2010PropOp46
 70
     1
102
RTVSPost2010Prop47
 90
       50
102
RTVSPost2010PropOp47
 70
     1
102
RTVSPost2010Prop48
 90
       50
102
RTVSPost2010PropOp48
 70
     1
102
RTVSPost2010Prop49
280
     0
102
RTVSPost2010PropOp49
 70
     1
102
RTVSPost2010Prop50
 90
       50
102
RTVSPost2010PropOp50
 70
     1
102
RTVSPost2010Prop51ColorIndex
 90
      256
102
RTVSPost2010Prop51ColorRGB
 90
-16777216
102
RTVSPost2010PropOp51
 70
     0
102
RTVSPost2010Prop52
140
1.0
102
RTVSPost2010PropOp52
 70
     0
102
RTVSPost2010Prop53
 90
        2
102
RTVSPost2010PropOp53
 70
     1
102
RTVSPost2010Prop54
  1
strokes_ogs.tif
102
RTVSPost2010PropOp54
 70
     1
102
RTVSPost2010Prop55
280
     0
102
RTVSPost2010PropOp55
 70
     1
102
RTVSPost2010Prop56
140
1.0
102
RTVSPost2010PropOp56
 70
     1
102
RTVSPost2010Prop57
140
1.0
102
RTVSPost2010PropOp57
 70
     1
102
RTVSPropertyOp0
 70
     1
102
RTVSPropertyOp1
 70
     1
102
RTVSPropertyOp2
 70
     1
102
RTVSPropertyOp3
 70
     1
102
RTVSPropertyOp4
 70
     1
102
RTVSPropertyOp5
 70
     1
102
RTVSPropertyOp6
 70
     1
102
RTVSPropertyOp7
 70
     1
102
RTVSPropertyOp8
 70
     1
102
RTVSPropertyOp9
 70
     1
102
RTVSPropertyOp10
 70
     1
102
RTVSPropertyOp11
 70
     1
102
RTVSPropertyOp12
 70
     1
102
RTVSPropertyOp13
 70
     1
102
RTVSPropertyOp14
 70
     1
102
RTVSPropertyOp15
 70
     1
102
RTVSPropertyOp16
 70
     1
102
RTVSPropertyOp17
 70
     1
102
RTVSPropertyOp18
 70
     1
102
RTVSPropertyOp19
 70
     1
102
RTVSPropertyOp20
 70
     1
102
RTVSPropertyOp21
 70
     1
102
RTVSPropertyOp22
 70
     1
102
RTVSPropertyOp23
 70
     1
102
RTVSPropertyOp24
 70
     1
102
RTVSPropertyOp25
 70
     1
102
RTVSPropertyOp26
 70
     1
102
RTVSPropertyOp27
 70
     1
102
RTVSPropertyOp28
 70
     1
102
RTVSPropertyOp29
 70
     1
102
RTVSPropertyOp30
 70
     1
102
RTVSPropertyOp31
 70
     1
102
RTVSPropertyOp32
 70
     1
102
RTVSPropertyOp33
 70
     1
102
RTVSPropertyOp34
 70
     1
102
RTVSPropertyOp35
 70
     1
102
RTVSPropertyOp36
 70
     1
102
RTVSPropertyOp37
 70
     1
102
RTVSPropertyOp38
 70
     1
102
RTVSPropertyOp39
 70
     1
102
RTVSPropertyOp40
 70
     1
102
RTVSPropertyOp41
 70
     1
102
RTVSPropertyOp42
 70
     1
102
RTVSPropertyOp43
 70
     1
102
RTVSPropertyOp44
 70
     1
102
RTVSPropertyOp45
 70
     1
102
RTVSPropertyOp46
 70
     1
102
RTVSPropertyOp47
 70
     1
102
RTVSPropertyOp48
 70
     1
102
RTVSPropertyOp49
 70
     1
102
RTVSPropertyOp50
 70
     1
102
RTVSPropertyOp51
 70
     0
102
RTVSPropertyOp52
 70
     0
102
RTVSPropertyOp53
 70
     1
102
RTVSPropertyOp54
 70
     1
102
RTVSPropertyOp55
 70
     1
102
RTVSPropertyOp56
 70
     1
102
RTVSPropertyOp57
 70
     1
102
RTVSPropertyOp58
 70
     1
102
RTVSPropertyOp59
 70
     1
102
RTVSPropertyOp60
 70
     1
102
RTVSPropertyOp61
 70
     1
102
RTVSPropertyOp62
 70
     1
  0
XRECORD
  5
98EA
102
{ACAD_REACTORS
330
98E9
102
}
330
98E9
100
AcDbXrecord
280
     1
102
RTVSPost2010Prop28
280
     0
102
RTVSPost2010PropOp28
 70
     1
102
RTVSPost2010Prop29
280
     1
102
RTVSPost2010PropOp29
 70
     1
102
RTVSPost2010Prop30
280
     1
102
RTVSPost2010PropOp30
 70
     1
102
RTVSPost2010Prop31
280
     0
102
RTVSPost2010PropOp31
 70
     1
102
RTVSPost2010Prop32
280
     0
102
RTVSPost2010PropOp32
 70
     1
102
RTVSPost2010Prop33
280
     0
102
RTVSPost2010PropOp33
 70
     1
102
RTVSPost2010Prop34
280
     0
102
RTVSPost2010PropOp34
 70
     1
102
RTVSPost2010Prop35
280
     0
102
RTVSPost2010PropOp35
 70
     1
102
RTVSPost2010Prop36
280
     0
102
RTVSPost2010PropOp36
 70
     1
102
RTVSPost2010Prop37
 90
       50
102
RTVSPost2010PropOp37
 70
     1
102
RTVSPost2010Prop38
140
0.0
102
RTVSPost2010PropOp38
 70
     1
102
RTVSPost2010Prop39
140
1.0
102
RTVSPost2010PropOp39
 70
     1
102
RTVSPost2010Prop40
 90
        0
102
RTVSPost2010PropOp40
 70
     1
102
RTVSPost2010Prop41ColorIndex
 90
       18
102
RTVSPost2010Prop41ColorRGB
 90
        0
102
RTVSPost2010PropOp41
 70
     1
102
RTVSPost2010Prop42
 90
       50
102
RTVSPost2010PropOp42
 70
     1
102
RTVSPost2010Prop43
 90
        3
102
RTVSPost2010PropOp43
 70
     1
102
RTVSPost2010Prop44ColorIndex
 90
        5
102
RTVSPost2010Prop44ColorRGB
 90
      255
102
RTVSPost2010PropOp44
 70
     1
102
RTVSPost2010Prop45
280
     0
102
RTVSPost2010PropOp45
 70
     1
102
RTVSPost2010Prop46
 90
       50
102
RTVSPost2010PropOp46
 70
     1
102
RTVSPost2010Prop47
 90
       50
102
RTVSPost2010PropOp47
 70
     1
102
RTVSPost2010Prop48
 90
       50
102
RTVSPost2010PropOp48
 70
     1
102
RTVSPost2010Prop49
280
     0
102
RTVSPost2010PropOp49
 70
     1
102
RTVSPost2010Prop50
 90
       50
102
RTVSPost2010PropOp50
 70
     1
102
RTVSPost2010Prop51ColorIndex
 90
      256
102
RTVSPost2010Prop51ColorRGB
 90
-16777216
102
RTVSPost2010PropOp51
 70
     0
102
RTVSPost2010Prop52
140
1.0
102
RTVSPost2010PropOp52
 70
     0
102
RTVSPost2010Prop53
 90
        2
102
RTVSPost2010PropOp53
 70
     1
102
RTVSPost2010Prop54
  1
strokes_ogs.tif
102
RTVSPost2010PropOp54
 70
     1
102
RTVSPost2010Prop55
280
     0
102
RTVSPost2010PropOp55
 70
     1
102
RTVSPost2010Prop56
140
1.0
102
RTVSPost2010PropOp56
 70
     1
102
RTVSPost2010Prop57
140
1.0
102
RTVSPost2010PropOp57
 70
     1
102
RTVSPropertyOp0
 70
     1
102
RTVSPropertyOp1
 70
     1
102
RTVSPropertyOp2
 70
     1
102
RTVSPropertyOp3
 70
     1
102
RTVSPropertyOp4
 70
     1
102
RTVSPropertyOp5
 70
     1
102
RTVSPropertyOp6
 70
     1
102
RTVSPropertyOp7
 70
     1
102
RTVSPropertyOp8
 70
     1
102
RTVSPropertyOp9
 70
     1
102
RTVSPropertyOp10
 70
     1
102
RTVSPropertyOp11
 70
     1
102
RTVSPropertyOp12
 70
     1
102
RTVSPropertyOp13
 70
     1
102
RTVSPropertyOp14
 70
     1
102
RTVSPropertyOp15
 70
     1
102
RTVSPropertyOp16
 70
     1
102
RTVSPropertyOp17
 70
     1
102
RTVSPropertyOp18
 70
     1
102
RTVSPropertyOp19
 70
     1
102
RTVSPropertyOp20
 70
     1
102
RTVSPropertyOp21
 70
     1
102
RTVSPropertyOp22
 70
     1
102
RTVSPropertyOp23
 70
     1
102
RTVSPropertyOp24
 70
     1
102
RTVSPropertyOp25
 70
     1
102
RTVSPropertyOp26
 70
     1
102
RTVSPropertyOp27
 70
     1
102
RTVSPropertyOp28
 70
     1
102
RTVSPropertyOp29
 70
     1
102
RTVSPropertyOp30
 70
     1
102
RTVSPropertyOp31
 70
     1
102
RTVSPropertyOp32
 70
     1
102
RTVSPropertyOp33
 70
     1
102
RTVSPropertyOp34
 70
     1
102
RTVSPropertyOp35
 70
     1
102
RTVSPropertyOp36
 70
     1
102
RTVSPropertyOp37
 70
     1
102
RTVSPropertyOp38
 70
     1
102
RTVSPropertyOp39
 70
     1
102
RTVSPropertyOp40
 70
     1
102
RTVSPropertyOp41
 70
     1
102
RTVSPropertyOp42
 70
     1
102
RTVSPropertyOp43
 70
     1
102
RTVSPropertyOp44
 70
     1
102
RTVSPropertyOp45
 70
     1
102
RTVSPropertyOp46
 70
     1
102
RTVSPropertyOp47
 70
     1
102
RTVSPropertyOp48
 70
     1
102
RTVSPropertyOp49
 70
     1
102
RTVSPropertyOp50
 70
     1
102
RTVSPropertyOp51
 70
     0
102
RTVSPropertyOp52
 70
     0
102
RTVSPropertyOp53
 70
     1
102
RTVSPropertyOp54
 70
     1
102
RTVSPropertyOp55
 70
     1
102
RTVSPropertyOp56
 70
     1
102
RTVSPropertyOp57
 70
     1
102
RTVSPropertyOp58
 70
     1
102
RTVSPropertyOp59
 70
     1
102
RTVSPropertyOp60
 70
     1
102
RTVSPropertyOp61
 70
     1
102
RTVSPropertyOp62
 70
     1
  0
ENDSEC
  0
EOF
