  0
SECTION
  2
HEADER
  9
$ACADVER
  1
AC1015
  9
$ACADMAINTVER
 70
    20
  9
$DWGCODEPAGE
  3
ANSI_932
  9
$INSBASE
 10
0.0
 20
0.0
 30
0.0
  9
$EXTMIN
 10
10.0
 20
9.999999999999998
 30
0.0
  9
$EXTMAX
 10
546.220223
 20
375.871609
 30
0.0
  9
$LIMMIN
 10
0.0
 20
0.0
  9
$LIMMAX
 10
572.552
 20
394.713879
  9
$ORTHOMODE
 70
     1
  9
$REGENMODE
 70
     1
  9
$FILLMODE
 70
     1
  9
$QTEXTMODE
 70
     0
  9
$MIRRTEXT
 70
     1
  9
$LTSCALE
 40
20.0
  9
$ATTMODE
 70
     1
  9
$TEXTSIZE
 40
5.0
  9
$TRACEWID
 40
1.0
  9
$TEXTSTYLE
  7
STANDARD
  9
$CLAYER
  8
0
  9
$CELTYPE
  6
BYLAYER
  9
$CECOLOR
 62
   256
  9
$CELTSCALE
 40
1.0
  9
$DISPSILH
 70
     0
  9
$DIMSCALE
 40
1.0
  9
$DIMASZ
 40
2.5
  9
$DIMEXO
 40
1.0
  9
$DIMDLI
 40
10.0
  9
$DIMRND
 40
0.0
  9
$DIMDLE
 40
0.0
  9
$DIMEXE
 40
1.0
  9
$DIMTP
 40
0.0
  9
$DIMTM
 40
0.0
  9
$DIMTXT
 40
3.2
  9
$DIMCEN
 40
0.0
  9
$DIMTSZ
 40
0.0
  9
$DIMTOL
 70
     0
  9
$DIMLIM
 70
     0
  9
$DIMTIH
 70
     0
  9
$DIMTOH
 70
     0
  9
$DIMSE1
 70
     0
  9
$DIMSE2
 70
     0
  9
$DIMTAD
 70
     3
  9
$DIMZIN
 70
     8
  9
$DIMBLK
  1

  9
$DIMASO
 70
     1
  9
$DIMSHO
 70
     1
  9
$DIMPOST
  1

  9
$DIMAPOST
  1

  9
$DIMALT
 70
     0
  9
$DIMALTD
 70
     2
  9
$DIMALTF
 40
25.4
  9
$DIMLFAC
 40
1.0
  9
$DIMTOFL
 70
     1
  9
$DIMTVP
 40
0.0
  9
$DIMTIX
 70
     0
  9
$DIMSOXD
 70
     0
  9
$DIMSAH
 70
     1
  9
$DIMBLK1
  1

  9
$DIMBLK2
  1

  9
$DIMSTYLE
  2
STANDARD
  9
$DIMCLRD
 70
     0
  9
$DIMCLRE
 70
     0
  9
$DIMCLRT
 70
     0
  9
$DIMTFAC
 40
1.0
  9
$DIMGAP
 40
1.0
  9
$DIMJUST
 70
     0
  9
$DIMSD1
 70
     0
  9
$DIMSD2
 70
     0
  9
$DIMTOLJ
 70
     1
  9
$DIMTZIN
 70
     0
  9
$DIMALTZ
 70
     0
  9
$DIMALTTZ
 70
     0
  9
$DIMUPT
 70
     0
  9
$DIMDEC
 70
     4
  9
$DIMTDEC
 70
     4
  9
$DIMALTU
 70
     2
  9
$DIMALTTD
 70
     2
  9
$DIMTXSTY
  7
STANDARD
  9
$DIMAUNIT
 70
     0
  9
$DIMADEC
 70
     0
  9
$DIMALTRND
 40
0.0
  9
$DIMAZIN
 70
     0
  9
$DIMDSEP
 70
    46
  9
$DIMATFIT
 70
     3
  9
$DIMFRAC
 70
     0
  9
$DIMLDRBLK
  1

  9
$DIMLUNIT
 70
     2
  9
$DIMLWD
 70
    -2
  9
$DIMLWE
 70
    -2
  9
$DIMTMOVE
 70
     0
  9
$LUNITS
 70
     2
  9
$LUPREC
 70
     4
  9
$SKETCHINC
 40
1.0
  9
$FILLETRAD
 40
3.299999999999998
  9
$AUNITS
 70
     0
  9
$AUPREC
 70
     2
  9
$MENU
  1
.
  9
$ELEVATION
 40
0.0
  9
$PELEVATION
 40
0.0
  9
$THICKNESS
 40
0.0
  9
$LIMCHECK
 70
     0
  9
$CHAMFERA
 40
10.0
  9
$CHAMFERB
 40
10.0
  9
$CHAMFERC
 40
0.0
  9
$CHAMFERD
 40
0.0
  9
$SKPOLY
 70
     0
  9
$TDCREATE
 40
2451301.439674074
  9
$TDUCREATE
 40
2451301.064674074
  9
$TDUPDATE
 40
2457192.690249965
  9
$TDUUPDATE
 40
2457192.315249965
  9
$TDINDWG
 40
0.1576625347
  9
$TDUSRTIMER
 40
0.1576622222
  9
$USRTIMER
 70
     1
  9
$ANGBASE
 50
0.0
  9
$ANGDIR
 70
     0
  9
$PDMODE
 70
     0
  9
$PDSIZE
 40
0.0
  9
$PLINEWID
 40
0.0
  9
$SPLFRAME
 70
     0
  9
$SPLINETYPE
 70
     6
  9
$SPLINESEGS
 70
     8
  9
$HANDSEED
  5
9FC4
  9
$SURFTAB1
 70
     6
  9
$SURFTAB2
 70
     6
  9
$SURFTYPE
 70
     6
  9
$SURFU
 70
     6
  9
$SURFV
 70
     6
  9
$UCSBASE
  2

  9
$UCSNAME
  2

  9
$UCSORG
 10
0.0
 20
0.0
 30
0.0
  9
$UCSXDIR
 10
1.0
 20
0.0
 30
0.0
  9
$UCSYDIR
 10
0.0
 20
1.0
 30
0.0
  9
$UCSORTHOREF
  2

  9
$UCSORTHOVIEW
 70
     0
  9
$UCSORGTOP
 10
0.0
 20
0.0
 30
0.0
  9
$UCSORGBOTTOM
 10
0.0
 20
0.0
 30
0.0
  9
$UCSORGLEFT
 10
0.0
 20
0.0
 30
0.0
  9
$UCSORGRIGHT
 10
0.0
 20
0.0
 30
0.0
  9
$UCSORGFRONT
 10
0.0
 20
0.0
 30
0.0
  9
$UCSORGBACK
 10
0.0
 20
0.0
 30
0.0
  9
$PUCSBASE
  2

  9
$PUCSNAME
  2

  9
$PUCSORG
 10
0.0
 20
0.0
 30
0.0
  9
$PUCSXDIR
 10
1.0
 20
0.0
 30
0.0
  9
$PUCSYDIR
 10
0.0
 20
1.0
 30
0.0
  9
$PUCSORTHOREF
  2

  9
$PUCSORTHOVIEW
 70
     0
  9
$PUCSORGTOP
 10
0.0
 20
0.0
 30
0.0
  9
$PUCSORGBOTTOM
 10
0.0
 20
0.0
 30
0.0
  9
$PUCSORGLEFT
 10
0.0
 20
0.0
 30
0.0
  9
$PUCSORGRIGHT
 10
0.0
 20
0.0
 30
0.0
  9
$PUCSORGFRONT
 10
0.0
 20
0.0
 30
0.0
  9
$PUCSORGBACK
 10
0.0
 20
0.0
 30
0.0
  9
$USERI1
 70
     0
  9
$USERI2
 70
     0
  9
$USERI3
 70
     0
  9
$USERI4
 70
     0
  9
$USERI5
 70
     0
  9
$USERR1
 40
0.0
  9
$USERR2
 40
0.0
  9
$USERR3
 40
0.0
  9
$USERR4
 40
0.0
  9
$USERR5
 40
0.0
  9
$WORLDVIEW
 70
     1
  9
$SHADEDGE
 70
     3
  9
$SHADEDIF
 70
    70
  9
$TILEMODE
 70
     1
  9
$MAXACTVP
 70
    16
  9
$PINSBASE
 10
0.0
 20
0.0
 30
0.0
  9
$PLIMCHECK
 70
     0
  9
$PEXTMIN
 10
1.000000000000000E+20
 20
1.000000000000000E+20
 30
1.000000000000000E+20
  9
$PEXTMAX
 10
-1.000000000000000E+20
 20
-1.000000000000000E+20
 30
-1.000000000000000E+20
  9
$PLIMMIN
 10
0.0
 20
0.0
  9
$PLIMMAX
 10
420.0
 20
297.0
  9
$UNITMODE
 70
     0
  9
$VISRETAIN
 70
     0
  9
$PLINEGEN
 70
     0
  9
$PSLTSCALE
 70
     0
  9
$TREEDEPTH
 70
  3020
  9
$CMLSTYLE
  2
STANDARD
  9
$CMLJUST
 70
     0
  9
$CMLSCALE
 40
1.0
  9
$PROXYGRAPHICS
 70
     1
  9
$MEASUREMENT
 70
     0
  9
$CELWEIGHT
370
    -1
  9
$ENDCAPS
280
     0
  9
$JOINSTYLE
280
     0
  9
$LWDISPLAY
290
     0
  9
$INSUNITS
 70
     0
  9
$HYPERLINKBASE
  1

  9
$STYLESHEET
  1

  9
$XEDIT
290
     1
  9
$CEPSNTYPE
380
     0
  9
$PSTYLEMODE
290
     1
  9
$FINGERPRINTGUID
  2
{1C3DD2B2-4DA5-4C2F-8251-CC49D4064DCE}
  9
$VERSIONGUID
  2
{3FEF8D2E-CDF7-4416-9BF6-7FA11E2DD171}
  9
$EXTNAMES
290
     1
  9
$PSVPSCALE
 40
0.0
  9
$OLESTARTUP
290
     0
  0
ENDSEC
  0
SECTION
  2
CLASSES
  0
CLASS
  1
ACDBDICTIONARYWDFLT
  2
AcDbDictionaryWithDefault
  3
ObjectDBX Classes
 90
        0
280
     0
281
     0
  0
CLASS
  1
ACDBPLACEHOLDER
  2
AcDbPlaceHolder
  3
ObjectDBX Classes
 90
        0
280
     0
281
     0
  0
CLASS
  1
LAYOUT
  2
AcDbLayout
  3
ObjectDBX Classes
 90
        0
280
     0
281
     0
  0
CLASS
  1
DICTIONARYVAR
  2
AcDbDictionaryVar
  3
ObjectDBX Classes
 90
        0
280
     0
281
     0
  0
CLASS
  1
MATERIAL
  2
AcDbMaterial
  3
ObjectDBX Classes
 90
     1153
280
     0
281
     0
  0
CLASS
  1
VISUALSTYLE
  2
AcDbVisualStyle
  3
ObjectDBX Classes
 90
     4095
280
     0
281
     0
  0
CLASS
  1
TABLESTYLE
  2
AcDbTableStyle
  3
ObjectDBX Classes
 90
     4095
280
     0
281
     0
  0
CLASS
  1
SCALE
  2
AcDbScale
  3
ObjectDBX Classes
 90
     1153
280
     0
281
     0
  0
CLASS
  1
MLEADERSTYLE
  2
AcDbMLeaderStyle
  3
ACDB_MLEADERSTYLE_CLASS
 90
     4095
280
     0
281
     0
  0
CLASS
  1
ACDBSECTIONVIEWSTYLE
  2
AcDbSectionViewStyle
  3
ObjectDBX Classes
 90
     1025
280
     0
281
     0
  0
CLASS
  1
ACDBDETAILVIEWSTYLE
  2
AcDbDetailViewStyle
  3
ObjectDBX Classes
 90
     1025
280
     0
281
     0
  0
CLASS
  1
CELLSTYLEMAP
  2
AcDbCellStyleMap
  3
ObjectDBX Classes
 90
     1152
280
     0
281
     0
  0
ENDSEC
  0
SECTION
  2
TABLES
  0
TABLE
  2
VPORT
  5
9CC9
330
0
100
AcDbSymbolTable
 70
     1
  0
VPORT
  5
9F0F
330
9CC9
100
AcDbSymbolTableRecord
100
AcDbViewportTableRecord
  2
*ACTIVE
 70
     0
 10
0.0
 20
0.0
 11
1.0
 21
1.0
 12
418.9375419463472
 22
192.9301413863802
 13
0.0
 23
0.0
 14
10.0
 24
10.0
 15
10.0
 25
10.0
 16
0.0
 26
0.0
 36
1.0
 17
0.0
 27
0.0
 37
0.0
 40
368.7770843634535
 41
2.35006605019815
 42
50.0
 43
0.0
 44
0.0
 50
0.0
 51
0.0
 71
     0
 72
   100
 73
     1
 74
     0
 75
     0
 76
     0
 77
     0
 78
     0
281
     0
 65
     1
110
0.0
120
0.0
130
0.0
111
1.0
121
0.0
131
0.0
112
0.0
122
1.0
132
0.0
 79
     0
146
0.0
1001
ACAD_NAV_VCDISPLAY
1070
     3
  0
ENDTAB
  0
TABLE
  2
LTYPE
  5
9CC6
330
0
100
AcDbSymbolTable
 70
     4
  0
LTYPE
  5
9CD4
330
9CC6
100
AcDbSymbolTableRecord
100
AcDbLinetypeTableRecord
  2
BYBLOCK
 70
     0
  3

 72
    65
 73
     0
 40
0.0
  0
LTYPE
  5
9CD5
330
9CC6
100
AcDbSymbolTableRecord
100
AcDbLinetypeTableRecord
  2
BYLAYER
 70
     0
  3

 72
    65
 73
     0
 40
0.0
  0
LTYPE
  5
9CD6
330
9CC6
100
AcDbSymbolTableRecord
100
AcDbLinetypeTableRecord
  2
CONTINUOUS
 70
     0
  3
Solid line
 72
    65
 73
     0
 40
0.0
  0
LTYPE
  5
9CE4
330
9CC6
100
AcDbSymbolTableRecord
100
AcDbLinetypeTableRecord
  2
DASHED
 70
     0
  3
__ __ __ __ __ __ __ __ __ __ __ __ __ __ __ __
 72
    65
 73
     2
 40
0.75
 49
0.5
 74
     0
 49
-0.25
 74
     0
  0
LTYPE
  5
9CE5
330
9CC6
100
AcDbSymbolTableRecord
100
AcDbLinetypeTableRecord
  2
CENTER
 70
     0
  3
____ _ ____ _ ____ _ ____ _ ____ _ ____ _ ____ 
 72
    65
 73
     4
 40
2.0
 49
1.25
 74
     0
 49
-0.25
 74
     0
 49
0.25
 74
     0
 49
-0.25
 74
     0
  0
LTYPE
  5
9CE6
330
9CC6
100
AcDbSymbolTableRecord
100
AcDbLinetypeTableRecord
  2
PHANTOM
 70
     0
  3
______  __  __  ______  __  __  ______  __  __ 
 72
    65
 73
     6
 40
2.5
 49
1.25
 74
     0
 49
-0.25
 74
     0
 49
0.25
 74
     0
 49
-0.25
 74
     0
 49
0.25
 74
     0
 49
-0.25
 74
     0
  0
ENDTAB
  0
TABLE
  2
LAYER
  5
9CC3
330
0
100
AcDbSymbolTable
 70
     8
  0
LAYER
  5
9CD1
102
{ACAD_XDICTIONARY
360
9F68
102
}
330
9CC3
100
AcDbSymbolTableRecord
100
AcDbLayerTableRecord
  2
0
 70
     0
 62
     7
  6
CONTINUOUS
370
    -3
390
9F16
  0
LAYER
  5
9CE7
102
{ACAD_XDICTIONARY
360
9F6A
102
}
330
9CC3
100
AcDbSymbolTableRecord
100
AcDbLayerTableRecord
  2
4
 70
     0
 62
     1
  6
CENTER
370
    -3
390
9F16
  0
LAYER
  5
9CE8
102
{ACAD_XDICTIONARY
360
9F6C
102
}
330
9CC3
100
AcDbSymbolTableRecord
100
AcDbLayerTableRecord
  2
5
 70
     0
 62
     6
  6
PHANTOM
370
    -3
390
9F16
  0
LAYER
  5
9CE9
102
{ACAD_XDICTIONARY
360
9F6E
102
}
330
9CC3
100
AcDbSymbolTableRecord
100
AcDbLayerTableRecord
  2
1
 70
     0
 62
     7
  6
CONTINUOUS
370
    -3
390
9F16
  0
LAYER
  5
9CEA
102
{ACAD_XDICTIONARY
360
9F70
102
}
330
9CC3
100
AcDbSymbolTableRecord
100
AcDbLayerTableRecord
  2
2
 70
     0
 62
     4
  6
CONTINUOUS
370
    -3
390
9F16
  0
LAYER
  5
9CEB
102
{ACAD_XDICTIONARY
360
9F72
102
}
330
9CC3
100
AcDbSymbolTableRecord
100
AcDbLayerTableRecord
  2
3
 70
     0
 62
     2
  6
DASHED
370
    -3
390
9F16
  0
LAYER
  5
9CEC
102
{ACAD_XDICTIONARY
360
9F74
102
}
330
9CC3
100
AcDbSymbolTableRecord
100
AcDbLayerTableRecord
  2
6
 70
     0
 62
     5
  6
CONTINUOUS
370
    -3
390
9F16
  0
LAYER
  5
9CED
102
{ACAD_XDICTIONARY
360
9F76
102
}
330
9CC3
100
AcDbSymbolTableRecord
100
AcDbLayerTableRecord
  2
7
 70
     0
 62
     3
  6
CONTINUOUS
370
    -3
390
9F16
  0
ENDTAB
  0
TABLE
  2
STYLE
  5
9CC4
330
0
100
AcDbSymbolTable
 70
     1
  0
STYLE
  5
9CD2
330
9CC4
100
AcDbSymbolTableRecord
100
AcDbTextStyleTableRecord
  2
STANDARD
 70
     0
 40
0.0
 41
1.0
 50
0.0
 71
     0
 42
5.0
  3
txt
  4

  0
ENDTAB
  0
TABLE
  2
VIEW
  5
9CC7
330
0
100
AcDbSymbolTable
 70
     0
  0
ENDTAB
  0
TABLE
  2
UCS
  5
9CC8
330
0
100
AcDbSymbolTable
 70
     0
  0
ENDTAB
  0
TABLE
  2
APPID
  5
9CCA
330
0
100
AcDbSymbolTable
 70
     3
  0
APPID
  5
9CD3
330
9CCA
100
AcDbSymbolTableRecord
100
AcDbRegAppTableRecord
  2
ACAD
 70
     0
  0
APPID
  5
9F82
330
9CCA
100
AcDbSymbolTableRecord
100
AcDbRegAppTableRecord
  2
ACAD_NAV_VCDISPLAY
 70
     0
  0
APPID
  5
9FBB
330
9CCA
100
AcDbSymbolTableRecord
100
AcDbRegAppTableRecord
  2
ACAD_MLEADERVER
 70
     0
  0
ENDTAB
  0
TABLE
  2
DIMSTYLE
  5
9CCB
330
0
100
AcDbSymbolTable
 70
     1
100
AcDbDimStyleTable
 71
     0
  0
DIMSTYLE
105
9CEF
330
9CCB
100
AcDbSymbolTableRecord
100
AcDbDimStyleTableRecord
  2
STANDARD
 70
     0
 41
2.5
 42
1.0
 43
10.0
 44
1.0
 73
     0
 74
     0
 77
     3
 78
     8
140
3.2
141
0.0
147
1.0
172
     1
173
     1
284
     8
285
     8
286
     8
340
9CD2
  0
ENDTAB
  0
TABLE
  2
BLOCK_RECORD
  5
9CC2
330
0
100
AcDbSymbolTable
 70
     0
  0
BLOCK_RECORD
  5
9CDF
102
{ACAD_XDICTIONARY
360
9EF5
102
}
330
9CC2
100
AcDbSymbolTableRecord
100
AcDbBlockTableRecord
  2
*MODEL_SPACE
340
9F64
  0
BLOCK_RECORD
  5
9CDB
102
{ACAD_XDICTIONARY
360
9EF3
102
}
330
9CC2
100
AcDbSymbolTableRecord
100
AcDbBlockTableRecord
  2
*PAPER_SPACE
340
9F65
  0
ENDTAB
  0
ENDSEC
  0
SECTION
  2
BLOCKS
  0
BLOCK
  5
9CE0
330
9CDF
100
AcDbEntity
  8
0
100
AcDbBlockBegin
  2
*MODEL_SPACE
 70
     0
 10
0.0
 20
0.0
 30
0.0
  3
*MODEL_SPACE
  1

  0
ENDBLK
  5
9CE1
330
9CDF
100
AcDbEntity
  8
0
100
AcDbBlockEnd
  0
BLOCK
  5
9CDC
330
9CDB
100
AcDbEntity
 67
     1
  8
0
100
AcDbBlockBegin
  2
*PAPER_SPACE
 70
     0
 10
0.0
 20
0.0
 30
0.0
  3
*PAPER_SPACE
  1

  0
ENDBLK
  5
9CDD
330
9CDB
100
AcDbEntity
 67
     1
  8
0
100
AcDbBlockEnd
  0
ENDSEC
  0
SECTION
  2
ENTITIES
  0
TEXT
  5
9CF7
330
9CDF
100
AcDbEntity
  8
7
  6
Continuous
100
AcDbText
 10
10.0
 20
18.0
 30
0.0
 40
3.0
  1
TYPE No.TCA-420E-N100
100
AcDbText
  0
TEXT
  5
9CF8
330
9CDF
100
AcDbEntity
  8
7
  6
Continuous
100
AcDbText
 10
10.0
 20
26.0
 30
0.0
 40
3.0
  1
CODE No.9748
100
AcDbText
  0
TEXT
  5
9CF9
330
9CDF
100
AcDbEntity
  8
1
  6
Continuous
100
AcDbText
 10
10.0
 20
10.0
 30
0.0
 40
1.399999999999999
  1
LAYER
100
AcDbText
  0
TEXT
  5
9CFA
330
9CDF
100
AcDbEntity
  8
1
  6
Continuous
100
AcDbText
 10
17.97951099999998
 20
10.04873699999998
 30
0.0
 40
1.399999999999999
  1
1
100
AcDbText
  0
TEXT
  5
9CFB
330
9CDF
100
AcDbEntity
  8
7
  6
Continuous
100
AcDbText
 10
29.97951099999999
 20
10.04873699999998
 30
0.0
 40
1.399999999999999
  1
7
100
AcDbText
  0
TEXT
  5
9CFC
330
9CDF
100
AcDbEntity
  8
4
  6
CENTER
100
AcDbText
 10
23.97951099999999
 20
10.04873699999998
 30
0.0
 40
1.399999999999999
  1
4
100
AcDbText
  0
TEXT
  5
9CFD
330
9CDF
100
AcDbEntity
  8
3
  6
DASHED
100
AcDbText
 10
21.979511
 20
10.04873699999998
 30
0.0
 40
1.399999999999999
  1
3
100
AcDbText
  0
TEXT
  5
9CFE
330
9CDF
100
AcDbEntity
  8
2
  6
Continuous
100
AcDbText
 10
19.97951099999998
 20
10.04873699999998
 30
0.0
 40
1.399999999999999
  1
2
100
AcDbText
  0
TEXT
  5
9CFF
330
9CDF
100
AcDbEntity
  8
6
  6
Continuous
100
AcDbText
 10
27.979511
 20
10.04873699999998
 30
0.0
 40
1.399999999999999
  1
6
100
AcDbText
  0
TEXT
  5
9D00
330
9CDF
100
AcDbEntity
  8
5
  6
PHANTOM
100
AcDbText
 10
25.97951099999999
 20
10.04873699999998
 30
0.0
 40
1.399999999999999
  1
5
100
AcDbText
  0
LINE
  5
9D01
330
9CDF
100
AcDbEntity
  8
4
  6
CENTER
100
AcDbLine
 10
57.22022299999999
 20
273.871609
 30
0.0
 11
57.22022299999999
 21
141.871609
 31
0.0
  0
LINE
  5
9D02
330
9CDF
100
AcDbEntity
  8
4
  6
CENTER
100
AcDbLine
 10
26.92023300000001
 20
196.871609
 30
0.0
 11
83.72021499999998
 21
196.871609
 31
0.0
  0
LINE
  5
9D03
330
9CDF
100
AcDbEntity
  8
1
  6
Continuous
100
AcDbLine
 10
73.220223
 20
250.97366
 30
0.0
 11
73.220223
 21
185.871609
 31
0.0
  0
LINE
  5
9D04
330
9CDF
100
AcDbEntity
  8
1
  6
Continuous
100
AcDbLine
 10
41.220223
 20
250.97366
 30
0.0
 11
41.220223
 21
185.871609
 31
0.0
  0
LINE
  5
9D05
330
9CDF
100
AcDbEntity
  8
1
  6
Continuous
100
AcDbLine
 10
38.920233
 20
185.871609
 30
0.0
 11
41.220223
 21
185.871609
 31
0.0
  0
LINE
  5
9D06
330
9CDF
100
AcDbEntity
  8
1
  6
Continuous
100
AcDbLine
 10
75.520218
 20
185.871609
 30
0.0
 11
73.220223
 21
185.871609
 31
0.0
  0
LINE
  5
9D07
330
9CDF
100
AcDbEntity
  8
1
  6
Continuous
100
AcDbLine
 10
32.22022299999999
 20
255.9716009999999
 30
0.0
 11
32.22022299999999
 21
229.5590939999999
 31
0.0
  0
LINE
  5
9D08
330
9CDF
100
AcDbEntity
  8
1
  6
Continuous
100
AcDbLine
 10
82.220223
 20
255.9716009999999
 30
0.0
 11
82.220223
 21
229.5590939999999
 31
0.0
  0
LINE
  5
9D09
330
9CDF
100
AcDbEntity
  8
1
  6
Continuous
100
AcDbLine
 10
41.220223
 20
200.871609
 30
0.0
 11
42.22022299999999
 21
200.871609
 31
0.0
  0
LINE
  5
9D0A
330
9CDF
100
AcDbEntity
  8
1
  6
Continuous
100
AcDbLine
 10
41.220223
 20
192.871609
 30
0.0
 11
42.22022299999999
 21
192.871609
 31
0.0
  0
LINE
  5
9D0B
330
9CDF
100
AcDbEntity
  8
4
  6
CENTER
100
AcDbLine
 10
212.220223
 20
274.335335
 30
0.0
 11
212.220223
 21
214.6049389999999
 31
0.0
  0
LINE
  5
9D0C
330
9CDF
100
AcDbEntity
  8
1
  6
Continuous
100
AcDbLine
 10
233.1957099999999
 20
252.071608
 30
0.0
 11
237.220223
 21
252.071608
 31
0.0
  0
LINE
  5
9D0D
330
9CDF
100
AcDbEntity
  8
4
  6
CENTER
100
AcDbLine
 10
125.2202229999999
 20
196.871609
 30
0.0
 11
235.220223
 21
196.871609
 31
0.0
  0
LINE
  5
9D0E
330
9CDF
100
AcDbEntity
  8
4
  6
CENTER
100
AcDbLine
 10
180.2202229999998
 20
256.3725949999999
 30
0.0
 11
180.2202229999998
 21
141.871609
 31
0.0
  0
LINE
  5
9D0F
330
9CDF
100
AcDbEntity
  8
1
  6
Continuous
100
AcDbLine
 10
191.220223
 20
251.771612
 30
0.0
 11
191.220223
 21
199.371609
 31
0.0
  0
LINE
  5
9D10
330
9CDF
100
AcDbEntity
  8
1
  6
Continuous
100
AcDbLine
 10
189.7663579999999
 20
191.406155
 30
0.0
 11
220.1782389999999
 21
244.524497
 31
0.0
  0
LINE
  5
9D11
330
9CDF
100
AcDbEntity
  8
1
  6
Continuous
100
AcDbLine
 10
174.912256
 20
250.8315
 30
0.0
 11
169.2822429999999
 21
198.03806
 31
0.0
  0
LINE
  5
9D12
330
9CDF
100
AcDbEntity
  8
4
  6
CENTER
100
AcDbLine
 10
125.2202229999999
 20
341.8716089999998
 30
0.0
 11
264.686883
 21
341.8716089999998
 31
0.0
  0
LINE
  5
9D13
330
9CDF
100
AcDbEntity
  8
4
  6
CENTER
100
AcDbLine
 10
212.220223
 20
375.871609
 30
0.0
 11
212.220223
 21
307.8716089999998
 31
0.0
  0
LINE
  5
9D14
330
9CDF
100
AcDbEntity
  8
1
  6
Continuous
100
AcDbLine
 10
170.931713
 20
253.371624
 30
0.0
 11
189.823926
 21
256.70283
 31
0.0
  0
LINE
  5
9D15
330
9CDF
100
AcDbEntity
  8
1
  6
Continuous
100
AcDbLine
 10
170.931713
 20
253.371624
 30
0.0
 11
171.331104
 21
251.1065659999999
 31
0.0
  0
LINE
  5
9D16
330
9CDF
100
AcDbEntity
  8
1
  6
Continuous
100
AcDbLine
 10
171.331104
 20
251.1065659999999
 30
0.0
 11
173.701828
 21
251.524589
 31
0.0
  0
LINE
  5
9D17
330
9CDF
100
AcDbEntity
  8
1
  6
Continuous
100
AcDbLine
 10
33.920233
 20
201.9736219999999
 30
0.0
 11
33.920233
 21
191.7695959999998
 31
0.0
  0
LINE
  5
9D18
330
9CDF
100
AcDbEntity
  8
1
  6
Continuous
100
AcDbLine
 10
35.39518300000001
 20
193.621609
 30
0.0
 11
38.44529299999999
 21
193.621609
 31
0.0
  0
LINE
  5
9D19
330
9CDF
100
AcDbEntity
  8
1
  6
Continuous
100
AcDbLine
 10
35.36872299999997
 20
200.121609
 30
0.0
 11
38.47175299999999
 21
200.121609
 31
0.0
  0
LINE
  5
9D1A
330
9CDF
100
AcDbEntity
  8
1
  6
Continuous
100
AcDbLine
 10
35.318233
 20
190.3716089999998
 30
0.0
 11
38.52224299999999
 21
190.3716089999998
 31
0.0
  0
LINE
  5
9D1B
330
9CDF
100
AcDbEntity
  8
1
  6
Continuous
100
AcDbLine
 10
35.318233
 20
203.3716089999999
 30
0.0
 11
38.52224299999999
 21
203.3716089999999
 31
0.0
  0
LINE
  5
9D1C
330
9CDF
100
AcDbEntity
  8
1
  6
Continuous
100
AcDbLine
 10
35.318233
 20
190.371613
 30
0.0
 11
33.920233
 21
191.7696
 31
0.0
  0
LINE
  5
9D1D
330
9CDF
100
AcDbEntity
  8
1
  6
Continuous
100
AcDbLine
 10
33.920253
 20
201.973625
 30
0.0
 11
35.318233
 21
203.371613
 31
0.0
  0
LINE
  5
9D1E
330
9CDF
100
AcDbEntity
  8
1
  6
Continuous
100
AcDbLine
 10
78.72021499999998
 20
201.121609
 30
0.0
 11
78.72021499999998
 21
192.621609
 31
0.0
  0
LINE
  5
9D1F
330
9CDF
100
AcDbEntity
  8
1
  6
Continuous
100
AcDbLine
 10
75.520218
 20
190.621609
 30
0.0
 11
76.72021499999998
 21
190.621609
 31
0.0
  0
LINE
  5
9D20
330
9CDF
100
AcDbEntity
  8
1
  6
Continuous
100
AcDbLine
 10
75.520218
 20
203.121609
 30
0.0
 11
76.72021499999998
 21
203.121609
 31
0.0
  0
LINE
  5
9D21
330
9CDF
100
AcDbEntity
  8
1
  6
Continuous
100
AcDbLine
 10
75.520218
 20
250.9432789999999
 30
0.0
 11
75.520218
 21
185.871609
 31
0.0
  0
LINE
  5
9D22
330
9CDF
100
AcDbEntity
  8
1
  6
Continuous
100
AcDbLine
 10
38.920233
 20
250.9432789999999
 30
0.0
 11
38.920233
 21
185.871609
 31
0.0
  0
LINE
  5
9D23
330
9CDF
100
AcDbEntity
  8
1
  6
Continuous
100
AcDbLine
 10
169.720223
 20
370.8716089999999
 30
0.0
 11
254.7202229999999
 21
370.8716089999999
 31
0.0
  0
LINE
  5
9D24
330
9CDF
100
AcDbEntity
  8
4
  6
CENTER
100
AcDbLine
 10
171.220223
 20
367.8716089999999
 30
0.0
 11
171.220223
 21
355.8716089999998
 31
0.0
  0
LINE
  5
9D25
330
9CDF
100
AcDbEntity
  8
4
  6
CENTER
100
AcDbLine
 10
165.220223
 20
361.8716089999999
 30
0.0
 11
177.2202229999997
 21
361.8716089999999
 31
0.0
  0
LINE
  5
9D26
330
9CDF
100
AcDbEntity
  8
1
  6
Continuous
100
AcDbLine
 10
169.720223
 20
312.8716089999998
 30
0.0
 11
254.7202229999999
 21
312.8716089999998
 31
0.0
  0
LINE
  5
9D27
330
9CDF
100
AcDbEntity
  8
4
  6
CENTER
100
AcDbLine
 10
171.220223
 20
315.8716089999998
 30
0.0
 11
171.220223
 21
327.8716089999998
 31
0.0
  0
LINE
  5
9D28
330
9CDF
100
AcDbEntity
  8
4
  6
CENTER
100
AcDbLine
 10
165.220223
 20
321.871609
 30
0.0
 11
177.2202229999997
 21
321.871609
 31
0.0
  0
LINE
  5
9D29
330
9CDF
100
AcDbEntity
  8
4
  6
CENTER
100
AcDbLine
 10
253.220223
 20
367.8716089999999
 30
0.0
 11
253.220223
 21
355.8716089999998
 31
0.0
  0
LINE
  5
9D2A
330
9CDF
100
AcDbEntity
  8
4
  6
CENTER
100
AcDbLine
 10
259.2202229999999
 20
361.8716089999999
 30
0.0
 11
247.220223
 21
361.8716089999999
 31
0.0
  0
LINE
  5
9D2B
330
9CDF
100
AcDbEntity
  8
4
  6
CENTER
100
AcDbLine
 10
253.220223
 20
315.8716089999998
 30
0.0
 11
253.220223
 21
327.8716089999998
 31
0.0
  0
LINE
  5
9D2C
330
9CDF
100
AcDbEntity
  8
4
  6
CENTER
100
AcDbLine
 10
259.2202229999999
 20
321.871609
 30
0.0
 11
247.220223
 21
321.871609
 31
0.0
  0
LINE
  5
9D2D
330
9CDF
100
AcDbEntity
  8
1
  6
Continuous
100
AcDbLine
 10
191.220223
 20
260.9716049999998
 30
0.0
 11
232.220223
 21
260.9716049999998
 31
0.0
  0
LINE
  5
9D2E
330
9CDF
100
AcDbEntity
  8
1
  6
Continuous
100
AcDbLine
 10
262.220208
 20
266.5715979999998
 30
0.0
 11
262.220208
 21
268.8716089999999
 31
0.0
  0
LINE
  5
9D2F
330
9CDF
100
AcDbEntity
  8
1
  6
Continuous
100
AcDbLine
 10
162.220223
 20
268.8716089999999
 30
0.0
 11
262.220208
 21
268.8716089999999
 31
0.0
  0
LINE
  5
9D30
330
9CDF
100
AcDbEntity
  8
1
  6
Continuous
100
AcDbLine
 10
162.220208
 20
266.571614
 30
0.0
 11
162.220208
 21
268.871617
 31
0.0
  0
LINE
  5
9D31
330
9CDF
100
AcDbEntity
  8
1
  6
Continuous
100
AcDbLine
 10
162.220223
 20
266.5716059999999
 30
0.0
 11
262.220208
 21
266.5716059999999
 31
0.0
  0
LINE
  5
9D32
330
9CDF
100
AcDbEntity
  8
1
  6
Continuous
100
AcDbLine
 10
189.220221
 20
261.9716069999999
 30
0.0
 11
235.220223
 21
261.9716069999999
 31
0.0
  0
LINE
  5
9D33
330
9CDF
100
AcDbEntity
  8
1
  6
Continuous
100
AcDbLine
 10
184.720225
 20
266.5716269999999
 30
0.0
 11
186.6626779999998
 21
263.4035169999999
 31
0.0
  0
LINE
  5
9D34
330
9CDF
100
AcDbEntity
  8
4
  6
CENTER
100
AcDbLine
 10
171.220223
 20
273.871609
 30
0.0
 11
171.220223
 21
261.571606
 31
0.0
  0
LINE
  5
9D35
330
9CDF
100
AcDbEntity
  8
4
  6
CENTER
100
AcDbLine
 10
253.220223
 20
273.871609
 30
0.0
 11
253.220223
 21
261.571606
 31
0.0
  0
LINE
  5
9D36
330
9CDF
100
AcDbEntity
  8
1
  6
Continuous
100
AcDbLine
 10
37.22022299999999
 20
260.9716009999999
 30
0.0
 11
77.220223
 21
260.9716009999999
 31
0.0
  0
LINE
  5
9D37
330
9CDF
100
AcDbEntity
  8
1
  6
Continuous
100
AcDbLine
 10
28.220223
 20
268.8716089999999
 30
0.0
 11
28.220223
 21
266.57161
 31
0.0
  0
LINE
  5
9D38
330
9CDF
100
AcDbEntity
  8
1
  6
Continuous
100
AcDbLine
 10
86.22022300000002
 20
268.8716089999999
 30
0.0
 11
86.22022300000002
 21
266.5716059999999
 31
0.0
  0
LINE
  5
9D39
330
9CDF
100
AcDbEntity
  8
4
  6
CENTER
100
AcDbLine
 10
37.22022299999999
 20
273.871609
 30
0.0
 11
37.22022299999999
 21
261.571606
 31
0.0
  0
LINE
  5
9D3A
330
9CDF
100
AcDbEntity
  8
4
  6
CENTER
100
AcDbLine
 10
77.220223
 20
273.871609
 30
0.0
 11
77.220223
 21
261.571606
 31
0.0
  0
LINE
  5
9D3B
330
9CDF
100
AcDbEntity
  8
1
  6
Continuous
100
AcDbLine
 10
84.720185
 20
266.5716289999999
 30
0.0
 11
82.77773299999998
 21
263.403525
 31
0.0
  0
LINE
  5
9D3C
330
9CDF
100
AcDbEntity
  8
1
  6
Continuous
100
AcDbLine
 10
28.220223
 20
268.8716089999999
 30
0.0
 11
86.22022300000002
 21
268.8716089999999
 31
0.0
  0
LINE
  5
9D3D
330
9CDF
100
AcDbEntity
  8
1
  6
Continuous
100
AcDbLine
 10
28.220223
 20
266.5716059999999
 30
0.0
 11
86.22022300000002
 21
266.5716059999999
 31
0.0
  0
LINE
  5
9D3E
330
9CDF
100
AcDbEntity
  8
1
  6
Continuous
100
AcDbLine
 10
34.220223
 20
261.9716069999999
 30
0.0
 11
80.22022300000001
 21
261.9716069999999
 31
0.0
  0
LINE
  5
9D3F
330
9CDF
100
AcDbEntity
  8
1
  6
Continuous
100
AcDbLine
 10
29.720173
 20
266.571617
 30
0.0
 11
31.66263300000001
 21
263.4035069999999
 31
0.0
  0
LINE
  5
9D40
330
9CDF
100
AcDbEntity
  8
1
  6
Continuous
100
AcDbLine
 10
72.220223
 20
200.871609
 30
0.0
 11
73.22023100000001
 21
200.871609
 31
0.0
  0
LINE
  5
9D41
330
9CDF
100
AcDbEntity
  8
1
  6
Continuous
100
AcDbLine
 10
72.220223
 20
192.871609
 30
0.0
 11
73.22023100000001
 21
192.871609
 31
0.0
  0
ARC
  5
9D42
330
9CDF
100
AcDbEntity
  8
1
  6
Continuous
100
AcDbCircle
 10
57.22022299999999
 20
379.571619
 30
0.0
 40
126.2
100
AcDbArc
 50
263.34848
 51
276.6515
  0
ARC
  5
9D43
330
9CDF
100
AcDbEntity
  8
1
  6
Continuous
100
AcDbCircle
 10
180.2202229999998
 20
196.871609
 30
0.0
 40
11.0
100
AcDbArc
 50
173.91287
 51
330.2075199999998
  0
ARC
  5
9D44
330
9CDF
100
AcDbEntity
  8
1
  6
Continuous
100
AcDbCircle
 10
233.1957099999999
 20
237.071608
 30
0.0
 40
15.0
100
AcDbArc
 50
89.99998199999996
 51
150.2075699999998
  0
ARC
  5
9D45
330
9CDF
100
AcDbEntity
  8
1
  6
Continuous
100
AcDbCircle
 10
172.426352
 20
251.096602
 30
0.0
 40
2.5
100
AcDbArc
 50
353.9128499999998
 51
100.0000199999999
  0
ARC
  5
9D46
330
9CDF
100
AcDbEntity
  8
1
  6
Continuous
100
AcDbCircle
 10
57.22022299999999
 20
384.573819
 30
0.0
 40
128.4999999999998
100
AcDbArc
 50
262.8473099999999
 51
277.1526699999999
  0
ARC
  5
9D47
330
9CDF
100
AcDbEntity
  8
1
  6
Continuous
100
AcDbCircle
 10
173.8754769999999
 20
250.539781
 30
0.0
 40
1.0
100
AcDbArc
 50
353.9128499999998
 51
100.00003
  0
ARC
  5
9D48
330
9CDF
100
AcDbEntity
  8
1
  6
Continuous
100
AcDbCircle
 10
57.22022299999999
 20
379.601999
 30
0.0
 40
128.4999999999998
100
AcDbArc
 50
263.34847
 51
276.6515
  0
ARC
  5
9D49
330
9CDF
100
AcDbEntity
  8
1
  6
Continuous
100
AcDbCircle
 10
72.220223
 20
250.97366
 30
0.0
 40
1.0
100
AcDbArc
 50
0.0
 51
96.65148000000002
  0
ARC
  5
9D4A
330
9CDF
100
AcDbEntity
  8
1
  6
Continuous
100
AcDbCircle
 10
42.22022299999999
 20
250.97366
 30
0.0
 40
1.0
100
AcDbArc
 50
83.348539
 51
179.9999599999999
  0
CIRCLE
  5
9D4B
330
9CDF
100
AcDbEntity
  8
1
  6
Continuous
100
AcDbCircle
 10
180.2202229999998
 20
196.871609
 30
0.0
 40
1.5
  0
CIRCLE
  5
9D4C
330
9CDF
100
AcDbEntity
  8
1
  6
Continuous
100
AcDbCircle
 10
180.2202229999998
 20
196.871609
 30
0.0
 40
6.25
  0
ARC
  5
9D4D
330
9CDF
100
AcDbEntity
  8
1
  6
Continuous
100
AcDbCircle
 10
46.920233
 20
196.871609
 30
0.0
 40
12.0
100
AcDbArc
 50
164.2861599999999
 51
195.71383
  0
ARC
  5
9D4E
330
9CDF
100
AcDbEntity
  8
1
  6
Continuous
100
AcDbCircle
 10
26.92023300000001
 20
196.871609
 30
0.0
 40
12.0
100
AcDbArc
 50
344.2861399999999
 51
15.71386099999998
  0
ARC
  5
9D4F
330
9CDF
100
AcDbEntity
  8
1
  6
Continuous
100
AcDbCircle
 10
38.17023300000001
 20
201.813237
 30
0.0
 40
3.25
100
AcDbArc
 50
151.34725
 51
211.3657499999999
  0
ARC
  5
9D50
330
9CDF
100
AcDbEntity
  8
1
  6
Continuous
100
AcDbCircle
 10
35.67023300000001
 20
201.813237
 30
0.0
 40
3.25
100
AcDbArc
 50
328.6342
 51
28.65276699999999
  0
ARC
  5
9D51
330
9CDF
100
AcDbEntity
  8
1
  6
Continuous
100
AcDbCircle
 10
35.67023300000001
 20
191.929981
 30
0.0
 40
3.25
100
AcDbArc
 50
331.3472299999999
 51
31.365793
  0
ARC
  5
9D52
330
9CDF
100
AcDbEntity
  8
1
  6
Continuous
100
AcDbCircle
 10
38.17023300000001
 20
191.929981
 30
0.0
 40
3.25
100
AcDbArc
 50
148.63423
 51
208.6527299999999
  0
ARC
  5
9D53
330
9CDF
100
AcDbEntity
  8
1
  6
Continuous
100
AcDbCircle
 10
76.72021499999998
 20
201.121609
 30
0.0
 40
2.0
100
AcDbArc
 50
0.0
 51
89.99998199999996
  0
ARC
  5
9D54
330
9CDF
100
AcDbEntity
  8
1
  6
Continuous
100
AcDbCircle
 10
76.72021499999998
 20
192.621609
 30
0.0
 40
2.0
100
AcDbArc
 50
270.00002
 51
0.0
  0
ARC
  5
9D55
330
9CDF
100
AcDbEntity
  8
1
  6
Continuous
100
AcDbCircle
 10
92.220223
 20
229.5590939999999
 30
0.0
 40
60.0
100
AcDbArc
 50
179.9999799999999
 51
205.8780899999999
  0
ARC
  5
9D56
330
9CDF
100
AcDbEntity
  8
1
  6
Continuous
100
AcDbCircle
 10
22.219913
 20
229.5590939999999
 30
0.0
 40
60.0
100
AcDbArc
 50
333.85625
 51
0.0
  0
ARC
  5
9D57
330
9CDF
100
AcDbEntity
  8
1
  6
Continuous
100
AcDbCircle
 10
72.22021499999998
 20
250.9432789999999
 30
0.0
 40
3.299999999999998
100
AcDbArc
 50
0.0
 51
96.65153400000001
  0
ARC
  5
9D58
330
9CDF
100
AcDbEntity
  8
1
  6
Continuous
100
AcDbCircle
 10
42.220243
 20
250.9432789999999
 30
0.0
 40
3.299999999999998
100
AcDbArc
 50
83.348484
 51
179.9999599999999
  0
ARC
  5
9D59
330
9CDF
100
AcDbEntity
  8
1
  6
Continuous
100
AcDbCircle
 10
169.720223
 20
363.371609
 30
0.0
 40
7.5
100
AcDbArc
 50
89.99998199999996
 51
193.44029
  0
CIRCLE
  5
9D5A
330
9CDF
100
AcDbEntity
  8
1
  6
Continuous
100
AcDbCircle
 10
171.220223
 20
361.8716089999999
 30
0.0
 40
4.4
  0
CIRCLE
  5
9D5B
330
9CDF
100
AcDbEntity
  8
1
  6
Continuous
100
AcDbCircle
 10
171.220223
 20
321.871609
 30
0.0
 40
4.4
  0
ARC
  5
9D5C
330
9CDF
100
AcDbEntity
  8
1
  6
Continuous
100
AcDbCircle
 10
169.720223
 20
320.3716089999998
 30
0.0
 40
7.5
100
AcDbArc
 50
166.5596799999998
 51
269.99995
  0
ARC
  5
9D5D
330
9CDF
100
AcDbEntity
  8
1
  6
Continuous
100
AcDbCircle
 10
79.753563
 20
341.8716089999998
 30
0.0
 40
85.0
100
AcDbArc
 50
346.5596799999998
 51
13.44032099999999
  0
ARC
  5
9D5E
330
9CDF
100
AcDbEntity
  8
1
  6
Continuous
100
AcDbCircle
 10
344.686883
 20
341.8716089999998
 30
0.0
 40
85.0
100
AcDbArc
 50
166.55964
 51
193.44029
  0
ARC
  5
9D5F
330
9CDF
100
AcDbEntity
  8
1
  6
Continuous
100
AcDbCircle
 10
254.7202229999999
 20
363.371609
 30
0.0
 40
7.5
100
AcDbArc
 50
346.5596799999998
 51
89.99998199999996
  0
CIRCLE
  5
9D60
330
9CDF
100
AcDbEntity
  8
1
  6
Continuous
100
AcDbCircle
 10
253.220223
 20
361.8716089999999
 30
0.0
 40
4.4
  0
CIRCLE
  5
9D61
330
9CDF
100
AcDbEntity
  8
1
  6
Continuous
100
AcDbCircle
 10
253.220223
 20
321.871609
 30
0.0
 40
4.4
  0
ARC
  5
9D62
330
9CDF
100
AcDbEntity
  8
1
  6
Continuous
100
AcDbCircle
 10
254.7202229999999
 20
320.3716089999998
 30
0.0
 40
7.5
100
AcDbArc
 50
270.00002
 51
13.440282
  0
CIRCLE
  5
9D63
330
9CDF
100
AcDbEntity
  8
1
  6
Continuous
100
AcDbCircle
 10
212.220223
 20
341.8716089999998
 30
0.0
 40
9.5
  0
CIRCLE
  5
9D64
330
9CDF
100
AcDbEntity
  8
1
  6
Continuous
100
AcDbCircle
 10
212.220223
 20
341.8716089999998
 30
0.0
 40
12.5
  0
CIRCLE
  5
9D65
330
9CDF
100
AcDbEntity
  8
1
  6
Continuous
100
AcDbCircle
 10
212.220223
 20
341.8716089999998
 30
0.0
 40
24.0
  0
CIRCLE
  5
9D66
330
9CDF
100
AcDbEntity
  8
1
  6
Continuous
100
AcDbCircle
 10
212.220223
 20
341.8716089999998
 30
0.0
 40
22.0
  0
ARC
  5
9D67
330
9CDF
100
AcDbEntity
  8
1
  6
Continuous
100
AcDbCircle
 10
230.020218
 20
262.4496119999998
 30
0.0
 40
2.778
100
AcDbArc
 50
327.85663
 51
350.09193
  0
ARC
  5
9D68
330
9CDF
100
AcDbEntity
  8
1
  6
Continuous
100
AcDbCircle
 10
235.220223
 20
264.971607
 30
0.0
 40
3.0
100
AcDbArc
 50
270.00002
 51
328.48644
  0
ARC
  5
9D69
330
9CDF
100
AcDbEntity
  8
1
  6
Continuous
100
AcDbCircle
 10
189.220223
 20
264.971607
 30
0.0
 40
3.0
100
AcDbArc
 50
211.5135899999999
 51
270.00002
  0
ARC
  5
9D6A
330
9CDF
100
AcDbEntity
  8
1
  6
Continuous
100
AcDbCircle
 10
212.220208
 20
262.4496119999998
 30
0.0
 40
2.778
100
AcDbArc
 50
327.8565799999999
 51
350.09193
  0
ARC
  5
9D6B
330
9CDF
100
AcDbEntity
  8
1
  6
Continuous
100
AcDbCircle
 10
217.708123
 20
262.4496119999998
 30
0.0
 40
2.778
100
AcDbArc
 50
189.90804
 51
212.1434
  0
ARC
  5
9D6C
330
9CDF
100
AcDbEntity
  8
1
  6
Continuous
100
AcDbCircle
 10
226.5973359999999
 20
262.4496119999998
 30
0.0
 40
2.778
100
AcDbArc
 50
327.85663
 51
350.09193
  0
ARC
  5
9D6D
330
9CDF
100
AcDbEntity
  8
1
  6
Continuous
100
AcDbCircle
 10
229.1325769999999
 20
262.4496119999998
 30
0.0
 40
2.778
100
AcDbArc
 50
327.85663
 51
350.09193
  0
ARC
  5
9D6E
330
9CDF
100
AcDbEntity
  8
1
  6
Continuous
100
AcDbCircle
 10
194.420197
 20
262.4496119999998
 30
0.0
 40
2.778
100
AcDbArc
 50
189.9080999999999
 51
212.1433699999999
  0
ARC
  5
9D6F
330
9CDF
100
AcDbEntity
  8
1
  6
Continuous
100
AcDbCircle
 10
212.220208
 20
262.4496119999998
 30
0.0
 40
2.778
100
AcDbArc
 50
189.9080999999999
 51
212.1434
  0
ARC
  5
9D70
330
9CDF
100
AcDbEntity
  8
1
  6
Continuous
100
AcDbCircle
 10
206.732293
 20
262.4496119999998
 30
0.0
 40
2.778
100
AcDbArc
 50
189.9080999999999
 51
212.1434
  0
ARC
  5
9D71
330
9CDF
100
AcDbEntity
  8
1
  6
Continuous
100
AcDbCircle
 10
201.779053
 20
262.4496119999998
 30
0.0
 40
2.778
100
AcDbArc
 50
189.9080999999999
 51
212.1434
  0
ARC
  5
9D72
330
9CDF
100
AcDbEntity
  8
1
  6
Continuous
100
AcDbCircle
 10
197.8430789999999
 20
262.4496119999998
 30
0.0
 40
2.778
100
AcDbArc
 50
189.9080999999999
 51
212.1434
  0
ARC
  5
9D73
330
9CDF
100
AcDbEntity
  8
1
  6
Continuous
100
AcDbCircle
 10
195.307839
 20
262.4496119999998
 30
0.0
 40
2.778
100
AcDbArc
 50
189.9080999999999
 51
212.1433699999999
  0
ARC
  5
9D74
330
9CDF
100
AcDbEntity
  8
1
  6
Continuous
100
AcDbCircle
 10
206.732293
 20
262.4496119999998
 30
0.0
 40
2.778
100
AcDbArc
 50
327.8565799999999
 51
350.0919899999999
  0
ARC
  5
9D75
330
9CDF
100
AcDbEntity
  8
1
  6
Continuous
100
AcDbCircle
 10
217.708123
 20
262.4496119999998
 30
0.0
 40
2.778
100
AcDbArc
 50
327.8565799999999
 51
350.09193
  0
ARC
  5
9D76
330
9CDF
100
AcDbEntity
  8
1
  6
Continuous
100
AcDbCircle
 10
222.661362
 20
262.4496119999998
 30
0.0
 40
2.778
100
AcDbArc
 50
327.8565799999999
 51
350.09193
  0
ARC
  5
9D77
330
9CDF
100
AcDbEntity
  8
1
  6
Continuous
100
AcDbCircle
 10
191.220223
 20
255.971604
 30
0.0
 40
5.0
100
AcDbArc
 50
89.99998199999996
 51
178.90034
  0
ARC
  5
9D78
330
9CDF
100
AcDbEntity
  8
1
  6
Continuous
100
AcDbCircle
 10
46.779063
 20
262.4496119999998
 30
0.0
 40
2.778
100
AcDbArc
 50
327.8564799999998
 51
333.0638399999999
  0
ARC
  5
9D79
330
9CDF
100
AcDbEntity
  8
1
  6
Continuous
100
AcDbCircle
 10
67.661355
 20
262.4496119999998
 30
0.0
 40
2.778
100
AcDbArc
 50
327.8564799999998
 51
350.09193
  0
ARC
  5
9D7A
330
9CDF
100
AcDbEntity
  8
1
  6
Continuous
100
AcDbCircle
 10
77.220223
 20
255.9716009999999
 30
0.0
 40
5.0
100
AcDbArc
 50
0.0
 51
89.99998199999996
  0
ARC
  5
9D7B
330
9CDF
100
AcDbEntity
  8
1
  6
Continuous
100
AcDbCircle
 10
37.22022299999999
 20
255.9716009999999
 30
0.0
 40
5.0
100
AcDbArc
 50
89.99998199999996
 51
179.9999599999999
  0
ARC
  5
9D7C
330
9CDF
100
AcDbEntity
  8
1
  6
Continuous
100
AcDbCircle
 10
62.708123
 20
262.4496119999998
 30
0.0
 40
2.778
100
AcDbArc
 50
327.8564799999998
 51
350.09193
  0
ARC
  5
9D7D
330
9CDF
100
AcDbEntity
  8
1
  6
Continuous
100
AcDbCircle
 10
75.020218
 20
262.4496119999998
 30
0.0
 40
2.778
100
AcDbArc
 50
327.80113
 51
350.09193
  0
ARC
  5
9D7E
330
9CDF
100
AcDbEntity
  8
1
  6
Continuous
100
AcDbCircle
 10
80.22022300000001
 20
264.971607
 30
0.0
 40
3.0
100
AcDbArc
 50
270.00002
 51
328.48644
  0
ARC
  5
9D7F
330
9CDF
100
AcDbEntity
  8
1
  6
Continuous
100
AcDbCircle
 10
34.220223
 20
264.971607
 30
0.0
 40
3.0
100
AcDbArc
 50
211.5135899999999
 51
270.00002
  0
ARC
  5
9D80
330
9CDF
100
AcDbEntity
  8
1
  6
Continuous
100
AcDbCircle
 10
57.220203
 20
262.4496119999998
 30
0.0
 40
2.778
100
AcDbArc
 50
327.8564799999998
 51
350.09193
  0
ARC
  5
9D81
330
9CDF
100
AcDbEntity
  8
1
  6
Continuous
100
AcDbCircle
 10
62.708123
 20
262.4496119999998
 30
0.0
 40
2.778
100
AcDbArc
 50
189.90804
 51
212.14351
  0
ARC
  5
9D82
330
9CDF
100
AcDbEntity
  8
1
  6
Continuous
100
AcDbCircle
 10
67.661355
 20
262.4496119999998
 30
0.0
 40
2.778
100
AcDbArc
 50
206.9362
 51
212.14351
  0
ARC
  5
9D83
330
9CDF
100
AcDbEntity
  8
1
  6
Continuous
100
AcDbCircle
 10
71.597329
 20
262.4496119999998
 30
0.0
 40
2.778
100
AcDbArc
 50
327.8564799999998
 51
350.09193
  0
ARC
  5
9D84
330
9CDF
100
AcDbEntity
  8
1
  6
Continuous
100
AcDbCircle
 10
74.13257699999999
 20
262.4496119999998
 30
0.0
 40
2.778
100
AcDbArc
 50
327.8564799999998
 51
350.09193
  0
ARC
  5
9D85
330
9CDF
100
AcDbEntity
  8
1
  6
Continuous
100
AcDbCircle
 10
39.420203
 20
262.4496119999998
 30
0.0
 40
2.778
100
AcDbArc
 50
189.9080999999999
 51
212.14351
  0
ARC
  5
9D86
330
9CDF
100
AcDbEntity
  8
1
  6
Continuous
100
AcDbCircle
 10
57.220203
 20
262.4496119999998
 30
0.0
 40
2.778
100
AcDbArc
 50
189.9080999999999
 51
212.14351
  0
ARC
  5
9D87
330
9CDF
100
AcDbEntity
  8
1
  6
Continuous
100
AcDbCircle
 10
51.732293
 20
262.4496119999998
 30
0.0
 40
2.778
100
AcDbArc
 50
189.9080999999999
 51
212.14351
  0
ARC
  5
9D88
330
9CDF
100
AcDbEntity
  8
1
  6
Continuous
100
AcDbCircle
 10
46.779063
 20
262.4496119999998
 30
0.0
 40
2.778
100
AcDbArc
 50
189.9080999999999
 51
212.14351
  0
ARC
  5
9D89
330
9CDF
100
AcDbEntity
  8
1
  6
Continuous
100
AcDbCircle
 10
42.843083
 20
262.4496119999998
 30
0.0
 40
2.778
100
AcDbArc
 50
189.9080999999999
 51
212.14351
  0
ARC
  5
9D8A
330
9CDF
100
AcDbEntity
  8
1
  6
Continuous
100
AcDbCircle
 10
40.30784299999999
 20
262.4496119999998
 30
0.0
 40
2.778
100
AcDbArc
 50
189.9080999999999
 51
212.14351
  0
ARC
  5
9D8B
330
9CDF
100
AcDbEntity
  8
1
  6
Continuous
100
AcDbCircle
 10
51.732293
 20
262.4496119999998
 30
0.0
 40
2.778
100
AcDbArc
 50
327.8564799999998
 51
350.0919899999999
  0
LINE
  5
9D8C
330
9CDF
100
AcDbEntity
  8
1
  6
Continuous
100
AcDbLine
 10
239.720221
 20
266.5716269999999
 30
0.0
 11
237.777768
 21
263.4035169999999
 31
0.0
  0
LINE
  5
9D8D
330
9CDF
100
AcDbEntity
  8
1
  6
Continuous
100
AcDbLine
 10
237.220223
 20
255.971605
 30
0.0
 11
237.220223
 21
252.071608
 31
0.0
  0
ARC
  5
9D8E
330
9CDF
100
AcDbEntity
  8
1
  6
Continuous
100
AcDbCircle
 10
232.220223
 20
255.971605
 30
0.0
 40
5.0
100
AcDbArc
 50
0.0
 51
90.0
  0
LINE
  5
9D8F
330
9CDF
100
AcDbEntity
  8
4
  6
CENTER
100
AcDbLine
 10
180.2202229999998
 20
375.871609
 30
0.0
 11
180.2202229999998
 21
307.8716089999998
 31
0.0
  0
LINE
  5
9D90
330
9CDF
100
AcDbEntity
  8
4
  6
CENTER
100
AcDbLine
 10
180.2202229999998
 20
39.871609
 30
0.0
 11
180.2202229999998
 21
107.871609
 31
0.0
  0
LINE
  5
9D91
330
9CDF
100
AcDbEntity
  8
4
  6
CENTER
100
AcDbLine
 10
212.220223
 20
39.871609
 30
0.0
 11
212.220223
 21
107.871609
 31
0.0
  0
LINE
  5
9D92
330
9CDF
100
AcDbEntity
  8
4
  6
CENTER
100
AcDbLine
 10
253.220223
 20
99.87160900000001
 30
0.0
 11
253.220223
 21
87.87160899999998
 31
0.0
  0
LINE
  5
9D93
330
9CDF
100
AcDbEntity
  8
4
  6
CENTER
100
AcDbLine
 10
171.220223
 20
99.87160900000001
 30
0.0
 11
171.220223
 21
87.87160899999998
 31
0.0
  0
ARC
  5
9D94
330
9CDF
100
AcDbEntity
  8
1
  6
Continuous
100
AcDbCircle
 10
171.220223
 20
93.87160900000001
 30
0.0
 40
4.4
100
AcDbArc
 50
18.733118
 51
243.8180330000001
  0
CIRCLE
  5
9D95
330
9CDF
100
AcDbEntity
  8
1
  6
Continuous
100
AcDbCircle
 10
253.220223
 20
93.87160900000001
 30
0.0
 40
4.4
  0
ARC
  5
9D96
330
9CDF
100
AcDbEntity
  8
1
  6
Continuous
100
AcDbCircle
 10
79.753563
 20
73.87160899999997
 30
0.0
 40
85.0
100
AcDbArc
 50
346.559679
 51
351.543481
  0
ARC
  5
9D97
330
9CDF
100
AcDbEntity
  8
1
  6
Continuous
100
AcDbCircle
 10
344.686883
 20
73.87160899999997
 30
0.0
 40
85.0
100
AcDbArc
 50
166.55971
 51
193.4403599999999
  0
ARC
  5
9D98
330
9CDF
100
AcDbEntity
  8
1
  6
Continuous
100
AcDbCircle
 10
254.7202229999999
 20
95.37160900000001
 30
0.0
 40
7.5
100
AcDbArc
 50
346.5597179999999
 51
89.99997999999996
  0
LINE
  5
9D99
330
9CDF
100
AcDbEntity
  8
4
  6
CENTER
100
AcDbLine
 10
259.2202229999999
 20
93.87160900000001
 30
0.0
 11
247.220223
 21
93.87160900000001
 31
0.0
  0
LINE
  5
9D9A
330
9CDF
100
AcDbEntity
  8
1
  6
Continuous
100
AcDbLine
 10
169.720223
 20
102.8716089999999
 30
0.0
 11
254.7202229999999
 21
102.8716089999999
 31
0.0
  0
LINE
  5
9D9B
330
9CDF
100
AcDbEntity
  8
4
  6
CENTER
100
AcDbLine
 10
165.220223
 20
93.87160900000001
 30
0.0
 11
177.2202229999997
 21
93.87160900000001
 31
0.0
  0
ARC
  5
9D9C
330
9CDF
100
AcDbEntity
  8
1
  6
Continuous
100
AcDbCircle
 10
169.720223
 20
95.37160900000001
 30
0.0
 40
7.5
100
AcDbArc
 50
90.00004999999999
 51
193.44032
  0
LINE
  5
9D9D
330
9CDF
100
AcDbEntity
  8
4
  6
CENTER
100
AcDbLine
 10
125.2202229999999
 20
73.87160899999997
 30
0.0
 11
264.686883
 21
73.87160899999997
 31
0.0
  0
CIRCLE
  5
9D9E
330
9CDF
100
AcDbEntity
  8
1
  6
Continuous
100
AcDbCircle
 10
253.220223
 20
53.871609
 30
0.0
 40
4.4
  0
ARC
  5
9D9F
330
9CDF
100
AcDbEntity
  8
1
  6
Continuous
100
AcDbCircle
 10
254.7202229999999
 20
52.371609
 30
0.0
 40
7.5
100
AcDbArc
 50
270.0000179999999
 51
13.44032
  0
LINE
  5
9DA0
330
9CDF
100
AcDbEntity
  8
4
  6
CENTER
100
AcDbLine
 10
259.2202229999999
 20
53.871609
 30
0.0
 11
247.220223
 21
53.871609
 31
0.0
  0
LINE
  5
9DA1
330
9CDF
100
AcDbEntity
  8
1
  6
Continuous
100
AcDbLine
 10
169.720223
 20
44.871609
 30
0.0
 11
254.7202229999999
 21
44.871609
 31
0.0
  0
ARC
  5
9DA2
330
9CDF
100
AcDbEntity
  8
1
  6
Continuous
100
AcDbCircle
 10
169.720223
 20
52.371609
 30
0.0
 40
7.5
100
AcDbArc
 50
166.55971
 51
270.0000179999999
  0
LINE
  5
9DA3
330
9CDF
100
AcDbEntity
  8
4
  6
CENTER
100
AcDbLine
 10
165.220223
 20
53.871609
 30
0.0
 11
177.2202229999997
 21
53.871609
 31
0.0
  0
ARC
  5
9DA4
330
9CDF
100
AcDbEntity
  8
1
  6
Continuous
100
AcDbCircle
 10
171.220223
 20
53.871609
 30
0.0
 40
4.4
100
AcDbArc
 50
116.3674389999999
 51
320.5148669999998
  0
LINE
  5
9DA5
330
9CDF
100
AcDbEntity
  8
4
  6
CENTER
100
AcDbLine
 10
171.220223
 20
47.87160899999999
 30
0.0
 11
171.220223
 21
59.871609
 31
0.0
  0
LINE
  5
9DA6
330
9CDF
100
AcDbEntity
  8
4
  6
CENTER
100
AcDbLine
 10
253.220223
 20
47.87160899999999
 30
0.0
 11
253.220223
 21
59.871609
 31
0.0
  0
LINE
  5
9DA7
330
9CDF
100
AcDbEntity
  8
1
  6
Continuous
100
AcDbLine
 10
169.220223
 20
89.87160899999997
 30
0.0
 11
193.6808049999999
 21
89.87160899999997
 31
0.0
  0
LINE
  5
9DA8
330
9CDF
100
AcDbEntity
  8
1
  6
Continuous
100
AcDbLine
 10
169.220223
 20
92.171604
 30
0.0
 11
193.680799
 21
92.171604
 31
0.0
  0
LINE
  5
9DA9
330
9CDF
100
AcDbEntity
  8
1
  6
Continuous
100
AcDbLine
 10
169.220223
 20
57.87160899999999
 30
0.0
 11
193.6808049999999
 21
57.87160899999999
 31
0.0
  0
LINE
  5
9DAA
330
9CDF
100
AcDbEntity
  8
1
  6
Continuous
100
AcDbLine
 10
169.220223
 20
55.57161899999999
 30
0.0
 11
193.680793
 21
55.57161899999999
 31
0.0
  0
LINE
  5
9DAB
330
9CDF
100
AcDbEntity
  8
1
  6
Continuous
100
AcDbLine
 10
186.4702229999998
 20
92.171604
 30
0.0
 11
186.4702229999998
 21
93.371601
 31
0.0
  0
LINE
  5
9DAC
330
9CDF
100
AcDbEntity
  8
1
  6
Continuous
100
AcDbLine
 10
173.9702229999998
 20
92.171604
 30
0.0
 11
173.9702229999998
 21
93.371601
 31
0.0
  0
LINE
  5
9DAD
330
9CDF
100
AcDbEntity
  8
1
  6
Continuous
100
AcDbLine
 10
176.2202229999997
 20
57.87160899999999
 30
0.0
 11
176.2202229999997
 21
58.871609
 31
0.0
  0
LINE
  5
9DAE
330
9CDF
100
AcDbEntity
  8
1
  6
Continuous
100
AcDbLine
 10
176.2202229999997
 20
88.87160899999996
 30
0.0
 11
176.2202229999997
 21
89.87161699999999
 31
0.0
  0
LINE
  5
9DAF
330
9CDF
100
AcDbEntity
  8
1
  6
Continuous
100
AcDbLine
 10
184.220223
 20
57.87160899999999
 30
0.0
 11
184.220223
 21
58.871609
 31
0.0
  0
LINE
  5
9DB0
330
9CDF
100
AcDbEntity
  8
1
  6
Continuous
100
AcDbLine
 10
184.220223
 20
88.87160899999996
 30
0.0
 11
184.220223
 21
89.87161699999999
 31
0.0
  0
LINE
  5
9DB1
330
9CDF
100
AcDbEntity
  8
1
  6
Continuous
100
AcDbLine
 10
175.970223
 20
95.37160099999999
 30
0.0
 11
184.470223
 21
95.37160099999999
 31
0.0
  0
ARC
  5
9DB2
330
9CDF
100
AcDbEntity
  8
1
  6
Continuous
100
AcDbCircle
 10
175.970223
 20
93.371601
 30
0.0
 40
2.0
100
AcDbArc
 50
90.0
 51
179.999982
  0
ARC
  5
9DB3
330
9CDF
100
AcDbEntity
  8
1
  6
Continuous
100
AcDbCircle
 10
184.470223
 20
93.371601
 30
0.0
 40
2.0
100
AcDbArc
 50
0.00002
 51
90.0
  0
LINE
  5
9DB4
330
9CDF
100
AcDbEntity
  8
1
  6
Continuous
100
AcDbLine
 10
169.220223
 20
92.171604
 30
0.0
 11
169.220223
 21
89.87160899999997
 31
0.0
  0
ARC
  5
9DB5
330
9CDF
100
AcDbEntity
  8
1
  6
Continuous
100
AcDbCircle
 10
79.753563
 20
73.87160899999997
 30
0.0
 40
85.0
100
AcDbArc
 50
8.456519
 51
13.44032
  0
LINE
  5
9DB6
330
9CDF
100
AcDbEntity
  8
1
  6
Continuous
100
AcDbLine
 10
169.220223
 20
57.87160899999999
 30
0.0
 11
169.220223
 21
55.57161899999999
 31
0.0
  0
ARC
  5
9DB7
330
9CDF
100
AcDbEntity
  8
1
  6
Continuous
100
AcDbCircle
 10
214.8902839999998
 20
73.86203899999998
 30
0.0
 40
43.958572
100
AcDbArc
 50
158.641841
 51
160.0348759999999
  0
ARC
  5
9DB8
330
9CDF
100
AcDbEntity
  8
1
  6
Continuous
100
AcDbCircle
 10
214.8902839999998
 20
73.86203899999998
 30
0.0
 40
43.958572
100
AcDbArc
 50
199.938584
 51
201.331375
  0
ARC
  5
9DB9
330
9CDF
100
AcDbEntity
  8
1
  6
Continuous
100
AcDbCircle
 10
212.220223
 20
73.87160899999997
 30
0.0
 40
25.0
100
AcDbArc
 50
230.2610529999999
 51
129.738932
  0
ARC
  5
9DBA
330
9CDF
100
AcDbEntity
  8
1
  6
Continuous
100
AcDbCircle
 10
212.220223
 20
73.87160899999997
 30
0.0
 40
22.7
100
AcDbArc
 50
230.2610839999999
 51
129.7389159999999
  0
ARC
  5
9DBB
330
9CDF
100
AcDbEntity
  8
1
  6
Continuous
100
AcDbCircle
 10
212.220223
 20
73.87160899999997
 30
0.0
 40
17.0
100
AcDbArc
 50
227.332075
 51
312.667925
  0
ARC
  5
9DBC
330
9CDF
100
AcDbEntity
  8
1
  6
Continuous
100
AcDbCircle
 10
212.220223
 20
73.87160899999997
 30
0.0
 40
20.69999999999998
100
AcDbArc
 50
217.147193
 51
323.606027
  0
ARC
  5
9DBD
330
9CDF
100
AcDbEntity
  8
1
  6
Continuous
100
AcDbCircle
 10
212.220223
 20
73.87160899999997
 30
0.0
 40
17.0
100
AcDbArc
 50
47.33207500000001
 51
132.6679249999999
  0
ARC
  5
9DBE
330
9CDF
100
AcDbEntity
  8
1
  6
Continuous
100
AcDbCircle
 10
212.220223
 20
73.87160899999997
 30
0.0
 40
20.69999999999998
100
AcDbArc
 50
36.39397299999999
 51
142.852807
  0
ARC
  5
9DBF
330
9CDF
100
AcDbEntity
  8
1
  6
Continuous
100
AcDbCircle
 10
212.220223
 20
73.87160899999997
 30
0.0
 40
20.69999999999998
100
AcDbArc
 50
326.9866819999998
 51
33.01331799999999
  0
CIRCLE
  5
9DC0
330
9CDF
100
AcDbEntity
  8
2
  6
Continuous
100
AcDbCircle
 10
491.220223
 20
196.871609
 30
0.0
 40
3.3235
  0
CIRCLE
  5
9DC1
330
9CDF
100
AcDbEntity
  8
1
  6
Continuous
100
AcDbCircle
 10
491.220223
 20
196.871609
 30
0.0
 40
4.0
  0
ARC
  5
9DC2
330
9CDF
100
AcDbEntity
  8
1
  6
Continuous
100
AcDbCircle
 10
177.2202229999997
 20
48.730018
 30
0.0
 40
6.841600999999998
100
AcDbArc
 50
63.992176
 51
116.007824
  0
ARC
  5
9DC3
330
9CDF
100
AcDbEntity
  8
1
  6
Continuous
100
AcDbCircle
 10
177.2202229999997
 20
57.41321899999999
 30
0.0
 40
6.841600999999998
100
AcDbArc
 50
243.992176
 51
296.0078240000001
  0
LINE
  5
9DC4
330
9CDF
100
AcDbEntity
  8
1
  6
Continuous
100
AcDbLine
 10
177.470223
 20
50.571619
 30
0.0
 11
182.970223
 21
50.571619
 31
0.0
  0
LINE
  5
9DC5
330
9CDF
100
AcDbEntity
  8
1
  6
Continuous
100
AcDbLine
 10
174.220223
 20
54.87879799999999
 30
0.0
 11
174.220223
 21
51.264439
 31
0.0
  0
LINE
  5
9DC6
330
9CDF
100
AcDbEntity
  8
1
  6
Continuous
100
AcDbLine
 10
180.2202229999998
 20
55.57161899999999
 30
0.0
 11
180.2202229999998
 21
51.264439
 31
0.0
  0
LINE
  5
9DC7
330
9CDF
100
AcDbEntity
  8
1
  6
Continuous
100
AcDbLine
 10
186.220223
 20
54.87879799999999
 30
0.0
 11
186.220223
 21
51.264439
 31
0.0
  0
ARC
  5
9DC8
330
9CDF
100
AcDbEntity
  8
1
  6
Continuous
100
AcDbCircle
 10
183.220223
 20
48.730018
 30
0.0
 40
6.841600999999998
100
AcDbArc
 50
63.992176
 51
116.007824
  0
ARC
  5
9DC9
330
9CDF
100
AcDbEntity
  8
1
  6
Continuous
100
AcDbCircle
 10
183.220223
 20
57.41321899999999
 30
0.0
 40
6.841600999999998
100
AcDbArc
 50
243.992176
 51
296.0078240000001
  0
LINE
  5
9DCA
330
9CDF
100
AcDbEntity
  8
4
  6
CENTER
100
AcDbLine
 10
335.3197999999999
 20
273.8716249999999
 30
0.0
 11
335.3197999999999
 21
141.8716249999999
 31
0.0
  0
LINE
  5
9DCB
330
9CDF
100
AcDbEntity
  8
1
  6
Continuous
100
AcDbLine
 10
310.3197999999999
 20
255.9716169999999
 30
0.0
 11
310.3197999999999
 21
231.823477
 31
0.0
  0
LINE
  5
9DCC
330
9CDF
100
AcDbEntity
  8
1
  6
Continuous
100
AcDbLine
 10
317.0198049999999
 20
201.845008
 30
0.0
 11
317.0198049999999
 21
185.871625
 31
0.0
  0
LINE
  5
9DCD
330
9CDF
100
AcDbEntity
  8
1
  6
Continuous
100
AcDbLine
 10
319.3197999999998
 20
250.973676
 30
0.0
 11
319.3197999999998
 21
185.871625
 31
0.0
  0
LINE
  5
9DCE
330
9CDF
100
AcDbEntity
  8
1
  6
Continuous
100
AcDbLine
 10
353.6197899999999
 20
201.844997
 30
0.0
 11
353.6197899999999
 21
185.871625
 31
0.0
  0
LINE
  5
9DCF
330
9CDF
100
AcDbEntity
  8
1
  6
Continuous
100
AcDbLine
 10
351.3198
 20
250.973676
 30
0.0
 11
351.3198
 21
185.871625
 31
0.0
  0
LINE
  5
9DD0
330
9CDF
100
AcDbEntity
  8
4
  6
CENTER
100
AcDbLine
 10
365.6197899999999
 20
196.8716249999999
 30
0.0
 11
308.819808
 21
196.8716249999999
 31
0.0
  0
LINE
  5
9DD1
330
9CDF
100
AcDbEntity
  8
1
  6
Continuous
100
AcDbLine
 10
358.6197899999998
 20
201.9736379999999
 30
0.0
 11
358.6197899999998
 21
191.769612
 31
0.0
  0
ARC
  5
9DD2
330
9CDF
100
AcDbEntity
  8
1
  6
Continuous
100
AcDbCircle
 10
356.8697899999999
 20
191.9299969999999
 30
0.0
 40
3.25
100
AcDbArc
 50
148.634207
 51
208.6527699999999
  0
ARC
  5
9DD3
330
9CDF
100
AcDbEntity
  8
1
  6
Continuous
100
AcDbCircle
 10
354.3697899999998
 20
191.9299969999999
 30
0.0
 40
3.25
100
AcDbArc
 50
331.3472699999998
 51
31.36577
  0
LINE
  5
9DD4
330
9CDF
100
AcDbEntity
  8
1
  6
Continuous
100
AcDbLine
 10
351.3198
 20
192.8716249999999
 30
0.0
 11
350.3197999999999
 21
192.8716249999999
 31
0.0
  0
LINE
  5
9DD5
330
9CDF
100
AcDbEntity
  8
1
  6
Continuous
100
AcDbLine
 10
357.22179
 20
190.371625
 30
0.0
 11
354.0177799999999
 21
190.371625
 31
0.0
  0
LINE
  5
9DD6
330
9CDF
100
AcDbEntity
  8
1
  6
Continuous
100
AcDbLine
 10
353.6197899999999
 20
185.871625
 30
0.0
 11
351.3198
 21
185.871625
 31
0.0
  0
LINE
  5
9DD7
330
9CDF
100
AcDbEntity
  8
1
  6
Continuous
100
AcDbLine
 10
357.22179
 20
190.371629
 30
0.0
 11
358.6197899999998
 21
191.769616
 31
0.0
  0
ARC
  5
9DD8
330
9CDF
100
AcDbEntity
  8
1
  6
Continuous
100
AcDbCircle
 10
365.6197899999999
 20
196.8716249999999
 30
0.0
 40
12.0
100
AcDbArc
 50
164.286139
 51
195.71386
  0
LINE
  5
9DD9
330
9CDF
100
AcDbEntity
  8
1
  6
Continuous
100
AcDbLine
 10
357.22179
 20
203.3716249999999
 30
0.0
 11
354.2212119999998
 21
203.3716249999999
 31
0.0
  0
LINE
  5
9DDA
330
9CDF
100
AcDbEntity
  8
1
  6
Continuous
100
AcDbLine
 10
357.1712999999999
 20
200.121625
 30
0.0
 11
354.06827
 21
200.121625
 31
0.0
  0
LINE
  5
9DDB
330
9CDF
100
AcDbEntity
  8
1
  6
Continuous
100
AcDbLine
 10
357.1448399999999
 20
193.621625
 30
0.0
 11
354.0947299999999
 21
193.621625
 31
0.0
  0
LINE
  5
9DDC
330
9CDF
100
AcDbEntity
  8
1
  6
Continuous
100
AcDbLine
 10
351.3198
 20
200.8716249999999
 30
0.0
 11
350.3197999999999
 21
200.8716249999999
 31
0.0
  0
ARC
  5
9DDD
330
9CDF
100
AcDbEntity
  8
1
  6
Continuous
100
AcDbCircle
 10
354.3697899999998
 20
201.8132529999999
 30
0.0
 40
3.25
100
AcDbArc
 50
328.6342499999999
 51
28.65275
  0
ARC
  5
9DDE
330
9CDF
100
AcDbEntity
  8
1
  6
Continuous
100
AcDbCircle
 10
345.6197899999998
 20
196.8716249999999
 30
0.0
 40
12.0
100
AcDbArc
 50
344.28617
 51
15.71384
  0
LINE
  5
9DDF
330
9CDF
100
AcDbEntity
  8
1
  6
Continuous
100
AcDbLine
 10
358.61977
 20
201.9736409999999
 30
0.0
 11
357.22179
 21
203.371629
 31
0.0
  0
LINE
  5
9DE0
330
9CDF
100
AcDbEntity
  8
1
  6
Continuous
100
AcDbLine
 10
313.819808
 20
201.1216249999999
 30
0.0
 11
313.819808
 21
192.6216249999999
 31
0.0
  0
LINE
  5
9DE1
330
9CDF
100
AcDbEntity
  8
1
  6
Continuous
100
AcDbLine
 10
320.3197999999998
 20
192.8716249999999
 30
0.0
 11
319.319792
 21
192.8716249999999
 31
0.0
  0
LINE
  5
9DE2
330
9CDF
100
AcDbEntity
  8
1
  6
Continuous
100
AcDbLine
 10
317.0198049999999
 20
190.6216249999999
 30
0.0
 11
315.819808
 21
190.6216249999999
 31
0.0
  0
LINE
  5
9DE3
330
9CDF
100
AcDbEntity
  8
1
  6
Continuous
100
AcDbLine
 10
317.0198049999999
 20
185.871625
 30
0.0
 11
319.3197999999998
 21
185.871625
 31
0.0
  0
ARC
  5
9DE4
330
9CDF
100
AcDbEntity
  8
1
  6
Continuous
100
AcDbCircle
 10
315.819808
 20
192.6216249999999
 30
0.0
 40
2.0
100
AcDbArc
 50
180.0
 51
269.99998
  0
ARC
  5
9DE5
330
9CDF
100
AcDbEntity
  8
1
  6
Continuous
100
AcDbCircle
 10
315.819808
 20
201.1216249999999
 30
0.0
 40
2.0
100
AcDbArc
 50
90.0
 51
180.0
  0
LINE
  5
9DE6
330
9CDF
100
AcDbEntity
  8
1
  6
Continuous
100
AcDbLine
 10
320.3197999999998
 20
200.8716249999999
 30
0.0
 11
319.319792
 21
200.8716249999999
 31
0.0
  0
LINE
  5
9DE7
330
9CDF
100
AcDbEntity
  8
1
  6
Continuous
100
AcDbLine
 10
358.3197999999999
 20
261.971623
 30
0.0
 11
312.3197999999998
 21
261.971623
 31
0.0
  0
LINE
  5
9DE8
330
9CDF
100
AcDbEntity
  8
1
  6
Continuous
100
AcDbLine
 10
364.3197999999999
 20
266.5716219999999
 30
0.0
 11
306.3197999999998
 21
266.5716219999999
 31
0.0
  0
LINE
  5
9DE9
330
9CDF
100
AcDbEntity
  8
1
  6
Continuous
100
AcDbLine
 10
364.3197999999999
 20
268.871625
 30
0.0
 11
306.3197999999998
 21
268.871625
 31
0.0
  0
LINE
  5
9DEA
330
9CDF
100
AcDbEntity
  8
1
  6
Continuous
100
AcDbLine
 10
355.3198
 20
260.971617
 30
0.0
 11
315.3197999999998
 21
260.971617
 31
0.0
  0
ARC
  5
9DEB
330
9CDF
100
AcDbEntity
  8
1
  6
Continuous
100
AcDbCircle
 10
358.3197999999999
 20
264.971623
 30
0.0
 40
3.0
100
AcDbArc
 50
269.99998
 51
328.48641
  0
ARC
  5
9DEC
330
9CDF
100
AcDbEntity
  8
1
  6
Continuous
100
AcDbCircle
 10
355.3198
 20
255.9716169999999
 30
0.0
 40
5.0
100
AcDbArc
 50
0.00004
 51
90.00001800000005
  0
LINE
  5
9DED
330
9CDF
100
AcDbEntity
  8
1
  6
Continuous
100
AcDbLine
 10
362.8198499999998
 20
266.571633
 30
0.0
 11
360.87739
 21
263.403523
 31
0.0
  0
LINE
  5
9DEE
330
9CDF
100
AcDbEntity
  8
1
  6
Continuous
100
AcDbLine
 10
364.3197999999999
 20
268.871625
 30
0.0
 11
364.3197999999999
 21
266.5716259999999
 31
0.0
  0
LINE
  5
9DEF
330
9CDF
100
AcDbEntity
  8
4
  6
CENTER
100
AcDbLine
 10
355.3198
 20
273.8716249999999
 30
0.0
 11
355.3198
 21
261.5716219999999
 31
0.0
  0
ARC
  5
9DF0
330
9CDF
100
AcDbEntity
  8
1
  6
Continuous
100
AcDbCircle
 10
352.2321799999998
 20
262.4496279999998
 30
0.0
 40
2.778
100
AcDbArc
 50
327.85649
 51
350.0919
  0
ARC
  5
9DF1
330
9CDF
100
AcDbEntity
  8
1
  6
Continuous
100
AcDbCircle
 10
349.6969399999999
 20
262.4496279999998
 30
0.0
 40
2.778
100
AcDbArc
 50
327.85649
 51
350.0919
  0
ARC
  5
9DF2
330
9CDF
100
AcDbEntity
  8
1
  6
Continuous
100
AcDbCircle
 10
345.76096
 20
262.4496279999998
 30
0.0
 40
2.778
100
AcDbArc
 50
327.85649
 51
350.0919
  0
ARC
  5
9DF3
330
9CDF
100
AcDbEntity
  8
1
  6
Continuous
100
AcDbCircle
 10
353.1198199999999
 20
262.4496279999998
 30
0.0
 40
2.778
100
AcDbArc
 50
327.85649
 51
350.0919
  0
ARC
  5
9DF4
330
9CDF
100
AcDbEntity
  8
1
  6
Continuous
100
AcDbCircle
 10
340.8077299999998
 20
262.4496279999998
 30
0.0
 40
2.778
100
AcDbArc
 50
327.85649
 51
350.0919
  0
ARC
  5
9DF5
330
9CDF
100
AcDbEntity
  8
1
  6
Continuous
100
AcDbCircle
 10
345.76096
 20
262.4496279999998
 30
0.0
 40
2.778
100
AcDbArc
 50
206.93616
 51
212.14352
  0
ARC
  5
9DF6
330
9CDF
100
AcDbEntity
  8
1
  6
Continuous
100
AcDbCircle
 10
329.8319
 20
262.4496279999998
 30
0.0
 40
2.778
100
AcDbArc
 50
327.85649
 51
350.0919599999999
  0
ARC
  5
9DF7
330
9CDF
100
AcDbEntity
  8
1
  6
Continuous
100
AcDbCircle
 10
335.31982
 20
262.4496279999998
 30
0.0
 40
2.778
100
AcDbArc
 50
189.90807
 51
212.14352
  0
ARC
  5
9DF8
330
9CDF
100
AcDbEntity
  8
1
  6
Continuous
100
AcDbCircle
 10
340.8077299999998
 20
262.4496279999998
 30
0.0
 40
2.778
100
AcDbArc
 50
189.9080099999999
 51
212.14352
  0
ARC
  5
9DF9
330
9CDF
100
AcDbEntity
  8
1
  6
Continuous
100
AcDbCircle
 10
335.31982
 20
262.4496279999998
 30
0.0
 40
2.778
100
AcDbArc
 50
327.85649
 51
350.0919
  0
ARC
  5
9DFA
330
9CDF
100
AcDbEntity
  8
1
  6
Continuous
100
AcDbCircle
 10
315.3197999999998
 20
255.9716169999999
 30
0.0
 40
5.0
100
AcDbArc
 50
90.00001800000005
 51
180.0
  0
LINE
  5
9DFB
330
9CDF
100
AcDbEntity
  8
4
  6
CENTER
100
AcDbLine
 10
315.3197999999998
 20
273.8716249999999
 30
0.0
 11
315.3197999999998
 21
261.5716219999999
 31
0.0
  0
ARC
  5
9DFC
330
9CDF
100
AcDbEntity
  8
1
  6
Continuous
100
AcDbCircle
 10
318.407446
 20
262.4496279999998
 30
0.0
 40
2.778
100
AcDbArc
 50
189.90807
 51
212.14352
  0
ARC
  5
9DFD
330
9CDF
100
AcDbEntity
  8
1
  6
Continuous
100
AcDbCircle
 10
320.942694
 20
262.4496279999998
 30
0.0
 40
2.778
100
AcDbArc
 50
189.90807
 51
212.14352
  0
ARC
  5
9DFE
330
9CDF
100
AcDbEntity
  8
1
  6
Continuous
100
AcDbCircle
 10
324.878668
 20
262.4496279999998
 30
0.0
 40
2.778
100
AcDbArc
 50
327.85649
 51
333.0638
  0
ARC
  5
9DFF
330
9CDF
100
AcDbEntity
  8
1
  6
Continuous
100
AcDbCircle
 10
317.5198049999999
 20
262.4496279999998
 30
0.0
 40
2.778
100
AcDbArc
 50
189.90807
 51
212.19887
  0
ARC
  5
9E00
330
9CDF
100
AcDbEntity
  8
1
  6
Continuous
100
AcDbCircle
 10
329.8319
 20
262.4496279999998
 30
0.0
 40
2.778
100
AcDbArc
 50
189.90807
 51
212.14352
  0
ARC
  5
9E01
330
9CDF
100
AcDbEntity
  8
1
  6
Continuous
100
AcDbCircle
 10
324.878668
 20
262.4496279999998
 30
0.0
 40
2.778
100
AcDbArc
 50
189.90807
 51
212.14352
  0
LINE
  5
9E02
330
9CDF
100
AcDbEntity
  8
1
  6
Continuous
100
AcDbLine
 10
306.3197999999998
 20
268.871625
 30
0.0
 11
306.3197999999998
 21
266.5716219999999
 31
0.0
  0
ARC
  5
9E03
330
9CDF
100
AcDbEntity
  8
1
  6
Continuous
100
AcDbCircle
 10
312.3197999999998
 20
264.971623
 30
0.0
 40
3.0
100
AcDbArc
 50
211.5135599999999
 51
269.99998
  0
LINE
  5
9E04
330
9CDF
100
AcDbEntity
  8
1
  6
Continuous
100
AcDbLine
 10
307.8198379999999
 20
266.5716450000001
 30
0.0
 11
309.76229
 21
263.403541
 31
0.0
  0
LINE
  5
9E05
330
9CDF
100
AcDbEntity
  8
1
  6
Continuous
100
AcDbLine
 10
360.3197999999999
 20
255.9716169999999
 30
0.0
 11
360.3197999999999
 21
231.823477
 31
0.0
  0
LINE
  5
9E06
330
9CDF
100
AcDbEntity
  8
1
  6
Continuous
100
AcDbLine
 10
509.2202229999998
 20
268.8716089999999
 30
0.0
 11
409.2202379999998
 21
268.8716089999999
 31
0.0
  0
LINE
  5
9E07
330
9CDF
100
AcDbEntity
  8
1
  6
Continuous
100
AcDbLine
 10
509.2202229999998
 20
266.5716059999999
 30
0.0
 11
409.2202379999998
 21
266.5716059999999
 31
0.0
  0
LINE
  5
9E08
330
9CDF
100
AcDbEntity
  8
4
  6
CENTER
100
AcDbLine
 10
491.220223
 20
256.3725949999999
 30
0.0
 11
491.220223
 21
141.871609
 31
0.0
  0
LINE
  5
9E09
330
9CDF
100
AcDbEntity
  8
4
  6
CENTER
100
AcDbLine
 10
546.220223
 20
196.871609
 30
0.0
 11
436.220223
 21
196.871609
 31
0.0
  0
LINE
  5
9E0A
330
9CDF
100
AcDbEntity
  8
1
  6
Continuous
100
AcDbLine
 10
481.674088
 20
191.406155
 30
0.0
 11
451.2622059999998
 21
244.524497
 31
0.0
  0
LINE
  5
9E0B
330
9CDF
100
AcDbEntity
  8
1
  6
Continuous
100
AcDbLine
 10
496.52819
 20
250.8315
 30
0.0
 11
502.158203
 21
198.03806
 31
0.0
  0
LINE
  5
9E0C
330
9CDF
100
AcDbEntity
  8
1
  6
Continuous
100
AcDbLine
 10
480.2202229999998
 20
251.771612
 30
0.0
 11
480.2202229999998
 21
199.371609
 31
0.0
  0
LINE
  5
9E0D
330
9CDF
100
AcDbEntity
  8
4
  6
CENTER
100
AcDbLine
 10
459.2202229999998
 20
274.335335
 30
0.0
 11
459.2202229999998
 21
214.6049389999999
 31
0.0
  0
ARC
  5
9E0E
330
9CDF
100
AcDbEntity
  8
1
  6
Continuous
100
AcDbCircle
 10
491.220223
 20
196.871609
 30
0.0
 40
11.0
100
AcDbArc
 50
209.7924799999999
 51
6.08713
  0
LINE
  5
9E0F
330
9CDF
100
AcDbEntity
  8
1
  6
Continuous
100
AcDbLine
 10
480.2202229999998
 20
260.9716049999998
 30
0.0
 11
439.2202229999998
 21
260.9716049999998
 31
0.0
  0
LINE
  5
9E10
330
9CDF
100
AcDbEntity
  8
1
  6
Continuous
100
AcDbLine
 10
482.220225
 20
261.9716069999999
 30
0.0
 11
436.220223
 21
261.9716069999999
 31
0.0
  0
ARC
  5
9E11
330
9CDF
100
AcDbEntity
  8
1
  6
Continuous
100
AcDbCircle
 10
480.2202229999998
 20
255.971604
 30
0.0
 40
5.0
100
AcDbArc
 50
1.09966
 51
90.00001800000005
  0
ARC
  5
9E12
330
9CDF
100
AcDbEntity
  8
1
  6
Continuous
100
AcDbCircle
 10
499.014094
 20
251.096602
 30
0.0
 40
2.5
100
AcDbArc
 50
79.99997999999997
 51
186.08715
  0
LINE
  5
9E13
330
9CDF
100
AcDbEntity
  8
1
  6
Continuous
100
AcDbLine
 10
500.508732
 20
253.371624
 30
0.0
 11
481.6165199999998
 21
256.70283
 31
0.0
  0
ARC
  5
9E14
330
9CDF
100
AcDbEntity
  8
1
  6
Continuous
100
AcDbCircle
 10
497.564969
 20
250.539781
 30
0.0
 40
1.0
100
AcDbArc
 50
79.99996999999997
 51
186.08715
  0
LINE
  5
9E15
330
9CDF
100
AcDbEntity
  8
1
  6
Continuous
100
AcDbLine
 10
500.109342
 20
251.1065659999999
 30
0.0
 11
497.7386169999999
 21
251.524589
 31
0.0
  0
LINE
  5
9E16
330
9CDF
100
AcDbEntity
  8
1
  6
Continuous
100
AcDbLine
 10
500.508732
 20
253.371624
 30
0.0
 11
500.109342
 21
251.1065659999999
 31
0.0
  0
LINE
  5
9E17
330
9CDF
100
AcDbEntity
  8
4
  6
CENTER
100
AcDbLine
 10
500.2202229999999
 20
273.871609
 30
0.0
 11
500.2202229999999
 21
261.571606
 31
0.0
  0
LINE
  5
9E18
330
9CDF
100
AcDbEntity
  8
1
  6
Continuous
100
AcDbLine
 10
509.2202379999998
 20
266.571614
 30
0.0
 11
509.2202379999998
 21
268.871617
 31
0.0
  0
ARC
  5
9E19
330
9CDF
100
AcDbEntity
  8
1
  6
Continuous
100
AcDbCircle
 10
482.220223
 20
264.971607
 30
0.0
 40
3.0
100
AcDbArc
 50
269.99998
 51
328.48641
  0
LINE
  5
9E1A
330
9CDF
100
AcDbEntity
  8
1
  6
Continuous
100
AcDbLine
 10
486.720221
 20
266.5716269999999
 30
0.0
 11
484.777768
 21
263.4035169999999
 31
0.0
  0
ARC
  5
9E1B
330
9CDF
100
AcDbEntity
  8
1
  6
Continuous
100
AcDbCircle
 10
438.2447359999998
 20
237.071608
 30
0.0
 40
15.0
100
AcDbArc
 50
29.79243
 51
90.00001800000005
  0
ARC
  5
9E1C
330
9CDF
100
AcDbEntity
  8
1
  6
Continuous
100
AcDbCircle
 10
476.1326069999998
 20
262.4496119999998
 30
0.0
 40
2.778
100
AcDbArc
 50
327.85663
 51
350.0919
  0
ARC
  5
9E1D
330
9CDF
100
AcDbEntity
  8
1
  6
Continuous
100
AcDbCircle
 10
473.5973669999999
 20
262.4496119999998
 30
0.0
 40
2.778
100
AcDbArc
 50
327.8566
 51
350.0919
  0
ARC
  5
9E1E
330
9CDF
100
AcDbEntity
  8
1
  6
Continuous
100
AcDbCircle
 10
469.6613929999998
 20
262.4496119999998
 30
0.0
 40
2.778
100
AcDbArc
 50
327.8566
 51
350.0919
  0
ARC
  5
9E1F
330
9CDF
100
AcDbEntity
  8
1
  6
Continuous
100
AcDbCircle
 10
464.708153
 20
262.4496119999998
 30
0.0
 40
2.778
100
AcDbArc
 50
327.8566
 51
350.0919
  0
ARC
  5
9E20
330
9CDF
100
AcDbEntity
  8
1
  6
Continuous
100
AcDbCircle
 10
477.0202489999999
 20
262.4496119999998
 30
0.0
 40
2.778
100
AcDbArc
 50
327.85663
 51
350.0919
  0
ARC
  5
9E21
330
9CDF
100
AcDbEntity
  8
1
  6
Continuous
100
AcDbCircle
 10
453.7323230000001
 20
262.4496119999998
 30
0.0
 40
2.778
100
AcDbArc
 50
189.90807
 51
212.1434199999999
  0
ARC
  5
9E22
330
9CDF
100
AcDbEntity
  8
1
  6
Continuous
100
AcDbCircle
 10
464.708153
 20
262.4496119999998
 30
0.0
 40
2.778
100
AcDbArc
 50
189.9080099999999
 51
212.1434199999999
  0
ARC
  5
9E23
330
9CDF
100
AcDbEntity
  8
1
  6
Continuous
100
AcDbCircle
 10
459.2202379999998
 20
262.4496119999998
 30
0.0
 40
2.778
100
AcDbArc
 50
327.8566
 51
350.0919
  0
ARC
  5
9E24
330
9CDF
100
AcDbEntity
  8
1
  6
Continuous
100
AcDbCircle
 10
453.7323230000001
 20
262.4496119999998
 30
0.0
 40
2.778
100
AcDbArc
 50
327.8566
 51
350.0919599999999
  0
ARC
  5
9E25
330
9CDF
100
AcDbEntity
  8
1
  6
Continuous
100
AcDbCircle
 10
459.2202379999998
 20
262.4496119999998
 30
0.0
 40
2.778
100
AcDbArc
 50
189.90807
 51
212.1434199999999
  0
ARC
  5
9E26
330
9CDF
100
AcDbEntity
  8
1
  6
Continuous
100
AcDbCircle
 10
439.2202229999998
 20
255.971605
 30
0.0
 40
5.0
100
AcDbArc
 50
90.0
 51
180.0
  0
LINE
  5
9E27
330
9CDF
100
AcDbEntity
  8
1
  6
Continuous
100
AcDbLine
 10
434.2202229999998
 20
255.971605
 30
0.0
 11
434.2202229999998
 21
252.071608
 31
0.0
  0
LINE
  5
9E28
330
9CDF
100
AcDbEntity
  8
1
  6
Continuous
100
AcDbLine
 10
438.2447359999998
 20
252.071608
 30
0.0
 11
434.2202229999998
 21
252.071608
 31
0.0
  0
LINE
  5
9E29
330
9CDF
100
AcDbEntity
  8
1
  6
Continuous
100
AcDbLine
 10
431.720225
 20
266.5716269999999
 30
0.0
 11
433.662678
 21
263.4035169999999
 31
0.0
  0
ARC
  5
9E2A
330
9CDF
100
AcDbEntity
  8
1
  6
Continuous
100
AcDbCircle
 10
448.779084
 20
262.4496119999998
 30
0.0
 40
2.778
100
AcDbArc
 50
189.90807
 51
212.1434199999999
  0
ARC
  5
9E2B
330
9CDF
100
AcDbEntity
  8
1
  6
Continuous
100
AcDbCircle
 10
442.3078689999998
 20
262.4496119999998
 30
0.0
 40
2.778
100
AcDbArc
 50
189.90807
 51
212.1433699999999
  0
ARC
  5
9E2C
330
9CDF
100
AcDbEntity
  8
1
  6
Continuous
100
AcDbCircle
 10
444.8431099999998
 20
262.4496119999998
 30
0.0
 40
2.778
100
AcDbArc
 50
189.90807
 51
212.1433699999999
  0
ARC
  5
9E2D
330
9CDF
100
AcDbEntity
  8
1
  6
Continuous
100
AcDbCircle
 10
436.220223
 20
264.971607
 30
0.0
 40
3.0
100
AcDbArc
 50
211.5135599999999
 51
269.99998
  0
ARC
  5
9E2E
330
9CDF
100
AcDbEntity
  8
1
  6
Continuous
100
AcDbCircle
 10
441.420228
 20
262.4496119999998
 30
0.0
 40
2.778
100
AcDbArc
 50
189.90807
 51
212.1433699999999
  0
LINE
  5
9E2F
330
9CDF
100
AcDbEntity
  8
4
  6
CENTER
100
AcDbLine
 10
418.2202229999998
 20
273.871609
 30
0.0
 11
418.2202229999998
 21
261.571606
 31
0.0
  0
LINE
  5
9E30
330
9CDF
100
AcDbEntity
  8
1
  6
Continuous
100
AcDbLine
 10
409.2202379999998
 20
266.5715979999998
 30
0.0
 11
409.2202379999998
 21
268.8716089999999
 31
0.0
  0
LINE
  5
9E31
330
9CDF
100
AcDbEntity
  8
1
  6
Continuous
100
AcDbLine
 10
491.220223
 20
203.3716029999999
 30
0.0
 11
485.591062
 21
200.1216059999999
 31
0.0
  0
LINE
  5
9E32
330
9CDF
100
AcDbEntity
  8
1
  6
Continuous
100
AcDbLine
 10
485.591062
 20
200.1216059999999
 30
0.0
 11
485.591062
 21
193.621611
 31
0.0
  0
LINE
  5
9E33
330
9CDF
100
AcDbEntity
  8
1
  6
Continuous
100
AcDbLine
 10
485.591062
 20
193.621611
 30
0.0
 11
491.220223
 21
190.371614
 31
0.0
  0
LINE
  5
9E34
330
9CDF
100
AcDbEntity
  8
1
  6
Continuous
100
AcDbLine
 10
491.220223
 20
190.371614
 30
0.0
 11
496.8493829999999
 21
193.621611
 31
0.0
  0
LINE
  5
9E35
330
9CDF
100
AcDbEntity
  8
1
  6
Continuous
100
AcDbLine
 10
496.8493829999999
 20
193.621611
 30
0.0
 11
496.8493829999999
 21
200.1216059999999
 31
0.0
  0
LINE
  5
9E36
330
9CDF
100
AcDbEntity
  8
1
  6
Continuous
100
AcDbLine
 10
496.8493829999999
 20
200.1216059999999
 30
0.0
 11
491.220223
 21
203.3716029999999
 31
0.0
  0
LINE
  5
9E37
330
9CDF
100
AcDbEntity
  8
1
  6
Continuous
100
AcDbLine
 10
33.12023299999999
 20
192.871609
 30
0.0
 11
33.920233
 21
192.871609
 31
0.0
  0
LINE
  5
9E38
330
9CDF
100
AcDbEntity
  8
2
  6
Continuous
100
AcDbLine
 10
32.443733
 20
193.548109
 30
0.0
 11
33.920233
 21
193.548109
 31
0.0
  0
LINE
  5
9E39
330
9CDF
100
AcDbEntity
  8
1
  6
Continuous
100
AcDbLine
 10
33.12023299999999
 20
200.871609
 30
0.0
 11
33.920233
 21
200.871609
 31
0.0
  0
LINE
  5
9E3A
330
9CDF
100
AcDbEntity
  8
2
  6
Continuous
100
AcDbLine
 10
32.443733
 20
200.1951089999999
 30
0.0
 11
33.920233
 21
200.1951089999999
 31
0.0
  0
LINE
  5
9E3B
330
9CDF
100
AcDbEntity
  8
1
  6
Continuous
100
AcDbLine
 10
31.92023300000001
 20
194.071609
 30
0.0
 11
33.12023299999999
 21
192.871609
 31
0.0
  0
LINE
  5
9E3C
330
9CDF
100
AcDbEntity
  8
1
  6
Continuous
100
AcDbLine
 10
33.12023299999999
 20
192.871609
 30
0.0
 11
33.12023299999999
 21
200.871609
 31
0.0
  0
LINE
  5
9E3D
330
9CDF
100
AcDbEntity
  8
1
  6
Continuous
100
AcDbLine
 10
31.92023300000001
 20
199.6716089999999
 30
0.0
 11
33.12023299999999
 21
200.871609
 31
0.0
  0
LINE
  5
9E3E
330
9CDF
100
AcDbEntity
  8
1
  6
Continuous
100
AcDbLine
 10
31.92023300000001
 20
194.071609
 30
0.0
 11
31.92023300000001
 21
199.6716089999999
 31
0.0
  0
LINE
  5
9E3F
330
9CDF
100
AcDbEntity
  8
1
  6
Continuous
100
AcDbLine
 10
184.220223
 20
49.771619
 30
0.0
 11
184.220223
 21
50.571619
 31
0.0
  0
LINE
  5
9E40
330
9CDF
100
AcDbEntity
  8
2
  6
Continuous
100
AcDbLine
 10
183.543723
 20
49.095119
 30
0.0
 11
183.543723
 21
50.571619
 31
0.0
  0
LINE
  5
9E41
330
9CDF
100
AcDbEntity
  8
1
  6
Continuous
100
AcDbLine
 10
176.2202229999997
 20
49.771619
 30
0.0
 11
176.2202229999997
 21
50.571619
 31
0.0
  0
LINE
  5
9E42
330
9CDF
100
AcDbEntity
  8
2
  6
Continuous
100
AcDbLine
 10
176.896723
 20
49.095119
 30
0.0
 11
176.896723
 21
50.571619
 31
0.0
  0
LINE
  5
9E43
330
9CDF
100
AcDbEntity
  8
1
  6
Continuous
100
AcDbLine
 10
183.0202229999999
 20
48.571619
 30
0.0
 11
184.220223
 21
49.771619
 31
0.0
  0
LINE
  5
9E44
330
9CDF
100
AcDbEntity
  8
1
  6
Continuous
100
AcDbLine
 10
184.220223
 20
49.771619
 30
0.0
 11
176.2202229999997
 21
49.771619
 31
0.0
  0
LINE
  5
9E45
330
9CDF
100
AcDbEntity
  8
1
  6
Continuous
100
AcDbLine
 10
177.420223
 20
48.571619
 30
0.0
 11
176.2202229999997
 21
49.771619
 31
0.0
  0
LINE
  5
9E46
330
9CDF
100
AcDbEntity
  8
1
  6
Continuous
100
AcDbLine
 10
183.0202229999999
 20
48.571619
 30
0.0
 11
177.420223
 21
48.571619
 31
0.0
  0
LINE
  5
9E47
330
9CDF
100
AcDbEntity
  8
1
  6
Continuous
100
AcDbLine
 10
359.4197899999999
 20
200.8716249999999
 30
0.0
 11
359.4197899999999
 21
192.8716249999999
 31
0.0
  0
LINE
  5
9E48
330
9CDF
100
AcDbEntity
  8
1
  6
Continuous
100
AcDbLine
 10
360.6197899999998
 20
199.671625
 30
0.0
 11
359.4197899999999
 21
200.8716249999999
 31
0.0
  0
LINE
  5
9E49
330
9CDF
100
AcDbEntity
  8
1
  6
Continuous
100
AcDbLine
 10
360.6197899999998
 20
199.671625
 30
0.0
 11
360.6197899999998
 21
194.071625
 31
0.0
  0
LINE
  5
9E4A
330
9CDF
100
AcDbEntity
  8
1
  6
Continuous
100
AcDbLine
 10
360.6197899999998
 20
194.071625
 30
0.0
 11
359.4197899999999
 21
192.8716249999999
 31
0.0
  0
LINE
  5
9E4B
330
9CDF
100
AcDbEntity
  8
2
  6
Continuous
100
AcDbLine
 10
360.09629
 20
193.548125
 30
0.0
 11
358.6197899999998
 21
193.548125
 31
0.0
  0
LINE
  5
9E4C
330
9CDF
100
AcDbEntity
  8
1
  6
Continuous
100
AcDbLine
 10
359.4197899999999
 20
192.8716249999999
 30
0.0
 11
358.6197899999998
 21
192.8716249999999
 31
0.0
  0
LINE
  5
9E4D
330
9CDF
100
AcDbEntity
  8
2
  6
Continuous
100
AcDbLine
 10
360.09629
 20
200.1951249999999
 30
0.0
 11
358.6197899999998
 21
200.1951249999999
 31
0.0
  0
LINE
  5
9E4E
330
9CDF
100
AcDbEntity
  8
1
  6
Continuous
100
AcDbLine
 10
359.4197899999999
 20
200.8716249999999
 30
0.0
 11
358.6197899999998
 21
200.8716249999999
 31
0.0
  0
CIRCLE
  5
9E4F
330
9CDF
100
AcDbEntity
  8
1
  6
Continuous
100
AcDbCircle
 10
491.220223
 20
196.871609
 30
0.0
 40
2.799999999999998
  0
CIRCLE
  5
9E50
330
9CDF
100
AcDbEntity
  8
1
  6
Continuous
100
AcDbCircle
 10
491.220223
 20
196.871609
 30
0.0
 40
5.102012999999998
  0
ARC
  5
9E5E
330
9CDF
100
AcDbEntity
  8
1
  6
Continuous
100
AcDbCircle
 10
379.7375599999999
 20
231.823477
 30
0.0
 40
69.417761
100
AcDbArc
 50
164.295714
 51
205.1964439999999
  0
ARC
  5
9E5F
330
9CDF
100
AcDbEntity
  8
1
  6
Continuous
100
AcDbCircle
 10
290.902039
 20
231.823477
 30
0.0
 40
69.417761
100
AcDbArc
 50
334.8035469999998
 51
15.70428599999999
  0
LINE
  5
9E60
330
9CDF
100
AcDbEntity
  8
1
  6
Continuous
100
AcDbLine
 10
316.531317
 20
203.1216249999999
 30
0.0
 11
315.819808
 21
203.1216249999999
 31
0.0
  0
ARC
  5
9E61
330
9CDF
100
AcDbEntity
  8
1
  6
Continuous
100
AcDbCircle
 10
290.902039
 20
231.823477
 30
0.0
 40
67.117761
100
AcDbArc
 50
334.8035659999998
 51
17.55857599999999
  0
ARC
  5
9E62
330
9CDF
100
AcDbEntity
  8
1
  6
Continuous
100
AcDbCircle
 10
379.7375599999999
 20
231.823477
 30
0.0
 40
67.117761
100
AcDbArc
 50
162.441424
 51
205.196434
  0
ARC
  5
9E63
330
9CDF
100
AcDbEntity
  8
1
  6
Continuous
100
AcDbCircle
 10
335.3197999999999
 20
379.6020149999998
 30
0.0
 40
128.4999999999998
100
AcDbArc
 50
263.34847
 51
276.6515
  0
ARC
  5
9E64
330
9CDF
100
AcDbEntity
  8
1
  6
Continuous
100
AcDbCircle
 10
320.3197999999998
 20
250.973676
 30
0.0
 40
1.0
100
AcDbArc
 50
83.348539
 51
179.9999599999999
  0
ARC
  5
9E65
330
9CDF
100
AcDbEntity
  8
1
  6
Continuous
100
AcDbCircle
 10
350.3197999999999
 20
250.973676
 30
0.0
 40
1.0
100
AcDbArc
 50
0.00004
 51
96.65146100000001
  0
LINE
  5
9E66
330
9CDF
100
AcDbEntity
  8
1
  6
Continuous
100
AcDbLine
 10
314.8364029999999
 20
252.071608
 30
0.0
 11
355.803196
 21
252.071608
 31
0.0
  0
ARC
  5
9E67
330
9CDF
100
AcDbEntity
  8
1
  6
Continuous
100
AcDbCircle
 10
355.803196
 20
250.071608
 30
0.0
 40
2.0
100
AcDbArc
 50
15.70428599999999
 51
90.0
  0
ARC
  5
9E68
330
9CDF
100
AcDbEntity
  8
1
  6
Continuous
100
AcDbCircle
 10
314.8364029999999
 20
250.071608
 30
0.0
 40
2.0
100
AcDbArc
 50
90.0
 51
164.295714
  0
ARC
  5
9E69
330
9CDF
100
AcDbEntity
  8
1
  6
Continuous
100
AcDbCircle
 10
193.680799
 20
96.17160400000001
 30
0.0
 40
4.0
100
AcDbArc
 50
270.0
 51
309.738932
  0
ARC
  5
9E6A
330
9CDF
100
AcDbEntity
  8
1
  6
Continuous
100
AcDbCircle
 10
193.6808049999999
 20
96.17160900000001
 30
0.0
 40
6.299999999999998
100
AcDbArc
 50
270.0
 51
309.738916
  0
ARC
  5
9E6B
330
9CDF
100
AcDbEntity
  8
1
  6
Continuous
100
AcDbCircle
 10
193.6808049999999
 20
51.571609
 30
0.0
 40
6.299999999999998
100
AcDbArc
 50
50.261084
 51
90.0
  0
ARC
  5
9E6C
330
9CDF
100
AcDbEntity
  8
1
  6
Continuous
100
AcDbCircle
 10
193.680793
 20
51.571619
 30
0.0
 40
4.0
100
AcDbArc
 50
50.26105300000001
 51
90.0
  0
ARC
  5
9E6D
330
9CDF
100
AcDbEntity
  8
1
  6
Continuous
100
AcDbCircle
 10
316.0198049999999
 20
201.845008
 30
0.0
 40
1.0
100
AcDbArc
 50
0.0
 51
25.196444
  0
ARC
  5
9E6E
330
9CDF
100
AcDbEntity
  8
1
  6
Continuous
100
AcDbCircle
 10
316.0197999999998
 20
201.8450179999999
 30
0.0
 40
3.299999999999998
100
AcDbArc
 50
0.0
 51
25.196434
  0
ARC
  5
9E6F
330
9CDF
100
AcDbEntity
  8
1
  6
Continuous
100
AcDbCircle
 10
354.6197899999999
 20
201.844997
 30
0.0
 40
1.0
100
AcDbArc
 50
154.803547
 51
180.0
  0
ARC
  5
9E70
330
9CDF
100
AcDbEntity
  8
1
  6
Continuous
100
AcDbCircle
 10
354.6197999999998
 20
201.8450179999999
 30
0.0
 40
3.299999999999998
100
AcDbArc
 50
154.803566
 51
180.0
  0
LINE
  5
9E71
330
9CDF
100
AcDbEntity
  8
1
  6
Continuous
100
AcDbLine
 10
188.7077219999999
 20
188.507251
 30
0.0
 11
213.8450089999998
 21
173.994232
 31
0.0
  0
LINE
  5
9E72
330
9CDF
100
AcDbEntity
  8
1
  6
Continuous
100
AcDbLine
 10
191.7077219999999
 20
193.703403
 30
0.0
 11
216.8450089999998
 21
179.1903859999999
 31
0.0
  0
LINE
  5
9E73
330
9CDF
100
AcDbEntity
  8
1
  6
Continuous
100
AcDbLine
 10
196.1915129999999
 20
202.6285319999999
 30
0.0
 11
216.8450089999998
 21
214.5528319999999
 31
0.0
  0
LINE
  5
9E74
330
9CDF
100
AcDbEntity
  8
1
  6
Continuous
100
AcDbLine
 10
202.1166959999999
 20
212.977641
 30
0.0
 11
213.8450089999998
 21
219.7489859999997
 31
0.0
  0
ARC
  5
9E75
330
9CDF
100
AcDbEntity
  8
1
  6
Continuous
100
AcDbCircle
 10
180.2202229999998
 20
196.871609
 30
0.0
 40
44.0
100
AcDbArc
 50
98.390366
 51
45.73003299999998
  0
ARC
  5
9E76
330
9CDF
100
AcDbEntity
  8
1
  6
Continuous
100
AcDbCircle
 10
180.2202229999998
 20
196.871609
 30
0.0
 40
50.0
100
AcDbArc
 50
96.62188700000001
 51
47.498512
  0
LINE
  5
9E77
330
9CDF
100
AcDbEntity
  8
1
  6
Continuous
100
AcDbLine
 10
143.595446
 20
214.5528319999999
 30
0.0
 11
168.7327349999999
 21
200.039812
 31
0.0
  0
LINE
  5
9E78
330
9CDF
100
AcDbEntity
  8
1
  6
Continuous
100
AcDbLine
 10
132.336365
 20
329.3716089999998
 30
0.0
 11
163.8294209999999
 21
329.3716089999998
 31
0.0
  0
LINE
  5
9E79
330
9CDF
100
AcDbEntity
  8
1
  6
Continuous
100
AcDbLine
 10
132.336365
 20
354.3716089999999
 30
0.0
 11
163.8294209999999
 21
354.3716089999999
 31
0.0
  0
LINE
  5
9E7A
330
9CDF
100
AcDbEntity
  8
1
  6
Continuous
100
AcDbLine
 10
143.595446
 20
179.1903859999999
 30
0.0
 11
168.7327349999999
 21
193.703405
 31
0.0
  0
ARC
  5
9E7B
330
9CDF
100
AcDbEntity
  8
1
  6
Continuous
100
AcDbCircle
 10
142.0954439999998
 20
181.7884629999998
 30
0.0
 40
3.0
100
AcDbArc
 50
201.58502
 51
299.9999899999999
  0
LINE
  5
9E7C
330
9CDF
100
AcDbEntity
  8
1
  6
Continuous
100
AcDbLine
 10
177.2202229999997
 20
185.3390469999999
 30
0.0
 11
177.2202229999997
 21
156.313008
 31
0.0
  0
LINE
  5
9E7D
330
9CDF
100
AcDbEntity
  8
1
  6
Continuous
100
AcDbLine
 10
183.220223
 20
185.3390469999999
 30
0.0
 11
183.220223
 21
156.313008
 31
0.0
  0
ARC
  5
9E7E
330
9CDF
100
AcDbEntity
  8
1
  6
Continuous
100
AcDbCircle
 10
174.220223
 20
156.313008
 30
0.0
 40
3.0
100
AcDbArc
 50
261.58499
 51
0.0
  0
ARC
  5
9E7F
330
9CDF
100
AcDbEntity
  8
1
  6
Continuous
100
AcDbCircle
 10
186.220223
 20
156.313008
 30
0.0
 40
3.0
100
AcDbArc
 50
179.9999799999999
 51
278.4149799999999
  0
ARC
  5
9E80
330
9CDF
100
AcDbEntity
  8
1
  6
Continuous
100
AcDbCircle
 10
174.220223
 20
185.3390469999999
 30
0.0
 40
3.0
100
AcDbArc
 50
0.0
 51
19.46448
  0
LINE
  5
9E81
330
9CDF
100
AcDbEntity
  8
1
  6
Continuous
100
AcDbLine
 10
146.595446
 20
173.994232
 30
0.0
 11
171.7327349999998
 21
188.507253
 31
0.0
  0
ARC
  5
9E82
330
9CDF
100
AcDbEntity
  8
1
  6
Continuous
100
AcDbCircle
 10
148.0954439999998
 20
171.3961569999999
 30
0.0
 40
3.0
100
AcDbArc
 50
119.9999999999999
 51
218.4149399999999
  0
LINE
  5
9E83
330
9CDF
100
AcDbEntity
  8
1
  6
Continuous
100
AcDbLine
 10
165.4725
 20
190.6664089999999
 30
0.0
 11
169.8527259999998
 21
193.1953329999998
 31
0.0
  0
LINE
  5
9E84
330
9CDF
100
AcDbEntity
  8
1
  6
Continuous
100
AcDbLine
 10
167.4725
 20
187.202306
 30
0.0
 11
171.8527269999999
 21
189.73123
 31
0.0
  0
ARC
  5
9E85
330
9CDF
100
AcDbEntity
  8
1
  6
Continuous
100
AcDbCircle
 10
167.232731
 20
197.4417359999999
 30
0.0
 40
3.0
100
AcDbArc
 50
42.747026
 51
60.000002
  0
ARC
  5
9E86
330
9CDF
100
AcDbEntity
  8
1
  6
Continuous
100
AcDbCircle
 10
167.232731
 20
196.3014809999999
 30
0.0
 40
3.0
100
AcDbArc
 50
300.0
 51
319.4644829999998
  0
ARC
  5
9E87
330
9CDF
100
AcDbEntity
  8
1
  6
Continuous
100
AcDbCircle
 10
173.232731
 20
185.909176
 30
0.0
 40
3.0
100
AcDbArc
 50
100.535521
 51
119.9999999999999
  0
ARC
  5
9E88
330
9CDF
100
AcDbEntity
  8
1
  6
Continuous
100
AcDbCircle
 10
180.2202229999998
 20
196.871609
 30
0.0
 40
16.0
100
AcDbArc
 50
202.8192199999999
 51
217.1807299999999
  0
LINE
  5
9E89
330
9CDF
100
AcDbEntity
  8
1
  6
Continuous
100
AcDbLine
 10
190.740287
 20
193.1072509999999
 30
0.0
 11
194.967957
 21
190.666405
 31
0.0
  0
LINE
  5
9E8A
330
9CDF
100
AcDbEntity
  8
1
  6
Continuous
100
AcDbLine
 10
188.5877209999999
 20
189.731232
 30
0.0
 11
192.967957
 21
187.202302
 31
0.0
  0
ARC
  5
9E8B
330
9CDF
100
AcDbEntity
  8
1
  6
Continuous
100
AcDbCircle
 10
186.220223
 20
185.3390469999999
 30
0.0
 40
3.0
100
AcDbArc
 50
160.5355199999999
 51
179.9999599999999
  0
ARC
  5
9E8C
330
9CDF
100
AcDbEntity
  8
1
  6
Continuous
100
AcDbCircle
 10
187.2077149999999
 20
185.909175
 30
0.0
 40
3.0
100
AcDbArc
 50
60.00000799999997
 51
79.46449599999998
  0
ARC
  5
9E8D
330
9CDF
100
AcDbEntity
  8
1
  6
Continuous
100
AcDbCircle
 10
193.2077149999997
 20
196.30148
 30
0.0
 40
3.0
100
AcDbArc
 50
229.5614609999999
 51
239.99995
  0
ARC
  5
9E8E
330
9CDF
100
AcDbEntity
  8
1
  6
Continuous
100
AcDbCircle
 10
180.2202229999998
 20
196.871609
 30
0.0
 40
16.0
100
AcDbArc
 50
322.8192399999998
 51
337.18076
  0
ARC
  5
9E8F
330
9CDF
100
AcDbEntity
  8
1
  6
Continuous
100
AcDbCircle
 10
230.220223
 20
341.8716089999998
 30
0.0
 40
100.0
100
AcDbArc
 50
173.588108
 51
186.4119109999999
  0
ARC
  5
9E90
330
9CDF
100
AcDbEntity
  8
1
  6
Continuous
100
AcDbCircle
 10
132.336365
 20
330.8716089999998
 30
0.0
 40
1.5
100
AcDbArc
 50
186.4118969999998
 51
270.00002
  0
ARC
  5
9E91
330
9CDF
100
AcDbEntity
  8
1
  6
Continuous
100
AcDbCircle
 10
132.336365
 20
352.8716089999999
 30
0.0
 40
1.5
100
AcDbArc
 50
90.0
 51
173.588121
  0
ARC
  5
9E92
330
9CDF
100
AcDbEntity
  8
1
  6
Continuous
100
AcDbCircle
 10
142.0954439999998
 20
211.9547549999999
 30
0.0
 40
3.0
100
AcDbArc
 50
60.00000799999997
 51
158.41498
  0
LINE
  5
9E93
330
9CDF
100
AcDbEntity
  8
1
  6
Continuous
100
AcDbLine
 10
146.595446
 20
219.7489859999997
 30
0.0
 11
170.1474499999999
 21
206.151229
 31
0.0
  0
ARC
  5
9E94
330
9CDF
100
AcDbEntity
  8
1
  6
Continuous
100
AcDbCircle
 10
148.0954439999998
 20
222.347061
 30
0.0
 40
3.0
100
AcDbArc
 50
141.5850399999999
 51
239.99998
  0
ARC
  5
9E95
330
9CDF
100
AcDbEntity
  8
1
  6
Continuous
100
AcDbCircle
 10
218.3450019999999
 20
181.788462
 30
0.0
 40
3.0
100
AcDbArc
 50
239.99997
 51
338.41497
  0
ARC
  5
9E96
330
9CDF
100
AcDbEntity
  8
1
  6
Continuous
100
AcDbCircle
 10
212.3450019999999
 20
171.3961569999999
 30
0.0
 40
3.0
100
AcDbArc
 50
321.5849999999998
 51
60.000015
  0
ARC
  5
9E97
330
9CDF
100
AcDbEntity
  8
1
  6
Continuous
100
AcDbCircle
 10
212.3450019999999
 20
222.347061
 30
0.0
 40
3.0
100
AcDbArc
 50
299.9999799999999
 51
38.41499499999999
  0
ARC
  5
9E98
330
9CDF
100
AcDbEntity
  8
1
  6
Continuous
100
AcDbCircle
 10
218.3450019999999
 20
211.9547559999999
 30
0.0
 40
3.0
100
AcDbArc
 50
21.585028
 51
120.00003
  0
LINE
  5
9E99
330
9CDF
100
AcDbEntity
  8
1
  6
Continuous
100
AcDbLine
 10
69.720223
 20
244.7554669999999
 30
0.0
 11
69.720223
 21
148.987751
 31
0.0
  0
LINE
  5
9E9A
330
9CDF
100
AcDbEntity
  8
1
  6
Continuous
100
AcDbLine
 10
44.72022299999999
 20
244.7554669999999
 30
0.0
 11
44.72022299999999
 21
148.987751
 31
0.0
  0
ARC
  5
9E9B
330
9CDF
100
AcDbEntity
  8
1
  6
Continuous
100
AcDbCircle
 10
57.22022299999999
 20
246.871609
 30
0.0
 40
100.0
100
AcDbArc
 50
263.5880899999999
 51
276.4118899999999
  0
ARC
  5
9E9C
330
9CDF
100
AcDbEntity
  8
1
  6
Continuous
100
AcDbCircle
 10
46.220223
 20
148.987751
 30
0.0
 40
1.5
100
AcDbArc
 50
179.9999799999999
 51
263.5880899999999
  0
ARC
  5
9E9D
330
9CDF
100
AcDbEntity
  8
1
  6
Continuous
100
AcDbCircle
 10
68.220223
 20
148.987751
 30
0.0
 40
1.5
100
AcDbArc
 50
276.4118799999998
 51
0.0
  0
LINE
  5
9E9E
330
9CDF
100
AcDbEntity
  8
1
  6
Continuous
100
AcDbLine
 10
72.220223
 20
205.8716089999998
 30
0.0
 11
72.220223
 21
187.871609
 31
0.0
  0
LINE
  5
9E9F
330
9CDF
100
AcDbEntity
  8
1
  6
Continuous
100
AcDbLine
 10
42.22022299999999
 20
205.8716089999998
 30
0.0
 11
42.22022299999999
 21
187.871609
 31
0.0
  0
ARC
  5
9EA0
330
9CDF
100
AcDbEntity
  8
1
  6
Continuous
100
AcDbCircle
 10
43.22022299999999
 20
187.871609
 30
0.0
 40
1.0
100
AcDbArc
 50
179.9999799999999
 51
265.74649
  0
LINE
  5
9EA1
330
9CDF
100
AcDbEntity
  8
1
  6
Continuous
100
AcDbLine
 10
43.14605
 20
186.874362
 30
0.0
 11
44.720231
 21
186.7572849999999
 31
0.0
  0
LINE
  5
9EA2
330
9CDF
100
AcDbEntity
  8
1
  6
Continuous
100
AcDbLine
 10
71.29439599999997
 20
186.8743629999999
 30
0.0
 11
69.720223
 21
186.7572859999999
 31
0.0
  0
ARC
  5
9EA3
330
9CDF
100
AcDbEntity
  8
1
  6
Continuous
100
AcDbCircle
 10
71.22022300000002
 20
187.871609
 30
0.0
 40
1.0
100
AcDbArc
 50
274.2534799999999
 51
0.0
  0
ARC
  5
9EA4
330
9CDF
100
AcDbEntity
  8
1
  6
Continuous
100
AcDbCircle
 10
43.22022299999999
 20
205.8716089999998
 30
0.0
 40
1.0
100
AcDbArc
 50
94.25350299999999
 51
180.00002
  0
LINE
  5
9EA5
330
9CDF
100
AcDbEntity
  8
1
  6
Continuous
100
AcDbLine
 10
43.14605
 20
206.868855
 30
0.0
 11
44.720231
 21
206.9859329999999
 31
0.0
  0
LINE
  5
9EA6
330
9CDF
100
AcDbEntity
  8
1
  6
Continuous
100
AcDbLine
 10
71.29439599999997
 20
206.868855
 30
0.0
 11
69.720223
 21
206.9859319999999
 31
0.0
  0
ARC
  5
9EA7
330
9CDF
100
AcDbEntity
  8
1
  6
Continuous
100
AcDbCircle
 10
71.22022300000002
 20
205.8716089999998
 30
0.0
 40
1.0
100
AcDbArc
 50
0.0
 51
85.74651600000001
  0
ARC
  5
9EA8
330
9CDF
100
AcDbEntity
  8
1
  6
Continuous
100
AcDbCircle
 10
57.22022299999999
 20
146.871609
 30
0.0
 40
100.0
100
AcDbArc
 50
83.58810799999998
 51
96.411911
  0
ARC
  5
9EA9
330
9CDF
100
AcDbEntity
  8
1
  6
Continuous
100
AcDbCircle
 10
46.220223
 20
244.7554669999999
 30
0.0
 40
1.5
100
AcDbArc
 50
96.41189699999999
 51
180.00002
  0
ARC
  5
9EAA
330
9CDF
100
AcDbEntity
  8
1
  6
Continuous
100
AcDbCircle
 10
68.220223
 20
244.7554669999999
 30
0.0
 40
1.5
100
AcDbArc
 50
0.0
 51
83.58812099999999
  0
LINE
  5
9EAB
330
9CDF
100
AcDbEntity
  8
1
  6
Continuous
100
AcDbLine
 10
347.8197999999999
 20
244.755483
 30
0.0
 11
347.8197999999999
 21
148.987767
 31
0.0
  0
LINE
  5
9EAC
330
9CDF
100
AcDbEntity
  8
1
  6
Continuous
100
AcDbLine
 10
322.8197999999999
 20
244.755483
 30
0.0
 11
322.8197999999999
 21
148.987767
 31
0.0
  0
ARC
  5
9EAD
330
9CDF
100
AcDbEntity
  8
1
  6
Continuous
100
AcDbCircle
 10
335.3197999999999
 20
246.8716249999999
 30
0.0
 40
100.0
100
AcDbArc
 50
263.5880899999999
 51
276.4118899999999
  0
ARC
  5
9EAE
330
9CDF
100
AcDbEntity
  8
1
  6
Continuous
100
AcDbCircle
 10
324.3198
 20
148.987767
 30
0.0
 40
1.5
100
AcDbArc
 50
179.9999799999999
 51
263.5880899999999
  0
ARC
  5
9EAF
330
9CDF
100
AcDbEntity
  8
1
  6
Continuous
100
AcDbCircle
 10
346.3197999999999
 20
148.987767
 30
0.0
 40
1.5
100
AcDbArc
 50
276.4118799999998
 51
0.0
  0
LINE
  5
9EB0
330
9CDF
100
AcDbEntity
  8
1
  6
Continuous
100
AcDbLine
 10
320.3197999999998
 20
205.8716249999999
 30
0.0
 11
320.3197999999998
 21
187.871625
 31
0.0
  0
ARC
  5
9EB1
330
9CDF
100
AcDbEntity
  8
1
  6
Continuous
100
AcDbCircle
 10
321.3197999999998
 20
187.871625
 30
0.0
 40
1.0
100
AcDbArc
 50
179.9999799999999
 51
265.74649
  0
LINE
  5
9EB2
330
9CDF
100
AcDbEntity
  8
1
  6
Continuous
100
AcDbLine
 10
321.245627
 20
186.874379
 30
0.0
 11
322.819808
 21
186.757301
 31
0.0
  0
ARC
  5
9EB3
330
9CDF
100
AcDbEntity
  8
1
  6
Continuous
100
AcDbCircle
 10
321.3197999999998
 20
205.8716249999999
 30
0.0
 40
1.0
100
AcDbArc
 50
94.25350299999999
 51
180.00002
  0
LINE
  5
9EB4
330
9CDF
100
AcDbEntity
  8
1
  6
Continuous
100
AcDbLine
 10
321.245627
 20
206.8688719999999
 30
0.0
 11
322.819808
 21
206.985949
 31
0.0
  0
LINE
  5
9EB5
330
9CDF
100
AcDbEntity
  8
1
  6
Continuous
100
AcDbLine
 10
350.3197999999999
 20
205.8716249999999
 30
0.0
 11
350.3197999999999
 21
187.871625
 31
0.0
  0
LINE
  5
9EB6
330
9CDF
100
AcDbEntity
  8
1
  6
Continuous
100
AcDbLine
 10
349.393973
 20
186.87438
 30
0.0
 11
347.8197999999999
 21
186.757302
 31
0.0
  0
ARC
  5
9EB7
330
9CDF
100
AcDbEntity
  8
1
  6
Continuous
100
AcDbCircle
 10
349.3198
 20
187.871625
 30
0.0
 40
1.0
100
AcDbArc
 50
274.2534799999999
 51
0.0
  0
LINE
  5
9EB8
330
9CDF
100
AcDbEntity
  8
1
  6
Continuous
100
AcDbLine
 10
349.393973
 20
206.8688709999999
 30
0.0
 11
347.8197999999999
 21
206.985948
 31
0.0
  0
ARC
  5
9EB9
330
9CDF
100
AcDbEntity
  8
1
  6
Continuous
100
AcDbCircle
 10
349.3198
 20
205.8716249999999
 30
0.0
 40
1.0
100
AcDbArc
 50
0.0
 51
85.74651600000001
  0
ARC
  5
9EBA
330
9CDF
100
AcDbEntity
  8
1
  6
Continuous
100
AcDbCircle
 10
335.3197999999999
 20
146.8716249999999
 30
0.0
 40
100.0
100
AcDbArc
 50
83.58810799999998
 51
96.411911
  0
ARC
  5
9EBB
330
9CDF
100
AcDbEntity
  8
1
  6
Continuous
100
AcDbCircle
 10
324.3198
 20
244.755483
 30
0.0
 40
1.5
100
AcDbArc
 50
96.41189699999999
 51
180.00002
  0
ARC
  5
9EBC
330
9CDF
100
AcDbEntity
  8
1
  6
Continuous
100
AcDbCircle
 10
346.3197999999999
 20
244.755483
 30
0.0
 40
1.5
100
AcDbArc
 50
0.0
 51
83.58812099999999
  0
LINE
  5
9EBD
330
9CDF
100
AcDbEntity
  8
1
  6
Continuous
100
AcDbLine
 10
132.336365
 20
86.37160899999996
 30
0.0
 11
228.1040809999999
 21
86.37160899999996
 31
0.0
  0
LINE
  5
9EBE
330
9CDF
100
AcDbEntity
  8
1
  6
Continuous
100
AcDbLine
 10
132.336365
 20
61.371609
 30
0.0
 11
228.1040809999999
 21
61.371609
 31
0.0
  0
ARC
  5
9EBF
330
9CDF
100
AcDbEntity
  8
1
  6
Continuous
100
AcDbCircle
 10
230.220223
 20
73.87160899999997
 30
0.0
 40
100.0
100
AcDbArc
 50
173.588108
 51
186.4119109999999
  0
ARC
  5
9EC0
330
9CDF
100
AcDbEntity
  8
1
  6
Continuous
100
AcDbCircle
 10
132.336365
 20
62.87160899999999
 30
0.0
 40
1.5
100
AcDbArc
 50
186.4118969999998
 51
270.00002
  0
LINE
  5
9EC1
330
9CDF
100
AcDbEntity
  8
1
  6
Continuous
100
AcDbLine
 10
171.220223
 20
58.871609
 30
0.0
 11
189.220223
 21
58.871609
 31
0.0
  0
ARC
  5
9EC2
330
9CDF
100
AcDbEntity
  8
1
  6
Continuous
100
AcDbCircle
 10
171.220223
 20
59.871609
 30
0.0
 40
1.0
100
AcDbArc
 50
184.253503
 51
270.00002
  0
LINE
  5
9EC3
330
9CDF
100
AcDbEntity
  8
1
  6
Continuous
100
AcDbLine
 10
170.2229759999999
 20
59.79743599999999
 30
0.0
 11
170.1058989999999
 21
61.371617
 31
0.0
  0
ARC
  5
9EC4
330
9CDF
100
AcDbEntity
  8
1
  6
Continuous
100
AcDbCircle
 10
189.220223
 20
59.871609
 30
0.0
 40
1.0
100
AcDbArc
 50
269.99998
 51
355.7464899999998
  0
LINE
  5
9EC5
330
9CDF
100
AcDbEntity
  8
1
  6
Continuous
100
AcDbLine
 10
190.2174699999999
 20
59.79743599999999
 30
0.0
 11
190.3345469999999
 21
61.371617
 31
0.0
  0
ARC
  5
9EC6
330
9CDF
100
AcDbEntity
  8
1
  6
Continuous
100
AcDbCircle
 10
132.336365
 20
84.87160899999997
 30
0.0
 40
1.5
100
AcDbArc
 50
90.0
 51
173.588121
  0
LINE
  5
9EC7
330
9CDF
100
AcDbEntity
  8
1
  6
Continuous
100
AcDbLine
 10
171.220223
 20
88.87160899999996
 30
0.0
 11
189.220223
 21
88.87160899999996
 31
0.0
  0
LINE
  5
9EC8
330
9CDF
100
AcDbEntity
  8
1
  6
Continuous
100
AcDbLine
 10
170.2229769999999
 20
87.94578199999998
 30
0.0
 11
170.1058999999998
 21
86.37160899999996
 31
0.0
  0
ARC
  5
9EC9
330
9CDF
100
AcDbEntity
  8
1
  6
Continuous
100
AcDbCircle
 10
171.220223
 20
87.87160899999998
 30
0.0
 40
1.0
100
AcDbArc
 50
90.0
 51
175.7465159999999
  0
LINE
  5
9ECA
330
9CDF
100
AcDbEntity
  8
1
  6
Continuous
100
AcDbLine
 10
190.217469
 20
87.94578199999998
 30
0.0
 11
190.3345459999999
 21
86.37160899999996
 31
0.0
  0
ARC
  5
9ECB
330
9CDF
100
AcDbEntity
  8
1
  6
Continuous
100
AcDbCircle
 10
189.220223
 20
87.87160899999998
 30
0.0
 40
1.0
100
AcDbArc
 50
4.253479999999997
 51
90.0
  0
ARC
  5
9ECC
330
9CDF
100
AcDbEntity
  8
1
  6
Continuous
100
AcDbCircle
 10
130.220223
 20
73.87160899999997
 30
0.0
 40
100.0
100
AcDbArc
 50
353.5880899999999
 51
6.411889999999998
  0
ARC
  5
9ECD
330
9CDF
100
AcDbEntity
  8
1
  6
Continuous
100
AcDbCircle
 10
228.1040809999999
 20
62.87160899999999
 30
0.0
 40
1.5
100
AcDbArc
 50
269.99998
 51
353.5880899999999
  0
ARC
  5
9ECE
330
9CDF
100
AcDbEntity
  8
1
  6
Continuous
100
AcDbCircle
 10
228.1040809999999
 20
84.87160899999997
 30
0.0
 40
1.5
100
AcDbArc
 50
6.41188
 51
90.0
  0
ARC
  5
9ECF
330
9CDF
100
AcDbEntity
  8
1
  6
Continuous
100
AcDbCircle
 10
491.220223
 20
196.871609
 30
0.0
 40
50.0
100
AcDbArc
 50
132.5014879999999
 51
83.378113
  0
ARC
  5
9ED0
330
9CDF
100
AcDbEntity
  8
1
  6
Continuous
100
AcDbCircle
 10
491.220223
 20
196.871609
 30
0.0
 40
44.0
100
AcDbArc
 50
134.2699669999997
 51
81.60963399999998
  0
LINE
  5
9ED1
330
9CDF
100
AcDbEntity
  8
1
  6
Continuous
100
AcDbLine
 10
498.8853769999998
 20
188.982032
 30
0.0
 11
524.845009
 21
173.994232
 31
0.0
  0
ARC
  5
9ED2
330
9CDF
100
AcDbEntity
  8
1
  6
Continuous
100
AcDbCircle
 10
523.3450019999998
 20
171.3961569999999
 30
0.0
 40
3.0
100
AcDbArc
 50
321.5849999999998
 51
60.000015
  0
LINE
  5
9ED3
330
9CDF
100
AcDbEntity
  8
1
  6
Continuous
100
AcDbLine
 10
501.8853749999998
 20
194.178185
 30
0.0
 11
527.8450089999998
 21
179.1903859999999
 31
0.0
  0
ARC
  5
9ED4
330
9CDF
100
AcDbEntity
  8
1
  6
Continuous
100
AcDbCircle
 10
529.3450019999998
 20
181.788462
 30
0.0
 40
3.0
100
AcDbArc
 50
239.99997
 51
338.41497
  0
LINE
  5
9ED5
330
9CDF
100
AcDbEntity
  8
1
  6
Continuous
100
AcDbLine
 10
501.9889839999998
 20
199.624851
 30
0.0
 11
527.8450089999998
 21
214.5528319999999
 31
0.0
  0
ARC
  5
9ED6
330
9CDF
100
AcDbEntity
  8
1
  6
Continuous
100
AcDbCircle
 10
529.3450019999998
 20
211.9547559999999
 30
0.0
 40
3.0
100
AcDbArc
 50
21.585028
 51
120.00003
  0
ARC
  5
9ED7
330
9CDF
100
AcDbEntity
  8
1
  6
Continuous
100
AcDbCircle
 10
459.0954439999999
 20
222.347061
 30
0.0
 40
3.0
100
AcDbArc
 50
141.5850399999999
 51
239.99998
  0
LINE
  5
9ED8
330
9CDF
100
AcDbEntity
  8
1
  6
Continuous
100
AcDbLine
 10
457.595446
 20
219.7489859999997
 30
0.0
 11
469.3237459999998
 21
212.977649
 31
0.0
  0
LINE
  5
9ED9
330
9CDF
100
AcDbEntity
  8
1
  6
Continuous
100
AcDbLine
 10
454.5954459999999
 20
214.5528319999999
 30
0.0
 11
475.2489289999998
 21
202.6285389999999
 31
0.0
  0
ARC
  5
9EDA
330
9CDF
100
AcDbEntity
  8
1
  6
Continuous
100
AcDbCircle
 10
453.095444
 20
211.9547549999999
 30
0.0
 40
3.0
100
AcDbArc
 50
60.00000799999997
 51
158.41498
  0
LINE
  5
9EDB
330
9CDF
100
AcDbEntity
  8
1
  6
Continuous
100
AcDbLine
 10
457.595446
 20
173.994232
 30
0.0
 11
483.5550719999998
 21
188.982029
 31
0.0
  0
ARC
  5
9EDC
330
9CDF
100
AcDbEntity
  8
1
  6
Continuous
100
AcDbCircle
 10
459.0954439999999
 20
171.3961569999999
 30
0.0
 40
3.0
100
AcDbArc
 50
119.9999999999999
 51
218.4149399999999
  0
LINE
  5
9EDD
330
9CDF
100
AcDbEntity
  8
1
  6
Continuous
100
AcDbLine
 10
454.5954459999999
 20
179.1903859999999
 30
0.0
 11
480.2032969999998
 21
193.975084
 31
0.0
  0
ARC
  5
9EDE
330
9CDF
100
AcDbEntity
  8
1
  6
Continuous
100
AcDbCircle
 10
453.095444
 20
181.7884629999998
 30
0.0
 40
3.0
100
AcDbArc
 50
201.58502
 51
299.9999899999999
  0
LINE
  5
9EDF
330
9CDF
100
AcDbEntity
  8
1
  6
Continuous
100
AcDbLine
 10
494.2202229999998
 20
185.3390469999999
 30
0.0
 11
494.2202229999998
 21
156.313008
 31
0.0
  0
ARC
  5
9EE0
330
9CDF
100
AcDbEntity
  8
1
  6
Continuous
100
AcDbCircle
 10
497.2202229999998
 20
156.313008
 30
0.0
 40
3.0
100
AcDbArc
 50
179.9999799999999
 51
278.4149799999999
  0
LINE
  5
9EE1
330
9CDF
100
AcDbEntity
  8
1
  6
Continuous
100
AcDbLine
 10
488.2202229999998
 20
185.3390469999999
 30
0.0
 11
488.2202229999998
 21
156.313008
 31
0.0
  0
LINE
  5
9EE2
330
9CDF
100
AcDbEntity
  8
1
  6
Continuous
100
AcDbLine
 10
501.292996
 20
206.151225
 30
0.0
 11
524.845009
 21
219.7489859999997
 31
0.0
  0
LINE
  5
9EE3
330
9CDF
100
AcDbEntity
  8
1
  6
Continuous
100
AcDbLine
 10
499.5877209999998
 20
189.731232
 30
0.0
 11
503.967957
 21
187.202302
 31
0.0
  0
LINE
  5
9EE4
330
9CDF
100
AcDbEntity
  8
1
  6
Continuous
100
AcDbLine
 10
501.587721
 20
193.195335
 30
0.0
 11
505.967957
 21
190.666405
 31
0.0
  0
ARC
  5
9EE5
330
9CDF
100
AcDbEntity
  8
1
  6
Continuous
100
AcDbCircle
 10
491.220223
 20
196.871609
 30
0.0
 40
16.0
100
AcDbArc
 50
322.8192399999998
 51
337.18076
  0
LINE
  5
9EE6
330
9CDF
100
AcDbEntity
  8
1
  6
Continuous
100
AcDbLine
 10
476.4725
 20
190.6664089999999
 30
0.0
 11
480.7001589999998
 21
193.107249
 31
0.0
  0
LINE
  5
9EE7
330
9CDF
100
AcDbEntity
  8
1
  6
Continuous
100
AcDbLine
 10
478.4725
 20
187.202306
 30
0.0
 11
482.8527269999998
 21
189.73123
 31
0.0
  0
ARC
  5
9EE8
330
9CDF
100
AcDbEntity
  8
1
  6
Continuous
100
AcDbCircle
 10
491.220223
 20
196.871609
 30
0.0
 40
16.0
100
AcDbArc
 50
202.8192199999999
 51
217.1807299999999
  0
ARC
  5
9EE9
330
9CDF
100
AcDbEntity
  8
1
  6
Continuous
100
AcDbCircle
 10
523.3450019999998
 20
222.347061
 30
0.0
 40
3.0
100
AcDbArc
 50
299.9999799999999
 51
38.41499499999999
  0
ARC
  5
9EEA
330
9CDF
100
AcDbEntity
  8
1
  6
Continuous
100
AcDbCircle
 10
485.2202229999998
 20
156.313008
 30
0.0
 40
3.0
100
AcDbArc
 50
261.5850200000001
 51
0.00002
  0
ENDSEC
  0
SECTION
  2
OBJECTS
  0
DICTIONARY
  5
9CCD
330
0
100
AcDbDictionary
281
     1
  3
ACAD_CIP_PREVIOUS_PRODUCT_INFO
350
9F67
  3
ACAD_COLOR
350
9F49
  3
ACAD_DETAILVIEWSTYLE
350
9F62
  3
ACAD_GROUP
350
9CCE
  3
ACAD_LAYOUT
350
9CDA
  3
ACAD_MATERIAL
350
9F17
  3
ACAD_MLEADERSTYLE
350
9F5E
  3
ACAD_MLINESTYLE
350
9CD7
  3
ACAD_PLOTSETTINGS
350
9CD9
  3
ACAD_PLOTSTYLENAME
350
9F15
  3
ACAD_SCALELIST
350
9F4C
  3
ACAD_SECTIONVIEWSTYLE
350
9F60
  3
ACAD_TABLESTYLE
350
9F4A
  3
ACAD_VISUALSTYLE
350
9F30
  3
ACDB_RECOMPOSE_DATA
350
9F85
  3
AcDbVariableDictionary
350
9F78
  3
DWGPROPS
350
9F86
  0
DICTIONARY
  5
9F68
330
9CD1
100
AcDbDictionary
280
     1
281
     1
  3
ADSK_XREC_LAYER_RECONCILED
360
9F69
  0
DICTIONARY
  5
9F6A
330
9CE7
100
AcDbDictionary
280
     1
281
     1
  3
ADSK_XREC_LAYER_RECONCILED
360
9F6B
  0
DICTIONARY
  5
9F6C
330
9CE8
100
AcDbDictionary
280
     1
281
     1
  3
ADSK_XREC_LAYER_RECONCILED
360
9F6D
  0
DICTIONARY
  5
9F6E
330
9CE9
100
AcDbDictionary
280
     1
281
     1
  3
ADSK_XREC_LAYER_RECONCILED
360
9F6F
  0
DICTIONARY
  5
9F70
330
9CEA
100
AcDbDictionary
280
     1
281
     1
  3
ADSK_XREC_LAYER_RECONCILED
360
9F71
  0
DICTIONARY
  5
9F72
330
9CEB
100
AcDbDictionary
280
     1
281
     1
  3
ADSK_XREC_LAYER_RECONCILED
360
9F73
  0
DICTIONARY
  5
9F74
330
9CEC
100
AcDbDictionary
280
     1
281
     1
  3
ADSK_XREC_LAYER_RECONCILED
360
9F75
  0
DICTIONARY
  5
9F76
330
9CED
100
AcDbDictionary
280
     1
281
     1
  3
ADSK_XREC_LAYER_RECONCILED
360
9F77
  0
DICTIONARY
  5
9EF5
330
9CDF
100
AcDbDictionary
281
     1
  3
ACAD_LAYOUTSELFREF
350
9F11
  0
DICTIONARY
  5
9EF3
330
9CDB
100
AcDbDictionary
281
     1
  3
ACAD_LAYOUTSELFREF
350
9F10
  0
XRECORD
  5
9F67
102
{ACAD_REACTORS
330
9CCD
102
}
330
9CCD
100
AcDbXrecord
280
     1
300
ACDLT
300
2014
300
ACDLT_F_S
  0
DICTIONARY
  5
9F49
102
{ACAD_REACTORS
330
9CCD
102
}
330
9CCD
100
AcDbDictionary
281
     1
  0
DICTIONARY
  5
9F62
102
{ACAD_REACTORS
330
9CCD
102
}
330
9CCD
100
AcDbDictionary
281
     1
  3
Imperial24
350
9F63
  0
DICTIONARY
  5
9CCE
102
{ACAD_REACTORS
330
9CCD
102
}
330
9CCD
100
AcDbDictionary
281
     1
  0
DICTIONARY
  5
9CDA
102
{ACAD_REACTORS
330
9CCD
102
}
330
9CCD
100
AcDbDictionary
281
     1
  3
Model
350
9F64
  3
レイアウト1
350
9F65
  0
DICTIONARY
  5
9F17
102
{ACAD_REACTORS
330
9CCD
102
}
330
9CCD
100
AcDbDictionary
281
     1
  3
ByBlock
350
9F20
  3
ByLayer
350
9F18
  3
Global
350
9F28
  0
DICTIONARY
  5
9F5E
102
{ACAD_REACTORS
330
9CCD
102
}
330
9CCD
100
AcDbDictionary
281
     1
  3
Standard
350
9F5F
  0
DICTIONARY
  5
9CD7
102
{ACAD_REACTORS
330
9CCD
102
}
330
9CCD
100
AcDbDictionary
281
     1
  3
STANDARD
350
9CD8
  0
DICTIONARY
  5
9CD9
102
{ACAD_REACTORS
330
9CCD
102
}
330
9CCD
100
AcDbDictionary
281
     1
  0
ACDBDICTIONARYWDFLT
  5
9F15
102
{ACAD_REACTORS
330
9CCD
102
}
330
9CCD
100
AcDbDictionary
281
     1
  3
Normal
350
9F16
100
AcDbDictionaryWithDefault
340
9F16
  0
DICTIONARY
  5
9F4C
102
{ACAD_REACTORS
330
9CCD
102
}
330
9CCD
100
AcDbDictionary
281
     1
  3
A0
350
9F4D
  3
A1
350
9F4E
  3
A2
350
9F4F
  3
A3
350
9F50
  3
A4
350
9F51
  3
A5
350
9F52
  3
A6
350
9F53
  3
A7
350
9F54
  3
A8
350
9F55
  3
A9
350
9F56
  3
B0
350
9F57
  3
B1
350
9F58
  3
B2
350
9F59
  3
B3
350
9F5A
  3
B4
350
9F5B
  3
B5
350
9F5C
  3
B6
350
9F5D
  0
DICTIONARY
  5
9F60
102
{ACAD_REACTORS
330
9CCD
102
}
330
9CCD
100
AcDbDictionary
281
     1
  3
Imperial24
350
9F61
  0
DICTIONARY
  5
9F4A
102
{ACAD_REACTORS
330
9CCD
102
}
330
9CCD
100
AcDbDictionary
281
     1
  3
Standard
350
9F4B
  0
DICTIONARY
  5
9F30
102
{ACAD_REACTORS
330
9CCD
102
}
330
9CCD
100
AcDbDictionary
281
     1
  3
2dWireframe
350
9F36
  3
Basic
350
9F35
  3
Brighten
350
9F3C
  3
ColorChange
350
9F40
  3
Conceptual
350
9F39
  3
Dim
350
9F3B
  3
EdgeColorOff
350
9F48
  3
Facepattern
350
9F3F
  3
Flat
350
9F31
  3
FlatWithEdges
350
9F32
  3
Gouraud
350
9F33
  3
GouraudWithEdges
350
9F34
  3
Hidden
350
9F38
  3
JitterOff
350
9F46
  3
Linepattern
350
9F3E
  3
OverhangOff
350
9F47
  3
Realistic
350
9F3A
  3
Shaded
350
9F45
  3
Shaded with edges
350
9F44
  3
Shades of Gray
350
9F41
  3
Sketchy
350
9F42
  3
Thicken
350
9F3D
  3
Wireframe
350
9F37
  3
X-Ray
350
9F43
  0
XRECORD
  5
9F85
102
{ACAD_REACTORS
330
9CCD
102
}
330
9CCD
100
AcDbXrecord
280
     1
 90
        1
330
9F4B
  0
DICTIONARY
  5
9F78
102
{ACAD_REACTORS
330
9CCD
102
}
330
9CCD
100
AcDbDictionary
281
     1
  3
CANNOSCALE
350
9F7D
  3
CMLEADERSTYLE
350
9F7A
  3
CTABLESTYLE
350
9F79
  3
CVIEWDETAILSTYLE
350
9F7B
  3
CVIEWSECTIONSTYLE
350
9F7C
  3
DIMASSOC
350
9F80
  3
INDEXCTL
350
9F7F
  3
SORTENTS
350
9F7E
  3
XCLIPFRAME
350
9F81
  0
XRECORD
  5
9F86
102
{ACAD_REACTORS
330
9CCD
102
}
330
9CCD
100
AcDbXrecord
280
     1
  1
DWGPROPS COOKIE
  2

  3

  4

  6

  7

  8
Yoshitsune
  9

300
=
301
=
302
=
303
=
304
=
305
=
306
=
307
=
308
=
309
=
 40
0.1576618518518519
 41
2451301.439674074
 42
2457192.690249965
  1

 90
        0
  0
XRECORD
  5
9F69
102
{ACAD_REACTORS
330
9F68
102
}
330
9F68
100
AcDbXrecord
280
     1
290
     1
  0
XRECORD
  5
9F6B
102
{ACAD_REACTORS
330
9F6A
102
}
330
9F6A
100
AcDbXrecord
280
     1
290
     1
  0
XRECORD
  5
9F6D
102
{ACAD_REACTORS
330
9F6C
102
}
330
9F6C
100
AcDbXrecord
280
     1
290
     1
  0
XRECORD
  5
9F6F
102
{ACAD_REACTORS
330
9F6E
102
}
330
9F6E
100
AcDbXrecord
280
     1
290
     1
  0
XRECORD
  5
9F71
102
{ACAD_REACTORS
330
9F70
102
}
330
9F70
100
AcDbXrecord
280
     1
290
     1
  0
XRECORD
  5
9F73
102
{ACAD_REACTORS
330
9F72
102
}
330
9F72
100
AcDbXrecord
280
     1
290
     1
  0
XRECORD
  5
9F75
102
{ACAD_REACTORS
330
9F74
102
}
330
9F74
100
AcDbXrecord
280
     1
290
     1
  0
XRECORD
  5
9F77
102
{ACAD_REACTORS
330
9F76
102
}
330
9F76
100
AcDbXrecord
280
     1
290
     1
  0
XRECORD
  5
9F11
102
{ACAD_REACTORS
330
9EF5
102
}
330
9EF5
100
AcDbXrecord
280
     1
340
9CDF
  0
XRECORD
  5
9F10
102
{ACAD_REACTORS
330
9EF3
102
}
330
9EF3
100
AcDbXrecord
280
     1
340
9CDB
  0
ACDBDETAILVIEWSTYLE
  5
9F63
102
{ACAD_XDICTIONARY
360
9FBE
102
}
102
{ACAD_REACTORS
330
9F62
102
}
330
9F62
100
AcDbModelDocViewStyle
 70
     0
  3
Imperial24
290
     0
100
AcDbDetailViewStyle
 70
     0
 71
     0
 90
        3
 71
     1
340
9CD2
 40
0.24
340
0
 40
0.24
300

 40
0.36
280
     3
 71
     2
340
9CD6
 90
       25
 71
     3
340
9CD2
 40
0.24
 90
        1
 40
0.75
 90
        1
300
%<\AcVar ViewType \f "%tc1">% %<\AcVar ViewDetailId>%\PSCALE %<\AcVar ViewScale \f "%sn">%
 71
     4
340
9CD6
 90
       25
340
9CD6
 90
       25
280
     0
  0
LAYOUT
  5
9F64
102
{ACAD_XDICTIONARY
360
9FC0
102
}
102
{ACAD_REACTORS
330
9CDA
102
}
330
9CDA
100
AcDbPlotSettings
  1

  2
Canon LBP9100C
  4

  6

 40
0.0
 41
0.0
 42
0.0
 43
0.0
 44
0.0
 45
0.0
 46
0.0
 47
0.0
 48
0.0
 49
0.0
140
0.0
141
0.0
142
1.0
143
1.0
 70
  1712
 72
     0
 73
     0
 74
     0
  7

 75
     0
147
1.0
148
0.0
149
0.0
100
AcDbLayout
  1
Model
 70
     1
 71
     0
 10
0.0
 20
0.0
 11
12.0
 21
9.0
 12
0.0
 22
0.0
 32
0.0
 14
0.0
 24
0.0
 34
0.0
 15
0.0
 25
0.0
 35
0.0
146
0.0
 13
0.0
 23
0.0
 33
0.0
 16
1.0
 26
0.0
 36
0.0
 17
0.0
 27
1.0
 37
0.0
 76
     0
330
9CDF
331
9F0F
  0
LAYOUT
  5
9F65
102
{ACAD_XDICTIONARY
360
9FC2
102
}
102
{ACAD_REACTORS
330
9CDA
102
}
330
9CDA
100
AcDbPlotSettings
  1

  2
Canon LBP9100C
  4

  6

 40
0.0
 41
0.0
 42
0.0
 43
0.0
 44
0.0
 45
0.0
 46
0.0
 47
0.0
 48
0.0
 49
0.0
140
0.0
141
0.0
142
1.0
143
1.0
 70
   688
 72
     0
 73
     0
 74
     5
  7

 75
    16
147
1.0
148
0.0
149
0.0
100
AcDbLayout
  1
レイアウト1
 70
     0
 71
     1
 10
0.0
 20
0.0
 11
420.0
 21
297.0
 12
0.0
 22
0.0
 32
0.0
 14
1.000000000000000E+20
 24
1.000000000000000E+20
 34
1.000000000000000E+20
 15
-1.000000000000000E+20
 25
-1.000000000000000E+20
 35
-1.000000000000000E+20
146
0.0
 13
0.0
 23
0.0
 33
0.0
 16
1.0
 26
0.0
 36
0.0
 17
0.0
 27
1.0
 37
0.0
 76
     0
330
9CDB
  0
MATERIAL
  5
9F20
102
{ACAD_XDICTIONARY
360
9F21
102
}
102
{ACAD_REACTORS
330
9F17
102
}
330
9F17
100
AcDbMaterial
  1
ByBlock
 72
     0
 43
0.0208333333333333
 43
0.0
 43
0.0
 43
0.0
 43
0.0
 43
0.0208333333333333
 43
0.0
 43
0.0
 43
0.0
 43
0.0
 43
1.0
 43
0.0
 43
0.0
 43
0.0
 43
0.0
 43
1.0
 77
     0
 47
0.0208333333333333
 47
0.0
 47
0.0
 47
0.0
 47
0.0
 47
0.0208333333333333
 47
0.0
 47
0.0
 47
0.0
 47
0.0
 47
1.0
 47
0.0
 47
0.0
 47
0.0
 47
0.0
 47
1.0
171
     0
 49
0.0208333333333333
 49
0.0
 49
0.0
 49
0.0
 49
0.0
 49
0.0208333333333333
 49
0.0
 49
0.0
 49
0.0
 49
0.0
 49
1.0
 49
0.0
 49
0.0
 49
0.0
 49
0.0
 49
1.0
175
     0
142
0.0208333333333333
142
0.0
142
0.0
142
0.0
142
0.0
142
0.0208333333333333
142
0.0
142
0.0
142
0.0
142
0.0
142
1.0
142
0.0
142
0.0
142
0.0
142
0.0
142
1.0
179
     0
144
0.0208333333333333
144
0.0
144
0.0
144
0.0
144
0.0
144
0.0208333333333333
144
0.0
144
0.0
144
0.0
144
0.0
144
1.0
144
0.0
144
0.0
144
0.0
144
0.0
144
1.0
147
0.0208333333333333
147
0.0
147
0.0
147
0.0
147
0.0
147
0.0208333333333333
147
0.0
147
0.0
147
0.0
147
0.0
147
1.0
147
0.0
147
0.0
147
0.0
147
0.0
147
1.0
  0
MATERIAL
  5
9F18
102
{ACAD_XDICTIONARY
360
9F19
102
}
102
{ACAD_REACTORS
330
9F17
102
}
330
9F17
100
AcDbMaterial
  1
ByLayer
 72
     0
 43
0.0208333333333333
 43
0.0
 43
0.0
 43
0.0
 43
0.0
 43
0.0208333333333333
 43
0.0
 43
0.0
 43
0.0
 43
0.0
 43
1.0
 43
0.0
 43
0.0
 43
0.0
 43
0.0
 43
1.0
 77
     0
 47
0.0208333333333333
 47
0.0
 47
0.0
 47
0.0
 47
0.0
 47
0.0208333333333333
 47
0.0
 47
0.0
 47
0.0
 47
0.0
 47
1.0
 47
0.0
 47
0.0
 47
0.0
 47
0.0
 47
1.0
171
     0
 49
0.0208333333333333
 49
0.0
 49
0.0
 49
0.0
 49
0.0
 49
0.0208333333333333
 49
0.0
 49
0.0
 49
0.0
 49
0.0
 49
1.0
 49
0.0
 49
0.0
 49
0.0
 49
0.0
 49
1.0
175
     0
142
0.0208333333333333
142
0.0
142
0.0
142
0.0
142
0.0
142
0.0208333333333333
142
0.0
142
0.0
142
0.0
142
0.0
142
1.0
142
0.0
142
0.0
142
0.0
142
0.0
142
1.0
179
     0
144
0.0208333333333333
144
0.0
144
0.0
144
0.0
144
0.0
144
0.0208333333333333
144
0.0
144
0.0
144
0.0
144
0.0
144
1.0
144
0.0
144
0.0
144
0.0
144
0.0
144
1.0
147
0.0208333333333333
147
0.0
147
0.0
147
0.0
147
0.0
147
0.0208333333333333
147
0.0
147
0.0
147
0.0
147
0.0
147
1.0
147
0.0
147
0.0
147
0.0
147
0.0
147
1.0
  0
MATERIAL
  5
9F28
102
{ACAD_XDICTIONARY
360
9F29
102
}
102
{ACAD_REACTORS
330
9F17
102
}
330
9F17
100
AcDbMaterial
  1
Global
 72
     0
 43
0.0208333333333333
 43
0.0
 43
0.0
 43
0.0
 43
0.0
 43
0.0208333333333333
 43
0.0
 43
0.0
 43
0.0
 43
0.0
 43
1.0
 43
0.0
 43
0.0
 43
0.0
 43
0.0
 43
1.0
 77
     0
 47
0.0208333333333333
 47
0.0
 47
0.0
 47
0.0
 47
0.0
 47
0.0208333333333333
 47
0.0
 47
0.0
 47
0.0
 47
0.0
 47
1.0
 47
0.0
 47
0.0
 47
0.0
 47
0.0
 47
1.0
171
     0
 49
0.0208333333333333
 49
0.0
 49
0.0
 49
0.0
 49
0.0
 49
0.0208333333333333
 49
0.0
 49
0.0
 49
0.0
 49
0.0
 49
1.0
 49
0.0
 49
0.0
 49
0.0
 49
0.0
 49
1.0
175
     0
142
0.0208333333333333
142
0.0
142
0.0
142
0.0
142
0.0
142
0.0208333333333333
142
0.0
142
0.0
142
0.0
142
0.0
142
1.0
142
0.0
142
0.0
142
0.0
142
0.0
142
1.0
179
     0
144
0.0208333333333333
144
0.0
144
0.0
144
0.0
144
0.0
144
0.0208333333333333
144
0.0
144
0.0
144
0.0
144
0.0
144
1.0
144
0.0
144
0.0
144
0.0
144
0.0
144
1.0
147
0.0208333333333333
147
0.0
147
0.0
147
0.0
147
0.0
147
0.0208333333333333
147
0.0
147
0.0
147
0.0
147
0.0
147
1.0
147
0.0
147
0.0
147
0.0
147
0.0
147
1.0
  0
MLEADERSTYLE
  5
9F5F
102
{ACAD_REACTORS
330
9F5E
102
}
330
9F5E
100
AcDbMLeaderStyle
170
     2
171
     1
172
     0
 90
        2
 40
0.0
 41
0.0
173
     1
 91
-1056964608
340
9CD4
 92
       -2
290
     1
 42
0.09
291
     1
 43
0.36
  3
Standard
 44
0.18
300

342
9CD2
174
     1
178
     6
175
     1
176
     0
 93
-1056964608
 45
0.18
292
     0
297
     0
 46
0.18
 94
-1056964608
 47
1.0
 49
1.0
140
1.0
293
     1
141
0.0
294
     1
177
     0
142
1.0
295
     0
296
     0
143
0.125
1001
ACAD_MLEADERVER
1070
     2
  0
MLINESTYLE
  5
9CD8
102
{ACAD_REACTORS
330
9CD7
102
}
330
9CD7
100
AcDbMlineStyle
  2
STANDARD
 70
     0
  3

 62
   256
 51
90.0
 52
90.0
 71
     2
 49
0.5
 62
   256
  6
BYLAYER
 49
-0.5
 62
   256
  6
BYLAYER
  0
ACDBPLACEHOLDER
  5
9F16
102
{ACAD_REACTORS
330
9F15
102
}
330
9F15
  0
SCALE
  5
9F4D
102
{ACAD_REACTORS
330
9F4C
102
}
330
9F4C
100
AcDbScale
 70
     0
300
1:1
140
1.0
141
1.0
290
     1
  0
SCALE
  5
9F4E
102
{ACAD_REACTORS
330
9F4C
102
}
330
9F4C
100
AcDbScale
 70
     0
300
1/128" = 1'-0"
140
0.0078125
141
12.0
290
     0
  0
SCALE
  5
9F4F
102
{ACAD_REACTORS
330
9F4C
102
}
330
9F4C
100
AcDbScale
 70
     0
300
1/64" = 1'-0"
140
0.015625
141
12.0
290
     0
  0
SCALE
  5
9F50
102
{ACAD_REACTORS
330
9F4C
102
}
330
9F4C
100
AcDbScale
 70
     0
300
1/32" = 1'-0"
140
0.03125
141
12.0
290
     0
  0
SCALE
  5
9F51
102
{ACAD_REACTORS
330
9F4C
102
}
330
9F4C
100
AcDbScale
 70
     0
300
1/16" = 1'-0"
140
0.0625
141
12.0
290
     0
  0
SCALE
  5
9F52
102
{ACAD_REACTORS
330
9F4C
102
}
330
9F4C
100
AcDbScale
 70
     0
300
3/32" = 1'-0"
140
0.09375
141
12.0
290
     0
  0
SCALE
  5
9F53
102
{ACAD_REACTORS
330
9F4C
102
}
330
9F4C
100
AcDbScale
 70
     0
300
1/8" = 1'-0"
140
0.125
141
12.0
290
     0
  0
SCALE
  5
9F54
102
{ACAD_REACTORS
330
9F4C
102
}
330
9F4C
100
AcDbScale
 70
     0
300
3/16" = 1'-0"
140
0.1875
141
12.0
290
     0
  0
SCALE
  5
9F55
102
{ACAD_REACTORS
330
9F4C
102
}
330
9F4C
100
AcDbScale
 70
     0
300
1/4" = 1'-0"
140
0.25
141
12.0
290
     0
  0
SCALE
  5
9F56
102
{ACAD_REACTORS
330
9F4C
102
}
330
9F4C
100
AcDbScale
 70
     0
300
3/8" = 1'-0"
140
0.375
141
12.0
290
     0
  0
SCALE
  5
9F57
102
{ACAD_REACTORS
330
9F4C
102
}
330
9F4C
100
AcDbScale
 70
     0
300
1/2" = 1'-0"
140
0.5
141
12.0
290
     0
  0
SCALE
  5
9F58
102
{ACAD_REACTORS
330
9F4C
102
}
330
9F4C
100
AcDbScale
 70
     0
300
3/4" = 1'-0"
140
0.75
141
12.0
290
     0
  0
SCALE
  5
9F59
102
{ACAD_REACTORS
330
9F4C
102
}
330
9F4C
100
AcDbScale
 70
     0
300
1" = 1'-0"
140
1.0
141
12.0
290
     0
  0
SCALE
  5
9F5A
102
{ACAD_REACTORS
330
9F4C
102
}
330
9F4C
100
AcDbScale
 70
     0
300
1-1/2" = 1'-0"
140
1.5
141
12.0
290
     0
  0
SCALE
  5
9F5B
102
{ACAD_REACTORS
330
9F4C
102
}
330
9F4C
100
AcDbScale
 70
     0
300
3" = 1'-0"
140
3.0
141
12.0
290
     0
  0
SCALE
  5
9F5C
102
{ACAD_REACTORS
330
9F4C
102
}
330
9F4C
100
AcDbScale
 70
     0
300
6" = 1'-0"
140
6.0
141
12.0
290
     0
  0
SCALE
  5
9F5D
102
{ACAD_REACTORS
330
9F4C
102
}
330
9F4C
100
AcDbScale
 70
     0
300
1'-0" = 1'-0"
140
12.0
141
12.0
290
     0
  0
ACDBSECTIONVIEWSTYLE
  5
9F61
102
{ACAD_XDICTIONARY
360
9FBC
102
}
102
{ACAD_REACTORS
330
9F60
102
}
330
9F60
100
AcDbModelDocViewStyle
 70
     0
  3
Imperial24
290
     0
100
AcDbSectionViewStyle
 70
     0
 71
     0
 90
       78
 71
     1
340
9CD2
 40
0.24
340
0
340
0
 40
0.24
300
I, O, Q, S, X, Z
 40
0.48
 90
        3
 40
0.18
 90
        1
 71
     2
340
9CD6
 90
       25
340
9CD6
 90
       50
 40
0.24
 40
0.0
 40
0.24
 71
     3
340
9CD2
 40
0.24
 90
        1
 40
0.75
 90
        1
300
%<\AcVar ViewType \f "%tc1">% %<\AcVar ViewSectionStartId>%-%<\AcVar ViewSectionEndId>%\PSCALE %<\AcVar ViewScale \f "%sn">%
 71
     4
300
ANSI31
 40
1.0
 90
        0
290
     0
290
     0
 90
        6
 40
0.0
 40
1.570796326794896
 40
0.2617993877991494
 40
1.308996938995747
 40
-0.2617993877991494
 40
1.832595714594046
  0
TABLESTYLE
  5
9F4B
102
{ACAD_XDICTIONARY
360
9F83
102
}
102
{ACAD_REACTORS
330
9F4A
102
}
330
9F4A
100
AcDbTableStyle
  3
Standard
 70
     0
 71
     0
 40
0.06
 41
0.06
280
     0
281
     0
  7
STANDARD
140
0.18
170
     2
 62
     0
 63
     7
283
     0
274
    -2
284
     1
 64
     0
275
    -2
285
     1
 65
     0
276
    -2
286
     1
 66
     0
277
    -2
287
     1
 67
     0
278
    -2
288
     1
 68
     0
279
    -2
289
     1
 69
     0
  7
STANDARD
140
0.25
170
     5
 62
     0
 63
     7
283
     0
274
    -2
284
     1
 64
     0
275
    -2
285
     1
 65
     0
276
    -2
286
     1
 66
     0
277
    -2
287
     1
 67
     0
278
    -2
288
     1
 68
     0
279
    -2
289
     1
 69
     0
  7
STANDARD
140
0.18
170
     5
 62
     0
 63
     7
283
     0
274
    -2
284
     1
 64
     0
275
    -2
285
     1
 65
     0
276
    -2
286
     1
 66
     0
277
    -2
287
     1
 67
     0
278
    -2
288
     1
 68
     0
279
    -2
289
     1
 69
     0
  0
VISUALSTYLE
  5
9F36
102
{ACAD_XDICTIONARY
360
9F94
102
}
102
{ACAD_REACTORS
330
9F30
102
}
330
9F30
100
AcDbVisualStyle
  2
2dWireframe
 70
     4
 71
     0
 72
     2
 73
     0
 90
        0
 40
-0.6
 41
-30.0
 62
     5
 63
     7
 74
     1
 91
        4
 64
     7
 65
   257
 75
     1
175
     1
 42
1.0
 92
        0
 66
   257
 43
1.0
 76
     1
 77
     6
 78
     2
 67
     7
 79
     5
170
     0
171
     0
290
     0
174
     0
 93
        1
 44
0.0
173
     0
291
     0
 45
0.0
1001
ACAD
1000
AcDbSavedByObjectVersion
1070
     0
  0
VISUALSTYLE
  5
9F35
102
{ACAD_XDICTIONARY
360
9F92
102
}
102
{ACAD_REACTORS
330
9F30
102
}
330
9F30
100
AcDbVisualStyle
  2
Basic
 70
     7
 71
     1
 72
     0
 73
     1
 90
        0
 40
-0.6
 41
-30.0
 62
     5
 63
     7
 74
     0
 91
        4
 64
     7
 65
   257
 75
     1
175
     1
 42
1.0
 92
        8
 66
     7
 43
1.0
 76
     1
 77
     6
 78
     2
 67
     7
 79
     5
170
     0
171
     0
290
     0
174
     0
 93
        1
 44
0.0
173
     0
291
     1
 45
0.0
1001
ACAD
1000
AcDbSavedByObjectVersion
1070
     0
  0
VISUALSTYLE
  5
9F3C
102
{ACAD_XDICTIONARY
360
9FA0
102
}
102
{ACAD_REACTORS
330
9F30
102
}
330
9F30
100
AcDbVisualStyle
  2
Brighten
 70
    12
 71
     2
 72
     2
 73
     0
 90
        0
 40
-0.6
 41
-30.0
 62
     5
 63
     7
 74
     1
 91
        4
 64
     7
 65
   257
 75
     1
175
     1
 42
1.0
 92
        8
 66
     7
 43
1.0
 76
     1
 77
     6
 78
     2
 67
     7
 79
     5
170
     0
171
     0
290
     0
174
     0
 93
        1
 44
50.0
173
     0
291
     1
 45
0.0
1001
ACAD
1000
AcDbSavedByObjectVersion
1070
     0
  0
VISUALSTYLE
  5
9F40
102
{ACAD_XDICTIONARY
360
9FA8
102
}
102
{ACAD_REACTORS
330
9F30
102
}
330
9F30
100
AcDbVisualStyle
  2
ColorChange
 70
    16
 71
     2
 72
     2
 73
     3
 90
        0
 40
-0.6
 41
-30.0
 62
     5
 63
     8
 74
     1
 91
        4
 64
     7
 65
   257
 75
     1
175
     1
 42
1.0
 92
        8
 66
     8
 43
1.0
 76
     1
 77
     6
 78
     2
 67
     7
 79
     5
170
     0
171
     0
290
     0
174
     0
 93
        1
 44
0.0
173
     0
291
     1
 45
0.0
1001
ACAD
1000
AcDbSavedByObjectVersion
1070
     0
  0
VISUALSTYLE
  5
9F39
102
{ACAD_XDICTIONARY
360
9F9A
102
}
102
{ACAD_REACTORS
330
9F30
102
}
330
9F30
100
AcDbVisualStyle
  2
Conceptual
 70
     9
 71
     3
 72
     2
 73
     0
 90
        0
 40
-0.6
 41
-30.0
 62
     5
 63
     7
 74
     2
 91
        2
 64
     7
 65
   257
 75
     1
175
     1
 42
179.0
 92
        8
 66
     7
 43
1.0
 76
     1
 77
     6
 78
     2
 67
     7
 79
     3
170
     0
171
     0
290
     0
174
     0
 93
        1
 44
0.0
173
     0
291
     0
 45
0.0
1001
ACAD
1000
AcDbSavedByObjectVersion
1070
     0
  0
VISUALSTYLE
  5
9F3B
102
{ACAD_XDICTIONARY
360
9F9E
102
}
102
{ACAD_REACTORS
330
9F30
102
}
330
9F30
100
AcDbVisualStyle
  2
Dim
 70
    11
 71
     2
 72
     2
 73
     0
 90
        0
 40
-0.6
 41
-30.0
 62
     5
 63
     7
 74
     1
 91
        4
 64
     7
 65
   257
 75
     1
175
     1
 42
1.0
 92
        8
 66
     7
 43
1.0
 76
     1
 77
     6
 78
     2
 67
     7
 79
     5
170
     0
171
     0
290
     0
174
     0
 93
        1
 44
-50.0
173
     0
291
     1
 45
0.0
1001
ACAD
1000
AcDbSavedByObjectVersion
1070
     0
  0
VISUALSTYLE
  5
9F48
102
{ACAD_XDICTIONARY
360
9FB8
102
}
102
{ACAD_REACTORS
330
9F30
102
}
330
9F30
100
AcDbVisualStyle
  2
EdgeColorOff
 70
    22
 71
     2
 72
     2
 73
     0
 90
        0
 40
-0.6
 41
-30.0
 62
     5
 63
     7
 74
     1
 91
        4
 64
     7
 65
   257
 75
     1
175
     1
 42
1.0
 92
        8
 66
     7
 43
1.0
 76
     1
 77
     6
 78
     2
 67
     7
 79
     5
170
     0
171
     0
290
     0
174
     0
 93
        1
 44
0.0
173
     0
291
     1
 45
0.0
1001
ACAD
1000
AcDbSavedByObjectVersion
1070
     0
  0
VISUALSTYLE
  5
9F3F
102
{ACAD_XDICTIONARY
360
9FA6
102
}
102
{ACAD_REACTORS
330
9F30
102
}
330
9F30
100
AcDbVisualStyle
  2
Facepattern
 70
    15
 71
     2
 72
     2
 73
     0
 90
        0
 40
-0.6
 41
-30.0
 62
     5
 63
     7
 74
     1
 91
        4
 64
     7
 65
   257
 75
     1
175
     1
 42
1.0
 92
        8
 66
     7
 43
1.0
 76
     1
 77
     6
 78
     2
 67
     7
 79
     5
170
     0
171
     0
290
     0
174
     0
 93
        1
 44
0.0
173
     0
291
     1
 45
0.0
1001
ACAD
1000
AcDbSavedByObjectVersion
1070
     0
  0
VISUALSTYLE
  5
9F31
102
{ACAD_XDICTIONARY
360
9F8A
102
}
102
{ACAD_REACTORS
330
9F30
102
}
330
9F30
100
AcDbVisualStyle
  2
Flat
 70
     0
 71
     2
 72
     1
 73
     1
 90
        2
 40
-0.6
 41
30.0
 62
     5
 63
     7
 74
     0
 91
        0
 64
     7
 65
   257
 75
     1
175
     1
 42
1.0
 92
        8
 66
     7
 43
1.0
 76
     1
 77
     6
 78
     2
 67
     7
 79
     5
170
     0
171
     0
290
     0
174
     0
 93
       13
 44
0.0
173
     0
291
     1
 45
0.0
1001
ACAD
1000
AcDbSavedByObjectVersion
1070
     0
  0
VISUALSTYLE
  5
9F32
102
{ACAD_XDICTIONARY
360
9F8C
102
}
102
{ACAD_REACTORS
330
9F30
102
}
330
9F30
100
AcDbVisualStyle
  2
FlatWithEdges
 70
     1
 71
     2
 72
     1
 73
     1
 90
        2
 40
-0.6
 41
30.0
 62
     5
 63
     7
 74
     1
 91
        0
 64
     7
 65
   257
 75
     1
175
     1
 42
1.0
 92
        0
 66
   257
 43
1.0
 76
     1
 77
     6
 78
     2
 67
     7
 79
     5
170
     0
171
     0
290
     0
174
     0
 93
       13
 44
0.0
173
     0
291
     1
 45
0.0
1001
ACAD
1000
AcDbSavedByObjectVersion
1070
     0
  0
VISUALSTYLE
  5
9F33
102
{ACAD_XDICTIONARY
360
9F8E
102
}
102
{ACAD_REACTORS
330
9F30
102
}
330
9F30
100
AcDbVisualStyle
  2
Gouraud
 70
     2
 71
     2
 72
     2
 73
     1
 90
        2
 40
-0.6
 41
30.0
 62
     5
 63
     7
 74
     0
 91
        0
 64
     7
 65
   257
 75
     1
175
     1
 42
1.0
 92
        0
 66
     7
 43
1.0
 76
     1
 77
     6
 78
     2
 67
     7
 79
     5
170
     0
171
     0
290
     0
174
     0
 93
       13
 44
0.0
173
     0
291
     1
 45
0.0
1001
ACAD
1000
AcDbSavedByObjectVersion
1070
     0
  0
VISUALSTYLE
  5
9F34
102
{ACAD_XDICTIONARY
360
9F90
102
}
102
{ACAD_REACTORS
330
9F30
102
}
330
9F30
100
AcDbVisualStyle
  2
GouraudWithEdges
 70
     3
 71
     2
 72
     2
 73
     1
 90
        2
 40
-0.6
 41
30.0
 62
     5
 63
     7
 74
     1
 91
        0
 64
     7
 65
   257
 75
     1
175
     1
 42
1.0
 92
        0
 66
   257
 43
1.0
 76
     1
 77
     6
 78
     2
 67
     7
 79
     5
170
     0
171
     0
290
     0
174
     0
 93
       13
 44
0.0
173
     0
291
     1
 45
0.0
1001
ACAD
1000
AcDbSavedByObjectVersion
1070
     0
  0
VISUALSTYLE
  5
9F38
102
{ACAD_XDICTIONARY
360
9F98
102
}
102
{ACAD_REACTORS
330
9F30
102
}
330
9F30
100
AcDbVisualStyle
  2
Hidden
 70
     6
 71
     1
 72
     2
 73
     2
 90
        0
 40
-0.6
 41
-30.0
 62
     5
 63
     7
 74
     2
 91
        2
 64
     7
 65
   257
 75
     2
175
     1
 42
40.0
 92
        0
 66
   257
 43
1.0
 76
     1
 77
     6
 78
     2
 67
     7
 79
     3
170
     0
171
     0
290
     0
174
     0
 93
        1
 44
0.0
173
     0
291
     0
 45
0.0
1001
ACAD
1000
AcDbSavedByObjectVersion
1070
     0
  0
VISUALSTYLE
  5
9F46
102
{ACAD_XDICTIONARY
360
9FB4
102
}
102
{ACAD_REACTORS
330
9F30
102
}
330
9F30
100
AcDbVisualStyle
  2
JitterOff
 70
    20
 71
     2
 72
     2
 73
     0
 90
        0
 40
-0.6
 41
-30.0
 62
     5
 63
     7
 74
     1
 91
        4
 64
     7
 65
   257
 75
     1
175
     1
 42
1.0
 92
       10
 66
     7
 43
1.0
 76
     1
 77
     6
 78
     2
 67
     7
 79
     5
170
     0
171
     0
290
     0
174
     0
 93
        1
 44
0.0
173
     0
291
     1
 45
0.0
1001
ACAD
1000
AcDbSavedByObjectVersion
1070
     0
  0
VISUALSTYLE
  5
9F3E
102
{ACAD_XDICTIONARY
360
9FA4
102
}
102
{ACAD_REACTORS
330
9F30
102
}
330
9F30
100
AcDbVisualStyle
  2
Linepattern
 70
    14
 71
     2
 72
     2
 73
     0
 90
        0
 40
-0.6
 41
-30.0
 62
     5
 63
     7
 74
     1
 91
        4
 64
     7
 65
   257
 75
     7
175
     7
 42
1.0
 92
        8
 66
     7
 43
1.0
 76
     1
 77
     6
 78
     2
 67
     7
 79
     5
170
     0
171
     0
290
     0
174
     0
 93
        1
 44
0.0
173
     0
291
     1
 45
0.0
1001
ACAD
1000
AcDbSavedByObjectVersion
1070
     0
  0
VISUALSTYLE
  5
9F47
102
{ACAD_XDICTIONARY
360
9FB6
102
}
102
{ACAD_REACTORS
330
9F30
102
}
330
9F30
100
AcDbVisualStyle
  2
OverhangOff
 70
    21
 71
     2
 72
     2
 73
     0
 90
        0
 40
-0.6
 41
-30.0
 62
     5
 63
     7
 74
     1
 91
        4
 64
     7
 65
   257
 75
     1
175
     1
 42
1.0
 92
        9
 66
     7
 43
1.0
 76
     1
 77
     6
 78
     2
 67
     7
 79
     5
170
     0
171
     0
290
     0
174
     0
 93
        1
 44
0.0
173
     0
291
     1
 45
0.0
1001
ACAD
1000
AcDbSavedByObjectVersion
1070
     0
  0
VISUALSTYLE
  5
9F3A
102
{ACAD_XDICTIONARY
360
9F9C
102
}
102
{ACAD_REACTORS
330
9F30
102
}
330
9F30
100
AcDbVisualStyle
  2
Realistic
 70
     8
 71
     2
 72
     3
 73
     0
 90
        2
 40
-0.6
 41
30.0
 62
     5
 63
     7
 74
     0
 91
        0
 64
     7
 65
   257
 75
     1
175
     1
 42
1.0
 92
        8
 66
   257
 43
1.0
 76
     1
 77
     6
 78
     2
 67
     7
 79
     3
170
     0
171
     0
290
     0
174
     0
 93
       13
 44
0.0
173
     0
291
     0
 45
0.0
1001
ACAD
1000
AcDbSavedByObjectVersion
1070
     0
  0
VISUALSTYLE
  5
9F45
102
{ACAD_XDICTIONARY
360
9FB2
102
}
102
{ACAD_REACTORS
330
9F30
102
}
330
9F30
100
AcDbVisualStyle
  2
Shaded
 70
    27
 71
     2
 72
     2
 73
     1
 90
        2
 40
-0.6
 41
30.0
 62
     5
 63
     7
 74
     0
 91
        4
 64
     7
 65
   257
 75
     1
175
     1
 42
1.0
 92
        8
 66
   257
 43
1.0
 76
     1
 77
     6
 78
     2
 67
     8
 79
     3
170
     0
171
     0
290
     0
174
     0
 93
        5
 44
0.0
173
     0
291
     0
 45
0.0
1001
ACAD
1000
AcDbSavedByObjectVersion
1070
     0
  0
VISUALSTYLE
  5
9F44
102
{ACAD_XDICTIONARY
360
9FB0
102
}
102
{ACAD_REACTORS
330
9F30
102
}
330
9F30
100
AcDbVisualStyle
  2
Shaded with edges
 70
    26
 71
     2
 72
     2
 73
     1
 90
        2
 40
-0.6
 41
30.0
 62
     5
 63
     7
 74
     1
 91
       10
 64
     7
 65
   257
 75
     2
175
     1
 42
1.0
 92
        8
 66
   257
 43
1.0
 76
     1
 77
     6
 78
     2
 67
     7
 79
     3
170
     0
171
     0
290
     0
174
     0
 93
        5
 44
0.0
173
     0
291
     0
 45
0.0
1001
ACAD
1000
AcDbSavedByObjectVersion
1070
     0
  0
VISUALSTYLE
  5
9F41
102
{ACAD_XDICTIONARY
360
9FAA
102
}
102
{ACAD_REACTORS
330
9F30
102
}
330
9F30
100
AcDbVisualStyle
  2
Shades of Gray
 70
    23
 71
     2
 72
     2
 73
     3
 90
        0
 40
-0.6
 41
-30.0
 62
     5
 63
     7
 74
     2
 91
        2
 64
     7
 65
     7
 75
     1
175
     1
 42
40.0
 92
        8
 66
     7
 43
1.0
 76
     1
 77
     6
 78
     2
 67
     7
 79
     3
170
     0
171
     0
290
     0
174
     0
 93
        1
 44
0.0
173
     0
291
     0
 45
0.0
1001
ACAD
1000
AcDbSavedByObjectVersion
1070
     0
  0
VISUALSTYLE
  5
9F42
102
{ACAD_XDICTIONARY
360
9FAC
102
}
102
{ACAD_REACTORS
330
9F30
102
}
330
9F30
100
AcDbVisualStyle
  2
Sketchy
 70
    24
 71
     1
 72
     2
 73
     2
 90
        0
 40
-0.6
 41
-30.0
 62
     5
 63
     7
 74
     2
 91
        2
 64
     7
 65
     7
 75
     1
175
     1
 42
40.0
 92
       11
 66
     7
 43
1.0
 76
     1
 77
     6
 78
     2
 67
     7
 79
     6
170
     0
171
     0
290
     0
174
     0
 93
        1
 44
0.0
173
     0
291
     0
 45
0.0
1001
ACAD
1000
AcDbSavedByObjectVersion
1070
     0
  0
VISUALSTYLE
  5
9F3D
102
{ACAD_XDICTIONARY
360
9FA2
102
}
102
{ACAD_REACTORS
330
9F30
102
}
330
9F30
100
AcDbVisualStyle
  2
Thicken
 70
    13
 71
     2
 72
     2
 73
     0
 90
        0
 40
-0.6
 41
-30.0
 62
     5
 63
     7
 74
     1
 91
        4
 64
     7
 65
   257
 75
     1
175
     1
 42
1.0
 92
       12
 66
     7
 43
1.0
 76
     1
 77
     6
 78
     2
 67
     7
 79
     5
170
     0
171
     0
290
     0
174
     0
 93
        1
 44
0.0
173
     0
291
     1
 45
0.0
1001
ACAD
1000
AcDbSavedByObjectVersion
1070
     0
  0
VISUALSTYLE
  5
9F37
102
{ACAD_XDICTIONARY
360
9F96
102
}
102
{ACAD_REACTORS
330
9F30
102
}
330
9F30
100
AcDbVisualStyle
  2
Wireframe
 70
     5
 71
     0
 72
     2
 73
     0
 90
        0
 40
-0.6
 41
-30.0
 62
     5
 63
     7
 74
     1
 91
        4
 64
     7
 65
   257
 75
     1
175
     1
 42
1.0
 92
        0
 66
   257
 43
1.0
 76
     1
 77
     6
 78
     2
 67
     7
 79
     3
170
     0
171
     0
290
     0
174
     0
 93
        1
 44
0.0
173
     0
291
     0
 45
0.0
1001
ACAD
1000
AcDbSavedByObjectVersion
1070
     0
  0
VISUALSTYLE
  5
9F43
102
{ACAD_XDICTIONARY
360
9FAE
102
}
102
{ACAD_REACTORS
330
9F30
102
}
330
9F30
100
AcDbVisualStyle
  2
X-Ray
 70
    25
 71
     2
 72
     2
 73
     1
 90
        1
 40
0.5
 41
-30.0
 62
     5
 63
     7
 74
     1
 91
        0
 64
     7
 65
   257
 75
     1
175
     1
 42
1.0
 92
        8
 66
     7
 43
1.0
 76
     1
 77
     6
 78
     2
 67
     7
 79
     3
170
     0
171
     0
290
     0
174
     0
 93
       13
 44
0.0
173
     0
291
     0
 45
0.0
1001
ACAD
1000
AcDbSavedByObjectVersion
1070
     0
  0
DICTIONARYVAR
  5
9F7D
102
{ACAD_REACTORS
330
9F78
102
}
330
9F78
100
DictionaryVariables
280
     0
  1
1:1
  0
DICTIONARYVAR
  5
9F7A
102
{ACAD_REACTORS
330
9F78
102
}
330
9F78
100
DictionaryVariables
280
     0
  1
STANDARD
  0
DICTIONARYVAR
  5
9F79
102
{ACAD_REACTORS
330
9F78
102
}
330
9F78
100
DictionaryVariables
280
     0
  1
STANDARD
  0
DICTIONARYVAR
  5
9F7B
102
{ACAD_REACTORS
330
9F78
102
}
330
9F78
100
DictionaryVariables
280
     0
  1
Imperial24
  0
DICTIONARYVAR
  5
9F7C
102
{ACAD_REACTORS
330
9F78
102
}
330
9F78
100
DictionaryVariables
280
     0
  1
Imperial24
  0
DICTIONARYVAR
  5
9F80
102
{ACAD_REACTORS
330
9F78
102
}
330
9F78
100
DictionaryVariables
280
     0
  1
1
  0
DICTIONARYVAR
  5
9F7F
102
{ACAD_REACTORS
330
9F78
102
}
330
9F78
100
DictionaryVariables
280
     0
  1
0
  0
DICTIONARYVAR
  5
9F7E
102
{ACAD_REACTORS
330
9F78
102
}
330
9F78
100
DictionaryVariables
280
     0
  1
127
  0
DICTIONARYVAR
  5
9F81
102
{ACAD_REACTORS
330
9F78
102
}
330
9F78
100
DictionaryVariables
280
     0
  1
2
  0
DICTIONARY
  5
9FBE
330
9F63
100
AcDbDictionary
280
     1
281
     1
  3
ACAD_XREC_ROUNDTRIP
360
9FBF
  0
DICTIONARY
  5
9FC0
330
9F64
100
AcDbDictionary
280
     1
281
     1
  3
ACAD_XREC_ROUNDTRIP
360
9FC1
  0
DICTIONARY
  5
9FC2
330
9F65
100
AcDbDictionary
280
     1
281
     1
  3
ACAD_XREC_ROUNDTRIP
360
9FC3
  0
DICTIONARY
  5
9F21
330
9F20
100
AcDbDictionary
280
     1
281
     1
  3
ACAD_XREC_ROUNDTRIP
360
9F88
  3
BUMPTILE
360
9F23
  3
DIFFUSETILE
360
9F22
  3
OPACITYTILE
360
9F26
  3
REFLECTIONTILE
360
9F25
  3
REFRACTIONTILE
360
9F27
  3
SPECULARTILE
360
9F24
  0
DICTIONARY
  5
9F19
330
9F18
100
AcDbDictionary
280
     1
281
     1
  3
ACAD_XREC_ROUNDTRIP
360
9F87
  3
BUMPTILE
360
9F1B
  3
DIFFUSETILE
360
9F1A
  3
OPACITYTILE
360
9F1E
  3
REFLECTIONTILE
360
9F1D
  3
REFRACTIONTILE
360
9F1F
  3
SPECULARTILE
360
9F1C
  0
DICTIONARY
  5
9F29
330
9F28
100
AcDbDictionary
280
     1
281
     1
  3
ACAD_XREC_ROUNDTRIP
360
9F89
  3
BUMPTILE
360
9F2B
  3
DIFFUSETILE
360
9F2A
  3
OPACITYTILE
360
9F2E
  3
REFLECTIONTILE
360
9F2D
  3
REFRACTIONTILE
360
9F2F
  3
SPECULARTILE
360
9F2C
  0
DICTIONARY
  5
9FBC
330
9F61
100
AcDbDictionary
280
     1
281
     1
  3
ACAD_XREC_ROUNDTRIP
360
9FBD
  0
DICTIONARY
  5
9F83
330
9F4B
100
AcDbDictionary
280
     1
281
     1
  3
ACAD_ROUNDTRIP_2008_TABLESTYLE_CELLSTYLEMAP
360
9F84
  3
ACAD_XREC_ROUNDTRIP
360
9FBA
  0
DICTIONARY
  5
9F94
330
9F36
100
AcDbDictionary
280
     1
281
     1
  3
ACAD_XREC_ROUNDTRIP
360
9F95
  0
DICTIONARY
  5
9F92
330
9F35
100
AcDbDictionary
280
     1
281
     1
  3
ACAD_XREC_ROUNDTRIP
360
9F93
  0
DICTIONARY
  5
9FA0
330
9F3C
100
AcDbDictionary
280
     1
281
     1
  3
ACAD_XREC_ROUNDTRIP
360
9FA1
  0
DICTIONARY
  5
9FA8
330
9F40
100
AcDbDictionary
280
     1
281
     1
  3
ACAD_XREC_ROUNDTRIP
360
9FA9
  0
DICTIONARY
  5
9F9A
330
9F39
100
AcDbDictionary
280
     1
281
     1
  3
ACAD_XREC_ROUNDTRIP
360
9F9B
  0
DICTIONARY
  5
9F9E
330
9F3B
100
AcDbDictionary
280
     1
281
     1
  3
ACAD_XREC_ROUNDTRIP
360
9F9F
  0
DICTIONARY
  5
9FB8
330
9F48
100
AcDbDictionary
280
     1
281
     1
  3
ACAD_XREC_ROUNDTRIP
360
9FB9
  0
DICTIONARY
  5
9FA6
330
9F3F
100
AcDbDictionary
280
     1
281
     1
  3
ACAD_XREC_ROUNDTRIP
360
9FA7
  0
DICTIONARY
  5
9F8A
330
9F31
100
AcDbDictionary
280
     1
281
     1
  3
ACAD_XREC_ROUNDTRIP
360
9F8B
  0
DICTIONARY
  5
9F8C
330
9F32
100
AcDbDictionary
280
     1
281
     1
  3
ACAD_XREC_ROUNDTRIP
360
9F8D
  0
DICTIONARY
  5
9F8E
330
9F33
100
AcDbDictionary
280
     1
281
     1
  3
ACAD_XREC_ROUNDTRIP
360
9F8F
  0
DICTIONARY
  5
9F90
330
9F34
100
AcDbDictionary
280
     1
281
     1
  3
ACAD_XREC_ROUNDTRIP
360
9F91
  0
DICTIONARY
  5
9F98
330
9F38
100
AcDbDictionary
280
     1
281
     1
  3
ACAD_XREC_ROUNDTRIP
360
9F99
  0
DICTIONARY
  5
9FB4
330
9F46
100
AcDbDictionary
280
     1
281
     1
  3
ACAD_XREC_ROUNDTRIP
360
9FB5
  0
DICTIONARY
  5
9FA4
330
9F3E
100
AcDbDictionary
280
     1
281
     1
  3
ACAD_XREC_ROUNDTRIP
360
9FA5
  0
DICTIONARY
  5
9FB6
330
9F47
100
AcDbDictionary
280
     1
281
     1
  3
ACAD_XREC_ROUNDTRIP
360
9FB7
  0
DICTIONARY
  5
9F9C
330
9F3A
100
AcDbDictionary
280
     1
281
     1
  3
ACAD_XREC_ROUNDTRIP
360
9F9D
  0
DICTIONARY
  5
9FB2
330
9F45
100
AcDbDictionary
280
     1
281
     1
  3
ACAD_XREC_ROUNDTRIP
360
9FB3
  0
DICTIONARY
  5
9FB0
330
9F44
100
AcDbDictionary
280
     1
281
     1
  3
ACAD_XREC_ROUNDTRIP
360
9FB1
  0
DICTIONARY
  5
9FAA
330
9F41
100
AcDbDictionary
280
     1
281
     1
  3
ACAD_XREC_ROUNDTRIP
360
9FAB
  0
DICTIONARY
  5
9FAC
330
9F42
100
AcDbDictionary
280
     1
281
     1
  3
ACAD_XREC_ROUNDTRIP
360
9FAD
  0
DICTIONARY
  5
9FA2
330
9F3D
100
AcDbDictionary
280
     1
281
     1
  3
ACAD_XREC_ROUNDTRIP
360
9FA3
  0
DICTIONARY
  5
9F96
330
9F37
100
AcDbDictionary
280
     1
281
     1
  3
ACAD_XREC_ROUNDTRIP
360
9F97
  0
DICTIONARY
  5
9FAE
330
9F43
100
AcDbDictionary
280
     1
281
     1
  3
ACAD_XREC_ROUNDTRIP
360
9FAF
  0
XRECORD
  5
9FBF
102
{ACAD_REACTORS
330
9FBE
102
}
330
9FBE
100
AcDbXrecord
280
     1
102
DISPLAYNAME
  1
Imperial24
102
FLAGS
 90
        0
  0
XRECORD
  5
9FC1
102
{ACAD_REACTORS
330
9FC0
102
}
330
9FC0
100
AcDbXrecord
280
     1
102
SHADEPLOT
 70
     0
102
SHADEPLOTRESLEVEL
 70
     2
102
SHADEPLOTCUSTOMDPI
 70
   300
  0
XRECORD
  5
9FC3
102
{ACAD_REACTORS
330
9FC2
102
}
330
9FC2
100
AcDbXrecord
280
     1
102
SHADEPLOT
 70
     0
102
SHADEPLOTRESLEVEL
 70
     2
102
SHADEPLOTCUSTOMDPI
 70
   300
  0
XRECORD
  5
9F88
102
{ACAD_REACTORS
330
9F21
102
}
330
9F21
100
AcDbXrecord
280
     1
102
MATERIAL
148
0.0
149
0.0
149
0.0
 93
        0
 94
      127
282
     0
 72
     0
 77
     0
171
     0
175
     0
179
     0
273
     0
  0
XRECORD
  5
9F23
102
{ACAD_REACTORS
330
9F21
102
}
330
9F21
100
AcDbXrecord
280
     1
270
     1
271
     1
  0
XRECORD
  5
9F22
102
{ACAD_REACTORS
330
9F21
102
}
330
9F21
100
AcDbXrecord
280
     1
270
     1
271
     1
  0
XRECORD
  5
9F26
102
{ACAD_REACTORS
330
9F21
102
}
330
9F21
100
AcDbXrecord
280
     1
270
     1
271
     1
  0
XRECORD
  5
9F25
102
{ACAD_REACTORS
330
9F21
102
}
330
9F21
100
AcDbXrecord
280
     1
270
     1
271
     1
  0
XRECORD
  5
9F27
102
{ACAD_REACTORS
330
9F21
102
}
330
9F21
100
AcDbXrecord
280
     1
270
     1
271
     1
  0
XRECORD
  5
9F24
102
{ACAD_REACTORS
330
9F21
102
}
330
9F21
100
AcDbXrecord
280
     1
270
     1
271
     1
  0
XRECORD
  5
9F87
102
{ACAD_REACTORS
330
9F19
102
}
330
9F19
100
AcDbXrecord
280
     1
102
MATERIAL
148
0.0
149
0.0
149
0.0
 93
        0
 94
      127
282
     0
 72
     0
 77
     0
171
     0
175
     0
179
     0
273
     0
  0
XRECORD
  5
9F1B
102
{ACAD_REACTORS
330
9F19
102
}
330
9F19
100
AcDbXrecord
280
     1
270
     1
271
     1
  0
XRECORD
  5
9F1A
102
{ACAD_REACTORS
330
9F19
102
}
330
9F19
100
AcDbXrecord
280
     1
270
     1
271
     1
  0
XRECORD
  5
9F1E
102
{ACAD_REACTORS
330
9F19
102
}
330
9F19
100
AcDbXrecord
280
     1
270
     1
271
     1
  0
XRECORD
  5
9F1D
102
{ACAD_REACTORS
330
9F19
102
}
330
9F19
100
AcDbXrecord
280
     1
270
     1
271
     1
  0
XRECORD
  5
9F1F
102
{ACAD_REACTORS
330
9F19
102
}
330
9F19
100
AcDbXrecord
280
     1
270
     1
271
     1
  0
XRECORD
  5
9F1C
102
{ACAD_REACTORS
330
9F19
102
}
330
9F19
100
AcDbXrecord
280
     1
270
     1
271
     1
  0
XRECORD
  5
9F89
102
{ACAD_REACTORS
330
9F29
102
}
330
9F29
100
AcDbXrecord
280
     1
102
MATERIAL
148
0.0
149
0.0
149
0.0
 93
        0
 94
      127
282
     0
 72
     0
 77
     0
171
     0
175
     0
179
     0
273
     0
  0
XRECORD
  5
9F2B
102
{ACAD_REACTORS
330
9F29
102
}
330
9F29
100
AcDbXrecord
280
     1
270
     1
271
     1
  0
XRECORD
  5
9F2A
102
{ACAD_REACTORS
330
9F29
102
}
330
9F29
100
AcDbXrecord
280
     1
270
     1
271
     1
  0
XRECORD
  5
9F2E
102
{ACAD_REACTORS
330
9F29
102
}
330
9F29
100
AcDbXrecord
280
     1
270
     1
271
     1
  0
XRECORD
  5
9F2D
102
{ACAD_REACTORS
330
9F29
102
}
330
9F29
100
AcDbXrecord
280
     1
270
     1
271
     1
  0
XRECORD
  5
9F2F
102
{ACAD_REACTORS
330
9F29
102
}
330
9F29
100
AcDbXrecord
280
     1
270
     1
271
     1
  0
XRECORD
  5
9F2C
102
{ACAD_REACTORS
330
9F29
102
}
330
9F29
100
AcDbXrecord
280
     1
270
     1
271
     1
  0
XRECORD
  5
9FBD
102
{ACAD_REACTORS
330
9FBC
102
}
330
9FBC
100
AcDbXrecord
280
     1
102
DISPLAYNAME
  1
Imperial24
102
FLAGS
 90
        0
  0
CELLSTYLEMAP
  5
9F84
102
{ACAD_REACTORS
330
9F83
102
}
330
9F83
100
AcDbCellStyleMap
 90
        3
300
CELLSTYLE
  1
TABLEFORMAT_BEGIN
 90
        5
170
     1
 91
        0
 92
    32768
 62
   257
 93
        1
300
CONTENTFORMAT
  1
CONTENTFORMAT_BEGIN
 90
        0
 91
        0
 92
      512
 93
        0
300

 40
0.0
140
1.0
 94
        5
 62
     0
340
9CD2
144
0.25
309
CONTENTFORMAT_END
171
     0
 94
        0
309
TABLEFORMAT_END
  1
CELLSTYLE_BEGIN
 90
        1
 91
        1
300
_TITLE
309
CELLSTYLE_END
300
CELLSTYLE
  1
TABLEFORMAT_BEGIN
 90
        5
170
     1
 91
        0
 92
        0
 62
   257
 93
        1
300
CONTENTFORMAT
  1
CONTENTFORMAT_BEGIN
 90
        0
 91
        0
 92
      512
 93
        0
300

 40
0.0
140
1.0
 94
        5
 62
     0
340
9CD2
144
0.18
309
CONTENTFORMAT_END
171
     0
 94
        0
309
TABLEFORMAT_END
  1
CELLSTYLE_BEGIN
 90
        2
 91
        1
300
_HEADER
309
CELLSTYLE_END
300
CELLSTYLE
  1
TABLEFORMAT_BEGIN
 90
        5
170
     1
 91
        0
 92
        0
 62
   257
 93
        1
300
CONTENTFORMAT
  1
CONTENTFORMAT_BEGIN
 90
        0
 91
        0
 92
      512
 93
        0
300

 40
0.0
140
1.0
 94
        2
 62
     0
340
9CD2
144
0.18
309
CONTENTFORMAT_END
171
     0
 94
        0
309
TABLEFORMAT_END
  1
CELLSTYLE_BEGIN
 90
        3
 91
        2
300
_DATA
309
CELLSTYLE_END
  0
XRECORD
  5
9FBA
102
{ACAD_REACTORS
330
9F83
102
}
330
9F83
100
AcDbXrecord
280
     1
102
ACAD_ROUNDTRIP_PRE2007_TABLESTYLE
 90
      512
 91
        0
  1

 92
      512
 93
        0
  2

 94
      512
 95
        0
  3

  0
XRECORD
  5
9F95
102
{ACAD_REACTORS
330
9F94
102
}
330
9F94
100
AcDbXrecord
280
     1
102
RTVSPost2010Prop28
280
     1
102
RTVSPost2010PropOp28
 70
     1
102
RTVSPost2010Prop29
280
     1
102
RTVSPost2010PropOp29
 70
     1
102
RTVSPost2010Prop30
280
     0
102
RTVSPost2010PropOp30
 70
     1
102
RTVSPost2010Prop31
280
     0
102
RTVSPost2010PropOp31
 70
     1
102
RTVSPost2010Prop32
280
     0
102
RTVSPost2010PropOp32
 70
     1
102
RTVSPost2010Prop33
280
     0
102
RTVSPost2010PropOp33
 70
     1
102
RTVSPost2010Prop34
280
     0
102
RTVSPost2010PropOp34
 70
     1
102
RTVSPost2010Prop35
280
     0
102
RTVSPost2010PropOp35
 70
     1
102
RTVSPost2010Prop36
280
     0
102
RTVSPost2010PropOp36
 70
     1
102
RTVSPost2010Prop37
 90
       50
102
RTVSPost2010PropOp37
 70
     1
102
RTVSPost2010Prop38
140
0.0
102
RTVSPost2010PropOp38
 70
     1
102
RTVSPost2010Prop39
140
1.0
102
RTVSPost2010PropOp39
 70
     1
102
RTVSPost2010Prop40
 90
        0
102
RTVSPost2010PropOp40
 70
     1
102
RTVSPost2010Prop41ColorIndex
 90
       18
102
RTVSPost2010Prop41ColorRGB
 90
        0
102
RTVSPost2010PropOp41
 70
     1
102
RTVSPost2010Prop42
 90
       50
102
RTVSPost2010PropOp42
 70
     1
102
RTVSPost2010Prop43
 90
        3
102
RTVSPost2010PropOp43
 70
     1
102
RTVSPost2010Prop44ColorIndex
 90
        5
102
RTVSPost2010Prop44ColorRGB
 90
      255
102
RTVSPost2010PropOp44
 70
     1
102
RTVSPost2010Prop45
280
     0
102
RTVSPost2010PropOp45
 70
     1
102
RTVSPost2010Prop46
 90
       50
102
RTVSPost2010PropOp46
 70
     1
102
RTVSPost2010Prop47
 90
       50
102
RTVSPost2010PropOp47
 70
     1
102
RTVSPost2010Prop48
 90
       50
102
RTVSPost2010PropOp48
 70
     1
102
RTVSPost2010Prop49
280
     0
102
RTVSPost2010PropOp49
 70
     1
102
RTVSPost2010Prop50
 90
       50
102
RTVSPost2010PropOp50
 70
     1
102
RTVSPost2010Prop51ColorIndex
 90
      256
102
RTVSPost2010Prop51ColorRGB
 90
-16777216
102
RTVSPost2010PropOp51
 70
     0
102
RTVSPost2010Prop52
140
1.0
102
RTVSPost2010PropOp52
 70
     0
102
RTVSPost2010Prop53
 90
        2
102
RTVSPost2010PropOp53
 70
     1
102
RTVSPost2010Prop54
  1
strokes_ogs.tif
102
RTVSPost2010PropOp54
 70
     1
102
RTVSPost2010Prop55
280
     0
102
RTVSPost2010PropOp55
 70
     1
102
RTVSPost2010Prop56
140
1.0
102
RTVSPost2010PropOp56
 70
     1
102
RTVSPost2010Prop57
140
1.0
102
RTVSPost2010PropOp57
 70
     1
102
RTVSPropertyOp0
 70
     1
102
RTVSPropertyOp1
 70
     1
102
RTVSPropertyOp2
 70
     1
102
RTVSPropertyOp3
 70
     1
102
RTVSPropertyOp4
 70
     1
102
RTVSPropertyOp5
 70
     1
102
RTVSPropertyOp6
 70
     1
102
RTVSPropertyOp7
 70
     1
102
RTVSPropertyOp8
 70
     1
102
RTVSPropertyOp9
 70
     1
102
RTVSPropertyOp10
 70
     1
102
RTVSPropertyOp11
 70
     1
102
RTVSPropertyOp12
 70
     1
102
RTVSPropertyOp13
 70
     1
102
RTVSPropertyOp14
 70
     1
102
RTVSPropertyOp15
 70
     1
102
RTVSPropertyOp16
 70
     1
102
RTVSPropertyOp17
 70
     1
102
RTVSPropertyOp18
 70
     1
102
RTVSPropertyOp19
 70
     1
102
RTVSPropertyOp20
 70
     1
102
RTVSPropertyOp21
 70
     1
102
RTVSPropertyOp22
 70
     1
102
RTVSPropertyOp23
 70
     1
102
RTVSPropertyOp24
 70
     1
102
RTVSPropertyOp25
 70
     1
102
RTVSPropertyOp26
 70
     1
102
RTVSPropertyOp27
 70
     1
102
RTVSPropertyOp28
 70
     1
102
RTVSPropertyOp29
 70
     1
102
RTVSPropertyOp30
 70
     1
102
RTVSPropertyOp31
 70
     1
102
RTVSPropertyOp32
 70
     1
102
RTVSPropertyOp33
 70
     1
102
RTVSPropertyOp34
 70
     1
102
RTVSPropertyOp35
 70
     1
102
RTVSPropertyOp36
 70
     1
102
RTVSPropertyOp37
 70
     1
102
RTVSPropertyOp38
 70
     1
102
RTVSPropertyOp39
 70
     1
102
RTVSPropertyOp40
 70
     1
102
RTVSPropertyOp41
 70
     1
102
RTVSPropertyOp42
 70
     1
102
RTVSPropertyOp43
 70
     1
102
RTVSPropertyOp44
 70
     1
102
RTVSPropertyOp45
 70
     1
102
RTVSPropertyOp46
 70
     1
102
RTVSPropertyOp47
 70
     1
102
RTVSPropertyOp48
 70
     1
102
RTVSPropertyOp49
 70
     1
102
RTVSPropertyOp50
 70
     1
102
RTVSPropertyOp51
 70
     0
102
RTVSPropertyOp52
 70
     0
102
RTVSPropertyOp53
 70
     1
102
RTVSPropertyOp54
 70
     1
102
RTVSPropertyOp55
 70
     1
102
RTVSPropertyOp56
 70
     1
102
RTVSPropertyOp57
 70
     1
102
RTVSPropertyOp58
 70
     1
102
RTVSPropertyOp59
 70
     1
102
RTVSPropertyOp60
 70
     1
102
RTVSPropertyOp61
 70
     1
102
RTVSPropertyOp62
 70
     1
  0
XRECORD
  5
9F93
102
{ACAD_REACTORS
330
9F92
102
}
330
9F92
100
AcDbXrecord
280
     1
102
RTVSPost2010Prop28
280
     0
102
RTVSPost2010PropOp28
 70
     1
102
RTVSPost2010Prop29
280
     1
102
RTVSPost2010PropOp29
 70
     1
102
RTVSPost2010Prop30
280
     1
102
RTVSPost2010PropOp30
 70
     1
102
RTVSPost2010Prop31
280
     0
102
RTVSPost2010PropOp31
 70
     1
102
RTVSPost2010Prop32
280
     0
102
RTVSPost2010PropOp32
 70
     1
102
RTVSPost2010Prop33
280
     0
102
RTVSPost2010PropOp33
 70
     1
102
RTVSPost2010Prop34
280
     0
102
RTVSPost2010PropOp34
 70
     1
102
RTVSPost2010Prop35
280
     0
102
RTVSPost2010PropOp35
 70
     1
102
RTVSPost2010Prop36
280
     0
102
RTVSPost2010PropOp36
 70
     1
102
RTVSPost2010Prop37
 90
       50
102
RTVSPost2010PropOp37
 70
     1
102
RTVSPost2010Prop38
140
0.0
102
RTVSPost2010PropOp38
 70
     1
102
RTVSPost2010Prop39
140
1.0
102
RTVSPost2010PropOp39
 70
     1
102
RTVSPost2010Prop40
 90
        0
102
RTVSPost2010PropOp40
 70
     1
102
RTVSPost2010Prop41ColorIndex
 90
       18
102
RTVSPost2010Prop41ColorRGB
 90
        0
102
RTVSPost2010PropOp41
 70
     1
102
RTVSPost2010Prop42
 90
       50
102
RTVSPost2010PropOp42
 70
     1
102
RTVSPost2010Prop43
 90
        3
102
RTVSPost2010PropOp43
 70
     1
102
RTVSPost2010Prop44ColorIndex
 90
        5
102
RTVSPost2010Prop44ColorRGB
 90
      255
102
RTVSPost2010PropOp44
 70
     1
102
RTVSPost2010Prop45
280
     0
102
RTVSPost2010PropOp45
 70
     1
102
RTVSPost2010Prop46
 90
       50
102
RTVSPost2010PropOp46
 70
     1
102
RTVSPost2010Prop47
 90
       50
102
RTVSPost2010PropOp47
 70
     1
102
RTVSPost2010Prop48
 90
       50
102
RTVSPost2010PropOp48
 70
     1
102
RTVSPost2010Prop49
280
     0
102
RTVSPost2010PropOp49
 70
     1
102
RTVSPost2010Prop50
 90
       50
102
RTVSPost2010PropOp50
 70
     1
102
RTVSPost2010Prop51ColorIndex
 90
      256
102
RTVSPost2010Prop51ColorRGB
 90
-16777216
102
RTVSPost2010PropOp51
 70
     0
102
RTVSPost2010Prop52
140
1.0
102
RTVSPost2010PropOp52
 70
     0
102
RTVSPost2010Prop53
 90
        2
102
RTVSPost2010PropOp53
 70
     1
102
RTVSPost2010Prop54
  1
strokes_ogs.tif
102
RTVSPost2010PropOp54
 70
     1
102
RTVSPost2010Prop55
280
     0
102
RTVSPost2010PropOp55
 70
     1
102
RTVSPost2010Prop56
140
1.0
102
RTVSPost2010PropOp56
 70
     1
102
RTVSPost2010Prop57
140
1.0
102
RTVSPost2010PropOp57
 70
     1
102
RTVSPropertyOp0
 70
     1
102
RTVSPropertyOp1
 70
     1
102
RTVSPropertyOp2
 70
     1
102
RTVSPropertyOp3
 70
     1
102
RTVSPropertyOp4
 70
     1
102
RTVSPropertyOp5
 70
     1
102
RTVSPropertyOp6
 70
     1
102
RTVSPropertyOp7
 70
     1
102
RTVSPropertyOp8
 70
     1
102
RTVSPropertyOp9
 70
     1
102
RTVSPropertyOp10
 70
     1
102
RTVSPropertyOp11
 70
     1
102
RTVSPropertyOp12
 70
     1
102
RTVSPropertyOp13
 70
     1
102
RTVSPropertyOp14
 70
     1
102
RTVSPropertyOp15
 70
     1
102
RTVSPropertyOp16
 70
     1
102
RTVSPropertyOp17
 70
     1
102
RTVSPropertyOp18
 70
     1
102
RTVSPropertyOp19
 70
     1
102
RTVSPropertyOp20
 70
     1
102
RTVSPropertyOp21
 70
     1
102
RTVSPropertyOp22
 70
     1
102
RTVSPropertyOp23
 70
     1
102
RTVSPropertyOp24
 70
     1
102
RTVSPropertyOp25
 70
     1
102
RTVSPropertyOp26
 70
     1
102
RTVSPropertyOp27
 70
     1
102
RTVSPropertyOp28
 70
     1
102
RTVSPropertyOp29
 70
     1
102
RTVSPropertyOp30
 70
     1
102
RTVSPropertyOp31
 70
     1
102
RTVSPropertyOp32
 70
     1
102
RTVSPropertyOp33
 70
     1
102
RTVSPropertyOp34
 70
     1
102
RTVSPropertyOp35
 70
     1
102
RTVSPropertyOp36
 70
     1
102
RTVSPropertyOp37
 70
     1
102
RTVSPropertyOp38
 70
     1
102
RTVSPropertyOp39
 70
     1
102
RTVSPropertyOp40
 70
     1
102
RTVSPropertyOp41
 70
     1
102
RTVSPropertyOp42
 70
     1
102
RTVSPropertyOp43
 70
     1
102
RTVSPropertyOp44
 70
     1
102
RTVSPropertyOp45
 70
     1
102
RTVSPropertyOp46
 70
     1
102
RTVSPropertyOp47
 70
     1
102
RTVSPropertyOp48
 70
     1
102
RTVSPropertyOp49
 70
     1
102
RTVSPropertyOp50
 70
     1
102
RTVSPropertyOp51
 70
     0
102
RTVSPropertyOp52
 70
     0
102
RTVSPropertyOp53
 70
     1
102
RTVSPropertyOp54
 70
     1
102
RTVSPropertyOp55
 70
     1
102
RTVSPropertyOp56
 70
     1
102
RTVSPropertyOp57
 70
     1
102
RTVSPropertyOp58
 70
     1
102
RTVSPropertyOp59
 70
     1
102
RTVSPropertyOp60
 70
     1
102
RTVSPropertyOp61
 70
     1
102
RTVSPropertyOp62
 70
     1
  0
XRECORD
  5
9FA1
102
{ACAD_REACTORS
330
9FA0
102
}
330
9FA0
100
AcDbXrecord
280
     1
102
RTVSPost2010Prop28
280
     0
102
RTVSPost2010PropOp28
 70
     1
102
RTVSPost2010Prop29
280
     1
102
RTVSPost2010PropOp29
 70
     1
102
RTVSPost2010Prop30
280
     1
102
RTVSPost2010PropOp30
 70
     1
102
RTVSPost2010Prop31
280
     0
102
RTVSPost2010PropOp31
 70
     1
102
RTVSPost2010Prop32
280
     0
102
RTVSPost2010PropOp32
 70
     1
102
RTVSPost2010Prop33
280
     0
102
RTVSPost2010PropOp33
 70
     1
102
RTVSPost2010Prop34
280
     0
102
RTVSPost2010PropOp34
 70
     1
102
RTVSPost2010Prop35
280
     0
102
RTVSPost2010PropOp35
 70
     1
102
RTVSPost2010Prop36
280
     0
102
RTVSPost2010PropOp36
 70
     1
102
RTVSPost2010Prop37
 90
       50
102
RTVSPost2010PropOp37
 70
     1
102
RTVSPost2010Prop38
140
0.0
102
RTVSPost2010PropOp38
 70
     1
102
RTVSPost2010Prop39
140
1.0
102
RTVSPost2010PropOp39
 70
     1
102
RTVSPost2010Prop40
 90
        0
102
RTVSPost2010PropOp40
 70
     1
102
RTVSPost2010Prop41ColorIndex
 90
       18
102
RTVSPost2010Prop41ColorRGB
 90
        0
102
RTVSPost2010PropOp41
 70
     1
102
RTVSPost2010Prop42
 90
       50
102
RTVSPost2010PropOp42
 70
     1
102
RTVSPost2010Prop43
 90
        3
102
RTVSPost2010PropOp43
 70
     1
102
RTVSPost2010Prop44ColorIndex
 90
        5
102
RTVSPost2010Prop44ColorRGB
 90
      255
102
RTVSPost2010PropOp44
 70
     1
102
RTVSPost2010Prop45
280
     0
102
RTVSPost2010PropOp45
 70
     1
102
RTVSPost2010Prop46
 90
       50
102
RTVSPost2010PropOp46
 70
     1
102
RTVSPost2010Prop47
 90
       50
102
RTVSPost2010PropOp47
 70
     1
102
RTVSPost2010Prop48
 90
       50
102
RTVSPost2010PropOp48
 70
     1
102
RTVSPost2010Prop49
280
     0
102
RTVSPost2010PropOp49
 70
     1
102
RTVSPost2010Prop50
 90
       50
102
RTVSPost2010PropOp50
 70
     1
102
RTVSPost2010Prop51ColorIndex
 90
      256
102
RTVSPost2010Prop51ColorRGB
 90
-16777216
102
RTVSPost2010PropOp51
 70
     0
102
RTVSPost2010Prop52
140
1.0
102
RTVSPost2010PropOp52
 70
     0
102
RTVSPost2010Prop53
 90
        2
102
RTVSPost2010PropOp53
 70
     1
102
RTVSPost2010Prop54
  1
strokes_ogs.tif
102
RTVSPost2010PropOp54
 70
     1
102
RTVSPost2010Prop55
280
     0
102
RTVSPost2010PropOp55
 70
     1
102
RTVSPost2010Prop56
140
1.0
102
RTVSPost2010PropOp56
 70
     1
102
RTVSPost2010Prop57
140
1.0
102
RTVSPost2010PropOp57
 70
     1
102
RTVSPropertyOp0
 70
     1
102
RTVSPropertyOp1
 70
     1
102
RTVSPropertyOp2
 70
     1
102
RTVSPropertyOp3
 70
     1
102
RTVSPropertyOp4
 70
     1
102
RTVSPropertyOp5
 70
     1
102
RTVSPropertyOp6
 70
     1
102
RTVSPropertyOp7
 70
     1
102
RTVSPropertyOp8
 70
     1
102
RTVSPropertyOp9
 70
     1
102
RTVSPropertyOp10
 70
     1
102
RTVSPropertyOp11
 70
     1
102
RTVSPropertyOp12
 70
     1
102
RTVSPropertyOp13
 70
     1
102
RTVSPropertyOp14
 70
     1
102
RTVSPropertyOp15
 70
     1
102
RTVSPropertyOp16
 70
     1
102
RTVSPropertyOp17
 70
     1
102
RTVSPropertyOp18
 70
     1
102
RTVSPropertyOp19
 70
     1
102
RTVSPropertyOp20
 70
     1
102
RTVSPropertyOp21
 70
     1
102
RTVSPropertyOp22
 70
     1
102
RTVSPropertyOp23
 70
     1
102
RTVSPropertyOp24
 70
     1
102
RTVSPropertyOp25
 70
     1
102
RTVSPropertyOp26
 70
     1
102
RTVSPropertyOp27
 70
     1
102
RTVSPropertyOp28
 70
     1
102
RTVSPropertyOp29
 70
     1
102
RTVSPropertyOp30
 70
     1
102
RTVSPropertyOp31
 70
     1
102
RTVSPropertyOp32
 70
     1
102
RTVSPropertyOp33
 70
     1
102
RTVSPropertyOp34
 70
     1
102
RTVSPropertyOp35
 70
     1
102
RTVSPropertyOp36
 70
     1
102
RTVSPropertyOp37
 70
     1
102
RTVSPropertyOp38
 70
     1
102
RTVSPropertyOp39
 70
     1
102
RTVSPropertyOp40
 70
     1
102
RTVSPropertyOp41
 70
     1
102
RTVSPropertyOp42
 70
     1
102
RTVSPropertyOp43
 70
     1
102
RTVSPropertyOp44
 70
     1
102
RTVSPropertyOp45
 70
     1
102
RTVSPropertyOp46
 70
     1
102
RTVSPropertyOp47
 70
     1
102
RTVSPropertyOp48
 70
     1
102
RTVSPropertyOp49
 70
     1
102
RTVSPropertyOp50
 70
     1
102
RTVSPropertyOp51
 70
     0
102
RTVSPropertyOp52
 70
     0
102
RTVSPropertyOp53
 70
     1
102
RTVSPropertyOp54
 70
     1
102
RTVSPropertyOp55
 70
     1
102
RTVSPropertyOp56
 70
     1
102
RTVSPropertyOp57
 70
     1
102
RTVSPropertyOp58
 70
     1
102
RTVSPropertyOp59
 70
     1
102
RTVSPropertyOp60
 70
     1
102
RTVSPropertyOp61
 70
     1
102
RTVSPropertyOp62
 70
     1
  0
XRECORD
  5
9FA9
102
{ACAD_REACTORS
330
9FA8
102
}
330
9FA8
100
AcDbXrecord
280
     1
102
RTVSPost2010Prop28
280
     0
102
RTVSPost2010PropOp28
 70
     1
102
RTVSPost2010Prop29
280
     1
102
RTVSPost2010PropOp29
 70
     1
102
RTVSPost2010Prop30
280
     1
102
RTVSPost2010PropOp30
 70
     1
102
RTVSPost2010Prop31
280
     0
102
RTVSPost2010PropOp31
 70
     1
102
RTVSPost2010Prop32
280
     0
102
RTVSPost2010PropOp32
 70
     1
102
RTVSPost2010Prop33
280
     0
102
RTVSPost2010PropOp33
 70
     1
102
RTVSPost2010Prop34
280
     0
102
RTVSPost2010PropOp34
 70
     1
102
RTVSPost2010Prop35
280
     0
102
RTVSPost2010PropOp35
 70
     1
102
RTVSPost2010Prop36
280
     0
102
RTVSPost2010PropOp36
 70
     1
102
RTVSPost2010Prop37
 90
       50
102
RTVSPost2010PropOp37
 70
     1
102
RTVSPost2010Prop38
140
0.0
102
RTVSPost2010PropOp38
 70
     1
102
RTVSPost2010Prop39
140
1.0
102
RTVSPost2010PropOp39
 70
     1
102
RTVSPost2010Prop40
 90
        0
102
RTVSPost2010PropOp40
 70
     1
102
RTVSPost2010Prop41ColorIndex
 90
       18
102
RTVSPost2010Prop41ColorRGB
 90
        0
102
RTVSPost2010PropOp41
 70
     1
102
RTVSPost2010Prop42
 90
       50
102
RTVSPost2010PropOp42
 70
     1
102
RTVSPost2010Prop43
 90
        3
102
RTVSPost2010PropOp43
 70
     1
102
RTVSPost2010Prop44ColorIndex
 90
        5
102
RTVSPost2010Prop44ColorRGB
 90
      255
102
RTVSPost2010PropOp44
 70
     1
102
RTVSPost2010Prop45
280
     0
102
RTVSPost2010PropOp45
 70
     1
102
RTVSPost2010Prop46
 90
       50
102
RTVSPost2010PropOp46
 70
     1
102
RTVSPost2010Prop47
 90
       50
102
RTVSPost2010PropOp47
 70
     1
102
RTVSPost2010Prop48
 90
       50
102
RTVSPost2010PropOp48
 70
     1
102
RTVSPost2010Prop49
280
     0
102
RTVSPost2010PropOp49
 70
     1
102
RTVSPost2010Prop50
 90
       50
102
RTVSPost2010PropOp50
 70
     1
102
RTVSPost2010Prop51ColorIndex
 90
      256
102
RTVSPost2010Prop51ColorRGB
 90
-16777216
102
RTVSPost2010PropOp51
 70
     0
102
RTVSPost2010Prop52
140
1.0
102
RTVSPost2010PropOp52
 70
     0
102
RTVSPost2010Prop53
 90
        2
102
RTVSPost2010PropOp53
 70
     1
102
RTVSPost2010Prop54
  1
strokes_ogs.tif
102
RTVSPost2010PropOp54
 70
     1
102
RTVSPost2010Prop55
280
     0
102
RTVSPost2010PropOp55
 70
     1
102
RTVSPost2010Prop56
140
1.0
102
RTVSPost2010PropOp56
 70
     1
102
RTVSPost2010Prop57
140
1.0
102
RTVSPost2010PropOp57
 70
     1
102
RTVSPropertyOp0
 70
     1
102
RTVSPropertyOp1
 70
     1
102
RTVSPropertyOp2
 70
     1
102
RTVSPropertyOp3
 70
     1
102
RTVSPropertyOp4
 70
     1
102
RTVSPropertyOp5
 70
     1
102
RTVSPropertyOp6
 70
     1
102
RTVSPropertyOp7
 70
     1
102
RTVSPropertyOp8
 70
     1
102
RTVSPropertyOp9
 70
     1
102
RTVSPropertyOp10
 70
     1
102
RTVSPropertyOp11
 70
     1
102
RTVSPropertyOp12
 70
     1
102
RTVSPropertyOp13
 70
     1
102
RTVSPropertyOp14
 70
     1
102
RTVSPropertyOp15
 70
     1
102
RTVSPropertyOp16
 70
     1
102
RTVSPropertyOp17
 70
     1
102
RTVSPropertyOp18
 70
     1
102
RTVSPropertyOp19
 70
     1
102
RTVSPropertyOp20
 70
     1
102
RTVSPropertyOp21
 70
     1
102
RTVSPropertyOp22
 70
     1
102
RTVSPropertyOp23
 70
     1
102
RTVSPropertyOp24
 70
     1
102
RTVSPropertyOp25
 70
     1
102
RTVSPropertyOp26
 70
     1
102
RTVSPropertyOp27
 70
     1
102
RTVSPropertyOp28
 70
     1
102
RTVSPropertyOp29
 70
     1
102
RTVSPropertyOp30
 70
     1
102
RTVSPropertyOp31
 70
     1
102
RTVSPropertyOp32
 70
     1
102
RTVSPropertyOp33
 70
     1
102
RTVSPropertyOp34
 70
     1
102
RTVSPropertyOp35
 70
     1
102
RTVSPropertyOp36
 70
     1
102
RTVSPropertyOp37
 70
     1
102
RTVSPropertyOp38
 70
     1
102
RTVSPropertyOp39
 70
     1
102
RTVSPropertyOp40
 70
     1
102
RTVSPropertyOp41
 70
     1
102
RTVSPropertyOp42
 70
     1
102
RTVSPropertyOp43
 70
     1
102
RTVSPropertyOp44
 70
     1
102
RTVSPropertyOp45
 70
     1
102
RTVSPropertyOp46
 70
     1
102
RTVSPropertyOp47
 70
     1
102
RTVSPropertyOp48
 70
     1
102
RTVSPropertyOp49
 70
     1
102
RTVSPropertyOp50
 70
     1
102
RTVSPropertyOp51
 70
     0
102
RTVSPropertyOp52
 70
     0
102
RTVSPropertyOp53
 70
     1
102
RTVSPropertyOp54
 70
     1
102
RTVSPropertyOp55
 70
     1
102
RTVSPropertyOp56
 70
     1
102
RTVSPropertyOp57
 70
     1
102
RTVSPropertyOp58
 70
     1
102
RTVSPropertyOp59
 70
     1
102
RTVSPropertyOp60
 70
     1
102
RTVSPropertyOp61
 70
     1
102
RTVSPropertyOp62
 70
     1
  0
XRECORD
  5
9F9B
102
{ACAD_REACTORS
330
9F9A
102
}
330
9F9A
100
AcDbXrecord
280
     1
102
RTVSPost2010Prop28
280
     0
102
RTVSPost2010PropOp28
 70
     1
102
RTVSPost2010Prop29
280
     1
102
RTVSPost2010PropOp29
 70
     1
102
RTVSPost2010Prop30
280
     1
102
RTVSPost2010PropOp30
 70
     1
102
RTVSPost2010Prop31
280
     0
102
RTVSPost2010PropOp31
 70
     1
102
RTVSPost2010Prop32
280
     0
102
RTVSPost2010PropOp32
 70
     1
102
RTVSPost2010Prop33
280
     0
102
RTVSPost2010PropOp33
 70
     1
102
RTVSPost2010Prop34
280
     0
102
RTVSPost2010PropOp34
 70
     1
102
RTVSPost2010Prop35
280
     0
102
RTVSPost2010PropOp35
 70
     1
102
RTVSPost2010Prop36
280
     0
102
RTVSPost2010PropOp36
 70
     1
102
RTVSPost2010Prop37
 90
       50
102
RTVSPost2010PropOp37
 70
     1
102
RTVSPost2010Prop38
140
0.0
102
RTVSPost2010PropOp38
 70
     1
102
RTVSPost2010Prop39
140
1.0
102
RTVSPost2010PropOp39
 70
     1
102
RTVSPost2010Prop40
 90
        0
102
RTVSPost2010PropOp40
 70
     1
102
RTVSPost2010Prop41ColorIndex
 90
       18
102
RTVSPost2010Prop41ColorRGB
 90
        0
102
RTVSPost2010PropOp41
 70
     1
102
RTVSPost2010Prop42
 90
       50
102
RTVSPost2010PropOp42
 70
     1
102
RTVSPost2010Prop43
 90
        3
102
RTVSPost2010PropOp43
 70
     1
102
RTVSPost2010Prop44ColorIndex
 90
        5
102
RTVSPost2010Prop44ColorRGB
 90
      255
102
RTVSPost2010PropOp44
 70
     1
102
RTVSPost2010Prop45
280
     0
102
RTVSPost2010PropOp45
 70
     1
102
RTVSPost2010Prop46
 90
       50
102
RTVSPost2010PropOp46
 70
     1
102
RTVSPost2010Prop47
 90
       50
102
RTVSPost2010PropOp47
 70
     1
102
RTVSPost2010Prop48
 90
       50
102
RTVSPost2010PropOp48
 70
     1
102
RTVSPost2010Prop49
280
     0
102
RTVSPost2010PropOp49
 70
     1
102
RTVSPost2010Prop50
 90
       50
102
RTVSPost2010PropOp50
 70
     1
102
RTVSPost2010Prop51ColorIndex
 90
      256
102
RTVSPost2010Prop51ColorRGB
 90
-16777216
102
RTVSPost2010PropOp51
 70
     0
102
RTVSPost2010Prop52
140
1.0
102
RTVSPost2010PropOp52
 70
     0
102
RTVSPost2010Prop53
 90
        2
102
RTVSPost2010PropOp53
 70
     1
102
RTVSPost2010Prop54
  1
strokes_ogs.tif
102
RTVSPost2010PropOp54
 70
     1
102
RTVSPost2010Prop55
280
     0
102
RTVSPost2010PropOp55
 70
     1
102
RTVSPost2010Prop56
140
1.0
102
RTVSPost2010PropOp56
 70
     1
102
RTVSPost2010Prop57
140
1.0
102
RTVSPost2010PropOp57
 70
     1
102
RTVSPropertyOp0
 70
     1
102
RTVSPropertyOp1
 70
     1
102
RTVSPropertyOp2
 70
     1
102
RTVSPropertyOp3
 70
     1
102
RTVSPropertyOp4
 70
     1
102
RTVSPropertyOp5
 70
     1
102
RTVSPropertyOp6
 70
     1
102
RTVSPropertyOp7
 70
     1
102
RTVSPropertyOp8
 70
     1
102
RTVSPropertyOp9
 70
     1
102
RTVSPropertyOp10
 70
     1
102
RTVSPropertyOp11
 70
     1
102
RTVSPropertyOp12
 70
     1
102
RTVSPropertyOp13
 70
     1
102
RTVSPropertyOp14
 70
     1
102
RTVSPropertyOp15
 70
     1
102
RTVSPropertyOp16
 70
     1
102
RTVSPropertyOp17
 70
     1
102
RTVSPropertyOp18
 70
     1
102
RTVSPropertyOp19
 70
     1
102
RTVSPropertyOp20
 70
     1
102
RTVSPropertyOp21
 70
     1
102
RTVSPropertyOp22
 70
     1
102
RTVSPropertyOp23
 70
     1
102
RTVSPropertyOp24
 70
     1
102
RTVSPropertyOp25
 70
     1
102
RTVSPropertyOp26
 70
     1
102
RTVSPropertyOp27
 70
     1
102
RTVSPropertyOp28
 70
     1
102
RTVSPropertyOp29
 70
     1
102
RTVSPropertyOp30
 70
     1
102
RTVSPropertyOp31
 70
     1
102
RTVSPropertyOp32
 70
     1
102
RTVSPropertyOp33
 70
     1
102
RTVSPropertyOp34
 70
     1
102
RTVSPropertyOp35
 70
     1
102
RTVSPropertyOp36
 70
     1
102
RTVSPropertyOp37
 70
     1
102
RTVSPropertyOp38
 70
     1
102
RTVSPropertyOp39
 70
     1
102
RTVSPropertyOp40
 70
     1
102
RTVSPropertyOp41
 70
     1
102
RTVSPropertyOp42
 70
     1
102
RTVSPropertyOp43
 70
     1
102
RTVSPropertyOp44
 70
     1
102
RTVSPropertyOp45
 70
     1
102
RTVSPropertyOp46
 70
     1
102
RTVSPropertyOp47
 70
     1
102
RTVSPropertyOp48
 70
     1
102
RTVSPropertyOp49
 70
     1
102
RTVSPropertyOp50
 70
     1
102
RTVSPropertyOp51
 70
     0
102
RTVSPropertyOp52
 70
     0
102
RTVSPropertyOp53
 70
     1
102
RTVSPropertyOp54
 70
     1
102
RTVSPropertyOp55
 70
     1
102
RTVSPropertyOp56
 70
     1
102
RTVSPropertyOp57
 70
     1
102
RTVSPropertyOp58
 70
     1
102
RTVSPropertyOp59
 70
     1
102
RTVSPropertyOp60
 70
     1
102
RTVSPropertyOp61
 70
     1
102
RTVSPropertyOp62
 70
     1
  0
XRECORD
  5
9F9F
102
{ACAD_REACTORS
330
9F9E
102
}
330
9F9E
100
AcDbXrecord
280
     1
102
RTVSPost2010Prop28
280
     0
102
RTVSPost2010PropOp28
 70
     1
102
RTVSPost2010Prop29
280
     1
102
RTVSPost2010PropOp29
 70
     1
102
RTVSPost2010Prop30
280
     1
102
RTVSPost2010PropOp30
 70
     1
102
RTVSPost2010Prop31
280
     0
102
RTVSPost2010PropOp31
 70
     1
102
RTVSPost2010Prop32
280
     0
102
RTVSPost2010PropOp32
 70
     1
102
RTVSPost2010Prop33
280
     0
102
RTVSPost2010PropOp33
 70
     1
102
RTVSPost2010Prop34
280
     0
102
RTVSPost2010PropOp34
 70
     1
102
RTVSPost2010Prop35
280
     0
102
RTVSPost2010PropOp35
 70
     1
102
RTVSPost2010Prop36
280
     0
102
RTVSPost2010PropOp36
 70
     1
102
RTVSPost2010Prop37
 90
       50
102
RTVSPost2010PropOp37
 70
     1
102
RTVSPost2010Prop38
140
0.0
102
RTVSPost2010PropOp38
 70
     1
102
RTVSPost2010Prop39
140
1.0
102
RTVSPost2010PropOp39
 70
     1
102
RTVSPost2010Prop40
 90
        0
102
RTVSPost2010PropOp40
 70
     1
102
RTVSPost2010Prop41ColorIndex
 90
       18
102
RTVSPost2010Prop41ColorRGB
 90
        0
102
RTVSPost2010PropOp41
 70
     1
102
RTVSPost2010Prop42
 90
       50
102
RTVSPost2010PropOp42
 70
     1
102
RTVSPost2010Prop43
 90
        3
102
RTVSPost2010PropOp43
 70
     1
102
RTVSPost2010Prop44ColorIndex
 90
        5
102
RTVSPost2010Prop44ColorRGB
 90
      255
102
RTVSPost2010PropOp44
 70
     1
102
RTVSPost2010Prop45
280
     0
102
RTVSPost2010PropOp45
 70
     1
102
RTVSPost2010Prop46
 90
       50
102
RTVSPost2010PropOp46
 70
     1
102
RTVSPost2010Prop47
 90
       50
102
RTVSPost2010PropOp47
 70
     1
102
RTVSPost2010Prop48
 90
       50
102
RTVSPost2010PropOp48
 70
     1
102
RTVSPost2010Prop49
280
     0
102
RTVSPost2010PropOp49
 70
     1
102
RTVSPost2010Prop50
 90
       50
102
RTVSPost2010PropOp50
 70
     1
102
RTVSPost2010Prop51ColorIndex
 90
      256
102
RTVSPost2010Prop51ColorRGB
 90
-16777216
102
RTVSPost2010PropOp51
 70
     0
102
RTVSPost2010Prop52
140
1.0
102
RTVSPost2010PropOp52
 70
     0
102
RTVSPost2010Prop53
 90
        2
102
RTVSPost2010PropOp53
 70
     1
102
RTVSPost2010Prop54
  1
strokes_ogs.tif
102
RTVSPost2010PropOp54
 70
     1
102
RTVSPost2010Prop55
280
     0
102
RTVSPost2010PropOp55
 70
     1
102
RTVSPost2010Prop56
140
1.0
102
RTVSPost2010PropOp56
 70
     1
102
RTVSPost2010Prop57
140
1.0
102
RTVSPost2010PropOp57
 70
     1
102
RTVSPropertyOp0
 70
     1
102
RTVSPropertyOp1
 70
     1
102
RTVSPropertyOp2
 70
     1
102
RTVSPropertyOp3
 70
     1
102
RTVSPropertyOp4
 70
     1
102
RTVSPropertyOp5
 70
     1
102
RTVSPropertyOp6
 70
     1
102
RTVSPropertyOp7
 70
     1
102
RTVSPropertyOp8
 70
     1
102
RTVSPropertyOp9
 70
     1
102
RTVSPropertyOp10
 70
     1
102
RTVSPropertyOp11
 70
     1
102
RTVSPropertyOp12
 70
     1
102
RTVSPropertyOp13
 70
     1
102
RTVSPropertyOp14
 70
     1
102
RTVSPropertyOp15
 70
     1
102
RTVSPropertyOp16
 70
     1
102
RTVSPropertyOp17
 70
     1
102
RTVSPropertyOp18
 70
     1
102
RTVSPropertyOp19
 70
     1
102
RTVSPropertyOp20
 70
     1
102
RTVSPropertyOp21
 70
     1
102
RTVSPropertyOp22
 70
     1
102
RTVSPropertyOp23
 70
     1
102
RTVSPropertyOp24
 70
     1
102
RTVSPropertyOp25
 70
     1
102
RTVSPropertyOp26
 70
     1
102
RTVSPropertyOp27
 70
     1
102
RTVSPropertyOp28
 70
     1
102
RTVSPropertyOp29
 70
     1
102
RTVSPropertyOp30
 70
     1
102
RTVSPropertyOp31
 70
     1
102
RTVSPropertyOp32
 70
     1
102
RTVSPropertyOp33
 70
     1
102
RTVSPropertyOp34
 70
     1
102
RTVSPropertyOp35
 70
     1
102
RTVSPropertyOp36
 70
     1
102
RTVSPropertyOp37
 70
     1
102
RTVSPropertyOp38
 70
     1
102
RTVSPropertyOp39
 70
     1
102
RTVSPropertyOp40
 70
     1
102
RTVSPropertyOp41
 70
     1
102
RTVSPropertyOp42
 70
     1
102
RTVSPropertyOp43
 70
     1
102
RTVSPropertyOp44
 70
     1
102
RTVSPropertyOp45
 70
     1
102
RTVSPropertyOp46
 70
     1
102
RTVSPropertyOp47
 70
     1
102
RTVSPropertyOp48
 70
     1
102
RTVSPropertyOp49
 70
     1
102
RTVSPropertyOp50
 70
     1
102
RTVSPropertyOp51
 70
     0
102
RTVSPropertyOp52
 70
     0
102
RTVSPropertyOp53
 70
     1
102
RTVSPropertyOp54
 70
     1
102
RTVSPropertyOp55
 70
     1
102
RTVSPropertyOp56
 70
     1
102
RTVSPropertyOp57
 70
     1
102
RTVSPropertyOp58
 70
     1
102
RTVSPropertyOp59
 70
     1
102
RTVSPropertyOp60
 70
     1
102
RTVSPropertyOp61
 70
     1
102
RTVSPropertyOp62
 70
     1
  0
XRECORD
  5
9FB9
102
{ACAD_REACTORS
330
9FB8
102
}
330
9FB8
100
AcDbXrecord
280
     1
102
RTVSPost2010Prop28
280
     0
102
RTVSPost2010PropOp28
 70
     1
102
RTVSPost2010Prop29
280
     1
102
RTVSPost2010PropOp29
 70
     1
102
RTVSPost2010Prop30
280
     1
102
RTVSPost2010PropOp30
 70
     1
102
RTVSPost2010Prop31
280
     0
102
RTVSPost2010PropOp31
 70
     1
102
RTVSPost2010Prop32
280
     0
102
RTVSPost2010PropOp32
 70
     1
102
RTVSPost2010Prop33
280
     0
102
RTVSPost2010PropOp33
 70
     1
102
RTVSPost2010Prop34
280
     0
102
RTVSPost2010PropOp34
 70
     1
102
RTVSPost2010Prop35
280
     0
102
RTVSPost2010PropOp35
 70
     1
102
RTVSPost2010Prop36
280
     0
102
RTVSPost2010PropOp36
 70
     1
102
RTVSPost2010Prop37
 90
       50
102
RTVSPost2010PropOp37
 70
     0
102
RTVSPost2010Prop38
140
0.0
102
RTVSPost2010PropOp38
 70
     0
102
RTVSPost2010Prop39
140
1.0
102
RTVSPost2010PropOp39
 70
     0
102
RTVSPost2010Prop40
 90
        0
102
RTVSPost2010PropOp40
 70
     0
102
RTVSPost2010Prop41ColorIndex
 90
       18
102
RTVSPost2010Prop41ColorRGB
 90
        0
102
RTVSPost2010PropOp41
 70
     0
102
RTVSPost2010Prop42
 90
       50
102
RTVSPost2010PropOp42
 70
     0
102
RTVSPost2010Prop43
 90
        3
102
RTVSPost2010PropOp43
 70
     0
102
RTVSPost2010Prop44ColorIndex
 90
        5
102
RTVSPost2010Prop44ColorRGB
 90
      255
102
RTVSPost2010PropOp44
 70
     0
102
RTVSPost2010Prop45
280
     0
102
RTVSPost2010PropOp45
 70
     1
102
RTVSPost2010Prop46
 90
       50
102
RTVSPost2010PropOp46
 70
     0
102
RTVSPost2010Prop47
 90
       50
102
RTVSPost2010PropOp47
 70
     0
102
RTVSPost2010Prop48
 90
       50
102
RTVSPost2010PropOp48
 70
     0
102
RTVSPost2010Prop49
280
     0
102
RTVSPost2010PropOp49
 70
     1
102
RTVSPost2010Prop50
 90
       50
102
RTVSPost2010PropOp50
 70
     0
102
RTVSPost2010Prop51ColorIndex
 90
      256
102
RTVSPost2010Prop51ColorRGB
 90
-16777216
102
RTVSPost2010PropOp51
 70
     0
102
RTVSPost2010Prop52
140
1.0
102
RTVSPost2010PropOp52
 70
     0
102
RTVSPost2010Prop53
 90
        2
102
RTVSPost2010PropOp53
 70
     0
102
RTVSPost2010Prop54
  1
strokes_ogs.tif
102
RTVSPost2010PropOp54
 70
     0
102
RTVSPost2010Prop55
280
     0
102
RTVSPost2010PropOp55
 70
     1
102
RTVSPost2010Prop56
140
1.0
102
RTVSPost2010PropOp56
 70
     0
102
RTVSPost2010Prop57
140
1.0
102
RTVSPost2010PropOp57
 70
     0
102
RTVSPropertyOp0
 70
     0
102
RTVSPropertyOp1
 70
     0
102
RTVSPropertyOp2
 70
     0
102
RTVSPropertyOp3
 70
     0
102
RTVSPropertyOp4
 70
     0
102
RTVSPropertyOp5
 70
     0
102
RTVSPropertyOp6
 70
     0
102
RTVSPropertyOp7
 70
     0
102
RTVSPropertyOp8
 70
     0
102
RTVSPropertyOp9
 70
     0
102
RTVSPropertyOp10
 70
     0
102
RTVSPropertyOp11
 70
     0
102
RTVSPropertyOp12
 70
     0
102
RTVSPropertyOp13
 70
     0
102
RTVSPropertyOp14
 70
     2
102
RTVSPropertyOp15
 70
     0
102
RTVSPropertyOp16
 70
     0
102
RTVSPropertyOp17
 70
     0
102
RTVSPropertyOp18
 70
     0
102
RTVSPropertyOp19
 70
     0
102
RTVSPropertyOp20
 70
     0
102
RTVSPropertyOp21
 70
     0
102
RTVSPropertyOp22
 70
     0
102
RTVSPropertyOp23
 70
     0
102
RTVSPropertyOp24
 70
     0
102
RTVSPropertyOp25
 70
     0
102
RTVSPropertyOp26
 70
     0
102
RTVSPropertyOp27
 70
     0
102
RTVSPropertyOp28
 70
     1
102
RTVSPropertyOp29
 70
     1
102
RTVSPropertyOp30
 70
     1
102
RTVSPropertyOp31
 70
     1
102
RTVSPropertyOp32
 70
     1
102
RTVSPropertyOp33
 70
     1
102
RTVSPropertyOp34
 70
     1
102
RTVSPropertyOp35
 70
     1
102
RTVSPropertyOp36
 70
     1
102
RTVSPropertyOp37
 70
     0
102
RTVSPropertyOp38
 70
     0
102
RTVSPropertyOp39
 70
     0
102
RTVSPropertyOp40
 70
     0
102
RTVSPropertyOp41
 70
     0
102
RTVSPropertyOp42
 70
     0
102
RTVSPropertyOp43
 70
     0
102
RTVSPropertyOp44
 70
     0
102
RTVSPropertyOp45
 70
     1
102
RTVSPropertyOp46
 70
     0
102
RTVSPropertyOp47
 70
     0
102
RTVSPropertyOp48
 70
     0
102
RTVSPropertyOp49
 70
     1
102
RTVSPropertyOp50
 70
     0
102
RTVSPropertyOp51
 70
     0
102
RTVSPropertyOp52
 70
     0
102
RTVSPropertyOp53
 70
     0
102
RTVSPropertyOp54
 70
     0
102
RTVSPropertyOp55
 70
     1
102
RTVSPropertyOp56
 70
     0
102
RTVSPropertyOp57
 70
     0
102
RTVSPropertyOp58
 70
     0
102
RTVSPropertyOp59
 70
     0
102
RTVSPropertyOp60
 70
     0
102
RTVSPropertyOp61
 70
     0
102
RTVSPropertyOp62
 70
     0
  0
XRECORD
  5
9FA7
102
{ACAD_REACTORS
330
9FA6
102
}
330
9FA6
100
AcDbXrecord
280
     1
102
RTVSPost2010Prop28
280
     0
102
RTVSPost2010PropOp28
 70
     1
102
RTVSPost2010Prop29
280
     1
102
RTVSPost2010PropOp29
 70
     1
102
RTVSPost2010Prop30
280
     1
102
RTVSPost2010PropOp30
 70
     1
102
RTVSPost2010Prop31
280
     0
102
RTVSPost2010PropOp31
 70
     1
102
RTVSPost2010Prop32
280
     0
102
RTVSPost2010PropOp32
 70
     1
102
RTVSPost2010Prop33
280
     0
102
RTVSPost2010PropOp33
 70
     1
102
RTVSPost2010Prop34
280
     0
102
RTVSPost2010PropOp34
 70
     1
102
RTVSPost2010Prop35
280
     0
102
RTVSPost2010PropOp35
 70
     1
102
RTVSPost2010Prop36
280
     0
102
RTVSPost2010PropOp36
 70
     1
102
RTVSPost2010Prop37
 90
       50
102
RTVSPost2010PropOp37
 70
     1
102
RTVSPost2010Prop38
140
0.0
102
RTVSPost2010PropOp38
 70
     1
102
RTVSPost2010Prop39
140
1.0
102
RTVSPost2010PropOp39
 70
     1
102
RTVSPost2010Prop40
 90
        0
102
RTVSPost2010PropOp40
 70
     1
102
RTVSPost2010Prop41ColorIndex
 90
       18
102
RTVSPost2010Prop41ColorRGB
 90
        0
102
RTVSPost2010PropOp41
 70
     1
102
RTVSPost2010Prop42
 90
       50
102
RTVSPost2010PropOp42
 70
     1
102
RTVSPost2010Prop43
 90
        3
102
RTVSPost2010PropOp43
 70
     1
102
RTVSPost2010Prop44ColorIndex
 90
        5
102
RTVSPost2010Prop44ColorRGB
 90
      255
102
RTVSPost2010PropOp44
 70
     1
102
RTVSPost2010Prop45
280
     0
102
RTVSPost2010PropOp45
 70
     1
102
RTVSPost2010Prop46
 90
       50
102
RTVSPost2010PropOp46
 70
     1
102
RTVSPost2010Prop47
 90
       50
102
RTVSPost2010PropOp47
 70
     1
102
RTVSPost2010Prop48
 90
       50
102
RTVSPost2010PropOp48
 70
     1
102
RTVSPost2010Prop49
280
     0
102
RTVSPost2010PropOp49
 70
     1
102
RTVSPost2010Prop50
 90
       50
102
RTVSPost2010PropOp50
 70
     1
102
RTVSPost2010Prop51ColorIndex
 90
      256
102
RTVSPost2010Prop51ColorRGB
 90
-16777216
102
RTVSPost2010PropOp51
 70
     0
102
RTVSPost2010Prop52
140
1.0
102
RTVSPost2010PropOp52
 70
     0
102
RTVSPost2010Prop53
 90
        2
102
RTVSPost2010PropOp53
 70
     1
102
RTVSPost2010Prop54
  1
strokes_ogs.tif
102
RTVSPost2010PropOp54
 70
     1
102
RTVSPost2010Prop55
280
     0
102
RTVSPost2010PropOp55
 70
     1
102
RTVSPost2010Prop56
140
1.0
102
RTVSPost2010PropOp56
 70
     1
102
RTVSPost2010Prop57
140
1.0
102
RTVSPost2010PropOp57
 70
     1
102
RTVSPropertyOp0
 70
     1
102
RTVSPropertyOp1
 70
     1
102
RTVSPropertyOp2
 70
     1
102
RTVSPropertyOp3
 70
     1
102
RTVSPropertyOp4
 70
     1
102
RTVSPropertyOp5
 70
     1
102
RTVSPropertyOp6
 70
     1
102
RTVSPropertyOp7
 70
     1
102
RTVSPropertyOp8
 70
     1
102
RTVSPropertyOp9
 70
     1
102
RTVSPropertyOp10
 70
     1
102
RTVSPropertyOp11
 70
     1
102
RTVSPropertyOp12
 70
     1
102
RTVSPropertyOp13
 70
     1
102
RTVSPropertyOp14
 70
     1
102
RTVSPropertyOp15
 70
     1
102
RTVSPropertyOp16
 70
     1
102
RTVSPropertyOp17
 70
     1
102
RTVSPropertyOp18
 70
     1
102
RTVSPropertyOp19
 70
     1
102
RTVSPropertyOp20
 70
     1
102
RTVSPropertyOp21
 70
     1
102
RTVSPropertyOp22
 70
     1
102
RTVSPropertyOp23
 70
     1
102
RTVSPropertyOp24
 70
     1
102
RTVSPropertyOp25
 70
     1
102
RTVSPropertyOp26
 70
     1
102
RTVSPropertyOp27
 70
     1
102
RTVSPropertyOp28
 70
     1
102
RTVSPropertyOp29
 70
     1
102
RTVSPropertyOp30
 70
     1
102
RTVSPropertyOp31
 70
     1
102
RTVSPropertyOp32
 70
     1
102
RTVSPropertyOp33
 70
     1
102
RTVSPropertyOp34
 70
     1
102
RTVSPropertyOp35
 70
     1
102
RTVSPropertyOp36
 70
     1
102
RTVSPropertyOp37
 70
     1
102
RTVSPropertyOp38
 70
     1
102
RTVSPropertyOp39
 70
     1
102
RTVSPropertyOp40
 70
     1
102
RTVSPropertyOp41
 70
     1
102
RTVSPropertyOp42
 70
     1
102
RTVSPropertyOp43
 70
     1
102
RTVSPropertyOp44
 70
     1
102
RTVSPropertyOp45
 70
     1
102
RTVSPropertyOp46
 70
     1
102
RTVSPropertyOp47
 70
     1
102
RTVSPropertyOp48
 70
     1
102
RTVSPropertyOp49
 70
     1
102
RTVSPropertyOp50
 70
     1
102
RTVSPropertyOp51
 70
     0
102
RTVSPropertyOp52
 70
     0
102
RTVSPropertyOp53
 70
     1
102
RTVSPropertyOp54
 70
     1
102
RTVSPropertyOp55
 70
     1
102
RTVSPropertyOp56
 70
     1
102
RTVSPropertyOp57
 70
     1
102
RTVSPropertyOp58
 70
     1
102
RTVSPropertyOp59
 70
     1
102
RTVSPropertyOp60
 70
     1
102
RTVSPropertyOp61
 70
     1
102
RTVSPropertyOp62
 70
     1
  0
XRECORD
  5
9F8B
102
{ACAD_REACTORS
330
9F8A
102
}
330
9F8A
100
AcDbXrecord
280
     1
102
RTVSPost2010Prop28
280
     0
102
RTVSPost2010PropOp28
 70
     1
102
RTVSPost2010Prop29
280
     1
102
RTVSPost2010PropOp29
 70
     1
102
RTVSPost2010Prop30
280
     1
102
RTVSPost2010PropOp30
 70
     1
102
RTVSPost2010Prop31
280
     0
102
RTVSPost2010PropOp31
 70
     1
102
RTVSPost2010Prop32
280
     0
102
RTVSPost2010PropOp32
 70
     1
102
RTVSPost2010Prop33
280
     0
102
RTVSPost2010PropOp33
 70
     1
102
RTVSPost2010Prop34
280
     0
102
RTVSPost2010PropOp34
 70
     1
102
RTVSPost2010Prop35
280
     0
102
RTVSPost2010PropOp35
 70
     1
102
RTVSPost2010Prop36
280
     0
102
RTVSPost2010PropOp36
 70
     1
102
RTVSPost2010Prop37
 90
       50
102
RTVSPost2010PropOp37
 70
     1
102
RTVSPost2010Prop38
140
0.0
102
RTVSPost2010PropOp38
 70
     1
102
RTVSPost2010Prop39
140
1.0
102
RTVSPost2010PropOp39
 70
     1
102
RTVSPost2010Prop40
 90
        0
102
RTVSPost2010PropOp40
 70
     1
102
RTVSPost2010Prop41ColorIndex
 90
       18
102
RTVSPost2010Prop41ColorRGB
 90
        0
102
RTVSPost2010PropOp41
 70
     1
102
RTVSPost2010Prop42
 90
       50
102
RTVSPost2010PropOp42
 70
     1
102
RTVSPost2010Prop43
 90
        3
102
RTVSPost2010PropOp43
 70
     1
102
RTVSPost2010Prop44ColorIndex
 90
        5
102
RTVSPost2010Prop44ColorRGB
 90
      255
102
RTVSPost2010PropOp44
 70
     1
102
RTVSPost2010Prop45
280
     0
102
RTVSPost2010PropOp45
 70
     1
102
RTVSPost2010Prop46
 90
       50
102
RTVSPost2010PropOp46
 70
     1
102
RTVSPost2010Prop47
 90
       50
102
RTVSPost2010PropOp47
 70
     1
102
RTVSPost2010Prop48
 90
       50
102
RTVSPost2010PropOp48
 70
     1
102
RTVSPost2010Prop49
280
     0
102
RTVSPost2010PropOp49
 70
     1
102
RTVSPost2010Prop50
 90
       50
102
RTVSPost2010PropOp50
 70
     1
102
RTVSPost2010Prop51ColorIndex
 90
      256
102
RTVSPost2010Prop51ColorRGB
 90
-16777216
102
RTVSPost2010PropOp51
 70
     0
102
RTVSPost2010Prop52
140
1.0
102
RTVSPost2010PropOp52
 70
     0
102
RTVSPost2010Prop53
 90
        2
102
RTVSPost2010PropOp53
 70
     1
102
RTVSPost2010Prop54
  1
strokes_ogs.tif
102
RTVSPost2010PropOp54
 70
     1
102
RTVSPost2010Prop55
280
     0
102
RTVSPost2010PropOp55
 70
     1
102
RTVSPost2010Prop56
140
1.0
102
RTVSPost2010PropOp56
 70
     1
102
RTVSPost2010Prop57
140
1.0
102
RTVSPost2010PropOp57
 70
     1
102
RTVSPropertyOp0
 70
     1
102
RTVSPropertyOp1
 70
     1
102
RTVSPropertyOp2
 70
     1
102
RTVSPropertyOp3
 70
     1
102
RTVSPropertyOp4
 70
     1
102
RTVSPropertyOp5
 70
     1
102
RTVSPropertyOp6
 70
     1
102
RTVSPropertyOp7
 70
     1
102
RTVSPropertyOp8
 70
     1
102
RTVSPropertyOp9
 70
     1
102
RTVSPropertyOp10
 70
     1
102
RTVSPropertyOp11
 70
     1
102
RTVSPropertyOp12
 70
     1
102
RTVSPropertyOp13
 70
     1
102
RTVSPropertyOp14
 70
     1
102
RTVSPropertyOp15
 70
     1
102
RTVSPropertyOp16
 70
     1
102
RTVSPropertyOp17
 70
     1
102
RTVSPropertyOp18
 70
     1
102
RTVSPropertyOp19
 70
     1
102
RTVSPropertyOp20
 70
     1
102
RTVSPropertyOp21
 70
     1
102
RTVSPropertyOp22
 70
     1
102
RTVSPropertyOp23
 70
     1
102
RTVSPropertyOp24
 70
     1
102
RTVSPropertyOp25
 70
     1
102
RTVSPropertyOp26
 70
     1
102
RTVSPropertyOp27
 70
     1
102
RTVSPropertyOp28
 70
     1
102
RTVSPropertyOp29
 70
     1
102
RTVSPropertyOp30
 70
     1
102
RTVSPropertyOp31
 70
     1
102
RTVSPropertyOp32
 70
     1
102
RTVSPropertyOp33
 70
     1
102
RTVSPropertyOp34
 70
     1
102
RTVSPropertyOp35
 70
     1
102
RTVSPropertyOp36
 70
     1
102
RTVSPropertyOp37
 70
     1
102
RTVSPropertyOp38
 70
     1
102
RTVSPropertyOp39
 70
     1
102
RTVSPropertyOp40
 70
     1
102
RTVSPropertyOp41
 70
     1
102
RTVSPropertyOp42
 70
     1
102
RTVSPropertyOp43
 70
     1
102
RTVSPropertyOp44
 70
     1
102
RTVSPropertyOp45
 70
     1
102
RTVSPropertyOp46
 70
     1
102
RTVSPropertyOp47
 70
     1
102
RTVSPropertyOp48
 70
     1
102
RTVSPropertyOp49
 70
     1
102
RTVSPropertyOp50
 70
     1
102
RTVSPropertyOp51
 70
     0
102
RTVSPropertyOp52
 70
     0
102
RTVSPropertyOp53
 70
     1
102
RTVSPropertyOp54
 70
     1
102
RTVSPropertyOp55
 70
     1
102
RTVSPropertyOp56
 70
     1
102
RTVSPropertyOp57
 70
     1
102
RTVSPropertyOp58
 70
     1
102
RTVSPropertyOp59
 70
     1
102
RTVSPropertyOp60
 70
     1
102
RTVSPropertyOp61
 70
     1
102
RTVSPropertyOp62
 70
     1
  0
XRECORD
  5
9F8D
102
{ACAD_REACTORS
330
9F8C
102
}
330
9F8C
100
AcDbXrecord
280
     1
102
RTVSPost2010Prop28
280
     0
102
RTVSPost2010PropOp28
 70
     1
102
RTVSPost2010Prop29
280
     1
102
RTVSPost2010PropOp29
 70
     1
102
RTVSPost2010Prop30
280
     1
102
RTVSPost2010PropOp30
 70
     1
102
RTVSPost2010Prop31
280
     0
102
RTVSPost2010PropOp31
 70
     1
102
RTVSPost2010Prop32
280
     0
102
RTVSPost2010PropOp32
 70
     1
102
RTVSPost2010Prop33
280
     0
102
RTVSPost2010PropOp33
 70
     1
102
RTVSPost2010Prop34
280
     0
102
RTVSPost2010PropOp34
 70
     1
102
RTVSPost2010Prop35
280
     0
102
RTVSPost2010PropOp35
 70
     1
102
RTVSPost2010Prop36
280
     0
102
RTVSPost2010PropOp36
 70
     1
102
RTVSPost2010Prop37
 90
       50
102
RTVSPost2010PropOp37
 70
     1
102
RTVSPost2010Prop38
140
0.0
102
RTVSPost2010PropOp38
 70
     1
102
RTVSPost2010Prop39
140
1.0
102
RTVSPost2010PropOp39
 70
     1
102
RTVSPost2010Prop40
 90
        0
102
RTVSPost2010PropOp40
 70
     1
102
RTVSPost2010Prop41ColorIndex
 90
       18
102
RTVSPost2010Prop41ColorRGB
 90
        0
102
RTVSPost2010PropOp41
 70
     1
102
RTVSPost2010Prop42
 90
       50
102
RTVSPost2010PropOp42
 70
     1
102
RTVSPost2010Prop43
 90
        3
102
RTVSPost2010PropOp43
 70
     1
102
RTVSPost2010Prop44ColorIndex
 90
        5
102
RTVSPost2010Prop44ColorRGB
 90
      255
102
RTVSPost2010PropOp44
 70
     1
102
RTVSPost2010Prop45
280
     0
102
RTVSPost2010PropOp45
 70
     1
102
RTVSPost2010Prop46
 90
       50
102
RTVSPost2010PropOp46
 70
     1
102
RTVSPost2010Prop47
 90
       50
102
RTVSPost2010PropOp47
 70
     1
102
RTVSPost2010Prop48
 90
       50
102
RTVSPost2010PropOp48
 70
     1
102
RTVSPost2010Prop49
280
     0
102
RTVSPost2010PropOp49
 70
     1
102
RTVSPost2010Prop50
 90
       50
102
RTVSPost2010PropOp50
 70
     1
102
RTVSPost2010Prop51ColorIndex
 90
      256
102
RTVSPost2010Prop51ColorRGB
 90
-16777216
102
RTVSPost2010PropOp51
 70
     0
102
RTVSPost2010Prop52
140
1.0
102
RTVSPost2010PropOp52
 70
     0
102
RTVSPost2010Prop53
 90
        2
102
RTVSPost2010PropOp53
 70
     1
102
RTVSPost2010Prop54
  1
strokes_ogs.tif
102
RTVSPost2010PropOp54
 70
     1
102
RTVSPost2010Prop55
280
     0
102
RTVSPost2010PropOp55
 70
     1
102
RTVSPost2010Prop56
140
1.0
102
RTVSPost2010PropOp56
 70
     1
102
RTVSPost2010Prop57
140
1.0
102
RTVSPost2010PropOp57
 70
     1
102
RTVSPropertyOp0
 70
     1
102
RTVSPropertyOp1
 70
     1
102
RTVSPropertyOp2
 70
     1
102
RTVSPropertyOp3
 70
     1
102
RTVSPropertyOp4
 70
     1
102
RTVSPropertyOp5
 70
     1
102
RTVSPropertyOp6
 70
     1
102
RTVSPropertyOp7
 70
     1
102
RTVSPropertyOp8
 70
     1
102
RTVSPropertyOp9
 70
     1
102
RTVSPropertyOp10
 70
     1
102
RTVSPropertyOp11
 70
     1
102
RTVSPropertyOp12
 70
     1
102
RTVSPropertyOp13
 70
     1
102
RTVSPropertyOp14
 70
     1
102
RTVSPropertyOp15
 70
     1
102
RTVSPropertyOp16
 70
     1
102
RTVSPropertyOp17
 70
     1
102
RTVSPropertyOp18
 70
     1
102
RTVSPropertyOp19
 70
     1
102
RTVSPropertyOp20
 70
     1
102
RTVSPropertyOp21
 70
     1
102
RTVSPropertyOp22
 70
     1
102
RTVSPropertyOp23
 70
     1
102
RTVSPropertyOp24
 70
     1
102
RTVSPropertyOp25
 70
     1
102
RTVSPropertyOp26
 70
     1
102
RTVSPropertyOp27
 70
     1
102
RTVSPropertyOp28
 70
     1
102
RTVSPropertyOp29
 70
     1
102
RTVSPropertyOp30
 70
     1
102
RTVSPropertyOp31
 70
     1
102
RTVSPropertyOp32
 70
     1
102
RTVSPropertyOp33
 70
     1
102
RTVSPropertyOp34
 70
     1
102
RTVSPropertyOp35
 70
     1
102
RTVSPropertyOp36
 70
     1
102
RTVSPropertyOp37
 70
     1
102
RTVSPropertyOp38
 70
     1
102
RTVSPropertyOp39
 70
     1
102
RTVSPropertyOp40
 70
     1
102
RTVSPropertyOp41
 70
     1
102
RTVSPropertyOp42
 70
     1
102
RTVSPropertyOp43
 70
     1
102
RTVSPropertyOp44
 70
     1
102
RTVSPropertyOp45
 70
     1
102
RTVSPropertyOp46
 70
     1
102
RTVSPropertyOp47
 70
     1
102
RTVSPropertyOp48
 70
     1
102
RTVSPropertyOp49
 70
     1
102
RTVSPropertyOp50
 70
     1
102
RTVSPropertyOp51
 70
     0
102
RTVSPropertyOp52
 70
     0
102
RTVSPropertyOp53
 70
     1
102
RTVSPropertyOp54
 70
     1
102
RTVSPropertyOp55
 70
     1
102
RTVSPropertyOp56
 70
     1
102
RTVSPropertyOp57
 70
     1
102
RTVSPropertyOp58
 70
     1
102
RTVSPropertyOp59
 70
     1
102
RTVSPropertyOp60
 70
     1
102
RTVSPropertyOp61
 70
     1
102
RTVSPropertyOp62
 70
     1
  0
XRECORD
  5
9F8F
102
{ACAD_REACTORS
330
9F8E
102
}
330
9F8E
100
AcDbXrecord
280
     1
102
RTVSPost2010Prop28
280
     0
102
RTVSPost2010PropOp28
 70
     1
102
RTVSPost2010Prop29
280
     1
102
RTVSPost2010PropOp29
 70
     1
102
RTVSPost2010Prop30
280
     1
102
RTVSPost2010PropOp30
 70
     1
102
RTVSPost2010Prop31
280
     0
102
RTVSPost2010PropOp31
 70
     1
102
RTVSPost2010Prop32
280
     0
102
RTVSPost2010PropOp32
 70
     1
102
RTVSPost2010Prop33
280
     0
102
RTVSPost2010PropOp33
 70
     1
102
RTVSPost2010Prop34
280
     0
102
RTVSPost2010PropOp34
 70
     1
102
RTVSPost2010Prop35
280
     0
102
RTVSPost2010PropOp35
 70
     1
102
RTVSPost2010Prop36
280
     0
102
RTVSPost2010PropOp36
 70
     1
102
RTVSPost2010Prop37
 90
       50
102
RTVSPost2010PropOp37
 70
     1
102
RTVSPost2010Prop38
140
0.0
102
RTVSPost2010PropOp38
 70
     1
102
RTVSPost2010Prop39
140
1.0
102
RTVSPost2010PropOp39
 70
     1
102
RTVSPost2010Prop40
 90
        0
102
RTVSPost2010PropOp40
 70
     1
102
RTVSPost2010Prop41ColorIndex
 90
       18
102
RTVSPost2010Prop41ColorRGB
 90
        0
102
RTVSPost2010PropOp41
 70
     1
102
RTVSPost2010Prop42
 90
       50
102
RTVSPost2010PropOp42
 70
     1
102
RTVSPost2010Prop43
 90
        3
102
RTVSPost2010PropOp43
 70
     1
102
RTVSPost2010Prop44ColorIndex
 90
        5
102
RTVSPost2010Prop44ColorRGB
 90
      255
102
RTVSPost2010PropOp44
 70
     1
102
RTVSPost2010Prop45
280
     0
102
RTVSPost2010PropOp45
 70
     1
102
RTVSPost2010Prop46
 90
       50
102
RTVSPost2010PropOp46
 70
     1
102
RTVSPost2010Prop47
 90
       50
102
RTVSPost2010PropOp47
 70
     1
102
RTVSPost2010Prop48
 90
       50
102
RTVSPost2010PropOp48
 70
     1
102
RTVSPost2010Prop49
280
     0
102
RTVSPost2010PropOp49
 70
     1
102
RTVSPost2010Prop50
 90
       50
102
RTVSPost2010PropOp50
 70
     1
102
RTVSPost2010Prop51ColorIndex
 90
      256
102
RTVSPost2010Prop51ColorRGB
 90
-16777216
102
RTVSPost2010PropOp51
 70
     0
102
RTVSPost2010Prop52
140
1.0
102
RTVSPost2010PropOp52
 70
     0
102
RTVSPost2010Prop53
 90
        2
102
RTVSPost2010PropOp53
 70
     1
102
RTVSPost2010Prop54
  1
strokes_ogs.tif
102
RTVSPost2010PropOp54
 70
     1
102
RTVSPost2010Prop55
280
     0
102
RTVSPost2010PropOp55
 70
     1
102
RTVSPost2010Prop56
140
1.0
102
RTVSPost2010PropOp56
 70
     1
102
RTVSPost2010Prop57
140
1.0
102
RTVSPost2010PropOp57
 70
     1
102
RTVSPropertyOp0
 70
     1
102
RTVSPropertyOp1
 70
     1
102
RTVSPropertyOp2
 70
     1
102
RTVSPropertyOp3
 70
     1
102
RTVSPropertyOp4
 70
     1
102
RTVSPropertyOp5
 70
     1
102
RTVSPropertyOp6
 70
     1
102
RTVSPropertyOp7
 70
     1
102
RTVSPropertyOp8
 70
     1
102
RTVSPropertyOp9
 70
     1
102
RTVSPropertyOp10
 70
     1
102
RTVSPropertyOp11
 70
     1
102
RTVSPropertyOp12
 70
     1
102
RTVSPropertyOp13
 70
     1
102
RTVSPropertyOp14
 70
     1
102
RTVSPropertyOp15
 70
     1
102
RTVSPropertyOp16
 70
     1
102
RTVSPropertyOp17
 70
     1
102
RTVSPropertyOp18
 70
     1
102
RTVSPropertyOp19
 70
     1
102
RTVSPropertyOp20
 70
     1
102
RTVSPropertyOp21
 70
     1
102
RTVSPropertyOp22
 70
     1
102
RTVSPropertyOp23
 70
     1
102
RTVSPropertyOp24
 70
     1
102
RTVSPropertyOp25
 70
     1
102
RTVSPropertyOp26
 70
     1
102
RTVSPropertyOp27
 70
     1
102
RTVSPropertyOp28
 70
     1
102
RTVSPropertyOp29
 70
     1
102
RTVSPropertyOp30
 70
     1
102
RTVSPropertyOp31
 70
     1
102
RTVSPropertyOp32
 70
     1
102
RTVSPropertyOp33
 70
     1
102
RTVSPropertyOp34
 70
     1
102
RTVSPropertyOp35
 70
     1
102
RTVSPropertyOp36
 70
     1
102
RTVSPropertyOp37
 70
     1
102
RTVSPropertyOp38
 70
     1
102
RTVSPropertyOp39
 70
     1
102
RTVSPropertyOp40
 70
     1
102
RTVSPropertyOp41
 70
     1
102
RTVSPropertyOp42
 70
     1
102
RTVSPropertyOp43
 70
     1
102
RTVSPropertyOp44
 70
     1
102
RTVSPropertyOp45
 70
     1
102
RTVSPropertyOp46
 70
     1
102
RTVSPropertyOp47
 70
     1
102
RTVSPropertyOp48
 70
     1
102
RTVSPropertyOp49
 70
     1
102
RTVSPropertyOp50
 70
     1
102
RTVSPropertyOp51
 70
     0
102
RTVSPropertyOp52
 70
     0
102
RTVSPropertyOp53
 70
     1
102
RTVSPropertyOp54
 70
     1
102
RTVSPropertyOp55
 70
     1
102
RTVSPropertyOp56
 70
     1
102
RTVSPropertyOp57
 70
     1
102
RTVSPropertyOp58
 70
     1
102
RTVSPropertyOp59
 70
     1
102
RTVSPropertyOp60
 70
     1
102
RTVSPropertyOp61
 70
     1
102
RTVSPropertyOp62
 70
     1
  0
XRECORD
  5
9F91
102
{ACAD_REACTORS
330
9F90
102
}
330
9F90
100
AcDbXrecord
280
     1
102
RTVSPost2010Prop28
280
     0
102
RTVSPost2010PropOp28
 70
     1
102
RTVSPost2010Prop29
280
     1
102
RTVSPost2010PropOp29
 70
     1
102
RTVSPost2010Prop30
280
     1
102
RTVSPost2010PropOp30
 70
     1
102
RTVSPost2010Prop31
280
     0
102
RTVSPost2010PropOp31
 70
     1
102
RTVSPost2010Prop32
280
     0
102
RTVSPost2010PropOp32
 70
     1
102
RTVSPost2010Prop33
280
     0
102
RTVSPost2010PropOp33
 70
     1
102
RTVSPost2010Prop34
280
     0
102
RTVSPost2010PropOp34
 70
     1
102
RTVSPost2010Prop35
280
     0
102
RTVSPost2010PropOp35
 70
     1
102
RTVSPost2010Prop36
280
     0
102
RTVSPost2010PropOp36
 70
     1
102
RTVSPost2010Prop37
 90
       50
102
RTVSPost2010PropOp37
 70
     1
102
RTVSPost2010Prop38
140
0.0
102
RTVSPost2010PropOp38
 70
     1
102
RTVSPost2010Prop39
140
1.0
102
RTVSPost2010PropOp39
 70
     1
102
RTVSPost2010Prop40
 90
        0
102
RTVSPost2010PropOp40
 70
     1
102
RTVSPost2010Prop41ColorIndex
 90
       18
102
RTVSPost2010Prop41ColorRGB
 90
        0
102
RTVSPost2010PropOp41
 70
     1
102
RTVSPost2010Prop42
 90
       50
102
RTVSPost2010PropOp42
 70
     1
102
RTVSPost2010Prop43
 90
        3
102
RTVSPost2010PropOp43
 70
     1
102
RTVSPost2010Prop44ColorIndex
 90
        5
102
RTVSPost2010Prop44ColorRGB
 90
      255
102
RTVSPost2010PropOp44
 70
     1
102
RTVSPost2010Prop45
280
     0
102
RTVSPost2010PropOp45
 70
     1
102
RTVSPost2010Prop46
 90
       50
102
RTVSPost2010PropOp46
 70
     1
102
RTVSPost2010Prop47
 90
       50
102
RTVSPost2010PropOp47
 70
     1
102
RTVSPost2010Prop48
 90
       50
102
RTVSPost2010PropOp48
 70
     1
102
RTVSPost2010Prop49
280
     0
102
RTVSPost2010PropOp49
 70
     1
102
RTVSPost2010Prop50
 90
       50
102
RTVSPost2010PropOp50
 70
     1
102
RTVSPost2010Prop51ColorIndex
 90
      256
102
RTVSPost2010Prop51ColorRGB
 90
-16777216
102
RTVSPost2010PropOp51
 70
     0
102
RTVSPost2010Prop52
140
1.0
102
RTVSPost2010PropOp52
 70
     0
102
RTVSPost2010Prop53
 90
        2
102
RTVSPost2010PropOp53
 70
     1
102
RTVSPost2010Prop54
  1
strokes_ogs.tif
102
RTVSPost2010PropOp54
 70
     1
102
RTVSPost2010Prop55
280
     0
102
RTVSPost2010PropOp55
 70
     1
102
RTVSPost2010Prop56
140
1.0
102
RTVSPost2010PropOp56
 70
     1
102
RTVSPost2010Prop57
140
1.0
102
RTVSPost2010PropOp57
 70
     1
102
RTVSPropertyOp0
 70
     1
102
RTVSPropertyOp1
 70
     1
102
RTVSPropertyOp2
 70
     1
102
RTVSPropertyOp3
 70
     1
102
RTVSPropertyOp4
 70
     1
102
RTVSPropertyOp5
 70
     1
102
RTVSPropertyOp6
 70
     1
102
RTVSPropertyOp7
 70
     1
102
RTVSPropertyOp8
 70
     1
102
RTVSPropertyOp9
 70
     1
102
RTVSPropertyOp10
 70
     1
102
RTVSPropertyOp11
 70
     1
102
RTVSPropertyOp12
 70
     1
102
RTVSPropertyOp13
 70
     1
102
RTVSPropertyOp14
 70
     1
102
RTVSPropertyOp15
 70
     1
102
RTVSPropertyOp16
 70
     1
102
RTVSPropertyOp17
 70
     1
102
RTVSPropertyOp18
 70
     1
102
RTVSPropertyOp19
 70
     1
102
RTVSPropertyOp20
 70
     1
102
RTVSPropertyOp21
 70
     1
102
RTVSPropertyOp22
 70
     1
102
RTVSPropertyOp23
 70
     1
102
RTVSPropertyOp24
 70
     1
102
RTVSPropertyOp25
 70
     1
102
RTVSPropertyOp26
 70
     1
102
RTVSPropertyOp27
 70
     1
102
RTVSPropertyOp28
 70
     1
102
RTVSPropertyOp29
 70
     1
102
RTVSPropertyOp30
 70
     1
102
RTVSPropertyOp31
 70
     1
102
RTVSPropertyOp32
 70
     1
102
RTVSPropertyOp33
 70
     1
102
RTVSPropertyOp34
 70
     1
102
RTVSPropertyOp35
 70
     1
102
RTVSPropertyOp36
 70
     1
102
RTVSPropertyOp37
 70
     1
102
RTVSPropertyOp38
 70
     1
102
RTVSPropertyOp39
 70
     1
102
RTVSPropertyOp40
 70
     1
102
RTVSPropertyOp41
 70
     1
102
RTVSPropertyOp42
 70
     1
102
RTVSPropertyOp43
 70
     1
102
RTVSPropertyOp44
 70
     1
102
RTVSPropertyOp45
 70
     1
102
RTVSPropertyOp46
 70
     1
102
RTVSPropertyOp47
 70
     1
102
RTVSPropertyOp48
 70
     1
102
RTVSPropertyOp49
 70
     1
102
RTVSPropertyOp50
 70
     1
102
RTVSPropertyOp51
 70
     0
102
RTVSPropertyOp52
 70
     0
102
RTVSPropertyOp53
 70
     1
102
RTVSPropertyOp54
 70
     1
102
RTVSPropertyOp55
 70
     1
102
RTVSPropertyOp56
 70
     1
102
RTVSPropertyOp57
 70
     1
102
RTVSPropertyOp58
 70
     1
102
RTVSPropertyOp59
 70
     1
102
RTVSPropertyOp60
 70
     1
102
RTVSPropertyOp61
 70
     1
102
RTVSPropertyOp62
 70
     1
  0
XRECORD
  5
9F99
102
{ACAD_REACTORS
330
9F98
102
}
330
9F98
100
AcDbXrecord
280
     1
102
RTVSPost2010Prop28
280
     0
102
RTVSPost2010PropOp28
 70
     1
102
RTVSPost2010Prop29
280
     1
102
RTVSPost2010PropOp29
 70
     1
102
RTVSPost2010Prop30
280
     1
102
RTVSPost2010PropOp30
 70
     1
102
RTVSPost2010Prop31
280
     0
102
RTVSPost2010PropOp31
 70
     1
102
RTVSPost2010Prop32
280
     0
102
RTVSPost2010PropOp32
 70
     1
102
RTVSPost2010Prop33
280
     0
102
RTVSPost2010PropOp33
 70
     1
102
RTVSPost2010Prop34
280
     0
102
RTVSPost2010PropOp34
 70
     1
102
RTVSPost2010Prop35
280
     0
102
RTVSPost2010PropOp35
 70
     1
102
RTVSPost2010Prop36
280
     0
102
RTVSPost2010PropOp36
 70
     1
102
RTVSPost2010Prop37
 90
       50
102
RTVSPost2010PropOp37
 70
     1
102
RTVSPost2010Prop38
140
0.0
102
RTVSPost2010PropOp38
 70
     1
102
RTVSPost2010Prop39
140
1.0
102
RTVSPost2010PropOp39
 70
     1
102
RTVSPost2010Prop40
 90
        0
102
RTVSPost2010PropOp40
 70
     1
102
RTVSPost2010Prop41ColorIndex
 90
       18
102
RTVSPost2010Prop41ColorRGB
 90
        0
102
RTVSPost2010PropOp41
 70
     1
102
RTVSPost2010Prop42
 90
       50
102
RTVSPost2010PropOp42
 70
     1
102
RTVSPost2010Prop43
 90
        3
102
RTVSPost2010PropOp43
 70
     1
102
RTVSPost2010Prop44ColorIndex
 90
        5
102
RTVSPost2010Prop44ColorRGB
 90
      255
102
RTVSPost2010PropOp44
 70
     1
102
RTVSPost2010Prop45
280
     0
102
RTVSPost2010PropOp45
 70
     1
102
RTVSPost2010Prop46
 90
       50
102
RTVSPost2010PropOp46
 70
     1
102
RTVSPost2010Prop47
 90
       50
102
RTVSPost2010PropOp47
 70
     1
102
RTVSPost2010Prop48
 90
       50
102
RTVSPost2010PropOp48
 70
     1
102
RTVSPost2010Prop49
280
     0
102
RTVSPost2010PropOp49
 70
     1
102
RTVSPost2010Prop50
 90
       50
102
RTVSPost2010PropOp50
 70
     1
102
RTVSPost2010Prop51ColorIndex
 90
      256
102
RTVSPost2010Prop51ColorRGB
 90
-16777216
102
RTVSPost2010PropOp51
 70
     0
102
RTVSPost2010Prop52
140
1.0
102
RTVSPost2010PropOp52
 70
     0
102
RTVSPost2010Prop53
 90
        2
102
RTVSPost2010PropOp53
 70
     1
102
RTVSPost2010Prop54
  1
strokes_ogs.tif
102
RTVSPost2010PropOp54
 70
     1
102
RTVSPost2010Prop55
280
     0
102
RTVSPost2010PropOp55
 70
     1
102
RTVSPost2010Prop56
140
1.0
102
RTVSPost2010PropOp56
 70
     1
102
RTVSPost2010Prop57
140
1.0
102
RTVSPost2010PropOp57
 70
     1
102
RTVSPropertyOp0
 70
     1
102
RTVSPropertyOp1
 70
     1
102
RTVSPropertyOp2
 70
     1
102
RTVSPropertyOp3
 70
     1
102
RTVSPropertyOp4
 70
     1
102
RTVSPropertyOp5
 70
     1
102
RTVSPropertyOp6
 70
     1
102
RTVSPropertyOp7
 70
     1
102
RTVSPropertyOp8
 70
     1
102
RTVSPropertyOp9
 70
     1
102
RTVSPropertyOp10
 70
     1
102
RTVSPropertyOp11
 70
     1
102
RTVSPropertyOp12
 70
     1
102
RTVSPropertyOp13
 70
     1
102
RTVSPropertyOp14
 70
     1
102
RTVSPropertyOp15
 70
     1
102
RTVSPropertyOp16
 70
     1
102
RTVSPropertyOp17
 70
     1
102
RTVSPropertyOp18
 70
     1
102
RTVSPropertyOp19
 70
     1
102
RTVSPropertyOp20
 70
     1
102
RTVSPropertyOp21
 70
     1
102
RTVSPropertyOp22
 70
     1
102
RTVSPropertyOp23
 70
     1
102
RTVSPropertyOp24
 70
     1
102
RTVSPropertyOp25
 70
     1
102
RTVSPropertyOp26
 70
     1
102
RTVSPropertyOp27
 70
     1
102
RTVSPropertyOp28
 70
     1
102
RTVSPropertyOp29
 70
     1
102
RTVSPropertyOp30
 70
     1
102
RTVSPropertyOp31
 70
     1
102
RTVSPropertyOp32
 70
     1
102
RTVSPropertyOp33
 70
     1
102
RTVSPropertyOp34
 70
     1
102
RTVSPropertyOp35
 70
     1
102
RTVSPropertyOp36
 70
     1
102
RTVSPropertyOp37
 70
     1
102
RTVSPropertyOp38
 70
     1
102
RTVSPropertyOp39
 70
     1
102
RTVSPropertyOp40
 70
     1
102
RTVSPropertyOp41
 70
     1
102
RTVSPropertyOp42
 70
     1
102
RTVSPropertyOp43
 70
     1
102
RTVSPropertyOp44
 70
     1
102
RTVSPropertyOp45
 70
     1
102
RTVSPropertyOp46
 70
     1
102
RTVSPropertyOp47
 70
     1
102
RTVSPropertyOp48
 70
     1
102
RTVSPropertyOp49
 70
     1
102
RTVSPropertyOp50
 70
     1
102
RTVSPropertyOp51
 70
     0
102
RTVSPropertyOp52
 70
     0
102
RTVSPropertyOp53
 70
     1
102
RTVSPropertyOp54
 70
     1
102
RTVSPropertyOp55
 70
     1
102
RTVSPropertyOp56
 70
     1
102
RTVSPropertyOp57
 70
     1
102
RTVSPropertyOp58
 70
     1
102
RTVSPropertyOp59
 70
     1
102
RTVSPropertyOp60
 70
     1
102
RTVSPropertyOp61
 70
     1
102
RTVSPropertyOp62
 70
     1
  0
XRECORD
  5
9FB5
102
{ACAD_REACTORS
330
9FB4
102
}
330
9FB4
100
AcDbXrecord
280
     1
102
RTVSPost2010Prop28
280
     0
102
RTVSPost2010PropOp28
 70
     1
102
RTVSPost2010Prop29
280
     1
102
RTVSPost2010PropOp29
 70
     1
102
RTVSPost2010Prop30
280
     1
102
RTVSPost2010PropOp30
 70
     1
102
RTVSPost2010Prop31
280
     0
102
RTVSPost2010PropOp31
 70
     1
102
RTVSPost2010Prop32
280
     0
102
RTVSPost2010PropOp32
 70
     1
102
RTVSPost2010Prop33
280
     0
102
RTVSPost2010PropOp33
 70
     1
102
RTVSPost2010Prop34
280
     0
102
RTVSPost2010PropOp34
 70
     1
102
RTVSPost2010Prop35
280
     0
102
RTVSPost2010PropOp35
 70
     1
102
RTVSPost2010Prop36
280
     0
102
RTVSPost2010PropOp36
 70
     1
102
RTVSPost2010Prop37
 90
       50
102
RTVSPost2010PropOp37
 70
     0
102
RTVSPost2010Prop38
140
0.0
102
RTVSPost2010PropOp38
 70
     0
102
RTVSPost2010Prop39
140
1.0
102
RTVSPost2010PropOp39
 70
     0
102
RTVSPost2010Prop40
 90
        0
102
RTVSPost2010PropOp40
 70
     0
102
RTVSPost2010Prop41ColorIndex
 90
       18
102
RTVSPost2010Prop41ColorRGB
 90
        0
102
RTVSPost2010PropOp41
 70
     0
102
RTVSPost2010Prop42
 90
       50
102
RTVSPost2010PropOp42
 70
     0
102
RTVSPost2010Prop43
 90
        3
102
RTVSPost2010PropOp43
 70
     0
102
RTVSPost2010Prop44ColorIndex
 90
        5
102
RTVSPost2010Prop44ColorRGB
 90
      255
102
RTVSPost2010PropOp44
 70
     0
102
RTVSPost2010Prop45
280
     0
102
RTVSPost2010PropOp45
 70
     1
102
RTVSPost2010Prop46
 90
       50
102
RTVSPost2010PropOp46
 70
     0
102
RTVSPost2010Prop47
 90
       50
102
RTVSPost2010PropOp47
 70
     0
102
RTVSPost2010Prop48
 90
       50
102
RTVSPost2010PropOp48
 70
     0
102
RTVSPost2010Prop49
280
     0
102
RTVSPost2010PropOp49
 70
     1
102
RTVSPost2010Prop50
 90
       50
102
RTVSPost2010PropOp50
 70
     0
102
RTVSPost2010Prop51ColorIndex
 90
      256
102
RTVSPost2010Prop51ColorRGB
 90
-16777216
102
RTVSPost2010PropOp51
 70
     0
102
RTVSPost2010Prop52
140
1.0
102
RTVSPost2010PropOp52
 70
     0
102
RTVSPost2010Prop53
 90
        2
102
RTVSPost2010PropOp53
 70
     0
102
RTVSPost2010Prop54
  1
strokes_ogs.tif
102
RTVSPost2010PropOp54
 70
     0
102
RTVSPost2010Prop55
280
     0
102
RTVSPost2010PropOp55
 70
     1
102
RTVSPost2010Prop56
140
1.0
102
RTVSPost2010PropOp56
 70
     0
102
RTVSPost2010Prop57
140
1.0
102
RTVSPost2010PropOp57
 70
     0
102
RTVSPropertyOp0
 70
     0
102
RTVSPropertyOp1
 70
     0
102
RTVSPropertyOp2
 70
     0
102
RTVSPropertyOp3
 70
     0
102
RTVSPropertyOp4
 70
     0
102
RTVSPropertyOp5
 70
     0
102
RTVSPropertyOp6
 70
     0
102
RTVSPropertyOp7
 70
     0
102
RTVSPropertyOp8
 70
     0
102
RTVSPropertyOp9
 70
     0
102
RTVSPropertyOp10
 70
     0
102
RTVSPropertyOp11
 70
     0
102
RTVSPropertyOp12
 70
     0
102
RTVSPropertyOp13
 70
     0
102
RTVSPropertyOp14
 70
     2
102
RTVSPropertyOp15
 70
     0
102
RTVSPropertyOp16
 70
     0
102
RTVSPropertyOp17
 70
     0
102
RTVSPropertyOp18
 70
     0
102
RTVSPropertyOp19
 70
     0
102
RTVSPropertyOp20
 70
     0
102
RTVSPropertyOp21
 70
     0
102
RTVSPropertyOp22
 70
     0
102
RTVSPropertyOp23
 70
     0
102
RTVSPropertyOp24
 70
     0
102
RTVSPropertyOp25
 70
     0
102
RTVSPropertyOp26
 70
     0
102
RTVSPropertyOp27
 70
     0
102
RTVSPropertyOp28
 70
     1
102
RTVSPropertyOp29
 70
     1
102
RTVSPropertyOp30
 70
     1
102
RTVSPropertyOp31
 70
     1
102
RTVSPropertyOp32
 70
     1
102
RTVSPropertyOp33
 70
     1
102
RTVSPropertyOp34
 70
     1
102
RTVSPropertyOp35
 70
     1
102
RTVSPropertyOp36
 70
     1
102
RTVSPropertyOp37
 70
     0
102
RTVSPropertyOp38
 70
     0
102
RTVSPropertyOp39
 70
     0
102
RTVSPropertyOp40
 70
     0
102
RTVSPropertyOp41
 70
     0
102
RTVSPropertyOp42
 70
     0
102
RTVSPropertyOp43
 70
     0
102
RTVSPropertyOp44
 70
     0
102
RTVSPropertyOp45
 70
     1
102
RTVSPropertyOp46
 70
     0
102
RTVSPropertyOp47
 70
     0
102
RTVSPropertyOp48
 70
     0
102
RTVSPropertyOp49
 70
     1
102
RTVSPropertyOp50
 70
     0
102
RTVSPropertyOp51
 70
     0
102
RTVSPropertyOp52
 70
     0
102
RTVSPropertyOp53
 70
     0
102
RTVSPropertyOp54
 70
     0
102
RTVSPropertyOp55
 70
     1
102
RTVSPropertyOp56
 70
     0
102
RTVSPropertyOp57
 70
     0
102
RTVSPropertyOp58
 70
     0
102
RTVSPropertyOp59
 70
     0
102
RTVSPropertyOp60
 70
     0
102
RTVSPropertyOp61
 70
     0
102
RTVSPropertyOp62
 70
     0
  0
XRECORD
  5
9FA5
102
{ACAD_REACTORS
330
9FA4
102
}
330
9FA4
100
AcDbXrecord
280
     1
102
RTVSPost2010Prop28
280
     0
102
RTVSPost2010PropOp28
 70
     1
102
RTVSPost2010Prop29
280
     1
102
RTVSPost2010PropOp29
 70
     1
102
RTVSPost2010Prop30
280
     1
102
RTVSPost2010PropOp30
 70
     1
102
RTVSPost2010Prop31
280
     0
102
RTVSPost2010PropOp31
 70
     1
102
RTVSPost2010Prop32
280
     0
102
RTVSPost2010PropOp32
 70
     1
102
RTVSPost2010Prop33
280
     0
102
RTVSPost2010PropOp33
 70
     1
102
RTVSPost2010Prop34
280
     0
102
RTVSPost2010PropOp34
 70
     1
102
RTVSPost2010Prop35
280
     0
102
RTVSPost2010PropOp35
 70
     1
102
RTVSPost2010Prop36
280
     0
102
RTVSPost2010PropOp36
 70
     1
102
RTVSPost2010Prop37
 90
       50
102
RTVSPost2010PropOp37
 70
     1
102
RTVSPost2010Prop38
140
0.0
102
RTVSPost2010PropOp38
 70
     1
102
RTVSPost2010Prop39
140
1.0
102
RTVSPost2010PropOp39
 70
     1
102
RTVSPost2010Prop40
 90
        0
102
RTVSPost2010PropOp40
 70
     1
102
RTVSPost2010Prop41ColorIndex
 90
       18
102
RTVSPost2010Prop41ColorRGB
 90
        0
102
RTVSPost2010PropOp41
 70
     1
102
RTVSPost2010Prop42
 90
       50
102
RTVSPost2010PropOp42
 70
     1
102
RTVSPost2010Prop43
 90
        3
102
RTVSPost2010PropOp43
 70
     1
102
RTVSPost2010Prop44ColorIndex
 90
        5
102
RTVSPost2010Prop44ColorRGB
 90
      255
102
RTVSPost2010PropOp44
 70
     1
102
RTVSPost2010Prop45
280
     0
102
RTVSPost2010PropOp45
 70
     1
102
RTVSPost2010Prop46
 90
       50
102
RTVSPost2010PropOp46
 70
     1
102
RTVSPost2010Prop47
 90
       50
102
RTVSPost2010PropOp47
 70
     1
102
RTVSPost2010Prop48
 90
       50
102
RTVSPost2010PropOp48
 70
     1
102
RTVSPost2010Prop49
280
     0
102
RTVSPost2010PropOp49
 70
     1
102
RTVSPost2010Prop50
 90
       50
102
RTVSPost2010PropOp50
 70
     1
102
RTVSPost2010Prop51ColorIndex
 90
      256
102
RTVSPost2010Prop51ColorRGB
 90
-16777216
102
RTVSPost2010PropOp51
 70
     0
102
RTVSPost2010Prop52
140
1.0
102
RTVSPost2010PropOp52
 70
     0
102
RTVSPost2010Prop53
 90
        2
102
RTVSPost2010PropOp53
 70
     1
102
RTVSPost2010Prop54
  1
strokes_ogs.tif
102
RTVSPost2010PropOp54
 70
     1
102
RTVSPost2010Prop55
280
     0
102
RTVSPost2010PropOp55
 70
     1
102
RTVSPost2010Prop56
140
1.0
102
RTVSPost2010PropOp56
 70
     1
102
RTVSPost2010Prop57
140
1.0
102
RTVSPost2010PropOp57
 70
     1
102
RTVSPropertyOp0
 70
     1
102
RTVSPropertyOp1
 70
     1
102
RTVSPropertyOp2
 70
     1
102
RTVSPropertyOp3
 70
     1
102
RTVSPropertyOp4
 70
     1
102
RTVSPropertyOp5
 70
     1
102
RTVSPropertyOp6
 70
     1
102
RTVSPropertyOp7
 70
     1
102
RTVSPropertyOp8
 70
     1
102
RTVSPropertyOp9
 70
     1
102
RTVSPropertyOp10
 70
     1
102
RTVSPropertyOp11
 70
     1
102
RTVSPropertyOp12
 70
     1
102
RTVSPropertyOp13
 70
     1
102
RTVSPropertyOp14
 70
     1
102
RTVSPropertyOp15
 70
     1
102
RTVSPropertyOp16
 70
     1
102
RTVSPropertyOp17
 70
     1
102
RTVSPropertyOp18
 70
     1
102
RTVSPropertyOp19
 70
     1
102
RTVSPropertyOp20
 70
     1
102
RTVSPropertyOp21
 70
     1
102
RTVSPropertyOp22
 70
     1
102
RTVSPropertyOp23
 70
     1
102
RTVSPropertyOp24
 70
     1
102
RTVSPropertyOp25
 70
     1
102
RTVSPropertyOp26
 70
     1
102
RTVSPropertyOp27
 70
     1
102
RTVSPropertyOp28
 70
     1
102
RTVSPropertyOp29
 70
     1
102
RTVSPropertyOp30
 70
     1
102
RTVSPropertyOp31
 70
     1
102
RTVSPropertyOp32
 70
     1
102
RTVSPropertyOp33
 70
     1
102
RTVSPropertyOp34
 70
     1
102
RTVSPropertyOp35
 70
     1
102
RTVSPropertyOp36
 70
     1
102
RTVSPropertyOp37
 70
     1
102
RTVSPropertyOp38
 70
     1
102
RTVSPropertyOp39
 70
     1
102
RTVSPropertyOp40
 70
     1
102
RTVSPropertyOp41
 70
     1
102
RTVSPropertyOp42
 70
     1
102
RTVSPropertyOp43
 70
     1
102
RTVSPropertyOp44
 70
     1
102
RTVSPropertyOp45
 70
     1
102
RTVSPropertyOp46
 70
     1
102
RTVSPropertyOp47
 70
     1
102
RTVSPropertyOp48
 70
     1
102
RTVSPropertyOp49
 70
     1
102
RTVSPropertyOp50
 70
     1
102
RTVSPropertyOp51
 70
     0
102
RTVSPropertyOp52
 70
     0
102
RTVSPropertyOp53
 70
     1
102
RTVSPropertyOp54
 70
     1
102
RTVSPropertyOp55
 70
     1
102
RTVSPropertyOp56
 70
     1
102
RTVSPropertyOp57
 70
     1
102
RTVSPropertyOp58
 70
     1
102
RTVSPropertyOp59
 70
     1
102
RTVSPropertyOp60
 70
     1
102
RTVSPropertyOp61
 70
     1
102
RTVSPropertyOp62
 70
     1
  0
XRECORD
  5
9FB7
102
{ACAD_REACTORS
330
9FB6
102
}
330
9FB6
100
AcDbXrecord
280
     1
102
RTVSPost2010Prop28
280
     0
102
RTVSPost2010PropOp28
 70
     1
102
RTVSPost2010Prop29
280
     1
102
RTVSPost2010PropOp29
 70
     1
102
RTVSPost2010Prop30
280
     1
102
RTVSPost2010PropOp30
 70
     1
102
RTVSPost2010Prop31
280
     0
102
RTVSPost2010PropOp31
 70
     1
102
RTVSPost2010Prop32
280
     0
102
RTVSPost2010PropOp32
 70
     1
102
RTVSPost2010Prop33
280
     0
102
RTVSPost2010PropOp33
 70
     1
102
RTVSPost2010Prop34
280
     0
102
RTVSPost2010PropOp34
 70
     1
102
RTVSPost2010Prop35
280
     0
102
RTVSPost2010PropOp35
 70
     1
102
RTVSPost2010Prop36
280
     0
102
RTVSPost2010PropOp36
 70
     1
102
RTVSPost2010Prop37
 90
       50
102
RTVSPost2010PropOp37
 70
     0
102
RTVSPost2010Prop38
140
0.0
102
RTVSPost2010PropOp38
 70
     0
102
RTVSPost2010Prop39
140
1.0
102
RTVSPost2010PropOp39
 70
     0
102
RTVSPost2010Prop40
 90
        0
102
RTVSPost2010PropOp40
 70
     0
102
RTVSPost2010Prop41ColorIndex
 90
       18
102
RTVSPost2010Prop41ColorRGB
 90
        0
102
RTVSPost2010PropOp41
 70
     0
102
RTVSPost2010Prop42
 90
       50
102
RTVSPost2010PropOp42
 70
     0
102
RTVSPost2010Prop43
 90
        3
102
RTVSPost2010PropOp43
 70
     0
102
RTVSPost2010Prop44ColorIndex
 90
        5
102
RTVSPost2010Prop44ColorRGB
 90
      255
102
RTVSPost2010PropOp44
 70
     0
102
RTVSPost2010Prop45
280
     0
102
RTVSPost2010PropOp45
 70
     1
102
RTVSPost2010Prop46
 90
       50
102
RTVSPost2010PropOp46
 70
     0
102
RTVSPost2010Prop47
 90
       50
102
RTVSPost2010PropOp47
 70
     0
102
RTVSPost2010Prop48
 90
       50
102
RTVSPost2010PropOp48
 70
     0
102
RTVSPost2010Prop49
280
     0
102
RTVSPost2010PropOp49
 70
     1
102
RTVSPost2010Prop50
 90
       50
102
RTVSPost2010PropOp50
 70
     0
102
RTVSPost2010Prop51ColorIndex
 90
      256
102
RTVSPost2010Prop51ColorRGB
 90
-16777216
102
RTVSPost2010PropOp51
 70
     0
102
RTVSPost2010Prop52
140
1.0
102
RTVSPost2010PropOp52
 70
     0
102
RTVSPost2010Prop53
 90
        2
102
RTVSPost2010PropOp53
 70
     0
102
RTVSPost2010Prop54
  1
strokes_ogs.tif
102
RTVSPost2010PropOp54
 70
     0
102
RTVSPost2010Prop55
280
     0
102
RTVSPost2010PropOp55
 70
     1
102
RTVSPost2010Prop56
140
1.0
102
RTVSPost2010PropOp56
 70
     0
102
RTVSPost2010Prop57
140
1.0
102
RTVSPost2010PropOp57
 70
     0
102
RTVSPropertyOp0
 70
     0
102
RTVSPropertyOp1
 70
     0
102
RTVSPropertyOp2
 70
     0
102
RTVSPropertyOp3
 70
     0
102
RTVSPropertyOp4
 70
     0
102
RTVSPropertyOp5
 70
     0
102
RTVSPropertyOp6
 70
     0
102
RTVSPropertyOp7
 70
     0
102
RTVSPropertyOp8
 70
     0
102
RTVSPropertyOp9
 70
     0
102
RTVSPropertyOp10
 70
     0
102
RTVSPropertyOp11
 70
     0
102
RTVSPropertyOp12
 70
     0
102
RTVSPropertyOp13
 70
     0
102
RTVSPropertyOp14
 70
     2
102
RTVSPropertyOp15
 70
     0
102
RTVSPropertyOp16
 70
     0
102
RTVSPropertyOp17
 70
     0
102
RTVSPropertyOp18
 70
     0
102
RTVSPropertyOp19
 70
     0
102
RTVSPropertyOp20
 70
     0
102
RTVSPropertyOp21
 70
     0
102
RTVSPropertyOp22
 70
     0
102
RTVSPropertyOp23
 70
     0
102
RTVSPropertyOp24
 70
     0
102
RTVSPropertyOp25
 70
     0
102
RTVSPropertyOp26
 70
     0
102
RTVSPropertyOp27
 70
     0
102
RTVSPropertyOp28
 70
     1
102
RTVSPropertyOp29
 70
     1
102
RTVSPropertyOp30
 70
     1
102
RTVSPropertyOp31
 70
     1
102
RTVSPropertyOp32
 70
     1
102
RTVSPropertyOp33
 70
     1
102
RTVSPropertyOp34
 70
     1
102
RTVSPropertyOp35
 70
     1
102
RTVSPropertyOp36
 70
     1
102
RTVSPropertyOp37
 70
     0
102
RTVSPropertyOp38
 70
     0
102
RTVSPropertyOp39
 70
     0
102
RTVSPropertyOp40
 70
     0
102
RTVSPropertyOp41
 70
     0
102
RTVSPropertyOp42
 70
     0
102
RTVSPropertyOp43
 70
     0
102
RTVSPropertyOp44
 70
     0
102
RTVSPropertyOp45
 70
     1
102
RTVSPropertyOp46
 70
     0
102
RTVSPropertyOp47
 70
     0
102
RTVSPropertyOp48
 70
     0
102
RTVSPropertyOp49
 70
     1
102
RTVSPropertyOp50
 70
     0
102
RTVSPropertyOp51
 70
     0
102
RTVSPropertyOp52
 70
     0
102
RTVSPropertyOp53
 70
     0
102
RTVSPropertyOp54
 70
     0
102
RTVSPropertyOp55
 70
     1
102
RTVSPropertyOp56
 70
     0
102
RTVSPropertyOp57
 70
     0
102
RTVSPropertyOp58
 70
     0
102
RTVSPropertyOp59
 70
     0
102
RTVSPropertyOp60
 70
     0
102
RTVSPropertyOp61
 70
     0
102
RTVSPropertyOp62
 70
     0
  0
XRECORD
  5
9F9D
102
{ACAD_REACTORS
330
9F9C
102
}
330
9F9C
100
AcDbXrecord
280
     1
102
RTVSPost2010Prop28
280
     0
102
RTVSPost2010PropOp28
 70
     1
102
RTVSPost2010Prop29
280
     1
102
RTVSPost2010PropOp29
 70
     1
102
RTVSPost2010Prop30
280
     1
102
RTVSPost2010PropOp30
 70
     1
102
RTVSPost2010Prop31
280
     0
102
RTVSPost2010PropOp31
 70
     1
102
RTVSPost2010Prop32
280
     0
102
RTVSPost2010PropOp32
 70
     1
102
RTVSPost2010Prop33
280
     0
102
RTVSPost2010PropOp33
 70
     1
102
RTVSPost2010Prop34
280
     0
102
RTVSPost2010PropOp34
 70
     1
102
RTVSPost2010Prop35
280
     0
102
RTVSPost2010PropOp35
 70
     1
102
RTVSPost2010Prop36
280
     0
102
RTVSPost2010PropOp36
 70
     1
102
RTVSPost2010Prop37
 90
       50
102
RTVSPost2010PropOp37
 70
     1
102
RTVSPost2010Prop38
140
0.0
102
RTVSPost2010PropOp38
 70
     1
102
RTVSPost2010Prop39
140
1.0
102
RTVSPost2010PropOp39
 70
     1
102
RTVSPost2010Prop40
 90
        0
102
RTVSPost2010PropOp40
 70
     1
102
RTVSPost2010Prop41ColorIndex
 90
       18
102
RTVSPost2010Prop41ColorRGB
 90
        0
102
RTVSPost2010PropOp41
 70
     1
102
RTVSPost2010Prop42
 90
       50
102
RTVSPost2010PropOp42
 70
     1
102
RTVSPost2010Prop43
 90
        3
102
RTVSPost2010PropOp43
 70
     1
102
RTVSPost2010Prop44ColorIndex
 90
        5
102
RTVSPost2010Prop44ColorRGB
 90
      255
102
RTVSPost2010PropOp44
 70
     1
102
RTVSPost2010Prop45
280
     0
102
RTVSPost2010PropOp45
 70
     1
102
RTVSPost2010Prop46
 90
       50
102
RTVSPost2010PropOp46
 70
     1
102
RTVSPost2010Prop47
 90
       50
102
RTVSPost2010PropOp47
 70
     1
102
RTVSPost2010Prop48
 90
       50
102
RTVSPost2010PropOp48
 70
     1
102
RTVSPost2010Prop49
280
     0
102
RTVSPost2010PropOp49
 70
     1
102
RTVSPost2010Prop50
 90
       50
102
RTVSPost2010PropOp50
 70
     1
102
RTVSPost2010Prop51ColorIndex
 90
      256
102
RTVSPost2010Prop51ColorRGB
 90
-16777216
102
RTVSPost2010PropOp51
 70
     0
102
RTVSPost2010Prop52
140
1.0
102
RTVSPost2010PropOp52
 70
     0
102
RTVSPost2010Prop53
 90
        2
102
RTVSPost2010PropOp53
 70
     1
102
RTVSPost2010Prop54
  1
strokes_ogs.tif
102
RTVSPost2010PropOp54
 70
     1
102
RTVSPost2010Prop55
280
     0
102
RTVSPost2010PropOp55
 70
     1
102
RTVSPost2010Prop56
140
1.0
102
RTVSPost2010PropOp56
 70
     1
102
RTVSPost2010Prop57
140
1.0
102
RTVSPost2010PropOp57
 70
     1
102
RTVSPropertyOp0
 70
     1
102
RTVSPropertyOp1
 70
     1
102
RTVSPropertyOp2
 70
     1
102
RTVSPropertyOp3
 70
     1
102
RTVSPropertyOp4
 70
     1
102
RTVSPropertyOp5
 70
     1
102
RTVSPropertyOp6
 70
     1
102
RTVSPropertyOp7
 70
     1
102
RTVSPropertyOp8
 70
     1
102
RTVSPropertyOp9
 70
     1
102
RTVSPropertyOp10
 70
     1
102
RTVSPropertyOp11
 70
     1
102
RTVSPropertyOp12
 70
     1
102
RTVSPropertyOp13
 70
     1
102
RTVSPropertyOp14
 70
     1
102
RTVSPropertyOp15
 70
     1
102
RTVSPropertyOp16
 70
     1
102
RTVSPropertyOp17
 70
     1
102
RTVSPropertyOp18
 70
     1
102
RTVSPropertyOp19
 70
     1
102
RTVSPropertyOp20
 70
     1
102
RTVSPropertyOp21
 70
     1
102
RTVSPropertyOp22
 70
     1
102
RTVSPropertyOp23
 70
     1
102
RTVSPropertyOp24
 70
     1
102
RTVSPropertyOp25
 70
     1
102
RTVSPropertyOp26
 70
     1
102
RTVSPropertyOp27
 70
     1
102
RTVSPropertyOp28
 70
     1
102
RTVSPropertyOp29
 70
     1
102
RTVSPropertyOp30
 70
     1
102
RTVSPropertyOp31
 70
     1
102
RTVSPropertyOp32
 70
     1
102
RTVSPropertyOp33
 70
     1
102
RTVSPropertyOp34
 70
     1
102
RTVSPropertyOp35
 70
     1
102
RTVSPropertyOp36
 70
     1
102
RTVSPropertyOp37
 70
     1
102
RTVSPropertyOp38
 70
     1
102
RTVSPropertyOp39
 70
     1
102
RTVSPropertyOp40
 70
     1
102
RTVSPropertyOp41
 70
     1
102
RTVSPropertyOp42
 70
     1
102
RTVSPropertyOp43
 70
     1
102
RTVSPropertyOp44
 70
     1
102
RTVSPropertyOp45
 70
     1
102
RTVSPropertyOp46
 70
     1
102
RTVSPropertyOp47
 70
     1
102
RTVSPropertyOp48
 70
     1
102
RTVSPropertyOp49
 70
     1
102
RTVSPropertyOp50
 70
     1
102
RTVSPropertyOp51
 70
     0
102
RTVSPropertyOp52
 70
     0
102
RTVSPropertyOp53
 70
     1
102
RTVSPropertyOp54
 70
     1
102
RTVSPropertyOp55
 70
     1
102
RTVSPropertyOp56
 70
     1
102
RTVSPropertyOp57
 70
     1
102
RTVSPropertyOp58
 70
     1
102
RTVSPropertyOp59
 70
     1
102
RTVSPropertyOp60
 70
     1
102
RTVSPropertyOp61
 70
     1
102
RTVSPropertyOp62
 70
     1
  0
XRECORD
  5
9FB3
102
{ACAD_REACTORS
330
9FB2
102
}
330
9FB2
100
AcDbXrecord
280
     1
102
RTVSPost2010Prop28
280
     0
102
RTVSPost2010PropOp28
 70
     1
102
RTVSPost2010Prop29
280
     1
102
RTVSPost2010PropOp29
 70
     1
102
RTVSPost2010Prop30
280
     1
102
RTVSPost2010PropOp30
 70
     1
102
RTVSPost2010Prop31
280
     0
102
RTVSPost2010PropOp31
 70
     1
102
RTVSPost2010Prop32
280
     0
102
RTVSPost2010PropOp32
 70
     1
102
RTVSPost2010Prop33
280
     0
102
RTVSPost2010PropOp33
 70
     1
102
RTVSPost2010Prop34
280
     0
102
RTVSPost2010PropOp34
 70
     1
102
RTVSPost2010Prop35
280
     0
102
RTVSPost2010PropOp35
 70
     1
102
RTVSPost2010Prop36
280
     0
102
RTVSPost2010PropOp36
 70
     1
102
RTVSPost2010Prop37
 90
       50
102
RTVSPost2010PropOp37
 70
     1
102
RTVSPost2010Prop38
140
0.0
102
RTVSPost2010PropOp38
 70
     1
102
RTVSPost2010Prop39
140
1.0
102
RTVSPost2010PropOp39
 70
     1
102
RTVSPost2010Prop40
 90
        0
102
RTVSPost2010PropOp40
 70
     1
102
RTVSPost2010Prop41ColorIndex
 90
       18
102
RTVSPost2010Prop41ColorRGB
 90
        0
102
RTVSPost2010PropOp41
 70
     1
102
RTVSPost2010Prop42
 90
       50
102
RTVSPost2010PropOp42
 70
     1
102
RTVSPost2010Prop43
 90
        3
102
RTVSPost2010PropOp43
 70
     1
102
RTVSPost2010Prop44ColorIndex
 90
        5
102
RTVSPost2010Prop44ColorRGB
 90
      255
102
RTVSPost2010PropOp44
 70
     1
102
RTVSPost2010Prop45
280
     0
102
RTVSPost2010PropOp45
 70
     1
102
RTVSPost2010Prop46
 90
       50
102
RTVSPost2010PropOp46
 70
     1
102
RTVSPost2010Prop47
 90
       50
102
RTVSPost2010PropOp47
 70
     1
102
RTVSPost2010Prop48
 90
       50
102
RTVSPost2010PropOp48
 70
     1
102
RTVSPost2010Prop49
280
     0
102
RTVSPost2010PropOp49
 70
     1
102
RTVSPost2010Prop50
 90
       50
102
RTVSPost2010PropOp50
 70
     1
102
RTVSPost2010Prop51ColorIndex
 90
      256
102
RTVSPost2010Prop51ColorRGB
 90
-16777216
102
RTVSPost2010PropOp51
 70
     0
102
RTVSPost2010Prop52
140
1.0
102
RTVSPost2010PropOp52
 70
     0
102
RTVSPost2010Prop53
 90
        2
102
RTVSPost2010PropOp53
 70
     1
102
RTVSPost2010Prop54
  1
strokes_ogs.tif
102
RTVSPost2010PropOp54
 70
     1
102
RTVSPost2010Prop55
280
     0
102
RTVSPost2010PropOp55
 70
     1
102
RTVSPost2010Prop56
140
1.0
102
RTVSPost2010PropOp56
 70
     1
102
RTVSPost2010Prop57
140
1.0
102
RTVSPost2010PropOp57
 70
     1
102
RTVSPropertyOp0
 70
     1
102
RTVSPropertyOp1
 70
     1
102
RTVSPropertyOp2
 70
     1
102
RTVSPropertyOp3
 70
     1
102
RTVSPropertyOp4
 70
     1
102
RTVSPropertyOp5
 70
     1
102
RTVSPropertyOp6
 70
     1
102
RTVSPropertyOp7
 70
     1
102
RTVSPropertyOp8
 70
     1
102
RTVSPropertyOp9
 70
     1
102
RTVSPropertyOp10
 70
     1
102
RTVSPropertyOp11
 70
     1
102
RTVSPropertyOp12
 70
     1
102
RTVSPropertyOp13
 70
     1
102
RTVSPropertyOp14
 70
     1
102
RTVSPropertyOp15
 70
     1
102
RTVSPropertyOp16
 70
     1
102
RTVSPropertyOp17
 70
     1
102
RTVSPropertyOp18
 70
     1
102
RTVSPropertyOp19
 70
     1
102
RTVSPropertyOp20
 70
     1
102
RTVSPropertyOp21
 70
     1
102
RTVSPropertyOp22
 70
     1
102
RTVSPropertyOp23
 70
     1
102
RTVSPropertyOp24
 70
     1
102
RTVSPropertyOp25
 70
     1
102
RTVSPropertyOp26
 70
     1
102
RTVSPropertyOp27
 70
     1
102
RTVSPropertyOp28
 70
     1
102
RTVSPropertyOp29
 70
     1
102
RTVSPropertyOp30
 70
     1
102
RTVSPropertyOp31
 70
     1
102
RTVSPropertyOp32
 70
     1
102
RTVSPropertyOp33
 70
     1
102
RTVSPropertyOp34
 70
     1
102
RTVSPropertyOp35
 70
     1
102
RTVSPropertyOp36
 70
     1
102
RTVSPropertyOp37
 70
     1
102
RTVSPropertyOp38
 70
     1
102
RTVSPropertyOp39
 70
     1
102
RTVSPropertyOp40
 70
     1
102
RTVSPropertyOp41
 70
     1
102
RTVSPropertyOp42
 70
     1
102
RTVSPropertyOp43
 70
     1
102
RTVSPropertyOp44
 70
     1
102
RTVSPropertyOp45
 70
     1
102
RTVSPropertyOp46
 70
     1
102
RTVSPropertyOp47
 70
     1
102
RTVSPropertyOp48
 70
     1
102
RTVSPropertyOp49
 70
     1
102
RTVSPropertyOp50
 70
     1
102
RTVSPropertyOp51
 70
     0
102
RTVSPropertyOp52
 70
     0
102
RTVSPropertyOp53
 70
     1
102
RTVSPropertyOp54
 70
     1
102
RTVSPropertyOp55
 70
     1
102
RTVSPropertyOp56
 70
     1
102
RTVSPropertyOp57
 70
     1
102
RTVSPropertyOp58
 70
     1
102
RTVSPropertyOp59
 70
     1
102
RTVSPropertyOp60
 70
     1
102
RTVSPropertyOp61
 70
     1
102
RTVSPropertyOp62
 70
     1
  0
XRECORD
  5
9FB1
102
{ACAD_REACTORS
330
9FB0
102
}
330
9FB0
100
AcDbXrecord
280
     1
102
RTVSPost2010Prop28
280
     0
102
RTVSPost2010PropOp28
 70
     1
102
RTVSPost2010Prop29
280
     1
102
RTVSPost2010PropOp29
 70
     1
102
RTVSPost2010Prop30
280
     1
102
RTVSPost2010PropOp30
 70
     1
102
RTVSPost2010Prop31
280
     0
102
RTVSPost2010PropOp31
 70
     1
102
RTVSPost2010Prop32
280
     0
102
RTVSPost2010PropOp32
 70
     1
102
RTVSPost2010Prop33
280
     0
102
RTVSPost2010PropOp33
 70
     1
102
RTVSPost2010Prop34
280
     0
102
RTVSPost2010PropOp34
 70
     1
102
RTVSPost2010Prop35
280
     0
102
RTVSPost2010PropOp35
 70
     1
102
RTVSPost2010Prop36
280
     0
102
RTVSPost2010PropOp36
 70
     1
102
RTVSPost2010Prop37
 90
       50
102
RTVSPost2010PropOp37
 70
     1
102
RTVSPost2010Prop38
140
0.0
102
RTVSPost2010PropOp38
 70
     1
102
RTVSPost2010Prop39
140
1.0
102
RTVSPost2010PropOp39
 70
     1
102
RTVSPost2010Prop40
 90
        0
102
RTVSPost2010PropOp40
 70
     1
102
RTVSPost2010Prop41ColorIndex
 90
       18
102
RTVSPost2010Prop41ColorRGB
 90
        0
102
RTVSPost2010PropOp41
 70
     1
102
RTVSPost2010Prop42
 90
       50
102
RTVSPost2010PropOp42
 70
     1
102
RTVSPost2010Prop43
 90
        3
102
RTVSPost2010PropOp43
 70
     1
102
RTVSPost2010Prop44ColorIndex
 90
        5
102
RTVSPost2010Prop44ColorRGB
 90
      255
102
RTVSPost2010PropOp44
 70
     1
102
RTVSPost2010Prop45
280
     0
102
RTVSPost2010PropOp45
 70
     1
102
RTVSPost2010Prop46
 90
       50
102
RTVSPost2010PropOp46
 70
     1
102
RTVSPost2010Prop47
 90
       50
102
RTVSPost2010PropOp47
 70
     1
102
RTVSPost2010Prop48
 90
       50
102
RTVSPost2010PropOp48
 70
     1
102
RTVSPost2010Prop49
280
     0
102
RTVSPost2010PropOp49
 70
     1
102
RTVSPost2010Prop50
 90
       50
102
RTVSPost2010PropOp50
 70
     1
102
RTVSPost2010Prop51ColorIndex
 90
      256
102
RTVSPost2010Prop51ColorRGB
 90
-16777216
102
RTVSPost2010PropOp51
 70
     0
102
RTVSPost2010Prop52
140
1.0
102
RTVSPost2010PropOp52
 70
     0
102
RTVSPost2010Prop53
 90
        2
102
RTVSPost2010PropOp53
 70
     1
102
RTVSPost2010Prop54
  1
strokes_ogs.tif
102
RTVSPost2010PropOp54
 70
     1
102
RTVSPost2010Prop55
280
     0
102
RTVSPost2010PropOp55
 70
     1
102
RTVSPost2010Prop56
140
1.0
102
RTVSPost2010PropOp56
 70
     1
102
RTVSPost2010Prop57
140
1.0
102
RTVSPost2010PropOp57
 70
     1
102
RTVSPropertyOp0
 70
     1
102
RTVSPropertyOp1
 70
     1
102
RTVSPropertyOp2
 70
     1
102
RTVSPropertyOp3
 70
     1
102
RTVSPropertyOp4
 70
     1
102
RTVSPropertyOp5
 70
     1
102
RTVSPropertyOp6
 70
     1
102
RTVSPropertyOp7
 70
     1
102
RTVSPropertyOp8
 70
     1
102
RTVSPropertyOp9
 70
     1
102
RTVSPropertyOp10
 70
     1
102
RTVSPropertyOp11
 70
     1
102
RTVSPropertyOp12
 70
     1
102
RTVSPropertyOp13
 70
     1
102
RTVSPropertyOp14
 70
     1
102
RTVSPropertyOp15
 70
     1
102
RTVSPropertyOp16
 70
     1
102
RTVSPropertyOp17
 70
     1
102
RTVSPropertyOp18
 70
     1
102
RTVSPropertyOp19
 70
     1
102
RTVSPropertyOp20
 70
     1
102
RTVSPropertyOp21
 70
     1
102
RTVSPropertyOp22
 70
     1
102
RTVSPropertyOp23
 70
     1
102
RTVSPropertyOp24
 70
     1
102
RTVSPropertyOp25
 70
     1
102
RTVSPropertyOp26
 70
     1
102
RTVSPropertyOp27
 70
     1
102
RTVSPropertyOp28
 70
     1
102
RTVSPropertyOp29
 70
     1
102
RTVSPropertyOp30
 70
     1
102
RTVSPropertyOp31
 70
     1
102
RTVSPropertyOp32
 70
     1
102
RTVSPropertyOp33
 70
     1
102
RTVSPropertyOp34
 70
     1
102
RTVSPropertyOp35
 70
     1
102
RTVSPropertyOp36
 70
     1
102
RTVSPropertyOp37
 70
     1
102
RTVSPropertyOp38
 70
     1
102
RTVSPropertyOp39
 70
     1
102
RTVSPropertyOp40
 70
     1
102
RTVSPropertyOp41
 70
     1
102
RTVSPropertyOp42
 70
     1
102
RTVSPropertyOp43
 70
     1
102
RTVSPropertyOp44
 70
     1
102
RTVSPropertyOp45
 70
     1
102
RTVSPropertyOp46
 70
     1
102
RTVSPropertyOp47
 70
     1
102
RTVSPropertyOp48
 70
     1
102
RTVSPropertyOp49
 70
     1
102
RTVSPropertyOp50
 70
     1
102
RTVSPropertyOp51
 70
     0
102
RTVSPropertyOp52
 70
     0
102
RTVSPropertyOp53
 70
     1
102
RTVSPropertyOp54
 70
     1
102
RTVSPropertyOp55
 70
     1
102
RTVSPropertyOp56
 70
     1
102
RTVSPropertyOp57
 70
     1
102
RTVSPropertyOp58
 70
     1
102
RTVSPropertyOp59
 70
     1
102
RTVSPropertyOp60
 70
     1
102
RTVSPropertyOp61
 70
     1
102
RTVSPropertyOp62
 70
     1
  0
XRECORD
  5
9FAB
102
{ACAD_REACTORS
330
9FAA
102
}
330
9FAA
100
AcDbXrecord
280
     1
102
RTVSPost2010Prop28
280
     0
102
RTVSPost2010PropOp28
 70
     1
102
RTVSPost2010Prop29
280
     1
102
RTVSPost2010PropOp29
 70
     1
102
RTVSPost2010Prop30
280
     1
102
RTVSPost2010PropOp30
 70
     1
102
RTVSPost2010Prop31
280
     0
102
RTVSPost2010PropOp31
 70
     1
102
RTVSPost2010Prop32
280
     0
102
RTVSPost2010PropOp32
 70
     1
102
RTVSPost2010Prop33
280
     0
102
RTVSPost2010PropOp33
 70
     1
102
RTVSPost2010Prop34
280
     0
102
RTVSPost2010PropOp34
 70
     1
102
RTVSPost2010Prop35
280
     0
102
RTVSPost2010PropOp35
 70
     1
102
RTVSPost2010Prop36
280
     0
102
RTVSPost2010PropOp36
 70
     1
102
RTVSPost2010Prop37
 90
       50
102
RTVSPost2010PropOp37
 70
     1
102
RTVSPost2010Prop38
140
0.0
102
RTVSPost2010PropOp38
 70
     1
102
RTVSPost2010Prop39
140
1.0
102
RTVSPost2010PropOp39
 70
     1
102
RTVSPost2010Prop40
 90
        0
102
RTVSPost2010PropOp40
 70
     1
102
RTVSPost2010Prop41ColorIndex
 90
       18
102
RTVSPost2010Prop41ColorRGB
 90
        0
102
RTVSPost2010PropOp41
 70
     1
102
RTVSPost2010Prop42
 90
       50
102
RTVSPost2010PropOp42
 70
     1
102
RTVSPost2010Prop43
 90
        3
102
RTVSPost2010PropOp43
 70
     1
102
RTVSPost2010Prop44ColorIndex
 90
        5
102
RTVSPost2010Prop44ColorRGB
 90
      255
102
RTVSPost2010PropOp44
 70
     1
102
RTVSPost2010Prop45
280
     0
102
RTVSPost2010PropOp45
 70
     1
102
RTVSPost2010Prop46
 90
       50
102
RTVSPost2010PropOp46
 70
     1
102
RTVSPost2010Prop47
 90
       50
102
RTVSPost2010PropOp47
 70
     1
102
RTVSPost2010Prop48
 90
       50
102
RTVSPost2010PropOp48
 70
     1
102
RTVSPost2010Prop49
280
     0
102
RTVSPost2010PropOp49
 70
     1
102
RTVSPost2010Prop50
 90
       50
102
RTVSPost2010PropOp50
 70
     1
102
RTVSPost2010Prop51ColorIndex
 90
      256
102
RTVSPost2010Prop51ColorRGB
 90
-16777216
102
RTVSPost2010PropOp51
 70
     0
102
RTVSPost2010Prop52
140
1.0
102
RTVSPost2010PropOp52
 70
     0
102
RTVSPost2010Prop53
 90
        2
102
RTVSPost2010PropOp53
 70
     1
102
RTVSPost2010Prop54
  1
strokes_ogs.tif
102
RTVSPost2010PropOp54
 70
     1
102
RTVSPost2010Prop55
280
     0
102
RTVSPost2010PropOp55
 70
     1
102
RTVSPost2010Prop56
140
1.0
102
RTVSPost2010PropOp56
 70
     1
102
RTVSPost2010Prop57
140
1.0
102
RTVSPost2010PropOp57
 70
     1
102
RTVSPropertyOp0
 70
     1
102
RTVSPropertyOp1
 70
     1
102
RTVSPropertyOp2
 70
     1
102
RTVSPropertyOp3
 70
     1
102
RTVSPropertyOp4
 70
     1
102
RTVSPropertyOp5
 70
     1
102
RTVSPropertyOp6
 70
     1
102
RTVSPropertyOp7
 70
     1
102
RTVSPropertyOp8
 70
     1
102
RTVSPropertyOp9
 70
     1
102
RTVSPropertyOp10
 70
     1
102
RTVSPropertyOp11
 70
     1
102
RTVSPropertyOp12
 70
     1
102
RTVSPropertyOp13
 70
     1
102
RTVSPropertyOp14
 70
     1
102
RTVSPropertyOp15
 70
     1
102
RTVSPropertyOp16
 70
     1
102
RTVSPropertyOp17
 70
     1
102
RTVSPropertyOp18
 70
     1
102
RTVSPropertyOp19
 70
     1
102
RTVSPropertyOp20
 70
     1
102
RTVSPropertyOp21
 70
     1
102
RTVSPropertyOp22
 70
     1
102
RTVSPropertyOp23
 70
     1
102
RTVSPropertyOp24
 70
     1
102
RTVSPropertyOp25
 70
     1
102
RTVSPropertyOp26
 70
     1
102
RTVSPropertyOp27
 70
     1
102
RTVSPropertyOp28
 70
     1
102
RTVSPropertyOp29
 70
     1
102
RTVSPropertyOp30
 70
     1
102
RTVSPropertyOp31
 70
     1
102
RTVSPropertyOp32
 70
     1
102
RTVSPropertyOp33
 70
     1
102
RTVSPropertyOp34
 70
     1
102
RTVSPropertyOp35
 70
     1
102
RTVSPropertyOp36
 70
     1
102
RTVSPropertyOp37
 70
     1
102
RTVSPropertyOp38
 70
     1
102
RTVSPropertyOp39
 70
     1
102
RTVSPropertyOp40
 70
     1
102
RTVSPropertyOp41
 70
     1
102
RTVSPropertyOp42
 70
     1
102
RTVSPropertyOp43
 70
     1
102
RTVSPropertyOp44
 70
     1
102
RTVSPropertyOp45
 70
     1
102
RTVSPropertyOp46
 70
     1
102
RTVSPropertyOp47
 70
     1
102
RTVSPropertyOp48
 70
     1
102
RTVSPropertyOp49
 70
     1
102
RTVSPropertyOp50
 70
     1
102
RTVSPropertyOp51
 70
     0
102
RTVSPropertyOp52
 70
     0
102
RTVSPropertyOp53
 70
     1
102
RTVSPropertyOp54
 70
     1
102
RTVSPropertyOp55
 70
     1
102
RTVSPropertyOp56
 70
     1
102
RTVSPropertyOp57
 70
     1
102
RTVSPropertyOp58
 70
     1
102
RTVSPropertyOp59
 70
     1
102
RTVSPropertyOp60
 70
     1
102
RTVSPropertyOp61
 70
     1
102
RTVSPropertyOp62
 70
     1
  0
XRECORD
  5
9FAD
102
{ACAD_REACTORS
330
9FAC
102
}
330
9FAC
100
AcDbXrecord
280
     1
102
RTVSPost2010Prop28
280
     0
102
RTVSPost2010PropOp28
 70
     1
102
RTVSPost2010Prop29
280
     1
102
RTVSPost2010PropOp29
 70
     1
102
RTVSPost2010Prop30
280
     1
102
RTVSPost2010PropOp30
 70
     1
102
RTVSPost2010Prop31
280
     0
102
RTVSPost2010PropOp31
 70
     1
102
RTVSPost2010Prop32
280
     0
102
RTVSPost2010PropOp32
 70
     1
102
RTVSPost2010Prop33
280
     0
102
RTVSPost2010PropOp33
 70
     1
102
RTVSPost2010Prop34
280
     0
102
RTVSPost2010PropOp34
 70
     1
102
RTVSPost2010Prop35
280
     0
102
RTVSPost2010PropOp35
 70
     1
102
RTVSPost2010Prop36
280
     0
102
RTVSPost2010PropOp36
 70
     1
102
RTVSPost2010Prop37
 90
       50
102
RTVSPost2010PropOp37
 70
     1
102
RTVSPost2010Prop38
140
0.0
102
RTVSPost2010PropOp38
 70
     1
102
RTVSPost2010Prop39
140
1.0
102
RTVSPost2010PropOp39
 70
     1
102
RTVSPost2010Prop40
 90
        0
102
RTVSPost2010PropOp40
 70
     1
102
RTVSPost2010Prop41ColorIndex
 90
       18
102
RTVSPost2010Prop41ColorRGB
 90
        0
102
RTVSPost2010PropOp41
 70
     1
102
RTVSPost2010Prop42
 90
       50
102
RTVSPost2010PropOp42
 70
     1
102
RTVSPost2010Prop43
 90
        3
102
RTVSPost2010PropOp43
 70
     1
102
RTVSPost2010Prop44ColorIndex
 90
        5
102
RTVSPost2010Prop44ColorRGB
 90
      255
102
RTVSPost2010PropOp44
 70
     1
102
RTVSPost2010Prop45
280
     0
102
RTVSPost2010PropOp45
 70
     1
102
RTVSPost2010Prop46
 90
       50
102
RTVSPost2010PropOp46
 70
     1
102
RTVSPost2010Prop47
 90
       50
102
RTVSPost2010PropOp47
 70
     1
102
RTVSPost2010Prop48
 90
       50
102
RTVSPost2010PropOp48
 70
     1
102
RTVSPost2010Prop49
280
     0
102
RTVSPost2010PropOp49
 70
     1
102
RTVSPost2010Prop50
 90
       50
102
RTVSPost2010PropOp50
 70
     1
102
RTVSPost2010Prop51ColorIndex
 90
      256
102
RTVSPost2010Prop51ColorRGB
 90
-16777216
102
RTVSPost2010PropOp51
 70
     0
102
RTVSPost2010Prop52
140
1.0
102
RTVSPost2010PropOp52
 70
     0
102
RTVSPost2010Prop53
 90
        2
102
RTVSPost2010PropOp53
 70
     1
102
RTVSPost2010Prop54
  1
strokes_ogs.tif
102
RTVSPost2010PropOp54
 70
     1
102
RTVSPost2010Prop55
280
     0
102
RTVSPost2010PropOp55
 70
     1
102
RTVSPost2010Prop56
140
1.0
102
RTVSPost2010PropOp56
 70
     1
102
RTVSPost2010Prop57
140
1.0
102
RTVSPost2010PropOp57
 70
     1
102
RTVSPropertyOp0
 70
     1
102
RTVSPropertyOp1
 70
     1
102
RTVSPropertyOp2
 70
     1
102
RTVSPropertyOp3
 70
     1
102
RTVSPropertyOp4
 70
     1
102
RTVSPropertyOp5
 70
     1
102
RTVSPropertyOp6
 70
     1
102
RTVSPropertyOp7
 70
     1
102
RTVSPropertyOp8
 70
     1
102
RTVSPropertyOp9
 70
     1
102
RTVSPropertyOp10
 70
     1
102
RTVSPropertyOp11
 70
     1
102
RTVSPropertyOp12
 70
     1
102
RTVSPropertyOp13
 70
     1
102
RTVSPropertyOp14
 70
     1
102
RTVSPropertyOp15
 70
     1
102
RTVSPropertyOp16
 70
     1
102
RTVSPropertyOp17
 70
     1
102
RTVSPropertyOp18
 70
     1
102
RTVSPropertyOp19
 70
     1
102
RTVSPropertyOp20
 70
     1
102
RTVSPropertyOp21
 70
     1
102
RTVSPropertyOp22
 70
     1
102
RTVSPropertyOp23
 70
     1
102
RTVSPropertyOp24
 70
     1
102
RTVSPropertyOp25
 70
     1
102
RTVSPropertyOp26
 70
     1
102
RTVSPropertyOp27
 70
     1
102
RTVSPropertyOp28
 70
     1
102
RTVSPropertyOp29
 70
     1
102
RTVSPropertyOp30
 70
     1
102
RTVSPropertyOp31
 70
     1
102
RTVSPropertyOp32
 70
     1
102
RTVSPropertyOp33
 70
     1
102
RTVSPropertyOp34
 70
     1
102
RTVSPropertyOp35
 70
     1
102
RTVSPropertyOp36
 70
     1
102
RTVSPropertyOp37
 70
     1
102
RTVSPropertyOp38
 70
     1
102
RTVSPropertyOp39
 70
     1
102
RTVSPropertyOp40
 70
     1
102
RTVSPropertyOp41
 70
     1
102
RTVSPropertyOp42
 70
     1
102
RTVSPropertyOp43
 70
     1
102
RTVSPropertyOp44
 70
     1
102
RTVSPropertyOp45
 70
     1
102
RTVSPropertyOp46
 70
     1
102
RTVSPropertyOp47
 70
     1
102
RTVSPropertyOp48
 70
     1
102
RTVSPropertyOp49
 70
     1
102
RTVSPropertyOp50
 70
     1
102
RTVSPropertyOp51
 70
     0
102
RTVSPropertyOp52
 70
     0
102
RTVSPropertyOp53
 70
     1
102
RTVSPropertyOp54
 70
     1
102
RTVSPropertyOp55
 70
     1
102
RTVSPropertyOp56
 70
     1
102
RTVSPropertyOp57
 70
     1
102
RTVSPropertyOp58
 70
     1
102
RTVSPropertyOp59
 70
     1
102
RTVSPropertyOp60
 70
     1
102
RTVSPropertyOp61
 70
     1
102
RTVSPropertyOp62
 70
     1
  0
XRECORD
  5
9FA3
102
{ACAD_REACTORS
330
9FA2
102
}
330
9FA2
100
AcDbXrecord
280
     1
102
RTVSPost2010Prop28
280
     0
102
RTVSPost2010PropOp28
 70
     1
102
RTVSPost2010Prop29
280
     1
102
RTVSPost2010PropOp29
 70
     1
102
RTVSPost2010Prop30
280
     1
102
RTVSPost2010PropOp30
 70
     1
102
RTVSPost2010Prop31
280
     0
102
RTVSPost2010PropOp31
 70
     1
102
RTVSPost2010Prop32
280
     0
102
RTVSPost2010PropOp32
 70
     1
102
RTVSPost2010Prop33
280
     0
102
RTVSPost2010PropOp33
 70
     1
102
RTVSPost2010Prop34
280
     0
102
RTVSPost2010PropOp34
 70
     1
102
RTVSPost2010Prop35
280
     0
102
RTVSPost2010PropOp35
 70
     1
102
RTVSPost2010Prop36
280
     0
102
RTVSPost2010PropOp36
 70
     1
102
RTVSPost2010Prop37
 90
       50
102
RTVSPost2010PropOp37
 70
     1
102
RTVSPost2010Prop38
140
0.0
102
RTVSPost2010PropOp38
 70
     1
102
RTVSPost2010Prop39
140
1.0
102
RTVSPost2010PropOp39
 70
     1
102
RTVSPost2010Prop40
 90
        0
102
RTVSPost2010PropOp40
 70
     1
102
RTVSPost2010Prop41ColorIndex
 90
       18
102
RTVSPost2010Prop41ColorRGB
 90
        0
102
RTVSPost2010PropOp41
 70
     1
102
RTVSPost2010Prop42
 90
       50
102
RTVSPost2010PropOp42
 70
     1
102
RTVSPost2010Prop43
 90
        3
102
RTVSPost2010PropOp43
 70
     1
102
RTVSPost2010Prop44ColorIndex
 90
        5
102
RTVSPost2010Prop44ColorRGB
 90
      255
102
RTVSPost2010PropOp44
 70
     1
102
RTVSPost2010Prop45
280
     0
102
RTVSPost2010PropOp45
 70
     1
102
RTVSPost2010Prop46
 90
       50
102
RTVSPost2010PropOp46
 70
     1
102
RTVSPost2010Prop47
 90
       50
102
RTVSPost2010PropOp47
 70
     1
102
RTVSPost2010Prop48
 90
       50
102
RTVSPost2010PropOp48
 70
     1
102
RTVSPost2010Prop49
280
     0
102
RTVSPost2010PropOp49
 70
     1
102
RTVSPost2010Prop50
 90
       50
102
RTVSPost2010PropOp50
 70
     1
102
RTVSPost2010Prop51ColorIndex
 90
      256
102
RTVSPost2010Prop51ColorRGB
 90
-16777216
102
RTVSPost2010PropOp51
 70
     0
102
RTVSPost2010Prop52
140
1.0
102
RTVSPost2010PropOp52
 70
     0
102
RTVSPost2010Prop53
 90
        2
102
RTVSPost2010PropOp53
 70
     1
102
RTVSPost2010Prop54
  1
strokes_ogs.tif
102
RTVSPost2010PropOp54
 70
     1
102
RTVSPost2010Prop55
280
     0
102
RTVSPost2010PropOp55
 70
     1
102
RTVSPost2010Prop56
140
1.0
102
RTVSPost2010PropOp56
 70
     1
102
RTVSPost2010Prop57
140
1.0
102
RTVSPost2010PropOp57
 70
     1
102
RTVSPropertyOp0
 70
     1
102
RTVSPropertyOp1
 70
     1
102
RTVSPropertyOp2
 70
     1
102
RTVSPropertyOp3
 70
     1
102
RTVSPropertyOp4
 70
     1
102
RTVSPropertyOp5
 70
     1
102
RTVSPropertyOp6
 70
     1
102
RTVSPropertyOp7
 70
     1
102
RTVSPropertyOp8
 70
     1
102
RTVSPropertyOp9
 70
     1
102
RTVSPropertyOp10
 70
     1
102
RTVSPropertyOp11
 70
     1
102
RTVSPropertyOp12
 70
     1
102
RTVSPropertyOp13
 70
     1
102
RTVSPropertyOp14
 70
     1
102
RTVSPropertyOp15
 70
     1
102
RTVSPropertyOp16
 70
     1
102
RTVSPropertyOp17
 70
     1
102
RTVSPropertyOp18
 70
     1
102
RTVSPropertyOp19
 70
     1
102
RTVSPropertyOp20
 70
     1
102
RTVSPropertyOp21
 70
     1
102
RTVSPropertyOp22
 70
     1
102
RTVSPropertyOp23
 70
     1
102
RTVSPropertyOp24
 70
     1
102
RTVSPropertyOp25
 70
     1
102
RTVSPropertyOp26
 70
     1
102
RTVSPropertyOp27
 70
     1
102
RTVSPropertyOp28
 70
     1
102
RTVSPropertyOp29
 70
     1
102
RTVSPropertyOp30
 70
     1
102
RTVSPropertyOp31
 70
     1
102
RTVSPropertyOp32
 70
     1
102
RTVSPropertyOp33
 70
     1
102
RTVSPropertyOp34
 70
     1
102
RTVSPropertyOp35
 70
     1
102
RTVSPropertyOp36
 70
     1
102
RTVSPropertyOp37
 70
     1
102
RTVSPropertyOp38
 70
     1
102
RTVSPropertyOp39
 70
     1
102
RTVSPropertyOp40
 70
     1
102
RTVSPropertyOp41
 70
     1
102
RTVSPropertyOp42
 70
     1
102
RTVSPropertyOp43
 70
     1
102
RTVSPropertyOp44
 70
     1
102
RTVSPropertyOp45
 70
     1
102
RTVSPropertyOp46
 70
     1
102
RTVSPropertyOp47
 70
     1
102
RTVSPropertyOp48
 70
     1
102
RTVSPropertyOp49
 70
     1
102
RTVSPropertyOp50
 70
     1
102
RTVSPropertyOp51
 70
     0
102
RTVSPropertyOp52
 70
     0
102
RTVSPropertyOp53
 70
     1
102
RTVSPropertyOp54
 70
     1
102
RTVSPropertyOp55
 70
     1
102
RTVSPropertyOp56
 70
     1
102
RTVSPropertyOp57
 70
     1
102
RTVSPropertyOp58
 70
     1
102
RTVSPropertyOp59
 70
     1
102
RTVSPropertyOp60
 70
     1
102
RTVSPropertyOp61
 70
     1
102
RTVSPropertyOp62
 70
     1
  0
XRECORD
  5
9F97
102
{ACAD_REACTORS
330
9F96
102
}
330
9F96
100
AcDbXrecord
280
     1
102
RTVSPost2010Prop28
280
     0
102
RTVSPost2010PropOp28
 70
     1
102
RTVSPost2010Prop29
280
     1
102
RTVSPost2010PropOp29
 70
     1
102
RTVSPost2010Prop30
280
     1
102
RTVSPost2010PropOp30
 70
     1
102
RTVSPost2010Prop31
280
     0
102
RTVSPost2010PropOp31
 70
     1
102
RTVSPost2010Prop32
280
     0
102
RTVSPost2010PropOp32
 70
     1
102
RTVSPost2010Prop33
280
     0
102
RTVSPost2010PropOp33
 70
     1
102
RTVSPost2010Prop34
280
     0
102
RTVSPost2010PropOp34
 70
     1
102
RTVSPost2010Prop35
280
     0
102
RTVSPost2010PropOp35
 70
     1
102
RTVSPost2010Prop36
280
     0
102
RTVSPost2010PropOp36
 70
     1
102
RTVSPost2010Prop37
 90
       50
102
RTVSPost2010PropOp37
 70
     1
102
RTVSPost2010Prop38
140
0.0
102
RTVSPost2010PropOp38
 70
     1
102
RTVSPost2010Prop39
140
1.0
102
RTVSPost2010PropOp39
 70
     1
102
RTVSPost2010Prop40
 90
        0
102
RTVSPost2010PropOp40
 70
     1
102
RTVSPost2010Prop41ColorIndex
 90
       18
102
RTVSPost2010Prop41ColorRGB
 90
        0
102
RTVSPost2010PropOp41
 70
     1
102
RTVSPost2010Prop42
 90
       50
102
RTVSPost2010PropOp42
 70
     1
102
RTVSPost2010Prop43
 90
        3
102
RTVSPost2010PropOp43
 70
     1
102
RTVSPost2010Prop44ColorIndex
 90
        5
102
RTVSPost2010Prop44ColorRGB
 90
      255
102
RTVSPost2010PropOp44
 70
     1
102
RTVSPost2010Prop45
280
     0
102
RTVSPost2010PropOp45
 70
     1
102
RTVSPost2010Prop46
 90
       50
102
RTVSPost2010PropOp46
 70
     1
102
RTVSPost2010Prop47
 90
       50
102
RTVSPost2010PropOp47
 70
     1
102
RTVSPost2010Prop48
 90
       50
102
RTVSPost2010PropOp48
 70
     1
102
RTVSPost2010Prop49
280
     0
102
RTVSPost2010PropOp49
 70
     1
102
RTVSPost2010Prop50
 90
       50
102
RTVSPost2010PropOp50
 70
     1
102
RTVSPost2010Prop51ColorIndex
 90
      256
102
RTVSPost2010Prop51ColorRGB
 90
-16777216
102
RTVSPost2010PropOp51
 70
     0
102
RTVSPost2010Prop52
140
1.0
102
RTVSPost2010PropOp52
 70
     0
102
RTVSPost2010Prop53
 90
        2
102
RTVSPost2010PropOp53
 70
     1
102
RTVSPost2010Prop54
  1
strokes_ogs.tif
102
RTVSPost2010PropOp54
 70
     1
102
RTVSPost2010Prop55
280
     0
102
RTVSPost2010PropOp55
 70
     1
102
RTVSPost2010Prop56
140
1.0
102
RTVSPost2010PropOp56
 70
     1
102
RTVSPost2010Prop57
140
1.0
102
RTVSPost2010PropOp57
 70
     1
102
RTVSPropertyOp0
 70
     1
102
RTVSPropertyOp1
 70
     1
102
RTVSPropertyOp2
 70
     1
102
RTVSPropertyOp3
 70
     1
102
RTVSPropertyOp4
 70
     1
102
RTVSPropertyOp5
 70
     1
102
RTVSPropertyOp6
 70
     1
102
RTVSPropertyOp7
 70
     1
102
RTVSPropertyOp8
 70
     1
102
RTVSPropertyOp9
 70
     1
102
RTVSPropertyOp10
 70
     1
102
RTVSPropertyOp11
 70
     1
102
RTVSPropertyOp12
 70
     1
102
RTVSPropertyOp13
 70
     1
102
RTVSPropertyOp14
 70
     1
102
RTVSPropertyOp15
 70
     1
102
RTVSPropertyOp16
 70
     1
102
RTVSPropertyOp17
 70
     1
102
RTVSPropertyOp18
 70
     1
102
RTVSPropertyOp19
 70
     1
102
RTVSPropertyOp20
 70
     1
102
RTVSPropertyOp21
 70
     1
102
RTVSPropertyOp22
 70
     1
102
RTVSPropertyOp23
 70
     1
102
RTVSPropertyOp24
 70
     1
102
RTVSPropertyOp25
 70
     1
102
RTVSPropertyOp26
 70
     1
102
RTVSPropertyOp27
 70
     1
102
RTVSPropertyOp28
 70
     1
102
RTVSPropertyOp29
 70
     1
102
RTVSPropertyOp30
 70
     1
102
RTVSPropertyOp31
 70
     1
102
RTVSPropertyOp32
 70
     1
102
RTVSPropertyOp33
 70
     1
102
RTVSPropertyOp34
 70
     1
102
RTVSPropertyOp35
 70
     1
102
RTVSPropertyOp36
 70
     1
102
RTVSPropertyOp37
 70
     1
102
RTVSPropertyOp38
 70
     1
102
RTVSPropertyOp39
 70
     1
102
RTVSPropertyOp40
 70
     1
102
RTVSPropertyOp41
 70
     1
102
RTVSPropertyOp42
 70
     1
102
RTVSPropertyOp43
 70
     1
102
RTVSPropertyOp44
 70
     1
102
RTVSPropertyOp45
 70
     1
102
RTVSPropertyOp46
 70
     1
102
RTVSPropertyOp47
 70
     1
102
RTVSPropertyOp48
 70
     1
102
RTVSPropertyOp49
 70
     1
102
RTVSPropertyOp50
 70
     1
102
RTVSPropertyOp51
 70
     0
102
RTVSPropertyOp52
 70
     0
102
RTVSPropertyOp53
 70
     1
102
RTVSPropertyOp54
 70
     1
102
RTVSPropertyOp55
 70
     1
102
RTVSPropertyOp56
 70
     1
102
RTVSPropertyOp57
 70
     1
102
RTVSPropertyOp58
 70
     1
102
RTVSPropertyOp59
 70
     1
102
RTVSPropertyOp60
 70
     1
102
RTVSPropertyOp61
 70
     1
102
RTVSPropertyOp62
 70
     1
  0
XRECORD
  5
9FAF
102
{ACAD_REACTORS
330
9FAE
102
}
330
9FAE
100
AcDbXrecord
280
     1
102
RTVSPost2010Prop28
280
     0
102
RTVSPost2010PropOp28
 70
     1
102
RTVSPost2010Prop29
280
     1
102
RTVSPost2010PropOp29
 70
     1
102
RTVSPost2010Prop30
280
     1
102
RTVSPost2010PropOp30
 70
     1
102
RTVSPost2010Prop31
280
     0
102
RTVSPost2010PropOp31
 70
     1
102
RTVSPost2010Prop32
280
     0
102
RTVSPost2010PropOp32
 70
     1
102
RTVSPost2010Prop33
280
     0
102
RTVSPost2010PropOp33
 70
     1
102
RTVSPost2010Prop34
280
     0
102
RTVSPost2010PropOp34
 70
     1
102
RTVSPost2010Prop35
280
     0
102
RTVSPost2010PropOp35
 70
     1
102
RTVSPost2010Prop36
280
     0
102
RTVSPost2010PropOp36
 70
     1
102
RTVSPost2010Prop37
 90
       50
102
RTVSPost2010PropOp37
 70
     1
102
RTVSPost2010Prop38
140
0.0
102
RTVSPost2010PropOp38
 70
     1
102
RTVSPost2010Prop39
140
1.0
102
RTVSPost2010PropOp39
 70
     1
102
RTVSPost2010Prop40
 90
        0
102
RTVSPost2010PropOp40
 70
     1
102
RTVSPost2010Prop41ColorIndex
 90
       18
102
RTVSPost2010Prop41ColorRGB
 90
        0
102
RTVSPost2010PropOp41
 70
     1
102
RTVSPost2010Prop42
 90
       50
102
RTVSPost2010PropOp42
 70
     1
102
RTVSPost2010Prop43
 90
        3
102
RTVSPost2010PropOp43
 70
     1
102
RTVSPost2010Prop44ColorIndex
 90
        5
102
RTVSPost2010Prop44ColorRGB
 90
      255
102
RTVSPost2010PropOp44
 70
     1
102
RTVSPost2010Prop45
280
     0
102
RTVSPost2010PropOp45
 70
     1
102
RTVSPost2010Prop46
 90
       50
102
RTVSPost2010PropOp46
 70
     1
102
RTVSPost2010Prop47
 90
       50
102
RTVSPost2010PropOp47
 70
     1
102
RTVSPost2010Prop48
 90
       50
102
RTVSPost2010PropOp48
 70
     1
102
RTVSPost2010Prop49
280
     0
102
RTVSPost2010PropOp49
 70
     1
102
RTVSPost2010Prop50
 90
       50
102
RTVSPost2010PropOp50
 70
     1
102
RTVSPost2010Prop51ColorIndex
 90
      256
102
RTVSPost2010Prop51ColorRGB
 90
-16777216
102
RTVSPost2010PropOp51
 70
     0
102
RTVSPost2010Prop52
140
1.0
102
RTVSPost2010PropOp52
 70
     0
102
RTVSPost2010Prop53
 90
        2
102
RTVSPost2010PropOp53
 70
     1
102
RTVSPost2010Prop54
  1
strokes_ogs.tif
102
RTVSPost2010PropOp54
 70
     1
102
RTVSPost2010Prop55
280
     0
102
RTVSPost2010PropOp55
 70
     1
102
RTVSPost2010Prop56
140
1.0
102
RTVSPost2010PropOp56
 70
     1
102
RTVSPost2010Prop57
140
1.0
102
RTVSPost2010PropOp57
 70
     1
102
RTVSPropertyOp0
 70
     1
102
RTVSPropertyOp1
 70
     1
102
RTVSPropertyOp2
 70
     1
102
RTVSPropertyOp3
 70
     1
102
RTVSPropertyOp4
 70
     1
102
RTVSPropertyOp5
 70
     1
102
RTVSPropertyOp6
 70
     1
102
RTVSPropertyOp7
 70
     1
102
RTVSPropertyOp8
 70
     1
102
RTVSPropertyOp9
 70
     1
102
RTVSPropertyOp10
 70
     1
102
RTVSPropertyOp11
 70
     1
102
RTVSPropertyOp12
 70
     1
102
RTVSPropertyOp13
 70
     1
102
RTVSPropertyOp14
 70
     1
102
RTVSPropertyOp15
 70
     1
102
RTVSPropertyOp16
 70
     1
102
RTVSPropertyOp17
 70
     1
102
RTVSPropertyOp18
 70
     1
102
RTVSPropertyOp19
 70
     1
102
RTVSPropertyOp20
 70
     1
102
RTVSPropertyOp21
 70
     1
102
RTVSPropertyOp22
 70
     1
102
RTVSPropertyOp23
 70
     1
102
RTVSPropertyOp24
 70
     1
102
RTVSPropertyOp25
 70
     1
102
RTVSPropertyOp26
 70
     1
102
RTVSPropertyOp27
 70
     1
102
RTVSPropertyOp28
 70
     1
102
RTVSPropertyOp29
 70
     1
102
RTVSPropertyOp30
 70
     1
102
RTVSPropertyOp31
 70
     1
102
RTVSPropertyOp32
 70
     1
102
RTVSPropertyOp33
 70
     1
102
RTVSPropertyOp34
 70
     1
102
RTVSPropertyOp35
 70
     1
102
RTVSPropertyOp36
 70
     1
102
RTVSPropertyOp37
 70
     1
102
RTVSPropertyOp38
 70
     1
102
RTVSPropertyOp39
 70
     1
102
RTVSPropertyOp40
 70
     1
102
RTVSPropertyOp41
 70
     1
102
RTVSPropertyOp42
 70
     1
102
RTVSPropertyOp43
 70
     1
102
RTVSPropertyOp44
 70
     1
102
RTVSPropertyOp45
 70
     1
102
RTVSPropertyOp46
 70
     1
102
RTVSPropertyOp47
 70
     1
102
RTVSPropertyOp48
 70
     1
102
RTVSPropertyOp49
 70
     1
102
RTVSPropertyOp50
 70
     1
102
RTVSPropertyOp51
 70
     0
102
RTVSPropertyOp52
 70
     0
102
RTVSPropertyOp53
 70
     1
102
RTVSPropertyOp54
 70
     1
102
RTVSPropertyOp55
 70
     1
102
RTVSPropertyOp56
 70
     1
102
RTVSPropertyOp57
 70
     1
102
RTVSPropertyOp58
 70
     1
102
RTVSPropertyOp59
 70
     1
102
RTVSPropertyOp60
 70
     1
102
RTVSPropertyOp61
 70
     1
102
RTVSPropertyOp62
 70
     1
  0
ENDSEC
  0
EOF
